  0
SECTION
  2
HEADER
  9
$ACADVER
  1
AC1014
  9
$ACADMAINTVER
 70
     9
  9
$DWGCODEPAGE
  3
ANSI_1252
  9
$INSBASE
 10
0.0
 20
0.0
 30
0.0
  9
$EXTMIN
 10
14.60401030992809
 20
10.58247216225745
 30
-0.0000000349181977
  9
$EXTMAX
 10
35.4318302399794
 20
30.24666443905696
 30
0.0000000814935717
  9
$LIMMIN
 10
-0.5
 20
-0.5
  9
$LIMMAX
 10
5.0
 20
5.0
  9
$ORTHOMODE
 70
     0
  9
$REGENMODE
 70
     1
  9
$FILLMODE
 70
     1
  9
$QTEXTMODE
 70
     0
  9
$MIRRTEXT
 70
     1
  9
$DRAGMODE
 70
     2
  9
$LTSCALE
 40
1.0
  9
$OSMODE
 70
    37
  9
$ATTMODE
 70
     1
  9
$TEXTSIZE
 40
0.0
  9
$TRACEWID
 40
0.05
  9
$TEXTSTYLE
  7
STANDARD
  9
$CLAYER
  8
0
  9
$CELTYPE
  6
CONTINUOUS
  9
$CECOLOR
 62
   256
  9
$CELTSCALE
 40
1.0
  9
$DELOBJ
 70
     1
  9
$DISPSILH
 70
     0
  9
$DIMSCALE
 40
1.0
  9
$DIMASZ
 40
0.18
  9
$DIMEXO
 40
0.0625
  9
$DIMDLI
 40
0.38
  9
$DIMRND
 40
0.0
  9
$DIMDLE
 40
0.0
  9
$DIMEXE
 40
0.18
  9
$DIMTP
 40
0.0
  9
$DIMTM
 40
0.0
  9
$DIMTXT
 40
0.18
  9
$DIMCEN
 40
0.09
  9
$DIMTSZ
 40
0.0
  9
$DIMTOL
 70
     0
  9
$DIMLIM
 70
     0
  9
$DIMTIH
 70
     1
  9
$DIMTOH
 70
     1
  9
$DIMSE1
 70
     0
  9
$DIMSE2
 70
     0
  9
$DIMTAD
 70
     0
  9
$DIMZIN
 70
     0
  9
$DIMBLK
  1

  9
$DIMASO
 70
     1
  9
$DIMSHO
 70
     1
  9
$DIMPOST
  1

  9
$DIMAPOST
  1

  9
$DIMALT
 70
     0
  9
$DIMALTD
 70
     2
  9
$DIMALTF
 40
25.4
  9
$DIMLFAC
 40
1.0
  9
$DIMTOFL
 70
     0
  9
$DIMTVP
 40
0.0
  9
$DIMTIX
 70
     0
  9
$DIMSOXD
 70
     0
  9
$DIMSAH
 70
     0
  9
$DIMBLK1
  1

  9
$DIMBLK2
  1

  9
$DIMSTYLE
  2
STANDARD
  9
$DIMCLRD
 70
     0
  9
$DIMCLRE
 70
     0
  9
$DIMCLRT
 70
     0
  9
$DIMTFAC
 40
1.0
  9
$DIMGAP
 40
0.09
  9
$DIMJUST
 70
     0
  9
$DIMSD1
 70
     0
  9
$DIMSD2
 70
     0
  9
$DIMTOLJ
 70
     1
  9
$DIMTZIN
 70
     0
  9
$DIMALTZ
 70
     0
  9
$DIMALTTZ
 70
     0
  9
$DIMFIT
 70
     3
  9
$DIMUPT
 70
     0
  9
$DIMUNIT
 70
     2
  9
$DIMDEC
 70
     4
  9
$DIMTDEC
 70
     4
  9
$DIMALTU
 70
     2
  9
$DIMALTTD
 70
     2
  9
$DIMTXSTY
  7
STANDARD
  9
$DIMAUNIT
 70
     0
  9
$LUNITS
 70
     2
  9
$LUPREC
 70
     4
  9
$SKETCHINC
 40
0.1
  9
$FILLETRAD
 40
0.0
  9
$AUNITS
 70
     0
  9
$AUPREC
 70
     0
  9
$MENU
  1
acad
  9
$ELEVATION
 40
0.0
  9
$PELEVATION
 40
0.0
  9
$THICKNESS
 40
0.0
  9
$LIMCHECK
 70
     0
  9
$BLIPMODE
 70
     0
  9
$CHAMFERA
 40
0.0
  9
$CHAMFERB
 40
0.0
  9
$CHAMFERC
 40
0.0
  9
$CHAMFERD
 40
0.0
  9
$SKPOLY
 70
     0
  9
$TDCREATE
 40
2454263.537670035
  9
$TDUPDATE
 40
2454263.539942719
  9
$TDINDWG
 40
0.0022743171
  9
$TDUSRTIMER
 40
0.0022743171
  9
$USRTIMER
 70
     1
  9
$ANGBASE
 50
0.0
  9
$ANGDIR
 70
     0
  9
$PDMODE
 70
     0
  9
$PDSIZE
 40
0.0
  9
$PLINEWID
 40
0.0
  9
$COORDS
 70
     1
  9
$SPLFRAME
 70
     0
  9
$SPLINETYPE
 70
     6
  9
$SPLINESEGS
 70
     8
  9
$ATTDIA
 70
     0
  9
$ATTREQ
 70
     1
  9
$HANDLING
 70
-16383
  9
$HANDSEED
  5
62F
  9
$SURFTAB1
 70
     6
  9
$SURFTAB2
 70
     6
  9
$SURFTYPE
 70
     6
  9
$SURFU
 70
     6
  9
$SURFV
 70
     6
  9
$UCSNAME
  2

  9
$UCSORG
 10
0.0
 20
0.0
 30
0.0
  9
$UCSXDIR
 10
1.0
 20
0.0
 30
0.0
  9
$UCSYDIR
 10
0.0
 20
1.0
 30
0.0
  9
$PUCSNAME
  2

  9
$PUCSORG
 10
0.0
 20
0.0
 30
0.0
  9
$PUCSXDIR
 10
1.0
 20
0.0
 30
0.0
  9
$PUCSYDIR
 10
0.0
 20
1.0
 30
0.0
  9
$USERI1
 70
     0
  9
$USERI2
 70
     0
  9
$USERI3
 70
     0
  9
$USERI4
 70
     0
  9
$USERI5
 70
     0
  9
$USERR1
 40
0.0
  9
$USERR2
 40
0.0
  9
$USERR3
 40
0.0
  9
$USERR4
 40
0.0
  9
$USERR5
 40
0.0
  9
$WORLDVIEW
 70
     1
  9
$SHADEDGE
 70
     3
  9
$SHADEDIF
 70
    70
  9
$TILEMODE
 70
     1
  9
$MAXACTVP
 70
    64
  9
$PINSBASE
 10
0.0
 20
0.0
 30
0.0
  9
$PLIMCHECK
 70
     0
  9
$PEXTMIN
 10
1.000000000000000E+20
 20
1.000000000000000E+20
 30
1.000000000000000E+20
  9
$PEXTMAX
 10
-1.000000000000000E+20
 20
-1.000000000000000E+20
 30
-1.000000000000000E+20
  9
$PLIMMIN
 10
-0.666666826863927
 20
-0.6666666579058789
  9
$PLIMMAX
 10
10.33333293284018
 20
7.833333101798229
  9
$UNITMODE
 70
     0
  9
$VISRETAIN
 70
     0
  9
$PLINEGEN
 70
     1
  9
$PSLTSCALE
 70
     0
  9
$TREEDEPTH
 70
  3020
  9
$PICKSTYLE
 70
     1
  9
$CMLSTYLE
  2
STANDARD
  9
$CMLJUST
 70
     0
  9
$CMLSCALE
 40
1.0
  9
$PROXYGRAPHICS
 70
     0
  9
$MEASUREMENT
 70
     0
  0
ENDSEC
  0
SECTION
  2
CLASSES
  0
CLASS
  1
LWPOLYLINE
  2
AcDbPolyline
  3
AutoCAD 2000
 90
        0
280
     0
281
     1
  0
CLASS
  1
IMAGE
  2
AcDbRasterImage
  3
ISM
 90
      127
280
     0
281
     1
  0
CLASS
  1
OLE2FRAME
  2
AcDbOle2Frame
  3
AutoCAD 2000
 90
        0
280
     0
281
     1
  0
CLASS
  1
HATCH
  2
AcDbHatch
  3
AutoCAD 2000
 90
        0
280
     0
281
     1
  0
CLASS
  1
DICTIONARYVAR
  2
AcDbDictionaryVar
  3
AutoCAD 2000
 90
        0
280
     0
281
     0
  0
CLASS
  1
RASTERVARIABLES
  2
AcDbRasterVariables
  3
ISM
 90
        0
280
     0
281
     0
  0
CLASS
  1
IMAGEDEF
  2
AcDbRasterImageDef
  3
ISM
 90
        0
280
     0
281
     0
  0
CLASS
  1
IMAGEDEF_REACTOR
  2
AcDbRasterImageDefReactor
  3
ISM
 90
        1
280
     0
281
     0
  0
CLASS
  1
IDBUFFER
  2
AcDbIdBuffer
  3
AutoCAD 2000
 90
        0
280
     0
281
     0
  0
CLASS
  1
SPATIAL_FILTER
  2
AcDbSpatialFilter
  3
AutoCAD 2000
 90
        0
280
     0
281
     0
  0
CLASS
  1
XRECORD
  2
AcDbXrecord
  3
AutoCAD 2000
 90
        0
280
     0
281
     0
  0
CLASS
  1
SORTENTSTABLE
  2
AcDbSortentsTable
  3
AutoCAD 2000
 90
        0
280
     0
281
     0
  0
CLASS
  1
LAYER_INDEX
  2
AcDbLayerIndex
  3
AutoCAD 2000
 90
        0
280
     0
281
     0
  0
CLASS
  1
SPATIAL_INDEX
  2
AcDbSpatialIndex
  3
AutoCAD 2000
 90
        0
280
     0
281
     0
  0
CLASS
  1
OBJECT_PTR
  2
CAseDLPNTableRecord
  3
ASE-LPNTableRecord
 90
        1
280
     0
281
     0
  0
CLASS
  1
LAYOUT
  2
AcDbLayout
  3
AutoCAD 2000
 90
        0
280
     0
281
     0
  0
CLASS
  1
PLOTSETTINGS
  2
AcDbPlotSettings
  3
AutoCAD 2000
 90
        0
280
     0
281
     0
  0
CLASS
  1
ACDBDICTIONARYWDFLT
  2
AcDbDictionaryWithDefault
  3
AutoCAD 2000
 90
        0
280
     0
281
     0
  0
CLASS
  1
ACDBPLACEHOLDER
  2
AcDbPlaceHolder
  3
AutoCAD 2000
 90
        0
280
     0
281
     0
  0
CLASS
  1
VBA_PROJECT
  2
AcDbVbaProject
  3
acadvba
 90
        0
280
     0
281
     0
  0
CLASS
  1
WIPEOUT
  2
AcDbWipeout
  3
WipeOut|AutoCAD Express Tool|expresstools@autodesk.com
 90
      127
280
     0
281
     1
  0
CLASS
  1
WIPEOUTVARIABLES
  2
AcDbWipeoutVariables
  3
WipeOut|AutoCAD Express Tool|expresstools@autodesk.com
 90
        0
280
     0
281
     0
  0
CLASS
  1
RTEXT
  2
RText
  3
RText|AutoCAD Express Tool|expresstools@autodesk.com
 90
        0
280
     0
281
     1
  0
CLASS
  1
ARCALIGNEDTEXT
  2
AcDbArcAlignedText
  3
ATEXT|AutoCAD Express Tool|expresstools@autodesk.com
 90
        0
280
     0
281
     1
  0
CLASS
  1
ACAD_PROXY_OBJECT_WRAPPER
  2
AcDbProxyObjectWrapper
  3
AutoCAD 2000
 90
        0
280
     0
281
     0
  0
CLASS
  1
LONG_TRANSACTION
  2
AcDbLongTransaction
  3
AutoCAD 2000
 90
        0
280
     0
281
     0
  0
CLASS
  1
LWPOLYLINE
  2
AcDbPolyline
  3
AutoCAD 2000
 90
        0
280
     0
281
     1
  0
CLASS
  1
HATCH
  2
AcDbHatch
  3
AutoCAD 2000
 90
        0
280
     0
281
     1
  0
CLASS
  1
XRECORD
  2
AcDbXrecord
  3
AutoCAD 2000
 90
        0
280
     0
281
     0
  0
ENDSEC
  0
SECTION
  2
TABLES
  0
TABLE
  2
VPORT
  5
7
330
0
100
AcDbSymbolTable
 70
    18
  0
VPORT
  5
57F
330
7
100
AcDbSymbolTableRecord
100
AcDbViewportTableRecord
  2
L1
 70
     0
 10
0.0
 20
0.0
 11
1.0
 21
1.0
 12
0.0
 22
0.0
 13
0.0
 23
0.0
 14
1.0
 24
1.0
 15
0.0
 25
0.0
 16
0.7188730927569434
 26
-0.5850486126764432
 36
0.3754192287502549
 17
0.0
 27
0.0
 37
0.0
 40
53.40154639799796
 41
0.688564
 42
50.0
 43
26.53168672477521
 44
-26.53168672477521
 50
0.0
 51
0.0
 71
    16
 72
   100
 73
     1
 74
     1
 75
     0
 76
     0
 77
     0
 78
     0
  0
VPORT
  5
580
330
7
100
AcDbSymbolTableRecord
100
AcDbViewportTableRecord
  2
L2
 70
     0
 10
0.0
 20
0.0
 11
0.5
 21
1.0
 12
0.0
 22
0.0
 13
0.0
 23
0.0
 14
1.0
 24
1.0
 15
0.0
 25
0.0
 16
0.0
 26
-1.0
 36
0.0
 17
0.0
 27
0.0
 37
0.0
 40
51.7691448288297
 41
0.688564
 42
50.0
 43
26.45446031615208
 44
-26.45446031615208
 50
0.0
 51
0.0
 71
    16
 72
   100
 73
     1
 74
     1
 75
     0
 76
     0
 77
     0
 78
     0
  0
VPORT
  5
581
330
7
100
AcDbSymbolTableRecord
100
AcDbViewportTableRecord
  2
L2
 70
     0
 10
0.5
 20
0.0
 11
1.0
 21
1.0
 12
0.0
 22
0.0
 13
0.0
 23
0.0
 14
1.0
 24
1.0
 15
0.0
 25
0.0
 16
1.0
 26
0.0
 36
0.0
 17
0.0
 27
0.0
 37
0.0
 40
51.7691448288297
 41
0.688564
 42
50.0
 43
26.31197895613815
 44
-26.31197895613815
 50
0.0
 51
0.0
 71
    16
 72
   100
 73
     1
 74
     1
 75
     0
 76
     0
 77
     0
 78
     0
  0
VPORT
  5
582
330
7
100
AcDbSymbolTableRecord
100
AcDbViewportTableRecord
  2
L3
 70
     0
 10
0.0
 20
0.5
 11
1.0
 21
1.0
 12
0.0
 22
0.0
 13
0.0
 23
0.0
 14
1.0
 24
1.0
 15
0.0
 25
0.0
 16
0.0
 26
0.0
 36
1.0
 17
0.0
 27
0.0
 37
0.0
 40
9.446512057086614
 41
0.688564
 42
50.0
 43
25.88457241441485
 44
-25.88457241441485
 50
0.0
 51
0.0
 71
    16
 72
   100
 73
     1
 74
     1
 75
     0
 76
     0
 77
     0
 78
     0
  0
VPORT
  5
583
330
7
100
AcDbSymbolTableRecord
100
AcDbViewportTableRecord
  2
L3
 70
     0
 10
0.0
 20
0.0
 11
1.0
 21
0.5
 12
0.0
 22
0.0
 13
0.0
 23
0.0
 14
1.0
 24
1.0
 15
0.0
 25
0.0
 16
0.0
 26
-1.0
 36
0.0
 17
0.0
 27
0.0
 37
0.0
 40
51.7691448288297
 41
0.688564
 42
50.0
 43
26.45446031615208
 44
-26.45446031615208
 50
0.0
 51
0.0
 71
    16
 72
   100
 73
     1
 74
     1
 75
     0
 76
     0
 77
     0
 78
     0
  0
VPORT
  5
584
330
7
100
AcDbSymbolTableRecord
100
AcDbViewportTableRecord
  2
L4
 70
     0
 10
0.0
 20
0.5
 11
0.5
 21
1.0
 12
0.0
 22
0.0
 13
0.0
 23
0.0
 14
1.0
 24
1.0
 15
0.0
 25
0.0
 16
0.0
 26
0.0
 36
1.0
 17
0.0
 27
0.0
 37
0.0
 40
9.446512057086614
 41
0.688564
 42
50.0
 43
25.88457241441485
 44
-25.88457241441485
 50
0.0
 51
0.0
 71
    16
 72
   100
 73
     1
 74
     1
 75
     0
 76
     0
 77
     0
 78
     0
  0
VPORT
  5
585
330
7
100
AcDbSymbolTableRecord
100
AcDbViewportTableRecord
  2
L4
 70
     0
 10
0.0
 20
0.0
 11
0.5
 21
0.5
 12
0.0
 22
0.0
 13
0.0
 23
0.0
 14
1.0
 24
1.0
 15
0.0
 25
0.0
 16
0.0
 26
-1.0
 36
0.0
 17
0.0
 27
0.0
 37
0.0
 40
51.7691448288297
 41
0.688564
 42
50.0
 43
26.45446031615208
 44
-26.45446031615208
 50
0.0
 51
0.0
 71
    16
 72
   100
 73
     1
 74
     1
 75
     0
 76
     0
 77
     0
 78
     0
  0
VPORT
  5
586
330
7
100
AcDbSymbolTableRecord
100
AcDbViewportTableRecord
  2
L4
 70
     0
 10
0.5
 20
0.0
 11
1.0
 21
0.5
 12
0.0
 22
0.0
 13
0.0
 23
0.0
 14
1.0
 24
1.0
 15
0.0
 25
0.0
 16
1.0
 26
0.0
 36
0.0
 17
0.0
 27
0.0
 37
0.0
 40
51.7691448288297
 41
0.688564
 42
50.0
 43
26.31197895613815
 44
-26.31197895613815
 50
0.0
 51
0.0
 71
    16
 72
   100
 73
     1
 74
     1
 75
     0
 76
     0
 77
     0
 78
     0
  0
VPORT
  5
587
330
7
100
AcDbSymbolTableRecord
100
AcDbViewportTableRecord
  2
L4
 70
     0
 10
0.5
 20
0.5
 11
1.0
 21
1.0
 12
0.0
 22
0.0
 13
0.0
 23
0.0
 14
1.0
 24
1.0
 15
0.0
 25
0.0
 16
0.5773502691896259
 26
-0.5773502691896259
 36
0.5773502691896259
 17
0.0
 27
0.0
 37
0.0
 40
50.5851033218866
 41
0.688564
 42
50.0
 43
26.2978561310996
 44
-26.2978561310996
 50
0.0
 51
0.0
 71
    16
 72
   100
 73
     1
 74
     1
 75
     0
 76
     0
 77
     0
 78
     0
  0
VPORT
  5
588
330
7
100
AcDbSymbolTableRecord
100
AcDbViewportTableRecord
  2
L6
 70
     0
 10
0.0
 20
0.5
 11
0.3333333333333334
 21
1.0
 12
0.0
 22
0.0
 13
0.0
 23
0.0
 14
1.0
 24
1.0
 15
0.0
 25
0.0
 16
0.7188730927569434
 26
-0.5850486126764432
 36
0.3754192287502549
 17
0.0
 27
0.0
 37
0.0
 40
53.40154639799796
 41
0.688564
 42
50.0
 43
26.53168672477521
 44
-26.53168672477521
 50
0.0
 51
0.0
 71
    16
 72
   100
 73
     1
 74
     1
 75
     0
 76
     0
 77
     0
 78
     0
  0
VPORT
  5
589
330
7
100
AcDbSymbolTableRecord
100
AcDbViewportTableRecord
  2
L6
 70
     0
 10
0.0
 20
0.0
 11
0.3333333333333334
 21
0.5
 12
0.0
 22
0.0
 13
0.0
 23
0.0
 14
1.0
 24
1.0
 15
0.0
 25
0.0
 16
-1.0
 26
0.0
 36
0.0
 17
0.0
 27
0.0
 37
0.0
 40
51.7691448288297
 41
0.688564
 42
50.0
 43
26.31197895613815
 44
-26.31197895613815
 50
0.0
 51
0.0
 71
    16
 72
   100
 73
     1
 74
     1
 75
     0
 76
     0
 77
     0
 78
     0
  0
VPORT
  5
58A
330
7
100
AcDbSymbolTableRecord
100
AcDbViewportTableRecord
  2
L6
 70
     0
 10
0.3333333333333334
 20
0.5
 11
0.6666666666666666
 21
1.0
 12
0.0
 22
0.0
 13
0.0
 23
0.0
 14
1.0
 24
1.0
 15
0.0
 25
0.0
 16
0.0
 26
0.0
 36
1.0
 17
0.0
 27
0.0
 37
0.0
 40
9.446512057086614
 41
0.688564
 42
50.0
 43
25.88457241441485
 44
-25.88457241441485
 50
0.0
 51
0.0
 71
    16
 72
   100
 73
     1
 74
     1
 75
     0
 76
     0
 77
     0
 78
     0
  0
VPORT
  5
58B
330
7
100
AcDbSymbolTableRecord
100
AcDbViewportTableRecord
  2
L6
 70
     0
 10
0.3333333333333334
 20
0.0
 11
0.6666666666666666
 21
0.5
 12
0.0
 22
0.0
 13
0.0
 23
0.0
 14
1.0
 24
1.0
 15
0.0
 25
0.0
 16
0.0
 26
-1.0
 36
0.0
 17
0.0
 27
0.0
 37
0.0
 40
51.7691448288297
 41
0.688564
 42
50.0
 43
26.45446031615208
 44
-26.45446031615208
 50
0.0
 51
0.0
 71
    16
 72
   100
 73
     1
 74
     1
 75
     0
 76
     0
 77
     0
 78
     0
  0
VPORT
  5
58C
330
7
100
AcDbSymbolTableRecord
100
AcDbViewportTableRecord
  2
L6
 70
     0
 10
0.6666666666666666
 20
0.5
 11
1.0
 21
1.0
 12
0.0
 22
0.0
 13
0.0
 23
0.0
 14
1.0
 24
1.0
 15
0.0
 25
0.0
 16
0.5773502691896259
 26
-0.5773502691896259
 36
0.5773502691896259
 17
0.0
 27
0.0
 37
0.0
 40
50.5851033218866
 41
0.688564
 42
50.0
 43
26.2978561310996
 44
-26.2978561310996
 50
0.0
 51
0.0
 71
    16
 72
   100
 73
     1
 74
     1
 75
     0
 76
     0
 77
     0
 78
     0
  0
VPORT
  5
58D
330
7
100
AcDbSymbolTableRecord
100
AcDbViewportTableRecord
  2
L6
 70
     0
 10
0.6666666666666666
 20
0.0
 11
1.0
 21
0.5
 12
0.0
 22
0.0
 13
0.0
 23
0.0
 14
1.0
 24
1.0
 15
0.0
 25
0.0
 16
1.0
 26
0.0
 36
0.0
 17
0.0
 27
0.0
 37
0.0
 40
51.7691448288297
 41
0.688564
 42
50.0
 43
26.31197895613815
 44
-26.31197895613815
 50
0.0
 51
0.0
 71
    16
 72
   100
 73
     1
 74
     1
 75
     0
 76
     0
 77
     0
 78
     0
  0
VPORT
  5
609
330
7
100
AcDbSymbolTableRecord
100
AcDbViewportTableRecord
  2
*ACTIVE
 70
     0
 10
0.0
 20
0.0
 11
1.0
 21
1.0
 12
25.01792027495374
 22
20.4145683006572
 13
0.0
 23
0.0
 14
1.0
 24
1.0
 15
0.0
 25
0.0
 16
0.0
 26
0.0
 36
1.0
 17
0.0
 27
0.0
 37
0.0
 40
19.81623500058919
 41
1.512258064516128
 42
50.0
 43
26.53168672477521
 44
-26.53168672477521
 50
0.0
 51
0.0
 71
    16
 72
   100
 73
     1
 74
     1
 75
     0
 76
     0
 77
     0
 78
     0
  0
ENDTAB
  0
TABLE
  2
LTYPE
  5
4
330
0
100
AcDbSymbolTable
 70
     7
  0
LTYPE
  5
11
330
4
100
AcDbSymbolTableRecord
100
AcDbLinetypeTableRecord
  2
BYBLOCK
 70
     0
  3

 72
    65
 73
     0
 40
0.0
  0
LTYPE
  5
12
330
4
100
AcDbSymbolTableRecord
100
AcDbLinetypeTableRecord
  2
BYLAYER
 70
     0
  3

 72
    65
 73
     0
 40
0.0
  0
LTYPE
  5
13
330
4
100
AcDbSymbolTableRecord
100
AcDbLinetypeTableRecord
  2
CONTINUOUS
 70
     0
  3
Solid line
 72
    65
 73
     0
 40
0.0
  0
LTYPE
  5
24
330
4
100
AcDbSymbolTableRecord
100
AcDbLinetypeTableRecord
  2
DASHED
 70
     0
  3
__ __ __ __ __ __ __ __ __
 72
    65
 73
     2
 40
25.72
 49
12.86
 74
     0
 49
-12.86
 74
     0
  0
LTYPE
  5
25
330
4
100
AcDbSymbolTableRecord
100
AcDbLinetypeTableRecord
  2
HIDDEN
 70
     0
  3
_ _ _ _ _ _ _ _ _ _ _ _ _ _ _
 72
    65
 73
     2
 40
0.5
 49
0.25
 74
     0
 49
-0.25
 74
     0
  0
LTYPE
  5
26
330
4
100
AcDbSymbolTableRecord
100
AcDbLinetypeTableRecord
  2
PHANTOM
 70
     0
  3
____ _ _ ____ _ _ _____ _ _ ____
 72
    65
 73
     6
 40
50.5
 49
18.0
 74
     0
 49
-6.5
 74
     0
 49
6.5
 74
     0
 49
-6.5
 74
     0
 49
6.5
 74
     0
 49
-6.5
 74
     0
  0
LTYPE
  5
27
330
4
100
AcDbSymbolTableRecord
100
AcDbLinetypeTableRecord
  2
CENTER
 70
     0
  3
____ _ ____ _ ____ _ ____
 72
    65
 73
     4
 40
47.5
 49
22.0
 74
     0
 49
-8.5
 74
     0
 49
8.5
 74
     0
 49
-8.5
 74
     0
  0
LTYPE
  5
28
330
4
100
AcDbSymbolTableRecord
100
AcDbLinetypeTableRecord
  2
DOT
 70
     0
  3
.........................
 72
    65
 73
     2
 40
10.0
 49
0.0
 74
     0
 49
-10.0
 74
     0
  0
LTYPE
  5
29
330
4
100
AcDbSymbolTableRecord
100
AcDbLinetypeTableRecord
  2
DASHDOT
 70
     0
  3
_._._._._._._._._._._._._._._._.
 72
    65
 73
     4
 40
70.0
 49
31.0
 74
     0
 49
-13.0
 74
     0
 49
13.0
 74
     0
 49
-13.0
 74
     0
  0
ENDTAB
  0
TABLE
  2
LAYER
  5
2
330
0
100
AcDbSymbolTable
 70
     2
  0
LAYER
  5
14
330
2
100
AcDbSymbolTableRecord
100
AcDbLayerTableRecord
  2
0
 70
     0
 62
     7
  6
CONTINUOUS
  0
LAYER
  5
2B
330
2
100
AcDbSymbolTableRecord
100
AcDbLayerTableRecord
  2
TFR-TRI
 70
     0
 62
     7
  6
CONTINUOUS
  0
ENDTAB
  0
TABLE
  2
STYLE
  5
3
330
0
100
AcDbSymbolTable
 70
     1
  0
STYLE
  5
17
330
3
100
AcDbSymbolTableRecord
100
AcDbTextStyleTableRecord
  2
STANDARD
 70
     0
 40
0.0
 41
1.0
 50
0.0
 71
     0
 42
0.0
  3
txt
  4

  0
ENDTAB
  0
TABLE
  2
VIEW
  5
5
330
0
100
AcDbSymbolTable
 70
     8
  0
VIEW
  5
576
330
5
100
AcDbSymbolTableRecord
100
AcDbViewTableRecord
  2
TOP
 70
     0
 40
9.446512057086614
 10
0.0
 20
0.0
 41
10.9228900098425
 11
0.0
 21
0.0
 31
1.0
 12
0.0
 22
0.0
 32
0.0
 42
50.0
 43
25.88457241441485
 44
-25.88457241441485
 50
0.0
 71
    16
  0
VIEW
  5
577
330
5
100
AcDbSymbolTableRecord
100
AcDbViewTableRecord
  2
FRONT
 70
     0
 40
51.7691448288297
 10
0.0
 20
0.0
 41
10.9228900098425
 11
0.0
 21
-1.0
 31
0.0
 12
0.0
 22
0.0
 32
0.0
 42
50.0
 43
26.45446031615208
 44
-26.45446031615208
 50
0.0
 71
    16
  0
VIEW
  5
578
330
5
100
AcDbSymbolTableRecord
100
AcDbViewTableRecord
  2
RIGHT
 70
     0
 40
51.7691448288297
 10
0.0
 20
0.0
 41
9.446512057086614
 11
1.0
 21
0.0
 31
0.0
 12
0.0
 22
0.0
 32
0.0
 42
50.0
 43
26.31197895613815
 44
-26.31197895613815
 50
0.0
 71
    16
  0
VIEW
  5
579
330
5
100
AcDbSymbolTableRecord
100
AcDbViewTableRecord
  2
BACK
 70
     0
 40
51.7691448288297
 10
0.0
 20
0.0
 41
10.9228900098425
 11
0.0
 21
1.0
 31
0.0
 12
0.0
 22
0.0
 32
0.0
 42
50.0
 43
26.45446031615208
 44
-26.45446031615208
 50
0.0
 71
    16
  0
VIEW
  5
57A
330
5
100
AcDbSymbolTableRecord
100
AcDbViewTableRecord
  2
BOTTOM
 70
     0
 40
9.446512057086614
 10
0.0
 20
0.0
 41
10.9228900098425
 11
0.0
 21
0.0
 31
-1.0
 12
0.0
 22
0.0
 32
0.0
 42
50.0
 43
25.88457241441485
 44
-25.88457241441485
 50
180.0
 71
    16
  0
VIEW
  5
57B
330
5
100
AcDbSymbolTableRecord
100
AcDbViewTableRecord
  2
LEFT
 70
     0
 40
51.7691448288297
 10
0.0
 20
0.0
 41
9.446512057086614
 11
-1.0
 21
0.0
 31
0.0
 12
0.0
 22
0.0
 32
0.0
 42
50.0
 43
26.31197895613815
 44
-26.31197895613815
 50
0.0
 71
    16
  0
VIEW
  5
57C
330
5
100
AcDbSymbolTableRecord
100
AcDbViewTableRecord
  2
TFR-ISO
 70
     0
 40
50.5851033218866
 10
0.0
 20
0.0
 41
14.40334233024086
 11
0.5773502691896259
 21
-0.5773502691896259
 31
0.5773502691896259
 12
0.0
 22
0.0
 32
0.0
 42
50.0
 43
26.2978561310996
 44
-26.2978561310996
 50
0.0
 71
    16
  0
VIEW
  5
57D
330
5
100
AcDbSymbolTableRecord
100
AcDbViewTableRecord
  2
TFR-TRI
 70
     0
 40
53.40154639799796
 10
0.0
 20
0.0
 41
14.22149458230955
 11
0.7188730927569434
 21
-0.5850486126764432
 31
0.3754192287502549
 12
0.0
 22
0.0
 32
0.0
 42
50.0
 43
26.53168672477521
 44
-26.53168672477521
 50
0.0
 71
    16
  0
ENDTAB
  0
TABLE
  2
UCS
  5
6
330
0
100
AcDbSymbolTable
 70
     0
  0
ENDTAB
  0
TABLE
  2
APPID
  5
8
330
0
100
AcDbSymbolTable
 70
     1
  0
APPID
  5
16
330
8
100
AcDbSymbolTableRecord
100
AcDbRegAppTableRecord
  2
ACAD
 70
     0
  0
ENDTAB
  0
TABLE
  2
DIMSTYLE
  5
9
330
0
100
AcDbSymbolTable
 70
     1
  0
DIMSTYLE
105
18
330
9
100
AcDbSymbolTableRecord
100
AcDbDimStyleTableRecord
  2
STANDARD
 70
     0
  3

  4

  5

  6

  7

 40
1.0
 41
0.18
 42
0.0625
 43
0.38
 44
0.18
 45
0.0
 46
0.0
 47
0.0
 48
0.0
140
0.18
141
0.09
142
0.0
143
25.4
144
1.0
145
0.0
146
1.0
147
0.09
 71
     0
 72
     0
 73
     1
 74
     1
 75
     0
 76
     0
 77
     0
 78
     0
170
     0
171
     2
172
     0
173
     0
174
     0
175
     0
176
     0
177
     0
178
     0
270
     2
271
     4
272
     4
273
     2
274
     2
340
17
275
     0
280
     0
281
     0
282
     0
283
     1
284
     0
285
     0
286
     0
287
     3
288
     0
  0
ENDTAB
  0
TABLE
  2
BLOCK_RECORD
  5
1
330
0
100
AcDbSymbolTable
 70
     0
  0
BLOCK_RECORD
  5
A
102
{ACAD_XDICTIONARY
360
62B
102
}
330
1
100
AcDbSymbolTableRecord
100
AcDbBlockTableRecord
  2
*MODEL_SPACE
  0
BLOCK_RECORD
  5
B
102
{ACAD_XDICTIONARY
360
62D
102
}
330
1
100
AcDbSymbolTableRecord
100
AcDbBlockTableRecord
  2
*PAPER_SPACE
  0
ENDTAB
  0
ENDSEC
  0
SECTION
  2
BLOCKS
  0
BLOCK
  5
D
330
A
100
AcDbEntity
  8
0
100
AcDbBlockBegin
  2
*MODEL_SPACE
 70
     0
 10
0.0
 20
0.0
 30
0.0
  3
*MODEL_SPACE
  1

  0
ENDBLK
  5
E
330
A
100
AcDbEntity
  8
0
100
AcDbBlockEnd
  0
BLOCK
  5
F
330
B
100
AcDbEntity
 67
     1
  8
0
100
AcDbBlockBegin
  2
*PAPER_SPACE
 70
     0
 10
0.0
 20
0.0
 30
0.0
  3
*PAPER_SPACE
  1

  0
ENDBLK
  5
10
330
B
100
AcDbEntity
 67
     1
  8
0
100
AcDbBlockEnd
  0
ENDSEC
  0
SECTION
  2
ENTITIES
  0
LINE
  5
2A
330
A
100
AcDbEntity
  8
TFR-TRI
  6
CONTINUOUS
 62
     5
100
AcDbLine
 10
34.81461334228515
 20
15.47164630889892
 30
0.0
 11
34.83749008178711
 21
15.43202304840088
 31
0.0
  0
LINE
  5
2C
330
A
100
AcDbEntity
  8
TFR-TRI
  6
CONTINUOUS
 62
     7
100
AcDbLine
 10
33.33724212646484
 20
11.63764286041259
 30
0.0
 11
33.34518814086914
 21
11.63764286041259
 31
0.0
  0
LINE
  5
2D
330
A
100
AcDbEntity
  8
TFR-TRI
  6
CONTINUOUS
 62
     5
100
AcDbLine
 10
27.93124198913574
 20
11.77865886688232
 30
0.0
 11
27.93124198913574
 21
11.95714282989501
 31
0.0
  0
LINE
  5
2E
330
A
100
AcDbEntity
  8
TFR-TRI
  6
CONTINUOUS
 62
     5
100
AcDbLine
 10
34.71334838867187
 20
15.52366352081298
 30
0.0
 11
34.67920303344726
 21
15.51916790008545
 31
0.0
  0
LINE
  5
2F
330
A
100
AcDbEntity
  8
TFR-TRI
  6
CONTINUOUS
 62
     7
100
AcDbLine
 10
33.46224212646484
 20
11.53264331817626
 30
0.0
 11
33.48224258422851
 21
11.53264331817626
 31
0.0
  0
LINE
  5
30
330
A
100
AcDbEntity
  8
TFR-TRI
  6
CONTINUOUS
 62
     7
100
AcDbLine
 10
27.94124221801757
 20
15.01804447174072
 30
0.0
 11
27.94124221801757
 21
15.16427612304687
 31
0.0
  0
LINE
  5
31
330
A
100
AcDbEntity
  8
TFR-TRI
  6
CONTINUOUS
 62
     3
100
AcDbLine
 10
15.00862503051757
 20
28.92883872985839
 30
0.0
 11
14.85894393920898
 21
28.7791576385498
 31
0.0
  0
LINE
  5
32
330
A
100
AcDbEntity
  8
TFR-TRI
  6
CONTINUOUS
 62
     3
100
AcDbLine
 10
14.85894393920898
 20
15.25764369964599
 30
0.0
 11
14.83856678009033
 21
15.25764369964599
 31
0.0
  0
LINE
  5
33
330
A
100
AcDbEntity
  8
TFR-TRI
  6
CONTINUOUS
 62
     5
100
AcDbLine
 10
17.31256294250488
 20
14.09311199188232
 30
0.0
 11
17.4081802368164
 21
14.04200363159179
 31
0.0
  0
LINE
  5
34
330
A
100
AcDbEntity
  8
TFR-TRI
  6
CONTINUOUS
 62
     5
100
AcDbLine
 10
16.47834587097168
 20
29.28506660461426
 30
0.0
 11
16.47770118713379
 21
29.27703475952148
 31
0.0
  0
LINE
  5
35
330
A
100
AcDbEntity
  8
TFR-TRI
  6
CONTINUOUS
 62
     5
100
AcDbLine
 10
34.77980041503906
 20
13.69865417480468
 30
0.0
 11
34.80025482177734
 21
13.69862651824951
 31
0.0
  0
LINE
  5
36
330
A
100
AcDbEntity
  8
TFR-TRI
  6
CONTINUOUS
 62
     5
100
AcDbLine
 10
34.84341049194336
 20
13.46618270874023
 30
0.0
 11
34.839599609375
 21
13.46599674224853
 31
0.0
  0
LINE
  5
37
330
A
100
AcDbEntity
  8
TFR-TRI
  6
CONTINUOUS
 62
     5
100
AcDbLine
 10
18.20025444030761
 20
22.74462509155273
 30
0.0
 11
18.08733749389648
 21
22.74462509155273
 31
0.0
  0
LINE
  5
38
330
A
100
AcDbEntity
  8
TFR-TRI
  6
CONTINUOUS
 62
     3
100
AcDbLine
 10
15.51741218566894
 20
29.73962593078613
 30
0.0
 11
15.51741218566894
 21
29.71462440490722
 31
0.0
  0
LINE
  5
39
330
A
100
AcDbEntity
  8
TFR-TRI
  6
CONTINUOUS
 62
     5
100
AcDbLine
 10
17.10091209411621
 20
13.02907466888427
 30
0.0
 11
16.993013381958
 21
13.03970146179199
 31
0.0
  0
LINE
  5
3A
330
A
100
AcDbEntity
  8
TFR-TRI
  6
CONTINUOUS
 62
     3
100
AcDbLine
 10
15.04494380950927
 20
10.67664337158203
 30
0.0
 11
15.11141204833984
 21
10.67664337158203
 31
0.0
  0
LINE
  5
3B
330
A
100
AcDbEntity
  8
TFR-TRI
  6
CONTINUOUS
 62
     5
100
AcDbLine
 10
34.84169387817383
 20
13.54190349578857
 30
0.0
 11
34.84348678588867
 21
13.54177856445312
 31
0.0
  0
LINE
  5
3C
330
A
100
AcDbEntity
  8
TFR-TRI
  6
CONTINUOUS
 62
     5
100
AcDbLine
 10
34.83840942382812
 20
14.59127616882324
 30
0.0
 11
34.8377456665039
 21
14.59371280670166
 31
0.0
  0
LINE
  5
3D
330
A
100
AcDbEntity
  8
TFR-TRI
  6
CONTINUOUS
 62
     5
100
AcDbLine
 10
15.91864013671875
 20
22.74462509155273
 30
0.0
 11
15.86795997619629
 21
22.74462509155273
 31
0.0
  0
LINE
  5
3E
330
A
100
AcDbEntity
  8
TFR-TRI
  6
CONTINUOUS
 62
     7
100
AcDbLine
 10
16.82594680786132
 20
22.75462532043456
 30
0.0
 11
16.79602813720703
 21
22.75462532043456
 31
0.0
  0
LINE
  5
3F
330
A
100
AcDbEntity
  8
TFR-TRI
  6
CONTINUOUS
 62
     5
100
AcDbLine
 10
16.88926124572754
 20
14.09311199188232
 30
0.0
 11
16.993013381958
 21
14.12458515167236
 31
0.0
  0
LINE
  5
40
330
A
100
AcDbEntity
  8
TFR-TRI
  6
CONTINUOUS
 62
     7
100
AcDbLine
 10
14.63766193389892
 20
11.56647491455078
 30
0.0
 11
14.63766193389892
 21
11.55370426177978
 31
0.0
  0
LINE
  5
41
330
A
100
AcDbEntity
  8
TFR-TRI
  6
CONTINUOUS
 62
     5
100
AcDbLine
 10
34.45249938964844
 20
13.67693424224853
 30
0.0
 11
34.45613861083984
 21
13.68022346496582
 31
0.0
  0
LINE
  5
42
330
A
100
AcDbEntity
  8
TFR-TRI
  6
CONTINUOUS
 62
     5
100
AcDbLine
 10
34.8123664855957
 20
14.42409706115722
 30
0.0
 11
34.81610870361328
 21
14.42746925354003
 31
0.0
  0
LINE
  5
43
330
A
100
AcDbEntity
  8
TFR-TRI
  6
CONTINUOUS
 62
     5
100
AcDbLine
 10
17.25998497009277
 20
29.23905181884765
 30
0.0
 11
17.25165176391601
 21
29.23734474182129
 31
0.0
  0
LINE
  5
44
330
A
100
AcDbEntity
  8
TFR-TRI
  6
CONTINUOUS
 62
     5
100
AcDbLine
 10
16.43841171264648
 20
29.5484504699707
 30
0.0
 11
16.91341209411621
 21
29.54126930236816
 31
0.0
  0
LINE
  5
45
330
A
100
AcDbEntity
  8
TFR-TRI
  6
CONTINUOUS
 62
     5
100
AcDbLine
 10
17.10091209411621
 20
14.13521194458007
 30
0.0
 11
17.20881080627441
 21
14.12458515167236
 31
0.0
  0
LINE
  5
46
330
A
100
AcDbEntity
  8
TFR-TRI
  6
CONTINUOUS
 62
     5
100
AcDbLine
 10
34.42887496948242
 20
12.97181797027588
 30
0.0
 11
34.43759155273437
 21
12.97423076629638
 31
0.0
  0
LINE
  5
47
330
A
100
AcDbEntity
  8
TFR-TRI
  6
CONTINUOUS
 62
     5
100
AcDbLine
 10
16.54591178894043
 20
14.98307514190673
 30
0.0
 11
17.65591239929199
 21
14.98307514190673
 31
0.0
  0
LINE
  5
48
330
A
100
AcDbEntity
  8
TFR-TRI
  6
CONTINUOUS
 62
     5
100
AcDbLine
 10
34.42516326904296
 20
14.19789695739746
 30
0.0
 11
34.42581176757812
 21
14.19830322265625
 31
0.0
  0
LINE
  5
49
330
A
100
AcDbEntity
  8
TFR-TRI
  6
CONTINUOUS
 62
     5
100
AcDbLine
 10
34.6239128112793
 20
12.92893695831298
 30
0.0
 11
34.60740661621093
 21
12.93965530395507
 31
0.0
  0
LINE
  5
4A
330
A
100
AcDbEntity
  8
TFR-TRI
  6
CONTINUOUS
 62
     7
100
AcDbLine
 10
17.05341148376464
 20
11.85561561584472
 30
0.0
 11
17.06410026550293
 21
11.84374046325683
 31
0.0
  0
LINE
  5
4B
330
A
100
AcDbEntity
  8
TFR-TRI
  6
CONTINUOUS
 62
     5
100
AcDbLine
 10
16.91341209411621
 20
29.55405616760254
 30
0.0
 11
16.91341209411621
 21
29.5776138305664
 31
0.0
  0
LINE
  5
4C
330
A
100
AcDbEntity
  8
TFR-TRI
  6
CONTINUOUS
 62
     7
100
AcDbLine
 10
27.94124221801757
 20
11.96249103546142
 30
0.0
 11
27.94124221801757
 21
11.95249080657958
 31
0.0
  0
LINE
  5
4D
330
A
100
AcDbEntity
  8
TFR-TRI
  6
CONTINUOUS
 62
     5
100
AcDbLine
 10
34.57865524291992
 20
12.96969985961914
 30
0.0
 11
34.58027648925781
 21
12.97449779510498
 31
0.0
  0
LINE
  5
4E
330
A
100
AcDbEntity
  8
TFR-TRI
  6
CONTINUOUS
 62
     7
100
AcDbLine
 10
17.2531623840332
 20
11.95249080657958
 30
0.0
 11
17.26916122436523
 21
11.9449119567871
 31
0.0
  0
LINE
  5
4F
330
A
100
AcDbEntity
  8
TFR-TRI
  6
CONTINUOUS
 62
     5
100
AcDbLine
 10
17.28841209411621
 20
29.3932991027832
 30
0.0
 11
17.28841209411621
 21
29.31167984008789
 31
0.0
  0
LINE
  5
50
330
A
100
AcDbEntity
  8
TFR-TRI
  6
CONTINUOUS
 62
     5
100
AcDbLine
 10
17.02176475524902
 20
15.20179557800293
 30
0.0
 11
17.06866455078125
 21
15.20179557800293
 31
0.0
  0
LINE
  5
51
330
A
100
AcDbEntity
  8
TFR-TRI
  6
CONTINUOUS
 62
     7
100
AcDbLine
 10
27.94124221801757
 20
15.01804447174072
 30
0.0
 11
27.94124221801757
 21
15.09627246856689
 31
0.0
  0
LINE
  5
52
330
A
100
AcDbEntity
  8
TFR-TRI
  6
CONTINUOUS
 62
     7
100
AcDbLine
 10
27.94124221801757
 20
11.84374046325683
 30
0.0
 11
27.94124221801757
 21
11.90603637695312
 31
0.0
  0
LINE
  5
53
330
A
100
AcDbEntity
  8
TFR-TRI
  6
CONTINUOUS
 62
     7
100
AcDbLine
 10
17.48494338989257
 20
15.20179557800293
 30
0.0
 11
17.62095069885253
 21
15.20179557800293
 31
0.0
  0
LINE
  5
54
330
A
100
AcDbEntity
  8
TFR-TRI
  6
CONTINUOUS
 62
     5
100
AcDbLine
 10
18.28973197937011
 20
22.83325004577636
 30
0.0
 11
18.21467018127441
 21
22.83456039428711
 31
0.0
  0
LINE
  5
55
330
A
100
AcDbEntity
  8
TFR-TRI
  6
CONTINUOUS
 62
     5
100
AcDbLine
 10
17.19998359680175
 20
15.01804447174072
 30
0.0
 11
17.09680366516113
 21
15.01804447174072
 31
0.0
  0
LINE
  5
56
330
A
100
AcDbEntity
  8
TFR-TRI
  6
CONTINUOUS
 62
     7
100
AcDbLine
 10
27.94124221801757
 20
15.20179557800293
 30
0.0
 11
27.94124221801757
 21
15.16427612304687
 31
0.0
  0
LINE
  5
57
330
A
100
AcDbEntity
  8
TFR-TRI
  6
CONTINUOUS
 62
     5
100
AcDbLine
 10
27.93124198913574
 20
11.33214282989501
 30
0.0
 11
28.04061698913574
 21
11.33214282989501
 31
0.0
  0
LINE
  5
58
330
A
100
AcDbEntity
  8
TFR-TRI
  6
CONTINUOUS
 62
     5
100
AcDbLine
 10
28.02296447753906
 20
11.84741210937499
 30
0.0
 11
28.02117538452148
 21
12.01465511322021
 31
0.0
  0
LINE
  5
59
330
A
100
AcDbEntity
  8
TFR-TRI
  6
CONTINUOUS
 62
     7
100
AcDbLine
 10
16.86316108703613
 20
11.90374088287353
 30
0.0
 11
16.80191230773925
 21
11.90374088287353
 31
0.0
  0
LINE
  5
5A
330
A
100
AcDbEntity
  8
TFR-TRI
  6
CONTINUOUS
 62
     5
100
AcDbLine
 10
16.08963966369628
 20
22.83634757995605
 30
0.0
 11
15.987154006958
 21
22.83456039428711
 31
0.0
  0
LINE
  5
5B
330
A
100
AcDbEntity
  8
TFR-TRI
  6
CONTINUOUS
 62
     5
100
AcDbLine
 10
17.35362434387207
 20
15.20179557800293
 30
0.0
 11
17.39198875427246
 21
15.20179557800293
 31
0.0
  0
LINE
  5
5C
330
A
100
AcDbEntity
  8
TFR-TRI
  6
CONTINUOUS
 62
     7
100
AcDbLine
 10
15.01740837097168
 20
28.38068580627441
 30
0.0
 11
14.89540863037109
 21
28.38068580627441
 31
0.0
  0
LINE
  5
5D
330
A
100
AcDbEntity
  8
TFR-TRI
  6
CONTINUOUS
 62
     7
100
AcDbLine
 10
27.94124221801757
 20
15.06025409698486
 30
0.0
 11
27.94124221801757
 21
15.06300067901611
 31
0.0
  0
LINE
  5
5E
330
A
100
AcDbEntity
  8
TFR-TRI
  6
CONTINUOUS
 62
     5
100
AcDbLine
 10
28.04061698913574
 20
12.59283828735351
 30
0.0
 11
28.04061698913574
 21
11.33214282989501
 31
0.0
  0
LINE
  5
5F
330
A
100
AcDbEntity
  8
TFR-TRI
  6
CONTINUOUS
 62
     7
100
AcDbLine
 10
16.68877983093261
 20
15.01804447174072
 30
0.0
 11
16.58091163635253
 21
15.01804447174072
 31
0.0
  0
LINE
  5
60
330
A
100
AcDbEntity
  8
TFR-TRI
  6
CONTINUOUS
 62
     5
100
AcDbLine
 10
17.10091209411621
 20
29.48993492126465
 30
0.0
 11
17.10091209411621
 21
29.46743583679199
 31
0.0
  0
LINE
  5
61
330
A
100
AcDbEntity
  8
TFR-TRI
  6
CONTINUOUS
 62
     5
100
AcDbLine
 10
17.62095069885253
 20
15.16427612304687
 30
0.0
 11
17.57874107360839
 21
15.16427612304687
 31
0.0
  0
LINE
  5
62
330
A
100
AcDbEntity
  8
TFR-TRI
  6
CONTINUOUS
 62
     5
100
AcDbLine
 10
34.83207321166992
 20
12.73676586151123
 30
0.0
 11
34.82741546630859
 21
12.73485374450683
 31
0.0
  0
LINE
  5
63
330
A
100
AcDbEntity
  8
TFR-TRI
  6
CONTINUOUS
 62
     7
100
AcDbLine
 10
27.94124221801757
 20
15.16068458557128
 30
0.0
 11
27.94124221801757
 21
15.16343212127685
 31
0.0
  0
LINE
  5
64
330
A
100
AcDbEntity
  8
TFR-TRI
  6
CONTINUOUS
 62
     5
100
AcDbLine
 10
28.0313549041748
 20
14.41454601287841
 30
0.0
 11
28.03410339355469
 21
14.49672508239746
 31
0.0
  0
LINE
  5
65
330
A
100
AcDbEntity
  8
TFR-TRI
  6
CONTINUOUS
 62
     5
100
AcDbLine
 10
17.31491088867187
 20
11.95249080657958
 30
0.0
 11
17.39191246032715
 21
11.95249080657958
 31
0.0
  0
LINE
  5
66
330
A
100
AcDbEntity
  8
TFR-TRI
  6
CONTINUOUS
 62
     7
100
AcDbLine
 10
17.26916122436523
 20
11.9449119567871
 30
0.0
 11
17.26916122436523
 21
11.92131900787353
 31
0.0
  0
LINE
  5
67
330
A
100
AcDbEntity
  8
TFR-TRI
  6
CONTINUOUS
 62
     7
100
AcDbLine
 10
17.31491088867187
 20
11.96249103546142
 30
0.0
 11
17.409912109375
 21
11.96249103546142
 31
0.0
  0
LINE
  5
68
330
A
100
AcDbEntity
  8
TFR-TRI
  6
CONTINUOUS
 62
     5
100
AcDbLine
 10
16.80191230773925
 20
11.95249080657958
 30
0.0
 11
16.86091232299804
 21
11.95249080657958
 31
0.0
  0
LINE
  5
69
330
A
100
AcDbEntity
  8
TFR-TRI
  6
CONTINUOUS
 62
     3
100
AcDbLine
 10
34.92996597290039
 20
16.48864364624023
 30
0.0
 11
34.92624282836914
 21
16.48864364624023
 31
0.0
  0
LINE
  5
6A
330
A
100
AcDbEntity
  8
TFR-TRI
  6
CONTINUOUS
 62
     5
100
AcDbLine
 10
34.8441047668457
 20
13.69740676879882
 30
0.0
 11
34.84341049194336
 21
13.69810390472412
 31
0.0
  0
LINE
  5
6B
330
A
100
AcDbEntity
  8
TFR-TRI
  6
CONTINUOUS
 62
     5
100
AcDbLine
 10
34.76564788818359
 20
15.46271228790283
 30
0.0
 11
34.74127197265625
 21
15.50493240356445
 31
0.0
  0
LINE
  5
6C
330
A
100
AcDbEntity
  8
TFR-TRI
  6
CONTINUOUS
 62
     7
100
AcDbLine
 10
17.35362434387207
 20
15.06963348388671
 30
0.0
 11
17.35362434387207
 21
15.20179557800293
 31
0.0
  0
LINE
  5
6D
330
A
100
AcDbEntity
  8
TFR-TRI
  6
CONTINUOUS
 62
     5
100
AcDbLine
 10
16.99166297912597
 20
11.91374015808105
 30
0.0
 11
16.93266105651855
 21
11.91374015808105
 31
0.0
  0
LINE
  5
6E
330
A
100
AcDbEntity
  8
TFR-TRI
  6
CONTINUOUS
 62
     3
100
AcDbLine
 10
35.30124282836914
 20
16.58264350891113
 30
0.0
 11
35.36624145507812
 21
16.58264350891113
 31
0.0
  0
LINE
  5
6F
330
A
100
AcDbEntity
  8
TFR-TRI
  6
CONTINUOUS
 62
     3
100
AcDbLine
 10
32.0992431640625
 20
16.48864364624023
 30
0.0
 11
32.12677383422851
 21
16.48864364624023
 31
0.0
  0
LINE
  5
70
330
A
100
AcDbEntity
  8
TFR-TRI
  6
CONTINUOUS
 62
     5
100
AcDbLine
 10
34.84412002563476
 20
13.54114246368408
 30
0.0
 11
34.84414291381836
 21
13.54023361206054
 31
0.0
  0
LINE
  5
71
330
A
100
AcDbEntity
  8
TFR-TRI
  6
CONTINUOUS
 62
     5
100
AcDbLine
 10
16.25431060791015
 20
22.74462509155273
 30
0.0
 11
16.11448669433593
 21
22.74462509155273
 31
0.0
  0
LINE
  5
72
330
A
100
AcDbEntity
  8
TFR-TRI
  6
CONTINUOUS
 62
     3
100
AcDbLine
 10
33.48502349853515
 20
11.89214324951171
 30
0.0
 11
33.43946075439453
 21
11.89214324951171
 31
0.0
  0
LINE
  5
73
330
A
100
AcDbEntity
  8
TFR-TRI
  6
CONTINUOUS
 62
     7
100
AcDbLine
 10
17.06866455078125
 20
15.01804447174072
 30
0.0
 11
17.01332283020019
 21
15.01804447174072
 31
0.0
  0
LINE
  5
74
330
A
100
AcDbEntity
  8
TFR-TRI
  6
CONTINUOUS
 62
     5
100
AcDbLine
 10
17.2531623840332
 20
11.91374015808105
 30
0.0
 11
17.19416236877441
 21
11.91374015808105
 31
0.0
  0
LINE
  5
75
330
A
100
AcDbEntity
  8
TFR-TRI
  6
CONTINUOUS
 62
     3
100
AcDbLine
 10
19.09041213989257
 20
30.17962455749511
 30
0.0
 11
19.09041213989257
 21
30.22720909118652
 31
0.0
  0
LINE
  5
76
330
A
100
AcDbEntity
  8
TFR-TRI
  6
CONTINUOUS
 62
     3
100
AcDbLine
 10
34.90124130249023
 20
16.58264350891113
 30
0.0
 11
34.90124130249023
 21
16.55511093139648
 31
0.0
  0
LINE
  5
77
330
A
100
AcDbEntity
  8
TFR-TRI
  6
CONTINUOUS
 62
     5
100
AcDbLine
 10
34.83912658691406
 20
12.66037845611572
 30
0.0
 11
34.83906173706055
 21
12.61350345611572
 31
0.0
  0
LINE
  5
78
330
A
100
AcDbEntity
  8
TFR-TRI
  6
CONTINUOUS
 62
     3
100
AcDbLine
 10
33.33521270751953
 20
11.48729133605957
 30
0.0
 11
33.32526016235351
 21
11.46595191955566
 31
0.0
  0
LINE
  5
79
330
A
100
AcDbEntity
  8
TFR-TRI
  6
CONTINUOUS
 62
     5
100
AcDbLine
 10
18.28318405151367
 20
22.74462509155273
 30
0.0
 11
18.20025444030761
 21
22.74462509155273
 31
0.0
  0
LINE
  5
7A
330
A
100
AcDbEntity
  8
TFR-TRI
  6
CONTINUOUS
 62
     7
100
AcDbLine
 10
16.74759292602539
 20
22.75462532043456
 30
0.0
 11
16.79602813720703
 21
22.75462532043456
 31
0.0
  0
LINE
  5
7B
330
A
100
AcDbEntity
  8
TFR-TRI
  6
CONTINUOUS
 62
     7
100
AcDbLine
 10
16.88444328308105
 20
15.04454231262207
 30
0.0
 11
16.89738845825195
 21
15.01804447174072
 31
0.0
  0
LINE
  5
7C
330
A
100
AcDbEntity
  8
TFR-TRI
  6
CONTINUOUS
 62
     5
100
AcDbLine
 10
34.83784103393555
 20
14.59384727478027
 30
0.0
 11
34.83784103393555
 21
14.59534168243408
 31
0.0
  0
LINE
  5
7D
330
A
100
AcDbEntity
  8
TFR-TRI
  6
CONTINUOUS
 62
     5
100
AcDbLine
 10
16.75691223144531
 20
11.80874061584472
 30
0.0
 11
16.75691223144531
 21
11.99749088287353
 31
0.0
  0
LINE
  5
7E
330
A
100
AcDbEntity
  8
TFR-TRI
  6
CONTINUOUS
 62
     3
100
AcDbLine
 10
33.69674301147461
 20
11.68042564392089
 30
0.0
 11
33.67328643798828
 21
11.6824779510498
 31
0.0
  0
LINE
  5
7F
330
A
100
AcDbEntity
  8
TFR-TRI
  6
CONTINUOUS
 62
     5
100
AcDbLine
 10
17.06084442138672
 20
11.86230564117431
 30
0.0
 11
17.06855201721191
 21
11.85374069213867
 31
0.0
  0
LINE
  5
80
330
A
100
AcDbEntity
  8
TFR-TRI
  6
CONTINUOUS
 62
     7
100
AcDbLine
 10
17.33102035522461
 20
15.06025409698486
 30
0.0
 11
17.34424591064453
 21
15.06025409698486
 31
0.0
  0
LINE
  5
81
330
A
100
AcDbEntity
  8
TFR-TRI
  6
CONTINUOUS
 62
     3
100
AcDbLine
 10
15.00862503051757
 20
15.50764369964599
 30
0.0
 11
15.01512813568115
 21
15.50764369964599
 31
0.0
  0
LINE
  5
82
330
A
100
AcDbEntity
  8
TFR-TRI
  6
CONTINUOUS
 62
     3
100
AcDbLine
 10
35.02524185180664
 20
10.64664363861083
 30
0.0
 11
35.30124282836914
 21
10.64664363861083
 31
0.0
  0
LINE
  5
83
330
A
100
AcDbEntity
  8
TFR-TRI
  6
CONTINUOUS
 62
     5
100
AcDbLine
 10
34.83749008178711
 20
15.43202304840088
 30
0.0
 11
34.86874008178711
 21
15.37789630889892
 31
0.0
  0
LINE
  5
84
330
A
100
AcDbEntity
  8
TFR-TRI
  6
CONTINUOUS
 62
     5
100
AcDbLine
 10
17.72025108337402
 20
29.35328865051269
 30
0.0
 11
17.72024536132812
 21
29.35350227355957
 31
0.0
  0
LINE
  5
85
330
A
100
AcDbEntity
  8
TFR-TRI
  6
CONTINUOUS
 62
     7
100
AcDbLine
 10
33.33724212646484
 20
11.67764282226562
 30
0.0
 11
33.33724212646484
 21
11.65764331817626
 31
0.0
  0
LINE
  5
86
330
A
100
AcDbEntity
  8
TFR-TRI
  6
CONTINUOUS
 62
     3
100
AcDbLine
 10
33.67328643798828
 20
11.63280868530273
 30
0.0
 11
33.69674301147461
 21
11.63486099243164
 31
0.0
  0
LINE
  5
87
330
A
100
AcDbEntity
  8
TFR-TRI
  6
CONTINUOUS
 62
     5
100
AcDbLine
 10
27.93124198913574
 20
11.95714282989501
 30
0.0
 11
27.93124198913574
 21
12.15461826324462
 31
0.0
  0
LINE
  5
88
330
A
100
AcDbEntity
  8
TFR-TRI
  6
CONTINUOUS
 62
     5
100
AcDbLine
 10
34.67920303344726
 20
15.51916790008545
 30
0.0
 11
34.67878723144531
 21
15.51892757415771
 31
0.0
  0
LINE
  5
89
330
A
100
AcDbEntity
  8
TFR-TRI
  6
CONTINUOUS
 62
     5
100
AcDbLine
 10
34.75564193725586
 20
13.69787216186523
 30
0.0
 11
34.8441047668457
 21
13.69740676879882
 31
0.0
  0
LINE
  5
8A
330
A
100
AcDbEntity
  8
TFR-TRI
  6
CONTINUOUS
 62
     7
100
AcDbLine
 10
27.94124221801757
 20
15.01804447174072
 30
0.0
 11
27.94124221801757
 21
15.20179557800293
 31
0.0
  0
LINE
  5
8B
330
A
100
AcDbEntity
  8
TFR-TRI
  6
CONTINUOUS
 62
     5
100
AcDbLine
 10
34.73701477050781
 20
13.54169082641601
 30
0.0
 11
34.84412002563476
 21
13.54114246368408
 31
0.0
  0
LINE
  5
8C
330
A
100
AcDbEntity
  8
TFR-TRI
  6
CONTINUOUS
 62
     5
100
AcDbLine
 10
17.4081802368164
 20
14.04200363159179
 30
0.0
 11
17.49199104309082
 21
13.97322177886962
 31
0.0
  0
LINE
  5
8D
330
A
100
AcDbEntity
  8
TFR-TRI
  6
CONTINUOUS
 62
     5
100
AcDbLine
 10
16.47770118713379
 20
29.27703475952148
 30
0.0
 11
16.47693443298339
 21
29.26966094970703
 31
0.0
  0
LINE
  5
8E
330
A
100
AcDbEntity
  8
TFR-TRI
  6
CONTINUOUS
 62
     5
100
AcDbLine
 10
34.80025482177734
 20
13.69862651824951
 30
0.0
 11
34.81852340698242
 21
13.69854164123535
 31
0.0
  0
LINE
  5
8F
330
A
100
AcDbEntity
  8
TFR-TRI
  6
CONTINUOUS
 62
     5
100
AcDbLine
 10
34.839599609375
 20
13.46599674224853
 30
0.0
 11
34.82894897460937
 21
13.46583271026611
 31
0.0
  0
LINE
  5
90
330
A
100
AcDbEntity
  8
TFR-TRI
  6
CONTINUOUS
 62
     3
100
AcDbLine
 10
15.45341205596924
 20
29.73962593078613
 30
0.0
 11
15.45341205596924
 21
29.71462440490722
 31
0.0
  0
LINE
  5
91
330
A
100
AcDbEntity
  8
TFR-TRI
  6
CONTINUOUS
 62
     5
100
AcDbLine
 10
34.4562759399414
 20
13.48396587371826
 30
0.0
 11
34.45344924926757
 21
13.48628997802734
 31
0.0
  0
LINE
  5
92
330
A
100
AcDbEntity
  8
TFR-TRI
  6
CONTINUOUS
 62
     5
100
AcDbLine
 10
16.993013381958
 20
13.03970146179199
 30
0.0
 11
16.88926124572754
 21
13.07117462158203
 31
0.0
  0
LINE
  5
93
330
A
100
AcDbEntity
  8
TFR-TRI
  6
CONTINUOUS
 62
     3
100
AcDbLine
 10
15.01741218566894
 20
16.48864364624023
 30
0.0
 11
15.04494380950927
 21
16.48864364624023
 31
0.0
  0
LINE
  5
94
330
A
100
AcDbEntity
  8
TFR-TRI
  6
CONTINUOUS
 62
     5
100
AcDbLine
 10
34.56536483764648
 20
13.62199974060058
 30
0.0
 11
34.7798957824707
 21
13.62196731567382
 31
0.0
  0
LINE
  5
95
330
A
100
AcDbEntity
  8
TFR-TRI
  6
CONTINUOUS
 62
     5
100
AcDbLine
 10
34.44933700561523
 20
14.21280002593994
 30
0.0
 11
34.44999313354492
 21
14.21390724182129
 31
0.0
  0
LINE
  5
96
330
A
100
AcDbEntity
  8
TFR-TRI
  6
CONTINUOUS
 62
     5
100
AcDbLine
 10
15.86795997619629
 20
22.74462509155273
 30
0.0
 11
15.85091209411621
 21
22.74462509155273
 31
0.0
  0
LINE
  5
97
330
A
100
AcDbEntity
  8
TFR-TRI
  6
CONTINUOUS
 62
     5
100
AcDbLine
 10
17.12884140014648
 20
11.94416999816894
 30
0.0
 11
17.13591194152832
 21
11.95124053955078
 31
0.0
  0
LINE
  5
98
330
A
100
AcDbEntity
  8
TFR-TRI
  6
CONTINUOUS
 62
     7
100
AcDbLine
 10
16.79602813720703
 20
22.75462532043456
 30
0.0
 11
16.74759292602539
 21
22.75462532043456
 31
0.0
  0
LINE
  5
99
330
A
100
AcDbEntity
  8
TFR-TRI
  6
CONTINUOUS
 62
     5
100
AcDbLine
 10
16.993013381958
 20
14.12458515167236
 30
0.0
 11
17.10091209411621
 21
14.13521194458007
 31
0.0
  0
LINE
  5
9A
330
A
100
AcDbEntity
  8
TFR-TRI
  6
CONTINUOUS
 62
     5
100
AcDbLine
 10
34.45613861083984
 20
13.68022346496582
 30
0.0
 11
34.47074890136718
 21
13.68699836730957
 31
0.0
  0
LINE
  5
9B
330
A
100
AcDbEntity
  8
TFR-TRI
  6
CONTINUOUS
 62
     5
100
AcDbLine
 10
34.81610870361328
 20
14.42746925354003
 30
0.0
 11
34.82075881958007
 21
14.42941188812255
 31
0.0
  0
LINE
  5
9C
330
A
100
AcDbEntity
  8
TFR-TRI
  6
CONTINUOUS
 62
     5
100
AcDbLine
 10
17.25165176391601
 20
29.23734474182129
 30
0.0
 11
17.24416351318359
 21
29.23854637145996
 31
0.0
  0
LINE
  5
9D
330
A
100
AcDbEntity
  8
TFR-TRI
  6
CONTINUOUS
 62
     5
100
AcDbLine
 10
16.31341171264648
 20
29.61283874511718
 30
0.0
 11
16.33015823364257
 21
29.58133697509765
 31
0.0
  0
LINE
  5
9E
330
A
100
AcDbEntity
  8
TFR-TRI
  6
CONTINUOUS
 62
     7
100
AcDbLine
 10
27.94124221801757
 20
15.04454231262207
 30
0.0
 11
27.94124221801757
 21
15.01804447174072
 31
0.0
  0
LINE
  5
9F
330
A
100
AcDbEntity
  8
TFR-TRI
  6
CONTINUOUS
 62
     5
100
AcDbLine
 10
16.68877983093261
 20
15.1314468383789
 30
0.0
 11
16.71223068237304
 21
15.1314468383789
 31
0.0
  0
LINE
  5
A0
330
A
100
AcDbEntity
  8
TFR-TRI
  6
CONTINUOUS
 62
     5
100
AcDbLine
 10
34.44933700561523
 20
14.21280002593994
 30
0.0
 11
34.4375
 21
14.2050666809082
 31
0.0
  0
LINE
  5
A1
330
A
100
AcDbEntity
  8
TFR-TRI
  6
CONTINUOUS
 62
     7
100
AcDbLine
 10
17.19998359680175
 20
15.01804447174072
 30
0.0
 11
17.09680366516113
 21
15.01804447174072
 31
0.0
  0
LINE
  5
A2
330
A
100
AcDbEntity
  8
TFR-TRI
  6
CONTINUOUS
 62
     5
100
AcDbLine
 10
16.91341209411621
 20
29.49258613586426
 30
0.0
 11
16.91341209411621
 21
29.52673149108886
 31
0.0
  0
LINE
  5
A3
330
A
100
AcDbEntity
  8
TFR-TRI
  6
CONTINUOUS
 62
     5
100
AcDbLine
 10
16.68877983093261
 20
15.09298992156982
 30
0.0
 11
16.74759292602539
 21
15.09298992156982
 31
0.0
  0
LINE
  5
A4
330
A
100
AcDbEntity
  8
TFR-TRI
  6
CONTINUOUS
 62
     5
100
AcDbLine
 10
17.20881080627441
 20
14.12458515167236
 30
0.0
 11
17.31256294250488
 21
14.09311199188232
 31
0.0
  0
LINE
  5
A5
330
A
100
AcDbEntity
  8
TFR-TRI
  6
CONTINUOUS
 62
     5
100
AcDbLine
 10
34.45130538940429
 20
13.48928928375244
 30
0.0
 11
34.45077514648437
 21
13.49133491516113
 31
0.0
  0
LINE
  5
A6
330
A
100
AcDbEntity
  8
TFR-TRI
  6
CONTINUOUS
 62
     7
100
AcDbLine
 10
17.13716125488281
 20
11.86131858825683
 30
0.0
 11
17.13716125488281
 21
11.90374088287353
 31
0.0
  0
LINE
  5
A7
330
A
100
AcDbEntity
  8
TFR-TRI
  6
CONTINUOUS
 62
     5
100
AcDbLine
 10
16.40479850769043
 20
29.55219268798828
 30
0.0
 11
16.4085464477539
 21
29.54530906677246
 31
0.0
  0
LINE
  5
A8
330
A
100
AcDbEntity
  8
TFR-TRI
  6
CONTINUOUS
 62
     5
100
AcDbLine
 10
17.02176475524902
 20
15.13523197174072
 30
0.0
 11
17.02176475524902
 21
15.20179557800293
 31
0.0
  0
LINE
  5
A9
330
A
100
AcDbEntity
  8
TFR-TRI
  6
CONTINUOUS
 62
     3
100
AcDbLine
 10
15.11141204833984
 20
29.77215766906738
 30
0.0
 11
15.11141204833984
 21
29.83862495422363
 31
0.0
  0
LINE
  5
AA
330
A
100
AcDbEntity
  8
TFR-TRI
  6
CONTINUOUS
 62
     7
100
AcDbLine
 10
27.94124221801757
 20
15.09627246856689
 30
0.0
 11
27.94124221801757
 21
15.01804447174072
 31
0.0
  0
LINE
  5
AB
330
A
100
AcDbEntity
  8
TFR-TRI
  6
CONTINUOUS
 62
     7
100
AcDbLine
 10
14.60641193389892
 20
11.69283866882324
 30
0.0
 11
14.60641193389892
 21
11.73510837554931
 31
0.0
  0
LINE
  5
AC
330
A
100
AcDbEntity
  8
TFR-TRI
  6
CONTINUOUS
 62
     5
100
AcDbLine
 10
34.6632080078125
 20
13.69825267791748
 30
0.0
 11
34.75564193725586
 21
13.69787216186523
 31
0.0
  0
LINE
  5
AD
330
A
100
AcDbEntity
  8
TFR-TRI
  6
CONTINUOUS
 62
     3
100
AcDbLine
 10
16.92091178894043
 20
13.58214282989502
 30
0.0
 11
16.33527565002441
 21
13.58214282989502
 31
0.0
  0
LINE
  5
AE
330
A
100
AcDbEntity
  8
TFR-TRI
  6
CONTINUOUS
 62
     7
100
AcDbLine
 10
17.42162895202636
 20
15.20179557800293
 30
0.0
 11
17.47087287902832
 21
15.20179557800293
 31
0.0
  0
LINE
  5
AF
330
A
100
AcDbEntity
  8
TFR-TRI
  6
CONTINUOUS
 62
     7
100
AcDbLine
 10
14.89540863037109
 20
28.17047119140625
 30
0.0
 11
15.01740837097168
 21
28.17047119140625
 31
0.0
  0
LINE
  5
B0
330
A
100
AcDbEntity
  8
TFR-TRI
  6
CONTINUOUS
 62
     5
100
AcDbLine
 10
17.15116119384765
 20
15.06025409698486
 30
0.0
 11
17.15116119384765
 21
15.16343212127685
 31
0.0
  0
LINE
  5
B1
330
A
100
AcDbEntity
  8
TFR-TRI
  6
CONTINUOUS
 62
     7
100
AcDbLine
 10
27.94124221801757
 20
15.16427612304687
 30
0.0
 11
27.94124221801757
 21
15.20179557800293
 31
0.0
  0
LINE
  5
B2
330
A
100
AcDbEntity
  8
TFR-TRI
  6
CONTINUOUS
 62
     5
100
AcDbLine
 10
28.02117538452148
 20
12.01465511322021
 30
0.0
 11
28.01986503601074
 21
12.19587230682373
 31
0.0
  0
LINE
  5
B3
330
A
100
AcDbEntity
  8
TFR-TRI
  6
CONTINUOUS
 62
     7
100
AcDbLine
 10
16.82619476318359
 20
22.75462532043456
 30
0.0
 11
16.87260437011718
 21
22.75462532043456
 31
0.0
  0
LINE
  5
B4
330
A
100
AcDbEntity
  8
TFR-TRI
  6
CONTINUOUS
 62
     7
100
AcDbLine
 10
16.80340194702148
 20
15.01804447174072
 30
0.0
 11
16.74923133850097
 21
15.01804447174072
 31
0.0
  0
LINE
  5
B5
330
A
100
AcDbEntity
  8
TFR-TRI
  6
CONTINUOUS
 62
     7
100
AcDbLine
 10
27.94124221801757
 20
11.96249103546142
 30
0.0
 11
27.94124221801757
 21
11.95124053955078
 31
0.0
  0
LINE
  5
B6
330
A
100
AcDbEntity
  8
TFR-TRI
  6
CONTINUOUS
 62
     5
100
AcDbLine
 10
15.987154006958
 20
22.83456039428711
 30
0.0
 11
15.91209125518799
 21
22.83325004577636
 31
0.0
  0
LINE
  5
B7
330
A
100
AcDbEntity
  8
TFR-TRI
  6
CONTINUOUS
 62
     5
100
AcDbLine
 10
17.39198875427246
 20
15.20179557800293
 30
0.0
 11
17.39198875427246
 21
15.05087375640869
 31
0.0
  0
LINE
  5
B8
330
A
100
AcDbEntity
  8
TFR-TRI
  6
CONTINUOUS
 62
     7
100
AcDbLine
 10
17.01766204833984
 20
22.75462532043456
 30
0.0
 11
16.99875831604003
 21
22.75462532043456
 31
0.0
  0
LINE
  5
B9
330
A
100
AcDbEntity
  8
TFR-TRI
  6
CONTINUOUS
 62
     7
100
AcDbLine
 10
27.94124221801757
 20
15.06300067901611
 30
0.0
 11
27.94124221801757
 21
15.06963348388671
 31
0.0
  0
LINE
  5
BA
330
A
100
AcDbEntity
  8
TFR-TRI
  6
CONTINUOUS
 62
     5
100
AcDbLine
 10
28.04061698913574
 20
15.83214282989501
 30
0.0
 11
28.04061698913574
 21
14.57144832611084
 31
0.0
  0
LINE
  5
BB
330
A
100
AcDbEntity
  8
TFR-TRI
  6
CONTINUOUS
 62
     7
100
AcDbLine
 10
17.14716148376465
 20
11.85499095916748
 30
0.0
 11
17.14716148376465
 21
11.90874099731445
 31
0.0
  0
LINE
  5
BC
330
A
100
AcDbEntity
  8
TFR-TRI
  6
CONTINUOUS
 62
     7
100
AcDbLine
 10
14.63766193389892
 20
28.38068580627441
 30
0.0
 11
14.63766193389892
 21
28.35054588317871
 31
0.0
  0
LINE
  5
BD
330
A
100
AcDbEntity
  8
TFR-TRI
  6
CONTINUOUS
 62
     5
100
AcDbLine
 10
17.62095069885253
 20
15.16427612304687
 30
0.0
 11
17.62095069885253
 21
15.20179557800293
 31
0.0
  0
LINE
  5
BE
330
A
100
AcDbEntity
  8
TFR-TRI
  6
CONTINUOUS
 62
     7
100
AcDbLine
 10
27.94124221801757
 20
15.01804447174072
 30
0.0
 11
27.94124221801757
 21
15.02766036987304
 31
0.0
  0
LINE
  5
BF
330
A
100
AcDbEntity
  8
TFR-TRI
  6
CONTINUOUS
 62
     5
100
AcDbLine
 10
34.92711639404296
 20
11.89464282989501
 30
0.0
 11
34.9312400817871
 21
11.89464282989501
 31
0.0
  0
LINE
  5
C0
330
A
100
AcDbEntity
  8
TFR-TRI
  6
CONTINUOUS
 62
     5
100
AcDbLine
 10
28.04061698913574
 20
12.59283828735351
 30
0.0
 11
28.05470657348632
 21
12.67557716369628
 31
0.0
  0
LINE
  5
C1
330
A
100
AcDbEntity
  8
TFR-TRI
  6
CONTINUOUS
 62
     7
100
AcDbLine
 10
16.97955513000488
 20
15.01804447174072
 30
0.0
 11
16.97955513000488
 21
15.09627246856689
 31
0.0
  0
LINE
  5
C2
330
A
100
AcDbEntity
  8
TFR-TRI
  6
CONTINUOUS
 62
     5
100
AcDbLine
 10
17.78459739685058
 20
22.74462509155273
 30
0.0
 11
17.60303115844726
 21
22.74462509155273
 31
0.0
  0
LINE
  5
C3
330
A
100
AcDbEntity
  8
TFR-TRI
  6
CONTINUOUS
 62
     7
100
AcDbLine
 10
17.409912109375
 20
11.96249103546142
 30
0.0
 11
17.31491088867187
 21
11.84374046325683
 31
0.0
  0
LINE
  5
C4
330
A
100
AcDbEntity
  8
TFR-TRI
  6
CONTINUOUS
 62
     5
100
AcDbLine
 10
16.80191230773925
 20
11.91374015808105
 30
0.0
 11
16.80191230773925
 21
11.95249080657958
 31
0.0
  0
LINE
  5
C5
330
A
100
AcDbEntity
  8
TFR-TRI
  6
CONTINUOUS
 62
     3
100
AcDbLine
 10
32.0992431640625
 20
10.67664337158203
 30
0.0
 11
32.0992431640625
 21
12.90935897827148
 31
0.0
  0
LINE
  5
C6
330
A
100
AcDbEntity
  8
TFR-TRI
  6
CONTINUOUS
 62
     5
100
AcDbLine
 10
34.8441047668457
 20
13.69740676879882
 30
0.0
 11
34.84413146972656
 21
13.69648838043213
 31
0.0
  0
LINE
  5
C7
330
A
100
AcDbEntity
  8
TFR-TRI
  6
CONTINUOUS
 62
     7
100
AcDbLine
 10
27.94124221801757
 20
11.91374015808105
 30
0.0
 11
27.94124221801757
 21
11.95249080657958
 31
0.0
  0
LINE
  5
C8
330
A
100
AcDbEntity
  8
TFR-TRI
  6
CONTINUOUS
 62
     5
100
AcDbLine
 10
34.67980194091797
 20
15.5214033126831
 30
0.0
 11
34.67655181884765
 21
15.51952648162841
 31
0.0
  0
LINE
  5
C9
330
A
100
AcDbEntity
  8
TFR-TRI
  6
CONTINUOUS
 62
     7
100
AcDbLine
 10
16.68877983093261
 20
15.1314468383789
 30
0.0
 11
16.68877983093261
 21
15.21586608886718
 31
0.0
  0
LINE
  5
CA
330
A
100
AcDbEntity
  8
TFR-TRI
  6
CONTINUOUS
 62
     5
100
AcDbLine
 10
17.007661819458
 20
11.92131900787353
 30
0.0
 11
16.99166297912597
 21
11.91374015808105
 31
0.0
  0
LINE
  5
CB
330
A
100
AcDbEntity
  8
TFR-TRI
  6
CONTINUOUS
 62
     3
100
AcDbLine
 10
32.12677383422851
 20
16.48864364624023
 30
0.0
 11
32.19324111938476
 21
16.48864364624023
 31
0.0
  0
LINE
  5
CC
330
A
100
AcDbEntity
  8
TFR-TRI
  6
CONTINUOUS
 62
     5
100
AcDbLine
 10
34.84414291381836
 20
13.54023361206054
 30
0.0
 11
34.84425354003906
 21
13.53247547149658
 31
0.0
  0
LINE
  5
CD
330
A
100
AcDbEntity
  8
TFR-TRI
  6
CONTINUOUS
 62
     3
100
AcDbLine
 10
33.43946075439453
 20
11.89214324951171
 30
0.0
 11
33.43740844726562
 21
11.86868667602539
 31
0.0
  0
LINE
  5
CE
330
A
100
AcDbEntity
  8
TFR-TRI
  6
CONTINUOUS
 62
     7
100
AcDbLine
 10
17.12116241455078
 20
11.85374069213867
 30
0.0
 11
17.13716125488281
 21
11.86131858825683
 31
0.0
  0
LINE
  5
CF
330
A
100
AcDbEntity
  8
TFR-TRI
  6
CONTINUOUS
 62
     5
100
AcDbLine
 10
17.26916122436523
 20
11.92131900787353
 30
0.0
 11
17.2531623840332
 21
11.91374015808105
 31
0.0
  0
LINE
  5
D0
330
A
100
AcDbEntity
  8
TFR-TRI
  6
CONTINUOUS
 62
     3
100
AcDbLine
 10
19.09041213989257
 20
30.22720909118652
 30
0.0
 11
19.09041213989257
 21
30.24462509155273
 31
0.0
  0
LINE
  5
D1
330
A
100
AcDbEntity
  8
TFR-TRI
  6
CONTINUOUS
 62
     3
100
AcDbLine
 10
34.90124130249023
 20
16.55511093139648
 30
0.0
 11
34.90124130249023
 21
16.48864364624023
 31
0.0
  0
LINE
  5
D2
330
A
100
AcDbEntity
  8
TFR-TRI
  6
CONTINUOUS
 62
     5
100
AcDbLine
 10
34.83906173706055
 20
12.61350345611572
 30
0.0
 11
34.83899307250976
 21
12.59562683105468
 31
0.0
  0
LINE
  5
D3
330
A
100
AcDbEntity
  8
TFR-TRI
  6
CONTINUOUS
 62
     3
100
AcDbLine
 10
33.32526016235351
 20
11.46595191955566
 30
0.0
 11
33.3647232055664
 21
11.44316864013671
 31
0.0
  0
LINE
  5
D4
330
A
100
AcDbEntity
  8
TFR-TRI
  6
CONTINUOUS
 62
     5
100
AcDbLine
 10
17.05341148376464
 20
11.92686557769775
 30
0.0
 11
17.06859970092773
 21
11.90999031066894
 31
0.0
  0
LINE
  5
D5
330
A
100
AcDbEntity
  8
TFR-TRI
  6
CONTINUOUS
 62
     5
100
AcDbLine
 10
34.83877944946289
 20
14.59094429016113
 30
0.0
 11
34.83783340454101
 21
14.5936632156372
 31
0.0
  0
LINE
  5
D6
330
A
100
AcDbEntity
  8
TFR-TRI
  6
CONTINUOUS
 62
     7
100
AcDbLine
 10
33.48224258422851
 20
11.63764286041259
 30
0.0
 11
33.57929611206055
 21
11.63764286041259
 31
0.0
  0
LINE
  5
D7
330
A
100
AcDbEntity
  8
TFR-TRI
  6
CONTINUOUS
 62
     7
100
AcDbLine
 10
16.80191230773925
 20
11.84374046325683
 30
0.0
 11
16.79191207885742
 21
11.84374046325683
 31
0.0
  0
LINE
  5
D8
330
A
100
AcDbEntity
  8
TFR-TRI
  6
CONTINUOUS
 62
     7
100
AcDbLine
 10
27.94124221801757
 20
11.95249080657958
 30
0.0
 11
27.94124221801757
 21
11.84374046325683
 31
0.0
  0
LINE
  5
D9
330
A
100
AcDbEntity
  8
TFR-TRI
  6
CONTINUOUS
 62
     3
100
AcDbLine
 10
35.43124008178711
 20
10.58264350891113
 30
0.0
 11
35.41382598876953
 21
10.58264350891113
 31
0.0
  0
LINE
  5
DA
330
A
100
AcDbEntity
  8
TFR-TRI
  6
CONTINUOUS
 62
     5
100
AcDbLine
 10
34.72788619995117
 20
15.44091129302978
 30
0.0
 11
34.73506546020507
 21
15.4450569152832
 31
0.0
  0
LINE
  5
DB
330
A
100
AcDbEntity
  8
TFR-TRI
  6
CONTINUOUS
 62
     5
100
AcDbLine
 10
16.91341209411621
 20
29.46967124938964
 30
0.0
 11
17.10091209411621
 21
29.46743583679199
 31
0.0
  0
LINE
  5
DC
330
A
100
AcDbEntity
  8
TFR-TRI
  6
CONTINUOUS
 62
     7
100
AcDbLine
 10
33.33724212646484
 20
11.65764331817626
 30
0.0
 11
33.33724212646484
 21
11.63764286041259
 31
0.0
  0
LINE
  5
DD
330
A
100
AcDbEntity
  8
TFR-TRI
  6
CONTINUOUS
 62
     7
100
AcDbLine
 10
14.60641193389892
 20
28.20172119140625
 30
0.0
 11
14.63766193389892
 21
28.17047119140625
 31
0.0
  0
LINE
  5
DE
330
A
100
AcDbEntity
  8
TFR-TRI
  6
CONTINUOUS
 62
     7
100
AcDbLine
 10
17.31491088867187
 20
22.75462532043456
 30
0.0
 11
17.409912109375
 21
22.75462532043456
 31
0.0
  0
LINE
  5
DF
330
A
100
AcDbEntity
  8
TFR-TRI
  6
CONTINUOUS
 62
     3
100
AcDbLine
 10
19.06041145324707
 20
16.48864364624023
 30
0.0
 11
19.06041145324707
 21
16.55511093139648
 31
0.0
  0
LINE
  5
E0
330
A
100
AcDbEntity
  8
TFR-TRI
  6
CONTINUOUS
 62
     5
100
AcDbLine
 10
27.93124198913574
 20
12.15461826324462
 30
0.0
 11
27.93124198913574
 21
12.36508274078369
 31
0.0
  0
LINE
  5
E1
330
A
100
AcDbEntity
  8
TFR-TRI
  6
CONTINUOUS
 62
     5
100
AcDbLine
 10
34.58027648925781
 20
12.97449779510498
 30
0.0
 11
34.58315277099609
 21
12.97797203063964
 31
0.0
  0
LINE
  5
E2
330
A
100
AcDbEntity
  8
TFR-TRI
  6
CONTINUOUS
 62
     5
100
AcDbLine
 10
34.67878723144531
 20
15.51892757415771
 30
0.0
 11
34.65782165527343
 21
15.49160385131836
 31
0.0
  0
LINE
  5
E3
330
A
100
AcDbEntity
  8
TFR-TRI
  6
CONTINUOUS
 62
     7
100
AcDbLine
 10
27.94124221801757
 20
15.1431713104248
 30
0.0
 11
27.94124221801757
 21
15.20414066314697
 31
0.0
  0
LINE
  5
E4
330
A
100
AcDbEntity
  8
TFR-TRI
  6
CONTINUOUS
 62
     7
100
AcDbLine
 10
27.94124221801757
 20
11.94416999816894
 30
0.0
 11
27.94124221801757
 21
11.95124053955078
 31
0.0
  0
LINE
  5
E5
330
A
100
AcDbEntity
  8
TFR-TRI
  6
CONTINUOUS
 62
     5
100
AcDbLine
 10
16.47693443298339
 20
29.26966094970703
 30
0.0
 11
16.47652244567871
 21
29.26683235168457
 31
0.0
  0
LINE
  5
E6
330
A
100
AcDbEntity
  8
TFR-TRI
  6
CONTINUOUS
 62
     5
100
AcDbLine
 10
34.81852340698242
 20
13.69854164123535
 30
0.0
 11
34.83274459838867
 21
13.69840908050537
 31
0.0
  0
LINE
  5
E7
330
A
100
AcDbEntity
  8
TFR-TRI
  6
CONTINUOUS
 62
     5
100
AcDbLine
 10
34.82894897460937
 20
13.46583271026611
 30
0.0
 11
34.81271362304687
 21
13.46570968627929
 31
0.0
  0
LINE
  5
E8
330
A
100
AcDbEntity
  8
TFR-TRI
  6
CONTINUOUS
 62
     5
100
AcDbLine
 10
17.12466239929199
 20
11.91999053955078
 30
0.0
 11
17.07305335998535
 21
11.91999053955078
 31
0.0
  0
LINE
  5
E9
330
A
100
AcDbEntity
  8
TFR-TRI
  6
CONTINUOUS
 62
     3
100
AcDbLine
 10
19.06041145324707
 20
29.74462509155273
 30
0.0
 11
19.06041145324707
 21
29.77215766906738
 31
0.0
  0
LINE
  5
EA
330
A
100
AcDbEntity
  8
TFR-TRI
  6
CONTINUOUS
 62
     5
100
AcDbLine
 10
16.88926124572754
 20
13.07117462158203
 30
0.0
 11
16.79364395141601
 21
13.12228298187255
 31
0.0
  0
LINE
  5
EB
330
A
100
AcDbEntity
  8
TFR-TRI
  6
CONTINUOUS
 62
     3
100
AcDbLine
 10
15.04494380950927
 20
16.48864364624023
 30
0.0
 11
15.11141204833984
 21
16.48864364624023
 31
0.0
  0
LINE
  5
EC
330
A
100
AcDbEntity
  8
TFR-TRI
  6
CONTINUOUS
 62
     5
100
AcDbLine
 10
34.56536483764648
 20
13.62199974060058
 30
0.0
 11
34.52637481689453
 21
13.62643432617187
 31
0.0
  0
LINE
  5
ED
330
A
100
AcDbEntity
  8
TFR-TRI
  6
CONTINUOUS
 62
     5
100
AcDbLine
 10
34.83840942382812
 20
14.59127616882324
 30
0.0
 11
34.83877944946289
 21
14.59094429016113
 31
0.0
  0
LINE
  5
EE
330
A
100
AcDbEntity
  8
TFR-TRI
  6
CONTINUOUS
 62
     5
100
AcDbLine
 10
17.72616958618164
 20
29.26414108276367
 30
0.0
 11
17.72832298278808
 21
29.26416015625
 31
0.0
  0
LINE
  5
EF
330
A
100
AcDbEntity
  8
TFR-TRI
  6
CONTINUOUS
 62
     7
100
AcDbLine
 10
17.34424591064453
 20
22.75462532043456
 30
0.0
 11
17.35087776184082
 21
22.75462532043456
 31
0.0
  0
LINE
  5
F0
330
A
100
AcDbEntity
  8
TFR-TRI
  6
CONTINUOUS
 62
     7
100
AcDbLine
 10
33.48224258422851
 20
11.53264331817626
 30
0.0
 11
33.48224258422851
 21
11.54058933258056
 31
0.0
  0
LINE
  5
F1
330
A
100
AcDbEntity
  8
TFR-TRI
  6
CONTINUOUS
 62
     5
100
AcDbLine
 10
34.47074890136718
 20
13.68699836730957
 30
0.0
 11
34.5399055480957
 21
13.69860363006591
 31
0.0
  0
LINE
  5
F2
330
A
100
AcDbEntity
  8
TFR-TRI
  6
CONTINUOUS
 62
     5
100
AcDbLine
 10
34.82075881958007
 20
14.42941188812255
 30
0.0
 11
34.82578659057617
 21
14.42970466613769
 31
0.0
  0
LINE
  5
F3
330
A
100
AcDbEntity
  8
TFR-TRI
  6
CONTINUOUS
 62
     5
100
AcDbLine
 10
34.45630264282226
 20
12.97715187072753
 30
0.0
 11
34.49829483032226
 21
12.97972774505615
 31
0.0
  0
LINE
  5
F4
330
A
100
AcDbEntity
  8
TFR-TRI
  6
CONTINUOUS
 62
     5
100
AcDbLine
 10
34.59998703002929
 20
13.69845867156982
 30
0.0
 11
34.6632080078125
 21
13.69825267791748
 31
0.0
  0
LINE
  5
F5
330
A
100
AcDbEntity
  8
TFR-TRI
  6
CONTINUOUS
 62
     5
100
AcDbLine
 10
17.02341651916503
 20
11.84374046325683
 30
0.0
 11
17.0126609802246
 21
11.84374046325683
 31
0.0
  0
LINE
  5
F6
330
A
100
AcDbEntity
  8
TFR-TRI
  6
CONTINUOUS
 62
     5
100
AcDbLine
 10
34.4375
 20
14.2050666809082
 30
0.0
 11
34.42581176757812
 21
14.19830322265625
 31
0.0
  0
LINE
  5
F7
330
A
100
AcDbEntity
  8
TFR-TRI
  6
CONTINUOUS
 62
     5
100
AcDbLine
 10
34.58988189697265
 20
12.95125675201416
 30
0.0
 11
34.58631134033203
 21
12.95359516143798
 31
0.0
  0
LINE
  5
F8
330
A
100
AcDbEntity
  8
TFR-TRI
  6
CONTINUOUS
 62
     7
100
AcDbLine
 10
16.874267578125
 20
15.20179557800293
 30
0.0
 11
16.9279670715332
 21
15.08220291137695
 31
0.0
  0
LINE
  5
F9
330
A
100
AcDbEntity
  8
TFR-TRI
  6
CONTINUOUS
 62
     5
100
AcDbLine
 10
17.31491088867187
 20
11.96249103546142
 30
0.0
 11
17.409912109375
 21
11.96249103546142
 31
0.0
  0
LINE
  5
FA
330
A
100
AcDbEntity
  8
TFR-TRI
  6
CONTINUOUS
 62
     5
100
AcDbLine
 10
16.91341209411621
 20
29.52673149108886
 30
0.0
 11
16.91341209411621
 21
29.55405616760254
 31
0.0
  0
LINE
  5
FB
330
A
100
AcDbEntity
  8
TFR-TRI
  6
CONTINUOUS
 62
     5
100
AcDbLine
 10
16.68877983093261
 20
15.09298992156982
 30
0.0
 11
16.68877983093261
 21
15.01804447174072
 31
0.0
  0
LINE
  5
FC
330
A
100
AcDbEntity
  8
TFR-TRI
  6
CONTINUOUS
 62
     7
100
AcDbLine
 10
27.94124221801757
 20
15.09298992156982
 30
0.0
 11
27.94124221801757
 21
15.01804447174072
 31
0.0
  0
LINE
  5
FD
330
A
100
AcDbEntity
  8
TFR-TRI
  6
CONTINUOUS
 62
     7
100
AcDbLine
 10
14.63766193389892
 20
11.7666015625
 30
0.0
 11
14.63766193389892
 21
11.73701286315917
 31
0.0
  0
LINE
  5
FE
330
A
100
AcDbEntity
  8
TFR-TRI
  6
CONTINUOUS
 62
     5
100
AcDbLine
 10
16.4085464477539
 20
29.54530906677246
 30
0.0
 11
16.43681335449218
 21
29.48402404785156
 31
0.0
  0
LINE
  5
FF
330
A
100
AcDbEntity
  8
TFR-TRI
  6
CONTINUOUS
 62
     5
100
AcDbLine
 10
17.02176475524902
 20
15.13523197174072
 30
0.0
 11
16.98940467834472
 21
15.20179557800293
 31
0.0
  0
LINE
  5
100
330
A
100
AcDbEntity
  8
TFR-TRI
  6
CONTINUOUS
 62
     7
100
AcDbLine
 10
27.94124221801757
 20
11.86131858825683
 30
0.0
 11
27.94124221801757
 21
11.90374088287353
 31
0.0
  0
LINE
  5
101
330
A
100
AcDbEntity
  8
TFR-TRI
  6
CONTINUOUS
 62
     7
100
AcDbLine
 10
27.94124221801757
 20
11.85499095916748
 30
0.0
 11
27.94124221801757
 21
11.90874099731445
 31
0.0
  0
LINE
  5
102
330
A
100
AcDbEntity
  8
TFR-TRI
  6
CONTINUOUS
 62
     7
100
AcDbLine
 10
17.47087287902832
 20
15.01804447174072
 30
0.0
 11
17.42162895202636
 21
15.01804447174072
 31
0.0
  0
LINE
  5
103
330
A
100
AcDbEntity
  8
TFR-TRI
  6
CONTINUOUS
 62
     5
100
AcDbLine
 10
18.1121826171875
 20
22.83634757995605
 30
0.0
 11
17.98479461669922
 21
22.83857154846191
 31
0.0
  0
LINE
  5
104
330
A
100
AcDbEntity
  8
TFR-TRI
  6
CONTINUOUS
 62
     5
100
AcDbLine
 10
17.15116119384765
 20
15.06025409698486
 30
0.0
 11
17.16991996765136
 21
15.06025409698486
 31
0.0
  0
LINE
  5
105
330
A
100
AcDbEntity
  8
TFR-TRI
  6
CONTINUOUS
 62
     7
100
AcDbLine
 10
27.94124221801757
 20
11.93070316314697
 30
0.0
 11
27.94124221801757
 21
11.91999053955078
 31
0.0
  0
LINE
  5
106
330
A
100
AcDbEntity
  8
TFR-TRI
  6
CONTINUOUS
 62
     7
100
AcDbLine
 10
27.94124221801757
 20
11.84374046325683
 30
0.0
 11
27.94124221801757
 21
11.90374088287353
 31
0.0
  0
LINE
  5
107
330
A
100
AcDbEntity
  8
TFR-TRI
  6
CONTINUOUS
 62
     7
100
AcDbLine
 10
16.88444328308105
 20
22.75462532043456
 30
0.0
 11
16.89738845825195
 21
22.75462532043456
 31
0.0
  0
LINE
  5
108
330
A
100
AcDbEntity
  8
TFR-TRI
  6
CONTINUOUS
 62
     5
100
AcDbLine
 10
28.01986503601074
 20
12.19587230682373
 30
0.0
 11
28.01906585693359
 21
12.38660049438476
 31
0.0
  0
LINE
  5
109
330
A
100
AcDbEntity
  8
TFR-TRI
  6
CONTINUOUS
 62
     7
100
AcDbLine
 10
17.27916145324707
 20
11.95124053955078
 30
0.0
 11
17.27916145324707
 21
11.91499042510986
 31
0.0
  0
LINE
  5
10A
330
A
100
AcDbEntity
  8
TFR-TRI
  6
CONTINUOUS
 62
     5
100
AcDbLine
 10
15.91209125518799
 20
22.83325004577636
 30
0.0
 11
15.86630153656005
 21
22.83245086669921
 31
0.0
  0
LINE
  5
10B
330
A
100
AcDbEntity
  8
TFR-TRI
  6
CONTINUOUS
 62
     7
100
AcDbLine
 10
27.94124221801757
 20
15.09298992156982
 30
0.0
 11
27.94124221801757
 21
15.10880947113037
 31
0.0
  0
LINE
  5
10C
330
A
100
AcDbEntity
  8
TFR-TRI
  6
CONTINUOUS
 62
     7
100
AcDbLine
 10
17.39191246032715
 20
22.75462532043456
 30
0.0
 11
17.30491256713867
 21
22.75462532043456
 31
0.0
  0
LINE
  5
10D
330
A
100
AcDbEntity
  8
TFR-TRI
  6
CONTINUOUS
 62
     5
100
AcDbLine
 10
28.03374862670898
 20
12.67620944976806
 30
0.0
 11
28.03103256225586
 21
12.76188373565673
 31
0.0
  0
LINE
  5
10E
330
A
100
AcDbEntity
  8
TFR-TRI
  6
CONTINUOUS
 62
     7
100
AcDbLine
 10
17.12341117858886
 20
22.75462532043456
 30
0.0
 11
17.14716148376465
 21
22.75462532043456
 31
0.0
  0
LINE
  5
10F
330
A
100
AcDbEntity
  8
TFR-TRI
  6
CONTINUOUS
 62
     7
100
AcDbLine
 10
17.05341148376464
 20
11.95061588287353
 30
0.0
 11
17.05341148376464
 21
11.92686557769775
 31
0.0
  0
LINE
  5
110
330
A
100
AcDbEntity
  8
TFR-TRI
  6
CONTINUOUS
 62
     7
100
AcDbLine
 10
16.88444328308105
 20
22.75462532043456
 30
0.0
 11
16.89738845825195
 21
22.75462532043456
 31
0.0
  0
LINE
  5
111
330
A
100
AcDbEntity
  8
TFR-TRI
  6
CONTINUOUS
 62
     5
100
AcDbLine
 10
17.48494338989257
 20
15.20179557800293
 30
0.0
 11
17.62095069885253
 21
15.20179557800293
 31
0.0
  0
LINE
  5
112
330
A
100
AcDbEntity
  8
TFR-TRI
  6
CONTINUOUS
 62
     7
100
AcDbLine
 10
17.12466239929199
 20
22.75462532043456
 30
0.0
 11
17.06859970092773
 21
22.75462532043456
 31
0.0
  0
LINE
  5
113
330
A
100
AcDbEntity
  8
TFR-TRI
  6
CONTINUOUS
 62
     7
100
AcDbLine
 10
27.94124221801757
 20
15.02766036987304
 30
0.0
 11
27.94124221801757
 21
15.05087375640869
 31
0.0
  0
LINE
  5
114
330
A
100
AcDbEntity
  8
TFR-TRI
  6
CONTINUOUS
 62
     5
100
AcDbLine
 10
34.92711639404296
 20
11.89464282989501
 30
0.0
 11
34.84327316284179
 21
11.89464282989501
 31
0.0
  0
LINE
  5
115
330
A
100
AcDbEntity
  8
TFR-TRI
  6
CONTINUOUS
 62
     7
100
AcDbLine
 10
17.15116119384765
 20
22.75462532043456
 30
0.0
 11
17.16991996765136
 21
22.75462532043456
 31
0.0
  0
LINE
  5
116
330
A
100
AcDbEntity
  8
TFR-TRI
  6
CONTINUOUS
 62
     7
100
AcDbLine
 10
17.12051963806152
 20
22.75462532043456
 30
0.0
 11
17.12884140014648
 21
22.75462532043456
 31
0.0
  0
LINE
  5
117
330
A
100
AcDbEntity
  8
TFR-TRI
  6
CONTINUOUS
 62
     5
100
AcDbLine
 10
28.05470657348632
 20
12.67557716369628
 30
0.0
 11
28.09539031982422
 21
12.74898815155029
 31
0.0
  0
LINE
  5
118
330
A
100
AcDbEntity
  8
TFR-TRI
  6
CONTINUOUS
 62
     7
100
AcDbLine
 10
17.069429397583
 20
22.75462532043456
 30
0.0
 11
17.12051963806152
 21
22.75462532043456
 31
0.0
  0
LINE
  5
119
330
A
100
AcDbEntity
  8
TFR-TRI
  6
CONTINUOUS
 62
     7
100
AcDbLine
 10
17.15116119384765
 20
15.06025409698486
 30
0.0
 11
17.16991996765136
 21
15.06025409698486
 31
0.0
  0
LINE
  5
11A
330
A
100
AcDbEntity
  8
TFR-TRI
  6
CONTINUOUS
 62
     3
100
AcDbLine
 10
32.0992431640625
 20
14.25492858886718
 30
0.0
 11
32.0992431640625
 21
16.48864364624023
 31
0.0
  0
LINE
  5
11B
330
A
100
AcDbEntity
  8
TFR-TRI
  6
CONTINUOUS
 62
     7
100
AcDbLine
 10
16.81461143493652
 20
22.75462532043456
 30
0.0
 11
16.88444328308105
 21
22.75462532043456
 31
0.0
  0
LINE
  5
11C
330
A
100
AcDbEntity
  8
TFR-TRI
  6
CONTINUOUS
 62
     5
100
AcDbLine
 10
34.84413146972656
 20
13.69648838043213
 30
0.0
 11
34.84423828125
 21
13.68872547149658
 31
0.0
  0
LINE
  5
11D
330
A
100
AcDbEntity
  8
TFR-TRI
  6
CONTINUOUS
 62
     5
100
AcDbLine
 10
34.66007995605469
 20
15.45805740356445
 30
0.0
 11
34.68445587158203
 21
15.41583728790283
 31
0.0
  0
LINE
  5
11E
330
A
100
AcDbEntity
  8
TFR-TRI
  6
CONTINUOUS
 62
     7
100
AcDbLine
 10
17.06866455078125
 20
15.20179557800293
 30
0.0
 11
17.06866455078125
 21
15.01804447174072
 31
0.0
  0
LINE
  5
11F
330
A
100
AcDbEntity
  8
TFR-TRI
  6
CONTINUOUS
 62
     5
100
AcDbLine
 10
17.007661819458
 20
11.9449119567871
 30
0.0
 11
17.007661819458
 21
11.92131900787353
 31
0.0
  0
LINE
  5
120
330
A
100
AcDbEntity
  8
TFR-TRI
  6
CONTINUOUS
 62
     7
100
AcDbLine
 10
27.94124221801757
 20
11.92686557769775
 30
0.0
 11
27.94124221801757
 21
11.90999031066894
 31
0.0
  0
LINE
  5
121
330
A
100
AcDbEntity
  8
TFR-TRI
  6
CONTINUOUS
 62
     3
100
AcDbLine
 10
32.19324111938476
 20
10.67664337158203
 30
0.0
 11
32.42924118041992
 21
10.91264343261718
 31
0.0
  0
LINE
  5
122
330
A
100
AcDbEntity
  8
TFR-TRI
  6
CONTINUOUS
 62
     5
100
AcDbLine
 10
34.84425354003906
 20
13.53247547149658
 30
0.0
 11
34.84430694580078
 21
13.52432346343994
 31
0.0
  0
LINE
  5
123
330
A
100
AcDbEntity
  8
TFR-TRI
  6
CONTINUOUS
 62
     3
100
AcDbLine
 10
33.37822723388672
 20
11.8528299331665
 30
0.0
 11
33.3647232055664
 21
11.8721170425415
 31
0.0
  0
LINE
  5
124
330
A
100
AcDbEntity
  8
TFR-TRI
  6
CONTINUOUS
 62
     7
100
AcDbLine
 10
16.75691223144531
 20
11.80874061584472
 30
0.0
 11
16.75691223144531
 21
11.99749088287353
 31
0.0
  0
LINE
  5
125
330
A
100
AcDbEntity
  8
TFR-TRI
  6
CONTINUOUS
 62
     5
100
AcDbLine
 10
17.26916122436523
 20
11.9449119567871
 30
0.0
 11
17.26916122436523
 21
11.92131900787353
 31
0.0
  0
LINE
  5
126
330
A
100
AcDbEntity
  8
TFR-TRI
  6
CONTINUOUS
 62
     3
100
AcDbLine
 10
19.09041213989257
 20
30.24462509155273
 30
0.0
 11
19.15441131591796
 21
30.24462509155273
 31
0.0
  0
LINE
  5
127
330
A
100
AcDbEntity
  8
TFR-TRI
  6
CONTINUOUS
 62
     3
100
AcDbLine
 10
32.19324111938476
 20
16.48864364624023
 30
0.0
 11
32.42924118041992
 21
16.25264358520507
 31
0.0
  0
LINE
  5
128
330
A
100
AcDbEntity
  8
TFR-TRI
  6
CONTINUOUS
 62
     5
100
AcDbLine
 10
34.83899307250976
 20
12.59562683105468
 30
0.0
 11
34.83888626098632
 21
12.58019542694091
 31
0.0
  0
LINE
  5
129
330
A
100
AcDbEntity
  8
TFR-TRI
  6
CONTINUOUS
 62
     7
100
AcDbLine
 10
16.86316108703613
 20
22.75462532043456
 30
0.0
 11
16.88691139221191
 21
22.75462532043456
 31
0.0
  0
LINE
  5
12A
330
A
100
AcDbEntity
  8
TFR-TRI
  6
CONTINUOUS
 62
     3
100
AcDbLine
 10
33.3647232055664
 20
11.44316864013671
 30
0.0
 11
33.37822723388672
 21
11.46245670318603
 31
0.0
  0
LINE
  5
12B
330
A
100
AcDbEntity
  8
TFR-TRI
  6
CONTINUOUS
 62
     7
100
AcDbLine
 10
17.09680366516113
 20
15.20179557800293
 30
0.0
 11
17.19998359680175
 21
15.20179557800293
 31
0.0
  0
LINE
  5
12C
330
A
100
AcDbEntity
  8
TFR-TRI
  6
CONTINUOUS
 62
     5
100
AcDbLine
 10
17.12466239929199
 20
11.90999031066894
 30
0.0
 11
17.06859970092773
 21
11.90999031066894
 31
0.0
  0
LINE
  5
12D
330
A
100
AcDbEntity
  8
TFR-TRI
  6
CONTINUOUS
 62
     3
100
AcDbLine
 10
15.48987960815429
 20
10.67664337158203
 30
0.0
 11
15.51741218566894
 21
10.67664337158203
 31
0.0
  0
LINE
  5
12E
330
A
100
AcDbEntity
  8
TFR-TRI
  6
CONTINUOUS
 62
     3
100
AcDbLine
 10
35.02524185180664
 20
16.51864242553711
 30
0.0
 11
35.30124282836914
 21
16.51864242553711
 31
0.0
  0
LINE
  5
12F
330
A
100
AcDbEntity
  8
TFR-TRI
  6
CONTINUOUS
 62
     5
100
AcDbLine
 10
34.83784103393555
 20
14.59384727478027
 30
0.0
 11
34.83783340454101
 21
14.59386539459228
 31
0.0
  0
LINE
  5
130
330
A
100
AcDbEntity
  8
TFR-TRI
  6
CONTINUOUS
 62
     7
100
AcDbLine
 10
27.94124221801757
 20
15.20179557800293
 30
0.0
 11
27.94124221801757
 21
15.06963348388671
 31
0.0
  0
LINE
  5
131
330
A
100
AcDbEntity
  8
TFR-TRI
  6
CONTINUOUS
 62
     7
100
AcDbLine
 10
33.48224258422851
 20
11.54058933258056
 30
0.0
 11
33.48224258422851
 21
11.63764286041259
 31
0.0
  0
LINE
  5
132
330
A
100
AcDbEntity
  8
TFR-TRI
  6
CONTINUOUS
 62
     7
100
AcDbLine
 10
17.12051963806152
 20
11.95249080657958
 30
0.0
 11
17.12884140014648
 21
11.94416999816894
 31
0.0
  0
LINE
  5
133
330
A
100
AcDbEntity
  8
TFR-TRI
  6
CONTINUOUS
 62
     3
100
AcDbLine
 10
14.83141136169433
 20
15.25764369964599
 30
0.0
 11
14.83141136169433
 21
15.50764369964599
 31
0.0
  0
LINE
  5
134
330
A
100
AcDbEntity
  8
TFR-TRI
  6
CONTINUOUS
 62
     5
100
AcDbLine
 10
34.73506546020507
 20
15.4450569152832
 30
0.0
 11
34.80624008178711
 21
15.48614978790283
 31
0.0
  0
LINE
  5
135
330
A
100
AcDbEntity
  8
TFR-TRI
  6
CONTINUOUS
 62
     3
100
AcDbLine
 10
15.01512813568115
 20
15.50764369964599
 30
0.0
 11
15.01741218566894
 21
15.50764369964599
 31
0.0
  0
LINE
  5
136
330
A
100
AcDbEntity
  8
TFR-TRI
  6
CONTINUOUS
 62
     7
100
AcDbLine
 10
33.34518814086914
 20
11.67764282226562
 30
0.0
 11
33.34000396728515
 21
11.67764282226562
 31
0.0
  0
LINE
  5
137
330
A
100
AcDbEntity
  8
TFR-TRI
  6
CONTINUOUS
 62
     7
100
AcDbLine
 10
14.60641193389892
 20
11.58495426177978
 30
0.0
 11
14.60641193389892
 21
11.59358692169189
 31
0.0
  0
LINE
  5
138
330
A
100
AcDbEntity
  8
TFR-TRI
  6
CONTINUOUS
 62
     3
100
AcDbLine
 10
19.06041145324707
 20
16.55511093139648
 30
0.0
 11
19.06041145324707
 21
16.58264350891113
 31
0.0
  0
LINE
  5
139
330
A
100
AcDbEntity
  8
TFR-TRI
  6
CONTINUOUS
 62
     5
100
AcDbLine
 10
17.01171684265136
 20
29.25522804260253
 30
0.0
 11
17.06333923339843
 21
29.26272010803222
 31
0.0
  0
LINE
  5
13A
330
A
100
AcDbEntity
  8
TFR-TRI
  6
CONTINUOUS
 62
     5
100
AcDbLine
 10
27.93124198913574
 20
12.36508274078369
 30
0.0
 11
27.93124198913574
 21
12.58214282989501
 31
0.0
  0
LINE
  5
13B
330
A
100
AcDbEntity
  8
TFR-TRI
  6
CONTINUOUS
 62
     5
100
AcDbLine
 10
34.65782165527343
 20
15.49160385131836
 30
0.0
 11
34.66231536865234
 21
15.45745849609375
 31
0.0
  0
LINE
  5
13C
330
A
100
AcDbEntity
  8
TFR-TRI
  6
CONTINUOUS
 62
     3
100
AcDbLine
 10
15.11141204833984
 20
29.74462509155273
 30
0.0
 11
15.11141204833984
 21
29.77215766906738
 31
0.0
  0
LINE
  5
13D
330
A
100
AcDbEntity
  8
TFR-TRI
  6
CONTINUOUS
 62
     7
100
AcDbLine
 10
17.12466239929199
 20
22.75462532043456
 30
0.0
 11
17.13591194152832
 21
22.75462532043456
 31
0.0
  0
LINE
  5
13E
330
A
100
AcDbEntity
  8
TFR-TRI
  6
CONTINUOUS
 62
     5
100
AcDbLine
 10
34.43759155273437
 20
12.97423076629638
 30
0.0
 11
34.45630264282226
 21
12.97715187072753
 31
0.0
  0
LINE
  5
13F
330
A
100
AcDbEntity
  8
TFR-TRI
  6
CONTINUOUS
 62
     3
100
AcDbLine
 10
15.01741218566894
 20
27.00662612915039
 30
0.0
 11
15.04494380950927
 21
27.00662612915039
 31
0.0
  0
LINE
  5
140
330
A
100
AcDbEntity
  8
TFR-TRI
  6
CONTINUOUS
 62
     5
100
AcDbLine
 10
17.56077194213867
 20
13.88941192626953
 30
0.0
 11
17.61188125610351
 21
13.79379367828369
 31
0.0
  0
LINE
  5
141
330
A
100
AcDbEntity
  8
TFR-TRI
  6
CONTINUOUS
 62
     5
100
AcDbLine
 10
17.05341148376464
 20
11.85561561584472
 30
0.0
 11
17.06084442138672
 21
11.86230564117431
 31
0.0
  0
LINE
  5
142
330
A
100
AcDbEntity
  8
TFR-TRI
  6
CONTINUOUS
 62
     5
100
AcDbLine
 10
16.47652244567871
 20
29.26683235168457
 30
0.0
 11
16.47603225708007
 21
29.26469039916992
 31
0.0
  0
LINE
  5
143
330
A
100
AcDbEntity
  8
TFR-TRI
  6
CONTINUOUS
 62
     5
100
AcDbLine
 10
34.83274459838867
 20
13.69840908050537
 30
0.0
 11
34.84136962890625
 21
13.69823932647705
 31
0.0
  0
LINE
  5
144
330
A
100
AcDbEntity
  8
TFR-TRI
  6
CONTINUOUS
 62
     5
100
AcDbLine
 10
34.81271362304687
 20
13.46570968627929
 30
0.0
 11
34.79301452636718
 21
13.46564292907714
 31
0.0
  0
LINE
  5
145
330
A
100
AcDbEntity
  8
TFR-TRI
  6
CONTINUOUS
 62
     3
100
AcDbLine
 10
19.06041145324707
 20
29.77215766906738
 30
0.0
 11
19.06041145324707
 21
29.83862495422363
 31
0.0
  0
LINE
  5
146
330
A
100
AcDbEntity
  8
TFR-TRI
  6
CONTINUOUS
 62
     3
100
AcDbLine
 10
15.11141204833984
 20
10.67664337158203
 30
0.0
 11
15.42341136932373
 21
10.67664337158203
 31
0.0
  0
LINE
  5
147
330
A
100
AcDbEntity
  8
TFR-TRI
  6
CONTINUOUS
 62
     5
100
AcDbLine
 10
34.52637481689453
 20
13.62643432617187
 30
0.0
 11
34.50025939941406
 21
13.6315631866455
 31
0.0
  0
LINE
  5
148
330
A
100
AcDbEntity
  8
TFR-TRI
  6
CONTINUOUS
 62
     7
100
AcDbLine
 10
17.14716148376465
 20
22.75462532043456
 30
0.0
 11
17.12466239929199
 21
22.75462532043456
 31
0.0
  0
LINE
  5
149
330
A
100
AcDbEntity
  8
TFR-TRI
  6
CONTINUOUS
 62
     5
100
AcDbLine
 10
16.31341171264648
 20
29.74462509155273
 30
0.0
 11
16.31341171264648
 21
29.73941040039062
 31
0.0
  0
LINE
  5
14A
330
A
100
AcDbEntity
  8
TFR-TRI
  6
CONTINUOUS
 62
     7
100
AcDbLine
 10
16.98891258239746
 20
22.75462532043456
 30
0.0
 11
16.93266105651855
 21
22.75462532043456
 31
0.0
  0
LINE
  5
14B
330
A
100
AcDbEntity
  8
TFR-TRI
  6
CONTINUOUS
 62
     7
100
AcDbLine
 10
17.2531623840332
 20
22.75462532043456
 30
0.0
 11
17.19416236877441
 21
22.75462532043456
 31
0.0
  0
LINE
  5
14C
330
A
100
AcDbEntity
  8
TFR-TRI
  6
CONTINUOUS
 62
     7
100
AcDbLine
 10
27.94124221801757
 20
15.09627246856689
 30
0.0
 11
27.94124221801757
 21
15.01804447174072
 31
0.0
  0
LINE
  5
14D
330
A
100
AcDbEntity
  8
TFR-TRI
  6
CONTINUOUS
 62
     7
100
AcDbLine
 10
16.84926986694335
 20
15.1362771987915
 30
0.0
 11
16.87260437011718
 21
15.08431339263916
 31
0.0
  0
LINE
  5
14E
330
A
100
AcDbEntity
  8
TFR-TRI
  6
CONTINUOUS
 62
     5
100
AcDbLine
 10
34.5399055480957
 20
13.69860363006591
 30
0.0
 11
34.54011917114257
 21
13.69861698150634
 31
0.0
  0
LINE
  5
14F
330
A
100
AcDbEntity
  8
TFR-TRI
  6
CONTINUOUS
 62
     7
100
AcDbLine
 10
17.26916122436523
 20
22.75462532043456
 30
0.0
 11
17.2531623840332
 21
22.75462532043456
 31
0.0
  0
LINE
  5
150
330
A
100
AcDbEntity
  8
TFR-TRI
  6
CONTINUOUS
 62
     5
100
AcDbLine
 10
34.82578659057617
 20
14.42970466613769
 30
0.0
 11
34.83062744140625
 21
14.428316116333
 31
0.0
  0
LINE
  5
151
330
A
100
AcDbEntity
  8
TFR-TRI
  6
CONTINUOUS
 62
     5
100
AcDbLine
 10
17.13848495483398
 20
29.26272010803222
 30
0.0
 11
17.20753097534179
 21
29.25088119506836
 31
0.0
  0
LINE
  5
152
330
A
100
AcDbEntity
  8
TFR-TRI
  6
CONTINUOUS
 62
     7
100
AcDbLine
 10
17.06528663635253
 20
22.75462532043456
 30
0.0
 11
17.05341148376464
 21
22.75462532043456
 31
0.0
  0
LINE
  5
153
330
A
100
AcDbEntity
  8
TFR-TRI
  6
CONTINUOUS
 62
     5
100
AcDbLine
 10
16.37591171264648
 20
29.55776786804199
 30
0.0
 11
16.43841171264648
 21
29.5484504699707
 31
0.0
  0
LINE
  5
154
330
A
100
AcDbEntity
  8
TFR-TRI
  6
CONTINUOUS
 62
     7
100
AcDbLine
 10
16.86316108703613
 20
22.75462532043456
 30
0.0
 11
16.80191230773925
 21
22.75462532043456
 31
0.0
  0
LINE
  5
155
330
A
100
AcDbEntity
  8
TFR-TRI
  6
CONTINUOUS
 62
     7
100
AcDbLine
 10
27.94124221801757
 20
11.95249080657958
 30
0.0
 11
27.94124221801757
 21
11.94647312164306
 31
0.0
  0
LINE
  5
156
330
A
100
AcDbEntity
  8
TFR-TRI
  6
CONTINUOUS
 62
     5
100
AcDbLine
 10
16.72395515441894
 20
15.1431713104248
 30
0.0
 11
16.72395515441894
 21
15.20414066314697
 31
0.0
  0
LINE
  5
157
330
A
100
AcDbEntity
  8
TFR-TRI
  6
CONTINUOUS
 62
     5
100
AcDbLine
 10
34.44933700561523
 20
14.21280002593994
 30
0.0
 11
34.44999313354492
 21
14.21390724182129
 31
0.0
  0
LINE
  5
158
330
A
100
AcDbEntity
  8
TFR-TRI
  6
CONTINUOUS
 62
     7
100
AcDbLine
 10
16.97955513000488
 20
22.75462532043456
 30
0.0
 11
17.01332283020019
 21
22.75462532043456
 31
0.0
  0
LINE
  5
159
330
A
100
AcDbEntity
  8
TFR-TRI
  6
CONTINUOUS
 62
     5
100
AcDbLine
 10
34.45344924926757
 20
13.48628997802734
 30
0.0
 11
34.45130538940429
 21
13.48928928375244
 31
0.0
  0
LINE
  5
15A
330
A
100
AcDbEntity
  8
TFR-TRI
  6
CONTINUOUS
 62
     7
100
AcDbLine
 10
16.99166297912597
 20
22.75462532043456
 30
0.0
 11
17.007661819458
 21
22.75462532043456
 31
0.0
  0
LINE
  5
15B
330
A
100
AcDbEntity
  8
TFR-TRI
  6
CONTINUOUS
 62
     7
100
AcDbLine
 10
17.62095069885253
 20
15.16427612304687
 30
0.0
 11
17.57874107360839
 21
15.16427612304687
 31
0.0
  0
LINE
  5
15C
330
A
100
AcDbEntity
  8
TFR-TRI
  6
CONTINUOUS
 62
     5
100
AcDbLine
 10
16.31341171264648
 20
29.73941040039062
 30
0.0
 11
16.91091156005859
 21
29.74462509155273
 31
0.0
  0
LINE
  5
15D
330
A
100
AcDbEntity
  8
TFR-TRI
  6
CONTINUOUS
 62
     5
100
AcDbLine
 10
16.68877983093261
 20
15.1314468383789
 30
0.0
 11
16.68877983093261
 21
15.21586608886718
 31
0.0
  0
LINE
  5
15E
330
A
100
AcDbEntity
  8
TFR-TRI
  6
CONTINUOUS
 62
     7
100
AcDbLine
 10
16.99391174316406
 20
22.75462532043456
 30
0.0
 11
17.01766204833984
 21
22.75462532043456
 31
0.0
  0
LINE
  5
15F
330
A
100
AcDbEntity
  8
TFR-TRI
  6
CONTINUOUS
 62
     7
100
AcDbLine
 10
16.78379821777343
 20
22.75462532043456
 30
0.0
 11
16.8236083984375
 21
22.75462532043456
 31
0.0
  0
LINE
  5
160
330
A
100
AcDbEntity
  8
TFR-TRI
  6
CONTINUOUS
 62
     5
100
AcDbLine
 10
34.45077514648437
 20
13.50822925567626
 30
0.0
 11
34.45075607299804
 21
13.4918041229248
 31
0.0
  0
LINE
  5
161
330
A
100
AcDbEntity
  8
TFR-TRI
  6
CONTINUOUS
 62
     7
100
AcDbLine
 10
17.23281288146972
 20
22.75462532043456
 30
0.0
 11
17.22319602966308
 21
22.75462532043456
 31
0.0
  0
LINE
  5
162
330
A
100
AcDbEntity
  8
TFR-TRI
  6
CONTINUOUS
 62
     7
100
AcDbLine
 10
16.54591178894043
 20
15.29307460784912
 30
0.0
 11
16.54591178894043
 21
14.98307514190673
 31
0.0
  0
LINE
  5
163
330
A
100
AcDbEntity
  8
TFR-TRI
  6
CONTINUOUS
 62
     5
100
AcDbLine
 10
16.43681335449218
 20
29.48402404785156
 30
0.0
 11
16.46138572692871
 21
29.41968536376953
 31
0.0
  0
LINE
  5
164
330
A
100
AcDbEntity
  8
TFR-TRI
  6
CONTINUOUS
 62
     5
100
AcDbLine
 10
16.9279670715332
 20
15.20179557800293
 30
0.0
 11
16.98940467834472
 21
15.20179557800293
 31
0.0
  0
LINE
  5
165
330
A
100
AcDbEntity
  8
TFR-TRI
  6
CONTINUOUS
 62
     7
100
AcDbLine
 10
27.94124221801757
 20
11.95061588287353
 30
0.0
 11
27.94124221801757
 21
11.92686557769775
 31
0.0
  0
LINE
  5
166
330
A
100
AcDbEntity
  8
TFR-TRI
  6
CONTINUOUS
 62
     7
100
AcDbLine
 10
27.94124221801757
 20
15.01804447174072
 30
0.0
 11
27.94124221801757
 21
15.20179557800293
 31
0.0
  0
LINE
  5
167
330
A
100
AcDbEntity
  8
TFR-TRI
  6
CONTINUOUS
 62
     5
100
AcDbLine
 10
34.84412002563476
 20
13.62314414978027
 30
0.0
 11
34.79117965698242
 21
13.62285423278808
 31
0.0
  0
LINE
  5
168
330
A
100
AcDbEntity
  8
TFR-TRI
  6
CONTINUOUS
 62
     7
100
AcDbLine
 10
16.9279670715332
 20
15.08220291137695
 30
0.0
 11
16.9279670715332
 21
15.20179557800293
 31
0.0
  0
LINE
  5
169
330
A
100
AcDbEntity
  8
TFR-TRI
  6
CONTINUOUS
 62
     5
100
AcDbLine
 10
17.98479461669922
 20
22.83857154846191
 30
0.0
 11
17.83564376831054
 21
22.8411750793457
 31
0.0
  0
LINE
  5
16A
330
A
100
AcDbEntity
  8
TFR-TRI
  6
CONTINUOUS
 62
     7
100
AcDbLine
 10
27.94124221801757
 20
15.06025409698486
 30
0.0
 11
27.94124221801757
 21
15.16343212127685
 31
0.0
  0
LINE
  5
16B
330
A
100
AcDbEntity
  8
TFR-TRI
  6
CONTINUOUS
 62
     5
100
AcDbLine
 10
28.01906585693359
 20
12.38660049438476
 30
0.0
 11
28.018798828125
 21
12.58214282989501
 31
0.0
  0
LINE
  5
16C
330
A
100
AcDbEntity
  8
TFR-TRI
  6
CONTINUOUS
 62
     7
100
AcDbLine
 10
16.58091163635253
 20
15.01804447174072
 30
0.0
 11
16.58091163635253
 21
15.25807476043701
 31
0.0
  0
LINE
  5
16D
330
A
100
AcDbEntity
  8
TFR-TRI
  6
CONTINUOUS
 62
     5
100
AcDbLine
 10
15.86630153656005
 20
22.83245086669921
 30
0.0
 11
15.85091209411621
 21
22.83218193054199
 31
0.0
  0
LINE
  5
16E
330
A
100
AcDbEntity
  8
TFR-TRI
  6
CONTINUOUS
 62
     5
100
AcDbLine
 10
17.29378128051757
 20
15.01804447174072
 30
0.0
 11
17.35915946960449
 21
15.01804447174072
 31
0.0
  0
LINE
  5
16F
330
A
100
AcDbEntity
  8
TFR-TRI
  6
CONTINUOUS
 62
     7
100
AcDbLine
 10
17.007661819458
 20
11.92131900787353
 30
0.0
 11
16.99166297912597
 21
11.91374015808105
 31
0.0
  0
LINE
  5
170
330
A
100
AcDbEntity
  8
TFR-TRI
  6
CONTINUOUS
 62
     7
100
AcDbLine
 10
27.94124221801757
 20
15.10880947113037
 30
0.0
 11
27.94124221801757
 21
15.15005493164062
 31
0.0
  0
LINE
  5
171
330
A
100
AcDbEntity
  8
TFR-TRI
  6
CONTINUOUS
 62
     3
100
AcDbLine
 10
19.06041145324707
 20
29.83862495422363
 30
0.0
 11
19.06041145324707
 21
30.11462593078613
 31
0.0
  0
LINE
  5
172
330
A
100
AcDbEntity
  8
TFR-TRI
  6
CONTINUOUS
 62
     5
100
AcDbLine
 10
28.03103256225586
 20
12.76188373565673
 30
0.0
 11
28.02862930297851
 21
12.87399196624755
 31
0.0
  0
LINE
  5
173
330
A
100
AcDbEntity
  8
TFR-TRI
  6
CONTINUOUS
 62
     7
100
AcDbLine
 10
16.86091232299804
 20
11.95249080657958
 30
0.0
 11
16.87691116333007
 21
11.9449119567871
 31
0.0
  0
LINE
  5
174
330
A
100
AcDbEntity
  8
TFR-TRI
  6
CONTINUOUS
 62
     7
100
AcDbLine
 10
15.01740837097168
 20
28.27557754516601
 30
0.0
 11
14.89540863037109
 21
28.27557754516601
 31
0.0
  0
LINE
  5
175
330
A
100
AcDbEntity
  8
TFR-TRI
  6
CONTINUOUS
 62
     5
100
AcDbLine
 10
17.48494338989257
 20
15.20179557800293
 30
0.0
 11
17.48494338989257
 21
15.16427612304687
 31
0.0
  0
LINE
  5
176
330
A
100
AcDbEntity
  8
TFR-TRI
  6
CONTINUOUS
 62
     5
100
AcDbLine
 10
17.20753097534179
 20
29.25088119506836
 30
0.0
 11
17.24235534667968
 21
29.23919486999511
 31
0.0
  0
LINE
  5
177
330
A
100
AcDbEntity
  8
TFR-TRI
  6
CONTINUOUS
 62
     5
100
AcDbLine
 10
18.33386421203613
 20
22.74462509155273
 30
0.0
 11
18.28318405151367
 21
22.74462509155273
 31
0.0
  0
LINE
  5
178
330
A
100
AcDbEntity
  8
TFR-TRI
  6
CONTINUOUS
 62
     3
100
AcDbLine
 10
34.13666915893554
 20
15.50764369964599
 30
0.0
 11
32.78781509399414
 21
15.50764369964599
 31
0.0
  0
LINE
  5
179
330
A
100
AcDbEntity
  8
TFR-TRI
  6
CONTINUOUS
 62
     5
100
AcDbLine
 10
34.83749008178711
 20
11.89464282989501
 30
0.0
 11
34.84327316284179
 21
11.89464282989501
 31
0.0
  0
LINE
  5
17A
330
A
100
AcDbEntity
  8
TFR-TRI
  6
CONTINUOUS
 62
     5
100
AcDbLine
 10
28.09539031982422
 20
12.74898815155029
 30
0.0
 11
28.1580810546875
 21
12.8047981262207
 31
0.0
  0
LINE
  5
17B
330
A
100
AcDbEntity
  8
TFR-TRI
  6
CONTINUOUS
 62
     7
100
AcDbLine
 10
17.48494338989257
 20
15.20179557800293
 30
0.0
 11
17.48494338989257
 21
15.16427612304687
 31
0.0
  0
LINE
  5
17C
330
A
100
AcDbEntity
  8
TFR-TRI
  6
CONTINUOUS
 62
     7
100
AcDbLine
 10
16.92266273498535
 20
11.96249103546142
 30
0.0
 11
16.99391174316406
 21
11.96249103546142
 31
0.0
  0
LINE
  5
17D
330
A
100
AcDbEntity
  8
TFR-TRI
  6
CONTINUOUS
 62
     5
100
AcDbLine
 10
16.80191230773925
 20
11.84374046325683
 30
0.0
 11
16.80191230773925
 21
11.90374088287353
 31
0.0
  0
LINE
  5
17E
330
A
100
AcDbEntity
  8
TFR-TRI
  6
CONTINUOUS
 62
     7
100
AcDbLine
 10
17.35087776184082
 20
22.75462532043456
 30
0.0
 11
17.35362434387207
 21
22.75462532043456
 31
0.0
  0
LINE
  5
17F
330
A
100
AcDbEntity
  8
TFR-TRI
  6
CONTINUOUS
 62
     3
100
AcDbLine
 10
34.9312400817871
 20
10.67664337158203
 30
0.0
 11
34.95877456665039
 21
10.67664337158203
 31
0.0
  0
LINE
  5
180
330
A
100
AcDbEntity
  8
TFR-TRI
  6
CONTINUOUS
 62
     5
100
AcDbLine
 10
34.84423828125
 20
13.68872547149658
 30
0.0
 11
34.84429550170898
 21
13.68057537078857
 31
0.0
  0
LINE
  5
181
330
A
100
AcDbEntity
  8
TFR-TRI
  6
CONTINUOUS
 62
     5
100
AcDbLine
 10
34.74127197265625
 20
15.50493240356445
 30
0.0
 11
34.71394729614257
 21
15.52589893341064
 31
0.0
  0
LINE
  5
182
330
A
100
AcDbEntity
  8
TFR-TRI
  6
CONTINUOUS
 62
     7
100
AcDbLine
 10
16.80191230773925
 20
11.84374046325683
 30
0.0
 11
16.80191230773925
 21
11.90374088287353
 31
0.0
  0
LINE
  5
183
330
A
100
AcDbEntity
  8
TFR-TRI
  6
CONTINUOUS
 62
     5
100
AcDbLine
 10
16.99166297912597
 20
11.95249080657958
 30
0.0
 11
17.007661819458
 21
11.9449119567871
 31
0.0
  0
LINE
  5
184
330
A
100
AcDbEntity
  8
TFR-TRI
  6
CONTINUOUS
 62
     3
100
AcDbLine
 10
32.42924118041992
 20
10.91264343261718
 30
0.0
 11
32.42924118041992
 21
12.91514301300048
 31
0.0
  0
LINE
  5
185
330
A
100
AcDbEntity
  8
TFR-TRI
  6
CONTINUOUS
 62
     5
100
AcDbLine
 10
34.84430694580078
 20
13.52432346343994
 30
0.0
 11
34.84433364868164
 21
13.51443862915039
 31
0.0
  0
LINE
  5
186
330
A
100
AcDbEntity
  8
TFR-TRI
  6
CONTINUOUS
 62
     5
100
AcDbLine
 10
17.2531623840332
 20
11.95249080657958
 30
0.0
 11
17.26916122436523
 21
11.9449119567871
 31
0.0
  0
LINE
  5
187
330
A
100
AcDbEntity
  8
TFR-TRI
  6
CONTINUOUS
 62
     3
100
AcDbLine
 10
33.3647232055664
 20
11.8721170425415
 30
0.0
 11
33.32526016235351
 21
11.84933471679687
 31
0.0
  0
LINE
  5
188
330
A
100
AcDbEntity
  8
TFR-TRI
  6
CONTINUOUS
 62
     7
100
AcDbLine
 10
17.27916145324707
 20
11.91499042510986
 30
0.0
 11
17.25541114807128
 21
11.90374088287353
 31
0.0
  0
LINE
  5
189
330
A
100
AcDbEntity
  8
TFR-TRI
  6
CONTINUOUS
 62
     7
100
AcDbLine
 10
17.62095069885253
 20
22.75462532043456
 30
0.0
 11
17.57874107360839
 21
22.75462532043456
 31
0.0
  0
LINE
  5
18A
330
A
100
AcDbEntity
  8
TFR-TRI
  6
CONTINUOUS
 62
     3
100
AcDbLine
 10
32.42924118041992
 20
16.25264358520507
 30
0.0
 11
34.92624282836914
 21
16.25264358520507
 31
0.0
  0
LINE
  5
18B
330
A
100
AcDbEntity
  8
TFR-TRI
  6
CONTINUOUS
 62
     5
100
AcDbLine
 10
34.83888626098632
 20
12.58019542694091
 30
0.0
 11
34.83880615234375
 21
12.57443809509277
 31
0.0
  0
LINE
  5
18C
330
A
100
AcDbEntity
  8
TFR-TRI
  6
CONTINUOUS
 62
     3
100
AcDbLine
 10
33.43740844726562
 20
11.44659996032714
 30
0.0
 11
33.43946075439453
 21
11.42314338684082
 31
0.0
  0
LINE
  5
18D
330
A
100
AcDbEntity
  8
TFR-TRI
  6
CONTINUOUS
 62
     7
100
AcDbLine
 10
27.94124221801757
 20
15.01804447174072
 30
0.0
 11
27.94124221801757
 21
15.16427612304687
 31
0.0
  0
LINE
  5
18E
330
A
100
AcDbEntity
  8
TFR-TRI
  6
CONTINUOUS
 62
     7
100
AcDbLine
 10
16.93266105651855
 20
11.91374015808105
 30
0.0
 11
16.93266105651855
 21
11.95249080657958
 31
0.0
  0
LINE
  5
18F
330
A
100
AcDbEntity
  8
TFR-TRI
  6
CONTINUOUS
 62
     5
100
AcDbLine
 10
17.13716125488281
 20
11.90374088287353
 30
0.0
 11
17.12466239929199
 21
11.90999031066894
 31
0.0
  0
LINE
  5
190
330
A
100
AcDbEntity
  8
TFR-TRI
  6
CONTINUOUS
 62
     3
100
AcDbLine
 10
15.42341136932373
 20
16.48864364624023
 30
0.0
 11
15.48987960815429
 21
16.48864364624023
 31
0.0
  0
LINE
  5
191
330
A
100
AcDbEntity
  8
TFR-TRI
  6
CONTINUOUS
 62
     3
100
AcDbLine
 10
35.02524185180664
 20
16.58264350891113
 30
0.0
 11
35.30124282836914
 21
16.58264350891113
 31
0.0
  0
LINE
  5
192
330
A
100
AcDbEntity
  8
TFR-TRI
  6
CONTINUOUS
 62
     5
100
AcDbLine
 10
34.83912658691406
 20
14.41479015350341
 30
0.0
 11
34.83912658691406
 21
14.50390815734863
 31
0.0
  0
LINE
  5
193
330
A
100
AcDbEntity
  8
TFR-TRI
  6
CONTINUOUS
 62
     7
100
AcDbLine
 10
33.34518814086914
 20
11.63764286041259
 30
0.0
 11
33.44224166870117
 21
11.63764286041259
 31
0.0
  0
LINE
  5
194
330
A
100
AcDbEntity
  8
TFR-TRI
  6
CONTINUOUS
 62
     7
100
AcDbLine
 10
27.94124221801757
 20
11.91499042510986
 30
0.0
 11
27.94124221801757
 21
11.90374088287353
 31
0.0
  0
LINE
  5
195
330
A
100
AcDbEntity
  8
TFR-TRI
  6
CONTINUOUS
 62
     3
100
AcDbLine
 10
15.01741218566894
 20
15.25764369964599
 30
0.0
 11
15.01512813568115
 21
15.25764369964599
 31
0.0
  0
LINE
  5
196
330
A
100
AcDbEntity
  8
TFR-TRI
  6
CONTINUOUS
 62
     7
100
AcDbLine
 10
16.82619476318359
 20
15.08431339263916
 30
0.0
 11
16.84926986694335
 21
15.1362771987915
 31
0.0
  0
LINE
  5
197
330
A
100
AcDbEntity
  8
TFR-TRI
  6
CONTINUOUS
 62
     3
100
AcDbLine
 10
35.36624145507812
 20
10.58264350891113
 30
0.0
 11
35.30124282836914
 21
10.58264350891113
 31
0.0
  0
LINE
  5
198
330
A
100
AcDbEntity
  8
TFR-TRI
  6
CONTINUOUS
 62
     5
100
AcDbLine
 10
34.73506546020507
 20
15.4450569152832
 30
0.0
 11
34.744384765625
 21
15.43109893798828
 31
0.0
  0
LINE
  5
199
330
A
100
AcDbEntity
  8
TFR-TRI
  6
CONTINUOUS
 62
     7
100
AcDbLine
 10
33.34000396728515
 20
11.67764282226562
 30
0.0
 11
33.33724212646484
 21
11.67764282226562
 31
0.0
  0
LINE
  5
19A
330
A
100
AcDbEntity
  8
TFR-TRI
  6
CONTINUOUS
 62
     5
100
AcDbLine
 10
17.65591239929199
 20
14.98307514190673
 30
0.0
 11
17.65591239929199
 21
15.29307460784912
 31
0.0
  0
LINE
  5
19B
330
A
100
AcDbEntity
  8
TFR-TRI
  6
CONTINUOUS
 62
     5
100
AcDbLine
 10
34.42581176757812
 20
12.9659833908081
 30
0.0
 11
34.44184494018554
 21
12.95656394958496
 31
0.0
  0
LINE
  5
19C
330
A
100
AcDbEntity
  8
TFR-TRI
  6
CONTINUOUS
 62
     3
100
AcDbLine
 10
15.11141204833984
 20
16.48864364624023
 30
0.0
 11
15.11141204833984
 21
16.50384330749511
 31
0.0
  0
LINE
  5
19D
330
A
100
AcDbEntity
  8
TFR-TRI
  6
CONTINUOUS
 62
     5
100
AcDbLine
 10
16.95946884155273
 20
29.23919486999511
 30
0.0
 11
16.95124244689941
 21
29.23736572265625
 31
0.0
  0
LINE
  5
19E
330
A
100
AcDbEntity
  8
TFR-TRI
  6
CONTINUOUS
 62
     5
100
AcDbLine
 10
27.93124198913574
 20
12.58214282989501
 30
0.0
 11
27.93124198913574
 21
14.58214282989501
 31
0.0
  0
LINE
  5
19F
330
A
100
AcDbEntity
  8
TFR-TRI
  6
CONTINUOUS
 62
     5
100
AcDbLine
 10
34.80119323730468
 20
15.30876064300537
 30
0.0
 11
34.72547149658203
 21
15.43991088867187
 31
0.0
  0
LINE
  5
1A0
330
A
100
AcDbEntity
  8
TFR-TRI
  6
CONTINUOUS
 62
     3
100
AcDbLine
 10
15.04494380950927
 20
27.00662612915039
 30
0.0
 11
15.11141204833984
 21
27.00662612915039
 31
0.0
  0
LINE
  5
1A1
330
A
100
AcDbEntity
  8
TFR-TRI
  6
CONTINUOUS
 62
     5
100
AcDbLine
 10
17.72616958618164
 20
29.26414108276367
 30
0.0
 11
17.72585868835449
 21
29.26451683044433
 31
0.0
  0
LINE
  5
1A2
330
A
100
AcDbEntity
  8
TFR-TRI
  6
CONTINUOUS
 62
     5
100
AcDbLine
 10
16.47603225708007
 20
29.26469039916992
 30
0.0
 11
16.47572135925293
 21
29.26416015625
 31
0.0
  0
LINE
  5
1A3
330
A
100
AcDbEntity
  8
TFR-TRI
  6
CONTINUOUS
 62
     5
100
AcDbLine
 10
34.84136962890625
 20
13.69823932647705
 30
0.0
 11
34.84341049194336
 21
13.69810390472412
 31
0.0
  0
LINE
  5
1A4
330
A
100
AcDbEntity
  8
TFR-TRI
  6
CONTINUOUS
 62
     5
100
AcDbLine
 10
34.79301452636718
 20
13.46564292907714
 30
0.0
 11
34.77980041503906
 21
13.46563243865966
 31
0.0
  0
LINE
  5
1A5
330
A
100
AcDbEntity
  8
TFR-TRI
  6
CONTINUOUS
 62
     5
100
AcDbLine
 10
17.60303115844726
 20
22.74462509155273
 30
0.0
 11
17.40776824951171
 21
22.74462509155273
 31
0.0
  0
LINE
  5
1A6
330
A
100
AcDbEntity
  8
TFR-TRI
  6
CONTINUOUS
 62
     5
100
AcDbLine
 10
16.7098331451416
 20
13.19106483459472
 30
0.0
 11
16.64105224609375
 21
13.27487468719482
 31
0.0
  0
LINE
  5
1A7
330
A
100
AcDbEntity
  8
TFR-TRI
  6
CONTINUOUS
 62
     3
100
AcDbLine
 10
15.48987960815429
 20
27.00662612915039
 30
0.0
 11
15.51741218566894
 21
27.00662612915039
 31
0.0
  0
LINE
  5
1A8
330
A
100
AcDbEntity
  8
TFR-TRI
  6
CONTINUOUS
 62
     3
100
AcDbLine
 10
15.11141204833984
 20
16.48864364624023
 30
0.0
 11
15.42341136932373
 21
16.48864364624023
 31
0.0
  0
LINE
  5
1A9
330
A
100
AcDbEntity
  8
TFR-TRI
  6
CONTINUOUS
 62
     5
100
AcDbLine
 10
34.50025939941406
 20
13.6315631866455
 30
0.0
 11
34.48259353637695
 21
13.63631153106689
 31
0.0
  0
LINE
  5
1AA
330
A
100
AcDbEntity
  8
TFR-TRI
  6
CONTINUOUS
 62
     5
100
AcDbLine
 10
34.58631134033203
 20
14.21069049835205
 30
0.0
 11
34.60370635986328
 21
14.22217369079589
 31
0.0
  0
LINE
  5
1AB
330
A
100
AcDbEntity
  8
TFR-TRI
  6
CONTINUOUS
 62
     5
100
AcDbLine
 10
17.72585868835449
 20
29.26451683044433
 30
0.0
 11
17.72547912597656
 21
29.26588439941406
 31
0.0
  0
LINE
  5
1AC
330
A
100
AcDbEntity
  8
TFR-TRI
  6
CONTINUOUS
 62
     5
100
AcDbLine
 10
16.31341171264648
 20
29.68212509155273
 30
0.0
 11
16.33015823364257
 21
29.65087509155273
 31
0.0
  0
LINE
  5
1AD
330
A
100
AcDbEntity
  8
TFR-TRI
  6
CONTINUOUS
 62
     5
100
AcDbLine
 10
16.75691223144531
 20
11.99749088287353
 30
0.0
 11
17.44491195678711
 21
11.99749088287353
 31
0.0
  0
LINE
  5
1AE
330
A
100
AcDbEntity
  8
TFR-TRI
  6
CONTINUOUS
 62
     7
100
AcDbLine
 10
17.35915946960449
 20
22.75462532043456
 30
0.0
 11
17.38237380981445
 21
22.75462532043456
 31
0.0
  0
LINE
  5
1AF
330
A
100
AcDbEntity
  8
TFR-TRI
  6
CONTINUOUS
 62
     5
100
AcDbLine
 10
34.77980041503906
 20
13.69865417480468
 30
0.0
 11
34.54011917114257
 21
13.69861698150634
 31
0.0
  0
LINE
  5
1B0
330
A
100
AcDbEntity
  8
TFR-TRI
  6
CONTINUOUS
 62
     5
100
AcDbLine
 10
34.83062744140625
 20
14.428316116333
 30
0.0
 11
34.83473205566406
 21
14.42540550231933
 31
0.0
  0
LINE
  5
1B1
330
A
100
AcDbEntity
  8
TFR-TRI
  6
CONTINUOUS
 62
     5
100
AcDbLine
 10
17.76341247558593
 20
29.5484504699707
 30
0.0
 11
17.82591247558593
 21
29.55776786804199
 31
0.0
  0
LINE
  5
1B2
330
A
100
AcDbEntity
  8
TFR-TRI
  6
CONTINUOUS
 62
     5
100
AcDbLine
 10
34.59272766113281
 20
12.98145389556884
 30
0.0
 11
34.5982780456543
 21
12.97790622711181
 31
0.0
  0
LINE
  5
1B3
330
A
100
AcDbEntity
  8
TFR-TRI
  6
CONTINUOUS
 62
     5
100
AcDbLine
 10
34.83828353881836
 20
12.74452590942382
 30
0.0
 11
34.83583831787109
 21
12.74011611938476
 31
0.0
  0
LINE
  5
1B4
330
A
100
AcDbEntity
  8
TFR-TRI
  6
CONTINUOUS
 62
     7
100
AcDbLine
 10
16.97955513000488
 20
15.01804447174072
 30
0.0
 11
16.89738845825195
 21
15.01804447174072
 31
0.0
  0
LINE
  5
1B5
330
A
100
AcDbEntity
  8
TFR-TRI
  6
CONTINUOUS
 62
     5
100
AcDbLine
 10
17.29091262817382
 20
29.74462509155273
 30
0.0
 11
17.88841247558593
 21
29.73941040039062
 31
0.0
  0
LINE
  5
1B6
330
A
100
AcDbEntity
  8
TFR-TRI
  6
CONTINUOUS
 62
     5
100
AcDbLine
 10
16.74923133850097
 20
15.01804447174072
 30
0.0
 11
16.78379821777343
 21
15.10143089294433
 31
0.0
  0
LINE
  5
1B7
330
A
100
AcDbEntity
  8
TFR-TRI
  6
CONTINUOUS
 62
     7
100
AcDbLine
 10
27.94124221801757
 20
15.05087375640869
 30
0.0
 11
27.94124221801757
 21
15.20179557800293
 31
0.0
  0
LINE
  5
1B8
330
A
100
AcDbEntity
  8
TFR-TRI
  6
CONTINUOUS
 62
     5
100
AcDbLine
 10
34.59148788452148
 20
12.98138618469238
 30
0.0
 11
34.59272766113281
 21
12.98145389556884
 31
0.0
  0
LINE
  5
1B9
330
A
100
AcDbEntity
  8
TFR-TRI
  6
CONTINUOUS
 62
     7
100
AcDbLine
 10
27.94124221801757
 20
15.16896629333496
 30
0.0
 11
27.94124221801757
 21
15.05087375640869
 31
0.0
  0
LINE
  5
1BA
330
A
100
AcDbEntity
  8
TFR-TRI
  6
CONTINUOUS
 62
     5
100
AcDbLine
 10
16.46138572692871
 20
29.41968536376953
 30
0.0
 11
16.48157882690429
 21
29.35350227355957
 31
0.0
  0
LINE
  5
1BB
330
A
100
AcDbEntity
  8
TFR-TRI
  6
CONTINUOUS
 62
     5
100
AcDbLine
 10
16.9279670715332
 20
15.08220291137695
 30
0.0
 11
16.9279670715332
 21
15.20179557800293
 31
0.0
  0
LINE
  5
1BC
330
A
100
AcDbEntity
  8
TFR-TRI
  6
CONTINUOUS
 62
     7
100
AcDbLine
 10
27.94124221801757
 20
11.95249080657958
 30
0.0
 11
27.94124221801757
 21
11.9449119567871
 31
0.0
  0
LINE
  5
1BD
330
A
100
AcDbEntity
  8
TFR-TRI
  6
CONTINUOUS
 62
     5
100
AcDbLine
 10
34.79117965698242
 20
13.62285423278808
 30
0.0
 11
34.68209457397461
 21
13.62236976623535
 31
0.0
  0
LINE
  5
1BE
330
A
100
AcDbEntity
  8
TFR-TRI
  6
CONTINUOUS
 62
     7
100
AcDbLine
 10
17.02176475524902
 20
15.13523197174072
 30
0.0
 11
16.98940467834472
 21
15.20179557800293
 31
0.0
  0
LINE
  5
1BF
330
A
100
AcDbEntity
  8
TFR-TRI
  6
CONTINUOUS
 62
     5
100
AcDbLine
 10
17.83564376831054
 20
22.8411750793457
 30
0.0
 11
17.66839981079101
 21
22.84409523010253
 31
0.0
  0
LINE
  5
1C0
330
A
100
AcDbEntity
  8
TFR-TRI
  6
CONTINUOUS
 62
     5
100
AcDbLine
 10
17.17930030822754
 20
15.154052734375
 30
0.0
 11
17.17930030822754
 21
15.06963348388671
 31
0.0
  0
LINE
  5
1C1
330
A
100
AcDbEntity
  8
TFR-TRI
  6
CONTINUOUS
 62
     7
100
AcDbLine
 10
27.94124221801757
 20
15.10143089294433
 30
0.0
 11
27.94124221801757
 21
15.14373970031738
 31
0.0
  0
LINE
  5
1C2
330
A
100
AcDbEntity
  8
TFR-TRI
  6
CONTINUOUS
 62
     5
100
AcDbLine
 10
28.018798828125
 20
14.58214282989501
 30
0.0
 11
28.01906585693359
 21
14.77768611907959
 31
0.0
  0
LINE
  5
1C3
330
A
100
AcDbEntity
  8
TFR-TRI
  6
CONTINUOUS
 62
     7
100
AcDbLine
 10
17.18416213989257
 20
11.96249103546142
 30
0.0
 11
17.25541114807128
 21
11.96249103546142
 31
0.0
  0
LINE
  5
1C4
330
A
100
AcDbEntity
  8
TFR-TRI
  6
CONTINUOUS
 62
     5
100
AcDbLine
 10
17.10091209411621
 20
23.09967613220214
 30
0.0
 11
17.10091209411621
 21
23.096773147583
 31
0.0
  0
LINE
  5
1C5
330
A
100
AcDbEntity
  8
TFR-TRI
  6
CONTINUOUS
 62
     7
100
AcDbLine
 10
27.94124221801757
 20
15.15005493164062
 30
0.0
 11
27.94124221801757
 21
15.20100975036621
 31
0.0
  0
LINE
  5
1C6
330
A
100
AcDbEntity
  8
TFR-TRI
  6
CONTINUOUS
 62
     7
100
AcDbLine
 10
14.63766193389892
 20
11.73701286315917
 30
0.0
 11
14.63766193389892
 21
11.67417907714843
 31
0.0
  0
LINE
  5
1C7
330
A
100
AcDbEntity
  8
TFR-TRI
  6
CONTINUOUS
 62
     5
100
AcDbLine
 10
34.45265579223633
 20
13.51295089721679
 30
0.0
 11
34.45677185058594
 21
13.51671886444091
 31
0.0
  0
LINE
  5
1C8
330
A
100
AcDbEntity
  8
TFR-TRI
  6
CONTINUOUS
 62
     5
100
AcDbLine
 10
34.83912658691406
 20
12.74949645996093
 30
0.0
 11
34.83828353881836
 21
12.74452590942382
 31
0.0
  0
LINE
  5
1C9
330
A
100
AcDbEntity
  8
TFR-TRI
  6
CONTINUOUS
 62
     5
100
AcDbLine
 10
28.02862930297851
 20
12.87399196624755
 30
0.0
 11
28.02661323547363
 21
13.00892353057861
 31
0.0
  0
LINE
  5
1CA
330
A
100
AcDbEntity
  8
TFR-TRI
  6
CONTINUOUS
 62
     7
100
AcDbLine
 10
17.17930030822754
 20
15.154052734375
 30
0.0
 11
17.17930030822754
 21
15.06963348388671
 31
0.0
  0
LINE
  5
1CB
330
A
100
AcDbEntity
  8
TFR-TRI
  6
CONTINUOUS
 62
     7
100
AcDbLine
 10
14.83141708374023
 20
28.27557754516601
 30
0.0
 11
14.63766193389892
 21
28.27557754516601
 31
0.0
  0
LINE
  5
1CC
330
A
100
AcDbEntity
  8
TFR-TRI
  6
CONTINUOUS
 62
     5
100
AcDbLine
 10
16.80191230773925
 20
11.84374046325683
 30
0.0
 11
16.79191207885742
 21
11.84374046325683
 31
0.0
  0
LINE
  5
1CD
330
A
100
AcDbEntity
  8
TFR-TRI
  6
CONTINUOUS
 62
     3
100
AcDbLine
 10
34.13666915893554
 20
15.50764369964599
 30
0.0
 11
34.13666915893554
 21
15.25764369964599
 31
0.0
  0
LINE
  5
1CE
330
A
100
AcDbEntity
  8
TFR-TRI
  6
CONTINUOUS
 62
     5
100
AcDbLine
 10
34.84436416625976
 20
12.01964282989502
 30
0.0
 11
34.84436416625976
 21
15.19310760498046
 31
0.0
  0
LINE
  5
1CF
330
A
100
AcDbEntity
  8
TFR-TRI
  6
CONTINUOUS
 62
     5
100
AcDbLine
 10
17.32164001464843
 20
15.20179557800293
 30
0.0
 11
17.32164001464843
 21
15.06963348388671
 31
0.0
  0
LINE
  5
1D0
330
A
100
AcDbEntity
  8
TFR-TRI
  6
CONTINUOUS
 62
     5
100
AcDbLine
 10
28.1580810546875
 20
12.8047981262207
 30
0.0
 11
28.23571968078613
 21
12.83672142028808
 31
0.0
  0
LINE
  5
1D1
330
A
100
AcDbEntity
  8
TFR-TRI
  6
CONTINUOUS
 62
     3
100
AcDbLine
 10
15.00862503051757
 20
15.50764369964599
 30
0.0
 11
14.85894393920898
 21
15.50764369964599
 31
0.0
  0
LINE
  5
1D2
330
A
100
AcDbEntity
  8
TFR-TRI
  6
CONTINUOUS
 62
     7
100
AcDbLine
 10
16.68877983093261
 20
15.1314468383789
 30
0.0
 11
16.71223068237304
 21
15.1314468383789
 31
0.0
  0
LINE
  5
1D3
330
A
100
AcDbEntity
  8
TFR-TRI
  6
CONTINUOUS
 62
     7
100
AcDbLine
 10
16.82619476318359
 20
15.08431339263916
 30
0.0
 11
16.87260437011718
 21
15.08431339263916
 31
0.0
  0
LINE
  5
1D4
330
A
100
AcDbEntity
  8
TFR-TRI
  6
CONTINUOUS
 62
     5
100
AcDbLine
 10
16.93266105651855
 20
11.84374046325683
 30
0.0
 11
16.92266273498535
 21
11.84374046325683
 31
0.0
  0
LINE
  5
1D5
330
A
100
AcDbEntity
  8
TFR-TRI
  6
CONTINUOUS
 62
     7
100
AcDbLine
 10
17.32164001464843
 20
22.75462532043456
 30
0.0
 11
17.32438659667968
 21
22.75462532043456
 31
0.0
  0
LINE
  5
1D6
330
A
100
AcDbEntity
  8
TFR-TRI
  6
CONTINUOUS
 62
     3
100
AcDbLine
 10
34.95877456665039
 20
10.67664337158203
 30
0.0
 11
35.02524185180664
 21
10.67664337158203
 31
0.0
  0
LINE
  5
1D7
330
A
100
AcDbEntity
  8
TFR-TRI
  6
CONTINUOUS
 62
     5
100
AcDbLine
 10
34.84429550170898
 20
13.68057537078857
 30
0.0
 11
34.84432220458984
 21
13.67097949981689
 31
0.0
  0
LINE
  5
1D8
330
A
100
AcDbEntity
  8
TFR-TRI
  6
CONTINUOUS
 62
     5
100
AcDbLine
 10
34.71394729614257
 20
15.52589893341064
 30
0.0
 11
34.67980194091797
 21
15.5214033126831
 31
0.0
  0
LINE
  5
1D9
330
A
100
AcDbEntity
  8
TFR-TRI
  6
CONTINUOUS
 62
     7
100
AcDbLine
 10
17.31491088867187
 20
11.84374046325683
 30
0.0
 11
17.30491256713867
 21
11.84374046325683
 31
0.0
  0
LINE
  5
1DA
330
A
100
AcDbEntity
  8
TFR-TRI
  6
CONTINUOUS
 62
     5
100
AcDbLine
 10
16.93266105651855
 20
11.95249080657958
 30
0.0
 11
16.99166297912597
 21
11.95249080657958
 31
0.0
  0
LINE
  5
1DB
330
A
100
AcDbEntity
  8
TFR-TRI
  6
CONTINUOUS
 62
     3
100
AcDbLine
 10
15.11141204833984
 20
26.91262435913086
 30
0.0
 11
15.42341136932373
 21
26.91262435913086
 31
0.0
  0
LINE
  5
1DC
330
A
100
AcDbEntity
  8
TFR-TRI
  6
CONTINUOUS
 62
     3
100
AcDbLine
 10
32.42924118041992
 20
14.24914169311523
 30
0.0
 11
32.42924118041992
 21
16.25264358520507
 31
0.0
  0
LINE
  5
1DD
330
A
100
AcDbEntity
  8
TFR-TRI
  6
CONTINUOUS
 62
     5
100
AcDbLine
 10
34.84433364868164
 20
13.51443862915039
 30
0.0
 11
34.84433364868164
 21
13.50945854187011
 31
0.0
  0
LINE
  5
1DE
330
A
100
AcDbEntity
  8
TFR-TRI
  6
CONTINUOUS
 62
     3
100
AcDbLine
 10
33.32526016235351
 20
11.84933471679687
 30
0.0
 11
33.33521270751953
 21
11.82799434661865
 31
0.0
  0
LINE
  5
1DF
330
A
100
AcDbEntity
  8
TFR-TRI
  6
CONTINUOUS
 62
     7
100
AcDbLine
 10
17.39191246032715
 20
11.95249080657958
 30
0.0
 11
17.30491256713867
 21
11.84374046325683
 31
0.0
  0
LINE
  5
1E0
330
A
100
AcDbEntity
  8
TFR-TRI
  6
CONTINUOUS
 62
     5
100
AcDbLine
 10
17.19416236877441
 20
11.95249080657958
 30
0.0
 11
17.2531623840332
 21
11.95249080657958
 31
0.0
  0
LINE
  5
1E1
330
A
100
AcDbEntity
  8
TFR-TRI
  6
CONTINUOUS
 62
     7
100
AcDbLine
 10
27.94124221801757
 20
11.99749088287353
 30
0.0
 11
27.94124221801757
 21
11.80874061584472
 31
0.0
  0
LINE
  5
1E2
330
A
100
AcDbEntity
  8
TFR-TRI
  6
CONTINUOUS
 62
     7
100
AcDbLine
 10
16.93266105651855
 20
22.75462532043456
 30
0.0
 11
16.99166297912597
 21
22.75462532043456
 31
0.0
  0
LINE
  5
1E3
330
A
100
AcDbEntity
  8
TFR-TRI
  6
CONTINUOUS
 62
     3
100
AcDbLine
 10
34.92624282836914
 20
16.48864364624023
 30
0.0
 11
34.92624282836914
 21
16.25264358520507
 31
0.0
  0
LINE
  5
1E4
330
A
100
AcDbEntity
  8
TFR-TRI
  6
CONTINUOUS
 62
     5
100
AcDbLine
 10
34.83880615234375
 20
12.57443809509277
 30
0.0
 11
34.83877944946289
 21
12.5733413696289
 31
0.0
  0
LINE
  5
1E5
330
A
100
AcDbEntity
  8
TFR-TRI
  6
CONTINUOUS
 62
     7
100
AcDbLine
 10
17.02176475524902
 20
15.20179557800293
 30
0.0
 11
17.06866455078125
 21
15.20179557800293
 31
0.0
  0
LINE
  5
1E6
330
A
100
AcDbEntity
  8
TFR-TRI
  6
CONTINUOUS
 62
     3
100
AcDbLine
 10
15.48987960815429
 20
16.48864364624023
 30
0.0
 11
15.51741218566894
 21
16.48864364624023
 31
0.0
  0
LINE
  5
1E7
330
A
100
AcDbEntity
  8
TFR-TRI
  6
CONTINUOUS
 62
     5
100
AcDbLine
 10
34.83877944946289
 20
14.59094429016113
 30
0.0
 11
34.83885955810547
 21
14.58628845214843
 31
0.0
  0
LINE
  5
1E8
330
A
100
AcDbEntity
  8
TFR-TRI
  6
CONTINUOUS
 62
     7
100
AcDbLine
 10
33.44224166870117
 20
11.54058933258056
 30
0.0
 11
33.44224166870117
 21
11.63764286041259
 31
0.0
  0
LINE
  5
1E9
330
A
100
AcDbEntity
  8
TFR-TRI
  6
CONTINUOUS
 62
     3
100
AcDbLine
 10
17.04091262817382
 20
13.58214282989502
 30
0.0
 11
17.16091156005859
 21
13.58214282989502
 31
0.0
  0
LINE
  5
1EA
330
A
100
AcDbEntity
  8
TFR-TRI
  6
CONTINUOUS
 62
     7
100
AcDbLine
 10
16.88691139221191
 20
11.91499042510986
 30
0.0
 11
16.86316108703613
 21
11.90374088287353
 31
0.0
  0
LINE
  5
1EB
330
A
100
AcDbEntity
  8
TFR-TRI
  6
CONTINUOUS
 62
     7
100
AcDbLine
 10
17.069429397583
 20
22.75462532043456
 30
0.0
 11
17.06341171264648
 21
22.75462532043456
 31
0.0
  0
LINE
  5
1EC
330
A
100
AcDbEntity
  8
TFR-TRI
  6
CONTINUOUS
 62
     3
100
AcDbLine
 10
35.30124282836914
 20
10.64664363861083
 30
0.0
 11
35.36624145507812
 21
10.64664363861083
 31
0.0
  0
LINE
  5
1ED
330
A
100
AcDbEntity
  8
TFR-TRI
  6
CONTINUOUS
 62
     5
100
AcDbLine
 10
34.744384765625
 20
15.43109893798828
 30
0.0
 11
34.76795196533203
 21
15.39187431335449
 31
0.0
  0
LINE
  5
1EE
330
A
100
AcDbEntity
  8
TFR-TRI
  6
CONTINUOUS
 62
     5
100
AcDbLine
 10
17.31491088867187
 20
11.84374046325683
 30
0.0
 11
17.30491256713867
 21
11.84374046325683
 31
0.0
  0
LINE
  5
1EF
330
A
100
AcDbEntity
  8
TFR-TRI
  6
CONTINUOUS
 62
     7
100
AcDbLine
 10
33.44224166870117
 20
11.78264331817626
 30
0.0
 11
33.44224166870117
 21
11.77469730377197
 31
0.0
  0
LINE
  5
1F0
330
A
100
AcDbEntity
  8
TFR-TRI
  6
CONTINUOUS
 62
     7
100
AcDbLine
 10
16.75691223144531
 20
22.75462532043456
 30
0.0
 11
17.44491195678711
 21
22.75462532043456
 31
0.0
  0
LINE
  5
1F1
330
A
100
AcDbEntity
  8
TFR-TRI
  6
CONTINUOUS
 62
     7
100
AcDbLine
 10
14.60641193389892
 20
11.61776065826416
 30
0.0
 11
14.60641193389892
 21
11.69283866882324
 31
0.0
  0
LINE
  5
1F2
330
A
100
AcDbEntity
  8
TFR-TRI
  6
CONTINUOUS
 62
     7
100
AcDbLine
 10
17.31491088867187
 20
22.75462532043456
 30
0.0
 11
17.30491256713867
 21
22.75462532043456
 31
0.0
  0
LINE
  5
1F3
330
A
100
AcDbEntity
  8
TFR-TRI
  6
CONTINUOUS
 62
     5
100
AcDbLine
 10
16.95124244689941
 20
29.23736572265625
 30
0.0
 11
16.94290733337402
 21
29.2386360168457
 31
0.0
  0
LINE
  5
1F4
330
A
100
AcDbEntity
  8
TFR-TRI
  6
CONTINUOUS
 62
     5
100
AcDbLine
 10
27.93124198913574
 20
14.58214282989501
 30
0.0
 11
27.93124198913574
 21
14.79920387268066
 31
0.0
  0
LINE
  5
1F5
330
A
100
AcDbEntity
  8
TFR-TRI
  6
CONTINUOUS
 62
     7
100
AcDbLine
 10
16.9279670715332
 20
22.75462532043456
 30
0.0
 11
16.98940467834472
 21
22.75462532043456
 31
0.0
  0
LINE
  5
1F6
330
A
100
AcDbEntity
  8
TFR-TRI
  6
CONTINUOUS
 62
     5
100
AcDbLine
 10
34.72547149658203
 20
15.43991088867187
 30
0.0
 11
34.72355270385742
 21
15.43880176544189
 31
0.0
  0
LINE
  5
1F7
330
A
100
AcDbEntity
  8
TFR-TRI
  6
CONTINUOUS
 62
     7
100
AcDbLine
 10
16.97955513000488
 20
22.75462532043456
 30
0.0
 11
16.89738845825195
 21
22.75462532043456
 31
0.0
  0
LINE
  5
1F8
330
A
100
AcDbEntity
  8
TFR-TRI
  6
CONTINUOUS
 62
     5
100
AcDbLine
 10
17.31256294250488
 20
13.07117462158203
 30
0.0
 11
17.20881080627441
 21
13.03970146179199
 31
0.0
  0
LINE
  5
1F9
330
A
100
AcDbEntity
  8
TFR-TRI
  6
CONTINUOUS
 62
     3
100
AcDbLine
 10
15.01741218566894
 20
29.71462440490722
 30
0.0
 11
15.04494380950927
 21
29.71462440490722
 31
0.0
  0
LINE
  5
1FA
330
A
100
AcDbEntity
  8
TFR-TRI
  6
CONTINUOUS
 62
     5
100
AcDbLine
 10
16.80340194702148
 20
15.01804447174072
 30
0.0
 11
16.74923133850097
 21
15.01804447174072
 31
0.0
  0
LINE
  5
1FB
330
A
100
AcDbEntity
  8
TFR-TRI
  6
CONTINUOUS
 62
     7
100
AcDbLine
 10
27.94124221801757
 20
11.92131900787353
 30
0.0
 11
27.94124221801757
 21
11.91374015808105
 31
0.0
  0
LINE
  5
1FC
330
A
100
AcDbEntity
  8
TFR-TRI
  6
CONTINUOUS
 62
     5
100
AcDbLine
 10
17.64335441589355
 20
13.69004154205322
 30
0.0
 11
17.65398025512695
 21
13.58214282989502
 31
0.0
  0
LINE
  5
1FD
330
A
100
AcDbEntity
  8
TFR-TRI
  6
CONTINUOUS
 62
     5
100
AcDbLine
 10
27.93124198913574
 20
15.75675868988037
 30
0.0
 11
27.93124198913574
 21
15.81315326690673
 31
0.0
  0
LINE
  5
1FE
330
A
100
AcDbEntity
  8
TFR-TRI
  6
CONTINUOUS
 62
     5
100
AcDbLine
 10
16.47572135925293
 20
29.26416015625
 30
0.0
 11
16.47565460205078
 21
29.26414108276367
 31
0.0
  0
LINE
  5
1FF
330
A
100
AcDbEntity
  8
TFR-TRI
  6
CONTINUOUS
 62
     5
100
AcDbLine
 10
34.84348678588867
 20
13.62250804901123
 30
0.0
 11
34.83977508544922
 21
13.62232780456543
 31
0.0
  0
LINE
  5
200
330
A
100
AcDbEntity
  8
TFR-TRI
  6
CONTINUOUS
 62
     5
100
AcDbLine
 10
34.80067825317382
 20
15.30828857421875
 30
0.0
 11
34.80399322509765
 21
15.30254364013671
 31
0.0
  0
LINE
  5
201
330
A
100
AcDbEntity
  8
TFR-TRI
  6
CONTINUOUS
 62
     7
100
AcDbLine
 10
27.94124221801757
 20
11.84374046325683
 30
0.0
 11
27.94124221801757
 21
11.96249103546142
 31
0.0
  0
LINE
  5
202
330
A
100
AcDbEntity
  8
TFR-TRI
  6
CONTINUOUS
 62
     5
100
AcDbLine
 10
34.81346893310547
 20
12.73894309997558
 30
0.0
 11
34.8123664855957
 21
12.74018955230713
 31
0.0
  0
LINE
  5
203
330
A
100
AcDbEntity
  8
TFR-TRI
  6
CONTINUOUS
 62
     5
100
AcDbLine
 10
16.64105224609375
 20
13.27487468719482
 30
0.0
 11
16.5899429321289
 21
13.37049293518066
 31
0.0
  0
LINE
  5
204
330
A
100
AcDbEntity
  8
TFR-TRI
  6
CONTINUOUS
 62
     3
100
AcDbLine
 10
19.06041145324707
 20
10.67664337158203
 30
0.0
 11
19.12688064575195
 21
10.67664337158203
 31
0.0
  0
LINE
  5
205
330
A
100
AcDbEntity
  8
TFR-TRI
  6
CONTINUOUS
 62
     5
100
AcDbLine
 10
34.48259353637695
 20
13.63631153106689
 30
0.0
 11
34.47072982788085
 21
13.64043712615966
 31
0.0
  0
LINE
  5
206
330
A
100
AcDbEntity
  8
TFR-TRI
  6
CONTINUOUS
 62
     5
100
AcDbLine
 10
34.60370635986328
 20
14.22217369079589
 30
0.0
 11
34.6239128112793
 21
14.23534965515136
 31
0.0
  0
LINE
  5
207
330
A
100
AcDbEntity
  8
TFR-TRI
  6
CONTINUOUS
 62
     5
100
AcDbLine
 10
17.72547912597656
 20
29.26588439941406
 30
0.0
 11
17.72490692138672
 21
29.26952171325683
 31
0.0
  0
LINE
  5
208
330
A
100
AcDbEntity
  8
TFR-TRI
  6
CONTINUOUS
 62
     5
100
AcDbLine
 10
16.33015823364257
 20
29.65087509155273
 30
0.0
 11
16.37591171264648
 21
29.62799835205078
 31
0.0
  0
LINE
  5
209
330
A
100
AcDbEntity
  8
TFR-TRI
  6
CONTINUOUS
 62
     5
100
AcDbLine
 10
34.63276672363281
 20
14.20849514007568
 30
0.0
 11
34.6122932434082
 21
14.19543838500976
 31
0.0
  0
LINE
  5
20A
330
A
100
AcDbEntity
  8
TFR-TRI
  6
CONTINUOUS
 62
     5
100
AcDbLine
 10
17.44491195678711
 20
11.99749088287353
 30
0.0
 11
17.44491195678711
 21
11.80874061584472
 31
0.0
  0
LINE
  5
20B
330
A
100
AcDbEntity
  8
TFR-TRI
  6
CONTINUOUS
 62
     5
100
AcDbLine
 10
34.83473205566406
 20
14.42540550231933
 30
0.0
 11
34.83764266967773
 21
14.42129898071289
 31
0.0
  0
LINE
  5
20C
330
A
100
AcDbEntity
  8
TFR-TRI
  6
CONTINUOUS
 62
     5
100
AcDbLine
 10
17.82591247558593
 20
29.55776786804199
 30
0.0
 11
17.87166595458984
 21
29.58133697509765
 31
0.0
  0
LINE
  5
20D
330
A
100
AcDbEntity
  8
TFR-TRI
  6
CONTINUOUS
 62
     5
100
AcDbLine
 10
34.5982780456543
 20
12.97790622711181
 30
0.0
 11
34.61603927612304
 21
12.9664134979248
 31
0.0
  0
LINE
  5
20E
330
A
100
AcDbEntity
  8
TFR-TRI
  6
CONTINUOUS
 62
     5
100
AcDbLine
 10
16.68877983093261
 20
15.21586608886718
 30
0.0
 11
16.71223068237304
 21
15.21586608886718
 31
0.0
  0
LINE
  5
20F
330
A
100
AcDbEntity
  8
TFR-TRI
  6
CONTINUOUS
 62
     5
100
AcDbLine
 10
17.28841209411621
 20
29.31167984008789
 30
0.0
 11
17.28079795837402
 21
29.26485443115234
 31
0.0
  0
LINE
  5
210
330
A
100
AcDbEntity
  8
TFR-TRI
  6
CONTINUOUS
 62
     7
100
AcDbLine
 10
17.14716148376465
 20
11.90874099731445
 30
0.0
 11
17.12466239929199
 21
11.91999053955078
 31
0.0
  0
LINE
  5
211
330
A
100
AcDbEntity
  8
TFR-TRI
  6
CONTINUOUS
 62
     5
100
AcDbLine
 10
17.2894115447998
 20
29.69857215881347
 30
0.0
 11
17.29018783569336
 21
29.73291206359863
 31
0.0
  0
LINE
  5
212
330
A
100
AcDbEntity
  8
TFR-TRI
  6
CONTINUOUS
 62
     5
100
AcDbLine
 10
34.45117950439453
 20
13.51039791107177
 30
0.0
 11
34.45265579223633
 21
13.51295089721679
 31
0.0
  0
LINE
  5
213
330
A
100
AcDbEntity
  8
TFR-TRI
  6
CONTINUOUS
 62
     7
100
AcDbLine
 10
17.06528663635253
 20
11.96249103546142
 30
0.0
 11
17.12466239929199
 21
11.96249103546142
 31
0.0
  0
LINE
  5
214
330
A
100
AcDbEntity
  8
TFR-TRI
  6
CONTINUOUS
 62
     5
100
AcDbLine
 10
16.455171585083
 20
29.34490585327148
 30
0.0
 11
16.47350120544433
 21
29.26416015625
 31
0.0
  0
LINE
  5
215
330
A
100
AcDbEntity
  8
TFR-TRI
  6
CONTINUOUS
 62
     5
100
AcDbLine
 10
34.79120254516601
 20
13.46658897399902
 30
0.0
 11
34.73192596435547
 21
13.46630764007568
 31
0.0
  0
LINE
  5
216
330
A
100
AcDbEntity
  8
TFR-TRI
  6
CONTINUOUS
 62
     7
100
AcDbLine
 10
27.94124221801757
 20
15.154052734375
 30
0.0
 11
27.94124221801757
 21
15.06963348388671
 31
0.0
  0
LINE
  5
217
330
A
100
AcDbEntity
  8
TFR-TRI
  6
CONTINUOUS
 62
     5
100
AcDbLine
 10
34.84429550170898
 20
13.63767147064208
 30
0.0
 11
34.84424209594726
 21
13.63063621520996
 31
0.0
  0
LINE
  5
218
330
A
100
AcDbEntity
  8
TFR-TRI
  6
CONTINUOUS
 62
     7
100
AcDbLine
 10
17.2609519958496
 20
15.20179557800293
 30
0.0
 11
17.32164001464843
 21
15.20179557800293
 31
0.0
  0
LINE
  5
219
330
A
100
AcDbEntity
  8
TFR-TRI
  6
CONTINUOUS
 62
     5
100
AcDbLine
 10
17.66839981079101
 20
22.84409523010253
 30
0.0
 11
17.4871826171875
 21
22.84725761413574
 31
0.0
  0
LINE
  5
21A
330
A
100
AcDbEntity
  8
TFR-TRI
  6
CONTINUOUS
 62
     7
100
AcDbLine
 10
27.94124221801757
 20
15.14373970031738
 30
0.0
 11
27.94124221801757
 21
15.20179557800293
 31
0.0
  0
LINE
  5
21B
330
A
100
AcDbEntity
  8
TFR-TRI
  6
CONTINUOUS
 62
     5
100
AcDbLine
 10
17.06528663635253
 20
11.96249103546142
 30
0.0
 11
17.12466239929199
 21
11.96249103546142
 31
0.0
  0
LINE
  5
21C
330
A
100
AcDbEntity
  8
TFR-TRI
  6
CONTINUOUS
 62
     5
100
AcDbLine
 10
28.01906585693359
 20
14.77768611907959
 30
0.0
 11
28.01986503601074
 21
14.96841430664062
 31
0.0
  0
LINE
  5
21D
330
A
100
AcDbEntity
  8
TFR-TRI
  6
CONTINUOUS
 62
     7
100
AcDbLine
 10
16.87691116333007
 20
11.9449119567871
 30
0.0
 11
16.87691116333007
 21
11.92131900787353
 31
0.0
  0
LINE
  5
21E
330
A
100
AcDbEntity
  8
TFR-TRI
  6
CONTINUOUS
 62
     5
100
AcDbLine
 10
17.10091209411621
 20
23.096773147583
 30
0.0
 11
17.10091209411621
 21
23.04910278320312
 31
0.0
  0
LINE
  5
21F
330
A
100
AcDbEntity
  8
TFR-TRI
  6
CONTINUOUS
 62
     5
100
AcDbLine
 10
17.2609519958496
 20
15.05087375640869
 30
0.0
 11
17.2609519958496
 21
15.20179557800293
 31
0.0
  0
LINE
  5
220
330
A
100
AcDbEntity
  8
TFR-TRI
  6
CONTINUOUS
 62
     7
100
AcDbLine
 10
17.2531623840332
 20
22.75462532043456
 30
0.0
 11
17.26916122436523
 21
22.75462532043456
 31
0.0
  0
LINE
  5
221
330
A
100
AcDbEntity
  8
TFR-TRI
  6
CONTINUOUS
 62
     7
100
AcDbLine
 10
27.94124221801757
 20
15.20100975036621
 30
0.0
 11
27.94124221801757
 21
15.24225521087646
 31
0.0
  0
LINE
  5
222
330
A
100
AcDbEntity
  8
TFR-TRI
  6
CONTINUOUS
 62
     5
100
AcDbLine
 10
34.45677185058594
 20
13.51671886444091
 30
0.0
 11
34.47453308105469
 21
13.52528572082519
 31
0.0
  0
LINE
  5
223
330
A
100
AcDbEntity
  8
TFR-TRI
  6
CONTINUOUS
 62
     5
100
AcDbLine
 10
28.02661323547363
 20
13.00892353057861
 30
0.0
 11
28.02505111694336
 21
13.16232776641845
 31
0.0
  0
LINE
  5
224
330
A
100
AcDbEntity
  8
TFR-TRI
  6
CONTINUOUS
 62
     7
100
AcDbLine
 10
17.12466239929199
 20
11.91999053955078
 30
0.0
 11
17.07305335998535
 21
11.91999053955078
 31
0.0
  0
LINE
  5
225
330
A
100
AcDbEntity
  8
TFR-TRI
  6
CONTINUOUS
 62
     5
100
AcDbLine
 10
28.02518844604492
 20
11.69825935363769
 30
0.0
 11
28.02296447753906
 21
11.84741210937499
 31
0.0
  0
LINE
  5
226
330
A
100
AcDbEntity
  8
TFR-TRI
  6
CONTINUOUS
 62
     7
100
AcDbLine
 10
14.63766193389892
 20
28.27557754516601
 30
0.0
 11
14.63766193389892
 21
28.20061111450195
 31
0.0
  0
LINE
  5
227
330
A
100
AcDbEntity
  8
TFR-TRI
  6
CONTINUOUS
 62
     5
100
AcDbLine
 10
16.79191207885742
 20
11.84374046325683
 30
0.0
 11
16.79191207885742
 21
11.96249103546142
 31
0.0
  0
LINE
  5
228
330
A
100
AcDbEntity
  8
TFR-TRI
  6
CONTINUOUS
 62
     3
100
AcDbLine
 10
32.78781509399414
 20
15.25764369964599
 30
0.0
 11
34.13666915893554
 21
15.25764369964599
 31
0.0
  0
LINE
  5
229
330
A
100
AcDbEntity
  8
TFR-TRI
  6
CONTINUOUS
 62
     5
100
AcDbLine
 10
34.81086730957031
 20
15.31813144683837
 30
0.0
 11
34.84436416625976
 21
15.19310760498046
 31
0.0
  0
LINE
  5
22A
330
A
100
AcDbEntity
  8
TFR-TRI
  6
CONTINUOUS
 62
     5
100
AcDbLine
 10
28.23571968078613
 20
12.83672142028808
 30
0.0
 11
28.28338813781738
 21
12.84272384643554
 31
0.0
  0
LINE
  5
22B
330
A
100
AcDbEntity
  8
TFR-TRI
  6
CONTINUOUS
 62
     7
100
AcDbLine
 10
17.62095069885253
 20
15.16427612304687
 30
0.0
 11
17.62095069885253
 21
15.20179557800293
 31
0.0
  0
LINE
  5
22C
330
A
100
AcDbEntity
  8
TFR-TRI
  6
CONTINUOUS
 62
     7
100
AcDbLine
 10
16.75691223144531
 20
11.99749088287353
 30
0.0
 11
17.44491195678711
 21
11.99749088287353
 31
0.0
  0
LINE
  5
22D
330
A
100
AcDbEntity
  8
TFR-TRI
  6
CONTINUOUS
 62
     5
100
AcDbLine
 10
16.92266273498535
 20
11.84374046325683
 30
0.0
 11
16.92266273498535
 21
11.96249103546142
 31
0.0
  0
LINE
  5
22E
330
A
100
AcDbEntity
  8
TFR-TRI
  6
CONTINUOUS
 62
     7
100
AcDbLine
 10
17.32438659667968
 20
22.75462532043456
 30
0.0
 11
17.33102035522461
 21
22.75462532043456
 31
0.0
  0
LINE
  5
22F
330
A
100
AcDbEntity
  8
TFR-TRI
  6
CONTINUOUS
 62
     3
100
AcDbLine
 10
34.9312400817871
 20
16.48864364624023
 30
0.0
 11
34.95877456665039
 21
16.48864364624023
 31
0.0
  0
LINE
  5
230
330
A
100
AcDbEntity
  8
TFR-TRI
  6
CONTINUOUS
 62
     5
100
AcDbLine
 10
34.84433364868164
 20
13.65482807159423
 30
0.0
 11
34.84432983398437
 21
13.66290760040283
 31
0.0
  0
LINE
  5
231
330
A
100
AcDbEntity
  8
TFR-TRI
  6
CONTINUOUS
 62
     7
100
AcDbLine
 10
16.80191230773925
 20
11.95249080657958
 30
0.0
 11
16.86091232299804
 21
11.95249080657958
 31
0.0
  0
LINE
  5
232
330
A
100
AcDbEntity
  8
TFR-TRI
  6
CONTINUOUS
 62
     5
100
AcDbLine
 10
16.93266105651855
 20
11.91374015808105
 30
0.0
 11
16.93266105651855
 21
11.95249080657958
 31
0.0
  0
LINE
  5
233
330
A
100
AcDbEntity
  8
TFR-TRI
  6
CONTINUOUS
 62
     3
100
AcDbLine
 10
15.11141204833984
 20
26.97662544250488
 30
0.0
 11
15.42341136932373
 21
26.97662544250488
 31
0.0
  0
LINE
  5
234
330
A
100
AcDbEntity
  8
TFR-TRI
  6
CONTINUOUS
 62
     3
100
AcDbLine
 10
33.58927154541015
 20
11.82799434661865
 30
0.0
 11
33.5992202758789
 21
11.84933471679687
 31
0.0
  0
LINE
  5
235
330
A
100
AcDbEntity
  8
TFR-TRI
  6
CONTINUOUS
 62
     3
100
AcDbLine
 10
32.42924118041992
 20
16.25264358520507
 30
0.0
 11
32.19324111938476
 21
16.48864364624023
 31
0.0
  0
LINE
  5
236
330
A
100
AcDbEntity
  8
TFR-TRI
  6
CONTINUOUS
 62
     5
100
AcDbLine
 10
34.84432220458984
 20
13.49330711364746
 30
0.0
 11
34.84432983398437
 21
13.50137901306152
 31
0.0
  0
LINE
  5
237
330
A
100
AcDbEntity
  8
TFR-TRI
  6
CONTINUOUS
 62
     3
100
AcDbLine
 10
33.29188919067382
 20
11.78467273712158
 30
0.0
 11
33.27054977416992
 21
11.79462337493896
 31
0.0
  0
LINE
  5
238
330
A
100
AcDbEntity
  8
TFR-TRI
  6
CONTINUOUS
 62
     7
100
AcDbLine
 10
17.15116119384765
 20
15.06025409698486
 30
0.0
 11
17.15116119384765
 21
15.16343212127685
 31
0.0
  0
LINE
  5
239
330
A
100
AcDbEntity
  8
TFR-TRI
  6
CONTINUOUS
 62
     7
100
AcDbLine
 10
17.18416213989257
 20
11.84374046325683
 30
0.0
 11
17.18416213989257
 21
11.96249103546142
 31
0.0
  0
LINE
  5
23A
330
A
100
AcDbEntity
  8
TFR-TRI
  6
CONTINUOUS
 62
     3
100
AcDbLine
 10
34.92624282836914
 20
16.48864364624023
 30
0.0
 11
34.90124130249023
 21
16.48864364624023
 31
0.0
  0
LINE
  5
23B
330
A
100
AcDbEntity
  8
TFR-TRI
  6
CONTINUOUS
 62
     5
100
AcDbLine
 10
34.83784103393555
 20
12.56894493103027
 30
0.0
 11
34.83784103393555
 21
12.57043933868408
 31
0.0
  0
LINE
  5
23C
330
A
100
AcDbEntity
  8
TFR-TRI
  6
CONTINUOUS
 62
     3
100
AcDbLine
 10
33.48502349853515
 20
11.42314338684082
 30
0.0
 11
33.48707580566406
 21
11.44659996032714
 31
0.0
  0
LINE
  5
23D
330
A
100
AcDbEntity
  8
TFR-TRI
  6
CONTINUOUS
 62
     7
100
AcDbLine
 10
17.05341148376464
 20
11.85561561584472
 30
0.0
 11
17.06084442138672
 21
11.86230564117431
 31
0.0
  0
LINE
  5
23E
330
A
100
AcDbEntity
  8
TFR-TRI
  6
CONTINUOUS
 62
     3
100
AcDbLine
 10
15.51741218566894
 20
10.67664337158203
 30
0.0
 11
15.51741218566894
 21
16.48864364624023
 31
0.0
  0
LINE
  5
23F
330
A
100
AcDbEntity
  8
TFR-TRI
  6
CONTINUOUS
 62
     3
100
AcDbLine
 10
35.36624145507812
 20
16.58264350891113
 30
0.0
 11
35.41382598876953
 21
16.58264350891113
 31
0.0
  0
LINE
  5
240
330
A
100
AcDbEntity
  8
TFR-TRI
  6
CONTINUOUS
 62
     5
100
AcDbLine
 10
17.12116241455078
 20
11.85374069213867
 30
0.0
 11
17.13716125488281
 21
11.86131858825683
 31
0.0
  0
LINE
  5
241
330
A
100
AcDbEntity
  8
TFR-TRI
  6
CONTINUOUS
 62
     5
100
AcDbLine
 10
18.21467018127441
 20
22.83456039428711
 30
0.0
 11
18.1121826171875
 21
22.83634757995605
 31
0.0
  0
LINE
  5
242
330
A
100
AcDbEntity
  8
TFR-TRI
  6
CONTINUOUS
 62
     7
100
AcDbLine
 10
17.06528663635253
 20
22.75462532043456
 30
0.0
 11
17.12466239929199
 21
22.75462532043456
 31
0.0
  0
LINE
  5
243
330
A
100
AcDbEntity
  8
TFR-TRI
  6
CONTINUOUS
 62
     7
100
AcDbLine
 10
16.68877983093261
 20
15.09298992156982
 30
0.0
 11
16.74759292602539
 21
15.09298992156982
 31
0.0
  0
LINE
  5
244
330
A
100
AcDbEntity
  8
TFR-TRI
  6
CONTINUOUS
 62
     3
100
AcDbLine
 10
15.11141204833984
 20
16.51864242553711
 30
0.0
 11
15.42341136932373
 21
16.51864242553711
 31
0.0
  0
LINE
  5
245
330
A
100
AcDbEntity
  8
TFR-TRI
  6
CONTINUOUS
 62
     3
100
AcDbLine
 10
35.36624145507812
 20
10.64664363861083
 30
0.0
 11
35.41382598876953
 21
10.64664363861083
 31
0.0
  0
LINE
  5
246
330
A
100
AcDbEntity
  8
TFR-TRI
  6
CONTINUOUS
 62
     5
100
AcDbLine
 10
34.76795196533203
 20
15.39187431335449
 30
0.0
 11
34.79945755004882
 21
15.33789443969726
 31
0.0
  0
LINE
  5
247
330
A
100
AcDbEntity
  8
TFR-TRI
  6
CONTINUOUS
 62
     7
100
AcDbLine
 10
33.48224258422851
 20
11.78264331817626
 30
0.0
 11
33.46224212646484
 21
11.78264331817626
 31
0.0
  0
LINE
  5
248
330
A
100
AcDbEntity
  8
TFR-TRI
  6
CONTINUOUS
 62
     3
100
AcDbLine
 10
19.06041145324707
 20
16.58264350891113
 30
0.0
 11
15.4234447479248
 21
16.58264350891113
 31
0.0
  0
LINE
  5
249
330
A
100
AcDbEntity
  8
TFR-TRI
  6
CONTINUOUS
 62
     5
100
AcDbLine
 10
34.58315277099609
 20
12.97797203063964
 30
0.0
 11
34.58692169189453
 21
12.98027229309082
 31
0.0
  0
LINE
  5
24A
330
A
100
AcDbEntity
  8
TFR-TRI
  6
CONTINUOUS
 62
     7
100
AcDbLine
 10
27.94124221801757
 20
15.06963348388671
 30
0.0
 11
27.94124221801757
 21
15.20179557800293
 31
0.0
  0
LINE
  5
24B
330
A
100
AcDbEntity
  8
TFR-TRI
  6
CONTINUOUS
 62
     5
100
AcDbLine
 10
16.94290733337402
 20
29.2386360168457
 30
0.0
 11
16.93630790710449
 21
29.24225997924804
 31
0.0
  0
LINE
  5
24C
330
A
100
AcDbEntity
  8
TFR-TRI
  6
CONTINUOUS
 62
     5
100
AcDbLine
 10
27.93124198913574
 20
14.79920387268066
 30
0.0
 11
27.93124198913574
 21
15.00966835021972
 31
0.0
  0
LINE
  5
24D
330
A
100
AcDbEntity
  8
TFR-TRI
  6
CONTINUOUS
 62
     5
100
AcDbLine
 10
34.68458175659179
 20
15.41630268096923
 30
0.0
 11
34.66208267211914
 21
15.45527267456054
 31
0.0
  0
LINE
  5
24E
330
A
100
AcDbEntity
  8
TFR-TRI
  6
CONTINUOUS
 62
     3
100
AcDbLine
 10
15.11141204833984
 20
29.83862495422363
 30
0.0
 11
15.11141204833984
 21
30.11462593078613
 31
0.0
  0
LINE
  5
24F
330
A
100
AcDbEntity
  8
TFR-TRI
  6
CONTINUOUS
 62
     7
100
AcDbLine
 10
17.06866455078125
 20
22.75462532043456
 30
0.0
 11
17.01332283020019
 21
22.75462532043456
 31
0.0
  0
LINE
  5
250
330
A
100
AcDbEntity
  8
TFR-TRI
  6
CONTINUOUS
 62
     3
100
AcDbLine
 10
15.04494380950927
 20
29.71462440490722
 30
0.0
 11
15.11141204833984
 21
29.71462440490722
 31
0.0
  0
LINE
  5
251
330
A
100
AcDbEntity
  8
TFR-TRI
  6
CONTINUOUS
 62
     7
100
AcDbLine
 10
17.44491195678711
 20
22.75462532043456
 30
0.0
 11
16.75691223144531
 21
22.75462532043456
 31
0.0
  0
LINE
  5
252
330
A
100
AcDbEntity
  8
TFR-TRI
  6
CONTINUOUS
 62
     5
100
AcDbLine
 10
17.65398025512695
 20
13.58214282989502
 30
0.0
 11
17.64335441589355
 21
13.47424507141113
 31
0.0
  0
LINE
  5
253
330
A
100
AcDbEntity
  8
TFR-TRI
  6
CONTINUOUS
 62
     7
100
AcDbLine
 10
17.09680366516113
 20
22.75462532043456
 30
0.0
 11
17.19998359680175
 21
22.75462532043456
 31
0.0
  0
LINE
  5
254
330
A
100
AcDbEntity
  8
TFR-TRI
  6
CONTINUOUS
 62
     5
100
AcDbLine
 10
16.47350120544433
 20
29.26416015625
 30
0.0
 11
16.47565460205078
 21
29.26414108276367
 31
0.0
  0
LINE
  5
255
330
A
100
AcDbEntity
  8
TFR-TRI
  6
CONTINUOUS
 62
     5
100
AcDbLine
 10
34.83977508544922
 20
13.62232780456543
 30
0.0
 11
34.82941818237304
 21
13.62216758728027
 31
0.0
  0
LINE
  5
256
330
A
100
AcDbEntity
  8
TFR-TRI
  6
CONTINUOUS
 62
     3
100
AcDbLine
 10
15.01512813568115
 20
15.25764369964599
 30
0.0
 11
15.00862503051757
 21
15.25764369964599
 31
0.0
  0
LINE
  5
257
330
A
100
AcDbEntity
  8
TFR-TRI
  6
CONTINUOUS
 62
     5
100
AcDbLine
 10
34.72706985473632
 20
15.44232845306396
 30
0.0
 11
34.72547149658203
 21
15.43991088867187
 31
0.0
  0
LINE
  5
258
330
A
100
AcDbEntity
  8
TFR-TRI
  6
CONTINUOUS
 62
     5
100
AcDbLine
 10
17.20413589477539
 20
22.74462509155273
 30
0.0
 11
16.99768829345703
 21
22.74462509155273
 31
0.0
  0
LINE
  5
259
330
A
100
AcDbEntity
  8
TFR-TRI
  6
CONTINUOUS
 62
     7
100
AcDbLine
 10
17.29378128051757
 20
22.75462532043456
 30
0.0
 11
17.35915946960449
 21
22.75462532043456
 31
0.0
  0
LINE
  5
25A
330
A
100
AcDbEntity
  8
TFR-TRI
  6
CONTINUOUS
 62
     7
100
AcDbLine
 10
16.82619476318359
 20
22.75462532043456
 30
0.0
 11
16.84926986694335
 21
22.75462532043456
 31
0.0
  0
LINE
  5
25B
330
A
100
AcDbEntity
  8
TFR-TRI
  6
CONTINUOUS
 62
     7
100
AcDbLine
 10
17.05341148376464
 20
22.75462532043456
 30
0.0
 11
17.06410026550293
 21
22.75462532043456
 31
0.0
  0
LINE
  5
25C
330
A
100
AcDbEntity
  8
TFR-TRI
  6
CONTINUOUS
 62
     5
100
AcDbLine
 10
16.5899429321289
 20
13.37049293518066
 30
0.0
 11
16.55846977233886
 21
13.47424507141113
 31
0.0
  0
LINE
  5
25D
330
A
100
AcDbEntity
  8
TFR-TRI
  6
CONTINUOUS
 62
     3
100
AcDbLine
 10
19.12688064575195
 20
10.67664337158203
 30
0.0
 11
19.15441131591796
 21
10.67664337158203
 31
0.0
  0
LINE
  5
25E
330
A
100
AcDbEntity
  8
TFR-TRI
  6
CONTINUOUS
 62
     5
100
AcDbLine
 10
34.47072982788085
 20
13.64043712615966
 30
0.0
 11
34.46281814575195
 21
13.64396476745605
 31
0.0
  0
LINE
  5
25F
330
A
100
AcDbEntity
  8
TFR-TRI
  6
CONTINUOUS
 62
     5
100
AcDbLine
 10
34.59272766113281
 20
14.1828327178955
 30
0.0
 11
34.58758926391601
 21
14.1837568283081
 31
0.0
  0
LINE
  5
260
330
A
100
AcDbEntity
  8
TFR-TRI
  6
CONTINUOUS
 62
     5
100
AcDbLine
 10
16.37591171264648
 20
29.62799835205078
 30
0.0
 11
16.43841171264648
 21
29.61962509155273
 31
0.0
  0
LINE
  5
261
330
A
100
AcDbEntity
  8
TFR-TRI
  6
CONTINUOUS
 62
     7
100
AcDbLine
 10
27.94124221801757
 20
11.95249080657958
 30
0.0
 11
27.94124221801757
 21
11.94416999816894
 31
0.0
  0
LINE
  5
262
330
A
100
AcDbEntity
  8
TFR-TRI
  6
CONTINUOUS
 62
     5
100
AcDbLine
 10
17.44491195678711
 20
11.80874061584472
 30
0.0
 11
16.75691223144531
 21
11.80874061584472
 31
0.0
  0
LINE
  5
263
330
A
100
AcDbEntity
  8
TFR-TRI
  6
CONTINUOUS
 62
     5
100
AcDbLine
 10
28.03720283508301
 20
11.34753322601318
 30
0.0
 11
28.03387451171875
 21
11.39332294464111
 31
0.0
  0
LINE
  5
264
330
A
100
AcDbEntity
  8
TFR-TRI
  6
CONTINUOUS
 62
     5
100
AcDbLine
 10
34.6122932434082
 20
14.19543838500976
 30
0.0
 11
34.59272766113281
 21
14.1828327178955
 31
0.0
  0
LINE
  5
265
330
A
100
AcDbEntity
  8
TFR-TRI
  6
CONTINUOUS
 62
     5
100
AcDbLine
 10
34.83764266967773
 20
14.42129898071289
 30
0.0
 11
34.83903503417968
 21
14.41645717620849
 31
0.0
  0
LINE
  5
266
330
A
100
AcDbEntity
  8
TFR-TRI
  6
CONTINUOUS
 62
     5
100
AcDbLine
 10
17.87166595458984
 20
29.58133697509765
 30
0.0
 11
17.88841247558593
 21
29.61283874511718
 31
0.0
  0
LINE
  5
267
330
A
100
AcDbEntity
  8
TFR-TRI
  6
CONTINUOUS
 62
     7
100
AcDbLine
 10
27.94124221801757
 20
15.29307460784912
 30
0.0
 11
27.94124221801757
 21
14.98307514190673
 31
0.0
  0
LINE
  5
268
330
A
100
AcDbEntity
  8
TFR-TRI
  6
CONTINUOUS
 62
     5
100
AcDbLine
 10
16.68877983093261
 20
15.01804447174072
 30
0.0
 11
16.58091163635253
 21
15.01804447174072
 31
0.0
  0
LINE
  5
269
330
A
100
AcDbEntity
  8
TFR-TRI
  6
CONTINUOUS
 62
     7
100
AcDbLine
 10
27.94124221801757
 20
15.1362771987915
 30
0.0
 11
27.94124221801757
 21
15.08431339263916
 31
0.0
  0
LINE
  5
26A
330
A
100
AcDbEntity
  8
TFR-TRI
  6
CONTINUOUS
 62
     7
100
AcDbLine
 10
16.88444328308105
 20
15.04454231262207
 30
0.0
 11
16.89738845825195
 21
15.01804447174072
 31
0.0
  0
LINE
  5
26B
330
A
100
AcDbEntity
  8
TFR-TRI
  6
CONTINUOUS
 62
     5
100
AcDbLine
 10
17.29018783569336
 20
29.73291206359863
 30
0.0
 11
17.29091262817382
 21
29.74462509155273
 31
0.0
  0
LINE
  5
26C
330
A
100
AcDbEntity
  8
TFR-TRI
  6
CONTINUOUS
 62
     5
100
AcDbLine
 10
16.80340194702148
 20
15.01804447174072
 30
0.0
 11
16.81461143493652
 21
15.04454231262207
 31
0.0
  0
LINE
  5
26D
330
A
100
AcDbEntity
  8
TFR-TRI
  6
CONTINUOUS
 62
     7
100
AcDbLine
 10
27.94124221801757
 20
14.98307514190673
 30
0.0
 11
27.94124221801757
 21
15.29307460784912
 31
0.0
  0
LINE
  5
26E
330
A
100
AcDbEntity
  8
TFR-TRI
  6
CONTINUOUS
 62
     5
100
AcDbLine
 10
34.58692169189453
 20
12.98027229309082
 30
0.0
 11
34.59148788452148
 21
12.98138618469238
 31
0.0
  0
LINE
  5
26F
330
A
100
AcDbEntity
  8
TFR-TRI
  6
CONTINUOUS
 62
     7
100
AcDbLine
 10
16.68877983093261
 20
15.21586608886718
 30
0.0
 11
16.71223068237304
 21
15.21586608886718
 31
0.0
  0
LINE
  5
270
330
A
100
AcDbEntity
  8
TFR-TRI
  6
CONTINUOUS
 62
     5
100
AcDbLine
 10
17.72024536132812
 20
29.35350227355957
 30
0.0
 11
17.73829460144042
 21
29.41337013244629
 31
0.0
  0
LINE
  5
271
330
A
100
AcDbEntity
  8
TFR-TRI
  6
CONTINUOUS
 62
     5
100
AcDbLine
 10
16.82568740844726
 20
15.20179557800293
 30
0.0
 11
16.874267578125
 21
15.20179557800293
 31
0.0
  0
LINE
  5
272
330
A
100
AcDbEntity
  8
TFR-TRI
  6
CONTINUOUS
 62
     3
100
AcDbLine
 10
19.15441131591796
 20
30.22720909118652
 30
0.0
 11
19.15441131591796
 21
30.17962455749511
 31
0.0
  0
LINE
  5
273
330
A
100
AcDbEntity
  8
TFR-TRI
  6
CONTINUOUS
 62
     7
100
AcDbLine
 10
27.94124221801757
 20
11.95249080657958
 30
0.0
 11
27.94124221801757
 21
11.9449119567871
 31
0.0
  0
LINE
  5
274
330
A
100
AcDbEntity
  8
TFR-TRI
  6
CONTINUOUS
 62
     5
100
AcDbLine
 10
34.50120544433593
 20
13.4700288772583
 30
0.0
 11
34.48360061645507
 21
13.4736156463623
 31
0.0
  0
LINE
  5
275
330
A
100
AcDbEntity
  8
TFR-TRI
  6
CONTINUOUS
 62
     5
100
AcDbLine
 10
34.84421920776367
 20
11.95714282989501
 30
0.0
 11
34.84436416625976
 21
12.01964282989502
 31
0.0
  0
LINE
  5
276
330
A
100
AcDbEntity
  8
TFR-TRI
  6
CONTINUOUS
 62
     5
100
AcDbLine
 10
34.62449645996093
 20
13.6221694946289
 30
0.0
 11
34.56536483764648
 21
13.62199974060058
 31
0.0
  0
LINE
  5
277
330
A
100
AcDbEntity
  8
TFR-TRI
  6
CONTINUOUS
 62
     5
100
AcDbLine
 10
17.06341171264648
 20
11.94647312164306
 30
0.0
 11
17.06341171264648
 21
11.93070316314697
 31
0.0
  0
LINE
  5
278
330
A
100
AcDbEntity
  8
TFR-TRI
  6
CONTINUOUS
 62
     5
100
AcDbLine
 10
17.4871826171875
 20
22.84725761413574
 30
0.0
 11
17.29645538330078
 21
22.85058784484863
 31
0.0
  0
LINE
  5
279
330
A
100
AcDbEntity
  8
TFR-TRI
  6
CONTINUOUS
 62
     5
100
AcDbLine
 10
17.15116119384765
 20
15.16343212127685
 30
0.0
 11
17.16991996765136
 21
15.16343212127685
 31
0.0
  0
LINE
  5
27A
330
A
100
AcDbEntity
  8
TFR-TRI
  6
CONTINUOUS
 62
     7
100
AcDbLine
 10
27.94124221801757
 20
15.1314468383789
 30
0.0
 11
27.94124221801757
 21
15.13488101959228
 31
0.0
  0
LINE
  5
27B
330
A
100
AcDbEntity
  8
TFR-TRI
  6
CONTINUOUS
 62
     7
100
AcDbLine
 10
17.007661819458
 20
11.9449119567871
 30
0.0
 11
17.007661819458
 21
11.92131900787353
 31
0.0
  0
LINE
  5
27C
330
A
100
AcDbEntity
  8
TFR-TRI
  6
CONTINUOUS
 62
     5
100
AcDbLine
 10
28.01986503601074
 20
14.96841430664062
 30
0.0
 11
28.02117538452148
 21
15.14963150024414
 31
0.0
  0
LINE
  5
27D
330
A
100
AcDbEntity
  8
TFR-TRI
  6
CONTINUOUS
 62
     7
100
AcDbLine
 10
17.02176475524902
 20
15.13523197174072
 30
0.0
 11
17.02176475524902
 21
15.20179557800293
 31
0.0
  0
LINE
  5
27E
330
A
100
AcDbEntity
  8
TFR-TRI
  6
CONTINUOUS
 62
     5
100
AcDbLine
 10
17.10091209411621
 20
23.04910278320312
 30
0.0
 11
17.10091209411621
 21
22.97146415710449
 31
0.0
  0
LINE
  5
27F
330
A
100
AcDbEntity
  8
TFR-TRI
  6
CONTINUOUS
 62
     5
100
AcDbLine
 10
17.47087287902832
 20
15.01804447174072
 30
0.0
 11
17.47087287902832
 21
15.20179557800293
 31
0.0
  0
LINE
  5
280
330
A
100
AcDbEntity
  8
TFR-TRI
  6
CONTINUOUS
 62
     7
100
AcDbLine
 10
33.44224166870117
 20
11.54058933258056
 30
0.0
 11
33.44224166870117
 21
11.53540420532226
 31
0.0
  0
LINE
  5
281
330
A
100
AcDbEntity
  8
TFR-TRI
  6
CONTINUOUS
 62
     7
100
AcDbLine
 10
27.94124221801757
 20
11.96249103546142
 30
0.0
 11
27.94124221801757
 21
11.95124053955078
 31
0.0
  0
LINE
  5
282
330
A
100
AcDbEntity
  8
TFR-TRI
  6
CONTINUOUS
 62
     7
100
AcDbLine
 10
27.94124221801757
 20
15.24225521087646
 30
0.0
 11
27.94124221801757
 21
15.25807476043701
 31
0.0
  0
LINE
  5
283
330
A
100
AcDbEntity
  8
TFR-TRI
  6
CONTINUOUS
 62
     5
100
AcDbLine
 10
34.47453308105469
 20
13.52528572082519
 30
0.0
 11
34.56449890136719
 21
13.54222869873046
 31
0.0
  0
LINE
  5
284
330
A
100
AcDbEntity
  8
TFR-TRI
  6
CONTINUOUS
 62
     5
100
AcDbLine
 10
28.02505111694336
 20
13.16232776641845
 30
0.0
 11
28.02399253845214
 21
13.32926177978515
 31
0.0
  0
LINE
  5
285
330
A
100
AcDbEntity
  8
TFR-TRI
  6
CONTINUOUS
 62
     7
100
AcDbLine
 10
16.84926986694335
 20
22.75462532043456
 30
0.0
 11
16.87260437011718
 21
22.75462532043456
 31
0.0
  0
LINE
  5
286
330
A
100
AcDbEntity
  8
TFR-TRI
  6
CONTINUOUS
 62
     7
100
AcDbLine
 10
16.99166297912597
 20
11.95249080657958
 30
0.0
 11
17.007661819458
 21
11.9449119567871
 31
0.0
  0
LINE
  5
287
330
A
100
AcDbEntity
  8
TFR-TRI
  6
CONTINUOUS
 62
     7
100
AcDbLine
 10
14.63766193389892
 20
28.20061111450195
 30
0.0
 11
14.63766193389892
 21
28.17047119140625
 31
0.0
  0
LINE
  5
288
330
A
100
AcDbEntity
  8
TFR-TRI
  6
CONTINUOUS
 62
     5
100
AcDbLine
 10
16.79191207885742
 20
11.96249103546142
 30
0.0
 11
16.86316108703613
 21
11.96249103546142
 31
0.0
  0
LINE
  5
289
330
A
100
AcDbEntity
  8
TFR-TRI
  6
CONTINUOUS
 62
     3
100
AcDbLine
 10
14.83141136169433
 20
28.71268844604492
 30
0.0
 11
14.83141136169433
 21
27.83856201171875
 31
0.0
  0
LINE
  5
28A
330
A
100
AcDbEntity
  8
TFR-TRI
  6
CONTINUOUS
 62
     3
100
AcDbLine
 10
19.06041145324707
 20
10.67664337158203
 30
0.0
 11
19.06041145324707
 21
10.61017513275146
 31
0.0
  0
LINE
  5
28B
330
A
100
AcDbEntity
  8
TFR-TRI
  6
CONTINUOUS
 62
     3
100
AcDbLine
 10
32.78781509399414
 20
15.25764369964599
 30
0.0
 11
32.78781509399414
 21
15.50764369964599
 31
0.0
  0
LINE
  5
28C
330
A
100
AcDbEntity
  8
TFR-TRI
  6
CONTINUOUS
 62
     5
100
AcDbLine
 10
34.58177185058593
 20
12.9580659866333
 30
0.0
 11
34.57902908325195
 21
12.96383476257324
 31
0.0
  0
LINE
  5
28D
330
A
100
AcDbEntity
  8
TFR-TRI
  6
CONTINUOUS
 62
     5
100
AcDbLine
 10
28.28338813781738
 20
12.84272384643554
 30
0.0
 11
28.28629112243652
 21
12.84279155731201
 31
0.0
  0
LINE
  5
28E
330
A
100
AcDbEntity
  8
TFR-TRI
  6
CONTINUOUS
 62
     7
100
AcDbLine
 10
16.93266105651855
 20
11.84374046325683
 30
0.0
 11
16.93266105651855
 21
11.90374088287353
 31
0.0
  0
LINE
  5
28F
330
A
100
AcDbEntity
  8
TFR-TRI
  6
CONTINUOUS
 62
     7
100
AcDbLine
 10
16.79191207885742
 20
11.96249103546142
 30
0.0
 11
16.86316108703613
 21
11.96249103546142
 31
0.0
  0
LINE
  5
290
330
A
100
AcDbEntity
  8
TFR-TRI
  6
CONTINUOUS
 62
     5
100
AcDbLine
 10
16.92266273498535
 20
11.96249103546142
 30
0.0
 11
16.99391174316406
 21
11.96249103546142
 31
0.0
  0
LINE
  5
291
330
A
100
AcDbEntity
  8
TFR-TRI
  6
CONTINUOUS
 62
     7
100
AcDbLine
 10
17.2609519958496
 20
22.75462532043456
 30
0.0
 11
17.27056694030761
 21
22.75462532043456
 31
0.0
  0
LINE
  5
292
330
A
100
AcDbEntity
  8
TFR-TRI
  6
CONTINUOUS
 62
     7
100
AcDbLine
 10
17.19416236877441
 20
22.75462532043456
 30
0.0
 11
17.18416213989257
 21
22.75462532043456
 31
0.0
  0
LINE
  5
293
330
A
100
AcDbEntity
  8
TFR-TRI
  6
CONTINUOUS
 62
     3
100
AcDbLine
 10
34.95877456665039
 20
16.48864364624023
 30
0.0
 11
35.02524185180664
 21
16.48864364624023
 31
0.0
  0
LINE
  5
294
330
A
100
AcDbEntity
  8
TFR-TRI
  6
CONTINUOUS
 62
     5
100
AcDbLine
 10
34.84432983398437
 20
13.66290760040283
 30
0.0
 11
34.84432220458984
 21
13.67097949981689
 31
0.0
  0
LINE
  5
295
330
A
100
AcDbEntity
  8
TFR-TRI
  6
CONTINUOUS
 62
     7
100
AcDbLine
 10
16.68877983093261
 20
22.75462532043456
 30
0.0
 11
16.71223068237304
 21
22.75462532043456
 31
0.0
  0
LINE
  5
296
330
A
100
AcDbEntity
  8
TFR-TRI
  6
CONTINUOUS
 62
     5
100
AcDbLine
 10
34.65558624267578
 20
15.49220275878906
 30
0.0
 11
34.66007995605469
 21
15.45805740356445
 31
0.0
  0
LINE
  5
297
330
A
100
AcDbEntity
  8
TFR-TRI
  6
CONTINUOUS
 62
     7
100
AcDbLine
 10
14.63766193389892
 20
11.67417907714843
 30
0.0
 11
14.63766193389892
 21
11.60201454162597
 31
0.0
  0
LINE
  5
298
330
A
100
AcDbEntity
  8
TFR-TRI
  6
CONTINUOUS
 62
     7
100
AcDbLine
 10
17.06410026550293
 20
22.75462532043456
 30
0.0
 11
17.12341117858886
 21
22.75462532043456
 31
0.0
  0
LINE
  5
299
330
A
100
AcDbEntity
  8
TFR-TRI
  6
CONTINUOUS
 62
     7
100
AcDbLine
 10
17.48494338989257
 20
22.75462532043456
 30
0.0
 11
17.62095069885253
 21
22.75462532043456
 31
0.0
  0
LINE
  5
29A
330
A
100
AcDbEntity
  8
TFR-TRI
  6
CONTINUOUS
 62
     7
100
AcDbLine
 10
17.33102035522461
 20
22.75462532043456
 30
0.0
 11
17.34424591064453
 21
22.75462532043456
 31
0.0
  0
LINE
  5
29B
330
A
100
AcDbEntity
  8
TFR-TRI
  6
CONTINUOUS
 62
     3
100
AcDbLine
 10
33.02517700195312
 20
15.50764369964599
 30
0.0
 11
33.02517700195312
 21
15.25764369964599
 31
0.0
  0
LINE
  5
29C
330
A
100
AcDbEntity
  8
TFR-TRI
  6
CONTINUOUS
 62
     5
100
AcDbLine
 10
34.84432983398437
 20
13.50137901306152
 30
0.0
 11
34.84433364868164
 21
13.50945854187011
 31
0.0
  0
LINE
  5
29D
330
A
100
AcDbEntity
  8
TFR-TRI
  6
CONTINUOUS
 62
     7
100
AcDbLine
 10
16.80340194702148
 20
22.75462532043456
 30
0.0
 11
16.74923133850097
 21
22.75462532043456
 31
0.0
  0
LINE
  5
29E
330
A
100
AcDbEntity
  8
TFR-TRI
  6
CONTINUOUS
 62
     7
100
AcDbLine
 10
17.13716125488281
 20
22.75462532043456
 30
0.0
 11
17.12466239929199
 21
22.75462532043456
 31
0.0
  0
LINE
  5
29F
330
A
100
AcDbEntity
  8
TFR-TRI
  6
CONTINUOUS
 62
     7
100
AcDbLine
 10
16.80340194702148
 20
15.01804447174072
 30
0.0
 11
16.81461143493652
 21
15.04454231262207
 31
0.0
  0
LINE
  5
2A0
330
A
100
AcDbEntity
  8
TFR-TRI
  6
CONTINUOUS
 62
     7
100
AcDbLine
 10
16.86091232299804
 20
22.75462532043456
 30
0.0
 11
16.80191230773925
 21
22.75462532043456
 31
0.0
  0
LINE
  5
2A1
330
A
100
AcDbEntity
  8
TFR-TRI
  6
CONTINUOUS
 62
     5
100
AcDbLine
 10
17.19416236877441
 20
11.84374046325683
 30
0.0
 11
17.19416236877441
 21
11.90374088287353
 31
0.0
  0
LINE
  5
2A2
330
A
100
AcDbEntity
  8
TFR-TRI
  6
CONTINUOUS
 62
     7
100
AcDbLine
 10
27.94124221801757
 20
11.95249080657958
 30
0.0
 11
27.94124221801757
 21
11.9449119567871
 31
0.0
  0
LINE
  5
2A3
330
A
100
AcDbEntity
  8
TFR-TRI
  6
CONTINUOUS
 62
     7
100
AcDbLine
 10
17.15116119384765
 20
22.75462532043456
 30
0.0
 11
17.16991996765136
 21
22.75462532043456
 31
0.0
  0
LINE
  5
2A4
330
A
100
AcDbEntity
  8
TFR-TRI
  6
CONTINUOUS
 62
     3
100
AcDbLine
 10
34.90124130249023
 20
10.58264350891113
 30
0.0
 11
34.90124130249023
 21
10.61017513275146
 31
0.0
  0
LINE
  5
2A5
330
A
100
AcDbEntity
  8
TFR-TRI
  6
CONTINUOUS
 62
     5
100
AcDbLine
 10
34.83749008178711
 20
12.56964302062988
 30
0.0
 11
34.83784103393555
 21
12.56894493103027
 31
0.0
  0
LINE
  5
2A6
330
A
100
AcDbEntity
  8
TFR-TRI
  6
CONTINUOUS
 62
     7
100
AcDbLine
 10
16.8236083984375
 20
22.75462532043456
 30
0.0
 11
16.82568740844726
 21
22.75462532043456
 31
0.0
  0
LINE
  5
2A7
330
A
100
AcDbEntity
  8
TFR-TRI
  6
CONTINUOUS
 62
     7
100
AcDbLine
 10
17.38237380981445
 20
22.75462532043456
 30
0.0
 11
17.39198875427246
 21
22.75462532043456
 31
0.0
  0
LINE
  5
2A8
330
A
100
AcDbEntity
  8
TFR-TRI
  6
CONTINUOUS
 62
     3
100
AcDbLine
 10
33.54625701904296
 20
11.46245670318603
 30
0.0
 11
33.55976104736328
 21
11.44316864013671
 31
0.0
  0
LINE
  5
2A9
330
A
100
AcDbEntity
  8
TFR-TRI
  6
CONTINUOUS
 62
     7
100
AcDbLine
 10
17.52246284484863
 20
15.01804447174072
 30
0.0
 11
17.52246284484863
 21
15.16427612304687
 31
0.0
  0
LINE
  5
2AA
330
A
100
AcDbEntity
  8
TFR-TRI
  6
CONTINUOUS
 62
     5
100
AcDbLine
 10
17.61188125610351
 20
13.37049293518066
 30
0.0
 11
17.56077194213867
 21
13.27487468719482
 31
0.0
  0
LINE
  5
2AB
330
A
100
AcDbEntity
  8
TFR-TRI
  6
CONTINUOUS
 62
     3
100
AcDbLine
 10
35.41382598876953
 20
16.58264350891113
 30
0.0
 11
35.43124008178711
 21
16.58264350891113
 31
0.0
  0
LINE
  5
2AC
330
A
100
AcDbEntity
  8
TFR-TRI
  6
CONTINUOUS
 62
     5
100
AcDbLine
 10
34.83895111083984
 20
14.57551097869873
 30
0.0
 11
34.83906173706055
 21
14.55124282836914
 31
0.0
  0
LINE
  5
2AD
330
A
100
AcDbEntity
  8
TFR-TRI
  6
CONTINUOUS
 62
     7
100
AcDbLine
 10
33.48224258422851
 20
11.67764282226562
 30
0.0
 11
33.57929611206055
 21
11.67764282226562
 31
0.0
  0
LINE
  5
2AE
330
A
100
AcDbEntity
  8
TFR-TRI
  6
CONTINUOUS
 62
     7
100
AcDbLine
 10
17.27916145324707
 20
22.75462532043456
 30
0.0
 11
17.25541114807128
 21
22.75462532043456
 31
0.0
  0
LINE
  5
2AF
330
A
100
AcDbEntity
  8
TFR-TRI
  6
CONTINUOUS
 62
     7
100
AcDbLine
 10
17.069429397583
 20
11.95249080657958
 30
0.0
 11
17.12051963806152
 21
11.95249080657958
 31
0.0
  0
LINE
  5
2B0
330
A
100
AcDbEntity
  8
TFR-TRI
  6
CONTINUOUS
 62
     3
100
AcDbLine
 10
15.11141204833984
 20
16.58264350891113
 30
0.0
 11
15.42341136932373
 21
16.58264350891113
 31
0.0
  0
LINE
  5
2B1
330
A
100
AcDbEntity
  8
TFR-TRI
  6
CONTINUOUS
 62
     3
100
AcDbLine
 10
35.41382598876953
 20
10.64664363861083
 30
0.0
 11
35.43124008178711
 21
10.64664363861083
 31
0.0
  0
LINE
  5
2B2
330
A
100
AcDbEntity
  8
TFR-TRI
  6
CONTINUOUS
 62
     5
100
AcDbLine
 10
34.66231536865234
 20
15.45745849609375
 30
0.0
 11
34.66255569458008
 21
15.45704174041748
 31
0.0
  0
LINE
  5
2B3
330
A
100
AcDbEntity
  8
TFR-TRI
  6
CONTINUOUS
 62
     7
100
AcDbLine
 10
17.02341651916503
 20
11.84374046325683
 30
0.0
 11
17.0126609802246
 21
11.84374046325683
 31
0.0
  0
LINE
  5
2B4
330
A
100
AcDbEntity
  8
TFR-TRI
  6
CONTINUOUS
 62
     7
100
AcDbLine
 10
33.46224212646484
 20
11.78264331817626
 30
0.0
 11
33.44224166870117
 21
11.78264331817626
 31
0.0
  0
LINE
  5
2B5
330
A
100
AcDbEntity
  8
TFR-TRI
  6
CONTINUOUS
 62
     7
100
AcDbLine
 10
14.60641193389892
 20
11.61776065826416
 30
0.0
 11
14.63766193389892
 21
11.60201454162597
 31
0.0
  0
LINE
  5
2B6
330
A
100
AcDbEntity
  8
TFR-TRI
  6
CONTINUOUS
 62
     3
100
AcDbLine
 10
15.11141204833984
 20
10.67664337158203
 30
0.0
 11
15.11141204833984
 21
10.66144275665283
 31
0.0
  0
LINE
  5
2B7
330
A
100
AcDbEntity
  8
TFR-TRI
  6
CONTINUOUS
 62
     5
100
AcDbLine
 10
16.93630790710449
 20
29.24225997924804
 30
0.0
 11
16.92816543579101
 21
29.25097465515136
 31
0.0
  0
LINE
  5
2B8
330
A
100
AcDbEntity
  8
TFR-TRI
  6
CONTINUOUS
 62
     5
100
AcDbLine
 10
27.93124198913574
 20
15.00966835021972
 30
0.0
 11
27.93124198913574
 21
15.20714282989501
 31
0.0
  0
LINE
  5
2B9
330
A
100
AcDbEntity
  8
TFR-TRI
  6
CONTINUOUS
 62
     5
100
AcDbLine
 10
34.72355270385742
 20
15.43880176544189
 30
0.0
 11
34.68940734863281
 21
15.43430614471435
 31
0.0
  0
LINE
  5
2BA
330
A
100
AcDbEntity
  8
TFR-TRI
  6
CONTINUOUS
 62
     5
100
AcDbLine
 10
34.83877944946289
 20
12.5733413696289
 30
0.0
 11
34.83840942382812
 21
12.57301044464111
 31
0.0
  0
LINE
  5
2BB
330
A
100
AcDbEntity
  8
TFR-TRI
  6
CONTINUOUS
 62
     3
100
AcDbLine
 10
15.11141204833984
 20
27.00662612915039
 30
0.0
 11
15.42341136932373
 21
27.00662612915039
 31
0.0
  0
LINE
  5
2BC
330
A
100
AcDbEntity
  8
TFR-TRI
  6
CONTINUOUS
 62
     5
100
AcDbLine
 10
17.64335441589355
 20
13.47424507141113
 30
0.0
 11
17.61188125610351
 21
13.37049293518066
 31
0.0
  0
LINE
  5
2BD
330
A
100
AcDbEntity
  8
TFR-TRI
  6
CONTINUOUS
 62
     5
100
AcDbLine
 10
17.88841247558593
 20
29.73941040039062
 30
0.0
 11
17.88841247558593
 21
29.74462509155273
 31
0.0
  0
LINE
  5
2BE
330
A
100
AcDbEntity
  8
TFR-TRI
  6
CONTINUOUS
 62
     5
100
AcDbLine
 10
34.82941818237304
 20
13.62216758728027
 30
0.0
 11
34.8135871887207
 21
13.6220474243164
 31
0.0
  0
LINE
  5
2BF
330
A
100
AcDbEntity
  8
TFR-TRI
  6
CONTINUOUS
 62
     5
100
AcDbLine
 10
34.88518905639648
 20
15.34941101074218
 30
0.0
 11
34.91952896118164
 21
15.26650428771972
 31
0.0
  0
LINE
  5
2C0
330
A
100
AcDbEntity
  8
TFR-TRI
  6
CONTINUOUS
 62
     5
100
AcDbLine
 10
16.99768829345703
 20
22.74462509155273
 30
0.0
 11
16.79405403137207
 21
22.74462509155273
 31
0.0
  0
LINE
  5
2C1
330
A
100
AcDbEntity
  8
TFR-TRI
  6
CONTINUOUS
 62
     7
100
AcDbLine
 10
17.42162895202636
 20
22.75462532043456
 30
0.0
 11
17.47087287902832
 21
22.75462532043456
 31
0.0
  0
LINE
  5
2C2
330
A
100
AcDbEntity
  8
TFR-TRI
  6
CONTINUOUS
 62
     7
100
AcDbLine
 10
27.94124221801757
 20
15.01804447174072
 30
0.0
 11
27.94124221801757
 21
15.20179557800293
 31
0.0
  0
LINE
  5
2C3
330
A
100
AcDbEntity
  8
TFR-TRI
  6
CONTINUOUS
 62
     5
100
AcDbLine
 10
17.409912109375
 20
11.96249103546142
 30
0.0
 11
17.31491088867187
 21
11.84374046325683
 31
0.0
  0
LINE
  5
2C4
330
A
100
AcDbEntity
  8
TFR-TRI
  6
CONTINUOUS
 62
     5
100
AcDbLine
 10
16.55846977233886
 20
13.47424507141113
 30
0.0
 11
16.54784393310547
 21
13.58214282989502
 31
0.0
  0
LINE
  5
2C5
330
A
100
AcDbEntity
  8
TFR-TRI
  6
CONTINUOUS
 62
     3
100
AcDbLine
 10
19.06041145324707
 20
16.48864364624023
 30
0.0
 11
19.12688064575195
 21
16.48864364624023
 31
0.0
  0
LINE
  5
2C6
330
A
100
AcDbEntity
  8
TFR-TRI
  6
CONTINUOUS
 62
     5
100
AcDbLine
 10
34.46281814575195
 20
13.64396476745605
 30
0.0
 11
34.45561218261719
 21
13.64844417572021
 31
0.0
  0
LINE
  5
2C7
330
A
100
AcDbEntity
  8
TFR-TRI
  6
CONTINUOUS
 62
     5
100
AcDbLine
 10
34.58758926391601
 20
14.1837568283081
 30
0.0
 11
34.58305740356445
 21
14.18639755249023
 31
0.0
  0
LINE
  5
2C8
330
A
100
AcDbEntity
  8
TFR-TRI
  6
CONTINUOUS
 62
     5
100
AcDbLine
 10
17.72354507446289
 20
29.28413200378418
 30
0.0
 11
17.72025108337402
 21
29.35328865051269
 31
0.0
  0
LINE
  5
2C9
330
A
100
AcDbEntity
  8
TFR-TRI
  6
CONTINUOUS
 62
     7
100
AcDbLine
 10
16.82568740844726
 20
22.75462532043456
 30
0.0
 11
16.874267578125
 21
22.75462532043456
 31
0.0
  0
LINE
  5
2CA
330
A
100
AcDbEntity
  8
TFR-TRI
  6
CONTINUOUS
 62
     5
100
AcDbLine
 10
17.76341247558593
 20
29.61962509155273
 30
0.0
 11
16.43841171264648
 21
29.61962509155273
 31
0.0
  0
LINE
  5
2CB
330
A
100
AcDbEntity
  8
TFR-TRI
  6
CONTINUOUS
 62
     7
100
AcDbLine
 10
16.87691116333007
 20
11.92131900787353
 30
0.0
 11
16.86091232299804
 21
11.91374015808105
 31
0.0
  0
LINE
  5
2CC
330
A
100
AcDbEntity
  8
TFR-TRI
  6
CONTINUOUS
 62
     5
100
AcDbLine
 10
16.11448669433593
 20
22.74462509155273
 30
0.0
 11
16.0015697479248
 21
22.74462509155273
 31
0.0
  0
LINE
  5
2CD
330
A
100
AcDbEntity
  8
TFR-TRI
  6
CONTINUOUS
 62
     5
100
AcDbLine
 10
15.85091209411621
 20
12.58214282989501
 30
0.0
 11
15.85091209411621
 21
14.58214282989501
 31
0.0
  0
LINE
  5
2CE
330
A
100
AcDbEntity
  8
TFR-TRI
  6
CONTINUOUS
 62
     5
100
AcDbLine
 10
34.49829483032226
 20
14.1845588684082
 30
0.0
 11
34.59272766113281
 21
14.1828327178955
 31
0.0
  0
LINE
  5
2CF
330
A
100
AcDbEntity
  8
TFR-TRI
  6
CONTINUOUS
 62
     5
100
AcDbLine
 10
17.28841209411621
 20
29.5776138305664
 30
0.0
 11
17.28841209411621
 21
29.55405616760254
 31
0.0
  0
LINE
  5
2D0
330
A
100
AcDbEntity
  8
TFR-TRI
  6
CONTINUOUS
 62
     5
100
AcDbLine
 10
17.12341117858886
 20
11.84374046325683
 30
0.0
 11
17.14716148376465
 21
11.85499095916748
 31
0.0
  0
LINE
  5
2D1
330
A
100
AcDbEntity
  8
TFR-TRI
  6
CONTINUOUS
 62
     5
100
AcDbLine
 10
34.54011917114257
 20
13.465669631958
 30
0.0
 11
34.77980041503906
 21
13.46563243865966
 31
0.0
  0
LINE
  5
2D2
330
A
100
AcDbEntity
  8
TFR-TRI
  6
CONTINUOUS
 62
     7
100
AcDbLine
 10
17.06341171264648
 20
11.93070316314697
 30
0.0
 11
17.07305335998535
 21
11.91999053955078
 31
0.0
  0
LINE
  5
2D3
330
A
100
AcDbEntity
  8
TFR-TRI
  6
CONTINUOUS
 62
     5
100
AcDbLine
 10
16.91241264343261
 20
29.69857215881347
 30
0.0
 11
16.91163444519043
 21
29.73291206359863
 31
0.0
  0
LINE
  5
2D4
330
A
100
AcDbEntity
  8
TFR-TRI
  6
CONTINUOUS
 62
     5
100
AcDbLine
 10
16.81461143493652
 20
15.04454231262207
 30
0.0
 11
16.88444328308105
 21
15.04454231262207
 31
0.0
  0
LINE
  5
2D5
330
A
100
AcDbEntity
  8
TFR-TRI
  6
CONTINUOUS
 62
     5
100
AcDbLine
 10
17.88841247558593
 20
29.68212509155273
 30
0.0
 11
17.88841247558593
 21
29.61283874511718
 31
0.0
  0
LINE
  5
2D6
330
A
100
AcDbEntity
  8
TFR-TRI
  6
CONTINUOUS
 62
     7
100
AcDbLine
 10
27.94124221801757
 20
11.95124053955078
 30
0.0
 11
27.94124221801757
 21
11.91499042510986
 31
0.0
  0
LINE
  5
2D7
330
A
100
AcDbEntity
  8
TFR-TRI
  6
CONTINUOUS
 62
     7
100
AcDbLine
 10
17.02176475524902
 20
22.75462532043456
 30
0.0
 11
16.98940467834472
 21
22.75462532043456
 31
0.0
  0
LINE
  5
2D8
330
A
100
AcDbEntity
  8
TFR-TRI
  6
CONTINUOUS
 62
     7
100
AcDbLine
 10
17.25541114807128
 20
11.96249103546142
 30
0.0
 11
17.27916145324707
 21
11.95124053955078
 31
0.0
  0
LINE
  5
2D9
330
A
100
AcDbEntity
  8
TFR-TRI
  6
CONTINUOUS
 62
     5
100
AcDbLine
 10
17.73829460144042
 20
29.41337013244629
 30
0.0
 11
17.79866409301757
 21
29.55438613891601
 31
0.0
  0
LINE
  5
2DA
330
A
100
AcDbEntity
  8
TFR-TRI
  6
CONTINUOUS
 62
     5
100
AcDbLine
 10
16.84926986694335
 20
15.1362771987915
 30
0.0
 11
16.87260437011718
 21
15.08431339263916
 31
0.0
  0
LINE
  5
2DB
330
A
100
AcDbEntity
  8
TFR-TRI
  6
CONTINUOUS
 62
     5
100
AcDbLine
 10
17.06410026550293
 20
11.84374046325683
 30
0.0
 11
17.12341117858886
 21
11.84374046325683
 31
0.0
  0
LINE
  5
2DC
330
A
100
AcDbEntity
  8
TFR-TRI
  6
CONTINUOUS
 62
     7
100
AcDbLine
 10
27.94124221801757
 20
11.84374046325683
 30
0.0
 11
27.94124221801757
 21
11.96249103546142
 31
0.0
  0
LINE
  5
2DD
330
A
100
AcDbEntity
  8
TFR-TRI
  6
CONTINUOUS
 62
     3
100
AcDbLine
 10
34.9312400817871
 20
16.48864364624023
 30
0.0
 11
34.92996597290039
 21
16.48864364624023
 31
0.0
  0
LINE
  5
2DE
330
A
100
AcDbEntity
  8
TFR-TRI
  6
CONTINUOUS
 62
     5
100
AcDbLine
 10
28.018798828125
 20
12.58214282989501
 30
0.0
 11
28.018798828125
 21
14.58214282989501
 31
0.0
  0
LINE
  5
2DF
330
A
100
AcDbEntity
  8
TFR-TRI
  6
CONTINUOUS
 62
     7
100
AcDbLine
 10
17.05341148376464
 20
11.92686557769775
 30
0.0
 11
17.06859970092773
 21
11.90999031066894
 31
0.0
  0
LINE
  5
2E0
330
A
100
AcDbEntity
  8
TFR-TRI
  6
CONTINUOUS
 62
     5
100
AcDbLine
 10
17.29645538330078
 20
22.85058784484863
 30
0.0
 11
17.10091209411621
 21
22.85400009155273
 31
0.0
  0
LINE
  5
2E1
330
A
100
AcDbEntity
  8
TFR-TRI
  6
CONTINUOUS
 62
     5
100
AcDbLine
 10
17.09680366516113
 20
15.01804447174072
 30
0.0
 11
17.09680366516113
 21
15.20179557800293
 31
0.0
  0
LINE
  5
2E2
330
A
100
AcDbEntity
  8
TFR-TRI
  6
CONTINUOUS
 62
     7
100
AcDbLine
 10
27.94124221801757
 20
15.13488101959228
 30
0.0
 11
27.94124221801757
 21
15.1431713104248
 31
0.0
  0
LINE
  5
2E3
330
A
100
AcDbEntity
  8
TFR-TRI
  6
CONTINUOUS
 62
     5
100
AcDbLine
 10
28.02117538452148
 20
15.14963150024414
 30
0.0
 11
28.02296447753906
 21
15.31687450408935
 31
0.0
  0
LINE
  5
2E4
330
A
100
AcDbEntity
  8
TFR-TRI
  6
CONTINUOUS
 62
     7
100
AcDbLine
 10
16.81461143493652
 20
15.04454231262207
 30
0.0
 11
16.88444328308105
 21
15.04454231262207
 31
0.0
  0
LINE
  5
2E5
330
A
100
AcDbEntity
  8
TFR-TRI
  6
CONTINUOUS
 62
     5
100
AcDbLine
 10
17.10091209411621
 20
22.97146415710449
 30
0.0
 11
17.10091209411621
 21
22.90877342224121
 31
0.0
  0
LINE
  5
2E6
330
A
100
AcDbEntity
  8
TFR-TRI
  6
CONTINUOUS
 62
     5
100
AcDbLine
 10
17.42162895202636
 20
15.20179557800293
 30
0.0
 11
17.47087287902832
 21
15.20179557800293
 31
0.0
  0
LINE
  5
2E7
330
A
100
AcDbEntity
  8
TFR-TRI
  6
CONTINUOUS
 62
     7
100
AcDbLine
 10
27.94124221801757
 20
15.06025409698486
 30
0.0
 11
27.94124221801757
 21
15.06300067901611
 31
0.0
  0
LINE
  5
2E8
330
A
100
AcDbEntity
  8
TFR-TRI
  6
CONTINUOUS
 62
     5
100
AcDbLine
 10
34.56449890136719
 20
13.54222869873046
 30
0.0
 11
34.56536483764648
 21
13.54228687286377
 31
0.0
  0
LINE
  5
2E9
330
A
100
AcDbEntity
  8
TFR-TRI
  6
CONTINUOUS
 62
     5
100
AcDbLine
 10
34.73192596435547
 20
13.46630764007568
 30
0.0
 11
34.67063903808593
 21
13.46606063842773
 31
0.0
  0
LINE
  5
2EA
330
A
100
AcDbEntity
  8
TFR-TRI
  6
CONTINUOUS
 62
     5
100
AcDbLine
 10
28.02399253845214
 20
13.32926177978515
 30
0.0
 11
28.02347183227539
 21
13.50434589385986
 31
0.0
  0
LINE
  5
2EB
330
A
100
AcDbEntity
  8
TFR-TRI
  6
CONTINUOUS
 62
     7
100
AcDbLine
 10
16.92266273498535
 20
11.84374046325683
 30
0.0
 11
16.92266273498535
 21
11.96249103546142
 31
0.0
  0
LINE
  5
2EC
330
A
100
AcDbEntity
  8
TFR-TRI
  6
CONTINUOUS
 62
     7
100
AcDbLine
 10
14.60641193389892
 20
28.20172119140625
 30
0.0
 11
14.60641193389892
 21
28.22274589538574
 31
0.0
  0
LINE
  5
2ED
330
A
100
AcDbEntity
  8
TFR-TRI
  6
CONTINUOUS
 62
     5
100
AcDbLine
 10
16.86316108703613
 20
11.96249103546142
 30
0.0
 11
16.88691139221191
 21
11.95124053955078
 31
0.0
  0
LINE
  5
2EE
330
A
100
AcDbEntity
  8
TFR-TRI
  6
CONTINUOUS
 62
     3
100
AcDbLine
 10
33.34823989868164
 20
11.86260032653808
 30
0.0
 11
33.34823989868164
 21
11.90764331817627
 31
0.0
  0
LINE
  5
2EF
330
A
100
AcDbEntity
  8
TFR-TRI
  6
CONTINUOUS
 62
     5
100
AcDbLine
 10
34.9312400817871
 20
12.9496431350708
 30
0.0
 11
34.92602920532226
 21
12.9496431350708
 31
0.0
  0
LINE
  5
2F0
330
A
100
AcDbEntity
  8
TFR-TRI
  6
CONTINUOUS
 62
     5
100
AcDbLine
 10
34.45077514648437
 20
13.49133491516113
 30
0.0
 11
34.45075607299804
 21
13.4918041229248
 31
0.0
  0
LINE
  5
2F1
330
A
100
AcDbEntity
  8
TFR-TRI
  6
CONTINUOUS
 62
     5
100
AcDbLine
 10
17.26715087890625
 20
29.24358558654785
 30
0.0
 11
17.25998497009277
 21
29.23905181884765
 31
0.0
  0
LINE
  5
2F2
330
A
100
AcDbEntity
  8
TFR-TRI
  6
CONTINUOUS
 62
     5
100
AcDbLine
 10
28.28629112243652
 20
14.32149505615234
 30
0.0
 11
28.28338813781738
 21
14.32156276702881
 31
0.0
  0
LINE
  5
2F3
330
A
100
AcDbEntity
  8
TFR-TRI
  6
CONTINUOUS
 62
     7
100
AcDbLine
 10
17.42162895202636
 20
15.01804447174072
 30
0.0
 11
17.42162895202636
 21
15.20179557800293
 31
0.0
  0
LINE
  5
2F4
330
A
100
AcDbEntity
  8
TFR-TRI
  6
CONTINUOUS
 62
     5
100
AcDbLine
 10
16.99391174316406
 20
11.96249103546142
 30
0.0
 11
17.01766204833984
 21
11.95124053955078
 31
0.0
  0
LINE
  5
2F5
330
A
100
AcDbEntity
  8
TFR-TRI
  6
CONTINUOUS
 62
     7
100
AcDbLine
 10
17.27056694030761
 20
22.75462532043456
 30
0.0
 11
17.29378128051757
 21
22.75462532043456
 31
0.0
  0
LINE
  5
2F6
330
A
100
AcDbEntity
  8
TFR-TRI
  6
CONTINUOUS
 62
     3
100
AcDbLine
 10
35.02524185180664
 20
10.67664337158203
 30
0.0
 11
35.30124282836914
 21
10.67664337158203
 31
0.0
  0
LINE
  5
2F7
330
A
100
AcDbEntity
  8
TFR-TRI
  6
CONTINUOUS
 62
     5
100
AcDbLine
 10
34.84348678588867
 20
13.62250804901123
 30
0.0
 11
34.84412002563476
 21
13.62314414978027
 31
0.0
  0
LINE
  5
2F8
330
A
100
AcDbEntity
  8
TFR-TRI
  6
CONTINUOUS
 62
     3
100
AcDbLine
 10
33.65742874145507
 20
11.74165725708007
 30
0.0
 11
33.67671585083007
 21
11.75516319274902
 31
0.0
  0
LINE
  5
2F9
330
A
100
AcDbEntity
  8
TFR-TRI
  6
CONTINUOUS
 62
     7
100
AcDbLine
 10
17.01766204833984
 20
11.91499042510986
 30
0.0
 11
16.99875831604003
 21
11.90603637695312
 31
0.0
  0
LINE
  5
2FA
330
A
100
AcDbEntity
  8
TFR-TRI
  6
CONTINUOUS
 62
     5
100
AcDbLine
 10
17.19416236877441
 20
11.84374046325683
 30
0.0
 11
17.18416213989257
 21
11.84374046325683
 31
0.0
  0
LINE
  5
2FB
330
A
100
AcDbEntity
  8
TFR-TRI
  6
CONTINUOUS
 62
     5
100
AcDbLine
 10
16.95946884155273
 20
29.23919486999511
 30
0.0
 11
17.01171684265136
 21
29.25522804260253
 31
0.0
  0
LINE
  5
2FC
330
A
100
AcDbEntity
  8
TFR-TRI
  6
CONTINUOUS
 62
     3
100
AcDbLine
 10
33.89930725097656
 20
15.25764369964599
 30
0.0
 11
33.89930725097656
 21
15.50764369964599
 31
0.0
  0
LINE
  5
2FD
330
A
100
AcDbEntity
  8
TFR-TRI
  6
CONTINUOUS
 62
     5
100
AcDbLine
 10
34.84341049194336
 20
13.46618270874023
 30
0.0
 11
34.8441047668457
 21
13.46687984466552
 31
0.0
  0
LINE
  5
2FE
330
A
100
AcDbEntity
  8
TFR-TRI
  6
CONTINUOUS
 62
     5
100
AcDbLine
 10
17.40776824951171
 20
22.74462509155273
 30
0.0
 11
17.20413589477539
 21
22.74462509155273
 31
0.0
  0
LINE
  5
2FF
330
A
100
AcDbEntity
  8
TFR-TRI
  6
CONTINUOUS
 62
     3
100
AcDbLine
 10
33.24776840209961
 20
11.75516319274902
 30
0.0
 11
33.26705551147461
 21
11.74165725708007
 31
0.0
  0
LINE
  5
300
330
A
100
AcDbEntity
  8
TFR-TRI
  6
CONTINUOUS
 62
     7
100
AcDbLine
 10
17.05341148376464
 20
22.75462532043456
 30
0.0
 11
17.06084442138672
 21
22.75462532043456
 31
0.0
  0
LINE
  5
301
330
A
100
AcDbEntity
  8
TFR-TRI
  6
CONTINUOUS
 62
     7
100
AcDbLine
 10
17.47087287902832
 20
15.01804447174072
 30
0.0
 11
17.47087287902832
 21
15.20179557800293
 31
0.0
  0
LINE
  5
302
330
A
100
AcDbEntity
  8
TFR-TRI
  6
CONTINUOUS
 62
     3
100
AcDbLine
 10
34.90124130249023
 20
10.61017513275146
 30
0.0
 11
34.90124130249023
 21
10.67664337158203
 31
0.0
  0
LINE
  5
303
330
A
100
AcDbEntity
  8
TFR-TRI
  6
CONTINUOUS
 62
     5
100
AcDbLine
 10
34.83749008178711
 20
12.56964302062988
 30
0.0
 11
34.83749008178711
 21
11.89464282989501
 31
0.0
  0
LINE
  5
304
330
A
100
AcDbEntity
  8
TFR-TRI
  6
CONTINUOUS
 62
     5
100
AcDbLine
 10
16.93266105651855
 20
11.84374046325683
 30
0.0
 11
16.93266105651855
 21
11.90374088287353
 31
0.0
  0
LINE
  5
305
330
A
100
AcDbEntity
  8
TFR-TRI
  6
CONTINUOUS
 62
     3
100
AcDbLine
 10
33.55976104736328
 20
11.44316864013671
 30
0.0
 11
33.5992202758789
 21
11.46595191955566
 31
0.0
  0
LINE
  5
306
330
A
100
AcDbEntity
  8
TFR-TRI
  6
CONTINUOUS
 62
     7
100
AcDbLine
 10
17.12466239929199
 20
11.90999031066894
 30
0.0
 11
17.06859970092773
 21
11.90999031066894
 31
0.0
  0
LINE
  5
307
330
A
100
AcDbEntity
  8
TFR-TRI
  6
CONTINUOUS
 62
     3
100
AcDbLine
 10
35.43124008178711
 20
16.51864242553711
 30
0.0
 11
35.41382598876953
 21
16.51864242553711
 31
0.0
  0
LINE
  5
308
330
A
100
AcDbEntity
  8
TFR-TRI
  6
CONTINUOUS
 62
     5
100
AcDbLine
 10
34.83906173706055
 20
14.55124282836914
 30
0.0
 11
34.83912658691406
 21
14.50390815734863
 31
0.0
  0
LINE
  5
309
330
A
100
AcDbEntity
  8
TFR-TRI
  6
CONTINUOUS
 62
     3
100
AcDbLine
 10
15.01741218566894
 20
10.67664337158203
 30
0.0
 11
15.04494380950927
 21
10.67664337158203
 31
0.0
  0
LINE
  5
30A
330
A
100
AcDbEntity
  8
TFR-TRI
  6
CONTINUOUS
 62
     7
100
AcDbLine
 10
17.19416236877441
 20
11.84374046325683
 30
0.0
 11
17.19416236877441
 21
11.90374088287353
 31
0.0
  0
LINE
  5
30B
330
A
100
AcDbEntity
  8
TFR-TRI
  6
CONTINUOUS
 62
     5
100
AcDbLine
 10
17.12466239929199
 20
11.96249103546142
 30
0.0
 11
17.13591194152832
 21
11.95124053955078
 31
0.0
  0
LINE
  5
30C
330
A
100
AcDbEntity
  8
TFR-TRI
  6
CONTINUOUS
 62
     3
100
AcDbLine
 10
35.43124008178711
 20
10.64664363861083
 30
0.0
 11
35.43124008178711
 21
10.58264350891113
 31
0.0
  0
LINE
  5
30D
330
A
100
AcDbEntity
  8
TFR-TRI
  6
CONTINUOUS
 62
     5
100
AcDbLine
 10
34.72402572631835
 20
15.44057178497314
 30
0.0
 11
34.72706985473632
 21
15.44232845306396
 31
0.0
  0
LINE
  5
30E
330
A
100
AcDbEntity
  8
TFR-TRI
  6
CONTINUOUS
 62
     3
100
AcDbLine
 10
14.83141136169433
 20
15.50764369964599
 30
0.0
 11
14.83856678009033
 21
15.50764369964599
 31
0.0
  0
LINE
  5
30F
330
A
100
AcDbEntity
  8
TFR-TRI
  6
CONTINUOUS
 62
     7
100
AcDbLine
 10
33.48224258422851
 20
11.77469730377197
 30
0.0
 11
33.48224258422851
 21
11.78264331817626
 31
0.0
  0
LINE
  5
310
330
A
100
AcDbEntity
  8
TFR-TRI
  6
CONTINUOUS
 62
     3
100
AcDbLine
 10
15.01741218566894
 20
27.70413398742675
 30
0.0
 11
14.90419864654541
 21
27.81734848022461
 31
0.0
  0
LINE
  5
311
330
A
100
AcDbEntity
  8
TFR-TRI
  6
CONTINUOUS
 62
     7
100
AcDbLine
 10
14.63766193389892
 20
11.7666015625
 30
0.0
 11
14.60641193389892
 21
11.73510837554931
 31
0.0
  0
LINE
  5
312
330
A
100
AcDbEntity
  8
TFR-TRI
  6
CONTINUOUS
 62
     3
100
AcDbLine
 10
15.11141204833984
 20
10.66144275665283
 30
0.0
 11
15.11141204833984
 21
10.64664268493652
 31
0.0
  0
LINE
  5
313
330
A
100
AcDbEntity
  8
TFR-TRI
  6
CONTINUOUS
 62
     5
100
AcDbLine
 10
16.92816543579101
 20
29.25097465515136
 30
0.0
 11
16.91933059692382
 21
29.26968383789062
 31
0.0
  0
LINE
  5
314
330
A
100
AcDbEntity
  8
TFR-TRI
  6
CONTINUOUS
 62
     5
100
AcDbLine
 10
27.93124198913574
 20
15.20714282989501
 30
0.0
 11
27.93124198913574
 21
15.38562774658203
 31
0.0
  0
LINE
  5
315
330
A
100
AcDbEntity
  8
TFR-TRI
  6
CONTINUOUS
 62
     7
100
AcDbLine
 10
14.60641193389892
 20
28.32841110229492
 30
0.0
 11
14.60641193389892
 21
28.34943580627441
 31
0.0
  0
LINE
  5
316
330
A
100
AcDbEntity
  8
TFR-TRI
  6
CONTINUOUS
 62
     5
100
AcDbLine
 10
34.68940734863281
 20
15.43430614471435
 30
0.0
 11
34.66208267211914
 21
15.45527267456054
 31
0.0
  0
LINE
  5
317
330
A
100
AcDbEntity
  8
TFR-TRI
  6
CONTINUOUS
 62
     3
100
AcDbLine
 10
15.11141204833984
 20
29.71462440490722
 30
0.0
 11
15.42341136932373
 21
29.71462440490722
 31
0.0
  0
LINE
  5
318
330
A
100
AcDbEntity
  8
TFR-TRI
  6
CONTINUOUS
 62
     7
100
AcDbLine
 10
27.94124221801757
 20
15.1314468383789
 30
0.0
 11
27.94124221801757
 21
15.21586608886718
 31
0.0
  0
LINE
  5
319
330
A
100
AcDbEntity
  8
TFR-TRI
  6
CONTINUOUS
 62
     5
100
AcDbLine
 10
17.88841247558593
 20
29.69334411621094
 30
0.0
 11
17.88841247558593
 21
29.68212509155273
 31
0.0
  0
LINE
  5
31A
330
A
100
AcDbEntity
  8
TFR-TRI
  6
CONTINUOUS
 62
     5
100
AcDbLine
 10
34.8135871887207
 20
13.6220474243164
 30
0.0
 11
34.79409027099609
 21
13.62197875976562
 31
0.0
  0
LINE
  5
31B
330
A
100
AcDbEntity
  8
TFR-TRI
  6
CONTINUOUS
 62
     5
100
AcDbLine
 10
17.19416236877441
 20
11.91374015808105
 30
0.0
 11
17.19416236877441
 21
11.95249080657958
 31
0.0
  0
LINE
  5
31C
330
A
100
AcDbEntity
  8
TFR-TRI
  6
CONTINUOUS
 62
     5
100
AcDbLine
 10
34.91952896118164
 20
15.26650428771972
 30
0.0
 11
34.9312400817871
 21
15.17753601074218
 31
0.0
  0
LINE
  5
31D
330
A
100
AcDbEntity
  8
TFR-TRI
  6
CONTINUOUS
 62
     7
100
AcDbLine
 10
27.94124221801757
 20
15.01804447174072
 30
0.0
 11
27.94124221801757
 21
15.10143089294433
 31
0.0
  0
LINE
  5
31E
330
A
100
AcDbEntity
  8
TFR-TRI
  6
CONTINUOUS
 62
     5
100
AcDbLine
 10
34.45561218261719
 20
13.64844417572021
 30
0.0
 11
34.45297622680664
 21
13.65094661712646
 31
0.0
  0
LINE
  5
31F
330
A
100
AcDbEntity
  8
TFR-TRI
  6
CONTINUOUS
 62
     5
100
AcDbLine
 10
34.58305740356445
 20
14.18639755249023
 30
0.0
 11
34.58009338378906
 21
14.19012355804443
 31
0.0
  0
LINE
  5
320
330
A
100
AcDbEntity
  8
TFR-TRI
  6
CONTINUOUS
 62
     3
100
AcDbLine
 10
33.22774124145507
 20
11.63486099243164
 30
0.0
 11
33.2511978149414
 21
11.63280868530273
 31
0.0
  0
LINE
  5
321
330
A
100
AcDbEntity
  8
TFR-TRI
  6
CONTINUOUS
 62
     5
100
AcDbLine
 10
17.76341247558593
 20
29.61962509155273
 30
0.0
 11
17.82591247558593
 21
29.62799835205078
 31
0.0
  0
LINE
  5
322
330
A
100
AcDbEntity
  8
TFR-TRI
  6
CONTINUOUS
 62
     5
100
AcDbLine
 10
34.44999313354492
 20
12.95037937164306
 30
0.0
 11
34.44933700561523
 21
12.95148658752441
 31
0.0
  0
LINE
  5
323
330
A
100
AcDbEntity
  8
TFR-TRI
  6
CONTINUOUS
 62
     5
100
AcDbLine
 10
34.49829483032226
 20
14.1845588684082
 30
0.0
 11
34.45146942138672
 21
14.18772888183593
 31
0.0
  0
LINE
  5
324
330
A
100
AcDbEntity
  8
TFR-TRI
  6
CONTINUOUS
 62
     5
100
AcDbLine
 10
17.28841209411621
 20
29.49258613586426
 30
0.0
 11
17.28841209411621
 21
29.4921703338623
 31
0.0
  0
LINE
  5
325
330
A
100
AcDbEntity
  8
TFR-TRI
  6
CONTINUOUS
 62
     5
100
AcDbLine
 10
34.54011917114257
 20
13.465669631958
 30
0.0
 11
34.50120544433593
 21
13.4700288772583
 31
0.0
  0
LINE
  5
326
330
A
100
AcDbEntity
  8
TFR-TRI
  6
CONTINUOUS
 62
     7
100
AcDbLine
 10
27.94124221801757
 20
15.08220291137695
 30
0.0
 11
27.94124221801757
 21
15.20179557800293
 31
0.0
  0
LINE
  5
327
330
A
100
AcDbEntity
  8
TFR-TRI
  6
CONTINUOUS
 62
     5
100
AcDbLine
 10
17.27523803710937
 20
29.2533950805664
 30
0.0
 11
17.26715087890625
 21
29.24358558654785
 31
0.0
  0
LINE
  5
328
330
A
100
AcDbEntity
  8
TFR-TRI
  6
CONTINUOUS
 62
     5
100
AcDbLine
 10
34.8223876953125
 20
12.73459148406982
 30
0.0
 11
34.81755828857421
 21
12.73600769042968
 31
0.0
  0
LINE
  5
329
330
A
100
AcDbEntity
  8
TFR-TRI
  6
CONTINUOUS
 62
     7
100
AcDbLine
 10
16.93266105651855
 20
11.95249080657958
 30
0.0
 11
16.99166297912597
 21
11.95249080657958
 31
0.0
  0
LINE
  5
32A
330
A
100
AcDbEntity
  8
TFR-TRI
  6
CONTINUOUS
 62
     5
100
AcDbLine
 10
16.91163444519043
 20
29.73291206359863
 30
0.0
 11
16.91091156005859
 21
29.74462509155273
 31
0.0
  0
LINE
  5
32B
330
A
100
AcDbEntity
  8
TFR-TRI
  6
CONTINUOUS
 62
     5
100
AcDbLine
 10
16.88444328308105
 20
15.04454231262207
 30
0.0
 11
16.89738845825195
 21
15.01804447174072
 31
0.0
  0
LINE
  5
32C
330
A
100
AcDbEntity
  8
TFR-TRI
  6
CONTINUOUS
 62
     5
100
AcDbLine
 10
34.42581176757812
 20
12.9659833908081
 30
0.0
 11
34.42398452758789
 21
12.96789741516113
 31
0.0
  0
LINE
  5
32D
330
A
100
AcDbEntity
  8
TFR-TRI
  6
CONTINUOUS
 62
     7
100
AcDbLine
 10
27.94124221801757
 20
15.01804447174072
 30
0.0
 11
27.94124221801757
 21
15.25807476043701
 31
0.0
  0
LINE
  5
32E
330
A
100
AcDbEntity
  8
TFR-TRI
  6
CONTINUOUS
 62
     5
100
AcDbLine
 10
17.13716125488281
 20
11.86131858825683
 30
0.0
 11
17.13716125488281
 21
11.90374088287353
 31
0.0
  0
LINE
  5
32F
330
A
100
AcDbEntity
  8
TFR-TRI
  6
CONTINUOUS
 62
     5
100
AcDbLine
 10
34.8441047668457
 20
13.46687984466552
 30
0.0
 11
34.79120254516601
 21
13.46658897399902
 31
0.0
  0
LINE
  5
330
330
A
100
AcDbEntity
  8
TFR-TRI
  6
CONTINUOUS
 62
     7
100
AcDbLine
 10
17.35362434387207
 20
15.20179557800293
 30
0.0
 11
17.39198875427246
 21
15.20179557800293
 31
0.0
  0
LINE
  5
331
330
A
100
AcDbEntity
  8
TFR-TRI
  6
CONTINUOUS
 62
     5
100
AcDbLine
 10
17.72832298278808
 20
29.26416015625
 30
0.0
 11
17.76551628112793
 21
29.41431808471679
 31
0.0
  0
LINE
  5
332
330
A
100
AcDbEntity
  8
TFR-TRI
  6
CONTINUOUS
 62
     5
100
AcDbLine
 10
16.82619476318359
 20
15.08431339263916
 30
0.0
 11
16.87260437011718
 21
15.08431339263916
 31
0.0
  0
LINE
  5
333
330
A
100
AcDbEntity
  8
TFR-TRI
  6
CONTINUOUS
 62
     3
100
AcDbLine
 10
17.10091209411621
 20
13.40214347839355
 30
0.0
 11
17.10091209411621
 21
12.81650733947754
 31
0.0
  0
LINE
  5
334
330
A
100
AcDbEntity
  8
TFR-TRI
  6
CONTINUOUS
 62
     7
100
AcDbLine
 10
27.94124221801757
 20
11.84374046325683
 30
0.0
 11
27.94124221801757
 21
11.96249103546142
 31
0.0
  0
LINE
  5
335
330
A
100
AcDbEntity
  8
TFR-TRI
  6
CONTINUOUS
 62
     5
100
AcDbLine
 10
28.04061698913574
 20
11.33214282989501
 30
0.0
 11
28.03720283508301
 21
11.34753322601318
 31
0.0
  0
LINE
  5
336
330
A
100
AcDbEntity
  8
TFR-TRI
  6
CONTINUOUS
 62
     7
100
AcDbLine
 10
16.68877983093261
 20
15.09298992156982
 30
0.0
 11
16.68877983093261
 21
15.01804447174072
 31
0.0
  0
LINE
  5
337
330
A
100
AcDbEntity
  8
TFR-TRI
  6
CONTINUOUS
 62
     5
100
AcDbLine
 10
17.10091209411621
 20
22.85400009155273
 30
0.0
 11
16.90536880493164
 21
22.85058784484863
 31
0.0
  0
LINE
  5
338
330
A
100
AcDbEntity
  8
TFR-TRI
  6
CONTINUOUS
 62
     5
100
AcDbLine
 10
17.2609519958496
 20
15.20179557800293
 30
0.0
 11
17.32164001464843
 21
15.20179557800293
 31
0.0
  0
LINE
  5
339
330
A
100
AcDbEntity
  8
TFR-TRI
  6
CONTINUOUS
 62
     7
100
AcDbLine
 10
17.409912109375
 20
22.75462532043456
 30
0.0
 11
17.31491088867187
 21
22.75462532043456
 31
0.0
  0
LINE
  5
33A
330
A
100
AcDbEntity
  8
TFR-TRI
  6
CONTINUOUS
 62
     7
100
AcDbLine
 10
27.94124221801757
 20
15.01804447174072
 30
0.0
 11
27.94124221801757
 21
15.02766036987304
 31
0.0
  0
LINE
  5
33B
330
A
100
AcDbEntity
  8
TFR-TRI
  6
CONTINUOUS
 62
     7
100
AcDbLine
 10
16.79191207885742
 20
22.75462532043456
 30
0.0
 11
16.86316108703613
 21
22.75462532043456
 31
0.0
  0
LINE
  5
33C
330
A
100
AcDbEntity
  8
TFR-TRI
  6
CONTINUOUS
 62
     7
100
AcDbLine
 10
16.80191230773925
 20
22.75462532043456
 30
0.0
 11
16.86091232299804
 21
22.75462532043456
 31
0.0
  0
LINE
  5
33D
330
A
100
AcDbEntity
  8
TFR-TRI
  6
CONTINUOUS
 62
     5
100
AcDbLine
 10
28.02296447753906
 20
15.31687450408935
 30
0.0
 11
28.02518844604492
 21
15.46602630615234
 31
0.0
  0
LINE
  5
33E
330
A
100
AcDbEntity
  8
TFR-TRI
  6
CONTINUOUS
 62
     7
100
AcDbLine
 10
16.87691116333007
 20
22.75462532043456
 30
0.0
 11
16.86091232299804
 21
22.75462532043456
 31
0.0
  0
LINE
  5
33F
330
A
100
AcDbEntity
  8
TFR-TRI
  6
CONTINUOUS
 62
     7
100
AcDbLine
 10
17.0126609802246
 20
11.84374046325683
 30
0.0
 11
16.98891258239746
 21
11.90374088287353
 31
0.0
  0
LINE
  5
340
330
A
100
AcDbEntity
  8
TFR-TRI
  6
CONTINUOUS
 62
     5
100
AcDbLine
 10
17.42162895202636
 20
15.01804447174072
 30
0.0
 11
17.42162895202636
 21
15.20179557800293
 31
0.0
  0
LINE
  5
341
330
A
100
AcDbEntity
  8
TFR-TRI
  6
CONTINUOUS
 62
     7
100
AcDbLine
 10
27.94124221801757
 20
15.06300067901611
 30
0.0
 11
27.94124221801757
 21
15.06963348388671
 31
0.0
  0
LINE
  5
342
330
A
100
AcDbEntity
  8
TFR-TRI
  6
CONTINUOUS
 62
     5
100
AcDbLine
 10
34.8377456665039
 20
12.57057380676269
 30
0.0
 11
34.83783340454101
 21
12.57062339782714
 31
0.0
  0
LINE
  5
343
330
A
100
AcDbEntity
  8
TFR-TRI
  6
CONTINUOUS
 62
     5
100
AcDbLine
 10
28.02347183227539
 20
13.50434589385986
 30
0.0
 11
28.02350807189941
 21
13.6819372177124
 31
0.0
  0
LINE
  5
344
330
A
100
AcDbEntity
  8
TFR-TRI
  6
CONTINUOUS
 62
     7
100
AcDbLine
 10
16.86091232299804
 20
11.91374015808105
 30
0.0
 11
16.80191230773925
 21
11.91374015808105
 31
0.0
  0
LINE
  5
345
330
A
100
AcDbEntity
  8
TFR-TRI
  6
CONTINUOUS
 62
     7
100
AcDbLine
 10
14.60641193389892
 20
28.22274589538574
 30
0.0
 11
14.60641193389892
 21
28.27557754516601
 31
0.0
  0
LINE
  5
346
330
A
100
AcDbEntity
  8
TFR-TRI
  6
CONTINUOUS
 62
     5
100
AcDbLine
 10
16.88691139221191
 20
11.95124053955078
 30
0.0
 11
16.88691139221191
 21
11.91499042510986
 31
0.0
  0
LINE
  5
347
330
A
100
AcDbEntity
  8
TFR-TRI
  6
CONTINUOUS
 62
     5
100
AcDbLine
 10
17.069429397583
 20
11.95249080657958
 30
0.0
 11
17.06341171264648
 21
11.94647312164306
 31
0.0
  0
LINE
  5
348
330
A
100
AcDbEntity
  8
TFR-TRI
  6
CONTINUOUS
 62
     5
100
AcDbLine
 10
17.88841247558593
 20
29.72769546508789
 30
0.0
 11
17.88841247558593
 21
29.69334411621094
 31
0.0
  0
LINE
  5
349
330
A
100
AcDbEntity
  8
TFR-TRI
  6
CONTINUOUS
 62
     5
100
AcDbLine
 10
34.92602920532226
 20
14.25464344024658
 30
0.0
 11
34.9312400817871
 21
14.25464344024658
 31
0.0
  0
LINE
  5
34A
330
A
100
AcDbEntity
  8
TFR-TRI
  6
CONTINUOUS
 62
     5
100
AcDbLine
 10
28.28338813781738
 20
14.32156276702881
 30
0.0
 11
28.23571968078613
 21
14.32756519317627
 31
0.0
  0
LINE
  5
34B
330
A
100
AcDbEntity
  8
TFR-TRI
  6
CONTINUOUS
 62
     7
100
AcDbLine
 10
16.99166297912597
 20
11.91374015808105
 30
0.0
 11
16.93266105651855
 21
11.91374015808105
 31
0.0
  0
LINE
  5
34C
330
A
100
AcDbEntity
  8
TFR-TRI
  6
CONTINUOUS
 62
     7
100
AcDbLine
 10
16.72395515441894
 20
15.1431713104248
 30
0.0
 11
16.72395515441894
 21
15.20414066314697
 31
0.0
  0
LINE
  5
34D
330
A
100
AcDbEntity
  8
TFR-TRI
  6
CONTINUOUS
 62
     5
100
AcDbLine
 10
17.01766204833984
 20
11.95124053955078
 30
0.0
 11
17.01766204833984
 21
11.91499042510986
 31
0.0
  0
LINE
  5
34E
330
A
100
AcDbEntity
  8
TFR-TRI
  6
CONTINUOUS
 62
     7
100
AcDbLine
 10
17.17930030822754
 20
22.75462532043456
 30
0.0
 11
17.17655372619629
 21
22.75462532043456
 31
0.0
  0
LINE
  5
34F
330
A
100
AcDbEntity
  8
TFR-TRI
  6
CONTINUOUS
 62
     3
100
AcDbLine
 10
35.02524185180664
 20
16.48864364624023
 30
0.0
 11
35.30124282836914
 21
16.48864364624023
 31
0.0
  0
LINE
  5
350
330
A
100
AcDbEntity
  8
TFR-TRI
  6
CONTINUOUS
 62
     5
100
AcDbLine
 10
34.84412002563476
 20
13.54114246368408
 30
0.0
 11
34.84348678588867
 21
13.54177856445312
 31
0.0
  0
LINE
  5
351
330
A
100
AcDbEntity
  8
TFR-TRI
  6
CONTINUOUS
 62
     3
100
AcDbLine
 10
33.67671585083007
 20
11.75516319274902
 30
0.0
 11
33.65393447875976
 21
11.79462337493896
 31
0.0
  0
LINE
  5
352
330
A
100
AcDbEntity
  8
TFR-TRI
  6
CONTINUOUS
 62
     7
100
AcDbLine
 10
16.9279670715332
 20
15.20179557800293
 30
0.0
 11
16.98940467834472
 21
15.20179557800293
 31
0.0
  0
LINE
  5
353
330
A
100
AcDbEntity
  8
TFR-TRI
  6
CONTINUOUS
 62
     5
100
AcDbLine
 10
17.18416213989257
 20
11.84374046325683
 30
0.0
 11
17.18416213989257
 21
11.96249103546142
 31
0.0
  0
LINE
  5
354
330
A
100
AcDbEntity
  8
TFR-TRI
  6
CONTINUOUS
 62
     3
100
AcDbLine
 10
19.15441131591796
 20
29.83862495422363
 30
0.0
 11
19.15441131591796
 21
30.11462593078613
 31
0.0
  0
LINE
  5
355
330
A
100
AcDbEntity
  8
TFR-TRI
  6
CONTINUOUS
 62
     3
100
AcDbLine
 10
18.93041229248046
 20
30.24462509155273
 30
0.0
 11
15.24141216278076
 21
30.24462509155273
 31
0.0
  0
LINE
  5
356
330
A
100
AcDbEntity
  8
TFR-TRI
  6
CONTINUOUS
 62
     3
100
AcDbLine
 10
34.07020187377929
 20
15.25764369964599
 30
0.0
 11
34.07020187377929
 21
15.50764369964599
 31
0.0
  0
LINE
  5
357
330
A
100
AcDbEntity
  8
TFR-TRI
  6
CONTINUOUS
 62
     5
100
AcDbLine
 10
34.84432220458984
 20
13.49330711364746
 30
0.0
 11
34.84429550170898
 21
13.48423480987548
 31
0.0
  0
LINE
  5
358
330
A
100
AcDbEntity
  8
TFR-TRI
  6
CONTINUOUS
 62
     7
100
AcDbLine
 10
16.80191230773925
 20
22.75462532043456
 30
0.0
 11
16.79191207885742
 21
22.75462532043456
 31
0.0
  0
LINE
  5
359
330
A
100
AcDbEntity
  8
TFR-TRI
  6
CONTINUOUS
 62
     5
100
AcDbLine
 10
34.42398452758789
 20
12.96789741516113
 30
0.0
 11
34.42525482177734
 21
12.97001075744629
 31
0.0
  0
LINE
  5
35A
330
A
100
AcDbEntity
  8
TFR-TRI
  6
CONTINUOUS
 62
     3
100
AcDbLine
 10
33.2511978149414
 20
11.6824779510498
 30
0.0
 11
33.22774124145507
 21
11.68042564392089
 31
0.0
  0
LINE
  5
35B
330
A
100
AcDbEntity
  8
TFR-TRI
  6
CONTINUOUS
 62
     7
100
AcDbLine
 10
16.74923133850097
 20
15.01804447174072
 30
0.0
 11
16.78379821777343
 21
15.10143089294433
 31
0.0
  0
LINE
  5
35C
330
A
100
AcDbEntity
  8
TFR-TRI
  6
CONTINUOUS
 62
     3
100
AcDbLine
 10
32.19324111938476
 20
10.58264350891113
 30
0.0
 11
32.19324111938476
 21
10.61017513275146
 31
0.0
  0
LINE
  5
35D
330
A
100
AcDbEntity
  8
TFR-TRI
  6
CONTINUOUS
 62
     5
100
AcDbLine
 10
34.83783340454101
 20
12.57042121887207
 30
0.0
 11
34.83784103393555
 21
12.57043933868408
 31
0.0
  0
LINE
  5
35E
330
A
100
AcDbEntity
  8
TFR-TRI
  6
CONTINUOUS
 62
     7
100
AcDbLine
 10
14.63766193389892
 20
28.38068580627441
 30
0.0
 11
14.60641193389892
 21
28.34943580627441
 31
0.0
  0
LINE
  5
35F
330
A
100
AcDbEntity
  8
TFR-TRI
  6
CONTINUOUS
 62
     3
100
AcDbLine
 10
19.12688064575195
 20
16.48864364624023
 30
0.0
 11
19.15441131591796
 21
16.48864364624023
 31
0.0
  0
LINE
  5
360
330
A
100
AcDbEntity
  8
TFR-TRI
  6
CONTINUOUS
 62
     3
100
AcDbLine
 10
33.5992202758789
 20
11.46595191955566
 30
0.0
 11
33.58927154541015
 21
11.48729133605957
 31
0.0
  0
LINE
  5
361
330
A
100
AcDbEntity
  8
TFR-TRI
  6
CONTINUOUS
 62
     5
100
AcDbLine
 10
34.87995910644531
 20
15.35846519470214
 30
0.0
 11
34.88518905639648
 21
15.34941101074218
 31
0.0
  0
LINE
  5
362
330
A
100
AcDbEntity
  8
TFR-TRI
  6
CONTINUOUS
 62
     7
100
AcDbLine
 10
16.93266105651855
 20
11.84374046325683
 30
0.0
 11
16.92266273498535
 21
11.84374046325683
 31
0.0
  0
LINE
  5
363
330
A
100
AcDbEntity
  8
TFR-TRI
  6
CONTINUOUS
 62
     3
100
AcDbLine
 10
14.83856678009033
 20
15.25764369964599
 30
0.0
 11
14.83141136169433
 21
15.25764369964599
 31
0.0
  0
LINE
  5
364
330
A
100
AcDbEntity
  8
TFR-TRI
  6
CONTINUOUS
 62
     3
100
AcDbLine
 10
35.41382598876953
 20
16.51864242553711
 30
0.0
 11
35.36624145507812
 21
16.51864242553711
 31
0.0
  0
LINE
  5
365
330
A
100
AcDbEntity
  8
TFR-TRI
  6
CONTINUOUS
 62
     5
100
AcDbLine
 10
34.92602920532226
 20
12.01964282989502
 30
0.0
 11
34.92617416381836
 21
11.95714282989501
 31
0.0
  0
LINE
  5
366
330
A
100
AcDbEntity
  8
TFR-TRI
  6
CONTINUOUS
 62
     7
100
AcDbLine
 10
33.44224166870117
 20
11.53540420532226
 30
0.0
 11
33.44224166870117
 21
11.53264331817626
 31
0.0
  0
LINE
  5
367
330
A
100
AcDbEntity
  8
TFR-TRI
  6
CONTINUOUS
 62
     7
100
AcDbLine
 10
14.83141708374023
 20
28.38068580627441
 30
0.0
 11
14.63766193389892
 21
28.38068580627441
 31
0.0
  0
LINE
  5
368
330
A
100
AcDbEntity
  8
TFR-TRI
  6
CONTINUOUS
 62
     7
100
AcDbLine
 10
17.09680366516113
 20
15.01804447174072
 30
0.0
 11
17.09680366516113
 21
15.20179557800293
 31
0.0
  0
LINE
  5
369
330
A
100
AcDbEntity
  8
TFR-TRI
  6
CONTINUOUS
 62
     7
100
AcDbLine
 10
17.2609519958496
 20
22.75462532043456
 30
0.0
 11
17.32164001464843
 21
22.75462532043456
 31
0.0
  0
LINE
  5
36A
330
A
100
AcDbEntity
  8
TFR-TRI
  6
CONTINUOUS
 62
     7
100
AcDbLine
 10
17.65591239929199
 20
22.75462532043456
 30
0.0
 11
16.54591178894043
 21
22.75462532043456
 31
0.0
  0
LINE
  5
36B
330
A
100
AcDbEntity
  8
TFR-TRI
  6
CONTINUOUS
 62
     5
100
AcDbLine
 10
34.66255569458008
 20
15.45704174041748
 30
0.0
 11
34.68988037109375
 21
15.4360761642456
 31
0.0
  0
LINE
  5
36C
330
A
100
AcDbEntity
  8
TFR-TRI
  6
CONTINUOUS
 62
     7
100
AcDbLine
 10
33.58724212646484
 20
11.67764282226562
 30
0.0
 11
33.57929611206055
 21
11.67764282226562
 31
0.0
  0
LINE
  5
36D
330
A
100
AcDbEntity
  8
TFR-TRI
  6
CONTINUOUS
 62
     5
100
AcDbLine
 10
28.28629112243652
 20
12.84279155731201
 30
0.0
 11
34.44999313354492
 21
12.95037937164306
 31
0.0
  0
LINE
  5
36E
330
A
100
AcDbEntity
  8
TFR-TRI
  6
CONTINUOUS
 62
     5
100
AcDbLine
 10
16.91933059692382
 20
29.26968383789062
 30
0.0
 11
16.91341209411621
 21
29.31167984008789
 31
0.0
  0
LINE
  5
36F
330
A
100
AcDbEntity
  8
TFR-TRI
  6
CONTINUOUS
 62
     5
100
AcDbLine
 10
27.93124198913574
 20
15.38562774658203
 30
0.0
 11
27.93124198913574
 21
15.53969860076904
 31
0.0
  0
LINE
  5
370
330
A
100
AcDbEntity
  8
TFR-TRI
  6
CONTINUOUS
 62
     5
100
AcDbLine
 10
34.68458175659179
 20
15.41630268096923
 30
0.0
 11
34.7099380493164
 21
15.37238502502441
 31
0.0
  0
LINE
  5
371
330
A
100
AcDbEntity
  8
TFR-TRI
  6
CONTINUOUS
 62
     3
100
AcDbLine
 10
15.42341136932373
 20
27.00662612915039
 30
0.0
 11
15.48987960815429
 21
27.00662612915039
 31
0.0
  0
LINE
  5
372
330
A
100
AcDbEntity
  8
TFR-TRI
  6
CONTINUOUS
 62
     7
100
AcDbLine
 10
27.94124221801757
 20
15.20179557800293
 30
0.0
 11
27.94124221801757
 21
15.01804447174072
 31
0.0
  0
LINE
  5
373
330
A
100
AcDbEntity
  8
TFR-TRI
  6
CONTINUOUS
 62
     5
100
AcDbLine
 10
17.56077194213867
 20
13.27487468719482
 30
0.0
 11
17.49199104309082
 21
13.19106483459472
 31
0.0
  0
LINE
  5
374
330
A
100
AcDbEntity
  8
TFR-TRI
  6
CONTINUOUS
 62
     5
100
AcDbLine
 10
17.88841247558593
 20
29.73941040039062
 30
0.0
 11
17.88841247558593
 21
29.72769546508789
 31
0.0
  0
LINE
  5
375
330
A
100
AcDbEntity
  8
TFR-TRI
  6
CONTINUOUS
 62
     5
100
AcDbLine
 10
34.79409027099609
 20
13.62197875976562
 30
0.0
 11
34.7798957824707
 21
13.62196731567382
 31
0.0
  0
LINE
  5
376
330
A
100
AcDbEntity
  8
TFR-TRI
  6
CONTINUOUS
 62
     5
100
AcDbLine
 10
34.80399322509765
 20
15.30254364013671
 30
0.0
 11
34.83749008178711
 21
15.17751884460449
 31
0.0
  0
LINE
  5
377
330
A
100
AcDbEntity
  8
TFR-TRI
  6
CONTINUOUS
 62
     5
100
AcDbLine
 10
16.59879302978515
 20
22.74462509155273
 30
0.0
 11
16.41722679138183
 21
22.74462509155273
 31
0.0
  0
LINE
  5
378
330
A
100
AcDbEntity
  8
TFR-TRI
  6
CONTINUOUS
 62
     7
100
AcDbLine
 10
27.94124221801757
 20
15.01804447174072
 30
0.0
 11
27.94124221801757
 21
15.04454231262207
 31
0.0
  0
LINE
  5
379
330
A
100
AcDbEntity
  8
TFR-TRI
  6
CONTINUOUS
 62
     5
100
AcDbLine
 10
17.06528663635253
 20
11.96249103546142
 30
0.0
 11
17.05341148376464
 21
11.95061588287353
 31
0.0
  0
LINE
  5
37A
330
A
100
AcDbEntity
  8
TFR-TRI
  6
CONTINUOUS
 62
     5
100
AcDbLine
 10
16.55846977233886
 20
13.69004154205322
 30
0.0
 11
16.5899429321289
 21
13.79379367828369
 31
0.0
  0
LINE
  5
37B
330
A
100
AcDbEntity
  8
TFR-TRI
  6
CONTINUOUS
 62
     5
100
AcDbLine
 10
34.45297622680664
 20
13.65094661712646
 30
0.0
 11
34.45110321044921
 21
13.65410137176513
 31
0.0
  0
LINE
  5
37C
330
A
100
AcDbEntity
  8
TFR-TRI
  6
CONTINUOUS
 62
     5
100
AcDbLine
 10
34.58009338378906
 20
14.19012355804443
 30
0.0
 11
34.57869720458984
 21
14.1943130493164
 31
0.0
  0
LINE
  5
37D
330
A
100
AcDbEntity
  8
TFR-TRI
  6
CONTINUOUS
 62
     5
100
AcDbLine
 10
17.71678924560546
 20
29.54774284362793
 30
0.0
 11
17.72024536132812
 21
29.35350227355957
 31
0.0
  0
LINE
  5
37E
330
A
100
AcDbEntity
  8
TFR-TRI
  6
CONTINUOUS
 62
     5
100
AcDbLine
 10
17.82591247558593
 20
29.62799835205078
 30
0.0
 11
17.87166595458984
 21
29.65087509155273
 31
0.0
  0
LINE
  5
37F
330
A
100
AcDbEntity
  8
TFR-TRI
  6
CONTINUOUS
 62
     5
100
AcDbLine
 10
17.84056282043457
 20
23.08249855041503
 30
0.0
 11
17.73237800598144
 21
29.28046989440918
 31
0.0
  0
LINE
  5
380
330
A
100
AcDbEntity
  8
TFR-TRI
  6
CONTINUOUS
 62
     7
100
AcDbLine
 10
27.94124221801757
 20
11.84374046325683
 30
0.0
 11
27.94124221801757
 21
11.90374088287353
 31
0.0
  0
LINE
  5
381
330
A
100
AcDbEntity
  8
TFR-TRI
  6
CONTINUOUS
 62
     5
100
AcDbLine
 10
18.35091209411621
 20
12.58214282989501
 30
0.0
 11
18.35091209411621
 21
14.58214282989501
 31
0.0
  0
LINE
  5
382
330
A
100
AcDbEntity
  8
TFR-TRI
  6
CONTINUOUS
 62
     5
100
AcDbLine
 10
34.45146942138672
 20
14.18772888183593
 30
0.0
 11
34.44001007080078
 21
14.18956089019775
 31
0.0
  0
LINE
  5
383
330
A
100
AcDbEntity
  8
TFR-TRI
  6
CONTINUOUS
 62
     5
100
AcDbLine
 10
34.83840942382812
 20
12.57301044464111
 30
0.0
 11
34.8377456665039
 21
12.57057380676269
 31
0.0
  0
LINE
  5
384
330
A
100
AcDbEntity
  8
TFR-TRI
  6
CONTINUOUS
 62
     5
100
AcDbLine
 10
17.28841209411621
 20
29.55405616760254
 30
0.0
 11
17.28841209411621
 21
29.52673149108886
 31
0.0
  0
LINE
  5
385
330
A
100
AcDbEntity
  8
TFR-TRI
  6
CONTINUOUS
 62
     7
100
AcDbLine
 10
27.94124221801757
 20
11.92131900787353
 30
0.0
 11
27.94124221801757
 21
11.91374015808105
 31
0.0
  0
LINE
  5
386
330
A
100
AcDbEntity
  8
TFR-TRI
  6
CONTINUOUS
 62
     5
100
AcDbLine
 10
16.54784393310547
 20
13.58214282989502
 30
0.0
 11
16.55846977233886
 21
13.69004154205322
 31
0.0
  0
LINE
  5
387
330
A
100
AcDbEntity
  8
TFR-TRI
  6
CONTINUOUS
 62
     7
100
AcDbLine
 10
17.069429397583
 20
11.95249080657958
 30
0.0
 11
17.06341171264648
 21
11.94647312164306
 31
0.0
  0
LINE
  5
388
330
A
100
AcDbEntity
  8
TFR-TRI
  6
CONTINUOUS
 62
     5
100
AcDbLine
 10
17.10091209411621
 20
29.46743965148925
 30
0.0
 11
17.10091209411621
 21
29.37009620666504
 31
0.0
  0
LINE
  5
389
330
A
100
AcDbEntity
  8
TFR-TRI
  6
CONTINUOUS
 62
     5
100
AcDbLine
 10
16.97955513000488
 20
15.01804447174072
 30
0.0
 11
16.89738845825195
 21
15.01804447174072
 31
0.0
  0
LINE
  5
38A
330
A
100
AcDbEntity
  8
TFR-TRI
  6
CONTINUOUS
 62
     7
100
AcDbLine
 10
27.94124221801757
 20
11.9449119567871
 30
0.0
 11
27.94124221801757
 21
11.92131900787353
 31
0.0
  0
LINE
  5
38B
330
A
100
AcDbEntity
  8
TFR-TRI
  6
CONTINUOUS
 62
     5
100
AcDbLine
 10
16.0015697479248
 20
22.74462509155273
 30
0.0
 11
15.91864013671875
 21
22.74462509155273
 31
0.0
  0
LINE
  5
38C
330
A
100
AcDbEntity
  8
TFR-TRI
  6
CONTINUOUS
 62
     7
100
AcDbLine
 10
17.26916122436523
 20
11.92131900787353
 30
0.0
 11
17.2531623840332
 21
11.91374015808105
 31
0.0
  0
LINE
  5
38D
330
A
100
AcDbEntity
  8
TFR-TRI
  6
CONTINUOUS
 62
     5
100
AcDbLine
 10
17.76551628112793
 20
29.41431808471679
 30
0.0
 11
17.82830810546875
 21
29.55938148498535
 31
0.0
  0
LINE
  5
38E
330
A
100
AcDbEntity
  8
TFR-TRI
  6
CONTINUOUS
 62
     5
100
AcDbLine
 10
16.82619476318359
 20
15.08431339263916
 30
0.0
 11
16.84926986694335
 21
15.1362771987915
 31
0.0
  0
LINE
  5
38F
330
A
100
AcDbEntity
  8
TFR-TRI
  6
CONTINUOUS
 62
     7
100
AcDbLine
 10
27.94124221801757
 20
11.85374069213867
 30
0.0
 11
27.94124221801757
 21
11.86131858825683
 31
0.0
  0
LINE
  5
390
330
A
100
AcDbEntity
  8
TFR-TRI
  6
CONTINUOUS
 62
     7
100
AcDbLine
 10
27.94124221801757
 20
11.86230564117431
 30
0.0
 11
27.94124221801757
 21
11.85374069213867
 31
0.0
  0
LINE
  5
391
330
A
100
AcDbEntity
  8
TFR-TRI
  6
CONTINUOUS
 62
     7
100
AcDbLine
 10
16.88691139221191
 20
11.95124053955078
 30
0.0
 11
16.88691139221191
 21
11.91499042510986
 31
0.0
  0
LINE
  5
392
330
A
100
AcDbEntity
  8
TFR-TRI
  6
CONTINUOUS
 62
     5
100
AcDbLine
 10
16.90536880493164
 20
22.85058784484863
 30
0.0
 11
16.71463966369628
 21
22.84725761413574
 31
0.0
  0
LINE
  5
393
330
A
100
AcDbEntity
  8
TFR-TRI
  6
CONTINUOUS
 62
     7
100
AcDbLine
 10
27.94124221801757
 20
15.02766036987304
 30
0.0
 11
27.94124221801757
 21
15.05087375640869
 31
0.0
  0
LINE
  5
394
330
A
100
AcDbEntity
  8
TFR-TRI
  6
CONTINUOUS
 62
     5
100
AcDbLine
 10
28.02518844604492
 20
15.46602630615234
 30
0.0
 11
28.02779197692871
 21
15.59341430664062
 31
0.0
  0
LINE
  5
395
330
A
100
AcDbEntity
  8
TFR-TRI
  6
CONTINUOUS
 62
     7
100
AcDbLine
 10
17.13716125488281
 20
11.90374088287353
 30
0.0
 11
17.12466239929199
 21
11.90999031066894
 31
0.0
  0
LINE
  5
396
330
A
100
AcDbEntity
  8
TFR-TRI
  6
CONTINUOUS
 62
     5
100
AcDbLine
 10
17.10091209411621
 20
22.90877342224121
 30
0.0
 11
17.10091209411621
 21
22.86809158325195
 31
0.0
  0
LINE
  5
397
330
A
100
AcDbEntity
  8
TFR-TRI
  6
CONTINUOUS
 62
     7
100
AcDbLine
 10
17.12116241455078
 20
22.75462532043456
 30
0.0
 11
17.13716125488281
 21
22.75462532043456
 31
0.0
  0
LINE
  5
398
330
A
100
AcDbEntity
  8
TFR-TRI
  6
CONTINUOUS
 62
     5
100
AcDbLine
 10
17.47087287902832
 20
15.01804447174072
 30
0.0
 11
17.42162895202636
 21
15.01804447174072
 31
0.0
  0
LINE
  5
399
330
A
100
AcDbEntity
  8
TFR-TRI
  6
CONTINUOUS
 62
     7
100
AcDbLine
 10
17.0126609802246
 20
22.75462532043456
 30
0.0
 11
16.98891258239746
 21
22.75462532043456
 31
0.0
  0
LINE
  5
39A
330
A
100
AcDbEntity
  8
TFR-TRI
  6
CONTINUOUS
 62
     7
100
AcDbLine
 10
16.74923133850097
 20
22.75462532043456
 30
0.0
 11
16.78379821777343
 21
22.75462532043456
 31
0.0
  0
LINE
  5
39B
330
A
100
AcDbEntity
  8
TFR-TRI
  6
CONTINUOUS
 62
     7
100
AcDbLine
 10
17.19416236877441
 20
22.75462532043456
 30
0.0
 11
17.2531623840332
 21
22.75462532043456
 31
0.0
  0
LINE
  5
39C
330
A
100
AcDbEntity
  8
TFR-TRI
  6
CONTINUOUS
 62
     7
100
AcDbLine
 10
27.94124221801757
 20
15.06963348388671
 30
0.0
 11
27.94124221801757
 21
15.06300067901611
 31
0.0
  0
LINE
  5
39D
330
A
100
AcDbEntity
  8
TFR-TRI
  6
CONTINUOUS
 62
     5
100
AcDbLine
 10
34.7798957824707
 20
13.54231929779052
 30
0.0
 11
34.56536483764648
 21
13.54228687286377
 31
0.0
  0
LINE
  5
39E
330
A
100
AcDbEntity
  8
TFR-TRI
  6
CONTINUOUS
 62
     7
100
AcDbLine
 10
17.02176475524902
 20
22.75462532043456
 30
0.0
 11
17.06866455078125
 21
22.75462532043456
 31
0.0
  0
LINE
  5
39F
330
A
100
AcDbEntity
  8
TFR-TRI
  6
CONTINUOUS
 62
     5
100
AcDbLine
 10
28.02350807189941
 20
13.6819372177124
 30
0.0
 11
28.02409553527832
 21
13.85631275177002
 31
0.0
  0
LINE
  5
3A0
330
A
100
AcDbEntity
  8
TFR-TRI
  6
CONTINUOUS
 62
     5
100
AcDbLine
 10
16.41722679138183
 20
22.74462509155273
 30
0.0
 11
16.25431060791015
 21
22.74462509155273
 31
0.0
  0
LINE
  5
3A1
330
A
100
AcDbEntity
  8
TFR-TRI
  6
CONTINUOUS
 62
     7
100
AcDbLine
 10
16.97955513000488
 20
22.75462532043456
 30
0.0
 11
17.01332283020019
 21
22.75462532043456
 31
0.0
  0
LINE
  5
3A2
330
A
100
AcDbEntity
  8
TFR-TRI
  6
CONTINUOUS
 62
     7
100
AcDbLine
 10
17.19416236877441
 20
11.95249080657958
 30
0.0
 11
17.2531623840332
 21
11.95249080657958
 31
0.0
  0
LINE
  5
3A3
330
A
100
AcDbEntity
  8
TFR-TRI
  6
CONTINUOUS
 62
     7
100
AcDbLine
 10
14.60641193389892
 20
28.27557754516601
 30
0.0
 11
14.60641193389892
 21
28.32841110229492
 31
0.0
  0
LINE
  5
3A4
330
A
100
AcDbEntity
  8
TFR-TRI
  6
CONTINUOUS
 62
     5
100
AcDbLine
 10
16.88691139221191
 20
11.91499042510986
 30
0.0
 11
16.86316108703613
 21
11.90374088287353
 31
0.0
  0
LINE
  5
3A5
330
A
100
AcDbEntity
  8
TFR-TRI
  6
CONTINUOUS
 62
     7
100
AcDbLine
 10
16.88691139221191
 20
22.75462532043456
 30
0.0
 11
16.86316108703613
 21
22.75462532043456
 31
0.0
  0
LINE
  5
3A6
330
A
100
AcDbEntity
  8
TFR-TRI
  6
CONTINUOUS
 62
     3
100
AcDbLine
 10
33.57624053955078
 20
11.86260032653808
 30
0.0
 11
33.57624053955078
 21
11.90764331817627
 31
0.0
  0
LINE
  5
3A7
330
A
100
AcDbEntity
  8
TFR-TRI
  6
CONTINUOUS
 62
     5
100
AcDbLine
 10
34.92602920532226
 20
15.18654441833496
 30
0.0
 11
34.92602920532226
 21
14.25464344024658
 31
0.0
  0
LINE
  5
3A8
330
A
100
AcDbEntity
  8
TFR-TRI
  6
CONTINUOUS
 62
     7
100
AcDbLine
 10
17.19998359680175
 20
22.75462532043456
 30
0.0
 11
17.09680366516113
 21
22.75462532043456
 31
0.0
  0
LINE
  5
3A9
330
A
100
AcDbEntity
  8
TFR-TRI
  6
CONTINUOUS
 62
     5
100
AcDbLine
 10
28.23571968078613
 20
14.32756519317627
 30
0.0
 11
28.1580810546875
 21
14.35948848724365
 31
0.0
  0
LINE
  5
3AA
330
A
100
AcDbEntity
  8
TFR-TRI
  6
CONTINUOUS
 62
     7
100
AcDbLine
 10
27.94124221801757
 20
11.91374015808105
 30
0.0
 11
27.94124221801757
 21
11.95249080657958
 31
0.0
  0
LINE
  5
3AB
330
A
100
AcDbEntity
  8
TFR-TRI
  6
CONTINUOUS
 62
     7
100
AcDbLine
 10
17.39198875427246
 20
15.20179557800293
 30
0.0
 11
17.39198875427246
 21
15.05087375640869
 31
0.0
  0
LINE
  5
3AC
330
A
100
AcDbEntity
  8
TFR-TRI
  6
CONTINUOUS
 62
     5
100
AcDbLine
 10
17.01766204833984
 20
11.91499042510986
 30
0.0
 11
16.99875831604003
 21
11.90603637695312
 31
0.0
  0
LINE
  5
3AD
330
A
100
AcDbEntity
  8
TFR-TRI
  6
CONTINUOUS
 62
     7
100
AcDbLine
 10
17.17655372619629
 20
22.75462532043456
 30
0.0
 11
17.16991996765136
 21
22.75462532043456
 31
0.0
  0
LINE
  5
3AE
330
A
100
AcDbEntity
  8
TFR-TRI
  6
CONTINUOUS
 62
     3
100
AcDbLine
 10
35.43124008178711
 20
10.80664348602294
 30
0.0
 11
35.43124008178711
 21
16.358642578125
 31
0.0
  0
LINE
  5
3AF
330
A
100
AcDbEntity
  8
TFR-TRI
  6
CONTINUOUS
 62
     5
100
AcDbLine
 10
34.84433364868164
 20
13.65482807159423
 30
0.0
 11
34.84432983398437
 21
13.6458683013916
 31
0.0
  0
LINE
  5
3B0
330
A
100
AcDbEntity
  8
TFR-TRI
  6
CONTINUOUS
 62
     3
100
AcDbLine
 10
33.65393447875976
 20
11.79462337493896
 30
0.0
 11
33.63259506225586
 21
11.78467273712158
 31
0.0
  0
LINE
  5
3B1
330
A
100
AcDbEntity
  8
TFR-TRI
  6
CONTINUOUS
 62
     7
100
AcDbLine
 10
17.32164001464843
 20
15.20179557800293
 30
0.0
 11
17.32164001464843
 21
15.06963348388671
 31
0.0
  0
LINE
  5
3B2
330
A
100
AcDbEntity
  8
TFR-TRI
  6
CONTINUOUS
 62
     5
100
AcDbLine
 10
17.18416213989257
 20
11.96249103546142
 30
0.0
 11
17.25541114807128
 21
11.96249103546142
 31
0.0
  0
LINE
  5
3B3
330
A
100
AcDbEntity
  8
TFR-TRI
  6
CONTINUOUS
 62
     3
100
AcDbLine
 10
19.09041213989257
 20
29.83862495422363
 30
0.0
 11
19.09041213989257
 21
30.11462593078613
 31
0.0
  0
LINE
  5
3B4
330
A
100
AcDbEntity
  8
TFR-TRI
  6
CONTINUOUS
 62
     3
100
AcDbLine
 10
32.85428237915039
 20
15.50764369964599
 30
0.0
 11
32.85428237915039
 21
15.25764369964599
 31
0.0
  0
LINE
  5
3B5
330
A
100
AcDbEntity
  8
TFR-TRI
  6
CONTINUOUS
 62
     5
100
AcDbLine
 10
34.84429550170898
 20
13.48423480987548
 30
0.0
 11
34.8442497253418
 21
13.47657394409179
 31
0.0
  0
LINE
  5
3B6
330
A
100
AcDbEntity
  8
TFR-TRI
  6
CONTINUOUS
 62
     3
100
AcDbLine
 10
33.22774124145507
 20
11.68042564392089
 30
0.0
 11
33.22774124145507
 21
11.63486099243164
 31
0.0
  0
LINE
  5
3B7
330
A
100
AcDbEntity
  8
TFR-TRI
  6
CONTINUOUS
 62
     7
100
AcDbLine
 10
16.874267578125
 20
15.20179557800293
 30
0.0
 11
16.9279670715332
 21
15.08220291137695
 31
0.0
  0
LINE
  5
3B8
330
A
100
AcDbEntity
  8
TFR-TRI
  6
CONTINUOUS
 62
     5
100
AcDbLine
 10
17.39191246032715
 20
11.95249080657958
 30
0.0
 11
17.30491256713867
 21
11.84374046325683
 31
0.0
  0
LINE
  5
3B9
330
A
100
AcDbEntity
  8
TFR-TRI
  6
CONTINUOUS
 62
     5
100
AcDbLine
 10
34.83885955810547
 20
14.58628845214843
 30
0.0
 11
34.83895111083984
 21
14.57551097869873
 31
0.0
  0
LINE
  5
3BA
330
A
100
AcDbEntity
  8
TFR-TRI
  6
CONTINUOUS
 62
     3
100
AcDbLine
 10
32.19324111938476
 20
10.61017513275146
 30
0.0
 11
32.19324111938476
 21
10.67664337158203
 31
0.0
  0
LINE
  5
3BB
330
A
100
AcDbEntity
  8
TFR-TRI
  6
CONTINUOUS
 62
     5
100
AcDbLine
 10
34.84327316284179
 20
11.89464282989501
 30
0.0
 11
34.84381866455078
 21
11.91139030456543
 31
0.0
  0
LINE
  5
3BC
330
A
100
AcDbEntity
  8
TFR-TRI
  6
CONTINUOUS
 62
     7
100
AcDbLine
 10
15.01740837097168
 20
11.60201454162597
 30
0.0
 11
14.63766193389892
 21
11.60201454162597
 31
0.0
  0
LINE
  5
3BD
330
A
100
AcDbEntity
  8
TFR-TRI
  6
CONTINUOUS
 62
     3
100
AcDbLine
 10
33.63259506225586
 20
11.53061389923095
 30
0.0
 11
33.65393447875976
 21
11.52066326141357
 31
0.0
  0
LINE
  5
3BE
330
A
100
AcDbEntity
  8
TFR-TRI
  6
CONTINUOUS
 62
     7
100
AcDbLine
 10
16.97955513000488
 20
15.09627246856689
 30
0.0
 11
17.01332283020019
 21
15.01804447174072
 31
0.0
  0
LINE
  5
3BF
330
A
100
AcDbEntity
  8
TFR-TRI
  6
CONTINUOUS
 62
     5
100
AcDbLine
 10
17.05341148376464
 20
11.85561561584472
 30
0.0
 11
17.06410026550293
 21
11.84374046325683
 31
0.0
  0
LINE
  5
3C0
330
A
100
AcDbEntity
  8
TFR-TRI
  6
CONTINUOUS
 62
     3
100
AcDbLine
 10
35.36624145507812
 20
16.51864242553711
 30
0.0
 11
35.30124282836914
 21
16.51864242553711
 31
0.0
  0
LINE
  5
3C1
330
A
100
AcDbEntity
  8
TFR-TRI
  6
CONTINUOUS
 62
     5
100
AcDbLine
 10
34.92617416381836
 20
11.95714282989501
 30
0.0
 11
34.92657470703125
 21
11.91139030456543
 31
0.0
  0
LINE
  5
3C2
330
A
100
AcDbEntity
  8
TFR-TRI
  6
CONTINUOUS
 62
     7
100
AcDbLine
 10
33.48224258422851
 20
11.67764282226562
 30
0.0
 11
33.48224258422851
 21
11.77469730377197
 31
0.0
  0
LINE
  5
3C3
330
A
100
AcDbEntity
  8
TFR-TRI
  6
CONTINUOUS
 62
     7
100
AcDbLine
 10
16.9279670715332
 20
15.08220291137695
 30
0.0
 11
16.9279670715332
 21
15.20179557800293
 31
0.0
  0
LINE
  5
3C4
330
A
100
AcDbEntity
  8
TFR-TRI
  6
CONTINUOUS
 62
     7
100
AcDbLine
 10
15.01740837097168
 20
11.7666015625
 30
0.0
 11
14.63766193389892
 21
11.7666015625
 31
0.0
  0
LINE
  5
3C5
330
A
100
AcDbEntity
  8
TFR-TRI
  6
CONTINUOUS
 62
     5
100
AcDbLine
 10
27.93124198913574
 20
11.35113334655761
 30
0.0
 11
27.93124198913574
 21
11.40752792358398
 31
0.0
  0
LINE
  5
3C6
330
A
100
AcDbEntity
  8
TFR-TRI
  6
CONTINUOUS
 62
     5
100
AcDbLine
 10
34.68988037109375
 20
15.4360761642456
 30
0.0
 11
34.72402572631835
 21
15.44057178497314
 31
0.0
  0
LINE
  5
3C7
330
A
100
AcDbEntity
  8
TFR-TRI
  6
CONTINUOUS
 62
     7
100
AcDbLine
 10
33.58724212646484
 20
11.63764286041259
 30
0.0
 11
33.58724212646484
 21
11.65764331817626
 31
0.0
  0
LINE
  5
3C8
330
A
100
AcDbEntity
  8
TFR-TRI
  6
CONTINUOUS
 62
     3
100
AcDbLine
 10
14.89541149139404
 20
28.71268844604492
 30
0.0
 11
14.89541149139404
 21
27.83856201171875
 31
0.0
  0
LINE
  5
3C9
330
A
100
AcDbEntity
  8
TFR-TRI
  6
CONTINUOUS
 62
     3
100
AcDbLine
 10
19.06041145324707
 20
10.61017513275146
 30
0.0
 11
19.06041145324707
 21
10.58264350891113
 31
0.0
  0
LINE
  5
3CA
330
A
100
AcDbEntity
  8
TFR-TRI
  6
CONTINUOUS
 62
     5
100
AcDbLine
 10
16.48157882690429
 20
29.35350227355957
 30
0.0
 11
16.48503494262695
 21
29.54774284362793
 31
0.0
  0
LINE
  5
3CB
330
A
100
AcDbEntity
  8
TFR-TRI
  6
CONTINUOUS
 62
     5
100
AcDbLine
 10
27.93124198913574
 20
15.53969860076904
 30
0.0
 11
27.93124198913574
 21
15.66467475891113
 31
0.0
  0
LINE
  5
3CC
330
A
100
AcDbEntity
  8
TFR-TRI
  6
CONTINUOUS
 62
     5
100
AcDbLine
 10
34.7099380493164
 20
15.37238502502441
 30
0.0
 11
34.80119323730468
 21
15.30876064300537
 31
0.0
  0
LINE
  5
3CD
330
A
100
AcDbEntity
  8
TFR-TRI
  6
CONTINUOUS
 62
     3
100
AcDbLine
 10
15.51741218566894
 20
29.73962593078613
 30
0.0
 11
15.45341205596924
 21
29.73962593078613
 31
0.0
  0
LINE
  5
3CE
330
A
100
AcDbEntity
  8
TFR-TRI
  6
CONTINUOUS
 62
     7
100
AcDbLine
 10
27.94124221801757
 20
11.84374046325683
 30
0.0
 11
27.94124221801757
 21
11.90374088287353
 31
0.0
  0
LINE
  5
3CF
330
A
100
AcDbEntity
  8
TFR-TRI
  6
CONTINUOUS
 62
     5
100
AcDbLine
 10
28.04061698913574
 20
15.83214282989501
 30
0.0
 11
27.93124198913574
 21
15.83214282989501
 31
0.0
  0
LINE
  5
3D0
330
A
100
AcDbEntity
  8
TFR-TRI
  6
CONTINUOUS
 62
     5
100
AcDbLine
 10
34.7798957824707
 20
13.54231929779052
 30
0.0
 11
34.80061721801757
 21
13.54229164123535
 31
0.0
  0
LINE
  5
3D1
330
A
100
AcDbEntity
  8
TFR-TRI
  6
CONTINUOUS
 62
     5
100
AcDbLine
 10
18.08733749389648
 20
22.74462509155273
 30
0.0
 11
17.94751358032226
 21
22.74462509155273
 31
0.0
  0
LINE
  5
3D2
330
A
100
AcDbEntity
  8
TFR-TRI
  6
CONTINUOUS
 62
     7
100
AcDbLine
 10
27.94124221801757
 20
11.84374046325683
 30
0.0
 11
27.94124221801757
 21
11.85499095916748
 31
0.0
  0
LINE
  5
3D3
330
A
100
AcDbEntity
  8
TFR-TRI
  6
CONTINUOUS
 62
     5
100
AcDbLine
 10
34.83903503417968
 20
14.41645717620849
 30
0.0
 11
34.83912658691406
 21
14.41479015350341
 31
0.0
  0
LINE
  5
3D4
330
A
100
AcDbEntity
  8
TFR-TRI
  6
CONTINUOUS
 62
     5
100
AcDbLine
 10
34.45110321044921
 20
13.65410137176513
 30
0.0
 11
34.45077514648437
 21
13.65605735778808
 31
0.0
  0
LINE
  5
3D5
330
A
100
AcDbEntity
  8
TFR-TRI
  6
CONTINUOUS
 62
     7
100
AcDbLine
 10
17.06855201721191
 20
22.75462532043456
 30
0.0
 11
17.12116241455078
 21
22.75462532043456
 31
0.0
  0
LINE
  5
3D6
330
A
100
AcDbEntity
  8
TFR-TRI
  6
CONTINUOUS
 62
     5
100
AcDbLine
 10
34.57869720458984
 20
14.1943130493164
 30
0.0
 11
34.57868957519531
 21
14.19880676269531
 31
0.0
  0
LINE
  5
3D7
330
A
100
AcDbEntity
  8
TFR-TRI
  6
CONTINUOUS
 62
     7
100
AcDbLine
 10
16.58091163635253
 20
22.75462532043456
 30
0.0
 11
16.74759292602539
 21
22.75462532043456
 31
0.0
  0
LINE
  5
3D8
330
A
100
AcDbEntity
  8
TFR-TRI
  6
CONTINUOUS
 62
     5
100
AcDbLine
 10
17.87166595458984
 20
29.65087509155273
 30
0.0
 11
17.88841247558593
 21
29.68212509155273
 31
0.0
  0
LINE
  5
3D9
330
A
100
AcDbEntity
  8
TFR-TRI
  6
CONTINUOUS
 62
     7
100
AcDbLine
 10
17.25541114807128
 20
22.75462532043456
 30
0.0
 11
17.27916145324707
 21
22.75462532043456
 31
0.0
  0
LINE
  5
3DA
330
A
100
AcDbEntity
  8
TFR-TRI
  6
CONTINUOUS
 62
     7
100
AcDbLine
 10
17.12884140014648
 20
22.75462532043456
 30
0.0
 11
17.13591194152832
 21
22.75462532043456
 31
0.0
  0
LINE
  5
3DB
330
A
100
AcDbEntity
  8
TFR-TRI
  6
CONTINUOUS
 62
     5
100
AcDbLine
 10
34.44184494018554
 20
12.95656394958496
 30
0.0
 11
34.44933700561523
 21
12.95148658752441
 31
0.0
  0
LINE
  5
3DC
330
A
100
AcDbEntity
  8
TFR-TRI
  6
CONTINUOUS
 62
     5
100
AcDbLine
 10
34.44001007080078
 20
14.18956089019775
 30
0.0
 11
34.43020248413086
 21
14.19200134277343
 31
0.0
  0
LINE
  5
3DD
330
A
100
AcDbEntity
  8
TFR-TRI
  6
CONTINUOUS
 62
     7
100
AcDbLine
 10
17.05341148376464
 20
22.75462532043456
 30
0.0
 11
17.06859970092773
 21
22.75462532043456
 31
0.0
  0
LINE
  5
3DE
330
A
100
AcDbEntity
  8
TFR-TRI
  6
CONTINUOUS
 62
     7
100
AcDbLine
 10
17.18416213989257
 20
22.75462532043456
 30
0.0
 11
17.25541114807128
 21
22.75462532043456
 31
0.0
  0
LINE
  5
3DF
330
A
100
AcDbEntity
  8
TFR-TRI
  6
CONTINUOUS
 62
     5
100
AcDbLine
 10
17.28841209411621
 20
29.52673149108886
 30
0.0
 11
17.28841209411621
 21
29.49258613586426
 31
0.0
  0
LINE
  5
3E0
330
A
100
AcDbEntity
  8
TFR-TRI
  6
CONTINUOUS
 62
     7
100
AcDbLine
 10
16.54591178894043
 20
22.75462532043456
 30
0.0
 11
17.65591239929199
 21
22.75462532043456
 31
0.0
  0
LINE
  5
3E1
330
A
100
AcDbEntity
  8
TFR-TRI
  6
CONTINUOUS
 62
     7
100
AcDbLine
 10
16.86091232299804
 20
22.75462532043456
 30
0.0
 11
16.87691116333007
 21
22.75462532043456
 31
0.0
  0
LINE
  5
3E2
330
A
100
AcDbEntity
  8
TFR-TRI
  6
CONTINUOUS
 62
     5
100
AcDbLine
 10
34.48360061645507
 20
13.4736156463623
 30
0.0
 11
34.47168350219726
 21
13.47697639465332
 31
0.0
  0
LINE
  5
3E3
330
A
100
AcDbEntity
  8
TFR-TRI
  6
CONTINUOUS
 62
     7
100
AcDbLine
 10
17.31491088867187
 20
11.96249103546142
 30
0.0
 11
17.31491088867187
 21
11.95249080657958
 31
0.0
  0
LINE
  5
3E4
330
A
100
AcDbEntity
  8
TFR-TRI
  6
CONTINUOUS
 62
     7
100
AcDbLine
 10
16.68877983093261
 20
22.75462532043456
 30
0.0
 11
16.71223068237304
 21
22.75462532043456
 31
0.0
  0
LINE
  5
3E5
330
A
100
AcDbEntity
  8
TFR-TRI
  6
CONTINUOUS
 62
     7
100
AcDbLine
 10
16.71223068237304
 20
22.75462532043456
 30
0.0
 11
16.72052001953125
 21
22.75462532043456
 31
0.0
  0
LINE
  5
3E6
330
A
100
AcDbEntity
  8
TFR-TRI
  6
CONTINUOUS
 62
     7
100
AcDbLine
 10
17.19416236877441
 20
11.84374046325683
 30
0.0
 11
17.18416213989257
 21
11.84374046325683
 31
0.0
  0
LINE
  5
3E7
330
A
100
AcDbEntity
  8
TFR-TRI
  6
CONTINUOUS
 62
     5
100
AcDbLine
 10
17.10091209411621
 20
29.37009620666504
 30
0.0
 11
17.10091209411621
 21
29.26337432861328
 31
0.0
  0
LINE
  5
3E8
330
A
100
AcDbEntity
  8
TFR-TRI
  6
CONTINUOUS
 62
     5
100
AcDbLine
 10
16.97955513000488
 20
15.01804447174072
 30
0.0
 11
16.97955513000488
 21
15.09627246856689
 31
0.0
  0
LINE
  5
3E9
330
A
100
AcDbEntity
  8
TFR-TRI
  6
CONTINUOUS
 62
     7
100
AcDbLine
 10
16.72395515441894
 20
22.75462532043456
 30
0.0
 11
16.72052001953125
 21
22.75462532043456
 31
0.0
  0
LINE
  5
3EA
330
A
100
AcDbEntity
  8
TFR-TRI
  6
CONTINUOUS
 62
     7
100
AcDbLine
 10
17.16991996765136
 20
22.75462532043456
 30
0.0
 11
17.17655372619629
 21
22.75462532043456
 31
0.0
  0
LINE
  5
3EB
330
A
100
AcDbEntity
  8
TFR-TRI
  6
CONTINUOUS
 62
     7
100
AcDbLine
 10
27.94124221801757
 20
15.13523197174072
 30
0.0
 11
27.94124221801757
 21
15.20179557800293
 31
0.0
  0
LINE
  5
3EC
330
A
100
AcDbEntity
  8
TFR-TRI
  6
CONTINUOUS
 62
     7
100
AcDbLine
 10
17.06410026550293
 20
11.84374046325683
 30
0.0
 11
17.12341117858886
 21
11.84374046325683
 31
0.0
  0
LINE
  5
3ED
330
A
100
AcDbEntity
  8
TFR-TRI
  6
CONTINUOUS
 62
     5
100
AcDbLine
 10
15.85091209411621
 20
22.74462509155273
 30
0.0
 11
15.85091209411621
 21
22.83218193054199
 31
0.0
  0
LINE
  5
3EE
330
A
100
AcDbEntity
  8
TFR-TRI
  6
CONTINUOUS
 62
     5
100
AcDbLine
 10
17.09680366516113
 20
15.20179557800293
 30
0.0
 11
17.19998359680175
 21
15.20179557800293
 31
0.0
  0
LINE
  5
3EF
330
A
100
AcDbEntity
  8
TFR-TRI
  6
CONTINUOUS
 62
     7
100
AcDbLine
 10
27.94124221801757
 20
11.94647312164306
 30
0.0
 11
27.94124221801757
 21
11.93070316314697
 31
0.0
  0
LINE
  5
3F0
330
A
100
AcDbEntity
  8
TFR-TRI
  6
CONTINUOUS
 62
     7
100
AcDbLine
 10
27.94124221801757
 20
11.84374046325683
 30
0.0
 11
27.94124221801757
 21
11.90374088287353
 31
0.0
  0
LINE
  5
3F1
330
A
100
AcDbEntity
  8
TFR-TRI
  6
CONTINUOUS
 62
     5
100
AcDbLine
 10
28.03387451171875
 20
11.39332294464111
 30
0.0
 11
28.03071022033691
 21
11.46838474273681
 31
0.0
  0
LINE
  5
3F2
330
A
100
AcDbEntity
  8
TFR-TRI
  6
CONTINUOUS
 62
     7
100
AcDbLine
 10
17.2609519958496
 20
15.05087375640869
 30
0.0
 11
17.2609519958496
 21
15.20179557800293
 31
0.0
  0
LINE
  5
3F3
330
A
100
AcDbEntity
  8
TFR-TRI
  6
CONTINUOUS
 62
     5
100
AcDbLine
 10
16.71463966369628
 20
22.84725761413574
 30
0.0
 11
16.5334243774414
 21
22.84409523010253
 31
0.0
  0
LINE
  5
3F4
330
A
100
AcDbEntity
  8
TFR-TRI
  6
CONTINUOUS
 62
     7
100
AcDbLine
 10
27.94124221801757
 20
15.20414066314697
 30
0.0
 11
27.94124221801757
 21
15.2124319076538
 31
0.0
  0
LINE
  5
3F5
330
A
100
AcDbEntity
  8
TFR-TRI
  6
CONTINUOUS
 62
     5
100
AcDbLine
 10
28.02779197692871
 20
15.59341430664062
 30
0.0
 11
28.03071022033691
 21
15.69590187072753
 31
0.0
  0
LINE
  5
3F6
330
A
100
AcDbEntity
  8
TFR-TRI
  6
CONTINUOUS
 62
     7
100
AcDbLine
 10
16.54591178894043
 20
14.98307514190673
 30
0.0
 11
17.65591239929199
 21
14.98307514190673
 31
0.0
  0
LINE
  5
3F7
330
A
100
AcDbEntity
  8
TFR-TRI
  6
CONTINUOUS
 62
     5
100
AcDbLine
 10
17.10091209411621
 20
29.57903099060058
 30
0.0
 11
17.10091209411621
 21
29.55465507507324
 31
0.0
  0
LINE
  5
3F8
330
A
100
AcDbEntity
  8
TFR-TRI
  6
CONTINUOUS
 62
     5
100
AcDbLine
 10
17.48494338989257
 20
15.16427612304687
 30
0.0
 11
17.52246284484863
 21
15.16427612304687
 31
0.0
  0
LINE
  5
3F9
330
A
100
AcDbEntity
  8
TFR-TRI
  6
CONTINUOUS
 62
     7
100
AcDbLine
 10
27.94124221801757
 20
15.06300067901611
 30
0.0
 11
27.94124221801757
 21
15.06025409698486
 31
0.0
  0
LINE
  5
3FA
330
A
100
AcDbEntity
  8
TFR-TRI
  6
CONTINUOUS
 62
     5
100
AcDbLine
 10
34.83783340454101
 20
12.57042121887207
 30
0.0
 11
34.83783340454101
 21
12.57062339782714
 31
0.0
  0
LINE
  5
3FB
330
A
100
AcDbEntity
  8
TFR-TRI
  6
CONTINUOUS
 62
     5
100
AcDbLine
 10
28.02409553527832
 20
13.85631275177002
 30
0.0
 11
28.02521896362304
 21
14.02185153961181
 31
0.0
  0
LINE
  5
3FC
330
A
100
AcDbEntity
  8
TFR-TRI
  6
CONTINUOUS
 62
     5
100
AcDbLine
 10
17.72490692138672
 20
29.26952171325683
 30
0.0
 11
17.72354507446289
 21
29.28413200378418
 31
0.0
  0
LINE
  5
3FD
330
A
100
AcDbEntity
  8
TFR-TRI
  6
CONTINUOUS
 62
     7
100
AcDbLine
 10
16.79191207885742
 20
11.84374046325683
 30
0.0
 11
16.79191207885742
 21
11.96249103546142
 31
0.0
  0
LINE
  5
3FE
330
A
100
AcDbEntity
  8
TFR-TRI
  6
CONTINUOUS
 62
     5
100
AcDbLine
 10
34.81755828857421
 20
12.73600769042968
 30
0.0
 11
34.81346893310547
 21
12.73894309997558
 31
0.0
  0
LINE
  5
3FF
330
A
100
AcDbEntity
  8
TFR-TRI
  6
CONTINUOUS
 62
     5
100
AcDbLine
 10
16.86316108703613
 20
11.90374088287353
 30
0.0
 11
16.80191230773925
 21
11.90374088287353
 31
0.0
  0
LINE
  5
400
330
A
100
AcDbEntity
  8
TFR-TRI
  6
CONTINUOUS
 62
     5
100
AcDbLine
 10
16.31341171264648
 20
29.61283874511718
 30
0.0
 11
16.31341171264648
 21
29.68212509155273
 31
0.0
  0
LINE
  5
401
330
A
100
AcDbEntity
  8
TFR-TRI
  6
CONTINUOUS
 62
     5
100
AcDbLine
 10
34.87995910644531
 20
15.35846519470214
 30
0.0
 11
34.86874008178711
 21
15.37789630889892
 31
0.0
  0
LINE
  5
402
330
A
100
AcDbEntity
  8
TFR-TRI
  6
CONTINUOUS
 62
     5
100
AcDbLine
 10
28.1580810546875
 20
14.35948848724365
 30
0.0
 11
28.09539031982422
 21
14.41529846191406
 31
0.0
  0
LINE
  5
403
330
A
100
AcDbEntity
  8
TFR-TRI
  6
CONTINUOUS
 62
     7
100
AcDbLine
 10
17.48494338989257
 20
15.16427612304687
 30
0.0
 11
17.52246284484863
 21
15.16427612304687
 31
0.0
  0
LINE
  5
404
330
A
100
AcDbEntity
  8
TFR-TRI
  6
CONTINUOUS
 62
     5
100
AcDbLine
 10
17.02341651916503
 20
11.84374046325683
 30
0.0
 11
16.99875831604003
 21
11.90603637695312
 31
0.0
  0
LINE
  5
405
330
A
100
AcDbEntity
  8
TFR-TRI
  6
CONTINUOUS
 62
     5
100
AcDbLine
 10
17.24416351318359
 20
29.23854637145996
 30
0.0
 11
17.24235534667968
 21
29.23919486999511
 31
0.0
  0
LINE
  5
406
330
A
100
AcDbEntity
  8
TFR-TRI
  6
CONTINUOUS
 62
     7
100
AcDbLine
 10
17.19998359680175
 20
22.75462532043456
 30
0.0
 11
17.22319602966308
 21
22.75462532043456
 31
0.0
  0
LINE
  5
407
330
A
100
AcDbEntity
  8
TFR-TRI
  6
CONTINUOUS
 62
     5
100
AcDbLine
 10
34.56536483764648
 20
13.54228687286377
 30
0.0
 11
34.62476348876953
 21
13.54211616516113
 31
0.0
  0
LINE
  5
408
330
A
100
AcDbEntity
  8
TFR-TRI
  6
CONTINUOUS
 62
     5
100
AcDbLine
 10
34.84432983398437
 20
13.6458683013916
 30
0.0
 11
34.84429550170898
 21
13.63767147064208
 31
0.0
  0
LINE
  5
409
330
A
100
AcDbEntity
  8
TFR-TRI
  6
CONTINUOUS
 62
     5
100
AcDbLine
 10
17.25541114807128
 20
11.96249103546142
 30
0.0
 11
17.27916145324707
 21
11.95124053955078
 31
0.0
  0
LINE
  5
40A
330
A
100
AcDbEntity
  8
TFR-TRI
  6
CONTINUOUS
 62
     5
100
AcDbLine
 10
34.47168350219726
 20
13.47697639465332
 30
0.0
 11
34.46365356445312
 21
13.47999954223632
 31
0.0
  0
LINE
  5
40B
330
A
100
AcDbEntity
  8
TFR-TRI
  6
CONTINUOUS
 62
     3
100
AcDbLine
 10
32.19324111938476
 20
16.58264350891113
 30
0.0
 11
34.90124130249023
 21
16.58264350891113
 31
0.0
  0
LINE
  5
40C
330
A
100
AcDbEntity
  8
TFR-TRI
  6
CONTINUOUS
 62
     5
100
AcDbLine
 10
34.8442497253418
 20
13.47657394409179
 30
0.0
 11
34.84417724609375
 21
13.4703369140625
 31
0.0
  0
LINE
  5
40D
330
A
100
AcDbEntity
  8
TFR-TRI
  6
CONTINUOUS
 62
     7
100
AcDbLine
 10
27.94124221801757
 20
11.95124053955078
 30
0.0
 11
27.94124221801757
 21
11.91499042510986
 31
0.0
  0
LINE
  5
40E
330
A
100
AcDbEntity
  8
TFR-TRI
  6
CONTINUOUS
 62
     5
100
AcDbLine
 10
17.069429397583
 20
11.95249080657958
 30
0.0
 11
17.12051963806152
 21
11.95249080657958
 31
0.0
  0
LINE
  5
40F
330
A
100
AcDbEntity
  8
TFR-TRI
  6
CONTINUOUS
 62
     7
100
AcDbLine
 10
17.12341117858886
 20
11.84374046325683
 30
0.0
 11
17.14716148376465
 21
11.85499095916748
 31
0.0
  0
LINE
  5
410
330
A
100
AcDbEntity
  8
TFR-TRI
  6
CONTINUOUS
 62
     3
100
AcDbLine
 10
34.92624282836914
 20
10.91264343261718
 30
0.0
 11
32.42924118041992
 21
10.91264343261718
 31
0.0
  0
LINE
  5
411
330
A
100
AcDbEntity
  8
TFR-TRI
  6
CONTINUOUS
 62
     5
100
AcDbLine
 10
34.84381866455078
 20
11.91139030456543
 30
0.0
 11
34.84421920776367
 21
11.95714282989501
 31
0.0
  0
LINE
  5
412
330
A
100
AcDbEntity
  8
TFR-TRI
  6
CONTINUOUS
 62
     5
100
AcDbLine
 10
17.13848495483398
 20
29.26272010803222
 30
0.0
 11
17.10091209411621
 21
29.26337432861328
 31
0.0
  0
LINE
  5
413
330
A
100
AcDbEntity
  8
TFR-TRI
  6
CONTINUOUS
 62
     3
100
AcDbLine
 10
33.65393447875976
 20
11.52066326141357
 30
0.0
 11
33.67671585083007
 21
11.56012344360351
 31
0.0
  0
LINE
  5
414
330
A
100
AcDbEntity
  8
TFR-TRI
  6
CONTINUOUS
 62
     7
100
AcDbLine
 10
27.94124221801757
 20
15.08431339263916
 30
0.0
 11
27.94124221801757
 21
15.1362771987915
 31
0.0
  0
LINE
  5
415
330
A
100
AcDbEntity
  8
TFR-TRI
  6
CONTINUOUS
 62
     3
100
AcDbLine
 10
35.43124008178711
 20
16.58264350891113
 30
0.0
 11
35.43124008178711
 21
16.51864242553711
 31
0.0
  0
LINE
  5
416
330
A
100
AcDbEntity
  8
TFR-TRI
  6
CONTINUOUS
 62
     5
100
AcDbLine
 10
34.92657470703125
 20
11.91139030456543
 30
0.0
 11
34.92711639404296
 21
11.89464282989501
 31
0.0
  0
LINE
  5
417
330
A
100
AcDbEntity
  8
TFR-TRI
  6
CONTINUOUS
 62
     5
100
AcDbLine
 10
16.91341209411621
 20
29.3932991027832
 30
0.0
 11
16.91341209411621
 21
29.46967506408691
 31
0.0
  0
LINE
  5
418
330
A
100
AcDbEntity
  8
TFR-TRI
  6
CONTINUOUS
 62
     7
100
AcDbLine
 10
33.34518814086914
 20
11.67764282226562
 30
0.0
 11
33.44224166870117
 21
11.67764282226562
 31
0.0
  0
LINE
  5
419
330
A
100
AcDbEntity
  8
TFR-TRI
  6
CONTINUOUS
 62
     5
100
AcDbLine
 10
34.6063003540039
 20
13.46584606170654
 30
0.0
 11
34.54011917114257
 21
13.465669631958
 31
0.0
  0
LINE
  5
41A
330
A
100
AcDbEntity
  8
TFR-TRI
  6
CONTINUOUS
 62
     3
100
AcDbLine
 10
15.11141204833984
 20
10.64664363861083
 30
0.0
 11
15.42341136932373
 21
10.64664363861083
 31
0.0
  0
LINE
  5
41B
330
A
100
AcDbEntity
  8
TFR-TRI
  6
CONTINUOUS
 62
     5
100
AcDbLine
 10
27.93124198913574
 20
11.40752792358398
 30
0.0
 11
27.93124198913574
 21
11.49961185455322
 31
0.0
  0
LINE
  5
41C
330
A
100
AcDbEntity
  8
TFR-TRI
  6
CONTINUOUS
 62
     5
100
AcDbLine
 10
34.72706985473632
 20
15.44232845306396
 30
0.0
 11
34.72788619995117
 21
15.44091129302978
 31
0.0
  0
LINE
  5
41D
330
A
100
AcDbEntity
  8
TFR-TRI
  6
CONTINUOUS
 62
     7
100
AcDbLine
 10
33.58724212646484
 20
11.65764331817626
 30
0.0
 11
33.58724212646484
 21
11.67764282226562
 31
0.0
  0
LINE
  5
41E
330
A
100
AcDbEntity
  8
TFR-TRI
  6
CONTINUOUS
 62
     3
100
AcDbLine
 10
15.4234447479248
 20
10.58264350891113
 30
0.0
 11
19.06041145324707
 21
10.58264350891113
 31
0.0
  0
LINE
  5
41F
330
A
100
AcDbEntity
  8
TFR-TRI
  6
CONTINUOUS
 62
     5
100
AcDbLine
 10
34.58014678955078
 20
14.2034912109375
 30
0.0
 11
34.58327102661133
 21
14.20804691314697
 31
0.0
  0
LINE
  5
420
330
A
100
AcDbEntity
  8
TFR-TRI
  6
CONTINUOUS
 62
     5
100
AcDbLine
 10
16.48157882690429
 20
29.35350227355957
 30
0.0
 11
16.48008346557617
 21
29.31459045410156
 31
0.0
  0
LINE
  5
421
330
A
100
AcDbEntity
  8
TFR-TRI
  6
CONTINUOUS
 62
     5
100
AcDbLine
 10
27.93124198913574
 20
15.66467475891113
 30
0.0
 11
27.93124198913574
 21
15.75675868988037
 31
0.0
  0
LINE
  5
422
330
A
100
AcDbEntity
  8
TFR-TRI
  6
CONTINUOUS
 62
     5
100
AcDbLine
 10
34.7100830078125
 20
15.37145328521728
 30
0.0
 11
34.80067825317382
 21
15.30828857421875
 31
0.0
  0
LINE
  5
423
330
A
100
AcDbEntity
  8
TFR-TRI
  6
CONTINUOUS
 62
     5
100
AcDbLine
 10
18.35091209411621
 20
22.74462509155273
 30
0.0
 11
18.33386421203613
 21
22.74462509155273
 31
0.0
  0
LINE
  5
424
330
A
100
AcDbEntity
  8
TFR-TRI
  6
CONTINUOUS
 62
     7
100
AcDbLine
 10
14.60641193389892
 20
11.59358692169189
 30
0.0
 11
14.60641193389892
 21
11.61776065826416
 31
0.0
  0
LINE
  5
425
330
A
100
AcDbEntity
  8
TFR-TRI
  6
CONTINUOUS
 62
     3
100
AcDbLine
 10
15.42341136932373
 20
29.71462440490722
 30
0.0
 11
15.48987960815429
 21
29.71462440490722
 31
0.0
  0
LINE
  5
426
330
A
100
AcDbEntity
  8
TFR-TRI
  6
CONTINUOUS
 62
     7
100
AcDbLine
 10
27.94124221801757
 20
11.91499042510986
 30
0.0
 11
27.94124221801757
 21
11.90603637695312
 31
0.0
  0
LINE
  5
427
330
A
100
AcDbEntity
  8
TFR-TRI
  6
CONTINUOUS
 62
     5
100
AcDbLine
 10
34.80061721801757
 20
13.54229164123535
 30
0.0
 11
34.81912612915039
 21
13.54220581054687
 31
0.0
  0
LINE
  5
428
330
A
100
AcDbEntity
  8
TFR-TRI
  6
CONTINUOUS
 62
     3
100
AcDbLine
 10
17.10091209411621
 20
13.52214336395263
 30
0.0
 11
17.10091209411621
 21
13.64214324951172
 31
0.0
  0
LINE
  5
429
330
A
100
AcDbEntity
  8
TFR-TRI
  6
CONTINUOUS
 62
     5
100
AcDbLine
 10
16.64105224609375
 20
13.88941192626953
 30
0.0
 11
16.7098331451416
 21
13.97322177886962
 31
0.0
  0
LINE
  5
42A
330
A
100
AcDbEntity
  8
TFR-TRI
  6
CONTINUOUS
 62
     5
100
AcDbLine
 10
34.45075607299804
 20
13.67248249053955
 30
0.0
 11
34.45077514648437
 21
13.65605735778808
 31
0.0
  0
LINE
  5
42B
330
A
100
AcDbEntity
  8
TFR-TRI
  6
CONTINUOUS
 62
     5
100
AcDbLine
 10
34.57868957519531
 20
14.19880676269531
 30
0.0
 11
34.58014678955078
 21
14.2034912109375
 31
0.0
  0
LINE
  5
42C
330
A
100
AcDbEntity
  8
TFR-TRI
  6
CONTINUOUS
 62
     5
100
AcDbLine
 10
17.28079795837402
 20
29.26485443115234
 30
0.0
 11
17.27523803710937
 21
29.2533950805664
 31
0.0
  0
LINE
  5
42D
330
A
100
AcDbEntity
  8
TFR-TRI
  6
CONTINUOUS
 62
     5
100
AcDbLine
 10
16.91341209411621
 20
29.5776138305664
 30
0.0
 11
17.10091209411621
 21
29.57903099060058
 31
0.0
  0
LINE
  5
42E
330
A
100
AcDbEntity
  8
TFR-TRI
  6
CONTINUOUS
 62
     5
100
AcDbLine
 10
17.49199104309082
 20
13.19106483459472
 30
0.0
 11
17.4081802368164
 21
13.12228298187255
 31
0.0
  0
LINE
  5
42F
330
A
100
AcDbEntity
  8
TFR-TRI
  6
CONTINUOUS
 62
     5
100
AcDbLine
 10
16.54591178894043
 20
15.29307460784912
 30
0.0
 11
16.54591178894043
 21
14.98307514190673
 31
0.0
  0
LINE
  5
430
330
A
100
AcDbEntity
  8
TFR-TRI
  6
CONTINUOUS
 62
     5
100
AcDbLine
 10
34.83583831787109
 20
12.74011611938476
 30
0.0
 11
34.83207321166992
 21
12.73676586151123
 31
0.0
  0
LINE
  5
431
330
A
100
AcDbEntity
  8
TFR-TRI
  6
CONTINUOUS
 62
     5
100
AcDbLine
 10
34.43020248413086
 20
14.19200134277343
 30
0.0
 11
34.42566680908203
 21
14.19399166107177
 31
0.0
  0
LINE
  5
432
330
A
100
AcDbEntity
  8
TFR-TRI
  6
CONTINUOUS
 62
     5
100
AcDbLine
 10
17.28841209411621
 20
29.4921703338623
 30
0.0
 11
17.28841209411621
 21
29.46967124938964
 31
0.0
  0
LINE
  5
433
330
A
100
AcDbEntity
  8
TFR-TRI
  6
CONTINUOUS
 62
     7
100
AcDbLine
 10
17.57874107360839
 20
15.01804447174072
 30
0.0
 11
17.57874107360839
 21
15.16427612304687
 31
0.0
  0
LINE
  5
434
330
A
100
AcDbEntity
  8
TFR-TRI
  6
CONTINUOUS
 62
     7
100
AcDbLine
 10
27.94124221801757
 20
11.96249103546142
 30
0.0
 11
27.94124221801757
 21
11.95061588287353
 31
0.0
  0
LINE
  5
435
330
A
100
AcDbEntity
  8
TFR-TRI
  6
CONTINUOUS
 62
     3
100
AcDbLine
 10
14.83856678009033
 20
15.50764369964599
 30
0.0
 11
14.85894393920898
 21
15.50764369964599
 31
0.0
  0
LINE
  5
436
330
A
100
AcDbEntity
  8
TFR-TRI
  6
CONTINUOUS
 62
     7
100
AcDbLine
 10
27.94124221801757
 20
15.20179557800293
 30
0.0
 11
27.94124221801757
 21
15.05087375640869
 31
0.0
  0
LINE
  5
437
330
A
100
AcDbEntity
  8
TFR-TRI
  6
CONTINUOUS
 62
     7
100
AcDbLine
 10
17.06855201721191
 20
11.85374069213867
 30
0.0
 11
17.12116241455078
 21
11.85374069213867
 31
0.0
  0
LINE
  5
438
330
A
100
AcDbEntity
  8
TFR-TRI
  6
CONTINUOUS
 62
     5
100
AcDbLine
 10
16.91341209411621
 20
29.31167984008789
 30
0.0
 11
16.91341209411621
 21
29.3932991027832
 31
0.0
  0
LINE
  5
439
330
A
100
AcDbEntity
  8
TFR-TRI
  6
CONTINUOUS
 62
     5
100
AcDbLine
 10
16.97955513000488
 20
15.09627246856689
 30
0.0
 11
17.01332283020019
 21
15.01804447174072
 31
0.0
  0
LINE
  5
43A
330
A
100
AcDbEntity
  8
TFR-TRI
  6
CONTINUOUS
 62
     5
100
AcDbLine
 10
17.06341171264648
 20
11.93070316314697
 30
0.0
 11
17.07305335998535
 21
11.91999053955078
 31
0.0
  0
LINE
  5
43B
330
A
100
AcDbEntity
  8
TFR-TRI
  6
CONTINUOUS
 62
     7
100
AcDbLine
 10
17.22319602966308
 20
22.75462532043456
 30
0.0
 11
17.19998359680175
 21
22.75462532043456
 31
0.0
  0
LINE
  5
43C
330
A
100
AcDbEntity
  8
TFR-TRI
  6
CONTINUOUS
 62
     5
100
AcDbLine
 10
34.67063903808593
 20
13.46606063842773
 30
0.0
 11
34.6063003540039
 21
13.46584606170654
 31
0.0
  0
LINE
  5
43D
330
A
100
AcDbEntity
  8
TFR-TRI
  6
CONTINUOUS
 62
     3
100
AcDbLine
 10
15.00862503051757
 20
15.25764369964599
 30
0.0
 11
14.85894393920898
 21
15.25764369964599
 31
0.0
  0
LINE
  5
43E
330
A
100
AcDbEntity
  8
TFR-TRI
  6
CONTINUOUS
 62
     3
100
AcDbLine
 10
34.9312400817871
 20
10.67664337158203
 30
0.0
 11
34.9312400817871
 21
16.48864364624023
 31
0.0
  0
LINE
  5
43F
330
A
100
AcDbEntity
  8
TFR-TRI
  6
CONTINUOUS
 62
     7
100
AcDbLine
 10
27.94124221801757
 20
11.91374015808105
 30
0.0
 11
27.94124221801757
 21
11.95249080657958
 31
0.0
  0
LINE
  5
440
330
A
100
AcDbEntity
  8
TFR-TRI
  6
CONTINUOUS
 62
     5
100
AcDbLine
 10
18.35091209411621
 20
22.83218193054199
 30
0.0
 11
18.35091209411621
 21
22.74462509155273
 31
0.0
  0
LINE
  5
441
330
A
100
AcDbEntity
  8
TFR-TRI
  6
CONTINUOUS
 62
     7
100
AcDbLine
 10
27.94124221801757
 20
11.96249103546142
 30
0.0
 11
27.94124221801757
 21
11.95124053955078
 31
0.0
  0
LINE
  5
442
330
A
100
AcDbEntity
  8
TFR-TRI
  6
CONTINUOUS
 62
     5
100
AcDbLine
 10
28.03071022033691
 20
11.46838474273681
 30
0.0
 11
28.02779197692871
 21
11.57087230682373
 31
0.0
  0
LINE
  5
443
330
A
100
AcDbEntity
  8
TFR-TRI
  6
CONTINUOUS
 62
     7
100
AcDbLine
 10
17.25541114807128
 20
11.90374088287353
 30
0.0
 11
17.19416236877441
 21
11.90374088287353
 31
0.0
  0
LINE
  5
444
330
A
100
AcDbEntity
  8
TFR-TRI
  6
CONTINUOUS
 62
     5
100
AcDbLine
 10
16.5334243774414
 20
22.84409523010253
 30
0.0
 11
16.36618041992187
 21
22.8411750793457
 31
0.0
  0
LINE
  5
445
330
A
100
AcDbEntity
  8
TFR-TRI
  6
CONTINUOUS
 62
     5
100
AcDbLine
 10
17.33102035522461
 20
15.06025409698486
 30
0.0
 11
17.34424591064453
 21
15.06025409698486
 31
0.0
  0
LINE
  5
446
330
A
100
AcDbEntity
  8
TFR-TRI
  6
CONTINUOUS
 62
     5
100
AcDbLine
 10
34.59272766113281
 20
12.98145389556884
 30
0.0
 11
34.49829483032226
 21
12.97972774505615
 31
0.0
  0
LINE
  5
447
330
A
100
AcDbEntity
  8
TFR-TRI
  6
CONTINUOUS
 62
     7
100
AcDbLine
 10
27.94124221801757
 20
15.2124319076538
 30
0.0
 11
27.94124221801757
 21
15.21586608886718
 31
0.0
  0
LINE
  5
448
330
A
100
AcDbEntity
  8
TFR-TRI
  6
CONTINUOUS
 62
     5
100
AcDbLine
 10
28.03071022033691
 20
15.69590187072753
 30
0.0
 11
28.03387451171875
 21
15.77096366882324
 31
0.0
  0
LINE
  5
449
330
A
100
AcDbEntity
  8
TFR-TRI
  6
CONTINUOUS
 62
     7
100
AcDbLine
 10
17.01766204833984
 20
11.95124053955078
 30
0.0
 11
17.01766204833984
 21
11.91499042510986
 31
0.0
  0
LINE
  5
44A
330
A
100
AcDbEntity
  8
TFR-TRI
  6
CONTINUOUS
 62
     5
100
AcDbLine
 10
17.10091209411621
 20
29.49318504333496
 30
0.0
 11
17.10091209411621
 21
29.48993492126465
 31
0.0
  0
LINE
  5
44B
330
A
100
AcDbEntity
  8
TFR-TRI
  6
CONTINUOUS
 62
     5
100
AcDbLine
 10
17.52246284484863
 20
15.01804447174072
 30
0.0
 11
17.52246284484863
 21
15.16427612304687
 31
0.0
  0
LINE
  5
44C
330
A
100
AcDbEntity
  8
TFR-TRI
  6
CONTINUOUS
 62
     7
100
AcDbLine
 10
27.94124221801757
 20
15.05087375640869
 30
0.0
 11
27.94124221801757
 21
15.02766036987304
 31
0.0
  0
LINE
  5
44D
330
A
100
AcDbEntity
  8
TFR-TRI
  6
CONTINUOUS
 62
     3
100
AcDbLine
 10
33.43946075439453
 20
11.42314338684082
 30
0.0
 11
33.48502349853515
 21
11.42314338684082
 31
0.0
  0
LINE
  5
44E
330
A
100
AcDbEntity
  8
TFR-TRI
  6
CONTINUOUS
 62
     3
100
AcDbLine
 10
17.28091239929199
 20
13.58214282989502
 30
0.0
 11
17.86654663085937
 21
13.58214282989502
 31
0.0
  0
LINE
  5
44F
330
A
100
AcDbEntity
  8
TFR-TRI
  6
CONTINUOUS
 62
     7
100
AcDbLine
 10
27.94124221801757
 20
11.80874061584472
 30
0.0
 11
27.94124221801757
 21
11.99749088287353
 31
0.0
  0
LINE
  5
450
330
A
100
AcDbEntity
  8
TFR-TRI
  6
CONTINUOUS
 62
     5
100
AcDbLine
 10
28.02521896362304
 20
14.02185153961181
 30
0.0
 11
28.02684020996093
 21
14.17322063446045
 31
0.0
  0
LINE
  5
451
330
A
100
AcDbEntity
  8
TFR-TRI
  6
CONTINUOUS
 62
     7
100
AcDbLine
 10
17.06084442138672
 20
11.86230564117431
 30
0.0
 11
17.06855201721191
 21
11.85374069213867
 31
0.0
  0
LINE
  5
452
330
A
100
AcDbEntity
  8
TFR-TRI
  6
CONTINUOUS
 62
     7
100
AcDbLine
 10
14.63766193389892
 20
28.27557754516601
 30
0.0
 11
14.60641193389892
 21
28.27557754516601
 31
0.0
  0
LINE
  5
453
330
A
100
AcDbEntity
  8
TFR-TRI
  6
CONTINUOUS
 62
     5
100
AcDbLine
 10
16.87691116333007
 20
11.92131900787353
 30
0.0
 11
16.86091232299804
 21
11.91374015808105
 31
0.0
  0
LINE
  5
454
330
A
100
AcDbEntity
  8
TFR-TRI
  6
CONTINUOUS
 62
     3
100
AcDbLine
 10
34.9312400817871
 20
10.67664337158203
 30
0.0
 11
34.92996597290039
 21
10.67664337158203
 31
0.0
  0
LINE
  5
455
330
A
100
AcDbEntity
  8
TFR-TRI
  6
CONTINUOUS
 62
     5
100
AcDbLine
 10
34.92602920532226
 20
15.18654441833496
 30
0.0
 11
34.91431045532226
 21
15.27553653717041
 31
0.0
  0
LINE
  5
456
330
A
100
AcDbEntity
  8
TFR-TRI
  6
CONTINUOUS
 62
     5
100
AcDbLine
 10
28.09539031982422
 20
14.41529846191406
 30
0.0
 11
28.05470657348632
 21
14.48870944976806
 31
0.0
  0
LINE
  5
457
330
A
100
AcDbEntity
  8
TFR-TRI
  6
CONTINUOUS
 62
     7
100
AcDbLine
 10
16.86316108703613
 20
11.96249103546142
 30
0.0
 11
16.88691139221191
 21
11.95124053955078
 31
0.0
  0
LINE
  5
458
330
A
100
AcDbEntity
  8
TFR-TRI
  6
CONTINUOUS
 62
     7
100
AcDbLine
 10
17.22319602966308
 20
22.75462532043456
 30
0.0
 11
17.23281288146972
 21
22.75462532043456
 31
0.0
  0
LINE
  5
459
330
A
100
AcDbEntity
  8
TFR-TRI
  6
CONTINUOUS
 62
     5
100
AcDbLine
 10
16.874267578125
 20
15.20179557800293
 30
0.0
 11
16.9279670715332
 21
15.08220291137695
 31
0.0
  0
LINE
  5
45A
330
A
100
AcDbEntity
  8
TFR-TRI
  6
CONTINUOUS
 62
     5
100
AcDbLine
 10
17.10091209411621
 20
22.86809158325195
 30
0.0
 11
17.10091209411621
 21
22.85400009155273
 31
0.0
  0
LINE
  5
45B
330
A
100
AcDbEntity
  8
TFR-TRI
  6
CONTINUOUS
 62
     3
100
AcDbLine
 10
33.5992202758789
 20
11.84933471679687
 30
0.0
 11
33.55976104736328
 21
11.8721170425415
 31
0.0
  0
LINE
  5
45C
330
A
100
AcDbEntity
  8
TFR-TRI
  6
CONTINUOUS
 62
     5
100
AcDbLine
 10
16.31341171264648
 20
29.69334411621094
 30
0.0
 11
16.31341171264648
 21
29.68212509155273
 31
0.0
  0
LINE
  5
45D
330
A
100
AcDbEntity
  8
TFR-TRI
  6
CONTINUOUS
 62
     5
100
AcDbLine
 10
17.14716148376465
 20
11.85499095916748
 30
0.0
 11
17.14716148376465
 21
11.90874099731445
 31
0.0
  0
LINE
  5
45E
330
A
100
AcDbEntity
  8
TFR-TRI
  6
CONTINUOUS
 62
     5
100
AcDbLine
 10
17.27916145324707
 20
11.95124053955078
 30
0.0
 11
17.27916145324707
 21
11.91499042510986
 31
0.0
  0
LINE
  5
45F
330
A
100
AcDbEntity
  8
TFR-TRI
  6
CONTINUOUS
 62
     3
100
AcDbLine
 10
34.90124130249023
 20
10.58264350891113
 30
0.0
 11
32.19324111938476
 21
10.58264350891113
 31
0.0
  0
LINE
  5
460
330
A
100
AcDbEntity
  8
TFR-TRI
  6
CONTINUOUS
 62
     5
100
AcDbLine
 10
34.84417724609375
 20
13.4703369140625
 30
0.0
 11
34.8441047668457
 21
13.46687984466552
 31
0.0
  0
LINE
  5
461
330
A
100
AcDbEntity
  8
TFR-TRI
  6
CONTINUOUS
 62
     3
100
AcDbLine
 10
33.26705551147461
 20
11.57362937927246
 30
0.0
 11
33.24776840209961
 21
11.56012344360351
 31
0.0
  0
LINE
  5
462
330
A
100
AcDbEntity
  8
TFR-TRI
  6
CONTINUOUS
 62
     7
100
AcDbLine
 10
17.44491195678711
 20
11.80874061584472
 30
0.0
 11
16.75691223144531
 21
11.80874061584472
 31
0.0
  0
LINE
  5
463
330
A
100
AcDbEntity
  8
TFR-TRI
  6
CONTINUOUS
 62
     7
100
AcDbLine
 10
27.94124221801757
 20
11.85561561584472
 30
0.0
 11
27.94124221801757
 21
11.86230564117431
 31
0.0
  0
LINE
  5
464
330
A
100
AcDbEntity
  8
TFR-TRI
  6
CONTINUOUS
 62
     3
100
AcDbLine
 10
32.42924118041992
 20
10.91264343261718
 30
0.0
 11
32.19324111938476
 21
10.67664337158203
 31
0.0
  0
LINE
  5
465
330
A
100
AcDbEntity
  8
TFR-TRI
  6
CONTINUOUS
 62
     5
100
AcDbLine
 10
27.93124198913574
 20
11.33214282989501
 30
0.0
 11
27.93124198913574
 21
11.35113334655761
 31
0.0
  0
LINE
  5
466
330
A
100
AcDbEntity
  8
TFR-TRI
  6
CONTINUOUS
 62
     3
100
AcDbLine
 10
33.67671585083007
 20
11.56012344360351
 30
0.0
 11
33.65742874145507
 21
11.57362937927246
 31
0.0
  0
LINE
  5
467
330
A
100
AcDbEntity
  8
TFR-TRI
  6
CONTINUOUS
 62
     7
100
AcDbLine
 10
17.12466239929199
 20
11.96249103546142
 30
0.0
 11
17.13591194152832
 21
11.95124053955078
 31
0.0
  0
LINE
  5
468
330
A
100
AcDbEntity
  8
TFR-TRI
  6
CONTINUOUS
 62
     3
100
AcDbLine
 10
15.00862503051757
 20
27.62241172790527
 30
0.0
 11
14.85894393920898
 21
27.77209281921386
 31
0.0
  0
LINE
  5
469
330
A
100
AcDbEntity
  8
TFR-TRI
  6
CONTINUOUS
 62
     5
100
AcDbLine
 10
34.92602920532226
 20
12.9496431350708
 30
0.0
 11
34.92602920532226
 21
12.01964282989502
 31
0.0
  0
LINE
  5
46A
330
A
100
AcDbEntity
  8
TFR-TRI
  6
CONTINUOUS
 62
     3
100
AcDbLine
 10
17.10091209411621
 20
13.7621431350708
 30
0.0
 11
17.10091209411621
 21
14.34777927398681
 31
0.0
  0
LINE
  5
46B
330
A
100
AcDbEntity
  8
TFR-TRI
  6
CONTINUOUS
 62
     3
100
AcDbLine
 10
15.11141204833984
 20
16.50384330749511
 30
0.0
 11
15.11141204833984
 21
16.51864433288574
 31
0.0
  0
LINE
  5
46C
330
A
100
AcDbEntity
  8
TFR-TRI
  6
CONTINUOUS
 62
     7
100
AcDbLine
 10
14.63766193389892
 20
28.17047119140625
 30
0.0
 11
14.83141708374023
 21
28.17047119140625
 31
0.0
  0
LINE
  5
46D
330
A
100
AcDbEntity
  8
TFR-TRI
  6
CONTINUOUS
 62
     7
100
AcDbLine
 10
33.44224166870117
 20
11.67764282226562
 30
0.0
 11
33.44224166870117
 21
11.77469730377197
 31
0.0
  0
LINE
  5
46E
330
A
100
AcDbEntity
  8
TFR-TRI
  6
CONTINUOUS
 62
     7
100
AcDbLine
 10
16.93266105651855
 20
22.75462532043456
 30
0.0
 11
16.92266273498535
 21
22.75462532043456
 31
0.0
  0
LINE
  5
46F
330
A
100
AcDbEntity
  8
TFR-TRI
  6
CONTINUOUS
 62
     5
100
AcDbLine
 10
27.93124198913574
 20
11.49961185455322
 30
0.0
 11
27.93124198913574
 21
11.62458801269531
 31
0.0
  0
LINE
  5
470
330
A
100
AcDbEntity
  8
TFR-TRI
  6
CONTINUOUS
 62
     7
100
AcDbLine
 10
16.92266273498535
 20
22.75462532043456
 30
0.0
 11
16.99391174316406
 21
22.75462532043456
 31
0.0
  0
LINE
  5
471
330
A
100
AcDbEntity
  8
TFR-TRI
  6
CONTINUOUS
 62
     5
100
AcDbLine
 10
34.76422882080078
 20
15.46189403533935
 30
0.0
 11
34.74067306518554
 21
15.50269699096679
 31
0.0
  0
LINE
  5
472
330
A
100
AcDbEntity
  8
TFR-TRI
  6
CONTINUOUS
 62
     7
100
AcDbLine
 10
17.48494338989257
 20
22.75462532043456
 30
0.0
 11
17.52246284484863
 21
22.75462532043456
 31
0.0
  0
LINE
  5
473
330
A
100
AcDbEntity
  8
TFR-TRI
  6
CONTINUOUS
 62
     7
100
AcDbLine
 10
33.57929611206055
 20
11.63764286041259
 30
0.0
 11
33.58724212646484
 21
11.63764286041259
 31
0.0
  0
LINE
  5
474
330
A
100
AcDbEntity
  8
TFR-TRI
  6
CONTINUOUS
 62
     7
100
AcDbLine
 10
14.63766193389892
 20
11.60201454162597
 30
0.0
 11
14.63766193389892
 21
11.56647491455078
 31
0.0
  0
LINE
  5
475
330
A
100
AcDbEntity
  8
TFR-TRI
  6
CONTINUOUS
 62
     3
100
AcDbLine
 10
15.01741218566894
 20
28.84711647033691
 30
0.0
 11
14.90419864654541
 21
28.73390197753906
 31
0.0
  0
LINE
  5
476
330
A
100
AcDbEntity
  8
TFR-TRI
  6
CONTINUOUS
 62
     7
100
AcDbLine
 10
17.02341651916503
 20
22.75462532043456
 30
0.0
 11
17.0126609802246
 21
22.75462532043456
 31
0.0
  0
LINE
  5
477
330
A
100
AcDbEntity
  8
TFR-TRI
  6
CONTINUOUS
 62
     5
100
AcDbLine
 10
16.48008346557617
 20
29.31459045410156
 30
0.0
 11
16.47913551330566
 21
29.2969856262207
 31
0.0
  0
LINE
  5
478
330
A
100
AcDbEntity
  8
TFR-TRI
  6
CONTINUOUS
 62
     5
100
AcDbLine
 10
34.67655181884765
 20
15.51952648162841
 30
0.0
 11
34.65558624267578
 21
15.49220275878906
 31
0.0
  0
LINE
  5
479
330
A
100
AcDbEntity
  8
TFR-TRI
  6
CONTINUOUS
 62
     5
100
AcDbLine
 10
34.7099380493164
 20
15.37238502502441
 30
0.0
 11
34.7100830078125
 21
15.37145328521728
 31
0.0
  0
LINE
  5
47A
330
A
100
AcDbEntity
  8
TFR-TRI
  6
CONTINUOUS
 62
     7
100
AcDbLine
 10
17.12884140014648
 20
11.94416999816894
 30
0.0
 11
17.13591194152832
 21
11.95124053955078
 31
0.0
  0
LINE
  5
47B
330
A
100
AcDbEntity
  8
TFR-TRI
  6
CONTINUOUS
 62
     3
100
AcDbLine
 10
15.48987960815429
 20
29.71462440490722
 30
0.0
 11
15.51741218566894
 21
29.71462440490722
 31
0.0
  0
LINE
  5
47C
330
A
100
AcDbEntity
  8
TFR-TRI
  6
CONTINUOUS
 62
     7
100
AcDbLine
 10
27.94124221801757
 20
11.90874099731445
 30
0.0
 11
27.94124221801757
 21
11.91999053955078
 31
0.0
  0
LINE
  5
47D
330
A
100
AcDbEntity
  8
TFR-TRI
  6
CONTINUOUS
 62
     3
100
AcDbLine
 10
15.01741218566894
 20
10.67664337158203
 30
0.0
 11
15.01741218566894
 21
16.48864364624023
 31
0.0
  0
LINE
  5
47E
330
A
100
AcDbEntity
  8
TFR-TRI
  6
CONTINUOUS
 62
     5
100
AcDbLine
 10
34.81912612915039
 20
13.54220581054687
 30
0.0
 11
34.8333511352539
 21
13.54207134246826
 31
0.0
  0
LINE
  5
47F
330
A
100
AcDbEntity
  8
TFR-TRI
  6
CONTINUOUS
 62
     5
100
AcDbLine
 10
34.83784103393555
 20
14.59484577178955
 30
0.0
 11
34.83749008178711
 21
14.59464359283447
 31
0.0
  0
LINE
  5
480
330
A
100
AcDbEntity
  8
TFR-TRI
  6
CONTINUOUS
 62
     7
100
AcDbLine
 10
27.94124221801757
 20
15.04454231262207
 30
0.0
 11
27.94124221801757
 21
15.01804447174072
 31
0.0
  0
LINE
  5
481
330
A
100
AcDbEntity
  8
TFR-TRI
  6
CONTINUOUS
 62
     5
100
AcDbLine
 10
16.7098331451416
 20
13.97322177886962
 30
0.0
 11
16.79364395141601
 21
14.04200363159179
 31
0.0
  0
LINE
  5
482
330
A
100
AcDbEntity
  8
TFR-TRI
  6
CONTINUOUS
 62
     5
100
AcDbLine
 10
17.61188125610351
 20
13.79379367828369
 30
0.0
 11
17.64335441589355
 21
13.69004154205322
 31
0.0
  0
LINE
  5
483
330
A
100
AcDbEntity
  8
TFR-TRI
  6
CONTINUOUS
 62
     5
100
AcDbLine
 10
34.45075607299804
 20
13.67248249053955
 30
0.0
 11
34.45113372802734
 21
13.67456912994384
 31
0.0
  0
LINE
  5
484
330
A
100
AcDbEntity
  8
TFR-TRI
  6
CONTINUOUS
 62
     5
100
AcDbLine
 10
17.10091209411621
 20
29.57903099060058
 30
0.0
 11
17.28841209411621
 21
29.5776138305664
 31
0.0
  0
LINE
  5
485
330
A
100
AcDbEntity
  8
TFR-TRI
  6
CONTINUOUS
 62
     7
100
AcDbLine
 10
27.94124221801757
 20
11.85561561584472
 30
0.0
 11
27.94124221801757
 21
11.84374046325683
 31
0.0
  0
LINE
  5
486
330
A
100
AcDbEntity
  8
TFR-TRI
  6
CONTINUOUS
 62
     5
100
AcDbLine
 10
17.65591239929199
 20
15.29307460784912
 30
0.0
 11
16.54591178894043
 21
15.29307460784912
 31
0.0
  0
LINE
  5
487
330
A
100
AcDbEntity
  8
TFR-TRI
  6
CONTINUOUS
 62
     5
100
AcDbLine
 10
34.42566680908203
 20
14.19399166107177
 30
0.0
 11
34.42396163940429
 21
14.19612789154052
 31
0.0
  0
LINE
  5
488
330
A
100
AcDbEntity
  8
TFR-TRI
  6
CONTINUOUS
 62
     5
100
AcDbLine
 10
34.44999313354492
 20
14.21390724182129
 30
0.0
 11
28.28629112243652
 21
14.32149505615234
 31
0.0
  0
LINE
  5
489
330
A
100
AcDbEntity
  8
TFR-TRI
  6
CONTINUOUS
 62
     5
100
AcDbLine
 10
16.91341209411621
 20
29.4921703338623
 30
0.0
 11
16.91341209411621
 21
29.49258613586426
 31
0.0
  0
LINE
  5
48A
330
A
100
AcDbEntity
  8
TFR-TRI
  6
CONTINUOUS
 62
     5
100
AcDbLine
 10
16.58091163635253
 20
15.01804447174072
 30
0.0
 11
16.58091163635253
 21
15.25807476043701
 31
0.0
  0
LINE
  5
48B
330
A
100
AcDbEntity
  8
TFR-TRI
  6
CONTINUOUS
 62
     7
100
AcDbLine
 10
27.94124221801757
 20
15.08220291137695
 30
0.0
 11
27.94124221801757
 21
15.20179557800293
 31
0.0
  0
LINE
  5
48C
330
A
100
AcDbEntity
  8
TFR-TRI
  6
CONTINUOUS
 62
     7
100
AcDbLine
 10
17.57874107360839
 20
15.01804447174072
 30
0.0
 11
17.52246284484863
 21
15.01804447174072
 31
0.0
  0
LINE
  5
48D
330
A
100
AcDbEntity
  8
TFR-TRI
  6
CONTINUOUS
 62
     3
100
AcDbLine
 10
19.15441131591796
 20
10.67664337158203
 30
0.0
 11
19.15441131591796
 21
16.48864364624023
 31
0.0
  0
LINE
  5
48E
330
A
100
AcDbEntity
  8
TFR-TRI
  6
CONTINUOUS
 62
     5
100
AcDbLine
 10
34.83784103393555
 20
12.5694408416748
 30
0.0
 11
34.83749008178711
 21
12.56964302062988
 31
0.0
  0
LINE
  5
48F
330
A
100
AcDbEntity
  8
TFR-TRI
  6
CONTINUOUS
 62
     5
100
AcDbLine
 10
17.06866455078125
 20
15.01804447174072
 30
0.0
 11
17.01332283020019
 21
15.01804447174072
 31
0.0
  0
LINE
  5
490
330
A
100
AcDbEntity
  8
TFR-TRI
  6
CONTINUOUS
 62
     7
100
AcDbLine
 10
16.79602813720703
 20
22.75462532043456
 30
0.0
 11
16.82594680786132
 21
22.75462532043456
 31
0.0
  0
LINE
  5
491
330
A
100
AcDbEntity
  8
TFR-TRI
  6
CONTINUOUS
 62
     7
100
AcDbLine
 10
17.31491088867187
 20
11.95249080657958
 30
0.0
 11
17.39191246032715
 21
11.95249080657958
 31
0.0
  0
LINE
  5
492
330
A
100
AcDbEntity
  8
TFR-TRI
  6
CONTINUOUS
 62
     5
100
AcDbLine
 10
18.35091209411621
 20
22.83218193054199
 30
0.0
 11
18.33552169799804
 21
22.83245086669921
 31
0.0
  0
LINE
  5
493
330
A
100
AcDbEntity
  8
TFR-TRI
  6
CONTINUOUS
 62
     5
100
AcDbLine
 10
17.23281288146972
 20
15.16896629333496
 30
0.0
 11
17.23281288146972
 21
15.05087375640869
 31
0.0
  0
LINE
  5
494
330
A
100
AcDbEntity
  8
TFR-TRI
  6
CONTINUOUS
 62
     7
100
AcDbLine
 10
27.94124221801757
 20
11.9449119567871
 30
0.0
 11
27.94124221801757
 21
11.92131900787353
 31
0.0
  0
LINE
  5
495
330
A
100
AcDbEntity
  8
TFR-TRI
  6
CONTINUOUS
 62
     5
100
AcDbLine
 10
16.79364395141601
 20
13.12228298187255
 30
0.0
 11
16.7098331451416
 21
13.19106483459472
 31
0.0
  0
LINE
  5
496
330
A
100
AcDbEntity
  8
TFR-TRI
  6
CONTINUOUS
 62
     5
100
AcDbLine
 10
17.31491088867187
 20
11.96249103546142
 30
0.0
 11
17.31491088867187
 21
11.95249080657958
 31
0.0
  0
LINE
  5
497
330
A
100
AcDbEntity
  8
TFR-TRI
  6
CONTINUOUS
 62
     5
100
AcDbLine
 10
16.4694709777832
 20
29.28189468383789
 30
0.0
 11
16.36125946044922
 21
23.08249855041503
 31
0.0
  0
LINE
  5
498
330
A
100
AcDbEntity
  8
TFR-TRI
  6
CONTINUOUS
 62
     5
100
AcDbLine
 10
28.02779197692871
 20
11.57087230682373
 30
0.0
 11
28.02518844604492
 21
11.69825935363769
 31
0.0
  0
LINE
  5
499
330
A
100
AcDbEntity
  8
TFR-TRI
  6
CONTINUOUS
 62
     7
100
AcDbLine
 10
16.80191230773925
 20
11.91374015808105
 30
0.0
 11
16.80191230773925
 21
11.95249080657958
 31
0.0
  0
LINE
  5
49A
330
A
100
AcDbEntity
  8
TFR-TRI
  6
CONTINUOUS
 62
     5
100
AcDbLine
 10
16.36618041992187
 20
22.8411750793457
 30
0.0
 11
16.21702766418457
 21
22.83857154846191
 31
0.0
  0
LINE
  5
49B
330
A
100
AcDbEntity
  8
TFR-TRI
  6
CONTINUOUS
 62
     5
100
AcDbLine
 10
34.44933700561523
 20
12.95148658752441
 30
0.0
 11
34.44999313354492
 21
12.95037937164306
 31
0.0
  0
LINE
  5
49C
330
A
100
AcDbEntity
  8
TFR-TRI
  6
CONTINUOUS
 62
     7
100
AcDbLine
 10
17.2531623840332
 20
11.91374015808105
 30
0.0
 11
17.19416236877441
 21
11.91374015808105
 31
0.0
  0
LINE
  5
49D
330
A
100
AcDbEntity
  8
TFR-TRI
  6
CONTINUOUS
 62
     5
100
AcDbLine
 10
16.79405403137207
 20
22.74462509155273
 30
0.0
 11
16.59879302978515
 21
22.74462509155273
 31
0.0
  0
LINE
  5
49E
330
A
100
AcDbEntity
  8
TFR-TRI
  6
CONTINUOUS
 62
     7
100
AcDbLine
 10
27.94124221801757
 20
15.16896629333496
 30
0.0
 11
27.94124221801757
 21
15.19218063354492
 31
0.0
  0
LINE
  5
49F
330
A
100
AcDbEntity
  8
TFR-TRI
  6
CONTINUOUS
 62
     5
100
AcDbLine
 10
28.03387451171875
 20
15.77096366882324
 30
0.0
 11
28.03720283508301
 21
15.81675338745117
 31
0.0
  0
LINE
  5
4A0
330
A
100
AcDbEntity
  8
TFR-TRI
  6
CONTINUOUS
 62
     7
100
AcDbLine
 10
17.02341651916503
 20
11.84374046325683
 30
0.0
 11
16.99875831604003
 21
11.90603637695312
 31
0.0
  0
LINE
  5
4A1
330
A
100
AcDbEntity
  8
TFR-TRI
  6
CONTINUOUS
 62
     5
100
AcDbLine
 10
17.10091209411621
 20
29.55465507507324
 30
0.0
 11
17.10091209411621
 21
29.52733039855957
 31
0.0
  0
LINE
  5
4A2
330
A
100
AcDbEntity
  8
TFR-TRI
  6
CONTINUOUS
 62
     5
100
AcDbLine
 10
17.57874107360839
 20
15.01804447174072
 30
0.0
 11
17.52246284484863
 21
15.01804447174072
 31
0.0
  0
LINE
  5
4A3
330
A
100
AcDbEntity
  8
TFR-TRI
  6
CONTINUOUS
 62
     7
100
AcDbLine
 10
27.94124221801757
 20
15.02766036987304
 30
0.0
 11
27.94124221801757
 21
15.01804447174072
 31
0.0
  0
LINE
  5
4A4
330
A
100
AcDbEntity
  8
TFR-TRI
  6
CONTINUOUS
 62
     5
100
AcDbLine
 10
28.02684020996093
 20
14.17322063446045
 30
0.0
 11
28.0289077758789
 21
14.30554008483886
 31
0.0
  0
LINE
  5
4A5
330
A
100
AcDbEntity
  8
TFR-TRI
  6
CONTINUOUS
 62
     5
100
AcDbLine
 10
34.82741546630859
 20
12.73485374450683
 30
0.0
 11
34.8223876953125
 21
12.73459148406982
 31
0.0
  0
LINE
  5
4A6
330
A
100
AcDbEntity
  8
TFR-TRI
  6
CONTINUOUS
 62
     7
100
AcDbLine
 10
17.06341171264648
 20
11.94647312164306
 30
0.0
 11
17.06341171264648
 21
11.93070316314697
 31
0.0
  0
LINE
  5
4A7
330
A
100
AcDbEntity
  8
TFR-TRI
  6
CONTINUOUS
 62
     7
100
AcDbLine
 10
14.60641193389892
 20
11.58495426177978
 30
0.0
 11
14.63766193389892
 21
11.55370426177978
 31
0.0
  0
LINE
  5
4A8
330
A
100
AcDbEntity
  8
TFR-TRI
  6
CONTINUOUS
 62
     5
100
AcDbLine
 10
16.87691116333007
 20
11.9449119567871
 30
0.0
 11
16.87691116333007
 21
11.92131900787353
 31
0.0
  0
LINE
  5
4A9
330
A
100
AcDbEntity
  8
TFR-TRI
  6
CONTINUOUS
 62
     7
100
AcDbLine
 10
27.94124221801757
 20
11.90374088287353
 30
0.0
 11
27.94124221801757
 21
11.90999031066894
 31
0.0
  0
LINE
  5
4AA
330
A
100
AcDbEntity
  8
TFR-TRI
  6
CONTINUOUS
 62
     3
100
AcDbLine
 10
34.92996597290039
 20
10.67664337158203
 30
0.0
 11
34.92624282836914
 21
10.67664337158203
 31
0.0
  0
LINE
  5
4AB
330
A
100
AcDbEntity
  8
TFR-TRI
  6
CONTINUOUS
 62
     5
100
AcDbLine
 10
34.91431045532226
 20
15.27553653717041
 30
0.0
 11
34.87995910644531
 21
15.35846519470214
 31
0.0
  0
LINE
  5
4AC
330
A
100
AcDbEntity
  8
TFR-TRI
  6
CONTINUOUS
 62
     7
100
AcDbLine
 10
17.17655372619629
 20
22.75462532043456
 30
0.0
 11
17.17930030822754
 21
22.75462532043456
 31
0.0
  0
LINE
  5
4AD
330
A
100
AcDbEntity
  8
TFR-TRI
  6
CONTINUOUS
 62
     5
100
AcDbLine
 10
28.05470657348632
 20
14.48870944976806
 30
0.0
 11
28.04061698913574
 21
14.57144832611084
 31
0.0
  0
LINE
  5
4AE
330
A
100
AcDbEntity
  8
TFR-TRI
  6
CONTINUOUS
 62
     5
100
AcDbLine
 10
34.42525482177734
 20
12.97001075744629
 30
0.0
 11
34.42887496948242
 21
12.97181797027588
 31
0.0
  0
LINE
  5
4AF
330
A
100
AcDbEntity
  8
TFR-TRI
  6
CONTINUOUS
 62
     7
100
AcDbLine
 10
17.19416236877441
 20
11.91374015808105
 30
0.0
 11
17.19416236877441
 21
11.95249080657958
 31
0.0
  0
LINE
  5
4B0
330
A
100
AcDbEntity
  8
TFR-TRI
  6
CONTINUOUS
 62
     5
100
AcDbLine
 10
17.0126609802246
 20
11.84374046325683
 30
0.0
 11
16.98891258239746
 21
11.90374088287353
 31
0.0
  0
LINE
  5
4B1
330
A
100
AcDbEntity
  8
TFR-TRI
  6
CONTINUOUS
 62
     3
100
AcDbLine
 10
15.01741218566894
 20
29.71462440490722
 30
0.0
 11
15.01741218566894
 21
27.00662612915039
 31
0.0
  0
LINE
  5
4B2
330
A
100
AcDbEntity
  8
TFR-TRI
  6
CONTINUOUS
 62
     5
100
AcDbLine
 10
17.06855201721191
 20
11.85374069213867
 30
0.0
 11
17.12116241455078
 21
11.85374069213867
 31
0.0
  0
LINE
  5
4B3
330
A
100
AcDbEntity
  8
TFR-TRI
  6
CONTINUOUS
 62
     3
100
AcDbLine
 10
32.0992431640625
 20
10.67664337158203
 30
0.0
 11
32.12677383422851
 21
10.67664337158203
 31
0.0
  0
LINE
  5
4B4
330
A
100
AcDbEntity
  8
TFR-TRI
  6
CONTINUOUS
 62
     5
100
AcDbLine
 10
17.10091209411621
 20
29.46743583679199
 30
0.0
 11
17.28841209411621
 21
29.46967124938964
 31
0.0
  0
LINE
  5
4B5
330
A
100
AcDbEntity
  8
TFR-TRI
  6
CONTINUOUS
 62
     5
100
AcDbLine
 10
34.84424209594726
 20
13.63063621520996
 30
0.0
 11
34.84416198730468
 21
13.62489128112793
 31
0.0
  0
LINE
  5
4B6
330
A
100
AcDbEntity
  8
TFR-TRI
  6
CONTINUOUS
 62
     3
100
AcDbLine
 10
33.55976104736328
 20
11.8721170425415
 30
0.0
 11
33.54625701904296
 21
11.8528299331665
 31
0.0
  0
LINE
  5
4B7
330
A
100
AcDbEntity
  8
TFR-TRI
  6
CONTINUOUS
 62
     7
100
AcDbLine
 10
16.97955513000488
 20
15.01804447174072
 30
0.0
 11
16.97955513000488
 21
15.09627246856689
 31
0.0
  0
LINE
  5
4B8
330
A
100
AcDbEntity
  8
TFR-TRI
  6
CONTINUOUS
 62
     5
100
AcDbLine
 10
17.27916145324707
 20
11.91499042510986
 30
0.0
 11
17.25541114807128
 21
11.90374088287353
 31
0.0
  0
LINE
  5
4B9
330
A
100
AcDbEntity
  8
TFR-TRI
  6
CONTINUOUS
 62
     3
100
AcDbLine
 10
19.15441131591796
 20
30.17962455749511
 30
0.0
 11
19.15441131591796
 21
30.11462593078613
 31
0.0
  0
LINE
  5
4BA
330
A
100
AcDbEntity
  8
TFR-TRI
  6
CONTINUOUS
 62
     3
100
AcDbLine
 10
32.19324111938476
 20
16.58264350891113
 30
0.0
 11
32.19324111938476
 21
16.55511093139648
 31
0.0
  0
LINE
  5
4BB
330
A
100
AcDbEntity
  8
TFR-TRI
  6
CONTINUOUS
 62
     5
100
AcDbLine
 10
34.83912658691406
 20
12.66037845611572
 30
0.0
 11
34.83912658691406
 21
12.74949645996093
 31
0.0
  0
LINE
  5
4BC
330
A
100
AcDbEntity
  8
TFR-TRI
  6
CONTINUOUS
 62
     7
100
AcDbLine
 10
27.94124221801757
 20
15.20179557800293
 30
0.0
 11
27.94124221801757
 21
15.08220291137695
 31
0.0
  0
LINE
  5
4BD
330
A
100
AcDbEntity
  8
TFR-TRI
  6
CONTINUOUS
 62
     3
100
AcDbLine
 10
33.24776840209961
 20
11.56012344360351
 30
0.0
 11
33.27054977416992
 21
11.52066326141357
 31
0.0
  0
LINE
  5
4BE
330
A
100
AcDbEntity
  8
TFR-TRI
  6
CONTINUOUS
 62
     3
100
AcDbLine
 10
35.41382598876953
 20
10.58264350891113
 30
0.0
 11
35.36624145507812
 21
10.58264350891113
 31
0.0
  0
LINE
  5
4BF
330
A
100
AcDbEntity
  8
TFR-TRI
  6
CONTINUOUS
 62
     7
100
AcDbLine
 10
17.44491195678711
 20
11.99749088287353
 30
0.0
 11
17.44491195678711
 21
11.80874061584472
 31
0.0
  0
LINE
  5
4C0
330
A
100
AcDbEntity
  8
TFR-TRI
  6
CONTINUOUS
 62
     7
100
AcDbLine
 10
16.82568740844726
 20
15.20179557800293
 30
0.0
 11
16.874267578125
 21
15.20179557800293
 31
0.0
  0
LINE
  5
4C1
330
A
100
AcDbEntity
  8
TFR-TRI
  6
CONTINUOUS
 62
     5
100
AcDbLine
 10
16.86091232299804
 20
11.91374015808105
 30
0.0
 11
16.80191230773925
 21
11.91374015808105
 31
0.0
  0
LINE
  5
4C2
330
A
100
AcDbEntity
  8
TFR-TRI
  6
CONTINUOUS
 62
     3
100
AcDbLine
 10
34.92624282836914
 20
10.67664337158203
 30
0.0
 11
34.90124130249023
 21
10.67664337158203
 31
0.0
  0
LINE
  5
4C3
330
A
100
AcDbEntity
  8
TFR-TRI
  6
CONTINUOUS
 62
     5
100
AcDbLine
 10
34.83749008178711
 20
15.17751884460449
 30
0.0
 11
34.83749008178711
 21
14.59464359283447
 31
0.0
  0
LINE
  5
4C4
330
A
100
AcDbEntity
  8
TFR-TRI
  6
CONTINUOUS
 62
     5
100
AcDbLine
 10
34.83783340454101
 20
14.5936632156372
 30
0.0
 11
34.8377456665039
 21
14.59371280670166
 31
0.0
  0
LINE
  5
4C5
330
A
100
AcDbEntity
  8
TFR-TRI
  6
CONTINUOUS
 62
     5
100
AcDbLine
 10
34.62476348876953
 20
13.54211616516113
 30
0.0
 11
34.73701477050781
 21
13.54169082641601
 31
0.0
  0
LINE
  5
4C6
330
A
100
AcDbEntity
  8
TFR-TRI
  6
CONTINUOUS
 62
     7
100
AcDbLine
 10
17.15116119384765
 20
15.16343212127685
 30
0.0
 11
17.16991996765136
 21
15.16343212127685
 31
0.0
  0
LINE
  5
4C7
330
A
100
AcDbEntity
  8
TFR-TRI
  6
CONTINUOUS
 62
     5
100
AcDbLine
 10
34.80624008178711
 20
15.48614978790283
 30
0.0
 11
34.81461334228515
 21
15.47164630889892
 31
0.0
  0
LINE
  5
4C8
330
A
100
AcDbEntity
  8
TFR-TRI
  6
CONTINUOUS
 62
     7
100
AcDbLine
 10
14.63766193389892
 20
28.35054588317871
 30
0.0
 11
14.63766193389892
 21
28.27557754516601
 31
0.0
  0
LINE
  5
4C9
330
A
100
AcDbEntity
  8
TFR-TRI
  6
CONTINUOUS
 62
     5
100
AcDbLine
 10
34.46365356445312
 20
13.47999954223632
 30
0.0
 11
34.4562759399414
 21
13.48396587371826
 31
0.0
  0
LINE
  5
4CA
330
A
100
AcDbEntity
  8
TFR-TRI
  6
CONTINUOUS
 62
     5
100
AcDbLine
 10
27.93124198913574
 20
11.62458801269531
 30
0.0
 11
27.93124198913574
 21
11.77865886688232
 31
0.0
  0
LINE
  5
4CB
330
A
100
AcDbEntity
  8
TFR-TRI
  6
CONTINUOUS
 62
     5
100
AcDbLine
 10
34.74067306518554
 20
15.50269699096679
 30
0.0
 11
34.71334838867187
 21
15.52366352081298
 31
0.0
  0
LINE
  5
4CC
330
A
100
AcDbEntity
  8
TFR-TRI
  6
CONTINUOUS
 62
     7
100
AcDbLine
 10
33.44224166870117
 20
11.53264331817626
 30
0.0
 11
33.46224212646484
 21
11.53264331817626
 31
0.0
  0
LINE
  5
4CD
330
A
100
AcDbEntity
  8
TFR-TRI
  6
CONTINUOUS
 62
     5
100
AcDbLine
 10
17.10091209411621
 20
29.26337432861328
 30
0.0
 11
17.06333923339843
 21
29.26272010803222
 31
0.0
  0
LINE
  5
4CE
330
A
100
AcDbEntity
  8
TFR-TRI
  6
CONTINUOUS
 62
     7
100
AcDbLine
 10
27.94124221801757
 20
11.96249103546142
 30
0.0
 11
27.94124221801757
 21
11.84374046325683
 31
0.0
  0
LINE
  5
4CF
330
A
100
AcDbEntity
  8
TFR-TRI
  6
CONTINUOUS
 62
     5
100
AcDbLine
 10
17.12051963806152
 20
11.95249080657958
 30
0.0
 11
17.12884140014648
 21
11.94416999816894
 31
0.0
  0
LINE
  5
4D0
330
A
100
AcDbEntity
  8
TFR-TRI
  6
CONTINUOUS
 62
     5
100
AcDbLine
 10
16.47913551330566
 20
29.2969856262207
 30
0.0
 11
16.47834587097168
 21
29.28506660461426
 31
0.0
  0
LINE
  5
4D1
330
A
100
AcDbEntity
  8
TFR-TRI
  6
CONTINUOUS
 62
     5
100
AcDbLine
 10
27.93124198913574
 20
15.81315326690673
 30
0.0
 11
27.93124198913574
 21
15.83214282989501
 31
0.0
  0
LINE
  5
4D2
330
A
100
AcDbEntity
  8
TFR-TRI
  6
CONTINUOUS
 62
     7
100
AcDbLine
 10
16.874267578125
 20
22.75462532043456
 30
0.0
 11
16.9279670715332
 21
22.75462532043456
 31
0.0
  0
LINE
  5
4D3
330
A
100
AcDbEntity
  8
TFR-TRI
  6
CONTINUOUS
 62
     5
100
AcDbLine
 10
34.80067825317382
 20
15.30828857421875
 30
0.0
 11
34.80119323730468
 21
15.30876064300537
 31
0.0
  0
LINE
  5
4D4
330
A
100
AcDbEntity
  8
TFR-TRI
  6
CONTINUOUS
 62
     7
100
AcDbLine
 10
16.80340194702148
 20
22.75462532043456
 30
0.0
 11
16.81461143493652
 21
22.75462532043456
 31
0.0
  0
LINE
  5
4D5
330
A
100
AcDbEntity
  8
TFR-TRI
  6
CONTINUOUS
 62
     3
100
AcDbLine
 10
15.51741218566894
 20
27.00662612915039
 30
0.0
 11
15.51741218566894
 21
29.71462440490722
 31
0.0
  0
LINE
  5
4D6
330
A
100
AcDbEntity
  8
TFR-TRI
  6
CONTINUOUS
 62
     5
100
AcDbLine
 10
17.20881080627441
 20
13.03970146179199
 30
0.0
 11
17.10091209411621
 21
13.02907466888427
 31
0.0
  0
LINE
  5
4D7
330
A
100
AcDbEntity
  8
TFR-TRI
  6
CONTINUOUS
 62
     5
100
AcDbLine
 10
34.8333511352539
 20
13.54207134246826
 30
0.0
 11
34.84169387817383
 21
13.54190349578857
 31
0.0
  0
LINE
  5
4D8
330
A
100
AcDbEntity
  8
TFR-TRI
  6
CONTINUOUS
 62
     7
100
AcDbLine
 10
16.68877983093261
 20
22.75462532043456
 30
0.0
 11
16.74759292602539
 21
22.75462532043456
 31
0.0
  0
LINE
  5
4D9
330
A
100
AcDbEntity
  8
TFR-TRI
  6
CONTINUOUS
 62
     5
100
AcDbLine
 10
34.68209457397461
 20
13.62236976623535
 30
0.0
 11
34.62449645996093
 21
13.6221694946289
 31
0.0
  0
LINE
  5
4DA
330
A
100
AcDbEntity
  8
TFR-TRI
  6
CONTINUOUS
 62
     7
100
AcDbLine
 10
16.874267578125
 20
22.75462532043456
 30
0.0
 11
16.9279670715332
 21
22.75462532043456
 31
0.0
  0
LINE
  5
4DB
330
A
100
AcDbEntity
  8
TFR-TRI
  6
CONTINUOUS
 62
     3
100
AcDbLine
 10
15.11141204833984
 20
10.58264350891113
 30
0.0
 11
15.42341136932373
 21
10.58264350891113
 31
0.0
  0
LINE
  5
4DC
330
A
100
AcDbEntity
  8
TFR-TRI
  6
CONTINUOUS
 62
     7
100
AcDbLine
 10
16.58091163635253
 20
15.25807476043701
 30
0.0
 11
16.74759292602539
 21
15.25807476043701
 31
0.0
  0
LINE
  5
4DD
330
A
100
AcDbEntity
  8
TFR-TRI
  6
CONTINUOUS
 62
     7
100
AcDbLine
 10
27.94124221801757
 20
11.9449119567871
 30
0.0
 11
27.94124221801757
 21
11.92131900787353
 31
0.0
  0
LINE
  5
4DE
330
A
100
AcDbEntity
  8
TFR-TRI
  6
CONTINUOUS
 62
     5
100
AcDbLine
 10
16.79364395141601
 20
14.04200363159179
 30
0.0
 11
16.88926124572754
 21
14.09311199188232
 31
0.0
  0
LINE
  5
4DF
330
A
100
AcDbEntity
  8
TFR-TRI
  6
CONTINUOUS
 62
     5
100
AcDbLine
 10
34.45113372802734
 20
13.67456912994384
 30
0.0
 11
34.45249938964844
 21
13.67693424224853
 31
0.0
  0
LINE
  5
4E0
330
A
100
AcDbEntity
  8
TFR-TRI
  6
CONTINUOUS
 62
     5
100
AcDbLine
 10
34.58327102661133
 20
14.20804691314697
 30
0.0
 11
34.58631134033203
 21
14.21069049835205
 31
0.0
  0
LINE
  5
4E1
330
A
100
AcDbEntity
  8
TFR-TRI
  6
CONTINUOUS
 62
     7
100
AcDbLine
 10
17.06341171264648
 20
22.75462532043456
 30
0.0
 11
17.07305335998535
 21
22.75462532043456
 31
0.0
  0
LINE
  5
4E2
330
A
100
AcDbEntity
  8
TFR-TRI
  6
CONTINUOUS
 62
     3
100
AcDbLine
 10
15.42341136932373
 20
10.67664337158203
 30
0.0
 11
15.48987960815429
 21
10.67664337158203
 31
0.0
  0
LINE
  5
4E3
330
A
100
AcDbEntity
  8
TFR-TRI
  6
CONTINUOUS
 62
     5
100
AcDbLine
 10
17.28841209411621
 20
29.54126930236816
 30
0.0
 11
17.76341247558593
 21
29.5484504699707
 31
0.0
  0
LINE
  5
4E4
330
A
100
AcDbEntity
  8
TFR-TRI
  6
CONTINUOUS
 62
     7
100
AcDbLine
 10
27.94124221801757
 20
15.20179557800293
 30
0.0
 11
27.94124221801757
 21
15.08220291137695
 31
0.0
  0
LINE
  5
4E5
330
A
100
AcDbEntity
  8
TFR-TRI
  6
CONTINUOUS
 62
     7
100
AcDbLine
 10
17.23281288146972
 20
15.16896629333496
 30
0.0
 11
17.23281288146972
 21
15.05087375640869
 31
0.0
  0
LINE
  5
4E6
330
A
100
AcDbEntity
  8
TFR-TRI
  6
CONTINUOUS
 62
     5
100
AcDbLine
 10
34.42396163940429
 20
14.19612789154052
 30
0.0
 11
34.42516326904296
 21
14.19789695739746
 31
0.0
  0
LINE
  5
4E7
330
A
100
AcDbEntity
  8
TFR-TRI
  6
CONTINUOUS
 62
     7
100
AcDbLine
 10
16.68877983093261
 20
22.75462532043456
 30
0.0
 11
16.58091163635253
 21
22.75462532043456
 31
0.0
  0
LINE
  5
4E8
330
A
100
AcDbEntity
  8
TFR-TRI
  6
CONTINUOUS
 62
     5
100
AcDbLine
 10
16.33015823364257
 20
29.58133697509765
 30
0.0
 11
16.37591171264648
 21
29.55776786804199
 31
0.0
  0
LINE
  5
4E9
330
A
100
AcDbEntity
  8
TFR-TRI
  6
CONTINUOUS
 62
     5
100
AcDbLine
 10
34.58631134033203
 20
12.95359516143798
 30
0.0
 11
34.58177185058593
 21
12.9580659866333
 31
0.0
  0
LINE
  5
4EA
330
A
100
AcDbEntity
  8
TFR-TRI
  6
CONTINUOUS
 62
     5
100
AcDbLine
 10
16.91341209411621
 20
29.46967124938964
 30
0.0
 11
16.91341209411621
 21
29.4921703338623
 31
0.0
  0
LINE
  5
4EB
330
A
100
AcDbEntity
  8
TFR-TRI
  6
CONTINUOUS
 62
     5
100
AcDbLine
 10
16.58091163635253
 20
15.25807476043701
 30
0.0
 11
16.74759292602539
 21
15.25807476043701
 31
0.0
  0
LINE
  5
4EC
330
A
100
AcDbEntity
  8
TFR-TRI
  6
CONTINUOUS
 62
     5
100
AcDbLine
 10
34.45077514648437
 20
13.50822925567626
 30
0.0
 11
34.45117950439453
 21
13.51039791107177
 31
0.0
  0
LINE
  5
4ED
330
A
100
AcDbEntity
  8
TFR-TRI
  6
CONTINUOUS
 62
     7
100
AcDbLine
 10
27.94124221801757
 20
15.13523197174072
 30
0.0
 11
27.94124221801757
 21
15.20179557800293
 31
0.0
  0
LINE
  5
4EE
330
A
100
AcDbEntity
  8
TFR-TRI
  6
CONTINUOUS
 62
     7
100
AcDbLine
 10
27.94124221801757
 20
11.92131900787353
 30
0.0
 11
27.94124221801757
 21
11.91374015808105
 31
0.0
  0
LINE
  5
4EF
330
A
100
AcDbEntity
  8
TFR-TRI
  6
CONTINUOUS
 62
     5
100
AcDbLine
 10
34.57902908325195
 20
12.96383476257324
 30
0.0
 11
34.57865524291992
 21
12.96969985961914
 31
0.0
  0
LINE
  5
4F0
330
A
100
AcDbEntity
  8
TFR-TRI
  6
CONTINUOUS
 62
     7
100
AcDbLine
 10
16.98891258239746
 20
11.90374088287353
 30
0.0
 11
16.93266105651855
 21
11.90374088287353
 31
0.0
  0
LINE
  5
4F1
330
A
100
AcDbEntity
  8
TFR-TRI
  6
CONTINUOUS
 62
     5
100
AcDbLine
 10
17.28841209411621
 20
29.46967506408691
 30
0.0
 11
17.28841209411621
 21
29.3932991027832
 31
0.0
  0
LINE
  5
4F2
330
A
100
AcDbEntity
  8
TFR-TRI
  6
CONTINUOUS
 62
     5
100
AcDbLine
 10
17.06866455078125
 20
15.20179557800293
 30
0.0
 11
17.06866455078125
 21
15.01804447174072
 31
0.0
  0
LINE
  5
4F3
330
A
100
AcDbEntity
  8
TFR-TRI
  6
CONTINUOUS
 62
     7
100
AcDbLine
 10
27.94124221801757
 20
11.95124053955078
 30
0.0
 11
27.94124221801757
 21
11.91499042510986
 31
0.0
  0
LINE
  5
4F4
330
A
100
AcDbEntity
  8
TFR-TRI
  6
CONTINUOUS
 62
     5
100
AcDbLine
 10
17.4081802368164
 20
13.12228298187255
 30
0.0
 11
17.31256294250488
 21
13.07117462158203
 31
0.0
  0
LINE
  5
4F5
330
A
100
AcDbEntity
  8
TFR-TRI
  6
CONTINUOUS
 62
     5
100
AcDbLine
 10
34.54011917114257
 20
13.69861698150634
 30
0.0
 11
34.59998703002929
 21
13.69845867156982
 31
0.0
  0
LINE
  5
4F6
330
A
100
AcDbEntity
  8
TFR-TRI
  6
CONTINUOUS
 62
     7
100
AcDbLine
 10
17.06528663635253
 20
11.96249103546142
 30
0.0
 11
17.05341148376464
 21
11.95061588287353
 31
0.0
  0
LINE
  5
4F7
330
A
100
AcDbEntity
  8
TFR-TRI
  6
CONTINUOUS
 62
     5
100
AcDbLine
 10
18.33552169799804
 20
22.83245086669921
 30
0.0
 11
18.28973197937011
 21
22.83325004577636
 31
0.0
  0
LINE
  5
4F8
330
A
100
AcDbEntity
  8
TFR-TRI
  6
CONTINUOUS
 62
     7
100
AcDbLine
 10
27.94124221801757
 20
15.01804447174072
 30
0.0
 11
27.94124221801757
 21
15.09627246856689
 31
0.0
  0
LINE
  5
4F9
330
A
100
AcDbEntity
  8
TFR-TRI
  6
CONTINUOUS
 62
     5
100
AcDbLine
 10
17.94751358032226
 20
22.74462509155273
 30
0.0
 11
17.78459739685058
 21
22.74462509155273
 31
0.0
  0
LINE
  5
4FA
330
A
100
AcDbEntity
  8
TFR-TRI
  6
CONTINUOUS
 62
     7
100
AcDbLine
 10
17.65591239929199
 20
14.98307514190673
 30
0.0
 11
17.65591239929199
 21
15.29307460784912
 31
0.0
  0
LINE
  5
4FB
330
A
100
AcDbEntity
  8
TFR-TRI
  6
CONTINUOUS
 62
     3
100
AcDbLine
 10
33.27054977416992
 20
11.79462337493896
 30
0.0
 11
33.24776840209961
 21
11.75516319274902
 31
0.0
  0
LINE
  5
4FC
330
A
100
AcDbEntity
  8
TFR-TRI
  6
CONTINUOUS
 62
     5
100
AcDbLine
 10
16.21702766418457
 20
22.83857154846191
 30
0.0
 11
16.08963966369628
 21
22.83634757995605
 31
0.0
  0
LINE
  5
4FD
330
A
100
AcDbEntity
  8
TFR-TRI
  6
CONTINUOUS
 62
     5
100
AcDbLine
 10
17.35362434387207
 20
15.06963348388671
 30
0.0
 11
17.35362434387207
 21
15.20179557800293
 31
0.0
  0
LINE
  5
4FE
330
A
100
AcDbEntity
  8
TFR-TRI
  6
CONTINUOUS
 62
     7
100
AcDbLine
 10
27.94124221801757
 20
11.96249103546142
 30
0.0
 11
27.94124221801757
 21
11.95124053955078
 31
0.0
  0
LINE
  5
4FF
330
A
100
AcDbEntity
  8
TFR-TRI
  6
CONTINUOUS
 62
     7
100
AcDbLine
 10
27.94124221801757
 20
15.19218063354492
 30
0.0
 11
27.94124221801757
 21
15.20179557800293
 31
0.0
  0
LINE
  5
500
330
A
100
AcDbEntity
  8
TFR-TRI
  6
CONTINUOUS
 62
     5
100
AcDbLine
 10
28.03720283508301
 20
15.81675338745117
 30
0.0
 11
28.04061698913574
 21
15.83214282989501
 31
0.0
  0
LINE
  5
501
330
A
100
AcDbEntity
  8
TFR-TRI
  6
CONTINUOUS
 62
     7
100
AcDbLine
 10
16.97955513000488
 20
15.09627246856689
 30
0.0
 11
17.01332283020019
 21
15.01804447174072
 31
0.0
  0
LINE
  5
502
330
A
100
AcDbEntity
  8
TFR-TRI
  6
CONTINUOUS
 62
     5
100
AcDbLine
 10
17.10091209411621
 20
29.52733039855957
 30
0.0
 11
17.10091209411621
 21
29.49318504333496
 31
0.0
  0
LINE
  5
503
330
A
100
AcDbEntity
  8
TFR-TRI
  6
CONTINUOUS
 62
     5
100
AcDbLine
 10
17.57874107360839
 20
15.01804447174072
 30
0.0
 11
17.57874107360839
 21
15.16427612304687
 31
0.0
  0
LINE
  5
504
330
A
100
AcDbEntity
  8
TFR-TRI
  6
CONTINUOUS
 62
     5
100
AcDbLine
 10
34.60740661621093
 20
12.93965530395507
 30
0.0
 11
34.58988189697265
 21
12.95125675201416
 31
0.0
  0
LINE
  5
505
330
A
100
AcDbEntity
  8
TFR-TRI
  6
CONTINUOUS
 62
     7
100
AcDbLine
 10
27.94124221801757
 20
15.154052734375
 30
0.0
 11
27.94124221801757
 21
15.16068458557128
 31
0.0
  0
LINE
  5
506
330
A
100
AcDbEntity
  8
TFR-TRI
  6
CONTINUOUS
 62
     5
100
AcDbLine
 10
34.83783340454101
 20
14.5936632156372
 30
0.0
 11
34.83783340454101
 21
14.59386539459228
 31
0.0
  0
LINE
  5
507
330
A
100
AcDbEntity
  8
TFR-TRI
  6
CONTINUOUS
 62
     5
100
AcDbLine
 10
28.0289077758789
 20
14.30554008483886
 30
0.0
 11
28.0313549041748
 21
14.41454601287841
 31
0.0
  0
LINE
  5
508
330
A
100
AcDbEntity
  8
TFR-TRI
  6
CONTINUOUS
 62
     5
100
AcDbLine
 10
17.49199104309082
 20
13.97322177886962
 30
0.0
 11
17.56077194213867
 21
13.88941192626953
 31
0.0
  0
LINE
  5
509
330
A
100
AcDbEntity
  8
TFR-TRI
  6
CONTINUOUS
 62
     7
100
AcDbLine
 10
16.99391174316406
 20
11.96249103546142
 30
0.0
 11
17.01766204833984
 21
11.95124053955078
 31
0.0
  0
LINE
  5
50A
330
A
100
AcDbEntity
  8
TFR-TRI
  6
CONTINUOUS
 62
     7
100
AcDbLine
 10
14.63766193389892
 20
11.55370426177978
 30
0.0
 11
15.01740837097168
 21
11.55370426177978
 31
0.0
  0
LINE
  5
50B
330
A
100
AcDbEntity
  8
TFR-TRI
  6
CONTINUOUS
 62
     5
100
AcDbLine
 10
16.86091232299804
 20
11.95249080657958
 30
0.0
 11
16.87691116333007
 21
11.9449119567871
 31
0.0
  0
LINE
  5
50C
330
A
100
AcDbEntity
  8
TFR-TRI
  6
CONTINUOUS
 62
     5
100
AcDbLine
 10
16.31341171264648
 20
29.72769546508789
 30
0.0
 11
16.31341171264648
 21
29.73941040039062
 31
0.0
  0
LINE
  5
50D
330
A
100
AcDbEntity
  8
TFR-TRI
  6
CONTINUOUS
 62
     5
100
AcDbLine
 10
34.79945755004882
 20
15.33789443969726
 30
0.0
 11
34.81086730957031
 21
15.31813144683837
 31
0.0
  0
LINE
  5
50E
330
A
100
AcDbEntity
  8
TFR-TRI
  6
CONTINUOUS
 62
     5
100
AcDbLine
 10
16.5899429321289
 20
13.79379367828369
 30
0.0
 11
16.64105224609375
 21
13.88941192626953
 31
0.0
  0
LINE
  5
50F
330
A
100
AcDbEntity
  8
TFR-TRI
  6
CONTINUOUS
 62
     5
100
AcDbLine
 10
17.05341148376464
 20
11.95061588287353
 30
0.0
 11
17.05341148376464
 21
11.92686557769775
 31
0.0
  0
LINE
  5
510
330
A
100
AcDbEntity
  8
TFR-TRI
  6
CONTINUOUS
 62
     5
100
AcDbLine
 10
34.68445587158203
 20
15.41583728790283
 30
0.0
 11
34.7100830078125
 21
15.37145328521728
 31
0.0
  0
LINE
  5
511
330
A
100
AcDbEntity
  8
TFR-TRI
  6
CONTINUOUS
 62
     7
100
AcDbLine
 10
17.57874107360839
 20
22.75462532043456
 30
0.0
 11
17.52246284484863
 21
22.75462532043456
 31
0.0
  0
LINE
  5
512
330
A
100
AcDbEntity
  8
TFR-TRI
  6
CONTINUOUS
 62
     7
100
AcDbLine
 10
17.007661819458
 20
22.75462532043456
 30
0.0
 11
16.99166297912597
 21
22.75462532043456
 31
0.0
  0
LINE
  5
513
330
A
100
AcDbEntity
  8
TFR-TRI
  6
CONTINUOUS
 62
     5
100
AcDbLine
 10
16.98891258239746
 20
11.90374088287353
 30
0.0
 11
16.93266105651855
 21
11.90374088287353
 31
0.0
  0
LINE
  5
514
330
A
100
AcDbEntity
  8
TFR-TRI
  6
CONTINUOUS
 62
     3
100
AcDbLine
 10
19.06041145324707
 20
29.74462509155273
 30
0.0
 11
15.11141204833984
 21
29.74462509155273
 31
0.0
  0
LINE
  5
515
330
A
100
AcDbEntity
  8
TFR-TRI
  6
CONTINUOUS
 62
     7
100
AcDbLine
 10
17.35362434387207
 20
22.75462532043456
 30
0.0
 11
17.39198875427246
 21
22.75462532043456
 31
0.0
  0
LINE
  5
516
330
A
100
AcDbEntity
  8
TFR-TRI
  6
CONTINUOUS
 62
     3
100
AcDbLine
 10
32.12677383422851
 20
10.67664337158203
 30
0.0
 11
32.19324111938476
 21
10.67664337158203
 31
0.0
  0
LINE
  5
517
330
A
100
AcDbEntity
  8
TFR-TRI
  6
CONTINUOUS
 62
     5
100
AcDbLine
 10
34.84416198730468
 20
13.62489128112793
 30
0.0
 11
34.84412002563476
 21
13.62314414978027
 31
0.0
  0
LINE
  5
518
330
A
100
AcDbEntity
  8
TFR-TRI
  6
CONTINUOUS
 62
     7
100
AcDbLine
 10
17.31491088867187
 20
22.75462532043456
 30
0.0
 11
17.39191246032715
 21
22.75462532043456
 31
0.0
  0
LINE
  5
519
330
A
100
AcDbEntity
  8
TFR-TRI
  6
CONTINUOUS
 62
     7
100
AcDbLine
 10
17.47087287902832
 20
22.75462532043456
 30
0.0
 11
17.42162895202636
 21
22.75462532043456
 31
0.0
  0
LINE
  5
51A
330
A
100
AcDbEntity
  8
TFR-TRI
  6
CONTINUOUS
 62
     3
100
AcDbLine
 10
33.48707580566406
 20
11.86868667602539
 30
0.0
 11
33.48502349853515
 21
11.89214324951171
 31
0.0
  0
LINE
  5
51B
330
A
100
AcDbEntity
  8
TFR-TRI
  6
CONTINUOUS
 62
     7
100
AcDbLine
 10
17.25541114807128
 20
22.75462532043456
 30
0.0
 11
17.19416236877441
 21
22.75462532043456
 31
0.0
  0
LINE
  5
51C
330
A
100
AcDbEntity
  8
TFR-TRI
  6
CONTINUOUS
 62
     7
100
AcDbLine
 10
27.94124221801757
 20
11.91499042510986
 30
0.0
 11
27.94124221801757
 21
11.90374088287353
 31
0.0
  0
LINE
  5
51D
330
A
100
AcDbEntity
  8
TFR-TRI
  6
CONTINUOUS
 62
     7
100
AcDbLine
 10
17.65591239929199
 20
15.29307460784912
 30
0.0
 11
16.54591178894043
 21
15.29307460784912
 31
0.0
  0
LINE
  5
51E
330
A
100
AcDbEntity
  8
TFR-TRI
  6
CONTINUOUS
 62
     5
100
AcDbLine
 10
17.25541114807128
 20
11.90374088287353
 30
0.0
 11
17.19416236877441
 21
11.90374088287353
 31
0.0
  0
LINE
  5
51F
330
A
100
AcDbEntity
  8
TFR-TRI
  6
CONTINUOUS
 62
     3
100
AcDbLine
 10
19.09041213989257
 20
30.11462593078613
 30
0.0
 11
19.09041213989257
 21
30.17962455749511
 31
0.0
  0
LINE
  5
520
330
A
100
AcDbEntity
  8
TFR-TRI
  6
CONTINUOUS
 62
     7
100
AcDbLine
 10
17.02341651916503
 20
22.75462532043456
 30
0.0
 11
16.99875831604003
 21
22.75462532043456
 31
0.0
  0
LINE
  5
521
330
A
100
AcDbEntity
  8
TFR-TRI
  6
CONTINUOUS
 62
     3
100
AcDbLine
 10
32.19324111938476
 20
16.55511093139648
 30
0.0
 11
32.19324111938476
 21
16.48864364624023
 31
0.0
  0
LINE
  5
522
330
A
100
AcDbEntity
  8
TFR-TRI
  6
CONTINUOUS
 62
     5
100
AcDbLine
 10
34.83783340454101
 20
12.57062339782714
 30
0.0
 11
34.83877944946289
 21
12.5733413696289
 31
0.0
  0
LINE
  5
523
330
A
100
AcDbEntity
  8
TFR-TRI
  6
CONTINUOUS
 62
     7
100
AcDbLine
 10
17.12466239929199
 20
22.75462532043456
 30
0.0
 11
17.07305335998535
 21
22.75462532043456
 31
0.0
  0
LINE
  5
524
330
A
100
AcDbEntity
  8
TFR-TRI
  6
CONTINUOUS
 62
     7
100
AcDbLine
 10
17.06084442138672
 20
22.75462532043456
 30
0.0
 11
17.06855201721191
 21
22.75462532043456
 31
0.0
  0
LINE
  5
525
330
A
100
AcDbEntity
  8
TFR-TRI
  6
CONTINUOUS
 62
     3
100
AcDbLine
 10
33.27054977416992
 20
11.52066326141357
 30
0.0
 11
33.29188919067382
 21
11.53061389923095
 31
0.0
  0
LINE
  5
526
330
A
100
AcDbEntity
  8
TFR-TRI
  6
CONTINUOUS
 62
     7
100
AcDbLine
 10
16.99166297912597
 20
22.75462532043456
 30
0.0
 11
16.93266105651855
 21
22.75462532043456
 31
0.0
  0
LINE
  5
527
330
A
100
AcDbEntity
  8
TFR-TRI
  6
CONTINUOUS
 62
     7
100
AcDbLine
 10
16.72052001953125
 20
22.75462532043456
 30
0.0
 11
16.72395515441894
 21
22.75462532043456
 31
0.0
  0
LINE
  5
528
330
A
100
AcDbEntity
  8
TFR-TRI
  6
CONTINUOUS
 62
     7
100
AcDbLine
 10
16.72052001953125
 20
22.75462532043456
 30
0.0
 11
16.71223068237304
 21
22.75462532043456
 31
0.0
  0
LINE
  5
529
330
A
100
AcDbEntity
  8
TFR-TRI
  6
CONTINUOUS
 62
     3
100
AcDbLine
 10
34.92624282836914
 20
10.67664337158203
 30
0.0
 11
34.92624282836914
 21
10.91264343261718
 31
0.0
  0
LINE
  5
52A
330
A
100
AcDbEntity
  8
TFR-TRI
  6
CONTINUOUS
 62
     5
100
AcDbLine
 10
34.83784103393555
 20
14.59534168243408
 30
0.0
 11
34.83749008178711
 21
14.59464359283447
 31
0.0
  0
LINE
  5
52B
330
A
100
AcDbEntity
  8
TFR-TRI
  6
CONTINUOUS
 62
     5
100
AcDbLine
 10
16.31341171264648
 20
29.69334411621094
 30
0.0
 11
16.31341171264648
 21
29.72769546508789
 31
0.0
  0
LINE
  5
52C
330
A
100
AcDbEntity
  8
TFR-TRI
  6
CONTINUOUS
 62
     3
100
AcDbLine
 10
33.69674301147461
 20
11.63486099243164
 30
0.0
 11
33.69674301147461
 21
11.68042564392089
 31
0.0
  0
LINE
  5
52D
330
A
100
AcDbEntity
  8
TFR-TRI
  6
CONTINUOUS
 62
     5
100
AcDbLine
 10
34.61603927612304
 20
12.9664134979248
 30
0.0
 11
34.63276672363281
 21
12.95579147338867
 31
0.0
  0
LINE
  5
52E
330
A
100
AcDbEntity
  8
TFR-TRI
  6
CONTINUOUS
 62
     7
100
AcDbLine
 10
17.29378128051757
 20
15.01804447174072
 30
0.0
 11
17.35915946960449
 21
15.01804447174072
 31
0.0
  0
LINE
  5
52F
330
A
100
AcDbEntity
  8
TFR-TRI
  6
CONTINUOUS
 62
     5
100
AcDbLine
 10
17.14716148376465
 20
11.90874099731445
 30
0.0
 11
17.12466239929199
 21
11.91999053955078
 31
0.0
  0
LINE
  5
530
330
A
100
AcDbEntity
  8
TFR-TRI
  6
CONTINUOUS
 62
     3
100
AcDbLine
 10
19.15441131591796
 20
30.24462509155273
 30
0.0
 11
19.15441131591796
 21
30.22720909118652
 31
0.0
  0
LINE
  5
531
330
A
100
AcDbEntity
  8
TFR-TRI
  6
CONTINUOUS
 62
     3
100
AcDbLine
 10
35.02524185180664
 20
10.58264350891113
 30
0.0
 11
35.30124282836914
 21
10.58264350891113
 31
0.0
  0
ARC
  5
532
330
A
100
AcDbEntity
  8
TFR-TRI
  6
CONTINUOUS
 62
     3
100
AcDbCircle
 10
15.42341136932373
 20
10.67664337158203
 30
0.0
 40
0.0939999967813492
100
AcDbArc
 50
270.0
 51
0.0
  0
ARC
  5
533
330
A
100
AcDbEntity
  8
TFR-TRI
  6
CONTINUOUS
 62
     5
100
AcDbCircle
 10
16.74743270874023
 20
15.17553234100341
 30
0.0
 40
0.0825429484248162
100
AcDbArc
 50
18.55296993818154
 51
89.89002354281996
  0
ARC
  5
534
330
A
100
AcDbEntity
  8
TFR-TRI
  6
CONTINUOUS
 62
     3
100
AcDbCircle
 10
35.02524185180664
 20
10.67664337158203
 30
0.0
 40
0.0299999993294478
100
AcDbArc
 50
180.0
 51
270.0
  0
ARC
  5
535
330
A
100
AcDbEntity
  8
TFR-TRI
  6
CONTINUOUS
 62
     5
100
AcDbCircle
 10
33.96923828125
 20
15.0907621383667
 30
0.0
 40
1.00068187713623
100
AcDbArc
 50
330.217390029512
 51
330.2274605898436
  0
ARC
  5
536
330
A
100
AcDbEntity
  8
TFR-TRI
  6
CONTINUOUS
 62
     7
100
AcDbCircle
 10
17.16991996765136
 20
15.06963348388671
 30
0.0
 40
0.0093798628076911
100
AcDbArc
 50
270.0
 51
0.0
  0
ARC
  5
537
330
A
100
AcDbEntity
  8
TFR-TRI
  6
CONTINUOUS
 62
     3
100
AcDbCircle
 10
15.11141204833984
 20
29.71462440490722
 30
0.0
 40
0.0939999967813492
100
AcDbArc
 50
90.0
 51
180.0
  0
ARC
  5
538
330
A
100
AcDbEntity
  8
TFR-TRI
  6
CONTINUOUS
 62
     3
100
AcDbCircle
 10
35.02524185180664
 20
16.48864364624023
 30
0.0
 40
0.0299999993294478
100
AcDbArc
 50
90.0
 51
180.0
  0
ARC
  5
539
330
A
100
AcDbEntity
  8
TFR-TRI
  6
CONTINUOUS
 62
     3
100
AcDbCircle
 10
14.98741149902343
 20
28.95005226135253
 30
0.0
 40
0.0299999993294478
100
AcDbArc
 50
315.0
 51
0.0
  0
ARC
  5
53A
330
A
100
AcDbEntity
  8
TFR-TRI
  6
CONTINUOUS
 62
     5
100
AcDbCircle
 10
18.09052658081054
 20
23.08676528930664
 30
0.0
 40
0.25
100
AcDbArc
 50
180.8691759006304
 51
269.0000000534511
  0
ARC
  5
53B
330
A
100
AcDbEntity
  8
TFR-TRI
  6
CONTINUOUS
 62
     7
100
AcDbCircle
 10
16.74743270874023
 20
15.17553234100341
 30
0.0
 40
0.0825429484248162
100
AcDbArc
 50
270.10997645718
 51
89.89002354281993
  0
ARC
  5
53C
330
A
100
AcDbEntity
  8
TFR-TRI
  6
CONTINUOUS
 62
     3
100
AcDbCircle
 10
15.11141204833984
 20
29.71462440490722
 30
0.0
 40
0.0299999993294478
100
AcDbArc
 50
90.0
 51
180.0
  0
ARC
  5
53D
330
A
100
AcDbEntity
  8
TFR-TRI
  6
CONTINUOUS
 62
     3
100
AcDbCircle
 10
35.02524185180664
 20
16.48864364624023
 30
0.0
 40
0.0939999967813492
100
AcDbArc
 50
90.0
 51
180.0
  0
ARC
  5
53E
330
A
100
AcDbEntity
  8
TFR-TRI
  6
CONTINUOUS
 62
     3
100
AcDbCircle
 10
14.92541217803955
 20
28.71268844604492
 30
0.0
 40
0.0939999967813492
100
AcDbArc
 50
135.0
 51
180.0
  0
ARC
  5
53F
330
A
100
AcDbEntity
  8
TFR-TRI
  6
CONTINUOUS
 62
     5
100
AcDbCircle
 10
16.71223068237304
 20
15.1431713104248
 30
0.0
 40
0.0117248287424445
100
AcDbArc
 50
270.0
 51
0.0
  0
ARC
  5
540
330
A
100
AcDbEntity
  8
TFR-TRI
  6
CONTINUOUS
 62
     5
100
AcDbCircle
 10
17.35915946960449
 20
15.05087375640869
 30
0.0
 40
0.0328295193612576
100
AcDbArc
 50
270.0
 51
0.0
  0
ARC
  5
541
330
A
100
AcDbEntity
  8
TFR-TRI
  6
CONTINUOUS
 62
     7
100
AcDbCircle
 10
17.34424591064453
 20
15.06963348388671
 30
0.0
 40
0.0093798628076911
100
AcDbArc
 50
270.0
 51
0.0
  0
ARC
  5
542
330
A
100
AcDbEntity
  8
TFR-TRI
  6
CONTINUOUS
 62
     3
100
AcDbCircle
 10
15.11141204833984
 20
27.00662612915039
 30
0.0
 40
0.0939999967813492
100
AcDbArc
 50
180.0
 51
270.0
  0
ARC
  5
543
330
A
100
AcDbEntity
  8
TFR-TRI
  6
CONTINUOUS
 62
     5
100
AcDbCircle
 10
33.96923828125
 20
15.0907621383667
 30
0.0
 40
1.074852228164672
100
AcDbArc
 50
305.0367810611882
 51
321.666425672719
  0
ARC
  5
544
330
A
100
AcDbEntity
  8
TFR-TRI
  6
CONTINUOUS
 62
     3
100
AcDbCircle
 10
15.42341136932373
 20
10.67664337158203
 30
0.0
 40
0.0299999993294478
100
AcDbArc
 50
270.0
 51
0.0
  0
ARC
  5
545
330
A
100
AcDbEntity
  8
TFR-TRI
  6
CONTINUOUS
 62
     5
100
AcDbCircle
 10
17.16991996765136
 20
15.06963348388671
 30
0.0
 40
0.0093798628076911
100
AcDbArc
 50
270.0
 51
0.0
  0
ARC
  5
546
330
A
100
AcDbEntity
  8
TFR-TRI
  6
CONTINUOUS
 62
     7
100
AcDbCircle
 10
17.33102035522461
 20
15.06963348388671
 30
0.0
 40
0.0093798628076911
100
AcDbArc
 50
180.0
 51
270.0
  0
ARC
  5
547
330
A
100
AcDbEntity
  8
TFR-TRI
  6
CONTINUOUS
 62
     3
100
AcDbCircle
 10
15.11141204833984
 20
27.00662612915039
 30
0.0
 40
0.0299999993294478
100
AcDbArc
 50
180.0
 51
270.0
  0
ARC
  5
548
330
A
100
AcDbEntity
  8
TFR-TRI
  6
CONTINUOUS
 62
     3
100
AcDbCircle
 10
15.11141204833984
 20
16.48864364624023
 30
0.0
 40
0.0299999993294478
100
AcDbArc
 50
90.0
 51
180.0
  0
ARC
  5
549
330
A
100
AcDbEntity
  8
TFR-TRI
  6
CONTINUOUS
 62
     3
100
AcDbCircle
 10
15.11141204833984
 20
10.67664337158203
 30
0.0
 40
0.0299999993294478
100
AcDbArc
 50
180.0
 51
270.0
  0
ARC
  5
54A
330
A
100
AcDbEntity
  8
TFR-TRI
  6
CONTINUOUS
 62
     5
100
AcDbCircle
 10
16.71223068237304
 20
15.20414066314697
 30
0.0
 40
0.0117248287424445
100
AcDbArc
 50
0.0
 51
90.0
  0
ARC
  5
54B
330
A
100
AcDbEntity
  8
TFR-TRI
  6
CONTINUOUS
 62
     5
100
AcDbCircle
 10
33.96923828125
 20
15.0907621383667
 30
0.0
 40
1.002468943595886
100
AcDbArc
 50
297.0938936965176
 51
330.1153188484128
  0
ARC
  5
54C
330
A
100
AcDbEntity
  8
TFR-TRI
  6
CONTINUOUS
 62
     5
100
AcDbCircle
 10
17.29378128051757
 20
15.05087375640869
 30
0.0
 40
0.0328295193612576
100
AcDbArc
 50
180.0
 51
270.0
  0
ARC
  5
54D
330
A
100
AcDbEntity
  8
TFR-TRI
  6
CONTINUOUS
 62
     7
100
AcDbCircle
 10
17.29378128051757
 20
15.05087375640869
 30
0.0
 40
0.0328295193612576
100
AcDbArc
 50
180.0
 51
270.0
  0
ARC
  5
54E
330
A
100
AcDbEntity
  8
TFR-TRI
  6
CONTINUOUS
 62
     3
100
AcDbCircle
 10
15.42341136932373
 20
27.00662612915039
 30
0.0
 40
0.0939999967813492
100
AcDbArc
 50
270.0
 51
0.0
  0
ARC
  5
54F
330
A
100
AcDbEntity
  8
TFR-TRI
  6
CONTINUOUS
 62
     5
100
AcDbCircle
 10
17.16991996765136
 20
15.154052734375
 30
0.0
 40
0.0093798628076911
100
AcDbArc
 50
0.0
 51
90.0
  0
ARC
  5
550
330
A
100
AcDbEntity
  8
TFR-TRI
  6
CONTINUOUS
 62
     5
100
AcDbCircle
 10
16.11129760742187
 20
23.08676528930664
 30
0.0
 40
0.25
100
AcDbArc
 50
270.9999999465488
 51
359.1229898144665
  0
ARC
  5
551
330
A
100
AcDbEntity
  8
TFR-TRI
  6
CONTINUOUS
 62
     3
100
AcDbCircle
 10
19.06041145324707
 20
29.83862495422363
 30
0.0
 40
0.0939999967813492
100
AcDbArc
 50
270.0
 51
0.0
  0
ARC
  5
552
330
A
100
AcDbEntity
  8
TFR-TRI
  6
CONTINUOUS
 62
     3
100
AcDbCircle
 10
19.06041145324707
 20
29.83862495422363
 30
0.0
 40
0.0299999993294478
100
AcDbArc
 50
270.0
 51
0.0
  0
ARC
  5
553
330
A
100
AcDbEntity
  8
TFR-TRI
  6
CONTINUOUS
 62
     3
100
AcDbCircle
 10
15.11141204833984
 20
10.67664337158203
 30
0.0
 40
0.0939999967813492
100
AcDbArc
 50
180.0
 51
270.0
  0
ARC
  5
554
330
A
100
AcDbEntity
  8
TFR-TRI
  6
CONTINUOUS
 62
     5
100
AcDbCircle
 10
17.10091209411621
 20
12.58214282989501
 30
0.0
 40
1.25
100
AcDbArc
 50
180.0
 51
0.0
  0
ARC
  5
555
330
A
100
AcDbEntity
  8
TFR-TRI
  6
CONTINUOUS
 62
     3
100
AcDbCircle
 10
14.98741149902343
 20
27.60119819641113
 30
0.0
 40
0.0299999993294478
100
AcDbArc
 50
0.0
 51
45.0
  0
ARC
  5
556
330
A
100
AcDbEntity
  8
TFR-TRI
  6
CONTINUOUS
 62
     3
100
AcDbCircle
 10
15.11141204833984
 20
16.48864364624023
 30
0.0
 40
0.0939999967813492
100
AcDbArc
 50
90.0
 51
180.0
  0
ARC
  5
557
330
A
100
AcDbEntity
  8
TFR-TRI
  6
CONTINUOUS
 62
     7
100
AcDbCircle
 10
16.74743270874023
 20
15.17553234100341
 30
0.0
 40
0.0825429484248162
100
AcDbArc
 50
296.139297530695
 51
18.55296993818148
  0
ARC
  5
558
330
A
100
AcDbEntity
  8
TFR-TRI
  6
CONTINUOUS
 62
     5
100
AcDbCircle
 10
17.34424591064453
 20
15.06963348388671
 30
0.0
 40
0.0093798628076911
100
AcDbArc
 50
270.0
 51
0.0
  0
ARC
  5
559
330
A
100
AcDbEntity
  8
TFR-TRI
  6
CONTINUOUS
 62
     5
100
AcDbCircle
 10
33.96923828125
 20
12.07352447509765
 30
0.0
 40
1.00068187713623
100
AcDbArc
 50
29.77253941015634
 51
29.78260997048799
  0
ARC
  5
55A
330
A
100
AcDbEntity
  8
TFR-TRI
  6
CONTINUOUS
 62
     3
100
AcDbCircle
 10
15.42341136932373
 20
27.00662612915039
 30
0.0
 40
0.0299999993294478
100
AcDbArc
 50
270.0
 51
0.0
  0
ARC
  5
55B
330
A
100
AcDbEntity
  8
TFR-TRI
  6
CONTINUOUS
 62
     3
100
AcDbCircle
 10
15.24141216278076
 20
30.11462593078613
 30
0.0
 40
0.1299999952316284
100
AcDbArc
 50
90.0
 51
180.0
  0
ARC
  5
55C
330
A
100
AcDbEntity
  8
TFR-TRI
  6
CONTINUOUS
 62
     7
100
AcDbCircle
 10
17.16991996765136
 20
15.154052734375
 30
0.0
 40
0.0093798628076911
100
AcDbArc
 50
0.0
 51
90.0
  0
ARC
  5
55D
330
A
100
AcDbEntity
  8
TFR-TRI
  6
CONTINUOUS
 62
     5
100
AcDbCircle
 10
33.96923828125
 20
15.0907621383667
 30
0.0
 40
1.0
100
AcDbArc
 50
298.7346905204771
 51
330.2564288680181
  0
ARC
  5
55E
330
A
100
AcDbEntity
  8
TFR-TRI
  6
CONTINUOUS
 62
     5
100
AcDbCircle
 10
17.10091209411621
 20
14.58214282989501
 30
0.0
 40
1.25
100
AcDbArc
 50
0.0
 51
180.0
  0
ARC
  5
55F
330
A
100
AcDbEntity
  8
TFR-TRI
  6
CONTINUOUS
 62
     5
100
AcDbCircle
 10
33.96923828125
 20
12.07352447509765
 30
0.0
 40
1.002468943595886
100
AcDbArc
 50
29.88468115158709
 51
62.90610630348241
  0
ARC
  5
560
330
A
100
AcDbEntity
  8
TFR-TRI
  6
CONTINUOUS
 62
     5
100
AcDbCircle
 10
17.33102035522461
 20
15.06963348388671
 30
0.0
 40
0.0093798628076911
100
AcDbArc
 50
180.0
 51
270.0
  0
ARC
  5
561
330
A
100
AcDbEntity
  8
TFR-TRI
  6
CONTINUOUS
 62
     7
100
AcDbCircle
 10
16.71223068237304
 20
15.1431713104248
 30
0.0
 40
0.0117248287424445
100
AcDbArc
 50
270.0
 51
0.0
  0
ARC
  5
562
330
A
100
AcDbEntity
  8
TFR-TRI
  6
CONTINUOUS
 62
     3
100
AcDbCircle
 10
35.30124282836914
 20
10.80664348602294
 30
0.0
 40
0.1299999952316284
100
AcDbArc
 50
270.0
 51
0.0
  0
ARC
  5
563
330
A
100
AcDbEntity
  8
TFR-TRI
  6
CONTINUOUS
 62
     3
100
AcDbCircle
 10
14.92541217803955
 20
27.83856201171875
 30
0.0
 40
0.0299999993294478
100
AcDbArc
 50
180.0
 51
225.0
  0
ARC
  5
564
330
A
100
AcDbEntity
  8
TFR-TRI
  6
CONTINUOUS
 62
     7
100
AcDbCircle
 10
17.19998359680175
 20
15.05087375640869
 30
0.0
 40
0.0328295193612576
100
AcDbArc
 50
270.0
 51
0.0
  0
ARC
  5
565
330
A
100
AcDbEntity
  8
TFR-TRI
  6
CONTINUOUS
 62
     5
100
AcDbCircle
 10
33.96923828125
 20
12.07352447509765
 30
0.0
 40
1.0
100
AcDbArc
 50
29.74357113198183
 51
61.2653094795228
  0
ARC
  5
566
330
A
100
AcDbEntity
  8
TFR-TRI
  6
CONTINUOUS
 62
     5
100
AcDbCircle
 10
17.19998359680175
 20
15.16896629333496
 30
0.0
 40
0.0328295193612576
100
AcDbArc
 50
0.0
 51
90.0
  0
ARC
  5
567
330
A
100
AcDbEntity
  8
TFR-TRI
  6
CONTINUOUS
 62
     7
100
AcDbCircle
 10
17.35915946960449
 20
15.05087375640869
 30
0.0
 40
0.0328295193612576
100
AcDbArc
 50
270.0
 51
0.0
  0
ARC
  5
568
330
A
100
AcDbEntity
  8
TFR-TRI
  6
CONTINUOUS
 62
     3
100
AcDbCircle
 10
35.30124282836914
 20
16.358642578125
 30
0.0
 40
0.1299999952316284
100
AcDbArc
 50
0.0
 51
90.0
  0
ARC
  5
569
330
A
100
AcDbEntity
  8
TFR-TRI
  6
CONTINUOUS
 62
     3
100
AcDbCircle
 10
35.02524185180664
 20
10.67664337158203
 30
0.0
 40
0.0939999967813492
100
AcDbArc
 50
180.0
 51
270.0
  0
ARC
  5
56A
330
A
100
AcDbEntity
  8
TFR-TRI
  6
CONTINUOUS
 62
     3
100
AcDbCircle
 10
15.42341136932373
 20
16.48864364624023
 30
0.0
 40
0.0299999993294478
100
AcDbArc
 50
0.0
 51
90.0
  0
ARC
  5
56B
330
A
100
AcDbEntity
  8
TFR-TRI
  6
CONTINUOUS
 62
     5
100
AcDbCircle
 10
17.19998359680175
 20
15.05087375640869
 30
0.0
 40
0.0328295193612576
100
AcDbArc
 50
270.0
 51
0.0
  0
ARC
  5
56C
330
A
100
AcDbEntity
  8
TFR-TRI
  6
CONTINUOUS
 62
     3
100
AcDbCircle
 10
18.93041229248046
 20
30.11462593078613
 30
0.0
 40
0.1299999952316284
100
AcDbArc
 50
0.0
 51
90.0
  0
ARC
  5
56D
330
A
100
AcDbEntity
  8
TFR-TRI
  6
CONTINUOUS
 62
     7
100
AcDbCircle
 10
16.71223068237304
 20
15.20414066314697
 30
0.0
 40
0.0117248287424445
100
AcDbArc
 50
0.0
 51
90.0
  0
ARC
  5
56E
330
A
100
AcDbEntity
  8
TFR-TRI
  6
CONTINUOUS
 62
     5
100
AcDbCircle
 10
16.74743270874023
 20
15.17553234100341
 30
0.0
 40
0.0825429484248162
100
AcDbArc
 50
270.10997645718
 51
296.139297530695
  0
ARC
  5
56F
330
A
100
AcDbEntity
  8
TFR-TRI
  6
CONTINUOUS
 62
     3
100
AcDbCircle
 10
15.42341136932373
 20
16.48864364624023
 30
0.0
 40
0.0939999967813492
100
AcDbArc
 50
0.0
 51
90.0
  0
CIRCLE
  5
570
330
A
100
AcDbEntity
  8
TFR-TRI
  6
CONTINUOUS
 62
     7
100
AcDbCircle
 10
33.46224212646484
 20
11.65764331817626
 30
0.0
 40
0.2125000059604645
  0
ARC
  5
571
330
A
100
AcDbEntity
  8
TFR-TRI
  6
CONTINUOUS
 62
     3
100
AcDbCircle
 10
14.92541217803955
 20
28.71268844604492
 30
0.0
 40
0.0299999993294478
100
AcDbArc
 50
135.0
 51
180.0
  0
ARC
  5
572
330
A
100
AcDbEntity
  8
TFR-TRI
  6
CONTINUOUS
 62
     5
100
AcDbCircle
 10
33.96923828125
 20
12.07352447509765
 30
0.0
 40
1.074852228164672
100
AcDbArc
 50
38.33357432728094
 51
54.96321893881174
  0
ARC
  5
573
330
A
100
AcDbEntity
  8
TFR-TRI
  6
CONTINUOUS
 62
     3
100
AcDbCircle
 10
14.92541217803955
 20
27.83856201171875
 30
0.0
 40
0.0939999967813492
100
AcDbArc
 50
180.0
 51
225.0
  0
ARC
  5
574
330
A
100
AcDbEntity
  8
TFR-TRI
  6
CONTINUOUS
 62
     3
100
AcDbCircle
 10
33.46224212646484
 20
11.90764331817627
 30
0.0
 40
0.1140000000596046
100
AcDbArc
 50
0.0
 51
180.0
  0
ARC
  5
575
330
A
100
AcDbEntity
  8
TFR-TRI
  6
CONTINUOUS
 62
     7
100
AcDbCircle
 10
17.19998359680175
 20
15.16896629333496
 30
0.0
 40
0.0328295193612576
100
AcDbArc
 50
0.0
 51
90.0
  0
VIEWPORT
  5
593
330
B
100
AcDbEntity
 67
     1
  8
0
  6
CONTINUOUS
100
AcDbViewport
 10
3.658709677419354
 20
2.25
 30
0.0
 40
8.317419354838708
 41
5.5
 68
     1
 69
     1
1001
ACAD
1000
MVIEW
1002
{
1070
    16
1010
0.0
1020
0.0
1030
0.0
1010
0.0
1020
0.0
1030
1.0
1040
0.0
1040
5.5
1040
3.658709677419354
1040
2.25
1040
50.0
1040
0.0
1040
0.0
1070
     0
1070
   100
1070
     1
1070
     1
1070
     0
1070
     0
1070
     0
1070
     0
1040
0.0
1040
0.0
1040
0.0
1040
1.0
1040
1.0
1040
0.0
1040
0.0
1070
     0
1002
{
1002
}
1002
}
  0
ENDSEC
  0
SECTION
  2
OBJECTS
  0
DICTIONARY
  5
19
330
0
100
AcDbDictionary
  3
ACAD_GROUP
350
1A
  3
ACAD_LAYOUT
350
1E
  3
ACAD_MLINESTYLE
350
1B
  3
ACAD_PLOTSETTINGS
350
22
  3
ACAD_PLOTSTYLENAME
350
1F
  3
ACAD_WIPEOUT_VARS
350
23
  3
ACDBHEADERROUNDTRIPXREC
350
60A
  0
DICTIONARY
  5
62B
330
A
100
AcDbDictionary
280
     1
  3
ACAD_LAYOUTSELFREF
360
62C
  0
DICTIONARY
  5
62D
330
B
100
AcDbDictionary
280
     1
  3
ACAD_LAYOUTSELFREF
360
62E
  0
DICTIONARY
  5
1A
102
{ACAD_REACTORS
330
19
102
}
330
19
100
AcDbDictionary
  0
DICTIONARY
  5
1E
102
{ACAD_REACTORS
330
19
102
}
330
19
100
AcDbDictionary
  0
DICTIONARY
  5
1B
102
{ACAD_REACTORS
330
19
102
}
330
19
100
AcDbDictionary
  3
STANDARD
350
1C
  0
DICTIONARY
  5
22
102
{ACAD_REACTORS
330
19
102
}
330
19
100
AcDbDictionary
  0
ACDBDICTIONARYWDFLT
  5
1F
102
{ACAD_REACTORS
330
19
102
}
330
19
100
AcDbDictionary
281
     1
  3
Normal
350
1D
100
AcDbDictionaryWithDefault
340
1D
  0
ACAD_PROXY_OBJECT
  5
23
330
19
100
AcDbProxyObject
 90
      499
 91
      524
 93
       10
310
4041
 94
        0
1001
ACAD
1000
AcadProxyRoundTripData
1071
      521
1071
   655383
1070
     0
  0
DICTIONARY
  5
60A
102
{ACAD_REACTORS
330
19
102
}
330
19
100
AcDbDictionary
  3
CEPSNTYPE
350
614
  3
DIMSTYLEDATA
350
618
  3
FINGERPRINTGUID
350
615
  3
HYPERLINKBASE
350
60D
  3
INSUNITS
350
613
  3
LAYOUTDICT
350
60F
  3
LWETCUNION
350
612
  3
PLOTSETDICT
350
610
  3
PLOTSTYLNAMDICT
350
611
  3
PSVPSCALE
350
617
  3
PUCSBASE
350
61B
  3
PUCSORGBACK
350
621
  3
PUCSORGBOTTOM
350
61D
  3
PUCSORGFRONT
350
620
  3
PUCSORGLEFT
350
61E
  3
PUCSORGRIGHT
350
61F
  3
PUCSORGTOP
350
61C
  3
PUCSORTHOREF
350
619
  3
PUCSORTHOVIEW
350
61A
  3
STYLESHEET
350
60E
  3
TSTACKALIGN
350
60B
  3
TSTACKSIZE
350
60C
  3
UCSBASE
350
624
  3
UCSORGBACK
350
62A
  3
UCSORGBOTTOM
350
626
  3
UCSORGFRONT
350
629
  3
UCSORGLEFT
350
627
  3
UCSORGRIGHT
350
628
  3
UCSORGTOP
350
625
  3
UCSORTHOREF
350
622
  3
UCSORTHOVIEW
350
623
  3
VERSIONGUID
350
616
  0
XRECORD
  5
62C
102
{ACAD_REACTORS
330
62B
102
}
330
62B
100
AcDbXrecord
340
A
  0
XRECORD
  5
62E
102
{ACAD_REACTORS
330
62D
102
}
330
62D
100
AcDbXrecord
340
B
  0
MLINESTYLE
  5
1C
102
{ACAD_REACTORS
330
1B
102
}
330
1B
100
AcDbMlineStyle
  2
STANDARD
 70
     0
  3

 62
     0
 51
90.0
 52
90.0
 71
     2
 49
0.5
 62
   256
  6
BYLAYER
 49
-0.5
 62
   256
  6
BYLAYER
  0
ACDBPLACEHOLDER
  5
1D
102
{ACAD_REACTORS
330
1F
102
}
330
1F
100
AcDbPlaceHolder
280
     0
  0
XRECORD
  5
614
102
{ACAD_REACTORS
330
60A
102
}
330
60A
100
AcDbXrecord
 90
        0
  0
XRECORD
  5
618
102
{ACAD_REACTORS
330
60A
102
}
330
60A
100
AcDbXrecord
1000
DSTYLE
1002
{
1070
   278
 70
     0
1070
   371
 70
     0
1070
   372
 70
     0
1002
}
  0
XRECORD
  5
615
102
{ACAD_REACTORS
330
60A
102
}
330
60A
100
AcDbXrecord
  1

  0
XRECORD
  5
60D
102
{ACAD_REACTORS
330
60A
102
}
330
60A
100
AcDbXrecord
  1

  0
XRECORD
  5
613
102
{ACAD_REACTORS
330
60A
102
}
330
60A
100
AcDbXrecord
 90
        0
  0
XRECORD
  5
60F
102
{ACAD_REACTORS
330
60A
102
}
330
60A
100
AcDbXrecord
340
1E
  0
XRECORD
  5
612
102
{ACAD_REACTORS
330
60A
102
}
330
60A
100
AcDbXrecord
 90
    10752
  0
XRECORD
  5
610
102
{ACAD_REACTORS
330
60A
102
}
330
60A
100
AcDbXrecord
340
22
  0
XRECORD
  5
611
102
{ACAD_REACTORS
330
60A
102
}
330
60A
100
AcDbXrecord
340
1F
  0
XRECORD
  5
617
102
{ACAD_REACTORS
330
60A
102
}
330
60A
100
AcDbXrecord
 40
0.0
  0
XRECORD
  5
61B
102
{ACAD_REACTORS
330
60A
102
}
330
60A
100
AcDbXrecord
340
0
  0
XRECORD
  5
621
102
{ACAD_REACTORS
330
60A
102
}
330
60A
100
AcDbXrecord
 10
0.0
 20
0.0
 30
0.0
  0
XRECORD
  5
61D
102
{ACAD_REACTORS
330
60A
102
}
330
60A
100
AcDbXrecord
 10
0.0
 20
0.0
 30
0.0
  0
XRECORD
  5
620
102
{ACAD_REACTORS
330
60A
102
}
330
60A
100
AcDbXrecord
 10
0.0
 20
0.0
 30
0.0
  0
XRECORD
  5
61E
102
{ACAD_REACTORS
330
60A
102
}
330
60A
100
AcDbXrecord
 10
0.0
 20
0.0
 30
0.0
  0
XRECORD
  5
61F
102
{ACAD_REACTORS
330
60A
102
}
330
60A
100
AcDbXrecord
 10
0.0
 20
0.0
 30
0.0
  0
XRECORD
  5
61C
102
{ACAD_REACTORS
330
60A
102
}
330
60A
100
AcDbXrecord
 10
0.0
 20
0.0
 30
0.0
  0
XRECORD
  5
619
102
{ACAD_REACTORS
330
60A
102
}
330
60A
100
AcDbXrecord
340
0
  0
XRECORD
  5
61A
102
{ACAD_REACTORS
330
60A
102
}
330
60A
100
AcDbXrecord
 70
     0
  0
XRECORD
  5
60E
102
{ACAD_REACTORS
330
60A
102
}
330
60A
100
AcDbXrecord
  1

  0
XRECORD
  5
60B
102
{ACAD_REACTORS
330
60A
102
}
330
60A
100
AcDbXrecord
 90
        1
  0
XRECORD
  5
60C
102
{ACAD_REACTORS
330
60A
102
}
330
60A
100
AcDbXrecord
 90
       70
  0
XRECORD
  5
624
102
{ACAD_REACTORS
330
60A
102
}
330
60A
100
AcDbXrecord
340
0
  0
XRECORD
  5
62A
102
{ACAD_REACTORS
330
60A
102
}
330
60A
100
AcDbXrecord
 10
0.0
 20
0.0
 30
0.0
  0
XRECORD
  5
626
102
{ACAD_REACTORS
330
60A
102
}
330
60A
100
AcDbXrecord
 10
0.0
 20
0.0
 30
0.0
  0
XRECORD
  5
629
102
{ACAD_REACTORS
330
60A
102
}
330
60A
100
AcDbXrecord
 10
0.0
 20
0.0
 30
0.0
  0
XRECORD
  5
627
102
{ACAD_REACTORS
330
60A
102
}
330
60A
100
AcDbXrecord
 10
0.0
 20
0.0
 30
0.0
  0
XRECORD
  5
628
102
{ACAD_REACTORS
330
60A
102
}
330
60A
100
AcDbXrecord
 10
0.0
 20
0.0
 30
0.0
  0
XRECORD
  5
625
102
{ACAD_REACTORS
330
60A
102
}
330
60A
100
AcDbXrecord
 10
0.0
 20
0.0
 30
0.0
  0
XRECORD
  5
622
102
{ACAD_REACTORS
330
60A
102
}
330
60A
100
AcDbXrecord
340
0
  0
XRECORD
  5
623
102
{ACAD_REACTORS
330
60A
102
}
330
60A
100
AcDbXrecord
 70
     1
  0
XRECORD
  5
616
102
{ACAD_REACTORS
330
60A
102
}
330
60A
100
AcDbXrecord
  1
{3AAE8083-EF81-43D4-A399-E4FC48A77436}
  0
ENDSEC
  0
EOF
