  0
SECTION
  2
HEADER
  9
$ACADVER
  1
AC1014
  9
$ACADMAINTVER
 70
     9
  9
$DWGCODEPAGE
  3
ANSI_1252
  9
$INSBASE
 10
0.0
 20
0.0
 30
0.0
  9
$EXTMIN
 10
0.1071648839645114
 20
0.0559837816023067
 30
0.0
  9
$EXTMAX
 10
11.04440991918509
 20
8.495078740157479
 30
0.0
  9
$LIMMIN
 10
0.0
 20
0.0
  9
$LIMMAX
 10
12.0
 20
9.0
  9
$ORTHOMODE
 70
     0
  9
$REGENMODE
 70
     1
  9
$FILLMODE
 70
     1
  9
$QTEXTMODE
 70
     0
  9
$MIRRTEXT
 70
     1
  9
$DRAGMODE
 70
     2
  9
$LTSCALE
 40
1.0
  9
$OSMODE
 70
    37
  9
$ATTMODE
 70
     1
  9
$TEXTSIZE
 40
0.2
  9
$TRACEWID
 40
0.05
  9
$TEXTSTYLE
  7
STANDARD
  9
$CLAYER
  8
0
  9
$CELTYPE
  6
BYLAYER
  9
$CECOLOR
 62
   256
  9
$CELTSCALE
 40
1.0
  9
$DELOBJ
 70
     1
  9
$DISPSILH
 70
     0
  9
$DIMSCALE
 40
1.0
  9
$DIMASZ
 40
0.18
  9
$DIMEXO
 40
0.0625
  9
$DIMDLI
 40
0.38
  9
$DIMRND
 40
0.0
  9
$DIMDLE
 40
0.0
  9
$DIMEXE
 40
0.18
  9
$DIMTP
 40
0.0
  9
$DIMTM
 40
0.0
  9
$DIMTXT
 40
0.18
  9
$DIMCEN
 40
0.09
  9
$DIMTSZ
 40
0.0
  9
$DIMTOL
 70
     0
  9
$DIMLIM
 70
     0
  9
$DIMTIH
 70
     1
  9
$DIMTOH
 70
     1
  9
$DIMSE1
 70
     0
  9
$DIMSE2
 70
     0
  9
$DIMTAD
 70
     0
  9
$DIMZIN
 70
     0
  9
$DIMBLK
  1

  9
$DIMASO
 70
     1
  9
$DIMSHO
 70
     1
  9
$DIMPOST
  1

  9
$DIMAPOST
  1

  9
$DIMALT
 70
     0
  9
$DIMALTD
 70
     2
  9
$DIMALTF
 40
25.4
  9
$DIMLFAC
 40
1.0
  9
$DIMTOFL
 70
     0
  9
$DIMTVP
 40
0.0
  9
$DIMTIX
 70
     0
  9
$DIMSOXD
 70
     0
  9
$DIMSAH
 70
     0
  9
$DIMBLK1
  1

  9
$DIMBLK2
  1

  9
$DIMSTYLE
  2
STANDARD
  9
$DIMCLRD
 70
     0
  9
$DIMCLRE
 70
     0
  9
$DIMCLRT
 70
     0
  9
$DIMTFAC
 40
1.0
  9
$DIMGAP
 40
0.09
  9
$DIMJUST
 70
     0
  9
$DIMSD1
 70
     0
  9
$DIMSD2
 70
     0
  9
$DIMTOLJ
 70
     1
  9
$DIMTZIN
 70
     0
  9
$DIMALTZ
 70
     0
  9
$DIMALTTZ
 70
     0
  9
$DIMFIT
 70
     5
  9
$DIMUPT
 70
     0
  9
$DIMUNIT
 70
     2
  9
$DIMDEC
 70
     4
  9
$DIMTDEC
 70
     4
  9
$DIMALTU
 70
     2
  9
$DIMALTTD
 70
     2
  9
$DIMTXSTY
  7
STANDARD
  9
$DIMAUNIT
 70
     0
  9
$LUNITS
 70
     2
  9
$LUPREC
 70
     4
  9
$SKETCHINC
 40
0.1
  9
$FILLETRAD
 40
0.0
  9
$AUNITS
 70
     0
  9
$AUPREC
 70
     0
  9
$MENU
  1
acad
  9
$ELEVATION
 40
0.0
  9
$PELEVATION
 40
0.0
  9
$THICKNESS
 40
0.0
  9
$LIMCHECK
 70
     0
  9
$BLIPMODE
 70
     0
  9
$CHAMFERA
 40
0.0
  9
$CHAMFERB
 40
0.0
  9
$CHAMFERC
 40
0.0
  9
$CHAMFERD
 40
0.0
  9
$SKPOLY
 70
     0
  9
$TDCREATE
 40
2452174.403043981
  9
$TDUPDATE
 40
2452174.406885486
  9
$TDINDWG
 40
0.0019475116
  9
$TDUSRTIMER
 40
0.0019475116
  9
$USRTIMER
 70
     1
  9
$ANGBASE
 50
0.0
  9
$ANGDIR
 70
     0
  9
$PDMODE
 70
     0
  9
$PDSIZE
 40
0.0
  9
$PLINEWID
 40
0.0
  9
$COORDS
 70
     0
  9
$SPLFRAME
 70
     0
  9
$SPLINETYPE
 70
     6
  9
$SPLINESEGS
 70
     8
  9
$ATTDIA
 70
     0
  9
$ATTREQ
 70
     1
  9
$HANDLING
 70
-16383
  9
$HANDSEED
  5
26CF
  9
$SURFTAB1
 70
     6
  9
$SURFTAB2
 70
     6
  9
$SURFTYPE
 70
     6
  9
$SURFU
 70
     6
  9
$SURFV
 70
     6
  9
$UCSNAME
  2

  9
$UCSORG
 10
0.0
 20
0.0
 30
0.0
  9
$UCSXDIR
 10
1.0
 20
0.0
 30
0.0
  9
$UCSYDIR
 10
0.0
 20
1.0
 30
0.0
  9
$PUCSNAME
  2

  9
$PUCSORG
 10
0.0
 20
0.0
 30
0.0
  9
$PUCSXDIR
 10
1.0
 20
0.0
 30
0.0
  9
$PUCSYDIR
 10
0.0
 20
1.0
 30
0.0
  9
$USERI1
 70
     0
  9
$USERI2
 70
     0
  9
$USERI3
 70
     0
  9
$USERI4
 70
     0
  9
$USERI5
 70
     0
  9
$USERR1
 40
0.0
  9
$USERR2
 40
0.0
  9
$USERR3
 40
0.0
  9
$USERR4
 40
0.0
  9
$USERR5
 40
0.0
  9
$WORLDVIEW
 70
     1
  9
$SHADEDGE
 70
     3
  9
$SHADEDIF
 70
    70
  9
$TILEMODE
 70
     1
  9
$MAXACTVP
 70
    16
  9
$PINSBASE
 10
0.0
 20
0.0
 30
0.0
  9
$PLIMCHECK
 70
     0
  9
$PEXTMIN
 10
1.000000000000000E+20
 20
1.000000000000000E+20
 30
1.000000000000000E+20
  9
$PEXTMAX
 10
-1.000000000000000E+20
 20
-1.000000000000000E+20
 30
-1.000000000000000E+20
  9
$PLIMMIN
 10
0.0
 20
0.0
  9
$PLIMMAX
 10
12.0
 20
9.0
  9
$UNITMODE
 70
     0
  9
$VISRETAIN
 70
     0
  9
$PLINEGEN
 70
     0
  9
$PSLTSCALE
 70
     1
  9
$TREEDEPTH
 70
  3020
  9
$PICKSTYLE
 70
     0
  9
$CMLSTYLE
  2
STANDARD
  9
$CMLJUST
 70
     0
  9
$CMLSCALE
 40
1.0
  9
$PROXYGRAPHICS
 70
     1
  9
$MEASUREMENT
 70
     0
  0
ENDSEC
  0
SECTION
  2
CLASSES
  0
CLASS
  1
ACDBDICTIONARYWDFLT
  2
AcDbDictionaryWithDefault
  3
AutoCAD 2000
 90
        0
280
     0
281
     0
  0
CLASS
  1
ACDBPLACEHOLDER
  2
AcDbPlaceHolder
  3
AutoCAD 2000
 90
        0
280
     0
281
     0
  0
CLASS
  1
LAYOUT
  2
AcDbLayout
  3
AutoCAD 2000
 90
        0
280
     0
281
     0
  0
CLASS
  1
LONG_TRANSACTION
  2
AcDbLongTransaction
  3
AutoCAD 2000
 90
        0
280
     0
281
     0
  0
CLASS
  1
LWPOLYLINE
  2
AcDbPolyline
  3
AutoCAD 2000
 90
        0
280
     0
281
     1
  0
CLASS
  1
HATCH
  2
AcDbHatch
  3
AutoCAD 2000
 90
        0
280
     0
281
     1
  0
CLASS
  1
XRECORD
  2
AcDbXrecord
  3
AutoCAD 2000
 90
        0
280
     0
281
     0
  0
ENDSEC
  0
SECTION
  2
TABLES
  0
TABLE
  2
VPORT
  5
8
330
0
100
AcDbSymbolTable
 70
     3
  0
VPORT
  5
26A9
330
8
100
AcDbSymbolTableRecord
100
AcDbViewportTableRecord
  2
*ACTIVE
 70
     0
 10
0.0
 20
0.0
 11
1.0
 21
1.0
 12
6.012211668552782
 22
4.5
 13
0.0
 23
0.0
 14
1.0
 24
1.0
 15
0.0
 25
0.0
 16
0.0
 26
0.0
 36
1.0
 17
0.0
 27
0.0
 37
0.0
 40
8.999999995809083
 41
1.597014925373134
 42
50.0
 43
0.0
 44
0.0
 50
0.0
 51
0.0
 71
     0
 72
   100
 73
     1
 74
     1
 75
     0
 76
     0
 77
     0
 78
     0
  0
ENDTAB
  0
TABLE
  2
LTYPE
  5
5
330
0
100
AcDbSymbolTable
 70
    25
  0
LTYPE
  5
13
330
5
100
AcDbSymbolTableRecord
100
AcDbLinetypeTableRecord
  2
BYBLOCK
 70
     0
  3

 72
    65
 73
     0
 40
0.0
  0
LTYPE
  5
14
330
5
100
AcDbSymbolTableRecord
100
AcDbLinetypeTableRecord
  2
BYLAYER
 70
     0
  3

 72
    65
 73
     0
 40
0.0
  0
LTYPE
  5
15
330
5
100
AcDbSymbolTableRecord
100
AcDbLinetypeTableRecord
  2
CONTINUOUS
 70
     0
  3
Solid line
 72
    65
 73
     0
 40
0.0
  0
LTYPE
  5
22
330
5
100
AcDbSymbolTableRecord
100
AcDbLinetypeTableRecord
  2
BORDER
 70
     0
  3
__ __ . __ __ . __ __ . __ __ . __ __ . __ __ .
 72
    65
 73
     6
 40
1.75
 49
0.5
 74
     0
 49
-0.25
 74
     0
 49
0.5
 74
     0
 49
-0.25
 74
     0
 49
0.5
 74
     0
 49
-0.25
 74
     0
  0
LTYPE
  5
23
330
5
100
AcDbSymbolTableRecord
100
AcDbLinetypeTableRecord
  2
BORDER2
 70
     0
  3
__.__.__.__.__.__.__.__.__.__.__.__.__.__.__.__
 72
    65
 73
     6
 40
0.875
 49
0.25
 74
     0
 49
-0.125
 74
     0
 49
0.25
 74
     0
 49
-0.125
 74
     0
 49
0.25
 74
     0
 49
-0.125
 74
     0
  0
LTYPE
  5
24
330
5
100
AcDbSymbolTableRecord
100
AcDbLinetypeTableRecord
  2
BORDERX2
 70
     0
  3
____  ____  .  ____  ____  .  
 72
    65
 73
     6
 40
3.5
 49
1.0
 74
     0
 49
-0.5
 74
     0
 49
1.0
 74
     0
 49
-0.5
 74
     0
 49
1.0
 74
     0
 49
-0.5
 74
     0
  0
LTYPE
  5
25
330
5
100
AcDbSymbolTableRecord
100
AcDbLinetypeTableRecord
  2
CENTER
 70
     0
  3
____ _ ____ _ ____ _ ____ _ ____ _ ____ _ ____
 72
    65
 73
     4
 40
2.0
 49
1.25
 74
     0
 49
-0.25
 74
     0
 49
0.25
 74
     0
 49
-0.25
 74
     0
  0
LTYPE
  5
26
330
5
100
AcDbSymbolTableRecord
100
AcDbLinetypeTableRecord
  2
CENTER2
 70
     0
  3
____ _ ____ _ ____ _ ____ _ ____ _ ____ _ ____
 72
    65
 73
     4
 40
1.125
 49
0.75
 74
     0
 49
-0.125
 74
     0
 49
0.125
 74
     0
 49
-0.125
 74
     0
  0
LTYPE
  5
27
330
5
100
AcDbSymbolTableRecord
100
AcDbLinetypeTableRecord
  2
CENTERX2
 70
     0
  3
________  __  ________  __  ________  __  
 72
    65
 73
     4
 40
4.0
 49
2.5
 74
     0
 49
-0.5
 74
     0
 49
0.5
 74
     0
 49
-0.5
 74
     0
  0
LTYPE
  5
28
330
5
100
AcDbSymbolTableRecord
100
AcDbLinetypeTableRecord
  2
DASHDOT
 70
     0
  3
__ . __ . __ . __ . __ . __ . __ . 
 72
    65
 73
     4
 40
1.0
 49
0.5
 74
     0
 49
-0.25
 74
     0
 49
0.0
 74
     0
 49
-0.25
 74
     0
  0
LTYPE
  5
29
330
5
100
AcDbSymbolTableRecord
100
AcDbLinetypeTableRecord
  2
DASHDOT2
 70
     0
  3
_._._._._._._._._._._._._._._._.
 72
    65
 73
     4
 40
0.5
 49
0.25
 74
     0
 49
-0.125
 74
     0
 49
0.0
 74
     0
 49
-0.125
 74
     0
  0
LTYPE
  5
2A
330
5
100
AcDbSymbolTableRecord
100
AcDbLinetypeTableRecord
  2
DASHDOTX2
 70
     0
  3
____  .  ____  .  ____  .  ____  .  
 72
    65
 73
     4
 40
2.0
 49
1.0
 74
     0
 49
-0.5
 74
     0
 49
0.0
 74
     0
 49
-0.5
 74
     0
  0
LTYPE
  5
2B
330
5
100
AcDbSymbolTableRecord
100
AcDbLinetypeTableRecord
  2
DASHED
 70
     0
  3
__ __ __ __ __ __ __ __ __ __ __ __ 
 72
    65
 73
     2
 40
0.75
 49
0.5
 74
     0
 49
-0.25
 74
     0
  0
LTYPE
  5
2C
330
5
100
AcDbSymbolTableRecord
100
AcDbLinetypeTableRecord
  2
DASHED2
 70
     0
  3
_ _ _ _ _ _ _ _ _ _ _ _ _ _ _ _ _ _ 
 72
    65
 73
     2
 40
0.375
 49
0.25
 74
     0
 49
-0.125
 74
     0
  0
LTYPE
  5
2D
330
5
100
AcDbSymbolTableRecord
100
AcDbLinetypeTableRecord
  2
DASHEDX2
 70
     0
  3
____  ____  ____  ____  ____  ____  
 72
    65
 73
     2
 40
1.5
 49
1.0
 74
     0
 49
-0.5
 74
     0
  0
LTYPE
  5
2E
330
5
100
AcDbSymbolTableRecord
100
AcDbLinetypeTableRecord
  2
DIVIDE
 70
     0
  3
____ . . ____ . . ____ . . ____ . . 
 72
    65
 73
     6
 40
1.25
 49
0.5
 74
     0
 49
-0.25
 74
     0
 49
0.0
 74
     0
 49
-0.25
 74
     0
 49
0.0
 74
     0
 49
-0.25
 74
     0
  0
LTYPE
  5
2F
330
5
100
AcDbSymbolTableRecord
100
AcDbLinetypeTableRecord
  2
DIVIDE2
 70
     0
  3
__..__..__..__..__..__..__..__..__..
 72
    65
 73
     6
 40
0.625
 49
0.25
 74
     0
 49
-0.125
 74
     0
 49
0.0
 74
     0
 49
-0.125
 74
     0
 49
0.0
 74
     0
 49
-0.125
 74
     0
  0
LTYPE
  5
30
330
5
100
AcDbSymbolTableRecord
100
AcDbLinetypeTableRecord
  2
DIVIDEX2
 70
     0
  3
________  .  .  ________  .  .  ________  .  . 
 72
    65
 73
     6
 40
2.5
 49
1.0
 74
     0
 49
-0.5
 74
     0
 49
0.0
 74
     0
 49
-0.5
 74
     0
 49
0.0
 74
     0
 49
-0.5
 74
     0
  0
LTYPE
  5
31
330
5
100
AcDbSymbolTableRecord
100
AcDbLinetypeTableRecord
  2
DOT
 70
     0
  3
. . . . . . . . . . . . . . . . . . 
 72
    65
 73
     2
 40
0.25
 49
0.0
 74
     0
 49
-0.25
 74
     0
  0
LTYPE
  5
32
330
5
100
AcDbSymbolTableRecord
100
AcDbLinetypeTableRecord
  2
DOT2
 70
     0
  3
....................................
 72
    65
 73
     2
 40
0.125
 49
0.0
 74
     0
 49
-0.125
 74
     0
  0
LTYPE
  5
33
330
5
100
AcDbSymbolTableRecord
100
AcDbLinetypeTableRecord
  2
DOTX2
 70
     0
  3
.  .  .  .  .  .  .  .  .  .  .  .  .  
 72
    65
 73
     2
 40
0.5
 49
0.0
 74
     0
 49
-0.5
 74
     0
  0
LTYPE
  5
34
330
5
100
AcDbSymbolTableRecord
100
AcDbLinetypeTableRecord
  2
HIDDEN
 70
     0
  3
__ __ __ __ __ __ __ __ __ __ __ __ 
 72
    65
 73
     2
 40
0.375
 49
0.25
 74
     0
 49
-0.125
 74
     0
  0
LTYPE
  5
35
330
5
100
AcDbSymbolTableRecord
100
AcDbLinetypeTableRecord
  2
HIDDEN2
 70
     0
  3
_ _ _ _ _ _ _ _ _ _ _ _ _ _ _ _ _ _ 
 72
    65
 73
     2
 40
0.1875
 49
0.125
 74
     0
 49
-0.0625
 74
     0
  0
LTYPE
  5
36
330
5
100
AcDbSymbolTableRecord
100
AcDbLinetypeTableRecord
  2
HIDDENX2
 70
     0
  3
____ ____ ____ ____ ____ ____ ____ 
 72
    65
 73
     2
 40
0.75
 49
0.5
 74
     0
 49
-0.25
 74
     0
  0
LTYPE
  5
37
330
5
100
AcDbSymbolTableRecord
100
AcDbLinetypeTableRecord
  2
PHANTOM
 70
     0
  3
______  __  __  ______  __  __  
 72
    65
 73
     6
 40
2.5
 49
1.25
 74
     0
 49
-0.25
 74
     0
 49
0.25
 74
     0
 49
-0.25
 74
     0
 49
0.25
 74
     0
 49
-0.25
 74
     0
  0
LTYPE
  5
38
330
5
100
AcDbSymbolTableRecord
100
AcDbLinetypeTableRecord
  2
PHANTOM2
 70
     0
  3
___ _ _ ___ _ _ ___ _ _ ___ _ _ 
 72
    65
 73
     6
 40
1.25
 49
0.625
 74
     0
 49
-0.125
 74
     0
 49
0.125
 74
     0
 49
-0.125
 74
     0
 49
0.125
 74
     0
 49
-0.125
 74
     0
  0
LTYPE
  5
39
330
5
100
AcDbSymbolTableRecord
100
AcDbLinetypeTableRecord
  2
PHANTOMX2
 70
     0
  3
___ _ _ ___ _ _ ___ _ _ ___ _ _ 
 72
    65
 73
     6
 40
5.0
 49
2.5
 74
     0
 49
-0.5
 74
     0
 49
0.5
 74
     0
 49
-0.5
 74
     0
 49
0.5
 74
     0
 49
-0.5
 74
     0
  0
ENDTAB
  0
TABLE
  2
LAYER
  5
2
330
0
100
AcDbSymbolTable
 70
   256
  0
LAYER
  5
10
330
2
100
AcDbSymbolTableRecord
100
AcDbLayerTableRecord
  2
0
 70
     0
 62
     7
  6
CONTINUOUS
  0
LAYER
  5
3A
330
2
100
AcDbSymbolTableRecord
100
AcDbLayerTableRecord
  2
1
 70
     0
 62
     1
  6
CONTINUOUS
  0
LAYER
  5
3B
330
2
100
AcDbSymbolTableRecord
100
AcDbLayerTableRecord
  2
2
 70
     0
 62
     2
  6
CONTINUOUS
  0
LAYER
  5
3C
330
2
100
AcDbSymbolTableRecord
100
AcDbLayerTableRecord
  2
3
 70
     0
 62
     3
  6
CONTINUOUS
  0
LAYER
  5
3D
330
2
100
AcDbSymbolTableRecord
100
AcDbLayerTableRecord
  2
4
 70
     0
 62
     4
  6
CONTINUOUS
  0
LAYER
  5
3E
330
2
100
AcDbSymbolTableRecord
100
AcDbLayerTableRecord
  2
5
 70
     0
 62
     5
  6
CONTINUOUS
  0
LAYER
  5
3F
330
2
100
AcDbSymbolTableRecord
100
AcDbLayerTableRecord
  2
6
 70
     0
 62
     6
  6
CONTINUOUS
  0
LAYER
  5
40
330
2
100
AcDbSymbolTableRecord
100
AcDbLayerTableRecord
  2
7
 70
     0
 62
     7
  6
CONTINUOUS
  0
LAYER
  5
41
330
2
100
AcDbSymbolTableRecord
100
AcDbLayerTableRecord
  2
8
 70
     0
 62
     8
  6
CONTINUOUS
  0
LAYER
  5
42
330
2
100
AcDbSymbolTableRecord
100
AcDbLayerTableRecord
  2
9
 70
     0
 62
     9
  6
CONTINUOUS
  0
LAYER
  5
43
330
2
100
AcDbSymbolTableRecord
100
AcDbLayerTableRecord
  2
10
 70
     0
 62
    10
  6
CONTINUOUS
  0
LAYER
  5
44
330
2
100
AcDbSymbolTableRecord
100
AcDbLayerTableRecord
  2
11
 70
     0
 62
    11
  6
CONTINUOUS
  0
LAYER
  5
45
330
2
100
AcDbSymbolTableRecord
100
AcDbLayerTableRecord
  2
12
 70
     0
 62
    12
  6
CONTINUOUS
  0
LAYER
  5
46
330
2
100
AcDbSymbolTableRecord
100
AcDbLayerTableRecord
  2
13
 70
     0
 62
    13
  6
CONTINUOUS
  0
LAYER
  5
47
330
2
100
AcDbSymbolTableRecord
100
AcDbLayerTableRecord
  2
14
 70
     0
 62
    14
  6
CONTINUOUS
  0
LAYER
  5
48
330
2
100
AcDbSymbolTableRecord
100
AcDbLayerTableRecord
  2
15
 70
     0
 62
    15
  6
CONTINUOUS
  0
LAYER
  5
49
330
2
100
AcDbSymbolTableRecord
100
AcDbLayerTableRecord
  2
16
 70
     0
 62
    16
  6
CONTINUOUS
  0
LAYER
  5
4A
330
2
100
AcDbSymbolTableRecord
100
AcDbLayerTableRecord
  2
17
 70
     0
 62
    17
  6
CONTINUOUS
  0
LAYER
  5
4B
330
2
100
AcDbSymbolTableRecord
100
AcDbLayerTableRecord
  2
18
 70
     0
 62
    18
  6
CONTINUOUS
  0
LAYER
  5
4C
330
2
100
AcDbSymbolTableRecord
100
AcDbLayerTableRecord
  2
19
 70
     0
 62
    19
  6
CONTINUOUS
  0
LAYER
  5
4D
330
2
100
AcDbSymbolTableRecord
100
AcDbLayerTableRecord
  2
20
 70
     0
 62
    20
  6
CONTINUOUS
  0
LAYER
  5
4E
330
2
100
AcDbSymbolTableRecord
100
AcDbLayerTableRecord
  2
21
 70
     0
 62
    21
  6
CONTINUOUS
  0
LAYER
  5
4F
330
2
100
AcDbSymbolTableRecord
100
AcDbLayerTableRecord
  2
22
 70
     0
 62
    22
  6
CONTINUOUS
  0
LAYER
  5
50
330
2
100
AcDbSymbolTableRecord
100
AcDbLayerTableRecord
  2
23
 70
     0
 62
    23
  6
CONTINUOUS
  0
LAYER
  5
51
330
2
100
AcDbSymbolTableRecord
100
AcDbLayerTableRecord
  2
24
 70
     0
 62
    24
  6
CONTINUOUS
  0
LAYER
  5
52
330
2
100
AcDbSymbolTableRecord
100
AcDbLayerTableRecord
  2
25
 70
     0
 62
    25
  6
CONTINUOUS
  0
LAYER
  5
53
330
2
100
AcDbSymbolTableRecord
100
AcDbLayerTableRecord
  2
26
 70
     0
 62
    26
  6
CONTINUOUS
  0
LAYER
  5
54
330
2
100
AcDbSymbolTableRecord
100
AcDbLayerTableRecord
  2
27
 70
     0
 62
    27
  6
CONTINUOUS
  0
LAYER
  5
55
330
2
100
AcDbSymbolTableRecord
100
AcDbLayerTableRecord
  2
28
 70
     0
 62
    28
  6
CONTINUOUS
  0
LAYER
  5
56
330
2
100
AcDbSymbolTableRecord
100
AcDbLayerTableRecord
  2
29
 70
     0
 62
    29
  6
CONTINUOUS
  0
LAYER
  5
57
330
2
100
AcDbSymbolTableRecord
100
AcDbLayerTableRecord
  2
30
 70
     0
 62
    30
  6
CONTINUOUS
  0
LAYER
  5
58
330
2
100
AcDbSymbolTableRecord
100
AcDbLayerTableRecord
  2
31
 70
     0
 62
    31
  6
CONTINUOUS
  0
LAYER
  5
59
330
2
100
AcDbSymbolTableRecord
100
AcDbLayerTableRecord
  2
32
 70
     0
 62
    32
  6
CONTINUOUS
  0
LAYER
  5
5A
330
2
100
AcDbSymbolTableRecord
100
AcDbLayerTableRecord
  2
33
 70
     0
 62
    33
  6
CONTINUOUS
  0
LAYER
  5
5B
330
2
100
AcDbSymbolTableRecord
100
AcDbLayerTableRecord
  2
34
 70
     0
 62
    34
  6
CONTINUOUS
  0
LAYER
  5
5C
330
2
100
AcDbSymbolTableRecord
100
AcDbLayerTableRecord
  2
35
 70
     0
 62
    35
  6
CONTINUOUS
  0
LAYER
  5
5D
330
2
100
AcDbSymbolTableRecord
100
AcDbLayerTableRecord
  2
36
 70
     0
 62
    36
  6
CONTINUOUS
  0
LAYER
  5
5E
330
2
100
AcDbSymbolTableRecord
100
AcDbLayerTableRecord
  2
37
 70
     0
 62
    37
  6
CONTINUOUS
  0
LAYER
  5
5F
330
2
100
AcDbSymbolTableRecord
100
AcDbLayerTableRecord
  2
38
 70
     0
 62
    38
  6
CONTINUOUS
  0
LAYER
  5
60
330
2
100
AcDbSymbolTableRecord
100
AcDbLayerTableRecord
  2
39
 70
     0
 62
    39
  6
CONTINUOUS
  0
LAYER
  5
61
330
2
100
AcDbSymbolTableRecord
100
AcDbLayerTableRecord
  2
40
 70
     0
 62
    40
  6
CONTINUOUS
  0
LAYER
  5
62
330
2
100
AcDbSymbolTableRecord
100
AcDbLayerTableRecord
  2
41
 70
     0
 62
    41
  6
CONTINUOUS
  0
LAYER
  5
63
330
2
100
AcDbSymbolTableRecord
100
AcDbLayerTableRecord
  2
42
 70
     0
 62
    42
  6
CONTINUOUS
  0
LAYER
  5
64
330
2
100
AcDbSymbolTableRecord
100
AcDbLayerTableRecord
  2
43
 70
     0
 62
    43
  6
CONTINUOUS
  0
LAYER
  5
65
330
2
100
AcDbSymbolTableRecord
100
AcDbLayerTableRecord
  2
44
 70
     0
 62
    44
  6
CONTINUOUS
  0
LAYER
  5
66
330
2
100
AcDbSymbolTableRecord
100
AcDbLayerTableRecord
  2
45
 70
     0
 62
    45
  6
CONTINUOUS
  0
LAYER
  5
67
330
2
100
AcDbSymbolTableRecord
100
AcDbLayerTableRecord
  2
46
 70
     0
 62
    46
  6
CONTINUOUS
  0
LAYER
  5
68
330
2
100
AcDbSymbolTableRecord
100
AcDbLayerTableRecord
  2
47
 70
     0
 62
    47
  6
CONTINUOUS
  0
LAYER
  5
69
330
2
100
AcDbSymbolTableRecord
100
AcDbLayerTableRecord
  2
48
 70
     0
 62
    48
  6
CONTINUOUS
  0
LAYER
  5
6A
330
2
100
AcDbSymbolTableRecord
100
AcDbLayerTableRecord
  2
49
 70
     0
 62
    49
  6
CONTINUOUS
  0
LAYER
  5
6B
330
2
100
AcDbSymbolTableRecord
100
AcDbLayerTableRecord
  2
50
 70
     0
 62
    50
  6
CONTINUOUS
  0
LAYER
  5
6C
330
2
100
AcDbSymbolTableRecord
100
AcDbLayerTableRecord
  2
51
 70
     0
 62
    51
  6
CONTINUOUS
  0
LAYER
  5
6D
330
2
100
AcDbSymbolTableRecord
100
AcDbLayerTableRecord
  2
52
 70
     0
 62
    52
  6
CONTINUOUS
  0
LAYER
  5
6E
330
2
100
AcDbSymbolTableRecord
100
AcDbLayerTableRecord
  2
53
 70
     0
 62
    53
  6
CONTINUOUS
  0
LAYER
  5
6F
330
2
100
AcDbSymbolTableRecord
100
AcDbLayerTableRecord
  2
54
 70
     0
 62
    54
  6
CONTINUOUS
  0
LAYER
  5
70
330
2
100
AcDbSymbolTableRecord
100
AcDbLayerTableRecord
  2
55
 70
     0
 62
    55
  6
CONTINUOUS
  0
LAYER
  5
71
330
2
100
AcDbSymbolTableRecord
100
AcDbLayerTableRecord
  2
56
 70
     0
 62
    56
  6
CONTINUOUS
  0
LAYER
  5
72
330
2
100
AcDbSymbolTableRecord
100
AcDbLayerTableRecord
  2
57
 70
     0
 62
    57
  6
CONTINUOUS
  0
LAYER
  5
73
330
2
100
AcDbSymbolTableRecord
100
AcDbLayerTableRecord
  2
58
 70
     0
 62
    58
  6
CONTINUOUS
  0
LAYER
  5
74
330
2
100
AcDbSymbolTableRecord
100
AcDbLayerTableRecord
  2
59
 70
     0
 62
    59
  6
CONTINUOUS
  0
LAYER
  5
75
330
2
100
AcDbSymbolTableRecord
100
AcDbLayerTableRecord
  2
60
 70
     0
 62
    60
  6
CONTINUOUS
  0
LAYER
  5
76
330
2
100
AcDbSymbolTableRecord
100
AcDbLayerTableRecord
  2
61
 70
     0
 62
    61
  6
CONTINUOUS
  0
LAYER
  5
77
330
2
100
AcDbSymbolTableRecord
100
AcDbLayerTableRecord
  2
62
 70
     0
 62
    62
  6
CONTINUOUS
  0
LAYER
  5
78
330
2
100
AcDbSymbolTableRecord
100
AcDbLayerTableRecord
  2
63
 70
     0
 62
    63
  6
CONTINUOUS
  0
LAYER
  5
79
330
2
100
AcDbSymbolTableRecord
100
AcDbLayerTableRecord
  2
64
 70
     0
 62
    64
  6
CONTINUOUS
  0
LAYER
  5
7A
330
2
100
AcDbSymbolTableRecord
100
AcDbLayerTableRecord
  2
65
 70
     0
 62
    65
  6
CONTINUOUS
  0
LAYER
  5
7B
330
2
100
AcDbSymbolTableRecord
100
AcDbLayerTableRecord
  2
66
 70
     0
 62
    66
  6
CONTINUOUS
  0
LAYER
  5
7C
330
2
100
AcDbSymbolTableRecord
100
AcDbLayerTableRecord
  2
67
 70
     0
 62
    67
  6
CONTINUOUS
  0
LAYER
  5
7D
330
2
100
AcDbSymbolTableRecord
100
AcDbLayerTableRecord
  2
68
 70
     0
 62
    68
  6
CONTINUOUS
  0
LAYER
  5
7E
330
2
100
AcDbSymbolTableRecord
100
AcDbLayerTableRecord
  2
69
 70
     0
 62
    69
  6
CONTINUOUS
  0
LAYER
  5
7F
330
2
100
AcDbSymbolTableRecord
100
AcDbLayerTableRecord
  2
70
 70
     0
 62
    70
  6
CONTINUOUS
  0
LAYER
  5
80
330
2
100
AcDbSymbolTableRecord
100
AcDbLayerTableRecord
  2
71
 70
     0
 62
    71
  6
CONTINUOUS
  0
LAYER
  5
81
330
2
100
AcDbSymbolTableRecord
100
AcDbLayerTableRecord
  2
72
 70
     0
 62
    72
  6
CONTINUOUS
  0
LAYER
  5
82
330
2
100
AcDbSymbolTableRecord
100
AcDbLayerTableRecord
  2
73
 70
     0
 62
    73
  6
CONTINUOUS
  0
LAYER
  5
83
330
2
100
AcDbSymbolTableRecord
100
AcDbLayerTableRecord
  2
74
 70
     0
 62
    74
  6
CONTINUOUS
  0
LAYER
  5
84
330
2
100
AcDbSymbolTableRecord
100
AcDbLayerTableRecord
  2
75
 70
     0
 62
    75
  6
CONTINUOUS
  0
LAYER
  5
85
330
2
100
AcDbSymbolTableRecord
100
AcDbLayerTableRecord
  2
76
 70
     0
 62
    76
  6
CONTINUOUS
  0
LAYER
  5
86
330
2
100
AcDbSymbolTableRecord
100
AcDbLayerTableRecord
  2
77
 70
     0
 62
    77
  6
CONTINUOUS
  0
LAYER
  5
87
330
2
100
AcDbSymbolTableRecord
100
AcDbLayerTableRecord
  2
78
 70
     0
 62
    78
  6
CONTINUOUS
  0
LAYER
  5
88
330
2
100
AcDbSymbolTableRecord
100
AcDbLayerTableRecord
  2
79
 70
     0
 62
    79
  6
CONTINUOUS
  0
LAYER
  5
89
330
2
100
AcDbSymbolTableRecord
100
AcDbLayerTableRecord
  2
80
 70
     0
 62
    80
  6
CONTINUOUS
  0
LAYER
  5
8A
330
2
100
AcDbSymbolTableRecord
100
AcDbLayerTableRecord
  2
81
 70
     0
 62
    81
  6
CONTINUOUS
  0
LAYER
  5
8B
330
2
100
AcDbSymbolTableRecord
100
AcDbLayerTableRecord
  2
82
 70
     0
 62
    82
  6
CONTINUOUS
  0
LAYER
  5
8C
330
2
100
AcDbSymbolTableRecord
100
AcDbLayerTableRecord
  2
83
 70
     0
 62
    83
  6
CONTINUOUS
  0
LAYER
  5
8D
330
2
100
AcDbSymbolTableRecord
100
AcDbLayerTableRecord
  2
84
 70
     0
 62
    84
  6
CONTINUOUS
  0
LAYER
  5
8E
330
2
100
AcDbSymbolTableRecord
100
AcDbLayerTableRecord
  2
85
 70
     0
 62
    85
  6
CONTINUOUS
  0
LAYER
  5
8F
330
2
100
AcDbSymbolTableRecord
100
AcDbLayerTableRecord
  2
86
 70
     0
 62
    86
  6
CONTINUOUS
  0
LAYER
  5
90
330
2
100
AcDbSymbolTableRecord
100
AcDbLayerTableRecord
  2
87
 70
     0
 62
    87
  6
CONTINUOUS
  0
LAYER
  5
91
330
2
100
AcDbSymbolTableRecord
100
AcDbLayerTableRecord
  2
88
 70
     0
 62
    88
  6
CONTINUOUS
  0
LAYER
  5
92
330
2
100
AcDbSymbolTableRecord
100
AcDbLayerTableRecord
  2
89
 70
     0
 62
    89
  6
CONTINUOUS
  0
LAYER
  5
93
330
2
100
AcDbSymbolTableRecord
100
AcDbLayerTableRecord
  2
90
 70
     0
 62
    90
  6
CONTINUOUS
  0
LAYER
  5
94
330
2
100
AcDbSymbolTableRecord
100
AcDbLayerTableRecord
  2
91
 70
     0
 62
    91
  6
CONTINUOUS
  0
LAYER
  5
95
330
2
100
AcDbSymbolTableRecord
100
AcDbLayerTableRecord
  2
92
 70
     0
 62
    92
  6
CONTINUOUS
  0
LAYER
  5
96
330
2
100
AcDbSymbolTableRecord
100
AcDbLayerTableRecord
  2
93
 70
     0
 62
    93
  6
CONTINUOUS
  0
LAYER
  5
97
330
2
100
AcDbSymbolTableRecord
100
AcDbLayerTableRecord
  2
94
 70
     0
 62
    94
  6
CONTINUOUS
  0
LAYER
  5
98
330
2
100
AcDbSymbolTableRecord
100
AcDbLayerTableRecord
  2
95
 70
     0
 62
    95
  6
CONTINUOUS
  0
LAYER
  5
99
330
2
100
AcDbSymbolTableRecord
100
AcDbLayerTableRecord
  2
96
 70
     0
 62
    96
  6
CONTINUOUS
  0
LAYER
  5
9A
330
2
100
AcDbSymbolTableRecord
100
AcDbLayerTableRecord
  2
97
 70
     0
 62
    97
  6
CONTINUOUS
  0
LAYER
  5
9B
330
2
100
AcDbSymbolTableRecord
100
AcDbLayerTableRecord
  2
98
 70
     0
 62
    98
  6
CONTINUOUS
  0
LAYER
  5
9C
330
2
100
AcDbSymbolTableRecord
100
AcDbLayerTableRecord
  2
99
 70
     0
 62
    99
  6
CONTINUOUS
  0
LAYER
  5
9D
330
2
100
AcDbSymbolTableRecord
100
AcDbLayerTableRecord
  2
100
 70
     0
 62
   100
  6
CONTINUOUS
  0
LAYER
  5
9E
330
2
100
AcDbSymbolTableRecord
100
AcDbLayerTableRecord
  2
101
 70
     0
 62
   101
  6
CONTINUOUS
  0
LAYER
  5
9F
330
2
100
AcDbSymbolTableRecord
100
AcDbLayerTableRecord
  2
102
 70
     0
 62
   102
  6
CONTINUOUS
  0
LAYER
  5
A0
330
2
100
AcDbSymbolTableRecord
100
AcDbLayerTableRecord
  2
103
 70
     0
 62
   103
  6
CONTINUOUS
  0
LAYER
  5
A1
330
2
100
AcDbSymbolTableRecord
100
AcDbLayerTableRecord
  2
104
 70
     0
 62
   104
  6
CONTINUOUS
  0
LAYER
  5
A2
330
2
100
AcDbSymbolTableRecord
100
AcDbLayerTableRecord
  2
105
 70
     0
 62
   105
  6
CONTINUOUS
  0
LAYER
  5
A3
330
2
100
AcDbSymbolTableRecord
100
AcDbLayerTableRecord
  2
106
 70
     0
 62
   106
  6
CONTINUOUS
  0
LAYER
  5
A4
330
2
100
AcDbSymbolTableRecord
100
AcDbLayerTableRecord
  2
107
 70
     0
 62
   107
  6
CONTINUOUS
  0
LAYER
  5
A5
330
2
100
AcDbSymbolTableRecord
100
AcDbLayerTableRecord
  2
108
 70
     0
 62
   108
  6
CONTINUOUS
  0
LAYER
  5
A6
330
2
100
AcDbSymbolTableRecord
100
AcDbLayerTableRecord
  2
109
 70
     0
 62
   109
  6
CONTINUOUS
  0
LAYER
  5
A7
330
2
100
AcDbSymbolTableRecord
100
AcDbLayerTableRecord
  2
110
 70
     0
 62
   110
  6
CONTINUOUS
  0
LAYER
  5
A8
330
2
100
AcDbSymbolTableRecord
100
AcDbLayerTableRecord
  2
111
 70
     0
 62
   111
  6
CONTINUOUS
  0
LAYER
  5
A9
330
2
100
AcDbSymbolTableRecord
100
AcDbLayerTableRecord
  2
112
 70
     0
 62
   112
  6
CONTINUOUS
  0
LAYER
  5
AA
330
2
100
AcDbSymbolTableRecord
100
AcDbLayerTableRecord
  2
113
 70
     0
 62
   113
  6
CONTINUOUS
  0
LAYER
  5
AB
330
2
100
AcDbSymbolTableRecord
100
AcDbLayerTableRecord
  2
114
 70
     0
 62
   114
  6
CONTINUOUS
  0
LAYER
  5
AC
330
2
100
AcDbSymbolTableRecord
100
AcDbLayerTableRecord
  2
115
 70
     0
 62
   115
  6
CONTINUOUS
  0
LAYER
  5
AD
330
2
100
AcDbSymbolTableRecord
100
AcDbLayerTableRecord
  2
116
 70
     0
 62
   116
  6
CONTINUOUS
  0
LAYER
  5
AE
330
2
100
AcDbSymbolTableRecord
100
AcDbLayerTableRecord
  2
117
 70
     0
 62
   117
  6
CONTINUOUS
  0
LAYER
  5
AF
330
2
100
AcDbSymbolTableRecord
100
AcDbLayerTableRecord
  2
118
 70
     0
 62
   118
  6
CONTINUOUS
  0
LAYER
  5
B0
330
2
100
AcDbSymbolTableRecord
100
AcDbLayerTableRecord
  2
119
 70
     0
 62
   119
  6
CONTINUOUS
  0
LAYER
  5
B1
330
2
100
AcDbSymbolTableRecord
100
AcDbLayerTableRecord
  2
120
 70
     0
 62
   120
  6
CONTINUOUS
  0
LAYER
  5
B2
330
2
100
AcDbSymbolTableRecord
100
AcDbLayerTableRecord
  2
121
 70
     0
 62
   121
  6
CONTINUOUS
  0
LAYER
  5
B3
330
2
100
AcDbSymbolTableRecord
100
AcDbLayerTableRecord
  2
122
 70
     0
 62
   122
  6
CONTINUOUS
  0
LAYER
  5
B4
330
2
100
AcDbSymbolTableRecord
100
AcDbLayerTableRecord
  2
123
 70
     0
 62
   123
  6
CONTINUOUS
  0
LAYER
  5
B5
330
2
100
AcDbSymbolTableRecord
100
AcDbLayerTableRecord
  2
124
 70
     0
 62
   124
  6
CONTINUOUS
  0
LAYER
  5
B6
330
2
100
AcDbSymbolTableRecord
100
AcDbLayerTableRecord
  2
125
 70
     0
 62
   125
  6
CONTINUOUS
  0
LAYER
  5
B7
330
2
100
AcDbSymbolTableRecord
100
AcDbLayerTableRecord
  2
126
 70
     0
 62
   126
  6
CONTINUOUS
  0
LAYER
  5
B8
330
2
100
AcDbSymbolTableRecord
100
AcDbLayerTableRecord
  2
127
 70
     0
 62
   127
  6
CONTINUOUS
  0
LAYER
  5
B9
330
2
100
AcDbSymbolTableRecord
100
AcDbLayerTableRecord
  2
128
 70
     0
 62
   128
  6
CONTINUOUS
  0
LAYER
  5
BA
330
2
100
AcDbSymbolTableRecord
100
AcDbLayerTableRecord
  2
129
 70
     0
 62
   129
  6
CONTINUOUS
  0
LAYER
  5
BB
330
2
100
AcDbSymbolTableRecord
100
AcDbLayerTableRecord
  2
130
 70
     0
 62
   130
  6
CONTINUOUS
  0
LAYER
  5
BC
330
2
100
AcDbSymbolTableRecord
100
AcDbLayerTableRecord
  2
131
 70
     0
 62
   131
  6
CONTINUOUS
  0
LAYER
  5
BD
330
2
100
AcDbSymbolTableRecord
100
AcDbLayerTableRecord
  2
132
 70
     0
 62
   132
  6
CONTINUOUS
  0
LAYER
  5
BE
330
2
100
AcDbSymbolTableRecord
100
AcDbLayerTableRecord
  2
133
 70
     0
 62
   133
  6
CONTINUOUS
  0
LAYER
  5
BF
330
2
100
AcDbSymbolTableRecord
100
AcDbLayerTableRecord
  2
134
 70
     0
 62
   134
  6
CONTINUOUS
  0
LAYER
  5
C0
330
2
100
AcDbSymbolTableRecord
100
AcDbLayerTableRecord
  2
135
 70
     0
 62
   135
  6
CONTINUOUS
  0
LAYER
  5
C1
330
2
100
AcDbSymbolTableRecord
100
AcDbLayerTableRecord
  2
136
 70
     0
 62
   136
  6
CONTINUOUS
  0
LAYER
  5
C2
330
2
100
AcDbSymbolTableRecord
100
AcDbLayerTableRecord
  2
137
 70
     0
 62
   137
  6
CONTINUOUS
  0
LAYER
  5
C3
330
2
100
AcDbSymbolTableRecord
100
AcDbLayerTableRecord
  2
138
 70
     0
 62
   138
  6
CONTINUOUS
  0
LAYER
  5
C4
330
2
100
AcDbSymbolTableRecord
100
AcDbLayerTableRecord
  2
139
 70
     0
 62
   139
  6
CONTINUOUS
  0
LAYER
  5
C5
330
2
100
AcDbSymbolTableRecord
100
AcDbLayerTableRecord
  2
140
 70
     0
 62
   140
  6
CONTINUOUS
  0
LAYER
  5
C6
330
2
100
AcDbSymbolTableRecord
100
AcDbLayerTableRecord
  2
141
 70
     0
 62
   141
  6
CONTINUOUS
  0
LAYER
  5
C7
330
2
100
AcDbSymbolTableRecord
100
AcDbLayerTableRecord
  2
142
 70
     0
 62
   142
  6
CONTINUOUS
  0
LAYER
  5
C8
330
2
100
AcDbSymbolTableRecord
100
AcDbLayerTableRecord
  2
143
 70
     0
 62
   143
  6
CONTINUOUS
  0
LAYER
  5
C9
330
2
100
AcDbSymbolTableRecord
100
AcDbLayerTableRecord
  2
144
 70
     0
 62
   144
  6
CONTINUOUS
  0
LAYER
  5
CA
330
2
100
AcDbSymbolTableRecord
100
AcDbLayerTableRecord
  2
145
 70
     0
 62
   145
  6
CONTINUOUS
  0
LAYER
  5
CB
330
2
100
AcDbSymbolTableRecord
100
AcDbLayerTableRecord
  2
146
 70
     0
 62
   146
  6
CONTINUOUS
  0
LAYER
  5
CC
330
2
100
AcDbSymbolTableRecord
100
AcDbLayerTableRecord
  2
147
 70
     0
 62
   147
  6
CONTINUOUS
  0
LAYER
  5
CD
330
2
100
AcDbSymbolTableRecord
100
AcDbLayerTableRecord
  2
148
 70
     0
 62
   148
  6
CONTINUOUS
  0
LAYER
  5
CE
330
2
100
AcDbSymbolTableRecord
100
AcDbLayerTableRecord
  2
149
 70
     0
 62
   149
  6
CONTINUOUS
  0
LAYER
  5
CF
330
2
100
AcDbSymbolTableRecord
100
AcDbLayerTableRecord
  2
150
 70
     0
 62
   150
  6
CONTINUOUS
  0
LAYER
  5
D0
330
2
100
AcDbSymbolTableRecord
100
AcDbLayerTableRecord
  2
151
 70
     0
 62
   151
  6
CONTINUOUS
  0
LAYER
  5
D1
330
2
100
AcDbSymbolTableRecord
100
AcDbLayerTableRecord
  2
152
 70
     0
 62
   152
  6
CONTINUOUS
  0
LAYER
  5
D2
330
2
100
AcDbSymbolTableRecord
100
AcDbLayerTableRecord
  2
153
 70
     0
 62
   153
  6
CONTINUOUS
  0
LAYER
  5
D3
330
2
100
AcDbSymbolTableRecord
100
AcDbLayerTableRecord
  2
154
 70
     0
 62
   154
  6
CONTINUOUS
  0
LAYER
  5
D4
330
2
100
AcDbSymbolTableRecord
100
AcDbLayerTableRecord
  2
155
 70
     0
 62
   155
  6
CONTINUOUS
  0
LAYER
  5
D5
330
2
100
AcDbSymbolTableRecord
100
AcDbLayerTableRecord
  2
156
 70
     0
 62
   156
  6
CONTINUOUS
  0
LAYER
  5
D6
330
2
100
AcDbSymbolTableRecord
100
AcDbLayerTableRecord
  2
157
 70
     0
 62
   157
  6
CONTINUOUS
  0
LAYER
  5
D7
330
2
100
AcDbSymbolTableRecord
100
AcDbLayerTableRecord
  2
158
 70
     0
 62
   158
  6
CONTINUOUS
  0
LAYER
  5
D8
330
2
100
AcDbSymbolTableRecord
100
AcDbLayerTableRecord
  2
159
 70
     0
 62
   159
  6
CONTINUOUS
  0
LAYER
  5
D9
330
2
100
AcDbSymbolTableRecord
100
AcDbLayerTableRecord
  2
160
 70
     0
 62
   160
  6
CONTINUOUS
  0
LAYER
  5
DA
330
2
100
AcDbSymbolTableRecord
100
AcDbLayerTableRecord
  2
161
 70
     0
 62
   161
  6
CONTINUOUS
  0
LAYER
  5
DB
330
2
100
AcDbSymbolTableRecord
100
AcDbLayerTableRecord
  2
162
 70
     0
 62
   162
  6
CONTINUOUS
  0
LAYER
  5
DC
330
2
100
AcDbSymbolTableRecord
100
AcDbLayerTableRecord
  2
163
 70
     0
 62
   163
  6
CONTINUOUS
  0
LAYER
  5
DD
330
2
100
AcDbSymbolTableRecord
100
AcDbLayerTableRecord
  2
164
 70
     0
 62
   164
  6
CONTINUOUS
  0
LAYER
  5
DE
330
2
100
AcDbSymbolTableRecord
100
AcDbLayerTableRecord
  2
165
 70
     0
 62
   165
  6
CONTINUOUS
  0
LAYER
  5
DF
330
2
100
AcDbSymbolTableRecord
100
AcDbLayerTableRecord
  2
166
 70
     0
 62
   166
  6
CONTINUOUS
  0
LAYER
  5
E0
330
2
100
AcDbSymbolTableRecord
100
AcDbLayerTableRecord
  2
167
 70
     0
 62
   167
  6
CONTINUOUS
  0
LAYER
  5
E1
330
2
100
AcDbSymbolTableRecord
100
AcDbLayerTableRecord
  2
168
 70
     0
 62
   168
  6
CONTINUOUS
  0
LAYER
  5
E2
330
2
100
AcDbSymbolTableRecord
100
AcDbLayerTableRecord
  2
169
 70
     0
 62
   169
  6
CONTINUOUS
  0
LAYER
  5
E3
330
2
100
AcDbSymbolTableRecord
100
AcDbLayerTableRecord
  2
170
 70
     0
 62
   170
  6
CONTINUOUS
  0
LAYER
  5
E4
330
2
100
AcDbSymbolTableRecord
100
AcDbLayerTableRecord
  2
171
 70
     0
 62
   171
  6
CONTINUOUS
  0
LAYER
  5
E5
330
2
100
AcDbSymbolTableRecord
100
AcDbLayerTableRecord
  2
172
 70
     0
 62
   172
  6
CONTINUOUS
  0
LAYER
  5
E6
330
2
100
AcDbSymbolTableRecord
100
AcDbLayerTableRecord
  2
173
 70
     0
 62
   173
  6
CONTINUOUS
  0
LAYER
  5
E7
330
2
100
AcDbSymbolTableRecord
100
AcDbLayerTableRecord
  2
174
 70
     0
 62
   174
  6
CONTINUOUS
  0
LAYER
  5
E8
330
2
100
AcDbSymbolTableRecord
100
AcDbLayerTableRecord
  2
175
 70
     0
 62
   175
  6
CONTINUOUS
  0
LAYER
  5
E9
330
2
100
AcDbSymbolTableRecord
100
AcDbLayerTableRecord
  2
176
 70
     0
 62
   176
  6
CONTINUOUS
  0
LAYER
  5
EA
330
2
100
AcDbSymbolTableRecord
100
AcDbLayerTableRecord
  2
177
 70
     0
 62
   177
  6
CONTINUOUS
  0
LAYER
  5
EB
330
2
100
AcDbSymbolTableRecord
100
AcDbLayerTableRecord
  2
178
 70
     0
 62
   178
  6
CONTINUOUS
  0
LAYER
  5
EC
330
2
100
AcDbSymbolTableRecord
100
AcDbLayerTableRecord
  2
179
 70
     0
 62
   179
  6
CONTINUOUS
  0
LAYER
  5
ED
330
2
100
AcDbSymbolTableRecord
100
AcDbLayerTableRecord
  2
180
 70
     0
 62
   180
  6
CONTINUOUS
  0
LAYER
  5
EE
330
2
100
AcDbSymbolTableRecord
100
AcDbLayerTableRecord
  2
181
 70
     0
 62
   181
  6
CONTINUOUS
  0
LAYER
  5
EF
330
2
100
AcDbSymbolTableRecord
100
AcDbLayerTableRecord
  2
182
 70
     0
 62
   182
  6
CONTINUOUS
  0
LAYER
  5
F0
330
2
100
AcDbSymbolTableRecord
100
AcDbLayerTableRecord
  2
183
 70
     0
 62
   183
  6
CONTINUOUS
  0
LAYER
  5
F1
330
2
100
AcDbSymbolTableRecord
100
AcDbLayerTableRecord
  2
184
 70
     0
 62
   184
  6
CONTINUOUS
  0
LAYER
  5
F2
330
2
100
AcDbSymbolTableRecord
100
AcDbLayerTableRecord
  2
185
 70
     0
 62
   185
  6
CONTINUOUS
  0
LAYER
  5
F3
330
2
100
AcDbSymbolTableRecord
100
AcDbLayerTableRecord
  2
186
 70
     0
 62
   186
  6
CONTINUOUS
  0
LAYER
  5
F4
330
2
100
AcDbSymbolTableRecord
100
AcDbLayerTableRecord
  2
187
 70
     0
 62
   187
  6
CONTINUOUS
  0
LAYER
  5
F5
330
2
100
AcDbSymbolTableRecord
100
AcDbLayerTableRecord
  2
188
 70
     0
 62
   188
  6
CONTINUOUS
  0
LAYER
  5
F6
330
2
100
AcDbSymbolTableRecord
100
AcDbLayerTableRecord
  2
189
 70
     0
 62
   189
  6
CONTINUOUS
  0
LAYER
  5
F7
330
2
100
AcDbSymbolTableRecord
100
AcDbLayerTableRecord
  2
190
 70
     0
 62
   190
  6
CONTINUOUS
  0
LAYER
  5
F8
330
2
100
AcDbSymbolTableRecord
100
AcDbLayerTableRecord
  2
191
 70
     0
 62
   191
  6
CONTINUOUS
  0
LAYER
  5
F9
330
2
100
AcDbSymbolTableRecord
100
AcDbLayerTableRecord
  2
192
 70
     0
 62
   192
  6
CONTINUOUS
  0
LAYER
  5
FA
330
2
100
AcDbSymbolTableRecord
100
AcDbLayerTableRecord
  2
193
 70
     0
 62
   193
  6
CONTINUOUS
  0
LAYER
  5
FB
330
2
100
AcDbSymbolTableRecord
100
AcDbLayerTableRecord
  2
194
 70
     0
 62
   194
  6
CONTINUOUS
  0
LAYER
  5
FC
330
2
100
AcDbSymbolTableRecord
100
AcDbLayerTableRecord
  2
195
 70
     0
 62
   195
  6
CONTINUOUS
  0
LAYER
  5
FD
330
2
100
AcDbSymbolTableRecord
100
AcDbLayerTableRecord
  2
196
 70
     0
 62
   196
  6
CONTINUOUS
  0
LAYER
  5
FE
330
2
100
AcDbSymbolTableRecord
100
AcDbLayerTableRecord
  2
197
 70
     0
 62
   197
  6
CONTINUOUS
  0
LAYER
  5
FF
330
2
100
AcDbSymbolTableRecord
100
AcDbLayerTableRecord
  2
198
 70
     0
 62
   198
  6
CONTINUOUS
  0
LAYER
  5
100
330
2
100
AcDbSymbolTableRecord
100
AcDbLayerTableRecord
  2
199
 70
     0
 62
   199
  6
CONTINUOUS
  0
LAYER
  5
101
330
2
100
AcDbSymbolTableRecord
100
AcDbLayerTableRecord
  2
200
 70
     0
 62
   200
  6
CONTINUOUS
  0
LAYER
  5
102
330
2
100
AcDbSymbolTableRecord
100
AcDbLayerTableRecord
  2
201
 70
     0
 62
   201
  6
CONTINUOUS
  0
LAYER
  5
103
330
2
100
AcDbSymbolTableRecord
100
AcDbLayerTableRecord
  2
202
 70
     0
 62
   202
  6
CONTINUOUS
  0
LAYER
  5
104
330
2
100
AcDbSymbolTableRecord
100
AcDbLayerTableRecord
  2
203
 70
     0
 62
   203
  6
CONTINUOUS
  0
LAYER
  5
105
330
2
100
AcDbSymbolTableRecord
100
AcDbLayerTableRecord
  2
204
 70
     0
 62
   204
  6
CONTINUOUS
  0
LAYER
  5
106
330
2
100
AcDbSymbolTableRecord
100
AcDbLayerTableRecord
  2
205
 70
     0
 62
   205
  6
CONTINUOUS
  0
LAYER
  5
107
330
2
100
AcDbSymbolTableRecord
100
AcDbLayerTableRecord
  2
206
 70
     0
 62
   206
  6
CONTINUOUS
  0
LAYER
  5
108
330
2
100
AcDbSymbolTableRecord
100
AcDbLayerTableRecord
  2
207
 70
     0
 62
   207
  6
CONTINUOUS
  0
LAYER
  5
109
330
2
100
AcDbSymbolTableRecord
100
AcDbLayerTableRecord
  2
208
 70
     0
 62
   208
  6
CONTINUOUS
  0
LAYER
  5
10A
330
2
100
AcDbSymbolTableRecord
100
AcDbLayerTableRecord
  2
209
 70
     0
 62
   209
  6
CONTINUOUS
  0
LAYER
  5
10B
330
2
100
AcDbSymbolTableRecord
100
AcDbLayerTableRecord
  2
210
 70
     0
 62
   210
  6
CONTINUOUS
  0
LAYER
  5
10C
330
2
100
AcDbSymbolTableRecord
100
AcDbLayerTableRecord
  2
211
 70
     0
 62
   211
  6
CONTINUOUS
  0
LAYER
  5
10D
330
2
100
AcDbSymbolTableRecord
100
AcDbLayerTableRecord
  2
212
 70
     0
 62
   212
  6
CONTINUOUS
  0
LAYER
  5
10E
330
2
100
AcDbSymbolTableRecord
100
AcDbLayerTableRecord
  2
213
 70
     0
 62
   213
  6
CONTINUOUS
  0
LAYER
  5
10F
330
2
100
AcDbSymbolTableRecord
100
AcDbLayerTableRecord
  2
214
 70
     0
 62
   214
  6
CONTINUOUS
  0
LAYER
  5
110
330
2
100
AcDbSymbolTableRecord
100
AcDbLayerTableRecord
  2
215
 70
     0
 62
   215
  6
CONTINUOUS
  0
LAYER
  5
111
330
2
100
AcDbSymbolTableRecord
100
AcDbLayerTableRecord
  2
216
 70
     0
 62
   216
  6
CONTINUOUS
  0
LAYER
  5
112
330
2
100
AcDbSymbolTableRecord
100
AcDbLayerTableRecord
  2
217
 70
     0
 62
   217
  6
CONTINUOUS
  0
LAYER
  5
113
330
2
100
AcDbSymbolTableRecord
100
AcDbLayerTableRecord
  2
218
 70
     0
 62
   218
  6
CONTINUOUS
  0
LAYER
  5
114
330
2
100
AcDbSymbolTableRecord
100
AcDbLayerTableRecord
  2
219
 70
     0
 62
   219
  6
CONTINUOUS
  0
LAYER
  5
115
330
2
100
AcDbSymbolTableRecord
100
AcDbLayerTableRecord
  2
220
 70
     0
 62
   220
  6
CONTINUOUS
  0
LAYER
  5
116
330
2
100
AcDbSymbolTableRecord
100
AcDbLayerTableRecord
  2
221
 70
     0
 62
   221
  6
CONTINUOUS
  0
LAYER
  5
117
330
2
100
AcDbSymbolTableRecord
100
AcDbLayerTableRecord
  2
222
 70
     0
 62
   222
  6
CONTINUOUS
  0
LAYER
  5
118
330
2
100
AcDbSymbolTableRecord
100
AcDbLayerTableRecord
  2
223
 70
     0
 62
   223
  6
CONTINUOUS
  0
LAYER
  5
119
330
2
100
AcDbSymbolTableRecord
100
AcDbLayerTableRecord
  2
224
 70
     0
 62
   224
  6
CONTINUOUS
  0
LAYER
  5
11A
330
2
100
AcDbSymbolTableRecord
100
AcDbLayerTableRecord
  2
225
 70
     0
 62
   225
  6
CONTINUOUS
  0
LAYER
  5
11B
330
2
100
AcDbSymbolTableRecord
100
AcDbLayerTableRecord
  2
226
 70
     0
 62
   226
  6
CONTINUOUS
  0
LAYER
  5
11C
330
2
100
AcDbSymbolTableRecord
100
AcDbLayerTableRecord
  2
227
 70
     0
 62
   227
  6
CONTINUOUS
  0
LAYER
  5
11D
330
2
100
AcDbSymbolTableRecord
100
AcDbLayerTableRecord
  2
228
 70
     0
 62
   228
  6
CONTINUOUS
  0
LAYER
  5
11E
330
2
100
AcDbSymbolTableRecord
100
AcDbLayerTableRecord
  2
229
 70
     0
 62
   229
  6
CONTINUOUS
  0
LAYER
  5
11F
330
2
100
AcDbSymbolTableRecord
100
AcDbLayerTableRecord
  2
230
 70
     0
 62
   230
  6
CONTINUOUS
  0
LAYER
  5
120
330
2
100
AcDbSymbolTableRecord
100
AcDbLayerTableRecord
  2
231
 70
     0
 62
   231
  6
CONTINUOUS
  0
LAYER
  5
121
330
2
100
AcDbSymbolTableRecord
100
AcDbLayerTableRecord
  2
232
 70
     0
 62
   232
  6
CONTINUOUS
  0
LAYER
  5
122
330
2
100
AcDbSymbolTableRecord
100
AcDbLayerTableRecord
  2
233
 70
     0
 62
   233
  6
CONTINUOUS
  0
LAYER
  5
123
330
2
100
AcDbSymbolTableRecord
100
AcDbLayerTableRecord
  2
234
 70
     0
 62
   234
  6
CONTINUOUS
  0
LAYER
  5
124
330
2
100
AcDbSymbolTableRecord
100
AcDbLayerTableRecord
  2
235
 70
     0
 62
   235
  6
CONTINUOUS
  0
LAYER
  5
125
330
2
100
AcDbSymbolTableRecord
100
AcDbLayerTableRecord
  2
236
 70
     0
 62
   236
  6
CONTINUOUS
  0
LAYER
  5
126
330
2
100
AcDbSymbolTableRecord
100
AcDbLayerTableRecord
  2
237
 70
     0
 62
   237
  6
CONTINUOUS
  0
LAYER
  5
127
330
2
100
AcDbSymbolTableRecord
100
AcDbLayerTableRecord
  2
238
 70
     0
 62
   238
  6
CONTINUOUS
  0
LAYER
  5
128
330
2
100
AcDbSymbolTableRecord
100
AcDbLayerTableRecord
  2
239
 70
     0
 62
   239
  6
CONTINUOUS
  0
LAYER
  5
129
330
2
100
AcDbSymbolTableRecord
100
AcDbLayerTableRecord
  2
240
 70
     0
 62
   240
  6
CONTINUOUS
  0
LAYER
  5
12A
330
2
100
AcDbSymbolTableRecord
100
AcDbLayerTableRecord
  2
241
 70
     0
 62
   241
  6
CONTINUOUS
  0
LAYER
  5
12B
330
2
100
AcDbSymbolTableRecord
100
AcDbLayerTableRecord
  2
242
 70
     0
 62
   242
  6
CONTINUOUS
  0
LAYER
  5
12C
330
2
100
AcDbSymbolTableRecord
100
AcDbLayerTableRecord
  2
243
 70
     0
 62
   243
  6
CONTINUOUS
  0
LAYER
  5
12D
330
2
100
AcDbSymbolTableRecord
100
AcDbLayerTableRecord
  2
244
 70
     0
 62
   244
  6
CONTINUOUS
  0
LAYER
  5
12E
330
2
100
AcDbSymbolTableRecord
100
AcDbLayerTableRecord
  2
245
 70
     0
 62
   245
  6
CONTINUOUS
  0
LAYER
  5
12F
330
2
100
AcDbSymbolTableRecord
100
AcDbLayerTableRecord
  2
246
 70
     0
 62
   246
  6
CONTINUOUS
  0
LAYER
  5
130
330
2
100
AcDbSymbolTableRecord
100
AcDbLayerTableRecord
  2
247
 70
     0
 62
   247
  6
CONTINUOUS
  0
LAYER
  5
131
330
2
100
AcDbSymbolTableRecord
100
AcDbLayerTableRecord
  2
248
 70
     0
 62
   248
  6
CONTINUOUS
  0
LAYER
  5
132
330
2
100
AcDbSymbolTableRecord
100
AcDbLayerTableRecord
  2
249
 70
     0
 62
   249
  6
CONTINUOUS
  0
LAYER
  5
133
330
2
100
AcDbSymbolTableRecord
100
AcDbLayerTableRecord
  2
250
 70
     0
 62
   250
  6
CONTINUOUS
  0
LAYER
  5
134
330
2
100
AcDbSymbolTableRecord
100
AcDbLayerTableRecord
  2
251
 70
     0
 62
   251
  6
CONTINUOUS
  0
LAYER
  5
135
330
2
100
AcDbSymbolTableRecord
100
AcDbLayerTableRecord
  2
252
 70
     0
 62
   252
  6
CONTINUOUS
  0
LAYER
  5
136
330
2
100
AcDbSymbolTableRecord
100
AcDbLayerTableRecord
  2
253
 70
     0
 62
   253
  6
CONTINUOUS
  0
LAYER
  5
137
330
2
100
AcDbSymbolTableRecord
100
AcDbLayerTableRecord
  2
254
 70
     0
 62
   254
  6
CONTINUOUS
  0
LAYER
  5
138
330
2
100
AcDbSymbolTableRecord
100
AcDbLayerTableRecord
  2
255
 70
     0
 62
   255
  6
CONTINUOUS
  0
ENDTAB
  0
TABLE
  2
STYLE
  5
3
330
0
100
AcDbSymbolTable
 70
     1
  0
STYLE
  5
11
330
3
100
AcDbSymbolTableRecord
100
AcDbTextStyleTableRecord
  2
STANDARD
 70
     0
 40
0.0
 41
1.0
 50
0.0
 71
     0
 42
0.2
  3
monotxt
  4

  0
ENDTAB
  0
TABLE
  2
VIEW
  5
6
330
0
100
AcDbSymbolTable
 70
     0
  0
ENDTAB
  0
TABLE
  2
UCS
  5
7
330
0
100
AcDbSymbolTable
 70
     0
  0
ENDTAB
  0
TABLE
  2
APPID
  5
9
330
0
100
AcDbSymbolTable
 70
     1
  0
APPID
  5
12
330
9
100
AcDbSymbolTableRecord
100
AcDbRegAppTableRecord
  2
ACAD
 70
     0
  0
ENDTAB
  0
TABLE
  2
DIMSTYLE
  5
A
330
0
100
AcDbSymbolTable
 70
     1
  0
DIMSTYLE
105
2672
330
A
100
AcDbSymbolTableRecord
100
AcDbDimStyleTableRecord
  2
STANDARD
 70
     0
  3

  4

  5

  6

  7

 40
1.0
 41
0.18
 42
0.0625
 43
0.38
 44
0.18
 45
0.0
 46
0.0
 47
0.0
 48
0.0
140
0.18
141
0.09
142
0.0
143
25.4
144
1.0
145
0.0
146
1.0
147
0.09
 71
     0
 72
     0
 73
     1
 74
     1
 75
     0
 76
     0
 77
     0
 78
     0
170
     0
171
     2
172
     0
173
     0
174
     0
175
     0
176
     0
177
     0
178
     0
270
     2
271
     4
272
     4
273
     2
274
     2
340
11
275
     0
280
     0
281
     0
282
     0
283
     1
284
     0
285
     0
286
     0
287
     3
288
     0
  0
ENDTAB
  0
TABLE
  2
BLOCK_RECORD
  5
1
330
0
100
AcDbSymbolTable
 70
     0
  0
BLOCK_RECORD
  5
1E
102
{ACAD_XDICTIONARY
360
26CD
102
}
330
1
100
AcDbSymbolTableRecord
100
AcDbBlockTableRecord
  2
*MODEL_SPACE
  0
BLOCK_RECORD
  5
1A
102
{ACAD_XDICTIONARY
360
26CB
102
}
330
1
100
AcDbSymbolTableRecord
100
AcDbBlockTableRecord
  2
*PAPER_SPACE
  0
ENDTAB
  0
ENDSEC
  0
SECTION
  2
BLOCKS
  0
BLOCK
  5
13B
330
1E
100
AcDbEntity
  8
0
100
AcDbBlockBegin
  2
*MODEL_SPACE
 70
     0
 10
0.0
 20
0.0
 30
0.0
  3
*MODEL_SPACE
  1

  0
ENDBLK
  5
13C
330
1E
100
AcDbEntity
  8
0
100
AcDbBlockEnd
  0
BLOCK
  5
139
330
1A
100
AcDbEntity
 67
     1
  8
0
100
AcDbBlockBegin
  2
*PAPER_SPACE
 70
     0
 10
0.0
 20
0.0
 30
0.0
  3
*PAPER_SPACE
  1

  0
ENDBLK
  5
13A
330
1A
100
AcDbEntity
 67
     1
  8
0
100
AcDbBlockEnd
  0
ENDSEC
  0
SECTION
  2
ENTITIES
  0
LWPOLYLINE
  5
E3B
330
1E
100
AcDbEntity
  8
7
100
AcDbPolyline
 90
        3
 70
     0
 43
0.0098425196850394
 10
3.580188174401054
 20
2.265627998723823
 10
3.591014946054597
 20
2.275470518408862
 10
3.591014946054597
 20
2.15243902234587
  0
LINE
  5
E40
330
1E
100
AcDbEntity
  8
7
100
AcDbLine
 10
3.575266914558534
 20
2.15243902234587
 30
0.0
 11
3.60676297755066
 21
2.15243902234587
 31
0.0
  0
LWPOLYLINE
  5
E41
330
1E
100
AcDbEntity
  8
7
100
AcDbPolyline
 90
        8
 70
     0
 43
0.0098425196850394
 10
3.677629119282944
 20
2.177045321558468
 10
3.701251166527038
 20
2.15243902234587
 10
3.751448016920739
 20
2.15243902234587
 10
3.776054316133337
 20
2.177045321558468
 10
3.776054316133337
 20
2.250864219196263
 10
3.751448016920739
 20
2.275470518408862
 10
3.701251166527038
 20
2.275470518408862
 10
3.677629119282944
 20
2.250864219196263
  0
LWPOLYLINE
  5
E4B
330
1E
100
AcDbEntity
  8
7
100
AcDbPolyline
 90
        5
 70
     0
 43
0.0098425196850394
 10
3.677629119282944
 20
2.250864219196263
 10
3.67664486731444
 20
2.226257919983665
 10
3.701251166527038
 20
2.201651620771067
 10
3.751448016920739
 20
2.201651620771067
 10
3.776054316133337
 20
2.226257919983665
  0
LWPOLYLINE
  5
E52
330
1E
100
AcDbEntity
  8
7
100
AcDbPolyline
 90
        4
 70
     0
 43
0.0098425196850394
 10
3.838062190149085
 20
2.239053195574216
 10
3.825266914558534
 20
2.275470518408862
 10
3.849873213771132
 20
2.275470518408862
 10
3.838062190149085
 20
2.239053195574216
  0
LWPOLYLINE
  5
E58
330
1E
100
AcDbEntity
  8
7
100
AcDbPolyline
 90
        4
 70
     0
 43
0.0098425196850394
 10
3.888259040542786
 20
2.239053195574216
 10
3.874479512983731
 20
2.275470518408862
 10
3.900070064164833
 20
2.275470518408862
 10
3.888259040542786
 20
2.239053195574216
  0
LWPOLYLINE
  5
E5E
330
1E
100
AcDbEntity
  8
7
100
AcDbPolyline
 90
        7
 70
     0
 43
0.0098425196850394
 10
4.086093686212077
 20
2.15243902234587
 10
4.086093686212077
 20
2.275470518408862
 10
4.159912583849872
 20
2.275470518408862
 10
4.185503135030975
 20
2.264643746755318
 10
4.185503135030975
 20
2.226257919983665
 10
4.159912583849872
 20
2.214446896361618
 10
4.086093686212077
 20
2.214446896361618
  0
LINE
  5
E67
330
1E
100
AcDbEntity
  8
7
100
AcDbLine
 10
4.185503135030975
 20
2.15243902234587
 30
0.0
 11
4.159912583849872
 21
2.214446896361618
 31
0.0
  0
LWPOLYLINE
  5
E68
330
1E
100
AcDbEntity
  8
7
100
AcDbPolyline
 90
        3
 70
     0
 43
0.0098425196850394
 10
4.221920457865619
 20
2.15243902234587
 10
4.27211730825932
 20
2.275470518408862
 10
4.321329906684518
 20
2.15243902234587
  0
LINE
  5
E6D
330
1E
100
AcDbEntity
  8
7
100
AcDbLine
 10
4.247511009046721
 20
2.214446896361618
 30
0.0
 11
4.296723607471919
 21
2.214446896361618
 31
0.0
  0
LWPOLYLINE
  5
E6E
330
1E
100
AcDbEntity
  8
7
100
AcDbPolyline
 90
        8
 70
     0
 43
0.0098425196850394
 10
4.456172426369557
 20
2.177045321558468
 10
4.431566127156958
 20
2.15243902234587
 10
4.383337780700266
 20
2.15243902234587
 10
4.358731481487668
 20
2.177045321558468
 10
4.358731481487668
 20
2.250864219196263
 10
4.383337780700266
 20
2.275470518408862
 10
4.432550379125462
 20
2.275470518408862
 10
4.45715667833806
 20
2.250864219196263
  0
LINE
  5
E78
330
1E
100
AcDbEntity
  8
7
100
AcDbLine
 10
4.49455825314121
 20
2.15243902234587
 30
0.0
 11
4.49455825314121
 21
2.275470518408862
 31
0.0
  0
LINE
  5
E79
330
1E
100
AcDbEntity
  8
7
100
AcDbLine
 10
4.580188174401053
 20
2.275470518408862
 30
0.0
 11
4.49455825314121
 21
2.189840597149019
 31
0.0
  0
LINE
  5
E7A
330
1E
100
AcDbEntity
  8
7
100
AcDbLine
 10
4.580188174401053
 20
2.15243902234587
 30
0.0
 11
4.530975575975856
 21
2.226257919983665
 31
0.0
  0
LWPOLYLINE
  5
E7B
330
1E
100
AcDbEntity
  8
7
100
AcDbPolyline
 90
        5
 70
     0
 43
0.0098425196850394
 10
4.767196048416801
 20
2.15243902234587
 10
4.767196048416801
 20
2.275470518408862
 10
4.816408646841997
 20
2.15243902234587
 10
4.865621245267194
 20
2.275470518408862
 10
4.865621245267194
 20
2.15243902234587
  0
LWPOLYLINE
  5
E82
330
1E
100
AcDbEntity
  8
7
100
AcDbPolyline
 90
        3
 70
     0
 43
0.0098425196850394
 10
4.927629119282942
 20
2.15243902234587
 10
4.977825969676644
 20
2.15243902234587
 10
5.002432268889242
 20
2.177045321558468
  0
LWPOLYLINE
  5
E87
330
1E
100
AcDbEntity
  8
7
100
AcDbPolyline
 90
        7
 70
     0
 43
0.0098425196850394
 10
5.002432268889242
 20
2.177045321558468
 10
5.002432268889242
 20
2.250864219196263
 10
4.977825969676644
 20
2.275470518408862
 10
4.927629119282942
 20
2.275470518408862
 10
4.90203856810184
 20
2.250864219196263
 10
4.90203856810184
 20
2.177045321558468
 10
4.927629119282942
 20
2.15243902234587
  0
LWPOLYLINE
  5
E90
330
1E
100
AcDbEntity
  8
7
100
AcDbPolyline
 90
        6
 70
     0
 43
0.0098425196850394
 10
5.039833843692392
 20
2.275470518408862
 10
5.039833843692392
 20
2.177045321558468
 10
5.062471638967982
 20
2.15243902234587
 10
5.112668489361682
 20
2.15243902234587
 10
5.138259040542784
 20
2.177045321558468
 10
5.138259040542784
 20
2.275470518408862
  0
LWPOLYLINE
  5
E98
330
1E
100
AcDbEntity
  8
7
100
AcDbPolyline
 90
        4
 70
     0
 43
0.0098425196850394
 10
5.175660615345934
 20
2.15243902234587
 10
5.175660615345934
 20
2.275470518408862
 10
5.275070064164832
 20
2.15243902234587
 10
5.275070064164832
 20
2.275470518408862
  0
LINE
  5
E9E
330
1E
100
AcDbEntity
  8
7
100
AcDbLine
 10
5.361684237393179
 20
2.275470518408862
 30
0.0
 11
5.361684237393179
 21
2.15243902234587
 31
0.0
  0
LINE
  5
E9F
330
1E
100
AcDbEntity
  8
7
100
AcDbLine
 10
5.410896835818375
 20
2.275470518408862
 30
0.0
 11
5.311487386999479
 21
2.275470518408862
 31
0.0
  0
LWPOLYLINE
  5
EA0
330
1E
100
AcDbEntity
  8
7
100
AcDbPolyline
 90
        4
 70
     0
 43
0.0098425196850394
 10
5.583140930306564
 20
2.164250045967917
 10
5.607747229519162
 20
2.15243902234587
 10
5.658928331881368
 20
2.15243902234587
 10
5.683534631093966
 20
2.165234297936421
  0
LWPOLYLINE
  5
EA6
330
1E
100
AcDbEntity
  8
7
100
AcDbPolyline
 90
        9
 70
     0
 43
0.0098425196850394
 10
5.683534631093966
 20
2.165234297936421
 10
5.683534631093966
 20
2.201651620771067
 10
5.658928331881368
 20
2.214446896361618
 10
5.608731481487668
 20
2.214446896361618
 10
5.583140930306564
 20
2.226257919983665
 10
5.583140930306564
 20
2.264643746755318
 10
5.608731481487668
 20
2.275470518408862
 10
5.658928331881368
 20
2.275470518408862
 10
5.683534631093966
 20
2.264643746755318
  0
LINE
  5
EB1
330
1E
100
AcDbEntity
  8
7
100
AcDbLine
 10
5.720936205897116
 20
2.15243902234587
 30
0.0
 11
5.720936205897116
 21
2.275470518408862
 31
0.0
  0
LINE
  5
EB2
330
1E
100
AcDbEntity
  8
7
100
AcDbLine
 10
5.81936140274751
 20
2.214446896361618
 30
0.0
 11
5.720936205897116
 21
2.214446896361618
 31
0.0
  0
LINE
  5
EB3
330
1E
100
AcDbEntity
  8
7
100
AcDbLine
 10
5.81936140274751
 20
2.15243902234587
 30
0.0
 11
5.81936140274751
 21
2.275470518408862
 31
0.0
  0
LWPOLYLINE
  5
EB4
330
1E
100
AcDbEntity
  8
7
100
AcDbPolyline
 90
        4
 70
     0
 43
0.0098425196850394
 10
5.955188174401053
 20
2.15243902234587
 10
5.856762977550658
 20
2.15243902234587
 10
5.856762977550658
 20
2.275470518408862
 10
5.955188174401053
 20
2.275470518408862
  0
LINE
  5
EBA
330
1E
100
AcDbEntity
  8
7
100
AcDbLine
 10
5.930581875188455
 20
2.214446896361618
 30
0.0
 11
5.856762977550658
 21
2.214446896361618
 31
0.0
  0
LWPOLYLINE
  5
EBB
330
1E
100
AcDbEntity
  8
7
100
AcDbPolyline
 90
        3
 70
     0
 43
0.0098425196850394
 10
5.992589749204203
 20
2.275470518408862
 10
5.992589749204203
 20
2.15243902234587
 10
6.091999198023099
 20
2.15243902234587
  0
LWPOLYLINE
  5
EC0
330
1E
100
AcDbEntity
  8
7
100
AcDbPolyline
 90
        3
 70
     0
 43
0.0098425196850394
 10
6.129400772826249
 20
2.15243902234587
 10
6.129400772826249
 20
2.275470518408862
 10
6.227825969676644
 20
2.275470518408862
  0
LINE
  5
EC5
330
1E
100
AcDbEntity
  8
7
100
AcDbLine
 10
6.190424394873494
 20
2.226257919983665
 30
0.0
 11
6.129400772826249
 21
2.226257919983665
 31
0.0
  0
LWPOLYLINE
  5
EC6
330
1E
100
AcDbEntity
  8
7
100
AcDbPolyline
 90
        4
 70
     0
 43
0.0098425196850394
 10
3.126448016920739
 20
1.964446896361618
 10
3.112668489361683
 20
1.989053195574216
 10
3.112668489361683
 20
2.063856345180515
 10
3.126448016920739
 20
2.088462644393114
  0
LWPOLYLINE
  5
ECC
330
1E
100
AcDbEntity
  8
7
100
AcDbPolyline
 90
        4
 70
     0
 43
0.0098425196850394
 10
3.19928266259003
 20
1.976257919983665
 10
3.224873213771132
 20
1.964446896361618
 10
3.275070064164833
 20
1.964446896361618
 10
3.299676363377431
 20
1.978226423920673
  0
LWPOLYLINE
  5
ED2
330
1E
100
AcDbEntity
  8
7
100
AcDbPolyline
 90
        9
 70
     0
 43
0.0098425196850394
 10
3.299676363377431
 20
1.978226423920673
 10
3.299676363377431
 20
2.014643746755318
 10
3.275070064164833
 20
2.02743902234587
 10
3.225857465739636
 20
2.02743902234587
 10
3.19928266259003
 20
2.039250045967917
 10
3.19928266259003
 20
2.076651620771067
 10
3.225857465739636
 20
2.088462644393114
 10
3.275070064164833
 20
2.088462644393114
 10
3.299676363377431
 20
2.076651620771067
  0
LWPOLYLINE
  5
EDD
330
1E
100
AcDbEntity
  8
7
100
AcDbPolyline
 90
        6
 70
     0
 43
0.0098425196850394
 10
3.337077938180581
 20
1.964446896361618
 10
3.337077938180581
 20
2.088462644393114
 10
3.411881087786881
 20
2.088462644393114
 10
3.436487386999479
 20
2.076651620771067
 10
3.436487386999479
 20
2.039250045967917
 10
3.411881087786881
 20
2.02743902234587
  0
LINE
  5
EE5
330
1E
100
AcDbEntity
  8
7
100
AcDbLine
 10
3.411881087786881
 20
2.02743902234587
 30
0.0
 11
3.337077938180581
 21
2.02743902234587
 31
0.0
  0
LINE
  5
EE6
330
1E
100
AcDbEntity
  8
7
100
AcDbLine
 10
3.436487386999479
 20
1.964446896361618
 30
0.0
 11
3.411881087786881
 21
2.02743902234587
 31
0.0
  0
LWPOLYLINE
  5
EE7
330
1E
100
AcDbEntity
  8
7
100
AcDbPolyline
 90
        5
 70
     0
 43
0.0098425196850394
 10
3.472904709834124
 20
1.964446896361618
 10
3.472904709834124
 20
2.088462644393114
 10
3.523101560227825
 20
1.964446896361618
 10
3.572314158653022
 20
2.088462644393114
 10
3.572314158653022
 20
1.964446896361618
  0
LWPOLYLINE
  5
EEE
330
1E
100
AcDbEntity
  8
7
100
AcDbPolyline
 90
        3
 70
     0
 43
0.0098425196850394
 10
3.64908581219633
 20
2.077635872739571
 10
3.658928331881369
 20
2.088462644393114
 10
3.658928331881369
 20
1.964446896361618
  0
LINE
  5
EF3
330
1E
100
AcDbEntity
  8
7
100
AcDbLine
 10
3.643180300385306
 20
1.964446896361618
 30
0.0
 11
3.674676363377431
 21
1.964446896361618
 31
0.0
  0
LWPOLYLINE
  5
EF4
330
1E
100
AcDbEntity
  8
7
100
AcDbPolyline
 90
       12
 70
     0
 43
0.0098425196850394
 10
3.745542505109715
 20
1.989053195574216
 10
3.769164552353809
 20
1.964446896361618
 10
3.820345654716014
 20
1.964446896361618
 10
3.844951953928613
 20
1.989053195574216
 10
3.844951953928613
 20
2.063856345180515
 10
3.820345654716014
 20
2.088462644393114
 10
3.769164552353809
 20
2.088462644393114
 10
3.745542505109715
 20
2.063856345180515
 10
3.744558253141211
 20
2.039250045967917
 10
3.769164552353809
 20
2.014643746755318
 10
3.820345654716014
 20
2.014643746755318
 10
3.844951953928613
 20
2.039250045967917
  0
LWPOLYLINE
  5
F02
330
1E
100
AcDbEntity
  8
7
100
AcDbPolyline
 90
        3
 70
     0
 43
0.0098425196850394
 10
3.882353528731762
 20
1.964446896361618
 10
3.882353528731762
 20
2.088462644393114
 10
3.980778725582156
 20
2.088462644393114
  0
LINE
  5
F07
330
1E
100
AcDbEntity
  8
7
100
AcDbLine
 10
3.943377150779006
 20
2.039250045967917
 30
0.0
 11
3.882353528731762
 21
2.039250045967917
 31
0.0
  0
LWPOLYLINE
  5
F08
330
1E
100
AcDbEntity
  8
7
100
AcDbPolyline
 90
        5
 70
     0
 43
0.0098425196850394
 10
4.018180300385306
 20
1.964446896361618
 10
4.018180300385306
 20
2.088462644393114
 10
4.067392898810503
 20
1.964446896361618
 10
4.117589749204203
 20
2.088462644393114
 10
4.117589749204203
 20
1.964446896361618
  0
LWPOLYLINE
  5
F0F
330
1E
100
AcDbEntity
  8
7
100
AcDbPolyline
 90
        3
 70
     0
 43
0.0098425196850394
 10
4.193377150779006
 20
2.077635872739571
 10
4.204203922432549
 20
2.088462644393114
 10
4.204203922432549
 20
1.964446896361618
  0
LINE
  5
F14
330
1E
100
AcDbEntity
  8
7
100
AcDbLine
 10
4.188455890936486
 20
1.964446896361618
 30
0.0
 11
4.219951953928612
 21
1.964446896361618
 31
0.0
  0
LWPOLYLINE
  5
F15
330
1E
100
AcDbEntity
  8
7
100
AcDbPolyline
 90
        4
 70
     0
 43
0.0098425196850394
 10
4.327235418495542
 20
1.964446896361618
 10
4.339046442117588
 20
1.989053195574216
 10
4.340030694086092
 20
2.063856345180515
 10
4.327235418495542
 20
2.088462644393114
  0
LWPOLYLINE
  5
1BB5
330
1E
100
AcDbEntity
  8
7
100
AcDbPolyline
 90
        4
 70
     0
 43
0.0098425196850394
 10
2.099409448818897
 20
4.436023622047244
 10
2.054133858267716
 20
4.436023622047244
 10
2.054133858267716
 20
4.266732283464566
 10
2.099409448818897
 20
4.266732283464566
  0
LWPOLYLINE
  5
1BBB
330
1E
100
AcDbEntity
  8
7
100
AcDbPolyline
 90
        4
 70
     0
 43
0.0098425196850394
 10
2.569881889763779
 20
4.266732283464566
 10
2.614173228346456
 20
4.266732283464566
 10
2.614173228346456
 20
4.436023622047244
 10
2.569881889763779
 20
4.436023622047244
  0
LINE
  5
1BC1
330
1E
100
AcDbEntity
  8
3
100
AcDbLine
 10
1.187992125984251
 20
4.256889763779527
 30
0.0
 11
1.187992125984251
 21
4.695866141732283
 31
0.0
  0
LINE
  5
1BC2
330
1E
100
AcDbEntity
  8
3
100
AcDbLine
 10
3.481299212598425
 20
4.256889763779527
 30
0.0
 11
3.481299212598425
 21
4.695866141732283
 31
0.0
  0
LINE
  5
1BC3
330
1E
100
AcDbEntity
  8
3
100
AcDbLine
 10
1.187992125984251
 20
4.570866141732283
 30
0.0
 11
1.992125984251968
 21
4.570866141732283
 31
0.0
  0
LINE
  5
1BC4
330
1E
100
AcDbEntity
  8
3
100
AcDbLine
 10
3.481299212598425
 20
4.570866141732283
 30
0.0
 11
2.598425196850393
 21
4.570866141732283
 31
0.0
  0
LWPOLYLINE
  5
1BC5
330
1E
100
AcDbEntity
  8
7
100
AcDbPolyline
 90
        3
 70
     0
 43
0.0098425196850394
 10
2.09251968503937
 20
4.607283464566929
 10
2.099409448818897
 20
4.614173228346456
 10
2.099409448818897
 20
4.525590551181102
  0
LINE
  5
1BCA
330
1E
100
AcDbEntity
  8
7
100
AcDbLine
 10
2.088582677165354
 20
4.525590551181102
 30
0.0
 11
2.111220472440944
 21
4.525590551181102
 31
0.0
  0
LWPOLYLINE
  5
1BCB
330
1E
100
AcDbEntity
  8
7
100
AcDbPolyline
 90
       13
 70
     0
 43
0.0098425196850394
 10
2.179133858267716
 20
4.570866141732283
 10
2.162401574803149
 20
4.578740157480314
 10
2.162401574803149
 20
4.606299212598425
 10
2.179133858267716
 20
4.614173228346456
 10
2.215551181102362
 20
4.614173228346456
 10
2.233267716535433
 20
4.606299212598425
 10
2.233267716535433
 20
4.578740157480314
 10
2.215551181102362
 20
4.570866141732283
 10
2.179133858267716
 20
4.570866141732283
 10
2.161417322834645
 20
4.561023622047244
 10
2.161417322834645
 20
4.535433070866141
 10
2.179133858267716
 20
4.525590551181102
 10
2.215551181102362
 20
4.525590551181102
  0
LWPOLYLINE
  5
1BDA
330
1E
100
AcDbEntity
  8
7
100
AcDbPolyline
 90
        4
 70
     0
 43
0.0098425196850394
 10
2.215551181102362
 20
4.525590551181102
 10
2.233267716535433
 20
4.534448818897637
 10
2.233267716535433
 20
4.561023622047244
 10
2.215551181102362
 20
4.570866141732283
  0
LWPOLYLINE
  5
1BE0
330
1E
100
AcDbEntity
  8
7
100
AcDbPolyline
 90
        5
 70
     0
 43
0.0098425196850394
 10
2.286417322834645
 20
4.525590551181102
 10
2.304133858267716
 20
4.525590551181102
 10
2.304133858267716
 20
4.543307086614173
 10
2.286417322834645
 20
4.543307086614173
 10
2.286417322834645
 20
4.525590551181102
  0
LWPOLYLINE
  5
1BE7
330
1E
100
AcDbEntity
  8
7
100
AcDbPolyline
 90
        7
 70
     0
 43
0.0098425196850394
 10
2.358267716535433
 20
4.534448818897637
 10
2.375
 20
4.525590551181102
 10
2.411417322834645
 20
4.525590551181102
 10
2.429133858267716
 20
4.534448818897637
 10
2.429133858267716
 20
4.561023622047244
 10
2.411417322834645
 20
4.570866141732283
 10
2.383858267716535
 20
4.570866141732283
  0
LWPOLYLINE
  5
1BF0
330
1E
100
AcDbEntity
  8
7
100
AcDbPolyline
 90
        6
 70
     0
 43
0.0098425196850394
 10
2.411417322834645
 20
4.570866141732283
 10
2.429133858267716
 20
4.578740157480314
 10
2.429133858267716
 20
4.606299212598425
 10
2.411417322834645
 20
4.614173228346456
 10
2.375
 20
4.614173228346456
 10
2.357283464566929
 20
4.606299212598425
  0
LWPOLYLINE
  5
1BF8
330
1E
100
AcDbEntity
  8
7
100
AcDbPolyline
 90
        3
 70
     0
 43
0.0098425196850394
 10
2.484251968503937
 20
4.607283464566929
 10
2.492125984251968
 20
4.614173228346456
 10
2.492125984251968
 20
4.525590551181102
  0
LINE
  5
1BFD
330
1E
100
AcDbEntity
  8
7
100
AcDbLine
 10
2.480314960629921
 20
4.525590551181102
 30
0.0
 11
2.502952755905512
 21
4.525590551181102
 31
0.0
  0
LWPOLYLINE
  5
1BFE
330
1E
100
AcDbEntity
  8
7
100
AcDbPolyline
 90
        3
 70
     0
 43
0.0098425196850394
 10
2.174212598425196
 20
4.341535433070866
 10
2.103346456692913
 20
4.341535433070866
 10
2.156496062992125
 20
4.395669291338582
  0
LINE
  5
1C03
330
1E
100
AcDbEntity
  8
7
100
AcDbLine
 10
2.156496062992125
 20
4.395669291338582
 30
0.0
 11
2.156496062992125
 21
4.306102362204724
 31
0.0
  0
LWPOLYLINE
  5
1C04
330
1E
100
AcDbEntity
  8
7
100
AcDbPolyline
 90
       12
 70
     0
 43
0.0098425196850394
 10
2.201771653543307
 20
4.341535433070866
 10
2.218503937007874
 20
4.359251968503937
 10
2.254921259842519
 20
4.359251968503937
 10
2.27263779527559
 20
4.341535433070866
 10
2.27263779527559
 20
4.323818897637795
 10
2.254921259842519
 20
4.306102362204724
 10
2.218503937007874
 20
4.306102362204724
 10
2.201771653543307
 20
4.323818897637795
 10
2.201771653543307
 20
4.377952755905512
 10
2.218503937007874
 20
4.395669291338582
 10
2.254921259842519
 20
4.395669291338582
 10
2.27263779527559
 20
4.377952755905512
  0
LWPOLYLINE
  5
1C12
330
1E
100
AcDbEntity
  8
7
100
AcDbPolyline
 90
       10
 70
     0
 43
0.0098425196850394
 10
2.298228346456693
 20
4.31496062992126
 10
2.315944881889763
 20
4.306102362204724
 10
2.352362204724409
 20
4.306102362204724
 10
2.371062992125984
 20
4.31496062992126
 10
2.371062992125984
 20
4.350393700787401
 10
2.352362204724409
 20
4.359251968503937
 10
2.315944881889763
 20
4.359251968503937
 10
2.298228346456693
 20
4.351377952755905
 10
2.298228346456693
 20
4.395669291338582
 10
2.371062992125984
 20
4.395669291338582
  0
LWPOLYLINE
  5
1C1E
330
1E
100
AcDbEntity
  8
7
100
AcDbPolyline
 90
        5
 70
     0
 43
0.0098425196850394
 10
2.424212598425196
 20
4.306102362204724
 10
2.441929133858267
 20
4.306102362204724
 10
2.441929133858267
 20
4.323818897637795
 10
2.424212598425196
 20
4.323818897637795
 10
2.424212598425196
 20
4.306102362204724
  0
LWPOLYLINE
  5
1C25
330
1E
100
AcDbEntity
  8
7
100
AcDbPolyline
 90
        3
 70
     0
 43
0.0098425196850394
 10
2.523622047244094
 20
4.38779527559055
 10
2.531496062992125
 20
4.395669291338582
 10
2.531496062992125
 20
4.306102362204724
  0
LINE
  5
1C2A
330
1E
100
AcDbEntity
  8
7
100
AcDbLine
 10
2.519685039370078
 20
4.306102362204724
 30
0.0
 11
2.542322834645669
 21
4.306102362204724
 31
0.0
  0
LWPOLYLINE
  5
1C2B
330
1E
100
AcDbEntity
  8
3
100
AcDbPolyline
 90
        4
 70
     0
 43
0.0098425196850394
 10
1.187992125984251
 20
4.570866141732283
 10
1.27755905511811
 20
4.546259842519685
 10
1.27755905511811
 20
4.594488188976377
 10
1.187992125984251
 20
4.570866141732283
  0
LINE
  5
1C31
330
1E
100
AcDbEntity
  8
3
100
AcDbLine
 10
1.27755905511811
 20
4.548228346456692
 30
0.0
 11
1.269685039370078
 21
4.548228346456692
 31
0.0
  0
LINE
  5
1C32
330
1E
100
AcDbEntity
  8
3
100
AcDbLine
 10
1.27755905511811
 20
4.5501968503937
 30
0.0
 11
1.262795275590551
 21
4.5501968503937
 31
0.0
  0
LINE
  5
1C33
330
1E
100
AcDbEntity
  8
3
100
AcDbLine
 10
1.27755905511811
 20
4.552165354330708
 30
0.0
 11
1.254921259842519
 21
4.552165354330708
 31
0.0
  0
LINE
  5
1C34
330
1E
100
AcDbEntity
  8
3
100
AcDbLine
 10
1.27755905511811
 20
4.554133858267716
 30
0.0
 11
1.248031496062992
 21
4.554133858267716
 31
0.0
  0
LINE
  5
1C35
330
1E
100
AcDbEntity
  8
3
100
AcDbLine
 10
1.27755905511811
 20
4.557086614173228
 30
0.0
 11
1.24015748031496
 21
4.557086614173228
 31
0.0
  0
LINE
  5
1C36
330
1E
100
AcDbEntity
  8
3
100
AcDbLine
 10
1.27755905511811
 20
4.559055118110236
 30
0.0
 11
1.232283464566928
 21
4.559055118110236
 31
0.0
  0
LINE
  5
1C37
330
1E
100
AcDbEntity
  8
3
100
AcDbLine
 10
1.27755905511811
 20
4.561023622047244
 30
0.0
 11
1.225393700787401
 21
4.561023622047244
 31
0.0
  0
LINE
  5
1C38
330
1E
100
AcDbEntity
  8
3
100
AcDbLine
 10
1.27755905511811
 20
4.562992125984251
 30
0.0
 11
1.217519685039369
 21
4.562992125984251
 31
0.0
  0
LINE
  5
1C39
330
1E
100
AcDbEntity
  8
3
100
AcDbLine
 10
1.27755905511811
 20
4.56496062992126
 30
0.0
 11
1.210629921259842
 21
4.56496062992126
 31
0.0
  0
LINE
  5
1C3A
330
1E
100
AcDbEntity
  8
3
100
AcDbLine
 10
1.27755905511811
 20
4.566929133858267
 30
0.0
 11
1.20275590551181
 21
4.566929133858267
 31
0.0
  0
LINE
  5
1C3B
330
1E
100
AcDbEntity
  8
3
100
AcDbLine
 10
1.27755905511811
 20
4.568897637795275
 30
0.0
 11
1.195866141732283
 21
4.568897637795275
 31
0.0
  0
LINE
  5
1C3C
330
1E
100
AcDbEntity
  8
3
100
AcDbLine
 10
1.27755905511811
 20
4.570866141732283
 30
0.0
 11
1.187992125984251
 21
4.570866141732283
 31
0.0
  0
LINE
  5
1C3D
330
1E
100
AcDbEntity
  8
3
100
AcDbLine
 10
1.27755905511811
 20
4.59251968503937
 30
0.0
 11
1.269685039370078
 21
4.59251968503937
 31
0.0
  0
LINE
  5
1C3E
330
1E
100
AcDbEntity
  8
3
100
AcDbLine
 10
1.27755905511811
 20
4.590551181102362
 30
0.0
 11
1.262795275590551
 21
4.590551181102362
 31
0.0
  0
LINE
  5
1C3F
330
1E
100
AcDbEntity
  8
3
100
AcDbLine
 10
1.27755905511811
 20
4.588582677165354
 30
0.0
 11
1.254921259842519
 21
4.588582677165354
 31
0.0
  0
LINE
  5
1C40
330
1E
100
AcDbEntity
  8
3
100
AcDbLine
 10
1.27755905511811
 20
4.586614173228346
 30
0.0
 11
1.248031496062992
 21
4.586614173228346
 31
0.0
  0
LINE
  5
1C41
330
1E
100
AcDbEntity
  8
3
100
AcDbLine
 10
1.27755905511811
 20
4.584645669291338
 30
0.0
 11
1.24015748031496
 21
4.584645669291338
 31
0.0
  0
LINE
  5
1C42
330
1E
100
AcDbEntity
  8
3
100
AcDbLine
 10
1.27755905511811
 20
4.58267716535433
 30
0.0
 11
1.232283464566928
 21
4.58267716535433
 31
0.0
  0
LINE
  5
1C43
330
1E
100
AcDbEntity
  8
3
100
AcDbLine
 10
1.27755905511811
 20
4.580708661417323
 30
0.0
 11
1.225393700787401
 21
4.580708661417323
 31
0.0
  0
LINE
  5
1C44
330
1E
100
AcDbEntity
  8
3
100
AcDbLine
 10
1.27755905511811
 20
4.578740157480314
 30
0.0
 11
1.217519685039369
 21
4.578740157480314
 31
0.0
  0
LINE
  5
1C45
330
1E
100
AcDbEntity
  8
3
100
AcDbLine
 10
1.27755905511811
 20
4.576771653543307
 30
0.0
 11
1.210629921259842
 21
4.576771653543307
 31
0.0
  0
LINE
  5
1C46
330
1E
100
AcDbEntity
  8
3
100
AcDbLine
 10
1.27755905511811
 20
4.574803149606299
 30
0.0
 11
1.20275590551181
 21
4.574803149606299
 31
0.0
  0
LINE
  5
1C47
330
1E
100
AcDbEntity
  8
3
100
AcDbLine
 10
1.27755905511811
 20
4.572834645669291
 30
0.0
 11
1.195866141732283
 21
4.572834645669291
 31
0.0
  0
LINE
  5
1C48
330
1E
100
AcDbEntity
  8
3
100
AcDbLine
 10
1.27755905511811
 20
4.570866141732283
 30
0.0
 11
1.187992125984251
 21
4.570866141732283
 31
0.0
  0
LWPOLYLINE
  5
1C49
330
1E
100
AcDbEntity
  8
3
100
AcDbPolyline
 90
        4
 70
     0
 43
0.0098425196850394
 10
3.481299212598425
 20
4.570866141732283
 10
3.390748031496062
 20
4.594488188976377
 10
3.390748031496062
 20
4.546259842519685
 10
3.481299212598425
 20
4.570866141732283
  0
LINE
  5
1C4F
330
1E
100
AcDbEntity
  8
3
100
AcDbLine
 10
3.390748031496062
 20
4.594488188976377
 30
0.0
 11
3.391732283464567
 21
4.594488188976377
 31
0.0
  0
LINE
  5
1C50
330
1E
100
AcDbEntity
  8
3
100
AcDbLine
 10
3.390748031496062
 20
4.594488188976377
 30
0.0
 11
3.391732283464567
 21
4.594488188976377
 31
0.0
  0
LINE
  5
1C51
330
1E
100
AcDbEntity
  8
3
100
AcDbLine
 10
3.390748031496062
 20
4.59251968503937
 30
0.0
 11
3.398622047244094
 21
4.59251968503937
 31
0.0
  0
LINE
  5
1C52
330
1E
100
AcDbEntity
  8
3
100
AcDbLine
 10
3.390748031496062
 20
4.590551181102362
 30
0.0
 11
3.406496062992125
 21
4.590551181102362
 31
0.0
  0
LINE
  5
1C53
330
1E
100
AcDbEntity
  8
3
100
AcDbLine
 10
3.390748031496062
 20
4.588582677165354
 30
0.0
 11
3.414370078740157
 21
4.588582677165354
 31
0.0
  0
LINE
  5
1C54
330
1E
100
AcDbEntity
  8
3
100
AcDbLine
 10
3.390748031496062
 20
4.586614173228346
 30
0.0
 11
3.421259842519685
 21
4.586614173228346
 31
0.0
  0
LINE
  5
1C55
330
1E
100
AcDbEntity
  8
3
100
AcDbLine
 10
3.390748031496062
 20
4.584645669291338
 30
0.0
 11
3.429133858267716
 21
4.584645669291338
 31
0.0
  0
LINE
  5
1C56
330
1E
100
AcDbEntity
  8
3
100
AcDbLine
 10
3.390748031496062
 20
4.58267716535433
 30
0.0
 11
3.436023622047243
 21
4.58267716535433
 31
0.0
  0
LINE
  5
1C57
330
1E
100
AcDbEntity
  8
3
100
AcDbLine
 10
3.390748031496062
 20
4.580708661417323
 30
0.0
 11
3.443897637795275
 21
4.580708661417323
 31
0.0
  0
LINE
  5
1C58
330
1E
100
AcDbEntity
  8
3
100
AcDbLine
 10
3.390748031496062
 20
4.578740157480314
 30
0.0
 11
3.451771653543307
 21
4.578740157480314
 31
0.0
  0
LINE
  5
1C59
330
1E
100
AcDbEntity
  8
3
100
AcDbLine
 10
3.390748031496062
 20
4.576771653543307
 30
0.0
 11
3.458661417322834
 21
4.576771653543307
 31
0.0
  0
LINE
  5
1C5A
330
1E
100
AcDbEntity
  8
3
100
AcDbLine
 10
3.390748031496062
 20
4.574803149606299
 30
0.0
 11
3.466535433070866
 21
4.574803149606299
 31
0.0
  0
LINE
  5
1C5B
330
1E
100
AcDbEntity
  8
3
100
AcDbLine
 10
3.390748031496062
 20
4.572834645669291
 30
0.0
 11
3.473425196850393
 21
4.572834645669291
 31
0.0
  0
LINE
  5
1C5C
330
1E
100
AcDbEntity
  8
3
100
AcDbLine
 10
3.390748031496062
 20
4.570866141732283
 30
0.0
 11
3.481299212598425
 21
4.570866141732283
 31
0.0
  0
LINE
  5
1C5D
330
1E
100
AcDbEntity
  8
3
100
AcDbLine
 10
3.390748031496062
 20
4.546259842519685
 30
0.0
 11
3.391732283464567
 21
4.546259842519685
 31
0.0
  0
LINE
  5
1C5E
330
1E
100
AcDbEntity
  8
3
100
AcDbLine
 10
3.390748031496062
 20
4.546259842519685
 30
0.0
 11
3.391732283464567
 21
4.546259842519685
 31
0.0
  0
LINE
  5
1C5F
330
1E
100
AcDbEntity
  8
3
100
AcDbLine
 10
3.390748031496062
 20
4.548228346456692
 30
0.0
 11
3.398622047244094
 21
4.548228346456692
 31
0.0
  0
LINE
  5
1C60
330
1E
100
AcDbEntity
  8
3
100
AcDbLine
 10
3.390748031496062
 20
4.5501968503937
 30
0.0
 11
3.406496062992125
 21
4.5501968503937
 31
0.0
  0
LINE
  5
1C61
330
1E
100
AcDbEntity
  8
3
100
AcDbLine
 10
3.390748031496062
 20
4.552165354330708
 30
0.0
 11
3.414370078740157
 21
4.552165354330708
 31
0.0
  0
LINE
  5
1C62
330
1E
100
AcDbEntity
  8
3
100
AcDbLine
 10
3.390748031496062
 20
4.554133858267716
 30
0.0
 11
3.421259842519685
 21
4.554133858267716
 31
0.0
  0
LINE
  5
1C63
330
1E
100
AcDbEntity
  8
3
100
AcDbLine
 10
3.390748031496062
 20
4.557086614173228
 30
0.0
 11
3.429133858267716
 21
4.557086614173228
 31
0.0
  0
LINE
  5
1C64
330
1E
100
AcDbEntity
  8
3
100
AcDbLine
 10
3.390748031496062
 20
4.559055118110236
 30
0.0
 11
3.436023622047243
 21
4.559055118110236
 31
0.0
  0
LINE
  5
1C65
330
1E
100
AcDbEntity
  8
3
100
AcDbLine
 10
3.390748031496062
 20
4.561023622047244
 30
0.0
 11
3.443897637795275
 21
4.561023622047244
 31
0.0
  0
LINE
  5
1C66
330
1E
100
AcDbEntity
  8
3
100
AcDbLine
 10
3.390748031496062
 20
4.562992125984251
 30
0.0
 11
3.451771653543307
 21
4.562992125984251
 31
0.0
  0
LINE
  5
1C67
330
1E
100
AcDbEntity
  8
3
100
AcDbLine
 10
3.390748031496062
 20
4.56496062992126
 30
0.0
 11
3.458661417322834
 21
4.56496062992126
 31
0.0
  0
LINE
  5
1C68
330
1E
100
AcDbEntity
  8
3
100
AcDbLine
 10
3.390748031496062
 20
4.566929133858267
 30
0.0
 11
3.466535433070866
 21
4.566929133858267
 31
0.0
  0
LINE
  5
1C69
330
1E
100
AcDbEntity
  8
3
100
AcDbLine
 10
3.390748031496062
 20
4.568897637795275
 30
0.0
 11
3.473425196850393
 21
4.568897637795275
 31
0.0
  0
LINE
  5
1C6A
330
1E
100
AcDbEntity
  8
3
100
AcDbLine
 10
3.390748031496062
 20
4.570866141732283
 30
0.0
 11
3.481299212598425
 21
4.570866141732283
 31
0.0
  0
LWPOLYLINE
  5
1C6B
330
1E
100
AcDbEntity
  8
7
100
AcDbPolyline
 90
        4
 70
     0
 43
0.0098425196850394
 10
2.099409448818897
 20
3.393700787401574
 10
2.054133858267716
 20
3.393700787401574
 10
2.054133858267716
 20
3.225393700787401
 10
2.099409448818897
 20
3.225393700787401
  0
LWPOLYLINE
  5
1C71
330
1E
100
AcDbEntity
  8
7
100
AcDbPolyline
 90
        3
 70
     0
 43
0.0098425196850394
 10
2.569881889763779
 20
3.225393700787401
 10
2.614173228346456
 20
3.225393700787401
 10
2.614173228346456
 20
3.393700787401574
  0
LINE
  5
1C76
330
1E
100
AcDbEntity
  8
7
100
AcDbLine
 10
2.614173228346456
 20
3.393700787401574
 30
0.0
 11
2.569881889763779
 21
3.393700787401574
 31
0.0
  0
LINE
  5
1C77
330
1E
100
AcDbEntity
  8
3
100
AcDbLine
 10
1.146653543307086
 20
3.948818897637795
 30
0.0
 11
1.146653543307086
 21
3.404527559055118
 31
0.0
  0
LINE
  5
1C78
330
1E
100
AcDbEntity
  8
3
100
AcDbLine
 10
3.52263779527559
 20
3.948818897637795
 30
0.0
 11
3.52263779527559
 21
3.404527559055118
 31
0.0
  0
LINE
  5
1C79
330
1E
100
AcDbEntity
  8
3
100
AcDbLine
 10
1.146653543307086
 20
3.529527559055118
 30
0.0
 11
1.992125984251968
 21
3.529527559055118
 31
0.0
  0
LINE
  5
1C7A
330
1E
100
AcDbEntity
  8
3
100
AcDbLine
 10
3.52263779527559
 20
3.529527559055118
 30
0.0
 11
2.598425196850393
 21
3.529527559055118
 31
0.0
  0
LWPOLYLINE
  5
1C7B
330
1E
100
AcDbEntity
  8
7
100
AcDbPolyline
 90
        3
 70
     0
 43
0.0098425196850394
 10
2.09251968503937
 20
3.565944881889763
 10
2.099409448818897
 20
3.572834645669291
 10
2.099409448818897
 20
3.484251968503937
  0
LINE
  5
1C80
330
1E
100
AcDbEntity
  8
7
100
AcDbLine
 10
2.088582677165354
 20
3.484251968503937
 30
0.0
 11
2.111220472440944
 21
3.484251968503937
 31
0.0
  0
LWPOLYLINE
  5
1C81
330
1E
100
AcDbEntity
  8
7
100
AcDbPolyline
 90
        7
 70
     0
 43
0.0098425196850394
 10
2.162401574803149
 20
3.501968503937007
 10
2.179133858267716
 20
3.484251968503937
 10
2.215551181102362
 20
3.484251968503937
 10
2.233267716535433
 20
3.501968503937007
 10
2.233267716535433
 20
3.55511811023622
 10
2.215551181102362
 20
3.572834645669291
 10
2.179133858267716
 20
3.572834645669291
  0
LWPOLYLINE
  5
1C8A
330
1E
100
AcDbEntity
  8
7
100
AcDbPolyline
 90
        6
 70
     0
 43
0.0098425196850394
 10
2.179133858267716
 20
3.572834645669291
 10
2.162401574803149
 20
3.55511811023622
 10
2.161417322834645
 20
3.537401574803149
 10
2.179133858267716
 20
3.519685039370078
 10
2.215551181102362
 20
3.519685039370078
 10
2.233267716535433
 20
3.537401574803149
  0
LWPOLYLINE
  5
1C92
330
1E
100
AcDbEntity
  8
7
100
AcDbPolyline
 90
        5
 70
     0
 43
0.0098425196850394
 10
2.286417322834645
 20
3.484251968503937
 10
2.304133858267716
 20
3.484251968503937
 10
2.304133858267716
 20
3.501968503937007
 10
2.286417322834645
 20
3.501968503937007
 10
2.286417322834645
 20
3.484251968503937
  0
LWPOLYLINE
  5
1C99
330
1E
100
AcDbEntity
  8
7
100
AcDbPolyline
 90
        4
 70
     0
 43
0.0098425196850394
 10
2.40255905511811
 20
3.484251968503937
 10
2.420275590551181
 20
3.493110236220472
 10
2.429133858267716
 20
3.519685039370078
 10
2.429133858267716
 20
3.537401574803149
  0
LWPOLYLINE
  5
1C9F
330
1E
100
AcDbEntity
  8
7
100
AcDbPolyline
 90
       10
 70
     0
 43
0.0098425196850394
 10
2.429133858267716
 20
3.537401574803149
 10
2.420275590551181
 20
3.564960629921259
 10
2.40255905511811
 20
3.572834645669291
 10
2.383858267716535
 20
3.572834645669291
 10
2.366141732283464
 20
3.564960629921259
 10
2.357283464566929
 20
3.537401574803149
 10
2.358267716535433
 20
3.519685039370078
 10
2.366141732283464
 20
3.493110236220472
 10
2.383858267716535
 20
3.484251968503937
 10
2.40255905511811
 20
3.484251968503937
  0
LWPOLYLINE
  5
1CAB
330
1E
100
AcDbEntity
  8
7
100
AcDbPolyline
 90
        6
 70
     0
 43
0.0098425196850394
 10
2.5
 20
3.484251968503937
 10
2.51771653543307
 20
3.493110236220472
 10
2.52755905511811
 20
3.519685039370078
 10
2.52755905511811
 20
3.537401574803149
 10
2.51771653543307
 20
3.564960629921259
 10
2.5
 20
3.572834645669291
  0
LWPOLYLINE
  5
1CB3
330
1E
100
AcDbEntity
  8
7
100
AcDbPolyline
 90
        8
 70
     0
 43
0.0098425196850394
 10
2.5
 20
3.572834645669291
 10
2.482283464566929
 20
3.572834645669291
 10
2.464566929133858
 20
3.564960629921259
 10
2.455708661417323
 20
3.537401574803149
 10
2.455708661417323
 20
3.519685039370078
 10
2.464566929133858
 20
3.493110236220472
 10
2.482283464566929
 20
3.484251968503937
 10
2.5
 20
3.484251968503937
  0
LWPOLYLINE
  5
1CBD
330
1E
100
AcDbEntity
  8
7
100
AcDbPolyline
 90
        4
 70
     0
 43
0.0098425196850394
 10
2.174212598425196
 20
3.3001968503937
 10
2.103346456692913
 20
3.3001968503937
 10
2.156496062992125
 20
3.354330708661417
 10
2.156496062992125
 20
3.264763779527559
  0
LWPOLYLINE
  5
1CC3
330
1E
100
AcDbEntity
  8
7
100
AcDbPolyline
 90
        3
 70
     0
 43
0.0098425196850394
 10
2.218503937007874
 20
3.31003937007874
 10
2.201771653543307
 20
3.317913385826771
 10
2.201771653543307
 20
3.345472440944881
  0
LWPOLYLINE
  5
1CC8
330
1E
100
AcDbEntity
  8
7
100
AcDbPolyline
 90
       14
 70
     0
 43
0.0098425196850394
 10
2.201771653543307
 20
3.345472440944881
 10
2.218503937007874
 20
3.354330708661417
 10
2.254921259842519
 20
3.354330708661417
 10
2.27263779527559
 20
3.345472440944881
 10
2.27263779527559
 20
3.317913385826771
 10
2.254921259842519
 20
3.31003937007874
 10
2.218503937007874
 20
3.31003937007874
 10
2.200787401574803
 20
3.3001968503937
 10
2.200787401574803
 20
3.274606299212598
 10
2.218503937007874
 20
3.264763779527559
 10
2.254921259842519
 20
3.264763779527559
 10
2.27263779527559
 20
3.273622047244094
 10
2.27263779527559
 20
3.3001968503937
 10
2.254921259842519
 20
3.31003937007874
  0
LINE
  5
1CD8
330
1E
100
AcDbEntity
  8
7
100
AcDbLine
 10
2.299212598425196
 20
3.345472440944881
 30
0.0
 11
2.315944881889763
 21
3.354330708661417
 31
0.0
  0
LWPOLYLINE
  5
1CD9
330
1E
100
AcDbEntity
  8
7
100
AcDbPolyline
 90
        7
 70
     0
 43
0.0098425196850394
 10
2.315944881889763
 20
3.354330708661417
 10
2.352362204724409
 20
3.354330708661417
 10
2.371062992125984
 20
3.345472440944881
 10
2.371062992125984
 20
3.327755905511811
 10
2.298228346456693
 20
3.28248031496063
 10
2.299212598425196
 20
3.264763779527559
 10
2.371062992125984
 20
3.264763779527559
  0
LWPOLYLINE
  5
1CE2
330
1E
100
AcDbEntity
  8
7
100
AcDbPolyline
 90
        5
 70
     0
 43
0.0098425196850394
 10
2.424212598425196
 20
3.264763779527559
 10
2.441929133858267
 20
3.264763779527559
 10
2.441929133858267
 20
3.28248031496063
 10
2.424212598425196
 20
3.28248031496063
 10
2.424212598425196
 20
3.264763779527559
  0
LWPOLYLINE
  5
1CE9
330
1E
100
AcDbEntity
  8
7
100
AcDbPolyline
 90
        3
 70
     0
 43
0.0098425196850394
 10
2.521653543307086
 20
3.264763779527559
 10
2.566929133858267
 20
3.354330708661417
 10
2.49507874015748
 20
3.354330708661417
  0
LWPOLYLINE
  5
1CEE
330
1E
100
AcDbEntity
  8
3
100
AcDbPolyline
 90
        4
 70
     0
 43
0.0098425196850394
 10
1.146653543307086
 20
3.529527559055118
 10
1.237204724409448
 20
3.504921259842519
 10
1.237204724409448
 20
3.553149606299212
 10
1.146653543307086
 20
3.529527559055118
  0
LINE
  5
1CF4
330
1E
100
AcDbEntity
  8
3
100
AcDbLine
 10
1.237204724409448
 20
3.504921259842519
 30
0.0
 11
1.236220472440944
 21
3.504921259842519
 31
0.0
  0
LINE
  5
1CF5
330
1E
100
AcDbEntity
  8
3
100
AcDbLine
 10
1.237204724409448
 20
3.504921259842519
 30
0.0
 11
1.236220472440944
 21
3.504921259842519
 31
0.0
  0
LINE
  5
1CF6
330
1E
100
AcDbEntity
  8
3
100
AcDbLine
 10
1.237204724409448
 20
3.506889763779527
 30
0.0
 11
1.229330708661417
 21
3.506889763779527
 31
0.0
  0
LINE
  5
1CF7
330
1E
100
AcDbEntity
  8
3
100
AcDbLine
 10
1.237204724409448
 20
3.508858267716535
 30
0.0
 11
1.221456692913385
 21
3.508858267716535
 31
0.0
  0
LINE
  5
1CF8
330
1E
100
AcDbEntity
  8
3
100
AcDbLine
 10
1.237204724409448
 20
3.510826771653543
 30
0.0
 11
1.214566929133858
 21
3.510826771653543
 31
0.0
  0
LINE
  5
1CF9
330
1E
100
AcDbEntity
  8
3
100
AcDbLine
 10
1.237204724409448
 20
3.512795275590551
 30
0.0
 11
1.206692913385826
 21
3.512795275590551
 31
0.0
  0
LINE
  5
1CFA
330
1E
100
AcDbEntity
  8
3
100
AcDbLine
 10
1.237204724409448
 20
3.514763779527559
 30
0.0
 11
1.198818897637795
 21
3.514763779527559
 31
0.0
  0
LINE
  5
1CFB
330
1E
100
AcDbEntity
  8
3
100
AcDbLine
 10
1.237204724409448
 20
3.516732283464567
 30
0.0
 11
1.191929133858267
 21
3.516732283464567
 31
0.0
  0
LINE
  5
1CFC
330
1E
100
AcDbEntity
  8
3
100
AcDbLine
 10
1.237204724409448
 20
3.518700787401574
 30
0.0
 11
1.184055118110236
 21
3.518700787401574
 31
0.0
  0
LINE
  5
1CFD
330
1E
100
AcDbEntity
  8
3
100
AcDbLine
 10
1.237204724409448
 20
3.520669291338582
 30
0.0
 11
1.177165354330708
 21
3.520669291338582
 31
0.0
  0
LINE
  5
1CFE
330
1E
100
AcDbEntity
  8
3
100
AcDbLine
 10
1.237204724409448
 20
3.523622047244094
 30
0.0
 11
1.169291338582677
 21
3.523622047244094
 31
0.0
  0
LINE
  5
1CFF
330
1E
100
AcDbEntity
  8
3
100
AcDbLine
 10
1.237204724409448
 20
3.525590551181102
 30
0.0
 11
1.161417322834645
 21
3.525590551181102
 31
0.0
  0
LINE
  5
1D00
330
1E
100
AcDbEntity
  8
3
100
AcDbLine
 10
1.237204724409448
 20
3.52755905511811
 30
0.0
 11
1.154527559055118
 21
3.52755905511811
 31
0.0
  0
LINE
  5
1D01
330
1E
100
AcDbEntity
  8
3
100
AcDbLine
 10
1.237204724409448
 20
3.529527559055118
 30
0.0
 11
1.146653543307086
 21
3.529527559055118
 31
0.0
  0
LINE
  5
1D02
330
1E
100
AcDbEntity
  8
3
100
AcDbLine
 10
1.237204724409448
 20
3.553149606299212
 30
0.0
 11
1.236220472440944
 21
3.553149606299212
 31
0.0
  0
LINE
  5
1D03
330
1E
100
AcDbEntity
  8
3
100
AcDbLine
 10
1.237204724409448
 20
3.553149606299212
 30
0.0
 11
1.236220472440944
 21
3.553149606299212
 31
0.0
  0
LINE
  5
1D04
330
1E
100
AcDbEntity
  8
3
100
AcDbLine
 10
1.237204724409448
 20
3.551181102362204
 30
0.0
 11
1.229330708661417
 21
3.551181102362204
 31
0.0
  0
LINE
  5
1D05
330
1E
100
AcDbEntity
  8
3
100
AcDbLine
 10
1.237204724409448
 20
3.549212598425196
 30
0.0
 11
1.221456692913385
 21
3.549212598425196
 31
0.0
  0
LINE
  5
1D06
330
1E
100
AcDbEntity
  8
3
100
AcDbLine
 10
1.237204724409448
 20
3.547244094488188
 30
0.0
 11
1.214566929133858
 21
3.547244094488188
 31
0.0
  0
LINE
  5
1D07
330
1E
100
AcDbEntity
  8
3
100
AcDbLine
 10
1.237204724409448
 20
3.545275590551181
 30
0.0
 11
1.206692913385826
 21
3.545275590551181
 31
0.0
  0
LINE
  5
1D08
330
1E
100
AcDbEntity
  8
3
100
AcDbLine
 10
1.237204724409448
 20
3.543307086614173
 30
0.0
 11
1.198818897637795
 21
3.543307086614173
 31
0.0
  0
LINE
  5
1D09
330
1E
100
AcDbEntity
  8
3
100
AcDbLine
 10
1.237204724409448
 20
3.541338582677165
 30
0.0
 11
1.191929133858267
 21
3.541338582677165
 31
0.0
  0
LINE
  5
1D0A
330
1E
100
AcDbEntity
  8
3
100
AcDbLine
 10
1.237204724409448
 20
3.539370078740157
 30
0.0
 11
1.184055118110236
 21
3.539370078740157
 31
0.0
  0
LINE
  5
1D0B
330
1E
100
AcDbEntity
  8
3
100
AcDbLine
 10
1.237204724409448
 20
3.537401574803149
 30
0.0
 11
1.177165354330708
 21
3.537401574803149
 31
0.0
  0
LINE
  5
1D0C
330
1E
100
AcDbEntity
  8
3
100
AcDbLine
 10
1.237204724409448
 20
3.535433070866141
 30
0.0
 11
1.169291338582677
 21
3.535433070866141
 31
0.0
  0
LINE
  5
1D0D
330
1E
100
AcDbEntity
  8
3
100
AcDbLine
 10
1.237204724409448
 20
3.533464566929133
 30
0.0
 11
1.161417322834645
 21
3.533464566929133
 31
0.0
  0
LINE
  5
1D0E
330
1E
100
AcDbEntity
  8
3
100
AcDbLine
 10
1.237204724409448
 20
3.531496062992125
 30
0.0
 11
1.154527559055118
 21
3.531496062992125
 31
0.0
  0
LINE
  5
1D0F
330
1E
100
AcDbEntity
  8
3
100
AcDbLine
 10
1.237204724409448
 20
3.529527559055118
 30
0.0
 11
1.146653543307086
 21
3.529527559055118
 31
0.0
  0
LWPOLYLINE
  5
1D10
330
1E
100
AcDbEntity
  8
3
100
AcDbPolyline
 90
        3
 70
     0
 43
0.0098425196850394
 10
3.52263779527559
 20
3.529527559055118
 10
3.432086614173228
 20
3.553149606299212
 10
3.432086614173228
 20
3.504921259842519
  0
LINE
  5
1D15
330
1E
100
AcDbEntity
  8
3
100
AcDbLine
 10
3.432086614173228
 20
3.504921259842519
 30
0.0
 11
3.52263779527559
 21
3.529527559055118
 31
0.0
  0
LINE
  5
1D16
330
1E
100
AcDbEntity
  8
3
100
AcDbLine
 10
3.432086614173228
 20
3.553149606299212
 30
0.0
 11
3.433070866141732
 21
3.553149606299212
 31
0.0
  0
LINE
  5
1D17
330
1E
100
AcDbEntity
  8
3
100
AcDbLine
 10
3.432086614173228
 20
3.553149606299212
 30
0.0
 11
3.433070866141732
 21
3.553149606299212
 31
0.0
  0
LINE
  5
1D18
330
1E
100
AcDbEntity
  8
3
100
AcDbLine
 10
3.432086614173228
 20
3.551181102362204
 30
0.0
 11
3.439960629921259
 21
3.551181102362204
 31
0.0
  0
LINE
  5
1D19
330
1E
100
AcDbEntity
  8
3
100
AcDbLine
 10
3.432086614173228
 20
3.549212598425196
 30
0.0
 11
3.447834645669291
 21
3.549212598425196
 31
0.0
  0
LINE
  5
1D1A
330
1E
100
AcDbEntity
  8
3
100
AcDbLine
 10
3.432086614173228
 20
3.547244094488188
 30
0.0
 11
3.454724409448818
 21
3.547244094488188
 31
0.0
  0
LINE
  5
1D1B
330
1E
100
AcDbEntity
  8
3
100
AcDbLine
 10
3.432086614173228
 20
3.545275590551181
 30
0.0
 11
3.46259842519685
 21
3.545275590551181
 31
0.0
  0
LINE
  5
1D1C
330
1E
100
AcDbEntity
  8
3
100
AcDbLine
 10
3.432086614173228
 20
3.543307086614173
 30
0.0
 11
3.469488188976378
 21
3.543307086614173
 31
0.0
  0
LINE
  5
1D1D
330
1E
100
AcDbEntity
  8
3
100
AcDbLine
 10
3.432086614173228
 20
3.541338582677165
 30
0.0
 11
3.477362204724409
 21
3.541338582677165
 31
0.0
  0
LINE
  5
1D1E
330
1E
100
AcDbEntity
  8
3
100
AcDbLine
 10
3.432086614173228
 20
3.539370078740157
 30
0.0
 11
3.485236220472441
 21
3.539370078740157
 31
0.0
  0
LINE
  5
1D1F
330
1E
100
AcDbEntity
  8
3
100
AcDbLine
 10
3.432086614173228
 20
3.537401574803149
 30
0.0
 11
3.492125984251968
 21
3.537401574803149
 31
0.0
  0
LINE
  5
1D20
330
1E
100
AcDbEntity
  8
3
100
AcDbLine
 10
3.432086614173228
 20
3.535433070866141
 30
0.0
 11
3.5
 21
3.535433070866141
 31
0.0
  0
LINE
  5
1D21
330
1E
100
AcDbEntity
  8
3
100
AcDbLine
 10
3.432086614173228
 20
3.533464566929133
 30
0.0
 11
3.506889763779527
 21
3.533464566929133
 31
0.0
  0
LINE
  5
1D22
330
1E
100
AcDbEntity
  8
3
100
AcDbLine
 10
3.432086614173228
 20
3.531496062992125
 30
0.0
 11
3.514763779527559
 21
3.531496062992125
 31
0.0
  0
LINE
  5
1D23
330
1E
100
AcDbEntity
  8
3
100
AcDbLine
 10
3.432086614173228
 20
3.529527559055118
 30
0.0
 11
3.52263779527559
 21
3.529527559055118
 31
0.0
  0
LINE
  5
1D24
330
1E
100
AcDbEntity
  8
3
100
AcDbLine
 10
3.432086614173228
 20
3.504921259842519
 30
0.0
 11
3.433070866141732
 21
3.504921259842519
 31
0.0
  0
LINE
  5
1D25
330
1E
100
AcDbEntity
  8
3
100
AcDbLine
 10
3.432086614173228
 20
3.504921259842519
 30
0.0
 11
3.433070866141732
 21
3.504921259842519
 31
0.0
  0
LINE
  5
1D26
330
1E
100
AcDbEntity
  8
3
100
AcDbLine
 10
3.432086614173228
 20
3.506889763779527
 30
0.0
 11
3.439960629921259
 21
3.506889763779527
 31
0.0
  0
LINE
  5
1D27
330
1E
100
AcDbEntity
  8
3
100
AcDbLine
 10
3.432086614173228
 20
3.508858267716535
 30
0.0
 11
3.447834645669291
 21
3.508858267716535
 31
0.0
  0
LINE
  5
1D28
330
1E
100
AcDbEntity
  8
3
100
AcDbLine
 10
3.432086614173228
 20
3.510826771653543
 30
0.0
 11
3.454724409448818
 21
3.510826771653543
 31
0.0
  0
LINE
  5
1D29
330
1E
100
AcDbEntity
  8
3
100
AcDbLine
 10
3.432086614173228
 20
3.512795275590551
 30
0.0
 11
3.46259842519685
 21
3.512795275590551
 31
0.0
  0
LINE
  5
1D2A
330
1E
100
AcDbEntity
  8
3
100
AcDbLine
 10
3.432086614173228
 20
3.514763779527559
 30
0.0
 11
3.469488188976378
 21
3.514763779527559
 31
0.0
  0
LINE
  5
1D2B
330
1E
100
AcDbEntity
  8
3
100
AcDbLine
 10
3.432086614173228
 20
3.516732283464567
 30
0.0
 11
3.477362204724409
 21
3.516732283464567
 31
0.0
  0
LINE
  5
1D2C
330
1E
100
AcDbEntity
  8
3
100
AcDbLine
 10
3.432086614173228
 20
3.518700787401574
 30
0.0
 11
3.485236220472441
 21
3.518700787401574
 31
0.0
  0
LINE
  5
1D2D
330
1E
100
AcDbEntity
  8
3
100
AcDbLine
 10
3.432086614173228
 20
3.520669291338582
 30
0.0
 11
3.492125984251968
 21
3.520669291338582
 31
0.0
  0
LINE
  5
1D2E
330
1E
100
AcDbEntity
  8
3
100
AcDbLine
 10
3.432086614173228
 20
3.523622047244094
 30
0.0
 11
3.5
 21
3.523622047244094
 31
0.0
  0
LINE
  5
1D2F
330
1E
100
AcDbEntity
  8
3
100
AcDbLine
 10
3.432086614173228
 20
3.525590551181102
 30
0.0
 11
3.506889763779527
 21
3.525590551181102
 31
0.0
  0
LINE
  5
1D30
330
1E
100
AcDbEntity
  8
3
100
AcDbLine
 10
3.432086614173228
 20
3.52755905511811
 30
0.0
 11
3.514763779527559
 21
3.52755905511811
 31
0.0
  0
LINE
  5
1D31
330
1E
100
AcDbEntity
  8
3
100
AcDbLine
 10
3.432086614173228
 20
3.529527559055118
 30
0.0
 11
3.52263779527559
 21
3.529527559055118
 31
0.0
  0
LWPOLYLINE
  5
1D32
330
1E
100
AcDbEntity
  8
7
100
AcDbPolyline
 90
        4
 70
     0
 43
0.0098425196850394
 10
4.130905511811024
 20
4.779527559055118
 10
4.085629921259842
 20
4.779527559055118
 10
4.085629921259842
 20
4.611220472440945
 10
4.130905511811024
 20
4.611220472440945
  0
LINE
  5
1D38
330
1E
100
AcDbEntity
  8
7
100
AcDbLine
 10
4.502952755905512
 20
4.611220472440945
 30
0.0
 11
4.547244094488188
 21
4.611220472440945
 31
0.0
  0
LWPOLYLINE
  5
1D39
330
1E
100
AcDbEntity
  8
7
100
AcDbPolyline
 90
        3
 70
     0
 43
0.0098425196850394
 10
4.547244094488188
 20
4.611220472440945
 10
4.547244094488188
 20
4.779527559055118
 10
4.502952755905512
 20
4.779527559055118
  0
LINE
  5
1D3E
330
1E
100
AcDbEntity
  8
3
100
AcDbLine
 10
4.905511811023622
 20
3.992125984251968
 30
0.0
 11
4.656496062992125
 21
3.992125984251968
 31
0.0
  0
LINE
  5
1D3F
330
1E
100
AcDbEntity
  8
3
100
AcDbLine
 10
4.905511811023622
 20
4.208661417322835
 30
0.0
 11
4.656496062992125
 21
4.208661417322835
 31
0.0
  0
LINE
  5
1D40
330
1E
100
AcDbEntity
  8
3
100
AcDbLine
 10
4.781496062992125
 20
4.914370078740157
 30
0.0
 11
4.531496062992125
 21
4.914370078740157
 31
0.0
  0
LINE
  5
1D41
330
1E
100
AcDbEntity
  8
3
100
AcDbLine
 10
4.781496062992125
 20
3.992125984251968
 30
0.0
 11
4.781496062992125
 21
3.766732283464567
 31
0.0
  0
LINE
  5
1D42
330
1E
100
AcDbEntity
  8
3
100
AcDbLine
 10
4.781496062992125
 20
4.208661417322835
 30
0.0
 11
4.781496062992125
 21
4.914370078740157
 31
0.0
  0
LWPOLYLINE
  5
1D43
330
1E
100
AcDbEntity
  8
7
100
AcDbPolyline
 90
        3
 70
     0
 43
0.0098425196850394
 10
4.123031496062992
 20
4.950787401574802
 10
4.130905511811024
 20
4.958661417322834
 10
4.130905511811024
 20
4.87007874015748
  0
LINE
  5
1D48
330
1E
100
AcDbEntity
  8
7
100
AcDbLine
 10
4.119094488188976
 20
4.87007874015748
 30
0.0
 11
4.141732283464566
 21
4.87007874015748
 31
0.0
  0
LWPOLYLINE
  5
1D49
330
1E
100
AcDbEntity
  8
7
100
AcDbPolyline
 90
        5
 70
     0
 43
0.0098425196850394
 10
4.219488188976377
 20
4.87007874015748
 10
4.237204724409449
 20
4.87007874015748
 10
4.237204724409449
 20
4.88779527559055
 10
4.219488188976377
 20
4.88779527559055
 10
4.219488188976377
 20
4.87007874015748
  0
LWPOLYLINE
  5
1D50
330
1E
100
AcDbEntity
  8
7
100
AcDbPolyline
 90
        3
 70
     0
 43
0.0098425196850394
 10
4.316929133858267
 20
4.87007874015748
 10
4.362204724409449
 20
4.958661417322834
 10
4.291338582677165
 20
4.958661417322834
  0
LWPOLYLINE
  5
1D55
330
1E
100
AcDbEntity
  8
7
100
AcDbPolyline
 90
        7
 70
     0
 43
0.0098425196850394
 10
4.388779527559055
 20
4.877952755905512
 10
4.405511811023622
 20
4.87007874015748
 10
4.442913385826771
 20
4.87007874015748
 10
4.460629921259842
 20
4.877952755905512
 10
4.460629921259842
 20
4.905511811023622
 10
4.442913385826771
 20
4.914370078740157
 10
4.415354330708661
 20
4.914370078740157
  0
LWPOLYLINE
  5
1D5E
330
1E
100
AcDbEntity
  8
7
100
AcDbPolyline
 90
        6
 70
     0
 43
0.0098425196850394
 10
4.442913385826771
 20
4.914370078740157
 10
4.460629921259842
 20
4.923228346456692
 10
4.460629921259842
 20
4.949803149606299
 10
4.442913385826771
 20
4.958661417322834
 10
4.405511811023622
 20
4.958661417322834
 10
4.38779527559055
 20
4.949803149606299
  0
LWPOLYLINE
  5
1D66
330
1E
100
AcDbEntity
  8
7
100
AcDbPolyline
 90
        4
 70
     0
 43
0.0098425196850394
 10
4.205708661417323
 20
4.686023622047244
 10
4.133858267716535
 20
4.686023622047244
 10
4.187992125984251
 20
4.739173228346456
 10
4.187992125984251
 20
4.650590551181102
  0
LWPOLYLINE
  5
1D6C
330
1E
100
AcDbEntity
  8
7
100
AcDbPolyline
 90
        7
 70
     0
 43
0.0098425196850394
 10
4.232283464566929
 20
4.658464566929134
 10
4.249015748031496
 20
4.650590551181102
 10
4.285433070866141
 20
4.650590551181102
 10
4.303149606299212
 20
4.658464566929134
 10
4.303149606299212
 20
4.686023622047244
 10
4.285433070866141
 20
4.694881889763779
 10
4.258858267716535
 20
4.694881889763779
  0
LWPOLYLINE
  5
1D75
330
1E
100
AcDbEntity
  8
7
100
AcDbPolyline
 90
        3
 70
     0
 43
0.0098425196850394
 10
4.285433070866141
 20
4.694881889763779
 10
4.303149606299212
 20
4.703740157480314
 10
4.303149606299212
 20
4.731299212598425
  0
LWPOLYLINE
  5
1D7A
330
1E
100
AcDbEntity
  8
7
100
AcDbPolyline
 90
        4
 70
     0
 43
0.0098425196850394
 10
4.303149606299212
 20
4.731299212598425
 10
4.285433070866141
 20
4.739173228346456
 10
4.249015748031496
 20
4.739173228346456
 10
4.231299212598425
 20
4.731299212598425
  0
LWPOLYLINE
  5
1D80
330
1E
100
AcDbEntity
  8
7
100
AcDbPolyline
 90
        5
 70
     0
 43
0.0098425196850394
 10
4.356299212598425
 20
4.650590551181102
 10
4.374015748031496
 20
4.650590551181102
 10
4.374015748031496
 20
4.668307086614173
 10
4.356299212598425
 20
4.668307086614173
 10
4.356299212598425
 20
4.650590551181102
  0
LWPOLYLINE
  5
1D87
330
1E
100
AcDbEntity
  8
7
100
AcDbPolyline
 90
        6
 70
     0
 43
0.0098425196850394
 10
4.428149606299212
 20
4.668307086614173
 10
4.444881889763779
 20
4.650590551181102
 10
4.482283464566929
 20
4.650590551181102
 10
4.5
 20
4.668307086614173
 10
4.5
 20
4.721456692913386
 10
4.482283464566929
 20
4.739173228346456
  0
LWPOLYLINE
  5
1D8F
330
1E
100
AcDbEntity
  8
7
100
AcDbPolyline
 90
        7
 70
     0
 43
0.0098425196850394
 10
4.482283464566929
 20
4.739173228346456
 10
4.444881889763779
 20
4.739173228346456
 10
4.428149606299212
 20
4.721456692913386
 10
4.427165354330708
 20
4.703740157480314
 10
4.444881889763779
 20
4.686023622047244
 10
4.482283464566929
 20
4.686023622047244
 10
4.5
 20
4.703740157480314
  0
LWPOLYLINE
  5
1D98
330
1E
100
AcDbEntity
  8
3
100
AcDbPolyline
 90
        4
 70
     0
 43
0.0098425196850394
 10
4.781496062992125
 20
3.992125984251968
 10
4.756889763779527
 20
3.90255905511811
 10
4.80511811023622
 20
3.90255905511811
 10
4.781496062992125
 20
3.992125984251968
  0
LINE
  5
1D9E
330
1E
100
AcDbEntity
  8
3
100
AcDbLine
 10
4.758858267716535
 20
3.90255905511811
 30
0.0
 11
4.758858267716535
 21
3.910433070866141
 31
0.0
  0
LINE
  5
1D9F
330
1E
100
AcDbEntity
  8
3
100
AcDbLine
 10
4.760826771653543
 20
3.90255905511811
 30
0.0
 11
4.760826771653543
 21
3.917322834645669
 31
0.0
  0
LINE
  5
1DA0
330
1E
100
AcDbEntity
  8
3
100
AcDbLine
 10
4.76279527559055
 20
3.90255905511811
 30
0.0
 11
4.76279527559055
 21
3.9251968503937
 31
0.0
  0
LINE
  5
1DA1
330
1E
100
AcDbEntity
  8
3
100
AcDbLine
 10
4.764763779527559
 20
3.90255905511811
 30
0.0
 11
4.764763779527559
 21
3.932086614173228
 31
0.0
  0
LINE
  5
1DA2
330
1E
100
AcDbEntity
  8
3
100
AcDbLine
 10
4.767716535433071
 20
3.90255905511811
 30
0.0
 11
4.767716535433071
 21
3.939960629921259
 31
0.0
  0
LINE
  5
1DA3
330
1E
100
AcDbEntity
  8
3
100
AcDbLine
 10
4.769685039370078
 20
3.90255905511811
 30
0.0
 11
4.769685039370078
 21
3.947834645669291
 31
0.0
  0
LINE
  5
1DA4
330
1E
100
AcDbEntity
  8
3
100
AcDbLine
 10
4.771653543307087
 20
3.90255905511811
 30
0.0
 11
4.771653543307087
 21
3.954724409448818
 31
0.0
  0
LINE
  5
1DA5
330
1E
100
AcDbEntity
  8
3
100
AcDbLine
 10
4.773622047244094
 20
3.90255905511811
 30
0.0
 11
4.773622047244094
 21
3.96259842519685
 31
0.0
  0
LINE
  5
1DA6
330
1E
100
AcDbEntity
  8
3
100
AcDbLine
 10
4.775590551181102
 20
3.90255905511811
 30
0.0
 11
4.775590551181102
 21
3.969488188976378
 31
0.0
  0
LINE
  5
1DA7
330
1E
100
AcDbEntity
  8
3
100
AcDbLine
 10
4.77755905511811
 20
3.90255905511811
 30
0.0
 11
4.77755905511811
 21
3.977362204724409
 31
0.0
  0
LINE
  5
1DA8
330
1E
100
AcDbEntity
  8
3
100
AcDbLine
 10
4.779527559055118
 20
3.90255905511811
 30
0.0
 11
4.779527559055118
 21
3.984251968503937
 31
0.0
  0
LINE
  5
1DA9
330
1E
100
AcDbEntity
  8
3
100
AcDbLine
 10
4.781496062992125
 20
3.90255905511811
 30
0.0
 11
4.781496062992125
 21
3.992125984251968
 31
0.0
  0
LINE
  5
1DAA
330
1E
100
AcDbEntity
  8
3
100
AcDbLine
 10
4.803149606299212
 20
3.90255905511811
 30
0.0
 11
4.803149606299212
 21
3.910433070866141
 31
0.0
  0
LINE
  5
1DAB
330
1E
100
AcDbEntity
  8
3
100
AcDbLine
 10
4.801181102362204
 20
3.90255905511811
 30
0.0
 11
4.801181102362204
 21
3.917322834645669
 31
0.0
  0
LINE
  5
1DAC
330
1E
100
AcDbEntity
  8
3
100
AcDbLine
 10
4.799212598425197
 20
3.90255905511811
 30
0.0
 11
4.799212598425197
 21
3.9251968503937
 31
0.0
  0
LINE
  5
1DAD
330
1E
100
AcDbEntity
  8
3
100
AcDbLine
 10
4.797244094488188
 20
3.90255905511811
 30
0.0
 11
4.797244094488188
 21
3.932086614173228
 31
0.0
  0
LINE
  5
1DAE
330
1E
100
AcDbEntity
  8
3
100
AcDbLine
 10
4.795275590551181
 20
3.90255905511811
 30
0.0
 11
4.795275590551181
 21
3.939960629921259
 31
0.0
  0
LINE
  5
1DAF
330
1E
100
AcDbEntity
  8
3
100
AcDbLine
 10
4.793307086614173
 20
3.90255905511811
 30
0.0
 11
4.793307086614173
 21
3.947834645669291
 31
0.0
  0
LINE
  5
1DB0
330
1E
100
AcDbEntity
  8
3
100
AcDbLine
 10
4.791338582677165
 20
3.90255905511811
 30
0.0
 11
4.791338582677165
 21
3.954724409448818
 31
0.0
  0
LINE
  5
1DB1
330
1E
100
AcDbEntity
  8
3
100
AcDbLine
 10
4.789370078740157
 20
3.90255905511811
 30
0.0
 11
4.789370078740157
 21
3.96259842519685
 31
0.0
  0
LINE
  5
1DB2
330
1E
100
AcDbEntity
  8
3
100
AcDbLine
 10
4.787401574803149
 20
3.90255905511811
 30
0.0
 11
4.787401574803149
 21
3.969488188976378
 31
0.0
  0
LINE
  5
1DB3
330
1E
100
AcDbEntity
  8
3
100
AcDbLine
 10
4.785433070866141
 20
3.90255905511811
 30
0.0
 11
4.785433070866141
 21
3.977362204724409
 31
0.0
  0
LINE
  5
1DB4
330
1E
100
AcDbEntity
  8
3
100
AcDbLine
 10
4.783464566929134
 20
3.90255905511811
 30
0.0
 11
4.783464566929134
 21
3.984251968503937
 31
0.0
  0
LINE
  5
1DB5
330
1E
100
AcDbEntity
  8
3
100
AcDbLine
 10
4.781496062992125
 20
3.90255905511811
 30
0.0
 11
4.781496062992125
 21
3.992125984251968
 31
0.0
  0
LINE
  5
1DB6
330
1E
100
AcDbEntity
  8
3
100
AcDbLine
 10
4.781496062992125
 20
4.208661417322835
 30
0.0
 11
4.80511811023622
 21
4.298228346456692
 31
0.0
  0
LWPOLYLINE
  5
1DB7
330
1E
100
AcDbEntity
  8
3
100
AcDbPolyline
 90
        3
 70
     0
 43
0.0098425196850394
 10
4.80511811023622
 20
4.298228346456692
 10
4.756889763779527
 20
4.298228346456692
 10
4.781496062992125
 20
4.208661417322835
  0
LINE
  5
1DBC
330
1E
100
AcDbEntity
  8
3
100
AcDbLine
 10
4.803149606299212
 20
4.298228346456692
 30
0.0
 11
4.803149606299212
 21
4.290354330708661
 31
0.0
  0
LINE
  5
1DBD
330
1E
100
AcDbEntity
  8
3
100
AcDbLine
 10
4.801181102362204
 20
4.298228346456692
 30
0.0
 11
4.801181102362204
 21
4.283464566929134
 31
0.0
  0
LINE
  5
1DBE
330
1E
100
AcDbEntity
  8
3
100
AcDbLine
 10
4.799212598425197
 20
4.298228346456692
 30
0.0
 11
4.799212598425197
 21
4.275590551181102
 31
0.0
  0
LINE
  5
1DBF
330
1E
100
AcDbEntity
  8
3
100
AcDbLine
 10
4.797244094488188
 20
4.298228346456692
 30
0.0
 11
4.797244094488188
 21
4.267716535433071
 31
0.0
  0
LINE
  5
1DC0
330
1E
100
AcDbEntity
  8
3
100
AcDbLine
 10
4.795275590551181
 20
4.298228346456692
 30
0.0
 11
4.795275590551181
 21
4.260826771653543
 31
0.0
  0
LINE
  5
1DC1
330
1E
100
AcDbEntity
  8
3
100
AcDbLine
 10
4.793307086614173
 20
4.298228346456692
 30
0.0
 11
4.793307086614173
 21
4.252952755905512
 31
0.0
  0
LINE
  5
1DC2
330
1E
100
AcDbEntity
  8
3
100
AcDbLine
 10
4.791338582677165
 20
4.298228346456692
 30
0.0
 11
4.791338582677165
 21
4.246062992125984
 31
0.0
  0
LINE
  5
1DC3
330
1E
100
AcDbEntity
  8
3
100
AcDbLine
 10
4.789370078740157
 20
4.298228346456692
 30
0.0
 11
4.789370078740157
 21
4.238188976377952
 31
0.0
  0
LINE
  5
1DC4
330
1E
100
AcDbEntity
  8
3
100
AcDbLine
 10
4.787401574803149
 20
4.298228346456692
 30
0.0
 11
4.787401574803149
 21
4.230314960629921
 31
0.0
  0
LINE
  5
1DC5
330
1E
100
AcDbEntity
  8
3
100
AcDbLine
 10
4.785433070866141
 20
4.298228346456692
 30
0.0
 11
4.785433070866141
 21
4.223425196850393
 31
0.0
  0
LINE
  5
1DC6
330
1E
100
AcDbEntity
  8
3
100
AcDbLine
 10
4.783464566929134
 20
4.298228346456692
 30
0.0
 11
4.783464566929134
 21
4.215551181102362
 31
0.0
  0
LINE
  5
1DC7
330
1E
100
AcDbEntity
  8
3
100
AcDbLine
 10
4.781496062992125
 20
4.298228346456692
 30
0.0
 11
4.781496062992125
 21
4.208661417322835
 31
0.0
  0
LINE
  5
1DC8
330
1E
100
AcDbEntity
  8
3
100
AcDbLine
 10
4.758858267716535
 20
4.298228346456692
 30
0.0
 11
4.758858267716535
 21
4.290354330708661
 31
0.0
  0
LINE
  5
1DC9
330
1E
100
AcDbEntity
  8
3
100
AcDbLine
 10
4.760826771653543
 20
4.298228346456692
 30
0.0
 11
4.760826771653543
 21
4.283464566929134
 31
0.0
  0
LINE
  5
1DCA
330
1E
100
AcDbEntity
  8
3
100
AcDbLine
 10
4.76279527559055
 20
4.298228346456692
 30
0.0
 11
4.76279527559055
 21
4.275590551181102
 31
0.0
  0
LINE
  5
1DCB
330
1E
100
AcDbEntity
  8
3
100
AcDbLine
 10
4.764763779527559
 20
4.298228346456692
 30
0.0
 11
4.764763779527559
 21
4.267716535433071
 31
0.0
  0
LINE
  5
1DCC
330
1E
100
AcDbEntity
  8
3
100
AcDbLine
 10
4.767716535433071
 20
4.298228346456692
 30
0.0
 11
4.767716535433071
 21
4.260826771653543
 31
0.0
  0
LINE
  5
1DCD
330
1E
100
AcDbEntity
  8
3
100
AcDbLine
 10
4.769685039370078
 20
4.298228346456692
 30
0.0
 11
4.769685039370078
 21
4.252952755905512
 31
0.0
  0
LINE
  5
1DCE
330
1E
100
AcDbEntity
  8
3
100
AcDbLine
 10
4.771653543307087
 20
4.298228346456692
 30
0.0
 11
4.771653543307087
 21
4.246062992125984
 31
0.0
  0
LINE
  5
1DCF
330
1E
100
AcDbEntity
  8
3
100
AcDbLine
 10
4.773622047244094
 20
4.298228346456692
 30
0.0
 11
4.773622047244094
 21
4.238188976377952
 31
0.0
  0
LINE
  5
1DD0
330
1E
100
AcDbEntity
  8
3
100
AcDbLine
 10
4.775590551181102
 20
4.298228346456692
 30
0.0
 11
4.775590551181102
 21
4.230314960629921
 31
0.0
  0
LINE
  5
1DD1
330
1E
100
AcDbEntity
  8
3
100
AcDbLine
 10
4.77755905511811
 20
4.298228346456692
 30
0.0
 11
4.77755905511811
 21
4.223425196850393
 31
0.0
  0
LINE
  5
1DD2
330
1E
100
AcDbEntity
  8
3
100
AcDbLine
 10
4.779527559055118
 20
4.298228346456692
 30
0.0
 11
4.779527559055118
 21
4.215551181102362
 31
0.0
  0
LINE
  5
1DD3
330
1E
100
AcDbEntity
  8
3
100
AcDbLine
 10
4.781496062992125
 20
4.298228346456692
 30
0.0
 11
4.781496062992125
 21
4.208661417322835
 31
0.0
  0
LWPOLYLINE
  5
1DD4
330
1E
100
AcDbEntity
  8
7
100
AcDbPolyline
 90
        4
 70
     0
 43
0.0098425196850394
 10
0.4940944881889764
 20
6.599409448818897
 10
0.4488188976377953
 20
6.599409448818897
 10
0.4488188976377953
 20
6.43011811023622
 10
0.4940944881889764
 20
6.43011811023622
  0
LWPOLYLINE
  5
1DDA
330
1E
100
AcDbEntity
  8
7
100
AcDbPolyline
 90
        4
 70
     0
 43
0.0098425196850394
 10
0.9635826771653542
 20
6.43011811023622
 10
1.008858267716535
 20
6.43011811023622
 10
1.008858267716535
 20
6.599409448818897
 10
0.9635826771653542
 20
6.599409448818897
  0
LINE
  5
1DE0
330
1E
100
AcDbEntity
  8
3
100
AcDbLine
 10
1.189960629921259
 20
7.551181102362204
 30
0.0
 11
0.5649606299212599
 21
7.551181102362204
 31
0.0
  0
LINE
  5
1DE1
330
1E
100
AcDbEntity
  8
3
100
AcDbLine
 10
1.217519685039369
 20
5.657480314960629
 30
0.0
 11
0.5649606299212599
 21
5.657480314960629
 31
0.0
  0
LINE
  5
1DE2
330
1E
100
AcDbEntity
  8
3
100
AcDbLine
 10
0.6899606299212599
 20
7.551181102362204
 30
0.0
 11
0.6899606299212599
 21
6.841535433070865
 31
0.0
  0
LINE
  5
1DE3
330
1E
100
AcDbEntity
  8
3
100
AcDbLine
 10
0.6899606299212599
 20
5.657480314960629
 30
0.0
 11
0.6899606299212599
 21
6.368110236220472
 31
0.0
  0
LWPOLYLINE
  5
1DE4
330
1E
100
AcDbEntity
  8
7
100
AcDbPolyline
 90
        3
 70
     0
 43
0.0098425196850394
 10
0.4862204724409449
 20
6.770669291338582
 10
0.4940944881889764
 20
6.77755905511811
 10
0.4940944881889764
 20
6.688976377952755
  0
LINE
  5
1DE9
330
1E
100
AcDbEntity
  8
7
100
AcDbLine
 10
0.4822834645669292
 20
6.688976377952755
 30
0.0
 11
0.5049212598425197
 21
6.688976377952755
 31
0.0
  0
LWPOLYLINE
  5
1DEA
330
1E
100
AcDbEntity
  8
7
100
AcDbPolyline
 90
       10
 70
     0
 43
0.0098425196850394
 10
0.5551181102362205
 20
6.697834645669291
 10
0.5728346456692913
 20
6.688976377952755
 10
0.610236220472441
 20
6.688976377952755
 10
0.6279527559055119
 20
6.697834645669291
 10
0.6279527559055119
 20
6.733267716535433
 10
0.610236220472441
 20
6.742125984251968
 10
0.5728346456692913
 20
6.742125984251968
 10
0.5551181102362205
 20
6.734251968503937
 10
0.5551181102362205
 20
6.77755905511811
 10
0.6279527559055119
 20
6.77755905511811
  0
LWPOLYLINE
  5
1DF6
330
1E
100
AcDbEntity
  8
7
100
AcDbPolyline
 90
        3
 70
     0
 43
0.0098425196850394
 10
0.6811023622047245
 20
6.688976377952755
 10
0.6988188976377953
 20
6.688976377952755
 10
0.6988188976377953
 20
6.706692913385826
  0
LWPOLYLINE
  5
1DFB
330
1E
100
AcDbEntity
  8
7
100
AcDbPolyline
 90
        3
 70
     0
 43
0.0098425196850394
 10
0.6988188976377953
 20
6.706692913385826
 10
0.6811023622047245
 20
6.706692913385826
 10
0.6811023622047245
 20
6.688976377952755
  0
LWPOLYLINE
  5
1E00
330
1E
100
AcDbEntity
  8
7
100
AcDbPolyline
 90
        3
 70
     0
 43
0.0098425196850394
 10
0.7805118110236222
 20
6.770669291338582
 10
0.7883858267716536
 20
6.77755905511811
 10
0.7883858267716536
 20
6.688976377952755
  0
LINE
  5
1E05
330
1E
100
AcDbEntity
  8
7
100
AcDbLine
 10
0.7765748031496064
 20
6.688976377952755
 30
0.0
 11
0.7992125984251969
 21
6.688976377952755
 31
0.0
  0
LWPOLYLINE
  5
1E06
330
1E
100
AcDbEntity
  8
7
100
AcDbPolyline
 90
        7
 70
     0
 43
0.0098425196850394
 10
0.8494094488188977
 20
6.697834645669291
 10
0.8671259842519685
 20
6.688976377952755
 10
0.9035433070866142
 20
6.688976377952755
 10
0.922244094488189
 20
6.697834645669291
 10
0.922244094488189
 20
6.733267716535433
 10
0.9035433070866142
 20
6.742125984251968
 10
0.8671259842519685
 20
6.742125984251968
  0
LWPOLYLINE
  5
1E0F
330
1E
100
AcDbEntity
  8
7
100
AcDbPolyline
 90
        4
 70
     0
 43
0.0098425196850394
 10
0.8671259842519685
 20
6.742125984251968
 10
0.8494094488188977
 20
6.734251968503937
 10
0.8494094488188977
 20
6.77755905511811
 10
0.922244094488189
 20
6.77755905511811
  0
LWPOLYLINE
  5
1E15
330
1E
100
AcDbEntity
  8
7
100
AcDbPolyline
 90
        7
 70
     0
 43
0.0098425196850394
 10
0.4980314960629922
 20
6.478346456692913
 10
0.5147637795275591
 20
6.469488188976377
 10
0.5511811023622048
 20
6.469488188976377
 10
0.5688976377952756
 20
6.478346456692913
 10
0.5688976377952756
 20
6.504921259842519
 10
0.5511811023622048
 20
6.514763779527559
 10
0.5236220472440945
 20
6.514763779527559
  0
LWPOLYLINE
  5
1E1E
330
1E
100
AcDbEntity
  8
7
100
AcDbPolyline
 90
        5
 70
     0
 43
0.0098425196850394
 10
0.5511811023622048
 20
6.514763779527559
 10
0.5688976377952756
 20
6.52263779527559
 10
0.5688976377952756
 20
6.5501968503937
 10
0.5511811023622048
 20
6.559055118110236
 10
0.5147637795275591
 20
6.559055118110236
  0
LINE
  5
1E25
330
1E
100
AcDbEntity
  8
7
100
AcDbLine
 10
0.5147637795275591
 20
6.559055118110236
 30
0.0
 11
0.4970472440944882
 21
6.5501968503937
 31
0.0
  0
LWPOLYLINE
  5
1E26
330
1E
100
AcDbEntity
  8
7
100
AcDbPolyline
 90
       14
 70
     0
 43
0.0098425196850394
 10
0.6122047244094489
 20
6.514763779527559
 10
0.595472440944882
 20
6.52263779527559
 10
0.595472440944882
 20
6.5501968503937
 10
0.6122047244094489
 20
6.559055118110236
 10
0.6496062992125986
 20
6.559055118110236
 10
0.6673228346456694
 20
6.5501968503937
 10
0.6673228346456694
 20
6.52263779527559
 10
0.6496062992125986
 20
6.514763779527559
 10
0.6122047244094489
 20
6.514763779527559
 10
0.594488188976378
 20
6.504921259842519
 10
0.594488188976378
 20
6.479330708661417
 10
0.6122047244094489
 20
6.469488188976377
 10
0.6496062992125986
 20
6.469488188976377
 10
0.6673228346456694
 20
6.478346456692913
  0
LWPOLYLINE
  5
1E36
330
1E
100
AcDbEntity
  8
7
100
AcDbPolyline
 90
        3
 70
     0
 43
0.0098425196850394
 10
0.6673228346456694
 20
6.478346456692913
 10
0.6673228346456694
 20
6.504921259842519
 10
0.6496062992125986
 20
6.514763779527559
  0
LWPOLYLINE
  5
1E3B
330
1E
100
AcDbEntity
  8
7
100
AcDbPolyline
 90
        4
 70
     0
 43
0.0098425196850394
 10
0.7647637795275591
 20
6.504921259842519
 10
0.6938976377952756
 20
6.504921259842519
 10
0.7470472440944882
 20
6.559055118110236
 10
0.7470472440944882
 20
6.469488188976377
  0
LWPOLYLINE
  5
1E41
330
1E
100
AcDbEntity
  8
7
100
AcDbPolyline
 90
        5
 70
     0
 43
0.0098425196850394
 10
0.8179133858267716
 20
6.469488188976377
 10
0.8356299212598424
 20
6.469488188976377
 10
0.8356299212598424
 20
6.487204724409449
 10
0.8179133858267716
 20
6.487204724409449
 10
0.8179133858267716
 20
6.469488188976377
  0
LWPOLYLINE
  5
1E48
330
1E
100
AcDbEntity
  8
7
100
AcDbPolyline
 90
        3
 70
     0
 43
0.0098425196850394
 10
0.9064960629921261
 20
6.514763779527559
 10
0.889763779527559
 20
6.52263779527559
 10
0.889763779527559
 20
6.5501968503937
  0
LWPOLYLINE
  5
1E4D
330
1E
100
AcDbEntity
  8
7
100
AcDbPolyline
 90
       14
 70
     0
 43
0.0098425196850394
 10
0.889763779527559
 20
6.5501968503937
 10
0.9064960629921261
 20
6.559055118110236
 10
0.9429133858267716
 20
6.559055118110236
 10
0.9616141732283464
 20
6.5501968503937
 10
0.9616141732283464
 20
6.52263779527559
 10
0.9429133858267716
 20
6.514763779527559
 10
0.9064960629921261
 20
6.514763779527559
 10
0.8887795275590551
 20
6.504921259842519
 10
0.8887795275590551
 20
6.479330708661417
 10
0.9064960629921261
 20
6.469488188976377
 10
0.9429133858267716
 20
6.469488188976377
 10
0.9616141732283464
 20
6.478346456692913
 10
0.9616141732283464
 20
6.504921259842519
 10
0.9429133858267716
 20
6.514763779527559
  0
LWPOLYLINE
  5
1E5D
330
1E
100
AcDbEntity
  8
3
100
AcDbPolyline
 90
        4
 70
     0
 43
0.0098425196850394
 10
0.6899606299212599
 20
7.551181102362204
 10
0.6653543307086615
 20
7.461614173228346
 10
0.7135826771653545
 20
7.461614173228346
 10
0.6899606299212599
 20
7.551181102362204
  0
LINE
  5
1E63
330
1E
100
AcDbEntity
  8
3
100
AcDbLine
 10
0.6673228346456694
 20
7.461614173228346
 30
0.0
 11
0.6673228346456694
 21
7.469488188976377
 31
0.0
  0
LINE
  5
1E64
330
1E
100
AcDbEntity
  8
3
100
AcDbLine
 10
0.6692913385826773
 20
7.461614173228346
 30
0.0
 11
0.6692913385826773
 21
7.476377952755905
 31
0.0
  0
LINE
  5
1E65
330
1E
100
AcDbEntity
  8
3
100
AcDbLine
 10
0.6712598425196851
 20
7.461614173228346
 30
0.0
 11
0.6712598425196851
 21
7.484251968503937
 31
0.0
  0
LINE
  5
1E66
330
1E
100
AcDbEntity
  8
3
100
AcDbLine
 10
0.673228346456693
 20
7.461614173228346
 30
0.0
 11
0.673228346456693
 21
7.492125984251968
 31
0.0
  0
LINE
  5
1E67
330
1E
100
AcDbEntity
  8
3
100
AcDbLine
 10
0.6751968503937009
 20
7.461614173228346
 30
0.0
 11
0.6751968503937009
 21
7.499015748031496
 31
0.0
  0
LINE
  5
1E68
330
1E
100
AcDbEntity
  8
3
100
AcDbLine
 10
0.6771653543307087
 20
7.461614173228346
 30
0.0
 11
0.6771653543307087
 21
7.506889763779527
 31
0.0
  0
LINE
  5
1E69
330
1E
100
AcDbEntity
  8
3
100
AcDbLine
 10
0.6791338582677166
 20
7.461614173228346
 30
0.0
 11
0.6791338582677166
 21
7.513779527559055
 31
0.0
  0
LINE
  5
1E6A
330
1E
100
AcDbEntity
  8
3
100
AcDbLine
 10
0.6820866141732284
 20
7.461614173228346
 30
0.0
 11
0.6820866141732284
 21
7.521653543307087
 31
0.0
  0
LINE
  5
1E6B
330
1E
100
AcDbEntity
  8
3
100
AcDbLine
 10
0.6840551181102362
 20
7.461614173228346
 30
0.0
 11
0.6840551181102362
 21
7.529527559055118
 31
0.0
  0
LINE
  5
1E6C
330
1E
100
AcDbEntity
  8
3
100
AcDbLine
 10
0.6860236220472441
 20
7.461614173228346
 30
0.0
 11
0.6860236220472441
 21
7.536417322834645
 31
0.0
  0
LINE
  5
1E6D
330
1E
100
AcDbEntity
  8
3
100
AcDbLine
 10
0.687992125984252
 20
7.461614173228346
 30
0.0
 11
0.687992125984252
 21
7.544291338582676
 31
0.0
  0
LINE
  5
1E6E
330
1E
100
AcDbEntity
  8
3
100
AcDbLine
 10
0.6899606299212599
 20
7.461614173228346
 30
0.0
 11
0.6899606299212599
 21
7.551181102362204
 31
0.0
  0
LINE
  5
1E6F
330
1E
100
AcDbEntity
  8
3
100
AcDbLine
 10
0.7116141732283464
 20
7.461614173228346
 30
0.0
 11
0.7116141732283464
 21
7.469488188976377
 31
0.0
  0
LINE
  5
1E70
330
1E
100
AcDbEntity
  8
3
100
AcDbLine
 10
0.7096456692913386
 20
7.461614173228346
 30
0.0
 11
0.7096456692913386
 21
7.476377952755905
 31
0.0
  0
LINE
  5
1E71
330
1E
100
AcDbEntity
  8
3
100
AcDbLine
 10
0.7076771653543307
 20
7.461614173228346
 30
0.0
 11
0.7076771653543307
 21
7.484251968503937
 31
0.0
  0
LINE
  5
1E72
330
1E
100
AcDbEntity
  8
3
100
AcDbLine
 10
0.7057086614173228
 20
7.461614173228346
 30
0.0
 11
0.7057086614173228
 21
7.492125984251968
 31
0.0
  0
LINE
  5
1E73
330
1E
100
AcDbEntity
  8
3
100
AcDbLine
 10
0.7037401574803149
 20
7.461614173228346
 30
0.0
 11
0.7037401574803149
 21
7.499015748031496
 31
0.0
  0
LINE
  5
1E74
330
1E
100
AcDbEntity
  8
3
100
AcDbLine
 10
0.7017716535433071
 20
7.461614173228346
 30
0.0
 11
0.7017716535433071
 21
7.506889763779527
 31
0.0
  0
LINE
  5
1E75
330
1E
100
AcDbEntity
  8
3
100
AcDbLine
 10
0.6998031496062992
 20
7.461614173228346
 30
0.0
 11
0.6998031496062992
 21
7.513779527559055
 31
0.0
  0
LINE
  5
1E76
330
1E
100
AcDbEntity
  8
3
100
AcDbLine
 10
0.6978346456692913
 20
7.461614173228346
 30
0.0
 11
0.6978346456692913
 21
7.521653543307087
 31
0.0
  0
LINE
  5
1E77
330
1E
100
AcDbEntity
  8
3
100
AcDbLine
 10
0.6958661417322835
 20
7.461614173228346
 30
0.0
 11
0.6958661417322835
 21
7.529527559055118
 31
0.0
  0
LINE
  5
1E78
330
1E
100
AcDbEntity
  8
3
100
AcDbLine
 10
0.6938976377952756
 20
7.461614173228346
 30
0.0
 11
0.6938976377952756
 21
7.536417322834645
 31
0.0
  0
LINE
  5
1E79
330
1E
100
AcDbEntity
  8
3
100
AcDbLine
 10
0.6919291338582677
 20
7.461614173228346
 30
0.0
 11
0.6919291338582677
 21
7.544291338582676
 31
0.0
  0
LINE
  5
1E7A
330
1E
100
AcDbEntity
  8
3
100
AcDbLine
 10
0.6899606299212599
 20
7.461614173228346
 30
0.0
 11
0.6899606299212599
 21
7.551181102362204
 31
0.0
  0
LWPOLYLINE
  5
1E7B
330
1E
100
AcDbEntity
  8
3
100
AcDbPolyline
 90
        4
 70
     0
 43
0.0098425196850394
 10
0.6899606299212599
 20
5.657480314960629
 10
0.7135826771653545
 20
5.748031496062992
 10
0.6653543307086615
 20
5.748031496062992
 10
0.6899606299212599
 20
5.657480314960629
  0
LINE
  5
1E81
330
1E
100
AcDbEntity
  8
3
100
AcDbLine
 10
0.7135826771653545
 20
5.748031496062992
 30
0.0
 11
0.7135826771653545
 21
5.747047244094487
 31
0.0
  0
LINE
  5
1E82
330
1E
100
AcDbEntity
  8
3
100
AcDbLine
 10
0.7135826771653545
 20
5.748031496062992
 30
0.0
 11
0.7135826771653545
 21
5.747047244094487
 31
0.0
  0
LINE
  5
1E83
330
1E
100
AcDbEntity
  8
3
100
AcDbLine
 10
0.7116141732283464
 20
5.748031496062992
 30
0.0
 11
0.7116141732283464
 21
5.740157480314961
 31
0.0
  0
LINE
  5
1E84
330
1E
100
AcDbEntity
  8
3
100
AcDbLine
 10
0.7096456692913386
 20
5.748031496062992
 30
0.0
 11
0.7096456692913386
 21
5.732283464566929
 31
0.0
  0
LINE
  5
1E85
330
1E
100
AcDbEntity
  8
3
100
AcDbLine
 10
0.7076771653543307
 20
5.748031496062992
 30
0.0
 11
0.7076771653543307
 21
5.724409448818898
 31
0.0
  0
LINE
  5
1E86
330
1E
100
AcDbEntity
  8
3
100
AcDbLine
 10
0.7057086614173228
 20
5.748031496062992
 30
0.0
 11
0.7057086614173228
 21
5.71751968503937
 31
0.0
  0
LINE
  5
1E87
330
1E
100
AcDbEntity
  8
3
100
AcDbLine
 10
0.7037401574803149
 20
5.748031496062992
 30
0.0
 11
0.7037401574803149
 21
5.709645669291338
 31
0.0
  0
LINE
  5
1E88
330
1E
100
AcDbEntity
  8
3
100
AcDbLine
 10
0.7017716535433071
 20
5.748031496062992
 30
0.0
 11
0.7017716535433071
 21
5.702755905511811
 31
0.0
  0
LINE
  5
1E89
330
1E
100
AcDbEntity
  8
3
100
AcDbLine
 10
0.6998031496062992
 20
5.748031496062992
 30
0.0
 11
0.6998031496062992
 21
5.694881889763779
 31
0.0
  0
LINE
  5
1E8A
330
1E
100
AcDbEntity
  8
3
100
AcDbLine
 10
0.6978346456692913
 20
5.748031496062992
 30
0.0
 11
0.6978346456692913
 21
5.687992125984251
 31
0.0
  0
LINE
  5
1E8B
330
1E
100
AcDbEntity
  8
3
100
AcDbLine
 10
0.6958661417322835
 20
5.748031496062992
 30
0.0
 11
0.6958661417322835
 21
5.68011811023622
 31
0.0
  0
LINE
  5
1E8C
330
1E
100
AcDbEntity
  8
3
100
AcDbLine
 10
0.6938976377952756
 20
5.748031496062992
 30
0.0
 11
0.6938976377952756
 21
5.672244094488188
 31
0.0
  0
LINE
  5
1E8D
330
1E
100
AcDbEntity
  8
3
100
AcDbLine
 10
0.6919291338582677
 20
5.748031496062992
 30
0.0
 11
0.6919291338582677
 21
5.665354330708661
 31
0.0
  0
LINE
  5
1E8E
330
1E
100
AcDbEntity
  8
3
100
AcDbLine
 10
0.6899606299212599
 20
5.748031496062992
 30
0.0
 11
0.6899606299212599
 21
5.657480314960629
 31
0.0
  0
LINE
  5
1E8F
330
1E
100
AcDbEntity
  8
3
100
AcDbLine
 10
0.6653543307086615
 20
5.748031496062992
 30
0.0
 11
0.6653543307086615
 21
5.747047244094487
 31
0.0
  0
LINE
  5
1E90
330
1E
100
AcDbEntity
  8
3
100
AcDbLine
 10
0.6653543307086615
 20
5.748031496062992
 30
0.0
 11
0.6653543307086615
 21
5.747047244094487
 31
0.0
  0
LINE
  5
1E91
330
1E
100
AcDbEntity
  8
3
100
AcDbLine
 10
0.6673228346456694
 20
5.748031496062992
 30
0.0
 11
0.6673228346456694
 21
5.740157480314961
 31
0.0
  0
LINE
  5
1E92
330
1E
100
AcDbEntity
  8
3
100
AcDbLine
 10
0.6692913385826773
 20
5.748031496062992
 30
0.0
 11
0.6692913385826773
 21
5.732283464566929
 31
0.0
  0
LINE
  5
1E93
330
1E
100
AcDbEntity
  8
3
100
AcDbLine
 10
0.6712598425196851
 20
5.748031496062992
 30
0.0
 11
0.6712598425196851
 21
5.724409448818898
 31
0.0
  0
LINE
  5
1E94
330
1E
100
AcDbEntity
  8
3
100
AcDbLine
 10
0.673228346456693
 20
5.748031496062992
 30
0.0
 11
0.673228346456693
 21
5.71751968503937
 31
0.0
  0
LINE
  5
1E95
330
1E
100
AcDbEntity
  8
3
100
AcDbLine
 10
0.6751968503937009
 20
5.748031496062992
 30
0.0
 11
0.6751968503937009
 21
5.709645669291338
 31
0.0
  0
LINE
  5
1E96
330
1E
100
AcDbEntity
  8
3
100
AcDbLine
 10
0.6771653543307087
 20
5.748031496062992
 30
0.0
 11
0.6771653543307087
 21
5.702755905511811
 31
0.0
  0
LINE
  5
1E97
330
1E
100
AcDbEntity
  8
3
100
AcDbLine
 10
0.6791338582677166
 20
5.748031496062992
 30
0.0
 11
0.6791338582677166
 21
5.694881889763779
 31
0.0
  0
LINE
  5
1E98
330
1E
100
AcDbEntity
  8
3
100
AcDbLine
 10
0.6820866141732284
 20
5.748031496062992
 30
0.0
 11
0.6820866141732284
 21
5.687992125984251
 31
0.0
  0
LINE
  5
1E99
330
1E
100
AcDbEntity
  8
3
100
AcDbLine
 10
0.6840551181102362
 20
5.748031496062992
 30
0.0
 11
0.6840551181102362
 21
5.68011811023622
 31
0.0
  0
LINE
  5
1E9A
330
1E
100
AcDbEntity
  8
3
100
AcDbLine
 10
0.6860236220472441
 20
5.748031496062992
 30
0.0
 11
0.6860236220472441
 21
5.672244094488188
 31
0.0
  0
LINE
  5
1E9B
330
1E
100
AcDbEntity
  8
3
100
AcDbLine
 10
0.687992125984252
 20
5.748031496062992
 30
0.0
 11
0.687992125984252
 21
5.665354330708661
 31
0.0
  0
LINE
  5
1E9C
330
1E
100
AcDbEntity
  8
3
100
AcDbLine
 10
0.6899606299212599
 20
5.748031496062992
 30
0.0
 11
0.6899606299212599
 21
5.657480314960629
 31
0.0
  0
LINE
  5
1E9D
330
1E
100
AcDbEntity
  8
3
100
AcDbLine
 10
6.843503937007874
 20
4.109251968503937
 30
0.0
 11
6.843503937007874
 21
4.71259842519685
 31
0.0
  0
LWPOLYLINE
  5
1E9E
330
1E
100
AcDbEntity
  8
3
100
AcDbPolyline
 90
        3
 70
     0
 43
0.0098425196850394
 10
6.843503937007874
 20
4.58759842519685
 10
6.765748031496062
 20
4.581692913385826
 10
6.68996062992126
 20
4.56496062992126
  0
LWPOLYLINE
  5
1EA3
330
1E
100
AcDbEntity
  8
3
100
AcDbPolyline
 90
        3
 70
     0
 43
0.0098425196850394
 10
6.405511811023622
 20
4.349409448818898
 10
6.368110236220472
 20
4.281496062992125
 10
6.340551181102362
 20
4.20767716535433
  0
LINE
  5
1EA8
330
1E
100
AcDbEntity
  8
3
100
AcDbLine
 10
6.340551181102362
 20
4.20767716535433
 30
0.0
 11
6.324803149606299
 21
4.130905511811024
 31
0.0
  0
LWPOLYLINE
  5
1EA9
330
1E
100
AcDbEntity
  8
7
100
AcDbPolyline
 90
       11
 70
     0
 43
0.0098425196850394
 10
6.380905511811024
 20
4.456692913385826
 10
6.364173228346456
 20
4.465551181102362
 10
6.364173228346456
 20
4.493110236220472
 10
6.380905511811024
 20
4.500984251968503
 10
6.417322834645669
 20
4.500984251968503
 10
6.436023622047244
 20
4.493110236220472
 10
6.436023622047244
 20
4.465551181102362
 10
6.417322834645669
 20
4.456692913385826
 10
6.380905511811024
 20
4.456692913385826
 10
6.363188976377952
 20
4.447834645669291
 10
6.363188976377952
 20
4.421259842519685
  0
LWPOLYLINE
  5
1EB6
330
1E
100
AcDbEntity
  8
7
100
AcDbPolyline
 90
        6
 70
     0
 43
0.0098425196850394
 10
6.363188976377952
 20
4.421259842519685
 10
6.380905511811024
 20
4.412401574803149
 10
6.417322834645669
 20
4.412401574803149
 10
6.436023622047244
 20
4.420275590551181
 10
6.436023622047244
 20
4.447834645669291
 10
6.417322834645669
 20
4.456692913385826
  0
LWPOLYLINE
  5
1EBE
330
1E
100
AcDbEntity
  8
7
100
AcDbPolyline
 90
        7
 70
     0
 43
0.0098425196850394
 10
6.46259842519685
 20
4.420275590551181
 10
6.479330708661417
 20
4.412401574803149
 10
6.515748031496062
 20
4.412401574803149
 10
6.533464566929134
 20
4.420275590551181
 10
6.533464566929134
 20
4.447834645669291
 10
6.515748031496062
 20
4.456692913385826
 10
6.488188976377952
 20
4.456692913385826
  0
LWPOLYLINE
  5
1EC7
330
1E
100
AcDbEntity
  8
7
100
AcDbPolyline
 90
        4
 70
     0
 43
0.0098425196850394
 10
6.515748031496062
 20
4.456692913385826
 10
6.533464566929134
 20
4.465551181102362
 10
6.533464566929134
 20
4.493110236220472
 10
6.515748031496062
 20
4.500984251968503
  0
LWPOLYLINE
  5
1ECD
330
1E
100
AcDbEntity
  8
7
100
AcDbPolyline
 90
        3
 70
     0
 43
0.0098425196850394
 10
6.515748031496062
 20
4.500984251968503
 10
6.479330708661417
 20
4.500984251968503
 10
6.461614173228346
 20
4.493110236220472
  0
LWPOLYLINE
  5
1ED2
330
1E
100
AcDbEntity
  8
7
100
AcDbPolyline
 90
        9
 70
     0
 43
0.0098425196850394
 10
6.568897637795275
 20
4.475393700787401
 10
6.577755905511811
 20
4.475393700787401
 10
6.586614173228346
 20
4.484251968503937
 10
6.586614173228346
 20
4.493110236220472
 10
6.577755905511811
 20
4.501968503937008
 10
6.568897637795275
 20
4.501968503937008
 10
6.559055118110236
 20
4.493110236220472
 10
6.559055118110236
 20
4.484251968503937
 10
6.568897637795275
 20
4.475393700787401
  0
LWPOLYLINE
  5
1EDD
330
1E
100
AcDbEntity
  8
3
100
AcDbPolyline
 90
        3
 70
     0
 43
0.0098425196850394
 10
6.843503937007874
 20
4.58759842519685
 10
6.751968503937008
 20
4.607283464566929
 10
6.753937007874015
 20
4.560039370078739
  0
LINE
  5
1EE2
330
1E
100
AcDbEntity
  8
3
100
AcDbLine
 10
6.753937007874015
 20
4.560039370078739
 30
0.0
 11
6.843503937007874
 21
4.58759842519685
 31
0.0
  0
LINE
  5
1EE3
330
1E
100
AcDbEntity
  8
3
100
AcDbLine
 10
6.751968503937008
 20
4.607283464566929
 30
0.0
 11
6.752952755905512
 21
4.607283464566929
 31
0.0
  0
LINE
  5
1EE4
330
1E
100
AcDbEntity
  8
3
100
AcDbLine
 10
6.751968503937008
 20
4.607283464566929
 30
0.0
 11
6.752952755905512
 21
4.607283464566929
 31
0.0
  0
LINE
  5
1EE5
330
1E
100
AcDbEntity
  8
3
100
AcDbLine
 10
6.751968503937008
 20
4.605314960629921
 30
0.0
 11
6.759842519685039
 21
4.606299212598425
 31
0.0
  0
LINE
  5
1EE6
330
1E
100
AcDbEntity
  8
3
100
AcDbLine
 10
6.751968503937008
 20
4.603346456692913
 30
0.0
 11
6.767716535433071
 21
4.604330708661417
 31
0.0
  0
LINE
  5
1EE7
330
1E
100
AcDbEntity
  8
3
100
AcDbLine
 10
6.751968503937008
 20
4.601377952755905
 30
0.0
 11
6.775590551181102
 21
4.602362204724409
 31
0.0
  0
LINE
  5
1EE8
330
1E
100
AcDbEntity
  8
3
100
AcDbLine
 10
6.752952755905512
 20
4.599409448818898
 30
0.0
 11
6.782480314960629
 21
4.601377952755905
 31
0.0
  0
LINE
  5
1EE9
330
1E
100
AcDbEntity
  8
3
100
AcDbLine
 10
6.752952755905512
 20
4.597440944881889
 30
0.0
 11
6.790354330708661
 21
4.599409448818898
 31
0.0
  0
LINE
  5
1EEA
330
1E
100
AcDbEntity
  8
3
100
AcDbLine
 10
6.752952755905512
 20
4.595472440944882
 30
0.0
 11
6.798228346456692
 21
4.597440944881889
 31
0.0
  0
LINE
  5
1EEB
330
1E
100
AcDbEntity
  8
3
100
AcDbLine
 10
6.752952755905512
 20
4.593503937007874
 30
0.0
 11
6.80511811023622
 21
4.595472440944882
 31
0.0
  0
LINE
  5
1EEC
330
1E
100
AcDbEntity
  8
3
100
AcDbLine
 10
6.752952755905512
 20
4.591535433070866
 30
0.0
 11
6.812992125984251
 21
4.594488188976377
 31
0.0
  0
LINE
  5
1EED
330
1E
100
AcDbEntity
  8
3
100
AcDbLine
 10
6.752952755905512
 20
4.589566929133858
 30
0.0
 11
6.820866141732283
 21
4.59251968503937
 31
0.0
  0
LINE
  5
1EEE
330
1E
100
AcDbEntity
  8
3
100
AcDbLine
 10
6.752952755905512
 20
4.58759842519685
 30
0.0
 11
6.827755905511811
 21
4.590551181102362
 31
0.0
  0
LINE
  5
1EEF
330
1E
100
AcDbEntity
  8
3
100
AcDbLine
 10
6.752952755905512
 20
4.585629921259842
 30
0.0
 11
6.835629921259842
 21
4.589566929133858
 31
0.0
  0
LINE
  5
1EF0
330
1E
100
AcDbEntity
  8
3
100
AcDbLine
 10
6.752952755905512
 20
4.583661417322834
 30
0.0
 11
6.843503937007874
 21
4.58759842519685
 31
0.0
  0
LINE
  5
1EF1
330
1E
100
AcDbEntity
  8
3
100
AcDbLine
 10
6.753937007874015
 20
4.560039370078739
 30
0.0
 11
6.754921259842519
 21
4.560039370078739
 31
0.0
  0
LINE
  5
1EF2
330
1E
100
AcDbEntity
  8
3
100
AcDbLine
 10
6.753937007874015
 20
4.560039370078739
 30
0.0
 11
6.754921259842519
 21
4.560039370078739
 31
0.0
  0
LINE
  5
1EF3
330
1E
100
AcDbEntity
  8
3
100
AcDbLine
 10
6.753937007874015
 20
4.562007874015748
 30
0.0
 11
6.761811023622047
 21
4.562007874015748
 31
0.0
  0
LINE
  5
1EF4
330
1E
100
AcDbEntity
  8
3
100
AcDbLine
 10
6.753937007874015
 20
4.563976377952755
 30
0.0
 11
6.769685039370078
 21
4.563976377952755
 31
0.0
  0
LINE
  5
1EF5
330
1E
100
AcDbEntity
  8
3
100
AcDbLine
 10
6.753937007874015
 20
4.565944881889763
 30
0.0
 11
6.776574803149606
 21
4.566929133858267
 31
0.0
  0
LINE
  5
1EF6
330
1E
100
AcDbEntity
  8
3
100
AcDbLine
 10
6.753937007874015
 20
4.567913385826771
 30
0.0
 11
6.784448818897637
 21
4.568897637795275
 31
0.0
  0
LINE
  5
1EF7
330
1E
100
AcDbEntity
  8
3
100
AcDbLine
 10
6.753937007874015
 20
4.569881889763779
 30
0.0
 11
6.791338582677165
 21
4.570866141732283
 31
0.0
  0
LINE
  5
1EF8
330
1E
100
AcDbEntity
  8
3
100
AcDbLine
 10
6.753937007874015
 20
4.571850393700787
 30
0.0
 11
6.799212598425197
 21
4.573818897637795
 31
0.0
  0
LINE
  5
1EF9
330
1E
100
AcDbEntity
  8
3
100
AcDbLine
 10
6.753937007874015
 20
4.573818897637795
 30
0.0
 11
6.806102362204724
 21
4.575787401574802
 31
0.0
  0
LINE
  5
1EFA
330
1E
100
AcDbEntity
  8
3
100
AcDbLine
 10
6.753937007874015
 20
4.575787401574802
 30
0.0
 11
6.813976377952755
 21
4.578740157480314
 31
0.0
  0
LINE
  5
1EFB
330
1E
100
AcDbEntity
  8
3
100
AcDbLine
 10
6.753937007874015
 20
4.577755905511811
 30
0.0
 11
6.820866141732283
 21
4.580708661417323
 31
0.0
  0
LINE
  5
1EFC
330
1E
100
AcDbEntity
  8
3
100
AcDbLine
 10
6.752952755905512
 20
4.579724409448818
 30
0.0
 11
6.828740157480314
 21
4.58267716535433
 31
0.0
  0
LINE
  5
1EFD
330
1E
100
AcDbEntity
  8
3
100
AcDbLine
 10
6.752952755905512
 20
4.581692913385826
 30
0.0
 11
6.835629921259842
 21
4.585629921259842
 31
0.0
  0
LINE
  5
1EFE
330
1E
100
AcDbEntity
  8
3
100
AcDbLine
 10
6.752952755905512
 20
4.583661417322834
 30
0.0
 11
6.843503937007874
 21
4.58759842519685
 31
0.0
  0
LWPOLYLINE
  5
1EFF
330
1E
100
AcDbEntity
  8
3
100
AcDbPolyline
 90
        4
 70
     0
 43
0.0098425196850394
 10
6.324803149606299
 20
4.130905511811024
 10
6.363188976377952
 20
4.215551181102362
 10
6.315944881889763
 20
4.223425196850393
 10
6.324803149606299
 20
4.130905511811024
  0
LINE
  5
1F05
330
1E
100
AcDbEntity
  8
3
100
AcDbLine
 10
6.361220472440945
 20
4.215551181102362
 30
0.0
 11
6.36023622047244
 21
4.20767716535433
 31
0.0
  0
LINE
  5
1F06
330
1E
100
AcDbEntity
  8
3
100
AcDbLine
 10
6.359251968503937
 20
4.216535433070866
 30
0.0
 11
6.356299212598425
 21
4.200787401574802
 31
0.0
  0
LINE
  5
1F07
330
1E
100
AcDbEntity
  8
3
100
AcDbLine
 10
6.357283464566929
 20
4.216535433070866
 30
0.0
 11
6.353346456692913
 21
4.193897637795275
 31
0.0
  0
LINE
  5
1F08
330
1E
100
AcDbEntity
  8
3
100
AcDbLine
 10
6.355314960629921
 20
4.216535433070866
 30
0.0
 11
6.350393700787401
 21
4.187007874015748
 31
0.0
  0
LINE
  5
1F09
330
1E
100
AcDbEntity
  8
3
100
AcDbLine
 10
6.353346456692913
 20
4.21751968503937
 30
0.0
 11
6.347440944881889
 21
4.18011811023622
 31
0.0
  0
LINE
  5
1F0A
330
1E
100
AcDbEntity
  8
3
100
AcDbLine
 10
6.351377952755905
 20
4.21751968503937
 30
0.0
 11
6.343503937007874
 21
4.173228346456692
 31
0.0
  0
LINE
  5
1F0B
330
1E
100
AcDbEntity
  8
3
100
AcDbLine
 10
6.349409448818897
 20
4.21751968503937
 30
0.0
 11
6.340551181102362
 21
4.166338582677165
 31
0.0
  0
LINE
  5
1F0C
330
1E
100
AcDbEntity
  8
3
100
AcDbLine
 10
6.347440944881889
 20
4.218503937007874
 30
0.0
 11
6.33759842519685
 21
4.158464566929134
 31
0.0
  0
LINE
  5
1F0D
330
1E
100
AcDbEntity
  8
3
100
AcDbLine
 10
6.345472440944881
 20
4.218503937007874
 30
0.0
 11
6.333661417322834
 21
4.151574803149606
 31
0.0
  0
LINE
  5
1F0E
330
1E
100
AcDbEntity
  8
3
100
AcDbLine
 10
6.343503937007874
 20
4.218503937007874
 30
0.0
 11
6.330708661417323
 21
4.144685039370078
 31
0.0
  0
LINE
  5
1F0F
330
1E
100
AcDbEntity
  8
3
100
AcDbLine
 10
6.341535433070865
 20
4.219488188976377
 30
0.0
 11
6.327755905511811
 21
4.13779527559055
 31
0.0
  0
LINE
  5
1F10
330
1E
100
AcDbEntity
  8
3
100
AcDbLine
 10
6.339566929133858
 20
4.219488188976377
 30
0.0
 11
6.324803149606299
 21
4.130905511811024
 31
0.0
  0
LINE
  5
1F11
330
1E
100
AcDbEntity
  8
3
100
AcDbLine
 10
6.317913385826771
 20
4.223425196850393
 30
0.0
 11
6.316929133858267
 21
4.215551181102362
 31
0.0
  0
LINE
  5
1F12
330
1E
100
AcDbEntity
  8
3
100
AcDbLine
 10
6.319881889763779
 20
4.223425196850393
 30
0.0
 11
6.316929133858267
 21
4.20767716535433
 31
0.0
  0
LINE
  5
1F13
330
1E
100
AcDbEntity
  8
3
100
AcDbLine
 10
6.321850393700787
 20
4.222440944881889
 30
0.0
 11
6.317913385826771
 21
4.199803149606299
 31
0.0
  0
LINE
  5
1F14
330
1E
100
AcDbEntity
  8
3
100
AcDbLine
 10
6.323818897637795
 20
4.222440944881889
 30
0.0
 11
6.318897637795275
 21
4.191929133858267
 31
0.0
  0
LINE
  5
1F15
330
1E
100
AcDbEntity
  8
3
100
AcDbLine
 10
6.325787401574802
 20
4.221456692913386
 30
0.0
 11
6.319881889763779
 21
4.185039370078739
 31
0.0
  0
LINE
  5
1F16
330
1E
100
AcDbEntity
  8
3
100
AcDbLine
 10
6.327755905511811
 20
4.221456692913386
 30
0.0
 11
6.319881889763779
 21
4.177165354330708
 31
0.0
  0
LINE
  5
1F17
330
1E
100
AcDbEntity
  8
3
100
AcDbLine
 10
6.329724409448818
 20
4.221456692913386
 30
0.0
 11
6.320866141732283
 21
4.169291338582676
 31
0.0
  0
LINE
  5
1F18
330
1E
100
AcDbEntity
  8
3
100
AcDbLine
 10
6.331692913385826
 20
4.220472440944882
 30
0.0
 11
6.321850393700787
 21
4.161417322834645
 31
0.0
  0
LINE
  5
1F19
330
1E
100
AcDbEntity
  8
3
100
AcDbLine
 10
6.333661417322834
 20
4.220472440944882
 30
0.0
 11
6.321850393700787
 21
4.153543307086613
 31
0.0
  0
LINE
  5
1F1A
330
1E
100
AcDbEntity
  8
3
100
AcDbLine
 10
6.335629921259842
 20
4.220472440944882
 30
0.0
 11
6.322834645669291
 21
4.146653543307087
 31
0.0
  0
LINE
  5
1F1B
330
1E
100
AcDbEntity
  8
3
100
AcDbLine
 10
6.33759842519685
 20
4.219488188976377
 30
0.0
 11
6.323818897637795
 21
4.138779527559055
 31
0.0
  0
LINE
  5
1F1C
330
1E
100
AcDbEntity
  8
3
100
AcDbLine
 10
6.339566929133858
 20
4.219488188976377
 30
0.0
 11
6.324803149606299
 21
4.130905511811024
 31
0.0
  0
LWPOLYLINE
  5
1F1D
330
1E
100
AcDbEntity
  8
7
100
AcDbPolyline
 90
        4
 70
     0
 43
0.0098425196850394
 10
2.099409448818897
 20
7.792322834645669
 10
2.054133858267716
 20
7.792322834645669
 10
2.054133858267716
 20
7.624015748031496
 10
2.099409448818897
 20
7.624015748031496
  0
LWPOLYLINE
  5
1F23
330
1E
100
AcDbEntity
  8
7
100
AcDbPolyline
 90
        4
 70
     0
 43
0.0098425196850394
 10
2.569881889763779
 20
7.624015748031496
 10
2.614173228346456
 20
7.624015748031496
 10
2.614173228346456
 20
7.792322834645669
 10
2.569881889763779
 20
7.792322834645669
  0
LINE
  5
1F29
330
1E
100
AcDbEntity
  8
3
100
AcDbLine
 10
1.237204724409448
 20
7.59251968503937
 30
0.0
 11
1.237204724409448
 21
8.052165354330707
 31
0.0
  0
LINE
  5
1F2A
330
1E
100
AcDbEntity
  8
3
100
AcDbLine
 10
3.432086614173228
 20
7.59251968503937
 30
0.0
 11
3.432086614173228
 21
8.052165354330707
 31
0.0
  0
LINE
  5
1F2B
330
1E
100
AcDbEntity
  8
3
100
AcDbLine
 10
1.237204724409448
 20
7.927165354330708
 30
0.0
 11
1.992125984251968
 21
7.927165354330708
 31
0.0
  0
LINE
  5
1F2C
330
1E
100
AcDbEntity
  8
3
100
AcDbLine
 10
3.432086614173228
 20
7.927165354330708
 30
0.0
 11
2.598425196850393
 21
7.927165354330708
 31
0.0
  0
LWPOLYLINE
  5
1F2D
330
1E
100
AcDbEntity
  8
7
100
AcDbPolyline
 90
        3
 70
     0
 43
0.0098425196850394
 10
2.09251968503937
 20
7.963582677165354
 10
2.099409448818897
 20
7.971456692913386
 10
2.099409448818897
 20
7.882874015748031
  0
LINE
  5
1F32
330
1E
100
AcDbEntity
  8
7
100
AcDbLine
 10
2.088582677165354
 20
7.882874015748031
 30
0.0
 11
2.111220472440944
 21
7.882874015748031
 31
0.0
  0
LWPOLYLINE
  5
1F33
330
1E
100
AcDbEntity
  8
7
100
AcDbPolyline
 90
        3
 70
     0
 43
0.0098425196850394
 10
2.187992125984251
 20
7.882874015748031
 10
2.233267716535433
 20
7.971456692913386
 10
2.162401574803149
 20
7.971456692913386
  0
LWPOLYLINE
  5
1F38
330
1E
100
AcDbEntity
  8
7
100
AcDbPolyline
 90
        5
 70
     0
 43
0.0098425196850394
 10
2.286417322834645
 20
7.882874015748031
 10
2.304133858267716
 20
7.882874015748031
 10
2.304133858267716
 20
7.900590551181102
 10
2.286417322834645
 20
7.900590551181102
 10
2.286417322834645
 20
7.882874015748031
  0
LINE
  5
1F3F
330
1E
100
AcDbEntity
  8
7
100
AcDbLine
 10
2.357283464566929
 20
7.890748031496062
 30
0.0
 11
2.375
 21
7.882874015748031
 31
0.0
  0
LWPOLYLINE
  5
1F40
330
1E
100
AcDbEntity
  8
7
100
AcDbPolyline
 90
        9
 70
     0
 43
0.0098425196850394
 10
2.375
 20
7.882874015748031
 10
2.411417322834645
 20
7.882874015748031
 10
2.429133858267716
 20
7.890748031496062
 10
2.429133858267716
 20
7.926181102362204
 10
2.411417322834645
 20
7.936023622047244
 10
2.375
 20
7.936023622047244
 10
2.357283464566929
 20
7.927165354330708
 10
2.357283464566929
 20
7.971456692913386
 10
2.429133858267716
 20
7.971456692913386
  0
LWPOLYLINE
  5
1F4B
330
1E
100
AcDbEntity
  8
7
100
AcDbPolyline
 90
        7
 70
     0
 43
0.0098425196850394
 10
2.455708661417323
 20
7.918307086614173
 10
2.473425196850393
 20
7.936023622047244
 10
2.509842519685039
 20
7.936023622047244
 10
2.52755905511811
 20
7.918307086614173
 10
2.52755905511811
 20
7.900590551181102
 10
2.509842519685039
 20
7.882874015748031
 10
2.473425196850393
 20
7.882874015748031
  0
LWPOLYLINE
  5
1F54
330
1E
100
AcDbEntity
  8
7
100
AcDbPolyline
 90
        6
 70
     0
 43
0.0098425196850394
 10
2.473425196850393
 20
7.882874015748031
 10
2.455708661417323
 20
7.900590551181102
 10
2.455708661417323
 20
7.953740157480314
 10
2.473425196850393
 20
7.971456692913386
 10
2.509842519685039
 20
7.971456692913386
 10
2.52755905511811
 20
7.953740157480314
  0
LWPOLYLINE
  5
1F5C
330
1E
100
AcDbEntity
  8
7
100
AcDbPolyline
 90
        4
 70
     0
 43
0.0098425196850394
 10
2.174212598425196
 20
7.698818897637795
 10
2.103346456692913
 20
7.698818897637795
 10
2.156496062992125
 20
7.751968503937008
 10
2.156496062992125
 20
7.663385826771653
  0
LWPOLYLINE
  5
1F62
330
1E
100
AcDbEntity
  8
7
100
AcDbPolyline
 90
        4
 70
     0
 43
0.0098425196850394
 10
2.27263779527559
 20
7.698818897637795
 10
2.201771653543307
 20
7.698818897637795
 10
2.254921259842519
 20
7.751968503937008
 10
2.254921259842519
 20
7.663385826771653
  0
LWPOLYLINE
  5
1F68
330
1E
100
AcDbEntity
  8
7
100
AcDbPolyline
 90
       12
 70
     0
 43
0.0098425196850394
 10
2.299212598425196
 20
7.698818897637795
 10
2.315944881889763
 20
7.716535433070865
 10
2.352362204724409
 20
7.716535433070865
 10
2.371062992125984
 20
7.698818897637795
 10
2.371062992125984
 20
7.681102362204724
 10
2.352362204724409
 20
7.663385826771653
 10
2.315944881889763
 20
7.663385826771653
 10
2.299212598425196
 20
7.681102362204724
 10
2.299212598425196
 20
7.734251968503937
 10
2.315944881889763
 20
7.751968503937008
 10
2.352362204724409
 20
7.751968503937008
 10
2.371062992125984
 20
7.734251968503937
  0
LWPOLYLINE
  5
1F76
330
1E
100
AcDbEntity
  8
7
100
AcDbPolyline
 90
        3
 70
     0
 43
0.0098425196850394
 10
2.424212598425196
 20
7.663385826771653
 10
2.441929133858267
 20
7.663385826771653
 10
2.441929133858267
 20
7.681102362204724
  0
LWPOLYLINE
  5
1F7B
330
1E
100
AcDbEntity
  8
7
100
AcDbPolyline
 90
        3
 70
     0
 43
0.0098425196850394
 10
2.441929133858267
 20
7.681102362204724
 10
2.424212598425196
 20
7.681102362204724
 10
2.424212598425196
 20
7.663385826771653
  0
LWPOLYLINE
  5
1F80
330
1E
100
AcDbEntity
  8
7
100
AcDbPolyline
 90
       13
 70
     0
 43
0.0098425196850394
 10
2.539370078740157
 20
7.663385826771653
 10
2.557086614173228
 20
7.672244094488188
 10
2.566929133858267
 20
7.698818897637795
 10
2.566929133858267
 20
7.716535433070865
 10
2.557086614173228
 20
7.744094488188976
 10
2.539370078740157
 20
7.751968503937008
 10
2.521653543307086
 20
7.751968503937008
 10
2.503937007874015
 20
7.744094488188976
 10
2.49507874015748
 20
7.716535433070865
 10
2.49507874015748
 20
7.698818897637795
 10
2.503937007874015
 20
7.672244094488188
 10
2.521653543307086
 20
7.663385826771653
 10
2.539370078740157
 20
7.663385826771653
  0
LWPOLYLINE
  5
1F8F
330
1E
100
AcDbEntity
  8
3
100
AcDbPolyline
 90
        4
 70
     0
 43
0.0098425196850394
 10
1.237204724409448
 20
7.927165354330708
 10
1.326771653543306
 20
7.903543307086613
 10
1.326771653543306
 20
7.951771653543307
 10
1.237204724409448
 20
7.927165354330708
  0
LINE
  5
1F95
330
1E
100
AcDbEntity
  8
3
100
AcDbLine
 10
1.326771653543306
 20
7.905511811023622
 30
0.0
 11
1.318897637795275
 21
7.905511811023622
 31
0.0
  0
LINE
  5
1F96
330
1E
100
AcDbEntity
  8
3
100
AcDbLine
 10
1.326771653543306
 20
7.907480314960629
 30
0.0
 11
1.312007874015747
 21
7.907480314960629
 31
0.0
  0
LINE
  5
1F97
330
1E
100
AcDbEntity
  8
3
100
AcDbLine
 10
1.326771653543306
 20
7.909448818897637
 30
0.0
 11
1.304133858267716
 21
7.909448818897637
 31
0.0
  0
LINE
  5
1F98
330
1E
100
AcDbEntity
  8
3
100
AcDbLine
 10
1.326771653543306
 20
7.911417322834645
 30
0.0
 11
1.297244094488188
 21
7.911417322834645
 31
0.0
  0
LINE
  5
1F99
330
1E
100
AcDbEntity
  8
3
100
AcDbLine
 10
1.326771653543306
 20
7.913385826771653
 30
0.0
 11
1.289370078740157
 21
7.913385826771653
 31
0.0
  0
LINE
  5
1F9A
330
1E
100
AcDbEntity
  8
3
100
AcDbLine
 10
1.326771653543306
 20
7.915354330708661
 30
0.0
 11
1.281496062992125
 21
7.915354330708661
 31
0.0
  0
LINE
  5
1F9B
330
1E
100
AcDbEntity
  8
3
100
AcDbLine
 10
1.326771653543306
 20
7.917322834645669
 30
0.0
 11
1.274606299212598
 21
7.917322834645669
 31
0.0
  0
LINE
  5
1F9C
330
1E
100
AcDbEntity
  8
3
100
AcDbLine
 10
1.326771653543306
 20
7.919291338582676
 30
0.0
 11
1.266732283464566
 21
7.919291338582676
 31
0.0
  0
LINE
  5
1F9D
330
1E
100
AcDbEntity
  8
3
100
AcDbLine
 10
1.326771653543306
 20
7.921259842519685
 30
0.0
 11
1.259842519685039
 21
7.921259842519685
 31
0.0
  0
LINE
  5
1F9E
330
1E
100
AcDbEntity
  8
3
100
AcDbLine
 10
1.326771653543306
 20
7.923228346456692
 30
0.0
 11
1.251968503937007
 21
7.923228346456692
 31
0.0
  0
LINE
  5
1F9F
330
1E
100
AcDbEntity
  8
3
100
AcDbLine
 10
1.326771653543306
 20
7.9251968503937
 30
0.0
 11
1.244094488188976
 21
7.9251968503937
 31
0.0
  0
LINE
  5
1FA0
330
1E
100
AcDbEntity
  8
3
100
AcDbLine
 10
1.326771653543306
 20
7.927165354330708
 30
0.0
 11
1.237204724409448
 21
7.927165354330708
 31
0.0
  0
LINE
  5
1FA1
330
1E
100
AcDbEntity
  8
3
100
AcDbLine
 10
1.326771653543306
 20
7.949803149606299
 30
0.0
 11
1.318897637795275
 21
7.949803149606299
 31
0.0
  0
LINE
  5
1FA2
330
1E
100
AcDbEntity
  8
3
100
AcDbLine
 10
1.326771653543306
 20
7.947834645669291
 30
0.0
 11
1.312007874015747
 21
7.947834645669291
 31
0.0
  0
LINE
  5
1FA3
330
1E
100
AcDbEntity
  8
3
100
AcDbLine
 10
1.326771653543306
 20
7.945866141732283
 30
0.0
 11
1.304133858267716
 21
7.945866141732283
 31
0.0
  0
LINE
  5
1FA4
330
1E
100
AcDbEntity
  8
3
100
AcDbLine
 10
1.326771653543306
 20
7.943897637795275
 30
0.0
 11
1.297244094488188
 21
7.943897637795275
 31
0.0
  0
LINE
  5
1FA5
330
1E
100
AcDbEntity
  8
3
100
AcDbLine
 10
1.326771653543306
 20
7.941929133858267
 30
0.0
 11
1.289370078740157
 21
7.941929133858267
 31
0.0
  0
LINE
  5
1FA6
330
1E
100
AcDbEntity
  8
3
100
AcDbLine
 10
1.326771653543306
 20
7.93996062992126
 30
0.0
 11
1.281496062992125
 21
7.93996062992126
 31
0.0
  0
LINE
  5
1FA7
330
1E
100
AcDbEntity
  8
3
100
AcDbLine
 10
1.326771653543306
 20
7.937007874015748
 30
0.0
 11
1.274606299212598
 21
7.937007874015748
 31
0.0
  0
LINE
  5
1FA8
330
1E
100
AcDbEntity
  8
3
100
AcDbLine
 10
1.326771653543306
 20
7.935039370078739
 30
0.0
 11
1.266732283464566
 21
7.935039370078739
 31
0.0
  0
LINE
  5
1FA9
330
1E
100
AcDbEntity
  8
3
100
AcDbLine
 10
1.326771653543306
 20
7.933070866141732
 30
0.0
 11
1.259842519685039
 21
7.933070866141732
 31
0.0
  0
LINE
  5
1FAA
330
1E
100
AcDbEntity
  8
3
100
AcDbLine
 10
1.326771653543306
 20
7.931102362204724
 30
0.0
 11
1.251968503937007
 21
7.931102362204724
 31
0.0
  0
LINE
  5
1FAB
330
1E
100
AcDbEntity
  8
3
100
AcDbLine
 10
1.326771653543306
 20
7.929133858267716
 30
0.0
 11
1.244094488188976
 21
7.929133858267716
 31
0.0
  0
LINE
  5
1FAC
330
1E
100
AcDbEntity
  8
3
100
AcDbLine
 10
1.326771653543306
 20
7.927165354330708
 30
0.0
 11
1.237204724409448
 21
7.927165354330708
 31
0.0
  0
LWPOLYLINE
  5
1FAD
330
1E
100
AcDbEntity
  8
3
100
AcDbPolyline
 90
        4
 70
     0
 43
0.0098425196850394
 10
3.432086614173228
 20
7.927165354330708
 10
3.34251968503937
 20
7.951771653543307
 10
3.34251968503937
 20
7.903543307086613
 10
3.432086614173228
 20
7.927165354330708
  0
LINE
  5
1FB3
330
1E
100
AcDbEntity
  8
3
100
AcDbLine
 10
3.34251968503937
 20
7.949803149606299
 30
0.0
 11
3.350393700787401
 21
7.949803149606299
 31
0.0
  0
LINE
  5
1FB4
330
1E
100
AcDbEntity
  8
3
100
AcDbLine
 10
3.34251968503937
 20
7.947834645669291
 30
0.0
 11
3.357283464566929
 21
7.947834645669291
 31
0.0
  0
LINE
  5
1FB5
330
1E
100
AcDbEntity
  8
3
100
AcDbLine
 10
3.34251968503937
 20
7.945866141732283
 30
0.0
 11
3.36515748031496
 21
7.945866141732283
 31
0.0
  0
LINE
  5
1FB6
330
1E
100
AcDbEntity
  8
3
100
AcDbLine
 10
3.34251968503937
 20
7.943897637795275
 30
0.0
 11
3.372047244094488
 21
7.943897637795275
 31
0.0
  0
LINE
  5
1FB7
330
1E
100
AcDbEntity
  8
3
100
AcDbLine
 10
3.34251968503937
 20
7.941929133858267
 30
0.0
 11
3.379921259842519
 21
7.941929133858267
 31
0.0
  0
LINE
  5
1FB8
330
1E
100
AcDbEntity
  8
3
100
AcDbLine
 10
3.34251968503937
 20
7.93996062992126
 30
0.0
 11
3.386811023622047
 21
7.93996062992126
 31
0.0
  0
LINE
  5
1FB9
330
1E
100
AcDbEntity
  8
3
100
AcDbLine
 10
3.34251968503937
 20
7.937007874015748
 30
0.0
 11
3.394685039370078
 21
7.937007874015748
 31
0.0
  0
LINE
  5
1FBA
330
1E
100
AcDbEntity
  8
3
100
AcDbLine
 10
3.34251968503937
 20
7.935039370078739
 30
0.0
 11
3.40255905511811
 21
7.935039370078739
 31
0.0
  0
LINE
  5
1FBB
330
1E
100
AcDbEntity
  8
3
100
AcDbLine
 10
3.34251968503937
 20
7.933070866141732
 30
0.0
 11
3.409448818897637
 21
7.933070866141732
 31
0.0
  0
LINE
  5
1FBC
330
1E
100
AcDbEntity
  8
3
100
AcDbLine
 10
3.34251968503937
 20
7.931102362204724
 30
0.0
 11
3.417322834645669
 21
7.931102362204724
 31
0.0
  0
LINE
  5
1FBD
330
1E
100
AcDbEntity
  8
3
100
AcDbLine
 10
3.34251968503937
 20
7.929133858267716
 30
0.0
 11
3.424212598425196
 21
7.929133858267716
 31
0.0
  0
LINE
  5
1FBE
330
1E
100
AcDbEntity
  8
3
100
AcDbLine
 10
3.34251968503937
 20
7.927165354330708
 30
0.0
 11
3.432086614173228
 21
7.927165354330708
 31
0.0
  0
LINE
  5
1FBF
330
1E
100
AcDbEntity
  8
3
100
AcDbLine
 10
3.34251968503937
 20
7.905511811023622
 30
0.0
 11
3.350393700787401
 21
7.905511811023622
 31
0.0
  0
LINE
  5
1FC0
330
1E
100
AcDbEntity
  8
3
100
AcDbLine
 10
3.34251968503937
 20
7.907480314960629
 30
0.0
 11
3.357283464566929
 21
7.907480314960629
 31
0.0
  0
LINE
  5
1FC1
330
1E
100
AcDbEntity
  8
3
100
AcDbLine
 10
3.34251968503937
 20
7.909448818897637
 30
0.0
 11
3.36515748031496
 21
7.909448818897637
 31
0.0
  0
LINE
  5
1FC2
330
1E
100
AcDbEntity
  8
3
100
AcDbLine
 10
3.34251968503937
 20
7.911417322834645
 30
0.0
 11
3.372047244094488
 21
7.911417322834645
 31
0.0
  0
LINE
  5
1FC3
330
1E
100
AcDbEntity
  8
3
100
AcDbLine
 10
3.34251968503937
 20
7.913385826771653
 30
0.0
 11
3.379921259842519
 21
7.913385826771653
 31
0.0
  0
LINE
  5
1FC4
330
1E
100
AcDbEntity
  8
3
100
AcDbLine
 10
3.34251968503937
 20
7.915354330708661
 30
0.0
 11
3.386811023622047
 21
7.915354330708661
 31
0.0
  0
LINE
  5
1FC5
330
1E
100
AcDbEntity
  8
3
100
AcDbLine
 10
3.34251968503937
 20
7.917322834645669
 30
0.0
 11
3.394685039370078
 21
7.917322834645669
 31
0.0
  0
LINE
  5
1FC6
330
1E
100
AcDbEntity
  8
3
100
AcDbLine
 10
3.34251968503937
 20
7.919291338582676
 30
0.0
 11
3.40255905511811
 21
7.919291338582676
 31
0.0
  0
LINE
  5
1FC7
330
1E
100
AcDbEntity
  8
3
100
AcDbLine
 10
3.34251968503937
 20
7.921259842519685
 30
0.0
 11
3.409448818897637
 21
7.921259842519685
 31
0.0
  0
LINE
  5
1FC8
330
1E
100
AcDbEntity
  8
3
100
AcDbLine
 10
3.34251968503937
 20
7.923228346456692
 30
0.0
 11
3.417322834645669
 21
7.923228346456692
 31
0.0
  0
LINE
  5
1FC9
330
1E
100
AcDbEntity
  8
3
100
AcDbLine
 10
3.34251968503937
 20
7.9251968503937
 30
0.0
 11
3.424212598425196
 21
7.9251968503937
 31
0.0
  0
LINE
  5
1FCA
330
1E
100
AcDbEntity
  8
3
100
AcDbLine
 10
3.34251968503937
 20
7.927165354330708
 30
0.0
 11
3.432086614173228
 21
7.927165354330708
 31
0.0
  0
LINE
  5
224E
330
1E
100
AcDbEntity
  8
7
100
AcDbLine
 10
3.417322834645669
 20
5.669291338582676
 30
0.0
 11
3.421259842519685
 21
5.669291338582676
 31
0.0
  0
LINE
  5
224F
330
1E
100
AcDbEntity
  8
7
100
AcDbLine
 10
3.421259842519685
 20
7.540354330708661
 30
0.0
 11
3.421259842519685
 21
5.669291338582676
 31
0.0
  0
LINE
  5
2250
330
1E
100
AcDbEntity
  8
7
100
AcDbLine
 10
1.248031496062992
 20
7.540354330708661
 30
0.0
 11
3.421259842519685
 21
7.540354330708661
 31
0.0
  0
LWPOLYLINE
  5
2251
330
1E
100
AcDbEntity
  8
7
100
AcDbPolyline
 90
        4
 70
     0
 43
0.0098425196850394
 10
1.248031496062992
 20
7.540354330708661
 10
1.248031496062992
 20
5.669291338582676
 10
1.250984251968503
 20
5.669291338582676
 10
1.250984251968503
 20
5.670275590551181
  0
LWPOLYLINE
  5
2257
330
1E
100
AcDbEntity
  8
7
100
AcDbPolyline
 90
        3
 70
     0
 43
0.0098425196850394
 10
1.263779527559055
 20
5.670275590551181
 10
1.257874015748031
 20
5.676181102362204
 10
1.251968503937007
 20
5.670275590551181
  0
LINE
  5
225C
330
1E
100
AcDbEntity
  8
7
100
AcDbLine
 10
1.263779527559055
 20
5.669291338582676
 30
0.0
 11
1.263779527559055
 21
5.670275590551181
 31
0.0
  0
LWPOLYLINE
  5
225D
330
1E
100
AcDbEntity
  8
7
100
AcDbPolyline
 90
        3
 70
     0
 43
0.0098425196850394
 10
1.263779527559055
 20
5.669291338582676
 10
3.405511811023622
 20
5.669291338582676
 10
3.405511811023622
 20
5.670275590551181
  0
LWPOLYLINE
  5
2262
330
1E
100
AcDbEntity
  8
7
100
AcDbPolyline
 90
        3
 70
     0
 43
0.0098425196850394
 10
3.417322834645669
 20
5.670275590551181
 10
3.411417322834645
 20
5.676181102362204
 10
3.405511811023622
 20
5.670275590551181
  0
LINE
  5
2267
330
1E
100
AcDbEntity
  8
7
100
AcDbLine
 10
3.417322834645669
 20
5.669291338582676
 30
0.0
 11
3.417322834645669
 21
5.670275590551181
 31
0.0
  0
LINE
  5
2268
330
1E
100
AcDbEntity
  8
7
100
AcDbLine
 10
3.259842519685039
 20
7.460629921259842
 30
0.0
 11
3.259842519685039
 21
7.484251968503937
 31
0.0
  0
LWPOLYLINE
  5
2269
330
1E
100
AcDbEntity
  8
7
100
AcDbPolyline
 90
        3
 70
     0
 43
0.0098425196850394
 10
3.28248031496063
 20
7.484251968503937
 10
3.27755905511811
 20
7.494094488188976
 10
3.266732283464567
 20
7.494094488188976
  0
LINE
  5
226E
330
1E
100
AcDbEntity
  8
7
100
AcDbLine
 10
3.266732283464567
 20
7.494094488188976
 30
0.0
 11
3.260826771653543
 21
7.484251968503937
 31
0.0
  0
LINE
  5
226F
330
1E
100
AcDbEntity
  8
7
100
AcDbLine
 10
3.283464566929133
 20
7.460629921259842
 30
0.0
 11
3.283464566929133
 21
7.484251968503937
 31
0.0
  0
LWPOLYLINE
  5
2270
330
1E
100
AcDbEntity
  8
7
100
AcDbPolyline
 90
        4
 70
     0
 43
0.0098425196850394
 10
3.260826771653543
 20
7.460629921259842
 10
3.265748031496062
 20
7.450787401574802
 10
3.276574803149606
 20
7.450787401574802
 10
3.28248031496063
 20
7.460629921259842
  0
LINE
  5
2276
330
1E
100
AcDbEntity
  8
7
100
AcDbLine
 10
1.384842519685039
 20
7.460629921259842
 30
0.0
 11
1.384842519685039
 21
7.484251968503937
 31
0.0
  0
LWPOLYLINE
  5
2277
330
1E
100
AcDbEntity
  8
7
100
AcDbPolyline
 90
        4
 70
     0
 43
0.0098425196850394
 10
1.407480314960629
 20
7.484251968503937
 10
1.40255905511811
 20
7.494094488188976
 10
1.391732283464566
 20
7.494094488188976
 10
1.385826771653543
 20
7.484251968503937
  0
LINE
  5
227D
330
1E
100
AcDbEntity
  8
7
100
AcDbLine
 10
1.408464566929133
 20
7.460629921259842
 30
0.0
 11
1.408464566929133
 21
7.484251968503937
 31
0.0
  0
LWPOLYLINE
  5
227E
330
1E
100
AcDbEntity
  8
7
100
AcDbPolyline
 90
        4
 70
     0
 43
0.0098425196850394
 10
1.385826771653543
 20
7.460629921259842
 10
1.390748031496062
 20
7.450787401574802
 10
1.401574803149606
 20
7.450787401574802
 10
1.407480314960629
 20
7.460629921259842
  0
LWPOLYLINE
  5
2284
330
1E
100
AcDbEntity
  8
7
100
AcDbPolyline
 90
        3
 70
     0
 43
0.0098425196850394
 10
3.421259842519685
 20
7.540354330708661
 10
3.423228346456693
 20
7.540354330708661
 10
3.424212598425196
 20
7.540354330708661
  0
LWPOLYLINE
  5
2289
330
1E
100
AcDbEntity
  8
7
100
AcDbPolyline
 90
        3
 70
     0
 43
0.0098425196850394
 10
3.421259842519685
 20
5.669291338582676
 10
3.423228346456693
 20
5.669291338582676
 10
3.424212598425196
 20
5.669291338582676
  0
LWPOLYLINE
  5
228E
330
1E
100
AcDbEntity
  8
7
100
AcDbPolyline
 90
        5
 70
     0
 43
0.0098425196850394
 10
3.432086614173228
 20
7.543307086614173
 10
3.432086614173228
 20
7.539370078740157
 10
3.432086614173228
 20
7.529527559055118
 10
3.432086614173228
 20
6.418307086614173
 10
3.432086614173228
 20
5.669291338582676
  0
LWPOLYLINE
  5
2295
330
1E
100
AcDbEntity
  8
7
100
AcDbPolyline
 90
        4
 70
     0
 43
0.0098425196850394
 10
3.424212598425196
 20
6.418307086614173
 10
3.424212598425196
 20
7.529527559055118
 10
3.424212598425196
 20
7.539370078740157
 10
3.424212598425196
 20
7.543307086614173
  0
LINE
  5
229B
330
1E
100
AcDbEntity
  8
7
100
AcDbLine
 10
3.424212598425196
 20
5.669291338582676
 30
0.0
 11
3.424212598425196
 21
6.418307086614173
 31
0.0
  0
LINE
  5
229C
330
1E
100
AcDbEntity
  8
7
100
AcDbLine
 10
3.432086614173228
 20
6.418307086614173
 30
0.0
 11
3.424212598425196
 21
6.418307086614173
 31
0.0
  0
LINE
  5
229D
330
1E
100
AcDbEntity
  8
7
100
AcDbLine
 10
3.432086614173228
 20
5.669291338582676
 30
0.0
 11
3.424212598425196
 21
5.669291338582676
 31
0.0
  0
LWPOLYLINE
  5
229E
330
1E
100
AcDbEntity
  8
7
100
AcDbPolyline
 90
        3
 70
     0
 43
0.0098425196850394
 10
1.248031496062992
 20
5.669291338582676
 10
1.246062992125984
 20
5.669291338582676
 10
1.244094488188976
 20
5.669291338582676
  0
LWPOLYLINE
  5
22A3
330
1E
100
AcDbEntity
  8
7
100
AcDbPolyline
 90
        3
 70
     0
 43
0.0098425196850394
 10
1.248031496062992
 20
7.540354330708661
 10
1.246062992125984
 20
7.540354330708661
 10
1.244094488188976
 20
7.540354330708661
  0
LWPOLYLINE
  5
22A8
330
1E
100
AcDbEntity
  8
7
100
AcDbPolyline
 90
        4
 70
     0
 43
0.0098425196850394
 10
1.237204724409448
 20
6.418307086614173
 10
1.237204724409448
 20
7.529527559055118
 10
1.237204724409448
 20
7.539370078740157
 10
1.237204724409448
 20
7.543307086614173
  0
LINE
  5
22AE
330
1E
100
AcDbEntity
  8
7
100
AcDbLine
 10
1.237204724409448
 20
5.669291338582676
 30
0.0
 11
1.237204724409448
 21
6.418307086614173
 31
0.0
  0
LWPOLYLINE
  5
22AF
330
1E
100
AcDbEntity
  8
7
100
AcDbPolyline
 90
        5
 70
     0
 43
0.0098425196850394
 10
1.244094488188976
 20
7.543307086614173
 10
1.244094488188976
 20
7.539370078740157
 10
1.244094488188976
 20
7.529527559055118
 10
1.244094488188976
 20
6.418307086614173
 10
1.244094488188976
 20
5.669291338582676
  0
LINE
  5
22B6
330
1E
100
AcDbEntity
  8
7
100
AcDbLine
 10
1.244094488188976
 20
6.418307086614173
 30
0.0
 11
1.237204724409448
 21
6.418307086614173
 31
0.0
  0
LINE
  5
22B7
330
1E
100
AcDbEntity
  8
7
100
AcDbLine
 10
1.244094488188976
 20
5.669291338582676
 30
0.0
 11
1.237204724409448
 21
5.669291338582676
 31
0.0
  0
LWPOLYLINE
  5
22B8
330
1E
100
AcDbEntity
  8
7
100
AcDbPolyline
 90
        3
 70
     0
 43
0.0098425196850394
 10
1.233267716535432
 20
5.666338582677165
 10
1.23523622047244
 20
5.667322834645669
 10
1.236220472440944
 20
5.669291338582676
  0
LINE
  5
22BD
330
1E
100
AcDbEntity
  8
7
100
AcDbLine
 10
1.233267716535432
 20
5.665354330708661
 30
0.0
 11
1.233267716535432
 21
5.657480314960629
 31
0.0
  0
LWPOLYLINE
  5
22BE
330
1E
100
AcDbEntity
  8
7
100
AcDbPolyline
 90
        3
 70
     0
 43
0.0098425196850394
 10
1.233267716535432
 20
5.658464566929134
 10
1.241141732283464
 20
5.661417322834645
 10
1.244094488188976
 20
5.669291338582676
  0
LWPOLYLINE
  5
22C3
330
1E
100
AcDbEntity
  8
7
100
AcDbPolyline
 90
        3
 70
     0
 43
0.0098425196850394
 10
1.233267716535432
 20
5.665354330708661
 10
1.162401574803149
 20
5.665354330708661
 10
1.162401574803149
 20
5.657480314960629
  0
LWPOLYLINE
  5
22C8
330
1E
100
AcDbEntity
  8
7
100
AcDbPolyline
 90
        4
 70
     0
 43
0.0098425196850394
 10
1.233267716535432
 20
5.657480314960629
 10
1.162401574803149
 20
5.657480314960629
 10
1.151574803149606
 20
5.657480314960629
 10
1.146653543307086
 20
5.657480314960629
  0
LWPOLYLINE
  5
22CE
330
1E
100
AcDbEntity
  8
7
100
AcDbPolyline
 90
        3
 70
     0
 43
0.0098425196850394
 10
1.146653543307086
 20
5.665354330708661
 10
1.151574803149606
 20
5.665354330708661
 10
1.162401574803149
 20
5.665354330708661
  0
LINE
  5
22D3
330
1E
100
AcDbEntity
  8
7
100
AcDbLine
 10
1.146653543307086
 20
5.657480314960629
 30
0.0
 11
1.146653543307086
 21
5.665354330708661
 31
0.0
  0
LINE
  5
22D4
330
1E
100
AcDbEntity
  8
7
100
AcDbLine
 10
1.237204724409448
 20
7.543307086614173
 30
0.0
 11
1.244094488188976
 21
7.543307086614173
 31
0.0
  0
LINE
  5
22D5
330
1E
100
AcDbEntity
  8
7
100
AcDbLine
 10
3.424212598425196
 20
7.543307086614173
 30
0.0
 11
3.432086614173228
 21
7.543307086614173
 31
0.0
  0
LWPOLYLINE
  5
22D6
330
1E
100
AcDbEntity
  8
7
100
AcDbPolyline
 90
        3
 70
     0
 43
0.0098425196850394
 10
3.4251968503937
 20
5.669291338582676
 10
3.428149606299212
 20
5.661417322834645
 10
3.436023622047243
 20
5.658464566929134
  0
LINE
  5
22DB
330
1E
100
AcDbEntity
  8
7
100
AcDbLine
 10
3.436023622047243
 20
5.657480314960629
 30
0.0
 11
3.436023622047243
 21
5.665354330708661
 31
0.0
  0
LWPOLYLINE
  5
22DC
330
1E
100
AcDbEntity
  8
7
100
AcDbPolyline
 90
        3
 70
     0
 43
0.0098425196850394
 10
3.433070866141732
 20
5.669291338582676
 10
3.434055118110236
 20
5.667322834645669
 10
3.436023622047243
 20
5.666338582677165
  0
LINE
  5
22E1
330
1E
100
AcDbEntity
  8
7
100
AcDbLine
 10
3.436023622047243
 20
5.657480314960629
 30
0.0
 11
3.506889763779527
 21
5.657480314960629
 31
0.0
  0
LINE
  5
22E2
330
1E
100
AcDbEntity
  8
7
100
AcDbLine
 10
3.506889763779527
 20
5.657480314960629
 30
0.0
 11
3.506889763779527
 21
5.665354330708661
 31
0.0
  0
LINE
  5
22E3
330
1E
100
AcDbEntity
  8
7
100
AcDbLine
 10
3.436023622047243
 20
5.665354330708661
 30
0.0
 11
3.506889763779527
 21
5.665354330708661
 31
0.0
  0
LWPOLYLINE
  5
22E4
330
1E
100
AcDbEntity
  8
7
100
AcDbPolyline
 90
        3
 70
     0
 43
0.0098425196850394
 10
3.52263779527559
 20
5.657480314960629
 10
3.51771653543307
 20
5.657480314960629
 10
3.506889763779527
 20
5.657480314960629
  0
LWPOLYLINE
  5
22E9
330
1E
100
AcDbEntity
  8
7
100
AcDbPolyline
 90
        4
 70
     0
 43
0.0098425196850394
 10
3.506889763779527
 20
5.665354330708661
 10
3.51771653543307
 20
5.665354330708661
 10
3.52263779527559
 20
5.665354330708661
 10
3.52263779527559
 20
5.657480314960629
  0
LWPOLYLINE
  5
22EF
330
1E
100
AcDbEntity
  8
7
100
AcDbPolyline
 90
        3
 70
     0
 43
0.0098425196850394
 10
1.248031496062992
 20
7.540354330708661
 10
1.248031496062992
 20
7.543307086614173
 10
1.248031496062992
 20
7.544291338582676
  0
LWPOLYLINE
  5
22F4
330
1E
100
AcDbEntity
  8
7
100
AcDbPolyline
 90
        3
 70
     0
 43
0.0098425196850394
 10
3.421259842519685
 20
7.540354330708661
 10
3.421259842519685
 20
7.543307086614173
 10
3.421259842519685
 20
7.544291338582676
  0
LWPOLYLINE
  5
22F9
330
1E
100
AcDbEntity
  8
7
100
AcDbPolyline
 90
        4
 70
     0
 43
0.0098425196850394
 10
1.252952755905511
 20
7.551181102362204
 10
3.416338582677165
 20
7.551181102362204
 10
3.427165354330708
 20
7.551181102362204
 10
3.432086614173228
 20
7.551181102362204
  0
LWPOLYLINE
  5
22FF
330
1E
100
AcDbEntity
  8
7
100
AcDbPolyline
 90
        3
 70
     0
 43
0.0098425196850394
 10
1.237204724409448
 20
7.551181102362204
 10
1.242125984251968
 20
7.551181102362204
 10
1.252952755905511
 20
7.551181102362204
  0
LWPOLYLINE
  5
2304
330
1E
100
AcDbEntity
  8
7
100
AcDbPolyline
 90
        5
 70
     0
 43
0.0098425196850394
 10
3.432086614173228
 20
7.544291338582676
 10
3.427165354330708
 20
7.544291338582676
 10
3.416338582677165
 20
7.544291338582676
 10
1.252952755905511
 20
7.544291338582676
 10
1.242125984251968
 20
7.544291338582676
  0
LINE
  5
230B
330
1E
100
AcDbEntity
  8
7
100
AcDbLine
 10
1.242125984251968
 20
7.544291338582676
 30
0.0
 11
1.237204724409448
 21
7.544291338582676
 31
0.0
  0
LINE
  5
230C
330
1E
100
AcDbEntity
  8
7
100
AcDbLine
 10
3.416338582677165
 20
7.544291338582676
 30
0.0
 11
3.416338582677165
 21
7.551181102362204
 31
0.0
  0
LINE
  5
230D
330
1E
100
AcDbEntity
  8
7
100
AcDbLine
 10
1.252952755905511
 20
7.551181102362204
 30
0.0
 11
1.252952755905511
 21
7.544291338582676
 31
0.0
  0
LINE
  5
230E
330
1E
100
AcDbEntity
  8
7
100
AcDbLine
 10
1.237204724409448
 20
7.544291338582676
 30
0.0
 11
1.237204724409448
 21
7.551181102362204
 31
0.0
  0
LINE
  5
230F
330
1E
100
AcDbEntity
  8
7
100
AcDbLine
 10
3.432086614173228
 20
7.551181102362204
 30
0.0
 11
3.432086614173228
 21
7.544291338582676
 31
0.0
  0
LWPOLYLINE
  5
2310
330
1E
100
AcDbEntity
  8
7
100
AcDbPolyline
 90
        3
 70
     0
 43
0.0098425196850394
 10
3.405511811023622
 20
5.669291338582676
 10
3.405511811023622
 20
5.666338582677165
 10
3.405511811023622
 20
5.665354330708661
  0
LWPOLYLINE
  5
2315
330
1E
100
AcDbEntity
  8
7
100
AcDbPolyline
 90
        3
 70
     0
 43
0.0098425196850394
 10
1.263779527559055
 20
5.669291338582676
 10
1.263779527559055
 20
5.666338582677165
 10
1.263779527559055
 20
5.665354330708661
  0
LINE
  5
231A
330
1E
100
AcDbEntity
  8
7
100
AcDbLine
 10
3.405511811023622
 20
5.665354330708661
 30
0.0
 11
3.405511811023622
 21
5.657480314960629
 31
0.0
  0
LINE
  5
231B
330
1E
100
AcDbEntity
  8
7
100
AcDbLine
 10
1.263779527559055
 20
5.657480314960629
 30
0.0
 11
1.263779527559055
 21
5.665354330708661
 31
0.0
  0
LWPOLYLINE
  5
231C
330
1E
100
AcDbEntity
  8
7
100
AcDbPolyline
 90
        6
 70
     0
 43
0.0098425196850394
 10
3.405511811023622
 20
5.657480314960629
 10
3.400590551181102
 20
5.657480314960629
 10
3.389763779527559
 20
5.657480314960629
 10
1.279527559055118
 20
5.657480314960629
 10
1.268700787401574
 20
5.657480314960629
 10
1.263779527559055
 20
5.657480314960629
  0
LWPOLYLINE
  5
2324
330
1E
100
AcDbEntity
  8
7
100
AcDbPolyline
 90
        4
 70
     0
 43
0.0098425196850394
 10
1.279527559055118
 20
5.665354330708661
 10
3.389763779527559
 20
5.665354330708661
 10
3.400590551181102
 20
5.665354330708661
 10
3.405511811023622
 20
5.665354330708661
  0
LWPOLYLINE
  5
232A
330
1E
100
AcDbEntity
  8
7
100
AcDbPolyline
 90
        3
 70
     0
 43
0.0098425196850394
 10
1.263779527559055
 20
5.665354330708661
 10
1.268700787401574
 20
5.665354330708661
 10
1.279527559055118
 20
5.665354330708661
  0
LINE
  5
232F
330
1E
100
AcDbEntity
  8
7
100
AcDbLine
 10
3.389763779527559
 20
5.657480314960629
 30
0.0
 11
3.389763779527559
 21
5.665354330708661
 31
0.0
  0
LINE
  5
2330
330
1E
100
AcDbEntity
  8
7
100
AcDbLine
 10
1.279527559055118
 20
5.665354330708661
 30
0.0
 11
1.279527559055118
 21
5.657480314960629
 31
0.0
  0
LINE
  5
2331
330
1E
100
AcDbEntity
  8
7
100
AcDbLine
 10
1.244094488188976
 20
7.529527559055118
 30
0.0
 11
1.237204724409448
 21
7.529527559055118
 31
0.0
  0
LINE
  5
2332
330
1E
100
AcDbEntity
  8
7
100
AcDbLine
 10
3.432086614173228
 20
7.529527559055118
 30
0.0
 11
3.424212598425196
 21
7.529527559055118
 31
0.0
  0
LINE
  5
2333
330
1E
100
AcDbEntity
  8
7
100
AcDbLine
 10
3.417322834645669
 20
4.0
 30
0.0
 11
3.421259842519685
 21
4.0
 31
0.0
  0
LINE
  5
2334
330
1E
100
AcDbEntity
  8
7
100
AcDbLine
 10
1.248031496062992
 20
4.0
 30
0.0
 11
1.250984251968503
 21
4.0
 31
0.0
  0
LWPOLYLINE
  5
2335
330
1E
100
AcDbEntity
  8
7
100
AcDbPolyline
 90
        3
 70
     0
 43
0.0098425196850394
 10
1.263779527559055
 20
4.0
 10
1.257874015748031
 20
4.0
 10
1.250984251968503
 20
4.0
  0
LWPOLYLINE
  5
233A
330
1E
100
AcDbEntity
  8
7
100
AcDbPolyline
 90
        3
 70
     0
 43
0.0098425196850394
 10
3.417322834645669
 20
4.0
 10
3.411417322834645
 20
4.0
 10
3.405511811023622
 20
4.0
  0
LINE
  5
233F
330
1E
100
AcDbEntity
  8
7
100
AcDbLine
 10
1.248031496062992
 20
3.992125984251968
 30
0.0
 11
1.250984251968503
 21
3.992125984251968
 31
0.0
  0
LINE
  5
2340
330
1E
100
AcDbEntity
  8
7
100
AcDbLine
 10
3.417322834645669
 20
3.992125984251968
 30
0.0
 11
3.421259842519685
 21
3.992125984251968
 31
0.0
  0
LWPOLYLINE
  5
2341
330
1E
100
AcDbEntity
  8
7
100
AcDbPolyline
 90
        3
 70
     0
 43
0.0098425196850394
 10
3.417322834645669
 20
3.992125984251968
 10
3.411417322834645
 20
3.992125984251968
 10
3.405511811023622
 20
3.992125984251968
  0
LINE
  5
2346
330
1E
100
AcDbEntity
  8
7
100
AcDbLine
 10
1.263779527559055
 20
3.992125984251968
 30
0.0
 11
3.405511811023622
 21
3.992125984251968
 31
0.0
  0
LWPOLYLINE
  5
2347
330
1E
100
AcDbEntity
  8
7
100
AcDbPolyline
 90
        3
 70
     0
 43
0.0098425196850394
 10
1.263779527559055
 20
3.992125984251968
 10
1.257874015748031
 20
3.992125984251968
 10
1.250984251968503
 20
3.992125984251968
  0
LWPOLYLINE
  5
234C
330
1E
100
AcDbEntity
  8
7
100
AcDbPolyline
 90
        3
 70
     0
 43
0.0098425196850394
 10
3.421259842519685
 20
3.992125984251968
 10
3.429133858267716
 20
3.99507874015748
 10
3.432086614173228
 20
4.002952755905512
  0
LWPOLYLINE
  5
2351
330
1E
100
AcDbEntity
  8
7
100
AcDbPolyline
 90
        3
 70
     0
 43
0.0098425196850394
 10
3.421259842519685
 20
4.0
 10
3.423228346456693
 20
4.000984251968503
 10
3.424212598425196
 20
4.002952755905512
  0
LINE
  5
2356
330
1E
100
AcDbEntity
  8
7
100
AcDbLine
 10
3.417322834645669
 20
3.992125984251968
 30
0.0
 11
3.417322834645669
 21
4.0
 31
0.0
  0
LINE
  5
2357
330
1E
100
AcDbEntity
  8
7
100
AcDbLine
 10
3.424212598425196
 20
4.002952755905512
 30
0.0
 11
3.424212598425196
 21
4.208661417322835
 31
0.0
  0
LWPOLYLINE
  5
2358
330
1E
100
AcDbEntity
  8
7
100
AcDbPolyline
 90
        3
 70
     0
 43
0.0098425196850394
 10
1.237204724409448
 20
4.002952755905512
 10
1.24015748031496
 20
3.99507874015748
 10
1.248031496062992
 20
3.992125984251968
  0
LINE
  5
235D
330
1E
100
AcDbEntity
  8
7
100
AcDbLine
 10
1.250984251968503
 20
4.0
 30
0.0
 11
1.250984251968503
 21
3.992125984251968
 31
0.0
  0
LWPOLYLINE
  5
235E
330
1E
100
AcDbEntity
  8
7
100
AcDbPolyline
 90
        3
 70
     0
 43
0.0098425196850394
 10
1.24507874015748
 20
4.002952755905512
 10
1.246062992125984
 20
4.000984251968503
 10
1.248031496062992
 20
4.0
  0
LWPOLYLINE
  5
2363
330
1E
100
AcDbEntity
  8
7
100
AcDbPolyline
 90
        4
 70
     0
 43
0.0098425196850394
 10
1.244094488188976
 20
4.002952755905512
 10
1.244094488188976
 20
4.208661417322835
 10
1.241141732283464
 20
4.208661417322835
 10
1.233267716535432
 20
4.208661417322835
  0
LWPOLYLINE
  5
2369
330
1E
100
AcDbEntity
  8
7
100
AcDbPolyline
 90
        3
 70
     0
 43
0.0098425196850394
 10
1.244094488188976
 20
4.002952755905512
 10
1.241141732283464
 20
4.002952755905512
 10
1.233267716535432
 20
4.002952755905512
  0
LINE
  5
236E
330
1E
100
AcDbEntity
  8
7
100
AcDbLine
 10
1.233267716535432
 20
4.208661417322835
 30
0.0
 11
1.233267716535432
 21
4.002952755905512
 31
0.0
  0
LINE
  5
236F
330
1E
100
AcDbEntity
  8
7
100
AcDbLine
 10
1.233267716535432
 20
4.208661417322835
 30
0.0
 11
1.162401574803149
 21
4.208661417322835
 31
0.0
  0
LINE
  5
2370
330
1E
100
AcDbEntity
  8
7
100
AcDbLine
 10
1.18011811023622
 20
4.116141732283464
 30
0.0
 11
1.195866141732283
 21
4.116141732283464
 31
0.0
  0
LWPOLYLINE
  5
2371
330
1E
100
AcDbEntity
  8
7
100
AcDbPolyline
 90
        4
 70
     0
 43
0.0098425196850394
 10
1.195866141732283
 20
4.086614173228346
 10
1.206692913385826
 20
4.090551181102362
 10
1.210629921259842
 20
4.101377952755905
 10
1.206692913385826
 20
4.112204724409449
  0
LINE
  5
2377
330
1E
100
AcDbEntity
  8
7
100
AcDbLine
 10
1.206692913385826
 20
4.112204724409449
 30
0.0
 11
1.195866141732283
 21
4.116141732283464
 31
0.0
  0
LINE
  5
2378
330
1E
100
AcDbEntity
  8
7
100
AcDbLine
 10
1.18011811023622
 20
4.085629921259842
 30
0.0
 11
1.195866141732283
 21
4.085629921259842
 31
0.0
  0
LWPOLYLINE
  5
2379
330
1E
100
AcDbEntity
  8
7
100
AcDbPolyline
 90
        5
 70
     0
 43
0.0098425196850394
 10
1.18011811023622
 20
4.116141732283464
 10
1.169291338582677
 20
4.112204724409449
 10
1.165354330708661
 20
4.101377952755905
 10
1.169291338582677
 20
4.090551181102362
 10
1.18011811023622
 20
4.086614173228346
  0
LINE
  5
2380
330
1E
100
AcDbEntity
  8
7
100
AcDbLine
 10
1.18011811023622
 20
4.038385826771653
 30
0.0
 11
1.195866141732283
 21
4.038385826771653
 31
0.0
  0
LWPOLYLINE
  5
2381
330
1E
100
AcDbEntity
  8
7
100
AcDbPolyline
 90
        5
 70
     0
 43
0.0098425196850394
 10
1.195866141732283
 20
4.007874015748031
 10
1.206692913385826
 20
4.011811023622047
 10
1.210629921259842
 20
4.02263779527559
 10
1.206692913385826
 20
4.033464566929133
 10
1.195866141732283
 20
4.037401574803149
  0
LINE
  5
2388
330
1E
100
AcDbEntity
  8
7
100
AcDbLine
 10
1.18011811023622
 20
4.006889763779527
 30
0.0
 11
1.195866141732283
 21
4.006889763779527
 31
0.0
  0
LWPOLYLINE
  5
2389
330
1E
100
AcDbEntity
  8
7
100
AcDbPolyline
 90
        4
 70
     0
 43
0.0098425196850394
 10
1.18011811023622
 20
4.037401574803149
 10
1.169291338582677
 20
4.033464566929133
 10
1.165354330708661
 20
4.02263779527559
 10
1.169291338582677
 20
4.011811023622047
  0
LINE
  5
238F
330
1E
100
AcDbEntity
  8
7
100
AcDbLine
 10
1.169291338582677
 20
4.011811023622047
 30
0.0
 11
1.18011811023622
 21
4.007874015748031
 31
0.0
  0
LINE
  5
2390
330
1E
100
AcDbEntity
  8
7
100
AcDbLine
 10
1.18011811023622
 20
4.194881889763779
 30
0.0
 11
1.195866141732283
 21
4.194881889763779
 31
0.0
  0
LWPOLYLINE
  5
2391
330
1E
100
AcDbEntity
  8
7
100
AcDbPolyline
 90
        5
 70
     0
 43
0.0098425196850394
 10
1.195866141732283
 20
4.164370078740157
 10
1.206692913385826
 20
4.168307086614173
 10
1.210629921259842
 20
4.179133858267716
 10
1.206692913385826
 20
4.18996062992126
 10
1.195866141732283
 20
4.193897637795275
  0
LINE
  5
2398
330
1E
100
AcDbEntity
  8
7
100
AcDbLine
 10
1.18011811023622
 20
4.163385826771653
 30
0.0
 11
1.195866141732283
 21
4.163385826771653
 31
0.0
  0
LWPOLYLINE
  5
2399
330
1E
100
AcDbEntity
  8
7
100
AcDbPolyline
 90
        5
 70
     0
 43
0.0098425196850394
 10
1.18011811023622
 20
4.193897637795275
 10
1.169291338582677
 20
4.18996062992126
 10
1.165354330708661
 20
4.179133858267716
 10
1.169291338582677
 20
4.168307086614173
 10
1.18011811023622
 20
4.164370078740157
  0
LINE
  5
23A0
330
1E
100
AcDbEntity
  8
7
100
AcDbLine
 10
1.162401574803149
 20
3.996062992125984
 30
0.0
 11
1.219488188976377
 21
3.996062992125984
 31
0.0
  0
LWPOLYLINE
  5
23A1
330
1E
100
AcDbEntity
  8
7
100
AcDbPolyline
 90
        3
 70
     0
 43
0.0098425196850394
 10
1.219488188976377
 20
3.997047244094488
 10
1.226377952755905
 20
3.999015748031496
 10
1.232283464566928
 20
4.003937007874015
  0
LWPOLYLINE
  5
23A6
330
1E
100
AcDbEntity
  8
7
100
AcDbPolyline
 90
        3
 70
     0
 43
0.0098425196850394
 10
1.162401574803149
 20
4.20767716535433
 10
1.151574803149606
 20
4.203740157480314
 10
1.14763779527559
 20
4.192913385826771
  0
LINE
  5
23AB
330
1E
100
AcDbEntity
  8
7
100
AcDbLine
 10
1.146653543307086
 20
4.192913385826771
 30
0.0
 11
1.146653543307086
 21
4.011811023622047
 31
0.0
  0
LWPOLYLINE
  5
23AC
330
1E
100
AcDbEntity
  8
7
100
AcDbPolyline
 90
        3
 70
     0
 43
0.0098425196850394
 10
1.14763779527559
 20
4.011811023622047
 10
1.151574803149606
 20
4.000984251968503
 10
1.162401574803149
 20
3.997047244094488
  0
LWPOLYLINE
  5
23B1
330
1E
100
AcDbEntity
  8
7
100
AcDbPolyline
 90
        3
 70
     0
 43
0.0098425196850394
 10
3.424212598425196
 20
4.002952755905512
 10
3.428149606299212
 20
4.002952755905512
 10
3.436023622047243
 20
4.002952755905512
  0
LWPOLYLINE
  5
23B6
330
1E
100
AcDbEntity
  8
7
100
AcDbPolyline
 90
        3
 70
     0
 43
0.0098425196850394
 10
3.424212598425196
 20
4.208661417322835
 10
3.428149606299212
 20
4.208661417322835
 10
3.436023622047243
 20
4.208661417322835
  0
LWPOLYLINE
  5
23BB
330
1E
100
AcDbEntity
  8
7
100
AcDbPolyline
 90
        3
 70
     0
 43
0.0098425196850394
 10
3.436023622047243
 20
4.002952755905512
 10
3.436023622047243
 20
4.208661417322835
 10
3.506889763779527
 20
4.208661417322835
  0
LINE
  5
23C0
330
1E
100
AcDbEntity
  8
7
100
AcDbLine
 10
3.473425196850393
 20
4.116141732283464
 30
0.0
 11
3.489173228346456
 21
4.116141732283464
 31
0.0
  0
LWPOLYLINE
  5
23C1
330
1E
100
AcDbEntity
  8
7
100
AcDbPolyline
 90
        5
 70
     0
 43
0.0098425196850394
 10
3.489173228346456
 20
4.086614173228346
 10
3.5
 20
4.090551181102362
 10
3.503937007874015
 20
4.101377952755905
 10
3.5
 20
4.112204724409449
 10
3.489173228346456
 20
4.116141732283464
  0
LINE
  5
23C8
330
1E
100
AcDbEntity
  8
7
100
AcDbLine
 10
3.473425196850393
 20
4.085629921259842
 30
0.0
 11
3.489173228346456
 21
4.085629921259842
 31
0.0
  0
LWPOLYLINE
  5
23C9
330
1E
100
AcDbEntity
  8
7
100
AcDbPolyline
 90
        5
 70
     0
 43
0.0098425196850394
 10
3.473425196850393
 20
4.116141732283464
 10
3.46259842519685
 20
4.112204724409449
 10
3.458661417322834
 20
4.101377952755905
 10
3.46259842519685
 20
4.090551181102362
 10
3.473425196850393
 20
4.086614173228346
  0
LINE
  5
23D0
330
1E
100
AcDbEntity
  8
7
100
AcDbLine
 10
3.473425196850393
 20
4.038385826771653
 30
0.0
 11
3.489173228346456
 21
4.038385826771653
 31
0.0
  0
LWPOLYLINE
  5
23D1
330
1E
100
AcDbEntity
  8
7
100
AcDbPolyline
 90
        5
 70
     0
 43
0.0098425196850394
 10
3.489173228346456
 20
4.007874015748031
 10
3.5
 20
4.011811023622047
 10
3.503937007874015
 20
4.02263779527559
 10
3.5
 20
4.033464566929133
 10
3.489173228346456
 20
4.037401574803149
  0
LINE
  5
23D8
330
1E
100
AcDbEntity
  8
7
100
AcDbLine
 10
3.473425196850393
 20
4.006889763779527
 30
0.0
 11
3.489173228346456
 21
4.006889763779527
 31
0.0
  0
LWPOLYLINE
  5
23D9
330
1E
100
AcDbEntity
  8
7
100
AcDbPolyline
 90
        5
 70
     0
 43
0.0098425196850394
 10
3.473425196850393
 20
4.037401574803149
 10
3.46259842519685
 20
4.033464566929133
 10
3.458661417322834
 20
4.02263779527559
 10
3.46259842519685
 20
4.011811023622047
 10
3.473425196850393
 20
4.007874015748031
  0
LINE
  5
23E0
330
1E
100
AcDbEntity
  8
7
100
AcDbLine
 10
3.473425196850393
 20
4.194881889763779
 30
0.0
 11
3.489173228346456
 21
4.194881889763779
 31
0.0
  0
LWPOLYLINE
  5
23E1
330
1E
100
AcDbEntity
  8
7
100
AcDbPolyline
 90
        5
 70
     0
 43
0.0098425196850394
 10
3.489173228346456
 20
4.164370078740157
 10
3.5
 20
4.168307086614173
 10
3.503937007874015
 20
4.179133858267716
 10
3.5
 20
4.18996062992126
 10
3.489173228346456
 20
4.193897637795275
  0
LINE
  5
23E8
330
1E
100
AcDbEntity
  8
7
100
AcDbLine
 10
3.473425196850393
 20
4.163385826771653
 30
0.0
 11
3.489173228346456
 21
4.163385826771653
 31
0.0
  0
LINE
  5
23E9
330
1E
100
AcDbEntity
  8
7
100
AcDbLine
 10
3.473425196850393
 20
4.193897637795275
 30
0.0
 11
3.46259842519685
 21
4.18996062992126
 31
0.0
  0
LWPOLYLINE
  5
23EA
330
1E
100
AcDbEntity
  8
7
100
AcDbPolyline
 90
        4
 70
     0
 43
0.0098425196850394
 10
3.46259842519685
 20
4.18996062992126
 10
3.458661417322834
 20
4.179133858267716
 10
3.46259842519685
 20
4.168307086614173
 10
3.473425196850393
 20
4.164370078740157
  0
LWPOLYLINE
  5
23F0
330
1E
100
AcDbEntity
  8
7
100
AcDbPolyline
 90
        3
 70
     0
 43
0.0098425196850394
 10
3.436023622047243
 20
4.003937007874015
 10
3.441929133858267
 20
3.999015748031496
 10
3.448818897637795
 20
3.997047244094488
  0
LINE
  5
23F5
330
1E
100
AcDbEntity
  8
7
100
AcDbLine
 10
3.448818897637795
 20
3.996062992125984
 30
0.0
 11
3.506889763779527
 21
3.996062992125984
 31
0.0
  0
LINE
  5
23F6
330
1E
100
AcDbEntity
  8
7
100
AcDbLine
 10
3.506889763779527
 20
3.997047244094488
 30
0.0
 11
3.51771653543307
 21
4.000984251968503
 31
0.0
  0
LINE
  5
23F7
330
1E
100
AcDbEntity
  8
7
100
AcDbLine
 10
3.51771653543307
 20
4.000984251968503
 30
0.0
 11
3.521653543307086
 21
4.011811023622047
 31
0.0
  0
LINE
  5
23F8
330
1E
100
AcDbEntity
  8
7
100
AcDbLine
 10
3.52263779527559
 20
4.011811023622047
 30
0.0
 11
3.52263779527559
 21
4.192913385826771
 31
0.0
  0
LWPOLYLINE
  5
23F9
330
1E
100
AcDbEntity
  8
7
100
AcDbPolyline
 90
        3
 70
     0
 43
0.0098425196850394
 10
3.521653543307086
 20
4.192913385826771
 10
3.51771653543307
 20
4.203740157480314
 10
3.506889763779527
 20
4.20767716535433
  0
LWPOLYLINE
  5
23FE
330
1E
100
AcDbEntity
  8
7
100
AcDbPolyline
 90
        3
 70
     0
 43
0.0098425196850394
 10
1.248031496062992
 20
4.0
 10
1.248031496062992
 20
4.000984251968503
 10
1.248031496062992
 20
4.002952755905512
  0
LWPOLYLINE
  5
2403
330
1E
100
AcDbEntity
  8
7
100
AcDbPolyline
 90
        4
 70
     0
 43
0.0098425196850394
 10
3.421259842519685
 20
4.0
 10
3.421259842519685
 20
4.000984251968503
 10
3.421259842519685
 20
4.002952755905512
 10
3.405511811023622
 20
4.002952755905512
  0
LINE
  5
2409
330
1E
100
AcDbEntity
  8
7
100
AcDbLine
 10
1.263779527559055
 20
4.002952755905512
 30
0.0
 11
1.248031496062992
 21
4.002952755905512
 31
0.0
  0
LWPOLYLINE
  5
240A
330
1E
100
AcDbEntity
  8
7
100
AcDbPolyline
 90
        3
 70
     0
 43
0.0098425196850394
 10
3.424212598425196
 20
4.059055118110236
 10
3.420275590551181
 20
4.060039370078739
 10
3.416338582677165
 20
4.061023622047244
  0
LINE
  5
240F
330
1E
100
AcDbEntity
  8
7
100
AcDbLine
 10
3.416338582677165
 20
4.062007874015748
 30
0.0
 11
1.252952755905511
 21
4.062007874015748
 31
0.0
  0
LWPOLYLINE
  5
2410
330
1E
100
AcDbEntity
  8
7
100
AcDbPolyline
 90
        3
 70
     0
 43
0.0098425196850394
 10
1.252952755905511
 20
4.061023622047244
 10
1.249015748031496
 20
4.060039370078739
 10
1.24507874015748
 20
4.059055118110236
  0
LINE
  5
2415
330
1E
100
AcDbEntity
  8
7
100
AcDbLine
 10
1.248031496062992
 20
4.002952755905512
 30
0.0
 11
1.244094488188976
 21
4.002952755905512
 31
0.0
  0
LINE
  5
2416
330
1E
100
AcDbEntity
  8
7
100
AcDbLine
 10
3.421259842519685
 20
4.002952755905512
 30
0.0
 11
3.424212598425196
 21
4.002952755905512
 31
0.0
  0
LWPOLYLINE
  5
2417
330
1E
100
AcDbEntity
  8
7
100
AcDbPolyline
 90
        3
 70
     0
 43
0.0098425196850394
 10
3.405511811023622
 20
3.992125984251968
 10
3.405511811023622
 20
3.99507874015748
 10
3.405511811023622
 20
4.002952755905512
  0
LWPOLYLINE
  5
241C
330
1E
100
AcDbEntity
  8
7
100
AcDbPolyline
 90
        3
 70
     0
 43
0.0098425196850394
 10
1.263779527559055
 20
3.992125984251968
 10
1.263779527559055
 20
3.99507874015748
 10
1.263779527559055
 20
4.002952755905512
  0
LINE
  5
2421
330
1E
100
AcDbEntity
  8
7
100
AcDbLine
 10
3.405511811023622
 20
4.002952755905512
 30
0.0
 11
1.263779527559055
 21
4.002952755905512
 31
0.0
  0
LINE
  5
2422
330
1E
100
AcDbEntity
  8
7
100
AcDbLine
 10
3.405511811023622
 20
4.002952755905512
 30
0.0
 11
3.405511811023622
 21
4.015748031496062
 31
0.0
  0
LINE
  5
2423
330
1E
100
AcDbEntity
  8
7
100
AcDbLine
 10
1.263779527559055
 20
4.002952755905512
 30
0.0
 11
1.263779527559055
 21
4.015748031496062
 31
0.0
  0
LWPOLYLINE
  5
2424
330
1E
100
AcDbEntity
  8
7
100
AcDbPolyline
 90
        3
 70
     0
 43
0.0098425196850394
 10
3.404527559055118
 20
4.015748031496062
 10
3.400590551181102
 20
4.026574803149606
 10
3.389763779527559
 20
4.030511811023622
  0
LINE
  5
2429
330
1E
100
AcDbEntity
  8
7
100
AcDbLine
 10
3.389763779527559
 20
4.031496062992125
 30
0.0
 11
1.279527559055118
 21
4.031496062992125
 31
0.0
  0
LWPOLYLINE
  5
242A
330
1E
100
AcDbEntity
  8
7
100
AcDbPolyline
 90
        3
 70
     0
 43
0.0098425196850394
 10
1.279527559055118
 20
4.030511811023622
 10
1.268700787401574
 20
4.026574803149606
 10
1.264763779527559
 20
4.015748031496062
  0
LINE
  5
242F
330
1E
100
AcDbEntity
  8
7
100
AcDbLine
 10
6.839566929133858
 20
3.992125984251968
 30
0.0
 11
4.968503937007874
 21
3.992125984251968
 31
0.0
  0
LWPOLYLINE
  5
2430
330
1E
100
AcDbEntity
  8
7
100
AcDbPolyline
 90
        3
 70
     0
 43
0.0098425196850394
 10
6.839566929133858
 20
3.992125984251968
 10
6.839566929133858
 20
3.99507874015748
 10
6.839566929133858
 20
4.002952755905512
  0
LWPOLYLINE
  5
2435
330
1E
100
AcDbEntity
  8
7
100
AcDbPolyline
 90
        3
 70
     0
 43
0.0098425196850394
 10
4.968503937007874
 20
3.992125984251968
 10
4.968503937007874
 20
3.99507874015748
 10
4.968503937007874
 20
4.002952755905512
  0
LINE
  5
243A
330
1E
100
AcDbEntity
  8
7
100
AcDbLine
 10
6.839566929133858
 20
4.002952755905512
 30
0.0
 11
4.968503937007874
 21
4.002952755905512
 31
0.0
  0
LINE
  5
243B
330
1E
100
AcDbEntity
  8
7
100
AcDbLine
 10
6.84251968503937
 20
4.002952755905512
 30
0.0
 11
6.84251968503937
 21
4.051181102362204
 31
0.0
  0
LWPOLYLINE
  5
243C
330
1E
100
AcDbEntity
  8
7
100
AcDbPolyline
 90
        3
 70
     0
 43
0.0098425196850394
 10
6.841535433070865
 20
4.051181102362204
 10
6.83759842519685
 20
4.061023622047244
 10
6.828740157480314
 20
4.065944881889763
  0
LINE
  5
2441
330
1E
100
AcDbEntity
  8
7
100
AcDbLine
 10
6.828740157480314
 20
4.065944881889763
 30
0.0
 11
5.71751968503937
 21
4.208661417322835
 31
0.0
  0
LINE
  5
2442
330
1E
100
AcDbEntity
  8
7
100
AcDbLine
 10
5.71751968503937
 20
4.208661417322835
 30
0.0
 11
4.968503937007874
 21
4.208661417322835
 31
0.0
  0
LINE
  5
2443
330
1E
100
AcDbEntity
  8
7
100
AcDbLine
 10
4.968503937007874
 20
4.002952755905512
 30
0.0
 11
4.968503937007874
 21
4.208661417322835
 31
0.0
  0
LINE
  5
2444
330
1E
100
AcDbEntity
  8
7
100
AcDbLine
 10
6.839566929133858
 20
4.002952755905512
 30
0.0
 11
6.84251968503937
 21
4.002952755905512
 31
0.0
  0
LWPOLYLINE
  5
2445
330
1E
100
AcDbEntity
  8
7
100
AcDbPolyline
 90
        3
 70
     0
 43
0.0098425196850394
 10
4.968503937007874
 20
4.002952755905512
 10
4.965551181102362
 20
4.002952755905512
 10
4.964566929133858
 20
4.002952755905512
  0
LWPOLYLINE
  5
244A
330
1E
100
AcDbEntity
  8
7
100
AcDbPolyline
 90
        3
 70
     0
 43
0.0098425196850394
 10
4.968503937007874
 20
4.208661417322835
 10
4.965551181102362
 20
4.208661417322835
 10
4.964566929133858
 20
4.208661417322835
  0
LINE
  5
244F
330
1E
100
AcDbEntity
  8
7
100
AcDbLine
 10
4.956692913385826
 20
4.208661417322835
 30
0.0
 11
4.964566929133858
 21
4.208661417322835
 31
0.0
  0
LWPOLYLINE
  5
2450
330
1E
100
AcDbEntity
  8
7
100
AcDbPolyline
 90
        6
 70
     0
 43
0.0098425196850394
 10
4.956692913385826
 20
3.996062992125984
 10
4.956692913385826
 20
4.0
 10
4.956692913385826
 20
4.011811023622047
 10
4.956692913385826
 20
4.192913385826771
 10
4.956692913385826
 20
4.203740157480314
 10
4.956692913385826
 20
4.208661417322835
  0
LWPOLYLINE
  5
2458
330
1E
100
AcDbEntity
  8
7
100
AcDbPolyline
 90
        6
 70
     0
 43
0.0098425196850394
 10
4.964566929133858
 20
4.208661417322835
 10
4.964566929133858
 20
4.203740157480314
 10
4.964566929133858
 20
4.192913385826771
 10
4.964566929133858
 20
4.011811023622047
 10
4.964566929133858
 20
4.0
 10
4.964566929133858
 20
3.996062992125984
  0
LINE
  5
2460
330
1E
100
AcDbEntity
  8
7
100
AcDbLine
 10
4.956692913385826
 20
4.011811023622047
 30
0.0
 11
4.964566929133858
 21
4.011811023622047
 31
0.0
  0
LINE
  5
2461
330
1E
100
AcDbEntity
  8
7
100
AcDbLine
 10
4.964566929133858
 20
4.192913385826771
 30
0.0
 11
4.956692913385826
 21
4.192913385826771
 31
0.0
  0
LINE
  5
2462
330
1E
100
AcDbEntity
  8
7
100
AcDbLine
 10
4.964566929133858
 20
3.996062992125984
 30
0.0
 11
4.956692913385826
 21
3.996062992125984
 31
0.0
  0
LWPOLYLINE
  5
2463
330
1E
100
AcDbEntity
  8
7
100
AcDbPolyline
 90
        3
 70
     0
 43
0.0098425196850394
 10
6.839566929133858
 20
3.992125984251968
 10
6.847440944881889
 20
3.99507874015748
 10
6.850393700787401
 20
4.002952755905512
  0
LWPOLYLINE
  5
2468
330
1E
100
AcDbEntity
  8
7
100
AcDbPolyline
 90
        3
 70
     0
 43
0.0098425196850394
 10
6.839566929133858
 20
4.0
 10
6.841535433070865
 20
4.000984251968503
 10
6.84251968503937
 20
4.002952755905512
  0
LINE
  5
246D
330
1E
100
AcDbEntity
  8
7
100
AcDbLine
 10
6.850393700787401
 20
4.062007874015748
 30
0.0
 11
6.850393700787401
 21
4.057086614173228
 31
0.0
  0
LINE
  5
246E
330
1E
100
AcDbEntity
  8
7
100
AcDbLine
 10
6.850393700787401
 20
4.057086614173228
 30
0.0
 11
6.850393700787401
 21
4.046259842519685
 31
0.0
  0
LINE
  5
246F
330
1E
100
AcDbEntity
  8
7
100
AcDbLine
 10
6.850393700787401
 20
4.002952755905512
 30
0.0
 11
6.850393700787401
 21
4.046259842519685
 31
0.0
  0
LWPOLYLINE
  5
2470
330
1E
100
AcDbEntity
  8
7
100
AcDbPolyline
 90
        5
 70
     0
 43
0.0098425196850394
 10
6.843503937007874
 20
4.002952755905512
 10
6.843503937007874
 20
4.046259842519685
 10
6.843503937007874
 20
4.057086614173228
 10
6.843503937007874
 20
4.062007874015748
 10
6.850393700787401
 20
4.062007874015748
  0
LINE
  5
2477
330
1E
100
AcDbEntity
  8
7
100
AcDbLine
 10
6.850393700787401
 20
4.002952755905512
 30
0.0
 11
6.843503937007874
 21
4.002952755905512
 31
0.0
  0
LINE
  5
2478
330
1E
100
AcDbEntity
  8
7
100
AcDbLine
 10
6.850393700787401
 20
4.046259842519685
 30
0.0
 11
6.843503937007874
 21
4.046259842519685
 31
0.0
  0
LWPOLYLINE
  5
2479
330
1E
100
AcDbEntity
  8
7
100
AcDbPolyline
 90
        3
 70
     0
 43
0.0098425196850394
 10
4.965551181102362
 20
4.002952755905512
 10
4.966535433070866
 20
4.000984251968503
 10
4.968503937007874
 20
4.0
  0
LWPOLYLINE
  5
247E
330
1E
100
AcDbEntity
  8
7
100
AcDbPolyline
 90
        3
 70
     0
 43
0.0098425196850394
 10
4.960629921259842
 20
3.996062992125984
 10
4.964566929133858
 20
3.993110236220472
 10
4.968503937007874
 20
3.992125984251968
  0
LINE
  5
2483
330
1E
100
AcDbEntity
  8
7
100
AcDbLine
 10
9.298228346456692
 20
3.409448818897637
 30
0.0
 11
9.298228346456692
 21
3.242125984251968
 31
0.0
  0
LINE
  5
2484
330
1E
100
AcDbEntity
  8
7
100
AcDbLine
 10
9.359251968503935
 20
3.201771653543307
 30
0.0
 11
9.364173228346455
 21
3.204724409448818
 31
0.0
  0
LINE
  5
2485
330
1E
100
AcDbEntity
  8
7
100
AcDbLine
 10
9.32283464566929
 20
3.249015748031496
 30
0.0
 11
9.326771653543305
 21
3.251968503937007
 31
0.0
  0
LINE
  5
2486
330
1E
100
AcDbEntity
  8
7
100
AcDbLine
 10
9.368110236220472
 20
3.275590551181102
 30
0.0
 11
10.62795275590551
 21
4.002952755905512
 31
0.0
  0
LINE
  5
2487
330
1E
100
AcDbEntity
  8
7
100
AcDbLine
 10
7.767716535433071
 20
4.119094488188976
 30
0.0
 11
9.282480314960629
 21
3.24507874015748
 31
0.0
  0
LINE
  5
2488
330
1E
100
AcDbEntity
  8
7
100
AcDbLine
 10
10.62893700787401
 20
4.05511811023622
 30
0.0
 11
10.62401574803149
 21
4.058070866141732
 31
0.0
  0
LINE
  5
2489
330
1E
100
AcDbEntity
  8
7
100
AcDbLine
 10
7.691929133858267
 20
4.336614173228346
 30
0.0
 11
7.686023622047244
 21
4.333661417322834
 31
0.0
  0
LINE
  5
248A
330
1E
100
AcDbEntity
  8
7
100
AcDbLine
 10
7.774606299212598
 20
4.144685039370078
 30
0.0
 11
7.768700787401574
 21
4.141732283464566
 31
0.0
  0
LINE
  5
248B
330
1E
100
AcDbEntity
  8
7
100
AcDbLine
 10
7.742125984251968
 20
4.135826771653543
 30
0.0
 11
7.744094488188976
 21
4.136811023622047
 31
0.0
  0
LINE
  5
248C
330
1E
100
AcDbEntity
  8
7
100
AcDbLine
 10
9.081692913385825
 20
4.947834645669291
 30
0.0
 11
9.076771653543305
 21
4.950787401574802
 31
0.0
  0
LINE
  5
248D
330
1E
100
AcDbEntity
  8
7
100
AcDbLine
 10
9.088582677165353
 20
4.950787401574802
 30
0.0
 11
9.083661417322833
 21
4.947834645669291
 31
0.0
  0
LINE
  5
248E
330
1E
100
AcDbEntity
  8
7
100
AcDbLine
 10
9.296259842519683
 20
3.247047244094488
 30
0.0
 11
9.298228346456692
 21
3.246062992125984
 31
0.0
  0
LINE
  5
248F
330
1E
100
AcDbEntity
  8
7
100
AcDbLine
 10
9.08562992125984
 20
4.895669291338582
 30
0.0
 11
10.57185039370078
 21
4.038385826771653
 31
0.0
  0
LINE
  5
2490
330
1E
100
AcDbEntity
  8
7
100
AcDbLine
 10
9.08562992125984
 20
4.895669291338582
 30
0.0
 11
7.782480314960629
 21
4.143700787401574
 31
0.0
  0
LWPOLYLINE
  5
2491
330
1E
100
AcDbEntity
  8
7
100
AcDbPolyline
 90
        4
 70
     0
 43
0.0098425196850394
 10
7.765748031496062
 20
4.133858267716535
 10
7.76279527559055
 20
4.131889763779527
 10
7.764763779527559
 20
4.130905511811024
 10
7.765748031496062
 20
4.131889763779527
  0
LWPOLYLINE
  5
2497
330
1E
100
AcDbEntity
  8
7
100
AcDbPolyline
 90
        3
 70
     0
 43
0.0098425196850394
 10
9.28543307086614
 20
3.252952755905512
 10
9.287401574803148
 20
3.251968503937007
 10
9.288385826771651
 20
3.251968503937007
  0
LWPOLYLINE
  5
249C
330
1E
100
AcDbEntity
  8
7
100
AcDbPolyline
 90
        3
 70
     0
 43
0.0098425196850394
 10
9.297244094488188
 20
3.247047244094488
 10
9.298228346456692
 20
3.247047244094488
 10
9.298228346456692
 20
3.248031496062992
  0
LWPOLYLINE
  5
24A1
330
1E
100
AcDbEntity
  8
7
100
AcDbPolyline
 90
        3
 70
     0
 43
0.0098425196850394
 10
9.298228346456692
 20
3.251968503937007
 10
9.293307086614172
 20
3.252952755905512
 10
9.288385826771651
 20
3.251968503937007
  0
LINE
  5
24A6
330
1E
100
AcDbEntity
  8
7
100
AcDbLine
 10
9.296259842519683
 20
3.247047244094488
 30
0.0
 11
9.297244094488188
 21
3.247047244094488
 31
0.0
  0
LINE
  5
24A7
330
1E
100
AcDbEntity
  8
7
100
AcDbLine
 10
10.4517716535433
 20
4.042322834645669
 30
0.0
 11
10.46850393700787
 21
4.052165354330708
 31
0.0
  0
LWPOLYLINE
  5
24A8
330
1E
100
AcDbEntity
  8
7
100
AcDbPolyline
 90
        4
 70
     0
 43
0.0098425196850394
 10
10.48523622047244
 20
4.042322834645669
 10
10.48818897637795
 20
4.048228346456692
 10
10.48031496062992
 20
4.053149606299212
 10
10.46850393700787
 20
4.052165354330708
  0
LINE
  5
24AE
330
1E
100
AcDbEntity
  8
7
100
AcDbLine
 10
10.46850393700787
 20
4.032480314960629
 30
0.0
 11
10.48523622047244
 21
4.042322834645669
 31
0.0
  0
LWPOLYLINE
  5
24AF
330
1E
100
AcDbEntity
  8
7
100
AcDbPolyline
 90
        4
 70
     0
 43
0.0098425196850394
 10
10.4517716535433
 20
4.042322834645669
 10
10.44881889763779
 20
4.035433070866141
 10
10.45767716535433
 20
4.030511811023622
 10
10.46850393700787
 20
4.032480314960629
  0
LINE
  5
24B5
330
1E
100
AcDbEntity
  8
7
100
AcDbLine
 10
9.125984251968503
 20
4.808070866141732
 30
0.0
 11
9.14271653543307
 21
4.816929133858267
 31
0.0
  0
LWPOLYLINE
  5
24B6
330
1E
100
AcDbEntity
  8
7
100
AcDbPolyline
 90
        4
 70
     0
 43
0.0098425196850394
 10
9.159448818897637
 20
4.808070866141732
 10
9.162401574803148
 20
4.813976377952755
 10
9.154527559055116
 20
4.818897637795275
 10
9.14271653543307
 20
4.816929133858267
  0
LINE
  5
24BC
330
1E
100
AcDbEntity
  8
7
100
AcDbLine
 10
9.14271653543307
 20
4.798228346456692
 30
0.0
 11
9.159448818897637
 21
4.808070866141732
 31
0.0
  0
LINE
  5
24BD
330
1E
100
AcDbEntity
  8
7
100
AcDbLine
 10
9.125984251968503
 20
4.808070866141732
 30
0.0
 11
9.12303149606299
 21
4.801181102362204
 31
0.0
  0
LWPOLYLINE
  5
24BE
330
1E
100
AcDbEntity
  8
7
100
AcDbPolyline
 90
        3
 70
     0
 43
0.0098425196850394
 10
9.12303149606299
 20
4.801181102362204
 10
9.131889763779525
 20
4.796259842519685
 10
9.14271653543307
 20
4.798228346456692
  0
LINE
  5
24C3
330
1E
100
AcDbEntity
  8
7
100
AcDbLine
 10
7.76279527559055
 20
4.125984251968503
 30
0.0
 11
7.764763779527559
 21
4.125
 31
0.0
  0
LINE
  5
24C4
330
1E
100
AcDbEntity
  8
7
100
AcDbLine
 10
9.296259842519683
 20
3.24015748031496
 30
0.0
 11
9.299212598425196
 21
3.239173228346456
 31
0.0
  0
LWPOLYLINE
  5
24C5
330
1E
100
AcDbEntity
  8
7
100
AcDbPolyline
 90
        3
 70
     0
 43
0.0098425196850394
 10
9.296259842519683
 20
3.246062992125984
 10
9.292322834645668
 20
3.247047244094488
 10
9.288385826771651
 20
3.246062992125984
  0
LINE
  5
24CA
330
1E
100
AcDbEntity
  8
7
100
AcDbLine
 10
9.287401574803148
 20
3.24507874015748
 30
0.0
 11
9.288385826771651
 21
3.246062992125984
 31
0.0
  0
LINE
  5
24CB
330
1E
100
AcDbEntity
  8
7
100
AcDbLine
 10
7.764763779527559
 20
4.125
 30
0.0
 11
7.765748031496062
 21
4.125
 31
0.0
  0
LINE
  5
24CC
330
1E
100
AcDbEntity
  8
7
100
AcDbLine
 10
10.4517716535433
 20
4.036417322834645
 30
0.0
 11
10.46850393700787
 21
4.04527559055118
 31
0.0
  0
LWPOLYLINE
  5
24CD
330
1E
100
AcDbEntity
  8
7
100
AcDbPolyline
 90
        3
 70
     0
 43
0.0098425196850394
 10
10.4517716535433
 20
4.036417322834645
 10
10.4507874015748
 20
4.035433070866141
 10
10.44980314960629
 20
4.034448818897637
  0
LWPOLYLINE
  5
24D2
330
1E
100
AcDbEntity
  8
7
100
AcDbPolyline
 90
        3
 70
     0
 43
0.0098425196850394
 10
10.48720472440944
 20
4.044291338582676
 10
10.47834645669291
 20
4.047244094488188
 10
10.46850393700787
 20
4.04527559055118
  0
LINE
  5
24D7
330
1E
100
AcDbEntity
  8
7
100
AcDbLine
 10
9.125984251968503
 20
4.801181102362204
 30
0.0
 11
9.14271653543307
 21
4.811023622047244
 31
0.0
  0
LWPOLYLINE
  5
24D8
330
1E
100
AcDbEntity
  8
7
100
AcDbPolyline
 90
        3
 70
     0
 43
0.0098425196850394
 10
9.125984251968503
 20
4.801181102362204
 10
9.125
 20
4.801181102362204
 10
9.124015748031494
 20
4.8001968503937
  0
LWPOLYLINE
  5
24DD
330
1E
100
AcDbEntity
  8
7
100
AcDbPolyline
 90
        3
 70
     0
 43
0.0098425196850394
 10
9.161417322834644
 20
4.809055118110236
 10
9.152559055118109
 20
4.812992125984251
 10
9.14271653543307
 20
4.811023622047244
  0
LWPOLYLINE
  5
24E2
330
1E
100
AcDbEntity
  8
7
100
AcDbPolyline
 90
        3
 70
     0
 43
0.0098425196850394
 10
10.62795275590551
 20
4.002952755905512
 10
10.62893700787401
 20
4.004921259842519
 10
10.62992125984251
 20
4.007874015748031
  0
LINE
  5
24E7
330
1E
100
AcDbEntity
  8
7
100
AcDbLine
 10
9.299212598425196
 20
3.239173228346456
 30
0.0
 11
9.3001968503937
 21
3.238188976377952
 31
0.0
  0
LINE
  5
24E8
330
1E
100
AcDbEntity
  8
7
100
AcDbLine
 10
9.296259842519683
 20
3.24015748031496
 30
0.0
 11
9.296259842519683
 21
3.247047244094488
 31
0.0
  0
LINE
  5
24E9
330
1E
100
AcDbEntity
  8
7
100
AcDbLine
 10
10.62992125984251
 20
4.007874015748031
 30
0.0
 11
9.368110236220472
 21
3.279527559055118
 31
0.0
  0
LWPOLYLINE
  5
24EA
330
1E
100
AcDbEntity
  8
7
100
AcDbPolyline
 90
        6
 70
     0
 43
0.0098425196850394
 10
10.63188976377952
 20
4.008858267716535
 10
10.63188976377952
 20
4.048228346456692
 10
10.62893700787401
 20
4.054133858267716
 10
10.62204724409448
 20
4.05511811023622
 10
9.836614173228346
 20
3.71751968503937
 10
9.307086614173227
 20
3.411417322834645
  0
LINE
  5
24F2
330
1E
100
AcDbEntity
  8
7
100
AcDbLine
 10
9.307086614173227
 20
3.408464566929133
 30
0.0
 11
9.307086614173227
 21
3.411417322834645
 31
0.0
  0
LINE
  5
24F3
330
1E
100
AcDbEntity
  8
7
100
AcDbLine
 10
10.62992125984251
 20
4.007874015748031
 30
0.0
 11
10.63188976377952
 21
4.008858267716535
 31
0.0
  0
LWPOLYLINE
  5
24F4
330
1E
100
AcDbEntity
  8
7
100
AcDbPolyline
 90
        4
 70
     0
 43
0.0098425196850394
 10
9.831692913385825
 20
3.720472440944881
 10
10.61712598425196
 20
4.058070866141732
 10
10.62106299212598
 20
4.059055118110236
 10
10.62401574803149
 20
4.058070866141732
  0
LINE
  5
24FA
330
1E
100
AcDbEntity
  8
7
100
AcDbLine
 10
9.301181102362203
 20
3.414370078740157
 30
0.0
 11
9.831692913385825
 21
3.720472440944881
 31
0.0
  0
LINE
  5
24FB
330
1E
100
AcDbEntity
  8
7
100
AcDbLine
 10
9.836614173228346
 20
3.71751968503937
 30
0.0
 11
9.831692913385825
 21
3.720472440944881
 31
0.0
  0
LINE
  5
24FC
330
1E
100
AcDbEntity
  8
7
100
AcDbLine
 10
9.307086614173227
 20
3.411417322834645
 30
0.0
 11
9.301181102362203
 21
3.414370078740157
 31
0.0
  0
LWPOLYLINE
  5
24FD
330
1E
100
AcDbEntity
  8
7
100
AcDbPolyline
 90
        3
 70
     0
 43
0.0098425196850394
 10
7.76279527559055
 20
4.125984251968503
 10
7.758858267716535
 20
4.129921259842519
 10
7.755905511811024
 20
4.134842519685039
  0
LINE
  5
2502
330
1E
100
AcDbEntity
  8
7
100
AcDbLine
 10
7.764763779527559
 20
4.130905511811024
 30
0.0
 11
7.764763779527559
 21
4.125
 31
0.0
  0
LWPOLYLINE
  5
2503
330
1E
100
AcDbEntity
  8
7
100
AcDbPolyline
 90
        3
 70
     0
 43
0.0098425196850394
 10
7.76279527559055
 20
4.131889763779527
 10
7.760826771653543
 20
4.133858267716535
 10
7.759842519685039
 20
4.136811023622047
  0
LWPOLYLINE
  5
2508
330
1E
100
AcDbEntity
  8
7
100
AcDbPolyline
 90
        4
 70
     0
 43
0.0098425196850394
 10
9.08562992125984
 20
4.895669291338582
 10
9.083661417322833
 20
4.898622047244094
 10
9.083661417322833
 20
4.900590551181102
 10
7.759842519685039
 20
4.136811023622047
  0
LWPOLYLINE
  5
250E
330
1E
100
AcDbEntity
  8
7
100
AcDbPolyline
 90
        4
 70
     0
 43
0.0098425196850394
 10
8.284448818897637
 20
4.613188976377952
 10
9.070866141732283
 20
4.950787401574802
 10
9.073818897637794
 20
4.951771653543307
 10
9.076771653543305
 20
4.950787401574802
  0
LINE
  5
2514
330
1E
100
AcDbEntity
  8
7
100
AcDbLine
 10
7.754921259842519
 20
4.307086614173228
 30
0.0
 11
8.284448818897637
 21
4.613188976377952
 31
0.0
  0
LWPOLYLINE
  5
2515
330
1E
100
AcDbEntity
  8
7
100
AcDbPolyline
 90
        6
 70
     0
 43
0.0098425196850394
 10
9.08562992125984
 20
4.901574803149606
 10
9.08562992125984
 20
4.940944881889763
 10
9.082677165354329
 20
4.947834645669291
 10
9.075787401574801
 20
4.947834645669291
 10
8.290354330708661
 20
4.61023622047244
 10
7.759842519685039
 20
4.304133858267716
  0
LINE
  5
251D
330
1E
100
AcDbEntity
  8
7
100
AcDbLine
 10
7.759842519685039
 20
4.136811023622047
 30
0.0
 11
7.759842519685039
 21
4.304133858267716
 31
0.0
  0
LINE
  5
251E
330
1E
100
AcDbEntity
  8
7
100
AcDbLine
 10
9.083661417322833
 20
4.900590551181102
 30
0.0
 11
9.08562992125984
 21
4.901574803149606
 31
0.0
  0
LINE
  5
251F
330
1E
100
AcDbEntity
  8
7
100
AcDbLine
 10
8.290354330708661
 20
4.61023622047244
 30
0.0
 11
8.284448818897637
 21
4.613188976377952
 31
0.0
  0
LWPOLYLINE
  5
2520
330
1E
100
AcDbEntity
  8
7
100
AcDbPolyline
 90
        5
 70
     0
 43
0.0098425196850394
 10
7.759842519685039
 20
4.304133858267716
 10
7.754921259842519
 20
4.307086614173228
 10
7.751968503937008
 20
4.307086614173228
 10
7.749015748031496
 20
4.307086614173228
 10
7.744094488188976
 20
4.304133858267716
  0
LWPOLYLINE
  5
2527
330
1E
100
AcDbEntity
  8
7
100
AcDbPolyline
 90
        3
 70
     0
 43
0.0098425196850394
 10
7.759842519685039
 20
4.304133858267716
 10
7.751968503937008
 20
4.302165354330708
 10
7.744094488188976
 20
4.304133858267716
  0
LWPOLYLINE
  5
252C
330
1E
100
AcDbEntity
  8
7
100
AcDbPolyline
 90
        3
 70
     0
 43
0.0098425196850394
 10
7.759842519685039
 20
4.136811023622047
 10
7.751968503937008
 20
4.134842519685039
 10
7.744094488188976
 20
4.136811023622047
  0
LINE
  5
2531
330
1E
100
AcDbEntity
  8
7
100
AcDbLine
 10
7.744094488188976
 20
4.304133858267716
 30
0.0
 11
7.744094488188976
 21
4.136811023622047
 31
0.0
  0
LWPOLYLINE
  5
2532
330
1E
100
AcDbEntity
  8
7
100
AcDbPolyline
 90
        3
 70
     0
 43
0.0098425196850394
 10
7.749015748031496
 20
4.307086614173228
 10
7.699803149606299
 20
4.336614173228346
 10
7.693897637795275
 20
4.33267716535433
  0
LINE
  5
2537
330
1E
100
AcDbEntity
  8
7
100
AcDbLine
 10
7.744094488188976
 20
4.304133858267716
 30
0.0
 11
7.693897637795275
 21
4.33267716535433
 31
0.0
  0
LINE
  5
2538
330
1E
100
AcDbEntity
  8
7
100
AcDbLine
 10
7.706692913385826
 20
4.250984251968503
 30
0.0
 11
7.71751968503937
 21
4.244094488188976
 31
0.0
  0
LWPOLYLINE
  5
2539
330
1E
100
AcDbEntity
  8
7
100
AcDbPolyline
 90
        5
 70
     0
 43
0.0098425196850394
 10
7.71751968503937
 20
4.218503937007874
 10
7.725393700787401
 20
4.218503937007874
 10
7.728346456692912
 20
4.225393700787401
 10
7.725393700787401
 20
4.236220472440945
 10
7.71751968503937
 20
4.244094488188976
  0
LINE
  5
2540
330
1E
100
AcDbEntity
  8
7
100
AcDbLine
 10
7.706692913385826
 20
4.225393700787401
 30
0.0
 11
7.71751968503937
 21
4.218503937007874
 31
0.0
  0
LWPOLYLINE
  5
2541
330
1E
100
AcDbEntity
  8
7
100
AcDbPolyline
 90
        5
 70
     0
 43
0.0098425196850394
 10
7.706692913385826
 20
4.250984251968503
 10
7.698818897637795
 20
4.251968503937008
 10
7.695866141732283
 20
4.244094488188976
 10
7.698818897637795
 20
4.233267716535433
 10
7.706692913385826
 20
4.225393700787401
  0
LINE
  5
2548
330
1E
100
AcDbEntity
  8
7
100
AcDbLine
 10
7.706692913385826
 20
4.187007874015748
 30
0.0
 11
7.71751968503937
 21
4.181102362204724
 31
0.0
  0
LWPOLYLINE
  5
2549
330
1E
100
AcDbEntity
  8
7
100
AcDbPolyline
 90
        5
 70
     0
 43
0.0098425196850394
 10
7.71751968503937
 20
4.155511811023622
 10
7.725393700787401
 20
4.154527559055118
 10
7.728346456692912
 20
4.161417322834645
 10
7.725393700787401
 20
4.172244094488188
 10
7.71751968503937
 20
4.181102362204724
  0
LINE
  5
2550
330
1E
100
AcDbEntity
  8
7
100
AcDbLine
 10
7.706692913385826
 20
4.161417322834645
 30
0.0
 11
7.71751968503937
 21
4.155511811023622
 31
0.0
  0
LWPOLYLINE
  5
2551
330
1E
100
AcDbEntity
  8
7
100
AcDbPolyline
 90
        5
 70
     0
 43
0.0098425196850394
 10
7.706692913385826
 20
4.187007874015748
 10
7.698818897637795
 20
4.187992125984251
 10
7.695866141732283
 20
4.181102362204724
 10
7.698818897637795
 20
4.170275590551181
 10
7.706692913385826
 20
4.161417322834645
  0
LINE
  5
2558
330
1E
100
AcDbEntity
  8
7
100
AcDbLine
 10
7.706692913385826
 20
4.31496062992126
 30
0.0
 11
7.71751968503937
 21
4.308070866141732
 31
0.0
  0
LWPOLYLINE
  5
2559
330
1E
100
AcDbEntity
  8
7
100
AcDbPolyline
 90
        5
 70
     0
 43
0.0098425196850394
 10
7.71751968503937
 20
4.282480314960629
 10
7.725393700787401
 20
4.282480314960629
 10
7.728346456692912
 20
4.289370078740157
 10
7.725393700787401
 20
4.3001968503937
 10
7.71751968503937
 20
4.308070866141732
  0
LINE
  5
2560
330
1E
100
AcDbEntity
  8
7
100
AcDbLine
 10
7.706692913385826
 20
4.289370078740157
 30
0.0
 11
7.71751968503937
 21
4.282480314960629
 31
0.0
  0
LWPOLYLINE
  5
2561
330
1E
100
AcDbEntity
  8
7
100
AcDbPolyline
 90
        5
 70
     0
 43
0.0098425196850394
 10
7.706692913385826
 20
4.31496062992126
 10
7.698818897637795
 20
4.31496062992126
 10
7.695866141732283
 20
4.308070866141732
 10
7.698818897637795
 20
4.297244094488188
 10
7.706692913385826
 20
4.289370078740157
  0
LWPOLYLINE
  5
2568
330
1E
100
AcDbEntity
  8
7
100
AcDbPolyline
 90
        4
 70
     0
 43
0.0098425196850394
 10
7.693897637795275
 20
4.159448818897637
 10
7.734251968503937
 20
4.135826771653543
 10
7.740157480314961
 20
4.134842519685039
 10
7.744094488188976
 20
4.136811023622047
  0
LWPOLYLINE
  5
256E
330
1E
100
AcDbEntity
  8
7
100
AcDbPolyline
 90
        6
 70
     0
 43
0.0098425196850394
 10
7.693897637795275
 20
4.33267716535433
 10
7.686023622047244
 20
4.333661417322834
 10
7.683070866141732
 20
4.326771653543307
 10
7.683070866141732
 20
4.179133858267716
 10
7.686023622047244
 20
4.168307086614173
 10
7.693897637795275
 20
4.159448818897637
  0
LWPOLYLINE
  5
2576
330
1E
100
AcDbEntity
  8
7
100
AcDbPolyline
 90
        4
 70
     0
 43
0.0098425196850394
 10
7.701771653543307
 20
4.251968503937008
 10
7.702755905511811
 20
4.240157480314961
 10
7.711614173228346
 20
4.228346456692913
 10
7.722440944881889
 20
4.222440944881889
  0
LWPOLYLINE
  5
257C
330
1E
100
AcDbEntity
  8
7
100
AcDbPolyline
 90
        3
 70
     0
 43
0.0098425196850394
 10
7.722440944881889
 20
4.222440944881889
 10
7.725393700787401
 20
4.221456692913386
 10
7.727362204724409
 20
4.220472440944882
  0
LWPOLYLINE
  5
2581
330
1E
100
AcDbEntity
  8
7
100
AcDbPolyline
 90
        6
 70
     0
 43
0.0098425196850394
 10
7.701771653543307
 20
4.188976377952755
 10
7.702755905511811
 20
4.176181102362204
 10
7.711614173228346
 20
4.164370078740157
 10
7.722440944881889
 20
4.158464566929134
 10
7.725393700787401
 20
4.157480314960629
 10
7.727362204724409
 20
4.156496062992125
  0
LWPOLYLINE
  5
2589
330
1E
100
AcDbEntity
  8
7
100
AcDbPolyline
 90
        6
 70
     0
 43
0.0098425196850394
 10
7.701771653543307
 20
4.315944881889763
 10
7.702755905511811
 20
4.303149606299212
 10
7.711614173228346
 20
4.292322834645669
 10
7.722440944881889
 20
4.285433070866141
 10
7.725393700787401
 20
4.284448818897637
 10
7.727362204724409
 20
4.284448818897637
  0
LWPOLYLINE
  5
2591
330
1E
100
AcDbEntity
  8
7
100
AcDbPolyline
 90
        3
 70
     0
 43
0.0098425196850394
 10
7.691929133858267
 20
4.336614173228346
 10
7.694881889763779
 20
4.33759842519685
 10
7.699803149606299
 20
4.336614173228346
  0
LWPOLYLINE
  5
2596
330
1E
100
AcDbEntity
  8
7
100
AcDbPolyline
 90
        3
 70
     0
 43
0.0098425196850394
 10
9.298228346456692
 20
3.242125984251968
 10
9.299212598425196
 20
3.24015748031496
 10
9.301181102362203
 20
3.237204724409449
  0
LWPOLYLINE
  5
259B
330
1E
100
AcDbEntity
  8
7
100
AcDbPolyline
 90
        4
 70
     0
 43
0.0098425196850394
 10
9.301181102362203
 20
3.414370078740157
 10
9.298228346456692
 20
3.409448818897637
 10
9.301181102362203
 20
3.405511811023622
 10
9.307086614173227
 20
3.408464566929133
  0
LWPOLYLINE
  5
25A1
330
1E
100
AcDbEntity
  8
7
100
AcDbPolyline
 90
        3
 70
     0
 43
0.0098425196850394
 10
9.307086614173227
 20
3.411417322834645
 10
9.306102362204724
 20
3.409448818897637
 10
9.307086614173227
 20
3.408464566929133
  0
LWPOLYLINE
  5
25A6
330
1E
100
AcDbEntity
  8
7
100
AcDbPolyline
 90
        4
 70
     0
 43
0.0098425196850394
 10
9.301181102362203
 20
3.237204724409449
 10
9.301181102362203
 20
3.405511811023622
 10
9.351377952755903
 20
3.375984251968504
 10
9.357283464566927
 20
3.378937007874015
  0
LINE
  5
25AC
330
1E
100
AcDbEntity
  8
7
100
AcDbLine
 10
9.307086614173227
 20
3.408464566929133
 30
0.0
 11
9.357283464566927
 21
3.378937007874015
 31
0.0
  0
LINE
  5
25AD
330
1E
100
AcDbEntity
  8
7
100
AcDbLine
 10
9.327755905511809
 20
3.314960629921259
 30
0.0
 11
9.339566929133857
 21
3.308070866141732
 31
0.0
  0
LWPOLYLINE
  5
25AE
330
1E
100
AcDbEntity
  8
7
100
AcDbPolyline
 90
        5
 70
     0
 43
0.0098425196850394
 10
9.339566929133857
 20
3.28248031496063
 10
9.346456692913385
 20
3.28248031496063
 10
9.3503937007874
 20
3.289370078740157
 10
9.346456692913385
 20
3.3001968503937
 10
9.339566929133857
 20
3.308070866141732
  0
LINE
  5
25B5
330
1E
100
AcDbEntity
  8
7
100
AcDbLine
 10
9.327755905511809
 20
3.289370078740157
 30
0.0
 11
9.339566929133857
 21
3.28248031496063
 31
0.0
  0
LWPOLYLINE
  5
25B6
330
1E
100
AcDbEntity
  8
7
100
AcDbPolyline
 90
        5
 70
     0
 43
0.0098425196850394
 10
9.327755905511809
 20
3.314960629921259
 10
9.319881889763777
 20
3.314960629921259
 10
9.316929133858266
 20
3.308070866141732
 10
9.319881889763777
 20
3.297244094488188
 10
9.327755905511809
 20
3.289370078740157
  0
LINE
  5
25BD
330
1E
100
AcDbEntity
  8
7
100
AcDbLine
 10
9.327755905511809
 20
3.250984251968504
 30
0.0
 11
9.339566929133857
 21
3.244094488188976
 31
0.0
  0
LWPOLYLINE
  5
25BE
330
1E
100
AcDbEntity
  8
7
100
AcDbPolyline
 90
        5
 70
     0
 43
0.0098425196850394
 10
9.339566929133857
 20
3.218503937007874
 10
9.346456692913385
 20
3.218503937007874
 10
9.3503937007874
 20
3.225393700787401
 10
9.346456692913385
 20
3.236220472440944
 10
9.339566929133857
 20
3.244094488188976
  0
LINE
  5
25C5
330
1E
100
AcDbEntity
  8
7
100
AcDbLine
 10
9.327755905511809
 20
3.225393700787401
 30
0.0
 11
9.339566929133857
 21
3.218503937007874
 31
0.0
  0
LWPOLYLINE
  5
25C6
330
1E
100
AcDbEntity
  8
7
100
AcDbPolyline
 90
        5
 70
     0
 43
0.0098425196850394
 10
9.327755905511809
 20
3.250984251968504
 10
9.319881889763777
 20
3.251968503937007
 10
9.316929133858266
 20
3.244094488188976
 10
9.319881889763777
 20
3.233267716535433
 10
9.327755905511809
 20
3.225393700787401
  0
LINE
  5
25CD
330
1E
100
AcDbEntity
  8
7
100
AcDbLine
 10
9.327755905511809
 20
3.378937007874015
 30
0.0
 11
9.339566929133857
 21
3.372047244094488
 31
0.0
  0
LWPOLYLINE
  5
25CE
330
1E
100
AcDbEntity
  8
7
100
AcDbPolyline
 90
        5
 70
     0
 43
0.0098425196850394
 10
9.339566929133857
 20
3.346456692913386
 10
9.346456692913385
 20
3.345472440944881
 10
9.3503937007874
 20
3.353346456692913
 10
9.346456692913385
 20
3.364173228346456
 10
9.339566929133857
 20
3.372047244094488
  0
LINE
  5
25D5
330
1E
100
AcDbEntity
  8
7
100
AcDbLine
 10
9.327755905511809
 20
3.353346456692913
 30
0.0
 11
9.339566929133857
 21
3.346456692913386
 31
0.0
  0
LWPOLYLINE
  5
25D6
330
1E
100
AcDbEntity
  8
7
100
AcDbPolyline
 90
        5
 70
     0
 43
0.0098425196850394
 10
9.327755905511809
 20
3.378937007874015
 10
9.319881889763777
 20
3.378937007874015
 10
9.316929133858266
 20
3.372047244094488
 10
9.319881889763777
 20
3.361220472440944
 10
9.327755905511809
 20
3.353346456692913
  0
LWPOLYLINE
  5
25DD
330
1E
100
AcDbEntity
  8
7
100
AcDbPolyline
 90
        8
 70
     0
 43
0.0098425196850394
 10
9.301181102362203
 20
3.237204724409449
 10
9.30511811023622
 20
3.231299212598425
 10
9.311023622047242
 20
3.226377952755905
 10
9.351377952755903
 20
3.202755905511811
 10
9.359251968503935
 20
3.201771653543307
 10
9.362204724409448
 20
3.208661417322834
 10
9.362204724409448
 20
3.357283464566929
 10
9.359251968503935
 20
3.368110236220472
  0
LINE
  5
25E7
330
1E
100
AcDbEntity
  8
7
100
AcDbLine
 10
9.359251968503935
 20
3.368110236220472
 30
0.0
 11
9.351377952755903
 21
3.375984251968504
 31
0.0
  0
LWPOLYLINE
  5
25E8
330
1E
100
AcDbEntity
  8
7
100
AcDbPolyline
 90
        6
 70
     0
 43
0.0098425196850394
 10
9.323818897637794
 20
3.315944881889763
 10
9.323818897637794
 20
3.303149606299212
 10
9.333661417322833
 20
3.292322834645669
 10
9.344488188976377
 20
3.285433070866141
 10
9.346456692913385
 20
3.284448818897637
 10
9.349409448818896
 20
3.284448818897637
  0
LWPOLYLINE
  5
25F0
330
1E
100
AcDbEntity
  8
7
100
AcDbPolyline
 90
        6
 70
     0
 43
0.0098425196850394
 10
9.323818897637794
 20
3.251968503937007
 10
9.323818897637794
 20
3.24015748031496
 10
9.333661417322833
 20
3.228346456692913
 10
9.344488188976377
 20
3.222440944881889
 10
9.346456692913385
 20
3.221456692913386
 10
9.349409448818896
 20
3.220472440944881
  0
LWPOLYLINE
  5
25F8
330
1E
100
AcDbEntity
  8
7
100
AcDbPolyline
 90
        6
 70
     0
 43
0.0098425196850394
 10
9.323818897637794
 20
3.379921259842519
 10
9.323818897637794
 20
3.367125984251968
 10
9.333661417322833
 20
3.356299212598425
 10
9.344488188976377
 20
3.349409448818897
 10
9.346456692913385
 20
3.348425196850393
 10
9.349409448818896
 20
3.348425196850393
  0
LWPOLYLINE
  5
2600
330
1E
100
AcDbEntity
  8
7
100
AcDbPolyline
 90
        6
 70
     0
 43
0.0098425196850394
 10
9.357283464566927
 20
3.378937007874015
 10
9.364173228346455
 20
3.371062992125984
 10
9.368110236220472
 20
3.360236220472441
 10
9.368110236220472
 20
3.211614173228346
 10
9.367125984251966
 20
3.207677165354331
 10
9.364173228346455
 20
3.204724409448818
  0
LINE
  5
2608
330
1E
100
AcDbEntity
  8
7
100
AcDbLine
 10
9.362204724409448
 20
3.208661417322834
 30
0.0
 11
9.368110236220472
 21
3.211614173228346
 31
0.0
  0
LINE
  5
2609
330
1E
100
AcDbEntity
  8
7
100
AcDbLine
 10
9.368110236220472
 20
3.360236220472441
 30
0.0
 11
9.362204724409448
 21
3.357283464566929
 31
0.0
  0
LINE
  5
260A
330
1E
100
AcDbEntity
  8
7
100
AcDbLine
 10
7.711614173228346
 20
4.292322834645669
 30
0.0
 11
7.706692913385826
 21
4.289370078740157
 31
0.0
  0
LINE
  5
260B
330
1E
100
AcDbEntity
  8
7
100
AcDbLine
 10
7.722440944881889
 20
4.285433070866141
 30
0.0
 11
7.71751968503937
 21
4.282480314960629
 31
0.0
  0
LINE
  5
260C
330
1E
100
AcDbEntity
  8
7
100
AcDbLine
 10
7.711614173228346
 20
4.164370078740157
 30
0.0
 11
7.706692913385826
 21
4.161417322834645
 31
0.0
  0
LINE
  5
260D
330
1E
100
AcDbEntity
  8
7
100
AcDbLine
 10
7.722440944881889
 20
4.158464566929134
 30
0.0
 11
7.71751968503937
 21
4.155511811023622
 31
0.0
  0
LINE
  5
260E
330
1E
100
AcDbEntity
  8
7
100
AcDbLine
 10
9.333661417322833
 20
3.356299212598425
 30
0.0
 11
9.327755905511809
 21
3.353346456692913
 31
0.0
  0
LINE
  5
260F
330
1E
100
AcDbEntity
  8
7
100
AcDbLine
 10
9.344488188976377
 20
3.349409448818897
 30
0.0
 11
9.339566929133857
 21
3.346456692913386
 31
0.0
  0
LINE
  5
2610
330
1E
100
AcDbEntity
  8
7
100
AcDbLine
 10
9.333661417322833
 20
3.228346456692913
 30
0.0
 11
9.327755905511809
 21
3.225393700787401
 31
0.0
  0
LINE
  5
2611
330
1E
100
AcDbEntity
  8
7
100
AcDbLine
 10
9.344488188976377
 20
3.222440944881889
 30
0.0
 11
9.339566929133857
 21
3.218503937007874
 31
0.0
  0
LWPOLYLINE
  5
2612
330
1E
100
AcDbEntity
  8
7
100
AcDbPolyline
 90
        3
 70
     0
 43
0.0098425196850394
 10
9.08562992125984
 20
4.895669291338582
 10
9.08759842519685
 20
4.898622047244094
 10
9.088582677165353
 20
4.900590551181102
  0
LINE
  5
2617
330
1E
100
AcDbEntity
  8
7
100
AcDbLine
 10
10.5777559055118
 20
4.041338582677164
 30
0.0
 11
9.088582677165353
 21
4.900590551181102
 31
0.0
  0
LWPOLYLINE
  5
2618
330
1E
100
AcDbEntity
  8
7
100
AcDbPolyline
 90
        4
 70
     0
 43
0.0098425196850394
 10
9.096456692913385
 20
4.949803149606299
 10
10.626968503937
 20
4.066929133858267
 10
10.63484251968503
 20
4.058070866141732
 10
10.63779527559055
 20
4.047244094488188
  0
LINE
  5
261E
330
1E
100
AcDbEntity
  8
7
100
AcDbLine
 10
10.63779527559055
 20
4.011811023622047
 30
0.0
 11
10.63779527559055
 21
4.047244094488188
 31
0.0
  0
LWPOLYLINE
  5
261F
330
1E
100
AcDbEntity
  8
7
100
AcDbPolyline
 90
        3
 70
     0
 43
0.0098425196850394
 10
9.088582677165353
 20
4.950787401574802
 10
9.092519685039368
 20
4.951771653543307
 10
9.096456692913385
 20
4.949803149606299
  0
LWPOLYLINE
  5
2624
330
1E
100
AcDbEntity
  8
7
100
AcDbPolyline
 90
        4
 70
     0
 43
0.0098425196850394
 10
10.63287401574803
 20
4.008858267716535
 10
10.63287401574803
 20
4.044291338582676
 10
10.63287401574803
 20
4.046259842519685
 10
10.63188976377952
 20
4.048228346456692
  0
LWPOLYLINE
  5
262A
330
1E
100
AcDbEntity
  8
7
100
AcDbPolyline
 90
        6
 70
     0
 43
0.0098425196850394
 10
10.62992125984251
 20
4.054133858267716
 10
10.6259842519685
 20
4.060039370078739
 10
10.62204724409448
 20
4.063976377952755
 10
9.091535433070864
 20
4.946850393700787
 10
9.086614173228346
 20
4.948818897637795
 10
9.082677165354329
 20
4.946850393700787
  0
LINE
  5
2632
330
1E
100
AcDbEntity
  8
7
100
AcDbLine
 10
9.088582677165353
 20
4.900590551181102
 30
0.0
 11
9.08562992125984
 21
4.90255905511811
 31
0.0
  0
LINE
  5
2633
330
1E
100
AcDbEntity
  8
7
100
AcDbLine
 10
10.63188976377952
 20
4.009842519685038
 30
0.0
 11
10.63287401574803
 21
4.008858267716535
 31
0.0
  0
LINE
  5
2634
330
1E
100
AcDbEntity
  8
7
100
AcDbLine
 10
10.62204724409448
 20
4.063976377952755
 30
0.0
 11
10.626968503937
 21
4.066929133858267
 31
0.0
  0
LINE
  5
2635
330
1E
100
AcDbEntity
  8
7
100
AcDbLine
 10
9.096456692913385
 20
4.949803149606299
 30
0.0
 11
9.091535433070864
 21
4.946850393700787
 31
0.0
  0
LINE
  5
2636
330
1E
100
AcDbEntity
  8
7
100
AcDbLine
 10
10.63779527559055
 20
4.011811023622047
 30
0.0
 11
10.63287401574803
 21
4.008858267716535
 31
0.0
  0
LINE
  5
2637
330
1E
100
AcDbEntity
  8
7
100
AcDbLine
 10
10.63779527559055
 20
4.047244094488188
 30
0.0
 11
10.63287401574803
 21
4.044291338582676
 31
0.0
  0
LINE
  5
2638
330
1E
100
AcDbEntity
  8
7
100
AcDbLine
 10
9.125984251968503
 20
4.801181102362204
 30
0.0
 11
9.125984251968503
 21
4.808070866141732
 31
0.0
  0
LINE
  5
2639
330
1E
100
AcDbEntity
  8
7
100
AcDbLine
 10
9.14271653543307
 20
4.811023622047244
 30
0.0
 11
9.14271653543307
 21
4.816929133858267
 31
0.0
  0
LINE
  5
263A
330
1E
100
AcDbEntity
  8
7
100
AcDbLine
 10
10.4517716535433
 20
4.036417322834645
 30
0.0
 11
10.4517716535433
 21
4.042322834645669
 31
0.0
  0
LINE
  5
263B
330
1E
100
AcDbEntity
  8
7
100
AcDbLine
 10
10.46850393700787
 20
4.04527559055118
 30
0.0
 11
10.46850393700787
 21
4.052165354330708
 31
0.0
  0
LINE
  5
263C
330
1E
100
AcDbEntity
  8
7
100
AcDbLine
 10
7.765748031496062
 20
4.125
 30
0.0
 11
7.765748031496062
 21
4.131889763779527
 31
0.0
  0
LINE
  5
263D
330
1E
100
AcDbEntity
  8
7
100
AcDbLine
 10
9.287401574803148
 20
3.251968503937007
 30
0.0
 11
9.287401574803148
 21
3.24507874015748
 31
0.0
  0
LINE
  5
263E
330
1E
100
AcDbEntity
  8
7
100
AcDbLine
 10
9.288385826771651
 20
3.246062992125984
 30
0.0
 11
9.288385826771651
 21
3.251968503937007
 31
0.0
  0
LWPOLYLINE
  5
263F
330
1E
100
AcDbEntity
  8
7
100
AcDbPolyline
 90
        4
 70
     0
 43
0.0098425196850394
 10
9.287401574803148
 20
3.251968503937007
 10
9.28543307086614
 20
3.251968503937007
 10
9.28543307086614
 20
3.252952755905512
 10
9.279527559055116
 20
3.25
  0
LWPOLYLINE
  5
2645
330
1E
100
AcDbEntity
  8
7
100
AcDbPolyline
 90
        3
 70
     0
 43
0.0098425196850394
 10
9.287401574803148
 20
3.24507874015748
 10
9.282480314960629
 20
3.24507874015748
 10
9.279527559055116
 20
3.25
  0
LWPOLYLINE
  5
264A
330
1E
100
AcDbEntity
  8
7
100
AcDbPolyline
 90
        3
 70
     0
 43
0.0098425196850394
 10
7.767716535433071
 20
4.119094488188976
 10
7.766732283464566
 20
4.121062992125984
 10
7.765748031496062
 20
4.124015748031496
  0
LINE
  5
264F
330
1E
100
AcDbEntity
  8
7
100
AcDbLine
 10
9.279527559055116
 20
3.25
 30
0.0
 11
7.765748031496062
 21
4.124015748031496
 31
0.0
  0
LWPOLYLINE
  5
2650
330
1E
100
AcDbEntity
  8
7
100
AcDbPolyline
 90
        3
 70
     0
 43
0.0098425196850394
 10
9.28543307086614
 20
3.252952755905512
 10
9.28543307086614
 20
3.262795275590551
 10
9.279527559055116
 20
3.259842519685039
  0
LINE
  5
2655
330
1E
100
AcDbEntity
  8
7
100
AcDbLine
 10
9.279527559055116
 20
3.25
 30
0.0
 11
9.279527559055116
 21
3.259842519685039
 31
0.0
  0
LINE
  5
2656
330
1E
100
AcDbEntity
  8
7
100
AcDbLine
 10
7.765748031496062
 20
4.124015748031496
 30
0.0
 11
7.765748031496062
 21
4.133858267716535
 31
0.0
  0
LWPOLYLINE
  5
2657
330
1E
100
AcDbEntity
  8
7
100
AcDbPolyline
 90
        6
 70
     0
 43
0.0098425196850394
 10
9.279527559055116
 20
3.259842519685039
 10
9.276574803149605
 20
3.270669291338582
 10
9.268700787401574
 20
3.279527559055118
 10
7.776574803149606
 20
4.140748031496062
 10
7.768700787401574
 20
4.141732283464566
 10
7.765748031496062
 20
4.133858267716535
  0
LWPOLYLINE
  5
265F
330
1E
100
AcDbEntity
  8
7
100
AcDbPolyline
 90
        3
 70
     0
 43
0.0098425196850394
 10
7.782480314960629
 20
4.143700787401574
 10
9.273622047244094
 20
3.28248031496063
 10
9.281496062992125
 20
3.273622047244094
  0
LINE
  5
2664
330
1E
100
AcDbEntity
  8
7
100
AcDbLine
 10
9.281496062992125
 20
3.273622047244094
 30
0.0
 11
9.28543307086614
 21
3.262795275590551
 31
0.0
  0
LWPOLYLINE
  5
2665
330
1E
100
AcDbEntity
  8
7
100
AcDbPolyline
 90
        3
 70
     0
 43
0.0098425196850394
 10
7.774606299212598
 20
4.144685039370078
 10
7.77755905511811
 20
4.145669291338582
 10
7.782480314960629
 20
4.143700787401574
  0
LINE
  5
266A
330
1E
100
AcDbEntity
  8
7
100
AcDbLine
 10
9.268700787401574
 20
3.279527559055118
 30
0.0
 11
9.273622047244094
 21
3.28248031496063
 31
0.0
  0
LINE
  5
266B
330
1E
100
AcDbEntity
  8
7
100
AcDbLine
 10
7.782480314960629
 20
4.143700787401574
 30
0.0
 11
7.776574803149606
 21
4.140748031496062
 31
0.0
  0
LINE
  5
266C
330
1E
100
AcDbEntity
  8
7
100
AcDbLine
 10
9.075787401574801
 20
4.947834645669291
 30
0.0
 11
9.070866141732283
 21
4.950787401574802
 31
0.0
  0
LINE
  5
266D
330
1E
100
AcDbEntity
  8
7
100
AcDbLine
 10
10.62204724409448
 20
4.05511811023622
 30
0.0
 11
10.61712598425196
 21
4.058070866141732
 31
0.0
  0
LINE
  5
266E
330
1E
100
AcDbEntity
  8
7
100
AcDbLine
 10
7.711614173228346
 20
4.228346456692913
 30
0.0
 11
7.706692913385826
 21
4.225393700787401
 31
0.0
  0
LINE
  5
266F
330
1E
100
AcDbEntity
  8
7
100
AcDbLine
 10
7.722440944881889
 20
4.222440944881889
 30
0.0
 11
7.71751968503937
 21
4.218503937007874
 31
0.0
  0
LINE
  5
2670
330
1E
100
AcDbEntity
  8
7
100
AcDbLine
 10
9.333661417322833
 20
3.292322834645669
 30
0.0
 11
9.327755905511809
 21
3.289370078740157
 31
0.0
  0
LINE
  5
2671
330
1E
100
AcDbEntity
  8
7
100
AcDbLine
 10
9.344488188976377
 20
3.285433070866141
 30
0.0
 11
9.339566929133857
 21
3.28248031496063
 31
0.0
  0
ENDSEC
  0
SECTION
  2
OBJECTS
  0
DICTIONARY
  5
C
330
0
100
AcDbDictionary
  3
ACAD_GROUP
350
D
  3
ACAD_LAYOUT
350
19
  3
ACAD_MLINESTYLE
350
16
  3
ACAD_PLOTSETTINGS
350
18
  3
ACAD_PLOTSTYLENAME
350
E
  3
ACDBHEADERROUNDTRIPXREC
350
26AA
  0
DICTIONARY
  5
26CD
330
1E
100
AcDbDictionary
280
     1
  3
ACAD_LAYOUTSELFREF
360
26CE
  0
DICTIONARY
  5
26CB
330
1A
100
AcDbDictionary
280
     1
  3
ACAD_LAYOUTSELFREF
360
26CC
  0
DICTIONARY
  5
D
102
{ACAD_REACTORS
330
C
102
}
330
C
100
AcDbDictionary
  0
DICTIONARY
  5
19
102
{ACAD_REACTORS
330
C
102
}
330
C
100
AcDbDictionary
  0
DICTIONARY
  5
16
102
{ACAD_REACTORS
330
C
102
}
330
C
100
AcDbDictionary
  3
STANDARD
350
17
  0
DICTIONARY
  5
18
102
{ACAD_REACTORS
330
C
102
}
330
C
100
AcDbDictionary
  0
ACDBDICTIONARYWDFLT
  5
E
102
{ACAD_REACTORS
330
C
102
}
330
C
100
AcDbDictionary
281
     1
  3
Normal
350
F
100
AcDbDictionaryWithDefault
340
F
  0
DICTIONARY
  5
26AA
102
{ACAD_REACTORS
330
C
102
}
330
C
100
AcDbDictionary
  3
CEPSNTYPE
350
26B4
  3
DIMSTYLEDATA
350
26B8
  3
FINGERPRINTGUID
350
26B5
  3
HYPERLINKBASE
350
26AD
  3
INSUNITS
350
26B3
  3
LAYOUTDICT
350
26AF
  3
LWETCUNION
350
26B2
  3
PLOTSETDICT
350
26B0
  3
PLOTSTYLNAMDICT
350
26B1
  3
PSVPSCALE
350
26B7
  3
PUCSBASE
350
26BB
  3
PUCSORGBACK
350
26C1
  3
PUCSORGBOTTOM
350
26BD
  3
PUCSORGFRONT
350
26C0
  3
PUCSORGLEFT
350
26BE
  3
PUCSORGRIGHT
350
26BF
  3
PUCSORGTOP
350
26BC
  3
PUCSORTHOREF
350
26B9
  3
PUCSORTHOVIEW
350
26BA
  3
STYLESHEET
350
26AE
  3
TSTACKALIGN
350
26AB
  3
TSTACKSIZE
350
26AC
  3
UCSBASE
350
26C4
  3
UCSORGBACK
350
26CA
  3
UCSORGBOTTOM
350
26C6
  3
UCSORGFRONT
350
26C9
  3
UCSORGLEFT
350
26C7
  3
UCSORGRIGHT
350
26C8
  3
UCSORGTOP
350
26C5
  3
UCSORTHOREF
350
26C2
  3
UCSORTHOVIEW
350
26C3
  3
VERSIONGUID
350
26B6
  0
XRECORD
  5
26CE
102
{ACAD_REACTORS
330
26CD
102
}
330
26CD
100
AcDbXrecord
340
1E
  0
XRECORD
  5
26CC
102
{ACAD_REACTORS
330
26CB
102
}
330
26CB
100
AcDbXrecord
340
1A
  0
MLINESTYLE
  5
17
102
{ACAD_REACTORS
330
16
102
}
330
16
100
AcDbMlineStyle
  2
STANDARD
 70
     0
  3

 62
   256
 51
90.0
 52
90.0
 71
     2
 49
0.5
 62
   256
  6
BYLAYER
 49
-0.5
 62
   256
  6
BYLAYER
  0
ACDBPLACEHOLDER
  5
F
102
{ACAD_REACTORS
330
E
102
}
330
E
100
AcDbPlaceHolder
280
     0
  0
XRECORD
  5
26B4
102
{ACAD_REACTORS
330
26AA
102
}
330
26AA
100
AcDbXrecord
 90
        0
  0
XRECORD
  5
26B8
102
{ACAD_REACTORS
330
26AA
102
}
330
26AA
100
AcDbXrecord
1000
DSTYLE
1002
{
1070
   279
 70
     2
1002
}
  0
XRECORD
  5
26B5
102
{ACAD_REACTORS
330
26AA
102
}
330
26AA
100
AcDbXrecord
  1
{F81529E0-AE9E-11D5-B722-00B0D0207C23}
  0
XRECORD
  5
26AD
102
{ACAD_REACTORS
330
26AA
102
}
330
26AA
100
AcDbXrecord
  1

  0
XRECORD
  5
26B3
102
{ACAD_REACTORS
330
26AA
102
}
330
26AA
100
AcDbXrecord
 90
        0
  0
XRECORD
  5
26AF
102
{ACAD_REACTORS
330
26AA
102
}
330
26AA
100
AcDbXrecord
340
19
  0
XRECORD
  5
26B2
102
{ACAD_REACTORS
330
26AA
102
}
330
26AA
100
AcDbXrecord
 90
    14877
  0
XRECORD
  5
26B0
102
{ACAD_REACTORS
330
26AA
102
}
330
26AA
100
AcDbXrecord
340
18
  0
XRECORD
  5
26B1
102
{ACAD_REACTORS
330
26AA
102
}
330
26AA
100
AcDbXrecord
340
E
  0
XRECORD
  5
26B7
102
{ACAD_REACTORS
330
26AA
102
}
330
26AA
100
AcDbXrecord
 40
0.0
  0
XRECORD
  5
26BB
102
{ACAD_REACTORS
330
26AA
102
}
330
26AA
100
AcDbXrecord
340
0
  0
XRECORD
  5
26C1
102
{ACAD_REACTORS
330
26AA
102
}
330
26AA
100
AcDbXrecord
 10
0.0
 20
0.0
 30
0.0
  0
XRECORD
  5
26BD
102
{ACAD_REACTORS
330
26AA
102
}
330
26AA
100
AcDbXrecord
 10
0.0
 20
0.0
 30
0.0
  0
XRECORD
  5
26C0
102
{ACAD_REACTORS
330
26AA
102
}
330
26AA
100
AcDbXrecord
 10
0.0
 20
0.0
 30
0.0
  0
XRECORD
  5
26BE
102
{ACAD_REACTORS
330
26AA
102
}
330
26AA
100
AcDbXrecord
 10
0.0
 20
0.0
 30
0.0
  0
XRECORD
  5
26BF
102
{ACAD_REACTORS
330
26AA
102
}
330
26AA
100
AcDbXrecord
 10
0.0
 20
0.0
 30
0.0
  0
XRECORD
  5
26BC
102
{ACAD_REACTORS
330
26AA
102
}
330
26AA
100
AcDbXrecord
 10
0.0
 20
0.0
 30
0.0
  0
XRECORD
  5
26B9
102
{ACAD_REACTORS
330
26AA
102
}
330
26AA
100
AcDbXrecord
340
0
  0
XRECORD
  5
26BA
102
{ACAD_REACTORS
330
26AA
102
}
330
26AA
100
AcDbXrecord
 70
     0
  0
XRECORD
  5
26AE
102
{ACAD_REACTORS
330
26AA
102
}
330
26AA
100
AcDbXrecord
  1

  0
XRECORD
  5
26AB
102
{ACAD_REACTORS
330
26AA
102
}
330
26AA
100
AcDbXrecord
 90
        1
  0
XRECORD
  5
26AC
102
{ACAD_REACTORS
330
26AA
102
}
330
26AA
100
AcDbXrecord
 90
       70
  0
XRECORD
  5
26C4
102
{ACAD_REACTORS
330
26AA
102
}
330
26AA
100
AcDbXrecord
340
0
  0
XRECORD
  5
26CA
102
{ACAD_REACTORS
330
26AA
102
}
330
26AA
100
AcDbXrecord
 10
0.0
 20
0.0
 30
0.0
  0
XRECORD
  5
26C6
102
{ACAD_REACTORS
330
26AA
102
}
330
26AA
100
AcDbXrecord
 10
0.0
 20
0.0
 30
0.0
  0
XRECORD
  5
26C9
102
{ACAD_REACTORS
330
26AA
102
}
330
26AA
100
AcDbXrecord
 10
0.0
 20
0.0
 30
0.0
  0
XRECORD
  5
26C7
102
{ACAD_REACTORS
330
26AA
102
}
330
26AA
100
AcDbXrecord
 10
0.0
 20
0.0
 30
0.0
  0
XRECORD
  5
26C8
102
{ACAD_REACTORS
330
26AA
102
}
330
26AA
100
AcDbXrecord
 10
0.0
 20
0.0
 30
0.0
  0
XRECORD
  5
26C5
102
{ACAD_REACTORS
330
26AA
102
}
330
26AA
100
AcDbXrecord
 10
0.0
 20
0.0
 30
0.0
  0
XRECORD
  5
26C2
102
{ACAD_REACTORS
330
26AA
102
}
330
26AA
100
AcDbXrecord
340
0
  0
XRECORD
  5
26C3
102
{ACAD_REACTORS
330
26AA
102
}
330
26AA
100
AcDbXrecord
 70
     0
  0
XRECORD
  5
26B6
102
{ACAD_REACTORS
330
26AA
102
}
330
26AA
100
AcDbXrecord
  1
{F81529E4-AE9E-11D5-B722-00B0D0207C23}
  0
ENDSEC
  0
EOF
