  0
SECTION
  2
HEADER
  9
$ACADVER
  1
AC1014
  9
$ACADMAINTVER
 70
     9
  9
$DWGCODEPAGE
  3
ANSI_1252
  9
$INSBASE
 10
0.0
 20
0.0
 30
0.0
  9
$EXTMIN
 10
47.64567307110859
 20
27.80610236220472
 30
0.0
  9
$EXTMAX
 10
59.57579651003534
 20
39.56791338582677
 30
0.0
  9
$LIMMIN
 10
0.0
 20
0.0
  9
$LIMMAX
 10
12.0
 20
9.0
  9
$ORTHOMODE
 70
     0
  9
$REGENMODE
 70
     1
  9
$FILLMODE
 70
     1
  9
$QTEXTMODE
 70
     0
  9
$MIRRTEXT
 70
     1
  9
$DRAGMODE
 70
     2
  9
$LTSCALE
 40
1.0
  9
$OSMODE
 70
    37
  9
$ATTMODE
 70
     1
  9
$TEXTSIZE
 40
0.2
  9
$TRACEWID
 40
0.05
  9
$TEXTSTYLE
  7
STANDARD
  9
$CLAYER
  8
0
  9
$CELTYPE
  6
BYLAYER
  9
$CECOLOR
 62
   256
  9
$CELTSCALE
 40
1.0
  9
$DELOBJ
 70
     1
  9
$DISPSILH
 70
     0
  9
$DIMSCALE
 40
1.0
  9
$DIMASZ
 40
0.18
  9
$DIMEXO
 40
0.0625
  9
$DIMDLI
 40
0.38
  9
$DIMRND
 40
0.0
  9
$DIMDLE
 40
0.0
  9
$DIMEXE
 40
0.18
  9
$DIMTP
 40
0.0
  9
$DIMTM
 40
0.0
  9
$DIMTXT
 40
0.18
  9
$DIMCEN
 40
0.09
  9
$DIMTSZ
 40
0.0
  9
$DIMTOL
 70
     0
  9
$DIMLIM
 70
     0
  9
$DIMTIH
 70
     1
  9
$DIMTOH
 70
     1
  9
$DIMSE1
 70
     0
  9
$DIMSE2
 70
     0
  9
$DIMTAD
 70
     0
  9
$DIMZIN
 70
     0
  9
$DIMBLK
  1

  9
$DIMASO
 70
     1
  9
$DIMSHO
 70
     1
  9
$DIMPOST
  1

  9
$DIMAPOST
  1

  9
$DIMALT
 70
     0
  9
$DIMALTD
 70
     2
  9
$DIMALTF
 40
25.4
  9
$DIMLFAC
 40
1.0
  9
$DIMTOFL
 70
     0
  9
$DIMTVP
 40
0.0
  9
$DIMTIX
 70
     0
  9
$DIMSOXD
 70
     0
  9
$DIMSAH
 70
     0
  9
$DIMBLK1
  1

  9
$DIMBLK2
  1

  9
$DIMSTYLE
  2
STANDARD
  9
$DIMCLRD
 70
     0
  9
$DIMCLRE
 70
     0
  9
$DIMCLRT
 70
     0
  9
$DIMTFAC
 40
1.0
  9
$DIMGAP
 40
0.09
  9
$DIMJUST
 70
     0
  9
$DIMSD1
 70
     0
  9
$DIMSD2
 70
     0
  9
$DIMTOLJ
 70
     1
  9
$DIMTZIN
 70
     0
  9
$DIMALTZ
 70
     0
  9
$DIMALTTZ
 70
     0
  9
$DIMFIT
 70
     5
  9
$DIMUPT
 70
     0
  9
$DIMUNIT
 70
     2
  9
$DIMDEC
 70
     4
  9
$DIMTDEC
 70
     4
  9
$DIMALTU
 70
     2
  9
$DIMALTTD
 70
     2
  9
$DIMTXSTY
  7
STANDARD
  9
$DIMAUNIT
 70
     0
  9
$LUNITS
 70
     2
  9
$LUPREC
 70
     4
  9
$SKETCHINC
 40
0.1
  9
$FILLETRAD
 40
0.0
  9
$AUNITS
 70
     0
  9
$AUPREC
 70
     0
  9
$MENU
  1
acad
  9
$ELEVATION
 40
0.0
  9
$PELEVATION
 40
0.0
  9
$THICKNESS
 40
0.0
  9
$LIMCHECK
 70
     0
  9
$BLIPMODE
 70
     0
  9
$CHAMFERA
 40
0.0
  9
$CHAMFERB
 40
0.0
  9
$CHAMFERC
 40
0.0
  9
$CHAMFERD
 40
0.0
  9
$SKPOLY
 70
     0
  9
$TDCREATE
 40
2453146.594652777
  9
$TDUPDATE
 40
2453146.601449907
  9
$TDINDWG
 40
0.0035168519
  9
$TDUSRTIMER
 40
0.0035168519
  9
$USRTIMER
 70
     1
  9
$ANGBASE
 50
0.0
  9
$ANGDIR
 70
     0
  9
$PDMODE
 70
     0
  9
$PDSIZE
 40
0.0
  9
$PLINEWID
 40
0.0
  9
$COORDS
 70
     1
  9
$SPLFRAME
 70
     0
  9
$SPLINETYPE
 70
     6
  9
$SPLINESEGS
 70
     8
  9
$ATTDIA
 70
     0
  9
$ATTREQ
 70
     1
  9
$HANDLING
 70
-16383
  9
$HANDSEED
  5
D0C
  9
$SURFTAB1
 70
     6
  9
$SURFTAB2
 70
     6
  9
$SURFTYPE
 70
     6
  9
$SURFU
 70
     6
  9
$SURFV
 70
     6
  9
$UCSNAME
  2

  9
$UCSORG
 10
0.0
 20
0.0
 30
0.0
  9
$UCSXDIR
 10
1.0
 20
0.0
 30
0.0
  9
$UCSYDIR
 10
0.0
 20
1.0
 30
0.0
  9
$PUCSNAME
  2

  9
$PUCSORG
 10
0.0
 20
0.0
 30
0.0
  9
$PUCSXDIR
 10
1.0
 20
0.0
 30
0.0
  9
$PUCSYDIR
 10
0.0
 20
1.0
 30
0.0
  9
$USERI1
 70
     0
  9
$USERI2
 70
     0
  9
$USERI3
 70
     0
  9
$USERI4
 70
     0
  9
$USERI5
 70
     0
  9
$USERR1
 40
0.0
  9
$USERR2
 40
0.0
  9
$USERR3
 40
0.0
  9
$USERR4
 40
0.0
  9
$USERR5
 40
0.0
  9
$WORLDVIEW
 70
     1
  9
$SHADEDGE
 70
     3
  9
$SHADEDIF
 70
    70
  9
$TILEMODE
 70
     1
  9
$MAXACTVP
 70
    16
  9
$PINSBASE
 10
0.0
 20
0.0
 30
0.0
  9
$PLIMCHECK
 70
     0
  9
$PEXTMIN
 10
1.000000000000000E+20
 20
1.000000000000000E+20
 30
1.000000000000000E+20
  9
$PEXTMAX
 10
-1.000000000000000E+20
 20
-1.000000000000000E+20
 30
-1.000000000000000E+20
  9
$PLIMMIN
 10
0.0
 20
0.0
  9
$PLIMMAX
 10
12.0
 20
9.0
  9
$UNITMODE
 70
     0
  9
$VISRETAIN
 70
     0
  9
$PLINEGEN
 70
     0
  9
$PSLTSCALE
 70
     1
  9
$TREEDEPTH
 70
  3020
  9
$PICKSTYLE
 70
     1
  9
$CMLSTYLE
  2
STANDARD
  9
$CMLJUST
 70
     0
  9
$CMLSCALE
 40
1.0
  9
$PROXYGRAPHICS
 70
     1
  9
$MEASUREMENT
 70
     0
  0
ENDSEC
  0
SECTION
  2
CLASSES
  0
CLASS
  1
ACDBDICTIONARYWDFLT
  2
AcDbDictionaryWithDefault
  3
AutoCAD 2000
 90
        0
280
     0
281
     0
  0
CLASS
  1
ACDBPLACEHOLDER
  2
AcDbPlaceHolder
  3
AutoCAD 2000
 90
        0
280
     0
281
     0
  0
CLASS
  1
LAYOUT
  2
AcDbLayout
  3
AutoCAD 2000
 90
        0
280
     0
281
     0
  0
CLASS
  1
LONG_TRANSACTION
  2
AcDbLongTransaction
  3
AutoCAD 2000
 90
        0
280
     0
281
     0
  0
CLASS
  1
LWPOLYLINE
  2
AcDbPolyline
  3
AutoCAD 2000
 90
        0
280
     0
281
     1
  0
CLASS
  1
HATCH
  2
AcDbHatch
  3
AutoCAD 2000
 90
        0
280
     0
281
     1
  0
CLASS
  1
XRECORD
  2
AcDbXrecord
  3
AutoCAD 2000
 90
        0
280
     0
281
     0
  0
ENDSEC
  0
SECTION
  2
TABLES
  0
TABLE
  2
VPORT
  5
8
330
0
100
AcDbSymbolTable
 70
     3
  0
VPORT
  5
CE6
330
8
100
AcDbSymbolTableRecord
100
AcDbViewportTableRecord
  2
*ACTIVE
 70
     0
 10
0.0
 20
0.0
 11
1.0
 21
1.0
 12
53.61073479057196
 22
33.68700787401575
 13
0.0
 23
0.0
 14
1.0
 24
1.0
 15
0.0
 25
0.0
 16
0.0
 26
0.0
 36
1.0
 17
0.0
 27
0.0
 37
0.0
 40
11.85590551181102
 41
1.56475300400534
 42
50.0
 43
0.0
 44
0.0
 50
0.0
 51
0.0
 71
     0
 72
   100
 73
     1
 74
     1
 75
     0
 76
     0
 77
     0
 78
     0
  0
ENDTAB
  0
TABLE
  2
LTYPE
  5
5
330
0
100
AcDbSymbolTable
 70
    25
  0
LTYPE
  5
13
330
5
100
AcDbSymbolTableRecord
100
AcDbLinetypeTableRecord
  2
BYBLOCK
 70
     0
  3

 72
    65
 73
     0
 40
0.0
  0
LTYPE
  5
14
330
5
100
AcDbSymbolTableRecord
100
AcDbLinetypeTableRecord
  2
BYLAYER
 70
     0
  3

 72
    65
 73
     0
 40
0.0
  0
LTYPE
  5
15
330
5
100
AcDbSymbolTableRecord
100
AcDbLinetypeTableRecord
  2
CONTINUOUS
 70
     0
  3
Solid line
 72
    65
 73
     0
 40
0.0
  0
LTYPE
  5
22
330
5
100
AcDbSymbolTableRecord
100
AcDbLinetypeTableRecord
  2
BORDER
 70
     0
  3
__ __ . __ __ . __ __ . __ __ . __ __ . __ __ .
 72
    65
 73
     6
 40
1.75
 49
0.5
 74
     0
 49
-0.25
 74
     0
 49
0.5
 74
     0
 49
-0.25
 74
     0
 49
0.5
 74
     0
 49
-0.25
 74
     0
  0
LTYPE
  5
23
330
5
100
AcDbSymbolTableRecord
100
AcDbLinetypeTableRecord
  2
BORDER2
 70
     0
  3
__.__.__.__.__.__.__.__.__.__.__.__.__.__.__.__
 72
    65
 73
     6
 40
0.875
 49
0.25
 74
     0
 49
-0.125
 74
     0
 49
0.25
 74
     0
 49
-0.125
 74
     0
 49
0.25
 74
     0
 49
-0.125
 74
     0
  0
LTYPE
  5
24
330
5
100
AcDbSymbolTableRecord
100
AcDbLinetypeTableRecord
  2
BORDERX2
 70
     0
  3
____  ____  .  ____  ____  .  
 72
    65
 73
     6
 40
3.5
 49
1.0
 74
     0
 49
-0.5
 74
     0
 49
1.0
 74
     0
 49
-0.5
 74
     0
 49
1.0
 74
     0
 49
-0.5
 74
     0
  0
LTYPE
  5
25
330
5
100
AcDbSymbolTableRecord
100
AcDbLinetypeTableRecord
  2
CENTER
 70
     0
  3
____ _ ____ _ ____ _ ____ _ ____ _ ____ _ ____
 72
    65
 73
     4
 40
2.0
 49
1.25
 74
     0
 49
-0.25
 74
     0
 49
0.25
 74
     0
 49
-0.25
 74
     0
  0
LTYPE
  5
26
330
5
100
AcDbSymbolTableRecord
100
AcDbLinetypeTableRecord
  2
CENTER2
 70
     0
  3
____ _ ____ _ ____ _ ____ _ ____ _ ____ _ ____
 72
    65
 73
     4
 40
1.125
 49
0.75
 74
     0
 49
-0.125
 74
     0
 49
0.125
 74
     0
 49
-0.125
 74
     0
  0
LTYPE
  5
27
330
5
100
AcDbSymbolTableRecord
100
AcDbLinetypeTableRecord
  2
CENTERX2
 70
     0
  3
________  __  ________  __  ________  __  
 72
    65
 73
     4
 40
4.0
 49
2.5
 74
     0
 49
-0.5
 74
     0
 49
0.5
 74
     0
 49
-0.5
 74
     0
  0
LTYPE
  5
28
330
5
100
AcDbSymbolTableRecord
100
AcDbLinetypeTableRecord
  2
DASHDOT
 70
     0
  3
__ . __ . __ . __ . __ . __ . __ . 
 72
    65
 73
     4
 40
1.0
 49
0.5
 74
     0
 49
-0.25
 74
     0
 49
0.0
 74
     0
 49
-0.25
 74
     0
  0
LTYPE
  5
29
330
5
100
AcDbSymbolTableRecord
100
AcDbLinetypeTableRecord
  2
DASHDOT2
 70
     0
  3
_._._._._._._._._._._._._._._._.
 72
    65
 73
     4
 40
0.5
 49
0.25
 74
     0
 49
-0.125
 74
     0
 49
0.0
 74
     0
 49
-0.125
 74
     0
  0
LTYPE
  5
2A
330
5
100
AcDbSymbolTableRecord
100
AcDbLinetypeTableRecord
  2
DASHDOTX2
 70
     0
  3
____  .  ____  .  ____  .  ____  .  
 72
    65
 73
     4
 40
2.0
 49
1.0
 74
     0
 49
-0.5
 74
     0
 49
0.0
 74
     0
 49
-0.5
 74
     0
  0
LTYPE
  5
2B
330
5
100
AcDbSymbolTableRecord
100
AcDbLinetypeTableRecord
  2
DASHED
 70
     0
  3
__ __ __ __ __ __ __ __ __ __ __ __ 
 72
    65
 73
     2
 40
0.75
 49
0.5
 74
     0
 49
-0.25
 74
     0
  0
LTYPE
  5
2C
330
5
100
AcDbSymbolTableRecord
100
AcDbLinetypeTableRecord
  2
DASHED2
 70
     0
  3
_ _ _ _ _ _ _ _ _ _ _ _ _ _ _ _ _ _ 
 72
    65
 73
     2
 40
0.375
 49
0.25
 74
     0
 49
-0.125
 74
     0
  0
LTYPE
  5
2D
330
5
100
AcDbSymbolTableRecord
100
AcDbLinetypeTableRecord
  2
DASHEDX2
 70
     0
  3
____  ____  ____  ____  ____  ____  
 72
    65
 73
     2
 40
1.5
 49
1.0
 74
     0
 49
-0.5
 74
     0
  0
LTYPE
  5
2E
330
5
100
AcDbSymbolTableRecord
100
AcDbLinetypeTableRecord
  2
DIVIDE
 70
     0
  3
____ . . ____ . . ____ . . ____ . . 
 72
    65
 73
     6
 40
1.25
 49
0.5
 74
     0
 49
-0.25
 74
     0
 49
0.0
 74
     0
 49
-0.25
 74
     0
 49
0.0
 74
     0
 49
-0.25
 74
     0
  0
LTYPE
  5
2F
330
5
100
AcDbSymbolTableRecord
100
AcDbLinetypeTableRecord
  2
DIVIDE2
 70
     0
  3
__..__..__..__..__..__..__..__..__..
 72
    65
 73
     6
 40
0.625
 49
0.25
 74
     0
 49
-0.125
 74
     0
 49
0.0
 74
     0
 49
-0.125
 74
     0
 49
0.0
 74
     0
 49
-0.125
 74
     0
  0
LTYPE
  5
30
330
5
100
AcDbSymbolTableRecord
100
AcDbLinetypeTableRecord
  2
DIVIDEX2
 70
     0
  3
________  .  .  ________  .  .  ________  .  . 
 72
    65
 73
     6
 40
2.5
 49
1.0
 74
     0
 49
-0.5
 74
     0
 49
0.0
 74
     0
 49
-0.5
 74
     0
 49
0.0
 74
     0
 49
-0.5
 74
     0
  0
LTYPE
  5
31
330
5
100
AcDbSymbolTableRecord
100
AcDbLinetypeTableRecord
  2
DOT
 70
     0
  3
. . . . . . . . . . . . . . . . . . 
 72
    65
 73
     2
 40
0.25
 49
0.0
 74
     0
 49
-0.25
 74
     0
  0
LTYPE
  5
32
330
5
100
AcDbSymbolTableRecord
100
AcDbLinetypeTableRecord
  2
DOT2
 70
     0
  3
....................................
 72
    65
 73
     2
 40
0.125
 49
0.0
 74
     0
 49
-0.125
 74
     0
  0
LTYPE
  5
33
330
5
100
AcDbSymbolTableRecord
100
AcDbLinetypeTableRecord
  2
DOTX2
 70
     0
  3
.  .  .  .  .  .  .  .  .  .  .  .  .  
 72
    65
 73
     2
 40
0.5
 49
0.0
 74
     0
 49
-0.5
 74
     0
  0
LTYPE
  5
34
330
5
100
AcDbSymbolTableRecord
100
AcDbLinetypeTableRecord
  2
HIDDEN
 70
     0
  3
__ __ __ __ __ __ __ __ __ __ __ __ 
 72
    65
 73
     2
 40
0.375
 49
0.25
 74
     0
 49
-0.125
 74
     0
  0
LTYPE
  5
35
330
5
100
AcDbSymbolTableRecord
100
AcDbLinetypeTableRecord
  2
HIDDEN2
 70
     0
  3
_ _ _ _ _ _ _ _ _ _ _ _ _ _ _ _ _ _ 
 72
    65
 73
     2
 40
0.1875
 49
0.125
 74
     0
 49
-0.0625
 74
     0
  0
LTYPE
  5
36
330
5
100
AcDbSymbolTableRecord
100
AcDbLinetypeTableRecord
  2
HIDDENX2
 70
     0
  3
____ ____ ____ ____ ____ ____ ____ 
 72
    65
 73
     2
 40
0.75
 49
0.5
 74
     0
 49
-0.25
 74
     0
  0
LTYPE
  5
37
330
5
100
AcDbSymbolTableRecord
100
AcDbLinetypeTableRecord
  2
PHANTOM
 70
     0
  3
______  __  __  ______  __  __  
 72
    65
 73
     6
 40
2.5
 49
1.25
 74
     0
 49
-0.25
 74
     0
 49
0.25
 74
     0
 49
-0.25
 74
     0
 49
0.25
 74
     0
 49
-0.25
 74
     0
  0
LTYPE
  5
38
330
5
100
AcDbSymbolTableRecord
100
AcDbLinetypeTableRecord
  2
PHANTOM2
 70
     0
  3
___ _ _ ___ _ _ ___ _ _ ___ _ _ 
 72
    65
 73
     6
 40
1.25
 49
0.625
 74
     0
 49
-0.125
 74
     0
 49
0.125
 74
     0
 49
-0.125
 74
     0
 49
0.125
 74
     0
 49
-0.125
 74
     0
  0
LTYPE
  5
39
330
5
100
AcDbSymbolTableRecord
100
AcDbLinetypeTableRecord
  2
PHANTOMX2
 70
     0
  3
___ _ _ ___ _ _ ___ _ _ ___ _ _ 
 72
    65
 73
     6
 40
5.0
 49
2.5
 74
     0
 49
-0.5
 74
     0
 49
0.5
 74
     0
 49
-0.5
 74
     0
 49
0.5
 74
     0
 49
-0.5
 74
     0
  0
ENDTAB
  0
TABLE
  2
LAYER
  5
2
330
0
100
AcDbSymbolTable
 70
   256
  0
LAYER
  5
10
330
2
100
AcDbSymbolTableRecord
100
AcDbLayerTableRecord
  2
0
 70
     0
 62
     7
  6
CONTINUOUS
  0
LAYER
  5
3A
330
2
100
AcDbSymbolTableRecord
100
AcDbLayerTableRecord
  2
1
 70
     0
 62
     1
  6
CONTINUOUS
  0
LAYER
  5
3B
330
2
100
AcDbSymbolTableRecord
100
AcDbLayerTableRecord
  2
2
 70
     0
 62
     2
  6
CONTINUOUS
  0
LAYER
  5
3C
330
2
100
AcDbSymbolTableRecord
100
AcDbLayerTableRecord
  2
3
 70
     0
 62
     3
  6
CONTINUOUS
  0
LAYER
  5
3D
330
2
100
AcDbSymbolTableRecord
100
AcDbLayerTableRecord
  2
4
 70
     0
 62
     4
  6
CONTINUOUS
  0
LAYER
  5
3E
330
2
100
AcDbSymbolTableRecord
100
AcDbLayerTableRecord
  2
5
 70
     0
 62
     5
  6
CONTINUOUS
  0
LAYER
  5
3F
330
2
100
AcDbSymbolTableRecord
100
AcDbLayerTableRecord
  2
6
 70
     0
 62
     6
  6
CONTINUOUS
  0
LAYER
  5
40
330
2
100
AcDbSymbolTableRecord
100
AcDbLayerTableRecord
  2
7
 70
     0
 62
     7
  6
CONTINUOUS
  0
LAYER
  5
41
330
2
100
AcDbSymbolTableRecord
100
AcDbLayerTableRecord
  2
8
 70
     0
 62
     8
  6
CONTINUOUS
  0
LAYER
  5
42
330
2
100
AcDbSymbolTableRecord
100
AcDbLayerTableRecord
  2
9
 70
     0
 62
     9
  6
CONTINUOUS
  0
LAYER
  5
43
330
2
100
AcDbSymbolTableRecord
100
AcDbLayerTableRecord
  2
10
 70
     0
 62
    10
  6
CONTINUOUS
  0
LAYER
  5
44
330
2
100
AcDbSymbolTableRecord
100
AcDbLayerTableRecord
  2
11
 70
     0
 62
    11
  6
CONTINUOUS
  0
LAYER
  5
45
330
2
100
AcDbSymbolTableRecord
100
AcDbLayerTableRecord
  2
12
 70
     0
 62
    12
  6
CONTINUOUS
  0
LAYER
  5
46
330
2
100
AcDbSymbolTableRecord
100
AcDbLayerTableRecord
  2
13
 70
     0
 62
    13
  6
CONTINUOUS
  0
LAYER
  5
47
330
2
100
AcDbSymbolTableRecord
100
AcDbLayerTableRecord
  2
14
 70
     0
 62
    14
  6
CONTINUOUS
  0
LAYER
  5
48
330
2
100
AcDbSymbolTableRecord
100
AcDbLayerTableRecord
  2
15
 70
     0
 62
    15
  6
CONTINUOUS
  0
LAYER
  5
49
330
2
100
AcDbSymbolTableRecord
100
AcDbLayerTableRecord
  2
16
 70
     0
 62
    16
  6
CONTINUOUS
  0
LAYER
  5
4A
330
2
100
AcDbSymbolTableRecord
100
AcDbLayerTableRecord
  2
17
 70
     0
 62
    17
  6
CONTINUOUS
  0
LAYER
  5
4B
330
2
100
AcDbSymbolTableRecord
100
AcDbLayerTableRecord
  2
18
 70
     0
 62
    18
  6
CONTINUOUS
  0
LAYER
  5
4C
330
2
100
AcDbSymbolTableRecord
100
AcDbLayerTableRecord
  2
19
 70
     0
 62
    19
  6
CONTINUOUS
  0
LAYER
  5
4D
330
2
100
AcDbSymbolTableRecord
100
AcDbLayerTableRecord
  2
20
 70
     0
 62
    20
  6
CONTINUOUS
  0
LAYER
  5
4E
330
2
100
AcDbSymbolTableRecord
100
AcDbLayerTableRecord
  2
21
 70
     0
 62
    21
  6
CONTINUOUS
  0
LAYER
  5
4F
330
2
100
AcDbSymbolTableRecord
100
AcDbLayerTableRecord
  2
22
 70
     0
 62
    22
  6
CONTINUOUS
  0
LAYER
  5
50
330
2
100
AcDbSymbolTableRecord
100
AcDbLayerTableRecord
  2
23
 70
     0
 62
    23
  6
CONTINUOUS
  0
LAYER
  5
51
330
2
100
AcDbSymbolTableRecord
100
AcDbLayerTableRecord
  2
24
 70
     0
 62
    24
  6
CONTINUOUS
  0
LAYER
  5
52
330
2
100
AcDbSymbolTableRecord
100
AcDbLayerTableRecord
  2
25
 70
     0
 62
    25
  6
CONTINUOUS
  0
LAYER
  5
53
330
2
100
AcDbSymbolTableRecord
100
AcDbLayerTableRecord
  2
26
 70
     0
 62
    26
  6
CONTINUOUS
  0
LAYER
  5
54
330
2
100
AcDbSymbolTableRecord
100
AcDbLayerTableRecord
  2
27
 70
     0
 62
    27
  6
CONTINUOUS
  0
LAYER
  5
55
330
2
100
AcDbSymbolTableRecord
100
AcDbLayerTableRecord
  2
28
 70
     0
 62
    28
  6
CONTINUOUS
  0
LAYER
  5
56
330
2
100
AcDbSymbolTableRecord
100
AcDbLayerTableRecord
  2
29
 70
     0
 62
    29
  6
CONTINUOUS
  0
LAYER
  5
57
330
2
100
AcDbSymbolTableRecord
100
AcDbLayerTableRecord
  2
30
 70
     0
 62
    30
  6
CONTINUOUS
  0
LAYER
  5
58
330
2
100
AcDbSymbolTableRecord
100
AcDbLayerTableRecord
  2
31
 70
     0
 62
    31
  6
CONTINUOUS
  0
LAYER
  5
59
330
2
100
AcDbSymbolTableRecord
100
AcDbLayerTableRecord
  2
32
 70
     0
 62
    32
  6
CONTINUOUS
  0
LAYER
  5
5A
330
2
100
AcDbSymbolTableRecord
100
AcDbLayerTableRecord
  2
33
 70
     0
 62
    33
  6
CONTINUOUS
  0
LAYER
  5
5B
330
2
100
AcDbSymbolTableRecord
100
AcDbLayerTableRecord
  2
34
 70
     0
 62
    34
  6
CONTINUOUS
  0
LAYER
  5
5C
330
2
100
AcDbSymbolTableRecord
100
AcDbLayerTableRecord
  2
35
 70
     0
 62
    35
  6
CONTINUOUS
  0
LAYER
  5
5D
330
2
100
AcDbSymbolTableRecord
100
AcDbLayerTableRecord
  2
36
 70
     0
 62
    36
  6
CONTINUOUS
  0
LAYER
  5
5E
330
2
100
AcDbSymbolTableRecord
100
AcDbLayerTableRecord
  2
37
 70
     0
 62
    37
  6
CONTINUOUS
  0
LAYER
  5
5F
330
2
100
AcDbSymbolTableRecord
100
AcDbLayerTableRecord
  2
38
 70
     0
 62
    38
  6
CONTINUOUS
  0
LAYER
  5
60
330
2
100
AcDbSymbolTableRecord
100
AcDbLayerTableRecord
  2
39
 70
     0
 62
    39
  6
CONTINUOUS
  0
LAYER
  5
61
330
2
100
AcDbSymbolTableRecord
100
AcDbLayerTableRecord
  2
40
 70
     0
 62
    40
  6
CONTINUOUS
  0
LAYER
  5
62
330
2
100
AcDbSymbolTableRecord
100
AcDbLayerTableRecord
  2
41
 70
     0
 62
    41
  6
CONTINUOUS
  0
LAYER
  5
63
330
2
100
AcDbSymbolTableRecord
100
AcDbLayerTableRecord
  2
42
 70
     0
 62
    42
  6
CONTINUOUS
  0
LAYER
  5
64
330
2
100
AcDbSymbolTableRecord
100
AcDbLayerTableRecord
  2
43
 70
     0
 62
    43
  6
CONTINUOUS
  0
LAYER
  5
65
330
2
100
AcDbSymbolTableRecord
100
AcDbLayerTableRecord
  2
44
 70
     0
 62
    44
  6
CONTINUOUS
  0
LAYER
  5
66
330
2
100
AcDbSymbolTableRecord
100
AcDbLayerTableRecord
  2
45
 70
     0
 62
    45
  6
CONTINUOUS
  0
LAYER
  5
67
330
2
100
AcDbSymbolTableRecord
100
AcDbLayerTableRecord
  2
46
 70
     0
 62
    46
  6
CONTINUOUS
  0
LAYER
  5
68
330
2
100
AcDbSymbolTableRecord
100
AcDbLayerTableRecord
  2
47
 70
     0
 62
    47
  6
CONTINUOUS
  0
LAYER
  5
69
330
2
100
AcDbSymbolTableRecord
100
AcDbLayerTableRecord
  2
48
 70
     0
 62
    48
  6
CONTINUOUS
  0
LAYER
  5
6A
330
2
100
AcDbSymbolTableRecord
100
AcDbLayerTableRecord
  2
49
 70
     0
 62
    49
  6
CONTINUOUS
  0
LAYER
  5
6B
330
2
100
AcDbSymbolTableRecord
100
AcDbLayerTableRecord
  2
50
 70
     0
 62
    50
  6
CONTINUOUS
  0
LAYER
  5
6C
330
2
100
AcDbSymbolTableRecord
100
AcDbLayerTableRecord
  2
51
 70
     0
 62
    51
  6
CONTINUOUS
  0
LAYER
  5
6D
330
2
100
AcDbSymbolTableRecord
100
AcDbLayerTableRecord
  2
52
 70
     0
 62
    52
  6
CONTINUOUS
  0
LAYER
  5
6E
330
2
100
AcDbSymbolTableRecord
100
AcDbLayerTableRecord
  2
53
 70
     0
 62
    53
  6
CONTINUOUS
  0
LAYER
  5
6F
330
2
100
AcDbSymbolTableRecord
100
AcDbLayerTableRecord
  2
54
 70
     0
 62
    54
  6
CONTINUOUS
  0
LAYER
  5
70
330
2
100
AcDbSymbolTableRecord
100
AcDbLayerTableRecord
  2
55
 70
     0
 62
    55
  6
CONTINUOUS
  0
LAYER
  5
71
330
2
100
AcDbSymbolTableRecord
100
AcDbLayerTableRecord
  2
56
 70
     0
 62
    56
  6
CONTINUOUS
  0
LAYER
  5
72
330
2
100
AcDbSymbolTableRecord
100
AcDbLayerTableRecord
  2
57
 70
     0
 62
    57
  6
CONTINUOUS
  0
LAYER
  5
73
330
2
100
AcDbSymbolTableRecord
100
AcDbLayerTableRecord
  2
58
 70
     0
 62
    58
  6
CONTINUOUS
  0
LAYER
  5
74
330
2
100
AcDbSymbolTableRecord
100
AcDbLayerTableRecord
  2
59
 70
     0
 62
    59
  6
CONTINUOUS
  0
LAYER
  5
75
330
2
100
AcDbSymbolTableRecord
100
AcDbLayerTableRecord
  2
60
 70
     0
 62
    60
  6
CONTINUOUS
  0
LAYER
  5
76
330
2
100
AcDbSymbolTableRecord
100
AcDbLayerTableRecord
  2
61
 70
     0
 62
    61
  6
CONTINUOUS
  0
LAYER
  5
77
330
2
100
AcDbSymbolTableRecord
100
AcDbLayerTableRecord
  2
62
 70
     0
 62
    62
  6
CONTINUOUS
  0
LAYER
  5
78
330
2
100
AcDbSymbolTableRecord
100
AcDbLayerTableRecord
  2
63
 70
     0
 62
    63
  6
CONTINUOUS
  0
LAYER
  5
79
330
2
100
AcDbSymbolTableRecord
100
AcDbLayerTableRecord
  2
64
 70
     0
 62
    64
  6
CONTINUOUS
  0
LAYER
  5
7A
330
2
100
AcDbSymbolTableRecord
100
AcDbLayerTableRecord
  2
65
 70
     0
 62
    65
  6
CONTINUOUS
  0
LAYER
  5
7B
330
2
100
AcDbSymbolTableRecord
100
AcDbLayerTableRecord
  2
66
 70
     0
 62
    66
  6
CONTINUOUS
  0
LAYER
  5
7C
330
2
100
AcDbSymbolTableRecord
100
AcDbLayerTableRecord
  2
67
 70
     0
 62
    67
  6
CONTINUOUS
  0
LAYER
  5
7D
330
2
100
AcDbSymbolTableRecord
100
AcDbLayerTableRecord
  2
68
 70
     0
 62
    68
  6
CONTINUOUS
  0
LAYER
  5
7E
330
2
100
AcDbSymbolTableRecord
100
AcDbLayerTableRecord
  2
69
 70
     0
 62
    69
  6
CONTINUOUS
  0
LAYER
  5
7F
330
2
100
AcDbSymbolTableRecord
100
AcDbLayerTableRecord
  2
70
 70
     0
 62
    70
  6
CONTINUOUS
  0
LAYER
  5
80
330
2
100
AcDbSymbolTableRecord
100
AcDbLayerTableRecord
  2
71
 70
     0
 62
    71
  6
CONTINUOUS
  0
LAYER
  5
81
330
2
100
AcDbSymbolTableRecord
100
AcDbLayerTableRecord
  2
72
 70
     0
 62
    72
  6
CONTINUOUS
  0
LAYER
  5
82
330
2
100
AcDbSymbolTableRecord
100
AcDbLayerTableRecord
  2
73
 70
     0
 62
    73
  6
CONTINUOUS
  0
LAYER
  5
83
330
2
100
AcDbSymbolTableRecord
100
AcDbLayerTableRecord
  2
74
 70
     0
 62
    74
  6
CONTINUOUS
  0
LAYER
  5
84
330
2
100
AcDbSymbolTableRecord
100
AcDbLayerTableRecord
  2
75
 70
     0
 62
    75
  6
CONTINUOUS
  0
LAYER
  5
85
330
2
100
AcDbSymbolTableRecord
100
AcDbLayerTableRecord
  2
76
 70
     0
 62
    76
  6
CONTINUOUS
  0
LAYER
  5
86
330
2
100
AcDbSymbolTableRecord
100
AcDbLayerTableRecord
  2
77
 70
     0
 62
    77
  6
CONTINUOUS
  0
LAYER
  5
87
330
2
100
AcDbSymbolTableRecord
100
AcDbLayerTableRecord
  2
78
 70
     0
 62
    78
  6
CONTINUOUS
  0
LAYER
  5
88
330
2
100
AcDbSymbolTableRecord
100
AcDbLayerTableRecord
  2
79
 70
     0
 62
    79
  6
CONTINUOUS
  0
LAYER
  5
89
330
2
100
AcDbSymbolTableRecord
100
AcDbLayerTableRecord
  2
80
 70
     0
 62
    80
  6
CONTINUOUS
  0
LAYER
  5
8A
330
2
100
AcDbSymbolTableRecord
100
AcDbLayerTableRecord
  2
81
 70
     0
 62
    81
  6
CONTINUOUS
  0
LAYER
  5
8B
330
2
100
AcDbSymbolTableRecord
100
AcDbLayerTableRecord
  2
82
 70
     0
 62
    82
  6
CONTINUOUS
  0
LAYER
  5
8C
330
2
100
AcDbSymbolTableRecord
100
AcDbLayerTableRecord
  2
83
 70
     0
 62
    83
  6
CONTINUOUS
  0
LAYER
  5
8D
330
2
100
AcDbSymbolTableRecord
100
AcDbLayerTableRecord
  2
84
 70
     0
 62
    84
  6
CONTINUOUS
  0
LAYER
  5
8E
330
2
100
AcDbSymbolTableRecord
100
AcDbLayerTableRecord
  2
85
 70
     0
 62
    85
  6
CONTINUOUS
  0
LAYER
  5
8F
330
2
100
AcDbSymbolTableRecord
100
AcDbLayerTableRecord
  2
86
 70
     0
 62
    86
  6
CONTINUOUS
  0
LAYER
  5
90
330
2
100
AcDbSymbolTableRecord
100
AcDbLayerTableRecord
  2
87
 70
     0
 62
    87
  6
CONTINUOUS
  0
LAYER
  5
91
330
2
100
AcDbSymbolTableRecord
100
AcDbLayerTableRecord
  2
88
 70
     0
 62
    88
  6
CONTINUOUS
  0
LAYER
  5
92
330
2
100
AcDbSymbolTableRecord
100
AcDbLayerTableRecord
  2
89
 70
     0
 62
    89
  6
CONTINUOUS
  0
LAYER
  5
93
330
2
100
AcDbSymbolTableRecord
100
AcDbLayerTableRecord
  2
90
 70
     0
 62
    90
  6
CONTINUOUS
  0
LAYER
  5
94
330
2
100
AcDbSymbolTableRecord
100
AcDbLayerTableRecord
  2
91
 70
     0
 62
    91
  6
CONTINUOUS
  0
LAYER
  5
95
330
2
100
AcDbSymbolTableRecord
100
AcDbLayerTableRecord
  2
92
 70
     0
 62
    92
  6
CONTINUOUS
  0
LAYER
  5
96
330
2
100
AcDbSymbolTableRecord
100
AcDbLayerTableRecord
  2
93
 70
     0
 62
    93
  6
CONTINUOUS
  0
LAYER
  5
97
330
2
100
AcDbSymbolTableRecord
100
AcDbLayerTableRecord
  2
94
 70
     0
 62
    94
  6
CONTINUOUS
  0
LAYER
  5
98
330
2
100
AcDbSymbolTableRecord
100
AcDbLayerTableRecord
  2
95
 70
     0
 62
    95
  6
CONTINUOUS
  0
LAYER
  5
99
330
2
100
AcDbSymbolTableRecord
100
AcDbLayerTableRecord
  2
96
 70
     0
 62
    96
  6
CONTINUOUS
  0
LAYER
  5
9A
330
2
100
AcDbSymbolTableRecord
100
AcDbLayerTableRecord
  2
97
 70
     0
 62
    97
  6
CONTINUOUS
  0
LAYER
  5
9B
330
2
100
AcDbSymbolTableRecord
100
AcDbLayerTableRecord
  2
98
 70
     0
 62
    98
  6
CONTINUOUS
  0
LAYER
  5
9C
330
2
100
AcDbSymbolTableRecord
100
AcDbLayerTableRecord
  2
99
 70
     0
 62
    99
  6
CONTINUOUS
  0
LAYER
  5
9D
330
2
100
AcDbSymbolTableRecord
100
AcDbLayerTableRecord
  2
100
 70
     0
 62
   100
  6
CONTINUOUS
  0
LAYER
  5
9E
330
2
100
AcDbSymbolTableRecord
100
AcDbLayerTableRecord
  2
101
 70
     0
 62
   101
  6
CONTINUOUS
  0
LAYER
  5
9F
330
2
100
AcDbSymbolTableRecord
100
AcDbLayerTableRecord
  2
102
 70
     0
 62
   102
  6
CONTINUOUS
  0
LAYER
  5
A0
330
2
100
AcDbSymbolTableRecord
100
AcDbLayerTableRecord
  2
103
 70
     0
 62
   103
  6
CONTINUOUS
  0
LAYER
  5
A1
330
2
100
AcDbSymbolTableRecord
100
AcDbLayerTableRecord
  2
104
 70
     0
 62
   104
  6
CONTINUOUS
  0
LAYER
  5
A2
330
2
100
AcDbSymbolTableRecord
100
AcDbLayerTableRecord
  2
105
 70
     0
 62
   105
  6
CONTINUOUS
  0
LAYER
  5
A3
330
2
100
AcDbSymbolTableRecord
100
AcDbLayerTableRecord
  2
106
 70
     0
 62
   106
  6
CONTINUOUS
  0
LAYER
  5
A4
330
2
100
AcDbSymbolTableRecord
100
AcDbLayerTableRecord
  2
107
 70
     0
 62
   107
  6
CONTINUOUS
  0
LAYER
  5
A5
330
2
100
AcDbSymbolTableRecord
100
AcDbLayerTableRecord
  2
108
 70
     0
 62
   108
  6
CONTINUOUS
  0
LAYER
  5
A6
330
2
100
AcDbSymbolTableRecord
100
AcDbLayerTableRecord
  2
109
 70
     0
 62
   109
  6
CONTINUOUS
  0
LAYER
  5
A7
330
2
100
AcDbSymbolTableRecord
100
AcDbLayerTableRecord
  2
110
 70
     0
 62
   110
  6
CONTINUOUS
  0
LAYER
  5
A8
330
2
100
AcDbSymbolTableRecord
100
AcDbLayerTableRecord
  2
111
 70
     0
 62
   111
  6
CONTINUOUS
  0
LAYER
  5
A9
330
2
100
AcDbSymbolTableRecord
100
AcDbLayerTableRecord
  2
112
 70
     0
 62
   112
  6
CONTINUOUS
  0
LAYER
  5
AA
330
2
100
AcDbSymbolTableRecord
100
AcDbLayerTableRecord
  2
113
 70
     0
 62
   113
  6
CONTINUOUS
  0
LAYER
  5
AB
330
2
100
AcDbSymbolTableRecord
100
AcDbLayerTableRecord
  2
114
 70
     0
 62
   114
  6
CONTINUOUS
  0
LAYER
  5
AC
330
2
100
AcDbSymbolTableRecord
100
AcDbLayerTableRecord
  2
115
 70
     0
 62
   115
  6
CONTINUOUS
  0
LAYER
  5
AD
330
2
100
AcDbSymbolTableRecord
100
AcDbLayerTableRecord
  2
116
 70
     0
 62
   116
  6
CONTINUOUS
  0
LAYER
  5
AE
330
2
100
AcDbSymbolTableRecord
100
AcDbLayerTableRecord
  2
117
 70
     0
 62
   117
  6
CONTINUOUS
  0
LAYER
  5
AF
330
2
100
AcDbSymbolTableRecord
100
AcDbLayerTableRecord
  2
118
 70
     0
 62
   118
  6
CONTINUOUS
  0
LAYER
  5
B0
330
2
100
AcDbSymbolTableRecord
100
AcDbLayerTableRecord
  2
119
 70
     0
 62
   119
  6
CONTINUOUS
  0
LAYER
  5
B1
330
2
100
AcDbSymbolTableRecord
100
AcDbLayerTableRecord
  2
120
 70
     0
 62
   120
  6
CONTINUOUS
  0
LAYER
  5
B2
330
2
100
AcDbSymbolTableRecord
100
AcDbLayerTableRecord
  2
121
 70
     0
 62
   121
  6
CONTINUOUS
  0
LAYER
  5
B3
330
2
100
AcDbSymbolTableRecord
100
AcDbLayerTableRecord
  2
122
 70
     0
 62
   122
  6
CONTINUOUS
  0
LAYER
  5
B4
330
2
100
AcDbSymbolTableRecord
100
AcDbLayerTableRecord
  2
123
 70
     0
 62
   123
  6
CONTINUOUS
  0
LAYER
  5
B5
330
2
100
AcDbSymbolTableRecord
100
AcDbLayerTableRecord
  2
124
 70
     0
 62
   124
  6
CONTINUOUS
  0
LAYER
  5
B6
330
2
100
AcDbSymbolTableRecord
100
AcDbLayerTableRecord
  2
125
 70
     0
 62
   125
  6
CONTINUOUS
  0
LAYER
  5
B7
330
2
100
AcDbSymbolTableRecord
100
AcDbLayerTableRecord
  2
126
 70
     0
 62
   126
  6
CONTINUOUS
  0
LAYER
  5
B8
330
2
100
AcDbSymbolTableRecord
100
AcDbLayerTableRecord
  2
127
 70
     0
 62
   127
  6
CONTINUOUS
  0
LAYER
  5
B9
330
2
100
AcDbSymbolTableRecord
100
AcDbLayerTableRecord
  2
128
 70
     0
 62
   128
  6
CONTINUOUS
  0
LAYER
  5
BA
330
2
100
AcDbSymbolTableRecord
100
AcDbLayerTableRecord
  2
129
 70
     0
 62
   129
  6
CONTINUOUS
  0
LAYER
  5
BB
330
2
100
AcDbSymbolTableRecord
100
AcDbLayerTableRecord
  2
130
 70
     0
 62
   130
  6
CONTINUOUS
  0
LAYER
  5
BC
330
2
100
AcDbSymbolTableRecord
100
AcDbLayerTableRecord
  2
131
 70
     0
 62
   131
  6
CONTINUOUS
  0
LAYER
  5
BD
330
2
100
AcDbSymbolTableRecord
100
AcDbLayerTableRecord
  2
132
 70
     0
 62
   132
  6
CONTINUOUS
  0
LAYER
  5
BE
330
2
100
AcDbSymbolTableRecord
100
AcDbLayerTableRecord
  2
133
 70
     0
 62
   133
  6
CONTINUOUS
  0
LAYER
  5
BF
330
2
100
AcDbSymbolTableRecord
100
AcDbLayerTableRecord
  2
134
 70
     0
 62
   134
  6
CONTINUOUS
  0
LAYER
  5
C0
330
2
100
AcDbSymbolTableRecord
100
AcDbLayerTableRecord
  2
135
 70
     0
 62
   135
  6
CONTINUOUS
  0
LAYER
  5
C1
330
2
100
AcDbSymbolTableRecord
100
AcDbLayerTableRecord
  2
136
 70
     0
 62
   136
  6
CONTINUOUS
  0
LAYER
  5
C2
330
2
100
AcDbSymbolTableRecord
100
AcDbLayerTableRecord
  2
137
 70
     0
 62
   137
  6
CONTINUOUS
  0
LAYER
  5
C3
330
2
100
AcDbSymbolTableRecord
100
AcDbLayerTableRecord
  2
138
 70
     0
 62
   138
  6
CONTINUOUS
  0
LAYER
  5
C4
330
2
100
AcDbSymbolTableRecord
100
AcDbLayerTableRecord
  2
139
 70
     0
 62
   139
  6
CONTINUOUS
  0
LAYER
  5
C5
330
2
100
AcDbSymbolTableRecord
100
AcDbLayerTableRecord
  2
140
 70
     0
 62
   140
  6
CONTINUOUS
  0
LAYER
  5
C6
330
2
100
AcDbSymbolTableRecord
100
AcDbLayerTableRecord
  2
141
 70
     0
 62
   141
  6
CONTINUOUS
  0
LAYER
  5
C7
330
2
100
AcDbSymbolTableRecord
100
AcDbLayerTableRecord
  2
142
 70
     0
 62
   142
  6
CONTINUOUS
  0
LAYER
  5
C8
330
2
100
AcDbSymbolTableRecord
100
AcDbLayerTableRecord
  2
143
 70
     0
 62
   143
  6
CONTINUOUS
  0
LAYER
  5
C9
330
2
100
AcDbSymbolTableRecord
100
AcDbLayerTableRecord
  2
144
 70
     0
 62
   144
  6
CONTINUOUS
  0
LAYER
  5
CA
330
2
100
AcDbSymbolTableRecord
100
AcDbLayerTableRecord
  2
145
 70
     0
 62
   145
  6
CONTINUOUS
  0
LAYER
  5
CB
330
2
100
AcDbSymbolTableRecord
100
AcDbLayerTableRecord
  2
146
 70
     0
 62
   146
  6
CONTINUOUS
  0
LAYER
  5
CC
330
2
100
AcDbSymbolTableRecord
100
AcDbLayerTableRecord
  2
147
 70
     0
 62
   147
  6
CONTINUOUS
  0
LAYER
  5
CD
330
2
100
AcDbSymbolTableRecord
100
AcDbLayerTableRecord
  2
148
 70
     0
 62
   148
  6
CONTINUOUS
  0
LAYER
  5
CE
330
2
100
AcDbSymbolTableRecord
100
AcDbLayerTableRecord
  2
149
 70
     0
 62
   149
  6
CONTINUOUS
  0
LAYER
  5
CF
330
2
100
AcDbSymbolTableRecord
100
AcDbLayerTableRecord
  2
150
 70
     0
 62
   150
  6
CONTINUOUS
  0
LAYER
  5
D0
330
2
100
AcDbSymbolTableRecord
100
AcDbLayerTableRecord
  2
151
 70
     0
 62
   151
  6
CONTINUOUS
  0
LAYER
  5
D1
330
2
100
AcDbSymbolTableRecord
100
AcDbLayerTableRecord
  2
152
 70
     0
 62
   152
  6
CONTINUOUS
  0
LAYER
  5
D2
330
2
100
AcDbSymbolTableRecord
100
AcDbLayerTableRecord
  2
153
 70
     0
 62
   153
  6
CONTINUOUS
  0
LAYER
  5
D3
330
2
100
AcDbSymbolTableRecord
100
AcDbLayerTableRecord
  2
154
 70
     0
 62
   154
  6
CONTINUOUS
  0
LAYER
  5
D4
330
2
100
AcDbSymbolTableRecord
100
AcDbLayerTableRecord
  2
155
 70
     0
 62
   155
  6
CONTINUOUS
  0
LAYER
  5
D5
330
2
100
AcDbSymbolTableRecord
100
AcDbLayerTableRecord
  2
156
 70
     0
 62
   156
  6
CONTINUOUS
  0
LAYER
  5
D6
330
2
100
AcDbSymbolTableRecord
100
AcDbLayerTableRecord
  2
157
 70
     0
 62
   157
  6
CONTINUOUS
  0
LAYER
  5
D7
330
2
100
AcDbSymbolTableRecord
100
AcDbLayerTableRecord
  2
158
 70
     0
 62
   158
  6
CONTINUOUS
  0
LAYER
  5
D8
330
2
100
AcDbSymbolTableRecord
100
AcDbLayerTableRecord
  2
159
 70
     0
 62
   159
  6
CONTINUOUS
  0
LAYER
  5
D9
330
2
100
AcDbSymbolTableRecord
100
AcDbLayerTableRecord
  2
160
 70
     0
 62
   160
  6
CONTINUOUS
  0
LAYER
  5
DA
330
2
100
AcDbSymbolTableRecord
100
AcDbLayerTableRecord
  2
161
 70
     0
 62
   161
  6
CONTINUOUS
  0
LAYER
  5
DB
330
2
100
AcDbSymbolTableRecord
100
AcDbLayerTableRecord
  2
162
 70
     0
 62
   162
  6
CONTINUOUS
  0
LAYER
  5
DC
330
2
100
AcDbSymbolTableRecord
100
AcDbLayerTableRecord
  2
163
 70
     0
 62
   163
  6
CONTINUOUS
  0
LAYER
  5
DD
330
2
100
AcDbSymbolTableRecord
100
AcDbLayerTableRecord
  2
164
 70
     0
 62
   164
  6
CONTINUOUS
  0
LAYER
  5
DE
330
2
100
AcDbSymbolTableRecord
100
AcDbLayerTableRecord
  2
165
 70
     0
 62
   165
  6
CONTINUOUS
  0
LAYER
  5
DF
330
2
100
AcDbSymbolTableRecord
100
AcDbLayerTableRecord
  2
166
 70
     0
 62
   166
  6
CONTINUOUS
  0
LAYER
  5
E0
330
2
100
AcDbSymbolTableRecord
100
AcDbLayerTableRecord
  2
167
 70
     0
 62
   167
  6
CONTINUOUS
  0
LAYER
  5
E1
330
2
100
AcDbSymbolTableRecord
100
AcDbLayerTableRecord
  2
168
 70
     0
 62
   168
  6
CONTINUOUS
  0
LAYER
  5
E2
330
2
100
AcDbSymbolTableRecord
100
AcDbLayerTableRecord
  2
169
 70
     0
 62
   169
  6
CONTINUOUS
  0
LAYER
  5
E3
330
2
100
AcDbSymbolTableRecord
100
AcDbLayerTableRecord
  2
170
 70
     0
 62
   170
  6
CONTINUOUS
  0
LAYER
  5
E4
330
2
100
AcDbSymbolTableRecord
100
AcDbLayerTableRecord
  2
171
 70
     0
 62
   171
  6
CONTINUOUS
  0
LAYER
  5
E5
330
2
100
AcDbSymbolTableRecord
100
AcDbLayerTableRecord
  2
172
 70
     0
 62
   172
  6
CONTINUOUS
  0
LAYER
  5
E6
330
2
100
AcDbSymbolTableRecord
100
AcDbLayerTableRecord
  2
173
 70
     0
 62
   173
  6
CONTINUOUS
  0
LAYER
  5
E7
330
2
100
AcDbSymbolTableRecord
100
AcDbLayerTableRecord
  2
174
 70
     0
 62
   174
  6
CONTINUOUS
  0
LAYER
  5
E8
330
2
100
AcDbSymbolTableRecord
100
AcDbLayerTableRecord
  2
175
 70
     0
 62
   175
  6
CONTINUOUS
  0
LAYER
  5
E9
330
2
100
AcDbSymbolTableRecord
100
AcDbLayerTableRecord
  2
176
 70
     0
 62
   176
  6
CONTINUOUS
  0
LAYER
  5
EA
330
2
100
AcDbSymbolTableRecord
100
AcDbLayerTableRecord
  2
177
 70
     0
 62
   177
  6
CONTINUOUS
  0
LAYER
  5
EB
330
2
100
AcDbSymbolTableRecord
100
AcDbLayerTableRecord
  2
178
 70
     0
 62
   178
  6
CONTINUOUS
  0
LAYER
  5
EC
330
2
100
AcDbSymbolTableRecord
100
AcDbLayerTableRecord
  2
179
 70
     0
 62
   179
  6
CONTINUOUS
  0
LAYER
  5
ED
330
2
100
AcDbSymbolTableRecord
100
AcDbLayerTableRecord
  2
180
 70
     0
 62
   180
  6
CONTINUOUS
  0
LAYER
  5
EE
330
2
100
AcDbSymbolTableRecord
100
AcDbLayerTableRecord
  2
181
 70
     0
 62
   181
  6
CONTINUOUS
  0
LAYER
  5
EF
330
2
100
AcDbSymbolTableRecord
100
AcDbLayerTableRecord
  2
182
 70
     0
 62
   182
  6
CONTINUOUS
  0
LAYER
  5
F0
330
2
100
AcDbSymbolTableRecord
100
AcDbLayerTableRecord
  2
183
 70
     0
 62
   183
  6
CONTINUOUS
  0
LAYER
  5
F1
330
2
100
AcDbSymbolTableRecord
100
AcDbLayerTableRecord
  2
184
 70
     0
 62
   184
  6
CONTINUOUS
  0
LAYER
  5
F2
330
2
100
AcDbSymbolTableRecord
100
AcDbLayerTableRecord
  2
185
 70
     0
 62
   185
  6
CONTINUOUS
  0
LAYER
  5
F3
330
2
100
AcDbSymbolTableRecord
100
AcDbLayerTableRecord
  2
186
 70
     0
 62
   186
  6
CONTINUOUS
  0
LAYER
  5
F4
330
2
100
AcDbSymbolTableRecord
100
AcDbLayerTableRecord
  2
187
 70
     0
 62
   187
  6
CONTINUOUS
  0
LAYER
  5
F5
330
2
100
AcDbSymbolTableRecord
100
AcDbLayerTableRecord
  2
188
 70
     0
 62
   188
  6
CONTINUOUS
  0
LAYER
  5
F6
330
2
100
AcDbSymbolTableRecord
100
AcDbLayerTableRecord
  2
189
 70
     0
 62
   189
  6
CONTINUOUS
  0
LAYER
  5
F7
330
2
100
AcDbSymbolTableRecord
100
AcDbLayerTableRecord
  2
190
 70
     0
 62
   190
  6
CONTINUOUS
  0
LAYER
  5
F8
330
2
100
AcDbSymbolTableRecord
100
AcDbLayerTableRecord
  2
191
 70
     0
 62
   191
  6
CONTINUOUS
  0
LAYER
  5
F9
330
2
100
AcDbSymbolTableRecord
100
AcDbLayerTableRecord
  2
192
 70
     0
 62
   192
  6
CONTINUOUS
  0
LAYER
  5
FA
330
2
100
AcDbSymbolTableRecord
100
AcDbLayerTableRecord
  2
193
 70
     0
 62
   193
  6
CONTINUOUS
  0
LAYER
  5
FB
330
2
100
AcDbSymbolTableRecord
100
AcDbLayerTableRecord
  2
194
 70
     0
 62
   194
  6
CONTINUOUS
  0
LAYER
  5
FC
330
2
100
AcDbSymbolTableRecord
100
AcDbLayerTableRecord
  2
195
 70
     0
 62
   195
  6
CONTINUOUS
  0
LAYER
  5
FD
330
2
100
AcDbSymbolTableRecord
100
AcDbLayerTableRecord
  2
196
 70
     0
 62
   196
  6
CONTINUOUS
  0
LAYER
  5
FE
330
2
100
AcDbSymbolTableRecord
100
AcDbLayerTableRecord
  2
197
 70
     0
 62
   197
  6
CONTINUOUS
  0
LAYER
  5
FF
330
2
100
AcDbSymbolTableRecord
100
AcDbLayerTableRecord
  2
198
 70
     0
 62
   198
  6
CONTINUOUS
  0
LAYER
  5
100
330
2
100
AcDbSymbolTableRecord
100
AcDbLayerTableRecord
  2
199
 70
     0
 62
   199
  6
CONTINUOUS
  0
LAYER
  5
101
330
2
100
AcDbSymbolTableRecord
100
AcDbLayerTableRecord
  2
200
 70
     0
 62
   200
  6
CONTINUOUS
  0
LAYER
  5
102
330
2
100
AcDbSymbolTableRecord
100
AcDbLayerTableRecord
  2
201
 70
     0
 62
   201
  6
CONTINUOUS
  0
LAYER
  5
103
330
2
100
AcDbSymbolTableRecord
100
AcDbLayerTableRecord
  2
202
 70
     0
 62
   202
  6
CONTINUOUS
  0
LAYER
  5
104
330
2
100
AcDbSymbolTableRecord
100
AcDbLayerTableRecord
  2
203
 70
     0
 62
   203
  6
CONTINUOUS
  0
LAYER
  5
105
330
2
100
AcDbSymbolTableRecord
100
AcDbLayerTableRecord
  2
204
 70
     0
 62
   204
  6
CONTINUOUS
  0
LAYER
  5
106
330
2
100
AcDbSymbolTableRecord
100
AcDbLayerTableRecord
  2
205
 70
     0
 62
   205
  6
CONTINUOUS
  0
LAYER
  5
107
330
2
100
AcDbSymbolTableRecord
100
AcDbLayerTableRecord
  2
206
 70
     0
 62
   206
  6
CONTINUOUS
  0
LAYER
  5
108
330
2
100
AcDbSymbolTableRecord
100
AcDbLayerTableRecord
  2
207
 70
     0
 62
   207
  6
CONTINUOUS
  0
LAYER
  5
109
330
2
100
AcDbSymbolTableRecord
100
AcDbLayerTableRecord
  2
208
 70
     0
 62
   208
  6
CONTINUOUS
  0
LAYER
  5
10A
330
2
100
AcDbSymbolTableRecord
100
AcDbLayerTableRecord
  2
209
 70
     0
 62
   209
  6
CONTINUOUS
  0
LAYER
  5
10B
330
2
100
AcDbSymbolTableRecord
100
AcDbLayerTableRecord
  2
210
 70
     0
 62
   210
  6
CONTINUOUS
  0
LAYER
  5
10C
330
2
100
AcDbSymbolTableRecord
100
AcDbLayerTableRecord
  2
211
 70
     0
 62
   211
  6
CONTINUOUS
  0
LAYER
  5
10D
330
2
100
AcDbSymbolTableRecord
100
AcDbLayerTableRecord
  2
212
 70
     0
 62
   212
  6
CONTINUOUS
  0
LAYER
  5
10E
330
2
100
AcDbSymbolTableRecord
100
AcDbLayerTableRecord
  2
213
 70
     0
 62
   213
  6
CONTINUOUS
  0
LAYER
  5
10F
330
2
100
AcDbSymbolTableRecord
100
AcDbLayerTableRecord
  2
214
 70
     0
 62
   214
  6
CONTINUOUS
  0
LAYER
  5
110
330
2
100
AcDbSymbolTableRecord
100
AcDbLayerTableRecord
  2
215
 70
     0
 62
   215
  6
CONTINUOUS
  0
LAYER
  5
111
330
2
100
AcDbSymbolTableRecord
100
AcDbLayerTableRecord
  2
216
 70
     0
 62
   216
  6
CONTINUOUS
  0
LAYER
  5
112
330
2
100
AcDbSymbolTableRecord
100
AcDbLayerTableRecord
  2
217
 70
     0
 62
   217
  6
CONTINUOUS
  0
LAYER
  5
113
330
2
100
AcDbSymbolTableRecord
100
AcDbLayerTableRecord
  2
218
 70
     0
 62
   218
  6
CONTINUOUS
  0
LAYER
  5
114
330
2
100
AcDbSymbolTableRecord
100
AcDbLayerTableRecord
  2
219
 70
     0
 62
   219
  6
CONTINUOUS
  0
LAYER
  5
115
330
2
100
AcDbSymbolTableRecord
100
AcDbLayerTableRecord
  2
220
 70
     0
 62
   220
  6
CONTINUOUS
  0
LAYER
  5
116
330
2
100
AcDbSymbolTableRecord
100
AcDbLayerTableRecord
  2
221
 70
     0
 62
   221
  6
CONTINUOUS
  0
LAYER
  5
117
330
2
100
AcDbSymbolTableRecord
100
AcDbLayerTableRecord
  2
222
 70
     0
 62
   222
  6
CONTINUOUS
  0
LAYER
  5
118
330
2
100
AcDbSymbolTableRecord
100
AcDbLayerTableRecord
  2
223
 70
     0
 62
   223
  6
CONTINUOUS
  0
LAYER
  5
119
330
2
100
AcDbSymbolTableRecord
100
AcDbLayerTableRecord
  2
224
 70
     0
 62
   224
  6
CONTINUOUS
  0
LAYER
  5
11A
330
2
100
AcDbSymbolTableRecord
100
AcDbLayerTableRecord
  2
225
 70
     0
 62
   225
  6
CONTINUOUS
  0
LAYER
  5
11B
330
2
100
AcDbSymbolTableRecord
100
AcDbLayerTableRecord
  2
226
 70
     0
 62
   226
  6
CONTINUOUS
  0
LAYER
  5
11C
330
2
100
AcDbSymbolTableRecord
100
AcDbLayerTableRecord
  2
227
 70
     0
 62
   227
  6
CONTINUOUS
  0
LAYER
  5
11D
330
2
100
AcDbSymbolTableRecord
100
AcDbLayerTableRecord
  2
228
 70
     0
 62
   228
  6
CONTINUOUS
  0
LAYER
  5
11E
330
2
100
AcDbSymbolTableRecord
100
AcDbLayerTableRecord
  2
229
 70
     0
 62
   229
  6
CONTINUOUS
  0
LAYER
  5
11F
330
2
100
AcDbSymbolTableRecord
100
AcDbLayerTableRecord
  2
230
 70
     0
 62
   230
  6
CONTINUOUS
  0
LAYER
  5
120
330
2
100
AcDbSymbolTableRecord
100
AcDbLayerTableRecord
  2
231
 70
     0
 62
   231
  6
CONTINUOUS
  0
LAYER
  5
121
330
2
100
AcDbSymbolTableRecord
100
AcDbLayerTableRecord
  2
232
 70
     0
 62
   232
  6
CONTINUOUS
  0
LAYER
  5
122
330
2
100
AcDbSymbolTableRecord
100
AcDbLayerTableRecord
  2
233
 70
     0
 62
   233
  6
CONTINUOUS
  0
LAYER
  5
123
330
2
100
AcDbSymbolTableRecord
100
AcDbLayerTableRecord
  2
234
 70
     0
 62
   234
  6
CONTINUOUS
  0
LAYER
  5
124
330
2
100
AcDbSymbolTableRecord
100
AcDbLayerTableRecord
  2
235
 70
     0
 62
   235
  6
CONTINUOUS
  0
LAYER
  5
125
330
2
100
AcDbSymbolTableRecord
100
AcDbLayerTableRecord
  2
236
 70
     0
 62
   236
  6
CONTINUOUS
  0
LAYER
  5
126
330
2
100
AcDbSymbolTableRecord
100
AcDbLayerTableRecord
  2
237
 70
     0
 62
   237
  6
CONTINUOUS
  0
LAYER
  5
127
330
2
100
AcDbSymbolTableRecord
100
AcDbLayerTableRecord
  2
238
 70
     0
 62
   238
  6
CONTINUOUS
  0
LAYER
  5
128
330
2
100
AcDbSymbolTableRecord
100
AcDbLayerTableRecord
  2
239
 70
     0
 62
   239
  6
CONTINUOUS
  0
LAYER
  5
129
330
2
100
AcDbSymbolTableRecord
100
AcDbLayerTableRecord
  2
240
 70
     0
 62
   240
  6
CONTINUOUS
  0
LAYER
  5
12A
330
2
100
AcDbSymbolTableRecord
100
AcDbLayerTableRecord
  2
241
 70
     0
 62
   241
  6
CONTINUOUS
  0
LAYER
  5
12B
330
2
100
AcDbSymbolTableRecord
100
AcDbLayerTableRecord
  2
242
 70
     0
 62
   242
  6
CONTINUOUS
  0
LAYER
  5
12C
330
2
100
AcDbSymbolTableRecord
100
AcDbLayerTableRecord
  2
243
 70
     0
 62
   243
  6
CONTINUOUS
  0
LAYER
  5
12D
330
2
100
AcDbSymbolTableRecord
100
AcDbLayerTableRecord
  2
244
 70
     0
 62
   244
  6
CONTINUOUS
  0
LAYER
  5
12E
330
2
100
AcDbSymbolTableRecord
100
AcDbLayerTableRecord
  2
245
 70
     0
 62
   245
  6
CONTINUOUS
  0
LAYER
  5
12F
330
2
100
AcDbSymbolTableRecord
100
AcDbLayerTableRecord
  2
246
 70
     0
 62
   246
  6
CONTINUOUS
  0
LAYER
  5
130
330
2
100
AcDbSymbolTableRecord
100
AcDbLayerTableRecord
  2
247
 70
     0
 62
   247
  6
CONTINUOUS
  0
LAYER
  5
131
330
2
100
AcDbSymbolTableRecord
100
AcDbLayerTableRecord
  2
248
 70
     0
 62
   248
  6
CONTINUOUS
  0
LAYER
  5
132
330
2
100
AcDbSymbolTableRecord
100
AcDbLayerTableRecord
  2
249
 70
     0
 62
   249
  6
CONTINUOUS
  0
LAYER
  5
133
330
2
100
AcDbSymbolTableRecord
100
AcDbLayerTableRecord
  2
250
 70
     0
 62
   250
  6
CONTINUOUS
  0
LAYER
  5
134
330
2
100
AcDbSymbolTableRecord
100
AcDbLayerTableRecord
  2
251
 70
     0
 62
   251
  6
CONTINUOUS
  0
LAYER
  5
135
330
2
100
AcDbSymbolTableRecord
100
AcDbLayerTableRecord
  2
252
 70
     0
 62
   252
  6
CONTINUOUS
  0
LAYER
  5
136
330
2
100
AcDbSymbolTableRecord
100
AcDbLayerTableRecord
  2
253
 70
     0
 62
   253
  6
CONTINUOUS
  0
LAYER
  5
137
330
2
100
AcDbSymbolTableRecord
100
AcDbLayerTableRecord
  2
254
 70
     0
 62
   254
  6
CONTINUOUS
  0
LAYER
  5
138
330
2
100
AcDbSymbolTableRecord
100
AcDbLayerTableRecord
  2
255
 70
     0
 62
   255
  6
CONTINUOUS
  0
ENDTAB
  0
TABLE
  2
STYLE
  5
3
330
0
100
AcDbSymbolTable
 70
     1
  0
STYLE
  5
11
330
3
100
AcDbSymbolTableRecord
100
AcDbTextStyleTableRecord
  2
STANDARD
 70
     0
 40
0.0
 41
1.0
 50
0.0
 71
     0
 42
0.2
  3
monotxt
  4

  0
ENDTAB
  0
TABLE
  2
VIEW
  5
6
330
0
100
AcDbSymbolTable
 70
     0
  0
ENDTAB
  0
TABLE
  2
UCS
  5
7
330
0
100
AcDbSymbolTable
 70
     0
  0
ENDTAB
  0
TABLE
  2
APPID
  5
9
330
0
100
AcDbSymbolTable
 70
     1
  0
APPID
  5
12
330
9
100
AcDbSymbolTableRecord
100
AcDbRegAppTableRecord
  2
ACAD
 70
     0
  0
ENDTAB
  0
TABLE
  2
DIMSTYLE
  5
A
330
0
100
AcDbSymbolTable
 70
     1
  0
DIMSTYLE
105
8BC
330
A
100
AcDbSymbolTableRecord
100
AcDbDimStyleTableRecord
  2
STANDARD
 70
     0
  3

  4

  5

  6

  7

 40
1.0
 41
0.18
 42
0.0625
 43
0.38
 44
0.18
 45
0.0
 46
0.0
 47
0.0
 48
0.0
140
0.18
141
0.09
142
0.0
143
25.4
144
1.0
145
0.0
146
1.0
147
0.09
 71
     0
 72
     0
 73
     1
 74
     1
 75
     0
 76
     0
 77
     0
 78
     0
170
     0
171
     2
172
     0
173
     0
174
     0
175
     0
176
     0
177
     0
178
     0
270
     2
271
     4
272
     4
273
     2
274
     2
340
11
275
     0
280
     0
281
     0
282
     0
283
     1
284
     0
285
     0
286
     0
287
     3
288
     0
  0
ENDTAB
  0
TABLE
  2
BLOCK_RECORD
  5
1
330
0
100
AcDbSymbolTable
 70
     0
  0
BLOCK_RECORD
  5
1E
102
{ACAD_XDICTIONARY
360
D0A
102
}
330
1
100
AcDbSymbolTableRecord
100
AcDbBlockTableRecord
  2
*MODEL_SPACE
  0
BLOCK_RECORD
  5
1A
102
{ACAD_XDICTIONARY
360
D08
102
}
330
1
100
AcDbSymbolTableRecord
100
AcDbBlockTableRecord
  2
*PAPER_SPACE
  0
ENDTAB
  0
ENDSEC
  0
SECTION
  2
BLOCKS
  0
BLOCK
  5
13B
330
1E
100
AcDbEntity
  8
0
100
AcDbBlockBegin
  2
*MODEL_SPACE
 70
     0
 10
0.0
 20
0.0
 30
0.0
  3
*MODEL_SPACE
  1

  0
ENDBLK
  5
13C
330
1E
100
AcDbEntity
  8
0
100
AcDbBlockEnd
  0
BLOCK
  5
139
330
1A
100
AcDbEntity
 67
     1
  8
0
100
AcDbBlockBegin
  2
*PAPER_SPACE
 70
     0
 10
0.0
 20
0.0
 30
0.0
  3
*PAPER_SPACE
  1

  0
ENDBLK
  5
13A
330
1A
100
AcDbEntity
 67
     1
  8
0
100
AcDbBlockEnd
  0
ENDSEC
  0
SECTION
  2
ENTITIES
  0
LINE
  5
13E
330
1E
100
AcDbEntity
  8
3
100
AcDbLine
 10
49.15354330708661
 20
31.67913385826771
 30
0.0
 11
49.19192913385827
 21
31.67913385826771
 31
0.0
  0
LINE
  5
13F
330
1E
100
AcDbEntity
  8
3
100
AcDbLine
 10
48.77952755905511
 20
31.57381889763779
 30
0.0
 11
48.81299212598425
 21
31.49606299212598
 31
0.0
  0
LINE
  5
140
330
1E
100
AcDbEntity
  8
3
100
AcDbLine
 10
48.89665354330708
 20
31.67913385826771
 30
0.0
 11
49.0
 21
31.67913385826771
 31
0.0
  0
LINE
  5
141
330
1E
100
AcDbEntity
  8
3
100
AcDbLine
 10
48.60334645669291
 20
31.49606299212598
 30
0.0
 11
48.61417322834645
 21
31.52263779527558
 31
0.0
  0
LINE
  5
142
330
1E
100
AcDbEntity
  8
3
100
AcDbLine
 10
48.68405511811023
 20
31.52263779527558
 30
0.0
 11
48.69783464566928
 21
31.49606299212598
 31
0.0
  0
LINE
  5
143
330
1E
100
AcDbEntity
  8
3
100
AcDbLine
 10
48.77952755905511
 20
31.49606299212598
 30
0.0
 11
48.77952755905511
 21
31.57381889763779
 31
0.0
  0
LINE
  5
144
330
1E
100
AcDbEntity
  8
3
100
AcDbLine
 10
49.37893700787402
 20
31.49606299212598
 30
0.0
 11
49.37893700787402
 21
31.64173228346456
 31
0.0
  0
LINE
  5
145
330
1E
100
AcDbEntity
  8
3
100
AcDbLine
 10
48.82185039370078
 20
31.61318897637795
 30
0.0
 11
48.82185039370078
 21
31.67913385826771
 31
0.0
  0
LINE
  5
146
330
1E
100
AcDbEntity
  8
3
100
AcDbLine
 10
48.54921259842519
 20
31.49606299212598
 30
0.0
 11
48.58366141732282
 21
31.57874015748031
 31
0.0
  0
LINE
  5
147
330
1E
100
AcDbEntity
  8
3
100
AcDbLine
 10
48.9507874015748
 20
31.53740157480314
 30
0.0
 11
48.9507874015748
 21
31.64074803149606
 31
0.0
  0
LINE
  5
148
330
1E
100
AcDbEntity
  8
7
100
AcDbLine
 10
48.79133858267716
 20
28.39173228346457
 30
0.0
 11
48.73228346456692
 21
28.39173228346457
 31
0.0
  0
LINE
  5
149
330
1E
100
AcDbEntity
  8
7
100
AcDbLine
 10
48.66043307086614
 20
28.43011811023622
 30
0.0
 11
48.6771653543307
 21
28.42224409448819
 31
0.0
  0
LINE
  5
14A
330
1E
100
AcDbEntity
  8
7
100
AcDbLine
 10
49.06889763779528
 20
28.39862204724409
 30
0.0
 11
49.05314960629921
 21
28.39173228346457
 31
0.0
  0
LINE
  5
14B
330
1E
100
AcDbEntity
  8
7
100
AcDbLine
 10
49.18307086614174
 20
28.33169291338582
 30
0.0
 11
49.19881889763779
 21
28.33858267716535
 31
0.0
  0
LINE
  5
14C
330
1E
100
AcDbEntity
  8
7
100
AcDbLine
 10
48.68700787401575
 20
28.42913385826771
 30
0.0
 11
48.68700787401575
 21
28.39271653543307
 31
0.0
  0
LINE
  5
14D
330
1E
100
AcDbEntity
  8
3
100
AcDbLine
 10
48.6259842519685
 20
31.56200787401575
 30
0.0
 11
48.67224409448819
 21
31.56200787401575
 31
0.0
  0
LINE
  5
14E
330
1E
100
AcDbEntity
  8
7
100
AcDbLine
 10
48.6023622047244
 20
28.32185039370078
 30
0.0
 11
48.6023622047244
 21
28.38090551181102
 31
0.0
  0
LINE
  5
14F
330
1E
100
AcDbEntity
  8
7
100
AcDbLine
 10
48.99409448818897
 20
28.39173228346457
 30
0.0
 11
48.99409448818897
 21
28.43011811023622
 31
0.0
  0
LINE
  5
150
330
1E
100
AcDbEntity
  8
7
100
AcDbLine
 10
48.98425196850393
 20
28.32185039370078
 30
0.0
 11
48.98425196850393
 21
28.43996062992125
 31
0.0
  0
LINE
  5
151
330
1E
100
AcDbEntity
  8
7
100
AcDbLine
 10
48.92421259842519
 20
28.43996062992125
 30
0.0
 11
48.93602362204724
 21
28.42913385826771
 31
0.0
  0
LINE
  5
152
330
1E
100
AcDbEntity
  8
7
100
AcDbLine
 10
48.55708661417323
 20
28.4753937007874
 30
0.0
 11
49.24507874015748
 21
28.4753937007874
 31
0.0
  0
LINE
  5
153
330
1E
100
AcDbEntity
  8
7
100
AcDbLine
 10
48.92027559055118
 20
28.43011811023622
 30
0.0
 11
48.92913385826771
 21
28.42224409448819
 31
0.0
  0
LINE
  5
154
330
1E
100
AcDbEntity
  8
7
100
AcDbLine
 10
48.73228346456692
 20
28.32185039370078
 30
0.0
 11
48.72244094488189
 21
28.32185039370078
 31
0.0
  0
LINE
  5
155
330
1E
100
AcDbEntity
  8
7
100
AcDbLine
 10
48.34547244094488
 20
31.46062992125984
 30
0.0
 11
49.45570866141732
 21
31.46062992125984
 31
0.0
  0
LINE
  5
156
330
1E
100
AcDbEntity
  8
3
100
AcDbLine
 10
49.27066929133857
 20
31.49606299212598
 30
0.0
 11
49.27066929133857
 21
31.67913385826771
 31
0.0
  0
LINE
  5
157
330
1E
100
AcDbEntity
  8
7
100
AcDbLine
 10
49.45570866141732
 20
31.77066929133858
 30
0.0
 11
48.34547244094488
 21
31.77066929133858
 31
0.0
  0
LINE
  5
158
330
1E
100
AcDbEntity
  8
3
100
AcDbLine
 10
48.48917322834645
 20
31.57086614173228
 30
0.0
 11
48.48917322834645
 21
31.49606299212598
 31
0.0
  0
LINE
  5
159
330
1E
100
AcDbEntity
  8
3
100
AcDbLine
 10
49.28444881889763
 20
31.64173228346456
 30
0.0
 11
49.32283464566928
 21
31.64173228346456
 31
0.0
  0
LINE
  5
15A
330
1E
100
AcDbEntity
  8
3
100
AcDbLine
 10
48.48917322834645
 20
31.69389763779527
 30
0.0
 11
48.51181102362204
 21
31.69389763779527
 31
0.0
  0
LINE
  5
15B
330
1E
100
AcDbEntity
  8
3
100
AcDbLine
 10
49.32283464566928
 20
31.49606299212598
 30
0.0
 11
49.32283464566928
 21
31.64173228346456
 31
0.0
  0
LINE
  5
15C
330
1E
100
AcDbEntity
  8
3
100
AcDbLine
 10
48.52362204724409
 20
31.62106299212598
 30
0.0
 11
48.52362204724409
 21
31.68208661417323
 31
0.0
  0
LINE
  5
15D
330
1E
100
AcDbEntity
  8
7
100
AcDbLine
 10
48.93700787401574
 20
28.33858267716535
 30
0.0
 11
48.93700787401574
 21
28.38090551181102
 31
0.0
  0
LINE
  5
15E
330
1E
100
AcDbEntity
  8
7
100
AcDbLine
 10
48.80807086614173
 20
28.42224409448819
 30
0.0
 11
48.80807086614173
 21
28.39862204724409
 31
0.0
  0
LINE
  5
15F
330
1E
100
AcDbEntity
  8
7
100
AcDbLine
 10
48.86909448818897
 20
28.43011811023622
 30
0.0
 11
48.86318897637795
 21
28.42421259842519
 31
0.0
  0
LINE
  5
160
330
1E
100
AcDbEntity
  8
7
100
AcDbLine
 10
48.72244094488189
 20
28.32185039370078
 30
0.0
 11
48.72244094488189
 21
28.43996062992125
 31
0.0
  0
LINE
  5
161
330
1E
100
AcDbEntity
  8
7
100
AcDbLine
 10
48.6023622047244
 20
28.43011811023622
 30
0.0
 11
48.66043307086614
 21
28.43011811023622
 31
0.0
  0
LINE
  5
162
330
1E
100
AcDbEntity
  8
7
100
AcDbLine
 10
49.05511811023622
 20
28.38090551181102
 30
0.0
 11
48.99409448818897
 21
28.38090551181102
 31
0.0
  0
LINE
  5
163
330
1E
100
AcDbEntity
  8
3
100
AcDbLine
 10
49.15354330708661
 20
31.54724409448819
 30
0.0
 11
49.15354330708661
 21
31.67913385826771
 31
0.0
  0
LINE
  5
164
330
1E
100
AcDbEntity
  8
3
100
AcDbLine
 10
49.28444881889763
 20
31.67913385826771
 30
0.0
 11
49.28444881889763
 21
31.64173228346456
 31
0.0
  0
LINE
  5
165
330
1E
100
AcDbEntity
  8
7
100
AcDbLine
 10
48.6771653543307
 20
28.42224409448819
 30
0.0
 11
48.6771653543307
 21
28.39862204724409
 31
0.0
  0
LINE
  5
166
330
1E
100
AcDbEntity
  8
7
100
AcDbLine
 10
49.125
 20
28.43011811023622
 30
0.0
 11
49.125
 21
28.39763779527558
 31
0.0
  0
LINE
  5
167
330
1E
100
AcDbEntity
  8
7
100
AcDbLine
 10
48.66338582677165
 20
28.43996062992125
 30
0.0
 11
48.68700787401575
 21
28.42913385826771
 31
0.0
  0
LINE
  5
168
330
1E
100
AcDbEntity
  8
7
100
AcDbLine
 10
48.99409448818897
 20
28.43011811023622
 30
0.0
 11
49.05314960629921
 21
28.43011811023622
 31
0.0
  0
LINE
  5
169
330
1E
100
AcDbEntity
  8
7
100
AcDbLine
 10
48.80807086614173
 20
28.39862204724409
 30
0.0
 11
48.79133858267716
 21
28.39173228346457
 31
0.0
  0
LINE
  5
16A
330
1E
100
AcDbEntity
  8
7
100
AcDbLine
 10
48.6023622047244
 20
28.32185039370078
 30
0.0
 11
48.59153543307086
 21
28.32185039370078
 31
0.0
  0
LINE
  5
16B
330
1E
100
AcDbEntity
  8
7
100
AcDbLine
 10
48.78937007874015
 20
28.38090551181102
 30
0.0
 11
48.73228346456692
 21
28.38090551181102
 31
0.0
  0
LINE
  5
16C
330
1E
100
AcDbEntity
  8
7
100
AcDbLine
 10
49.06889763779528
 20
28.42224409448819
 30
0.0
 11
49.06889763779528
 21
28.39862204724409
 31
0.0
  0
LINE
  5
16D
330
1E
100
AcDbEntity
  8
3
100
AcDbLine
 10
48.68405511811023
 20
31.52263779527558
 30
0.0
 11
48.69783464566928
 21
31.49606299212598
 31
0.0
  0
LINE
  5
16E
330
1E
100
AcDbEntity
  8
3
100
AcDbLine
 10
48.67421259842519
 20
31.67913385826771
 30
0.0
 11
48.72834645669291
 21
31.56003937007874
 31
0.0
  0
LINE
  5
16F
330
1E
100
AcDbEntity
  8
3
100
AcDbLine
 10
49.27066929133857
 20
31.49606299212598
 30
0.0
 11
49.22145669291339
 21
31.49606299212598
 31
0.0
  0
LINE
  5
170
330
1E
100
AcDbEntity
  8
3
100
AcDbLine
 10
49.37893700787402
 20
31.49606299212598
 30
0.0
 11
49.32283464566928
 21
31.49606299212598
 31
0.0
  0
LINE
  5
171
330
1E
100
AcDbEntity
  8
7
100
AcDbLine
 10
49.45570866141732
 20
31.46062992125984
 30
0.0
 11
49.45570866141732
 21
31.77066929133858
 31
0.0
  0
LINE
  5
172
330
1E
100
AcDbEntity
  8
3
100
AcDbLine
 10
48.82185039370078
 20
31.61318897637795
 30
0.0
 11
48.78937007874015
 21
31.67913385826771
 31
0.0
  0
LINE
  5
173
330
1E
100
AcDbEntity
  8
3
100
AcDbLine
 10
48.6259842519685
 20
31.56200787401575
 30
0.0
 11
48.64960629921259
 21
31.61417322834645
 31
0.0
  0
LINE
  5
174
330
1E
100
AcDbEntity
  8
3
100
AcDbLine
 10
49.06102362204724
 20
31.52854330708661
 30
0.0
 11
49.06102362204724
 21
31.67913385826771
 31
0.0
  0
LINE
  5
175
330
1E
100
AcDbEntity
  8
7
100
AcDbLine
 10
49.125
 20
28.43011811023622
 30
0.0
 11
49.19881889763779
 21
28.43011811023622
 31
0.0
  0
LINE
  5
176
330
1E
100
AcDbEntity
  8
7
100
AcDbLine
 10
49.07874015748031
 20
28.42913385826771
 30
0.0
 11
49.07874015748031
 21
28.39271653543307
 31
0.0
  0
LINE
  5
177
330
1E
100
AcDbEntity
  8
7
100
AcDbLine
 10
49.11515748031495
 20
28.33366141732283
 30
0.0
 11
49.12204724409448
 21
28.33956692913385
 31
0.0
  0
LINE
  5
178
330
1E
100
AcDbEntity
  8
7
100
AcDbLine
 10
48.59153543307086
 20
28.43996062992125
 30
0.0
 11
48.66338582677165
 21
28.43996062992125
 31
0.0
  0
LINE
  5
179
330
1E
100
AcDbEntity
  8
7
100
AcDbLine
 10
48.81791338582677
 20
28.42913385826771
 30
0.0
 11
48.81791338582677
 21
28.39271653543307
 31
0.0
  0
LINE
  5
17A
330
1E
100
AcDbEntity
  8
7
100
AcDbLine
 10
49.11515748031495
 20
28.33366141732283
 30
0.0
 11
49.12598425196851
 21
28.32185039370078
 31
0.0
  0
LINE
  5
17B
330
1E
100
AcDbEntity
  8
3
100
AcDbLine
 10
48.77952755905511
 20
31.49606299212598
 30
0.0
 11
48.77952755905511
 21
31.57381889763779
 31
0.0
  0
LINE
  5
17C
330
1E
100
AcDbEntity
  8
3
100
AcDbLine
 10
49.19192913385827
 20
31.67913385826771
 30
0.0
 11
49.19192913385827
 21
31.52854330708661
 31
0.0
  0
LINE
  5
17D
330
1E
100
AcDbEntity
  8
7
100
AcDbLine
 10
48.86318897637795
 20
28.40846456692913
 30
0.0
 11
48.87303149606299
 21
28.39763779527558
 31
0.0
  0
LINE
  5
17E
330
1E
100
AcDbEntity
  8
7
100
AcDbLine
 10
48.81299212598425
 20
28.32185039370078
 30
0.0
 11
48.78937007874015
 21
28.38090551181102
 31
0.0
  0
LINE
  5
17F
330
1E
100
AcDbEntity
  8
7
100
AcDbLine
 10
49.20866141732282
 20
28.38681102362204
 30
0.0
 11
49.18602362204724
 21
28.39763779527558
 31
0.0
  0
LINE
  5
180
330
1E
100
AcDbEntity
  8
7
100
AcDbLine
 10
48.59153543307086
 20
28.32185039370078
 30
0.0
 11
48.59153543307086
 21
28.43996062992125
 31
0.0
  0
LINE
  5
181
330
1E
100
AcDbEntity
  8
7
100
AcDbLine
 10
49.18602362204724
 20
28.38779527559054
 30
0.0
 11
49.11515748031495
 21
28.38779527559054
 31
0.0
  0
LINE
  5
182
330
1E
100
AcDbEntity
  8
7
100
AcDbLine
 10
49.05314960629921
 20
28.39173228346457
 30
0.0
 11
48.99409448818897
 21
28.39173228346457
 31
0.0
  0
LINE
  5
183
330
1E
100
AcDbEntity
  8
7
100
AcDbLine
 10
48.92913385826771
 20
28.42224409448819
 30
0.0
 11
48.93602362204724
 21
28.42913385826771
 31
0.0
  0
LINE
  5
184
330
1E
100
AcDbEntity
  8
3
100
AcDbLine
 10
49.42125984251968
 20
31.64173228346456
 30
0.0
 11
49.42125984251968
 21
31.67913385826771
 31
0.0
  0
LINE
  5
185
330
1E
100
AcDbEntity
  8
3
100
AcDbLine
 10
48.89665354330708
 20
31.49606299212598
 30
0.0
 11
48.89665354330708
 21
31.67913385826771
 31
0.0
  0
LINE
  5
186
330
1E
100
AcDbEntity
  8
3
100
AcDbLine
 10
48.61417322834645
 20
31.52263779527558
 30
0.0
 11
48.68405511811023
 21
31.52263779527558
 31
0.0
  0
LINE
  5
187
330
1E
100
AcDbEntity
  8
3
100
AcDbLine
 10
48.60334645669291
 20
31.49606299212598
 30
0.0
 11
48.54921259842519
 21
31.49606299212598
 31
0.0
  0
LINE
  5
188
330
1E
100
AcDbEntity
  8
3
100
AcDbLine
 10
48.48917322834645
 20
31.57086614173228
 30
0.0
 11
48.54724409448818
 21
31.57086614173228
 31
0.0
  0
LINE
  5
189
330
1E
100
AcDbEntity
  8
3
100
AcDbLine
 10
48.72834645669291
 20
31.56003937007874
 30
0.0
 11
48.72834645669291
 21
31.67913385826771
 31
0.0
  0
LINE
  5
18A
330
1E
100
AcDbEntity
  8
3
100
AcDbLine
 10
48.48917322834645
 20
31.60925196850393
 30
0.0
 11
48.51181102362204
 21
31.60925196850393
 31
0.0
  0
LINE
  5
18B
330
1E
100
AcDbEntity
  8
7
100
AcDbLine
 10
48.86122047244094
 20
28.33956692913385
 30
0.0
 11
48.86811023622047
 21
28.33169291338582
 31
0.0
  0
LINE
  5
18C
330
1E
100
AcDbEntity
  8
7
100
AcDbLine
 10
48.92322834645669
 20
28.32185039370078
 30
0.0
 11
48.94685039370078
 21
28.33267716535432
 31
0.0
  0
LINE
  5
18D
330
1E
100
AcDbEntity
  8
7
100
AcDbLine
 10
48.86909448818897
 20
28.43011811023622
 30
0.0
 11
48.92027559055118
 21
28.43011811023622
 31
0.0
  0
LINE
  5
18E
330
1E
100
AcDbEntity
  8
7
100
AcDbLine
 10
48.68700787401575
 20
28.39271653543307
 30
0.0
 11
48.66338582677165
 21
28.38090551181102
 31
0.0
  0
LINE
  5
18F
330
1E
100
AcDbEntity
  8
7
100
AcDbLine
 10
49.12204724409448
 20
28.33956692913385
 30
0.0
 11
49.12992125984252
 21
28.33169291338582
 31
0.0
  0
LINE
  5
190
330
1E
100
AcDbEntity
  8
3
100
AcDbLine
 10
49.13090551181102
 20
31.53740157480314
 30
0.0
 11
49.14468503937007
 21
31.53740157480314
 31
0.0
  0
LINE
  5
191
330
1E
100
AcDbEntity
  8
7
100
AcDbLine
 10
48.94685039370078
 20
28.38681102362204
 30
0.0
 11
48.92421259842519
 21
28.39763779527558
 31
0.0
  0
LINE
  5
192
330
1E
100
AcDbEntity
  8
7
100
AcDbLine
 10
48.73228346456692
 20
28.39173228346457
 30
0.0
 11
48.73228346456692
 21
28.43011811023622
 31
0.0
  0
LINE
  5
193
330
1E
100
AcDbEntity
  8
7
100
AcDbLine
 10
48.98425196850393
 20
28.43996062992125
 30
0.0
 11
49.05511811023622
 21
28.43996062992125
 31
0.0
  0
LINE
  5
194
330
1E
100
AcDbEntity
  8
7
100
AcDbLine
 10
48.73228346456692
 20
28.43011811023622
 30
0.0
 11
48.79133858267716
 21
28.43011811023622
 31
0.0
  0
LINE
  5
195
330
1E
100
AcDbEntity
  8
7
100
AcDbLine
 10
48.86515748031495
 20
28.43996062992125
 30
0.0
 11
48.85334645669291
 21
28.42814960629921
 31
0.0
  0
LINE
  5
196
330
1E
100
AcDbEntity
  8
7
100
AcDbLine
 10
49.11515748031495
 20
28.43996062992125
 30
0.0
 11
49.11515748031495
 21
28.38779527559054
 31
0.0
  0
LINE
  5
197
330
1E
100
AcDbEntity
  8
7
100
AcDbLine
 10
48.85334645669291
 20
28.33366141732283
 30
0.0
 11
48.86417322834645
 21
28.32185039370078
 31
0.0
  0
LINE
  5
198
330
1E
100
AcDbEntity
  8
7
100
AcDbLine
 10
48.86318897637795
 20
28.42421259842519
 30
0.0
 11
48.86318897637795
 21
28.40846456692913
 31
0.0
  0
LINE
  5
199
330
1E
100
AcDbEntity
  8
3
100
AcDbLine
 10
49.22145669291339
 20
31.67913385826771
 30
0.0
 11
49.27066929133857
 21
31.67913385826771
 31
0.0
  0
LINE
  5
19A
330
1E
100
AcDbEntity
  8
3
100
AcDbLine
 10
48.82185039370078
 20
31.67913385826771
 30
0.0
 11
48.86909448818897
 21
31.67913385826771
 31
0.0
  0
LINE
  5
19B
330
1E
100
AcDbEntity
  8
3
100
AcDbLine
 10
49.09350393700787
 20
31.49606299212598
 30
0.0
 11
49.15944881889764
 21
31.49606299212598
 31
0.0
  0
LINE
  5
19C
330
1E
100
AcDbEntity
  8
3
100
AcDbLine
 10
48.64960629921259
 20
31.61417322834645
 30
0.0
 11
48.67224409448819
 21
31.56200787401575
 31
0.0
  0
LINE
  5
19D
330
1E
100
AcDbEntity
  8
3
100
AcDbLine
 10
49.06102362204724
 20
31.67913385826771
 30
0.0
 11
49.12204724409448
 21
31.67913385826771
 31
0.0
  0
LINE
  5
19E
330
1E
100
AcDbEntity
  8
3
100
AcDbLine
 10
48.38090551181102
 20
31.49606299212598
 30
0.0
 11
48.38090551181102
 21
31.73523622047244
 31
0.0
  0
LINE
  5
19F
330
1E
100
AcDbEntity
  8
7
100
AcDbLine
 10
48.72244094488189
 20
28.43996062992125
 30
0.0
 11
48.79429133858267
 21
28.43996062992125
 31
0.0
  0
LINE
  5
1A0
330
1E
100
AcDbEntity
  8
7
100
AcDbLine
 10
49.24507874015748
 20
28.28641732283464
 30
0.0
 11
48.55708661417323
 21
28.28641732283464
 31
0.0
  0
LINE
  5
1A1
330
1E
100
AcDbEntity
  8
7
100
AcDbLine
 10
48.79429133858267
 20
28.43996062992125
 30
0.0
 11
48.81791338582677
 21
28.42913385826771
 31
0.0
  0
LINE
  5
1A2
330
1E
100
AcDbEntity
  8
7
100
AcDbLine
 10
48.79133858267716
 20
28.43011811023622
 30
0.0
 11
48.80807086614173
 21
28.42224409448819
 31
0.0
  0
LINE
  5
1A3
330
1E
100
AcDbEntity
  8
7
100
AcDbLine
 10
49.11515748031495
 20
28.43996062992125
 30
0.0
 11
49.19881889763779
 21
28.43996062992125
 31
0.0
  0
LINE
  5
1A4
330
1E
100
AcDbEntity
  8
7
100
AcDbLine
 10
49.24507874015748
 20
28.4753937007874
 30
0.0
 11
49.24507874015748
 21
28.28641732283464
 31
0.0
  0
LINE
  5
1A5
330
1E
100
AcDbEntity
  8
3
100
AcDbLine
 10
48.67421259842519
 20
31.67913385826771
 30
0.0
 11
48.72834645669291
 21
31.56003937007874
 31
0.0
  0
LINE
  5
1A6
330
1E
100
AcDbEntity
  8
7
100
AcDbLine
 10
48.6023622047244
 20
28.39173228346457
 30
0.0
 11
48.6023622047244
 21
28.43011811023622
 31
0.0
  0
LINE
  5
1A7
330
1E
100
AcDbEntity
  8
7
100
AcDbLine
 10
49.18503937007874
 20
28.32185039370078
 30
0.0
 11
49.20866141732282
 21
28.33267716535432
 31
0.0
  0
LINE
  5
1A8
330
1E
100
AcDbEntity
  8
7
100
AcDbLine
 10
48.82381889763779
 20
28.32185039370078
 30
0.0
 11
48.81299212598425
 21
28.32185039370078
 31
0.0
  0
LINE
  5
1A9
330
1E
100
AcDbEntity
  8
7
100
AcDbLine
 10
49.19881889763779
 20
28.38090551181102
 30
0.0
 11
49.18602362204724
 21
28.38779527559054
 31
0.0
  0
LINE
  5
1AA
330
1E
100
AcDbEntity
  8
7
100
AcDbLine
 10
48.66338582677165
 20
28.38090551181102
 30
0.0
 11
48.6023622047244
 21
28.38090551181102
 31
0.0
  0
LINE
  5
1AB
330
1E
100
AcDbEntity
  8
7
100
AcDbLine
 10
48.86811023622047
 20
28.33169291338582
 30
0.0
 11
48.92125984251968
 21
28.33169291338582
 31
0.0
  0
LINE
  5
1AC
330
1E
100
AcDbEntity
  8
7
100
AcDbLine
 10
48.94685039370078
 20
28.33267716535432
 30
0.0
 11
48.94685039370078
 21
28.38681102362204
 31
0.0
  0
LINE
  5
1AD
330
1E
100
AcDbEntity
  8
7
100
AcDbLine
 10
48.92421259842519
 20
28.39763779527558
 30
0.0
 11
48.87303149606299
 21
28.39763779527558
 31
0.0
  0
LINE
  5
1AE
330
1E
100
AcDbEntity
  8
3
100
AcDbLine
 10
49.12204724409448
 20
31.67913385826771
 30
0.0
 11
49.12204724409448
 21
31.54724409448819
 31
0.0
  0
LINE
  5
1AF
330
1E
100
AcDbEntity
  8
3
100
AcDbLine
 10
48.86909448818897
 20
31.49606299212598
 30
0.0
 11
48.81299212598425
 21
31.49606299212598
 31
0.0
  0
LINE
  5
1B0
330
1E
100
AcDbEntity
  8
3
100
AcDbLine
 10
48.48917322834645
 20
31.60925196850393
 30
0.0
 11
48.48917322834645
 21
31.69389763779527
 31
0.0
  0
LINE
  5
1B1
330
1E
100
AcDbEntity
  8
3
100
AcDbLine
 10
48.9507874015748
 20
31.53740157480314
 30
0.0
 11
48.96948818897637
 21
31.53740157480314
 31
0.0
  0
LINE
  5
1B2
330
1E
100
AcDbEntity
  8
3
100
AcDbLine
 10
48.72834645669291
 20
31.56003937007874
 30
0.0
 11
48.72834645669291
 21
31.67913385826771
 31
0.0
  0
LINE
  5
1B3
330
1E
100
AcDbEntity
  8
3
100
AcDbLine
 10
49.03248031496062
 20
31.64665354330708
 30
0.0
 11
49.03248031496062
 21
31.52854330708661
 31
0.0
  0
LINE
  5
1B4
330
1E
100
AcDbEntity
  8
7
100
AcDbLine
 10
48.34547244094488
 20
31.77066929133858
 30
0.0
 11
48.34547244094488
 21
31.46062992125984
 31
0.0
  0
LINE
  5
1B5
330
1E
100
AcDbEntity
  8
3
100
AcDbLine
 10
49.0
 20
31.49606299212598
 30
0.0
 11
48.89665354330708
 21
31.49606299212598
 31
0.0
  0
LINE
  5
1B6
330
1E
100
AcDbEntity
  8
3
100
AcDbLine
 10
48.72834645669291
 20
31.67913385826771
 30
0.0
 11
48.78937007874015
 21
31.67913385826771
 31
0.0
  0
LINE
  5
1B7
330
1E
100
AcDbEntity
  8
3
100
AcDbLine
 10
48.9507874015748
 20
31.64074803149606
 30
0.0
 11
48.96948818897637
 21
31.64074803149606
 31
0.0
  0
LINE
  5
1B8
330
1E
100
AcDbEntity
  8
7
100
AcDbLine
 10
49.12598425196851
 20
28.32185039370078
 30
0.0
 11
49.18503937007874
 21
28.32185039370078
 31
0.0
  0
LINE
  5
1B9
330
1E
100
AcDbEntity
  8
7
100
AcDbLine
 10
48.86515748031495
 20
28.43996062992125
 30
0.0
 11
48.92421259842519
 21
28.43996062992125
 31
0.0
  0
LINE
  5
1BA
330
1E
100
AcDbEntity
  8
7
100
AcDbLine
 10
48.99409448818897
 20
28.32185039370078
 30
0.0
 11
48.98425196850393
 21
28.32185039370078
 31
0.0
  0
LINE
  5
1BB
330
1E
100
AcDbEntity
  8
7
100
AcDbLine
 10
49.18602362204724
 20
28.39763779527558
 30
0.0
 11
49.125
 21
28.39763779527558
 31
0.0
  0
LINE
  5
1BC
330
1E
100
AcDbEntity
  8
3
100
AcDbLine
 10
49.22145669291339
 20
31.49606299212598
 30
0.0
 11
49.22145669291339
 21
31.67913385826771
 31
0.0
  0
LINE
  5
1BD
330
1E
100
AcDbEntity
  8
3
100
AcDbLine
 10
48.6259842519685
 20
31.67913385826771
 30
0.0
 11
48.67421259842519
 21
31.67913385826771
 31
0.0
  0
LINE
  5
1BE
330
1E
100
AcDbEntity
  8
7
100
AcDbLine
 10
48.92421259842519
 20
28.38779527559054
 30
0.0
 11
48.86811023622047
 21
28.38779527559054
 31
0.0
  0
LINE
  5
1BF
330
1E
100
AcDbEntity
  8
7
100
AcDbLine
 10
49.20866141732282
 20
28.33267716535432
 30
0.0
 11
49.20866141732282
 21
28.38681102362204
 31
0.0
  0
LINE
  5
1C0
330
1E
100
AcDbEntity
  8
7
100
AcDbLine
 10
49.12992125984252
 20
28.33169291338582
 30
0.0
 11
49.18307086614174
 21
28.33169291338582
 31
0.0
  0
LINE
  5
1C1
330
1E
100
AcDbEntity
  8
7
100
AcDbLine
 10
48.66043307086614
 20
28.39173228346457
 30
0.0
 11
48.6023622047244
 21
28.39173228346457
 31
0.0
  0
LINE
  5
1C2
330
1E
100
AcDbEntity
  8
7
100
AcDbLine
 10
48.85334645669291
 20
28.40452755905511
 30
0.0
 11
48.86811023622047
 21
28.38779527559054
 31
0.0
  0
LINE
  5
1C3
330
1E
100
AcDbEntity
  8
7
100
AcDbLine
 10
48.93700787401574
 20
28.38090551181102
 30
0.0
 11
48.92421259842519
 21
28.38779527559054
 31
0.0
  0
LINE
  5
1C4
330
1E
100
AcDbEntity
  8
7
100
AcDbLine
 10
48.85334645669291
 20
28.33366141732283
 30
0.0
 11
48.86122047244094
 21
28.33956692913385
 31
0.0
  0
LINE
  5
1C5
330
1E
100
AcDbEntity
  8
3
100
AcDbLine
 10
48.86909448818897
 20
31.67913385826771
 30
0.0
 11
48.86909448818897
 21
31.49606299212598
 31
0.0
  0
LINE
  5
1C6
330
1E
100
AcDbEntity
  8
3
100
AcDbLine
 10
49.42125984251968
 20
31.64173228346456
 30
0.0
 11
49.37893700787402
 21
31.64173228346456
 31
0.0
  0
LINE
  5
1C7
330
1E
100
AcDbEntity
  8
3
100
AcDbLine
 10
48.38090551181102
 20
31.73523622047244
 30
0.0
 11
48.54724409448818
 21
31.73523622047244
 31
0.0
  0
LINE
  5
1C8
330
1E
100
AcDbEntity
  8
3
100
AcDbLine
 10
48.77952755905511
 20
31.49606299212598
 30
0.0
 11
48.69783464566928
 21
31.49606299212598
 31
0.0
  0
LINE
  5
1C9
330
1E
100
AcDbEntity
  8
3
100
AcDbLine
 10
48.48917322834645
 20
31.49606299212598
 30
0.0
 11
48.38090551181102
 21
31.49606299212598
 31
0.0
  0
LINE
  5
1CA
330
1E
100
AcDbEntity
  8
3
100
AcDbLine
 10
48.97933070866141
 20
31.63188976377952
 30
0.0
 11
48.97933070866141
 21
31.54724409448819
 31
0.0
  0
LINE
  5
1CB
330
1E
100
AcDbEntity
  8
3
100
AcDbLine
 10
48.77952755905511
 20
31.57381889763779
 30
0.0
 11
48.81299212598425
 21
31.49606299212598
 31
0.0
  0
LINE
  5
1CC
330
1E
100
AcDbEntity
  8
7
100
AcDbLine
 10
48.82381889763779
 20
28.32185039370078
 30
0.0
 11
48.79921259842519
 21
28.38385826771653
 31
0.0
  0
LINE
  5
1CD
330
1E
100
AcDbEntity
  8
7
100
AcDbLine
 10
48.81791338582677
 20
28.39271653543307
 30
0.0
 11
48.79921259842519
 21
28.38385826771653
 31
0.0
  0
LINE
  5
1CE
330
1E
100
AcDbEntity
  8
7
100
AcDbLine
 10
48.99409448818897
 20
28.32185039370078
 30
0.0
 11
48.99409448818897
 21
28.38090551181102
 31
0.0
  0
LINE
  5
1CF
330
1E
100
AcDbEntity
  8
7
100
AcDbLine
 10
49.05314960629921
 20
28.43011811023622
 30
0.0
 11
49.06889763779528
 21
28.42224409448819
 31
0.0
  0
LINE
  5
1D0
330
1E
100
AcDbEntity
  8
7
100
AcDbLine
 10
49.07874015748031
 20
28.39271653543307
 30
0.0
 11
49.05511811023622
 21
28.38090551181102
 31
0.0
  0
LINE
  5
1D1
330
1E
100
AcDbEntity
  8
7
100
AcDbLine
 10
48.86417322834645
 20
28.32185039370078
 30
0.0
 11
48.92322834645669
 21
28.32185039370078
 31
0.0
  0
LINE
  5
1D2
330
1E
100
AcDbEntity
  8
7
100
AcDbLine
 10
48.85334645669291
 20
28.42814960629921
 30
0.0
 11
48.85334645669291
 21
28.40452755905511
 31
0.0
  0
LINE
  5
1D3
330
1E
100
AcDbEntity
  8
7
100
AcDbLine
 10
48.73228346456692
 20
28.32185039370078
 30
0.0
 11
48.73228346456692
 21
28.38090551181102
 31
0.0
  0
LINE
  5
1D4
330
1E
100
AcDbEntity
  8
7
100
AcDbLine
 10
49.19881889763779
 20
28.33858267716535
 30
0.0
 11
49.19881889763779
 21
28.38090551181102
 31
0.0
  0
LINE
  5
1D5
330
1E
100
AcDbEntity
  8
7
100
AcDbLine
 10
48.6771653543307
 20
28.39862204724409
 30
0.0
 11
48.66043307086614
 21
28.39173228346457
 31
0.0
  0
LINE
  5
1D6
330
1E
100
AcDbEntity
  8
7
100
AcDbLine
 10
49.05511811023622
 20
28.43996062992125
 30
0.0
 11
49.07874015748031
 21
28.42913385826771
 31
0.0
  0
LINE
  5
1D7
330
1E
100
AcDbEntity
  8
7
100
AcDbLine
 10
48.55708661417323
 20
28.28641732283464
 30
0.0
 11
48.55708661417323
 21
28.4753937007874
 31
0.0
  0
LINE
  5
1D8
330
1E
100
AcDbEntity
  8
7
100
AcDbLine
 10
48.92125984251968
 20
28.33169291338582
 30
0.0
 11
48.93700787401574
 21
28.33858267716535
 31
0.0
  0
LINE
  5
1D9
330
1E
100
AcDbEntity
  8
3
100
AcDbLine
 10
49.28444881889763
 20
31.67913385826771
 30
0.0
 11
49.42125984251968
 21
31.67913385826771
 31
0.0
  0
LINE
  5
1E5
330
1E
100
AcDbEntity
  8
3
100
AcDbLine
 10
48.52263779527558
 20
31.68208661417323
 30
0.0
 11
48.51968503937007
 21
31.68996062992126
 31
0.0
  0
LINE
  5
1E6
330
1E
100
AcDbEntity
  8
3
100
AcDbLine
 10
48.51968503937007
 20
31.68996062992126
 30
0.0
 11
48.51181102362204
 21
31.69291338582677
 31
0.0
  0
LINE
  5
224
330
1E
100
AcDbEntity
  8
7
100
AcDbLine
 10
48.93405511811024
 20
30.58070866141732
 30
0.0
 11
48.94783464566929
 21
30.56791338582677
 31
0.0
  0
LINE
  5
2CB
330
1E
100
AcDbEntity
  8
7
100
AcDbLine
 10
47.6505905511811
 20
29.06003937007874
 30
0.0
 11
47.6505905511811
 21
31.06003937007874
 31
0.0
  0
LINE
  5
2FC
330
1E
100
AcDbEntity
  8
7
100
AcDbLine
 10
50.1505905511811
 20
29.06003937007874
 30
0.0
 11
50.1505905511811
 21
31.06003937007874
 31
0.0
  0
LINE
  5
330
330
1E
100
AcDbEntity
  8
7
100
AcDbLine
 10
48.85433070866142
 20
30.56791338582677
 30
0.0
 11
48.85433070866142
 21
29.5511811023622
 31
0.0
  0
LINE
  5
331
330
1E
100
AcDbEntity
  8
7
100
AcDbLine
 10
48.86811023622047
 20
29.53838582677165
 30
0.0
 11
48.86811023622047
 21
30.58070866141732
 31
0.0
  0
LINE
  5
332
330
1E
100
AcDbEntity
  8
7
100
AcDbLine
 10
48.93405511811024
 20
30.58070866141732
 30
0.0
 11
48.93405511811024
 21
29.53838582677165
 31
0.0
  0
LINE
  5
333
330
1E
100
AcDbEntity
  8
7
100
AcDbLine
 10
48.94783464566929
 20
29.5511811023622
 30
0.0
 11
48.94783464566929
 21
30.56791338582677
 31
0.0
  0
LINE
  5
353
330
1E
100
AcDbEntity
  8
7
100
AcDbLine
 10
48.85334645669291
 20
30.56692913385826
 30
0.0
 11
48.85433070866142
 21
30.56791338582677
 31
0.0
  0
LINE
  5
354
330
1E
100
AcDbEntity
  8
7
100
AcDbLine
 10
48.9005905511811
 20
39.11614173228347
 30
0.0
 11
49.08858267716535
 21
39.11811023622047
 31
0.0
  0
LINE
  5
355
330
1E
100
AcDbEntity
  8
7
100
AcDbLine
 10
48.71358267716535
 20
39.11811023622047
 30
0.0
 11
48.9005905511811
 21
39.11614173228347
 31
0.0
  0
LINE
  5
356
330
1E
100
AcDbEntity
  8
7
100
AcDbLine
 10
48.66043307086614
 20
39.53937007874015
 30
0.0
 11
48.66043307086614
 21
39.47834645669291
 31
0.0
  0
LINE
  5
357
330
1E
100
AcDbEntity
  8
7
100
AcDbLine
 10
49.14074803149606
 20
39.47834645669291
 30
0.0
 11
49.14074803149606
 21
39.53937007874015
 31
0.0
  0
LINE
  5
358
330
1E
100
AcDbEntity
  8
7
100
AcDbLine
 10
49.126968503937
 20
39.55413385826771
 30
0.0
 11
48.9005905511811
 21
39.56791338582677
 31
0.0
  0
LINE
  5
359
330
1E
100
AcDbEntity
  8
7
100
AcDbLine
 10
48.9005905511811
 20
39.56791338582677
 30
0.0
 11
48.67519685039369
 21
39.55413385826771
 31
0.0
  0
LINE
  5
35A
330
1E
100
AcDbEntity
  8
7
100
AcDbLine
 10
49.61023622047243
 20
34.48129921259842
 30
0.0
 11
49.53248031496062
 21
38.93208661417323
 31
0.0
  0
LINE
  5
35B
330
1E
100
AcDbEntity
  8
7
100
AcDbLine
 10
48.26968503937007
 20
38.93011811023622
 30
0.0
 11
48.19192913385826
 21
34.48129921259842
 31
0.0
  0
LINE
  5
35C
330
1E
100
AcDbEntity
  8
7
100
AcDbLine
 10
48.66043307086614
 20
39.47834645669291
 30
0.0
 11
48.66043307086614
 21
39.47342519685039
 31
0.0
  0
LINE
  5
35D
330
1E
100
AcDbEntity
  8
7
100
AcDbLine
 10
49.14074803149606
 20
39.47342519685039
 30
0.0
 11
49.14074803149606
 21
39.47834645669291
 31
0.0
  0
LINE
  5
3C8
330
1E
100
AcDbEntity
  8
7
100
AcDbLine
 10
49.5265748031496
 20
38.91240157480314
 30
0.0
 11
49.5285433070866
 21
38.91240157480314
 31
0.0
  0
LINE
  5
3D6
330
1E
100
AcDbEntity
  8
7
100
AcDbLine
 10
49.51673228346456
 20
39.19586614173228
 30
0.0
 11
49.51968503937007
 21
39.02460629921259
 31
0.0
  0
LINE
  5
3F2
330
1E
100
AcDbEntity
  8
7
100
AcDbLine
 10
48.75984251968503
 20
38.88779527559055
 30
0.0
 11
48.7509842519685
 21
38.88582677165354
 31
0.0
  0
LINE
  5
3FC
330
1E
100
AcDbEntity
  8
7
100
AcDbLine
 10
48.28149606299212
 20
39.02460629921259
 30
0.0
 11
48.28543307086614
 21
39.19586614173228
 31
0.0
  0
LINE
  5
40B
330
1E
100
AcDbEntity
  8
7
100
AcDbLine
 10
48.27362204724408
 20
38.91240157480314
 30
0.0
 11
48.2755905511811
 21
38.91240157480314
 31
0.0
  0
LINE
  5
40C
330
1E
100
AcDbEntity
  8
7
100
AcDbLine
 10
48.71062992125984
 20
39.39271653543306
 30
0.0
 11
48.11318897637795
 21
39.39271653543306
 31
0.0
  0
LINE
  5
40D
330
1E
100
AcDbEntity
  8
7
100
AcDbLine
 10
49.68799212598425
 20
39.39271653543306
 30
0.0
 11
49.09055118110235
 21
39.39271653543306
 31
0.0
  0
LINE
  5
40E
330
1E
100
AcDbEntity
  8
7
100
AcDbLine
 10
48.86122047244094
 20
39.4242125984252
 30
0.0
 11
48.86122047244094
 21
39.44881889763779
 31
0.0
  0
LINE
  5
40F
330
1E
100
AcDbEntity
  8
7
100
AcDbLine
 10
48.94094488188976
 20
39.44881889763779
 30
0.0
 11
48.94094488188976
 21
39.4242125984252
 31
0.0
  0
LINE
  5
410
330
1E
100
AcDbEntity
  8
7
100
AcDbLine
 10
49.68799212598425
 20
39.38779527559054
 30
0.0
 11
49.68799212598425
 21
39.39271653543306
 31
0.0
  0
LINE
  5
419
330
1E
100
AcDbEntity
  8
7
100
AcDbLine
 10
48.11318897637795
 20
39.26082677165354
 30
0.0
 11
48.11318897637795
 21
39.33070866141731
 31
0.0
  0
LINE
  5
41A
330
1E
100
AcDbEntity
  8
7
100
AcDbLine
 10
48.11318897637795
 20
39.34153543307086
 30
0.0
 11
48.11318897637795
 21
39.33070866141731
 31
0.0
  0
LINE
  5
421
330
1E
100
AcDbEntity
  8
7
100
AcDbLine
 10
48.11318897637795
 20
39.39271653543306
 30
0.0
 11
48.11318897637795
 21
39.38779527559054
 31
0.0
  0
LINE
  5
422
330
1E
100
AcDbEntity
  8
7
100
AcDbLine
 10
48.71062992125984
 20
39.39271653543306
 30
0.0
 11
49.09055118110235
 21
39.39271653543306
 31
0.0
  0
LINE
  5
42B
330
1E
100
AcDbEntity
  8
7
100
AcDbLine
 10
48.20570866141732
 20
39.26968503937007
 30
0.0
 11
48.23818897637795
 21
39.26771653543307
 31
0.0
  0
LINE
  5
42C
330
1E
100
AcDbEntity
  8
7
100
AcDbLine
 10
49.56299212598425
 20
39.26771653543307
 30
0.0
 11
48.23818897637795
 21
39.26771653543307
 31
0.0
  0
LINE
  5
43B
330
1E
100
AcDbEntity
  8
7
100
AcDbLine
 10
49.08858267716535
 20
39.18996062992126
 30
0.0
 11
49.56299212598425
 21
39.19685039370078
 31
0.0
  0
LINE
  5
43C
330
1E
100
AcDbEntity
  8
7
100
AcDbLine
 10
48.23818897637795
 20
39.19685039370078
 30
0.0
 11
48.71358267716535
 21
39.18996062992126
 31
0.0
  0
LINE
  5
46F
330
1E
100
AcDbEntity
  8
7
100
AcDbLine
 10
49.0757874015748
 20
39.44783464566929
 30
0.0
 11
49.0757874015748
 21
39.40846456692913
 31
0.0
  0
LINE
  5
470
330
1E
100
AcDbEntity
  8
7
100
AcDbLine
 10
48.7253937007874
 20
39.40846456692913
 30
0.0
 11
48.7253937007874
 21
39.44783464566929
 31
0.0
  0
LINE
  5
47B
330
1E
100
AcDbEntity
  8
7
100
AcDbLine
 10
49.12598425196851
 20
39.46259842519684
 30
0.0
 11
49.12204724409448
 21
39.46259842519684
 31
0.0
  0
LINE
  5
4B2
330
1E
100
AcDbEntity
  8
7
100
AcDbLine
 10
48.11318897637795
 20
39.38779527559054
 30
0.0
 11
48.71062992125984
 21
39.39271653543306
 31
0.0
  0
LINE
  5
4B3
330
1E
100
AcDbEntity
  8
7
100
AcDbLine
 10
49.09055118110235
 20
39.39271653543306
 30
0.0
 11
49.68799212598425
 21
39.38779527559054
 31
0.0
  0
LINE
  5
4C6
330
1E
100
AcDbEntity
  8
7
100
AcDbLine
 10
48.77559055118109
 20
39.41732283464567
 30
0.0
 11
48.77559055118109
 21
39.39271653543306
 31
0.0
  0
LINE
  5
4C7
330
1E
100
AcDbEntity
  8
7
100
AcDbLine
 10
48.77559055118109
 20
39.41732283464567
 30
0.0
 11
48.77559055118109
 21
39.41929133858268
 31
0.0
  0
LINE
  5
4F3
330
1E
100
AcDbEntity
  8
7
100
AcDbLine
 10
47.6505905511811
 20
34.14271653543306
 30
0.0
 11
47.6505905511811
 21
34.23031496062991
 31
0.0
  0
LINE
  5
4F4
330
1E
100
AcDbEntity
  8
7
100
AcDbLine
 10
50.1505905511811
 20
34.23031496062991
 30
0.0
 11
50.1505905511811
 21
34.14271653543306
 31
0.0
  0
LINE
  5
529
330
1E
100
AcDbEntity
  8
7
100
AcDbLine
 10
48.9005905511811
 20
39.2273622047244
 30
0.0
 11
48.9005905511811
 21
39.20275590551181
 31
0.0
  0
LINE
  5
52A
330
1E
100
AcDbEntity
  8
7
100
AcDbLine
 10
48.9005905511811
 20
39.14173228346456
 30
0.0
 11
48.9005905511811
 21
39.13877952755905
 31
0.0
  0
LINE
  5
537
330
1E
100
AcDbEntity
  8
7
100
AcDbLine
 10
54.1515748031496
 20
27.81003937007874
 30
0.0
 11
54.26082677165354
 21
27.81003937007874
 31
0.0
  0
LINE
  5
538
330
1E
100
AcDbEntity
  8
7
100
AcDbLine
 10
54.26082677165354
 20
32.31003937007874
 30
0.0
 11
54.1515748031496
 21
32.31003937007874
 31
0.0
  0
LINE
  5
539
330
1E
100
AcDbEntity
  8
7
100
AcDbLine
 10
54.50590551181102
 20
29.3513779527559
 30
0.0
 11
58.92027559055118
 21
29.42814960629921
 31
0.0
  0
LINE
  5
53A
330
1E
100
AcDbEntity
  8
7
100
AcDbLine
 10
58.92027559055118
 20
30.69192913385826
 30
0.0
 11
54.50590551181102
 21
30.76870078740157
 31
0.0
  0
LINE
  5
53B
330
1E
100
AcDbEntity
  8
7
100
AcDbLine
 10
59.54724409448818
 20
31.16240157480314
 30
0.0
 11
59.41633858267716
 21
31.16240157480314
 31
0.0
  0
LINE
  5
53C
330
1E
100
AcDbEntity
  8
7
100
AcDbLine
 10
59.54232283464566
 20
29.41240157480315
 30
0.0
 11
59.41633858267716
 21
29.41240157480315
 31
0.0
  0
LINE
  5
53D
330
1E
100
AcDbEntity
  8
7
100
AcDbLine
 10
59.56200787401574
 20
30.69586614173228
 30
0.0
 11
59.5757874015748
 21
30.92224409448819
 31
0.0
  0
LINE
  5
53E
330
1E
100
AcDbEntity
  8
7
100
AcDbLine
 10
59.5757874015748
 20
30.92224409448819
 30
0.0
 11
59.56200787401574
 21
31.14862204724409
 31
0.0
  0
LINE
  5
544
330
1E
100
AcDbEntity
  8
7
100
AcDbLine
 10
59.41633858267716
 20
30.74704724409448
 30
0.0
 11
59.45669291338582
 21
30.74704724409448
 31
0.0
  0
LINE
  5
545
330
1E
100
AcDbEntity
  8
7
100
AcDbLine
 10
59.41633858267716
 20
28.99704724409449
 30
0.0
 11
59.4507874015748
 21
28.99704724409449
 31
0.0
  0
LINE
  5
546
330
1E
100
AcDbEntity
  8
7
100
AcDbLine
 10
59.4251968503937
 20
31.46062992125984
 30
0.0
 11
59.4015748031496
 21
31.46751968503937
 31
0.0
  0
LINE
  5
560
330
1E
100
AcDbEntity
  8
7
100
AcDbLine
 10
59.46653543307085
 20
28.94685039370078
 30
0.0
 11
59.47047244094488
 21
28.93602362204724
 31
0.0
  0
LINE
  5
561
330
1E
100
AcDbEntity
  8
7
100
AcDbLine
 10
59.47047244094488
 20
28.93602362204724
 30
0.0
 11
59.48129921259842
 21
28.93208661417323
 31
0.0
  0
LINE
  5
5B4
330
1E
100
AcDbEntity
  8
7
100
AcDbLine
 10
54.1515748031496
 20
32.30511811023622
 30
0.0
 11
54.1515748031496
 21
32.31003937007874
 31
0.0
  0
LINE
  5
5B5
330
1E
100
AcDbEntity
  8
7
100
AcDbLine
 10
59.05807086614173
 20
30.09940944881889
 30
0.0
 11
59.25
 21
30.09940944881889
 31
0.0
  0
LINE
  5
5C1
330
1E
100
AcDbEntity
  8
7
100
AcDbLine
 10
58.92125984251968
 20
30.1496062992126
 30
0.0
 11
58.92125984251968
 21
30.13385826771653
 31
0.0
  0
LINE
  5
5CC
330
1E
100
AcDbEntity
  8
7
100
AcDbLine
 10
59.25
 20
30.1761811023622
 30
0.0
 11
59.03248031496062
 21
30.1761811023622
 31
0.0
  0
LINE
  5
5D3
330
1E
100
AcDbEntity
  8
7
100
AcDbLine
 10
58.96850393700787
 20
30.66240157480315
 30
0.0
 11
59.06299212598425
 21
30.66043307086614
 31
0.0
  0
LINE
  5
5E5
330
1E
100
AcDbEntity
  8
7
100
AcDbLine
 10
58.91929133858267
 20
30.68996062992126
 30
0.0
 11
58.92027559055118
 21
30.69192913385826
 31
0.0
  0
LINE
  5
5E6
330
1E
100
AcDbEntity
  8
7
100
AcDbLine
 10
58.92027559055118
 20
29.42814960629921
 30
0.0
 11
58.91929133858267
 21
29.42913385826771
 31
0.0
  0
LINE
  5
5F6
330
1E
100
AcDbEntity
  8
7
100
AcDbLine
 10
59.06299212598425
 20
29.45866141732283
 30
0.0
 11
58.96850393700787
 21
29.45767716535433
 31
0.0
  0
LINE
  5
5FE
330
1E
100
AcDbEntity
  8
7
100
AcDbLine
 10
59.03248031496062
 20
29.94291338582677
 30
0.0
 11
59.25
 21
29.94291338582677
 31
0.0
  0
LINE
  5
60D
330
1E
100
AcDbEntity
  8
7
100
AcDbLine
 10
58.92125984251968
 20
29.98523622047244
 30
0.0
 11
58.92125984251968
 21
29.96948818897637
 31
0.0
  0
LINE
  5
618
330
1E
100
AcDbEntity
  8
7
100
AcDbLine
 10
59.25
 20
30.01968503937007
 30
0.0
 11
59.05807086614173
 21
30.01968503937007
 31
0.0
  0
LINE
  5
634
330
1E
100
AcDbEntity
  8
7
100
AcDbLine
 10
59.30807086614173
 20
31.07086614173228
 30
0.0
 11
59.30807086614173
 21
31.07185039370078
 31
0.0
  0
LINE
  5
635
330
1E
100
AcDbEntity
  8
7
100
AcDbLine
 10
59.4015748031496
 20
28.37204724409449
 30
0.0
 11
59.4015748031496
 21
29.24311023622047
 31
0.0
  0
LINE
  5
636
330
1E
100
AcDbEntity
  8
7
100
AcDbLine
 10
59.4015748031496
 20
29.26181102362204
 30
0.0
 11
59.4015748031496
 21
29.42716535433071
 31
0.0
  0
LINE
  5
637
330
1E
100
AcDbEntity
  8
7
100
AcDbLine
 10
59.4015748031496
 20
30.73228346456692
 30
0.0
 11
59.4015748031496
 21
30.99311023622047
 31
0.0
  0
LINE
  5
638
330
1E
100
AcDbEntity
  8
7
100
AcDbLine
 10
59.4015748031496
 20
29.42716535433071
 30
0.0
 11
59.4015748031496
 21
30.73228346456692
 31
0.0
  0
LINE
  5
639
330
1E
100
AcDbEntity
  8
7
100
AcDbLine
 10
59.41633858267716
 20
31.07185039370078
 30
0.0
 11
59.45669291338582
 21
31.07185039370078
 31
0.0
  0
LINE
  5
63A
330
1E
100
AcDbEntity
  8
7
100
AcDbLine
 10
59.41633858267716
 20
29.32185039370078
 30
0.0
 11
59.4507874015748
 21
29.32185039370078
 31
0.0
  0
LINE
  5
63B
330
1E
100
AcDbEntity
  8
7
100
AcDbLine
 10
59.39763779527559
 20
28.37204724409449
 30
0.0
 11
59.4015748031496
 21
28.37204724409449
 31
0.0
  0
LINE
  5
63C
330
1E
100
AcDbEntity
  8
7
100
AcDbLine
 10
59.39763779527559
 20
28.37204724409449
 30
0.0
 11
59.31299212598425
 21
28.37204724409449
 31
0.0
  0
LINE
  5
63D
330
1E
100
AcDbEntity
  8
7
100
AcDbLine
 10
59.30708661417323
 20
28.37204724409449
 30
0.0
 11
59.31299212598425
 21
28.37204724409449
 31
0.0
  0
LINE
  5
644
330
1E
100
AcDbEntity
  8
7
100
AcDbLine
 10
59.31397637795275
 20
28.49704724409448
 30
0.0
 11
59.31397637795275
 21
31.67027559055117
 31
0.0
  0
LINE
  5
645
330
1E
100
AcDbEntity
  8
7
100
AcDbLine
 10
59.39566929133857
 20
29.42716535433071
 30
0.0
 11
59.39566929133857
 21
28.49704724409448
 31
0.0
  0
LINE
  5
646
330
1E
100
AcDbEntity
  8
7
100
AcDbLine
 10
59.4015748031496
 20
29.42716535433071
 30
0.0
 11
59.39566929133857
 21
29.42716535433071
 31
0.0
  0
LINE
  5
647
330
1E
100
AcDbEntity
  8
7
100
AcDbLine
 10
59.39566929133857
 20
30.73228346456692
 30
0.0
 11
59.4015748031496
 21
30.73228346456692
 31
0.0
  0
LINE
  5
648
330
1E
100
AcDbEntity
  8
7
100
AcDbLine
 10
59.39566929133857
 20
31.66437007874015
 30
0.0
 11
59.39566929133857
 21
30.73228346456692
 31
0.0
  0
LINE
  5
650
330
1E
100
AcDbEntity
  8
7
100
AcDbLine
 10
59.26968503937008
 20
31.81594488188976
 30
0.0
 11
59.28051181102361
 21
31.79527559055117
 31
0.0
  0
LINE
  5
651
330
1E
100
AcDbEntity
  8
7
100
AcDbLine
 10
59.31397637795275
 20
30.1751968503937
 30
0.0
 11
59.31299212598425
 21
30.1761811023622
 31
0.0
  0
LINE
  5
667
330
1E
100
AcDbEntity
  8
7
100
AcDbLine
 10
59.31397637795275
 20
30.01870078740157
 30
0.0
 11
59.31397637795275
 21
30.01968503937007
 31
0.0
  0
LINE
  5
67D
330
1E
100
AcDbEntity
  8
7
100
AcDbLine
 10
59.31299212598425
 20
29.94389763779527
 30
0.0
 11
59.31397637795275
 21
29.94488188976378
 31
0.0
  0
LINE
  5
67E
330
1E
100
AcDbEntity
  8
7
100
AcDbLine
 10
59.30905511811023
 20
29.13779527559055
 30
0.0
 11
59.30905511811023
 21
29.2273622047244
 31
0.0
  0
LINE
  5
688
330
1E
100
AcDbEntity
  8
7
100
AcDbLine
 10
59.30807086614173
 20
29.04822834645669
 30
0.0
 11
59.30905511811023
 21
29.0511811023622
 31
0.0
  0
LINE
  5
689
330
1E
100
AcDbEntity
  8
7
100
AcDbLine
 10
59.30807086614173
 20
29.04625984251968
 30
0.0
 11
59.30807086614173
 21
29.04822834645669
 31
0.0
  0
LINE
  5
68A
330
1E
100
AcDbEntity
  8
7
100
AcDbLine
 10
59.30708661417323
 20
29.04724409448819
 30
0.0
 11
59.30807086614173
 21
29.04625984251968
 31
0.0
  0
LINE
  5
68B
330
1E
100
AcDbEntity
  8
7
100
AcDbLine
 10
59.30708661417323
 20
29.04724409448819
 30
0.0
 11
59.30708661417323
 21
28.37204724409449
 31
0.0
  0
LINE
  5
695
330
1E
100
AcDbEntity
  8
7
100
AcDbLine
 10
59.30708661417323
 20
31.65551181102362
 30
0.0
 11
59.30708661417323
 21
31.07185039370078
 31
0.0
  0
LINE
  5
696
330
1E
100
AcDbEntity
  8
7
100
AcDbLine
 10
59.30807086614173
 20
31.07283464566929
 30
0.0
 11
59.30708661417323
 21
31.07185039370078
 31
0.0
  0
LINE
  5
697
330
1E
100
AcDbEntity
  8
7
100
AcDbLine
 10
59.30807086614173
 20
31.07185039370078
 30
0.0
 11
59.30807086614173
 21
31.07283464566929
 31
0.0
  0
LINE
  5
698
330
1E
100
AcDbEntity
  8
7
100
AcDbLine
 10
59.30905511811023
 20
31.06889763779527
 30
0.0
 11
59.30807086614173
 21
31.07086614173228
 31
0.0
  0
LINE
  5
6A1
330
1E
100
AcDbEntity
  8
7
100
AcDbLine
 10
59.30905511811023
 20
30.89271653543307
 30
0.0
 11
59.30905511811023
 21
30.98129921259842
 31
0.0
  0
LINE
  5
6A2
330
1E
100
AcDbEntity
  8
7
100
AcDbLine
 10
59.4015748031496
 20
31.01181102362204
 30
0.0
 11
59.4015748031496
 21
31.65551181102362
 31
0.0
  0
LINE
  5
6B8
330
1E
100
AcDbEntity
  8
7
100
AcDbLine
 10
59.3503937007874
 20
31.83562992125984
 30
0.0
 11
59.35531496062992
 21
31.8267716535433
 31
0.0
  0
LINE
  5
6F2
330
1E
100
AcDbEntity
  8
7
100
AcDbLine
 10
59.18011811023622
 20
31.84940944881889
 30
0.0
 11
59.27066929133857
 21
31.78543307086614
 31
0.0
  0
LINE
  5
6F3
330
1E
100
AcDbEntity
  8
7
100
AcDbLine
 10
59.18011811023622
 20
31.8503937007874
 30
0.0
 11
59.18011811023622
 21
31.84940944881889
 31
0.0
  0
LINE
  5
6F4
330
1E
100
AcDbEntity
  8
7
100
AcDbLine
 10
59.27066929133857
 20
31.78543307086614
 30
0.0
 11
59.27165354330708
 21
31.78641732283464
 31
0.0
  0
LINE
  5
6F5
330
1E
100
AcDbEntity
  8
7
100
AcDbLine
 10
59.31299212598425
 20
29.94389763779527
 30
0.0
 11
59.31003937007874
 21
29.94389763779527
 31
0.0
  0
LINE
  5
6FD
330
1E
100
AcDbEntity
  8
7
100
AcDbLine
 10
59.27066929133857
 20
31.78543307086614
 30
0.0
 11
59.27362204724409
 21
31.78051181102362
 31
0.0
  0
LINE
  5
6FE
330
1E
100
AcDbEntity
  8
7
100
AcDbLine
 10
59.19685039370079
 20
31.92027559055118
 30
0.0
 11
59.19586614173228
 21
31.91732283464566
 31
0.0
  0
LINE
  5
714
330
1E
100
AcDbEntity
  8
7
100
AcDbLine
 10
59.54133858267717
 20
28.98622047244094
 30
0.0
 11
59.48228346456692
 21
28.98622047244094
 31
0.0
  0
LINE
  5
73B
330
1E
100
AcDbEntity
  8
7
100
AcDbLine
 10
59.54625984251968
 20
30.73622047244094
 30
0.0
 11
59.48720472440944
 21
30.73622047244094
 31
0.0
  0
LINE
  5
753
330
1E
100
AcDbEntity
  8
7
100
AcDbLine
 10
59.4015748031496
 20
29.24311023622047
 30
0.0
 11
59.4015748031496
 21
29.26181102362204
 31
0.0
  0
LINE
  5
76A
330
1E
100
AcDbEntity
  8
7
100
AcDbLine
 10
59.4015748031496
 20
30.99311023622047
 30
0.0
 11
59.4015748031496
 21
31.01181102362204
 31
0.0
  0
LINE
  5
770
330
1E
100
AcDbEntity
  8
7
100
AcDbLine
 10
59.45669291338582
 20
31.07283464566929
 30
0.0
 11
59.46751968503936
 21
31.0767716535433
 31
0.0
  0
LINE
  5
771
330
1E
100
AcDbEntity
  8
7
100
AcDbLine
 10
59.46751968503936
 20
31.0767716535433
 30
0.0
 11
59.47145669291337
 21
31.08759842519685
 31
0.0
  0
LINE
  5
772
330
1E
100
AcDbEntity
  8
7
100
AcDbLine
 10
59.54724409448818
 20
30.61220472440945
 30
0.0
 11
59.48622047244094
 21
30.61220472440945
 31
0.0
  0
LINE
  5
773
330
1E
100
AcDbEntity
  8
7
100
AcDbLine
 10
59.54724409448818
 20
30.61220472440945
 30
0.0
 11
59.54724409448818
 21
30.68208661417322
 31
0.0
  0
LINE
  5
774
330
1E
100
AcDbEntity
  8
7
100
AcDbLine
 10
59.48622047244094
 20
30.68208661417322
 30
0.0
 11
59.48622047244094
 21
30.61220472440945
 31
0.0
  0
LINE
  5
781
330
1E
100
AcDbEntity
  8
7
100
AcDbLine
 10
59.54232283464566
 20
28.86220472440944
 30
0.0
 11
59.48129921259842
 21
28.86220472440944
 31
0.0
  0
LINE
  5
782
330
1E
100
AcDbEntity
  8
7
100
AcDbLine
 10
59.54232283464566
 20
28.86220472440944
 30
0.0
 11
59.54232283464566
 21
28.93208661417323
 31
0.0
  0
LINE
  5
783
330
1E
100
AcDbEntity
  8
7
100
AcDbLine
 10
59.48129921259842
 20
28.93208661417323
 30
0.0
 11
59.48129921259842
 21
28.86220472440944
 31
0.0
  0
LINE
  5
7C0
330
1E
100
AcDbEntity
  8
7
100
AcDbLine
 10
59.30807086614173
 20
31.07283464566929
 30
0.0
 11
59.30708661417323
 21
31.07185039370078
 31
0.0
  0
LINE
  5
7C9
330
1E
100
AcDbEntity
  8
7
100
AcDbLine
 10
59.25590551181102
 20
30.98720472440945
 30
0.0
 11
59.30807086614173
 21
31.06889763779527
 31
0.0
  0
LINE
  5
7CA
330
1E
100
AcDbEntity
  8
7
100
AcDbLine
 10
59.30807086614173
 20
31.06889763779527
 30
0.0
 11
59.30807086614173
 21
31.07086614173228
 31
0.0
  0
LINE
  5
7CB
330
1E
100
AcDbEntity
  8
7
100
AcDbLine
 10
58.91929133858267
 20
30.68996062992126
 30
0.0
 11
58.92027559055118
 21
30.69192913385826
 31
0.0
  0
LINE
  5
7CC
330
1E
100
AcDbEntity
  8
7
100
AcDbLine
 10
59.30807086614173
 20
31.06889763779527
 30
0.0
 11
59.30905511811023
 21
31.06889763779527
 31
0.0
  0
LINE
  5
7CD
330
1E
100
AcDbEntity
  8
7
100
AcDbLine
 10
59.05610236220472
 20
30.68799212598425
 30
0.0
 11
59.13779527559055
 21
30.751968503937
 31
0.0
  0
LINE
  5
7E3
330
1E
100
AcDbEntity
  8
7
100
AcDbLine
 10
59.05314960629922
 20
30.68602362204724
 30
0.0
 11
59.05610236220472
 21
30.68799212598425
 31
0.0
  0
LINE
  5
7EF
330
1E
100
AcDbEntity
  8
7
100
AcDbLine
 10
59.30807086614173
 20
29.04724409448819
 30
0.0
 11
59.30708661417323
 21
29.04724409448819
 31
0.0
  0
LINE
  5
7F0
330
1E
100
AcDbEntity
  8
7
100
AcDbLine
 10
59.30807086614173
 20
29.0501968503937
 30
0.0
 11
59.30807086614173
 21
29.04822834645669
 31
0.0
  0
LINE
  5
7FA
330
1E
100
AcDbEntity
  8
7
100
AcDbLine
 10
58.91929133858267
 20
29.42913385826771
 30
0.0
 11
58.92027559055118
 21
29.42814960629921
 31
0.0
  0
LINE
  5
7FB
330
1E
100
AcDbEntity
  8
7
100
AcDbLine
 10
59.30905511811023
 20
29.0511811023622
 30
0.0
 11
59.30807086614173
 21
29.0501968503937
 31
0.0
  0
LINE
  5
834
330
1E
100
AcDbEntity
  8
7
100
AcDbLine
 10
59.22637795275591
 20
30.1751968503937
 30
0.0
 11
59.31397637795275
 21
30.1751968503937
 31
0.0
  0
LINE
  5
83C
330
1E
100
AcDbEntity
  8
7
100
AcDbLine
 10
54.23917322834645
 20
29.06003937007874
 30
0.0
 11
54.23917322834645
 21
31.06003937007874
 31
0.0
  0
LINE
  5
856
330
1E
100
AcDbEntity
  8
7
100
AcDbLine
 10
54.23917322834645
 20
28.96161417322834
 30
0.0
 11
54.23917322834645
 21
29.06003937007874
 31
0.0
  0
LINE
  5
871
330
1E
100
AcDbEntity
  8
7
100
AcDbLine
 10
54.26082677165354
 20
29.1013779527559
 30
0.0
 11
54.26082677165354
 21
27.81003937007874
 31
0.0
  0
LINE
  5
890
330
1E
100
AcDbEntity
  8
7
100
AcDbLine
 10
54.26082677165354
 20
32.31003937007874
 30
0.0
 11
54.26082677165354
 21
31.01870078740157
 31
0.0
  0
LINE
  5
8AB
330
1E
100
AcDbEntity
  8
7
100
AcDbLine
 10
59.12992125984252
 20
31.93602362204724
 30
0.0
 11
59.18011811023622
 21
31.84940944881889
 31
0.0
  0
LINE
  5
8AC
330
1E
100
AcDbEntity
  8
7
100
AcDbLine
 10
59.23523622047244
 20
31.93996062992126
 30
0.0
 11
59.21161417322834
 21
31.98228346456692
 31
0.0
  0
LINE
  5
8AD
330
1E
100
AcDbEntity
  8
7
100
AcDbLine
 10
59.14960629921259
 20
31.99901574803149
 30
0.0
 11
59.14665354330708
 21
31.99704724409448
 31
0.0
  0
LINE
  5
8BB
330
1E
100
AcDbEntity
  8
7
100
AcDbLine
 10
59.12401574803149
 20
31.9527559055118
 30
0.0
 11
59.12992125984252
 21
31.93602362204724
 31
0.0
  0
LINE
  5
8BF
330
1E
100
AcDbEntity
  8
7
100
AcDbLine
 10
59.14665354330708
 20
31.99704724409448
 30
0.0
 11
59.13385826771653
 21
31.98523622047244
 31
0.0
  0
LINE
  5
8C0
330
1E
100
AcDbEntity
  8
7
100
AcDbLine
 10
59.13385826771653
 20
31.98523622047244
 30
0.0
 11
59.12598425196851
 21
31.96948818897638
 31
0.0
  0
LINE
  5
8C1
330
1E
100
AcDbEntity
  8
7
100
AcDbLine
 10
59.12598425196851
 20
31.96948818897638
 30
0.0
 11
59.12401574803149
 21
31.9527559055118
 31
0.0
  0
LINE
  5
8C2
330
1E
100
AcDbEntity
  8
7
100
AcDbLine
 10
59.21161417322834
 20
31.98228346456692
 30
0.0
 11
59.19980314960629
 21
31.99606299212598
 31
0.0
  0
LINE
  5
8C3
330
1E
100
AcDbEntity
  8
7
100
AcDbLine
 10
59.19980314960629
 20
31.99606299212598
 30
0.0
 11
59.18405511811023
 21
32.00393700787401
 31
0.0
  0
LINE
  5
8C4
330
1E
100
AcDbEntity
  8
7
100
AcDbLine
 10
59.18405511811023
 20
32.00393700787401
 30
0.0
 11
59.16633858267716
 21
32.00492125984252
 31
0.0
  0
LINE
  5
8C5
330
1E
100
AcDbEntity
  8
7
100
AcDbLine
 10
59.16633858267716
 20
32.00492125984252
 30
0.0
 11
59.14960629921259
 21
31.99901574803149
 31
0.0
  0
LINE
  5
8C6
330
1E
100
AcDbEntity
  8
7
100
AcDbLine
 10
54.50590551181102
 20
30.76870078740157
 30
0.0
 11
54.50295275590551
 21
30.76870078740157
 31
0.0
  0
LINE
  5
8C7
330
1E
100
AcDbEntity
  8
7
100
AcDbLine
 10
54.50295275590551
 20
30.76870078740157
 30
0.0
 11
54.45570866141732
 21
30.7746062992126
 31
0.0
  0
LINE
  5
8C8
330
1E
100
AcDbEntity
  8
7
100
AcDbLine
 10
54.45570866141732
 20
30.7746062992126
 30
0.0
 11
54.41535433070866
 21
30.78740157480314
 31
0.0
  0
LINE
  5
8C9
330
1E
100
AcDbEntity
  8
7
100
AcDbLine
 10
54.41535433070866
 20
30.78740157480314
 30
0.0
 11
54.37795275590551
 21
30.80610236220472
 31
0.0
  0
LINE
  5
8CA
330
1E
100
AcDbEntity
  8
7
100
AcDbLine
 10
54.37795275590551
 20
30.80610236220472
 30
0.0
 11
54.34448818897637
 21
30.83169291338582
 31
0.0
  0
LINE
  5
8CB
330
1E
100
AcDbEntity
  8
7
100
AcDbLine
 10
54.34448818897637
 20
30.83169291338582
 30
0.0
 11
54.31496062992126
 21
30.86220472440944
 31
0.0
  0
LINE
  5
8CC
330
1E
100
AcDbEntity
  8
7
100
AcDbLine
 10
54.31496062992126
 20
30.86220472440944
 30
0.0
 11
54.29232283464567
 21
30.89763779527558
 31
0.0
  0
LINE
  5
8CD
330
1E
100
AcDbEntity
  8
7
100
AcDbLine
 10
54.29232283464567
 20
30.89763779527558
 30
0.0
 11
54.27460629921259
 21
30.93602362204724
 31
0.0
  0
LINE
  5
8CE
330
1E
100
AcDbEntity
  8
7
100
AcDbLine
 10
54.27460629921259
 20
30.93602362204724
 30
0.0
 11
54.26377952755905
 21
30.9763779527559
 31
0.0
  0
LINE
  5
8CF
330
1E
100
AcDbEntity
  8
7
100
AcDbLine
 10
54.26377952755905
 20
30.9763779527559
 30
0.0
 11
54.26082677165354
 21
31.01870078740157
 31
0.0
  0
LINE
  5
8D0
330
1E
100
AcDbEntity
  8
7
100
AcDbLine
 10
54.26082677165354
 20
29.1013779527559
 30
0.0
 11
54.26377952755905
 21
29.14271653543307
 31
0.0
  0
LINE
  5
8D1
330
1E
100
AcDbEntity
  8
7
100
AcDbLine
 10
54.26377952755905
 20
29.14271653543307
 30
0.0
 11
54.27460629921259
 21
29.18405511811023
 31
0.0
  0
LINE
  5
8D2
330
1E
100
AcDbEntity
  8
7
100
AcDbLine
 10
54.27460629921259
 20
29.18405511811023
 30
0.0
 11
54.29232283464567
 21
29.22244094488188
 31
0.0
  0
LINE
  5
8D3
330
1E
100
AcDbEntity
  8
7
100
AcDbLine
 10
54.29232283464567
 20
29.22244094488188
 30
0.0
 11
54.31496062992126
 21
29.25688976377952
 31
0.0
  0
LINE
  5
8D4
330
1E
100
AcDbEntity
  8
7
100
AcDbLine
 10
54.31496062992126
 20
29.25688976377952
 30
0.0
 11
54.34448818897637
 21
29.28740157480314
 31
0.0
  0
LINE
  5
8D5
330
1E
100
AcDbEntity
  8
7
100
AcDbLine
 10
54.34448818897637
 20
29.28740157480314
 30
0.0
 11
54.37795275590551
 21
29.31299212598425
 31
0.0
  0
LINE
  5
8D6
330
1E
100
AcDbEntity
  8
7
100
AcDbLine
 10
54.37795275590551
 20
29.31299212598425
 30
0.0
 11
54.41535433070866
 21
29.33169291338582
 31
0.0
  0
LINE
  5
8D7
330
1E
100
AcDbEntity
  8
7
100
AcDbLine
 10
54.41535433070866
 20
29.33169291338582
 30
0.0
 11
54.45570866141732
 21
29.34448818897637
 31
0.0
  0
LINE
  5
8D8
330
1E
100
AcDbEntity
  8
7
100
AcDbLine
 10
54.45570866141732
 20
29.34448818897637
 30
0.0
 11
54.50295275590551
 21
29.3513779527559
 31
0.0
  0
LINE
  5
8D9
330
1E
100
AcDbEntity
  8
7
100
AcDbLine
 10
54.50295275590551
 20
29.3513779527559
 30
0.0
 11
54.50590551181102
 21
29.3513779527559
 31
0.0
  0
LINE
  5
8DA
330
1E
100
AcDbEntity
  8
7
100
AcDbLine
 10
54.24704724409449
 20
29.49803149606299
 30
0.0
 11
54.24606299212598
 21
29.57185039370078
 31
0.0
  0
LINE
  5
8DB
330
1E
100
AcDbEntity
  8
7
100
AcDbLine
 10
54.24606299212598
 20
29.57185039370078
 30
0.0
 11
54.24606299212598
 21
29.64862204724409
 31
0.0
  0
LINE
  5
8DC
330
1E
100
AcDbEntity
  8
7
100
AcDbLine
 10
54.24606299212598
 20
29.64862204724409
 30
0.0
 11
54.24507874015748
 21
29.72933070866141
 31
0.0
  0
LINE
  5
8DD
330
1E
100
AcDbEntity
  8
7
100
AcDbLine
 10
54.24507874015748
 20
29.72933070866141
 30
0.0
 11
54.24409448818898
 21
29.81299212598425
 31
0.0
  0
LINE
  5
8DE
330
1E
100
AcDbEntity
  8
7
100
AcDbLine
 10
54.24409448818898
 20
29.81299212598425
 30
0.0
 11
54.24409448818898
 21
29.89862204724409
 31
0.0
  0
LINE
  5
8DF
330
1E
100
AcDbEntity
  8
7
100
AcDbLine
 10
54.24409448818898
 20
29.89862204724409
 30
0.0
 11
54.24409448818898
 21
29.98523622047244
 31
0.0
  0
LINE
  5
8E0
330
1E
100
AcDbEntity
  8
7
100
AcDbLine
 10
54.24409448818898
 20
29.98523622047244
 30
0.0
 11
54.24409448818898
 21
30.07185039370078
 31
0.0
  0
LINE
  5
8E1
330
1E
100
AcDbEntity
  8
7
100
AcDbLine
 10
54.24409448818898
 20
30.07185039370078
 30
0.0
 11
54.24409448818898
 21
30.15944881889764
 31
0.0
  0
LINE
  5
8E2
330
1E
100
AcDbEntity
  8
7
100
AcDbLine
 10
54.24409448818898
 20
30.15944881889764
 30
0.0
 11
54.24409448818898
 21
30.24606299212598
 31
0.0
  0
LINE
  5
8E3
330
1E
100
AcDbEntity
  8
7
100
AcDbLine
 10
54.24409448818898
 20
30.24606299212598
 30
0.0
 11
54.24507874015748
 21
30.33070866141732
 31
0.0
  0
LINE
  5
8E4
330
1E
100
AcDbEntity
  8
7
100
AcDbLine
 10
54.24507874015748
 20
30.33070866141732
 30
0.0
 11
54.24507874015748
 21
30.41338582677165
 31
0.0
  0
LINE
  5
8E5
330
1E
100
AcDbEntity
  8
7
100
AcDbLine
 10
54.24507874015748
 20
30.41338582677165
 30
0.0
 11
54.24606299212598
 21
30.49311023622047
 31
0.0
  0
LINE
  5
8E6
330
1E
100
AcDbEntity
  8
7
100
AcDbLine
 10
54.24606299212598
 20
30.49311023622047
 30
0.0
 11
54.24606299212598
 21
30.56889763779527
 31
0.0
  0
LINE
  5
8E7
330
1E
100
AcDbEntity
  8
7
100
AcDbLine
 10
54.24606299212598
 20
30.56889763779527
 30
0.0
 11
54.24704724409449
 21
30.64074803149606
 31
0.0
  0
LINE
  5
8E8
330
1E
100
AcDbEntity
  8
7
100
AcDbLine
 10
54.24704724409449
 20
30.64074803149606
 30
0.0
 11
54.24803149606299
 21
30.70866141732283
 31
0.0
  0
LINE
  5
8E9
330
1E
100
AcDbEntity
  8
7
100
AcDbLine
 10
54.24803149606299
 20
30.70866141732283
 30
0.0
 11
54.2490157480315
 21
30.76968503937008
 31
0.0
  0
LINE
  5
8EA
330
1E
100
AcDbEntity
  8
7
100
AcDbLine
 10
54.2490157480315
 20
30.76968503937008
 30
0.0
 11
54.2509842519685
 21
30.8257874015748
 31
0.0
  0
LINE
  5
8EB
330
1E
100
AcDbEntity
  8
7
100
AcDbLine
 10
54.2509842519685
 20
30.8257874015748
 30
0.0
 11
54.251968503937
 21
30.875
 31
0.0
  0
LINE
  5
8EC
330
1E
100
AcDbEntity
  8
7
100
AcDbLine
 10
54.25393700787402
 20
29.1761811023622
 30
0.0
 11
54.25295275590551
 21
29.21358267716535
 31
0.0
  0
LINE
  5
8ED
330
1E
100
AcDbEntity
  8
7
100
AcDbLine
 10
54.25295275590551
 20
29.21358267716535
 30
0.0
 11
54.251968503937
 21
29.25787401574803
 31
0.0
  0
LINE
  5
8EE
330
1E
100
AcDbEntity
  8
7
100
AcDbLine
 10
54.251968503937
 20
29.25787401574803
 30
0.0
 11
54.25
 21
29.30905511811023
 31
0.0
  0
LINE
  5
8EF
330
1E
100
AcDbEntity
  8
7
100
AcDbLine
 10
54.25
 20
29.30905511811023
 30
0.0
 11
54.2490157480315
 21
29.36712598425197
 31
0.0
  0
LINE
  5
8F0
330
1E
100
AcDbEntity
  8
7
100
AcDbLine
 10
54.2490157480315
 20
29.36712598425197
 30
0.0
 11
54.24803149606299
 21
29.43011811023621
 31
0.0
  0
LINE
  5
8F1
330
1E
100
AcDbEntity
  8
7
100
AcDbLine
 10
54.24803149606299
 20
29.43011811023621
 30
0.0
 11
54.24704724409449
 21
29.49803149606299
 31
0.0
  0
LINE
  5
8F2
330
1E
100
AcDbEntity
  8
7
100
AcDbLine
 10
54.251968503937
 20
32.21456692913386
 30
0.0
 11
54.25393700787402
 21
32.24901574803149
 31
0.0
  0
LINE
  5
8F3
330
1E
100
AcDbEntity
  8
7
100
AcDbLine
 10
54.25393700787402
 20
32.24901574803149
 30
0.0
 11
54.25590551181102
 21
32.2755905511811
 31
0.0
  0
LINE
  5
8F4
330
1E
100
AcDbEntity
  8
7
100
AcDbLine
 10
54.25590551181102
 20
32.2755905511811
 30
0.0
 11
54.25688976377952
 21
32.29429133858267
 31
0.0
  0
LINE
  5
8F5
330
1E
100
AcDbEntity
  8
7
100
AcDbLine
 10
54.25688976377952
 20
32.29429133858267
 30
0.0
 11
54.25885826771653
 21
32.30610236220472
 31
0.0
  0
LINE
  5
8F6
330
1E
100
AcDbEntity
  8
7
100
AcDbLine
 10
54.25885826771653
 20
32.30610236220472
 30
0.0
 11
54.26082677165354
 21
32.31003937007874
 31
0.0
  0
LINE
  5
8F7
330
1E
100
AcDbEntity
  8
7
100
AcDbLine
 10
54.23917322834645
 20
31.06003937007874
 30
0.0
 11
54.23917322834645
 21
31.15748031496063
 31
0.0
  0
LINE
  5
8F8
330
1E
100
AcDbEntity
  8
7
100
AcDbLine
 10
54.23917322834645
 20
31.15748031496063
 30
0.0
 11
54.23917322834645
 21
31.25492125984251
 31
0.0
  0
LINE
  5
8F9
330
1E
100
AcDbEntity
  8
7
100
AcDbLine
 10
54.23917322834645
 20
31.25492125984251
 30
0.0
 11
54.23917322834645
 21
31.3513779527559
 31
0.0
  0
LINE
  5
8FA
330
1E
100
AcDbEntity
  8
7
100
AcDbLine
 10
54.23917322834645
 20
31.3513779527559
 30
0.0
 11
54.24015748031496
 21
31.44586614173228
 31
0.0
  0
LINE
  5
8FB
330
1E
100
AcDbEntity
  8
7
100
AcDbLine
 10
54.24015748031496
 20
31.44586614173228
 30
0.0
 11
54.24015748031496
 21
31.53838582677165
 31
0.0
  0
LINE
  5
8FC
330
1E
100
AcDbEntity
  8
7
100
AcDbLine
 10
54.24015748031496
 20
31.53838582677165
 30
0.0
 11
54.24114173228346
 21
31.626968503937
 31
0.0
  0
LINE
  5
8FD
330
1E
100
AcDbEntity
  8
7
100
AcDbLine
 10
54.24114173228346
 20
31.626968503937
 30
0.0
 11
54.24212598425197
 21
31.71259842519685
 31
0.0
  0
LINE
  5
8FE
330
1E
100
AcDbEntity
  8
7
100
AcDbLine
 10
54.24212598425197
 20
31.71259842519685
 30
0.0
 11
54.24311023622047
 21
31.79429133858267
 31
0.0
  0
LINE
  5
8FF
330
1E
100
AcDbEntity
  8
7
100
AcDbLine
 10
54.24311023622047
 20
31.79429133858267
 30
0.0
 11
54.24409448818898
 21
31.87204724409449
 31
0.0
  0
LINE
  5
900
330
1E
100
AcDbEntity
  8
7
100
AcDbLine
 10
54.24409448818898
 20
31.87204724409449
 30
0.0
 11
54.24507874015748
 21
31.94389763779527
 31
0.0
  0
LINE
  5
901
330
1E
100
AcDbEntity
  8
7
100
AcDbLine
 10
54.24507874015748
 20
31.94389763779527
 30
0.0
 11
54.24606299212598
 21
32.00984251968503
 31
0.0
  0
LINE
  5
902
330
1E
100
AcDbEntity
  8
7
100
AcDbLine
 10
54.24606299212598
 20
32.00984251968503
 30
0.0
 11
54.24803149606299
 21
32.07086614173228
 31
0.0
  0
LINE
  5
903
330
1E
100
AcDbEntity
  8
7
100
AcDbLine
 10
54.24803149606299
 20
32.07086614173228
 30
0.0
 11
54.2490157480315
 21
32.1259842519685
 31
0.0
  0
LINE
  5
904
330
1E
100
AcDbEntity
  8
7
100
AcDbLine
 10
54.2490157480315
 20
32.1259842519685
 30
0.0
 11
54.2509842519685
 21
32.17322834645669
 31
0.0
  0
LINE
  5
905
330
1E
100
AcDbEntity
  8
7
100
AcDbLine
 10
54.2509842519685
 20
32.17322834645669
 30
0.0
 11
54.251968503937
 21
32.21456692913386
 31
0.0
  0
LINE
  5
906
330
1E
100
AcDbEntity
  8
7
100
AcDbLine
 10
54.25590551181102
 20
27.84448818897637
 30
0.0
 11
54.25393700787402
 21
27.87106299212598
 31
0.0
  0
LINE
  5
907
330
1E
100
AcDbEntity
  8
7
100
AcDbLine
 10
54.25393700787402
 20
27.87106299212598
 30
0.0
 11
54.251968503937
 21
27.90452755905512
 31
0.0
  0
LINE
  5
908
330
1E
100
AcDbEntity
  8
7
100
AcDbLine
 10
54.251968503937
 20
27.90452755905512
 30
0.0
 11
54.2509842519685
 21
27.94586614173228
 31
0.0
  0
LINE
  5
909
330
1E
100
AcDbEntity
  8
7
100
AcDbLine
 10
54.2509842519685
 20
27.94586614173228
 30
0.0
 11
54.2490157480315
 21
27.99409448818897
 31
0.0
  0
LINE
  5
90A
330
1E
100
AcDbEntity
  8
7
100
AcDbLine
 10
54.2490157480315
 20
27.99409448818897
 30
0.0
 11
54.24803149606299
 21
28.04822834645669
 31
0.0
  0
LINE
  5
90B
330
1E
100
AcDbEntity
  8
7
100
AcDbLine
 10
54.24803149606299
 20
28.04822834645669
 30
0.0
 11
54.24606299212598
 21
28.10925196850393
 31
0.0
  0
LINE
  5
90C
330
1E
100
AcDbEntity
  8
7
100
AcDbLine
 10
54.24606299212598
 20
28.10925196850393
 30
0.0
 11
54.24507874015748
 21
28.1761811023622
 31
0.0
  0
LINE
  5
90D
330
1E
100
AcDbEntity
  8
7
100
AcDbLine
 10
54.24507874015748
 20
28.1761811023622
 30
0.0
 11
54.24409448818898
 21
28.24803149606299
 31
0.0
  0
LINE
  5
90E
330
1E
100
AcDbEntity
  8
7
100
AcDbLine
 10
54.24409448818898
 20
28.24803149606299
 30
0.0
 11
54.24311023622047
 21
28.32480314960629
 31
0.0
  0
LINE
  5
90F
330
1E
100
AcDbEntity
  8
7
100
AcDbLine
 10
54.24311023622047
 20
28.32480314960629
 30
0.0
 11
54.24212598425197
 21
28.40649606299212
 31
0.0
  0
LINE
  5
910
330
1E
100
AcDbEntity
  8
7
100
AcDbLine
 10
54.24212598425197
 20
28.40649606299212
 30
0.0
 11
54.24114173228346
 21
28.49212598425197
 31
0.0
  0
LINE
  5
911
330
1E
100
AcDbEntity
  8
7
100
AcDbLine
 10
54.24114173228346
 20
28.49212598425197
 30
0.0
 11
54.24015748031496
 21
28.58169291338582
 31
0.0
  0
LINE
  5
912
330
1E
100
AcDbEntity
  8
7
100
AcDbLine
 10
54.24015748031496
 20
28.58169291338582
 30
0.0
 11
54.24015748031496
 21
28.67322834645669
 31
0.0
  0
LINE
  5
913
330
1E
100
AcDbEntity
  8
7
100
AcDbLine
 10
54.24015748031496
 20
28.67322834645669
 30
0.0
 11
54.23917322834645
 21
28.76771653543307
 31
0.0
  0
LINE
  5
914
330
1E
100
AcDbEntity
  8
7
100
AcDbLine
 10
54.23917322834645
 20
28.76771653543307
 30
0.0
 11
54.23917322834645
 21
28.86417322834645
 31
0.0
  0
LINE
  5
915
330
1E
100
AcDbEntity
  8
7
100
AcDbLine
 10
54.23917322834645
 20
28.86417322834645
 30
0.0
 11
54.23917322834645
 21
28.96161417322834
 31
0.0
  0
LINE
  5
916
330
1E
100
AcDbEntity
  8
7
100
AcDbLine
 10
54.26082677165354
 20
27.81003937007874
 30
0.0
 11
54.25885826771653
 21
27.81397637795275
 31
0.0
  0
LINE
  5
917
330
1E
100
AcDbEntity
  8
7
100
AcDbLine
 10
54.25885826771653
 20
27.81397637795275
 30
0.0
 11
54.25688976377952
 21
27.82480314960629
 31
0.0
  0
LINE
  5
918
330
1E
100
AcDbEntity
  8
7
100
AcDbLine
 10
54.25688976377952
 20
27.82480314960629
 30
0.0
 11
54.25590551181102
 21
27.84448818897637
 31
0.0
  0
LINE
  5
919
330
1E
100
AcDbEntity
  8
7
100
AcDbLine
 10
59.31397637795275
 20
30.1003937007874
 30
0.0
 11
59.25393700787402
 21
30.1003937007874
 31
0.0
  0
LINE
  5
91A
330
1E
100
AcDbEntity
  8
7
100
AcDbLine
 10
59.25393700787402
 20
30.1003937007874
 30
0.0
 11
59.19094488188976
 21
30.1003937007874
 31
0.0
  0
LINE
  5
91B
330
1E
100
AcDbEntity
  8
7
100
AcDbLine
 10
59.19094488188976
 20
30.1003937007874
 30
0.0
 11
59.12598425196851
 21
30.09940944881889
 31
0.0
  0
LINE
  5
91C
330
1E
100
AcDbEntity
  8
7
100
AcDbLine
 10
59.12598425196851
 20
30.09940944881889
 30
0.0
 11
59.05807086614173
 21
30.09940944881889
 31
0.0
  0
LINE
  5
91D
330
1E
100
AcDbEntity
  8
7
100
AcDbLine
 10
59.03248031496062
 20
30.1761811023622
 30
0.0
 11
59.0767716535433
 21
30.1761811023622
 31
0.0
  0
LINE
  5
91E
330
1E
100
AcDbEntity
  8
7
100
AcDbLine
 10
59.0767716535433
 20
30.1761811023622
 30
0.0
 11
59.13582677165354
 21
30.1761811023622
 31
0.0
  0
LINE
  5
91F
330
1E
100
AcDbEntity
  8
7
100
AcDbLine
 10
59.13582677165354
 20
30.1761811023622
 30
0.0
 11
59.22637795275591
 21
30.1751968503937
 31
0.0
  0
LINE
  5
920
330
1E
100
AcDbEntity
  8
7
100
AcDbLine
 10
59.31397637795275
 20
29.94488188976378
 30
0.0
 11
59.20570866141732
 21
29.94389763779527
 31
0.0
  0
LINE
  5
921
330
1E
100
AcDbEntity
  8
7
100
AcDbLine
 10
59.20570866141732
 20
29.94389763779527
 30
0.0
 11
59.08956692913385
 21
29.94389763779527
 31
0.0
  0
LINE
  5
922
330
1E
100
AcDbEntity
  8
7
100
AcDbLine
 10
59.08956692913385
 20
29.94389763779527
 30
0.0
 11
59.03248031496062
 21
29.94291338582677
 31
0.0
  0
LINE
  5
923
330
1E
100
AcDbEntity
  8
7
100
AcDbLine
 10
59.05807086614173
 20
30.01968503937007
 30
0.0
 11
59.13779527559055
 21
30.01968503937007
 31
0.0
  0
LINE
  5
924
330
1E
100
AcDbEntity
  8
7
100
AcDbLine
 10
59.13779527559055
 20
30.01968503937007
 30
0.0
 11
59.2273622047244
 21
30.01968503937007
 31
0.0
  0
LINE
  5
925
330
1E
100
AcDbEntity
  8
7
100
AcDbLine
 10
59.2273622047244
 20
30.01968503937007
 30
0.0
 11
59.31397637795275
 21
30.01870078740157
 31
0.0
  0
LINE
  5
926
330
1E
100
AcDbEntity
  8
7
100
AcDbLine
 10
59.05708661417323
 20
29.45767716535433
 30
0.0
 11
59.06200787401575
 21
29.45866141732283
 31
0.0
  0
LINE
  5
927
330
1E
100
AcDbEntity
  8
7
100
AcDbLine
 10
59.06200787401575
 20
29.45866141732283
 30
0.0
 11
59.06299212598425
 21
29.45866141732283
 31
0.0
  0
LINE
  5
928
330
1E
100
AcDbEntity
  8
7
100
AcDbLine
 10
59.05610236220472
 20
29.43110236220472
 30
0.0
 11
59.0521653543307
 21
29.43602362204724
 31
0.0
  0
LINE
  5
929
330
1E
100
AcDbEntity
  8
7
100
AcDbLine
 10
59.0521653543307
 20
29.43602362204724
 30
0.0
 11
59.04921259842519
 21
29.44192913385826
 31
0.0
  0
LINE
  5
92A
330
1E
100
AcDbEntity
  8
7
100
AcDbLine
 10
59.04921259842519
 20
29.44192913385826
 30
0.0
 11
59.04822834645669
 21
29.44685039370078
 31
0.0
  0
LINE
  5
92B
330
1E
100
AcDbEntity
  8
7
100
AcDbLine
 10
59.04822834645669
 20
29.44685039370078
 30
0.0
 11
59.0501968503937
 21
29.4517716535433
 31
0.0
  0
LINE
  5
92C
330
1E
100
AcDbEntity
  8
7
100
AcDbLine
 10
59.0501968503937
 20
29.4517716535433
 30
0.0
 11
59.05314960629922
 21
29.45570866141732
 31
0.0
  0
LINE
  5
92D
330
1E
100
AcDbEntity
  8
7
100
AcDbLine
 10
59.05314960629922
 20
29.45570866141732
 30
0.0
 11
59.05708661417323
 21
29.45767716535433
 31
0.0
  0
LINE
  5
92E
330
1E
100
AcDbEntity
  8
7
100
AcDbLine
 10
59.30905511811023
 20
29.2273622047244
 30
0.0
 11
59.30807086614173
 21
29.22244094488188
 31
0.0
  0
LINE
  5
92F
330
1E
100
AcDbEntity
  8
7
100
AcDbLine
 10
59.30807086614173
 20
29.22244094488188
 30
0.0
 11
59.30610236220473
 21
29.21751968503937
 31
0.0
  0
LINE
  5
930
330
1E
100
AcDbEntity
  8
7
100
AcDbLine
 10
59.30610236220473
 20
29.21751968503937
 30
0.0
 11
59.3021653543307
 21
29.21456692913386
 31
0.0
  0
LINE
  5
931
330
1E
100
AcDbEntity
  8
7
100
AcDbLine
 10
59.3021653543307
 20
29.21456692913386
 30
0.0
 11
59.29724409448819
 21
29.21259842519685
 31
0.0
  0
LINE
  5
932
330
1E
100
AcDbEntity
  8
7
100
AcDbLine
 10
59.29724409448819
 20
29.21259842519685
 30
0.0
 11
59.29232283464567
 21
29.21259842519685
 31
0.0
  0
LINE
  5
933
330
1E
100
AcDbEntity
  8
7
100
AcDbLine
 10
59.29232283464567
 20
29.21259842519685
 30
0.0
 11
59.28740157480315
 21
29.21358267716535
 31
0.0
  0
LINE
  5
934
330
1E
100
AcDbEntity
  8
7
100
AcDbLine
 10
59.28740157480315
 20
29.21358267716535
 30
0.0
 11
59.28346456692913
 21
29.21653543307087
 31
0.0
  0
LINE
  5
935
330
1E
100
AcDbEntity
  8
7
100
AcDbLine
 10
59.28346456692913
 20
29.21653543307087
 30
0.0
 11
59.28248031496062
 21
29.21751968503937
 31
0.0
  0
LINE
  5
936
330
1E
100
AcDbEntity
  8
7
100
AcDbLine
 10
59.09350393700787
 20
29.40649606299212
 30
0.0
 11
59.08759842519685
 21
29.41043307086614
 31
0.0
  0
LINE
  5
937
330
1E
100
AcDbEntity
  8
7
100
AcDbLine
 10
59.08759842519685
 20
29.41043307086614
 30
0.0
 11
59.07775590551181
 21
29.41732283464567
 31
0.0
  0
LINE
  5
938
330
1E
100
AcDbEntity
  8
7
100
AcDbLine
 10
59.07775590551181
 20
29.41732283464567
 30
0.0
 11
59.06003937007874
 21
29.42913385826771
 31
0.0
  0
LINE
  5
939
330
1E
100
AcDbEntity
  8
7
100
AcDbLine
 10
59.06003937007874
 20
29.42913385826771
 30
0.0
 11
59.05610236220472
 21
29.43110236220472
 31
0.0
  0
LINE
  5
93A
330
1E
100
AcDbEntity
  8
7
100
AcDbLine
 10
59.28248031496062
 20
29.21751968503937
 30
0.0
 11
59.21358267716534
 21
29.29625984251968
 31
0.0
  0
LINE
  5
93B
330
1E
100
AcDbEntity
  8
7
100
AcDbLine
 10
59.21358267716534
 20
29.29625984251968
 30
0.0
 11
59.13779527559055
 21
29.36712598425197
 31
0.0
  0
LINE
  5
93C
330
1E
100
AcDbEntity
  8
7
100
AcDbLine
 10
59.13779527559055
 20
29.36712598425197
 30
0.0
 11
59.05610236220472
 21
29.43110236220472
 31
0.0
  0
LINE
  5
93D
330
1E
100
AcDbEntity
  8
7
100
AcDbLine
 10
59.30807086614173
 20
29.0501968503937
 30
0.0
 11
59.25590551181102
 21
29.13188976377952
 31
0.0
  0
LINE
  5
93E
330
1E
100
AcDbEntity
  8
7
100
AcDbLine
 10
59.25590551181102
 20
29.13188976377952
 30
0.0
 11
59.19685039370079
 21
29.20669291338582
 31
0.0
  0
LINE
  5
93F
330
1E
100
AcDbEntity
  8
7
100
AcDbLine
 10
59.19685039370079
 20
29.20669291338582
 30
0.0
 11
59.12992125984252
 21
29.27657480314961
 31
0.0
  0
LINE
  5
940
330
1E
100
AcDbEntity
  8
7
100
AcDbLine
 10
59.12992125984252
 20
29.27657480314961
 30
0.0
 11
59.05708661417323
 21
29.33956692913385
 31
0.0
  0
LINE
  5
941
330
1E
100
AcDbEntity
  8
7
100
AcDbLine
 10
59.05708661417323
 20
29.33956692913385
 30
0.0
 11
58.97834645669291
 21
29.39566929133858
 31
0.0
  0
LINE
  5
942
330
1E
100
AcDbEntity
  8
7
100
AcDbLine
 10
58.97834645669291
 20
29.39566929133858
 30
0.0
 11
58.89566929133858
 21
29.44291338582677
 31
0.0
  0
LINE
  5
943
330
1E
100
AcDbEntity
  8
7
100
AcDbLine
 10
59.28248031496062
 20
30.9015748031496
 30
0.0
 11
59.28641732283463
 21
30.90551181102362
 31
0.0
  0
LINE
  5
944
330
1E
100
AcDbEntity
  8
7
100
AcDbLine
 10
59.28641732283463
 20
30.90551181102362
 30
0.0
 11
59.29035433070866
 21
30.90748031496063
 31
0.0
  0
LINE
  5
945
330
1E
100
AcDbEntity
  8
7
100
AcDbLine
 10
59.29035433070866
 20
30.90748031496063
 30
0.0
 11
59.29625984251968
 21
30.90748031496063
 31
0.0
  0
LINE
  5
946
330
1E
100
AcDbEntity
  8
7
100
AcDbLine
 10
59.29625984251968
 20
30.90748031496063
 30
0.0
 11
59.30019685039369
 21
30.90551181102362
 31
0.0
  0
LINE
  5
947
330
1E
100
AcDbEntity
  8
7
100
AcDbLine
 10
59.30019685039369
 20
30.90551181102362
 30
0.0
 11
59.30511811023622
 21
30.90255905511811
 31
0.0
  0
LINE
  5
948
330
1E
100
AcDbEntity
  8
7
100
AcDbLine
 10
59.30511811023622
 20
30.90255905511811
 30
0.0
 11
59.30807086614173
 21
30.89862204724409
 31
0.0
  0
LINE
  5
949
330
1E
100
AcDbEntity
  8
7
100
AcDbLine
 10
59.30807086614173
 20
30.89862204724409
 30
0.0
 11
59.30905511811023
 21
30.89370078740157
 31
0.0
  0
LINE
  5
94A
330
1E
100
AcDbEntity
  8
7
100
AcDbLine
 10
59.30905511811023
 20
30.89370078740157
 30
0.0
 11
59.30905511811023
 21
30.89271653543307
 31
0.0
  0
LINE
  5
94B
330
1E
100
AcDbEntity
  8
7
100
AcDbLine
 10
59.06299212598425
 20
30.66043307086614
 30
0.0
 11
59.05807086614173
 21
30.66141732283464
 31
0.0
  0
LINE
  5
94C
330
1E
100
AcDbEntity
  8
7
100
AcDbLine
 10
59.05807086614173
 20
30.66141732283464
 30
0.0
 11
59.05314960629922
 21
30.66437007874015
 31
0.0
  0
LINE
  5
94D
330
1E
100
AcDbEntity
  8
7
100
AcDbLine
 10
59.05314960629922
 20
30.66437007874015
 30
0.0
 11
59.0501968503937
 21
30.66732283464566
 31
0.0
  0
LINE
  5
94E
330
1E
100
AcDbEntity
  8
7
100
AcDbLine
 10
59.0501968503937
 20
30.66732283464566
 30
0.0
 11
59.04921259842519
 21
30.67224409448819
 31
0.0
  0
LINE
  5
94F
330
1E
100
AcDbEntity
  8
7
100
AcDbLine
 10
59.04921259842519
 20
30.67224409448819
 30
0.0
 11
59.04822834645669
 21
30.6761811023622
 31
0.0
  0
LINE
  5
950
330
1E
100
AcDbEntity
  8
7
100
AcDbLine
 10
59.04822834645669
 20
30.6761811023622
 30
0.0
 11
59.0501968503937
 21
30.68110236220472
 31
0.0
  0
LINE
  5
951
330
1E
100
AcDbEntity
  8
7
100
AcDbLine
 10
59.0501968503937
 20
30.68110236220472
 30
0.0
 11
59.05314960629922
 21
30.68602362204724
 31
0.0
  0
LINE
  5
952
330
1E
100
AcDbEntity
  8
7
100
AcDbLine
 10
59.05610236220472
 20
30.68799212598425
 30
0.0
 11
59.07381889763779
 21
30.69980314960629
 31
0.0
  0
LINE
  5
953
330
1E
100
AcDbEntity
  8
7
100
AcDbLine
 10
59.07381889763779
 20
30.69980314960629
 30
0.0
 11
59.08562992125983
 21
30.70767716535433
 31
0.0
  0
LINE
  5
954
330
1E
100
AcDbEntity
  8
7
100
AcDbLine
 10
59.08562992125983
 20
30.70767716535433
 30
0.0
 11
59.09350393700787
 21
30.71259842519685
 31
0.0
  0
LINE
  5
955
330
1E
100
AcDbEntity
  8
7
100
AcDbLine
 10
59.13779527559055
 20
30.751968503937
 30
0.0
 11
59.21358267716534
 21
30.82283464566929
 31
0.0
  0
LINE
  5
956
330
1E
100
AcDbEntity
  8
7
100
AcDbLine
 10
59.21358267716534
 20
30.82283464566929
 30
0.0
 11
59.28248031496062
 21
30.9015748031496
 31
0.0
  0
LINE
  5
957
330
1E
100
AcDbEntity
  8
7
100
AcDbLine
 10
58.89566929133858
 20
30.6761811023622
 30
0.0
 11
58.97834645669291
 21
30.72342519685039
 31
0.0
  0
LINE
  5
958
330
1E
100
AcDbEntity
  8
7
100
AcDbLine
 10
58.97834645669291
 20
30.72342519685039
 30
0.0
 11
59.05708661417323
 21
30.77952755905512
 31
0.0
  0
LINE
  5
959
330
1E
100
AcDbEntity
  8
7
100
AcDbLine
 10
59.05708661417323
 20
30.77952755905512
 30
0.0
 11
59.12992125984252
 21
30.84251968503937
 31
0.0
  0
LINE
  5
95A
330
1E
100
AcDbEntity
  8
7
100
AcDbLine
 10
59.12992125984252
 20
30.84251968503937
 30
0.0
 11
59.19685039370079
 21
30.91240157480314
 31
0.0
  0
LINE
  5
95B
330
1E
100
AcDbEntity
  8
7
100
AcDbLine
 10
59.19685039370079
 20
30.91240157480314
 30
0.0
 11
59.25590551181102
 21
30.98720472440945
 31
0.0
  0
LINE
  5
95C
330
1E
100
AcDbEntity
  8
7
100
AcDbLine
 10
59.07185039370078
 20
29.3257874015748
 30
0.0
 11
58.99803149606299
 21
29.37992125984251
 31
0.0
  0
LINE
  5
95D
330
1E
100
AcDbEntity
  8
7
100
AcDbLine
 10
58.99803149606299
 20
29.37992125984251
 30
0.0
 11
58.91929133858267
 21
29.42814960629921
 31
0.0
  0
LINE
  5
95E
330
1E
100
AcDbEntity
  8
7
100
AcDbLine
 10
59.30708661417323
 20
29.04724409448819
 30
0.0
 11
59.25787401574803
 21
29.125
 31
0.0
  0
LINE
  5
95F
330
1E
100
AcDbEntity
  8
7
100
AcDbLine
 10
59.25787401574803
 20
29.125
 30
0.0
 11
59.2017716535433
 21
29.19685039370078
 31
0.0
  0
LINE
  5
960
330
1E
100
AcDbEntity
  8
7
100
AcDbLine
 10
59.2017716535433
 20
29.19685039370078
 30
0.0
 11
59.13976377952756
 21
29.26476377952756
 31
0.0
  0
LINE
  5
961
330
1E
100
AcDbEntity
  8
7
100
AcDbLine
 10
59.13976377952756
 20
29.26476377952756
 30
0.0
 11
59.07185039370078
 21
29.3257874015748
 31
0.0
  0
LINE
  5
962
330
1E
100
AcDbEntity
  8
7
100
AcDbLine
 10
58.91929133858267
 20
30.69094488188976
 30
0.0
 11
58.99803149606299
 21
30.73917322834645
 31
0.0
  0
LINE
  5
963
330
1E
100
AcDbEntity
  8
7
100
AcDbLine
 10
58.99803149606299
 20
30.73917322834645
 30
0.0
 11
59.07185039370078
 21
30.79330708661417
 31
0.0
  0
LINE
  5
964
330
1E
100
AcDbEntity
  8
7
100
AcDbLine
 10
59.07185039370078
 20
30.79330708661417
 30
0.0
 11
59.13976377952756
 21
30.85433070866141
 31
0.0
  0
LINE
  5
965
330
1E
100
AcDbEntity
  8
7
100
AcDbLine
 10
59.13976377952756
 20
30.85433070866141
 30
0.0
 11
59.2017716535433
 21
30.92224409448819
 31
0.0
  0
LINE
  5
966
330
1E
100
AcDbEntity
  8
7
100
AcDbLine
 10
59.2017716535433
 20
30.92224409448819
 30
0.0
 11
59.25787401574803
 21
30.99409448818898
 31
0.0
  0
LINE
  5
967
330
1E
100
AcDbEntity
  8
7
100
AcDbLine
 10
59.25787401574803
 20
30.99409448818898
 30
0.0
 11
59.30708661417323
 21
31.07185039370078
 31
0.0
  0
LINE
  5
968
330
1E
100
AcDbEntity
  8
7
100
AcDbLine
 10
59.43208661417322
 20
31.4507874015748
 30
0.0
 11
59.43208661417322
 21
31.44980314960629
 31
0.0
  0
LINE
  5
969
330
1E
100
AcDbEntity
  8
7
100
AcDbLine
 10
59.43208661417322
 20
31.44980314960629
 30
0.0
 11
59.43208661417322
 21
31.44586614173228
 31
0.0
  0
LINE
  5
96A
330
1E
100
AcDbEntity
  8
7
100
AcDbLine
 10
59.43208661417322
 20
31.44586614173228
 30
0.0
 11
59.43208661417322
 21
31.44291338582677
 31
0.0
  0
LINE
  5
96B
330
1E
100
AcDbEntity
  8
7
100
AcDbLine
 10
59.43208661417322
 20
31.44291338582677
 30
0.0
 11
59.43110236220473
 21
31.43503937007874
 31
0.0
  0
LINE
  5
96C
330
1E
100
AcDbEntity
  8
7
100
AcDbLine
 10
59.43110236220473
 20
31.43503937007874
 30
0.0
 11
59.42913385826772
 21
31.42224409448818
 31
0.0
  0
LINE
  5
96D
330
1E
100
AcDbEntity
  8
7
100
AcDbLine
 10
59.4015748031496
 20
31.24212598425196
 30
0.0
 11
59.42913385826772
 21
31.42224409448818
 31
0.0
  0
LINE
  5
96E
330
1E
100
AcDbEntity
  8
7
100
AcDbLine
 10
59.42913385826772
 20
31.42224409448818
 30
0.0
 11
59.4261811023622
 21
31.42421259842519
 31
0.0
  0
LINE
  5
96F
330
1E
100
AcDbEntity
  8
7
100
AcDbLine
 10
59.4261811023622
 20
31.42421259842519
 30
0.0
 11
59.4251968503937
 21
31.42421259842519
 31
0.0
  0
LINE
  5
970
330
1E
100
AcDbEntity
  8
7
100
AcDbLine
 10
59.4251968503937
 20
31.42421259842519
 30
0.0
 11
59.4015748031496
 21
31.43208661417323
 31
0.0
  0
LINE
  5
971
330
1E
100
AcDbEntity
  8
7
100
AcDbLine
 10
59.27362204724409
 20
31.78051181102362
 30
0.0
 11
59.29232283464567
 21
31.74114173228346
 31
0.0
  0
LINE
  5
972
330
1E
100
AcDbEntity
  8
7
100
AcDbLine
 10
59.29232283464567
 20
31.74114173228346
 30
0.0
 11
59.30413385826772
 21
31.69881889763779
 31
0.0
  0
LINE
  5
973
330
1E
100
AcDbEntity
  8
7
100
AcDbLine
 10
59.30413385826772
 20
31.69881889763779
 30
0.0
 11
59.30708661417323
 21
31.65551181102362
 31
0.0
  0
LINE
  5
974
330
1E
100
AcDbEntity
  8
7
100
AcDbLine
 10
59.35531496062992
 20
31.8267716535433
 30
0.0
 11
59.38090551181102
 21
31.77263779527558
 31
0.0
  0
LINE
  5
975
330
1E
100
AcDbEntity
  8
7
100
AcDbLine
 10
59.38090551181102
 20
31.77263779527558
 30
0.0
 11
59.39566929133857
 21
31.71456692913386
 31
0.0
  0
LINE
  5
976
330
1E
100
AcDbEntity
  8
7
100
AcDbLine
 10
59.39566929133857
 20
31.71456692913386
 30
0.0
 11
59.4015748031496
 21
31.65551181102362
 31
0.0
  0
LINE
  5
977
330
1E
100
AcDbEntity
  8
7
100
AcDbLine
 10
59.48129921259842
 20
28.86220472440944
 30
0.0
 11
59.48129921259842
 21
28.86614173228346
 31
0.0
  0
LINE
  5
978
330
1E
100
AcDbEntity
  8
7
100
AcDbLine
 10
59.48129921259842
 20
28.86614173228346
 30
0.0
 11
59.48129921259842
 21
28.87893700787401
 31
0.0
  0
LINE
  5
979
330
1E
100
AcDbEntity
  8
7
100
AcDbLine
 10
59.48129921259842
 20
28.87893700787401
 30
0.0
 11
59.48228346456692
 21
28.98622047244094
 31
0.0
  0
LINE
  5
97A
330
1E
100
AcDbEntity
  8
7
100
AcDbLine
 10
59.54133858267717
 20
28.98622047244094
 30
0.0
 11
59.54133858267717
 21
28.87893700787401
 31
0.0
  0
LINE
  5
97B
330
1E
100
AcDbEntity
  8
7
100
AcDbLine
 10
59.54133858267717
 20
28.87893700787401
 30
0.0
 11
59.54232283464566
 21
28.86614173228346
 31
0.0
  0
LINE
  5
97C
330
1E
100
AcDbEntity
  8
7
100
AcDbLine
 10
59.54232283464566
 20
28.86614173228346
 30
0.0
 11
59.54232283464566
 21
28.86220472440944
 31
0.0
  0
LINE
  5
97D
330
1E
100
AcDbEntity
  8
7
100
AcDbLine
 10
59.48622047244094
 20
30.61220472440945
 30
0.0
 11
59.48622047244094
 21
30.61614173228346
 31
0.0
  0
LINE
  5
97E
330
1E
100
AcDbEntity
  8
7
100
AcDbLine
 10
59.48622047244094
 20
30.61614173228346
 30
0.0
 11
59.48720472440944
 21
30.62893700787401
 31
0.0
  0
LINE
  5
97F
330
1E
100
AcDbEntity
  8
7
100
AcDbLine
 10
59.48720472440944
 20
30.62893700787401
 30
0.0
 11
59.48720472440944
 21
30.73622047244094
 31
0.0
  0
LINE
  5
980
330
1E
100
AcDbEntity
  8
7
100
AcDbLine
 10
59.54625984251968
 20
30.73622047244094
 30
0.0
 11
59.54625984251968
 21
30.62893700787401
 31
0.0
  0
LINE
  5
981
330
1E
100
AcDbEntity
  8
7
100
AcDbLine
 10
59.54625984251968
 20
30.62893700787401
 30
0.0
 11
59.54724409448818
 21
30.61614173228346
 31
0.0
  0
LINE
  5
982
330
1E
100
AcDbEntity
  8
7
100
AcDbLine
 10
59.54724409448818
 20
30.61614173228346
 30
0.0
 11
59.54724409448818
 21
30.61220472440945
 31
0.0
  0
LINE
  5
983
330
1E
100
AcDbEntity
  8
7
100
AcDbLine
 10
59.4015748031496
 20
31.08759842519685
 30
0.0
 11
59.40551181102361
 21
31.0767716535433
 31
0.0
  0
LINE
  5
984
330
1E
100
AcDbEntity
  8
7
100
AcDbLine
 10
59.40551181102361
 20
31.0767716535433
 30
0.0
 11
59.41633858267716
 21
31.07283464566929
 31
0.0
  0
LINE
  5
985
330
1E
100
AcDbEntity
  8
7
100
AcDbLine
 10
59.47933070866142
 20
31.15748031496063
 30
0.0
 11
59.4753937007874
 21
31.15255905511811
 31
0.0
  0
LINE
  5
986
330
1E
100
AcDbEntity
  8
7
100
AcDbLine
 10
59.4753937007874
 20
31.15255905511811
 30
0.0
 11
59.47244094488188
 21
31.14763779527558
 31
0.0
  0
LINE
  5
987
330
1E
100
AcDbEntity
  8
7
100
AcDbLine
 10
59.47244094488188
 20
31.14763779527558
 30
0.0
 11
59.47145669291337
 21
31.14370078740157
 31
0.0
  0
LINE
  5
988
330
1E
100
AcDbEntity
  8
7
100
AcDbLine
 10
59.47145669291337
 20
31.14370078740157
 30
0.0
 11
59.47145669291337
 21
31.14074803149605
 31
0.0
  0
LINE
  5
989
330
1E
100
AcDbEntity
  8
7
100
AcDbLine
 10
59.48622047244094
 20
31.16043307086614
 30
0.0
 11
59.48523622047243
 21
31.16043307086614
 31
0.0
  0
LINE
  5
98A
330
1E
100
AcDbEntity
  8
7
100
AcDbLine
 10
59.48523622047243
 20
31.16043307086614
 30
0.0
 11
59.47933070866142
 21
31.15748031496063
 31
0.0
  0
LINE
  5
98B
330
1E
100
AcDbEntity
  8
7
100
AcDbLine
 10
59.4507874015748
 20
29.32283464566928
 30
0.0
 11
59.46161417322834
 21
29.32677165354331
 31
0.0
  0
LINE
  5
98C
330
1E
100
AcDbEntity
  8
7
100
AcDbLine
 10
59.46161417322834
 20
29.32677165354331
 30
0.0
 11
59.46555118110236
 21
29.33759842519684
 31
0.0
  0
LINE
  5
98D
330
1E
100
AcDbEntity
  8
7
100
AcDbLine
 10
59.4015748031496
 20
29.33759842519684
 30
0.0
 11
59.40551181102361
 21
29.32677165354331
 31
0.0
  0
LINE
  5
98E
330
1E
100
AcDbEntity
  8
7
100
AcDbLine
 10
59.40551181102361
 20
29.32677165354331
 30
0.0
 11
59.41633858267716
 21
29.32283464566928
 31
0.0
  0
LINE
  5
98F
330
1E
100
AcDbEntity
  8
7
100
AcDbLine
 10
59.48129921259842
 20
29.41043307086614
 30
0.0
 11
59.48031496062991
 21
29.41043307086614
 31
0.0
  0
LINE
  5
990
330
1E
100
AcDbEntity
  8
7
100
AcDbLine
 10
59.48031496062991
 20
29.41043307086614
 30
0.0
 11
59.47440944881889
 21
29.40748031496063
 31
0.0
  0
LINE
  5
991
330
1E
100
AcDbEntity
  8
7
100
AcDbLine
 10
59.47440944881889
 20
29.40748031496063
 30
0.0
 11
59.47047244094488
 21
29.40255905511811
 31
0.0
  0
LINE
  5
992
330
1E
100
AcDbEntity
  8
7
100
AcDbLine
 10
59.47047244094488
 20
29.40255905511811
 30
0.0
 11
59.46751968503936
 21
29.39763779527559
 31
0.0
  0
LINE
  5
993
330
1E
100
AcDbEntity
  8
7
100
AcDbLine
 10
59.46751968503936
 20
29.39763779527559
 30
0.0
 11
59.46653543307085
 21
29.39370078740157
 31
0.0
  0
LINE
  5
994
330
1E
100
AcDbEntity
  8
7
100
AcDbLine
 10
59.46653543307085
 20
29.39370078740157
 30
0.0
 11
59.46653543307085
 21
29.39074803149606
 31
0.0
  0
LINE
  5
995
330
1E
100
AcDbEntity
  8
7
100
AcDbLine
 10
59.48622047244094
 20
30.68208661417322
 30
0.0
 11
59.48622047244094
 21
30.68602362204724
 31
0.0
  0
LINE
  5
996
330
1E
100
AcDbEntity
  8
7
100
AcDbLine
 10
59.48622047244094
 20
30.68602362204724
 30
0.0
 11
59.48720472440944
 21
30.69586614173228
 31
0.0
  0
LINE
  5
997
330
1E
100
AcDbEntity
  8
7
100
AcDbLine
 10
59.48720472440944
 20
30.69586614173228
 30
0.0
 11
59.48720472440944
 21
30.71358267716535
 31
0.0
  0
LINE
  5
998
330
1E
100
AcDbEntity
  8
7
100
AcDbLine
 10
59.48720472440944
 20
30.71358267716535
 30
0.0
 11
59.48720472440944
 21
30.73622047244094
 31
0.0
  0
LINE
  5
999
330
1E
100
AcDbEntity
  8
7
100
AcDbLine
 10
59.54625984251968
 20
30.73622047244094
 30
0.0
 11
59.54625984251968
 21
30.71358267716535
 31
0.0
  0
LINE
  5
99A
330
1E
100
AcDbEntity
  8
7
100
AcDbLine
 10
59.54625984251968
 20
30.71358267716535
 30
0.0
 11
59.54625984251968
 21
30.69586614173228
 31
0.0
  0
LINE
  5
99B
330
1E
100
AcDbEntity
  8
7
100
AcDbLine
 10
59.54625984251968
 20
30.69586614173228
 30
0.0
 11
59.54724409448818
 21
30.68602362204724
 31
0.0
  0
LINE
  5
99C
330
1E
100
AcDbEntity
  8
7
100
AcDbLine
 10
59.54724409448818
 20
30.68602362204724
 30
0.0
 11
59.54724409448818
 21
30.68208661417322
 31
0.0
  0
LINE
  5
99D
330
1E
100
AcDbEntity
  8
7
100
AcDbLine
 10
59.47145669291337
 20
30.87303149606299
 30
0.0
 11
59.47145669291337
 21
30.91633858267716
 31
0.0
  0
LINE
  5
99E
330
1E
100
AcDbEntity
  8
7
100
AcDbLine
 10
59.47145669291337
 20
30.91633858267716
 30
0.0
 11
59.47145669291337
 21
30.95964566929133
 31
0.0
  0
LINE
  5
99F
330
1E
100
AcDbEntity
  8
7
100
AcDbLine
 10
59.47145669291337
 20
30.95964566929133
 30
0.0
 11
59.47145669291337
 21
31.0009842519685
 31
0.0
  0
LINE
  5
9A0
330
1E
100
AcDbEntity
  8
7
100
AcDbLine
 10
59.47145669291337
 20
31.0009842519685
 30
0.0
 11
59.47145669291337
 21
31.04035433070865
 31
0.0
  0
LINE
  5
9A1
330
1E
100
AcDbEntity
  8
7
100
AcDbLine
 10
59.47145669291337
 20
31.04035433070865
 30
0.0
 11
59.47145669291337
 21
31.07480314960629
 31
0.0
  0
LINE
  5
9A2
330
1E
100
AcDbEntity
  8
7
100
AcDbLine
 10
59.47145669291337
 20
31.07480314960629
 30
0.0
 11
59.47145669291337
 21
31.10334645669291
 31
0.0
  0
LINE
  5
9A3
330
1E
100
AcDbEntity
  8
7
100
AcDbLine
 10
59.47145669291337
 20
31.10334645669291
 30
0.0
 11
59.47145669291337
 21
31.1259842519685
 31
0.0
  0
LINE
  5
9A4
330
1E
100
AcDbEntity
  8
7
100
AcDbLine
 10
59.47145669291337
 20
31.1259842519685
 30
0.0
 11
59.47145669291337
 21
31.14074803149605
 31
0.0
  0
LINE
  5
9A5
330
1E
100
AcDbEntity
  8
7
100
AcDbLine
 10
59.47145669291337
 20
30.69685039370078
 30
0.0
 11
59.47145669291337
 21
30.7017716535433
 31
0.0
  0
LINE
  5
9A6
330
1E
100
AcDbEntity
  8
7
100
AcDbLine
 10
59.47145669291337
 20
30.7017716535433
 30
0.0
 11
59.47145669291337
 21
30.71358267716535
 31
0.0
  0
LINE
  5
9A7
330
1E
100
AcDbEntity
  8
7
100
AcDbLine
 10
59.47145669291337
 20
30.71358267716535
 30
0.0
 11
59.47145669291337
 21
30.73425196850393
 31
0.0
  0
LINE
  5
9A8
330
1E
100
AcDbEntity
  8
7
100
AcDbLine
 10
59.47145669291337
 20
30.73425196850393
 30
0.0
 11
59.47145669291337
 21
30.76082677165354
 31
0.0
  0
LINE
  5
9A9
330
1E
100
AcDbEntity
  8
7
100
AcDbLine
 10
59.47145669291337
 20
30.76082677165354
 30
0.0
 11
59.47145669291337
 21
30.79429133858267
 31
0.0
  0
LINE
  5
9AA
330
1E
100
AcDbEntity
  8
7
100
AcDbLine
 10
59.47145669291337
 20
30.79429133858267
 30
0.0
 11
59.47145669291337
 21
30.83169291338582
 31
0.0
  0
LINE
  5
9AB
330
1E
100
AcDbEntity
  8
7
100
AcDbLine
 10
59.47145669291337
 20
30.83169291338582
 30
0.0
 11
59.47145669291337
 21
30.87303149606299
 31
0.0
  0
LINE
  5
9AC
330
1E
100
AcDbEntity
  8
7
100
AcDbLine
 10
59.48129921259842
 20
28.93208661417323
 30
0.0
 11
59.48129921259842
 21
28.93602362204724
 31
0.0
  0
LINE
  5
9AD
330
1E
100
AcDbEntity
  8
7
100
AcDbLine
 10
59.48129921259842
 20
28.93602362204724
 30
0.0
 11
59.48228346456692
 21
28.94586614173228
 31
0.0
  0
LINE
  5
9AE
330
1E
100
AcDbEntity
  8
7
100
AcDbLine
 10
59.48228346456692
 20
28.94586614173228
 30
0.0
 11
59.48228346456692
 21
28.96358267716535
 31
0.0
  0
LINE
  5
9AF
330
1E
100
AcDbEntity
  8
7
100
AcDbLine
 10
59.48228346456692
 20
28.96358267716535
 30
0.0
 11
59.48228346456692
 21
28.98622047244094
 31
0.0
  0
LINE
  5
9B0
330
1E
100
AcDbEntity
  8
7
100
AcDbLine
 10
59.54133858267717
 20
28.94586614173228
 30
0.0
 11
59.54133858267717
 21
28.93602362204724
 31
0.0
  0
LINE
  5
9B1
330
1E
100
AcDbEntity
  8
7
100
AcDbLine
 10
59.54133858267717
 20
28.93602362204724
 30
0.0
 11
59.54232283464566
 21
28.93208661417323
 31
0.0
  0
LINE
  5
9B2
330
1E
100
AcDbEntity
  8
7
100
AcDbLine
 10
59.54133858267717
 20
28.98622047244094
 30
0.0
 11
59.54133858267717
 21
28.96358267716535
 31
0.0
  0
LINE
  5
9B3
330
1E
100
AcDbEntity
  8
7
100
AcDbLine
 10
59.54133858267717
 20
28.96358267716535
 30
0.0
 11
59.54133858267717
 21
28.94586614173228
 31
0.0
  0
LINE
  5
9B4
330
1E
100
AcDbEntity
  8
7
100
AcDbLine
 10
59.46653543307085
 20
29.01082677165354
 30
0.0
 11
59.46653543307085
 21
29.04429133858267
 31
0.0
  0
LINE
  5
9B5
330
1E
100
AcDbEntity
  8
7
100
AcDbLine
 10
59.46653543307085
 20
29.04429133858267
 30
0.0
 11
59.46653543307085
 21
29.08169291338582
 31
0.0
  0
LINE
  5
9B6
330
1E
100
AcDbEntity
  8
7
100
AcDbLine
 10
59.46653543307085
 20
29.08169291338582
 30
0.0
 11
59.46653543307085
 21
29.12303149606299
 31
0.0
  0
LINE
  5
9B7
330
1E
100
AcDbEntity
  8
7
100
AcDbLine
 10
59.46653543307085
 20
29.12303149606299
 30
0.0
 11
59.46653543307085
 21
29.16633858267716
 31
0.0
  0
LINE
  5
9B8
330
1E
100
AcDbEntity
  8
7
100
AcDbLine
 10
59.46653543307085
 20
29.16633858267716
 30
0.0
 11
59.46653543307085
 21
29.20964566929134
 31
0.0
  0
LINE
  5
9B9
330
1E
100
AcDbEntity
  8
7
100
AcDbLine
 10
59.46653543307085
 20
29.20964566929134
 30
0.0
 11
59.46653543307085
 21
29.2509842519685
 31
0.0
  0
LINE
  5
9BA
330
1E
100
AcDbEntity
  8
7
100
AcDbLine
 10
59.46653543307085
 20
29.2509842519685
 30
0.0
 11
59.46653543307085
 21
29.29035433070866
 31
0.0
  0
LINE
  5
9BB
330
1E
100
AcDbEntity
  8
7
100
AcDbLine
 10
59.46653543307085
 20
29.29035433070866
 30
0.0
 11
59.46653543307085
 21
29.32480314960629
 31
0.0
  0
LINE
  5
9BC
330
1E
100
AcDbEntity
  8
7
100
AcDbLine
 10
59.46653543307085
 20
29.32480314960629
 30
0.0
 11
59.46653543307085
 21
29.35334645669291
 31
0.0
  0
LINE
  5
9BD
330
1E
100
AcDbEntity
  8
7
100
AcDbLine
 10
59.46653543307085
 20
29.35334645669291
 30
0.0
 11
59.46653543307085
 21
29.3759842519685
 31
0.0
  0
LINE
  5
9BE
330
1E
100
AcDbEntity
  8
7
100
AcDbLine
 10
59.46653543307085
 20
29.3759842519685
 30
0.0
 11
59.46653543307085
 21
29.39074803149606
 31
0.0
  0
LINE
  5
9BF
330
1E
100
AcDbEntity
  8
7
100
AcDbLine
 10
59.46653543307085
 20
28.94685039370078
 30
0.0
 11
59.46653543307085
 21
28.95177165354331
 31
0.0
  0
LINE
  5
9C0
330
1E
100
AcDbEntity
  8
7
100
AcDbLine
 10
59.46653543307085
 20
28.95177165354331
 30
0.0
 11
59.46653543307085
 21
28.96358267716535
 31
0.0
  0
LINE
  5
9C1
330
1E
100
AcDbEntity
  8
7
100
AcDbLine
 10
59.46653543307085
 20
28.96358267716535
 30
0.0
 11
59.46653543307085
 21
28.98425196850393
 31
0.0
  0
LINE
  5
9C2
330
1E
100
AcDbEntity
  8
7
100
AcDbLine
 10
59.46653543307085
 20
28.98425196850393
 30
0.0
 11
59.46653543307085
 21
29.01082677165354
 31
0.0
  0
LINE
  5
9C3
330
1E
100
AcDbEntity
  8
7
100
AcDbLine
 10
59.31003937007874
 20
29.94389763779527
 30
0.0
 11
59.29921259842519
 21
29.94389763779527
 31
0.0
  0
LINE
  5
9C4
330
1E
100
AcDbEntity
  8
7
100
AcDbLine
 10
59.29921259842519
 20
29.94389763779527
 30
0.0
 11
59.28248031496062
 21
29.94291338582677
 31
0.0
  0
LINE
  5
9C5
330
1E
100
AcDbEntity
  8
7
100
AcDbLine
 10
59.28248031496062
 20
29.94291338582677
 30
0.0
 11
59.26279527559055
 21
29.94291338582677
 31
0.0
  0
LINE
  5
9C6
330
1E
100
AcDbEntity
  8
7
100
AcDbLine
 10
59.26279527559055
 20
29.94291338582677
 30
0.0
 11
59.25
 21
29.94291338582677
 31
0.0
  0
LINE
  5
9C7
330
1E
100
AcDbEntity
  8
7
100
AcDbLine
 10
59.15944881889763
 20
31.91240157480315
 30
0.0
 11
59.14370078740157
 21
31.91929133858267
 31
0.0
  0
LINE
  5
9C8
330
1E
100
AcDbEntity
  8
7
100
AcDbLine
 10
59.14370078740157
 20
31.91929133858267
 30
0.0
 11
59.13188976377952
 21
31.93307086614173
 31
0.0
  0
LINE
  5
9C9
330
1E
100
AcDbEntity
  8
7
100
AcDbLine
 10
59.13188976377952
 20
31.93307086614173
 30
0.0
 11
59.18011811023622
 21
31.8503937007874
 31
0.0
  0
LINE
  5
9CA
330
1E
100
AcDbEntity
  8
7
100
AcDbLine
 10
59.18011811023622
 20
31.8503937007874
 30
0.0
 11
59.27165354330708
 21
31.78641732283464
 31
0.0
  0
LINE
  5
9CB
330
1E
100
AcDbEntity
  8
7
100
AcDbLine
 10
59.27165354330708
 20
31.78641732283464
 30
0.0
 11
59.19586614173228
 21
31.91732283464566
 31
0.0
  0
LINE
  5
9CC
330
1E
100
AcDbEntity
  8
7
100
AcDbLine
 10
59.19586614173228
 20
31.91732283464566
 30
0.0
 11
59.19389763779527
 21
31.91633858267716
 31
0.0
  0
LINE
  5
9CD
330
1E
100
AcDbEntity
  8
7
100
AcDbLine
 10
59.19389763779527
 20
31.91633858267716
 30
0.0
 11
59.1771653543307
 21
31.91043307086614
 31
0.0
  0
LINE
  5
9CE
330
1E
100
AcDbEntity
  8
7
100
AcDbLine
 10
59.1771653543307
 20
31.91043307086614
 30
0.0
 11
59.15944881889763
 21
31.91240157480315
 31
0.0
  0
LINE
  5
9CF
330
1E
100
AcDbEntity
  8
7
100
AcDbLine
 10
59.19881889763779
 20
31.99311023622047
 30
0.0
 11
59.18307086614174
 21
32.0009842519685
 31
0.0
  0
LINE
  5
9D0
330
1E
100
AcDbEntity
  8
7
100
AcDbLine
 10
59.18307086614174
 20
32.0009842519685
 30
0.0
 11
59.16633858267716
 21
32.001968503937
 31
0.0
  0
LINE
  5
9D1
330
1E
100
AcDbEntity
  8
7
100
AcDbLine
 10
59.16633858267716
 20
32.001968503937
 30
0.0
 11
59.14960629921259
 21
31.99704724409448
 31
0.0
  0
LINE
  5
9D2
330
1E
100
AcDbEntity
  8
7
100
AcDbLine
 10
59.14960629921259
 20
31.99704724409448
 30
0.0
 11
59.14862204724409
 21
31.99606299212598
 31
0.0
  0
LINE
  5
9D3
330
1E
100
AcDbEntity
  8
7
100
AcDbLine
 10
59.14862204724409
 20
31.99606299212598
 30
0.0
 11
59.13582677165354
 21
31.98523622047244
 31
0.0
  0
LINE
  5
9D4
330
1E
100
AcDbEntity
  8
7
100
AcDbLine
 10
59.13582677165354
 20
31.98523622047244
 30
0.0
 11
59.12795275590551
 21
31.96948818897638
 31
0.0
  0
LINE
  5
9D5
330
1E
100
AcDbEntity
  8
7
100
AcDbLine
 10
59.12795275590551
 20
31.96948818897638
 30
0.0
 11
59.126968503937
 21
31.9517716535433
 31
0.0
  0
LINE
  5
9D6
330
1E
100
AcDbEntity
  8
7
100
AcDbLine
 10
59.126968503937
 20
31.9517716535433
 30
0.0
 11
59.13188976377952
 21
31.93503937007874
 31
0.0
  0
LINE
  5
9D7
330
1E
100
AcDbEntity
  8
7
100
AcDbLine
 10
59.23425196850393
 20
31.93996062992126
 30
0.0
 11
59.21062992125984
 21
31.98031496062991
 31
0.0
  0
LINE
  5
9D8
330
1E
100
AcDbEntity
  8
7
100
AcDbLine
 10
59.21062992125984
 20
31.98031496062991
 30
0.0
 11
59.19881889763779
 21
31.99311023622047
 31
0.0
  0
LINE
  5
9D9
330
1E
100
AcDbEntity
  8
7
100
AcDbLine
 10
59.13188976377952
 20
31.93503937007874
 30
0.0
 11
59.13287401574803
 21
31.93503937007874
 31
0.0
  0
LINE
  5
9DA
330
1E
100
AcDbEntity
  8
7
100
AcDbLine
 10
59.13287401574803
 20
31.93503937007874
 30
0.0
 11
59.14370078740157
 21
31.92125984251968
 31
0.0
  0
LINE
  5
9DB
330
1E
100
AcDbEntity
  8
7
100
AcDbLine
 10
59.14370078740157
 20
31.92125984251968
 30
0.0
 11
59.15944881889763
 21
31.91338582677165
 31
0.0
  0
LINE
  5
9DC
330
1E
100
AcDbEntity
  8
7
100
AcDbLine
 10
59.15944881889763
 20
31.91338582677165
 30
0.0
 11
59.1771653543307
 21
31.91240157480315
 31
0.0
  0
LINE
  5
9DD
330
1E
100
AcDbEntity
  8
7
100
AcDbLine
 10
59.1771653543307
 20
31.91240157480315
 30
0.0
 11
59.19389763779527
 21
31.91830708661417
 31
0.0
  0
LINE
  5
9DE
330
1E
100
AcDbEntity
  8
7
100
AcDbLine
 10
59.19389763779527
 20
31.91830708661417
 30
0.0
 11
59.19685039370079
 21
31.92027559055118
 31
0.0
  0
LINE
  5
9DF
330
1E
100
AcDbEntity
  8
7
100
AcDbLine
 10
59.19685039370079
 20
31.92027559055118
 30
0.0
 11
59.19783464566929
 21
31.91830708661417
 31
0.0
  0
LINE
  5
9E0
330
1E
100
AcDbEntity
  8
7
100
AcDbLine
 10
59.22440944881889
 20
31.89173228346456
 30
0.0
 11
59.23818897637795
 21
31.86909448818898
 31
0.0
  0
LINE
  5
9E1
330
1E
100
AcDbEntity
  8
7
100
AcDbLine
 10
59.23818897637795
 20
31.86909448818898
 30
0.0
 11
59.25295275590551
 21
31.84350393700787
 31
0.0
  0
LINE
  5
9E2
330
1E
100
AcDbEntity
  8
7
100
AcDbLine
 10
59.25295275590551
 20
31.84350393700787
 30
0.0
 11
59.26968503937008
 21
31.81594488188976
 31
0.0
  0
LINE
  5
9E3
330
1E
100
AcDbEntity
  8
7
100
AcDbLine
 10
59.20472440944881
 20
31.92224409448819
 30
0.0
 11
59.20767716535433
 21
31.91929133858267
 31
0.0
  0
LINE
  5
9E4
330
1E
100
AcDbEntity
  8
7
100
AcDbLine
 10
59.20767716535433
 20
31.91929133858267
 30
0.0
 11
59.21456692913385
 21
31.90846456692913
 31
0.0
  0
LINE
  5
9E5
330
1E
100
AcDbEntity
  8
7
100
AcDbLine
 10
59.21456692913385
 20
31.90846456692913
 30
0.0
 11
59.22440944881889
 21
31.89173228346456
 31
0.0
  0
LINE
  5
9E6
330
1E
100
AcDbEntity
  8
7
100
AcDbLine
 10
59.19783464566929
 20
31.91830708661417
 30
0.0
 11
59.20472440944881
 21
31.92224409448819
 31
0.0
  0
LINE
  5
9E7
330
1E
100
AcDbEntity
  8
7
100
AcDbLine
 10
59.20472440944881
 20
31.92224409448819
 30
0.0
 11
59.2765748031496
 21
31.96358267716535
 31
0.0
  0
LINE
  5
9E8
330
1E
100
AcDbEntity
  8
7
100
AcDbLine
 10
59.28444881889763
 20
31.94881889763779
 30
0.0
 11
59.29429133858267
 21
31.93208661417322
 31
0.0
  0
LINE
  5
9E9
330
1E
100
AcDbEntity
  8
7
100
AcDbLine
 10
59.29429133858267
 20
31.93208661417322
 30
0.0
 11
59.30708661417323
 21
31.90944881889763
 31
0.0
  0
LINE
  5
9EA
330
1E
100
AcDbEntity
  8
7
100
AcDbLine
 10
59.30708661417323
 20
31.90944881889763
 30
0.0
 11
59.32283464566928
 21
31.88385826771653
 31
0.0
  0
LINE
  5
9EB
330
1E
100
AcDbEntity
  8
7
100
AcDbLine
 10
59.32283464566928
 20
31.88385826771653
 30
0.0
 11
59.33858267716535
 21
31.85531496062992
 31
0.0
  0
LINE
  5
9EC
330
1E
100
AcDbEntity
  8
7
100
AcDbLine
 10
59.2765748031496
 20
31.96358267716535
 30
0.0
 11
59.27854330708661
 21
31.95964566929133
 31
0.0
  0
LINE
  5
9ED
330
1E
100
AcDbEntity
  8
7
100
AcDbLine
 10
59.27854330708661
 20
31.95964566929133
 30
0.0
 11
59.28444881889763
 21
31.94881889763779
 31
0.0
  0
LINE
  5
9EE
330
1E
100
AcDbEntity
  8
7
100
AcDbLine
 10
59.39566929133857
 20
28.49704724409448
 30
0.0
 11
59.39566929133857
 21
28.46456692913386
 31
0.0
  0
LINE
  5
9EF
330
1E
100
AcDbEntity
  8
7
100
AcDbLine
 10
59.39566929133857
 20
28.46456692913386
 30
0.0
 11
59.39665354330708
 21
28.43503937007874
 31
0.0
  0
LINE
  5
9F0
330
1E
100
AcDbEntity
  8
7
100
AcDbLine
 10
59.39665354330708
 20
28.43503937007874
 30
0.0
 11
59.39665354330708
 21
28.40846456692913
 31
0.0
  0
LINE
  5
9F1
330
1E
100
AcDbEntity
  8
7
100
AcDbLine
 10
59.39665354330708
 20
28.40846456692913
 30
0.0
 11
59.39665354330708
 21
28.38877952755905
 31
0.0
  0
LINE
  5
9F2
330
1E
100
AcDbEntity
  8
7
100
AcDbLine
 10
59.39665354330708
 20
28.38877952755905
 30
0.0
 11
59.39665354330708
 21
28.37696850393701
 31
0.0
  0
LINE
  5
9F3
330
1E
100
AcDbEntity
  8
7
100
AcDbLine
 10
59.39665354330708
 20
28.37696850393701
 30
0.0
 11
59.39763779527559
 21
28.37204724409449
 31
0.0
  0
LINE
  5
9F4
330
1E
100
AcDbEntity
  8
7
100
AcDbLine
 10
59.30905511811023
 20
31.06889763779527
 30
0.0
 11
59.30905511811023
 21
31.06397637795275
 31
0.0
  0
LINE
  5
9F5
330
1E
100
AcDbEntity
  8
7
100
AcDbLine
 10
59.30905511811023
 20
31.06397637795275
 30
0.0
 11
59.30905511811023
 21
31.05314960629921
 31
0.0
  0
LINE
  5
9F6
330
1E
100
AcDbEntity
  8
7
100
AcDbLine
 10
59.30905511811023
 20
31.05314960629921
 30
0.0
 11
59.30905511811023
 21
31.02854330708661
 31
0.0
  0
LINE
  5
9F7
330
1E
100
AcDbEntity
  8
7
100
AcDbLine
 10
59.30905511811023
 20
31.02854330708661
 30
0.0
 11
59.30905511811023
 21
31.00590551181102
 31
0.0
  0
LINE
  5
9F8
330
1E
100
AcDbEntity
  8
7
100
AcDbLine
 10
59.30905511811023
 20
31.00590551181102
 30
0.0
 11
59.30905511811023
 21
30.98129921259842
 31
0.0
  0
LINE
  5
9F9
330
1E
100
AcDbEntity
  8
7
100
AcDbLine
 10
59.31299212598425
 20
28.37204724409449
 30
0.0
 11
59.31397637795275
 21
28.37696850393701
 31
0.0
  0
LINE
  5
9FA
330
1E
100
AcDbEntity
  8
7
100
AcDbLine
 10
59.31397637795275
 20
28.37696850393701
 30
0.0
 11
59.31397637795275
 21
28.38877952755905
 31
0.0
  0
LINE
  5
9FB
330
1E
100
AcDbEntity
  8
7
100
AcDbLine
 10
59.31397637795275
 20
28.38877952755905
 30
0.0
 11
59.31397637795275
 21
28.40846456692913
 31
0.0
  0
LINE
  5
9FC
330
1E
100
AcDbEntity
  8
7
100
AcDbLine
 10
59.31397637795275
 20
28.40846456692913
 30
0.0
 11
59.31397637795275
 21
28.43503937007874
 31
0.0
  0
LINE
  5
9FD
330
1E
100
AcDbEntity
  8
7
100
AcDbLine
 10
59.31397637795275
 20
28.43503937007874
 30
0.0
 11
59.31397637795275
 21
28.46456692913386
 31
0.0
  0
LINE
  5
9FE
330
1E
100
AcDbEntity
  8
7
100
AcDbLine
 10
59.31397637795275
 20
28.46456692913386
 30
0.0
 11
59.31397637795275
 21
28.49704724409448
 31
0.0
  0
LINE
  5
9FF
330
1E
100
AcDbEntity
  8
7
100
AcDbLine
 10
59.30905511811023
 20
29.13779527559055
 30
0.0
 11
59.30905511811023
 21
29.11417322834645
 31
0.0
  0
LINE
  5
A00
330
1E
100
AcDbEntity
  8
7
100
AcDbLine
 10
59.30905511811023
 20
29.11417322834645
 30
0.0
 11
59.30905511811023
 21
29.09153543307086
 31
0.0
  0
LINE
  5
A01
330
1E
100
AcDbEntity
  8
7
100
AcDbLine
 10
59.30905511811023
 20
29.09153543307086
 30
0.0
 11
59.30905511811023
 21
29.07283464566928
 31
0.0
  0
LINE
  5
A02
330
1E
100
AcDbEntity
  8
7
100
AcDbLine
 10
59.30905511811023
 20
29.07283464566928
 30
0.0
 11
59.30905511811023
 21
29.05807086614173
 31
0.0
  0
LINE
  5
A03
330
1E
100
AcDbEntity
  8
7
100
AcDbLine
 10
59.30905511811023
 20
29.05807086614173
 30
0.0
 11
59.30905511811023
 21
29.05216535433071
 31
0.0
  0
LINE
  5
A04
330
1E
100
AcDbEntity
  8
7
100
AcDbLine
 10
59.30905511811023
 20
29.05216535433071
 30
0.0
 11
59.30905511811023
 21
29.0511811023622
 31
0.0
  0
LINE
  5
A05
330
1E
100
AcDbEntity
  8
7
100
AcDbLine
 10
59.31397637795275
 20
29.97244094488189
 30
0.0
 11
59.31397637795275
 21
29.96358267716535
 31
0.0
  0
LINE
  5
A06
330
1E
100
AcDbEntity
  8
7
100
AcDbLine
 10
59.31397637795275
 20
29.96358267716535
 30
0.0
 11
59.31397637795275
 21
29.95570866141732
 31
0.0
  0
LINE
  5
A07
330
1E
100
AcDbEntity
  8
7
100
AcDbLine
 10
59.31397637795275
 20
29.95570866141732
 30
0.0
 11
59.31397637795275
 21
29.94980314960629
 31
0.0
  0
LINE
  5
A08
330
1E
100
AcDbEntity
  8
7
100
AcDbLine
 10
59.31397637795275
 20
29.94980314960629
 30
0.0
 11
59.31397637795275
 21
29.94586614173228
 31
0.0
  0
LINE
  5
A09
330
1E
100
AcDbEntity
  8
7
100
AcDbLine
 10
59.31397637795275
 20
29.94586614173228
 30
0.0
 11
59.31397637795275
 21
29.94488188976378
 31
0.0
  0
LINE
  5
A0A
330
1E
100
AcDbEntity
  8
7
100
AcDbLine
 10
59.31397637795275
 20
29.97244094488189
 30
0.0
 11
59.31397637795275
 21
29.97933070866141
 31
0.0
  0
LINE
  5
A0B
330
1E
100
AcDbEntity
  8
7
100
AcDbLine
 10
59.31397637795275
 20
29.97933070866141
 30
0.0
 11
59.31397637795275
 21
29.98523622047244
 31
0.0
  0
LINE
  5
A0C
330
1E
100
AcDbEntity
  8
7
100
AcDbLine
 10
59.31397637795275
 20
30.01870078740157
 30
0.0
 11
59.31397637795275
 21
30.01574803149606
 31
0.0
  0
LINE
  5
A0D
330
1E
100
AcDbEntity
  8
7
100
AcDbLine
 10
59.31397637795275
 20
30.01574803149606
 30
0.0
 11
59.31397637795275
 21
30.00787401574803
 31
0.0
  0
LINE
  5
A0E
330
1E
100
AcDbEntity
  8
7
100
AcDbLine
 10
59.31397637795275
 20
30.00787401574803
 30
0.0
 11
59.31397637795275
 21
30.0
 31
0.0
  0
LINE
  5
A0F
330
1E
100
AcDbEntity
  8
7
100
AcDbLine
 10
59.31397637795275
 20
30.0
 30
0.0
 11
59.31397637795275
 21
29.99015748031496
 31
0.0
  0
LINE
  5
A10
330
1E
100
AcDbEntity
  8
7
100
AcDbLine
 10
59.31397637795275
 20
29.99015748031496
 30
0.0
 11
59.31397637795275
 21
29.98523622047244
 31
0.0
  0
LINE
  5
A11
330
1E
100
AcDbEntity
  8
7
100
AcDbLine
 10
59.31397637795275
 20
30.13484251968503
 30
0.0
 11
59.31397637795275
 21
30.125
 31
0.0
  0
LINE
  5
A12
330
1E
100
AcDbEntity
  8
7
100
AcDbLine
 10
59.31397637795275
 20
30.125
 30
0.0
 11
59.31397637795275
 21
30.11712598425196
 31
0.0
  0
LINE
  5
A13
330
1E
100
AcDbEntity
  8
7
100
AcDbLine
 10
59.31397637795275
 20
30.11712598425196
 30
0.0
 11
59.31397637795275
 21
30.11023622047244
 31
0.0
  0
LINE
  5
A14
330
1E
100
AcDbEntity
  8
7
100
AcDbLine
 10
59.31397637795275
 20
30.11023622047244
 30
0.0
 11
59.31397637795275
 21
30.10433070866141
 31
0.0
  0
LINE
  5
A15
330
1E
100
AcDbEntity
  8
7
100
AcDbLine
 10
59.31397637795275
 20
30.10433070866141
 30
0.0
 11
59.31397637795275
 21
30.1013779527559
 31
0.0
  0
LINE
  5
A16
330
1E
100
AcDbEntity
  8
7
100
AcDbLine
 10
59.31397637795275
 20
30.1013779527559
 30
0.0
 11
59.31397637795275
 21
30.1003937007874
 31
0.0
  0
LINE
  5
A17
330
1E
100
AcDbEntity
  8
7
100
AcDbLine
 10
59.31397637795275
 20
30.13484251968503
 30
0.0
 11
59.31397637795275
 21
30.14074803149606
 31
0.0
  0
LINE
  5
A18
330
1E
100
AcDbEntity
  8
7
100
AcDbLine
 10
59.31397637795275
 20
30.14074803149606
 30
0.0
 11
59.31397637795275
 21
30.14665354330708
 31
0.0
  0
LINE
  5
A19
330
1E
100
AcDbEntity
  8
7
100
AcDbLine
 10
59.31397637795275
 20
30.1751968503937
 30
0.0
 11
59.31397637795275
 21
30.17224409448818
 31
0.0
  0
LINE
  5
A1A
330
1E
100
AcDbEntity
  8
7
100
AcDbLine
 10
59.31397637795275
 20
30.17224409448818
 30
0.0
 11
59.31397637795275
 21
30.16437007874015
 31
0.0
  0
LINE
  5
A1B
330
1E
100
AcDbEntity
  8
7
100
AcDbLine
 10
59.31397637795275
 20
30.16437007874015
 30
0.0
 11
59.31397637795275
 21
30.15649606299212
 31
0.0
  0
LINE
  5
A1C
330
1E
100
AcDbEntity
  8
7
100
AcDbLine
 10
59.31397637795275
 20
30.15649606299212
 30
0.0
 11
59.31397637795275
 21
30.14665354330708
 31
0.0
  0
LINE
  5
A1D
330
1E
100
AcDbEntity
  8
7
100
AcDbLine
 10
59.39566929133857
 20
31.66437007874015
 30
0.0
 11
59.39074803149606
 21
31.72342519685039
 31
0.0
  0
LINE
  5
A1E
330
1E
100
AcDbEntity
  8
7
100
AcDbLine
 10
59.39074803149606
 20
31.72342519685039
 30
0.0
 11
59.375
 21
31.78149606299212
 31
0.0
  0
LINE
  5
A1F
330
1E
100
AcDbEntity
  8
7
100
AcDbLine
 10
59.375
 20
31.78149606299212
 30
0.0
 11
59.3503937007874
 21
31.83562992125984
 31
0.0
  0
LINE
  5
A20
330
1E
100
AcDbEntity
  8
7
100
AcDbLine
 10
59.3503937007874
 20
31.83562992125984
 30
0.0
 11
59.33858267716535
 21
31.85531496062992
 31
0.0
  0
LINE
  5
A21
330
1E
100
AcDbEntity
  8
7
100
AcDbLine
 10
59.28051181102361
 20
31.79527559055117
 30
0.0
 11
59.29921259842519
 21
31.75590551181102
 31
0.0
  0
LINE
  5
A22
330
1E
100
AcDbEntity
  8
7
100
AcDbLine
 10
59.29921259842519
 20
31.75590551181102
 30
0.0
 11
59.31102362204724
 21
31.71456692913386
 31
0.0
  0
LINE
  5
A23
330
1E
100
AcDbEntity
  8
7
100
AcDbLine
 10
59.31102362204724
 20
31.71456692913386
 30
0.0
 11
59.31397637795275
 21
31.67027559055117
 31
0.0
  0
LINE
  5
A24
330
1E
100
AcDbEntity
  8
7
100
AcDbLine
 10
59.30314960629921
 20
30.01968503937007
 30
0.0
 11
59.31200787401575
 21
30.01968503937007
 31
0.0
  0
LINE
  5
A25
330
1E
100
AcDbEntity
  8
7
100
AcDbLine
 10
59.31200787401575
 20
30.01968503937007
 30
0.0
 11
59.31397637795275
 21
30.01968503937007
 31
0.0
  0
LINE
  5
A26
330
1E
100
AcDbEntity
  8
7
100
AcDbLine
 10
59.25
 20
30.01968503937007
 30
0.0
 11
59.27066929133857
 21
30.01968503937007
 31
0.0
  0
LINE
  5
A27
330
1E
100
AcDbEntity
  8
7
100
AcDbLine
 10
59.27066929133857
 20
30.01968503937007
 30
0.0
 11
59.28937007874015
 21
30.01968503937007
 31
0.0
  0
LINE
  5
A28
330
1E
100
AcDbEntity
  8
7
100
AcDbLine
 10
59.28937007874015
 20
30.01968503937007
 30
0.0
 11
59.30314960629921
 21
30.01968503937007
 31
0.0
  0
LINE
  5
A29
330
1E
100
AcDbEntity
  8
7
100
AcDbLine
 10
59.31397637795275
 20
30.1003937007874
 30
0.0
 11
59.31003937007874
 21
30.1003937007874
 31
0.0
  0
LINE
  5
A2A
330
1E
100
AcDbEntity
  8
7
100
AcDbLine
 10
59.31003937007874
 20
30.1003937007874
 30
0.0
 11
59.29921259842519
 21
30.09940944881889
 31
0.0
  0
LINE
  5
A2B
330
1E
100
AcDbEntity
  8
7
100
AcDbLine
 10
59.29921259842519
 20
30.09940944881889
 30
0.0
 11
59.28346456692913
 21
30.09940944881889
 31
0.0
  0
LINE
  5
A2C
330
1E
100
AcDbEntity
  8
7
100
AcDbLine
 10
59.28346456692913
 20
30.09940944881889
 30
0.0
 11
59.26377952755905
 21
30.09940944881889
 31
0.0
  0
LINE
  5
A2D
330
1E
100
AcDbEntity
  8
7
100
AcDbLine
 10
59.26377952755905
 20
30.09940944881889
 30
0.0
 11
59.25
 21
30.09940944881889
 31
0.0
  0
LINE
  5
A2E
330
1E
100
AcDbEntity
  8
7
100
AcDbLine
 10
59.25
 20
30.1761811023622
 30
0.0
 11
59.27066929133857
 21
30.1761811023622
 31
0.0
  0
LINE
  5
A2F
330
1E
100
AcDbEntity
  8
7
100
AcDbLine
 10
59.27066929133857
 20
30.1761811023622
 30
0.0
 11
59.28838582677165
 21
30.1761811023622
 31
0.0
  0
LINE
  5
A30
330
1E
100
AcDbEntity
  8
7
100
AcDbLine
 10
59.28838582677165
 20
30.1761811023622
 30
0.0
 11
59.30314960629921
 21
30.1761811023622
 31
0.0
  0
LINE
  5
A31
330
1E
100
AcDbEntity
  8
7
100
AcDbLine
 10
59.30314960629921
 20
30.1761811023622
 30
0.0
 11
59.31102362204724
 21
30.1761811023622
 31
0.0
  0
LINE
  5
A32
330
1E
100
AcDbEntity
  8
7
100
AcDbLine
 10
59.31102362204724
 20
30.1761811023622
 30
0.0
 11
59.31299212598425
 21
30.1761811023622
 31
0.0
  0
LINE
  5
A33
330
1E
100
AcDbEntity
  8
7
100
AcDbLine
 10
58.92125984251968
 20
29.98523622047244
 30
0.0
 11
58.92125984251968
 21
29.98720472440945
 31
0.0
  0
LINE
  5
A34
330
1E
100
AcDbEntity
  8
7
100
AcDbLine
 10
58.92125984251968
 20
29.98720472440945
 30
0.0
 11
58.92224409448818
 21
29.99015748031496
 31
0.0
  0
LINE
  5
A35
330
1E
100
AcDbEntity
  8
7
100
AcDbLine
 10
58.92224409448818
 20
29.99015748031496
 30
0.0
 11
58.9271653543307
 21
29.99409448818898
 31
0.0
  0
LINE
  5
A36
330
1E
100
AcDbEntity
  8
7
100
AcDbLine
 10
58.9271653543307
 20
29.99409448818898
 30
0.0
 11
58.94488188976378
 21
30.00196850393701
 31
0.0
  0
LINE
  5
A37
330
1E
100
AcDbEntity
  8
7
100
AcDbLine
 10
58.94488188976378
 20
30.00196850393701
 30
0.0
 11
58.98818897637795
 21
30.01377952755905
 31
0.0
  0
LINE
  5
A38
330
1E
100
AcDbEntity
  8
7
100
AcDbLine
 10
58.98818897637795
 20
30.01377952755905
 30
0.0
 11
59.03346456692912
 21
30.01870078740157
 31
0.0
  0
LINE
  5
A39
330
1E
100
AcDbEntity
  8
7
100
AcDbLine
 10
59.03346456692912
 20
30.01870078740157
 30
0.0
 11
59.05807086614173
 21
30.01968503937007
 31
0.0
  0
LINE
  5
A3A
330
1E
100
AcDbEntity
  8
7
100
AcDbLine
 10
58.93307086614173
 20
29.95866141732283
 30
0.0
 11
58.9261811023622
 21
29.96259842519685
 31
0.0
  0
LINE
  5
A3B
330
1E
100
AcDbEntity
  8
7
100
AcDbLine
 10
58.9261811023622
 20
29.96259842519685
 30
0.0
 11
58.92322834645669
 21
29.96456692913385
 31
0.0
  0
LINE
  5
A3C
330
1E
100
AcDbEntity
  8
7
100
AcDbLine
 10
58.92322834645669
 20
29.96456692913385
 30
0.0
 11
58.92125984251968
 21
29.96751968503937
 31
0.0
  0
LINE
  5
A3D
330
1E
100
AcDbEntity
  8
7
100
AcDbLine
 10
58.92125984251968
 20
29.96751968503937
 30
0.0
 11
58.92125984251968
 21
29.96948818897637
 31
0.0
  0
LINE
  5
A3E
330
1E
100
AcDbEntity
  8
7
100
AcDbLine
 10
59.03248031496062
 20
29.94291338582677
 30
0.0
 11
58.97047244094487
 21
29.94881889763779
 31
0.0
  0
LINE
  5
A3F
330
1E
100
AcDbEntity
  8
7
100
AcDbLine
 10
58.97047244094487
 20
29.94881889763779
 30
0.0
 11
58.95275590551181
 21
29.9517716535433
 31
0.0
  0
LINE
  5
A40
330
1E
100
AcDbEntity
  8
7
100
AcDbLine
 10
58.95275590551181
 20
29.9517716535433
 30
0.0
 11
58.94094488188976
 21
29.95570866141732
 31
0.0
  0
LINE
  5
A41
330
1E
100
AcDbEntity
  8
7
100
AcDbLine
 10
58.94094488188976
 20
29.95570866141732
 30
0.0
 11
58.93307086614173
 21
29.95866141732283
 31
0.0
  0
LINE
  5
A42
330
1E
100
AcDbEntity
  8
7
100
AcDbLine
 10
59.06299212598425
 20
29.45866141732283
 30
0.0
 11
59.06791338582677
 21
29.45570866141732
 31
0.0
  0
LINE
  5
A43
330
1E
100
AcDbEntity
  8
7
100
AcDbLine
 10
59.06791338582677
 20
29.45570866141732
 30
0.0
 11
59.08562992125983
 21
29.44389763779527
 31
0.0
  0
LINE
  5
A44
330
1E
100
AcDbEntity
  8
7
100
AcDbLine
 10
59.08562992125983
 20
29.44389763779527
 30
0.0
 11
59.09547244094487
 21
29.43799212598425
 31
0.0
  0
LINE
  5
A45
330
1E
100
AcDbEntity
  8
7
100
AcDbLine
 10
59.09547244094487
 20
29.43799212598425
 30
0.0
 11
59.10236220472441
 21
29.43307086614173
 31
0.0
  0
LINE
  5
A46
330
1E
100
AcDbEntity
  8
7
100
AcDbLine
 10
58.89566929133858
 20
29.44389763779527
 30
0.0
 11
58.89370078740157
 21
29.44586614173228
 31
0.0
  0
LINE
  5
A47
330
1E
100
AcDbEntity
  8
7
100
AcDbLine
 10
58.89370078740157
 20
29.44586614173228
 30
0.0
 11
58.89566929133858
 21
29.44783464566929
 31
0.0
  0
LINE
  5
A48
330
1E
100
AcDbEntity
  8
7
100
AcDbLine
 10
58.89566929133858
 20
29.44783464566929
 30
0.0
 11
58.89862204724408
 21
29.44980314960629
 31
0.0
  0
LINE
  5
A49
330
1E
100
AcDbEntity
  8
7
100
AcDbLine
 10
58.89862204724408
 20
29.44980314960629
 30
0.0
 11
58.90748031496062
 21
29.4517716535433
 31
0.0
  0
LINE
  5
A4A
330
1E
100
AcDbEntity
  8
7
100
AcDbLine
 10
58.90748031496062
 20
29.4517716535433
 30
0.0
 11
58.9261811023622
 21
29.45472440944882
 31
0.0
  0
LINE
  5
A4B
330
1E
100
AcDbEntity
  8
7
100
AcDbLine
 10
58.9261811023622
 20
29.45472440944882
 30
0.0
 11
58.94685039370078
 21
29.45669291338582
 31
0.0
  0
LINE
  5
A4C
330
1E
100
AcDbEntity
  8
7
100
AcDbLine
 10
58.94685039370078
 20
29.45669291338582
 30
0.0
 11
58.96850393700787
 21
29.45767716535433
 31
0.0
  0
LINE
  5
A4D
330
1E
100
AcDbEntity
  8
7
100
AcDbLine
 10
58.89566929133858
 20
29.44389763779527
 30
0.0
 11
58.91141732283464
 21
29.43405511811024
 31
0.0
  0
LINE
  5
A4E
330
1E
100
AcDbEntity
  8
7
100
AcDbLine
 10
58.91141732283464
 20
29.43405511811024
 30
0.0
 11
58.91929133858267
 21
29.42913385826771
 31
0.0
  0
LINE
  5
A4F
330
1E
100
AcDbEntity
  8
7
100
AcDbLine
 10
58.91929133858267
 20
30.68996062992126
 30
0.0
 11
58.91535433070866
 21
30.68700787401574
 31
0.0
  0
LINE
  5
A50
330
1E
100
AcDbEntity
  8
7
100
AcDbLine
 10
58.91535433070866
 20
30.68700787401574
 30
0.0
 11
58.90748031496062
 21
30.68307086614173
 31
0.0
  0
LINE
  5
A51
330
1E
100
AcDbEntity
  8
7
100
AcDbLine
 10
58.90748031496062
 20
30.68307086614173
 30
0.0
 11
58.89566929133858
 21
30.6761811023622
 31
0.0
  0
LINE
  5
A52
330
1E
100
AcDbEntity
  8
7
100
AcDbLine
 10
58.96850393700787
 20
30.66240157480315
 30
0.0
 11
58.94488188976378
 21
30.66338582677165
 31
0.0
  0
LINE
  5
A53
330
1E
100
AcDbEntity
  8
7
100
AcDbLine
 10
58.94488188976378
 20
30.66338582677165
 30
0.0
 11
58.92125984251968
 21
30.66535433070866
 31
0.0
  0
LINE
  5
A54
330
1E
100
AcDbEntity
  8
7
100
AcDbLine
 10
58.92125984251968
 20
30.66535433070866
 30
0.0
 11
58.91043307086613
 21
30.66732283464566
 31
0.0
  0
LINE
  5
A55
330
1E
100
AcDbEntity
  8
7
100
AcDbLine
 10
58.91043307086613
 20
30.66732283464566
 30
0.0
 11
58.9005905511811
 21
30.66929133858267
 31
0.0
  0
LINE
  5
A56
330
1E
100
AcDbEntity
  8
7
100
AcDbLine
 10
58.9005905511811
 20
30.66929133858267
 30
0.0
 11
58.89566929133858
 21
30.67125984251968
 31
0.0
  0
LINE
  5
A57
330
1E
100
AcDbEntity
  8
7
100
AcDbLine
 10
58.89566929133858
 20
30.67125984251968
 30
0.0
 11
58.89370078740157
 21
30.67421259842519
 31
0.0
  0
LINE
  5
A58
330
1E
100
AcDbEntity
  8
7
100
AcDbLine
 10
58.89370078740157
 20
30.67421259842519
 30
0.0
 11
58.89566929133858
 21
30.6751968503937
 31
0.0
  0
LINE
  5
A59
330
1E
100
AcDbEntity
  8
7
100
AcDbLine
 10
58.89566929133858
 20
30.6751968503937
 30
0.0
 11
58.89566929133858
 21
30.6761811023622
 31
0.0
  0
LINE
  5
A5A
330
1E
100
AcDbEntity
  8
7
100
AcDbLine
 10
59.10236220472441
 20
30.68602362204724
 30
0.0
 11
59.09448818897637
 21
30.68110236220472
 31
0.0
  0
LINE
  5
A5B
330
1E
100
AcDbEntity
  8
7
100
AcDbLine
 10
59.09448818897637
 20
30.68110236220472
 30
0.0
 11
59.08267716535433
 21
30.67322834645669
 31
0.0
  0
LINE
  5
A5C
330
1E
100
AcDbEntity
  8
7
100
AcDbLine
 10
59.08267716535433
 20
30.67322834645669
 30
0.0
 11
59.06299212598425
 21
30.66043307086614
 31
0.0
  0
LINE
  5
A5D
330
1E
100
AcDbEntity
  8
7
100
AcDbLine
 10
58.92125984251968
 20
30.1496062992126
 30
0.0
 11
58.92125984251968
 21
30.15157480314961
 31
0.0
  0
LINE
  5
A5E
330
1E
100
AcDbEntity
  8
7
100
AcDbLine
 10
58.92125984251968
 20
30.15157480314961
 30
0.0
 11
58.92224409448818
 21
30.15354330708661
 31
0.0
  0
LINE
  5
A5F
330
1E
100
AcDbEntity
  8
7
100
AcDbLine
 10
58.92224409448818
 20
30.15354330708661
 30
0.0
 11
58.9261811023622
 21
30.15748031496062
 31
0.0
  0
LINE
  5
A60
330
1E
100
AcDbEntity
  8
7
100
AcDbLine
 10
58.9261811023622
 20
30.15748031496062
 30
0.0
 11
58.94094488188976
 21
30.16437007874015
 31
0.0
  0
LINE
  5
A61
330
1E
100
AcDbEntity
  8
7
100
AcDbLine
 10
58.94094488188976
 20
30.16437007874015
 30
0.0
 11
58.97440944881889
 21
30.17224409448818
 31
0.0
  0
LINE
  5
A62
330
1E
100
AcDbEntity
  8
7
100
AcDbLine
 10
58.97440944881889
 20
30.17224409448818
 30
0.0
 11
59.00885826771653
 21
30.1751968503937
 31
0.0
  0
LINE
  5
A63
330
1E
100
AcDbEntity
  8
7
100
AcDbLine
 10
59.00885826771653
 20
30.1751968503937
 30
0.0
 11
59.03248031496062
 21
30.1761811023622
 31
0.0
  0
LINE
  5
A64
330
1E
100
AcDbEntity
  8
7
100
AcDbLine
 10
59.05807086614173
 20
30.09940944881889
 30
0.0
 11
58.99606299212599
 21
30.10531496062991
 31
0.0
  0
LINE
  5
A65
330
1E
100
AcDbEntity
  8
7
100
AcDbLine
 10
58.99606299212599
 20
30.10531496062991
 30
0.0
 11
58.96456692913385
 21
30.11122047244094
 31
0.0
  0
LINE
  5
A66
330
1E
100
AcDbEntity
  8
7
100
AcDbLine
 10
58.96456692913385
 20
30.11122047244094
 30
0.0
 11
58.93503937007874
 21
30.12106299212598
 31
0.0
  0
LINE
  5
A67
330
1E
100
AcDbEntity
  8
7
100
AcDbLine
 10
58.93503937007874
 20
30.12106299212598
 30
0.0
 11
58.92913385826772
 21
30.12401574803149
 31
0.0
  0
LINE
  5
A68
330
1E
100
AcDbEntity
  8
7
100
AcDbLine
 10
58.92913385826772
 20
30.12401574803149
 30
0.0
 11
58.92322834645669
 21
30.12893700787401
 31
0.0
  0
LINE
  5
A69
330
1E
100
AcDbEntity
  8
7
100
AcDbLine
 10
58.92322834645669
 20
30.12893700787401
 30
0.0
 11
58.92125984251968
 21
30.13090551181102
 31
0.0
  0
LINE
  5
A6A
330
1E
100
AcDbEntity
  8
7
100
AcDbLine
 10
58.92125984251968
 20
30.13090551181102
 30
0.0
 11
58.92125984251968
 21
30.13287401574803
 31
0.0
  0
LINE
  5
A6B
330
1E
100
AcDbEntity
  8
7
100
AcDbLine
 10
58.92125984251968
 20
30.13287401574803
 30
0.0
 11
58.92125984251968
 21
30.13385826771653
 31
0.0
  0
LINE
  5
A6C
330
1E
100
AcDbEntity
  8
7
100
AcDbLine
 10
54.1515748031496
 20
31.06003937007874
 30
0.0
 11
54.1515748031496
 21
31.16338582677165
 31
0.0
  0
LINE
  5
A6D
330
1E
100
AcDbEntity
  8
7
100
AcDbLine
 10
54.1515748031496
 20
31.16338582677165
 30
0.0
 11
54.1515748031496
 21
31.26574803149606
 31
0.0
  0
LINE
  5
A6E
330
1E
100
AcDbEntity
  8
7
100
AcDbLine
 10
54.1515748031496
 20
31.26574803149606
 30
0.0
 11
54.1515748031496
 21
31.36614173228346
 31
0.0
  0
LINE
  5
A6F
330
1E
100
AcDbEntity
  8
7
100
AcDbLine
 10
54.1515748031496
 20
31.36614173228346
 30
0.0
 11
54.1515748031496
 21
31.46555118110236
 31
0.0
  0
LINE
  5
A70
330
1E
100
AcDbEntity
  8
7
100
AcDbLine
 10
54.1515748031496
 20
31.46555118110236
 30
0.0
 11
54.1515748031496
 21
31.56200787401575
 31
0.0
  0
LINE
  5
A71
330
1E
100
AcDbEntity
  8
7
100
AcDbLine
 10
54.1515748031496
 20
31.56200787401575
 30
0.0
 11
54.1515748031496
 21
31.65452755905512
 31
0.0
  0
LINE
  5
A72
330
1E
100
AcDbEntity
  8
7
100
AcDbLine
 10
54.1515748031496
 20
31.65452755905512
 30
0.0
 11
54.1515748031496
 21
31.74311023622047
 31
0.0
  0
LINE
  5
A73
330
1E
100
AcDbEntity
  8
7
100
AcDbLine
 10
54.1515748031496
 20
31.74311023622047
 30
0.0
 11
54.1515748031496
 21
31.8277559055118
 31
0.0
  0
LINE
  5
A74
330
1E
100
AcDbEntity
  8
7
100
AcDbLine
 10
54.1515748031496
 20
31.8277559055118
 30
0.0
 11
54.1515748031496
 21
31.90649606299212
 31
0.0
  0
LINE
  5
A75
330
1E
100
AcDbEntity
  8
7
100
AcDbLine
 10
54.1515748031496
 20
31.90649606299212
 30
0.0
 11
54.1515748031496
 21
31.97933070866141
 31
0.0
  0
LINE
  5
A76
330
1E
100
AcDbEntity
  8
7
100
AcDbLine
 10
54.1515748031496
 20
31.97933070866141
 30
0.0
 11
54.1515748031496
 21
32.04625984251968
 31
0.0
  0
LINE
  5
A77
330
1E
100
AcDbEntity
  8
7
100
AcDbLine
 10
54.1515748031496
 20
32.04625984251968
 30
0.0
 11
54.1515748031496
 21
32.10629921259842
 31
0.0
  0
LINE
  5
A78
330
1E
100
AcDbEntity
  8
7
100
AcDbLine
 10
54.1515748031496
 20
32.10629921259842
 30
0.0
 11
54.1515748031496
 21
32.15944881889763
 31
0.0
  0
LINE
  5
A79
330
1E
100
AcDbEntity
  8
7
100
AcDbLine
 10
54.1515748031496
 20
32.15944881889763
 30
0.0
 11
54.1515748031496
 21
32.20472440944881
 31
0.0
  0
LINE
  5
A7A
330
1E
100
AcDbEntity
  8
7
100
AcDbLine
 10
54.1515748031496
 20
32.20472440944881
 30
0.0
 11
54.1515748031496
 21
32.24212598425197
 31
0.0
  0
LINE
  5
A7B
330
1E
100
AcDbEntity
  8
7
100
AcDbLine
 10
54.1515748031496
 20
32.24212598425197
 30
0.0
 11
54.1515748031496
 21
32.27165354330708
 31
0.0
  0
LINE
  5
A7C
330
1E
100
AcDbEntity
  8
7
100
AcDbLine
 10
54.1515748031496
 20
32.27165354330708
 30
0.0
 11
54.1515748031496
 21
32.29232283464567
 31
0.0
  0
LINE
  5
A7D
330
1E
100
AcDbEntity
  8
7
100
AcDbLine
 10
54.1515748031496
 20
32.29232283464567
 30
0.0
 11
54.1515748031496
 21
32.30511811023622
 31
0.0
  0
LINE
  5
A7E
330
1E
100
AcDbEntity
  8
7
100
AcDbLine
 10
54.1515748031496
 20
27.84842519685039
 30
0.0
 11
54.1515748031496
 21
27.87795275590551
 31
0.0
  0
LINE
  5
A7F
330
1E
100
AcDbEntity
  8
7
100
AcDbLine
 10
54.1515748031496
 20
27.87795275590551
 30
0.0
 11
54.1515748031496
 21
27.91535433070865
 31
0.0
  0
LINE
  5
A80
330
1E
100
AcDbEntity
  8
7
100
AcDbLine
 10
54.1515748031496
 20
27.91535433070865
 30
0.0
 11
54.1515748031496
 21
27.96062992125984
 31
0.0
  0
LINE
  5
A81
330
1E
100
AcDbEntity
  8
7
100
AcDbLine
 10
54.1515748031496
 20
27.96062992125984
 30
0.0
 11
54.1515748031496
 21
28.01377952755905
 31
0.0
  0
LINE
  5
A82
330
1E
100
AcDbEntity
  8
7
100
AcDbLine
 10
54.1515748031496
 20
28.01377952755905
 30
0.0
 11
54.1515748031496
 21
28.07381889763779
 31
0.0
  0
LINE
  5
A83
330
1E
100
AcDbEntity
  8
7
100
AcDbLine
 10
54.1515748031496
 20
28.07381889763779
 30
0.0
 11
54.1515748031496
 21
28.13976377952755
 31
0.0
  0
LINE
  5
A84
330
1E
100
AcDbEntity
  8
7
100
AcDbLine
 10
54.1515748031496
 20
28.13976377952755
 30
0.0
 11
54.1515748031496
 21
28.21358267716535
 31
0.0
  0
LINE
  5
A85
330
1E
100
AcDbEntity
  8
7
100
AcDbLine
 10
54.1515748031496
 20
28.21358267716535
 30
0.0
 11
54.1515748031496
 21
28.29232283464566
 31
0.0
  0
LINE
  5
A86
330
1E
100
AcDbEntity
  8
7
100
AcDbLine
 10
54.1515748031496
 20
28.29232283464566
 30
0.0
 11
54.1515748031496
 21
28.3759842519685
 31
0.0
  0
LINE
  5
A87
330
1E
100
AcDbEntity
  8
7
100
AcDbLine
 10
54.1515748031496
 20
28.3759842519685
 30
0.0
 11
54.1515748031496
 21
28.46456692913386
 31
0.0
  0
LINE
  5
A88
330
1E
100
AcDbEntity
  8
7
100
AcDbLine
 10
54.1515748031496
 20
28.46456692913386
 30
0.0
 11
54.1515748031496
 21
28.55807086614173
 31
0.0
  0
LINE
  5
A89
330
1E
100
AcDbEntity
  8
7
100
AcDbLine
 10
54.1515748031496
 20
28.55807086614173
 30
0.0
 11
54.1515748031496
 21
28.65354330708661
 31
0.0
  0
LINE
  5
A8A
330
1E
100
AcDbEntity
  8
7
100
AcDbLine
 10
54.1515748031496
 20
28.65354330708661
 30
0.0
 11
54.1515748031496
 21
28.75295275590551
 31
0.0
  0
LINE
  5
A8B
330
1E
100
AcDbEntity
  8
7
100
AcDbLine
 10
54.1515748031496
 20
28.75295275590551
 30
0.0
 11
54.1515748031496
 21
28.85433070866141
 31
0.0
  0
LINE
  5
A8C
330
1E
100
AcDbEntity
  8
7
100
AcDbLine
 10
54.1515748031496
 20
28.85433070866141
 30
0.0
 11
54.1515748031496
 21
28.95669291338582
 31
0.0
  0
LINE
  5
A8D
330
1E
100
AcDbEntity
  8
7
100
AcDbLine
 10
54.1515748031496
 20
28.95669291338582
 30
0.0
 11
54.1515748031496
 21
29.06003937007874
 31
0.0
  0
LINE
  5
A8E
330
1E
100
AcDbEntity
  8
7
100
AcDbLine
 10
54.1515748031496
 20
29.06003937007874
 30
0.0
 11
54.1515748031496
 21
31.06003937007874
 31
0.0
  0
LINE
  5
A8F
330
1E
100
AcDbEntity
  8
7
100
AcDbLine
 10
54.1515748031496
 20
27.81003937007874
 30
0.0
 11
54.1515748031496
 21
27.81397637795275
 31
0.0
  0
LINE
  5
A90
330
1E
100
AcDbEntity
  8
7
100
AcDbLine
 10
54.1515748031496
 20
27.81397637795275
 30
0.0
 11
54.1515748031496
 21
27.8267716535433
 31
0.0
  0
LINE
  5
A91
330
1E
100
AcDbEntity
  8
7
100
AcDbLine
 10
54.1515748031496
 20
27.8267716535433
 30
0.0
 11
54.1515748031496
 21
27.84842519685039
 31
0.0
  0
LINE
  5
A92
330
1E
100
AcDbEntity
  8
7
100
AcDbLine
 10
59.4015748031496
 20
29.42716535433071
 30
0.0
 11
59.40551181102361
 21
29.41633858267716
 31
0.0
  0
LINE
  5
A93
330
1E
100
AcDbEntity
  8
7
100
AcDbLine
 10
59.40551181102361
 20
29.41633858267716
 30
0.0
 11
59.41633858267716
 21
29.41240157480315
 31
0.0
  0
LINE
  5
A94
330
1E
100
AcDbEntity
  8
7
100
AcDbLine
 10
59.4015748031496
 20
31.1771653543307
 30
0.0
 11
59.40551181102361
 21
31.16633858267716
 31
0.0
  0
LINE
  5
A95
330
1E
100
AcDbEntity
  8
7
100
AcDbLine
 10
59.40551181102361
 20
31.16633858267716
 30
0.0
 11
59.41633858267716
 21
31.16240157480314
 31
0.0
  0
LINE
  5
A96
330
1E
100
AcDbEntity
  8
7
100
AcDbLine
 10
59.43208661417322
 20
31.4507874015748
 30
0.0
 11
59.43011811023622
 21
31.45669291338582
 31
0.0
  0
LINE
  5
A97
330
1E
100
AcDbEntity
  8
7
100
AcDbLine
 10
59.43011811023622
 20
31.45669291338582
 30
0.0
 11
59.4251968503937
 21
31.46062992125984
 31
0.0
  0
LINE
  5
A98
330
1E
100
AcDbEntity
  8
7
100
AcDbLine
 10
59.46555118110236
 20
28.98228346456692
 30
0.0
 11
59.46161417322834
 21
28.99311023622047
 31
0.0
  0
LINE
  5
A99
330
1E
100
AcDbEntity
  8
7
100
AcDbLine
 10
59.46161417322834
 20
28.99311023622047
 30
0.0
 11
59.4507874015748
 21
28.99704724409449
 31
0.0
  0
LINE
  5
A9A
330
1E
100
AcDbEntity
  8
7
100
AcDbLine
 10
59.41633858267716
 20
28.99704724409449
 30
0.0
 11
59.40551181102361
 21
28.99311023622047
 31
0.0
  0
LINE
  5
A9B
330
1E
100
AcDbEntity
  8
7
100
AcDbLine
 10
59.40551181102361
 20
28.99311023622047
 30
0.0
 11
59.4015748031496
 21
28.98228346456692
 31
0.0
  0
LINE
  5
A9C
330
1E
100
AcDbEntity
  8
7
100
AcDbLine
 10
59.47145669291337
 20
30.73228346456692
 30
0.0
 11
59.46751968503936
 21
30.74311023622047
 31
0.0
  0
LINE
  5
A9D
330
1E
100
AcDbEntity
  8
7
100
AcDbLine
 10
59.46751968503936
 20
30.74311023622047
 30
0.0
 11
59.45669291338582
 21
30.74704724409448
 31
0.0
  0
LINE
  5
A9E
330
1E
100
AcDbEntity
  8
7
100
AcDbLine
 10
59.41633858267716
 20
30.74704724409448
 30
0.0
 11
59.40551181102361
 21
30.74311023622047
 31
0.0
  0
LINE
  5
A9F
330
1E
100
AcDbEntity
  8
7
100
AcDbLine
 10
59.40551181102361
 20
30.74311023622047
 30
0.0
 11
59.4015748031496
 21
30.73228346456692
 31
0.0
  0
LINE
  5
AA0
330
1E
100
AcDbEntity
  8
7
100
AcDbLine
 10
59.55708661417323
 20
29.39862204724409
 30
0.0
 11
59.5521653543307
 21
29.40846456692913
 31
0.0
  0
LINE
  5
AA1
330
1E
100
AcDbEntity
  8
7
100
AcDbLine
 10
59.5521653543307
 20
29.40846456692913
 30
0.0
 11
59.54232283464566
 21
29.41240157480315
 31
0.0
  0
LINE
  5
AA2
330
1E
100
AcDbEntity
  8
7
100
AcDbLine
 10
59.54232283464566
 20
28.93208661417323
 30
0.0
 11
59.5521653543307
 21
28.93602362204724
 31
0.0
  0
LINE
  5
AA3
330
1E
100
AcDbEntity
  8
7
100
AcDbLine
 10
59.5521653543307
 20
28.93602362204724
 30
0.0
 11
59.55708661417323
 21
28.94586614173228
 31
0.0
  0
LINE
  5
AA4
330
1E
100
AcDbEntity
  8
7
100
AcDbLine
 10
59.56200787401574
 20
31.14862204724409
 30
0.0
 11
59.55708661417323
 21
31.15846456692913
 31
0.0
  0
LINE
  5
AA5
330
1E
100
AcDbEntity
  8
7
100
AcDbLine
 10
59.55708661417323
 20
31.15846456692913
 30
0.0
 11
59.54724409448818
 21
31.16240157480314
 31
0.0
  0
LINE
  5
AA6
330
1E
100
AcDbEntity
  8
7
100
AcDbLine
 10
59.54724409448818
 20
30.68208661417322
 30
0.0
 11
59.55708661417323
 21
30.68602362204724
 31
0.0
  0
LINE
  5
AA7
330
1E
100
AcDbEntity
  8
7
100
AcDbLine
 10
59.55708661417323
 20
30.68602362204724
 30
0.0
 11
59.56200787401574
 21
30.69586614173228
 31
0.0
  0
LINE
  5
AA8
330
1E
100
AcDbEntity
  8
7
100
AcDbLine
 10
59.47145669291337
 20
30.69685039370078
 30
0.0
 11
59.4753937007874
 21
30.68602362204724
 31
0.0
  0
LINE
  5
AA9
330
1E
100
AcDbEntity
  8
7
100
AcDbLine
 10
59.4753937007874
 20
30.68602362204724
 30
0.0
 11
59.48622047244094
 21
30.68208661417322
 31
0.0
  0
LINE
  5
AAA
330
1E
100
AcDbEntity
  8
7
100
AcDbLine
 10
59.55708661417323
 20
28.94586614173228
 30
0.0
 11
59.57086614173228
 21
29.17224409448818
 31
0.0
  0
LINE
  5
AAB
330
1E
100
AcDbEntity
  8
7
100
AcDbLine
 10
59.57086614173228
 20
29.17224409448818
 30
0.0
 11
59.55708661417323
 21
29.39862204724409
 31
0.0
  0
LINE
  5
AAC
330
1E
100
AcDbEntity
  8
7
100
AcDbLine
 10
48.9005905511811
 20
39.13877952755905
 30
0.0
 11
48.9005905511811
 21
39.12204724409448
 31
0.0
  0
LINE
  5
AAD
330
1E
100
AcDbEntity
  8
7
100
AcDbLine
 10
48.9005905511811
 20
39.12204724409448
 30
0.0
 11
48.9005905511811
 21
39.11614173228347
 31
0.0
  0
LINE
  5
AAE
330
1E
100
AcDbEntity
  8
7
100
AcDbLine
 10
48.9005905511811
 20
39.20275590551181
 30
0.0
 11
48.9005905511811
 21
39.19192913385826
 31
0.0
  0
LINE
  5
AAF
330
1E
100
AcDbEntity
  8
7
100
AcDbLine
 10
48.9005905511811
 20
39.19192913385826
 30
0.0
 11
48.9005905511811
 21
39.17618110236221
 31
0.0
  0
LINE
  5
AB0
330
1E
100
AcDbEntity
  8
7
100
AcDbLine
 10
48.9005905511811
 20
39.17618110236221
 30
0.0
 11
48.9005905511811
 21
39.15846456692913
 31
0.0
  0
LINE
  5
AB1
330
1E
100
AcDbEntity
  8
7
100
AcDbLine
 10
48.9005905511811
 20
39.15846456692913
 30
0.0
 11
48.9005905511811
 21
39.14173228346456
 31
0.0
  0
LINE
  5
AB2
330
1E
100
AcDbEntity
  8
7
100
AcDbLine
 10
47.88976377952756
 20
34.23425196850393
 30
0.0
 11
47.83464566929133
 21
34.23425196850393
 31
0.0
  0
LINE
  5
AB3
330
1E
100
AcDbEntity
  8
7
100
AcDbLine
 10
47.83464566929133
 20
34.23425196850393
 30
0.0
 11
47.78740157480314
 21
34.23326771653543
 31
0.0
  0
LINE
  5
AB4
330
1E
100
AcDbEntity
  8
7
100
AcDbLine
 10
47.78740157480314
 20
34.23326771653543
 30
0.0
 11
47.74606299212599
 21
34.23228346456692
 31
0.0
  0
LINE
  5
AB5
330
1E
100
AcDbEntity
  8
7
100
AcDbLine
 10
47.74606299212599
 20
34.23228346456692
 30
0.0
 11
47.71161417322834
 21
34.23129921259842
 31
0.0
  0
LINE
  5
AB6
330
1E
100
AcDbEntity
  8
7
100
AcDbLine
 10
47.71161417322834
 20
34.23129921259842
 30
0.0
 11
47.68503937007873
 21
34.23129921259842
 31
0.0
  0
LINE
  5
AB7
330
1E
100
AcDbEntity
  8
7
100
AcDbLine
 10
47.68503937007873
 20
34.23129921259842
 30
0.0
 11
47.66633858267716
 21
34.23129921259842
 31
0.0
  0
LINE
  5
AB8
330
1E
100
AcDbEntity
  8
7
100
AcDbLine
 10
47.66633858267716
 20
34.23129921259842
 30
0.0
 11
47.65452755905511
 21
34.23031496062991
 31
0.0
  0
LINE
  5
AB9
330
1E
100
AcDbEntity
  8
7
100
AcDbLine
 10
47.65452755905511
 20
34.23031496062991
 30
0.0
 11
47.6505905511811
 21
34.23031496062991
 31
0.0
  0
LINE
  5
ABA
330
1E
100
AcDbEntity
  8
7
100
AcDbLine
 10
48.99901574803149
 20
34.2509842519685
 30
0.0
 11
48.9005905511811
 21
34.251968503937
 31
0.0
  0
LINE
  5
ABB
330
1E
100
AcDbEntity
  8
7
100
AcDbLine
 10
48.9005905511811
 20
34.251968503937
 30
0.0
 11
48.8031496062992
 21
34.2509842519685
 31
0.0
  0
LINE
  5
ABC
330
1E
100
AcDbEntity
  8
7
100
AcDbLine
 10
48.8031496062992
 20
34.2509842519685
 30
0.0
 11
48.70570866141732
 21
34.24901574803149
 31
0.0
  0
LINE
  5
ABD
330
1E
100
AcDbEntity
  8
7
100
AcDbLine
 10
48.70570866141732
 20
34.24901574803149
 30
0.0
 11
48.60925196850393
 21
34.24704724409449
 31
0.0
  0
LINE
  5
ABE
330
1E
100
AcDbEntity
  8
7
100
AcDbLine
 10
48.60925196850393
 20
34.24704724409449
 30
0.0
 11
48.51476377952756
 21
34.24606299212598
 31
0.0
  0
LINE
  5
ABF
330
1E
100
AcDbEntity
  8
7
100
AcDbLine
 10
48.51476377952756
 20
34.24606299212598
 30
0.0
 11
48.42224409448818
 21
34.24409448818897
 31
0.0
  0
LINE
  5
AC0
330
1E
100
AcDbEntity
  8
7
100
AcDbLine
 10
48.42224409448818
 20
34.24409448818897
 30
0.0
 11
48.33366141732283
 21
34.24212598425197
 31
0.0
  0
LINE
  5
AC1
330
1E
100
AcDbEntity
  8
7
100
AcDbLine
 10
48.33366141732283
 20
34.24212598425197
 30
0.0
 11
48.24803149606299
 21
34.24114173228346
 31
0.0
  0
LINE
  5
AC2
330
1E
100
AcDbEntity
  8
7
100
AcDbLine
 10
48.24803149606299
 20
34.24114173228346
 30
0.0
 11
48.16633858267716
 21
34.23917322834646
 31
0.0
  0
LINE
  5
AC3
330
1E
100
AcDbEntity
  8
7
100
AcDbLine
 10
48.16633858267716
 20
34.23917322834646
 30
0.0
 11
48.08858267716535
 21
34.23818897637795
 31
0.0
  0
LINE
  5
AC4
330
1E
100
AcDbEntity
  8
7
100
AcDbLine
 10
48.08858267716535
 20
34.23818897637795
 30
0.0
 11
48.01673228346456
 21
34.23720472440945
 31
0.0
  0
LINE
  5
AC5
330
1E
100
AcDbEntity
  8
7
100
AcDbLine
 10
48.01673228346456
 20
34.23720472440945
 30
0.0
 11
47.9507874015748
 21
34.23622047244094
 31
0.0
  0
LINE
  5
AC6
330
1E
100
AcDbEntity
  8
7
100
AcDbLine
 10
47.9507874015748
 20
34.23622047244094
 30
0.0
 11
47.88976377952756
 21
34.23425196850393
 31
0.0
  0
LINE
  5
AC7
330
1E
100
AcDbEntity
  8
7
100
AcDbLine
 10
50.11614173228347
 20
34.23129921259842
 30
0.0
 11
50.08956692913385
 21
34.23129921259842
 31
0.0
  0
LINE
  5
AC8
330
1E
100
AcDbEntity
  8
7
100
AcDbLine
 10
50.08956692913385
 20
34.23129921259842
 30
0.0
 11
50.05610236220473
 21
34.23228346456692
 31
0.0
  0
LINE
  5
AC9
330
1E
100
AcDbEntity
  8
7
100
AcDbLine
 10
50.05610236220473
 20
34.23228346456692
 30
0.0
 11
50.01476377952755
 21
34.23326771653543
 31
0.0
  0
LINE
  5
ACA
330
1E
100
AcDbEntity
  8
7
100
AcDbLine
 10
50.01476377952755
 20
34.23326771653543
 30
0.0
 11
49.96653543307086
 21
34.23425196850393
 31
0.0
  0
LINE
  5
ACB
330
1E
100
AcDbEntity
  8
7
100
AcDbLine
 10
49.96653543307086
 20
34.23425196850393
 30
0.0
 11
49.91240157480315
 21
34.23425196850393
 31
0.0
  0
LINE
  5
ACC
330
1E
100
AcDbEntity
  8
7
100
AcDbLine
 10
49.91240157480315
 20
34.23425196850393
 30
0.0
 11
49.85137795275591
 21
34.23622047244094
 31
0.0
  0
LINE
  5
ACD
330
1E
100
AcDbEntity
  8
7
100
AcDbLine
 10
49.85137795275591
 20
34.23622047244094
 30
0.0
 11
49.78444881889763
 21
34.23720472440945
 31
0.0
  0
LINE
  5
ACE
330
1E
100
AcDbEntity
  8
7
100
AcDbLine
 10
49.78444881889763
 20
34.23720472440945
 30
0.0
 11
49.71259842519685
 21
34.23818897637795
 31
0.0
  0
LINE
  5
ACF
330
1E
100
AcDbEntity
  8
7
100
AcDbLine
 10
49.71259842519685
 20
34.23818897637795
 30
0.0
 11
49.63582677165354
 21
34.23917322834646
 31
0.0
  0
LINE
  5
AD0
330
1E
100
AcDbEntity
  8
7
100
AcDbLine
 10
49.63582677165354
 20
34.23917322834646
 30
0.0
 11
49.55413385826772
 21
34.24114173228346
 31
0.0
  0
LINE
  5
AD1
330
1E
100
AcDbEntity
  8
7
100
AcDbLine
 10
49.55413385826772
 20
34.24114173228346
 30
0.0
 11
49.46850393700787
 21
34.24212598425197
 31
0.0
  0
LINE
  5
AD2
330
1E
100
AcDbEntity
  8
7
100
AcDbLine
 10
49.46850393700787
 20
34.24212598425197
 30
0.0
 11
49.37893700787402
 21
34.24409448818897
 31
0.0
  0
LINE
  5
AD3
330
1E
100
AcDbEntity
  8
7
100
AcDbLine
 10
49.37893700787402
 20
34.24409448818897
 30
0.0
 11
49.28740157480315
 21
34.24606299212598
 31
0.0
  0
LINE
  5
AD4
330
1E
100
AcDbEntity
  8
7
100
AcDbLine
 10
49.28740157480315
 20
34.24606299212598
 30
0.0
 11
49.19291338582677
 21
34.24704724409449
 31
0.0
  0
LINE
  5
AD5
330
1E
100
AcDbEntity
  8
7
100
AcDbLine
 10
49.19291338582677
 20
34.24704724409449
 30
0.0
 11
49.09645669291339
 21
34.24901574803149
 31
0.0
  0
LINE
  5
AD6
330
1E
100
AcDbEntity
  8
7
100
AcDbLine
 10
49.09645669291339
 20
34.24901574803149
 30
0.0
 11
48.99901574803149
 21
34.2509842519685
 31
0.0
  0
LINE
  5
AD7
330
1E
100
AcDbEntity
  8
7
100
AcDbLine
 10
50.1505905511811
 20
34.23031496062991
 30
0.0
 11
50.14665354330708
 21
34.23031496062991
 31
0.0
  0
LINE
  5
AD8
330
1E
100
AcDbEntity
  8
7
100
AcDbLine
 10
50.14665354330708
 20
34.23031496062991
 30
0.0
 11
50.13582677165354
 21
34.23129921259842
 31
0.0
  0
LINE
  5
AD9
330
1E
100
AcDbEntity
  8
7
100
AcDbLine
 10
50.13582677165354
 20
34.23129921259842
 30
0.0
 11
50.11614173228347
 21
34.23129921259842
 31
0.0
  0
LINE
  5
ADA
330
1E
100
AcDbEntity
  8
7
100
AcDbLine
 10
49.5285433070866
 20
38.91240157480314
 30
0.0
 11
49.54429133858267
 21
38.98818897637795
 31
0.0
  0
LINE
  5
ADB
330
1E
100
AcDbEntity
  8
7
100
AcDbLine
 10
49.54429133858267
 20
38.98818897637795
 30
0.0
 11
49.56496062992126
 21
39.06299212598425
 31
0.0
  0
LINE
  5
ADC
330
1E
100
AcDbEntity
  8
7
100
AcDbLine
 10
49.56496062992126
 20
39.06299212598425
 30
0.0
 11
49.58858267716535
 21
39.125
 31
0.0
  0
LINE
  5
ADD
330
1E
100
AcDbEntity
  8
7
100
AcDbLine
 10
49.58858267716535
 20
39.125
 30
0.0
 11
49.62696850393701
 21
39.20669291338582
 31
0.0
  0
LINE
  5
ADE
330
1E
100
AcDbEntity
  8
7
100
AcDbLine
 10
48.1751968503937
 20
39.20767716535432
 30
0.0
 11
48.21653543307085
 21
39.11811023622047
 31
0.0
  0
LINE
  5
ADF
330
1E
100
AcDbEntity
  8
7
100
AcDbLine
 10
48.21653543307085
 20
39.11811023622047
 30
0.0
 11
48.24803149606299
 21
39.02559055118109
 31
0.0
  0
LINE
  5
AE0
330
1E
100
AcDbEntity
  8
7
100
AcDbLine
 10
48.24803149606299
 20
39.02559055118109
 30
0.0
 11
48.27362204724408
 21
38.91240157480314
 31
0.0
  0
LINE
  5
AE1
330
1E
100
AcDbEntity
  8
7
100
AcDbLine
 10
49.08858267716535
 20
39.11811023622047
 30
0.0
 11
49.08858267716535
 21
39.04133858267716
 31
0.0
  0
LINE
  5
AE2
330
1E
100
AcDbEntity
  8
7
100
AcDbLine
 10
49.08858267716535
 20
39.04133858267716
 30
0.0
 11
49.08858267716535
 21
38.95964566929133
 31
0.0
  0
LINE
  5
AE3
330
1E
100
AcDbEntity
  8
7
100
AcDbLine
 10
48.71358267716535
 20
38.95964566929133
 30
0.0
 11
48.71358267716535
 21
39.04133858267716
 31
0.0
  0
LINE
  5
AE4
330
1E
100
AcDbEntity
  8
7
100
AcDbLine
 10
48.71358267716535
 20
39.04133858267716
 30
0.0
 11
48.71358267716535
 21
39.11811023622047
 31
0.0
  0
LINE
  5
AE5
330
1E
100
AcDbEntity
  8
7
100
AcDbLine
 10
48.9005905511811
 20
39.11614173228347
 30
0.0
 11
48.9005905511811
 21
39.01870078740157
 31
0.0
  0
LINE
  5
AE6
330
1E
100
AcDbEntity
  8
7
100
AcDbLine
 10
48.9005905511811
 20
39.01870078740157
 30
0.0
 11
48.9005905511811
 21
38.91141732283464
 31
0.0
  0
LINE
  5
AE7
330
1E
100
AcDbEntity
  8
7
100
AcDbLine
 10
48.77559055118109
 20
39.42027559055118
 30
0.0
 11
48.79429133858267
 21
39.42224409448819
 31
0.0
  0
LINE
  5
AE8
330
1E
100
AcDbEntity
  8
7
100
AcDbLine
 10
48.79429133858267
 20
39.42224409448819
 30
0.0
 11
48.81594488188977
 21
39.42322834645669
 31
0.0
  0
LINE
  5
AE9
330
1E
100
AcDbEntity
  8
7
100
AcDbLine
 10
48.81594488188977
 20
39.42322834645669
 30
0.0
 11
48.83956692913385
 21
39.4242125984252
 31
0.0
  0
LINE
  5
AEA
330
1E
100
AcDbEntity
  8
7
100
AcDbLine
 10
48.83956692913385
 20
39.4242125984252
 30
0.0
 11
48.8503937007874
 21
39.4242125984252
 31
0.0
  0
LINE
  5
AEB
330
1E
100
AcDbEntity
  8
7
100
AcDbLine
 10
48.8503937007874
 20
39.4242125984252
 30
0.0
 11
48.9005905511811
 21
39.4242125984252
 31
0.0
  0
LINE
  5
AEC
330
1E
100
AcDbEntity
  8
7
100
AcDbLine
 10
48.9005905511811
 20
39.4242125984252
 30
0.0
 11
48.9517716535433
 21
39.4242125984252
 31
0.0
  0
LINE
  5
AED
330
1E
100
AcDbEntity
  8
7
100
AcDbLine
 10
48.9517716535433
 20
39.4242125984252
 30
0.0
 11
48.97145669291338
 21
39.4242125984252
 31
0.0
  0
LINE
  5
AEE
330
1E
100
AcDbEntity
  8
7
100
AcDbLine
 10
48.97145669291338
 20
39.4242125984252
 30
0.0
 11
48.99901574803149
 21
39.42224409448819
 31
0.0
  0
LINE
  5
AEF
330
1E
100
AcDbEntity
  8
7
100
AcDbLine
 10
48.99901574803149
 20
39.42224409448819
 30
0.0
 11
49.0255905511811
 21
39.42027559055118
 31
0.0
  0
LINE
  5
AF0
330
1E
100
AcDbEntity
  8
7
100
AcDbLine
 10
49.0255905511811
 20
39.42027559055118
 30
0.0
 11
49.0255905511811
 21
39.41830708661417
 31
0.0
  0
LINE
  5
AF1
330
1E
100
AcDbEntity
  8
7
100
AcDbLine
 10
49.0255905511811
 20
39.41830708661417
 30
0.0
 11
49.0255905511811
 21
39.41732283464567
 31
0.0
  0
LINE
  5
AF2
330
1E
100
AcDbEntity
  8
7
100
AcDbLine
 10
49.0255905511811
 20
39.41732283464567
 30
0.0
 11
49.0255905511811
 21
39.39271653543306
 31
0.0
  0
LINE
  5
AF3
330
1E
100
AcDbEntity
  8
7
100
AcDbLine
 10
48.71259842519684
 20
39.34645669291338
 30
0.0
 11
48.71161417322834
 21
39.37204724409449
 31
0.0
  0
LINE
  5
AF4
330
1E
100
AcDbEntity
  8
7
100
AcDbLine
 10
48.71161417322834
 20
39.37204724409449
 30
0.0
 11
48.71161417322834
 21
39.38779527559054
 31
0.0
  0
LINE
  5
AF5
330
1E
100
AcDbEntity
  8
7
100
AcDbLine
 10
48.71161417322834
 20
39.38779527559054
 30
0.0
 11
48.71062992125984
 21
39.39271653543306
 31
0.0
  0
LINE
  5
AF6
330
1E
100
AcDbEntity
  8
7
100
AcDbLine
 10
49.08956692913385
 20
39.34645669291338
 30
0.0
 11
49.08956692913385
 21
39.37204724409449
 31
0.0
  0
LINE
  5
AF7
330
1E
100
AcDbEntity
  8
7
100
AcDbLine
 10
49.08956692913385
 20
39.37204724409449
 30
0.0
 11
49.09055118110235
 21
39.38779527559054
 31
0.0
  0
LINE
  5
AF8
330
1E
100
AcDbEntity
  8
7
100
AcDbLine
 10
49.09055118110235
 20
39.38779527559054
 30
0.0
 11
49.09055118110235
 21
39.39271653543306
 31
0.0
  0
LINE
  5
AF9
330
1E
100
AcDbEntity
  8
7
100
AcDbLine
 10
48.94094488188976
 20
39.44881889763779
 30
0.0
 11
48.94488188976378
 21
39.45866141732283
 31
0.0
  0
LINE
  5
AFA
330
1E
100
AcDbEntity
  8
7
100
AcDbLine
 10
48.94488188976378
 20
39.45866141732283
 30
0.0
 11
48.95570866141731
 21
39.46358267716535
 31
0.0
  0
LINE
  5
AFB
330
1E
100
AcDbEntity
  8
7
100
AcDbLine
 10
48.95570866141731
 20
39.46259842519684
 30
0.0
 11
48.94488188976378
 21
39.45866141732283
 31
0.0
  0
LINE
  5
AFC
330
1E
100
AcDbEntity
  8
7
100
AcDbLine
 10
48.94488188976378
 20
39.45866141732283
 30
0.0
 11
48.94094488188976
 21
39.44783464566929
 31
0.0
  0
LINE
  5
AFD
330
1E
100
AcDbEntity
  8
7
100
AcDbLine
 10
49.09055118110235
 20
39.46259842519684
 30
0.0
 11
49.07972440944881
 21
39.45866141732283
 31
0.0
  0
LINE
  5
AFE
330
1E
100
AcDbEntity
  8
7
100
AcDbLine
 10
49.07972440944881
 20
39.45866141732283
 30
0.0
 11
49.0757874015748
 21
39.44783464566929
 31
0.0
  0
LINE
  5
AFF
330
1E
100
AcDbEntity
  8
7
100
AcDbLine
 10
48.7253937007874
 20
39.44783464566929
 30
0.0
 11
48.72145669291338
 21
39.45866141732283
 31
0.0
  0
LINE
  5
B00
330
1E
100
AcDbEntity
  8
7
100
AcDbLine
 10
48.72145669291338
 20
39.45866141732283
 30
0.0
 11
48.71062992125984
 21
39.46259842519684
 31
0.0
  0
LINE
  5
B01
330
1E
100
AcDbEntity
  8
7
100
AcDbLine
 10
48.86023622047243
 20
39.44783464566929
 30
0.0
 11
48.85629921259842
 21
39.45866141732283
 31
0.0
  0
LINE
  5
B02
330
1E
100
AcDbEntity
  8
7
100
AcDbLine
 10
48.85629921259842
 20
39.45866141732283
 30
0.0
 11
48.84547244094488
 21
39.46259842519684
 31
0.0
  0
LINE
  5
B03
330
1E
100
AcDbEntity
  8
7
100
AcDbLine
 10
49.0757874015748
 20
39.40846456692913
 30
0.0
 11
49.07972440944881
 21
39.39763779527558
 31
0.0
  0
LINE
  5
B04
330
1E
100
AcDbEntity
  8
7
100
AcDbLine
 10
49.07972440944881
 20
39.39763779527558
 30
0.0
 11
49.09055118110235
 21
39.39370078740157
 31
0.0
  0
LINE
  5
B05
330
1E
100
AcDbEntity
  8
7
100
AcDbLine
 10
48.71062992125984
 20
39.39370078740157
 30
0.0
 11
48.72145669291338
 21
39.39763779527558
 31
0.0
  0
LINE
  5
B06
330
1E
100
AcDbEntity
  8
7
100
AcDbLine
 10
48.72145669291338
 20
39.39763779527558
 30
0.0
 11
48.7253937007874
 21
39.40846456692913
 31
0.0
  0
LINE
  5
B07
330
1E
100
AcDbEntity
  8
7
100
AcDbLine
 10
48.7253937007874
 20
39.44291338582677
 30
0.0
 11
48.72145669291338
 21
39.45374015748031
 31
0.0
  0
LINE
  5
B08
330
1E
100
AcDbEntity
  8
7
100
AcDbLine
 10
48.72145669291338
 20
39.45374015748031
 30
0.0
 11
48.71062992125984
 21
39.45767716535432
 31
0.0
  0
LINE
  5
B09
330
1E
100
AcDbEntity
  8
7
100
AcDbLine
 10
49.09055118110235
 20
39.45767716535432
 30
0.0
 11
49.07972440944881
 21
39.45374015748031
 31
0.0
  0
LINE
  5
B0A
330
1E
100
AcDbEntity
  8
7
100
AcDbLine
 10
49.07972440944881
 20
39.45374015748031
 30
0.0
 11
49.0757874015748
 21
39.44291338582677
 31
0.0
  0
LINE
  5
B0B
330
1E
100
AcDbEntity
  8
7
100
AcDbLine
 10
49.12204724409448
 20
39.46259842519684
 30
0.0
 11
49.11023622047244
 21
39.46259842519684
 31
0.0
  0
LINE
  5
B0C
330
1E
100
AcDbEntity
  8
7
100
AcDbLine
 10
49.11023622047244
 20
39.46259842519684
 30
0.0
 11
49.09055118110235
 21
39.46259842519684
 31
0.0
  0
LINE
  5
B0D
330
1E
100
AcDbEntity
  8
7
100
AcDbLine
 10
49.09055118110235
 20
39.46259842519684
 30
0.0
 11
49.06496062992125
 21
39.46259842519684
 31
0.0
  0
LINE
  5
B0E
330
1E
100
AcDbEntity
  8
7
100
AcDbLine
 10
49.06496062992125
 20
39.46259842519684
 30
0.0
 11
49.03248031496062
 21
39.46259842519684
 31
0.0
  0
LINE
  5
B0F
330
1E
100
AcDbEntity
  8
7
100
AcDbLine
 10
49.03248031496062
 20
39.46259842519684
 30
0.0
 11
48.99606299212599
 21
39.46259842519684
 31
0.0
  0
LINE
  5
B10
330
1E
100
AcDbEntity
  8
7
100
AcDbLine
 10
48.99606299212599
 20
39.46259842519684
 30
0.0
 11
48.95570866141731
 21
39.46259842519684
 31
0.0
  0
LINE
  5
B11
330
1E
100
AcDbEntity
  8
7
100
AcDbLine
 10
48.84547244094488
 20
39.46259842519684
 30
0.0
 11
48.80610236220473
 21
39.46259842519684
 31
0.0
  0
LINE
  5
B12
330
1E
100
AcDbEntity
  8
7
100
AcDbLine
 10
48.80610236220473
 20
39.46259842519684
 30
0.0
 11
48.76968503937007
 21
39.46259842519684
 31
0.0
  0
LINE
  5
B13
330
1E
100
AcDbEntity
  8
7
100
AcDbLine
 10
48.76968503937007
 20
39.46259842519684
 30
0.0
 11
48.73720472440944
 21
39.46259842519684
 31
0.0
  0
LINE
  5
B14
330
1E
100
AcDbEntity
  8
7
100
AcDbLine
 10
48.73720472440944
 20
39.46259842519684
 30
0.0
 11
48.71161417322834
 21
39.46259842519684
 31
0.0
  0
LINE
  5
B15
330
1E
100
AcDbEntity
  8
7
100
AcDbLine
 10
48.71161417322834
 20
39.46259842519684
 30
0.0
 11
48.69192913385827
 21
39.46259842519684
 31
0.0
  0
LINE
  5
B16
330
1E
100
AcDbEntity
  8
7
100
AcDbLine
 10
48.69192913385827
 20
39.46259842519684
 30
0.0
 11
48.68011811023621
 21
39.46259842519684
 31
0.0
  0
LINE
  5
B17
330
1E
100
AcDbEntity
  8
7
100
AcDbLine
 10
48.68011811023621
 20
39.46259842519684
 30
0.0
 11
48.6761811023622
 21
39.46259842519684
 31
0.0
  0
LINE
  5
B18
330
1E
100
AcDbEntity
  8
7
100
AcDbLine
 10
49.12598425196851
 20
39.45767716535432
 30
0.0
 11
49.12106299212599
 21
39.45767716535432
 31
0.0
  0
LINE
  5
B19
330
1E
100
AcDbEntity
  8
7
100
AcDbLine
 10
49.12106299212599
 20
39.45767716535432
 30
0.0
 11
49.10531496062992
 21
39.45767716535432
 31
0.0
  0
LINE
  5
B1A
330
1E
100
AcDbEntity
  8
7
100
AcDbLine
 10
49.10531496062992
 20
39.45767716535432
 30
0.0
 11
49.07972440944881
 21
39.45767716535432
 31
0.0
  0
LINE
  5
B1B
330
1E
100
AcDbEntity
  8
7
100
AcDbLine
 10
48.72244094488189
 20
39.45767716535432
 30
0.0
 11
48.69685039370079
 21
39.45767716535432
 31
0.0
  0
LINE
  5
B1C
330
1E
100
AcDbEntity
  8
7
100
AcDbLine
 10
48.69685039370079
 20
39.45767716535432
 30
0.0
 11
48.68110236220473
 21
39.45767716535432
 31
0.0
  0
LINE
  5
B1D
330
1E
100
AcDbEntity
  8
7
100
AcDbLine
 10
48.68110236220473
 20
39.45767716535432
 30
0.0
 11
48.6761811023622
 21
39.45767716535432
 31
0.0
  0
LINE
  5
B1E
330
1E
100
AcDbEntity
  8
7
100
AcDbLine
 10
48.71358267716535
 20
39.11811023622047
 30
0.0
 11
48.71358267716535
 21
39.12401574803149
 31
0.0
  0
LINE
  5
B1F
330
1E
100
AcDbEntity
  8
7
100
AcDbLine
 10
48.71358267716535
 20
39.12401574803149
 30
0.0
 11
48.71358267716535
 21
39.14074803149606
 31
0.0
  0
LINE
  5
B20
330
1E
100
AcDbEntity
  8
7
100
AcDbLine
 10
48.71358267716535
 20
39.14074803149606
 30
0.0
 11
48.71358267716535
 21
39.15748031496063
 31
0.0
  0
LINE
  5
B21
330
1E
100
AcDbEntity
  8
7
100
AcDbLine
 10
48.71358267716535
 20
39.15748031496063
 30
0.0
 11
48.71358267716535
 21
39.1751968503937
 31
0.0
  0
LINE
  5
B22
330
1E
100
AcDbEntity
  8
7
100
AcDbLine
 10
48.71358267716535
 20
39.1751968503937
 30
0.0
 11
48.71358267716535
 21
39.19094488188976
 31
0.0
  0
LINE
  5
B23
330
1E
100
AcDbEntity
  8
7
100
AcDbLine
 10
48.71358267716535
 20
39.19094488188976
 30
0.0
 11
48.71358267716535
 21
39.20275590551181
 31
0.0
  0
LINE
  5
B24
330
1E
100
AcDbEntity
  8
7
100
AcDbLine
 10
48.71358267716535
 20
39.20275590551181
 30
0.0
 11
48.71358267716535
 21
39.2263779527559
 31
0.0
  0
LINE
  5
B25
330
1E
100
AcDbEntity
  8
7
100
AcDbLine
 10
49.08858267716535
 20
39.2263779527559
 30
0.0
 11
49.08858267716535
 21
39.20275590551181
 31
0.0
  0
LINE
  5
B26
330
1E
100
AcDbEntity
  8
7
100
AcDbLine
 10
49.08858267716535
 20
39.20275590551181
 30
0.0
 11
49.08858267716535
 21
39.19094488188976
 31
0.0
  0
LINE
  5
B27
330
1E
100
AcDbEntity
  8
7
100
AcDbLine
 10
49.08858267716535
 20
39.19094488188976
 30
0.0
 11
49.08858267716535
 21
39.1751968503937
 31
0.0
  0
LINE
  5
B28
330
1E
100
AcDbEntity
  8
7
100
AcDbLine
 10
49.08858267716535
 20
39.1751968503937
 30
0.0
 11
49.08858267716535
 21
39.15748031496063
 31
0.0
  0
LINE
  5
B29
330
1E
100
AcDbEntity
  8
7
100
AcDbLine
 10
49.08858267716535
 20
39.15748031496063
 30
0.0
 11
49.08858267716535
 21
39.14074803149606
 31
0.0
  0
LINE
  5
B2A
330
1E
100
AcDbEntity
  8
7
100
AcDbLine
 10
49.08858267716535
 20
39.14074803149606
 30
0.0
 11
49.08858267716535
 21
39.12401574803149
 31
0.0
  0
LINE
  5
B2B
330
1E
100
AcDbEntity
  8
7
100
AcDbLine
 10
49.08858267716535
 20
39.12401574803149
 30
0.0
 11
49.08858267716535
 21
39.11811023622047
 31
0.0
  0
LINE
  5
B2C
330
1E
100
AcDbEntity
  8
7
100
AcDbLine
 10
49.56299212598425
 20
39.19685039370078
 30
0.0
 11
49.59547244094487
 21
39.19980314960629
 31
0.0
  0
LINE
  5
B2D
330
1E
100
AcDbEntity
  8
7
100
AcDbLine
 10
49.59547244094487
 20
39.19980314960629
 30
0.0
 11
49.6259842519685
 21
39.20570866141732
 31
0.0
  0
LINE
  5
B2E
330
1E
100
AcDbEntity
  8
7
100
AcDbLine
 10
49.6259842519685
 20
39.20570866141732
 30
0.0
 11
49.6515748031496
 21
39.21653543307087
 31
0.0
  0
LINE
  5
B2F
330
1E
100
AcDbEntity
  8
7
100
AcDbLine
 10
49.6515748031496
 20
39.21653543307087
 30
0.0
 11
49.67125984251968
 21
39.22933070866141
 31
0.0
  0
LINE
  5
B30
330
1E
100
AcDbEntity
  8
7
100
AcDbLine
 10
49.67125984251968
 20
39.22933070866141
 30
0.0
 11
49.68405511811024
 21
39.24507874015748
 31
0.0
  0
LINE
  5
B31
330
1E
100
AcDbEntity
  8
7
100
AcDbLine
 10
49.68405511811024
 20
39.24507874015748
 30
0.0
 11
49.68799212598425
 21
39.26082677165354
 31
0.0
  0
LINE
  5
B32
330
1E
100
AcDbEntity
  8
7
100
AcDbLine
 10
48.11318897637795
 20
39.26082677165354
 30
0.0
 11
48.11811023622047
 21
39.24507874015748
 31
0.0
  0
LINE
  5
B33
330
1E
100
AcDbEntity
  8
7
100
AcDbLine
 10
48.11811023622047
 20
39.24507874015748
 30
0.0
 11
48.12992125984251
 21
39.22933070866141
 31
0.0
  0
LINE
  5
B34
330
1E
100
AcDbEntity
  8
7
100
AcDbLine
 10
48.12992125984251
 20
39.22933070866141
 30
0.0
 11
48.14960629921259
 21
39.21653543307087
 31
0.0
  0
LINE
  5
B35
330
1E
100
AcDbEntity
  8
7
100
AcDbLine
 10
48.14960629921259
 20
39.21653543307087
 30
0.0
 11
48.1761811023622
 21
39.20570866141732
 31
0.0
  0
LINE
  5
B36
330
1E
100
AcDbEntity
  8
7
100
AcDbLine
 10
48.1761811023622
 20
39.20570866141732
 30
0.0
 11
48.20570866141732
 21
39.19980314960629
 31
0.0
  0
LINE
  5
B37
330
1E
100
AcDbEntity
  8
7
100
AcDbLine
 10
48.20570866141732
 20
39.19980314960629
 30
0.0
 11
48.23818897637795
 21
39.19685039370078
 31
0.0
  0
LINE
  5
B38
330
1E
100
AcDbEntity
  8
7
100
AcDbLine
 10
48.71358267716535
 20
39.2263779527559
 30
0.0
 11
48.9005905511811
 21
39.2273622047244
 31
0.0
  0
LINE
  5
B39
330
1E
100
AcDbEntity
  8
7
100
AcDbLine
 10
48.9005905511811
 20
39.2273622047244
 30
0.0
 11
49.08858267716535
 21
39.2263779527559
 31
0.0
  0
LINE
  5
B3A
330
1E
100
AcDbEntity
  8
7
100
AcDbLine
 10
49.56299212598425
 20
39.26771653543307
 30
0.0
 11
49.59547244094487
 21
39.26968503937007
 31
0.0
  0
LINE
  5
B3B
330
1E
100
AcDbEntity
  8
7
100
AcDbLine
 10
49.59547244094487
 20
39.26968503937007
 30
0.0
 11
49.6259842519685
 21
39.2765748031496
 31
0.0
  0
LINE
  5
B3C
330
1E
100
AcDbEntity
  8
7
100
AcDbLine
 10
49.6259842519685
 20
39.2765748031496
 30
0.0
 11
49.6515748031496
 21
39.28641732283464
 31
0.0
  0
LINE
  5
B3D
330
1E
100
AcDbEntity
  8
7
100
AcDbLine
 10
49.6515748031496
 20
39.28641732283464
 30
0.0
 11
49.67125984251968
 21
39.2992125984252
 31
0.0
  0
LINE
  5
B3E
330
1E
100
AcDbEntity
  8
7
100
AcDbLine
 10
49.67125984251968
 20
39.2992125984252
 30
0.0
 11
49.68405511811024
 21
39.31397637795275
 31
0.0
  0
LINE
  5
B3F
330
1E
100
AcDbEntity
  8
7
100
AcDbLine
 10
49.68405511811024
 20
39.31397637795275
 30
0.0
 11
49.68799212598425
 21
39.33070866141731
 31
0.0
  0
LINE
  5
B40
330
1E
100
AcDbEntity
  8
7
100
AcDbLine
 10
48.11318897637795
 20
39.33070866141731
 30
0.0
 11
48.11811023622047
 21
39.31397637795275
 31
0.0
  0
LINE
  5
B41
330
1E
100
AcDbEntity
  8
7
100
AcDbLine
 10
48.11811023622047
 20
39.31397637795275
 30
0.0
 11
48.12992125984251
 21
39.2992125984252
 31
0.0
  0
LINE
  5
B42
330
1E
100
AcDbEntity
  8
7
100
AcDbLine
 10
48.12992125984251
 20
39.2992125984252
 30
0.0
 11
48.14960629921259
 21
39.28641732283464
 31
0.0
  0
LINE
  5
B43
330
1E
100
AcDbEntity
  8
7
100
AcDbLine
 10
48.14960629921259
 20
39.28641732283464
 30
0.0
 11
48.1761811023622
 21
39.2765748031496
 31
0.0
  0
LINE
  5
B44
330
1E
100
AcDbEntity
  8
7
100
AcDbLine
 10
48.1761811023622
 20
39.2765748031496
 30
0.0
 11
48.20570866141732
 21
39.26968503937007
 31
0.0
  0
LINE
  5
B45
330
1E
100
AcDbEntity
  8
7
100
AcDbLine
 10
48.11318897637795
 20
39.34153543307086
 30
0.0
 11
48.11318897637795
 21
39.36712598425197
 31
0.0
  0
LINE
  5
B46
330
1E
100
AcDbEntity
  8
7
100
AcDbLine
 10
48.11318897637795
 20
39.36712598425197
 30
0.0
 11
48.11318897637795
 21
39.38287401574802
 31
0.0
  0
LINE
  5
B47
330
1E
100
AcDbEntity
  8
7
100
AcDbLine
 10
48.11318897637795
 20
39.38287401574802
 30
0.0
 11
48.11318897637795
 21
39.38779527559054
 31
0.0
  0
LINE
  5
B48
330
1E
100
AcDbEntity
  8
7
100
AcDbLine
 10
49.68799212598425
 20
39.38779527559054
 30
0.0
 11
49.68799212598425
 21
39.38287401574802
 31
0.0
  0
LINE
  5
B49
330
1E
100
AcDbEntity
  8
7
100
AcDbLine
 10
49.68799212598425
 20
39.38287401574802
 30
0.0
 11
49.68799212598425
 21
39.36712598425197
 31
0.0
  0
LINE
  5
B4A
330
1E
100
AcDbEntity
  8
7
100
AcDbLine
 10
49.68799212598425
 20
39.36712598425197
 30
0.0
 11
49.68799212598425
 21
39.34153543307086
 31
0.0
  0
LINE
  5
B4B
330
1E
100
AcDbEntity
  8
7
100
AcDbLine
 10
49.68799212598425
 20
39.34153543307086
 30
0.0
 11
49.68799212598425
 21
39.33070866141731
 31
0.0
  0
LINE
  5
B4C
330
1E
100
AcDbEntity
  8
7
100
AcDbLine
 10
49.68799212598425
 20
39.33070866141731
 30
0.0
 11
49.68799212598425
 21
39.26082677165354
 31
0.0
  0
LINE
  5
B4D
330
1E
100
AcDbEntity
  8
7
100
AcDbLine
 10
48.2765748031496
 20
38.91830708661417
 30
0.0
 11
48.2765748031496
 21
38.91535433070865
 31
0.0
  0
LINE
  5
B4E
330
1E
100
AcDbEntity
  8
7
100
AcDbLine
 10
48.2765748031496
 20
38.91535433070865
 30
0.0
 11
48.2755905511811
 21
38.91338582677165
 31
0.0
  0
LINE
  5
B4F
330
1E
100
AcDbEntity
  8
7
100
AcDbLine
 10
48.2755905511811
 20
38.91338582677165
 30
0.0
 11
48.2755905511811
 21
38.91240157480314
 31
0.0
  0
LINE
  5
B50
330
1E
100
AcDbEntity
  8
7
100
AcDbLine
 10
48.28149606299212
 20
39.02460629921259
 30
0.0
 11
48.27952755905511
 21
38.96259842519684
 31
0.0
  0
LINE
  5
B51
330
1E
100
AcDbEntity
  8
7
100
AcDbLine
 10
48.27952755905511
 20
38.96259842519684
 30
0.0
 11
48.2785433070866
 21
38.94488188976378
 31
0.0
  0
LINE
  5
B52
330
1E
100
AcDbEntity
  8
7
100
AcDbLine
 10
48.2785433070866
 20
38.94488188976378
 30
0.0
 11
48.2785433070866
 21
38.93307086614173
 31
0.0
  0
LINE
  5
B53
330
1E
100
AcDbEntity
  8
7
100
AcDbLine
 10
48.2785433070866
 20
38.93307086614173
 30
0.0
 11
48.27755905511811
 21
38.9251968503937
 31
0.0
  0
LINE
  5
B54
330
1E
100
AcDbEntity
  8
7
100
AcDbLine
 10
48.27755905511811
 20
38.9251968503937
 30
0.0
 11
48.2765748031496
 21
38.91830708661417
 31
0.0
  0
LINE
  5
B55
330
1E
100
AcDbEntity
  8
7
100
AcDbLine
 10
48.7509842519685
 20
38.88582677165354
 30
0.0
 11
48.74311023622047
 21
38.88681102362204
 31
0.0
  0
LINE
  5
B56
330
1E
100
AcDbEntity
  8
7
100
AcDbLine
 10
48.74311023622047
 20
38.88681102362204
 30
0.0
 11
48.73622047244094
 21
38.89074803149606
 31
0.0
  0
LINE
  5
B57
330
1E
100
AcDbEntity
  8
7
100
AcDbLine
 10
48.73622047244094
 20
38.89074803149606
 30
0.0
 11
48.72834645669291
 21
38.89960629921259
 31
0.0
  0
LINE
  5
B58
330
1E
100
AcDbEntity
  8
7
100
AcDbLine
 10
48.72834645669291
 20
38.89960629921259
 30
0.0
 11
48.71948818897637
 21
38.91830708661417
 31
0.0
  0
LINE
  5
B59
330
1E
100
AcDbEntity
  8
7
100
AcDbLine
 10
48.71948818897637
 20
38.91830708661417
 30
0.0
 11
48.71456692913385
 21
38.93897637795275
 31
0.0
  0
LINE
  5
B5A
330
1E
100
AcDbEntity
  8
7
100
AcDbLine
 10
48.71456692913385
 20
38.93897637795275
 30
0.0
 11
48.71358267716535
 21
38.95964566929133
 31
0.0
  0
LINE
  5
B5B
330
1E
100
AcDbEntity
  8
7
100
AcDbLine
 10
48.75984251968503
 20
38.88779527559055
 30
0.0
 11
48.81200787401574
 21
38.90354330708661
 31
0.0
  0
LINE
  5
B5C
330
1E
100
AcDbEntity
  8
7
100
AcDbLine
 10
48.81200787401574
 20
38.90354330708661
 30
0.0
 11
48.86318897637795
 21
38.91141732283464
 31
0.0
  0
LINE
  5
B5D
330
1E
100
AcDbEntity
  8
7
100
AcDbLine
 10
48.93799212598425
 20
38.91141732283464
 30
0.0
 11
48.9005905511811
 21
38.91141732283464
 31
0.0
  0
LINE
  5
B5E
330
1E
100
AcDbEntity
  8
7
100
AcDbLine
 10
48.9005905511811
 20
38.91141732283464
 30
0.0
 11
48.86318897637795
 21
38.91141732283464
 31
0.0
  0
LINE
  5
B5F
330
1E
100
AcDbEntity
  8
7
100
AcDbLine
 10
48.93799212598425
 20
38.91141732283464
 30
0.0
 11
48.97342519685039
 21
38.90649606299212
 31
0.0
  0
LINE
  5
B60
330
1E
100
AcDbEntity
  8
7
100
AcDbLine
 10
48.97342519685039
 20
38.90649606299212
 30
0.0
 11
49.00787401574802
 21
38.89960629921259
 31
0.0
  0
LINE
  5
B61
330
1E
100
AcDbEntity
  8
7
100
AcDbLine
 10
49.00787401574802
 20
38.89960629921259
 30
0.0
 11
49.04232283464566
 21
38.88779527559055
 31
0.0
  0
LINE
  5
B62
330
1E
100
AcDbEntity
  8
7
100
AcDbLine
 10
49.08858267716535
 20
38.95964566929133
 30
0.0
 11
49.08661417322834
 21
38.93602362204724
 31
0.0
  0
LINE
  5
B63
330
1E
100
AcDbEntity
  8
7
100
AcDbLine
 10
49.08661417322834
 20
38.93602362204724
 30
0.0
 11
49.08070866141732
 21
38.91338582677165
 31
0.0
  0
LINE
  5
B64
330
1E
100
AcDbEntity
  8
7
100
AcDbLine
 10
49.08070866141732
 20
38.91338582677165
 30
0.0
 11
49.07480314960629
 21
38.9015748031496
 31
0.0
  0
LINE
  5
B65
330
1E
100
AcDbEntity
  8
7
100
AcDbLine
 10
49.07480314960629
 20
38.9015748031496
 30
0.0
 11
49.06692913385827
 21
38.89173228346456
 31
0.0
  0
LINE
  5
B66
330
1E
100
AcDbEntity
  8
7
100
AcDbLine
 10
49.06692913385827
 20
38.89173228346456
 30
0.0
 11
49.06003937007874
 21
38.88779527559055
 31
0.0
  0
LINE
  5
B67
330
1E
100
AcDbEntity
  8
7
100
AcDbLine
 10
49.06003937007874
 20
38.88779527559055
 30
0.0
 11
49.0511811023622
 21
38.88582677165354
 31
0.0
  0
LINE
  5
B68
330
1E
100
AcDbEntity
  8
7
100
AcDbLine
 10
49.0511811023622
 20
38.88582677165354
 30
0.0
 11
49.04429133858267
 21
38.88681102362204
 31
0.0
  0
LINE
  5
B69
330
1E
100
AcDbEntity
  8
7
100
AcDbLine
 10
49.04429133858267
 20
38.88681102362204
 30
0.0
 11
49.04232283464566
 21
38.88779527559055
 31
0.0
  0
LINE
  5
B6A
330
1E
100
AcDbEntity
  8
7
100
AcDbLine
 10
49.52165354330708
 20
38.96653543307087
 30
0.0
 11
49.52066929133858
 21
39.0009842519685
 31
0.0
  0
LINE
  5
B6B
330
1E
100
AcDbEntity
  8
7
100
AcDbLine
 10
49.52066929133858
 20
39.0009842519685
 30
0.0
 11
49.51968503937007
 21
39.02460629921259
 31
0.0
  0
LINE
  5
B6C
330
1E
100
AcDbEntity
  8
7
100
AcDbLine
 10
49.5265748031496
 20
38.91240157480314
 30
0.0
 11
49.5255905511811
 21
38.91240157480314
 31
0.0
  0
LINE
  5
B6D
330
1E
100
AcDbEntity
  8
7
100
AcDbLine
 10
49.5255905511811
 20
38.91240157480314
 30
0.0
 11
49.5255905511811
 21
38.91437007874015
 31
0.0
  0
LINE
  5
B6E
330
1E
100
AcDbEntity
  8
7
100
AcDbLine
 10
49.5255905511811
 20
38.91437007874015
 30
0.0
 11
49.52460629921259
 21
38.91830708661417
 31
0.0
  0
LINE
  5
B6F
330
1E
100
AcDbEntity
  8
7
100
AcDbLine
 10
49.52460629921259
 20
38.91830708661417
 30
0.0
 11
49.52362204724408
 21
38.93208661417323
 31
0.0
  0
LINE
  5
B70
330
1E
100
AcDbEntity
  8
7
100
AcDbLine
 10
49.52362204724408
 20
38.93208661417323
 30
0.0
 11
49.52165354330708
 21
38.96653543307087
 31
0.0
  0
LINE
  5
B71
330
1E
100
AcDbEntity
  8
7
100
AcDbLine
 10
47.84448818897637
 20
34.14271653543306
 30
0.0
 11
47.79429133858267
 21
34.14271653543306
 31
0.0
  0
LINE
  5
B72
330
1E
100
AcDbEntity
  8
7
100
AcDbLine
 10
47.79429133858267
 20
34.14271653543306
 30
0.0
 11
47.7509842519685
 21
34.14271653543306
 31
0.0
  0
LINE
  5
B73
330
1E
100
AcDbEntity
  8
7
100
AcDbLine
 10
47.7509842519685
 20
34.14271653543306
 30
0.0
 11
47.71555118110235
 21
34.14271653543306
 31
0.0
  0
LINE
  5
B74
330
1E
100
AcDbEntity
  8
7
100
AcDbLine
 10
47.71555118110235
 20
34.14271653543306
 30
0.0
 11
47.68700787401574
 21
34.14271653543306
 31
0.0
  0
LINE
  5
B75
330
1E
100
AcDbEntity
  8
7
100
AcDbLine
 10
47.68700787401574
 20
34.14271653543306
 30
0.0
 11
47.66732283464566
 21
34.14271653543306
 31
0.0
  0
LINE
  5
B76
330
1E
100
AcDbEntity
  8
7
100
AcDbLine
 10
47.66732283464566
 20
34.14271653543306
 30
0.0
 11
47.65452755905511
 21
34.14271653543306
 31
0.0
  0
LINE
  5
B77
330
1E
100
AcDbEntity
  8
7
100
AcDbLine
 10
47.65452755905511
 20
34.14271653543306
 30
0.0
 11
47.6505905511811
 21
34.14271653543306
 31
0.0
  0
LINE
  5
B78
330
1E
100
AcDbEntity
  8
7
100
AcDbLine
 10
49.1505905511811
 20
34.14271653543306
 30
0.0
 11
49.0511811023622
 21
34.14271653543306
 31
0.0
  0
LINE
  5
B79
330
1E
100
AcDbEntity
  8
7
100
AcDbLine
 10
49.0511811023622
 20
34.14271653543306
 30
0.0
 11
48.9507874015748
 21
34.14271653543306
 31
0.0
  0
LINE
  5
B7A
330
1E
100
AcDbEntity
  8
7
100
AcDbLine
 10
48.9507874015748
 20
34.14271653543306
 30
0.0
 11
48.8503937007874
 21
34.14271653543306
 31
0.0
  0
LINE
  5
B7B
330
1E
100
AcDbEntity
  8
7
100
AcDbLine
 10
48.8503937007874
 20
34.14271653543306
 30
0.0
 11
48.75
 21
34.14271653543306
 31
0.0
  0
LINE
  5
B7C
330
1E
100
AcDbEntity
  8
7
100
AcDbLine
 10
48.75
 20
34.14271653543306
 30
0.0
 11
48.65059055118109
 21
34.14271653543306
 31
0.0
  0
LINE
  5
B7D
330
1E
100
AcDbEntity
  8
7
100
AcDbLine
 10
48.65059055118109
 20
34.14271653543306
 30
0.0
 11
48.55314960629921
 21
34.14271653543306
 31
0.0
  0
LINE
  5
B7E
330
1E
100
AcDbEntity
  8
7
100
AcDbLine
 10
48.55314960629921
 20
34.14271653543306
 30
0.0
 11
48.45767716535433
 21
34.14271653543306
 31
0.0
  0
LINE
  5
B7F
330
1E
100
AcDbEntity
  8
7
100
AcDbLine
 10
48.45767716535433
 20
34.14271653543306
 30
0.0
 11
48.36515748031495
 21
34.14271653543306
 31
0.0
  0
LINE
  5
B80
330
1E
100
AcDbEntity
  8
7
100
AcDbLine
 10
48.36515748031495
 20
34.14271653543306
 30
0.0
 11
48.2755905511811
 21
34.14271653543306
 31
0.0
  0
LINE
  5
B81
330
1E
100
AcDbEntity
  8
7
100
AcDbLine
 10
48.2755905511811
 20
34.14271653543306
 30
0.0
 11
48.19094488188977
 21
34.14271653543306
 31
0.0
  0
LINE
  5
B82
330
1E
100
AcDbEntity
  8
7
100
AcDbLine
 10
48.19094488188977
 20
34.14271653543306
 30
0.0
 11
48.11023622047244
 21
34.14271653543306
 31
0.0
  0
LINE
  5
B83
330
1E
100
AcDbEntity
  8
7
100
AcDbLine
 10
48.11023622047244
 20
34.14271653543306
 30
0.0
 11
48.03543307086614
 21
34.14271653543306
 31
0.0
  0
LINE
  5
B84
330
1E
100
AcDbEntity
  8
7
100
AcDbLine
 10
48.03543307086614
 20
34.14271653543306
 30
0.0
 11
47.96555118110235
 21
34.14271653543306
 31
0.0
  0
LINE
  5
B85
330
1E
100
AcDbEntity
  8
7
100
AcDbLine
 10
47.96555118110235
 20
34.14271653543306
 30
0.0
 11
47.9015748031496
 21
34.14271653543306
 31
0.0
  0
LINE
  5
B86
330
1E
100
AcDbEntity
  8
7
100
AcDbLine
 10
47.9015748031496
 20
34.14271653543306
 30
0.0
 11
47.84448818897637
 21
34.14271653543306
 31
0.0
  0
LINE
  5
B87
330
1E
100
AcDbEntity
  8
7
100
AcDbLine
 10
50.13484251968503
 20
34.14271653543306
 30
0.0
 11
50.11417322834645
 21
34.14271653543306
 31
0.0
  0
LINE
  5
B88
330
1E
100
AcDbEntity
  8
7
100
AcDbLine
 10
50.11417322834645
 20
34.14271653543306
 30
0.0
 11
50.08661417322834
 21
34.14271653543306
 31
0.0
  0
LINE
  5
B89
330
1E
100
AcDbEntity
  8
7
100
AcDbLine
 10
50.08661417322834
 20
34.14271653543306
 30
0.0
 11
50.0511811023622
 21
34.14271653543306
 31
0.0
  0
LINE
  5
B8A
330
1E
100
AcDbEntity
  8
7
100
AcDbLine
 10
50.0511811023622
 20
34.14271653543306
 30
0.0
 11
50.00787401574803
 21
34.14271653543306
 31
0.0
  0
LINE
  5
B8B
330
1E
100
AcDbEntity
  8
7
100
AcDbLine
 10
50.00787401574803
 20
34.14271653543306
 30
0.0
 11
49.95767716535432
 21
34.14271653543306
 31
0.0
  0
LINE
  5
B8C
330
1E
100
AcDbEntity
  8
7
100
AcDbLine
 10
49.95767716535432
 20
34.14271653543306
 30
0.0
 11
49.90059055118109
 21
34.14271653543306
 31
0.0
  0
LINE
  5
B8D
330
1E
100
AcDbEntity
  8
7
100
AcDbLine
 10
49.90059055118109
 20
34.14271653543306
 30
0.0
 11
49.83661417322834
 21
34.14271653543306
 31
0.0
  0
LINE
  5
B8E
330
1E
100
AcDbEntity
  8
7
100
AcDbLine
 10
49.83661417322834
 20
34.14271653543306
 30
0.0
 11
49.76673228346456
 21
34.14271653543306
 31
0.0
  0
LINE
  5
B8F
330
1E
100
AcDbEntity
  8
7
100
AcDbLine
 10
49.76673228346456
 20
34.14271653543306
 30
0.0
 11
49.69192913385827
 21
34.14271653543306
 31
0.0
  0
LINE
  5
B90
330
1E
100
AcDbEntity
  8
7
100
AcDbLine
 10
49.69192913385827
 20
34.14271653543306
 30
0.0
 11
49.61122047244094
 21
34.14271653543306
 31
0.0
  0
LINE
  5
B91
330
1E
100
AcDbEntity
  8
7
100
AcDbLine
 10
49.61122047244094
 20
34.14271653543306
 30
0.0
 11
49.5255905511811
 21
34.14271653543306
 31
0.0
  0
LINE
  5
B92
330
1E
100
AcDbEntity
  8
7
100
AcDbLine
 10
49.5255905511811
 20
34.14271653543306
 30
0.0
 11
49.43700787401574
 21
34.14271653543306
 31
0.0
  0
LINE
  5
B93
330
1E
100
AcDbEntity
  8
7
100
AcDbLine
 10
49.43700787401574
 20
34.14271653543306
 30
0.0
 11
49.34448818897637
 21
34.14271653543306
 31
0.0
  0
LINE
  5
B94
330
1E
100
AcDbEntity
  8
7
100
AcDbLine
 10
49.34448818897637
 20
34.14271653543306
 30
0.0
 11
49.2490157480315
 21
34.14271653543306
 31
0.0
  0
LINE
  5
B95
330
1E
100
AcDbEntity
  8
7
100
AcDbLine
 10
49.2490157480315
 20
34.14271653543306
 30
0.0
 11
49.1505905511811
 21
34.14271653543306
 31
0.0
  0
LINE
  5
B96
330
1E
100
AcDbEntity
  8
7
100
AcDbLine
 10
50.1505905511811
 20
34.14271653543306
 30
0.0
 11
50.14665354330708
 21
34.14271653543306
 31
0.0
  0
LINE
  5
B97
330
1E
100
AcDbEntity
  8
7
100
AcDbLine
 10
50.14665354330708
 20
34.14271653543306
 30
0.0
 11
50.13484251968503
 21
34.14271653543306
 31
0.0
  0
LINE
  5
B98
330
1E
100
AcDbEntity
  8
7
100
AcDbLine
 10
48.66141732283464
 20
39.47342519685039
 30
0.0
 11
48.66535433070866
 21
39.46259842519684
 31
0.0
  0
LINE
  5
B99
330
1E
100
AcDbEntity
  8
7
100
AcDbLine
 10
48.66535433070866
 20
39.46259842519684
 30
0.0
 11
48.6761811023622
 21
39.45866141732283
 31
0.0
  0
LINE
  5
B9A
330
1E
100
AcDbEntity
  8
7
100
AcDbLine
 10
49.12598425196851
 20
39.45866141732283
 30
0.0
 11
49.13681102362204
 21
39.46259842519684
 31
0.0
  0
LINE
  5
B9B
330
1E
100
AcDbEntity
  8
7
100
AcDbLine
 10
49.13681102362204
 20
39.46259842519684
 30
0.0
 11
49.14074803149606
 21
39.47342519685039
 31
0.0
  0
LINE
  5
B9C
330
1E
100
AcDbEntity
  8
7
100
AcDbLine
 10
47.94586614173228
 20
34.23523622047244
 30
0.0
 11
47.99409448818898
 21
34.24114173228346
 31
0.0
  0
LINE
  5
B9D
330
1E
100
AcDbEntity
  8
7
100
AcDbLine
 10
47.99409448818898
 20
34.24114173228346
 30
0.0
 11
48.03937007874015
 21
34.25492125984252
 31
0.0
  0
LINE
  5
B9E
330
1E
100
AcDbEntity
  8
7
100
AcDbLine
 10
48.03937007874015
 20
34.25492125984252
 30
0.0
 11
48.08169291338582
 21
34.27854330708661
 31
0.0
  0
LINE
  5
B9F
330
1E
100
AcDbEntity
  8
7
100
AcDbLine
 10
48.08169291338582
 20
34.27854330708661
 30
0.0
 11
48.11909448818898
 21
34.30905511811023
 31
0.0
  0
LINE
  5
BA0
330
1E
100
AcDbEntity
  8
7
100
AcDbLine
 10
48.11909448818898
 20
34.30905511811023
 30
0.0
 11
48.14960629921259
 21
34.34547244094488
 31
0.0
  0
LINE
  5
BA1
330
1E
100
AcDbEntity
  8
7
100
AcDbLine
 10
48.14960629921259
 20
34.34547244094488
 30
0.0
 11
48.17224409448819
 21
34.38779527559054
 31
0.0
  0
LINE
  5
BA2
330
1E
100
AcDbEntity
  8
7
100
AcDbLine
 10
48.17224409448819
 20
34.38779527559054
 30
0.0
 11
48.18700787401574
 21
34.43405511811024
 31
0.0
  0
LINE
  5
BA3
330
1E
100
AcDbEntity
  8
7
100
AcDbLine
 10
48.18700787401574
 20
34.43405511811024
 30
0.0
 11
48.19192913385826
 21
34.48129921259842
 31
0.0
  0
LINE
  5
BA4
330
1E
100
AcDbEntity
  8
7
100
AcDbLine
 10
49.76279527559055
 20
34.25492125984252
 30
0.0
 11
49.80807086614174
 21
34.24114173228346
 31
0.0
  0
LINE
  5
BA5
330
1E
100
AcDbEntity
  8
7
100
AcDbLine
 10
49.80807086614174
 20
34.24114173228346
 30
0.0
 11
49.85629921259842
 21
34.23523622047244
 31
0.0
  0
LINE
  5
BA6
330
1E
100
AcDbEntity
  8
7
100
AcDbLine
 10
49.61023622047243
 20
34.48129921259842
 30
0.0
 11
49.61515748031496
 21
34.43405511811024
 31
0.0
  0
LINE
  5
BA7
330
1E
100
AcDbEntity
  8
7
100
AcDbLine
 10
49.61515748031496
 20
34.43405511811024
 30
0.0
 11
49.62992125984252
 21
34.38779527559054
 31
0.0
  0
LINE
  5
BA8
330
1E
100
AcDbEntity
  8
7
100
AcDbLine
 10
49.62992125984252
 20
34.38779527559054
 30
0.0
 11
49.6525590551181
 21
34.34547244094488
 31
0.0
  0
LINE
  5
BA9
330
1E
100
AcDbEntity
  8
7
100
AcDbLine
 10
49.6525590551181
 20
34.34547244094488
 30
0.0
 11
49.68307086614173
 21
34.30905511811023
 31
0.0
  0
LINE
  5
BAA
330
1E
100
AcDbEntity
  8
7
100
AcDbLine
 10
49.68307086614173
 20
34.30905511811023
 30
0.0
 11
49.72047244094487
 21
34.27854330708661
 31
0.0
  0
LINE
  5
BAB
330
1E
100
AcDbEntity
  8
7
100
AcDbLine
 10
49.72047244094487
 20
34.27854330708661
 30
0.0
 11
49.76279527559055
 21
34.25492125984252
 31
0.0
  0
LINE
  5
BAC
330
1E
100
AcDbEntity
  8
7
100
AcDbLine
 10
48.67519685039369
 20
39.55413385826771
 30
0.0
 11
48.66535433070866
 21
39.54921259842519
 31
0.0
  0
LINE
  5
BAD
330
1E
100
AcDbEntity
  8
7
100
AcDbLine
 10
48.66535433070866
 20
39.54921259842519
 30
0.0
 11
48.66141732283464
 21
39.53937007874015
 31
0.0
  0
LINE
  5
BAE
330
1E
100
AcDbEntity
  8
7
100
AcDbLine
 10
49.14074803149606
 20
39.53937007874015
 30
0.0
 11
49.13681102362204
 21
39.54921259842519
 31
0.0
  0
LINE
  5
BAF
330
1E
100
AcDbEntity
  8
7
100
AcDbLine
 10
49.13681102362204
 20
39.54921259842519
 30
0.0
 11
49.126968503937
 21
39.55413385826771
 31
0.0
  0
LINE
  5
BB0
330
1E
100
AcDbEntity
  8
7
100
AcDbLine
 10
48.66141732283464
 20
39.47834645669291
 30
0.0
 11
48.66535433070866
 21
39.46751968503937
 31
0.0
  0
LINE
  5
BB1
330
1E
100
AcDbEntity
  8
7
100
AcDbLine
 10
48.66535433070866
 20
39.46751968503937
 30
0.0
 11
48.6761811023622
 21
39.46358267716535
 31
0.0
  0
LINE
  5
BB2
330
1E
100
AcDbEntity
  8
7
100
AcDbLine
 10
49.12598425196851
 20
39.46358267716535
 30
0.0
 11
49.13681102362204
 21
39.46751968503937
 31
0.0
  0
LINE
  5
BB3
330
1E
100
AcDbEntity
  8
7
100
AcDbLine
 10
49.13681102362204
 20
39.46751968503937
 30
0.0
 11
49.14074803149606
 21
39.47834645669291
 31
0.0
  0
LINE
  5
BB4
330
1E
100
AcDbEntity
  8
7
100
AcDbLine
 10
48.82283464566929
 20
30.53248031496063
 30
0.0
 11
48.83169291338582
 21
30.54330708661417
 31
0.0
  0
LINE
  5
BB5
330
1E
100
AcDbEntity
  8
7
100
AcDbLine
 10
48.83169291338582
 20
30.54330708661417
 30
0.0
 11
48.84350393700787
 21
30.55610236220472
 31
0.0
  0
LINE
  5
BB6
330
1E
100
AcDbEntity
  8
7
100
AcDbLine
 10
48.84350393700787
 20
30.55610236220472
 30
0.0
 11
48.8494094488189
 21
30.56299212598425
 31
0.0
  0
LINE
  5
BB7
330
1E
100
AcDbEntity
  8
7
100
AcDbLine
 10
48.8494094488189
 20
30.56299212598425
 30
0.0
 11
48.85334645669291
 21
30.56692913385826
 31
0.0
  0
LINE
  5
BB8
330
1E
100
AcDbEntity
  8
7
100
AcDbLine
 10
48.85433070866142
 20
29.5511811023622
 30
0.0
 11
48.85334645669291
 21
29.55314960629921
 31
0.0
  0
LINE
  5
BB9
330
1E
100
AcDbEntity
  8
7
100
AcDbLine
 10
48.85334645669291
 20
29.55314960629921
 30
0.0
 11
48.8494094488189
 21
29.55610236220472
 31
0.0
  0
LINE
  5
BBA
330
1E
100
AcDbEntity
  8
7
100
AcDbLine
 10
48.8494094488189
 20
29.55610236220472
 30
0.0
 11
48.84350393700787
 21
29.56397637795275
 31
0.0
  0
LINE
  5
BBB
330
1E
100
AcDbEntity
  8
7
100
AcDbLine
 10
48.84350393700787
 20
29.56397637795275
 30
0.0
 11
48.83169291338582
 21
29.57677165354331
 31
0.0
  0
LINE
  5
BBC
330
1E
100
AcDbEntity
  8
7
100
AcDbLine
 10
48.83169291338582
 20
29.57677165354331
 30
0.0
 11
48.82283464566929
 21
29.58661417322834
 31
0.0
  0
LINE
  5
BBD
330
1E
100
AcDbEntity
  8
7
100
AcDbLine
 10
48.94783464566929
 20
29.5511811023622
 30
0.0
 11
48.94881889763779
 21
29.55314960629921
 31
0.0
  0
LINE
  5
BBE
330
1E
100
AcDbEntity
  8
7
100
AcDbLine
 10
48.94881889763779
 20
29.55314960629921
 30
0.0
 11
48.9517716535433
 21
29.55610236220472
 31
0.0
  0
LINE
  5
BBF
330
1E
100
AcDbEntity
  8
7
100
AcDbLine
 10
48.9517716535433
 20
29.55610236220472
 30
0.0
 11
48.95866141732283
 21
29.56397637795275
 31
0.0
  0
LINE
  5
BC0
330
1E
100
AcDbEntity
  8
7
100
AcDbLine
 10
48.95866141732283
 20
29.56397637795275
 30
0.0
 11
48.96948818897637
 21
29.57677165354331
 31
0.0
  0
LINE
  5
BC1
330
1E
100
AcDbEntity
  8
7
100
AcDbLine
 10
48.96948818897637
 20
29.57677165354331
 30
0.0
 11
48.97834645669291
 21
29.58661417322834
 31
0.0
  0
LINE
  5
BC2
330
1E
100
AcDbEntity
  8
7
100
AcDbLine
 10
48.97834645669291
 20
30.53248031496063
 30
0.0
 11
48.96948818897637
 21
30.54330708661417
 31
0.0
  0
LINE
  5
BC3
330
1E
100
AcDbEntity
  8
7
100
AcDbLine
 10
48.96948818897637
 20
30.54330708661417
 30
0.0
 11
48.95866141732283
 21
30.55610236220472
 31
0.0
  0
LINE
  5
BC4
330
1E
100
AcDbEntity
  8
7
100
AcDbLine
 10
48.95866141732283
 20
30.55610236220472
 30
0.0
 11
48.9517716535433
 21
30.56299212598425
 31
0.0
  0
LINE
  5
BC5
330
1E
100
AcDbEntity
  8
7
100
AcDbLine
 10
48.9517716535433
 20
30.56299212598425
 30
0.0
 11
48.94881889763779
 21
30.56692913385826
 31
0.0
  0
LINE
  5
BC6
330
1E
100
AcDbEntity
  8
7
100
AcDbLine
 10
48.94881889763779
 20
30.56692913385826
 30
0.0
 11
48.94783464566929
 21
30.56791338582677
 31
0.0
  0
LINE
  5
BC7
330
1E
100
AcDbEntity
  8
7
100
AcDbLine
 10
47.84448818897637
 20
31.72834645669291
 30
0.0
 11
47.79330708661417
 21
31.64074803149606
 31
0.0
  0
LINE
  5
BC8
330
1E
100
AcDbEntity
  8
7
100
AcDbLine
 10
47.79330708661417
 20
31.64074803149606
 30
0.0
 11
47.7509842519685
 21
31.5501968503937
 31
0.0
  0
LINE
  5
BC9
330
1E
100
AcDbEntity
  8
7
100
AcDbLine
 10
47.7509842519685
 20
31.5501968503937
 30
0.0
 11
47.71456692913385
 21
31.45570866141732
 31
0.0
  0
LINE
  5
BCA
330
1E
100
AcDbEntity
  8
7
100
AcDbLine
 10
47.71456692913385
 20
31.45570866141732
 30
0.0
 11
47.68700787401574
 21
31.35925196850393
 31
0.0
  0
LINE
  5
BCB
330
1E
100
AcDbEntity
  8
7
100
AcDbLine
 10
47.68700787401574
 20
31.35925196850393
 30
0.0
 11
47.66633858267716
 21
31.26082677165354
 31
0.0
  0
LINE
  5
BCC
330
1E
100
AcDbEntity
  8
7
100
AcDbLine
 10
47.66633858267716
 20
31.26082677165354
 30
0.0
 11
47.65452755905511
 21
31.16043307086614
 31
0.0
  0
LINE
  5
BCD
330
1E
100
AcDbEntity
  8
7
100
AcDbLine
 10
47.65452755905511
 20
31.16043307086614
 30
0.0
 11
47.6505905511811
 21
31.06003937007874
 31
0.0
  0
LINE
  5
BCE
330
1E
100
AcDbEntity
  8
7
100
AcDbLine
 10
48.75
 20
32.30118110236221
 30
0.0
 11
48.65059055118109
 21
32.28444881889763
 31
0.0
  0
LINE
  5
BCF
330
1E
100
AcDbEntity
  8
7
100
AcDbLine
 10
48.65059055118109
 20
32.28444881889763
 30
0.0
 11
48.55314960629921
 21
32.26082677165354
 31
0.0
  0
LINE
  5
BD0
330
1E
100
AcDbEntity
  8
7
100
AcDbLine
 10
48.55314960629921
 20
32.26082677165354
 30
0.0
 11
48.45767716535433
 21
32.22834645669291
 31
0.0
  0
LINE
  5
BD1
330
1E
100
AcDbEntity
  8
7
100
AcDbLine
 10
48.45767716535433
 20
32.22834645669291
 30
0.0
 11
48.36515748031495
 21
32.18897637795275
 31
0.0
  0
LINE
  5
BD2
330
1E
100
AcDbEntity
  8
7
100
AcDbLine
 10
48.36515748031495
 20
32.18897637795275
 30
0.0
 11
48.2755905511811
 21
32.14271653543306
 31
0.0
  0
LINE
  5
BD3
330
1E
100
AcDbEntity
  8
7
100
AcDbLine
 10
48.2755905511811
 20
32.14271653543306
 30
0.0
 11
48.19094488188977
 21
32.08858267716535
 31
0.0
  0
LINE
  5
BD4
330
1E
100
AcDbEntity
  8
7
100
AcDbLine
 10
48.19094488188977
 20
32.08858267716535
 30
0.0
 11
48.11023622047244
 21
32.02854330708661
 31
0.0
  0
LINE
  5
BD5
330
1E
100
AcDbEntity
  8
7
100
AcDbLine
 10
48.11023622047244
 20
32.02854330708661
 30
0.0
 11
48.03444881889763
 21
31.96161417322834
 31
0.0
  0
LINE
  5
BD6
330
1E
100
AcDbEntity
  8
7
100
AcDbLine
 10
48.03444881889763
 20
31.96161417322834
 30
0.0
 11
47.96456692913385
 21
31.88877952755905
 31
0.0
  0
LINE
  5
BD7
330
1E
100
AcDbEntity
  8
7
100
AcDbLine
 10
47.96456692913385
 20
31.88877952755905
 30
0.0
 11
47.9015748031496
 21
31.81102362204724
 31
0.0
  0
LINE
  5
BD8
330
1E
100
AcDbEntity
  8
7
100
AcDbLine
 10
47.9015748031496
 20
31.81102362204724
 30
0.0
 11
47.84448818897637
 21
31.72834645669291
 31
0.0
  0
LINE
  5
BD9
330
1E
100
AcDbEntity
  8
7
100
AcDbLine
 10
49.89960629921259
 20
31.81102362204724
 30
0.0
 11
49.83661417322834
 21
31.88877952755905
 31
0.0
  0
LINE
  5
BDA
330
1E
100
AcDbEntity
  8
7
100
AcDbLine
 10
49.83661417322834
 20
31.88877952755905
 30
0.0
 11
49.76673228346456
 21
31.96161417322834
 31
0.0
  0
LINE
  5
BDB
330
1E
100
AcDbEntity
  8
7
100
AcDbLine
 10
49.76673228346456
 20
31.96161417322834
 30
0.0
 11
49.69094488188976
 21
32.02854330708661
 31
0.0
  0
LINE
  5
BDC
330
1E
100
AcDbEntity
  8
7
100
AcDbLine
 10
49.69094488188976
 20
32.02854330708661
 30
0.0
 11
49.61023622047243
 21
32.08858267716535
 31
0.0
  0
LINE
  5
BDD
330
1E
100
AcDbEntity
  8
7
100
AcDbLine
 10
49.61023622047243
 20
32.08858267716535
 30
0.0
 11
49.5255905511811
 21
32.14271653543306
 31
0.0
  0
LINE
  5
BDE
330
1E
100
AcDbEntity
  8
7
100
AcDbLine
 10
49.5255905511811
 20
32.14271653543306
 30
0.0
 11
49.43602362204725
 21
32.18897637795275
 31
0.0
  0
LINE
  5
BDF
330
1E
100
AcDbEntity
  8
7
100
AcDbLine
 10
49.43602362204725
 20
32.18897637795275
 30
0.0
 11
49.34350393700786
 21
32.22834645669291
 31
0.0
  0
LINE
  5
BE0
330
1E
100
AcDbEntity
  8
7
100
AcDbLine
 10
49.34350393700786
 20
32.22834645669291
 30
0.0
 11
49.24803149606299
 21
32.26082677165354
 31
0.0
  0
LINE
  5
BE1
330
1E
100
AcDbEntity
  8
7
100
AcDbLine
 10
49.24803149606299
 20
32.26082677165354
 30
0.0
 11
49.1505905511811
 21
32.28444881889763
 31
0.0
  0
LINE
  5
BE2
330
1E
100
AcDbEntity
  8
7
100
AcDbLine
 10
49.1505905511811
 20
32.28444881889763
 30
0.0
 11
49.0511811023622
 21
32.30118110236221
 31
0.0
  0
LINE
  5
BE3
330
1E
100
AcDbEntity
  8
7
100
AcDbLine
 10
49.0511811023622
 20
32.30118110236221
 30
0.0
 11
48.9507874015748
 21
32.30905511811023
 31
0.0
  0
LINE
  5
BE4
330
1E
100
AcDbEntity
  8
7
100
AcDbLine
 10
48.9507874015748
 20
32.30905511811023
 30
0.0
 11
48.8503937007874
 21
32.30905511811023
 31
0.0
  0
LINE
  5
BE5
330
1E
100
AcDbEntity
  8
7
100
AcDbLine
 10
48.8503937007874
 20
32.30905511811023
 30
0.0
 11
48.75
 21
32.30118110236221
 31
0.0
  0
LINE
  5
BE6
330
1E
100
AcDbEntity
  8
7
100
AcDbLine
 10
50.1505905511811
 20
31.06003937007874
 30
0.0
 11
50.14665354330708
 21
31.16043307086614
 31
0.0
  0
LINE
  5
BE7
330
1E
100
AcDbEntity
  8
7
100
AcDbLine
 10
50.14665354330708
 20
31.16043307086614
 30
0.0
 11
50.13484251968503
 21
31.26082677165354
 31
0.0
  0
LINE
  5
BE8
330
1E
100
AcDbEntity
  8
7
100
AcDbLine
 10
50.13484251968503
 20
31.26082677165354
 30
0.0
 11
50.11417322834645
 21
31.35925196850393
 31
0.0
  0
LINE
  5
BE9
330
1E
100
AcDbEntity
  8
7
100
AcDbLine
 10
50.11417322834645
 20
31.35925196850393
 30
0.0
 11
50.08661417322834
 21
31.45570866141732
 31
0.0
  0
LINE
  5
BEA
330
1E
100
AcDbEntity
  8
7
100
AcDbLine
 10
50.08661417322834
 20
31.45570866141732
 30
0.0
 11
50.0501968503937
 21
31.5501968503937
 31
0.0
  0
LINE
  5
BEB
330
1E
100
AcDbEntity
  8
7
100
AcDbLine
 10
50.0501968503937
 20
31.5501968503937
 30
0.0
 11
50.00787401574803
 21
31.64074803149606
 31
0.0
  0
LINE
  5
BEC
330
1E
100
AcDbEntity
  8
7
100
AcDbLine
 10
50.00787401574803
 20
31.64074803149606
 30
0.0
 11
49.95669291338582
 21
31.72834645669291
 31
0.0
  0
LINE
  5
BED
330
1E
100
AcDbEntity
  8
7
100
AcDbLine
 10
49.95669291338582
 20
31.72834645669291
 30
0.0
 11
49.89960629921259
 21
31.81102362204724
 31
0.0
  0
LINE
  5
BEE
330
1E
100
AcDbEntity
  8
7
100
AcDbLine
 10
49.5255905511811
 20
27.9773622047244
 30
0.0
 11
49.61023622047243
 21
28.03149606299212
 31
0.0
  0
LINE
  5
BEF
330
1E
100
AcDbEntity
  8
7
100
AcDbLine
 10
49.61023622047243
 20
28.03149606299212
 30
0.0
 11
49.69094488188976
 21
28.09153543307086
 31
0.0
  0
LINE
  5
BF0
330
1E
100
AcDbEntity
  8
7
100
AcDbLine
 10
49.69094488188976
 20
28.09153543307086
 30
0.0
 11
49.76673228346456
 21
28.15846456692913
 31
0.0
  0
LINE
  5
BF1
330
1E
100
AcDbEntity
  8
7
100
AcDbLine
 10
49.76673228346456
 20
28.15846456692913
 30
0.0
 11
49.83661417322834
 21
28.23129921259842
 31
0.0
  0
LINE
  5
BF2
330
1E
100
AcDbEntity
  8
7
100
AcDbLine
 10
49.83661417322834
 20
28.23129921259842
 30
0.0
 11
49.89960629921259
 21
28.30905511811023
 31
0.0
  0
LINE
  5
BF3
330
1E
100
AcDbEntity
  8
7
100
AcDbLine
 10
49.89960629921259
 20
28.30905511811023
 30
0.0
 11
49.95669291338582
 21
28.39173228346457
 31
0.0
  0
LINE
  5
BF4
330
1E
100
AcDbEntity
  8
7
100
AcDbLine
 10
49.95669291338582
 20
28.39173228346457
 30
0.0
 11
50.00787401574803
 21
28.47933070866141
 31
0.0
  0
LINE
  5
BF5
330
1E
100
AcDbEntity
  8
7
100
AcDbLine
 10
50.00787401574803
 20
28.47933070866141
 30
0.0
 11
50.0501968503937
 21
28.56988188976377
 31
0.0
  0
LINE
  5
BF6
330
1E
100
AcDbEntity
  8
7
100
AcDbLine
 10
50.0501968503937
 20
28.56988188976377
 30
0.0
 11
50.08661417322834
 21
28.66437007874015
 31
0.0
  0
LINE
  5
BF7
330
1E
100
AcDbEntity
  8
7
100
AcDbLine
 10
50.08661417322834
 20
28.66437007874015
 30
0.0
 11
50.11417322834645
 21
28.76082677165354
 31
0.0
  0
LINE
  5
BF8
330
1E
100
AcDbEntity
  8
7
100
AcDbLine
 10
50.11417322834645
 20
28.76082677165354
 30
0.0
 11
50.13484251968503
 21
28.85925196850394
 31
0.0
  0
LINE
  5
BF9
330
1E
100
AcDbEntity
  8
7
100
AcDbLine
 10
50.13484251968503
 20
28.85925196850394
 30
0.0
 11
50.14665354330708
 21
28.95964566929134
 31
0.0
  0
LINE
  5
BFA
330
1E
100
AcDbEntity
  8
7
100
AcDbLine
 10
50.14665354330708
 20
28.95964566929134
 30
0.0
 11
50.1505905511811
 21
29.06003937007874
 31
0.0
  0
LINE
  5
BFB
330
1E
100
AcDbEntity
  8
7
100
AcDbLine
 10
48.19094488188977
 20
28.03149606299212
 30
0.0
 11
48.2755905511811
 21
27.9773622047244
 31
0.0
  0
LINE
  5
BFC
330
1E
100
AcDbEntity
  8
7
100
AcDbLine
 10
48.2755905511811
 20
27.9773622047244
 30
0.0
 11
48.36515748031495
 21
27.93110236220472
 31
0.0
  0
LINE
  5
BFD
330
1E
100
AcDbEntity
  8
7
100
AcDbLine
 10
48.36515748031495
 20
27.93110236220472
 30
0.0
 11
48.45767716535433
 21
27.89173228346456
 31
0.0
  0
LINE
  5
BFE
330
1E
100
AcDbEntity
  8
7
100
AcDbLine
 10
48.45767716535433
 20
27.89173228346456
 30
0.0
 11
48.55314960629921
 21
27.85925196850393
 31
0.0
  0
LINE
  5
BFF
330
1E
100
AcDbEntity
  8
7
100
AcDbLine
 10
48.55314960629921
 20
27.85925196850393
 30
0.0
 11
48.65059055118109
 21
27.83562992125984
 31
0.0
  0
LINE
  5
C00
330
1E
100
AcDbEntity
  8
7
100
AcDbLine
 10
48.65059055118109
 20
27.83562992125984
 30
0.0
 11
48.75
 21
27.81889763779527
 31
0.0
  0
LINE
  5
C01
330
1E
100
AcDbEntity
  8
7
100
AcDbLine
 10
48.75
 20
27.81889763779527
 30
0.0
 11
48.8503937007874
 21
27.81102362204724
 31
0.0
  0
LINE
  5
C02
330
1E
100
AcDbEntity
  8
7
100
AcDbLine
 10
48.8503937007874
 20
27.81102362204724
 30
0.0
 11
48.9507874015748
 21
27.81102362204724
 31
0.0
  0
LINE
  5
C03
330
1E
100
AcDbEntity
  8
7
100
AcDbLine
 10
48.9507874015748
 20
27.81102362204724
 30
0.0
 11
49.0511811023622
 21
27.81889763779527
 31
0.0
  0
LINE
  5
C04
330
1E
100
AcDbEntity
  8
7
100
AcDbLine
 10
49.0511811023622
 20
27.81889763779527
 30
0.0
 11
49.1505905511811
 21
27.83562992125984
 31
0.0
  0
LINE
  5
C05
330
1E
100
AcDbEntity
  8
7
100
AcDbLine
 10
49.1505905511811
 20
27.83562992125984
 30
0.0
 11
49.24803149606299
 21
27.85925196850393
 31
0.0
  0
LINE
  5
C06
330
1E
100
AcDbEntity
  8
7
100
AcDbLine
 10
49.24803149606299
 20
27.85925196850393
 30
0.0
 11
49.34350393700786
 21
27.89173228346456
 31
0.0
  0
LINE
  5
C07
330
1E
100
AcDbEntity
  8
7
100
AcDbLine
 10
49.34350393700786
 20
27.89173228346456
 30
0.0
 11
49.43602362204725
 21
27.93110236220472
 31
0.0
  0
LINE
  5
C08
330
1E
100
AcDbEntity
  8
7
100
AcDbLine
 10
49.43602362204725
 20
27.93110236220472
 30
0.0
 11
49.5255905511811
 21
27.9773622047244
 31
0.0
  0
LINE
  5
C09
330
1E
100
AcDbEntity
  8
7
100
AcDbLine
 10
47.6505905511811
 20
29.06003937007874
 30
0.0
 11
47.65452755905511
 21
28.95964566929134
 31
0.0
  0
LINE
  5
C0A
330
1E
100
AcDbEntity
  8
7
100
AcDbLine
 10
47.65452755905511
 20
28.95964566929134
 30
0.0
 11
47.66633858267716
 21
28.85925196850394
 31
0.0
  0
LINE
  5
C0B
330
1E
100
AcDbEntity
  8
7
100
AcDbLine
 10
47.66633858267716
 20
28.85925196850394
 30
0.0
 11
47.68700787401574
 21
28.76082677165354
 31
0.0
  0
LINE
  5
C0C
330
1E
100
AcDbEntity
  8
7
100
AcDbLine
 10
47.68700787401574
 20
28.76082677165354
 30
0.0
 11
47.71456692913385
 21
28.66437007874015
 31
0.0
  0
LINE
  5
C0D
330
1E
100
AcDbEntity
  8
7
100
AcDbLine
 10
47.71456692913385
 20
28.66437007874015
 30
0.0
 11
47.7509842519685
 21
28.56988188976377
 31
0.0
  0
LINE
  5
C0E
330
1E
100
AcDbEntity
  8
7
100
AcDbLine
 10
47.7509842519685
 20
28.56988188976377
 30
0.0
 11
47.79330708661417
 21
28.47933070866141
 31
0.0
  0
LINE
  5
C0F
330
1E
100
AcDbEntity
  8
7
100
AcDbLine
 10
47.79330708661417
 20
28.47933070866141
 30
0.0
 11
47.84448818897637
 21
28.39173228346457
 31
0.0
  0
LINE
  5
C10
330
1E
100
AcDbEntity
  8
7
100
AcDbLine
 10
47.84448818897637
 20
28.39173228346457
 30
0.0
 11
47.9015748031496
 21
28.30905511811023
 31
0.0
  0
LINE
  5
C11
330
1E
100
AcDbEntity
  8
7
100
AcDbLine
 10
47.9015748031496
 20
28.30905511811023
 30
0.0
 11
47.96456692913385
 21
28.23129921259842
 31
0.0
  0
LINE
  5
C12
330
1E
100
AcDbEntity
  8
7
100
AcDbLine
 10
47.96456692913385
 20
28.23129921259842
 30
0.0
 11
48.03444881889763
 21
28.15846456692913
 31
0.0
  0
LINE
  5
C13
330
1E
100
AcDbEntity
  8
7
100
AcDbLine
 10
48.03444881889763
 20
28.15846456692913
 30
0.0
 11
48.11023622047244
 21
28.09153543307086
 31
0.0
  0
LINE
  5
C14
330
1E
100
AcDbEntity
  8
7
100
AcDbLine
 10
48.11023622047244
 20
28.09153543307086
 30
0.0
 11
48.19094488188977
 21
28.03149606299212
 31
0.0
  0
LINE
  5
C15
330
1E
100
AcDbEntity
  8
7
100
AcDbLine
 10
49.37992125984251
 20
30.33661417322834
 30
0.0
 11
49.33956692913385
 21
30.39665354330708
 31
0.0
  0
LINE
  5
C16
330
1E
100
AcDbEntity
  8
7
100
AcDbLine
 10
49.33956692913385
 20
30.39665354330708
 30
0.0
 11
49.29232283464567
 21
30.4507874015748
 31
0.0
  0
LINE
  5
C17
330
1E
100
AcDbEntity
  8
7
100
AcDbLine
 10
49.29232283464567
 20
30.4507874015748
 30
0.0
 11
49.23720472440944
 21
30.49901574803149
 31
0.0
  0
LINE
  5
C18
330
1E
100
AcDbEntity
  8
7
100
AcDbLine
 10
49.23720472440944
 20
30.49901574803149
 30
0.0
 11
49.1771653543307
 21
30.53838582677165
 31
0.0
  0
LINE
  5
C19
330
1E
100
AcDbEntity
  8
7
100
AcDbLine
 10
49.1771653543307
 20
30.53838582677165
 30
0.0
 11
49.11220472440945
 21
30.57086614173228
 31
0.0
  0
LINE
  5
C1A
330
1E
100
AcDbEntity
  8
7
100
AcDbLine
 10
49.11220472440945
 20
30.57086614173228
 30
0.0
 11
49.04429133858267
 21
30.59350393700787
 31
0.0
  0
LINE
  5
C1B
330
1E
100
AcDbEntity
  8
7
100
AcDbLine
 10
49.04429133858267
 20
30.59350393700787
 30
0.0
 11
48.97342519685039
 21
30.60826771653543
 31
0.0
  0
LINE
  5
C1C
330
1E
100
AcDbEntity
  8
7
100
AcDbLine
 10
48.97342519685039
 20
30.60826771653543
 30
0.0
 11
48.9005905511811
 21
30.61318897637795
 31
0.0
  0
LINE
  5
C1D
330
1E
100
AcDbEntity
  8
7
100
AcDbLine
 10
48.97342519685039
 20
29.51181102362204
 30
0.0
 11
49.04429133858267
 21
29.5255905511811
 31
0.0
  0
LINE
  5
C1E
330
1E
100
AcDbEntity
  8
7
100
AcDbLine
 10
49.04429133858267
 20
29.5255905511811
 30
0.0
 11
49.11220472440945
 21
29.54921259842519
 31
0.0
  0
LINE
  5
C1F
330
1E
100
AcDbEntity
  8
7
100
AcDbLine
 10
49.11220472440945
 20
29.54921259842519
 30
0.0
 11
49.1771653543307
 21
29.58070866141732
 31
0.0
  0
LINE
  5
C20
330
1E
100
AcDbEntity
  8
7
100
AcDbLine
 10
49.1771653543307
 20
29.58070866141732
 30
0.0
 11
49.23720472440944
 21
29.62106299212598
 31
0.0
  0
LINE
  5
C21
330
1E
100
AcDbEntity
  8
7
100
AcDbLine
 10
49.23720472440944
 20
29.62106299212598
 30
0.0
 11
49.29232283464567
 21
29.66830708661417
 31
0.0
  0
LINE
  5
C22
330
1E
100
AcDbEntity
  8
7
100
AcDbLine
 10
49.29232283464567
 20
29.66830708661417
 30
0.0
 11
49.33956692913385
 21
29.72342519685039
 31
0.0
  0
LINE
  5
C23
330
1E
100
AcDbEntity
  8
7
100
AcDbLine
 10
49.33956692913385
 20
29.72342519685039
 30
0.0
 11
49.37992125984251
 21
29.78346456692913
 31
0.0
  0
LINE
  5
C24
330
1E
100
AcDbEntity
  8
7
100
AcDbLine
 10
49.37992125984251
 20
29.78346456692913
 30
0.0
 11
49.41141732283464
 21
29.84842519685039
 31
0.0
  0
LINE
  5
C25
330
1E
100
AcDbEntity
  8
7
100
AcDbLine
 10
49.41141732283464
 20
29.84842519685039
 30
0.0
 11
49.43503937007874
 21
29.91633858267716
 31
0.0
  0
LINE
  5
C26
330
1E
100
AcDbEntity
  8
7
100
AcDbLine
 10
49.43503937007874
 20
29.91633858267716
 30
0.0
 11
49.44881889763779
 21
29.98720472440945
 31
0.0
  0
LINE
  5
C27
330
1E
100
AcDbEntity
  8
7
100
AcDbLine
 10
49.44881889763779
 20
29.98720472440945
 30
0.0
 11
49.45374015748031
 21
30.06003937007874
 31
0.0
  0
LINE
  5
C28
330
1E
100
AcDbEntity
  8
7
100
AcDbLine
 10
49.45374015748031
 20
30.06003937007874
 30
0.0
 11
49.44881889763779
 21
30.13188976377952
 31
0.0
  0
LINE
  5
C29
330
1E
100
AcDbEntity
  8
7
100
AcDbLine
 10
49.44881889763779
 20
30.13188976377952
 30
0.0
 11
49.43503937007874
 21
30.20275590551181
 31
0.0
  0
LINE
  5
C2A
330
1E
100
AcDbEntity
  8
7
100
AcDbLine
 10
49.43503937007874
 20
30.20275590551181
 30
0.0
 11
49.41141732283464
 21
30.27165354330708
 31
0.0
  0
LINE
  5
C2B
330
1E
100
AcDbEntity
  8
7
100
AcDbLine
 10
49.41141732283464
 20
30.27165354330708
 30
0.0
 11
49.37992125984251
 21
30.33661417322834
 31
0.0
  0
LINE
  5
C2C
330
1E
100
AcDbEntity
  8
7
100
AcDbLine
 10
48.35236220472441
 20
30.13188976377952
 30
0.0
 11
48.34744094488189
 21
30.06003937007874
 31
0.0
  0
LINE
  5
C2D
330
1E
100
AcDbEntity
  8
7
100
AcDbLine
 10
48.34744094488189
 20
30.06003937007874
 30
0.0
 11
48.35236220472441
 21
29.98720472440945
 31
0.0
  0
LINE
  5
C2E
330
1E
100
AcDbEntity
  8
7
100
AcDbLine
 10
48.35236220472441
 20
29.98720472440945
 30
0.0
 11
48.36712598425196
 21
29.91633858267716
 31
0.0
  0
LINE
  5
C2F
330
1E
100
AcDbEntity
  8
7
100
AcDbLine
 10
48.36712598425196
 20
29.91633858267716
 30
0.0
 11
48.38976377952755
 21
29.84842519685039
 31
0.0
  0
LINE
  5
C30
330
1E
100
AcDbEntity
  8
7
100
AcDbLine
 10
48.38976377952755
 20
29.84842519685039
 30
0.0
 11
48.42224409448818
 21
29.78346456692913
 31
0.0
  0
LINE
  5
C31
330
1E
100
AcDbEntity
  8
7
100
AcDbLine
 10
48.42224409448818
 20
29.78346456692913
 30
0.0
 11
48.46161417322834
 21
29.72342519685039
 31
0.0
  0
LINE
  5
C32
330
1E
100
AcDbEntity
  8
7
100
AcDbLine
 10
48.46161417322834
 20
29.72342519685039
 30
0.0
 11
48.50984251968504
 21
29.66830708661417
 31
0.0
  0
LINE
  5
C33
330
1E
100
AcDbEntity
  8
7
100
AcDbLine
 10
48.50984251968504
 20
29.66830708661417
 30
0.0
 11
48.56397637795275
 21
29.62106299212598
 31
0.0
  0
LINE
  5
C34
330
1E
100
AcDbEntity
  8
7
100
AcDbLine
 10
48.56397637795275
 20
29.62106299212598
 30
0.0
 11
48.6240157480315
 21
29.58070866141732
 31
0.0
  0
LINE
  5
C35
330
1E
100
AcDbEntity
  8
7
100
AcDbLine
 10
48.6240157480315
 20
29.58070866141732
 30
0.0
 11
48.68897637795275
 21
29.54921259842519
 31
0.0
  0
LINE
  5
C36
330
1E
100
AcDbEntity
  8
7
100
AcDbLine
 10
48.68897637795275
 20
29.54921259842519
 30
0.0
 11
48.75787401574803
 21
29.5255905511811
 31
0.0
  0
LINE
  5
C37
330
1E
100
AcDbEntity
  8
7
100
AcDbLine
 10
48.75787401574803
 20
29.5255905511811
 30
0.0
 11
48.82874015748031
 21
29.51181102362204
 31
0.0
  0
LINE
  5
C38
330
1E
100
AcDbEntity
  8
7
100
AcDbLine
 10
48.82874015748031
 20
29.51181102362204
 30
0.0
 11
48.9005905511811
 21
29.50688976377952
 31
0.0
  0
LINE
  5
C39
330
1E
100
AcDbEntity
  8
7
100
AcDbLine
 10
48.9005905511811
 20
29.50688976377952
 30
0.0
 11
48.97342519685039
 21
29.51181102362204
 31
0.0
  0
LINE
  5
C3A
330
1E
100
AcDbEntity
  8
7
100
AcDbLine
 10
48.9005905511811
 20
30.61318897637795
 30
0.0
 11
48.82874015748031
 21
30.60826771653543
 31
0.0
  0
LINE
  5
C3B
330
1E
100
AcDbEntity
  8
7
100
AcDbLine
 10
48.82874015748031
 20
30.60826771653543
 30
0.0
 11
48.75787401574803
 21
30.59350393700787
 31
0.0
  0
LINE
  5
C3C
330
1E
100
AcDbEntity
  8
7
100
AcDbLine
 10
48.75787401574803
 20
30.59350393700787
 30
0.0
 11
48.68897637795275
 21
30.57086614173228
 31
0.0
  0
LINE
  5
C3D
330
1E
100
AcDbEntity
  8
7
100
AcDbLine
 10
48.68897637795275
 20
30.57086614173228
 30
0.0
 11
48.6240157480315
 21
30.53838582677165
 31
0.0
  0
LINE
  5
C3E
330
1E
100
AcDbEntity
  8
7
100
AcDbLine
 10
48.6240157480315
 20
30.53838582677165
 30
0.0
 11
48.56397637795275
 21
30.49901574803149
 31
0.0
  0
LINE
  5
C3F
330
1E
100
AcDbEntity
  8
7
100
AcDbLine
 10
48.56397637795275
 20
30.49901574803149
 30
0.0
 11
48.50984251968504
 21
30.4507874015748
 31
0.0
  0
LINE
  5
C40
330
1E
100
AcDbEntity
  8
7
100
AcDbLine
 10
48.50984251968504
 20
30.4507874015748
 30
0.0
 11
48.46161417322834
 21
30.39665354330708
 31
0.0
  0
LINE
  5
C41
330
1E
100
AcDbEntity
  8
7
100
AcDbLine
 10
48.46161417322834
 20
30.39665354330708
 30
0.0
 11
48.42224409448818
 21
30.33661417322834
 31
0.0
  0
LINE
  5
C42
330
1E
100
AcDbEntity
  8
7
100
AcDbLine
 10
48.42224409448818
 20
30.33661417322834
 30
0.0
 11
48.38976377952755
 21
30.27165354330708
 31
0.0
  0
LINE
  5
C43
330
1E
100
AcDbEntity
  8
7
100
AcDbLine
 10
48.38976377952755
 20
30.27165354330708
 30
0.0
 11
48.36712598425196
 21
30.20275590551181
 31
0.0
  0
LINE
  5
C44
330
1E
100
AcDbEntity
  8
7
100
AcDbLine
 10
48.36712598425196
 20
30.20275590551181
 30
0.0
 11
48.35236220472441
 21
30.13188976377952
 31
0.0
  0
LINE
  5
C45
330
1E
100
AcDbEntity
  8
7
100
AcDbLine
 10
48.90255905511811
 20
30.58267716535433
 30
0.0
 11
48.91240157480314
 21
30.58267716535433
 31
0.0
  0
LINE
  5
C46
330
1E
100
AcDbEntity
  8
7
100
AcDbLine
 10
48.91240157480314
 20
30.58267716535433
 30
0.0
 11
48.92125984251968
 21
30.58267716535433
 31
0.0
  0
LINE
  5
C47
330
1E
100
AcDbEntity
  8
7
100
AcDbLine
 10
48.92125984251968
 20
30.58267716535433
 30
0.0
 11
48.92913385826771
 21
30.58169291338582
 31
0.0
  0
LINE
  5
C48
330
1E
100
AcDbEntity
  8
7
100
AcDbLine
 10
48.92913385826771
 20
30.58169291338582
 30
0.0
 11
48.93307086614173
 21
30.58169291338582
 31
0.0
  0
LINE
  5
C49
330
1E
100
AcDbEntity
  8
7
100
AcDbLine
 10
48.93307086614173
 20
30.58169291338582
 30
0.0
 11
48.93405511811024
 21
30.58070866141732
 31
0.0
  0
LINE
  5
C4A
330
1E
100
AcDbEntity
  8
7
100
AcDbLine
 10
48.90255905511811
 20
30.58267716535433
 30
0.0
 11
48.9005905511811
 21
30.58267716535433
 31
0.0
  0
LINE
  5
C4B
330
1E
100
AcDbEntity
  8
7
100
AcDbLine
 10
48.9005905511811
 20
30.58267716535433
 30
0.0
 11
48.89862204724408
 21
30.58267716535433
 31
0.0
  0
LINE
  5
C4C
330
1E
100
AcDbEntity
  8
7
100
AcDbLine
 10
48.85433070866142
 20
30.56791338582677
 30
0.0
 11
48.86811023622047
 21
30.58070866141732
 31
0.0
  0
LINE
  5
C4D
330
1E
100
AcDbEntity
  8
7
100
AcDbLine
 10
48.86811023622047
 20
30.58070866141732
 30
0.0
 11
48.86909448818897
 21
30.58169291338582
 31
0.0
  0
LINE
  5
C4E
330
1E
100
AcDbEntity
  8
7
100
AcDbLine
 10
48.86909448818897
 20
30.58169291338582
 30
0.0
 11
48.875
 21
30.58169291338582
 31
0.0
  0
LINE
  5
C4F
330
1E
100
AcDbEntity
  8
7
100
AcDbLine
 10
48.875
 20
30.58169291338582
 30
0.0
 11
48.88287401574803
 21
30.58267716535433
 31
0.0
  0
LINE
  5
C50
330
1E
100
AcDbEntity
  8
7
100
AcDbLine
 10
48.88287401574803
 20
30.58267716535433
 30
0.0
 11
48.89173228346456
 21
30.58267716535433
 31
0.0
  0
LINE
  5
C51
330
1E
100
AcDbEntity
  8
7
100
AcDbLine
 10
48.89173228346456
 20
30.58267716535433
 30
0.0
 11
48.89862204724408
 21
30.58267716535433
 31
0.0
  0
LINE
  5
C52
330
1E
100
AcDbEntity
  8
7
100
AcDbLine
 10
48.39173228346457
 20
30.02755905511811
 30
0.0
 11
48.4005905511811
 21
29.96259842519685
 31
0.0
  0
LINE
  5
C53
330
1E
100
AcDbEntity
  8
7
100
AcDbLine
 10
48.4005905511811
 20
29.96259842519685
 30
0.0
 11
48.41732283464566
 21
29.89862204724409
 31
0.0
  0
LINE
  5
C54
330
1E
100
AcDbEntity
  8
7
100
AcDbLine
 10
48.41732283464566
 20
29.89862204724409
 30
0.0
 11
48.44192913385827
 21
29.83858267716535
 31
0.0
  0
LINE
  5
C55
330
1E
100
AcDbEntity
  8
7
100
AcDbLine
 10
48.44192913385827
 20
29.83858267716535
 30
0.0
 11
48.47342519685039
 21
29.78149606299212
 31
0.0
  0
LINE
  5
C56
330
1E
100
AcDbEntity
  8
7
100
AcDbLine
 10
48.47342519685039
 20
29.78149606299212
 30
0.0
 11
48.51279527559055
 21
29.72834645669291
 31
0.0
  0
LINE
  5
C57
330
1E
100
AcDbEntity
  8
7
100
AcDbLine
 10
48.51279527559055
 20
29.72834645669291
 30
0.0
 11
48.55905511811023
 21
29.68208661417323
 31
0.0
  0
LINE
  5
C58
330
1E
100
AcDbEntity
  8
7
100
AcDbLine
 10
48.55905511811023
 20
29.68208661417323
 30
0.0
 11
48.61023622047244
 21
29.64074803149606
 31
0.0
  0
LINE
  5
C59
330
1E
100
AcDbEntity
  8
7
100
AcDbLine
 10
48.61023622047244
 20
29.64074803149606
 30
0.0
 11
48.66633858267716
 21
29.60728346456692
 31
0.0
  0
LINE
  5
C5A
330
1E
100
AcDbEntity
  8
7
100
AcDbLine
 10
48.66633858267716
 20
29.60728346456692
 30
0.0
 11
48.7263779527559
 21
29.58070866141732
 31
0.0
  0
LINE
  5
C5B
330
1E
100
AcDbEntity
  8
7
100
AcDbLine
 10
48.7263779527559
 20
29.58070866141732
 30
0.0
 11
48.78937007874015
 21
29.56200787401574
 31
0.0
  0
LINE
  5
C5C
330
1E
100
AcDbEntity
  8
7
100
AcDbLine
 10
48.78937007874015
 20
29.56200787401574
 30
0.0
 11
48.85433070866142
 21
29.5521653543307
 31
0.0
  0
LINE
  5
C5D
330
1E
100
AcDbEntity
  8
7
100
AcDbLine
 10
48.85433070866142
 20
30.56791338582677
 30
0.0
 11
48.78937007874015
 21
30.55807086614173
 31
0.0
  0
LINE
  5
C5E
330
1E
100
AcDbEntity
  8
7
100
AcDbLine
 10
48.78937007874015
 20
30.55807086614173
 30
0.0
 11
48.7263779527559
 21
30.53937007874015
 31
0.0
  0
LINE
  5
C5F
330
1E
100
AcDbEntity
  8
7
100
AcDbLine
 10
48.7263779527559
 20
30.53937007874015
 30
0.0
 11
48.66633858267716
 21
30.51279527559055
 31
0.0
  0
LINE
  5
C60
330
1E
100
AcDbEntity
  8
7
100
AcDbLine
 10
48.66633858267716
 20
30.51279527559055
 30
0.0
 11
48.61023622047244
 21
30.47933070866141
 31
0.0
  0
LINE
  5
C61
330
1E
100
AcDbEntity
  8
7
100
AcDbLine
 10
48.61023622047244
 20
30.47933070866141
 30
0.0
 11
48.55905511811023
 21
30.43799212598425
 31
0.0
  0
LINE
  5
C62
330
1E
100
AcDbEntity
  8
7
100
AcDbLine
 10
48.55905511811023
 20
30.43799212598425
 30
0.0
 11
48.51279527559055
 21
30.39173228346456
 31
0.0
  0
LINE
  5
C63
330
1E
100
AcDbEntity
  8
7
100
AcDbLine
 10
48.51279527559055
 20
30.39173228346456
 30
0.0
 11
48.47342519685039
 21
30.33858267716535
 31
0.0
  0
LINE
  5
C64
330
1E
100
AcDbEntity
  8
7
100
AcDbLine
 10
48.47342519685039
 20
30.33858267716535
 30
0.0
 11
48.44192913385827
 21
30.28149606299212
 31
0.0
  0
LINE
  5
C65
330
1E
100
AcDbEntity
  8
7
100
AcDbLine
 10
48.44192913385827
 20
30.28149606299212
 30
0.0
 11
48.41732283464566
 21
30.22145669291338
 31
0.0
  0
LINE
  5
C66
330
1E
100
AcDbEntity
  8
7
100
AcDbLine
 10
48.41732283464566
 20
30.22145669291338
 30
0.0
 11
48.4005905511811
 21
30.15748031496062
 31
0.0
  0
LINE
  5
C67
330
1E
100
AcDbEntity
  8
7
100
AcDbLine
 10
48.4005905511811
 20
30.15748031496062
 30
0.0
 11
48.39173228346457
 21
30.09251968503937
 31
0.0
  0
LINE
  5
C68
330
1E
100
AcDbEntity
  8
7
100
AcDbLine
 10
48.39173228346457
 20
30.09251968503937
 30
0.0
 11
48.39173228346457
 21
30.02755905511811
 31
0.0
  0
LINE
  5
C69
330
1E
100
AcDbEntity
  8
7
100
AcDbLine
 10
48.89862204724408
 20
29.53641732283464
 30
0.0
 11
48.88976377952755
 21
29.53641732283464
 31
0.0
  0
LINE
  5
C6A
330
1E
100
AcDbEntity
  8
7
100
AcDbLine
 10
48.88976377952755
 20
29.53641732283464
 30
0.0
 11
48.87992125984252
 21
29.53740157480314
 31
0.0
  0
LINE
  5
C6B
330
1E
100
AcDbEntity
  8
7
100
AcDbLine
 10
48.87992125984252
 20
29.53740157480314
 30
0.0
 11
48.87303149606299
 21
29.53740157480314
 31
0.0
  0
LINE
  5
C6C
330
1E
100
AcDbEntity
  8
7
100
AcDbLine
 10
48.87303149606299
 20
29.53740157480314
 30
0.0
 11
48.86909448818897
 21
29.53838582677165
 31
0.0
  0
LINE
  5
C6D
330
1E
100
AcDbEntity
  8
7
100
AcDbLine
 10
48.86909448818897
 20
29.53838582677165
 30
0.0
 11
48.86811023622047
 21
29.53838582677165
 31
0.0
  0
LINE
  5
C6E
330
1E
100
AcDbEntity
  8
7
100
AcDbLine
 10
48.86811023622047
 20
29.53838582677165
 30
0.0
 11
48.85433070866142
 21
29.5511811023622
 31
0.0
  0
LINE
  5
C6F
330
1E
100
AcDbEntity
  8
7
100
AcDbLine
 10
48.89862204724408
 20
29.53740157480314
 30
0.0
 11
48.9005905511811
 21
29.53740157480314
 31
0.0
  0
LINE
  5
C70
330
1E
100
AcDbEntity
  8
7
100
AcDbLine
 10
48.9005905511811
 20
29.53740157480314
 30
0.0
 11
48.90255905511811
 21
29.53740157480314
 31
0.0
  0
LINE
  5
C71
330
1E
100
AcDbEntity
  8
7
100
AcDbLine
 10
48.94783464566929
 20
29.5511811023622
 30
0.0
 11
48.93405511811024
 21
29.53838582677165
 31
0.0
  0
LINE
  5
C72
330
1E
100
AcDbEntity
  8
7
100
AcDbLine
 10
48.93405511811024
 20
29.53838582677165
 30
0.0
 11
48.93208661417323
 21
29.53838582677165
 31
0.0
  0
LINE
  5
C73
330
1E
100
AcDbEntity
  8
7
100
AcDbLine
 10
48.93208661417323
 20
29.53838582677165
 30
0.0
 11
48.9261811023622
 21
29.53740157480314
 31
0.0
  0
LINE
  5
C74
330
1E
100
AcDbEntity
  8
7
100
AcDbLine
 10
48.9261811023622
 20
29.53740157480314
 30
0.0
 11
48.91830708661417
 21
29.53641732283464
 31
0.0
  0
LINE
  5
C75
330
1E
100
AcDbEntity
  8
7
100
AcDbLine
 10
48.91830708661417
 20
29.53641732283464
 30
0.0
 11
48.90846456692913
 21
29.53641732283464
 31
0.0
  0
LINE
  5
C76
330
1E
100
AcDbEntity
  8
7
100
AcDbLine
 10
48.90846456692913
 20
29.53641732283464
 30
0.0
 11
48.90255905511811
 21
29.53641732283464
 31
0.0
  0
LINE
  5
C77
330
1E
100
AcDbEntity
  8
7
100
AcDbLine
 10
49.24212598425196
 20
30.43799212598425
 30
0.0
 11
49.19094488188976
 21
30.47933070866141
 31
0.0
  0
LINE
  5
C78
330
1E
100
AcDbEntity
  8
7
100
AcDbLine
 10
49.19094488188976
 20
30.47933070866141
 30
0.0
 11
49.13484251968504
 21
30.51279527559055
 31
0.0
  0
LINE
  5
C79
330
1E
100
AcDbEntity
  8
7
100
AcDbLine
 10
49.13484251968504
 20
30.51279527559055
 30
0.0
 11
49.07480314960629
 21
30.53937007874015
 31
0.0
  0
LINE
  5
C7A
330
1E
100
AcDbEntity
  8
7
100
AcDbLine
 10
49.07480314960629
 20
30.53937007874015
 30
0.0
 11
49.01181102362205
 21
30.55807086614173
 31
0.0
  0
LINE
  5
C7B
330
1E
100
AcDbEntity
  8
7
100
AcDbLine
 10
49.01181102362205
 20
30.55807086614173
 30
0.0
 11
48.94685039370078
 21
30.56791338582677
 31
0.0
  0
LINE
  5
C7C
330
1E
100
AcDbEntity
  8
7
100
AcDbLine
 10
49.13484251968504
 20
29.60728346456692
 30
0.0
 11
49.19094488188976
 21
29.64074803149606
 31
0.0
  0
LINE
  5
C7D
330
1E
100
AcDbEntity
  8
7
100
AcDbLine
 10
49.19094488188976
 20
29.64074803149606
 30
0.0
 11
49.24212598425196
 21
29.68208661417323
 31
0.0
  0
LINE
  5
C7E
330
1E
100
AcDbEntity
  8
7
100
AcDbLine
 10
49.24212598425196
 20
29.68208661417323
 30
0.0
 11
49.28838582677165
 21
29.72834645669291
 31
0.0
  0
LINE
  5
C7F
330
1E
100
AcDbEntity
  8
7
100
AcDbLine
 10
49.28838582677165
 20
29.72834645669291
 30
0.0
 11
49.3277559055118
 21
29.78149606299212
 31
0.0
  0
LINE
  5
C80
330
1E
100
AcDbEntity
  8
7
100
AcDbLine
 10
49.3277559055118
 20
29.78149606299212
 30
0.0
 11
49.35925196850393
 21
29.83858267716535
 31
0.0
  0
LINE
  5
C81
330
1E
100
AcDbEntity
  8
7
100
AcDbLine
 10
49.35925196850393
 20
29.83858267716535
 30
0.0
 11
49.38385826771654
 21
29.89862204724409
 31
0.0
  0
LINE
  5
C82
330
1E
100
AcDbEntity
  8
7
100
AcDbLine
 10
49.38385826771654
 20
29.89862204724409
 30
0.0
 11
49.40059055118109
 21
29.96259842519685
 31
0.0
  0
LINE
  5
C83
330
1E
100
AcDbEntity
  8
7
100
AcDbLine
 10
49.40059055118109
 20
29.96259842519685
 30
0.0
 11
49.40944881889762
 21
30.02755905511811
 31
0.0
  0
LINE
  5
C84
330
1E
100
AcDbEntity
  8
7
100
AcDbLine
 10
49.40944881889762
 20
30.02755905511811
 30
0.0
 11
49.40944881889762
 21
30.09251968503937
 31
0.0
  0
LINE
  5
C85
330
1E
100
AcDbEntity
  8
7
100
AcDbLine
 10
49.40944881889762
 20
30.09251968503937
 30
0.0
 11
49.40059055118109
 21
30.15748031496062
 31
0.0
  0
LINE
  5
C86
330
1E
100
AcDbEntity
  8
7
100
AcDbLine
 10
49.40059055118109
 20
30.15748031496062
 30
0.0
 11
49.38385826771654
 21
30.22145669291338
 31
0.0
  0
LINE
  5
C87
330
1E
100
AcDbEntity
  8
7
100
AcDbLine
 10
49.38385826771654
 20
30.22145669291338
 30
0.0
 11
49.35925196850393
 21
30.28149606299212
 31
0.0
  0
LINE
  5
C88
330
1E
100
AcDbEntity
  8
7
100
AcDbLine
 10
49.35925196850393
 20
30.28149606299212
 30
0.0
 11
49.3277559055118
 21
30.33858267716535
 31
0.0
  0
LINE
  5
C89
330
1E
100
AcDbEntity
  8
7
100
AcDbLine
 10
49.3277559055118
 20
30.33858267716535
 30
0.0
 11
49.28838582677165
 21
30.39173228346456
 31
0.0
  0
LINE
  5
C8A
330
1E
100
AcDbEntity
  8
7
100
AcDbLine
 10
49.28838582677165
 20
30.39173228346456
 30
0.0
 11
49.24212598425196
 21
30.43799212598425
 31
0.0
  0
LINE
  5
C8B
330
1E
100
AcDbEntity
  8
7
100
AcDbLine
 10
48.94685039370078
 20
29.5521653543307
 30
0.0
 11
49.01181102362205
 21
29.56200787401574
 31
0.0
  0
LINE
  5
C8C
330
1E
100
AcDbEntity
  8
7
100
AcDbLine
 10
49.01181102362205
 20
29.56200787401574
 30
0.0
 11
49.07480314960629
 21
29.58070866141732
 31
0.0
  0
LINE
  5
C8D
330
1E
100
AcDbEntity
  8
7
100
AcDbLine
 10
49.07480314960629
 20
29.58070866141732
 30
0.0
 11
49.13484251968504
 21
29.60728346456692
 31
0.0
  0
LINE
  5
C8E
330
1E
100
AcDbEntity
  8
3
100
AcDbLine
 10
48.96948818897637
 20
31.53838582677165
 30
0.0
 11
48.9753937007874
 21
31.54133858267716
 31
0.0
  0
LINE
  5
C8F
330
1E
100
AcDbEntity
  8
3
100
AcDbLine
 10
48.9753937007874
 20
31.54133858267716
 30
0.0
 11
48.97834645669291
 21
31.54724409448819
 31
0.0
  0
LINE
  5
C90
330
1E
100
AcDbEntity
  8
3
100
AcDbLine
 10
49.15944881889764
 20
31.49606299212598
 30
0.0
 11
49.17519685039369
 21
31.5
 31
0.0
  0
LINE
  5
C91
330
1E
100
AcDbEntity
  8
3
100
AcDbLine
 10
49.17519685039369
 20
31.5
 30
0.0
 11
49.18799212598425
 21
31.51181102362204
 31
0.0
  0
LINE
  5
C92
330
1E
100
AcDbEntity
  8
3
100
AcDbLine
 10
49.18799212598425
 20
31.51181102362204
 30
0.0
 11
49.19192913385827
 21
31.52854330708661
 31
0.0
  0
LINE
  5
C93
330
1E
100
AcDbEntity
  8
7
100
AcDbLine
 10
48.58366141732282
 20
31.57972440944881
 30
0.0
 11
48.60629921259842
 21
31.59744094488189
 31
0.0
  0
LINE
  5
C94
330
1E
100
AcDbEntity
  8
7
100
AcDbLine
 10
48.60629921259842
 20
31.59744094488189
 30
0.0
 11
48.62303149606299
 21
31.62204724409448
 31
0.0
  0
LINE
  5
C95
330
1E
100
AcDbEntity
  8
7
100
AcDbLine
 10
48.62303149606299
 20
31.62204724409448
 30
0.0
 11
48.62893700787402
 21
31.6505905511811
 31
0.0
  0
LINE
  5
C96
330
1E
100
AcDbEntity
  8
7
100
AcDbLine
 10
48.62893700787402
 20
31.6505905511811
 30
0.0
 11
48.625
 21
31.67913385826771
 31
0.0
  0
LINE
  5
C97
330
1E
100
AcDbEntity
  8
3
100
AcDbLine
 10
48.51181102362204
 20
31.61023622047244
 30
0.0
 11
48.51968503937007
 21
31.61318897637795
 31
0.0
  0
LINE
  5
C98
330
1E
100
AcDbEntity
  8
3
100
AcDbLine
 10
48.51968503937007
 20
31.61318897637795
 30
0.0
 11
48.52263779527558
 21
31.62106299212598
 31
0.0
  0
LINE
  5
C99
330
1E
100
AcDbEntity
  8
3
100
AcDbLine
 10
49.12204724409448
 20
31.54724409448819
 30
0.0
 11
49.125
 21
31.54133858267716
 31
0.0
  0
LINE
  5
C9A
330
1E
100
AcDbEntity
  8
3
100
AcDbLine
 10
49.125
 20
31.54133858267716
 30
0.0
 11
49.13090551181102
 21
31.53838582677165
 31
0.0
  0
LINE
  5
C9B
330
1E
100
AcDbEntity
  8
3
100
AcDbLine
 10
49.0
 20
31.49606299212598
 30
0.0
 11
49.01574803149606
 21
31.5
 31
0.0
  0
LINE
  5
C9C
330
1E
100
AcDbEntity
  8
3
100
AcDbLine
 10
49.01574803149606
 20
31.5
 30
0.0
 11
49.0285433070866
 21
31.51181102362204
 31
0.0
  0
LINE
  5
C9D
330
1E
100
AcDbEntity
  8
3
100
AcDbLine
 10
49.0285433070866
 20
31.51181102362204
 30
0.0
 11
49.03248031496062
 21
31.52854330708661
 31
0.0
  0
LINE
  5
C9E
330
1E
100
AcDbEntity
  8
3
100
AcDbLine
 10
49.06102362204724
 20
31.52854330708661
 30
0.0
 11
49.06496062992125
 21
31.51279527559054
 31
0.0
  0
LINE
  5
C9F
330
1E
100
AcDbEntity
  8
3
100
AcDbLine
 10
49.06496062992125
 20
31.51279527559054
 30
0.0
 11
49.0767716535433
 21
31.5
 31
0.0
  0
LINE
  5
CA0
330
1E
100
AcDbEntity
  8
3
100
AcDbLine
 10
49.0767716535433
 20
31.5
 30
0.0
 11
49.09350393700787
 21
31.49606299212598
 31
0.0
  0
LINE
  5
CA1
330
1E
100
AcDbEntity
  8
3
100
AcDbLine
 10
48.625
 20
31.67913385826771
 30
0.0
 11
48.61318897637795
 21
31.7017716535433
 31
0.0
  0
LINE
  5
CA2
330
1E
100
AcDbEntity
  8
3
100
AcDbLine
 10
48.61318897637795
 20
31.7017716535433
 30
0.0
 11
48.59547244094488
 21
31.71948818897638
 31
0.0
  0
LINE
  5
CA3
330
1E
100
AcDbEntity
  8
3
100
AcDbLine
 10
48.59547244094488
 20
31.71948818897638
 30
0.0
 11
48.57283464566929
 21
31.73129921259842
 31
0.0
  0
LINE
  5
CA4
330
1E
100
AcDbEntity
  8
3
100
AcDbLine
 10
48.57283464566929
 20
31.73129921259842
 30
0.0
 11
48.54724409448818
 21
31.73523622047244
 31
0.0
  0
LINE
  5
CA5
330
1E
100
AcDbEntity
  8
3
100
AcDbLine
 10
48.54724409448818
 20
31.57185039370078
 30
0.0
 11
48.57283464566929
 21
31.5757874015748
 31
0.0
  0
LINE
  5
CA6
330
1E
100
AcDbEntity
  8
3
100
AcDbLine
 10
48.57283464566929
 20
31.5757874015748
 30
0.0
 11
48.59547244094488
 21
31.58759842519685
 31
0.0
  0
LINE
  5
CA7
330
1E
100
AcDbEntity
  8
3
100
AcDbLine
 10
48.59547244094488
 20
31.58759842519685
 30
0.0
 11
48.61318897637795
 21
31.60531496062992
 31
0.0
  0
LINE
  5
CA8
330
1E
100
AcDbEntity
  8
3
100
AcDbLine
 10
48.61318897637795
 20
31.60531496062992
 30
0.0
 11
48.625
 21
31.62795275590551
 31
0.0
  0
LINE
  5
CA9
330
1E
100
AcDbEntity
  8
3
100
AcDbLine
 10
48.625
 20
31.62795275590551
 30
0.0
 11
48.62893700787402
 21
31.65354330708661
 31
0.0
  0
LINE
  5
CAA
330
1E
100
AcDbEntity
  8
3
100
AcDbLine
 10
48.62893700787402
 20
31.65354330708661
 30
0.0
 11
48.625
 21
31.67913385826771
 31
0.0
  0
LINE
  5
CAB
330
1E
100
AcDbEntity
  8
3
100
AcDbLine
 10
48.97834645669291
 20
31.63188976377952
 30
0.0
 11
48.9753937007874
 21
31.63779527559055
 31
0.0
  0
LINE
  5
CAC
330
1E
100
AcDbEntity
  8
3
100
AcDbLine
 10
48.9753937007874
 20
31.63779527559055
 30
0.0
 11
48.96948818897637
 21
31.64074803149606
 31
0.0
  0
LINE
  5
CAD
330
1E
100
AcDbEntity
  8
3
100
AcDbLine
 10
49.03248031496062
 20
31.64665354330708
 30
0.0
 11
49.0285433070866
 21
31.66240157480315
 31
0.0
  0
LINE
  5
CAE
330
1E
100
AcDbEntity
  8
3
100
AcDbLine
 10
49.0285433070866
 20
31.66240157480315
 30
0.0
 11
49.01673228346457
 21
31.6751968503937
 31
0.0
  0
LINE
  5
CAF
330
1E
100
AcDbEntity
  8
3
100
AcDbLine
 10
49.01673228346457
 20
31.6751968503937
 30
0.0
 11
49.0
 21
31.67913385826771
 31
0.0
  0
LINE
  5
CB0
330
1E
100
AcDbEntity
  8
3
100
AcDbLine
 10
49.14468503937007
 20
31.53838582677165
 30
0.0
 11
49.1505905511811
 21
31.54133858267716
 31
0.0
  0
LINE
  5
CB1
330
1E
100
AcDbEntity
  8
3
100
AcDbLine
 10
49.1505905511811
 20
31.54133858267716
 30
0.0
 11
49.15354330708661
 21
31.54724409448819
 31
0.0
  0
ENDSEC
  0
SECTION
  2
OBJECTS
  0
DICTIONARY
  5
C
330
0
100
AcDbDictionary
  3
ACAD_GROUP
350
D
  3
ACAD_LAYOUT
350
19
  3
ACAD_MLINESTYLE
350
16
  3
ACAD_PLOTSETTINGS
350
18
  3
ACAD_PLOTSTYLENAME
350
E
  3
ACDBHEADERROUNDTRIPXREC
350
CE7
  0
DICTIONARY
  5
D0A
330
1E
100
AcDbDictionary
280
     1
  3
ACAD_LAYOUTSELFREF
360
D0B
  0
DICTIONARY
  5
D08
330
1A
100
AcDbDictionary
280
     1
  3
ACAD_LAYOUTSELFREF
360
D09
  0
DICTIONARY
  5
D
102
{ACAD_REACTORS
330
C
102
}
330
C
100
AcDbDictionary
  0
DICTIONARY
  5
19
102
{ACAD_REACTORS
330
C
102
}
330
C
100
AcDbDictionary
  0
DICTIONARY
  5
16
102
{ACAD_REACTORS
330
C
102
}
330
C
100
AcDbDictionary
  3
STANDARD
350
17
  0
DICTIONARY
  5
18
102
{ACAD_REACTORS
330
C
102
}
330
C
100
AcDbDictionary
  0
ACDBDICTIONARYWDFLT
  5
E
102
{ACAD_REACTORS
330
C
102
}
330
C
100
AcDbDictionary
281
     1
  3
Normal
350
F
100
AcDbDictionaryWithDefault
340
F
  0
DICTIONARY
  5
CE7
102
{ACAD_REACTORS
330
C
102
}
330
C
100
AcDbDictionary
  3
CEPSNTYPE
350
CF1
  3
DIMSTYLEDATA
350
CF5
  3
FINGERPRINTGUID
350
CF2
  3
HYPERLINKBASE
350
CEA
  3
INSUNITS
350
CF0
  3
LAYOUTDICT
350
CEC
  3
LWETCUNION
350
CEF
  3
PLOTSETDICT
350
CED
  3
PLOTSTYLNAMDICT
350
CEE
  3
PSVPSCALE
350
CF4
  3
PUCSBASE
350
CF8
  3
PUCSORGBACK
350
CFE
  3
PUCSORGBOTTOM
350
CFA
  3
PUCSORGFRONT
350
CFD
  3
PUCSORGLEFT
350
CFB
  3
PUCSORGRIGHT
350
CFC
  3
PUCSORGTOP
350
CF9
  3
PUCSORTHOREF
350
CF6
  3
PUCSORTHOVIEW
350
CF7
  3
STYLESHEET
350
CEB
  3
TSTACKALIGN
350
CE8
  3
TSTACKSIZE
350
CE9
  3
UCSBASE
350
D01
  3
UCSORGBACK
350
D07
  3
UCSORGBOTTOM
350
D03
  3
UCSORGFRONT
350
D06
  3
UCSORGLEFT
350
D04
  3
UCSORGRIGHT
350
D05
  3
UCSORGTOP
350
D02
  3
UCSORTHOREF
350
CFF
  3
UCSORTHOVIEW
350
D00
  3
VERSIONGUID
350
CF3
  0
XRECORD
  5
D0B
102
{ACAD_REACTORS
330
D0A
102
}
330
D0A
100
AcDbXrecord
340
1E
  0
XRECORD
  5
D09
102
{ACAD_REACTORS
330
D08
102
}
330
D08
100
AcDbXrecord
340
1A
  0
MLINESTYLE
  5
17
102
{ACAD_REACTORS
330
16
102
}
330
16
100
AcDbMlineStyle
  2
STANDARD
 70
     0
  3

 62
   256
 51
90.0
 52
90.0
 71
     2
 49
0.5
 62
   256
  6
BYLAYER
 49
-0.5
 62
   256
  6
BYLAYER
  0
ACDBPLACEHOLDER
  5
F
102
{ACAD_REACTORS
330
E
102
}
330
E
100
AcDbPlaceHolder
280
     0
  0
XRECORD
  5
CF1
102
{ACAD_REACTORS
330
CE7
102
}
330
CE7
100
AcDbXrecord
 90
        0
  0
XRECORD
  5
CF5
102
{ACAD_REACTORS
330
CE7
102
}
330
CE7
100
AcDbXrecord
1000
DSTYLE
1002
{
1070
   279
 70
     2
1002
}
  0
XRECORD
  5
CF2
102
{ACAD_REACTORS
330
CE7
102
}
330
CE7
100
AcDbXrecord
  1
{8B1A4227-8D0E-4191-BBB9-14A107448D61}
  0
XRECORD
  5
CEA
102
{ACAD_REACTORS
330
CE7
102
}
330
CE7
100
AcDbXrecord
  1

  0
XRECORD
  5
CF0
102
{ACAD_REACTORS
330
CE7
102
}
330
CE7
100
AcDbXrecord
 90
        0
  0
XRECORD
  5
CEC
102
{ACAD_REACTORS
330
CE7
102
}
330
CE7
100
AcDbXrecord
340
19
  0
XRECORD
  5
CEF
102
{ACAD_REACTORS
330
CE7
102
}
330
CE7
100
AcDbXrecord
 90
    14877
  0
XRECORD
  5
CED
102
{ACAD_REACTORS
330
CE7
102
}
330
CE7
100
AcDbXrecord
340
18
  0
XRECORD
  5
CEE
102
{ACAD_REACTORS
330
CE7
102
}
330
CE7
100
AcDbXrecord
340
E
  0
XRECORD
  5
CF4
102
{ACAD_REACTORS
330
CE7
102
}
330
CE7
100
AcDbXrecord
 40
0.0
  0
XRECORD
  5
CF8
102
{ACAD_REACTORS
330
CE7
102
}
330
CE7
100
AcDbXrecord
340
0
  0
XRECORD
  5
CFE
102
{ACAD_REACTORS
330
CE7
102
}
330
CE7
100
AcDbXrecord
 10
0.0
 20
0.0
 30
0.0
  0
XRECORD
  5
CFA
102
{ACAD_REACTORS
330
CE7
102
}
330
CE7
100
AcDbXrecord
 10
0.0
 20
0.0
 30
0.0
  0
XRECORD
  5
CFD
102
{ACAD_REACTORS
330
CE7
102
}
330
CE7
100
AcDbXrecord
 10
0.0
 20
0.0
 30
0.0
  0
XRECORD
  5
CFB
102
{ACAD_REACTORS
330
CE7
102
}
330
CE7
100
AcDbXrecord
 10
0.0
 20
0.0
 30
0.0
  0
XRECORD
  5
CFC
102
{ACAD_REACTORS
330
CE7
102
}
330
CE7
100
AcDbXrecord
 10
0.0
 20
0.0
 30
0.0
  0
XRECORD
  5
CF9
102
{ACAD_REACTORS
330
CE7
102
}
330
CE7
100
AcDbXrecord
 10
0.0
 20
0.0
 30
0.0
  0
XRECORD
  5
CF6
102
{ACAD_REACTORS
330
CE7
102
}
330
CE7
100
AcDbXrecord
340
0
  0
XRECORD
  5
CF7
102
{ACAD_REACTORS
330
CE7
102
}
330
CE7
100
AcDbXrecord
 70
     0
  0
XRECORD
  5
CEB
102
{ACAD_REACTORS
330
CE7
102
}
330
CE7
100
AcDbXrecord
  1

  0
XRECORD
  5
CE8
102
{ACAD_REACTORS
330
CE7
102
}
330
CE7
100
AcDbXrecord
 90
        1
  0
XRECORD
  5
CE9
102
{ACAD_REACTORS
330
CE7
102
}
330
CE7
100
AcDbXrecord
 90
       70
  0
XRECORD
  5
D01
102
{ACAD_REACTORS
330
CE7
102
}
330
CE7
100
AcDbXrecord
340
0
  0
XRECORD
  5
D07
102
{ACAD_REACTORS
330
CE7
102
}
330
CE7
100
AcDbXrecord
 10
0.0
 20
0.0
 30
0.0
  0
XRECORD
  5
D03
102
{ACAD_REACTORS
330
CE7
102
}
330
CE7
100
AcDbXrecord
 10
0.0
 20
0.0
 30
0.0
  0
XRECORD
  5
D06
102
{ACAD_REACTORS
330
CE7
102
}
330
CE7
100
AcDbXrecord
 10
0.0
 20
0.0
 30
0.0
  0
XRECORD
  5
D04
102
{ACAD_REACTORS
330
CE7
102
}
330
CE7
100
AcDbXrecord
 10
0.0
 20
0.0
 30
0.0
  0
XRECORD
  5
D05
102
{ACAD_REACTORS
330
CE7
102
}
330
CE7
100
AcDbXrecord
 10
0.0
 20
0.0
 30
0.0
  0
XRECORD
  5
D02
102
{ACAD_REACTORS
330
CE7
102
}
330
CE7
100
AcDbXrecord
 10
0.0
 20
0.0
 30
0.0
  0
XRECORD
  5
CFF
102
{ACAD_REACTORS
330
CE7
102
}
330
CE7
100
AcDbXrecord
340
0
  0
XRECORD
  5
D00
102
{ACAD_REACTORS
330
CE7
102
}
330
CE7
100
AcDbXrecord
 70
     0
  0
XRECORD
  5
CF3
102
{ACAD_REACTORS
330
CE7
102
}
330
CE7
100
AcDbXrecord
  1
{9ACAC9A3-30B5-4CD7-8A78-359DD9150646}
  0
ENDSEC
  0
EOF
