  0
SECTION
  2
HEADER
  9
$ACADVER
  1
AC1018
  9
$ACADMAINTVER
 70
   104
  9
$DWGCODEPAGE
  3
ANSI_1252
  9
$LASTSAVEDBY
  1
BAME
  9
$INSBASE
 10
0.0
 20
0.0
 30
0.0
  9
$EXTMIN
 10
9.74283389477091
 20
2.50798711925745
 30
0.0
  9
$EXTMAX
 10
37.16657843440771
 20
31.17838668823242
 30
0.0
  9
$LIMMIN
 10
-0.5
 20
-0.5
  9
$LIMMAX
 10
5.0
 20
5.0
  9
$ORTHOMODE
 70
     0
  9
$REGENMODE
 70
     1
  9
$FILLMODE
 70
     1
  9
$QTEXTMODE
 70
     0
  9
$MIRRTEXT
 70
     1
  9
$LTSCALE
 40
1.0
  9
$ATTMODE
 70
     1
  9
$TEXTSIZE
 40
0.2
  9
$TRACEWID
 40
0.05
  9
$TEXTSTYLE
  7
Standard
  9
$CLAYER
  8
0
  9
$CELTYPE
  6
ByLayer
  9
$CECOLOR
 62
   256
  9
$CELTSCALE
 40
1.0
  9
$DISPSILH
 70
     0
  9
$DIMSCALE
 40
1.0
  9
$DIMASZ
 40
0.18
  9
$DIMEXO
 40
0.0625
  9
$DIMDLI
 40
0.38
  9
$DIMRND
 40
0.0
  9
$DIMDLE
 40
0.0
  9
$DIMEXE
 40
0.18
  9
$DIMTP
 40
0.0
  9
$DIMTM
 40
0.0
  9
$DIMTXT
 40
0.18
  9
$DIMCEN
 40
0.09
  9
$DIMTSZ
 40
0.0
  9
$DIMTOL
 70
     0
  9
$DIMLIM
 70
     0
  9
$DIMTIH
 70
     1
  9
$DIMTOH
 70
     1
  9
$DIMSE1
 70
     0
  9
$DIMSE2
 70
     0
  9
$DIMTAD
 70
     0
  9
$DIMZIN
 70
     0
  9
$DIMBLK
  1

  9
$DIMASO
 70
     1
  9
$DIMSHO
 70
     1
  9
$DIMPOST
  1

  9
$DIMAPOST
  1

  9
$DIMALT
 70
     0
  9
$DIMALTD
 70
     2
  9
$DIMALTF
 40
25.4
  9
$DIMLFAC
 40
1.0
  9
$DIMTOFL
 70
     0
  9
$DIMTVP
 40
0.0
  9
$DIMTIX
 70
     0
  9
$DIMSOXD
 70
     0
  9
$DIMSAH
 70
     0
  9
$DIMBLK1
  1

  9
$DIMBLK2
  1

  9
$DIMSTYLE
  2
Standard
  9
$DIMCLRD
 70
     0
  9
$DIMCLRE
 70
     0
  9
$DIMCLRT
 70
     0
  9
$DIMTFAC
 40
1.0
  9
$DIMGAP
 40
0.09
  9
$DIMJUST
 70
     0
  9
$DIMSD1
 70
     0
  9
$DIMSD2
 70
     0
  9
$DIMTOLJ
 70
     1
  9
$DIMTZIN
 70
     0
  9
$DIMALTZ
 70
     0
  9
$DIMALTTZ
 70
     0
  9
$DIMUPT
 70
     0
  9
$DIMDEC
 70
     4
  9
$DIMTDEC
 70
     4
  9
$DIMALTU
 70
     2
  9
$DIMALTTD
 70
     2
  9
$DIMTXSTY
  7
Standard
  9
$DIMAUNIT
 70
     0
  9
$DIMADEC
 70
     0
  9
$DIMALTRND
 40
0.0
  9
$DIMAZIN
 70
     0
  9
$DIMDSEP
 70
    46
  9
$DIMATFIT
 70
     3
  9
$DIMFRAC
 70
     0
  9
$DIMLDRBLK
  1

  9
$DIMLUNIT
 70
     2
  9
$DIMLWD
 70
    -2
  9
$DIMLWE
 70
    -2
  9
$DIMTMOVE
 70
     0
  9
$LUNITS
 70
     2
  9
$LUPREC
 70
     4
  9
$SKETCHINC
 40
0.1
  9
$FILLETRAD
 40
0.5
  9
$AUNITS
 70
     0
  9
$AUPREC
 70
     0
  9
$MENU
  1
.
  9
$ELEVATION
 40
0.0
  9
$PELEVATION
 40
0.0
  9
$THICKNESS
 40
0.0
  9
$LIMCHECK
 70
     0
  9
$CHAMFERA
 40
0.0
  9
$CHAMFERB
 40
0.0
  9
$CHAMFERC
 40
0.0
  9
$CHAMFERD
 40
0.0
  9
$SKPOLY
 70
     0
  9
$TDCREATE
 40
2458527.558177384
  9
$TDUCREATE
 40
2458527.808177384
  9
$TDUPDATE
 40
2458527.561193658
  9
$TDUUPDATE
 40
2458527.811193658
  9
$TDINDWG
 40
0.0014118866
  9
$TDUSRTIMER
 40
0.0014118866
  9
$USRTIMER
 70
     1
  9
$ANGBASE
 50
0.0
  9
$ANGDIR
 70
     0
  9
$PDMODE
 70
     0
  9
$PDSIZE
 40
0.0
  9
$PLINEWID
 40
0.0
  9
$SPLFRAME
 70
     0
  9
$SPLINETYPE
 70
     6
  9
$SPLINESEGS
 70
     8
  9
$HANDSEED
  5
3ED
  9
$SURFTAB1
 70
     6
  9
$SURFTAB2
 70
     6
  9
$SURFTYPE
 70
     6
  9
$SURFU
 70
     6
  9
$SURFV
 70
     6
  9
$UCSBASE
  2

  9
$UCSNAME
  2

  9
$UCSORG
 10
0.0
 20
0.0
 30
0.0
  9
$UCSXDIR
 10
1.0
 20
0.0
 30
0.0
  9
$UCSYDIR
 10
0.0
 20
1.0
 30
0.0
  9
$UCSORTHOREF
  2

  9
$UCSORTHOVIEW
 70
     0
  9
$UCSORGTOP
 10
0.0
 20
0.0
 30
0.0
  9
$UCSORGBOTTOM
 10
0.0
 20
0.0
 30
0.0
  9
$UCSORGLEFT
 10
0.0
 20
0.0
 30
0.0
  9
$UCSORGRIGHT
 10
0.0
 20
0.0
 30
0.0
  9
$UCSORGFRONT
 10
0.0
 20
0.0
 30
0.0
  9
$UCSORGBACK
 10
0.0
 20
0.0
 30
0.0
  9
$PUCSBASE
  2

  9
$PUCSNAME
  2

  9
$PUCSORG
 10
0.0
 20
0.0
 30
0.0
  9
$PUCSXDIR
 10
1.0
 20
0.0
 30
0.0
  9
$PUCSYDIR
 10
0.0
 20
1.0
 30
0.0
  9
$PUCSORTHOREF
  2

  9
$PUCSORTHOVIEW
 70
     0
  9
$PUCSORGTOP
 10
0.0
 20
0.0
 30
0.0
  9
$PUCSORGBOTTOM
 10
0.0
 20
0.0
 30
0.0
  9
$PUCSORGLEFT
 10
0.0
 20
0.0
 30
0.0
  9
$PUCSORGRIGHT
 10
0.0
 20
0.0
 30
0.0
  9
$PUCSORGFRONT
 10
0.0
 20
0.0
 30
0.0
  9
$PUCSORGBACK
 10
0.0
 20
0.0
 30
0.0
  9
$USERI1
 70
     0
  9
$USERI2
 70
     0
  9
$USERI3
 70
     0
  9
$USERI4
 70
     0
  9
$USERI5
 70
     0
  9
$USERR1
 40
0.0
  9
$USERR2
 40
0.0
  9
$USERR3
 40
0.0
  9
$USERR4
 40
0.0
  9
$USERR5
 40
0.0
  9
$WORLDVIEW
 70
     1
  9
$SHADEDGE
 70
     3
  9
$SHADEDIF
 70
    70
  9
$TILEMODE
 70
     1
  9
$MAXACTVP
 70
    64
  9
$PINSBASE
 10
0.0
 20
0.0
 30
0.0
  9
$PLIMCHECK
 70
     0
  9
$PEXTMIN
 10
-0.5
 20
-0.5
 30
-0.5
  9
$PEXTMAX
 10
5.0
 20
5.0
 30
5.0
  9
$PLIMMIN
 10
-0.5
 20
-0.5
  9
$PLIMMAX
 10
5.0
 20
5.0
  9
$UNITMODE
 70
     0
  9
$VISRETAIN
 70
     1
  9
$PLINEGEN
 70
     0
  9
$PSLTSCALE
 70
     1
  9
$TREEDEPTH
 70
  3020
  9
$CMLSTYLE
  2
Standard
  9
$CMLJUST
 70
     0
  9
$CMLSCALE
 40
1.0
  9
$PROXYGRAPHICS
 70
     1
  9
$MEASUREMENT
 70
     0
  9
$CELWEIGHT
370
    18
  9
$ENDCAPS
280
     0
  9
$JOINSTYLE
280
     0
  9
$LWDISPLAY
290
     1
  9
$INSUNITS
 70
     1
  9
$HYPERLINKBASE
  1

  9
$STYLESHEET
  1

  9
$XEDIT
290
     1
  9
$CEPSNTYPE
380
     0
  9
$PSTYLEMODE
290
     1
  9
$FINGERPRINTGUID
  2
{F16AD815-36BA-4D2E-8227-5BBAE230C06A}
  9
$VERSIONGUID
  2
{7B01BF70-9551-49BB-881C-C6DB6DB35687}
  9
$EXTNAMES
290
     1
  9
$PSVPSCALE
 40
0.0
  9
$OLESTARTUP
290
     0
  9
$SORTENTS
280
   127
  9
$INDEXCTL
280
     0
  9
$HIDETEXT
280
     1
  9
$XCLIPFRAME
290
     0
  9
$HALOGAP
280
     0
  9
$OBSCOLOR
 70
   257
  9
$OBSLTYPE
280
     0
  9
$INTERSECTIONDISPLAY
280
     0
  9
$INTERSECTIONCOLOR
 70
   257
  9
$DIMASSOC
280
     2
  9
$PROJECTNAME
  1

  0
ENDSEC
  0
SECTION
  2
CLASSES
  0
CLASS
  1
ACDBDICTIONARYWDFLT
  2
AcDbDictionaryWithDefault
  3
ObjectDBX Classes
 90
        0
 91
        1
280
     0
281
     0
  0
CLASS
  1
VISUALSTYLE
  2
AcDbVisualStyle
  3
ObjectDBX Classes
 90
     4095
 91
       24
280
     0
281
     0
  0
CLASS
  1
MATERIAL
  2
AcDbMaterial
  3
ObjectDBX Classes
 90
     1153
 91
        3
280
     0
281
     0
  0
CLASS
  1
SCALE
  2
AcDbScale
  3
ObjectDBX Classes
 90
     1153
 91
       33
280
     0
281
     0
  0
CLASS
  1
TABLESTYLE
  2
AcDbTableStyle
  3
ObjectDBX Classes
 90
     4095
 91
        1
280
     0
281
     0
  0
CLASS
  1
MLEADERSTYLE
  2
AcDbMLeaderStyle
  3
ACDB_MLEADERSTYLE_CLASS
 90
     4095
 91
        1
280
     0
281
     0
  0
CLASS
  1
SUN
  2
AcDbSun
  3
SCENEOE
 90
     1153
 91
        1
280
     0
281
     0
  0
CLASS
  1
DICTIONARYVAR
  2
AcDbDictionaryVar
  3
ObjectDBX Classes
 90
        0
 91
       16
280
     0
281
     0
  0
CLASS
  1
CELLSTYLEMAP
  2
AcDbCellStyleMap
  3
ObjectDBX Classes
 90
     1152
 91
        3
280
     0
281
     0
  0
CLASS
  1
ACDBSECTIONVIEWSTYLE
  2
AcDbSectionViewStyle
  3
ObjectDBX Classes
 90
     1025
 91
        1
280
     0
281
     0
  0
CLASS
  1
ACDBDETAILVIEWSTYLE
  2
AcDbDetailViewStyle
  3
ObjectDBX Classes
 90
     1025
 91
        1
280
     0
281
     0
  0
CLASS
  1
SOLID_BACKGROUND
  2
AcDbSolidBackground
  3
SCENEOE
 90
     4095
 91
        1
280
     0
281
     0
  0
CLASS
  1
NPOCOLLECTION
  2
AcDbImpNonPersistentObjectsCollection
  3
ObjectDBX Classes
 90
     1153
 91
        1
280
     0
281
     0
  0
CLASS
  1
DIMASSOC
  2
AcDbDimAssoc
  3
"AcDbDimAssoc|Product Desc:     AcDim ARX App For Dimension|Company:          Autodesk, Inc.|WEB Address:      www.autodesk.com"
 90
        0
 91
        1
280
     0
281
     0
  0
ENDSEC
  0
SECTION
  2
TABLES
  0
TABLE
  2
VPORT
  5
8
102
{ACAD_XDICTIONARY
360
2C5
102
}
330
0
100
AcDbSymbolTable
 70
    16
  0
VPORT
  5
29
330
8
100
AcDbSymbolTableRecord
100
AcDbViewportTableRecord
  2
*Active
 70
     0
 10
0.0
 20
0.0
 11
1.0
 21
1.0
 12
-0.0000009811016
 22
0.0000000484287757
 13
0.0
 23
0.0
 14
0.5
 24
0.5
 15
0.5
 25
0.5
 16
0.0000000000000284
 26
0.0
 36
122.7253812037845
 17
23.45470714569092
 27
16.84318685531616
 37
0.0
 40
28.91371271948962
 41
2.361189801699716
 42
50.0
 43
26.72404639574102
 44
-26.72404639574102
 50
0.0
 51
0.000000000000009
 71
     0
 72
   100
 73
     1
 74
     3
 75
     0
 76
     0
 77
     0
 78
     0
281
     0
 65
     1
110
0.0
120
0.0
130
0.0
111
1.0
121
0.0
131
0.0
112
0.0
122
1.0
132
0.0
 79
     0
146
0.0
1001
ACAD_NAV_VCDISPLAY
1070
     3
  0
VPORT
  5
2A6
330
8
100
AcDbSymbolTableRecord
100
AcDbViewportTableRecord
  2
L1
 70
     0
 10
0.0
 20
0.0
 11
1.0
 21
1.0
 12
0.0
 22
0.0
 13
0.0
 23
0.0
 14
0.5
 24
0.5
 15
0.5
 25
0.5
 16
0.7188730927569434
 26
-0.5850486126764433
 36
0.3754192287502549
 17
0.0
 27
0.0
 37
0.0
 40
54.05320616273471
 41
0.3285051529079287
 42
50.0
 43
26.72404639574102
 44
-26.72404639574102
 50
0.0
 51
0.0
 71
     0
 72
   100
 73
     1
 74
     3
 75
     0
 76
     0
 77
     0
 78
     0
281
     0
 65
     1
110
0.0
120
0.0
130
0.0
111
1.0
121
0.0
131
0.0
112
0.0
122
1.0
132
0.0
 79
     0
146
0.0
  0
VPORT
  5
2A7
330
8
100
AcDbSymbolTableRecord
100
AcDbViewportTableRecord
  2
L2
 70
     0
 10
0.0
 20
0.0
 11
0.5
 21
1.0
 12
0.0
 22
0.0
 13
0.0
 23
0.0
 14
0.5
 24
0.5
 15
0.5
 25
0.5
 16
0.0
 26
-1.0
 36
0.0
 17
0.0
 27
0.0
 37
0.0
 40
52.1444807721776
 41
0.340529937065311
 42
50.0
 43
26.87532299547507
 44
-26.87532299547507
 50
0.0
 51
0.0
 71
     0
 72
   100
 73
     1
 74
     3
 75
     0
 76
     0
 77
     0
 78
     0
281
     0
 65
     1
110
0.0
120
0.0
130
0.0
111
1.0
121
0.0
131
0.0
112
0.0
122
1.0
132
0.0
 79
     0
146
0.0
  0
VPORT
  5
2A8
330
8
100
AcDbSymbolTableRecord
100
AcDbViewportTableRecord
  2
L2
 70
     0
 10
0.5
 20
0.0
 11
1.0
 21
1.0
 12
0.0
 22
0.0
 13
0.0
 23
0.0
 14
0.5
 24
0.5
 15
0.5
 25
0.5
 16
1.0
 26
0.0
 36
0.0
 17
0.0
 27
0.0
 37
0.0
 40
52.1444807721776
 41
0.340529937065311
 42
50.0
 43
26.38684568113438
 44
-26.38684568113438
 50
0.0
 51
0.0
 71
     0
 72
   100
 73
     1
 74
     3
 75
     0
 76
     0
 77
     0
 78
     0
281
     0
 65
     1
110
0.0
120
0.0
130
0.0
111
1.0
121
0.0
131
0.0
112
0.0
122
1.0
132
0.0
 79
     0
146
0.0
  0
VPORT
  5
2A9
330
8
100
AcDbSymbolTableRecord
100
AcDbViewportTableRecord
  2
L3
 70
     0
 10
0.0
 20
0.5
 11
1.0
 21
1.0
 12
0.0
 22
0.0
 13
0.0
 23
0.0
 14
0.5
 24
0.5
 15
0.5
 25
0.5
 16
0.0
 26
0.0
 36
1.0
 17
0.0
 27
0.0
 37
0.0
 40
8.125
 41
2.185446985311133
 42
50.0
 43
26.0722403860888
 44
-26.0722403860888
 50
0.0
 51
0.0
 71
     0
 72
   100
 73
     1
 74
     3
 75
     0
 76
     0
 77
     0
 78
     0
281
     0
 65
     1
110
0.0
120
0.0
130
0.0
111
1.0
121
0.0
131
0.0
112
0.0
122
1.0
132
0.0
 79
     0
146
0.0
  0
VPORT
  5
2AA
330
8
100
AcDbSymbolTableRecord
100
AcDbViewportTableRecord
  2
L3
 70
     0
 10
0.0
 20
0.0
 11
1.0
 21
0.5
 12
0.0
 22
0.0
 13
0.0
 23
0.0
 14
0.5
 24
0.5
 15
0.5
 25
0.5
 16
0.0
 26
-1.0
 36
0.0
 17
0.0
 27
0.0
 37
0.0
 40
52.1444807721776
 41
0.340529937065311
 42
50.0
 43
26.87532299547507
 44
-26.87532299547507
 50
0.0
 51
0.0
 71
     0
 72
   100
 73
     1
 74
     3
 75
     0
 76
     0
 77
     0
 78
     0
281
     0
 65
     1
110
0.0
120
0.0
130
0.0
111
1.0
121
0.0
131
0.0
112
0.0
122
1.0
132
0.0
 79
     0
146
0.0
  0
VPORT
  5
2AB
330
8
100
AcDbSymbolTableRecord
100
AcDbViewportTableRecord
  2
L4
 70
     0
 10
0.0
 20
0.5
 11
0.5
 21
1.0
 12
0.0
 22
0.0
 13
0.0
 23
0.0
 14
0.5
 24
0.5
 15
0.5
 25
0.5
 16
0.0
 26
0.0
 36
1.0
 17
0.0
 27
0.0
 37
0.0
 40
8.125
 41
2.185446985311133
 42
50.0
 43
26.0722403860888
 44
-26.0722403860888
 50
0.0
 51
0.0
 71
     0
 72
   100
 73
     1
 74
     3
 75
     0
 76
     0
 77
     0
 78
     0
281
     0
 65
     1
110
0.0
120
0.0
130
0.0
111
1.0
121
0.0
131
0.0
112
0.0
122
1.0
132
0.0
 79
     0
146
0.0
  0
VPORT
  5
2AC
330
8
100
AcDbSymbolTableRecord
100
AcDbViewportTableRecord
  2
L4
 70
     0
 10
0.0
 20
0.0
 11
0.5
 21
0.5
 12
0.0
 22
0.0
 13
0.0
 23
0.0
 14
0.5
 24
0.5
 15
0.5
 25
0.5
 16
0.0
 26
-1.0
 36
0.0
 17
0.0
 27
0.0
 37
0.0
 40
52.1444807721776
 41
0.340529937065311
 42
50.0
 43
26.87532299547507
 44
-26.87532299547507
 50
0.0
 51
0.0
 71
     0
 72
   100
 73
     1
 74
     3
 75
     0
 76
     0
 77
     0
 78
     0
281
     0
 65
     1
110
0.0
120
0.0
130
0.0
111
1.0
121
0.0
131
0.0
112
0.0
122
1.0
132
0.0
 79
     0
146
0.0
  0
VPORT
  5
2AD
330
8
100
AcDbSymbolTableRecord
100
AcDbViewportTableRecord
  2
L4
 70
     0
 10
0.5
 20
0.0
 11
1.0
 21
0.5
 12
0.0
 22
0.0
 13
0.0
 23
0.0
 14
0.5
 24
0.5
 15
0.5
 25
0.5
 16
1.0
 26
0.0
 36
0.0
 17
0.0
 27
0.0
 37
0.0
 40
52.1444807721776
 41
0.340529937065311
 42
50.0
 43
26.38684568113438
 44
-26.38684568113438
 50
0.0
 51
0.0
 71
     0
 72
   100
 73
     1
 74
     3
 75
     0
 76
     0
 77
     0
 78
     0
281
     0
 65
     1
110
0.0
120
0.0
130
0.0
111
1.0
121
0.0
131
0.0
112
0.0
122
1.0
132
0.0
 79
     0
146
0.0
  0
VPORT
  5
2AE
330
8
100
AcDbSymbolTableRecord
100
AcDbViewportTableRecord
  2
L4
 70
     0
 10
0.5
 20
0.5
 11
1.0
 21
1.0
 12
0.0
 22
0.0
 13
0.0
 23
0.0
 14
0.5
 24
0.5
 15
0.5
 25
0.5
 16
0.5773502691896259
 26
-0.5773502691896259
 36
0.5773502691896259
 17
0.0
 27
0.0
 37
0.0
 40
51.21704574621965
 41
0.3466962316342424
 42
50.0
 43
26.67957863169528
 44
-26.67957863169528
 50
0.0
 51
0.0
 71
     0
 72
   100
 73
     1
 74
     3
 75
     0
 76
     0
 77
     0
 78
     0
281
     0
 65
     1
110
0.0
120
0.0
130
0.0
111
1.0
121
0.0
131
0.0
112
0.0
122
1.0
132
0.0
 79
     0
146
0.0
  0
VPORT
  5
2AF
330
8
100
AcDbSymbolTableRecord
100
AcDbViewportTableRecord
  2
L6
 70
     0
 10
0.0
 20
0.5
 11
0.3333333333333334
 21
1.0
 12
0.0
 22
0.0
 13
0.0
 23
0.0
 14
0.5
 24
0.5
 15
0.5
 25
0.5
 16
0.7188730927569434
 26
-0.5850486126764433
 36
0.3754192287502549
 17
0.0
 27
0.0
 37
0.0
 40
54.05320616273471
 41
0.3285051529079287
 42
50.0
 43
26.72404639574102
 44
-26.72404639574102
 50
0.0
 51
0.0
 71
     0
 72
   100
 73
     1
 74
     3
 75
     0
 76
     0
 77
     0
 78
     0
281
     0
 65
     1
110
0.0
120
0.0
130
0.0
111
1.0
121
0.0
131
0.0
112
0.0
122
1.0
132
0.0
 79
     0
146
0.0
  0
VPORT
  5
2B0
330
8
100
AcDbSymbolTableRecord
100
AcDbViewportTableRecord
  2
L6
 70
     0
 10
0.0
 20
0.0
 11
0.3333333333333334
 21
0.5
 12
0.0
 22
0.0
 13
0.0
 23
0.0
 14
0.5
 24
0.5
 15
0.5
 25
0.5
 16
-1.0
 26
0.0
 36
0.0
 17
0.0
 27
0.0
 37
0.0
 40
52.1444807721776
 41
0.340529937065311
 42
50.0
 43
26.38684568113438
 44
-26.38684568113438
 50
0.0
 51
0.0
 71
     0
 72
   100
 73
     1
 74
     3
 75
     0
 76
     0
 77
     0
 78
     0
281
     0
 65
     1
110
0.0
120
0.0
130
0.0
111
1.0
121
0.0
131
0.0
112
0.0
122
1.0
132
0.0
 79
     0
146
0.0
  0
VPORT
  5
2B1
330
8
100
AcDbSymbolTableRecord
100
AcDbViewportTableRecord
  2
L6
 70
     0
 10
0.3333333333333334
 20
0.5
 11
0.6666666666666666
 21
1.0
 12
0.0
 22
0.0
 13
0.0
 23
0.0
 14
0.5
 24
0.5
 15
0.5
 25
0.5
 16
0.0
 26
0.0
 36
1.0
 17
0.0
 27
0.0
 37
0.0
 40
8.125
 41
2.185446985311133
 42
50.0
 43
26.0722403860888
 44
-26.0722403860888
 50
0.0
 51
0.0
 71
     0
 72
   100
 73
     1
 74
     3
 75
     0
 76
     0
 77
     0
 78
     0
281
     0
 65
     1
110
0.0
120
0.0
130
0.0
111
1.0
121
0.0
131
0.0
112
0.0
122
1.0
132
0.0
 79
     0
146
0.0
  0
VPORT
  5
2B2
330
8
100
AcDbSymbolTableRecord
100
AcDbViewportTableRecord
  2
L6
 70
     0
 10
0.3333333333333334
 20
0.0
 11
0.6666666666666666
 21
0.5
 12
0.0
 22
0.0
 13
0.0
 23
0.0
 14
0.5
 24
0.5
 15
0.5
 25
0.5
 16
0.0
 26
-1.0
 36
0.0
 17
0.0
 27
0.0
 37
0.0
 40
52.1444807721776
 41
0.340529937065311
 42
50.0
 43
26.87532299547507
 44
-26.87532299547507
 50
0.0
 51
0.0
 71
     0
 72
   100
 73
     1
 74
     3
 75
     0
 76
     0
 77
     0
 78
     0
281
     0
 65
     1
110
0.0
120
0.0
130
0.0
111
1.0
121
0.0
131
0.0
112
0.0
122
1.0
132
0.0
 79
     0
146
0.0
  0
VPORT
  5
2B3
330
8
100
AcDbSymbolTableRecord
100
AcDbViewportTableRecord
  2
L6
 70
     0
 10
0.6666666666666666
 20
0.5
 11
1.0
 21
1.0
 12
0.0
 22
0.0
 13
0.0
 23
0.0
 14
0.5
 24
0.5
 15
0.5
 25
0.5
 16
0.5773502691896259
 26
-0.5773502691896259
 36
0.5773502691896259
 17
0.0
 27
0.0
 37
0.0
 40
51.21704574621965
 41
0.3466962316342424
 42
50.0
 43
26.67957863169528
 44
-26.67957863169528
 50
0.0
 51
0.0
 71
     0
 72
   100
 73
     1
 74
     3
 75
     0
 76
     0
 77
     0
 78
     0
281
     0
 65
     1
110
0.0
120
0.0
130
0.0
111
1.0
121
0.0
131
0.0
112
0.0
122
1.0
132
0.0
 79
     0
146
0.0
  0
VPORT
  5
2B4
330
8
100
AcDbSymbolTableRecord
100
AcDbViewportTableRecord
  2
L6
 70
     0
 10
0.6666666666666666
 20
0.0
 11
1.0
 21
0.5
 12
0.0
 22
0.0
 13
0.0
 23
0.0
 14
0.5
 24
0.5
 15
0.5
 25
0.5
 16
1.0
 26
0.0
 36
0.0
 17
0.0
 27
0.0
 37
0.0
 40
52.1444807721776
 41
0.340529937065311
 42
50.0
 43
26.38684568113438
 44
-26.38684568113438
 50
0.0
 51
0.0
 71
     0
 72
   100
 73
     1
 74
     3
 75
     0
 76
     0
 77
     0
 78
     0
281
     0
 65
     1
110
0.0
120
0.0
130
0.0
111
1.0
121
0.0
131
0.0
112
0.0
122
1.0
132
0.0
 79
     0
146
0.0
  0
ENDTAB
  0
TABLE
  2
LTYPE
  5
5
330
0
100
AcDbSymbolTable
 70
     6
  0
LTYPE
  5
14
330
5
100
AcDbSymbolTableRecord
100
AcDbLinetypeTableRecord
  2
ByBlock
 70
     0
  3

 72
    65
 73
     0
 40
0.0
  0
LTYPE
  5
15
330
5
100
AcDbSymbolTableRecord
100
AcDbLinetypeTableRecord
  2
ByLayer
 70
     0
  3

 72
    65
 73
     0
 40
0.0
  0
LTYPE
  5
16
330
5
100
AcDbSymbolTableRecord
100
AcDbLinetypeTableRecord
  2
Continuous
 70
     0
  3
Solid line
 72
    65
 73
     0
 40
0.0
  0
LTYPE
  5
6E
330
5
100
AcDbSymbolTableRecord
100
AcDbLinetypeTableRecord
  2
CENTER
 70
     0
  3
____ _ ____ _ ____ _ ____
 72
    65
 73
     4
 40
47.4
 49
22.0
 74
     4
 75
     0
340
0
 46
0.0
 50
0.0
 44
0.0
 45
0.0
 49
-8.5
 74
     4
 75
     0
340
0
 46
0.0
 50
0.0
 44
0.0
 45
0.0
 49
8.5
 74
     4
 75
     0
340
0
 46
0.0
 50
0.0
 44
0.0
 45
0.0
 49
-8.5
 74
     4
 75
     0
340
0
 46
0.0
 50
0.0
 44
0.0
 45
0.0
  0
LTYPE
  5
6F
330
5
100
AcDbSymbolTableRecord
100
AcDbLinetypeTableRecord
  2
DASHDOT
 70
     0
  3
_._._._._._._._._._._._._._._._.
 72
    65
 73
     4
 40
70.0
 49
31.0
 74
     4
 75
     0
340
0
 46
0.0
 50
0.0
 44
0.0
 45
0.0
 49
-13.0
 74
     4
 75
     0
340
0
 46
0.0
 50
0.0
 44
0.0
 45
0.0
 49
13.0
 74
     4
 75
     0
340
0
 46
0.0
 50
0.0
 44
0.0
 45
0.0
 49
-13.0
 74
     4
 75
     0
340
0
 46
0.0
 50
0.0
 44
0.0
 45
0.0
  0
LTYPE
  5
70
330
5
100
AcDbSymbolTableRecord
100
AcDbLinetypeTableRecord
  2
DASHED
 70
     0
  3
__ __ __ __ __ __ __ __ __
 72
    65
 73
     2
 40
25.72
 49
12.86
 74
     4
 75
     0
340
0
 46
0.0
 50
0.0
 44
0.0
 45
0.0
 49
-12.86
 74
     4
 75
     0
340
0
 46
0.0
 50
0.0
 44
0.0
 45
0.0
  0
LTYPE
  5
71
330
5
100
AcDbSymbolTableRecord
100
AcDbLinetypeTableRecord
  2
DOT
 70
     0
  3
.........................
 72
    65
 73
     2
 40
10.0
 49
0.0
 74
     4
 75
     0
340
0
 46
0.0
 50
0.0
 44
0.0
 45
0.0
 49
-10.0
 74
     4
 75
     0
340
0
 46
0.0
 50
0.0
 44
0.0
 45
0.0
  0
LTYPE
  5
72
330
5
100
AcDbSymbolTableRecord
100
AcDbLinetypeTableRecord
  2
PHANTOM
 70
     0
  3
____ _ _ ____ _ _ _____ _ _ ____
 72
    65
 73
     6
 40
50.5
 49
18.0
 74
     4
 75
     0
340
0
 46
0.0
 50
0.0
 44
0.0
 45
0.0
 49
-6.5
 74
     4
 75
     0
340
0
 46
0.0
 50
0.0
 44
0.0
 45
0.0
 49
6.5
 74
     4
 75
     0
340
0
 46
0.0
 50
0.0
 44
0.0
 45
0.0
 49
-6.5
 74
     4
 75
     0
340
0
 46
0.0
 50
0.0
 44
0.0
 45
0.0
 49
6.5
 74
     4
 75
     0
340
0
 46
0.0
 50
0.0
 44
0.0
 45
0.0
 49
-6.5
 74
     4
 75
     0
340
0
 46
0.0
 50
0.0
 44
0.0
 45
0.0
  0
ENDTAB
  0
TABLE
  2
LAYER
  5
2
102
{ACAD_XDICTIONARY
360
339
102
}
330
0
100
AcDbSymbolTable
 70
     2
  0
LAYER
  5
10
102
{ACAD_XDICTIONARY
360
332
102
}
330
2
100
AcDbSymbolTableRecord
100
AcDbLayerTableRecord
  2
0
 70
     0
 62
     7
  6
Continuous
370
    -3
390
F
  0
LAYER
  5
74
102
{ACAD_XDICTIONARY
360
334
102
}
330
2
100
AcDbSymbolTableRecord
100
AcDbLayerTableRecord
  2
Trimetric
 70
     0
 62
     7
420
 16777215
  6
Continuous
370
    -3
390
F
  0
ENDTAB
  0
TABLE
  2
STYLE
  5
3
330
0
100
AcDbSymbolTable
 70
     1
  0
STYLE
  5
11
330
3
100
AcDbSymbolTableRecord
100
AcDbTextStyleTableRecord
  2
Standard
 70
     0
 40
0.0
 41
1.0
 50
0.0
 71
     0
 42
0.2
  3
txt
  4

  0
ENDTAB
  0
TABLE
  2
VIEW
  5
6
330
0
100
AcDbSymbolTable
 70
     9
  0
VIEW
  5
29E
330
6
100
AcDbSymbolTableRecord
100
AcDbViewTableRecord
  2
Top
 70
     0
 40
8.125
 10
0.0
 20
0.0
 41
13.04166666666666
 11
0.0
 21
0.0
 31
1.0
 12
0.0
 22
0.0
 32
0.0
 42
50.0
 43
26.0722403860888
 44
-26.0722403860888
 50
0.0
 71
     0
281
     0
 72
     0
  0
VIEW
  5
29F
330
6
100
AcDbSymbolTableRecord
100
AcDbViewTableRecord
  2
Front
 70
     0
 40
52.1444807721776
 10
0.0
 20
0.0
 41
13.04166666666666
 11
0.0
 21
-1.0
 31
0.0
 12
0.0
 22
0.0
 32
0.0
 42
50.0
 43
26.87532299547507
 44
-26.87532299547507
 50
0.0
 71
     0
281
     0
 72
     0
  0
VIEW
  5
2A0
330
6
100
AcDbSymbolTableRecord
100
AcDbViewTableRecord
  2
Right
 70
     0
 40
52.1444807721776
 10
0.0
 20
0.0
 41
8.125
 11
1.0
 21
0.0
 31
0.0
 12
0.0
 22
0.0
 32
0.0
 42
50.0
 43
26.38684568113438
 44
-26.38684568113438
 50
0.0
 71
     0
281
     0
 72
     0
  0
VIEW
  5
2A1
330
6
100
AcDbSymbolTableRecord
100
AcDbViewTableRecord
  2
Back
 70
     0
 40
52.1444807721776
 10
0.0
 20
0.0
 41
13.04166666666666
 11
0.0
 21
1.0
 31
0.0
 12
0.0
 22
0.0
 32
0.0
 42
50.0
 43
26.87532299547507
 44
-26.87532299547507
 50
0.0
 71
     0
281
     0
 72
     0
  0
VIEW
  5
2A2
330
6
100
AcDbSymbolTableRecord
100
AcDbViewTableRecord
  2
Bottom
 70
     0
 40
8.125
 10
0.0
 20
0.0
 41
13.04166666666666
 11
0.0
 21
0.0
 31
-1.0
 12
0.0
 22
0.0
 32
0.0
 42
50.0
 43
26.0722403860888
 44
-26.0722403860888
 50
180.0
 71
     0
281
     0
 72
     0
  0
VIEW
  5
2A3
330
6
100
AcDbSymbolTableRecord
100
AcDbViewTableRecord
  2
Left
 70
     0
 40
52.1444807721776
 10
0.0
 20
0.0
 41
8.125
 11
-1.0
 21
0.0
 31
0.0
 12
0.0
 22
0.0
 32
0.0
 42
50.0
 43
26.38684568113438
 44
-26.38684568113438
 50
0.0
 71
     0
281
     0
 72
     0
  0
VIEW
  5
2A4
330
6
100
AcDbSymbolTableRecord
100
AcDbViewTableRecord
  2
Isometric
 70
     0
 40
51.21704574621965
 10
0.0
 20
0.0
 41
14.96709353511526
 11
0.5773502691896259
 21
-0.5773502691896259
 31
0.5773502691896259
 12
0.0
 22
0.0
 32
0.0
 42
50.0
 43
26.67957863169528
 44
-26.67957863169528
 50
0.0
 71
     0
281
     0
 72
     0
  0
VIEW
  5
2A5
330
6
100
AcDbSymbolTableRecord
100
AcDbViewTableRecord
  2
Trimetric
 70
     0
 40
54.05320616273471
 10
0.0
 20
0.0
 41
14.53393595488424
 11
0.7188730927569434
 21
-0.5850486126764433
 31
0.3754192287502549
 12
0.0
 22
0.0
 32
0.0
 42
50.0
 43
26.72404639574102
 44
-26.72404639574102
 50
0.0
 71
     0
281
     0
 72
     0
  0
ENDTAB
  0
TABLE
  2
UCS
  5
7
330
0
100
AcDbSymbolTable
 70
     0
  0
ENDTAB
  0
TABLE
  2
APPID
  5
9
330
0
100
AcDbSymbolTable
 70
     3
  0
APPID
  5
12
330
9
100
AcDbSymbolTableRecord
100
AcDbRegAppTableRecord
  2
ACAD
 70
     0
  0
APPID
  5
304
330
9
100
AcDbSymbolTableRecord
100
AcDbRegAppTableRecord
  2
ACAD_MLEADERVER
 70
     0
  0
APPID
  5
33F
330
9
100
AcDbSymbolTableRecord
100
AcDbRegAppTableRecord
  2
ACAD_NAV_VCDISPLAY
 70
     0
  0
ENDTAB
  0
TABLE
  2
DIMSTYLE
  5
A
330
0
100
AcDbSymbolTable
 70
     1
100
AcDbDimStyleTable
 71
     0
  0
DIMSTYLE
105
27
330
A
100
AcDbSymbolTableRecord
100
AcDbDimStyleTableRecord
  2
Standard
 70
     0
340
11
  0
ENDTAB
  0
TABLE
  2
BLOCK_RECORD
  5
1
330
0
100
AcDbSymbolTable
 70
     1
  0
BLOCK_RECORD
  5
1F
330
1
100
AcDbSymbolTableRecord
100
AcDbBlockTableRecord
  2
*Model_Space
340
22
  0
BLOCK_RECORD
  5
1B
330
1
100
AcDbSymbolTableRecord
100
AcDbBlockTableRecord
  2
*Paper_Space
340
1E
  0
BLOCK_RECORD
  5
23
330
1
100
AcDbSymbolTableRecord
100
AcDbBlockTableRecord
  2
*Paper_Space0
340
26
  0
ENDTAB
  0
ENDSEC
  0
SECTION
  2
BLOCKS
  0
BLOCK
  5
20
330
1F
100
AcDbEntity
  8
0
100
AcDbBlockBegin
  2
*Model_Space
 70
     0
 10
0.0
 20
0.0
 30
0.0
  3
*Model_Space
  1

  0
ENDBLK
  5
21
330
1F
100
AcDbEntity
  8
0
100
AcDbBlockEnd
  0
BLOCK
  5
1C
330
1B
100
AcDbEntity
 67
     1
  8
0
100
AcDbBlockBegin
  2
*Paper_Space
 70
     0
 10
0.0
 20
0.0
 30
0.0
  3
*Paper_Space
  1

  0
ENDBLK
  5
1D
330
1B
100
AcDbEntity
 67
     1
  8
0
100
AcDbBlockEnd
  0
BLOCK
  5
24
330
23
100
AcDbEntity
 67
     1
  8
0
100
AcDbBlockBegin
  2
*Paper_Space0
 70
     0
 10
0.0
 20
0.0
 30
0.0
  3
*Paper_Space0
  1

  0
ENDBLK
  5
25
330
23
100
AcDbEntity
 67
     1
  8
0
100
AcDbBlockEnd
  0
ENDSEC
  0
SECTION
  2
ENTITIES
  0
LINE
  5
73
330
1F
100
AcDbEntity
  8
Trimetric
  6
Continuous
 62
     7
370
    18
100
AcDbLine
 10
24.97957801818848
 20
10.11498737335205
 30
0.0
 11
35.41957855224609
 21
10.11498737335205
 31
0.0
  0
LINE
  5
75
330
1F
100
AcDbEntity
  8
Trimetric
  6
Continuous
 62
     7
370
    18
100
AcDbLine
 10
24.97957801818848
 20
10.21998691558838
 30
0.0
 11
35.41957855224609
 21
10.21998691558838
 31
0.0
  0
LINE
  5
76
330
1F
100
AcDbEntity
  8
Trimetric
  6
Continuous
 62
     7
370
    18
100
AcDbLine
 10
35.41957855224609
 20
16.19598770141601
 30
0.0
 11
24.97957801818848
 21
16.19598770141601
 31
0.0
  0
LINE
  5
77
330
1F
100
AcDbEntity
  8
Trimetric
  6
Continuous
 62
     7
370
    18
100
AcDbLine
 10
24.97957801818848
 20
16.19598770141601
 30
0.0
 11
24.97957801818848
 21
10.21998691558838
 31
0.0
  0
LINE
  5
78
330
1F
100
AcDbEntity
  8
Trimetric
  6
Continuous
 62
     7
370
    18
100
AcDbLine
 10
32.68957901000977
 20
11.47798728942871
 30
0.0
 11
32.68957901000977
 21
10.93798732757568
 31
0.0
  0
LINE
  5
79
330
1F
100
AcDbEntity
  8
Trimetric
  6
Continuous
 62
     7
370
    18
100
AcDbLine
 10
33.14957809448242
 20
11.47798728942871
 30
0.0
 11
33.14957809448242
 21
10.93798732757568
 31
0.0
  0
LINE
  5
7A
330
1F
100
AcDbEntity
  8
Trimetric
  6
Continuous
 62
     7
370
    18
100
AcDbLine
 10
32.68957901000977
 20
13.47798824310302
 30
0.0
 11
32.68957901000977
 21
12.93798732757568
 31
0.0
  0
LINE
  5
7B
330
1F
100
AcDbEntity
  8
Trimetric
  6
Continuous
 62
     7
370
    18
100
AcDbLine
 10
33.14957809448242
 20
13.47798824310302
 30
0.0
 11
33.14957809448242
 21
12.93798732757568
 31
0.0
  0
LINE
  5
7C
330
1F
100
AcDbEntity
  8
Trimetric
  6
Continuous
 62
     7
370
    18
100
AcDbLine
 10
32.68957901000977
 20
15.47798728942871
 30
0.0
 11
32.68957901000977
 21
14.93798732757568
 31
0.0
  0
LINE
  5
7D
330
1F
100
AcDbEntity
  8
Trimetric
  6
Continuous
 62
     7
370
    18
100
AcDbLine
 10
33.14957809448242
 20
15.47798728942871
 30
0.0
 11
33.14957809448242
 21
14.93798732757568
 31
0.0
  0
LINE
  5
7E
330
1F
100
AcDbEntity
  8
Trimetric
  6
Continuous
 62
     7
370
    18
100
AcDbLine
 10
31.68957710266113
 20
11.47798728942871
 30
0.0
 11
31.68957710266113
 21
10.93798732757568
 31
0.0
  0
LINE
  5
7F
330
1F
100
AcDbEntity
  8
Trimetric
  6
Continuous
 62
     7
370
    18
100
AcDbLine
 10
32.14957809448242
 20
11.47798728942871
 30
0.0
 11
32.14957809448242
 21
10.93798732757568
 31
0.0
  0
LINE
  5
80
330
1F
100
AcDbEntity
  8
Trimetric
  6
Continuous
 62
     7
370
    18
100
AcDbLine
 10
31.68957710266113
 20
13.47798824310302
 30
0.0
 11
31.68957710266113
 21
12.93798732757568
 31
0.0
  0
LINE
  5
81
330
1F
100
AcDbEntity
  8
Trimetric
  6
Continuous
 62
     7
370
    18
100
AcDbLine
 10
32.14957809448242
 20
13.47798824310302
 30
0.0
 11
32.14957809448242
 21
12.93798732757568
 31
0.0
  0
LINE
  5
82
330
1F
100
AcDbEntity
  8
Trimetric
  6
Continuous
 62
     7
370
    18
100
AcDbLine
 10
31.68957710266113
 20
15.47798728942871
 30
0.0
 11
31.68957710266113
 21
14.93798732757568
 31
0.0
  0
LINE
  5
83
330
1F
100
AcDbEntity
  8
Trimetric
  6
Continuous
 62
     7
370
    18
100
AcDbLine
 10
32.14957809448242
 20
15.47798728942871
 30
0.0
 11
32.14957809448242
 21
14.93798732757568
 31
0.0
  0
LINE
  5
84
330
1F
100
AcDbEntity
  8
Trimetric
  6
Continuous
 62
     7
370
    18
100
AcDbLine
 10
30.68957710266114
 20
11.47798728942871
 30
0.0
 11
30.68957710266114
 21
10.93798732757568
 31
0.0
  0
LINE
  5
85
330
1F
100
AcDbEntity
  8
Trimetric
  6
Continuous
 62
     7
370
    18
100
AcDbLine
 10
31.14957809448242
 20
11.47798728942871
 30
0.0
 11
31.14957809448242
 21
10.93798732757568
 31
0.0
  0
LINE
  5
86
330
1F
100
AcDbEntity
  8
Trimetric
  6
Continuous
 62
     7
370
    18
100
AcDbLine
 10
30.68957710266114
 20
13.47798824310302
 30
0.0
 11
30.68957710266114
 21
12.93798732757568
 31
0.0
  0
LINE
  5
87
330
1F
100
AcDbEntity
  8
Trimetric
  6
Continuous
 62
     7
370
    18
100
AcDbLine
 10
31.14957809448242
 20
13.47798824310302
 30
0.0
 11
31.14957809448242
 21
12.93798732757568
 31
0.0
  0
LINE
  5
88
330
1F
100
AcDbEntity
  8
Trimetric
  6
Continuous
 62
     7
370
    18
100
AcDbLine
 10
30.68957710266114
 20
15.47798728942871
 30
0.0
 11
30.68957710266114
 21
14.93798732757568
 31
0.0
  0
LINE
  5
89
330
1F
100
AcDbEntity
  8
Trimetric
  6
Continuous
 62
     7
370
    18
100
AcDbLine
 10
31.14957809448242
 20
15.47798728942871
 30
0.0
 11
31.14957809448242
 21
14.93798732757568
 31
0.0
  0
LINE
  5
8A
330
1F
100
AcDbEntity
  8
Trimetric
  6
Continuous
 62
     7
370
    18
100
AcDbLine
 10
29.68957710266113
 20
11.47798728942871
 30
0.0
 11
29.68957710266113
 21
10.93798732757568
 31
0.0
  0
LINE
  5
8B
330
1F
100
AcDbEntity
  8
Trimetric
  6
Continuous
 62
     7
370
    18
100
AcDbLine
 10
30.14957809448242
 20
11.47798728942871
 30
0.0
 11
30.14957809448242
 21
10.93798732757568
 31
0.0
  0
LINE
  5
8C
330
1F
100
AcDbEntity
  8
Trimetric
  6
Continuous
 62
     7
370
    18
100
AcDbLine
 10
29.68957710266113
 20
13.47798824310302
 30
0.0
 11
29.68957710266113
 21
12.93798732757568
 31
0.0
  0
LINE
  5
8D
330
1F
100
AcDbEntity
  8
Trimetric
  6
Continuous
 62
     7
370
    18
100
AcDbLine
 10
30.14957809448242
 20
13.47798824310302
 30
0.0
 11
30.14957809448242
 21
12.93798732757568
 31
0.0
  0
LINE
  5
8E
330
1F
100
AcDbEntity
  8
Trimetric
  6
Continuous
 62
     7
370
    18
100
AcDbLine
 10
29.68957710266113
 20
15.47798728942871
 30
0.0
 11
29.68957710266113
 21
14.93798732757568
 31
0.0
  0
LINE
  5
8F
330
1F
100
AcDbEntity
  8
Trimetric
  6
Continuous
 62
     7
370
    18
100
AcDbLine
 10
30.14957809448242
 20
15.47798728942871
 30
0.0
 11
30.14957809448242
 21
14.93798732757568
 31
0.0
  0
LINE
  5
90
330
1F
100
AcDbEntity
  8
Trimetric
  6
Continuous
 62
     7
370
    18
100
AcDbLine
 10
28.68957710266113
 20
11.47798728942871
 30
0.0
 11
28.68957710266113
 21
10.93798732757568
 31
0.0
  0
LINE
  5
91
330
1F
100
AcDbEntity
  8
Trimetric
  6
Continuous
 62
     7
370
    18
100
AcDbLine
 10
29.14957809448242
 20
11.47798728942871
 30
0.0
 11
29.14957809448242
 21
10.93798732757568
 31
0.0
  0
LINE
  5
92
330
1F
100
AcDbEntity
  8
Trimetric
  6
Continuous
 62
     7
370
    18
100
AcDbLine
 10
28.68957710266113
 20
13.47798824310302
 30
0.0
 11
28.68957710266113
 21
12.93798732757568
 31
0.0
  0
LINE
  5
93
330
1F
100
AcDbEntity
  8
Trimetric
  6
Continuous
 62
     7
370
    18
100
AcDbLine
 10
29.14957809448242
 20
13.47798824310302
 30
0.0
 11
29.14957809448242
 21
12.93798732757568
 31
0.0
  0
LINE
  5
94
330
1F
100
AcDbEntity
  8
Trimetric
  6
Continuous
 62
     7
370
    18
100
AcDbLine
 10
28.68957710266113
 20
15.47798728942871
 30
0.0
 11
28.68957710266113
 21
14.93798732757568
 31
0.0
  0
LINE
  5
95
330
1F
100
AcDbEntity
  8
Trimetric
  6
Continuous
 62
     7
370
    18
100
AcDbLine
 10
29.14957809448242
 20
15.47798728942871
 30
0.0
 11
29.14957809448242
 21
14.93798732757568
 31
0.0
  0
LINE
  5
96
330
1F
100
AcDbEntity
  8
Trimetric
  6
Continuous
 62
     7
370
    18
100
AcDbLine
 10
27.68957710266113
 20
11.47798728942871
 30
0.0
 11
27.68957710266113
 21
10.93798732757568
 31
0.0
  0
LINE
  5
97
330
1F
100
AcDbEntity
  8
Trimetric
  6
Continuous
 62
     7
370
    18
100
AcDbLine
 10
28.14957809448242
 20
11.47798728942871
 30
0.0
 11
28.14957809448242
 21
10.93798732757568
 31
0.0
  0
LINE
  5
98
330
1F
100
AcDbEntity
  8
Trimetric
  6
Continuous
 62
     7
370
    18
100
AcDbLine
 10
27.68957710266113
 20
13.47798824310302
 30
0.0
 11
27.68957710266113
 21
12.93798732757568
 31
0.0
  0
LINE
  5
99
330
1F
100
AcDbEntity
  8
Trimetric
  6
Continuous
 62
     7
370
    18
100
AcDbLine
 10
28.14957809448242
 20
13.47798824310302
 30
0.0
 11
28.14957809448242
 21
12.93798732757568
 31
0.0
  0
LINE
  5
9A
330
1F
100
AcDbEntity
  8
Trimetric
  6
Continuous
 62
     7
370
    18
100
AcDbLine
 10
27.68957710266113
 20
15.47798728942871
 30
0.0
 11
27.68957710266113
 21
14.93798732757568
 31
0.0
  0
LINE
  5
9B
330
1F
100
AcDbEntity
  8
Trimetric
  6
Continuous
 62
     7
370
    18
100
AcDbLine
 10
28.14957809448242
 20
15.47798728942871
 30
0.0
 11
28.14957809448242
 21
14.93798732757568
 31
0.0
  0
LINE
  5
9C
330
1F
100
AcDbEntity
  8
Trimetric
  6
Continuous
 62
     7
370
    18
100
AcDbLine
 10
26.68957710266113
 20
11.47798728942871
 30
0.0
 11
26.68957710266113
 21
10.93798732757568
 31
0.0
  0
LINE
  5
9D
330
1F
100
AcDbEntity
  8
Trimetric
  6
Continuous
 62
     7
370
    18
100
AcDbLine
 10
27.14957809448242
 20
11.47798728942871
 30
0.0
 11
27.14957809448242
 21
10.93798732757568
 31
0.0
  0
LINE
  5
9E
330
1F
100
AcDbEntity
  8
Trimetric
  6
Continuous
 62
     7
370
    18
100
AcDbLine
 10
26.68957710266113
 20
13.47798824310302
 30
0.0
 11
26.68957710266113
 21
12.93798732757568
 31
0.0
  0
LINE
  5
9F
330
1F
100
AcDbEntity
  8
Trimetric
  6
Continuous
 62
     7
370
    18
100
AcDbLine
 10
27.14957809448242
 20
13.47798824310302
 30
0.0
 11
27.14957809448242
 21
12.93798732757568
 31
0.0
  0
LINE
  5
A0
330
1F
100
AcDbEntity
  8
Trimetric
  6
Continuous
 62
     7
370
    18
100
AcDbLine
 10
26.68957710266113
 20
15.47798728942871
 30
0.0
 11
26.68957710266113
 21
14.93798732757568
 31
0.0
  0
LINE
  5
A1
330
1F
100
AcDbEntity
  8
Trimetric
  6
Continuous
 62
     7
370
    18
100
AcDbLine
 10
27.14957809448242
 20
15.47798728942871
 30
0.0
 11
27.14957809448242
 21
14.93798732757568
 31
0.0
  0
LINE
  5
A2
330
1F
100
AcDbEntity
  8
Trimetric
  6
Continuous
 62
     7
370
    18
100
AcDbLine
 10
25.68957710266114
 20
11.47798728942871
 30
0.0
 11
25.68957710266114
 21
10.93798732757568
 31
0.0
  0
LINE
  5
A3
330
1F
100
AcDbEntity
  8
Trimetric
  6
Continuous
 62
     7
370
    18
100
AcDbLine
 10
26.14957809448242
 20
11.47798728942871
 30
0.0
 11
26.14957809448242
 21
10.93798732757568
 31
0.0
  0
LINE
  5
A4
330
1F
100
AcDbEntity
  8
Trimetric
  6
Continuous
 62
     7
370
    18
100
AcDbLine
 10
25.68957710266114
 20
13.47798824310302
 30
0.0
 11
25.68957710266114
 21
12.93798732757568
 31
0.0
  0
LINE
  5
A5
330
1F
100
AcDbEntity
  8
Trimetric
  6
Continuous
 62
     7
370
    18
100
AcDbLine
 10
26.14957809448242
 20
13.47798824310302
 30
0.0
 11
26.14957809448242
 21
12.93798732757568
 31
0.0
  0
LINE
  5
A6
330
1F
100
AcDbEntity
  8
Trimetric
  6
Continuous
 62
     7
370
    18
100
AcDbLine
 10
25.68957710266114
 20
15.47798728942871
 30
0.0
 11
25.68957710266114
 21
14.93798732757568
 31
0.0
  0
LINE
  5
A7
330
1F
100
AcDbEntity
  8
Trimetric
  6
Continuous
 62
     7
370
    18
100
AcDbLine
 10
26.14957809448242
 20
15.47798728942871
 30
0.0
 11
26.14957809448242
 21
14.93798732757568
 31
0.0
  0
LINE
  5
A8
330
1F
100
AcDbEntity
  8
Trimetric
  6
Continuous
 62
     7
370
    18
100
AcDbLine
 10
35.41957855224609
 20
16.19598770141601
 30
0.0
 11
35.41957855224609
 21
10.21998691558838
 31
0.0
  0
LINE
  5
A9
330
1F
100
AcDbEntity
  8
Trimetric
  6
Continuous
 62
     7
370
    18
100
AcDbLine
 10
24.87457656860352
 20
16.19598770141601
 30
0.0
 11
24.87457656860352
 21
10.21998691558838
 31
0.0
  0
LINE
  5
AA
330
1F
100
AcDbEntity
  8
Trimetric
  6
Continuous
 62
     7
370
    18
100
AcDbLine
 10
35.41957855224609
 20
16.30098915100098
 30
0.0
 11
24.97957801818848
 21
16.30098915100098
 31
0.0
  0
LINE
  5
AB
330
1F
100
AcDbEntity
  8
Trimetric
  6
Continuous
 62
     7
370
    18
100
AcDbLine
 10
24.89957809448242
 20
10.18998718261719
 30
0.0
 11
24.89957809448242
 21
10.11498737335205
 31
0.0
  0
LINE
  5
AC
330
1F
100
AcDbEntity
  8
Trimetric
  6
Continuous
 62
     7
370
    18
100
AcDbLine
 10
24.97957801818848
 20
10.18998718261719
 30
0.0
 11
24.89957809448242
 21
10.18998718261719
 31
0.0
  0
LINE
  5
AD
330
1F
100
AcDbEntity
  8
Trimetric
  6
Continuous
 62
     7
370
    18
100
AcDbLine
 10
24.97957801818848
 20
10.11498737335205
 30
0.0
 11
24.89957809448242
 21
10.11498737335205
 31
0.0
  0
LINE
  5
AE
330
1F
100
AcDbEntity
  8
Trimetric
  6
Continuous
 62
     7
370
    18
100
AcDbLine
 10
24.86957740783692
 20
10.21998691558838
 30
0.0
 11
24.79457664489746
 21
10.21998691558838
 31
0.0
  0
LINE
  5
AF
330
1F
100
AcDbEntity
  8
Trimetric
  6
Continuous
 62
     7
370
    18
100
AcDbLine
 10
24.79457664489746
 20
10.21998691558838
 30
0.0
 11
24.79457664489746
 21
10.65798759460449
 31
0.0
  0
LINE
  5
B0
330
1F
100
AcDbEntity
  8
Trimetric
  6
Continuous
 62
     7
370
    18
100
AcDbLine
 10
24.86957740783692
 20
10.65798759460449
 30
0.0
 11
24.79457664489746
 21
10.65798759460449
 31
0.0
  0
LINE
  5
B1
330
1F
100
AcDbEntity
  8
Trimetric
  6
Continuous
 62
     7
370
    18
100
AcDbLine
 10
24.86957740783692
 20
10.21998691558838
 30
0.0
 11
24.86957740783692
 21
10.65798759460449
 31
0.0
  0
LINE
  5
B2
330
1F
100
AcDbEntity
  8
Trimetric
  6
Continuous
 62
     7
370
    18
100
AcDbLine
 10
24.79457664489746
 20
15.7579870223999
 30
0.0
 11
24.86957740783692
 21
15.7579870223999
 31
0.0
  0
LINE
  5
B3
330
1F
100
AcDbEntity
  8
Trimetric
  6
Continuous
 62
     7
370
    18
100
AcDbLine
 10
24.79457664489746
 20
16.19598770141601
 30
0.0
 11
24.86957740783692
 21
16.19598770141601
 31
0.0
  0
LINE
  5
B4
330
1F
100
AcDbEntity
  8
Trimetric
  6
Continuous
 62
     7
370
    18
100
AcDbLine
 10
24.79457664489746
 20
16.19598770141601
 30
0.0
 11
24.79457664489746
 21
15.7579870223999
 31
0.0
  0
LINE
  5
B5
330
1F
100
AcDbEntity
  8
Trimetric
  6
Continuous
 62
     7
370
    18
100
AcDbLine
 10
24.86957740783692
 20
16.19598770141601
 30
0.0
 11
24.86957740783692
 21
15.7579870223999
 31
0.0
  0
LINE
  5
B6
330
1F
100
AcDbEntity
  8
Trimetric
  6
Continuous
 62
     7
370
    18
100
AcDbLine
 10
24.89957809448242
 20
16.30098915100098
 30
0.0
 11
24.89957809448242
 21
16.22598838806152
 31
0.0
  0
LINE
  5
B7
330
1F
100
AcDbEntity
  8
Trimetric
  6
Continuous
 62
     7
370
    18
100
AcDbLine
 10
24.97957801818848
 20
16.30098915100098
 30
0.0
 11
24.89957809448242
 21
16.30098915100098
 31
0.0
  0
LINE
  5
B8
330
1F
100
AcDbEntity
  8
Trimetric
  6
Continuous
 62
     7
370
    18
100
AcDbLine
 10
24.97957801818848
 20
16.22598838806152
 30
0.0
 11
24.89957809448242
 21
16.22598838806152
 31
0.0
  0
LINE
  5
B9
330
1F
100
AcDbEntity
  8
Trimetric
  6
Continuous
 62
     7
370
    18
100
AcDbLine
 10
24.79757690429688
 20
15.45798683166504
 30
0.0
 11
24.87257766723633
 21
15.45798683166504
 31
0.0
  0
LINE
  5
BA
330
1F
100
AcDbEntity
  8
Trimetric
  6
Continuous
 62
     7
370
    18
100
AcDbLine
 10
24.87257766723633
 20
15.45798683166504
 30
0.0
 11
24.87257766723633
 21
10.95798778533935
 31
0.0
  0
LINE
  5
BB
330
1F
100
AcDbEntity
  8
Trimetric
  6
Continuous
 62
     7
370
    18
100
AcDbLine
 10
24.79757690429688
 20
10.95798778533935
 30
0.0
 11
24.79757690429688
 21
15.45798683166504
 31
0.0
  0
LINE
  5
BC
330
1F
100
AcDbEntity
  8
Trimetric
  6
Continuous
 62
     7
370
    18
100
AcDbLine
 10
24.87257766723633
 20
10.95798778533935
 30
0.0
 11
24.79757690429688
 21
10.95798778533935
 31
0.0
  0
LINE
  5
BD
330
1F
100
AcDbEntity
  8
Trimetric
  6
Continuous
 62
   254
370
    18
100
AcDbLine
 10
37.07257843017578
 20
8.507987976074218
 30
0.0
 11
25.09157752990723
 21
8.507987976074218
 31
0.0
  0
LINE
  5
BE
330
1F
100
AcDbEntity
  8
Trimetric
  6
Continuous
 62
   254
370
    18
100
AcDbLine
 10
37.07257843017578
 20
8.413987159729003
 30
0.0
 11
25.09157752990723
 21
8.413987159729003
 31
0.0
  0
LINE
  5
BF
330
1F
100
AcDbEntity
  8
Trimetric
  6
Continuous
 62
   254
370
    18
100
AcDbLine
 10
25.09157752990723
 20
2.507987260818481
 30
0.0
 11
37.07257843017578
 21
2.507987260818481
 31
0.0
  0
LINE
  5
C0
330
1F
100
AcDbEntity
  8
Trimetric
  6
Continuous
 62
   254
370
    18
100
AcDbLine
 10
25.09157752990723
 20
2.601987123489379
 30
0.0
 11
37.07257843017578
 21
2.601987123489379
 31
0.0
  0
LINE
  5
C1
330
1F
100
AcDbEntity
  8
Trimetric
  6
Continuous
 62
   254
370
    18
100
AcDbLine
 10
25.09157752990723
 20
2.845487356185913
 30
0.0
 11
25.09157752990723
 21
2.601987123489379
 31
0.0
  0
LINE
  5
C2
330
1F
100
AcDbEntity
  8
Trimetric
  6
Continuous
 62
   254
370
    18
100
AcDbLine
 10
24.99757766723633
 20
2.845487356185913
 30
0.0
 11
24.99757766723633
 21
2.601987123489379
 31
0.0
  0
LINE
  5
C3
330
1F
100
AcDbEntity
  8
Trimetric
  6
Continuous
 62
   254
370
    18
100
AcDbLine
 10
28.77257919311523
 20
6.892191886901855
 30
0.0
 11
28.77257919311523
 21
6.747987270355224
 31
0.0
  0
LINE
  5
C4
330
1F
100
AcDbEntity
  8
Trimetric
  6
Continuous
 62
   254
370
    18
100
AcDbLine
 10
28.77257919311523
 20
7.767987728118896
 30
0.0
 11
28.77257919311523
 21
7.623782634735107
 31
0.0
  0
LINE
  5
C5
330
1F
100
AcDbEntity
  8
Trimetric
  6
Continuous
 62
   254
370
    18
100
AcDbLine
 10
28.2925796508789
 20
7.623782634735107
 30
0.0
 11
28.2925796508789
 21
7.767987728118896
 31
0.0
  0
LINE
  5
C6
330
1F
100
AcDbEntity
  8
Trimetric
  6
Continuous
 62
   254
370
    18
100
AcDbLine
 10
28.2925796508789
 20
6.747987270355224
 30
0.0
 11
28.2925796508789
 21
6.892191886901855
 31
0.0
  0
LINE
  5
C7
330
1F
100
AcDbEntity
  8
Trimetric
  6
Continuous
 62
   254
370
    18
100
AcDbLine
 10
30.31257820129395
 20
6.892191886901855
 30
0.0
 11
30.31257820129395
 21
6.747987270355224
 31
0.0
  0
LINE
  5
C8
330
1F
100
AcDbEntity
  8
Trimetric
  6
Continuous
 62
   254
370
    18
100
AcDbLine
 10
30.31257820129395
 20
7.767987728118896
 30
0.0
 11
30.31257820129395
 21
7.623782634735107
 31
0.0
  0
LINE
  5
C9
330
1F
100
AcDbEntity
  8
Trimetric
  6
Continuous
 62
   254
370
    18
100
AcDbLine
 10
29.83257865905762
 20
7.623782634735107
 30
0.0
 11
29.83257865905762
 21
7.767987728118896
 31
0.0
  0
LINE
  5
CA
330
1F
100
AcDbEntity
  8
Trimetric
  6
Continuous
 62
   254
370
    18
100
AcDbLine
 10
29.83257865905762
 20
6.747987270355224
 30
0.0
 11
29.83257865905762
 21
6.892191886901855
 31
0.0
  0
LINE
  5
CB
330
1F
100
AcDbEntity
  8
Trimetric
  6
Continuous
 62
   254
370
    18
100
AcDbLine
 10
31.37257957458496
 20
6.892191886901855
 30
0.0
 11
31.37257957458496
 21
6.747987270355224
 31
0.0
  0
LINE
  5
CC
330
1F
100
AcDbEntity
  8
Trimetric
  6
Continuous
 62
   254
370
    18
100
AcDbLine
 10
31.37257957458496
 20
7.767987728118896
 30
0.0
 11
31.37257957458496
 21
7.623782634735107
 31
0.0
  0
LINE
  5
CD
330
1F
100
AcDbEntity
  8
Trimetric
  6
Continuous
 62
   254
370
    18
100
AcDbLine
 10
30.892578125
 20
7.623782634735107
 30
0.0
 11
30.892578125
 21
7.767987728118896
 31
0.0
  0
LINE
  5
CE
330
1F
100
AcDbEntity
  8
Trimetric
  6
Continuous
 62
   254
370
    18
100
AcDbLine
 10
30.892578125
 20
6.747987270355224
 30
0.0
 11
30.892578125
 21
6.892191886901855
 31
0.0
  0
LINE
  5
CF
330
1F
100
AcDbEntity
  8
Trimetric
  6
Continuous
 62
   254
370
    18
100
AcDbLine
 10
28.77257919311523
 20
5.142191886901855
 30
0.0
 11
28.77257919311523
 21
4.997987270355224
 31
0.0
  0
LINE
  5
D0
330
1F
100
AcDbEntity
  8
Trimetric
  6
Continuous
 62
   254
370
    18
100
AcDbLine
 10
28.77257919311523
 20
6.017987251281738
 30
0.0
 11
28.77257919311523
 21
5.873782634735107
 31
0.0
  0
LINE
  5
D1
330
1F
100
AcDbEntity
  8
Trimetric
  6
Continuous
 62
   254
370
    18
100
AcDbLine
 10
28.2925796508789
 20
5.873782634735107
 30
0.0
 11
28.2925796508789
 21
6.017987251281738
 31
0.0
  0
LINE
  5
D2
330
1F
100
AcDbEntity
  8
Trimetric
  6
Continuous
 62
   254
370
    18
100
AcDbLine
 10
28.2925796508789
 20
4.997987270355224
 30
0.0
 11
28.2925796508789
 21
5.142191886901855
 31
0.0
  0
LINE
  5
D3
330
1F
100
AcDbEntity
  8
Trimetric
  6
Continuous
 62
   254
370
    18
100
AcDbLine
 10
30.85257911682129
 20
5.142191886901855
 30
0.0
 11
30.85257911682129
 21
4.997987270355224
 31
0.0
  0
LINE
  5
D4
330
1F
100
AcDbEntity
  8
Trimetric
  6
Continuous
 62
   254
370
    18
100
AcDbLine
 10
30.85257911682129
 20
6.017987251281738
 30
0.0
 11
30.85257911682129
 21
5.873782634735107
 31
0.0
  0
LINE
  5
D5
330
1F
100
AcDbEntity
  8
Trimetric
  6
Continuous
 62
   254
370
    18
100
AcDbLine
 10
30.37257957458496
 20
5.873782634735107
 30
0.0
 11
30.37257957458496
 21
6.017987251281738
 31
0.0
  0
LINE
  5
D6
330
1F
100
AcDbEntity
  8
Trimetric
  6
Continuous
 62
   254
370
    18
100
AcDbLine
 10
30.37257957458496
 20
4.997987270355224
 30
0.0
 11
30.37257957458496
 21
5.142191886901855
 31
0.0
  0
LINE
  5
D7
330
1F
100
AcDbEntity
  8
Trimetric
  6
Continuous
 62
   254
370
    18
100
AcDbLine
 10
28.77257919311523
 20
3.392191886901855
 30
0.0
 11
28.77257919311523
 21
3.247987270355224
 31
0.0
  0
LINE
  5
D8
330
1F
100
AcDbEntity
  8
Trimetric
  6
Continuous
 62
   254
370
    18
100
AcDbLine
 10
28.77257919311523
 20
4.267987251281738
 30
0.0
 11
28.77257919311523
 21
4.123782634735107
 31
0.0
  0
LINE
  5
D9
330
1F
100
AcDbEntity
  8
Trimetric
  6
Continuous
 62
   254
370
    18
100
AcDbLine
 10
28.2925796508789
 20
4.123782634735107
 30
0.0
 11
28.2925796508789
 21
4.267987251281738
 31
0.0
  0
LINE
  5
DA
330
1F
100
AcDbEntity
  8
Trimetric
  6
Continuous
 62
   254
370
    18
100
AcDbLine
 10
28.2925796508789
 20
3.247987270355224
 30
0.0
 11
28.2925796508789
 21
3.392191886901855
 31
0.0
  0
LINE
  5
DB
330
1F
100
AcDbEntity
  8
Trimetric
  6
Continuous
 62
   254
370
    18
100
AcDbLine
 10
33.16257858276367
 20
4.267987251281738
 30
0.0
 11
33.16257858276367
 21
4.123782634735107
 31
0.0
  0
LINE
  5
DC
330
1F
100
AcDbEntity
  8
Trimetric
  6
Continuous
 62
   254
370
    18
100
AcDbLine
 10
32.68257904052735
 20
4.123782634735107
 30
0.0
 11
32.68257904052735
 21
4.267987251281738
 31
0.0
  0
LINE
  5
DD
330
1F
100
AcDbEntity
  8
Trimetric
  6
Continuous
 62
   254
370
    18
100
AcDbLine
 10
32.68257904052735
 20
3.247987270355224
 30
0.0
 11
32.68257904052735
 21
3.392191886901855
 31
0.0
  0
LINE
  5
DE
330
1F
100
AcDbEntity
  8
Trimetric
  6
Continuous
 62
   254
370
    18
100
AcDbLine
 10
33.16257858276367
 20
3.392191886901855
 30
0.0
 11
33.16257858276367
 21
3.247987270355224
 31
0.0
  0
LINE
  5
DF
330
1F
100
AcDbEntity
  8
Trimetric
  6
Continuous
 62
   254
370
    18
100
AcDbLine
 10
34.70257949829102
 20
4.267987251281738
 30
0.0
 11
34.70257949829102
 21
4.123782634735107
 31
0.0
  0
LINE
  5
E0
330
1F
100
AcDbEntity
  8
Trimetric
  6
Continuous
 62
   254
370
    18
100
AcDbLine
 10
34.22257995605469
 20
4.123782634735107
 30
0.0
 11
34.22257995605469
 21
4.267987251281738
 31
0.0
  0
LINE
  5
E1
330
1F
100
AcDbEntity
  8
Trimetric
  6
Continuous
 62
   254
370
    18
100
AcDbLine
 10
34.22257995605469
 20
3.247987270355224
 30
0.0
 11
34.22257995605469
 21
3.392191886901855
 31
0.0
  0
LINE
  5
E2
330
1F
100
AcDbEntity
  8
Trimetric
  6
Continuous
 62
   254
370
    18
100
AcDbLine
 10
34.70257949829102
 20
3.392191886901855
 30
0.0
 11
34.70257949829102
 21
3.247987270355224
 31
0.0
  0
LINE
  5
E3
330
1F
100
AcDbEntity
  8
Trimetric
  6
Continuous
 62
   254
370
    18
100
AcDbLine
 10
35.76258087158203
 20
4.267987251281738
 30
0.0
 11
35.76258087158203
 21
4.123782634735107
 31
0.0
  0
LINE
  5
E4
330
1F
100
AcDbEntity
  8
Trimetric
  6
Continuous
 62
   254
370
    18
100
AcDbLine
 10
35.28257751464844
 20
4.123782634735107
 30
0.0
 11
35.28257751464844
 21
4.267987251281738
 31
0.0
  0
LINE
  5
E5
330
1F
100
AcDbEntity
  8
Trimetric
  6
Continuous
 62
   254
370
    18
100
AcDbLine
 10
35.28257751464844
 20
3.247987270355224
 30
0.0
 11
35.28257751464844
 21
3.392191886901855
 31
0.0
  0
LINE
  5
E6
330
1F
100
AcDbEntity
  8
Trimetric
  6
Continuous
 62
   254
370
    18
100
AcDbLine
 10
35.76258087158203
 20
3.392191886901855
 30
0.0
 11
35.76258087158203
 21
3.247987270355224
 31
0.0
  0
LINE
  5
E7
330
1F
100
AcDbEntity
  8
Trimetric
  6
Continuous
 62
   254
370
    18
100
AcDbLine
 10
25.16007804870606
 20
8.170487403869628
 30
0.0
 11
25.09157752990723
 21
8.170487403869628
 31
0.0
  0
LINE
  5
E8
330
1F
100
AcDbEntity
  8
Trimetric
  6
Continuous
 62
   254
370
    18
100
AcDbLine
 10
25.09157752990723
 20
8.413987159729003
 30
0.0
 11
25.09157752990723
 21
8.170487403869628
 31
0.0
  0
LINE
  5
E9
330
1F
100
AcDbEntity
  8
Trimetric
  6
Continuous
 62
   254
370
    18
100
AcDbLine
 10
37.07257843017578
 20
8.343987464904785
 30
0.0
 11
37.07257843017578
 21
8.413987159729003
 31
0.0
  0
LINE
  5
EA
330
1F
100
AcDbEntity
  8
Trimetric
  6
Continuous
 62
   254
370
    18
100
AcDbLine
 10
37.07257843017578
 20
8.343987464904785
 30
0.0
 11
37.07257843017578
 21
2.671987056732177
 31
0.0
  0
LINE
  5
EB
330
1F
100
AcDbEntity
  8
Trimetric
  6
Continuous
 62
   254
370
    18
100
AcDbLine
 10
37.07257843017578
 20
2.671987056732177
 30
0.0
 11
37.07257843017578
 21
2.601987123489379
 31
0.0
  0
LINE
  5
EC
330
1F
100
AcDbEntity
  8
Trimetric
  6
Continuous
 62
   254
370
    18
100
AcDbLine
 10
25.16007804870606
 20
2.845487356185913
 30
0.0
 11
25.09157752990723
 21
2.845487356185913
 31
0.0
  0
LINE
  5
ED
330
1F
100
AcDbEntity
  8
Trimetric
  6
Continuous
 62
   254
370
    18
100
AcDbLine
 10
25.16007804870606
 20
3.420487165451049
 30
0.0
 11
25.09157752990723
 21
3.420487165451049
 31
0.0
  0
LINE
  5
EE
330
1F
100
AcDbEntity
  8
Trimetric
  6
Continuous
 62
   254
370
    18
100
AcDbLine
 10
25.09157752990723
 20
7.595487594604492
 30
0.0
 11
25.09157752990723
 21
3.420487165451049
 31
0.0
  0
LINE
  5
EF
330
1F
100
AcDbEntity
  8
Trimetric
  6
Continuous
 62
   254
370
    18
100
AcDbLine
 10
25.16007804870606
 20
7.595487594604492
 30
0.0
 11
25.09157752990723
 21
7.595487594604492
 31
0.0
  0
LINE
  5
F0
330
1F
100
AcDbEntity
  8
Trimetric
  6
Continuous
 62
   254
370
    18
100
AcDbLine
 10
30.31257820129395
 20
4.267987251281738
 30
0.0
 11
30.31257820129395
 21
4.123782634735107
 31
0.0
  0
LINE
  5
F1
330
1F
100
AcDbEntity
  8
Trimetric
  6
Continuous
 62
   254
370
    18
100
AcDbLine
 10
29.83257865905762
 20
4.123782634735107
 30
0.0
 11
29.83257865905762
 21
4.267987251281738
 31
0.0
  0
LINE
  5
F2
330
1F
100
AcDbEntity
  8
Trimetric
  6
Continuous
 62
   254
370
    18
100
AcDbLine
 10
29.83257865905762
 20
3.247987270355224
 30
0.0
 11
29.83257865905762
 21
3.392191886901855
 31
0.0
  0
LINE
  5
F3
330
1F
100
AcDbEntity
  8
Trimetric
  6
Continuous
 62
   254
370
    18
100
AcDbLine
 10
30.31257820129395
 20
3.392191886901855
 30
0.0
 11
30.31257820129395
 21
3.247987270355224
 31
0.0
  0
LINE
  5
F4
330
1F
100
AcDbEntity
  8
Trimetric
  6
Continuous
 62
   254
370
    18
100
AcDbLine
 10
35.24258041381836
 20
6.017987251281738
 30
0.0
 11
35.24258041381836
 21
5.873782634735107
 31
0.0
  0
LINE
  5
F5
330
1F
100
AcDbEntity
  8
Trimetric
  6
Continuous
 62
   254
370
    18
100
AcDbLine
 10
34.76258087158203
 20
5.873782634735107
 30
0.0
 11
34.76258087158203
 21
6.017987251281738
 31
0.0
  0
LINE
  5
F6
330
1F
100
AcDbEntity
  8
Trimetric
  6
Continuous
 62
   254
370
    18
100
AcDbLine
 10
34.76258087158203
 20
4.997987270355224
 30
0.0
 11
34.76258087158203
 21
5.142191886901855
 31
0.0
  0
LINE
  5
F7
330
1F
100
AcDbEntity
  8
Trimetric
  6
Continuous
 62
   254
370
    18
100
AcDbLine
 10
35.24258041381836
 20
5.142191886901855
 30
0.0
 11
35.24258041381836
 21
4.997987270355224
 31
0.0
  0
LINE
  5
F8
330
1F
100
AcDbEntity
  8
Trimetric
  6
Continuous
 62
   254
370
    18
100
AcDbLine
 10
33.16257858276367
 20
6.017987251281738
 30
0.0
 11
33.16257858276367
 21
5.873782634735107
 31
0.0
  0
LINE
  5
F9
330
1F
100
AcDbEntity
  8
Trimetric
  6
Continuous
 62
   254
370
    18
100
AcDbLine
 10
32.68257904052735
 20
5.873782634735107
 30
0.0
 11
32.68257904052735
 21
6.017987251281738
 31
0.0
  0
LINE
  5
FA
330
1F
100
AcDbEntity
  8
Trimetric
  6
Continuous
 62
   254
370
    18
100
AcDbLine
 10
32.68257904052735
 20
4.997987270355224
 30
0.0
 11
32.68257904052735
 21
5.142191886901855
 31
0.0
  0
LINE
  5
FB
330
1F
100
AcDbEntity
  8
Trimetric
  6
Continuous
 62
   254
370
    18
100
AcDbLine
 10
33.16257858276367
 20
5.142191886901855
 30
0.0
 11
33.16257858276367
 21
4.997987270355224
 31
0.0
  0
LINE
  5
FC
330
1F
100
AcDbEntity
  8
Trimetric
  6
Continuous
 62
   254
370
    18
100
AcDbLine
 10
35.76258087158203
 20
7.767987728118896
 30
0.0
 11
35.76258087158203
 21
7.623782634735107
 31
0.0
  0
LINE
  5
FD
330
1F
100
AcDbEntity
  8
Trimetric
  6
Continuous
 62
   254
370
    18
100
AcDbLine
 10
35.28257751464844
 20
7.623782634735107
 30
0.0
 11
35.28257751464844
 21
7.767987728118896
 31
0.0
  0
LINE
  5
FE
330
1F
100
AcDbEntity
  8
Trimetric
  6
Continuous
 62
   254
370
    18
100
AcDbLine
 10
35.28257751464844
 20
6.747987270355224
 30
0.0
 11
35.28257751464844
 21
6.892191886901855
 31
0.0
  0
LINE
  5
FF
330
1F
100
AcDbEntity
  8
Trimetric
  6
Continuous
 62
   254
370
    18
100
AcDbLine
 10
35.76258087158203
 20
6.892191886901855
 30
0.0
 11
35.76258087158203
 21
6.747987270355224
 31
0.0
  0
LINE
  5
100
330
1F
100
AcDbEntity
  8
Trimetric
  6
Continuous
 62
   254
370
    18
100
AcDbLine
 10
34.70257949829102
 20
7.767987728118896
 30
0.0
 11
34.70257949829102
 21
7.623782634735107
 31
0.0
  0
LINE
  5
101
330
1F
100
AcDbEntity
  8
Trimetric
  6
Continuous
 62
   254
370
    18
100
AcDbLine
 10
34.22257995605469
 20
7.623782634735107
 30
0.0
 11
34.22257995605469
 21
7.767987728118896
 31
0.0
  0
LINE
  5
102
330
1F
100
AcDbEntity
  8
Trimetric
  6
Continuous
 62
   254
370
    18
100
AcDbLine
 10
34.22257995605469
 20
6.747987270355224
 30
0.0
 11
34.22257995605469
 21
6.892191886901855
 31
0.0
  0
LINE
  5
103
330
1F
100
AcDbEntity
  8
Trimetric
  6
Continuous
 62
   254
370
    18
100
AcDbLine
 10
34.70257949829102
 20
6.892191886901855
 30
0.0
 11
34.70257949829102
 21
6.747987270355224
 31
0.0
  0
LINE
  5
104
330
1F
100
AcDbEntity
  8
Trimetric
  6
Continuous
 62
   254
370
    18
100
AcDbLine
 10
33.16257858276367
 20
7.767987728118896
 30
0.0
 11
33.16257858276367
 21
7.623782634735107
 31
0.0
  0
LINE
  5
105
330
1F
100
AcDbEntity
  8
Trimetric
  6
Continuous
 62
   254
370
    18
100
AcDbLine
 10
32.68257904052735
 20
7.623782634735107
 30
0.0
 11
32.68257904052735
 21
7.767987728118896
 31
0.0
  0
LINE
  5
106
330
1F
100
AcDbEntity
  8
Trimetric
  6
Continuous
 62
   254
370
    18
100
AcDbLine
 10
32.68257904052735
 20
6.747987270355224
 30
0.0
 11
32.68257904052735
 21
6.892191886901855
 31
0.0
  0
LINE
  5
107
330
1F
100
AcDbEntity
  8
Trimetric
  6
Continuous
 62
   254
370
    18
100
AcDbLine
 10
33.16257858276367
 20
6.892191886901855
 30
0.0
 11
33.16257858276367
 21
6.747987270355224
 31
0.0
  0
LINE
  5
108
330
1F
100
AcDbEntity
  8
Trimetric
  6
Continuous
 62
   254
370
    18
100
AcDbLine
 10
30.892578125
 20
4.267987251281738
 30
0.0
 11
30.892578125
 21
4.123782634735107
 31
0.0
  0
LINE
  5
109
330
1F
100
AcDbEntity
  8
Trimetric
  6
Continuous
 62
   254
370
    18
100
AcDbLine
 10
30.892578125
 20
3.392191886901855
 30
0.0
 11
30.892578125
 21
3.247987270355224
 31
0.0
  0
LINE
  5
10A
330
1F
100
AcDbEntity
  8
Trimetric
  6
Continuous
 62
   254
370
    18
100
AcDbLine
 10
31.37257957458496
 20
3.392191886901855
 30
0.0
 11
31.37257957458496
 21
3.247987270355224
 31
0.0
  0
LINE
  5
10B
330
1F
100
AcDbEntity
  8
Trimetric
  6
Continuous
 62
   254
370
    18
100
AcDbLine
 10
31.37257957458496
 20
4.267987251281738
 30
0.0
 11
31.37257957458496
 21
4.123782634735107
 31
0.0
  0
LINE
  5
10C
330
1F
100
AcDbEntity
  8
Trimetric
  6
Continuous
 62
   254
370
    18
100
AcDbLine
 10
24.99757766723633
 20
7.595487594604492
 30
0.0
 11
24.99757766723633
 21
3.420487165451049
 31
0.0
  0
LINE
  5
10D
330
1F
100
AcDbEntity
  8
Trimetric
  6
Continuous
 62
   254
370
    18
100
AcDbLine
 10
24.99757766723633
 20
8.413987159729003
 30
0.0
 11
24.99757766723633
 21
8.170487403869628
 31
0.0
  0
LINE
  5
10E
330
1F
100
AcDbEntity
  8
Trimetric
  6
Continuous
 62
   254
370
    18
100
AcDbLine
 10
37.16657638549805
 20
8.343987464904785
 30
0.0
 11
37.16657638549805
 21
2.671987056732177
 31
0.0
  0
LINE
  5
10F
330
1F
100
AcDbEntity
  8
Trimetric
  6
Continuous
 62
     7
370
    18
100
AcDbLine
 10
9.742834091186523
 20
15.7579870223999
 30
0.0
 11
10.71783351898193
 21
15.7579870223999
 31
0.0
  0
LINE
  5
110
330
1F
100
AcDbEntity
  8
Trimetric
  6
Continuous
 62
     7
370
    18
100
AcDbLine
 10
9.742834091186523
 20
16.19598770141601
 30
0.0
 11
9.742834091186523
 21
15.7579870223999
 31
0.0
  0
LINE
  5
111
330
1F
100
AcDbEntity
  8
Trimetric
  6
Continuous
 62
     7
370
    18
100
AcDbLine
 10
9.742834091186523
 20
16.19598770141601
 30
0.0
 11
10.71783351898193
 21
16.19598770141601
 31
0.0
  0
LINE
  5
112
330
1F
100
AcDbEntity
  8
Trimetric
  6
Continuous
 62
     7
370
    18
100
AcDbLine
 10
10.71783351898193
 20
16.19598770141601
 30
0.0
 11
10.71783351898193
 21
15.7579870223999
 31
0.0
  0
LINE
  5
113
330
1F
100
AcDbEntity
  8
Trimetric
  6
Continuous
 62
     7
370
    18
100
AcDbLine
 10
9.742834091186523
 20
10.21998691558838
 30
0.0
 11
9.742834091186523
 21
10.65798759460449
 31
0.0
  0
LINE
  5
114
330
1F
100
AcDbEntity
  8
Trimetric
  6
Continuous
 62
     7
370
    18
100
AcDbLine
 10
10.71783351898193
 20
10.65798759460449
 30
0.0
 11
9.742834091186523
 21
10.65798759460449
 31
0.0
  0
LINE
  5
115
330
1F
100
AcDbEntity
  8
Trimetric
  6
Continuous
 62
     7
370
    18
100
AcDbLine
 10
10.71783351898193
 20
10.21998691558838
 30
0.0
 11
10.71783351898193
 21
10.65798759460449
 31
0.0
  0
LINE
  5
116
330
1F
100
AcDbEntity
  8
Trimetric
  6
Continuous
 62
     7
370
    18
100
AcDbLine
 10
10.71783351898193
 20
10.21998691558838
 30
0.0
 11
9.742834091186523
 21
10.21998691558838
 31
0.0
  0
LINE
  5
117
330
1F
100
AcDbEntity
  8
Trimetric
  6
Continuous
 62
     7
370
    18
100
AcDbLine
 10
10.71783351898193
 20
10.11498737335205
 30
0.0
 11
9.742834091186523
 21
10.11498737335205
 31
0.0
  0
LINE
  5
118
330
1F
100
AcDbEntity
  8
Trimetric
  6
Continuous
 62
     7
370
    18
100
AcDbLine
 10
10.71783351898193
 20
16.30098915100098
 30
0.0
 11
9.742834091186523
 21
16.30098915100098
 31
0.0
  0
LINE
  5
119
330
1F
100
AcDbEntity
  8
Trimetric
  6
Continuous
 62
     7
370
    18
100
AcDbLine
 10
10.31883335113525
 20
10.95798778533935
 30
0.0
 11
10.31883335113525
 21
15.45798683166504
 31
0.0
  0
LINE
  5
11A
330
1F
100
AcDbEntity
  8
Trimetric
  6
Continuous
 62
     7
370
    18
100
AcDbLine
 10
9.818833351135253
 20
10.95798778533935
 30
0.0
 11
10.31883335113525
 21
10.95798778533935
 31
0.0
  0
LINE
  5
11B
330
1F
100
AcDbEntity
  8
Trimetric
  6
Continuous
 62
     7
370
    18
100
AcDbLine
 10
9.818833351135253
 20
10.95798778533935
 30
0.0
 11
9.818833351135253
 21
15.45798683166504
 31
0.0
  0
LINE
  5
11C
330
1F
100
AcDbEntity
  8
Trimetric
  6
Continuous
 62
     7
370
    18
100
AcDbLine
 10
9.818833351135253
 20
15.45798683166504
 30
0.0
 11
10.31883335113525
 21
15.45798683166504
 31
0.0
  0
LINE
  5
11D
330
1F
100
AcDbEntity
  8
Trimetric
  6
Continuous
 62
     7
370
    18
100
AcDbLine
 10
9.742834091186523
 20
15.45798683166504
 30
0.0
 11
9.742834091186523
 21
10.95798778533935
 31
0.0
  0
LINE
  5
11E
330
1F
100
AcDbEntity
  8
Trimetric
  6
Continuous
 62
     7
370
    18
100
AcDbLine
 10
10.84283351898193
 20
16.19598770141601
 30
0.0
 11
10.71782875061035
 21
16.19598770141601
 31
0.0
  0
LINE
  5
11F
330
1F
100
AcDbEntity
  8
Trimetric
  6
Continuous
 62
     7
370
    18
100
AcDbLine
 10
10.84283351898193
 20
16.19598770141601
 30
0.0
 11
10.84283351898193
 21
10.21998691558838
 31
0.0
  0
LINE
  5
120
330
1F
100
AcDbEntity
  8
Trimetric
  6
Continuous
 62
     7
370
    18
100
AcDbLine
 10
10.84283351898193
 20
10.21998691558838
 30
0.0
 11
10.71782875061035
 21
10.21998691558838
 31
0.0
  0
LINE
  5
121
330
1F
100
AcDbEntity
  8
Trimetric
  6
Continuous
 62
     7
370
    18
100
AcDbLine
 10
10.50533390045166
 20
10.70798778533935
 30
0.0
 11
9.872834205627441
 21
10.70798778533935
 31
0.0
  0
LINE
  5
122
330
1F
100
AcDbEntity
  8
Trimetric
  6
Continuous
 62
     7
370
    18
100
AcDbLine
 10
10.3188304901123
 20
10.95798778533935
 30
0.0
 11
10.50533390045166
 21
10.95798778533935
 31
0.0
  0
LINE
  5
123
330
1F
100
AcDbEntity
  8
Trimetric
  6
Continuous
 62
     7
370
    18
100
AcDbLine
 10
10.50533390045166
 20
15.45798683166504
 30
0.0
 11
10.3188304901123
 21
15.45798683166504
 31
0.0
  0
LINE
  5
124
330
1F
100
AcDbEntity
  8
Trimetric
  6
Continuous
 62
     7
370
    18
100
AcDbLine
 10
9.872834205627441
 20
15.70798683166504
 30
0.0
 11
10.50533390045166
 21
15.70798683166504
 31
0.0
  0
LINE
  5
125
330
1F
100
AcDbEntity
  8
Trimetric
  6
Continuous
 62
     7
370
    18
100
AcDbLine
 10
10.94783401489258
 20
16.19598770141601
 30
0.0
 11
10.94783401489258
 21
10.21998691558838
 31
0.0
  0
LINE
  5
126
330
1F
100
AcDbEntity
  8
Trimetric
  6
Continuous
 62
     7
370
    18
100
AcDbLine
 10
10.84283351898193
 20
16.30098915100098
 30
0.0
 11
10.84283351898193
 21
16.22598838806152
 31
0.0
  0
LINE
  5
127
330
1F
100
AcDbEntity
  8
Trimetric
  6
Continuous
 62
     7
370
    18
100
AcDbLine
 10
10.84283351898193
 20
10.18998718261719
 30
0.0
 11
10.84283351898193
 21
10.11498737335205
 31
0.0
  0
LINE
  5
128
330
1F
100
AcDbEntity
  8
Trimetric
  6
Continuous
 62
     7
370
    18
100
AcDbLine
 10
10.84283351898193
 20
10.18998718261719
 30
0.0
 11
10.71783351898193
 21
10.18998718261719
 31
0.0
  0
LINE
  5
129
330
1F
100
AcDbEntity
  8
Trimetric
  6
Continuous
 62
     7
370
    18
100
AcDbLine
 10
10.84283351898193
 20
10.11498737335205
 30
0.0
 11
10.71783351898193
 21
10.11498737335205
 31
0.0
  0
LINE
  5
12A
330
1F
100
AcDbEntity
  8
Trimetric
  6
Continuous
 62
     7
370
    18
100
AcDbLine
 10
10.84283351898193
 20
16.30098915100098
 30
0.0
 11
10.71783351898193
 21
16.30098915100098
 31
0.0
  0
LINE
  5
12B
330
1F
100
AcDbEntity
  8
Trimetric
  6
Continuous
 62
     7
370
    18
100
AcDbLine
 10
10.84283351898193
 20
16.22598838806152
 30
0.0
 11
10.71783351898193
 21
16.22598838806152
 31
0.0
  0
LINE
  5
12C
330
1F
100
AcDbEntity
  8
Trimetric
  6
Continuous
 62
   254
370
    18
100
AcDbLine
 10
11.02383327484131
 20
2.845487356185913
 30
0.0
 11
11.02383327484131
 21
2.601987123489379
 31
0.0
  0
LINE
  5
12D
330
1F
100
AcDbEntity
  8
Trimetric
  6
Continuous
 62
   254
370
    18
100
AcDbLine
 10
10.92983341217041
 20
2.845487356185913
 30
0.0
 11
10.92983341217041
 21
2.601987123489379
 31
0.0
  0
LINE
  5
12E
330
1F
100
AcDbEntity
  8
Trimetric
  6
Continuous
 62
   254
370
    18
100
AcDbLine
 10
10.92983341217041
 20
7.595487594604492
 30
0.0
 11
10.92983341217041
 21
3.420487165451049
 31
0.0
  0
LINE
  5
12F
330
1F
100
AcDbEntity
  8
Trimetric
  6
Continuous
 62
   254
370
    18
100
AcDbLine
 10
10.92983341217041
 20
3.420487165451049
 30
0.0
 11
9.987833976745605
 21
3.420487165451049
 31
0.0
  0
LINE
  5
130
330
1F
100
AcDbEntity
  8
Trimetric
  6
Continuous
 62
   254
370
    18
100
AcDbLine
 10
10.92983341217041
 20
7.595487594604492
 30
0.0
 11
9.987833976745605
 21
7.595487594604492
 31
0.0
  0
LINE
  5
131
330
1F
100
AcDbEntity
  8
Trimetric
  6
Continuous
 62
   254
370
    18
100
AcDbLine
 10
9.857833862304687
 20
7.465487480163574
 30
0.0
 11
9.857833862304687
 21
3.550487041473388
 31
0.0
  0
LINE
  5
132
330
1F
100
AcDbEntity
  8
Trimetric
  6
Continuous
 62
   254
370
    18
100
AcDbLine
 10
11.02383327484131
 20
7.595487594604492
 30
0.0
 11
11.02383327484131
 21
3.420487165451049
 31
0.0
  0
LINE
  5
133
330
1F
100
AcDbEntity
  8
Trimetric
  6
Continuous
 62
   254
370
    18
100
AcDbLine
 10
10.92983341217041
 20
8.413987159729003
 30
0.0
 11
10.92983341217041
 21
8.170487403869628
 31
0.0
  0
LINE
  5
134
330
1F
100
AcDbEntity
  8
Trimetric
  6
Continuous
 62
   254
370
    18
100
AcDbLine
 10
10.92983341217041
 20
8.170487403869628
 30
0.0
 11
9.917834281921386
 21
8.170487403869628
 31
0.0
  0
LINE
  5
135
330
1F
100
AcDbEntity
  8
Trimetric
  6
Continuous
 62
   254
370
    18
100
AcDbLine
 10
9.857833862304687
 20
8.353986740112304
 30
0.0
 11
9.857833862304687
 21
8.230487823486328
 31
0.0
  0
LINE
  5
136
330
1F
100
AcDbEntity
  8
Trimetric
  6
Continuous
 62
   254
370
    18
100
AcDbLine
 10
10.92983341217041
 20
8.413987159729003
 30
0.0
 11
9.917834281921386
 21
8.413987159729003
 31
0.0
  0
LINE
  5
137
330
1F
100
AcDbEntity
  8
Trimetric
  6
Continuous
 62
   254
370
    18
100
AcDbLine
 10
10.92983341217041
 20
2.845487356185913
 30
0.0
 11
9.917834281921386
 21
2.845487356185913
 31
0.0
  0
LINE
  5
138
330
1F
100
AcDbEntity
  8
Trimetric
  6
Continuous
 62
   254
370
    18
100
AcDbLine
 10
9.857833862304687
 20
2.785487413406372
 30
0.0
 11
9.857833862304687
 21
2.66198706626892
 31
0.0
  0
LINE
  5
139
330
1F
100
AcDbEntity
  8
Trimetric
  6
Continuous
 62
   254
370
    18
100
AcDbLine
 10
10.92983341217041
 20
2.601987123489379
 30
0.0
 11
9.917834281921386
 21
2.601987123489379
 31
0.0
  0
LINE
  5
13A
330
1F
100
AcDbEntity
  8
Trimetric
  6
Continuous
 62
   254
370
    18
100
AcDbLine
 10
11.02383327484131
 20
8.413987159729003
 30
0.0
 11
11.02383327484131
 21
8.170487403869628
 31
0.0
  0
LINE
  5
13B
330
1F
100
AcDbEntity
  8
Trimetric
  6
Continuous
 62
   254
370
    18
100
AcDbLine
 10
9.987833976745605
 20
8.507987976074218
 30
0.0
 11
9.987833976745605
 21
8.443986892700195
 31
0.0
  0
LINE
  5
13C
330
1F
100
AcDbEntity
  8
Trimetric
  6
Continuous
 62
   254
370
    18
100
AcDbLine
 10
9.857833862304687
 20
8.443986892700195
 30
0.0
 11
9.857833862304687
 21
8.507987976074218
 31
0.0
  0
LINE
  5
13D
330
1F
100
AcDbEntity
  8
Trimetric
  6
Continuous
 62
   254
370
    18
100
AcDbLine
 10
10.92983341217041
 20
8.507987976074218
 30
0.0
 11
10.92983341217041
 21
8.443986892700195
 31
0.0
  0
LINE
  5
13E
330
1F
100
AcDbEntity
  8
Trimetric
  6
Continuous
 62
   254
370
    18
100
AcDbLine
 10
10.92983341217041
 20
8.443986892700195
 30
0.0
 11
9.987833976745605
 21
8.443986892700195
 31
0.0
  0
LINE
  5
13F
330
1F
100
AcDbEntity
  8
Trimetric
  6
Continuous
 62
   254
370
    18
100
AcDbLine
 10
10.92983341217041
 20
8.507987976074218
 30
0.0
 11
9.987833976745605
 21
8.507987976074218
 31
0.0
  0
LINE
  5
140
330
1F
100
AcDbEntity
  8
Trimetric
  6
Continuous
 62
   254
370
    18
100
AcDbLine
 10
10.92983341217041
 20
2.571987152099609
 30
0.0
 11
10.92983341217041
 21
2.507987260818481
 31
0.0
  0
LINE
  5
141
330
1F
100
AcDbEntity
  8
Trimetric
  6
Continuous
 62
   254
370
    18
100
AcDbLine
 10
9.987833976745605
 20
2.571987152099609
 30
0.0
 11
9.987833976745605
 21
2.507987260818481
 31
0.0
  0
LINE
  5
142
330
1F
100
AcDbEntity
  8
Trimetric
  6
Continuous
 62
   254
370
    18
100
AcDbLine
 10
10.92983341217041
 20
2.571987152099609
 30
0.0
 11
9.987833976745605
 21
2.571987152099609
 31
0.0
  0
LINE
  5
143
330
1F
100
AcDbEntity
  8
Trimetric
  6
Continuous
 62
   254
370
    18
100
AcDbLine
 10
10.92983341217041
 20
2.507987260818481
 30
0.0
 11
9.987833976745605
 21
2.507987260818481
 31
0.0
  0
LINE
  5
144
330
1F
100
AcDbEntity
  8
Trimetric
  6
Continuous
 62
   254
370
    18
100
AcDbLine
 10
9.857833862304687
 20
2.507987260818481
 30
0.0
 11
9.857833862304687
 21
2.571987152099609
 31
0.0
  0
LINE
  5
145
330
1F
100
AcDbEntity
  8
Trimetric
  6
Continuous
 62
   254
370
    18
100
AcDbLine
 10
10.61783409118652
 20
8.413987159729003
 30
0.0
 11
10.61783409118652
 21
8.443986892700195
 31
0.0
  0
LINE
  5
146
330
1F
100
AcDbEntity
  8
Trimetric
  6
Continuous
 62
   254
370
    18
100
AcDbLine
 10
10.27783393859863
 20
8.443986892700195
 30
0.0
 11
10.27783393859863
 21
8.413987159729003
 31
0.0
  0
LINE
  5
147
330
1F
100
AcDbEntity
  8
Trimetric
  6
Continuous
 62
   254
370
    18
100
AcDbLine
 10
10.27783393859863
 20
2.601987123489379
 30
0.0
 11
10.27783393859863
 21
2.571987152099609
 31
0.0
  0
LINE
  5
148
330
1F
100
AcDbEntity
  8
Trimetric
  6
Continuous
 62
   254
370
    18
100
AcDbLine
 10
10.61783409118652
 20
2.571987152099609
 30
0.0
 11
10.61783409118652
 21
2.601987123489379
 31
0.0
  0
LINE
  5
149
330
1F
100
AcDbEntity
  8
Trimetric
  6
Continuous
 62
   254
370
    18
100
AcDbLine
 10
9.86126708984375
 20
8.373987197875976
 30
0.0
 11
9.857833862304687
 21
8.373987197875976
 31
0.0
  0
LINE
  5
14A
330
1F
100
AcDbEntity
  8
Trimetric
  6
Continuous
 62
   254
370
    18
100
AcDbLine
 10
9.857833862304687
 20
8.437987327575683
 30
0.0
 11
10.27783966064453
 21
8.437987327575683
 31
0.0
  0
LINE
  5
14B
330
1F
100
AcDbEntity
  8
Trimetric
  6
Continuous
 62
   254
370
    18
100
AcDbLine
 10
10.61783123016357
 20
8.437987327575683
 30
0.0
 11
10.92983341217041
 21
8.437987327575683
 31
0.0
  0
LINE
  5
14C
330
1F
100
AcDbEntity
  8
Trimetric
  6
Continuous
 62
   254
370
    18
100
AcDbLine
 10
9.857833862304687
 20
8.373987197875976
 30
0.0
 11
9.857833862304687
 21
8.437987327575683
 31
0.0
  0
LINE
  5
14D
330
1F
100
AcDbEntity
  8
Trimetric
  6
Continuous
 62
   254
370
    18
100
AcDbLine
 10
10.92983341217041
 20
8.437987327575683
 30
0.0
 11
10.92983341217041
 21
8.413986206054687
 31
0.0
  0
LINE
  5
14E
330
1F
100
AcDbEntity
  8
Trimetric
  6
Continuous
 62
   254
370
    18
100
AcDbLine
 10
10.92983341217041
 20
2.577987432479858
 30
0.0
 11
10.61783123016357
 21
2.577987432479858
 31
0.0
  0
LINE
  5
14F
330
1F
100
AcDbEntity
  8
Trimetric
  6
Continuous
 62
   254
370
    18
100
AcDbLine
 10
10.27783966064453
 20
2.577987432479858
 30
0.0
 11
9.857833862304687
 21
2.577987432479858
 31
0.0
  0
LINE
  5
150
330
1F
100
AcDbEntity
  8
Trimetric
  6
Continuous
 62
   254
370
    18
100
AcDbLine
 10
9.857833862304687
 20
2.577987432479858
 30
0.0
 11
9.857833862304687
 21
2.641987085342407
 31
0.0
  0
LINE
  5
151
330
1F
100
AcDbEntity
  8
Trimetric
  6
Continuous
 62
   254
370
    18
100
AcDbLine
 10
9.857833862304687
 20
2.641987085342407
 30
0.0
 11
9.86126708984375
 21
2.641987085342407
 31
0.0
  0
LINE
  5
152
330
1F
100
AcDbEntity
  8
Trimetric
  6
Continuous
 62
   254
370
    18
100
AcDbLine
 10
10.92983341217041
 20
2.601988077163696
 30
0.0
 11
10.92983341217041
 21
2.577987432479858
 31
0.0
  0
LINE
  5
153
330
1F
100
AcDbEntity
  8
Trimetric
  6
Continuous
 62
   254
370
    18
100
AcDbLine
 10
10.92983341217041
 20
8.170459747314453
 30
0.0
 11
10.92983341217041
 21
7.595460891723632
 31
0.0
  0
LINE
  5
154
330
1F
100
AcDbEntity
  8
Trimetric
  6
Continuous
 62
   254
370
    18
100
AcDbLine
 10
10.92983341217041
 20
3.420514106750488
 30
0.0
 11
10.92983341217041
 21
2.845515012741088
 31
0.0
  0
LINE
  5
155
330
1F
100
AcDbEntity
  8
Trimetric
  6
Continuous
 62
   254
370
    18
100
AcDbLine
 10
10.63383293151855
 20
3.392191886901855
 30
0.0
 11
10.63383293151855
 21
3.247987270355224
 31
0.0
  0
LINE
  5
156
330
1F
100
AcDbEntity
  8
Trimetric
  6
Continuous
 62
   254
370
    18
100
AcDbLine
 10
10.63383293151855
 20
7.767987728118896
 30
0.0
 11
10.63383293151855
 21
7.623782634735107
 31
0.0
  0
LINE
  5
157
330
1F
100
AcDbEntity
  8
Trimetric
  6
Continuous
 62
   254
370
    18
100
AcDbLine
 10
10.15383338928222
 20
7.623782634735107
 30
0.0
 11
10.15383338928222
 21
7.767987728118896
 31
0.0
  0
LINE
  5
158
330
1F
100
AcDbEntity
  8
Trimetric
  6
Continuous
 62
   254
370
    18
100
AcDbLine
 10
9.857833862304687
 20
8.230458259582519
 30
0.0
 11
9.857833862304687
 21
7.465447902679443
 31
0.0
  0
LINE
  5
159
330
1F
100
AcDbEntity
  8
Trimetric
  6
Continuous
 62
   254
370
    18
100
AcDbLine
 10
9.857833862304687
 20
3.550527095794677
 30
0.0
 11
9.857833862304687
 21
2.785515785217285
 31
0.0
  0
LINE
  5
15A
330
1F
100
AcDbEntity
  8
Trimetric
  6
Continuous
 62
   254
370
    18
100
AcDbLine
 10
10.15383338928222
 20
3.247987270355224
 30
0.0
 11
10.15383338928222
 21
3.392191886901855
 31
0.0
  0
LINE
  5
15B
330
1F
100
AcDbEntity
  8
Trimetric
  6
Continuous
 62
   254
370
    18
100
AcDbLine
 10
37.07257843017578
 20
25.30003929138184
 30
0.0
 11
37.07257843017578
 21
26.24203872680664
 31
0.0
  0
LINE
  5
15C
330
1F
100
AcDbEntity
  8
Trimetric
  6
Continuous
 62
   254
370
    18
100
AcDbLine
 10
37.07257843017578
 20
25.30003929138184
 30
0.0
 11
25.09157752990723
 21
25.30003929138184
 31
0.0
  0
LINE
  5
15D
330
1F
100
AcDbEntity
  8
Trimetric
  6
Continuous
 62
   254
370
    18
100
AcDbLine
 10
36.94257736206055
 20
26.37203788757324
 30
0.0
 11
25.22157859802246
 21
26.37203788757324
 31
0.0
  0
LINE
  5
15E
330
1F
100
AcDbEntity
  8
Trimetric
  6
Continuous
 62
   254
370
    18
100
AcDbLine
 10
37.07257843017578
 20
25.20603942871094
 30
0.0
 11
25.09157752990723
 21
25.20603942871094
 31
0.0
  0
LINE
  5
15F
330
1F
100
AcDbEntity
  8
Trimetric
  6
Continuous
 62
   254
370
    18
100
AcDbLine
 10
37.07257843017578
 20
26.37203788757324
 30
0.0
 11
36.94257736206055
 21
26.37203788757324
 31
0.0
  0
LINE
  5
160
330
1F
100
AcDbEntity
  8
Trimetric
  6
Continuous
 62
   254
370
    18
100
AcDbLine
 10
37.07257843017578
 20
26.37203788757324
 30
0.0
 11
37.07257843017578
 21
26.24202537536621
 31
0.0
  0
LINE
  5
161
330
1F
100
AcDbEntity
  8
Trimetric
  6
Continuous
 62
   254
370
    18
100
AcDbLine
 10
37.16657638549805
 20
26.37203788757324
 30
0.0
 11
37.16657638549805
 21
25.30003929138184
 31
0.0
  0
LINE
  5
162
330
1F
100
AcDbEntity
  8
Trimetric
  6
Continuous
 62
   254
370
    18
100
AcDbLine
 10
25.09157752990723
 20
25.30003929138184
 30
0.0
 11
25.09157752990723
 21
26.24203872680664
 31
0.0
  0
LINE
  5
163
330
1F
100
AcDbEntity
  8
Trimetric
  6
Continuous
 62
   254
370
    18
100
AcDbLine
 10
25.06157684326172
 20
25.30003929138184
 30
0.0
 11
24.99757766723633
 21
25.30003929138184
 31
0.0
  0
LINE
  5
164
330
1F
100
AcDbEntity
  8
Trimetric
  6
Continuous
 62
   254
370
    18
100
AcDbLine
 10
25.06157684326172
 20
26.31203842163086
 30
0.0
 11
24.99757766723633
 21
26.31203842163086
 31
0.0
  0
LINE
  5
165
330
1F
100
AcDbEntity
  8
Trimetric
  6
Continuous
 62
   254
370
    18
100
AcDbLine
 10
24.99757766723633
 20
26.37203788757324
 30
0.0
 11
25.06157684326172
 21
26.37203788757324
 31
0.0
  0
LINE
  5
166
330
1F
100
AcDbEntity
  8
Trimetric
  6
Continuous
 62
   254
370
    18
100
AcDbLine
 10
24.99757766723633
 20
25.30003929138184
 30
0.0
 11
24.99757766723633
 21
26.31203842163086
 31
0.0
  0
LINE
  5
167
330
1F
100
AcDbEntity
  8
Trimetric
  6
Continuous
 62
   254
370
    18
100
AcDbLine
 10
25.06157684326172
 20
25.30003929138184
 30
0.0
 11
25.06157684326172
 21
26.31203842163086
 31
0.0
  0
LINE
  5
168
330
1F
100
AcDbEntity
  8
Trimetric
  6
Continuous
 62
     7
370
    18
100
AcDbLine
 10
35.41957855224609
 20
30.0783863067627
 30
0.0
 11
24.97957801818848
 21
30.0783863067627
 31
0.0
  0
LINE
  5
169
330
1F
100
AcDbEntity
  8
Trimetric
  6
Continuous
 62
     7
370
    18
100
AcDbLine
 10
24.97957801818848
 20
30.0783863067627
 30
0.0
 11
24.97957801818848
 21
30.2033863067627
 31
0.0
  0
LINE
  5
16A
330
1F
100
AcDbEntity
  8
Trimetric
  6
Continuous
 62
     7
370
    18
100
AcDbLine
 10
24.97957801818848
 20
30.2033863067627
 30
0.0
 11
24.89957809448242
 21
30.2033863067627
 31
0.0
  0
LINE
  5
16B
330
1F
100
AcDbEntity
  8
Trimetric
  6
Continuous
 62
     7
370
    18
100
AcDbLine
 10
24.89957809448242
 20
30.2033863067627
 30
0.0
 11
24.89957809448242
 21
31.17838668823242
 31
0.0
  0
LINE
  5
16C
330
1F
100
AcDbEntity
  8
Trimetric
  6
Continuous
 62
     7
370
    18
100
AcDbLine
 10
35.28957748413086
 20
31.17838668823242
 30
0.0
 11
24.89957809448242
 21
31.17838668823242
 31
0.0
  0
LINE
  5
16D
330
1F
100
AcDbEntity
  8
Trimetric
  6
Continuous
 62
     7
370
    18
100
AcDbLine
 10
35.41957855224609
 20
30.0783863067627
 30
0.0
 11
35.41957855224609
 21
31.04838562011719
 31
0.0
  0
LINE
  5
16E
330
1F
100
AcDbEntity
  8
Trimetric
  6
Continuous
 62
     7
370
    18
100
AcDbLine
 10
34.73357772827148
 20
30.72038459777832
 30
0.0
 11
34.73357772827148
 21
30.63638496398926
 31
0.0
  0
LINE
  5
16F
330
1F
100
AcDbEntity
  8
Trimetric
  6
Continuous
 62
     7
370
    18
100
AcDbLine
 10
34.50557708740234
 20
30.63638496398926
 30
0.0
 11
34.50557708740234
 21
30.72038459777832
 31
0.0
  0
LINE
  5
170
330
1F
100
AcDbEntity
  8
Trimetric
  6
Continuous
 62
     7
370
    18
100
AcDbLine
 10
33.73357772827148
 20
30.72038459777832
 30
0.0
 11
33.73357772827148
 21
30.63638496398926
 31
0.0
  0
LINE
  5
171
330
1F
100
AcDbEntity
  8
Trimetric
  6
Continuous
 62
     7
370
    18
100
AcDbLine
 10
33.50557708740235
 20
30.63638496398926
 30
0.0
 11
33.50557708740235
 21
30.72038459777832
 31
0.0
  0
LINE
  5
172
330
1F
100
AcDbEntity
  8
Trimetric
  6
Continuous
 62
     7
370
    18
100
AcDbLine
 10
32.73357772827149
 20
30.72038459777832
 30
0.0
 11
32.73357772827149
 21
30.63638496398926
 31
0.0
  0
LINE
  5
173
330
1F
100
AcDbEntity
  8
Trimetric
  6
Continuous
 62
     7
370
    18
100
AcDbLine
 10
32.50557708740235
 20
30.63638496398926
 30
0.0
 11
32.50557708740235
 21
30.72038459777832
 31
0.0
  0
LINE
  5
174
330
1F
100
AcDbEntity
  8
Trimetric
  6
Continuous
 62
     7
370
    18
100
AcDbLine
 10
31.73357772827149
 20
30.72038459777832
 30
0.0
 11
31.73357772827149
 21
30.63638496398926
 31
0.0
  0
LINE
  5
175
330
1F
100
AcDbEntity
  8
Trimetric
  6
Continuous
 62
     7
370
    18
100
AcDbLine
 10
31.50557708740234
 20
30.63638496398926
 30
0.0
 11
31.50557708740234
 21
30.72038459777832
 31
0.0
  0
LINE
  5
176
330
1F
100
AcDbEntity
  8
Trimetric
  6
Continuous
 62
     7
370
    18
100
AcDbLine
 10
30.73357772827149
 20
30.72038459777832
 30
0.0
 11
30.73357772827149
 21
30.63638496398926
 31
0.0
  0
LINE
  5
177
330
1F
100
AcDbEntity
  8
Trimetric
  6
Continuous
 62
     7
370
    18
100
AcDbLine
 10
30.50557708740234
 20
30.63638496398926
 30
0.0
 11
30.50557708740234
 21
30.72038459777832
 31
0.0
  0
LINE
  5
178
330
1F
100
AcDbEntity
  8
Trimetric
  6
Continuous
 62
     7
370
    18
100
AcDbLine
 10
29.73357772827148
 20
30.72038459777832
 30
0.0
 11
29.73357772827148
 21
30.63638496398926
 31
0.0
  0
LINE
  5
179
330
1F
100
AcDbEntity
  8
Trimetric
  6
Continuous
 62
     7
370
    18
100
AcDbLine
 10
29.50557708740234
 20
30.63638496398926
 30
0.0
 11
29.50557708740234
 21
30.72038459777832
 31
0.0
  0
LINE
  5
17A
330
1F
100
AcDbEntity
  8
Trimetric
  6
Continuous
 62
     7
370
    18
100
AcDbLine
 10
28.73357772827148
 20
30.72038459777832
 30
0.0
 11
28.73357772827148
 21
30.63638496398926
 31
0.0
  0
LINE
  5
17B
330
1F
100
AcDbEntity
  8
Trimetric
  6
Continuous
 62
     7
370
    18
100
AcDbLine
 10
28.50557708740235
 20
30.63638496398926
 30
0.0
 11
28.50557708740235
 21
30.72038459777832
 31
0.0
  0
LINE
  5
17C
330
1F
100
AcDbEntity
  8
Trimetric
  6
Continuous
 62
     7
370
    18
100
AcDbLine
 10
27.73357772827149
 20
30.72038459777832
 30
0.0
 11
27.73357772827149
 21
30.63638496398926
 31
0.0
  0
LINE
  5
17D
330
1F
100
AcDbEntity
  8
Trimetric
  6
Continuous
 62
     7
370
    18
100
AcDbLine
 10
27.50557708740235
 20
30.63638496398926
 30
0.0
 11
27.50557708740235
 21
30.72038459777832
 31
0.0
  0
LINE
  5
17E
330
1F
100
AcDbEntity
  8
Trimetric
  6
Continuous
 62
     7
370
    18
100
AcDbLine
 10
26.73357772827149
 20
30.72038459777832
 30
0.0
 11
26.73357772827149
 21
30.63638496398926
 31
0.0
  0
LINE
  5
17F
330
1F
100
AcDbEntity
  8
Trimetric
  6
Continuous
 62
     7
370
    18
100
AcDbLine
 10
26.50557708740234
 20
30.63638496398926
 30
0.0
 11
26.50557708740234
 21
30.72038459777832
 31
0.0
  0
LINE
  5
180
330
1F
100
AcDbEntity
  8
Trimetric
  6
Continuous
 62
     7
370
    18
100
AcDbLine
 10
25.73357772827149
 20
30.72038459777832
 30
0.0
 11
25.73357772827149
 21
30.63638496398926
 31
0.0
  0
LINE
  5
181
330
1F
100
AcDbEntity
  8
Trimetric
  6
Continuous
 62
     7
370
    18
100
AcDbLine
 10
25.50557708740234
 20
30.63638496398926
 30
0.0
 11
25.50557708740234
 21
30.72038459777832
 31
0.0
  0
LINE
  5
182
330
1F
100
AcDbEntity
  8
Trimetric
  6
Continuous
 62
     7
370
    18
100
AcDbLine
 10
24.79457664489746
 20
31.17838668823242
 30
0.0
 11
24.79457664489746
 21
30.2033863067627
 31
0.0
  0
LINE
  5
183
330
1F
100
AcDbEntity
  8
Trimetric
  6
Continuous
 62
     7
370
    18
100
AcDbLine
 10
35.41957855224609
 20
29.97338676452637
 30
0.0
 11
24.97957801818848
 21
29.97338676452637
 31
0.0
  0
LINE
  5
184
330
1F
100
AcDbEntity
  8
Trimetric
  6
Continuous
 62
     7
370
    18
100
AcDbLine
 10
24.87457656860352
 20
30.0783863067627
 30
0.0
 11
24.87457656860352
 21
30.20339012145996
 31
0.0
  0
LINE
  5
185
330
1F
100
AcDbEntity
  8
Trimetric
  6
Continuous
 62
     7
370
    18
100
AcDbLine
 10
24.94957733154297
 20
30.0783863067627
 30
0.0
 11
24.87457656860352
 21
30.0783863067627
 31
0.0
  0
LINE
  5
186
330
1F
100
AcDbEntity
  8
Trimetric
  6
Continuous
 62
     7
370
    18
100
AcDbLine
 10
24.94957733154297
 20
30.0783863067627
 30
0.0
 11
24.94957733154297
 21
30.20339012145996
 31
0.0
  0
ARC
  5
187
330
1F
100
AcDbEntity
  8
Trimetric
  6
Continuous
 62
     7
370
    18
100
AcDbCircle
 10
32.91957855224609
 20
11.47798728942871
 30
0.0
 40
0.2300000041723251
100
AcDbArc
 50
0.0
 51
180.0
  0
ARC
  5
188
330
1F
100
AcDbEntity
  8
Trimetric
  6
Continuous
 62
     7
370
    18
100
AcDbCircle
 10
32.91957855224609
 20
10.93798732757568
 30
0.0
 40
0.2300000041723251
100
AcDbArc
 50
180.0
 51
0.0
  0
ARC
  5
189
330
1F
100
AcDbEntity
  8
Trimetric
  6
Continuous
 62
     7
370
    18
100
AcDbCircle
 10
32.91957855224609
 20
13.47798824310302
 30
0.0
 40
0.2300000041723251
100
AcDbArc
 50
0.0
 51
180.0
  0
ARC
  5
18A
330
1F
100
AcDbEntity
  8
Trimetric
  6
Continuous
 62
     7
370
    18
100
AcDbCircle
 10
32.91957855224609
 20
12.93798732757568
 30
0.0
 40
0.2300000041723251
100
AcDbArc
 50
180.0
 51
0.0
  0
ARC
  5
18B
330
1F
100
AcDbEntity
  8
Trimetric
  6
Continuous
 62
     7
370
    18
100
AcDbCircle
 10
32.91957855224609
 20
15.47798728942871
 30
0.0
 40
0.2300000041723251
100
AcDbArc
 50
0.0
 51
180.0
  0
ARC
  5
18C
330
1F
100
AcDbEntity
  8
Trimetric
  6
Continuous
 62
     7
370
    18
100
AcDbCircle
 10
32.91957855224609
 20
14.93798732757568
 30
0.0
 40
0.2300000041723251
100
AcDbArc
 50
180.0
 51
0.0
  0
ARC
  5
18D
330
1F
100
AcDbEntity
  8
Trimetric
  6
Continuous
 62
     7
370
    18
100
AcDbCircle
 10
31.91957664489746
 20
11.47798728942871
 30
0.0
 40
0.2300000041723251
100
AcDbArc
 50
0.0
 51
180.0
  0
ARC
  5
18E
330
1F
100
AcDbEntity
  8
Trimetric
  6
Continuous
 62
     7
370
    18
100
AcDbCircle
 10
31.91957664489746
 20
10.93798732757568
 30
0.0
 40
0.2300000041723251
100
AcDbArc
 50
180.0
 51
0.0
  0
ARC
  5
18F
330
1F
100
AcDbEntity
  8
Trimetric
  6
Continuous
 62
     7
370
    18
100
AcDbCircle
 10
31.91957664489746
 20
13.47798824310302
 30
0.0
 40
0.2300000041723251
100
AcDbArc
 50
0.0
 51
180.0
  0
ARC
  5
190
330
1F
100
AcDbEntity
  8
Trimetric
  6
Continuous
 62
     7
370
    18
100
AcDbCircle
 10
31.91957664489746
 20
12.93798732757568
 30
0.0
 40
0.2300000041723251
100
AcDbArc
 50
180.0
 51
0.0
  0
ARC
  5
191
330
1F
100
AcDbEntity
  8
Trimetric
  6
Continuous
 62
     7
370
    18
100
AcDbCircle
 10
31.91957664489746
 20
15.47798728942871
 30
0.0
 40
0.2300000041723251
100
AcDbArc
 50
0.0
 51
180.0
  0
ARC
  5
192
330
1F
100
AcDbEntity
  8
Trimetric
  6
Continuous
 62
     7
370
    18
100
AcDbCircle
 10
31.91957664489746
 20
14.93798732757568
 30
0.0
 40
0.2300000041723251
100
AcDbArc
 50
180.0
 51
0.0
  0
ARC
  5
193
330
1F
100
AcDbEntity
  8
Trimetric
  6
Continuous
 62
     7
370
    18
100
AcDbCircle
 10
30.91957664489746
 20
11.47798728942871
 30
0.0
 40
0.2300000041723251
100
AcDbArc
 50
0.0
 51
180.0
  0
ARC
  5
194
330
1F
100
AcDbEntity
  8
Trimetric
  6
Continuous
 62
     7
370
    18
100
AcDbCircle
 10
30.91957664489746
 20
10.93798732757568
 30
0.0
 40
0.2300000041723251
100
AcDbArc
 50
180.0
 51
0.0
  0
ARC
  5
195
330
1F
100
AcDbEntity
  8
Trimetric
  6
Continuous
 62
     7
370
    18
100
AcDbCircle
 10
30.91957664489746
 20
13.47798824310302
 30
0.0
 40
0.2300000041723251
100
AcDbArc
 50
0.0
 51
180.0
  0
ARC
  5
196
330
1F
100
AcDbEntity
  8
Trimetric
  6
Continuous
 62
     7
370
    18
100
AcDbCircle
 10
30.91957664489746
 20
12.93798732757568
 30
0.0
 40
0.2300000041723251
100
AcDbArc
 50
180.0
 51
0.0
  0
ARC
  5
197
330
1F
100
AcDbEntity
  8
Trimetric
  6
Continuous
 62
     7
370
    18
100
AcDbCircle
 10
30.91957664489746
 20
15.47798728942871
 30
0.0
 40
0.2300000041723251
100
AcDbArc
 50
0.0
 51
180.0
  0
ARC
  5
198
330
1F
100
AcDbEntity
  8
Trimetric
  6
Continuous
 62
     7
370
    18
100
AcDbCircle
 10
30.91957664489746
 20
14.93798732757568
 30
0.0
 40
0.2300000041723251
100
AcDbArc
 50
180.0
 51
0.0
  0
ARC
  5
199
330
1F
100
AcDbEntity
  8
Trimetric
  6
Continuous
 62
     7
370
    18
100
AcDbCircle
 10
29.91957664489746
 20
11.47798728942871
 30
0.0
 40
0.2300000041723251
100
AcDbArc
 50
0.0
 51
180.0
  0
ARC
  5
19A
330
1F
100
AcDbEntity
  8
Trimetric
  6
Continuous
 62
     7
370
    18
100
AcDbCircle
 10
29.91957664489746
 20
10.93798732757568
 30
0.0
 40
0.2300000041723251
100
AcDbArc
 50
180.0
 51
0.0
  0
ARC
  5
19B
330
1F
100
AcDbEntity
  8
Trimetric
  6
Continuous
 62
     7
370
    18
100
AcDbCircle
 10
29.91957664489746
 20
13.47798824310302
 30
0.0
 40
0.2300000041723251
100
AcDbArc
 50
0.0
 51
180.0
  0
ARC
  5
19C
330
1F
100
AcDbEntity
  8
Trimetric
  6
Continuous
 62
     7
370
    18
100
AcDbCircle
 10
29.91957664489746
 20
12.93798732757568
 30
0.0
 40
0.2300000041723251
100
AcDbArc
 50
180.0
 51
0.0
  0
ARC
  5
19D
330
1F
100
AcDbEntity
  8
Trimetric
  6
Continuous
 62
     7
370
    18
100
AcDbCircle
 10
29.91957664489746
 20
15.47798728942871
 30
0.0
 40
0.2300000041723251
100
AcDbArc
 50
0.0
 51
180.0
  0
ARC
  5
19E
330
1F
100
AcDbEntity
  8
Trimetric
  6
Continuous
 62
     7
370
    18
100
AcDbCircle
 10
29.91957664489746
 20
14.93798732757568
 30
0.0
 40
0.2300000041723251
100
AcDbArc
 50
180.0
 51
0.0
  0
ARC
  5
19F
330
1F
100
AcDbEntity
  8
Trimetric
  6
Continuous
 62
     7
370
    18
100
AcDbCircle
 10
28.91957664489746
 20
11.47798728942871
 30
0.0
 40
0.2300000041723251
100
AcDbArc
 50
0.0
 51
180.0
  0
ARC
  5
1A0
330
1F
100
AcDbEntity
  8
Trimetric
  6
Continuous
 62
     7
370
    18
100
AcDbCircle
 10
28.91957664489746
 20
10.93798732757568
 30
0.0
 40
0.2300000041723251
100
AcDbArc
 50
180.0
 51
0.0
  0
ARC
  5
1A1
330
1F
100
AcDbEntity
  8
Trimetric
  6
Continuous
 62
     7
370
    18
100
AcDbCircle
 10
28.91957664489746
 20
13.47798824310302
 30
0.0
 40
0.2300000041723251
100
AcDbArc
 50
0.0
 51
180.0
  0
ARC
  5
1A2
330
1F
100
AcDbEntity
  8
Trimetric
  6
Continuous
 62
     7
370
    18
100
AcDbCircle
 10
28.91957664489746
 20
12.93798732757568
 30
0.0
 40
0.2300000041723251
100
AcDbArc
 50
180.0
 51
0.0
  0
ARC
  5
1A3
330
1F
100
AcDbEntity
  8
Trimetric
  6
Continuous
 62
     7
370
    18
100
AcDbCircle
 10
28.91957664489746
 20
15.47798728942871
 30
0.0
 40
0.2300000041723251
100
AcDbArc
 50
0.0
 51
180.0
  0
ARC
  5
1A4
330
1F
100
AcDbEntity
  8
Trimetric
  6
Continuous
 62
     7
370
    18
100
AcDbCircle
 10
28.91957664489746
 20
14.93798732757568
 30
0.0
 40
0.2300000041723251
100
AcDbArc
 50
180.0
 51
0.0
  0
ARC
  5
1A5
330
1F
100
AcDbEntity
  8
Trimetric
  6
Continuous
 62
     7
370
    18
100
AcDbCircle
 10
27.91957664489746
 20
11.47798728942871
 30
0.0
 40
0.2300000041723251
100
AcDbArc
 50
0.0
 51
180.0
  0
ARC
  5
1A6
330
1F
100
AcDbEntity
  8
Trimetric
  6
Continuous
 62
     7
370
    18
100
AcDbCircle
 10
27.91957664489746
 20
10.93798732757568
 30
0.0
 40
0.2300000041723251
100
AcDbArc
 50
180.0
 51
0.0
  0
ARC
  5
1A7
330
1F
100
AcDbEntity
  8
Trimetric
  6
Continuous
 62
     7
370
    18
100
AcDbCircle
 10
27.91957664489746
 20
13.47798824310302
 30
0.0
 40
0.2300000041723251
100
AcDbArc
 50
0.0
 51
180.0
  0
ARC
  5
1A8
330
1F
100
AcDbEntity
  8
Trimetric
  6
Continuous
 62
     7
370
    18
100
AcDbCircle
 10
27.91957664489746
 20
12.93798732757568
 30
0.0
 40
0.2300000041723251
100
AcDbArc
 50
180.0
 51
0.0
  0
ARC
  5
1A9
330
1F
100
AcDbEntity
  8
Trimetric
  6
Continuous
 62
     7
370
    18
100
AcDbCircle
 10
27.91957664489746
 20
15.47798728942871
 30
0.0
 40
0.2300000041723251
100
AcDbArc
 50
0.0
 51
180.0
  0
ARC
  5
1AA
330
1F
100
AcDbEntity
  8
Trimetric
  6
Continuous
 62
     7
370
    18
100
AcDbCircle
 10
27.91957664489746
 20
14.93798732757568
 30
0.0
 40
0.2300000041723251
100
AcDbArc
 50
180.0
 51
0.0
  0
ARC
  5
1AB
330
1F
100
AcDbEntity
  8
Trimetric
  6
Continuous
 62
     7
370
    18
100
AcDbCircle
 10
26.91957664489746
 20
11.47798728942871
 30
0.0
 40
0.2300000041723251
100
AcDbArc
 50
0.0
 51
180.0
  0
ARC
  5
1AC
330
1F
100
AcDbEntity
  8
Trimetric
  6
Continuous
 62
     7
370
    18
100
AcDbCircle
 10
26.91957664489746
 20
10.93798732757568
 30
0.0
 40
0.2300000041723251
100
AcDbArc
 50
180.0
 51
0.0
  0
ARC
  5
1AD
330
1F
100
AcDbEntity
  8
Trimetric
  6
Continuous
 62
     7
370
    18
100
AcDbCircle
 10
26.91957664489746
 20
13.47798824310302
 30
0.0
 40
0.2300000041723251
100
AcDbArc
 50
0.0
 51
180.0
  0
ARC
  5
1AE
330
1F
100
AcDbEntity
  8
Trimetric
  6
Continuous
 62
     7
370
    18
100
AcDbCircle
 10
26.91957664489746
 20
12.93798732757568
 30
0.0
 40
0.2300000041723251
100
AcDbArc
 50
180.0
 51
0.0
  0
ARC
  5
1AF
330
1F
100
AcDbEntity
  8
Trimetric
  6
Continuous
 62
     7
370
    18
100
AcDbCircle
 10
26.91957664489746
 20
15.47798728942871
 30
0.0
 40
0.2300000041723251
100
AcDbArc
 50
0.0
 51
180.0
  0
ARC
  5
1B0
330
1F
100
AcDbEntity
  8
Trimetric
  6
Continuous
 62
     7
370
    18
100
AcDbCircle
 10
26.91957664489746
 20
14.93798732757568
 30
0.0
 40
0.2300000041723251
100
AcDbArc
 50
180.0
 51
0.0
  0
ARC
  5
1B1
330
1F
100
AcDbEntity
  8
Trimetric
  6
Continuous
 62
     7
370
    18
100
AcDbCircle
 10
25.91957664489746
 20
11.47798728942871
 30
0.0
 40
0.2300000041723251
100
AcDbArc
 50
0.0
 51
180.0
  0
ARC
  5
1B2
330
1F
100
AcDbEntity
  8
Trimetric
  6
Continuous
 62
     7
370
    18
100
AcDbCircle
 10
25.91957664489746
 20
10.93798732757568
 30
0.0
 40
0.2300000041723251
100
AcDbArc
 50
180.0
 51
0.0
  0
ARC
  5
1B3
330
1F
100
AcDbEntity
  8
Trimetric
  6
Continuous
 62
     7
370
    18
100
AcDbCircle
 10
25.91957664489746
 20
13.47798824310302
 30
0.0
 40
0.2300000041723251
100
AcDbArc
 50
0.0
 51
180.0
  0
ARC
  5
1B4
330
1F
100
AcDbEntity
  8
Trimetric
  6
Continuous
 62
     7
370
    18
100
AcDbCircle
 10
25.91957664489746
 20
12.93798732757568
 30
0.0
 40
0.2300000041723251
100
AcDbArc
 50
180.0
 51
0.0
  0
ARC
  5
1B5
330
1F
100
AcDbEntity
  8
Trimetric
  6
Continuous
 62
     7
370
    18
100
AcDbCircle
 10
25.91957664489746
 20
15.47798728942871
 30
0.0
 40
0.2300000041723251
100
AcDbArc
 50
0.0
 51
180.0
  0
ARC
  5
1B6
330
1F
100
AcDbEntity
  8
Trimetric
  6
Continuous
 62
     7
370
    18
100
AcDbCircle
 10
25.91957664489746
 20
14.93798732757568
 30
0.0
 40
0.2300000041723251
100
AcDbArc
 50
180.0
 51
0.0
  0
ARC
  5
1B7
330
1F
100
AcDbEntity
  8
Trimetric
  6
Continuous
 62
     7
370
    18
100
AcDbCircle
 10
24.89957809448242
 20
10.21998691558838
 30
0.0
 40
0.1050000041723251
100
AcDbArc
 50
180.0
 51
270.0
  0
ARC
  5
1B8
330
1F
100
AcDbEntity
  8
Trimetric
  6
Continuous
 62
     7
370
    18
100
AcDbCircle
 10
24.89957809448242
 20
10.21998691558838
 30
0.0
 40
0.0300000011920929
100
AcDbArc
 50
180.0
 51
270.0
  0
ARC
  5
1B9
330
1F
100
AcDbEntity
  8
Trimetric
  6
Continuous
 62
     7
370
    18
100
AcDbCircle
 10
24.89957809448242
 20
16.19598770141601
 30
0.0
 40
0.0300000011920929
100
AcDbArc
 50
90.0
 51
180.0
  0
ARC
  5
1BA
330
1F
100
AcDbEntity
  8
Trimetric
  6
Continuous
 62
     7
370
    18
100
AcDbCircle
 10
24.89957809448242
 20
16.19598770141601
 30
0.0
 40
0.1050000041723251
100
AcDbArc
 50
90.0
 51
180.0
  0
ARC
  5
1BB
330
1F
100
AcDbEntity
  8
Trimetric
  6
Continuous
 62
   254
370
    18
100
AcDbCircle
 10
28.53257942199707
 20
6.747987270355224
 30
0.0
 40
0.2400000095367432
100
AcDbArc
 50
180.0
 51
0.0
  0
ARC
  5
1BC
330
1F
100
AcDbEntity
  8
Trimetric
  6
Continuous
 62
   254
370
    18
100
AcDbCircle
 10
28.53257942199707
 20
7.25798749923706
 30
0.0
 40
0.4375
100
AcDbArc
 50
303.2690622374059
 51
56.73093776259406
  0
ARC
  5
1BD
330
1F
100
AcDbEntity
  8
Trimetric
  6
Continuous
 62
   254
370
    18
100
AcDbCircle
 10
28.53257942199707
 20
7.767987728118896
 30
0.0
 40
0.2400000095367432
100
AcDbArc
 50
0.0
 51
180.0
  0
ARC
  5
1BE
330
1F
100
AcDbEntity
  8
Trimetric
  6
Continuous
 62
   254
370
    18
100
AcDbCircle
 10
28.53257942199707
 20
7.25798749923706
 30
0.0
 40
0.4375
100
AcDbArc
 50
123.2690622374059
 51
236.7309377625941
  0
ARC
  5
1BF
330
1F
100
AcDbEntity
  8
Trimetric
  6
Continuous
 62
   254
370
    18
100
AcDbCircle
 10
30.07257843017578
 20
6.747987270355224
 30
0.0
 40
0.2400000095367432
100
AcDbArc
 50
180.0
 51
0.0
  0
ARC
  5
1C0
330
1F
100
AcDbEntity
  8
Trimetric
  6
Continuous
 62
   254
370
    18
100
AcDbCircle
 10
30.07257843017578
 20
7.25798749923706
 30
0.0
 40
0.4375
100
AcDbArc
 50
303.2690622374059
 51
56.73093776259406
  0
ARC
  5
1C1
330
1F
100
AcDbEntity
  8
Trimetric
  6
Continuous
 62
   254
370
    18
100
AcDbCircle
 10
30.07257843017578
 20
7.767987728118896
 30
0.0
 40
0.2400000095367432
100
AcDbArc
 50
0.0
 51
180.0
  0
ARC
  5
1C2
330
1F
100
AcDbEntity
  8
Trimetric
  6
Continuous
 62
   254
370
    18
100
AcDbCircle
 10
30.07257843017578
 20
7.25798749923706
 30
0.0
 40
0.4375
100
AcDbArc
 50
123.2690622374059
 51
236.7309377625941
  0
ARC
  5
1C3
330
1F
100
AcDbEntity
  8
Trimetric
  6
Continuous
 62
   254
370
    18
100
AcDbCircle
 10
31.1325798034668
 20
6.747987270355224
 30
0.0
 40
0.2400000095367432
100
AcDbArc
 50
180.0
 51
0.0
  0
ARC
  5
1C4
330
1F
100
AcDbEntity
  8
Trimetric
  6
Continuous
 62
   254
370
    18
100
AcDbCircle
 10
31.1325798034668
 20
7.25798749923706
 30
0.0
 40
0.4375
100
AcDbArc
 50
303.2690622374059
 51
56.73093776259406
  0
ARC
  5
1C5
330
1F
100
AcDbEntity
  8
Trimetric
  6
Continuous
 62
   254
370
    18
100
AcDbCircle
 10
31.1325798034668
 20
7.767987728118896
 30
0.0
 40
0.2400000095367432
100
AcDbArc
 50
0.0
 51
180.0
  0
ARC
  5
1C6
330
1F
100
AcDbEntity
  8
Trimetric
  6
Continuous
 62
   254
370
    18
100
AcDbCircle
 10
31.1325798034668
 20
7.25798749923706
 30
0.0
 40
0.4375
100
AcDbArc
 50
123.2690622374059
 51
236.7309377625941
  0
ARC
  5
1C7
330
1F
100
AcDbEntity
  8
Trimetric
  6
Continuous
 62
   254
370
    18
100
AcDbCircle
 10
28.53257942199707
 20
4.997987270355224
 30
0.0
 40
0.2400000095367432
100
AcDbArc
 50
180.0
 51
0.0
  0
ARC
  5
1C8
330
1F
100
AcDbEntity
  8
Trimetric
  6
Continuous
 62
   254
370
    18
100
AcDbCircle
 10
28.53257942199707
 20
5.507987022399902
 30
0.0
 40
0.4375
100
AcDbArc
 50
303.2690622374059
 51
56.73093776259406
  0
ARC
  5
1C9
330
1F
100
AcDbEntity
  8
Trimetric
  6
Continuous
 62
   254
370
    18
100
AcDbCircle
 10
28.53257942199707
 20
6.017987251281738
 30
0.0
 40
0.2400000095367432
100
AcDbArc
 50
0.0
 51
180.0
  0
ARC
  5
1CA
330
1F
100
AcDbEntity
  8
Trimetric
  6
Continuous
 62
   254
370
    18
100
AcDbCircle
 10
28.53257942199707
 20
5.507987022399902
 30
0.0
 40
0.4375
100
AcDbArc
 50
123.2690622374059
 51
236.7309377625941
  0
ARC
  5
1CB
330
1F
100
AcDbEntity
  8
Trimetric
  6
Continuous
 62
   254
370
    18
100
AcDbCircle
 10
30.61257934570313
 20
4.997987270355224
 30
0.0
 40
0.2400000095367432
100
AcDbArc
 50
180.0
 51
0.0
  0
ARC
  5
1CC
330
1F
100
AcDbEntity
  8
Trimetric
  6
Continuous
 62
   254
370
    18
100
AcDbCircle
 10
30.61257934570313
 20
5.507987022399902
 30
0.0
 40
0.4375
100
AcDbArc
 50
303.2690622374059
 51
56.73093776259406
  0
ARC
  5
1CD
330
1F
100
AcDbEntity
  8
Trimetric
  6
Continuous
 62
   254
370
    18
100
AcDbCircle
 10
30.61257934570313
 20
6.017987251281738
 30
0.0
 40
0.2400000095367432
100
AcDbArc
 50
0.0
 51
180.0
  0
ARC
  5
1CE
330
1F
100
AcDbEntity
  8
Trimetric
  6
Continuous
 62
   254
370
    18
100
AcDbCircle
 10
30.61257934570313
 20
5.507987022399902
 30
0.0
 40
0.4375
100
AcDbArc
 50
123.2690622374059
 51
236.7309377625941
  0
ARC
  5
1CF
330
1F
100
AcDbEntity
  8
Trimetric
  6
Continuous
 62
   254
370
    18
100
AcDbCircle
 10
28.53257942199707
 20
3.247987270355224
 30
0.0
 40
0.2400000095367432
100
AcDbArc
 50
180.0
 51
0.0
  0
ARC
  5
1D0
330
1F
100
AcDbEntity
  8
Trimetric
  6
Continuous
 62
   254
370
    18
100
AcDbCircle
 10
28.53257942199707
 20
3.757987260818481
 30
0.0
 40
0.4375
100
AcDbArc
 50
303.2690622374059
 51
56.73093776259406
  0
ARC
  5
1D1
330
1F
100
AcDbEntity
  8
Trimetric
  6
Continuous
 62
   254
370
    18
100
AcDbCircle
 10
28.53257942199707
 20
4.267987251281738
 30
0.0
 40
0.2400000095367432
100
AcDbArc
 50
0.0
 51
180.0
  0
ARC
  5
1D2
330
1F
100
AcDbEntity
  8
Trimetric
  6
Continuous
 62
   254
370
    18
100
AcDbCircle
 10
28.53257942199707
 20
3.757987260818481
 30
0.0
 40
0.4375
100
AcDbArc
 50
123.2690622374059
 51
236.7309377625941
  0
ARC
  5
1D3
330
1F
100
AcDbEntity
  8
Trimetric
  6
Continuous
 62
   254
370
    18
100
AcDbCircle
 10
32.92258071899414
 20
4.267987251281738
 30
0.0
 40
0.2400000095367432
100
AcDbArc
 50
0.0
 51
180.0
  0
ARC
  5
1D4
330
1F
100
AcDbEntity
  8
Trimetric
  6
Continuous
 62
   254
370
    18
100
AcDbCircle
 10
32.92258071899414
 20
3.757987260818481
 30
0.0
 40
0.4375
100
AcDbArc
 50
123.2690622374059
 51
236.7309377625941
  0
ARC
  5
1D5
330
1F
100
AcDbEntity
  8
Trimetric
  6
Continuous
 62
   254
370
    18
100
AcDbCircle
 10
32.92258071899414
 20
3.247987270355224
 30
0.0
 40
0.2400000095367432
100
AcDbArc
 50
180.0
 51
0.0
  0
ARC
  5
1D6
330
1F
100
AcDbEntity
  8
Trimetric
  6
Continuous
 62
   254
370
    18
100
AcDbCircle
 10
32.92258071899414
 20
3.757987260818481
 30
0.0
 40
0.4375
100
AcDbArc
 50
303.2690622374059
 51
56.73093776259406
  0
ARC
  5
1D7
330
1F
100
AcDbEntity
  8
Trimetric
  6
Continuous
 62
   254
370
    18
100
AcDbCircle
 10
34.46257781982422
 20
4.267987251281738
 30
0.0
 40
0.2400000095367432
100
AcDbArc
 50
0.0
 51
180.0
  0
ARC
  5
1D8
330
1F
100
AcDbEntity
  8
Trimetric
  6
Continuous
 62
   254
370
    18
100
AcDbCircle
 10
34.46257781982422
 20
3.757987260818481
 30
0.0
 40
0.4375
100
AcDbArc
 50
123.2690622374059
 51
236.7309377625941
  0
ARC
  5
1D9
330
1F
100
AcDbEntity
  8
Trimetric
  6
Continuous
 62
   254
370
    18
100
AcDbCircle
 10
34.46257781982422
 20
3.247987270355224
 30
0.0
 40
0.2400000095367432
100
AcDbArc
 50
180.0
 51
0.0
  0
ARC
  5
1DA
330
1F
100
AcDbEntity
  8
Trimetric
  6
Continuous
 62
   254
370
    18
100
AcDbCircle
 10
34.46257781982422
 20
3.757987260818481
 30
0.0
 40
0.4375
100
AcDbArc
 50
303.2690622374059
 51
56.73093776259406
  0
ARC
  5
1DB
330
1F
100
AcDbEntity
  8
Trimetric
  6
Continuous
 62
   254
370
    18
100
AcDbCircle
 10
35.52257919311524
 20
4.267987251281738
 30
0.0
 40
0.2400000095367432
100
AcDbArc
 50
0.0
 51
180.0
  0
ARC
  5
1DC
330
1F
100
AcDbEntity
  8
Trimetric
  6
Continuous
 62
   254
370
    18
100
AcDbCircle
 10
35.52257919311524
 20
3.757987260818481
 30
0.0
 40
0.4375
100
AcDbArc
 50
123.2690622374059
 51
236.7309377625941
  0
ARC
  5
1DD
330
1F
100
AcDbEntity
  8
Trimetric
  6
Continuous
 62
   254
370
    18
100
AcDbCircle
 10
35.52257919311524
 20
3.247987270355224
 30
0.0
 40
0.2400000095367432
100
AcDbArc
 50
180.0
 51
0.0
  0
ARC
  5
1DE
330
1F
100
AcDbEntity
  8
Trimetric
  6
Continuous
 62
   254
370
    18
100
AcDbCircle
 10
35.52257919311524
 20
3.757987260818481
 30
0.0
 40
0.4375
100
AcDbArc
 50
303.2690622374059
 51
56.73093776259406
  0
CIRCLE
  5
1DF
330
1F
100
AcDbEntity
  8
Trimetric
  6
Continuous
 62
   254
370
    18
100
AcDbCircle
 10
34.40757751464844
 20
6.007987022399902
 30
0.0
 40
0.1140000075101852
  0
CIRCLE
  5
1E0
330
1F
100
AcDbEntity
  8
Trimetric
  6
Continuous
 62
   254
370
    18
100
AcDbCircle
 10
35.59757995605469
 20
6.007987022399902
 30
0.0
 40
0.1140000075101852
  0
CIRCLE
  5
1E1
330
1F
100
AcDbEntity
  8
Trimetric
  6
Continuous
 62
   254
370
    18
100
AcDbCircle
 10
34.40757751464844
 20
5.007987022399902
 30
0.0
 40
0.1140000075101852
  0
CIRCLE
  5
1E2
330
1F
100
AcDbEntity
  8
Trimetric
  6
Continuous
 62
   254
370
    18
100
AcDbCircle
 10
35.59757995605469
 20
5.007987022399902
 30
0.0
 40
0.1140000075101852
  0
CIRCLE
  5
1E3
330
1F
100
AcDbEntity
  8
Trimetric
  6
Continuous
 62
   254
370
    18
100
AcDbCircle
 10
36.11758041381836
 20
7.75798749923706
 30
0.0
 40
0.1140000075101852
  0
CIRCLE
  5
1E4
330
1F
100
AcDbEntity
  8
Trimetric
  6
Continuous
 62
   254
370
    18
100
AcDbCircle
 10
36.11758041381836
 20
6.757987022399902
 30
0.0
 40
0.1140000075101852
  0
CIRCLE
  5
1E5
330
1F
100
AcDbEntity
  8
Trimetric
  6
Continuous
 62
   254
370
    18
100
AcDbCircle
 10
36.11758041381836
 20
4.257987022399902
 30
0.0
 40
0.1140000075101852
  0
CIRCLE
  5
1E6
330
1F
100
AcDbEntity
  8
Trimetric
  6
Continuous
 62
   254
370
    18
100
AcDbCircle
 10
36.11758041381836
 20
3.257987260818481
 30
0.0
 40
0.1140000075101852
  0
CIRCLE
  5
1E7
330
1F
100
AcDbEntity
  8
Trimetric
  6
Continuous
 62
   254
370
    18
100
AcDbCircle
 10
33.517578125
 20
7.75798749923706
 30
0.0
 40
0.1140000075101852
  0
CIRCLE
  5
1E8
330
1F
100
AcDbEntity
  8
Trimetric
  6
Continuous
 62
   254
370
    18
100
AcDbCircle
 10
33.517578125
 20
6.007987022399902
 30
0.0
 40
0.1140000075101852
  0
CIRCLE
  5
1E9
330
1F
100
AcDbEntity
  8
Trimetric
  6
Continuous
 62
   254
370
    18
100
AcDbCircle
 10
32.32757949829102
 20
7.75798749923706
 30
0.0
 40
0.1140000075101852
  0
CIRCLE
  5
1EA
330
1F
100
AcDbEntity
  8
Trimetric
  6
Continuous
 62
   254
370
    18
100
AcDbCircle
 10
32.32757949829102
 20
6.007987022399902
 30
0.0
 40
0.1140000075101852
  0
CIRCLE
  5
1EB
330
1F
100
AcDbEntity
  8
Trimetric
  6
Continuous
 62
   254
370
    18
100
AcDbCircle
 10
33.517578125
 20
6.757987022399902
 30
0.0
 40
0.1140000075101852
  0
CIRCLE
  5
1EC
330
1F
100
AcDbEntity
  8
Trimetric
  6
Continuous
 62
   254
370
    18
100
AcDbCircle
 10
33.517578125
 20
5.007987022399902
 30
0.0
 40
0.1140000075101852
  0
CIRCLE
  5
1ED
330
1F
100
AcDbEntity
  8
Trimetric
  6
Continuous
 62
   254
370
    18
100
AcDbCircle
 10
32.32757949829102
 20
6.757987022399902
 30
0.0
 40
0.1140000075101852
  0
CIRCLE
  5
1EE
330
1F
100
AcDbEntity
  8
Trimetric
  6
Continuous
 62
   254
370
    18
100
AcDbCircle
 10
32.32757949829102
 20
5.007987022399902
 30
0.0
 40
0.1140000075101852
  0
CIRCLE
  5
1EF
330
1F
100
AcDbEntity
  8
Trimetric
  6
Continuous
 62
   254
370
    18
100
AcDbCircle
 10
33.517578125
 20
4.257987022399902
 30
0.0
 40
0.1140000075101852
  0
CIRCLE
  5
1F0
330
1F
100
AcDbEntity
  8
Trimetric
  6
Continuous
 62
   254
370
    18
100
AcDbCircle
 10
32.32757949829102
 20
4.257987022399902
 30
0.0
 40
0.1140000075101852
  0
CIRCLE
  5
1F1
330
1F
100
AcDbEntity
  8
Trimetric
  6
Continuous
 62
   254
370
    18
100
AcDbCircle
 10
33.517578125
 20
3.257987260818481
 30
0.0
 40
0.1140000075101852
  0
CIRCLE
  5
1F2
330
1F
100
AcDbEntity
  8
Trimetric
  6
Continuous
 62
   254
370
    18
100
AcDbCircle
 10
32.32757949829102
 20
3.257987260818481
 30
0.0
 40
0.1140000075101852
  0
ARC
  5
1F3
330
1F
100
AcDbEntity
  8
Trimetric
  6
Continuous
 62
   254
370
    18
100
AcDbCircle
 10
25.16007804870606
 20
3.132987260818481
 30
0.0
 40
0.2874999940395355
100
AcDbArc
 50
270.0
 51
90.0
  0
ARC
  5
1F4
330
1F
100
AcDbEntity
  8
Trimetric
  6
Continuous
 62
   254
370
    18
100
AcDbCircle
 10
25.16007804870606
 20
7.88298749923706
 30
0.0
 40
0.2874999940395355
100
AcDbArc
 50
270.0
 51
90.0
  0
ARC
  5
1F5
330
1F
100
AcDbEntity
  8
Trimetric
  6
Continuous
 62
   254
370
    18
100
AcDbCircle
 10
30.07257843017578
 20
4.267987251281738
 30
0.0
 40
0.2400000095367432
100
AcDbArc
 50
0.0
 51
180.0
  0
ARC
  5
1F6
330
1F
100
AcDbEntity
  8
Trimetric
  6
Continuous
 62
   254
370
    18
100
AcDbCircle
 10
30.07257843017578
 20
3.757987260818481
 30
0.0
 40
0.4375
100
AcDbArc
 50
123.2690622374059
 51
236.7309377625941
  0
ARC
  5
1F7
330
1F
100
AcDbEntity
  8
Trimetric
  6
Continuous
 62
   254
370
    18
100
AcDbCircle
 10
30.07257843017578
 20
3.247987270355224
 30
0.0
 40
0.2400000095367432
100
AcDbArc
 50
180.0
 51
0.0
  0
ARC
  5
1F8
330
1F
100
AcDbEntity
  8
Trimetric
  6
Continuous
 62
   254
370
    18
100
AcDbCircle
 10
30.07257843017578
 20
3.757987260818481
 30
0.0
 40
0.4375
100
AcDbArc
 50
303.2690622374059
 51
56.73093776259406
  0
ARC
  5
1F9
330
1F
100
AcDbEntity
  8
Trimetric
  6
Continuous
 62
   254
370
    18
100
AcDbCircle
 10
35.00257873535157
 20
6.017987251281738
 30
0.0
 40
0.2400000095367432
100
AcDbArc
 50
0.0
 51
180.0
  0
ARC
  5
1FA
330
1F
100
AcDbEntity
  8
Trimetric
  6
Continuous
 62
   254
370
    18
100
AcDbCircle
 10
35.00257873535157
 20
5.507987022399902
 30
0.0
 40
0.4375
100
AcDbArc
 50
123.2690622374059
 51
236.7309377625941
  0
ARC
  5
1FB
330
1F
100
AcDbEntity
  8
Trimetric
  6
Continuous
 62
   254
370
    18
100
AcDbCircle
 10
35.00257873535157
 20
4.997987270355224
 30
0.0
 40
0.2400000095367432
100
AcDbArc
 50
180.0
 51
0.0
  0
ARC
  5
1FC
330
1F
100
AcDbEntity
  8
Trimetric
  6
Continuous
 62
   254
370
    18
100
AcDbCircle
 10
35.00257873535157
 20
5.507987022399902
 30
0.0
 40
0.4375
100
AcDbArc
 50
303.2690622374059
 51
56.73093776259406
  0
ARC
  5
1FD
330
1F
100
AcDbEntity
  8
Trimetric
  6
Continuous
 62
   254
370
    18
100
AcDbCircle
 10
32.92258071899414
 20
6.017987251281738
 30
0.0
 40
0.2400000095367432
100
AcDbArc
 50
0.0
 51
180.0
  0
ARC
  5
1FE
330
1F
100
AcDbEntity
  8
Trimetric
  6
Continuous
 62
   254
370
    18
100
AcDbCircle
 10
32.92258071899414
 20
5.507987022399902
 30
0.0
 40
0.4375
100
AcDbArc
 50
123.2690622374059
 51
236.7309377625941
  0
ARC
  5
1FF
330
1F
100
AcDbEntity
  8
Trimetric
  6
Continuous
 62
   254
370
    18
100
AcDbCircle
 10
32.92258071899414
 20
4.997987270355224
 30
0.0
 40
0.2400000095367432
100
AcDbArc
 50
180.0
 51
0.0
  0
ARC
  5
200
330
1F
100
AcDbEntity
  8
Trimetric
  6
Continuous
 62
   254
370
    18
100
AcDbCircle
 10
32.92258071899414
 20
5.507987022399902
 30
0.0
 40
0.4375
100
AcDbArc
 50
303.2690622374059
 51
56.73093776259406
  0
ARC
  5
201
330
1F
100
AcDbEntity
  8
Trimetric
  6
Continuous
 62
   254
370
    18
100
AcDbCircle
 10
35.52257919311524
 20
7.767987728118896
 30
0.0
 40
0.2400000095367432
100
AcDbArc
 50
0.0
 51
180.0
  0
ARC
  5
202
330
1F
100
AcDbEntity
  8
Trimetric
  6
Continuous
 62
   254
370
    18
100
AcDbCircle
 10
35.52257919311524
 20
7.25798749923706
 30
0.0
 40
0.4375
100
AcDbArc
 50
123.2690622374059
 51
236.7309377625941
  0
ARC
  5
203
330
1F
100
AcDbEntity
  8
Trimetric
  6
Continuous
 62
   254
370
    18
100
AcDbCircle
 10
35.52257919311524
 20
6.747987270355224
 30
0.0
 40
0.2400000095367432
100
AcDbArc
 50
180.0
 51
0.0
  0
ARC
  5
204
330
1F
100
AcDbEntity
  8
Trimetric
  6
Continuous
 62
   254
370
    18
100
AcDbCircle
 10
35.52257919311524
 20
7.25798749923706
 30
0.0
 40
0.4375
100
AcDbArc
 50
303.2690622374059
 51
56.73093776259406
  0
ARC
  5
205
330
1F
100
AcDbEntity
  8
Trimetric
  6
Continuous
 62
   254
370
    18
100
AcDbCircle
 10
34.46257781982422
 20
7.767987728118896
 30
0.0
 40
0.2400000095367432
100
AcDbArc
 50
0.0
 51
180.0
  0
ARC
  5
206
330
1F
100
AcDbEntity
  8
Trimetric
  6
Continuous
 62
   254
370
    18
100
AcDbCircle
 10
34.46257781982422
 20
7.25798749923706
 30
0.0
 40
0.4375
100
AcDbArc
 50
123.2690622374059
 51
236.7309377625941
  0
ARC
  5
207
330
1F
100
AcDbEntity
  8
Trimetric
  6
Continuous
 62
   254
370
    18
100
AcDbCircle
 10
34.46257781982422
 20
6.747987270355224
 30
0.0
 40
0.2400000095367432
100
AcDbArc
 50
180.0
 51
0.0
  0
ARC
  5
208
330
1F
100
AcDbEntity
  8
Trimetric
  6
Continuous
 62
   254
370
    18
100
AcDbCircle
 10
34.46257781982422
 20
7.25798749923706
 30
0.0
 40
0.4375
100
AcDbArc
 50
303.2690622374059
 51
56.73093776259406
  0
ARC
  5
209
330
1F
100
AcDbEntity
  8
Trimetric
  6
Continuous
 62
   254
370
    18
100
AcDbCircle
 10
32.92258071899414
 20
7.767987728118896
 30
0.0
 40
0.2400000095367432
100
AcDbArc
 50
0.0
 51
180.0
  0
ARC
  5
20A
330
1F
100
AcDbEntity
  8
Trimetric
  6
Continuous
 62
   254
370
    18
100
AcDbCircle
 10
32.92258071899414
 20
7.25798749923706
 30
0.0
 40
0.4375
100
AcDbArc
 50
123.2690622374059
 51
236.7309377625941
  0
ARC
  5
20B
330
1F
100
AcDbEntity
  8
Trimetric
  6
Continuous
 62
   254
370
    18
100
AcDbCircle
 10
32.92258071899414
 20
6.747987270355224
 30
0.0
 40
0.2400000095367432
100
AcDbArc
 50
180.0
 51
0.0
  0
ARC
  5
20C
330
1F
100
AcDbEntity
  8
Trimetric
  6
Continuous
 62
   254
370
    18
100
AcDbCircle
 10
32.92258071899414
 20
7.25798749923706
 30
0.0
 40
0.4375
100
AcDbArc
 50
303.2690622374059
 51
56.73093776259406
  0
CIRCLE
  5
20D
330
1F
100
AcDbEntity
  8
Trimetric
  6
Continuous
 62
   254
370
    18
100
AcDbCircle
 10
31.72757911682129
 20
3.257987260818481
 30
0.0
 40
0.1140000075101852
  0
CIRCLE
  5
20E
330
1F
100
AcDbEntity
  8
Trimetric
  6
Continuous
 62
   254
370
    18
100
AcDbCircle
 10
29.12757873535156
 20
3.257987260818481
 30
0.0
 40
0.1140000075101852
  0
CIRCLE
  5
20F
330
1F
100
AcDbEntity
  8
Trimetric
  6
Continuous
 62
   254
370
    18
100
AcDbCircle
 10
27.93757820129395
 20
3.257987260818481
 30
0.0
 40
0.1140000075101852
  0
CIRCLE
  5
210
330
1F
100
AcDbEntity
  8
Trimetric
  6
Continuous
 62
   254
370
    18
100
AcDbCircle
 10
31.72757911682129
 20
4.257987022399902
 30
0.0
 40
0.1140000075101852
  0
CIRCLE
  5
211
330
1F
100
AcDbEntity
  8
Trimetric
  6
Continuous
 62
   254
370
    18
100
AcDbCircle
 10
29.12757873535156
 20
4.257987022399902
 30
0.0
 40
0.1140000075101852
  0
CIRCLE
  5
212
330
1F
100
AcDbEntity
  8
Trimetric
  6
Continuous
 62
   254
370
    18
100
AcDbCircle
 10
27.93757820129395
 20
4.257987022399902
 30
0.0
 40
0.1140000075101852
  0
CIRCLE
  5
213
330
1F
100
AcDbEntity
  8
Trimetric
  6
Continuous
 62
   254
370
    18
100
AcDbCircle
 10
31.72757911682129
 20
6.757987022399902
 30
0.0
 40
0.1140000075101852
  0
CIRCLE
  5
214
330
1F
100
AcDbEntity
  8
Trimetric
  6
Continuous
 62
   254
370
    18
100
AcDbCircle
 10
29.12757873535156
 20
6.757987022399902
 30
0.0
 40
0.1140000075101852
  0
CIRCLE
  5
215
330
1F
100
AcDbEntity
  8
Trimetric
  6
Continuous
 62
   254
370
    18
100
AcDbCircle
 10
27.93757820129395
 20
6.757987022399902
 30
0.0
 40
0.1140000075101852
  0
CIRCLE
  5
216
330
1F
100
AcDbEntity
  8
Trimetric
  6
Continuous
 62
   254
370
    18
100
AcDbCircle
 10
31.72757911682129
 20
7.75798749923706
 30
0.0
 40
0.1140000075101852
  0
CIRCLE
  5
217
330
1F
100
AcDbEntity
  8
Trimetric
  6
Continuous
 62
   254
370
    18
100
AcDbCircle
 10
29.12757873535156
 20
7.75798749923706
 30
0.0
 40
0.1140000075101852
  0
CIRCLE
  5
218
330
1F
100
AcDbEntity
  8
Trimetric
  6
Continuous
 62
   254
370
    18
100
AcDbCircle
 10
27.93757820129395
 20
7.75798749923706
 30
0.0
 40
0.1140000075101852
  0
CIRCLE
  5
219
330
1F
100
AcDbEntity
  8
Trimetric
  6
Continuous
 62
   254
370
    18
100
AcDbCircle
 10
31.20757865905762
 20
5.007987022399902
 30
0.0
 40
0.1140000075101852
  0
CIRCLE
  5
21A
330
1F
100
AcDbEntity
  8
Trimetric
  6
Continuous
 62
   254
370
    18
100
AcDbCircle
 10
30.017578125
 20
5.007987022399902
 30
0.0
 40
0.1140000075101852
  0
CIRCLE
  5
21B
330
1F
100
AcDbEntity
  8
Trimetric
  6
Continuous
 62
   254
370
    18
100
AcDbCircle
 10
31.20757865905762
 20
6.007987022399902
 30
0.0
 40
0.1140000075101852
  0
CIRCLE
  5
21C
330
1F
100
AcDbEntity
  8
Trimetric
  6
Continuous
 62
   254
370
    18
100
AcDbCircle
 10
30.017578125
 20
6.007987022399902
 30
0.0
 40
0.1140000075101852
  0
CIRCLE
  5
21D
330
1F
100
AcDbEntity
  8
Trimetric
  6
Continuous
 62
   254
370
    18
100
AcDbCircle
 10
29.12757873535156
 20
5.007987022399902
 30
0.0
 40
0.1140000075101852
  0
CIRCLE
  5
21E
330
1F
100
AcDbEntity
  8
Trimetric
  6
Continuous
 62
   254
370
    18
100
AcDbCircle
 10
27.93757820129395
 20
5.007987022399902
 30
0.0
 40
0.1140000075101852
  0
CIRCLE
  5
21F
330
1F
100
AcDbEntity
  8
Trimetric
  6
Continuous
 62
   254
370
    18
100
AcDbCircle
 10
29.12757873535156
 20
6.007987022399902
 30
0.0
 40
0.1140000075101852
  0
CIRCLE
  5
220
330
1F
100
AcDbEntity
  8
Trimetric
  6
Continuous
 62
   254
370
    18
100
AcDbCircle
 10
27.93757820129395
 20
6.007987022399902
 30
0.0
 40
0.1140000075101852
  0
ARC
  5
221
330
1F
100
AcDbEntity
  8
Trimetric
  6
Continuous
 62
   254
370
    18
100
AcDbCircle
 10
31.1325798034668
 20
4.267987251281738
 30
0.0
 40
0.2400000095367432
100
AcDbArc
 50
0.0
 51
180.0
  0
ARC
  5
222
330
1F
100
AcDbEntity
  8
Trimetric
  6
Continuous
 62
   254
370
    18
100
AcDbCircle
 10
31.1325798034668
 20
3.757987260818481
 30
0.0
 40
0.4375
100
AcDbArc
 50
123.2690622374059
 51
236.7309377625941
  0
ARC
  5
223
330
1F
100
AcDbEntity
  8
Trimetric
  6
Continuous
 62
   254
370
    18
100
AcDbCircle
 10
31.1325798034668
 20
3.247987270355224
 30
0.0
 40
0.2400000095367432
100
AcDbArc
 50
180.0
 51
0.0
  0
ARC
  5
224
330
1F
100
AcDbEntity
  8
Trimetric
  6
Continuous
 62
   254
370
    18
100
AcDbCircle
 10
31.1325798034668
 20
3.757987260818481
 30
0.0
 40
0.4375
100
AcDbArc
 50
303.2690622374059
 51
56.73093776259406
  0
ARC
  5
225
330
1F
100
AcDbEntity
  8
Trimetric
  6
Continuous
 62
   254
370
    18
100
AcDbCircle
 10
37.07257843017578
 20
8.343987464904785
 30
0.0
 40
0.0940000042319298
100
AcDbArc
 50
0.0
 51
90.0
  0
ARC
  5
226
330
1F
100
AcDbEntity
  8
Trimetric
  6
Continuous
 62
   254
370
    18
100
AcDbCircle
 10
37.07257843017578
 20
8.343987464904785
 30
0.0
 40
0.0300000011920929
100
AcDbArc
 50
0.0
 51
90.0
  0
ARC
  5
227
330
1F
100
AcDbEntity
  8
Trimetric
  6
Continuous
 62
   254
370
    18
100
AcDbCircle
 10
37.07257843017578
 20
2.671987056732177
 30
0.0
 40
0.0940000042319298
100
AcDbArc
 50
270.0
 51
0.0
  0
ARC
  5
228
330
1F
100
AcDbEntity
  8
Trimetric
  6
Continuous
 62
   254
370
    18
100
AcDbCircle
 10
37.07257843017578
 20
2.671987056732177
 30
0.0
 40
0.0300000011920929
100
AcDbArc
 50
270.0
 51
0.0
  0
ARC
  5
229
330
1F
100
AcDbEntity
  8
Trimetric
  6
Continuous
 62
     7
370
    18
100
AcDbCircle
 10
9.872834205627441
 20
10.57798767089844
 30
0.0
 40
0.1300000101327896
100
AcDbArc
 50
90.0
 51
142.01999981113
  0
ARC
  5
22A
330
1F
100
AcDbEntity
  8
Trimetric
  6
Continuous
 62
     7
370
    18
100
AcDbCircle
 10
10.50533390045166
 20
10.83298778533935
 30
0.0
 40
0.125
100
AcDbArc
 50
270.0
 51
90.0
  0
ARC
  5
22B
330
1F
100
AcDbEntity
  8
Trimetric
  6
Continuous
 62
     7
370
    18
100
AcDbCircle
 10
9.872834205627441
 20
15.83798694610595
 30
0.0
 40
0.1300000101327896
100
AcDbArc
 50
217.98000018887
 51
270.0
  0
ARC
  5
22C
330
1F
100
AcDbEntity
  8
Trimetric
  6
Continuous
 62
     7
370
    18
100
AcDbCircle
 10
10.50533390045166
 20
15.58298683166504
 30
0.0
 40
0.125
100
AcDbArc
 50
270.0
 51
90.0
  0
ARC
  5
22D
330
1F
100
AcDbEntity
  8
Trimetric
  6
Continuous
 62
     7
370
    18
100
AcDbCircle
 10
10.84283351898193
 20
16.19598770141601
 30
0.0
 40
0.0300000011920929
100
AcDbArc
 50
0.0
 51
90.0
  0
ARC
  5
22E
330
1F
100
AcDbEntity
  8
Trimetric
  6
Continuous
 62
     7
370
    18
100
AcDbCircle
 10
10.84283351898193
 20
16.19598770141601
 30
0.0
 40
0.1050000041723251
100
AcDbArc
 50
0.0
 51
90.0
  0
ARC
  5
22F
330
1F
100
AcDbEntity
  8
Trimetric
  6
Continuous
 62
     7
370
    18
100
AcDbCircle
 10
10.84283351898193
 20
10.21998691558838
 30
0.0
 40
0.0300000011920929
100
AcDbArc
 50
270.0
 51
0.0
  0
ARC
  5
230
330
1F
100
AcDbEntity
  8
Trimetric
  6
Continuous
 62
     7
370
    18
100
AcDbCircle
 10
10.84283351898193
 20
10.21998691558838
 30
0.0
 40
0.1050000041723251
100
AcDbArc
 50
270.0
 51
0.0
  0
ARC
  5
231
330
1F
100
AcDbEntity
  8
Trimetric
  6
Continuous
 62
   254
370
    18
100
AcDbCircle
 10
9.987833976745605
 20
3.550487041473388
 30
0.0
 40
0.1300000101327896
100
AcDbArc
 50
180.0
 51
270.0
  0
ARC
  5
232
330
1F
100
AcDbEntity
  8
Trimetric
  6
Continuous
 62
   254
370
    18
100
AcDbCircle
 10
9.987833976745605
 20
7.465487480163574
 30
0.0
 40
0.1300000101327896
100
AcDbArc
 50
90.0
 51
180.0
  0
ARC
  5
233
330
1F
100
AcDbEntity
  8
Trimetric
  6
Continuous
 62
   254
370
    18
100
AcDbCircle
 10
9.917834281921386
 20
8.353986740112304
 30
0.0
 40
0.0600000023841858
100
AcDbArc
 50
90.0
 51
180.0
  0
ARC
  5
234
330
1F
100
AcDbEntity
  8
Trimetric
  6
Continuous
 62
   254
370
    18
100
AcDbCircle
 10
9.917834281921386
 20
8.230487823486328
 30
0.0
 40
0.0600000023841858
100
AcDbArc
 50
180.0
 51
270.0
  0
ARC
  5
235
330
1F
100
AcDbEntity
  8
Trimetric
  6
Continuous
 62
   254
370
    18
100
AcDbCircle
 10
9.917834281921386
 20
2.66198706626892
 30
0.0
 40
0.0600000023841858
100
AcDbArc
 50
180.0
 51
270.0
  0
ARC
  5
236
330
1F
100
AcDbEntity
  8
Trimetric
  6
Continuous
 62
   254
370
    18
100
AcDbCircle
 10
9.917834281921386
 20
2.785487413406372
 30
0.0
 40
0.0600000023841858
100
AcDbArc
 50
90.0
 51
180.0
  0
ARC
  5
237
330
1F
100
AcDbEntity
  8
Trimetric
  6
Continuous
 62
   254
370
    18
100
AcDbCircle
 10
10.92983341217041
 20
2.601987123489379
 30
0.0
 40
0.0940000042319298
100
AcDbArc
 50
270.0
 51
0.0
  0
ARC
  5
238
330
1F
100
AcDbEntity
  8
Trimetric
  6
Continuous
 62
   254
370
    18
100
AcDbCircle
 10
10.92983341217041
 20
2.601987123489379
 30
0.0
 40
0.0300000011920929
100
AcDbArc
 50
270.0
 51
0.0
  0
ARC
  5
239
330
1F
100
AcDbEntity
  8
Trimetric
  6
Continuous
 62
   254
370
    18
100
AcDbCircle
 10
10.92983341217041
 20
8.413987159729003
 30
0.0
 40
0.0940000042319298
100
AcDbArc
 50
0.0
 51
90.0
  0
ARC
  5
23A
330
1F
100
AcDbEntity
  8
Trimetric
  6
Continuous
 62
   254
370
    18
100
AcDbCircle
 10
10.92983341217041
 20
8.413987159729003
 30
0.0
 40
0.0300000011920929
100
AcDbArc
 50
0.0
 51
90.0
  0
ARC
  5
23B
330
1F
100
AcDbEntity
  8
Trimetric
  6
Continuous
 62
   254
370
    18
100
AcDbCircle
 10
10.39383316040039
 20
3.757987260818481
 30
0.0
 40
0.4375
100
AcDbArc
 50
230.481670849429
 51
236.7309377625941
  0
ARC
  5
23C
330
1F
100
AcDbEntity
  8
Trimetric
  6
Continuous
 62
   254
370
    18
100
AcDbCircle
 10
10.39383316040039
 20
3.757987260818481
 30
0.0
 40
0.4375
100
AcDbArc
 50
303.2690622374059
 51
309.518329150571
  0
ARC
  5
23D
330
1F
100
AcDbEntity
  8
Trimetric
  6
Continuous
 62
   254
370
    18
100
AcDbCircle
 10
10.39383316040039
 20
7.767987728118896
 30
0.0
 40
0.2400000095367432
100
AcDbArc
 50
0.0
 51
180.0
  0
ARC
  5
23E
330
1F
100
AcDbEntity
  8
Trimetric
  6
Continuous
 62
   254
370
    18
100
AcDbCircle
 10
10.39383316040039
 20
7.25798749923706
 30
0.0
 40
0.4375
100
AcDbArc
 50
123.2690622374059
 51
129.518329150571
  0
ARC
  5
23F
330
1F
100
AcDbEntity
  8
Trimetric
  6
Continuous
 62
   254
370
    18
100
AcDbCircle
 10
10.39383316040039
 20
7.25798749923706
 30
0.0
 40
0.4375
100
AcDbArc
 50
50.48167084942899
 51
56.73093776259406
  0
ARC
  5
240
330
1F
100
AcDbEntity
  8
Trimetric
  6
Continuous
 62
   254
370
    18
100
AcDbCircle
 10
10.39383316040039
 20
3.247987270355224
 30
0.0
 40
0.2400000095367432
100
AcDbArc
 50
180.0
 51
0.0
  0
ARC
  5
241
330
1F
100
AcDbEntity
  8
Trimetric
  6
Continuous
 62
   254
370
    18
100
AcDbCircle
 10
36.94257736206055
 20
26.24203872680664
 30
0.0
 40
0.1300000101327896
100
AcDbArc
 50
0.0
 51
90.0
  0
CIRCLE
  5
242
330
1F
100
AcDbEntity
  8
Trimetric
  6
Continuous
 62
   254
370
    18
100
AcDbCircle
 10
34.61957931518555
 20
25.78203773498535
 30
0.0
 40
0.0885000005364418
  0
CIRCLE
  5
243
330
1F
100
AcDbEntity
  8
Trimetric
  6
Continuous
 62
   254
370
    18
100
AcDbCircle
 10
33.61957931518555
 20
25.78203773498535
 30
0.0
 40
0.0885000005364418
  0
CIRCLE
  5
244
330
1F
100
AcDbEntity
  8
Trimetric
  6
Continuous
 62
   254
370
    18
100
AcDbCircle
 10
32.61957931518555
 20
25.78203773498535
 30
0.0
 40
0.0885000005364418
  0
CIRCLE
  5
245
330
1F
100
AcDbEntity
  8
Trimetric
  6
Continuous
 62
   254
370
    18
100
AcDbCircle
 10
31.61957740783691
 20
25.78203773498535
 30
0.0
 40
0.0885000005364418
  0
CIRCLE
  5
246
330
1F
100
AcDbEntity
  8
Trimetric
  6
Continuous
 62
   254
370
    18
100
AcDbCircle
 10
30.61957740783692
 20
25.78203773498535
 30
0.0
 40
0.0885000005364418
  0
CIRCLE
  5
247
330
1F
100
AcDbEntity
  8
Trimetric
  6
Continuous
 62
   254
370
    18
100
AcDbCircle
 10
29.61957740783692
 20
25.78203773498535
 30
0.0
 40
0.0885000005364418
  0
CIRCLE
  5
248
330
1F
100
AcDbEntity
  8
Trimetric
  6
Continuous
 62
   254
370
    18
100
AcDbCircle
 10
28.61957740783692
 20
25.78203773498535
 30
0.0
 40
0.0885000005364418
  0
CIRCLE
  5
249
330
1F
100
AcDbEntity
  8
Trimetric
  6
Continuous
 62
   254
370
    18
100
AcDbCircle
 10
27.61957740783691
 20
25.78203773498535
 30
0.0
 40
0.0885000005364418
  0
CIRCLE
  5
24A
330
1F
100
AcDbEntity
  8
Trimetric
  6
Continuous
 62
   254
370
    18
100
AcDbCircle
 10
26.61957740783691
 20
25.78203773498535
 30
0.0
 40
0.0885000005364418
  0
CIRCLE
  5
24B
330
1F
100
AcDbEntity
  8
Trimetric
  6
Continuous
 62
   254
370
    18
100
AcDbCircle
 10
25.61957740783692
 20
25.78203773498535
 30
0.0
 40
0.0885000005364418
  0
ARC
  5
24C
330
1F
100
AcDbEntity
  8
Trimetric
  6
Continuous
 62
   254
370
    18
100
AcDbCircle
 10
25.09157752990723
 20
25.30003929138184
 30
0.0
 40
0.0300000011920929
100
AcDbArc
 50
180.0
 51
270.0
  0
ARC
  5
24D
330
1F
100
AcDbEntity
  8
Trimetric
  6
Continuous
 62
   254
370
    18
100
AcDbCircle
 10
25.09157752990723
 20
25.30003929138184
 30
0.0
 40
0.0940000042319298
100
AcDbArc
 50
180.0
 51
270.0
  0
ARC
  5
24E
330
1F
100
AcDbEntity
  8
Trimetric
  6
Continuous
 62
   254
370
    18
100
AcDbCircle
 10
37.07257843017578
 20
25.30003929138184
 30
0.0
 40
0.0940000042319298
100
AcDbArc
 50
270.0
 51
0.0
  0
ARC
  5
24F
330
1F
100
AcDbEntity
  8
Trimetric
  6
Continuous
 62
   254
370
    18
100
AcDbCircle
 10
37.07257843017578
 20
25.30003929138184
 30
0.0
 40
0.0300000011920929
100
AcDbArc
 50
270.0
 51
0.0
  0
ARC
  5
250
330
1F
100
AcDbEntity
  8
Trimetric
  6
Continuous
 62
   254
370
    18
100
AcDbCircle
 10
25.22157859802246
 20
26.24203872680664
 30
0.0
 40
0.1300000101327896
100
AcDbArc
 50
90.0
 51
180.0
  0
ARC
  5
251
330
1F
100
AcDbEntity
  8
Trimetric
  6
Continuous
 62
     7
370
    18
100
AcDbCircle
 10
35.28957748413086
 20
31.04838562011719
 30
0.0
 40
0.1300000101327896
100
AcDbArc
 50
0.0
 51
90.0
  0
ARC
  5
252
330
1F
100
AcDbEntity
  8
Trimetric
  6
Continuous
 62
     7
370
    18
100
AcDbCircle
 10
34.61957931518555
 20
30.72038459777832
 30
0.0
 40
0.1140000075101852
100
AcDbArc
 50
0.0
 51
180.0
  0
ARC
  5
253
330
1F
100
AcDbEntity
  8
Trimetric
  6
Continuous
 62
     7
370
    18
100
AcDbCircle
 10
34.61957931518555
 20
30.63638496398926
 30
0.0
 40
0.1140000075101852
100
AcDbArc
 50
180.0
 51
0.0
  0
ARC
  5
254
330
1F
100
AcDbEntity
  8
Trimetric
  6
Continuous
 62
     7
370
    18
100
AcDbCircle
 10
33.61957931518555
 20
30.72038459777832
 30
0.0
 40
0.1140000075101852
100
AcDbArc
 50
0.0
 51
180.0
  0
ARC
  5
255
330
1F
100
AcDbEntity
  8
Trimetric
  6
Continuous
 62
     7
370
    18
100
AcDbCircle
 10
33.61957931518555
 20
30.63638496398926
 30
0.0
 40
0.1140000075101852
100
AcDbArc
 50
180.0
 51
0.0
  0
ARC
  5
256
330
1F
100
AcDbEntity
  8
Trimetric
  6
Continuous
 62
     7
370
    18
100
AcDbCircle
 10
32.61957931518555
 20
30.72038459777832
 30
0.0
 40
0.1140000075101852
100
AcDbArc
 50
0.0
 51
180.0
  0
ARC
  5
257
330
1F
100
AcDbEntity
  8
Trimetric
  6
Continuous
 62
     7
370
    18
100
AcDbCircle
 10
32.61957931518555
 20
30.63638496398926
 30
0.0
 40
0.1140000075101852
100
AcDbArc
 50
180.0
 51
0.0
  0
ARC
  5
258
330
1F
100
AcDbEntity
  8
Trimetric
  6
Continuous
 62
     7
370
    18
100
AcDbCircle
 10
31.61957740783691
 20
30.72038459777832
 30
0.0
 40
0.1140000075101852
100
AcDbArc
 50
0.0
 51
180.0
  0
ARC
  5
259
330
1F
100
AcDbEntity
  8
Trimetric
  6
Continuous
 62
     7
370
    18
100
AcDbCircle
 10
31.61957740783691
 20
30.63638496398926
 30
0.0
 40
0.1140000075101852
100
AcDbArc
 50
180.0
 51
0.0
  0
ARC
  5
25A
330
1F
100
AcDbEntity
  8
Trimetric
  6
Continuous
 62
     7
370
    18
100
AcDbCircle
 10
30.61957740783692
 20
30.72038459777832
 30
0.0
 40
0.1140000075101852
100
AcDbArc
 50
0.0
 51
180.0
  0
ARC
  5
25B
330
1F
100
AcDbEntity
  8
Trimetric
  6
Continuous
 62
     7
370
    18
100
AcDbCircle
 10
30.61957740783692
 20
30.63638496398926
 30
0.0
 40
0.1140000075101852
100
AcDbArc
 50
180.0
 51
0.0
  0
ARC
  5
25C
330
1F
100
AcDbEntity
  8
Trimetric
  6
Continuous
 62
     7
370
    18
100
AcDbCircle
 10
29.61957740783692
 20
30.72038459777832
 30
0.0
 40
0.1140000075101852
100
AcDbArc
 50
0.0
 51
180.0
  0
ARC
  5
25D
330
1F
100
AcDbEntity
  8
Trimetric
  6
Continuous
 62
     7
370
    18
100
AcDbCircle
 10
29.61957740783692
 20
30.63638496398926
 30
0.0
 40
0.1140000075101852
100
AcDbArc
 50
180.0
 51
0.0
  0
ARC
  5
25E
330
1F
100
AcDbEntity
  8
Trimetric
  6
Continuous
 62
     7
370
    18
100
AcDbCircle
 10
28.61957740783692
 20
30.72038459777832
 30
0.0
 40
0.1140000075101852
100
AcDbArc
 50
0.0
 51
180.0
  0
ARC
  5
25F
330
1F
100
AcDbEntity
  8
Trimetric
  6
Continuous
 62
     7
370
    18
100
AcDbCircle
 10
28.61957740783692
 20
30.63638496398926
 30
0.0
 40
0.1140000075101852
100
AcDbArc
 50
180.0
 51
0.0
  0
ARC
  5
260
330
1F
100
AcDbEntity
  8
Trimetric
  6
Continuous
 62
     7
370
    18
100
AcDbCircle
 10
27.61957740783691
 20
30.72038459777832
 30
0.0
 40
0.1140000075101852
100
AcDbArc
 50
0.0
 51
180.0
  0
ARC
  5
261
330
1F
100
AcDbEntity
  8
Trimetric
  6
Continuous
 62
     7
370
    18
100
AcDbCircle
 10
27.61957740783691
 20
30.63638496398926
 30
0.0
 40
0.1140000075101852
100
AcDbArc
 50
180.0
 51
0.0
  0
ARC
  5
262
330
1F
100
AcDbEntity
  8
Trimetric
  6
Continuous
 62
     7
370
    18
100
AcDbCircle
 10
26.61957740783691
 20
30.72038459777832
 30
0.0
 40
0.1140000075101852
100
AcDbArc
 50
0.0
 51
180.0
  0
ARC
  5
263
330
1F
100
AcDbEntity
  8
Trimetric
  6
Continuous
 62
     7
370
    18
100
AcDbCircle
 10
26.61957740783691
 20
30.63638496398926
 30
0.0
 40
0.1140000075101852
100
AcDbArc
 50
180.0
 51
0.0
  0
ARC
  5
264
330
1F
100
AcDbEntity
  8
Trimetric
  6
Continuous
 62
     7
370
    18
100
AcDbCircle
 10
25.61957740783692
 20
30.72038459777832
 30
0.0
 40
0.1140000075101852
100
AcDbArc
 50
0.0
 51
180.0
  0
ARC
  5
265
330
1F
100
AcDbEntity
  8
Trimetric
  6
Continuous
 62
     7
370
    18
100
AcDbCircle
 10
25.61957740783692
 20
30.63638496398926
 30
0.0
 40
0.1140000075101852
100
AcDbArc
 50
180.0
 51
0.0
  0
ARC
  5
266
330
1F
100
AcDbEntity
  8
Trimetric
  6
Continuous
 62
     7
370
    18
100
AcDbCircle
 10
24.97957801818848
 20
30.0783863067627
 30
0.0
 40
0.1050000041723251
100
AcDbArc
 50
180.0
 51
270.0
  0
ARC
  5
267
330
1F
100
AcDbEntity
  8
Trimetric
  6
Continuous
 62
     7
370
    18
100
AcDbCircle
 10
24.97957801818848
 20
30.0783863067627
 30
0.0
 40
0.0300000011920929
100
AcDbArc
 50
180.0
 51
270.0
  0
SPLINE
  5
268
330
1F
100
AcDbEntity
  8
Trimetric
  6
Continuous
 62
     7
370
    18
100
AcDbSpline
210
0.0
220
0.0
230
1.0
 70
    24
 71
     1
 72
     6
 73
     4
 74
     0
 42
0.000000001
 43
0.0000000001
 40
0.0
 40
0.0
 40
0.3090122767857143
 40
0.8090122767857142
 40
1.0
 40
1.0
 10
35.41957768058001
 20
10.21998722663738
 30
0.0
 10
35.41957768058001
 20
10.18754093678922
 30
0.0
 10
35.41957768058001
 20
10.13504093551796
 30
0.0
 10
35.41957768058001
 20
10.11498722409487
 30
0.0
  0
SPLINE
  5
269
330
1F
100
AcDbEntity
  8
Trimetric
  6
Continuous
 62
     7
370
    18
100
AcDbSpline
210
0.0
220
0.0
230
1.0
 70
    24
 71
     1
 72
     6
 73
     4
 74
     0
 42
0.000000001
 43
0.0000000001
 40
0.0
 40
0.0
 40
0.3090122767857143
 40
0.8090122767857142
 40
1.0
 40
1.0
 10
24.97957742778181
 20
10.21998722663738
 30
0.0
 10
24.97957742778181
 20
10.18754093678922
 30
0.0
 10
24.97957742778181
 20
10.13504093551796
 30
0.0
 10
24.97957742778181
 20
10.11498722409487
 30
0.0
  0
SPLINE
  5
26A
330
1F
100
AcDbEntity
  8
Trimetric
  6
Continuous
 62
     7
370
    18
100
AcDbSpline
210
0.0
220
0.0
230
1.0
 70
    24
 71
     1
 72
     6
 73
     4
 74
     0
 42
0.000000001
 43
0.0000000001
 40
0.0
 40
0.0
 40
0.3090122767857143
 40
0.8090122767857142
 40
1.0
 40
1.0
 10
24.97957742778181
 20
10.21998722663738
 30
0.0
 10
24.94713113793364
 20
10.21998722663738
 30
0.0
 10
24.89463113666238
 20
10.21998722663738
 30
0.0
 10
24.87457742523929
 20
10.21998722663738
 30
0.0
  0
SPLINE
  5
26B
330
1F
100
AcDbEntity
  8
Trimetric
  6
Continuous
 62
     7
370
    18
100
AcDbSpline
210
0.0
220
0.0
230
1.0
 70
    24
 71
     1
 72
     6
 73
     4
 74
     0
 42
0.000000001
 43
0.0000000001
 40
0.0
 40
0.0
 40
0.3090122767857143
 40
0.8090122767857142
 40
1.0
 40
1.0
 10
24.97957742778181
 20
16.19598834790508
 30
0.0
 10
24.94713113793364
 20
16.19598834790508
 30
0.0
 10
24.89463113666238
 20
16.19598834790508
 30
0.0
 10
24.87457742523929
 20
16.19598834790508
 30
0.0
  0
SPLINE
  5
26C
330
1F
100
AcDbEntity
  8
Trimetric
  6
Continuous
 62
     7
370
    18
100
AcDbSpline
210
0.0
220
0.0
230
1.0
 70
    24
 71
     1
 72
     6
 73
     4
 74
     0
 42
0.000000001
 43
0.0000000001
 40
0.0
 40
0.0
 40
0.3090122767857143
 40
0.8090122767857142
 40
1.0
 40
1.0
 10
24.97957742778181
 20
16.19598834790508
 30
0.0
 10
24.97957742778181
 20
16.22843463775325
 30
0.0
 10
24.97957742778181
 20
16.28093463902451
 30
0.0
 10
24.97957742778181
 20
16.3009883504476
 30
0.0
  0
SPLINE
  5
26D
330
1F
100
AcDbEntity
  8
Trimetric
  6
Continuous
 62
     7
370
    18
100
AcDbSpline
210
0.0
220
0.0
230
1.0
 70
    24
 71
     1
 72
     6
 73
     4
 74
     0
 42
0.000000001
 43
0.0000000001
 40
0.0
 40
0.0
 40
0.3090122767857143
 40
0.8090122767857142
 40
1.0
 40
1.0
 10
35.41957768058001
 20
16.19598834790508
 30
0.0
 10
35.41957768058001
 20
16.22843463775325
 30
0.0
 10
35.41957768058001
 20
16.28093463902451
 30
0.0
 10
35.41957768058001
 20
16.3009883504476
 30
0.0
  0
SPLINE
  5
26E
330
1F
100
AcDbEntity
  8
Trimetric
  6
Continuous
 62
     7
370
    18
100
AcDbSpline
210
0.0
220
0.0
230
1.0
 70
    24
 71
     1
 72
     4
 73
     2
 74
     0
 42
0.000000001
 43
0.0000000001
 40
0.0
 40
0.0
 40
1.0
 40
1.0
 10
24.87457742523929
 20
15.4579870279515
 30
0.0
 10
24.87257709967003
 20
15.4579870279515
 30
0.0
  0
SPLINE
  5
26F
330
1F
100
AcDbEntity
  8
Trimetric
  6
Continuous
 62
     7
370
    18
100
AcDbSpline
210
0.0
220
0.0
230
1.0
 70
    24
 71
     1
 72
     4
 73
     2
 74
     0
 42
0.000000001
 43
0.0000000001
 40
0.0
 40
0.0
 40
1.0
 40
1.0
 10
24.87457742523929
 20
10.95798773278886
 30
0.0
 10
24.87257709967003
 20
10.95798773278886
 30
0.0
  0
SPLINE
  5
270
330
1F
100
AcDbEntity
  8
Trimetric
  6
Continuous
 62
   254
370
    18
100
AcDbSpline
210
0.0
220
0.0
230
1.0
 70
    24
 71
     1
 72
     6
 73
     4
 74
     0
 42
0.000000001
 43
0.0000000001
 40
0.0
 40
0.0
 40
0.5877861273678013
 40
0.8090175572254734
 40
1.0
 40
1.0
 10
37.07257902268975
 20
8.413987020145782
 30
0.0
 10
37.07257902268975
 20
8.469239300129515
 30
0.0
 10
37.07257902268975
 20
8.490035199070575
 30
0.0
 10
37.07257902268975
 20
8.507987673463617
 30
0.0
  0
SPLINE
  5
271
330
1F
100
AcDbEntity
  8
Trimetric
  6
Continuous
 62
   254
370
    18
100
AcDbSpline
210
0.0
220
0.0
230
1.0
 70
    24
 71
     1
 72
     6
 73
     4
 74
     0
 42
0.000000001
 43
0.0000000001
 40
0.0
 40
0.0
 40
0.5877861273678013
 40
0.8090175572254734
 40
1.0
 40
1.0
 10
25.09157775601466
 20
8.413987020145782
 30
0.0
 10
25.09157775601466
 20
8.469239300129515
 30
0.0
 10
25.09157775601466
 20
8.490035199070575
 30
0.0
 10
25.09157775601466
 20
8.507987673463617
 30
0.0
  0
SPLINE
  5
272
330
1F
100
AcDbEntity
  8
Trimetric
  6
Continuous
 62
   254
370
    18
100
AcDbSpline
210
0.0
220
0.0
230
1.0
 70
    24
 71
     1
 72
     6
 73
     4
 74
     0
 42
0.000000001
 43
0.0000000001
 40
0.0
 40
0.0
 40
0.3090159037980382
 40
0.8090180681690288
 40
1.0
 40
1.0
 10
37.07257902268975
 20
2.601987164242501
 30
0.0
 10
37.07257902268975
 20
2.572939718877677
 30
0.0
 10
37.07257902268975
 20
2.525939595669285
 30
0.0
 10
37.07257902268975
 20
2.507987324726769
 30
0.0
  0
SPLINE
  5
273
330
1F
100
AcDbEntity
  8
Trimetric
  6
Continuous
 62
   254
370
    18
100
AcDbSpline
210
0.0
220
0.0
230
1.0
 70
    24
 71
     1
 72
     6
 73
     4
 74
     0
 42
0.000000001
 43
0.0000000001
 40
0.0
 40
0.0
 40
0.3090159037980382
 40
0.8090180681690288
 40
1.0
 40
1.0
 10
25.09157775601466
 20
2.601987164242501
 30
0.0
 10
25.09157775601466
 20
2.572939718877677
 30
0.0
 10
25.09157775601466
 20
2.525939595669285
 30
0.0
 10
25.09157775601466
 20
2.507987324726769
 30
0.0
  0
SPLINE
  5
274
330
1F
100
AcDbEntity
  8
Trimetric
  6
Continuous
 62
   254
370
    18
100
AcDbSpline
210
0.0
220
0.0
230
1.0
 70
    24
 71
     1
 72
     6
 73
     4
 74
     0
 42
0.000000001
 43
0.0000000001
 40
0.0
 40
0.0
 40
0.0489489905461094
 40
0.4122138726321987
 40
1.0
 40
1.0
 10
24.99757710269682
 20
2.845487332899125
 30
0.0
 10
25.00217833978741
 20
2.845487332899125
 30
0.0
 10
25.03632547603093
 20
2.845487332899125
 30
0.0
 10
25.09157775601466
 20
2.845487332899125
 30
0.0
  0
SPLINE
  5
275
330
1F
100
AcDbEntity
  8
Trimetric
  6
Continuous
 62
   254
370
    18
100
AcDbSpline
210
0.0
220
0.0
230
1.0
 70
    24
 71
     1
 72
     6
 73
     4
 74
     0
 42
0.000000001
 43
0.0000000001
 40
0.0
 40
0.0
 40
0.3090175572254736
 40
0.8090175572254734
 40
1.0
 40
1.0
 10
25.09157775601466
 20
2.601987164242501
 30
0.0
 10
25.06252990374878
 20
2.601987164242501
 30
0.0
 10
25.01552957708987
 20
2.601987164242501
 30
0.0
 10
24.99757710269682
 20
2.601987164242501
 30
0.0
  0
SPLINE
  5
276
330
1F
100
AcDbEntity
  8
Trimetric
  6
Continuous
 62
   254
370
    18
100
AcDbSpline
210
0.0
220
0.0
230
1.0
 70
    24
 71
     1
 72
     6
 73
     4
 74
     0
 42
0.000000001
 43
0.0000000001
 40
0.0
 40
0.0
 40
0.5877861273678013
 40
0.8090175572254734
 40
1.0
 40
1.0
 10
25.09157775601466
 20
3.420487143371872
 30
0.0
 10
25.03632547603093
 20
3.420487143371872
 30
0.0
 10
25.01552957708987
 20
3.420487143371872
 30
0.0
 10
24.99757710269682
 20
3.420487143371872
 30
0.0
  0
SPLINE
  5
277
330
1F
100
AcDbEntity
  8
Trimetric
  6
Continuous
 62
   254
370
    18
100
AcDbSpline
210
0.0
220
0.0
230
1.0
 70
    24
 71
     1
 72
     6
 73
     4
 74
     0
 42
0.000000001
 43
0.0000000001
 40
0.0
 40
0.0
 40
0.0489489905461094
 40
0.4122138726321987
 40
1.0
 40
1.0
 10
24.99757710269682
 20
7.595487651367989
 30
0.0
 10
25.00217833978741
 20
7.595487651367989
 30
0.0
 10
25.03632547603093
 20
7.595487651367989
 30
0.0
 10
25.09157775601466
 20
7.595487651367989
 30
0.0
  0
SPLINE
  5
278
330
1F
100
AcDbEntity
  8
Trimetric
  6
Continuous
 62
   254
370
    18
100
AcDbSpline
210
0.0
220
0.0
230
1.0
 70
    24
 71
     1
 72
     6
 73
     4
 74
     0
 42
0.000000001
 43
0.0000000001
 40
0.0
 40
0.0
 40
0.3090175572254736
 40
0.8090175572254734
 40
1.0
 40
1.0
 10
25.09157775601466
 20
8.413987020145782
 30
0.0
 10
25.06252990374878
 20
8.413987020145782
 30
0.0
 10
25.01552957708987
 20
8.413987020145782
 30
0.0
 10
24.99757710269682
 20
8.413987020145782
 30
0.0
  0
SPLINE
  5
279
330
1F
100
AcDbEntity
  8
Trimetric
  6
Continuous
 62
   254
370
    18
100
AcDbSpline
210
0.0
220
0.0
230
1.0
 70
    24
 71
     1
 72
     6
 73
     4
 74
     0
 42
0.000000001
 43
0.0000000001
 40
0.0
 40
0.0
 40
0.3090175572254736
 40
0.8090175572254734
 40
1.0
 40
1.0
 10
25.09157775601466
 20
8.170487665291261
 30
0.0
 10
25.06252990374878
 20
8.170487665291261
 30
0.0
 10
25.01552957708987
 20
8.170487665291261
 30
0.0
 10
24.99757710269682
 20
8.170487665291261
 30
0.0
  0
SPLINE
  5
27A
330
1F
100
AcDbEntity
  8
Trimetric
  6
Continuous
 62
   254
370
    18
100
AcDbSpline
210
0.0
220
0.0
230
1.0
 70
    24
 71
     1
 72
     6
 73
     4
 74
     0
 42
0.000000001
 43
0.0000000001
 40
0.0
 40
0.0
 40
0.1909890566560465
 40
0.4122108325252805
 40
1.0
 40
1.0
 10
37.16657642079918
 20
8.343987018450775
 30
0.0
 10
37.14862394640614
 20
8.343987018450775
 30
0.0
 10
37.12782967506928
 20
8.343987018450775
 30
0.0
 10
37.07257902268975
 20
8.343987018450775
 30
0.0
  0
SPLINE
  5
27B
330
1F
100
AcDbEntity
  8
Trimetric
  6
Continuous
 62
   254
370
    18
100
AcDbSpline
210
0.0
220
0.0
230
1.0
 70
    24
 71
     1
 72
     6
 73
     4
 74
     0
 42
0.000000001
 43
0.0000000001
 40
0.0
 40
0.0
 40
0.1909890566560465
 40
0.4122108325252805
 40
1.0
 40
1.0
 10
37.16657642079918
 20
2.671987165937508
 30
0.0
 10
37.14862394640614
 20
2.671987165937508
 30
0.0
 10
37.12782967506928
 20
2.671987165937508
 30
0.0
 10
37.07257902268975
 20
2.671987165937508
 30
0.0
  0
SPLINE
  5
27C
330
1F
100
AcDbEntity
  8
Trimetric
  6
Continuous
 62
     7
370
    18
100
AcDbSpline
210
0.0
220
0.0
230
1.0
 70
    24
 71
     1
 72
     6
 73
     4
 74
     0
 42
0.000000001
 43
0.0000000001
 40
0.0
 40
0.0
 40
0.0489443824404762
 40
0.4122178819444445
 40
1.0
 40
1.0
 10
9.74283389477091
 20
10.11498722409487
 30
0.0
 10
9.74283389477091
 20
10.12012638437556
 30
0.0
 10
9.74283389477091
 20
10.15827010274711
 30
0.0
 10
9.74283389477091
 20
10.21998722663738
 30
0.0
  0
SPLINE
  5
27D
330
1F
100
AcDbEntity
  8
Trimetric
  6
Continuous
 62
     7
370
    18
100
AcDbSpline
210
0.0
220
0.0
230
1.0
 70
    24
 71
     1
 72
     6
 73
     4
 74
     0
 42
0.000000001
 43
0.0000000001
 40
0.0
 40
0.0
 40
0.0489443824404762
 40
0.4122178819444445
 40
1.0
 40
1.0
 10
10.71783391837993
 20
10.11498722409487
 30
0.0
 10
10.71783391837993
 20
10.12012638437556
 30
0.0
 10
10.71783391837993
 20
10.15827010274711
 30
0.0
 10
10.71783391837993
 20
10.21998722663738
 30
0.0
  0
SPLINE
  5
27E
330
1F
100
AcDbEntity
  8
Trimetric
  6
Continuous
 62
     7
370
    18
100
AcDbSpline
210
0.0
220
0.0
230
1.0
 70
    24
 71
     1
 72
     6
 73
     4
 74
     0
 42
0.000000001
 43
0.0000000001
 40
0.0
 40
0.0
 40
0.0489521329365079
 40
0.4122178819444445
 40
1.0
 40
1.0
 10
10.71783391837993
 20
16.3009883504476
 30
0.0
 10
10.71783391837993
 20
16.2958483763648
 30
0.0
 10
10.71783391837993
 20
16.25770547179536
 30
0.0
 10
10.71783391837993
 20
16.19598834790508
 30
0.0
  0
SPLINE
  5
27F
330
1F
100
AcDbEntity
  8
Trimetric
  6
Continuous
 62
     7
370
    18
100
AcDbSpline
210
0.0
220
0.0
230
1.0
 70
    24
 71
     1
 72
     6
 73
     4
 74
     0
 42
0.000000001
 43
0.0000000001
 40
0.0
 40
0.0
 40
0.0489521329365079
 40
0.4122178819444445
 40
1.0
 40
1.0
 10
9.74283389477091
 20
16.3009883504476
 30
0.0
 10
9.74283389477091
 20
16.2958483763648
 30
0.0
 10
9.74283389477091
 20
16.25770547179536
 30
0.0
 10
9.74283389477091
 20
16.19598834790508
 30
0.0
  0
SPLINE
  5
280
330
1F
100
AcDbEntity
  8
Trimetric
  6
Continuous
 62
     7
370
    18
100
AcDbSpline
210
0.0
220
0.0
230
1.0
 70
    24
 71
     1
 72
     6
 73
     4
 74
     0
 42
0.000000001
 43
0.0000000001
 40
0.0
 40
0.0
 40
0.0761125626418812
 40
0.6173170000428322
 40
1.0
 40
1.0
 10
9.74283389477091
 20
10.95798773278886
 30
0.0
 10
9.748618400119312
 20
10.95798773278886
 30
0.0
 10
9.789749586011112
 20
10.95798773278886
 30
0.0
 10
9.818833245569521
 20
10.95798773278886
 30
0.0
  0
SPLINE
  5
281
330
1F
100
AcDbEntity
  8
Trimetric
  6
Continuous
 62
     7
370
    18
100
AcDbSpline
210
0.0
220
0.0
230
1.0
 70
    24
 71
     1
 72
     6
 73
     4
 74
     0
 42
0.000000001
 43
0.0000000001
 40
0.0
 40
0.0
 40
0.0761125626418812
 40
0.6173170000428322
 40
1.0
 40
1.0
 10
9.74283389477091
 20
15.4579870279515
 30
0.0
 10
9.748618400119312
 20
15.4579870279515
 30
0.0
 10
9.789749586011112
 20
15.4579870279515
 30
0.0
 10
9.818833245569521
 20
15.4579870279515
 30
0.0
  0
SPLINE
  5
282
330
1F
100
AcDbEntity
  8
Trimetric
  6
Continuous
 62
     7
370
    18
100
AcDbSpline
210
0.0
220
0.0
230
1.0
 70
    24
 71
     1
 72
     6
 73
     4
 74
     0
 42
0.000000001
 43
0.0000000001
 40
0.0
 40
0.0
 40
0.0489443824404762
 40
0.4122178819444445
 40
1.0
 40
1.0
 10
10.94783392394925
 20
10.21998722663738
 30
0.0
 10
10.94269476366855
 20
10.21998722663738
 30
0.0
 10
10.90455104529701
 20
10.21998722663738
 30
0.0
 10
10.84283392140673
 20
10.21998722663738
 30
0.0
  0
SPLINE
  5
283
330
1F
100
AcDbEntity
  8
Trimetric
  6
Continuous
 62
     7
370
    18
100
AcDbSpline
210
0.0
220
0.0
230
1.0
 70
    24
 71
     1
 72
     6
 73
     4
 74
     0
 42
0.000000001
 43
0.0000000001
 40
0.0
 40
0.0
 40
0.0489443824404762
 40
0.4122178819444445
 40
1.0
 40
1.0
 10
10.94783392394925
 20
16.19598834790508
 30
0.0
 10
10.94269476366855
 20
16.19598834790508
 30
0.0
 10
10.90455104529701
 20
16.19598834790508
 30
0.0
 10
10.84283392140673
 20
16.19598834790508
 30
0.0
  0
SPLINE
  5
284
330
1F
100
AcDbEntity
  8
Trimetric
  6
Continuous
 62
   254
370
    18
100
AcDbSpline
210
0.0
220
0.0
230
1.0
 70
    24
 71
     1
 72
     6
 73
     4
 74
     0
 42
0.000000001
 43
0.0000000001
 40
0.0
 40
0.0
 40
0.048940756837248
 40
0.4122087838832279
 40
1.0
 40
1.0
 10
11.02383327474786
 20
2.601987164242501
 30
0.0
 10
11.01923285145938
 20
2.601987164242501
 30
0.0
 10
10.98508571521586
 20
2.601987164242501
 30
0.0
 10
10.92983343523212
 20
2.601987164242501
 30
0.0
  0
SPLINE
  5
285
330
1F
100
AcDbEntity
  8
Trimetric
  6
Continuous
 62
   254
370
    18
100
AcDbSpline
210
0.0
220
0.0
230
1.0
 70
    24
 71
     1
 72
     6
 73
     4
 74
     0
 42
0.000000001
 43
0.0000000001
 40
0.0
 40
0.0
 40
0.3090202325400192
 40
0.8090159037980381
 40
1.0
 40
1.0
 10
10.92983343523212
 20
2.845487332899125
 30
0.0
 10
10.958881287498
 20
2.845487332899125
 30
0.0
 10
11.00588080035481
 20
2.845487332899125
 30
0.0
 10
11.02383327474786
 20
2.845487332899125
 30
0.0
  0
SPLINE
  5
286
330
1F
100
AcDbEntity
  8
Trimetric
  6
Continuous
 62
   254
370
    18
100
AcDbSpline
210
0.0
220
0.0
230
1.0
 70
    24
 71
     1
 72
     6
 73
     4
 74
     0
 42
0.000000001
 43
0.0000000001
 40
0.0
 40
0.0
 40
0.048940756837248
 40
0.4122087838832279
 40
1.0
 40
1.0
 10
11.02383327474786
 20
3.420487143371872
 30
0.0
 10
11.01923285145938
 20
3.420487143371872
 30
0.0
 10
10.98508571521586
 20
3.420487143371872
 30
0.0
 10
10.92983343523212
 20
3.420487143371872
 30
0.0
  0
SPLINE
  5
287
330
1F
100
AcDbEntity
  8
Trimetric
  6
Continuous
 62
   254
370
    18
100
AcDbSpline
210
0.0
220
0.0
230
1.0
 70
    24
 71
     1
 72
     6
 73
     4
 74
     0
 42
0.000000001
 43
0.0000000001
 40
0.0
 40
0.0
 40
0.3090202325400192
 40
0.8090159037980381
 40
1.0
 40
1.0
 10
10.92983343523212
 20
7.595487651367989
 30
0.0
 10
10.958881287498
 20
7.595487651367989
 30
0.0
 10
11.00588080035481
 20
7.595487651367989
 30
0.0
 10
11.02383327474786
 20
7.595487651367989
 30
0.0
  0
SPLINE
  5
288
330
1F
100
AcDbEntity
  8
Trimetric
  6
Continuous
 62
   254
370
    18
100
AcDbSpline
210
0.0
220
0.0
230
1.0
 70
    24
 71
     1
 72
     6
 73
     4
 74
     0
 42
0.000000001
 43
0.0000000001
 40
0.0
 40
0.0
 40
0.048940756837248
 40
0.4122087838832279
 40
1.0
 40
1.0
 10
11.02383327474786
 20
8.413987020145782
 30
0.0
 10
11.01923285145938
 20
8.413987020145782
 30
0.0
 10
10.98508571521586
 20
8.413987020145782
 30
0.0
 10
10.92983343523212
 20
8.413987020145782
 30
0.0
  0
SPLINE
  5
289
330
1F
100
AcDbEntity
  8
Trimetric
  6
Continuous
 62
   254
370
    18
100
AcDbSpline
210
0.0
220
0.0
230
1.0
 70
    24
 71
     1
 72
     6
 73
     4
 74
     0
 42
0.000000001
 43
0.0000000001
 40
0.0
 40
0.0
 40
0.048940756837248
 40
0.4122087838832279
 40
1.0
 40
1.0
 10
11.02383327474786
 20
8.170487665291261
 30
0.0
 10
11.01923285145938
 20
8.170487665291261
 30
0.0
 10
10.98508571521586
 20
8.170487665291261
 30
0.0
 10
10.92983343523212
 20
8.170487665291261
 30
0.0
  0
SPLINE
  5
28A
330
1F
100
AcDbEntity
  8
Trimetric
  6
Continuous
 62
   254
370
    18
100
AcDbSpline
210
0.0
220
0.0
230
1.0
 70
    24
 71
     1
 72
     7
 73
     5
 74
     0
 42
0.000000001
 43
0.0000000001
 40
0.0
 40
0.0
 40
0.2588203625801282
 40
0.7071063701923077
 40
0.8660293970352563
 40
1.0
 40
1.0
 10
9.987833900703435
 20
8.443987020872214
 30
0.0
 10
9.954187252753285
 20
8.443987020872214
 30
0.0
 10
9.895910070352556
 20
8.443987020872214
 30
0.0
 10
9.875250076362704
 20
8.443987020872214
 30
0.0
 10
9.857833897555565
 20
8.443987020872214
 30
0.0
  0
SPLINE
  5
28B
330
1F
100
AcDbEntity
  8
Trimetric
  6
Continuous
 62
   254
370
    18
100
AcDbSpline
210
0.0
220
0.0
230
1.0
 70
    24
 71
     1
 72
     7
 73
     5
 74
     0
 42
0.000000001
 43
0.0000000001
 40
0.0
 40
0.0
 40
0.0340732672275641
 40
0.2928936298076923
 40
0.7411796374198718
 40
1.0
 40
1.0
 10
9.857833897555565
 20
8.507987673463617
 30
0.0
 10
9.862263422402406
 20
8.507987673463617
 30
0.0
 10
9.895910070352556
 20
8.507987673463617
 30
0.0
 10
9.954187252753285
 20
8.507987673463617
 30
0.0
 10
9.987833900703435
 20
8.507987673463617
 30
0.0
  0
SPLINE
  5
28C
330
1F
100
AcDbEntity
  8
Trimetric
  6
Continuous
 62
   254
370
    18
100
AcDbSpline
210
0.0
220
0.0
230
1.0
 70
    24
 71
     1
 72
     7
 73
     5
 74
     0
 42
0.000000001
 43
0.0000000001
 40
0.0
 40
0.0
 40
0.0340732672275641
 40
0.2928936298076923
 40
0.7411796374198718
 40
1.0
 40
1.0
 10
9.857833897555565
 20
2.57198716351607
 30
0.0
 10
9.862263422402406
 20
2.57198716351607
 30
0.0
 10
9.895910070352556
 20
2.57198716351607
 30
0.0
 10
9.954187252753285
 20
2.57198716351607
 30
0.0
 10
9.987833900703435
 20
2.57198716351607
 30
0.0
  0
SPLINE
  5
28D
330
1F
100
AcDbEntity
  8
Trimetric
  6
Continuous
 62
   254
370
    18
100
AcDbSpline
210
0.0
220
0.0
230
1.0
 70
    24
 71
     1
 72
     7
 73
     5
 74
     0
 42
0.000000001
 43
0.0000000001
 40
0.0
 40
0.0
 40
0.2588203625801282
 40
0.7071063701923077
 40
0.8660293970352563
 40
1.0
 40
1.0
 10
9.987833900703435
 20
2.507987324726769
 30
0.0
 10
9.954187252753285
 20
2.507987324726769
 30
0.0
 10
9.895910070352556
 20
2.507987324726769
 30
0.0
 10
9.875250076362704
 20
2.507987324726769
 30
0.0
 10
9.857833897555565
 20
2.507987324726769
 30
0.0
  0
SPLINE
  5
28E
330
1F
100
AcDbEntity
  8
Trimetric
  6
Continuous
 62
   254
370
    18
100
AcDbSpline
210
0.0
220
0.0
230
1.0
 70
    24
 71
     1
 72
    14
 73
    12
 74
     0
 42
0.000000001
 43
0.0000000001
 40
0.0
 40
0.0
 40
0.030153500818579
 40
0.0669872576240014
 40
0.1786062679058636
 40
0.3289898695757861
 40
0.500000176913559
 40
0.671010130424214
 40
0.7500002653703385
 40
0.8830222780168273
 40
0.9330127423759986
 40
0.9924040394319092
 40
1.0
 40
1.0
 10
10.95983343595856
 20
2.845487332899125
 30
0.0
 10
10.95983343595856
 20
2.862825590154898
 30
0.0
 10
10.95983343595856
 20
2.884004993337015
 30
0.0
 10
10.95983343595856
 20
2.948185903094241
 30
0.0
 10
10.95983343595856
 20
3.034656445552656
 30
0.0
 10
10.95983343595856
 20
3.132987339860761
 30
0.0
 10
10.95983343595856
 20
3.231318030718341
 30
0.0
 10
10.95983343595856
 20
3.276737343341579
 30
0.0
 10
10.95983343595856
 20
3.353224975402014
 30
0.0
 10
10.95983343595856
 20
3.381969482933982
 30
0.0
 10
10.95983343595856
 20
3.416119467484861
 30
0.0
 10
10.95983343595856
 20
3.420487143371872
 30
0.0
  0
SPLINE
  5
28F
330
1F
100
AcDbEntity
  8
Trimetric
  6
Continuous
 62
   254
370
    18
100
AcDbSpline
210
0.0
220
0.0
230
1.0
 70
    24
 71
     1
 72
    14
 73
    12
 74
     0
 42
0.000000001
 43
0.0000000001
 40
0.0
 40
0.0
 40
0.030153500818579
 40
0.0669872576240014
 40
0.1786059140787457
 40
0.3289898695757861
 40
0.4131759557489654
 40
0.5868240442510347
 40
0.671010130424214
 40
0.8213937320941365
 40
0.9330127423759986
 40
0.9924040394319092
 40
1.0
 40
1.0
 10
11.02383327474786
 20
3.420487143371872
 30
0.0
 10
11.02383327474786
 20
3.403148886116099
 30
0.0
 10
11.02383327474786
 20
3.381969482933982
 30
0.0
 10
11.02383327474786
 20
3.317788776627281
 30
0.0
 10
11.02383327474786
 20
3.231318030718341
 30
0.0
 10
11.02383327474786
 20
3.182911047124321
 30
0.0
 10
11.02383327474786
 20
3.083063429146676
 30
0.0
 10
11.02383327474786
 20
3.034656445552656
 30
0.0
 10
11.02383327474786
 20
2.948185903094241
 30
0.0
 10
11.02383327474786
 20
2.884004993337015
 30
0.0
 10
11.02383327474786
 20
2.849855008786136
 30
0.0
 10
11.02383327474786
 20
2.845487332899125
 30
0.0
  0
SPLINE
  5
290
330
1F
100
AcDbEntity
  8
Trimetric
  6
Continuous
 62
   254
370
    18
100
AcDbSpline
210
0.0
220
0.0
230
1.0
 70
    24
 71
     1
 72
    14
 73
    12
 74
     0
 42
0.000000001
 43
0.0000000001
 40
0.0
 40
0.0
 40
0.0075959578804348
 40
0.066986526268116
 40
0.1786062047101449
 40
0.25
 40
0.413175101902174
 40
0.5868234827898551
 40
0.75
 40
0.8830219655797101
 40
0.9330120584239129
 40
0.9924040421195652
 40
1.0
 40
1.0
 10
10.95983343595856
 20
7.595487651367989
 30
0.0
 10
10.95983343595856
 20
7.599855327254999
 30
0.0
 10
10.95983343595856
 20
7.634004904904827
 30
0.0
 10
10.95983343595856
 20
7.698186221563105
 30
0.0
 10
10.95983343595856
 20
7.739237654848807
 30
0.0
 10
10.95983343595856
 20
7.833063340714488
 30
0.0
 10
10.95983343595856
 20
7.932911162142659
 30
0.0
 10
10.95983343595856
 20
8.026737661810443
 30
0.0
 10
10.95983343595856
 20
8.103225293870877
 30
0.0
 10
10.95983343595856
 20
8.13196959795232
 30
0.0
 10
10.95983343595856
 20
8.166119989404251
 30
0.0
 10
10.95983343595856
 20
8.170487665291261
 30
0.0
  0
SPLINE
  5
291
330
1F
100
AcDbEntity
  8
Trimetric
  6
Continuous
 62
   254
370
    18
100
AcDbSpline
210
0.0
220
0.0
230
1.0
 70
    24
 71
     1
 72
    13
 73
    11
 74
     0
 42
0.000000001
 43
0.0000000001
 40
0.0
 40
0.0
 40
0.0301545516304348
 40
0.1169780344202898
 40
0.25
 40
0.413176517210145
 40
0.5868248980978262
 40
0.6710102468297102
 40
0.821393795289855
 40
0.8830233808876812
 40
0.9698468636775363
 40
1.0
 40
1.0
 10
11.02383327474786
 20
8.170487665291261
 30
0.0
 10
11.02383327474786
 20
8.153148797683911
 30
0.0
 10
11.02383327474786
 20
8.103225293870877
 30
0.0
 10
11.02383327474786
 20
8.026737661810443
 30
0.0
 10
11.02383327474786
 20
7.932911162142659
 30
0.0
 10
11.02383327474786
 20
7.833063340714488
 30
0.0
 10
11.02383327474786
 20
7.784656764021519
 30
0.0
 10
11.02383327474786
 20
7.698186221563105
 30
0.0
 10
11.02383327474786
 20
7.662749208986269
 30
0.0
 10
11.02383327474786
 20
7.612825705173236
 30
0.0
 10
11.02383327474786
 20
7.595487651367989
 30
0.0
  0
SPLINE
  5
292
330
1F
100
AcDbEntity
  8
Trimetric
  6
Continuous
 62
   254
370
    18
100
AcDbSpline
210
0.0
220
0.0
230
1.0
 70
    24
 71
     1
 72
     4
 73
     2
 74
     0
 42
0.000000001
 43
0.0000000001
 40
0.0
 40
0.0
 40
1.0
 40
1.0
 10
9.857833897555565
 20
2.661986758794313
 30
0.0
 10
9.857833897555565
 20
2.641987165211077
 30
0.0
  0
SPLINE
  5
293
330
1F
100
AcDbEntity
  8
Trimetric
  6
Continuous
 62
   254
370
    18
100
AcDbSpline
210
0.0
220
0.0
230
1.0
 70
    24
 71
     1
 72
     4
 73
     2
 74
     0
 42
0.000000001
 43
0.0000000001
 40
0.0
 40
0.0
 40
1.0
 40
1.0
 10
9.857833897555565
 20
8.353987832495022
 30
0.0
 10
9.857833897555565
 20
8.373987019177207
 30
0.0
  0
SPLINE
  5
294
330
1F
100
AcDbEntity
  8
Trimetric
  6
Continuous
 62
   254
370
    18
100
AcDbSpline
210
0.0
220
0.0
230
1.0
 70
    24
 71
     1
 72
     6
 73
     4
 74
     0
 42
0.000000001
 43
0.0000000001
 40
0.0
 40
0.0
 40
0.0489489905461094
 40
0.4122138726321987
 40
1.0
 40
1.0
 10
25.09157775601466
 20
25.2060390218071
 30
0.0
 10
25.09157775601466
 20
25.21064025889768
 30
0.0
 10
25.09157775601466
 20
25.2447873951412
 30
0.0
 10
25.09157775601466
 20
25.30003967512494
 30
0.0
  0
SPLINE
  5
295
330
1F
100
AcDbEntity
  8
Trimetric
  6
Continuous
 62
   254
370
    18
100
AcDbSpline
210
0.0
220
0.0
230
1.0
 70
    24
 71
     1
 72
     6
 73
     4
 74
     0
 42
0.000000001
 43
0.0000000001
 40
0.0
 40
0.0
 40
0.0489489905461094
 40
0.4122138726321987
 40
1.0
 40
1.0
 10
37.07257902268975
 20
25.2060390218071
 30
0.0
 10
37.07257902268975
 20
25.21064025889768
 30
0.0
 10
37.07257902268975
 20
25.2447873951412
 30
0.0
 10
37.07257902268975
 20
25.30003967512494
 30
0.0
  0
SPLINE
  5
296
330
1F
100
AcDbEntity
  8
Trimetric
  6
Continuous
 62
   254
370
    18
100
AcDbSpline
210
0.0
220
0.0
230
1.0
 70
    24
 71
     1
 72
     6
 73
     4
 74
     0
 42
0.000000001
 43
0.0000000001
 40
0.0
 40
0.0
 40
0.1909890566560465
 40
0.4122108325252805
 40
1.0
 40
1.0
 10
37.16657642079918
 20
26.37203839899939
 30
0.0
 10
37.14862394640614
 20
26.37203839899939
 30
0.0
 10
37.12782967506928
 20
26.37203839899939
 30
0.0
 10
37.07257902268975
 20
26.37203839899939
 30
0.0
  0
SPLINE
  5
297
330
1F
100
AcDbEntity
  8
Trimetric
  6
Continuous
 62
   254
370
    18
100
AcDbSpline
210
0.0
220
0.0
230
1.0
 70
    24
 71
     1
 72
     6
 73
     4
 74
     0
 42
0.000000001
 43
0.0000000001
 40
0.0
 40
0.0
 40
0.1909890566560465
 40
0.4122108325252805
 40
1.0
 40
1.0
 10
37.16657642079918
 20
25.30003967512494
 30
0.0
 10
37.14862394640614
 20
25.30003967512494
 30
0.0
 10
37.12782967506928
 20
25.30003967512494
 30
0.0
 10
37.07257902268975
 20
25.30003967512494
 30
0.0
  0
SPLINE
  5
298
330
1F
100
AcDbEntity
  8
Trimetric
  6
Continuous
 62
   254
370
    18
100
AcDbSpline
210
0.0
220
0.0
230
1.0
 70
    24
 71
     1
 72
     6
 73
     4
 74
     0
 42
0.000000001
 43
0.0000000001
 40
0.0
 40
0.0
 40
0.3827039930555556
 40
0.9238823784722221
 40
1.0
 40
1.0
 10
24.99757710269682
 20
26.31203839754653
 30
0.0
 10
24.99757710269682
 20
26.33500063768588
 30
0.0
 10
24.99757710269682
 20
26.36747134159714
 30
0.0
 10
24.99757710269682
 20
26.37203839899939
 30
0.0
  0
SPLINE
  5
299
330
1F
100
AcDbEntity
  8
Trimetric
  6
Continuous
 62
   254
370
    18
100
AcDbSpline
210
0.0
220
0.0
230
1.0
 70
    24
 71
     1
 72
     6
 73
     4
 74
     0
 42
0.000000001
 43
0.0000000001
 40
0.0
 40
0.0
 40
0.0761176215277778
 40
0.6172960069444445
 40
1.0
 40
1.0
 10
25.06157775528823
 20
26.37203839899939
 30
0.0
 10
25.06157775528823
 20
26.36747134159714
 30
0.0
 10
25.06157775528823
 20
26.33500063768588
 30
0.0
 10
25.06157775528823
 20
26.31203839754653
 30
0.0
  0
SPLINE
  5
29A
330
1F
100
AcDbEntity
  8
Trimetric
  6
Continuous
 62
     7
370
    18
100
AcDbSpline
210
0.0
220
0.0
230
1.0
 70
    24
 71
     1
 72
     6
 73
     4
 74
     0
 42
0.000000001
 43
0.0000000001
 40
0.0
 40
0.0
 40
0.3090122767857143
 40
0.8090122767857142
 40
1.0
 40
1.0
 10
24.89957742584465
 20
30.20338614802313
 30
0.0
 10
24.86713113599649
 20
30.20338614802313
 30
0.0
 10
24.81463113472524
 20
30.20338614802313
 30
0.0
 10
24.79457742330215
 20
30.20338614802313
 30
0.0
  0
SPLINE
  5
29B
330
1F
100
AcDbEntity
  8
Trimetric
  6
Continuous
 62
     7
370
    18
100
AcDbSpline
210
0.0
220
0.0
230
1.0
 70
    24
 71
     1
 72
     6
 73
     4
 74
     0
 42
0.000000001
 43
0.0000000001
 40
0.0
 40
0.0
 40
0.3090122767857143
 40
0.8090122767857142
 40
1.0
 40
1.0
 10
24.89957742584465
 20
31.17838617163215
 30
0.0
 10
24.86713113599649
 20
31.17838617163215
 30
0.0
 10
24.81463113472524
 20
31.17838617163215
 30
0.0
 10
24.79457742330215
 20
31.17838617163215
 30
0.0
  0
SPLINE
  5
29C
330
1F
100
AcDbEntity
  8
Trimetric
  6
Continuous
 62
     7
370
    18
100
AcDbSpline
210
0.0
220
0.0
230
1.0
 70
    24
 71
     1
 72
     6
 73
     4
 74
     0
 42
0.000000001
 43
0.0000000001
 40
0.0
 40
0.0
 40
0.048921130952381
 40
0.412202380952381
 40
1.0
 40
1.0
 10
24.97957742778181
 20
29.97338614245382
 30
0.0
 10
24.97957742778181
 20
29.9785228613282
 30
0.0
 10
24.97957742778181
 20
30.01666739350185
 30
0.0
 10
24.97957742778181
 20
30.07838614499633
 30
0.0
  0
SPLINE
  5
29D
330
1F
100
AcDbEntity
  8
Trimetric
  6
Continuous
 62
     7
370
    18
100
AcDbSpline
210
0.0
220
0.0
230
1.0
 70
    24
 71
     1
 72
     6
 73
     4
 74
     0
 42
0.000000001
 43
0.0000000001
 40
0.0
 40
0.0
 40
0.048921130952381
 40
0.412202380952381
 40
1.0
 40
1.0
 10
35.41957768058001
 20
29.97338614245382
 30
0.0
 10
35.41957768058001
 20
29.9785228613282
 30
0.0
 10
35.41957768058001
 20
30.01666739350185
 30
0.0
 10
35.41957768058001
 20
30.07838614499633
 30
0.0
  0
ENDSEC
  0
SECTION
  2
OBJECTS
  0
DICTIONARY
  5
C
330
0
100
AcDbDictionary
281
     1
  3
ACAD_BACKGROUND
350
314
  3
ACAD_CIP_PREVIOUS_PRODUCT_INFO
350
313
  3
ACAD_COLOR
350
30D
  3
ACAD_DETAILVIEWSTYLE
350
30A
  3
ACAD_GROUP
350
D
  3
ACAD_LAYOUT
350
1A
  3
ACAD_MATERIAL
350
43
  3
ACAD_MLEADERSTYLE
350
6B
  3
ACAD_MLINESTYLE
350
17
  3
ACAD_PLOTSETTINGS
350
19
  3
ACAD_PLOTSTYLENAME
350
E
  3
ACAD_SCALELIST
350
47
  3
ACAD_SECTIONVIEWSTYLE
350
30B
  3
ACAD_TABLESTYLE
350
69
  3
ACAD_VISUALSTYLE
350
2A
  3
ACDB_RECOMPOSE_DATA
350
3A9
  3
AcDbVariableDictionary
350
2C7
  3
AcDsDecomposeData
350
3AF
  0
DICTIONARY
  5
2C5
330
8
100
AcDbDictionary
280
     1
281
     1
  0
DICTIONARY
  5
339
330
2
100
AcDbDictionary
280
     1
281
     1
  3
ACAD_LAYERSTATES
360
33A
  0
DICTIONARY
  5
332
330
10
100
AcDbDictionary
280
     1
281
     1
  3
ADSK_XREC_LAYER_RECONCILED
360
333
  0
DICTIONARY
  5
334
330
74
100
AcDbDictionary
280
     1
281
     1
  3
ADSK_XREC_LAYER_RECONCILED
360
335
  0
DICTIONARY
  5
314
102
{ACAD_REACTORS
330
C
102
}
330
C
100
AcDbDictionary
281
     1
  0
XRECORD
  5
313
102
{ACAD_REACTORS
330
C
102
}
330
C
100
AcDbXrecord
280
     1
300
ACD
300
2016
300
86445ACD_2016_0F
  0
DICTIONARY
  5
30D
102
{ACAD_REACTORS
330
C
102
}
330
C
100
AcDbDictionary
281
     1
  0
DICTIONARY
  5
30A
102
{ACAD_REACTORS
330
C
102
}
330
C
100
AcDbDictionary
281
     1
  3
Imperial24
350
30F
  0
DICTIONARY
  5
D
102
{ACAD_REACTORS
330
C
102
}
330
C
100
AcDbDictionary
281
     1
  0
DICTIONARY
  5
1A
102
{ACAD_REACTORS
330
C
102
}
330
C
100
AcDbDictionary
281
     1
  3
Layout1
350
1E
  3
Layout2
350
26
  3
Model
350
22
  0
DICTIONARY
  5
43
102
{ACAD_REACTORS
330
C
102
}
330
C
100
AcDbDictionary
281
     1
  3
ByBlock
350
45
  3
ByLayer
350
44
  3
Global
350
46
  0
DICTIONARY
  5
6B
102
{ACAD_REACTORS
330
C
102
}
330
C
100
AcDbDictionary
281
     1
  3
Standard
350
6C
  0
DICTIONARY
  5
17
102
{ACAD_REACTORS
330
C
102
}
330
C
100
AcDbDictionary
281
     1
  3
Standard
350
18
  0
DICTIONARY
  5
19
102
{ACAD_REACTORS
330
C
102
}
330
C
100
AcDbDictionary
281
     1
  0
ACDBDICTIONARYWDFLT
  5
E
102
{ACAD_REACTORS
330
C
102
}
330
C
100
AcDbDictionary
281
     1
  3
Normal
350
F
100
AcDbDictionaryWithDefault
340
F
  0
DICTIONARY
  5
47
102
{ACAD_REACTORS
330
C
102
}
330
C
100
AcDbDictionary
281
     1
  3
A0
350
48
  3
A1
350
49
  3
A2
350
4A
  3
A3
350
4B
  3
A4
350
4C
  3
A5
350
4D
  3
A6
350
4E
  3
A7
350
4F
  3
A8
350
50
  3
A9
350
51
  3
B0
350
52
  3
B1
350
53
  3
B2
350
54
  3
B3
350
55
  3
B4
350
56
  3
B5
350
57
  3
B6
350
58
  3
B7
350
59
  3
B8
350
5A
  3
B9
350
5B
  3
C0
350
5C
  3
C1
350
5D
  3
C2
350
5E
  3
C3
350
5F
  3
C4
350
60
  3
C5
350
61
  3
C6
350
62
  3
C7
350
63
  3
C8
350
64
  3
C9
350
65
  3
D0
350
66
  3
D1
350
67
  3
D2
350
68
  0
DICTIONARY
  5
30B
102
{ACAD_REACTORS
330
C
102
}
330
C
100
AcDbDictionary
281
     1
  3
Imperial24
350
30E
  0
DICTIONARY
  5
69
102
{ACAD_REACTORS
330
C
102
}
330
C
100
AcDbDictionary
281
     1
  3
Standard
350
6A
  0
DICTIONARY
  5
2A
102
{ACAD_REACTORS
330
C
102
}
330
C
100
AcDbDictionary
281
     1
  3
2dWireframe
350
2F
  3
Basic
350
32
  3
Brighten
350
36
  3
ColorChange
350
3A
  3
Conceptual
350
34
  3
Dim
350
35
  3
EdgeColorOff
350
3D
  3
Facepattern
350
39
  3
Flat
350
2B
  3
FlatWithEdges
350
2C
  3
Gouraud
350
2D
  3
GouraudWithEdges
350
2E
  3
Hidden
350
31
  3
JitterOff
350
3B
  3
Linepattern
350
38
  3
OverhangOff
350
3C
  3
Realistic
350
33
  3
Shaded
350
42
  3
Shaded with edges
350
41
  3
Shades of Gray
350
3E
  3
Sketchy
350
3F
  3
Thicken
350
37
  3
Wireframe
350
30
  3
X-Ray
350
40
  0
XRECORD
  5
3A9
102
{ACAD_REACTORS
330
C
102
}
330
C
100
AcDbXrecord
280
     1
 90
        1
330
6A
  0
DICTIONARY
  5
2C7
102
{ACAD_REACTORS
330
C
102
}
330
C
100
AcDbDictionary
281
     1
  3
CANNOSCALE
350
2C8
  3
CMLEADERSTYLE
350
309
  3
CTABLESTYLE
350
308
  3
CVIEWDETAILSTYLE
350
3A5
  3
CVIEWSECTIONSTYLE
350
3A6
  3
MSLTSCALE
350
2C9
  3
XCLIPFRAME
350
3A7
  0
DICTIONARY
  5
3AF
102
{ACAD_REACTORS
330
C
102
}
330
C
100
AcDbDictionary
281
     1
  3
AcDsRecords
350
3B1
  3
AcDsSchemas
350
3B0
1001
ACAD
1070
     2
  0
DICTIONARY
  5
33A
102
{ACAD_REACTORS
330
339
102
}
330
339
100
AcDbDictionary
281
     1
  0
XRECORD
  5
333
102
{ACAD_REACTORS
330
332
102
}
330
332
100
AcDbXrecord
280
     1
290
     1
  0
XRECORD
  5
335
102
{ACAD_REACTORS
330
334
102
}
330
334
100
AcDbXrecord
280
     1
290
     1
  0
ACDBDETAILVIEWSTYLE
  5
30F
102
{ACAD_XDICTIONARY
360
3EB
102
}
102
{ACAD_REACTORS
330
30A
102
}
330
30A
100
AcDbModelDocViewStyle
 70
     0
  3
Imperial24
290
     0
100
AcDbDetailViewStyle
 70
     0
 71
     0
 90
        3
 71
     1
340
11
 62
   256
 40
0.24
340
0
 62
   256
 40
0.24
300

 40
0.36
280
     3
 71
     2
340
16
 90
       25
 62
   256
 71
     3
340
11
 62
   256
 40
0.24
 90
        1
 40
0.75
 90
        1
300
%<\AcVar ViewType \f "%tc1">% %<\AcVar ViewDetailId>%\PSCALE %<\AcVar ViewScale \f "%sn">%
 71
     4
340
16
 90
       25
 62
   256
340
16
 90
       25
 62
   256
280
     0
  0
LAYOUT
  5
1E
102
{ACAD_REACTORS
330
1A
102
}
330
1A
100
AcDbPlotSettings
  1

  2
none_device
  4

  6

 40
0.0
 41
0.0
 42
0.0
 43
0.0
 44
0.0
 45
0.0
 46
0.0
 47
0.0
 48
0.0
 49
0.0
140
0.0
141
0.0
142
1.0
143
1.0
 70
   688
 72
     0
 73
     0
 74
     5
  7

 75
    16
147
1.0
 76
     0
 77
     2
 78
   300
148
0.0
149
0.0
100
AcDbLayout
  1
Layout1
 70
     1
 71
     1
 10
-0.5
 20
-0.5
 11
5.0
 21
5.0
 12
0.0
 22
0.0
 32
0.0
 14
-0.5
 24
-0.5
 34
-0.5
 15
5.0
 25
5.0
 35
5.0
146
0.0
 13
0.0
 23
0.0
 33
0.0
 16
1.0
 26
0.0
 36
0.0
 17
0.0
 27
1.0
 37
0.0
 76
     0
330
1B
  0
LAYOUT
  5
26
102
{ACAD_REACTORS
330
1A
102
}
330
1A
100
AcDbPlotSettings
  1

  2
none_device
  4

  6

 40
0.0
 41
0.0
 42
0.0
 43
0.0
 44
0.0
 45
0.0
 46
0.0
 47
0.0
 48
0.0
 49
0.0
140
0.0
141
0.0
142
1.0
143
1.0
 70
   688
 72
     0
 73
     0
 74
     5
  7

 75
    16
147
1.0
 76
     0
 77
     2
 78
   300
148
0.0
149
0.0
100
AcDbLayout
  1
Layout2
 70
     1
 71
     2
 10
0.0
 20
0.0
 11
0.0
 21
0.0
 12
0.0
 22
0.0
 32
0.0
 14
0.0
 24
0.0
 34
0.0
 15
0.0
 25
0.0
 35
0.0
146
0.0
 13
0.0
 23
0.0
 33
0.0
 16
1.0
 26
0.0
 36
0.0
 17
0.0
 27
1.0
 37
0.0
 76
     0
330
23
  0
LAYOUT
  5
22
102
{ACAD_REACTORS
330
1A
102
}
330
1A
100
AcDbPlotSettings
  1

  2
none_device
  4
Letter_(8.50_x_11.00_Inches)
  6

 40
6.349999999999999
 41
6.349999999999999
 42
6.350005079999999
 43
6.350005079999999
 44
215.9
 45
279.4
 46
0.0
 47
0.0
 48
0.0
 49
0.0
140
0.0
141
0.0
142
1.0
143
1.0
 70
  1712
 72
     0
 73
     0
 74
     0
  7

 75
     0
147
1.0
 76
     0
 77
     2
 78
   300
148
0.0
149
0.0
100
AcDbLayout
  1
Model
 70
     1
 71
     0
 10
-0.5
 20
-0.5
 11
5.0
 21
5.0
 12
0.0
 22
0.0
 32
0.0
 14
-0.5
 24
-0.5
 34
-0.5
 15
5.0
 25
5.0
 35
5.0
146
0.0
 13
0.0
 23
0.0
 33
0.0
 16
1.0
 26
0.0
 36
0.0
 17
0.0
 27
1.0
 37
0.0
 76
     0
330
1F
331
29
  0
MATERIAL
  5
45
102
{ACAD_XDICTIONARY
360
3E4
102
}
102
{ACAD_REACTORS
330
43
102
}
330
43
100
AcDbMaterial
  1
ByBlock
 73
     1
 78
     1
172
     1
176
     1
270
     1
274
     1
  0
MATERIAL
  5
44
102
{ACAD_XDICTIONARY
360
3E2
102
}
102
{ACAD_REACTORS
330
43
102
}
330
43
100
AcDbMaterial
  1
ByLayer
 73
     1
 78
     1
172
     1
176
     1
270
     1
274
     1
  0
MATERIAL
  5
46
102
{ACAD_XDICTIONARY
360
3E6
102
}
102
{ACAD_REACTORS
330
43
102
}
330
43
100
AcDbMaterial
  1
Global
 73
     1
 78
     1
172
     1
176
     1
270
     1
274
     1
  0
MLEADERSTYLE
  5
6C
102
{ACAD_REACTORS
330
6B
102
}
330
6B
100
AcDbMLeaderStyle
170
     2
171
     1
172
     0
 90
        2
 40
0.0
 41
0.0
173
     1
 91
-1056964608
340
14
 92
       -2
290
     1
 42
0.09
291
     1
 43
0.36
  3
Standard
 44
0.18
300

342
11
174
     1
178
     6
175
     1
176
     0
 93
-1056964608
 45
0.18
292
     0
297
     0
 46
0.18
 94
-1056964608
 47
1.0
 49
1.0
140
1.0
293
     1
141
0.0
294
     1
177
     0
142
1.0
295
     0
296
     0
143
0.125
1001
ACAD_MLEADERVER
1070
     2
  0
MLINESTYLE
  5
18
102
{ACAD_REACTORS
330
17
102
}
330
17
100
AcDbMlineStyle
  2
STANDARD
 70
     0
  3

 62
   256
 51
90.0
 52
90.0
 71
     2
 49
0.5
 62
   256
  6
BYLAYER
 49
-0.5
 62
   256
  6
BYLAYER
  0
ACDBPLACEHOLDER
  5
F
102
{ACAD_REACTORS
330
E
102
}
330
E
  0
SCALE
  5
48
102
{ACAD_REACTORS
330
47
102
}
330
47
100
AcDbScale
 70
     0
300
1:1
140
1.0
141
1.0
290
     1
  0
SCALE
  5
49
102
{ACAD_REACTORS
330
47
102
}
330
47
100
AcDbScale
 70
     0
300
1:2
140
1.0
141
2.0
290
     0
  0
SCALE
  5
4A
102
{ACAD_REACTORS
330
47
102
}
330
47
100
AcDbScale
 70
     0
300
1:4
140
1.0
141
4.0
290
     0
  0
SCALE
  5
4B
102
{ACAD_REACTORS
330
47
102
}
330
47
100
AcDbScale
 70
     0
300
1:5
140
1.0
141
5.0
290
     0
  0
SCALE
  5
4C
102
{ACAD_REACTORS
330
47
102
}
330
47
100
AcDbScale
 70
     0
300
1:8
140
1.0
141
8.0
290
     0
  0
SCALE
  5
4D
102
{ACAD_REACTORS
330
47
102
}
330
47
100
AcDbScale
 70
     0
300
1:10
140
1.0
141
10.0
290
     0
  0
SCALE
  5
4E
102
{ACAD_REACTORS
330
47
102
}
330
47
100
AcDbScale
 70
     0
300
1:16
140
1.0
141
16.0
290
     0
  0
SCALE
  5
4F
102
{ACAD_REACTORS
330
47
102
}
330
47
100
AcDbScale
 70
     0
300
1:20
140
1.0
141
20.0
290
     0
  0
SCALE
  5
50
102
{ACAD_REACTORS
330
47
102
}
330
47
100
AcDbScale
 70
     0
300
1:30
140
1.0
141
30.0
290
     0
  0
SCALE
  5
51
102
{ACAD_REACTORS
330
47
102
}
330
47
100
AcDbScale
 70
     0
300
1:40
140
1.0
141
40.0
290
     0
  0
SCALE
  5
52
102
{ACAD_REACTORS
330
47
102
}
330
47
100
AcDbScale
 70
     0
300
1:50
140
1.0
141
50.0
290
     0
  0
SCALE
  5
53
102
{ACAD_REACTORS
330
47
102
}
330
47
100
AcDbScale
 70
     0
300
1:100
140
1.0
141
100.0
290
     0
  0
SCALE
  5
54
102
{ACAD_REACTORS
330
47
102
}
330
47
100
AcDbScale
 70
     0
300
2:1
140
2.0
141
1.0
290
     0
  0
SCALE
  5
55
102
{ACAD_REACTORS
330
47
102
}
330
47
100
AcDbScale
 70
     0
300
4:1
140
4.0
141
1.0
290
     0
  0
SCALE
  5
56
102
{ACAD_REACTORS
330
47
102
}
330
47
100
AcDbScale
 70
     0
300
8:1
140
8.0
141
1.0
290
     0
  0
SCALE
  5
57
102
{ACAD_REACTORS
330
47
102
}
330
47
100
AcDbScale
 70
     0
300
10:1
140
10.0
141
1.0
290
     0
  0
SCALE
  5
58
102
{ACAD_REACTORS
330
47
102
}
330
47
100
AcDbScale
 70
     0
300
100:1
140
100.0
141
1.0
290
     0
  0
SCALE
  5
59
102
{ACAD_REACTORS
330
47
102
}
330
47
100
AcDbScale
 70
     0
300
1/128" = 1'-0"
140
0.0078125
141
12.0
290
     0
  0
SCALE
  5
5A
102
{ACAD_REACTORS
330
47
102
}
330
47
100
AcDbScale
 70
     0
300
1/64" = 1'-0"
140
0.015625
141
12.0
290
     0
  0
SCALE
  5
5B
102
{ACAD_REACTORS
330
47
102
}
330
47
100
AcDbScale
 70
     0
300
1/32" = 1'-0"
140
0.03125
141
12.0
290
     0
  0
SCALE
  5
5C
102
{ACAD_REACTORS
330
47
102
}
330
47
100
AcDbScale
 70
     0
300
1/16" = 1'-0"
140
0.0625
141
12.0
290
     0
  0
SCALE
  5
5D
102
{ACAD_REACTORS
330
47
102
}
330
47
100
AcDbScale
 70
     0
300
3/32" = 1'-0"
140
0.09375
141
12.0
290
     0
  0
SCALE
  5
5E
102
{ACAD_REACTORS
330
47
102
}
330
47
100
AcDbScale
 70
     0
300
1/8" = 1'-0"
140
0.125
141
12.0
290
     0
  0
SCALE
  5
5F
102
{ACAD_REACTORS
330
47
102
}
330
47
100
AcDbScale
 70
     0
300
3/16" = 1'-0"
140
0.1875
141
12.0
290
     0
  0
SCALE
  5
60
102
{ACAD_REACTORS
330
47
102
}
330
47
100
AcDbScale
 70
     0
300
1/4" = 1'-0"
140
0.25
141
12.0
290
     0
  0
SCALE
  5
61
102
{ACAD_REACTORS
330
47
102
}
330
47
100
AcDbScale
 70
     0
300
3/8" = 1'-0"
140
0.375
141
12.0
290
     0
  0
SCALE
  5
62
102
{ACAD_REACTORS
330
47
102
}
330
47
100
AcDbScale
 70
     0
300
1/2" = 1'-0"
140
0.5
141
12.0
290
     0
  0
SCALE
  5
63
102
{ACAD_REACTORS
330
47
102
}
330
47
100
AcDbScale
 70
     0
300
3/4" = 1'-0"
140
0.75
141
12.0
290
     0
  0
SCALE
  5
64
102
{ACAD_REACTORS
330
47
102
}
330
47
100
AcDbScale
 70
     0
300
1" = 1'-0"
140
1.0
141
12.0
290
     0
  0
SCALE
  5
65
102
{ACAD_REACTORS
330
47
102
}
330
47
100
AcDbScale
 70
     0
300
1-1/2" = 1'-0"
140
1.5
141
12.0
290
     0
  0
SCALE
  5
66
102
{ACAD_REACTORS
330
47
102
}
330
47
100
AcDbScale
 70
     0
300
3" = 1'-0"
140
3.0
141
12.0
290
     0
  0
SCALE
  5
67
102
{ACAD_REACTORS
330
47
102
}
330
47
100
AcDbScale
 70
     0
300
6" = 1'-0"
140
6.0
141
12.0
290
     0
  0
SCALE
  5
68
102
{ACAD_REACTORS
330
47
102
}
330
47
100
AcDbScale
 70
     0
300
1'-0" = 1'-0"
140
12.0
141
12.0
290
     0
  0
ACDBSECTIONVIEWSTYLE
  5
30E
102
{ACAD_XDICTIONARY
360
3E9
102
}
102
{ACAD_REACTORS
330
30B
102
}
330
30B
100
AcDbModelDocViewStyle
 70
     0
  3
Imperial24
290
     0
100
AcDbSectionViewStyle
 70
     0
 71
     0
 90
       78
 71
     1
340
11
 62
   256
 40
0.24
340
0
340
0
 62
   256
 40
0.24
300
I, O, Q, S, X, Z
 40
0.48
 90
        3
 40
0.18
 90
        1
 71
     2
340
16
 90
       25
 62
   256
340
16
 90
       50
 62
   256
 40
0.24
 40
0.0
 40
0.24
 71
     3
340
11
 62
   256
 40
0.24
 90
        1
 40
0.75
 90
        1
300
%<\AcVar ViewType \f "%tc1">% %<\AcVar ViewSectionStartId>%-%<\AcVar ViewSectionEndId>%\PSCALE %<\AcVar ViewScale \f "%sn">%
 71
     4
 62
   256
 62
   257
300
ANSI31
 40
1.0
 90
        0
290
     0
290
     0
 90
        6
 40
0.0
 40
1.570796326794896
 40
0.2617993877991494
 40
1.308996938995747
 40
-0.2617993877991494
 40
1.832595714594046
  0
TABLESTYLE
  5
6A
102
{ACAD_XDICTIONARY
360
301
102
}
102
{ACAD_REACTORS
330
69
102
}
330
69
100
AcDbTableStyle
  3
Standard
 70
     0
 71
     0
 40
0.06
 41
0.06
280
     0
281
     0
  7
Standard
140
0.18
170
     2
 62
     0
 63
     7
283
     0
274
    -2
284
     1
 64
     0
275
    -2
285
     1
 65
     0
276
    -2
286
     1
 66
     0
277
    -2
287
     1
 67
     0
278
    -2
288
     1
 68
     0
279
    -2
289
     1
 69
     0
  7
Standard
140
0.25
170
     5
 62
     0
 63
     7
283
     0
274
    -2
284
     1
 64
     0
275
    -2
285
     1
 65
     0
276
    -2
286
     1
 66
     0
277
    -2
287
     1
 67
     0
278
    -2
288
     1
 68
     0
279
    -2
289
     1
 69
     0
  7
Standard
140
0.18
170
     5
 62
     0
 63
     7
283
     0
274
    -2
284
     1
 64
     0
275
    -2
285
     1
 65
     0
276
    -2
286
     1
 66
     0
277
    -2
287
     1
 67
     0
278
    -2
288
     1
 68
     0
279
    -2
289
     1
 69
     0
  0
VISUALSTYLE
  5
2F
102
{ACAD_XDICTIONARY
360
3BA
102
}
102
{ACAD_REACTORS
330
2A
102
}
330
2A
100
AcDbVisualStyle
  2
2dWireframe
 70
     4
 71
     0
 72
     2
 73
     0
 90
        0
 40
-0.6
 41
-30.0
 62
     5
 63
     7
421
 16777215
 74
     1
 91
        4
 64
     7
 65
   257
 75
     1
175
     1
 42
1.0
 92
        0
 66
   257
 43
1.0
 76
     1
 77
     6
 78
     2
 67
     7
 79
     5
170
     0
171
     0
290
     0
174
     0
 93
        1
 44
0.0
173
     0
291
     0
 45
0.0
1001
ACAD
1000
AcDbSavedByObjectVersion
1070
     0
  0
VISUALSTYLE
  5
32
102
{ACAD_XDICTIONARY
360
3C0
102
}
102
{ACAD_REACTORS
330
2A
102
}
330
2A
100
AcDbVisualStyle
  2
Basic
 70
     7
 71
     1
 72
     0
 73
     1
 90
        0
 40
-0.6
 41
-30.0
 62
     5
 63
     7
421
 16777215
 74
     0
 91
        4
 64
     7
 65
   257
 75
     1
175
     1
 42
1.0
 92
        8
 66
     7
 43
1.0
 76
     1
 77
     6
 78
     2
 67
     7
 79
     5
170
     0
171
     0
290
     0
174
     0
 93
        1
 44
0.0
173
     0
291
     1
 45
0.0
1001
ACAD
1000
AcDbSavedByObjectVersion
1070
     0
  0
VISUALSTYLE
  5
36
102
{ACAD_XDICTIONARY
360
3C8
102
}
102
{ACAD_REACTORS
330
2A
102
}
330
2A
100
AcDbVisualStyle
  2
Brighten
 70
    12
 71
     2
 72
     2
 73
     0
 90
        0
 40
-0.6
 41
-30.0
 62
     5
 63
     7
421
 16777215
 74
     1
 91
        4
 64
     7
 65
   257
 75
     1
175
     1
 42
1.0
 92
        8
 66
     7
 43
1.0
 76
     1
 77
     6
 78
     2
 67
     7
 79
     5
170
     0
171
     0
290
     0
174
     0
 93
        1
 44
50.0
173
     0
291
     1
 45
0.0
1001
ACAD
1000
AcDbSavedByObjectVersion
1070
     0
  0
VISUALSTYLE
  5
3A
102
{ACAD_XDICTIONARY
360
3D0
102
}
102
{ACAD_REACTORS
330
2A
102
}
330
2A
100
AcDbVisualStyle
  2
ColorChange
 70
    16
 71
     2
 72
     2
 73
     3
 90
        0
 40
-0.6
 41
-30.0
 62
     5
 63
     8
421
  8421504
 74
     1
 91
        4
 64
     7
 65
   257
 75
     1
175
     1
 42
1.0
 92
        8
 66
     8
424
  8421504
 43
1.0
 76
     1
 77
     6
 78
     2
 67
     7
 79
     5
170
     0
171
     0
290
     0
174
     0
 93
        1
 44
0.0
173
     0
291
     1
 45
0.0
1001
ACAD
1000
AcDbSavedByObjectVersion
1070
     0
  0
VISUALSTYLE
  5
34
102
{ACAD_XDICTIONARY
360
3C4
102
}
102
{ACAD_REACTORS
330
2A
102
}
330
2A
100
AcDbVisualStyle
  2
Conceptual
 70
     9
 71
     3
 72
     2
 73
     0
 90
        0
 40
-0.6
 41
-30.0
 62
     5
 63
     7
421
 16777215
 74
     2
 91
        2
 64
     7
 65
   257
 75
     1
175
     1
 42
179.0
 92
        8
 66
     7
 43
1.0
 76
     1
 77
     6
 78
     2
 67
     7
 79
     3
170
     0
171
     0
290
     0
174
     0
 93
        1
 44
0.0
173
     0
291
     0
 45
0.0
1001
ACAD
1000
AcDbSavedByObjectVersion
1070
     0
  0
VISUALSTYLE
  5
35
102
{ACAD_XDICTIONARY
360
3C6
102
}
102
{ACAD_REACTORS
330
2A
102
}
330
2A
100
AcDbVisualStyle
  2
Dim
 70
    11
 71
     2
 72
     2
 73
     0
 90
        0
 40
-0.6
 41
-30.0
 62
     5
 63
     7
421
 16777215
 74
     1
 91
        4
 64
     7
 65
   257
 75
     1
175
     1
 42
1.0
 92
        8
 66
     7
 43
1.0
 76
     1
 77
     6
 78
     2
 67
     7
 79
     5
170
     0
171
     0
290
     0
174
     0
 93
        1
 44
-50.0
173
     0
291
     1
 45
0.0
1001
ACAD
1000
AcDbSavedByObjectVersion
1070
     0
  0
VISUALSTYLE
  5
3D
102
{ACAD_XDICTIONARY
360
3D6
102
}
102
{ACAD_REACTORS
330
2A
102
}
330
2A
100
AcDbVisualStyle
  2
EdgeColorOff
 70
    22
 71
     2
 72
     2
 73
     0
 90
        0
 40
-0.6
 41
-30.0
 62
     5
 63
     7
421
 16777215
 74
     1
 91
        4
 64
     7
 65
   257
 75
     1
175
     1
 42
1.0
 92
        8
 66
     7
 43
1.0
 76
     1
 77
     6
 78
     2
 67
     7
 79
     5
170
     0
171
     0
290
     0
174
     0
 93
        1
 44
0.0
173
     0
291
     1
 45
0.0
1001
ACAD
1000
AcDbSavedByObjectVersion
1070
     0
  0
VISUALSTYLE
  5
39
102
{ACAD_XDICTIONARY
360
3CE
102
}
102
{ACAD_REACTORS
330
2A
102
}
330
2A
100
AcDbVisualStyle
  2
Facepattern
 70
    15
 71
     2
 72
     2
 73
     0
 90
        0
 40
-0.6
 41
-30.0
 62
     5
 63
     7
421
 16777215
 74
     1
 91
        4
 64
     7
 65
   257
 75
     1
175
     1
 42
1.0
 92
        8
 66
     7
 43
1.0
 76
     1
 77
     6
 78
     2
 67
     7
 79
     5
170
     0
171
     0
290
     0
174
     0
 93
        1
 44
0.0
173
     0
291
     1
 45
0.0
1001
ACAD
1000
AcDbSavedByObjectVersion
1070
     0
  0
VISUALSTYLE
  5
2B
102
{ACAD_XDICTIONARY
360
3B2
102
}
102
{ACAD_REACTORS
330
2A
102
}
330
2A
100
AcDbVisualStyle
  2
Flat
 70
     0
 71
     2
 72
     1
 73
     1
 90
        2
 40
-0.6
 41
30.0
 62
     5
 63
     7
421
 16777215
 74
     0
 91
        0
 64
     7
 65
   257
 75
     1
175
     1
 42
1.0
 92
        8
 66
     7
 43
1.0
 76
     1
 77
     6
 78
     2
 67
     7
 79
     5
170
     0
171
     0
290
     0
174
     0
 93
       13
 44
0.0
173
     0
291
     1
 45
0.0
1001
ACAD
1000
AcDbSavedByObjectVersion
1070
     0
  0
VISUALSTYLE
  5
2C
102
{ACAD_XDICTIONARY
360
3B4
102
}
102
{ACAD_REACTORS
330
2A
102
}
330
2A
100
AcDbVisualStyle
  2
FlatWithEdges
 70
     1
 71
     2
 72
     1
 73
     1
 90
        2
 40
-0.6
 41
30.0
 62
     5
 63
     7
421
 16777215
 74
     1
 91
        0
 64
     7
 65
   257
 75
     1
175
     1
 42
1.0
 92
        0
 66
   257
 43
1.0
 76
     1
 77
     6
 78
     2
 67
     7
 79
     5
170
     0
171
     0
290
     0
174
     0
 93
       13
 44
0.0
173
     0
291
     1
 45
0.0
1001
ACAD
1000
AcDbSavedByObjectVersion
1070
     0
  0
VISUALSTYLE
  5
2D
102
{ACAD_XDICTIONARY
360
3B6
102
}
102
{ACAD_REACTORS
330
2A
102
}
330
2A
100
AcDbVisualStyle
  2
Gouraud
 70
     2
 71
     2
 72
     2
 73
     1
 90
        2
 40
-0.6
 41
30.0
 62
     5
 63
     7
421
 16777215
 74
     0
 91
        0
 64
     7
 65
   257
 75
     1
175
     1
 42
1.0
 92
        0
 66
     7
 43
1.0
 76
     1
 77
     6
 78
     2
 67
     7
 79
     5
170
     0
171
     0
290
     0
174
     0
 93
       13
 44
0.0
173
     0
291
     1
 45
0.0
1001
ACAD
1000
AcDbSavedByObjectVersion
1070
     0
  0
VISUALSTYLE
  5
2E
102
{ACAD_XDICTIONARY
360
3B8
102
}
102
{ACAD_REACTORS
330
2A
102
}
330
2A
100
AcDbVisualStyle
  2
GouraudWithEdges
 70
     3
 71
     2
 72
     2
 73
     1
 90
        2
 40
-0.6
 41
30.0
 62
     5
 63
     7
421
 16777215
 74
     1
 91
        0
 64
     7
 65
   257
 75
     1
175
     1
 42
1.0
 92
        0
 66
   257
 43
1.0
 76
     1
 77
     6
 78
     2
 67
     7
 79
     5
170
     0
171
     0
290
     0
174
     0
 93
       13
 44
0.0
173
     0
291
     1
 45
0.0
1001
ACAD
1000
AcDbSavedByObjectVersion
1070
     0
  0
VISUALSTYLE
  5
31
102
{ACAD_XDICTIONARY
360
3BE
102
}
102
{ACAD_REACTORS
330
2A
102
}
330
2A
100
AcDbVisualStyle
  2
Hidden
 70
     6
 71
     1
 72
     2
 73
     2
 90
        0
 40
-0.6
 41
-30.0
 62
     5
 63
     7
421
 16777215
 74
     2
 91
        2
 64
     7
 65
   257
 75
     2
175
     1
 42
40.0
 92
        0
 66
   257
 43
1.0
 76
     1
 77
     6
 78
     2
 67
     7
 79
     3
170
     0
171
     0
290
     0
174
     0
 93
        1
 44
0.0
173
     0
291
     0
 45
0.0
1001
ACAD
1000
AcDbSavedByObjectVersion
1070
     0
  0
VISUALSTYLE
  5
3B
102
{ACAD_XDICTIONARY
360
3D2
102
}
102
{ACAD_REACTORS
330
2A
102
}
330
2A
100
AcDbVisualStyle
  2
JitterOff
 70
    20
 71
     2
 72
     2
 73
     0
 90
        0
 40
-0.6
 41
-30.0
 62
     5
 63
     7
421
 16777215
 74
     1
 91
        4
 64
     7
 65
   257
 75
     1
175
     1
 42
1.0
 92
       10
 66
     7
 43
1.0
 76
     1
 77
     6
 78
     2
 67
     7
 79
     5
170
     0
171
     0
290
     0
174
     0
 93
        1
 44
0.0
173
     0
291
     1
 45
0.0
1001
ACAD
1000
AcDbSavedByObjectVersion
1070
     0
  0
VISUALSTYLE
  5
38
102
{ACAD_XDICTIONARY
360
3CC
102
}
102
{ACAD_REACTORS
330
2A
102
}
330
2A
100
AcDbVisualStyle
  2
Linepattern
 70
    14
 71
     2
 72
     2
 73
     0
 90
        0
 40
-0.6
 41
-30.0
 62
     5
 63
     7
421
 16777215
 74
     1
 91
        4
 64
     7
 65
   257
 75
     7
175
     7
 42
1.0
 92
        8
 66
     7
 43
1.0
 76
     1
 77
     6
 78
     2
 67
     7
 79
     5
170
     0
171
     0
290
     0
174
     0
 93
        1
 44
0.0
173
     0
291
     1
 45
0.0
1001
ACAD
1000
AcDbSavedByObjectVersion
1070
     0
  0
VISUALSTYLE
  5
3C
102
{ACAD_XDICTIONARY
360
3D4
102
}
102
{ACAD_REACTORS
330
2A
102
}
330
2A
100
AcDbVisualStyle
  2
OverhangOff
 70
    21
 71
     2
 72
     2
 73
     0
 90
        0
 40
-0.6
 41
-30.0
 62
     5
 63
     7
421
 16777215
 74
     1
 91
        4
 64
     7
 65
   257
 75
     1
175
     1
 42
1.0
 92
        9
 66
     7
 43
1.0
 76
     1
 77
     6
 78
     2
 67
     7
 79
     5
170
     0
171
     0
290
     0
174
     0
 93
        1
 44
0.0
173
     0
291
     1
 45
0.0
1001
ACAD
1000
AcDbSavedByObjectVersion
1070
     0
  0
VISUALSTYLE
  5
33
102
{ACAD_XDICTIONARY
360
3C2
102
}
102
{ACAD_REACTORS
330
2A
102
}
330
2A
100
AcDbVisualStyle
  2
Realistic
 70
     8
 71
     2
 72
     3
 73
     0
 90
        2
 40
-0.6
 41
30.0
 62
     5
 63
     7
421
 16777215
 74
     0
 91
        0
 64
     7
 65
   257
 75
     1
175
     1
 42
1.0
 92
        8
 66
   257
 43
1.0
 76
     1
 77
     6
 78
     2
 67
     7
 79
     3
170
     0
171
     0
290
     0
174
     0
 93
       13
 44
0.0
173
     0
291
     0
 45
0.0
1001
ACAD
1000
AcDbSavedByObjectVersion
1070
     0
  0
VISUALSTYLE
  5
42
102
{ACAD_XDICTIONARY
360
3E0
102
}
102
{ACAD_REACTORS
330
2A
102
}
330
2A
100
AcDbVisualStyle
  2
Shaded
 70
    27
 71
     2
 72
     2
 73
     1
 90
        2
 40
-0.6
 41
30.0
 62
     5
 63
     7
421
 16777215
 74
     0
 91
        4
 64
     7
 65
   257
 75
     1
175
     1
 42
1.0
 92
        8
 66
   257
 43
1.0
 76
     1
 77
     6
 78
     2
 67
     8
425
  7895160
 79
     3
170
     0
171
     0
290
     0
174
     0
 93
        5
 44
0.0
173
     0
291
     0
 45
0.0
1001
ACAD
1000
AcDbSavedByObjectVersion
1070
     0
  0
VISUALSTYLE
  5
41
102
{ACAD_XDICTIONARY
360
3DE
102
}
102
{ACAD_REACTORS
330
2A
102
}
330
2A
100
AcDbVisualStyle
  2
Shaded with edges
 70
    26
 71
     2
 72
     2
 73
     1
 90
        2
 40
-0.6
 41
30.0
 62
     5
 63
     7
421
 16777215
 74
     1
 91
       10
 64
     7
 65
   257
 75
     2
175
     1
 42
1.0
 92
        8
 66
   257
 43
1.0
 76
     1
 77
     6
 78
     2
 67
     7
 79
     3
170
     0
171
     0
290
     0
174
     0
 93
        5
 44
0.0
173
     0
291
     0
 45
0.0
1001
ACAD
1000
AcDbSavedByObjectVersion
1070
     0
  0
VISUALSTYLE
  5
3E
102
{ACAD_XDICTIONARY
360
3D8
102
}
102
{ACAD_REACTORS
330
2A
102
}
330
2A
100
AcDbVisualStyle
  2
Shades of Gray
 70
    23
 71
     2
 72
     2
 73
     3
 90
        0
 40
-0.6
 41
-30.0
 62
     5
 63
     7
421
 16777215
 74
     2
 91
        2
 64
     7
 65
     7
 75
     1
175
     1
 42
40.0
 92
        8
 66
     7
 43
1.0
 76
     1
 77
     6
 78
     2
 67
     7
 79
     3
170
     0
171
     0
290
     0
174
     0
 93
        1
 44
0.0
173
     0
291
     0
 45
0.0
1001
ACAD
1000
AcDbSavedByObjectVersion
1070
     0
  0
VISUALSTYLE
  5
3F
102
{ACAD_XDICTIONARY
360
3DA
102
}
102
{ACAD_REACTORS
330
2A
102
}
330
2A
100
AcDbVisualStyle
  2
Sketchy
 70
    24
 71
     1
 72
     2
 73
     2
 90
        0
 40
-0.6
 41
-30.0
 62
     5
 63
     7
421
 16777215
 74
     2
 91
        2
 64
     7
 65
     7
 75
     1
175
     1
 42
40.0
 92
       11
 66
     7
 43
1.0
 76
     1
 77
     6
 78
     2
 67
     7
 79
     6
170
     0
171
     0
290
     0
174
     0
 93
        1
 44
0.0
173
     0
291
     0
 45
0.0
1001
ACAD
1000
AcDbSavedByObjectVersion
1070
     0
  0
VISUALSTYLE
  5
37
102
{ACAD_XDICTIONARY
360
3CA
102
}
102
{ACAD_REACTORS
330
2A
102
}
330
2A
100
AcDbVisualStyle
  2
Thicken
 70
    13
 71
     2
 72
     2
 73
     0
 90
        0
 40
-0.6
 41
-30.0
 62
     5
 63
     7
421
 16777215
 74
     1
 91
        4
 64
     7
 65
   257
 75
     1
175
     1
 42
1.0
 92
       12
 66
     7
 43
1.0
 76
     1
 77
     6
 78
     2
 67
     7
 79
     5
170
     0
171
     0
290
     0
174
     0
 93
        1
 44
0.0
173
     0
291
     1
 45
0.0
1001
ACAD
1000
AcDbSavedByObjectVersion
1070
     0
  0
VISUALSTYLE
  5
30
102
{ACAD_XDICTIONARY
360
3BC
102
}
102
{ACAD_REACTORS
330
2A
102
}
330
2A
100
AcDbVisualStyle
  2
Wireframe
 70
     5
 71
     0
 72
     2
 73
     0
 90
        0
 40
-0.6
 41
-30.0
 62
     5
 63
     7
421
 16777215
 74
     1
 91
        4
 64
     7
 65
   257
 75
     1
175
     1
 42
1.0
 92
        0
 66
   257
 43
1.0
 76
     1
 77
     6
 78
     2
 67
     7
 79
     3
170
     0
171
     0
290
     0
174
     0
 93
        1
 44
0.0
173
     0
291
     0
 45
0.0
1001
ACAD
1000
AcDbSavedByObjectVersion
1070
     0
  0
VISUALSTYLE
  5
40
102
{ACAD_XDICTIONARY
360
3DC
102
}
102
{ACAD_REACTORS
330
2A
102
}
330
2A
100
AcDbVisualStyle
  2
X-Ray
 70
    25
 71
     2
 72
     2
 73
     1
 90
        1
 40
0.5
 41
-30.0
 62
     5
 63
     7
421
 16777215
 74
     1
 91
        0
 64
     7
 65
   257
 75
     1
175
     1
 42
1.0
 92
        8
 66
     7
 43
1.0
 76
     1
 77
     6
 78
     2
 67
     7
 79
     3
170
     0
171
     0
290
     0
174
     0
 93
       13
 44
0.0
173
     0
291
     0
 45
0.0
1001
ACAD
1000
AcDbSavedByObjectVersion
1070
     0
  0
DICTIONARYVAR
  5
2C8
102
{ACAD_REACTORS
330
2C7
102
}
330
2C7
100
DictionaryVariables
280
     0
  1
1:1
  0
DICTIONARYVAR
  5
309
102
{ACAD_REACTORS
330
2C7
102
}
330
2C7
100
DictionaryVariables
280
     0
  1
STANDARD
  0
DICTIONARYVAR
  5
308
102
{ACAD_REACTORS
330
2C7
102
}
330
2C7
100
DictionaryVariables
280
     0
  1
STANDARD
  0
DICTIONARYVAR
  5
3A5
102
{ACAD_REACTORS
330
2C7
102
}
330
2C7
100
DictionaryVariables
280
     0
  1
Imperial24
  0
DICTIONARYVAR
  5
3A6
102
{ACAD_REACTORS
330
2C7
102
}
330
2C7
100
DictionaryVariables
280
     0
  1
Imperial24
  0
DICTIONARYVAR
  5
2C9
102
{ACAD_REACTORS
330
2C7
102
}
330
2C7
100
DictionaryVariables
280
     0
  1
1
  0
DICTIONARYVAR
  5
3A7
102
{ACAD_REACTORS
330
2C7
102
}
330
2C7
100
DictionaryVariables
280
     0
  1
2
  0
DICTIONARY
  5
3B1
102
{ACAD_REACTORS
330
3AF
102
}
330
3AF
100
AcDbDictionary
281
     1
  0
DICTIONARY
  5
3B0
102
{ACAD_REACTORS
330
3AF
102
}
330
3AF
100
AcDbDictionary
281
     1
  3
8796087825952
350
3AA
  3
8796087825968
350
3AB
  3
8796087825984
350
3AC
  3
8796087826000
350
3AD
  3
8796087826016
350
3AE
  0
DICTIONARY
  5
3EB
330
30F
100
AcDbDictionary
280
     1
281
     1
  3
ACAD_XREC_ROUNDTRIP
360
3EC
  0
DICTIONARY
  5
3E4
330
45
100
AcDbDictionary
280
     1
281
     1
  3
ACAD_XREC_ROUNDTRIP
360
3E5
  0
DICTIONARY
  5
3E2
330
44
100
AcDbDictionary
280
     1
281
     1
  3
ACAD_XREC_ROUNDTRIP
360
3E3
  0
DICTIONARY
  5
3E6
330
46
100
AcDbDictionary
280
     1
281
     1
  3
ACAD_XREC_ROUNDTRIP
360
3E7
  0
DICTIONARY
  5
3E9
330
30E
100
AcDbDictionary
280
     1
281
     1
  3
ACAD_XREC_ROUNDTRIP
360
3EA
  0
DICTIONARY
  5
301
330
6A
100
AcDbDictionary
280
     1
281
     1
  3
ACAD_ROUNDTRIP_2008_TABLESTYLE_CELLSTYLEMAP
360
3A8
  3
ACAD_XREC_ROUNDTRIP
360
3E8
  0
DICTIONARY
  5
3BA
330
2F
100
AcDbDictionary
280
     1
281
     1
  3
ACAD_XREC_ROUNDTRIP
360
3BB
  0
DICTIONARY
  5
3C0
330
32
100
AcDbDictionary
280
     1
281
     1
  3
ACAD_XREC_ROUNDTRIP
360
3C1
  0
DICTIONARY
  5
3C8
330
36
100
AcDbDictionary
280
     1
281
     1
  3
ACAD_XREC_ROUNDTRIP
360
3C9
  0
DICTIONARY
  5
3D0
330
3A
100
AcDbDictionary
280
     1
281
     1
  3
ACAD_XREC_ROUNDTRIP
360
3D1
  0
DICTIONARY
  5
3C4
330
34
100
AcDbDictionary
280
     1
281
     1
  3
ACAD_XREC_ROUNDTRIP
360
3C5
  0
DICTIONARY
  5
3C6
330
35
100
AcDbDictionary
280
     1
281
     1
  3
ACAD_XREC_ROUNDTRIP
360
3C7
  0
DICTIONARY
  5
3D6
330
3D
100
AcDbDictionary
280
     1
281
     1
  3
ACAD_XREC_ROUNDTRIP
360
3D7
  0
DICTIONARY
  5
3CE
330
39
100
AcDbDictionary
280
     1
281
     1
  3
ACAD_XREC_ROUNDTRIP
360
3CF
  0
DICTIONARY
  5
3B2
330
2B
100
AcDbDictionary
280
     1
281
     1
  3
ACAD_XREC_ROUNDTRIP
360
3B3
  0
DICTIONARY
  5
3B4
330
2C
100
AcDbDictionary
280
     1
281
     1
  3
ACAD_XREC_ROUNDTRIP
360
3B5
  0
DICTIONARY
  5
3B6
330
2D
100
AcDbDictionary
280
     1
281
     1
  3
ACAD_XREC_ROUNDTRIP
360
3B7
  0
DICTIONARY
  5
3B8
330
2E
100
AcDbDictionary
280
     1
281
     1
  3
ACAD_XREC_ROUNDTRIP
360
3B9
  0
DICTIONARY
  5
3BE
330
31
100
AcDbDictionary
280
     1
281
     1
  3
ACAD_XREC_ROUNDTRIP
360
3BF
  0
DICTIONARY
  5
3D2
330
3B
100
AcDbDictionary
280
     1
281
     1
  3
ACAD_XREC_ROUNDTRIP
360
3D3
  0
DICTIONARY
  5
3CC
330
38
100
AcDbDictionary
280
     1
281
     1
  3
ACAD_XREC_ROUNDTRIP
360
3CD
  0
DICTIONARY
  5
3D4
330
3C
100
AcDbDictionary
280
     1
281
     1
  3
ACAD_XREC_ROUNDTRIP
360
3D5
  0
DICTIONARY
  5
3C2
330
33
100
AcDbDictionary
280
     1
281
     1
  3
ACAD_XREC_ROUNDTRIP
360
3C3
  0
DICTIONARY
  5
3E0
330
42
100
AcDbDictionary
280
     1
281
     1
  3
ACAD_XREC_ROUNDTRIP
360
3E1
  0
DICTIONARY
  5
3DE
330
41
100
AcDbDictionary
280
     1
281
     1
  3
ACAD_XREC_ROUNDTRIP
360
3DF
  0
DICTIONARY
  5
3D8
330
3E
100
AcDbDictionary
280
     1
281
     1
  3
ACAD_XREC_ROUNDTRIP
360
3D9
  0
DICTIONARY
  5
3DA
330
3F
100
AcDbDictionary
280
     1
281
     1
  3
ACAD_XREC_ROUNDTRIP
360
3DB
  0
DICTIONARY
  5
3CA
330
37
100
AcDbDictionary
280
     1
281
     1
  3
ACAD_XREC_ROUNDTRIP
360
3CB
  0
DICTIONARY
  5
3BC
330
30
100
AcDbDictionary
280
     1
281
     1
  3
ACAD_XREC_ROUNDTRIP
360
3BD
  0
DICTIONARY
  5
3DC
330
40
100
AcDbDictionary
280
     1
281
     1
  3
ACAD_XREC_ROUNDTRIP
360
3DD
  0
XRECORD
  5
3AA
102
{ACAD_REACTORS
330
3B0
102
}
330
3B0
100
AcDbXrecord
280
     1
  1
AcDb_Thumbnail_Schema
102
{ATTRRECORD
341
3AB
  2
AcDbDs::TreatedAsObjectData
280
     1
291
     1
102
ATTRRECORD}
102
{ATTRRECORD
341
3AC
  2
AcDbDs::Legacy
280
     1
291
     1
102
ATTRRECORD}
  2
AcDbDs::ID
280
    10
 91
        8
102
{ATTRRECORD
341
3AD
  2
AcDs:Indexable
280
     1
291
     1
102
ATTRRECORD}
102
{ATTRRECORD
341
3AE
  2
AcDbDs::HandleAttribute
280
     7
282
     1
102
ATTRRECORD}
  2
Thumbnail_Data
280
    15
 91
        0
  0
XRECORD
  5
3AB
102
{ACAD_REACTORS
330
3B0
102
}
330
3B0
100
AcDbXrecord
280
     1
  1
AcDbDs::TreatedAsObjectDataSchema
  2
AcDbDs::TreatedAsObjectData
280
     1
 91
        0
  0
XRECORD
  5
3AC
102
{ACAD_REACTORS
330
3B0
102
}
330
3B0
100
AcDbXrecord
280
     1
  1
AcDbDs::LegacySchema
  2
AcDbDs::Legacy
280
     1
 91
        0
  0
XRECORD
  5
3AD
102
{ACAD_REACTORS
330
3B0
102
}
330
3B0
100
AcDbXrecord
280
     1
  1
AcDbDs::IndexedPropertySchema
  2
AcDs:Indexable
280
     1
 91
        0
  0
XRECORD
  5
3AE
102
{ACAD_REACTORS
330
3B0
102
}
330
3B0
100
AcDbXrecord
280
     1
  1
AcDbDs::HandleAttributeSchema
  2
AcDbDs::HandleAttribute
280
     7
 91
        1
284
     1
  0
XRECORD
  5
3EC
102
{ACAD_REACTORS
330
3EB
102
}
330
3EB
100
AcDbXrecord
280
     1
102
DISPLAYNAME
  1
Imperial24
102
FLAGS
 90
        0
  0
XRECORD
  5
3E5
102
{ACAD_REACTORS
330
3E4
102
}
330
3E4
100
AcDbXrecord
280
     1
102
MATERIAL
148
0.0
149
0.0
149
0.0
 93
        0
 94
      127
282
     0
 72
     1
 77
     1
171
     1
175
     1
179
     1
273
     0
  0
XRECORD
  5
3E3
102
{ACAD_REACTORS
330
3E2
102
}
330
3E2
100
AcDbXrecord
280
     1
102
MATERIAL
148
0.0
149
0.0
149
0.0
 93
        0
 94
      127
282
     0
 72
     1
 77
     1
171
     1
175
     1
179
     1
273
     0
  0
XRECORD
  5
3E7
102
{ACAD_REACTORS
330
3E6
102
}
330
3E6
100
AcDbXrecord
280
     1
102
MATERIAL
148
0.0
149
0.0
149
0.0
 93
        0
 94
      127
282
     0
 72
     1
 77
     1
171
     1
175
     1
179
     1
273
     0
  0
XRECORD
  5
3EA
102
{ACAD_REACTORS
330
3E9
102
}
330
3E9
100
AcDbXrecord
280
     1
102
DISPLAYNAME
  1
Imperial24
102
FLAGS
 90
        0
  0
CELLSTYLEMAP
  5
3A8
102
{ACAD_REACTORS
330
301
102
}
330
301
100
AcDbCellStyleMap
 90
        3
300
CELLSTYLE
  1
TABLEFORMAT_BEGIN
 90
        5
170
     1
 91
        0
 92
    32768
 62
   257
 93
        1
300
CONTENTFORMAT
  1
CONTENTFORMAT_BEGIN
 90
        0
 91
        0
 92
        4
 93
        0
300

 40
0.0
140
1.0
 94
        5
 62
     0
340
11
144
0.25
309
CONTENTFORMAT_END
171
     1
301
MARGIN
  1
CELLMARGIN_BEGIN
 40
0.06
 40
0.06
 40
0.06
 40
0.06
 40
0.06
 40
0.06
309
CELLMARGIN_END
 94
        6
 95
        1
302
GRIDFORMAT
  1
GRIDFORMAT_BEGIN
 90
        0
 91
        1
 62
     0
 92
       -2
340
14
 93
        0
 40
0.045
309
GRIDFORMAT_END
 95
        2
302
GRIDFORMAT
  1
GRIDFORMAT_BEGIN
 90
        0
 91
        1
 62
     0
 92
       -2
340
14
 93
        0
 40
0.045
309
GRIDFORMAT_END
 95
        4
302
GRIDFORMAT
  1
GRIDFORMAT_BEGIN
 90
        0
 91
        1
 62
     0
 92
       -2
340
14
 93
        0
 40
0.045
309
GRIDFORMAT_END
 95
        8
302
GRIDFORMAT
  1
GRIDFORMAT_BEGIN
 90
        0
 91
        1
 62
     0
 92
       -2
340
14
 93
        0
 40
0.045
309
GRIDFORMAT_END
 95
       16
302
GRIDFORMAT
  1
GRIDFORMAT_BEGIN
 90
        0
 91
        1
 62
     0
 92
       -2
340
14
 93
        0
 40
0.045
309
GRIDFORMAT_END
 95
       32
302
GRIDFORMAT
  1
GRIDFORMAT_BEGIN
 90
        0
 91
        1
 62
     0
 92
       -2
340
14
 93
        0
 40
0.045
309
GRIDFORMAT_END
309
TABLEFORMAT_END
  1
CELLSTYLE_BEGIN
 90
        1
 91
        1
300
_TITLE
309
CELLSTYLE_END
300
CELLSTYLE
  1
TABLEFORMAT_BEGIN
 90
        5
170
     1
 91
        0
 92
        0
 62
   257
 93
        1
300
CONTENTFORMAT
  1
CONTENTFORMAT_BEGIN
 90
        0
 91
        0
 92
        4
 93
        0
300

 40
0.0
140
1.0
 94
        5
 62
     0
340
11
144
0.18
309
CONTENTFORMAT_END
171
     1
301
MARGIN
  1
CELLMARGIN_BEGIN
 40
0.06
 40
0.06
 40
0.06
 40
0.06
 40
0.06
 40
0.06
309
CELLMARGIN_END
 94
        6
 95
        1
302
GRIDFORMAT
  1
GRIDFORMAT_BEGIN
 90
        0
 91
        1
 62
     0
 92
       -2
340
14
 93
        0
 40
0.045
309
GRIDFORMAT_END
 95
        2
302
GRIDFORMAT
  1
GRIDFORMAT_BEGIN
 90
        0
 91
        1
 62
     0
 92
       -2
340
14
 93
        0
 40
0.045
309
GRIDFORMAT_END
 95
        4
302
GRIDFORMAT
  1
GRIDFORMAT_BEGIN
 90
        0
 91
        1
 62
     0
 92
       -2
340
14
 93
        0
 40
0.045
309
GRIDFORMAT_END
 95
        8
302
GRIDFORMAT
  1
GRIDFORMAT_BEGIN
 90
        0
 91
        1
 62
     0
 92
       -2
340
14
 93
        0
 40
0.045
309
GRIDFORMAT_END
 95
       16
302
GRIDFORMAT
  1
GRIDFORMAT_BEGIN
 90
        0
 91
        1
 62
     0
 92
       -2
340
14
 93
        0
 40
0.045
309
GRIDFORMAT_END
 95
       32
302
GRIDFORMAT
  1
GRIDFORMAT_BEGIN
 90
        0
 91
        1
 62
     0
 92
       -2
340
14
 93
        0
 40
0.045
309
GRIDFORMAT_END
309
TABLEFORMAT_END
  1
CELLSTYLE_BEGIN
 90
        2
 91
        1
300
_HEADER
309
CELLSTYLE_END
300
CELLSTYLE
  1
TABLEFORMAT_BEGIN
 90
        5
170
     1
 91
        0
 92
        0
 62
   257
 93
        1
300
CONTENTFORMAT
  1
CONTENTFORMAT_BEGIN
 90
        0
 91
        0
 92
        4
 93
        0
300

 40
0.0
140
1.0
 94
        2
 62
     0
340
11
144
0.18
309
CONTENTFORMAT_END
171
     1
301
MARGIN
  1
CELLMARGIN_BEGIN
 40
0.06
 40
0.06
 40
0.06
 40
0.06
 40
0.06
 40
0.06
309
CELLMARGIN_END
 94
        6
 95
        1
302
GRIDFORMAT
  1
GRIDFORMAT_BEGIN
 90
        0
 91
        1
 62
     0
 92
       -2
340
14
 93
        0
 40
0.045
309
GRIDFORMAT_END
 95
        2
302
GRIDFORMAT
  1
GRIDFORMAT_BEGIN
 90
        0
 91
        1
 62
     0
 92
       -2
340
14
 93
        0
 40
0.045
309
GRIDFORMAT_END
 95
        4
302
GRIDFORMAT
  1
GRIDFORMAT_BEGIN
 90
        0
 91
        1
 62
     0
 92
       -2
340
14
 93
        0
 40
0.045
309
GRIDFORMAT_END
 95
        8
302
GRIDFORMAT
  1
GRIDFORMAT_BEGIN
 90
        0
 91
        1
 62
     0
 92
       -2
340
14
 93
        0
 40
0.045
309
GRIDFORMAT_END
 95
       16
302
GRIDFORMAT
  1
GRIDFORMAT_BEGIN
 90
        0
 91
        1
 62
     0
 92
       -2
340
14
 93
        0
 40
0.045
309
GRIDFORMAT_END
 95
       32
302
GRIDFORMAT
  1
GRIDFORMAT_BEGIN
 90
        0
 91
        1
 62
     0
 92
       -2
340
14
 93
        0
 40
0.045
309
GRIDFORMAT_END
309
TABLEFORMAT_END
  1
CELLSTYLE_BEGIN
 90
        3
 91
        2
300
_DATA
309
CELLSTYLE_END
  0
XRECORD
  5
3E8
102
{ACAD_REACTORS
330
301
102
}
330
301
100
AcDbXrecord
280
     1
102
ACAD_ROUNDTRIP_PRE2007_TABLESTYLE
 90
        4
 91
        0
  1

 92
        4
 93
        0
  2

 94
        4
 95
        0
  3

  0
XRECORD
  5
3BB
102
{ACAD_REACTORS
330
3BA
102
}
330
3BA
100
AcDbXrecord
280
     1
102
RTVSPost2010Prop28
280
     1
102
RTVSPost2010PropOp28
 70
     1
102
RTVSPost2010Prop29
280
     1
102
RTVSPost2010PropOp29
 70
     1
102
RTVSPost2010Prop30
280
     0
102
RTVSPost2010PropOp30
 70
     1
102
RTVSPost2010Prop31
280
     0
102
RTVSPost2010PropOp31
 70
     1
102
RTVSPost2010Prop32
280
     0
102
RTVSPost2010PropOp32
 70
     1
102
RTVSPost2010Prop33
280
     0
102
RTVSPost2010PropOp33
 70
     1
102
RTVSPost2010Prop34
280
     0
102
RTVSPost2010PropOp34
 70
     1
102
RTVSPost2010Prop35
280
     0
102
RTVSPost2010PropOp35
 70
     1
102
RTVSPost2010Prop36
280
     0
102
RTVSPost2010PropOp36
 70
     1
102
RTVSPost2010Prop37
 90
       50
102
RTVSPost2010PropOp37
 70
     1
102
RTVSPost2010Prop38
140
0.0
102
RTVSPost2010PropOp38
 70
     1
102
RTVSPost2010Prop39
140
1.0
102
RTVSPost2010PropOp39
 70
     1
102
RTVSPost2010Prop40
 90
        0
102
RTVSPost2010PropOp40
 70
     1
102
RTVSPost2010Prop41ColorIndex
 90
       18
102
RTVSPost2010Prop41ColorRGB
 90
        0
102
RTVSPost2010PropOp41
 70
     1
102
RTVSPost2010Prop42
 90
       50
102
RTVSPost2010PropOp42
 70
     1
102
RTVSPost2010Prop43
 90
        3
102
RTVSPost2010PropOp43
 70
     1
102
RTVSPost2010Prop44ColorIndex
 90
        5
102
RTVSPost2010Prop44ColorRGB
 90
      255
102
RTVSPost2010PropOp44
 70
     1
102
RTVSPost2010Prop45
280
     0
102
RTVSPost2010PropOp45
 70
     1
102
RTVSPost2010Prop46
 90
       50
102
RTVSPost2010PropOp46
 70
     1
102
RTVSPost2010Prop47
 90
       50
102
RTVSPost2010PropOp47
 70
     1
102
RTVSPost2010Prop48
 90
       50
102
RTVSPost2010PropOp48
 70
     1
102
RTVSPost2010Prop49
280
     0
102
RTVSPost2010PropOp49
 70
     1
102
RTVSPost2010Prop50
 90
       50
102
RTVSPost2010PropOp50
 70
     1
102
RTVSPost2010Prop51ColorIndex
 90
      256
102
RTVSPost2010Prop51ColorRGB
 90
-16777216
102
RTVSPost2010PropOp51
 70
     0
102
RTVSPost2010Prop52
140
1.0
102
RTVSPost2010PropOp52
 70
     0
102
RTVSPost2010Prop53
 90
        2
102
RTVSPost2010PropOp53
 70
     1
102
RTVSPost2010Prop54
  1
strokes_ogs.tif
102
RTVSPost2010PropOp54
 70
     1
102
RTVSPost2010Prop55
280
     0
102
RTVSPost2010PropOp55
 70
     1
102
RTVSPost2010Prop56
140
1.0
102
RTVSPost2010PropOp56
 70
     1
102
RTVSPost2010Prop57
140
1.0
102
RTVSPost2010PropOp57
 70
     1
102
RTVSPropertyOp0
 70
     1
102
RTVSPropertyOp1
 70
     1
102
RTVSPropertyOp2
 70
     1
102
RTVSPropertyOp3
 70
     1
102
RTVSPropertyOp4
 70
     1
102
RTVSPropertyOp5
 70
     1
102
RTVSPropertyOp6
 70
     1
102
RTVSPropertyOp7
 70
     1
102
RTVSPropertyOp8
 70
     1
102
RTVSPropertyOp9
 70
     1
102
RTVSPropertyOp10
 70
     1
102
RTVSPropertyOp11
 70
     1
102
RTVSPropertyOp12
 70
     1
102
RTVSPropertyOp13
 70
     1
102
RTVSPropertyOp14
 70
     1
102
RTVSPropertyOp15
 70
     1
102
RTVSPropertyOp16
 70
     1
102
RTVSPropertyOp17
 70
     1
102
RTVSPropertyOp18
 70
     1
102
RTVSPropertyOp19
 70
     1
102
RTVSPropertyOp20
 70
     1
102
RTVSPropertyOp21
 70
     1
102
RTVSPropertyOp22
 70
     1
102
RTVSPropertyOp23
 70
     1
102
RTVSPropertyOp24
 70
     1
102
RTVSPropertyOp25
 70
     1
102
RTVSPropertyOp26
 70
     1
102
RTVSPropertyOp27
 70
     1
102
RTVSPropertyOp28
 70
     1
102
RTVSPropertyOp29
 70
     1
102
RTVSPropertyOp30
 70
     1
102
RTVSPropertyOp31
 70
     1
102
RTVSPropertyOp32
 70
     1
102
RTVSPropertyOp33
 70
     1
102
RTVSPropertyOp34
 70
     1
102
RTVSPropertyOp35
 70
     1
102
RTVSPropertyOp36
 70
     1
102
RTVSPropertyOp37
 70
     1
102
RTVSPropertyOp38
 70
     1
102
RTVSPropertyOp39
 70
     1
102
RTVSPropertyOp40
 70
     1
102
RTVSPropertyOp41
 70
     1
102
RTVSPropertyOp42
 70
     1
102
RTVSPropertyOp43
 70
     1
102
RTVSPropertyOp44
 70
     1
102
RTVSPropertyOp45
 70
     1
102
RTVSPropertyOp46
 70
     1
102
RTVSPropertyOp47
 70
     1
102
RTVSPropertyOp48
 70
     1
102
RTVSPropertyOp49
 70
     1
102
RTVSPropertyOp50
 70
     1
102
RTVSPropertyOp51
 70
     0
102
RTVSPropertyOp52
 70
     0
102
RTVSPropertyOp53
 70
     1
102
RTVSPropertyOp54
 70
     1
102
RTVSPropertyOp55
 70
     1
102
RTVSPropertyOp56
 70
     1
102
RTVSPropertyOp57
 70
     1
102
RTVSPropertyOp58
 70
     1
102
RTVSPropertyOp59
 70
     1
102
RTVSPropertyOp60
 70
     1
102
RTVSPropertyOp61
 70
     1
102
RTVSPropertyOp62
 70
     1
  0
XRECORD
  5
3C1
102
{ACAD_REACTORS
330
3C0
102
}
330
3C0
100
AcDbXrecord
280
     1
102
RTVSPost2010Prop28
280
     0
102
RTVSPost2010PropOp28
 70
     1
102
RTVSPost2010Prop29
280
     1
102
RTVSPost2010PropOp29
 70
     1
102
RTVSPost2010Prop30
280
     1
102
RTVSPost2010PropOp30
 70
     1
102
RTVSPost2010Prop31
280
     0
102
RTVSPost2010PropOp31
 70
     1
102
RTVSPost2010Prop32
280
     0
102
RTVSPost2010PropOp32
 70
     1
102
RTVSPost2010Prop33
280
     0
102
RTVSPost2010PropOp33
 70
     1
102
RTVSPost2010Prop34
280
     0
102
RTVSPost2010PropOp34
 70
     1
102
RTVSPost2010Prop35
280
     0
102
RTVSPost2010PropOp35
 70
     1
102
RTVSPost2010Prop36
280
     0
102
RTVSPost2010PropOp36
 70
     1
102
RTVSPost2010Prop37
 90
       50
102
RTVSPost2010PropOp37
 70
     1
102
RTVSPost2010Prop38
140
0.0
102
RTVSPost2010PropOp38
 70
     1
102
RTVSPost2010Prop39
140
1.0
102
RTVSPost2010PropOp39
 70
     1
102
RTVSPost2010Prop40
 90
        0
102
RTVSPost2010PropOp40
 70
     1
102
RTVSPost2010Prop41ColorIndex
 90
       18
102
RTVSPost2010Prop41ColorRGB
 90
        0
102
RTVSPost2010PropOp41
 70
     1
102
RTVSPost2010Prop42
 90
       50
102
RTVSPost2010PropOp42
 70
     1
102
RTVSPost2010Prop43
 90
        3
102
RTVSPost2010PropOp43
 70
     1
102
RTVSPost2010Prop44ColorIndex
 90
        5
102
RTVSPost2010Prop44ColorRGB
 90
      255
102
RTVSPost2010PropOp44
 70
     1
102
RTVSPost2010Prop45
280
     0
102
RTVSPost2010PropOp45
 70
     1
102
RTVSPost2010Prop46
 90
       50
102
RTVSPost2010PropOp46
 70
     1
102
RTVSPost2010Prop47
 90
       50
102
RTVSPost2010PropOp47
 70
     1
102
RTVSPost2010Prop48
 90
       50
102
RTVSPost2010PropOp48
 70
     1
102
RTVSPost2010Prop49
280
     0
102
RTVSPost2010PropOp49
 70
     1
102
RTVSPost2010Prop50
 90
       50
102
RTVSPost2010PropOp50
 70
     1
102
RTVSPost2010Prop51ColorIndex
 90
      256
102
RTVSPost2010Prop51ColorRGB
 90
-16777216
102
RTVSPost2010PropOp51
 70
     0
102
RTVSPost2010Prop52
140
1.0
102
RTVSPost2010PropOp52
 70
     0
102
RTVSPost2010Prop53
 90
        2
102
RTVSPost2010PropOp53
 70
     1
102
RTVSPost2010Prop54
  1
strokes_ogs.tif
102
RTVSPost2010PropOp54
 70
     1
102
RTVSPost2010Prop55
280
     0
102
RTVSPost2010PropOp55
 70
     1
102
RTVSPost2010Prop56
140
1.0
102
RTVSPost2010PropOp56
 70
     1
102
RTVSPost2010Prop57
140
1.0
102
RTVSPost2010PropOp57
 70
     1
102
RTVSPropertyOp0
 70
     1
102
RTVSPropertyOp1
 70
     1
102
RTVSPropertyOp2
 70
     1
102
RTVSPropertyOp3
 70
     1
102
RTVSPropertyOp4
 70
     1
102
RTVSPropertyOp5
 70
     1
102
RTVSPropertyOp6
 70
     1
102
RTVSPropertyOp7
 70
     1
102
RTVSPropertyOp8
 70
     1
102
RTVSPropertyOp9
 70
     1
102
RTVSPropertyOp10
 70
     1
102
RTVSPropertyOp11
 70
     1
102
RTVSPropertyOp12
 70
     1
102
RTVSPropertyOp13
 70
     1
102
RTVSPropertyOp14
 70
     1
102
RTVSPropertyOp15
 70
     1
102
RTVSPropertyOp16
 70
     1
102
RTVSPropertyOp17
 70
     1
102
RTVSPropertyOp18
 70
     1
102
RTVSPropertyOp19
 70
     1
102
RTVSPropertyOp20
 70
     1
102
RTVSPropertyOp21
 70
     1
102
RTVSPropertyOp22
 70
     1
102
RTVSPropertyOp23
 70
     1
102
RTVSPropertyOp24
 70
     1
102
RTVSPropertyOp25
 70
     1
102
RTVSPropertyOp26
 70
     1
102
RTVSPropertyOp27
 70
     1
102
RTVSPropertyOp28
 70
     1
102
RTVSPropertyOp29
 70
     1
102
RTVSPropertyOp30
 70
     1
102
RTVSPropertyOp31
 70
     1
102
RTVSPropertyOp32
 70
     1
102
RTVSPropertyOp33
 70
     1
102
RTVSPropertyOp34
 70
     1
102
RTVSPropertyOp35
 70
     1
102
RTVSPropertyOp36
 70
     1
102
RTVSPropertyOp37
 70
     1
102
RTVSPropertyOp38
 70
     1
102
RTVSPropertyOp39
 70
     1
102
RTVSPropertyOp40
 70
     1
102
RTVSPropertyOp41
 70
     1
102
RTVSPropertyOp42
 70
     1
102
RTVSPropertyOp43
 70
     1
102
RTVSPropertyOp44
 70
     1
102
RTVSPropertyOp45
 70
     1
102
RTVSPropertyOp46
 70
     1
102
RTVSPropertyOp47
 70
     1
102
RTVSPropertyOp48
 70
     1
102
RTVSPropertyOp49
 70
     1
102
RTVSPropertyOp50
 70
     1
102
RTVSPropertyOp51
 70
     0
102
RTVSPropertyOp52
 70
     0
102
RTVSPropertyOp53
 70
     1
102
RTVSPropertyOp54
 70
     1
102
RTVSPropertyOp55
 70
     1
102
RTVSPropertyOp56
 70
     1
102
RTVSPropertyOp57
 70
     1
102
RTVSPropertyOp58
 70
     1
102
RTVSPropertyOp59
 70
     1
102
RTVSPropertyOp60
 70
     1
102
RTVSPropertyOp61
 70
     1
102
RTVSPropertyOp62
 70
     1
  0
XRECORD
  5
3C9
102
{ACAD_REACTORS
330
3C8
102
}
330
3C8
100
AcDbXrecord
280
     1
102
RTVSPost2010Prop28
280
     0
102
RTVSPost2010PropOp28
 70
     1
102
RTVSPost2010Prop29
280
     1
102
RTVSPost2010PropOp29
 70
     1
102
RTVSPost2010Prop30
280
     1
102
RTVSPost2010PropOp30
 70
     1
102
RTVSPost2010Prop31
280
     0
102
RTVSPost2010PropOp31
 70
     1
102
RTVSPost2010Prop32
280
     0
102
RTVSPost2010PropOp32
 70
     1
102
RTVSPost2010Prop33
280
     0
102
RTVSPost2010PropOp33
 70
     1
102
RTVSPost2010Prop34
280
     0
102
RTVSPost2010PropOp34
 70
     1
102
RTVSPost2010Prop35
280
     0
102
RTVSPost2010PropOp35
 70
     1
102
RTVSPost2010Prop36
280
     0
102
RTVSPost2010PropOp36
 70
     1
102
RTVSPost2010Prop37
 90
       50
102
RTVSPost2010PropOp37
 70
     1
102
RTVSPost2010Prop38
140
0.0
102
RTVSPost2010PropOp38
 70
     1
102
RTVSPost2010Prop39
140
1.0
102
RTVSPost2010PropOp39
 70
     1
102
RTVSPost2010Prop40
 90
        0
102
RTVSPost2010PropOp40
 70
     1
102
RTVSPost2010Prop41ColorIndex
 90
       18
102
RTVSPost2010Prop41ColorRGB
 90
        0
102
RTVSPost2010PropOp41
 70
     1
102
RTVSPost2010Prop42
 90
       50
102
RTVSPost2010PropOp42
 70
     1
102
RTVSPost2010Prop43
 90
        3
102
RTVSPost2010PropOp43
 70
     1
102
RTVSPost2010Prop44ColorIndex
 90
        5
102
RTVSPost2010Prop44ColorRGB
 90
      255
102
RTVSPost2010PropOp44
 70
     1
102
RTVSPost2010Prop45
280
     0
102
RTVSPost2010PropOp45
 70
     1
102
RTVSPost2010Prop46
 90
       50
102
RTVSPost2010PropOp46
 70
     1
102
RTVSPost2010Prop47
 90
       50
102
RTVSPost2010PropOp47
 70
     1
102
RTVSPost2010Prop48
 90
       50
102
RTVSPost2010PropOp48
 70
     1
102
RTVSPost2010Prop49
280
     0
102
RTVSPost2010PropOp49
 70
     1
102
RTVSPost2010Prop50
 90
       50
102
RTVSPost2010PropOp50
 70
     1
102
RTVSPost2010Prop51ColorIndex
 90
      256
102
RTVSPost2010Prop51ColorRGB
 90
-16777216
102
RTVSPost2010PropOp51
 70
     0
102
RTVSPost2010Prop52
140
1.0
102
RTVSPost2010PropOp52
 70
     0
102
RTVSPost2010Prop53
 90
        2
102
RTVSPost2010PropOp53
 70
     1
102
RTVSPost2010Prop54
  1
strokes_ogs.tif
102
RTVSPost2010PropOp54
 70
     1
102
RTVSPost2010Prop55
280
     0
102
RTVSPost2010PropOp55
 70
     1
102
RTVSPost2010Prop56
140
1.0
102
RTVSPost2010PropOp56
 70
     1
102
RTVSPost2010Prop57
140
1.0
102
RTVSPost2010PropOp57
 70
     1
102
RTVSPropertyOp0
 70
     1
102
RTVSPropertyOp1
 70
     1
102
RTVSPropertyOp2
 70
     1
102
RTVSPropertyOp3
 70
     1
102
RTVSPropertyOp4
 70
     1
102
RTVSPropertyOp5
 70
     1
102
RTVSPropertyOp6
 70
     1
102
RTVSPropertyOp7
 70
     1
102
RTVSPropertyOp8
 70
     1
102
RTVSPropertyOp9
 70
     1
102
RTVSPropertyOp10
 70
     1
102
RTVSPropertyOp11
 70
     1
102
RTVSPropertyOp12
 70
     1
102
RTVSPropertyOp13
 70
     1
102
RTVSPropertyOp14
 70
     1
102
RTVSPropertyOp15
 70
     1
102
RTVSPropertyOp16
 70
     1
102
RTVSPropertyOp17
 70
     1
102
RTVSPropertyOp18
 70
     1
102
RTVSPropertyOp19
 70
     1
102
RTVSPropertyOp20
 70
     1
102
RTVSPropertyOp21
 70
     1
102
RTVSPropertyOp22
 70
     1
102
RTVSPropertyOp23
 70
     1
102
RTVSPropertyOp24
 70
     1
102
RTVSPropertyOp25
 70
     1
102
RTVSPropertyOp26
 70
     1
102
RTVSPropertyOp27
 70
     1
102
RTVSPropertyOp28
 70
     1
102
RTVSPropertyOp29
 70
     1
102
RTVSPropertyOp30
 70
     1
102
RTVSPropertyOp31
 70
     1
102
RTVSPropertyOp32
 70
     1
102
RTVSPropertyOp33
 70
     1
102
RTVSPropertyOp34
 70
     1
102
RTVSPropertyOp35
 70
     1
102
RTVSPropertyOp36
 70
     1
102
RTVSPropertyOp37
 70
     1
102
RTVSPropertyOp38
 70
     1
102
RTVSPropertyOp39
 70
     1
102
RTVSPropertyOp40
 70
     1
102
RTVSPropertyOp41
 70
     1
102
RTVSPropertyOp42
 70
     1
102
RTVSPropertyOp43
 70
     1
102
RTVSPropertyOp44
 70
     1
102
RTVSPropertyOp45
 70
     1
102
RTVSPropertyOp46
 70
     1
102
RTVSPropertyOp47
 70
     1
102
RTVSPropertyOp48
 70
     1
102
RTVSPropertyOp49
 70
     1
102
RTVSPropertyOp50
 70
     1
102
RTVSPropertyOp51
 70
     0
102
RTVSPropertyOp52
 70
     0
102
RTVSPropertyOp53
 70
     1
102
RTVSPropertyOp54
 70
     1
102
RTVSPropertyOp55
 70
     1
102
RTVSPropertyOp56
 70
     1
102
RTVSPropertyOp57
 70
     1
102
RTVSPropertyOp58
 70
     1
102
RTVSPropertyOp59
 70
     1
102
RTVSPropertyOp60
 70
     1
102
RTVSPropertyOp61
 70
     1
102
RTVSPropertyOp62
 70
     1
  0
XRECORD
  5
3D1
102
{ACAD_REACTORS
330
3D0
102
}
330
3D0
100
AcDbXrecord
280
     1
102
RTVSPost2010Prop28
280
     0
102
RTVSPost2010PropOp28
 70
     1
102
RTVSPost2010Prop29
280
     1
102
RTVSPost2010PropOp29
 70
     1
102
RTVSPost2010Prop30
280
     1
102
RTVSPost2010PropOp30
 70
     1
102
RTVSPost2010Prop31
280
     0
102
RTVSPost2010PropOp31
 70
     1
102
RTVSPost2010Prop32
280
     0
102
RTVSPost2010PropOp32
 70
     1
102
RTVSPost2010Prop33
280
     0
102
RTVSPost2010PropOp33
 70
     1
102
RTVSPost2010Prop34
280
     0
102
RTVSPost2010PropOp34
 70
     1
102
RTVSPost2010Prop35
280
     0
102
RTVSPost2010PropOp35
 70
     1
102
RTVSPost2010Prop36
280
     0
102
RTVSPost2010PropOp36
 70
     1
102
RTVSPost2010Prop37
 90
       50
102
RTVSPost2010PropOp37
 70
     1
102
RTVSPost2010Prop38
140
0.0
102
RTVSPost2010PropOp38
 70
     1
102
RTVSPost2010Prop39
140
1.0
102
RTVSPost2010PropOp39
 70
     1
102
RTVSPost2010Prop40
 90
        0
102
RTVSPost2010PropOp40
 70
     1
102
RTVSPost2010Prop41ColorIndex
 90
       18
102
RTVSPost2010Prop41ColorRGB
 90
        0
102
RTVSPost2010PropOp41
 70
     1
102
RTVSPost2010Prop42
 90
       50
102
RTVSPost2010PropOp42
 70
     1
102
RTVSPost2010Prop43
 90
        3
102
RTVSPost2010PropOp43
 70
     1
102
RTVSPost2010Prop44ColorIndex
 90
        5
102
RTVSPost2010Prop44ColorRGB
 90
      255
102
RTVSPost2010PropOp44
 70
     1
102
RTVSPost2010Prop45
280
     0
102
RTVSPost2010PropOp45
 70
     1
102
RTVSPost2010Prop46
 90
       50
102
RTVSPost2010PropOp46
 70
     1
102
RTVSPost2010Prop47
 90
       50
102
RTVSPost2010PropOp47
 70
     1
102
RTVSPost2010Prop48
 90
       50
102
RTVSPost2010PropOp48
 70
     1
102
RTVSPost2010Prop49
280
     0
102
RTVSPost2010PropOp49
 70
     1
102
RTVSPost2010Prop50
 90
       50
102
RTVSPost2010PropOp50
 70
     1
102
RTVSPost2010Prop51ColorIndex
 90
      256
102
RTVSPost2010Prop51ColorRGB
 90
-16777216
102
RTVSPost2010PropOp51
 70
     0
102
RTVSPost2010Prop52
140
1.0
102
RTVSPost2010PropOp52
 70
     0
102
RTVSPost2010Prop53
 90
        2
102
RTVSPost2010PropOp53
 70
     1
102
RTVSPost2010Prop54
  1
strokes_ogs.tif
102
RTVSPost2010PropOp54
 70
     1
102
RTVSPost2010Prop55
280
     0
102
RTVSPost2010PropOp55
 70
     1
102
RTVSPost2010Prop56
140
1.0
102
RTVSPost2010PropOp56
 70
     1
102
RTVSPost2010Prop57
140
1.0
102
RTVSPost2010PropOp57
 70
     1
102
RTVSPropertyOp0
 70
     1
102
RTVSPropertyOp1
 70
     1
102
RTVSPropertyOp2
 70
     1
102
RTVSPropertyOp3
 70
     1
102
RTVSPropertyOp4
 70
     1
102
RTVSPropertyOp5
 70
     1
102
RTVSPropertyOp6
 70
     1
102
RTVSPropertyOp7
 70
     1
102
RTVSPropertyOp8
 70
     1
102
RTVSPropertyOp9
 70
     1
102
RTVSPropertyOp10
 70
     1
102
RTVSPropertyOp11
 70
     1
102
RTVSPropertyOp12
 70
     1
102
RTVSPropertyOp13
 70
     1
102
RTVSPropertyOp14
 70
     1
102
RTVSPropertyOp15
 70
     1
102
RTVSPropertyOp16
 70
     1
102
RTVSPropertyOp17
 70
     1
102
RTVSPropertyOp18
 70
     1
102
RTVSPropertyOp19
 70
     1
102
RTVSPropertyOp20
 70
     1
102
RTVSPropertyOp21
 70
     1
102
RTVSPropertyOp22
 70
     1
102
RTVSPropertyOp23
 70
     1
102
RTVSPropertyOp24
 70
     1
102
RTVSPropertyOp25
 70
     1
102
RTVSPropertyOp26
 70
     1
102
RTVSPropertyOp27
 70
     1
102
RTVSPropertyOp28
 70
     1
102
RTVSPropertyOp29
 70
     1
102
RTVSPropertyOp30
 70
     1
102
RTVSPropertyOp31
 70
     1
102
RTVSPropertyOp32
 70
     1
102
RTVSPropertyOp33
 70
     1
102
RTVSPropertyOp34
 70
     1
102
RTVSPropertyOp35
 70
     1
102
RTVSPropertyOp36
 70
     1
102
RTVSPropertyOp37
 70
     1
102
RTVSPropertyOp38
 70
     1
102
RTVSPropertyOp39
 70
     1
102
RTVSPropertyOp40
 70
     1
102
RTVSPropertyOp41
 70
     1
102
RTVSPropertyOp42
 70
     1
102
RTVSPropertyOp43
 70
     1
102
RTVSPropertyOp44
 70
     1
102
RTVSPropertyOp45
 70
     1
102
RTVSPropertyOp46
 70
     1
102
RTVSPropertyOp47
 70
     1
102
RTVSPropertyOp48
 70
     1
102
RTVSPropertyOp49
 70
     1
102
RTVSPropertyOp50
 70
     1
102
RTVSPropertyOp51
 70
     0
102
RTVSPropertyOp52
 70
     0
102
RTVSPropertyOp53
 70
     1
102
RTVSPropertyOp54
 70
     1
102
RTVSPropertyOp55
 70
     1
102
RTVSPropertyOp56
 70
     1
102
RTVSPropertyOp57
 70
     1
102
RTVSPropertyOp58
 70
     1
102
RTVSPropertyOp59
 70
     1
102
RTVSPropertyOp60
 70
     1
102
RTVSPropertyOp61
 70
     1
102
RTVSPropertyOp62
 70
     1
  0
XRECORD
  5
3C5
102
{ACAD_REACTORS
330
3C4
102
}
330
3C4
100
AcDbXrecord
280
     1
102
RTVSPost2010Prop28
280
     0
102
RTVSPost2010PropOp28
 70
     1
102
RTVSPost2010Prop29
280
     1
102
RTVSPost2010PropOp29
 70
     1
102
RTVSPost2010Prop30
280
     1
102
RTVSPost2010PropOp30
 70
     1
102
RTVSPost2010Prop31
280
     0
102
RTVSPost2010PropOp31
 70
     1
102
RTVSPost2010Prop32
280
     0
102
RTVSPost2010PropOp32
 70
     1
102
RTVSPost2010Prop33
280
     0
102
RTVSPost2010PropOp33
 70
     1
102
RTVSPost2010Prop34
280
     0
102
RTVSPost2010PropOp34
 70
     1
102
RTVSPost2010Prop35
280
     0
102
RTVSPost2010PropOp35
 70
     1
102
RTVSPost2010Prop36
280
     0
102
RTVSPost2010PropOp36
 70
     1
102
RTVSPost2010Prop37
 90
       50
102
RTVSPost2010PropOp37
 70
     1
102
RTVSPost2010Prop38
140
0.0
102
RTVSPost2010PropOp38
 70
     1
102
RTVSPost2010Prop39
140
1.0
102
RTVSPost2010PropOp39
 70
     1
102
RTVSPost2010Prop40
 90
        0
102
RTVSPost2010PropOp40
 70
     1
102
RTVSPost2010Prop41ColorIndex
 90
       18
102
RTVSPost2010Prop41ColorRGB
 90
        0
102
RTVSPost2010PropOp41
 70
     1
102
RTVSPost2010Prop42
 90
       50
102
RTVSPost2010PropOp42
 70
     1
102
RTVSPost2010Prop43
 90
        3
102
RTVSPost2010PropOp43
 70
     1
102
RTVSPost2010Prop44ColorIndex
 90
        5
102
RTVSPost2010Prop44ColorRGB
 90
      255
102
RTVSPost2010PropOp44
 70
     1
102
RTVSPost2010Prop45
280
     0
102
RTVSPost2010PropOp45
 70
     1
102
RTVSPost2010Prop46
 90
       50
102
RTVSPost2010PropOp46
 70
     1
102
RTVSPost2010Prop47
 90
       50
102
RTVSPost2010PropOp47
 70
     1
102
RTVSPost2010Prop48
 90
       50
102
RTVSPost2010PropOp48
 70
     1
102
RTVSPost2010Prop49
280
     0
102
RTVSPost2010PropOp49
 70
     1
102
RTVSPost2010Prop50
 90
       50
102
RTVSPost2010PropOp50
 70
     1
102
RTVSPost2010Prop51ColorIndex
 90
      256
102
RTVSPost2010Prop51ColorRGB
 90
-16777216
102
RTVSPost2010PropOp51
 70
     0
102
RTVSPost2010Prop52
140
1.0
102
RTVSPost2010PropOp52
 70
     0
102
RTVSPost2010Prop53
 90
        2
102
RTVSPost2010PropOp53
 70
     1
102
RTVSPost2010Prop54
  1
strokes_ogs.tif
102
RTVSPost2010PropOp54
 70
     1
102
RTVSPost2010Prop55
280
     0
102
RTVSPost2010PropOp55
 70
     1
102
RTVSPost2010Prop56
140
1.0
102
RTVSPost2010PropOp56
 70
     1
102
RTVSPost2010Prop57
140
1.0
102
RTVSPost2010PropOp57
 70
     1
102
RTVSPropertyOp0
 70
     1
102
RTVSPropertyOp1
 70
     1
102
RTVSPropertyOp2
 70
     1
102
RTVSPropertyOp3
 70
     1
102
RTVSPropertyOp4
 70
     1
102
RTVSPropertyOp5
 70
     1
102
RTVSPropertyOp6
 70
     1
102
RTVSPropertyOp7
 70
     1
102
RTVSPropertyOp8
 70
     1
102
RTVSPropertyOp9
 70
     1
102
RTVSPropertyOp10
 70
     1
102
RTVSPropertyOp11
 70
     1
102
RTVSPropertyOp12
 70
     1
102
RTVSPropertyOp13
 70
     1
102
RTVSPropertyOp14
 70
     1
102
RTVSPropertyOp15
 70
     1
102
RTVSPropertyOp16
 70
     1
102
RTVSPropertyOp17
 70
     1
102
RTVSPropertyOp18
 70
     1
102
RTVSPropertyOp19
 70
     1
102
RTVSPropertyOp20
 70
     1
102
RTVSPropertyOp21
 70
     1
102
RTVSPropertyOp22
 70
     1
102
RTVSPropertyOp23
 70
     1
102
RTVSPropertyOp24
 70
     1
102
RTVSPropertyOp25
 70
     1
102
RTVSPropertyOp26
 70
     1
102
RTVSPropertyOp27
 70
     1
102
RTVSPropertyOp28
 70
     1
102
RTVSPropertyOp29
 70
     1
102
RTVSPropertyOp30
 70
     1
102
RTVSPropertyOp31
 70
     1
102
RTVSPropertyOp32
 70
     1
102
RTVSPropertyOp33
 70
     1
102
RTVSPropertyOp34
 70
     1
102
RTVSPropertyOp35
 70
     1
102
RTVSPropertyOp36
 70
     1
102
RTVSPropertyOp37
 70
     1
102
RTVSPropertyOp38
 70
     1
102
RTVSPropertyOp39
 70
     1
102
RTVSPropertyOp40
 70
     1
102
RTVSPropertyOp41
 70
     1
102
RTVSPropertyOp42
 70
     1
102
RTVSPropertyOp43
 70
     1
102
RTVSPropertyOp44
 70
     1
102
RTVSPropertyOp45
 70
     1
102
RTVSPropertyOp46
 70
     1
102
RTVSPropertyOp47
 70
     1
102
RTVSPropertyOp48
 70
     1
102
RTVSPropertyOp49
 70
     1
102
RTVSPropertyOp50
 70
     1
102
RTVSPropertyOp51
 70
     0
102
RTVSPropertyOp52
 70
     0
102
RTVSPropertyOp53
 70
     1
102
RTVSPropertyOp54
 70
     1
102
RTVSPropertyOp55
 70
     1
102
RTVSPropertyOp56
 70
     1
102
RTVSPropertyOp57
 70
     1
102
RTVSPropertyOp58
 70
     1
102
RTVSPropertyOp59
 70
     1
102
RTVSPropertyOp60
 70
     1
102
RTVSPropertyOp61
 70
     1
102
RTVSPropertyOp62
 70
     1
  0
XRECORD
  5
3C7
102
{ACAD_REACTORS
330
3C6
102
}
330
3C6
100
AcDbXrecord
280
     1
102
RTVSPost2010Prop28
280
     0
102
RTVSPost2010PropOp28
 70
     1
102
RTVSPost2010Prop29
280
     1
102
RTVSPost2010PropOp29
 70
     1
102
RTVSPost2010Prop30
280
     1
102
RTVSPost2010PropOp30
 70
     1
102
RTVSPost2010Prop31
280
     0
102
RTVSPost2010PropOp31
 70
     1
102
RTVSPost2010Prop32
280
     0
102
RTVSPost2010PropOp32
 70
     1
102
RTVSPost2010Prop33
280
     0
102
RTVSPost2010PropOp33
 70
     1
102
RTVSPost2010Prop34
280
     0
102
RTVSPost2010PropOp34
 70
     1
102
RTVSPost2010Prop35
280
     0
102
RTVSPost2010PropOp35
 70
     1
102
RTVSPost2010Prop36
280
     0
102
RTVSPost2010PropOp36
 70
     1
102
RTVSPost2010Prop37
 90
       50
102
RTVSPost2010PropOp37
 70
     1
102
RTVSPost2010Prop38
140
0.0
102
RTVSPost2010PropOp38
 70
     1
102
RTVSPost2010Prop39
140
1.0
102
RTVSPost2010PropOp39
 70
     1
102
RTVSPost2010Prop40
 90
        0
102
RTVSPost2010PropOp40
 70
     1
102
RTVSPost2010Prop41ColorIndex
 90
       18
102
RTVSPost2010Prop41ColorRGB
 90
        0
102
RTVSPost2010PropOp41
 70
     1
102
RTVSPost2010Prop42
 90
       50
102
RTVSPost2010PropOp42
 70
     1
102
RTVSPost2010Prop43
 90
        3
102
RTVSPost2010PropOp43
 70
     1
102
RTVSPost2010Prop44ColorIndex
 90
        5
102
RTVSPost2010Prop44ColorRGB
 90
      255
102
RTVSPost2010PropOp44
 70
     1
102
RTVSPost2010Prop45
280
     0
102
RTVSPost2010PropOp45
 70
     1
102
RTVSPost2010Prop46
 90
       50
102
RTVSPost2010PropOp46
 70
     1
102
RTVSPost2010Prop47
 90
       50
102
RTVSPost2010PropOp47
 70
     1
102
RTVSPost2010Prop48
 90
       50
102
RTVSPost2010PropOp48
 70
     1
102
RTVSPost2010Prop49
280
     0
102
RTVSPost2010PropOp49
 70
     1
102
RTVSPost2010Prop50
 90
       50
102
RTVSPost2010PropOp50
 70
     1
102
RTVSPost2010Prop51ColorIndex
 90
      256
102
RTVSPost2010Prop51ColorRGB
 90
-16777216
102
RTVSPost2010PropOp51
 70
     0
102
RTVSPost2010Prop52
140
1.0
102
RTVSPost2010PropOp52
 70
     0
102
RTVSPost2010Prop53
 90
        2
102
RTVSPost2010PropOp53
 70
     1
102
RTVSPost2010Prop54
  1
strokes_ogs.tif
102
RTVSPost2010PropOp54
 70
     1
102
RTVSPost2010Prop55
280
     0
102
RTVSPost2010PropOp55
 70
     1
102
RTVSPost2010Prop56
140
1.0
102
RTVSPost2010PropOp56
 70
     1
102
RTVSPost2010Prop57
140
1.0
102
RTVSPost2010PropOp57
 70
     1
102
RTVSPropertyOp0
 70
     1
102
RTVSPropertyOp1
 70
     1
102
RTVSPropertyOp2
 70
     1
102
RTVSPropertyOp3
 70
     1
102
RTVSPropertyOp4
 70
     1
102
RTVSPropertyOp5
 70
     1
102
RTVSPropertyOp6
 70
     1
102
RTVSPropertyOp7
 70
     1
102
RTVSPropertyOp8
 70
     1
102
RTVSPropertyOp9
 70
     1
102
RTVSPropertyOp10
 70
     1
102
RTVSPropertyOp11
 70
     1
102
RTVSPropertyOp12
 70
     1
102
RTVSPropertyOp13
 70
     1
102
RTVSPropertyOp14
 70
     1
102
RTVSPropertyOp15
 70
     1
102
RTVSPropertyOp16
 70
     1
102
RTVSPropertyOp17
 70
     1
102
RTVSPropertyOp18
 70
     1
102
RTVSPropertyOp19
 70
     1
102
RTVSPropertyOp20
 70
     1
102
RTVSPropertyOp21
 70
     1
102
RTVSPropertyOp22
 70
     1
102
RTVSPropertyOp23
 70
     1
102
RTVSPropertyOp24
 70
     1
102
RTVSPropertyOp25
 70
     1
102
RTVSPropertyOp26
 70
     1
102
RTVSPropertyOp27
 70
     1
102
RTVSPropertyOp28
 70
     1
102
RTVSPropertyOp29
 70
     1
102
RTVSPropertyOp30
 70
     1
102
RTVSPropertyOp31
 70
     1
102
RTVSPropertyOp32
 70
     1
102
RTVSPropertyOp33
 70
     1
102
RTVSPropertyOp34
 70
     1
102
RTVSPropertyOp35
 70
     1
102
RTVSPropertyOp36
 70
     1
102
RTVSPropertyOp37
 70
     1
102
RTVSPropertyOp38
 70
     1
102
RTVSPropertyOp39
 70
     1
102
RTVSPropertyOp40
 70
     1
102
RTVSPropertyOp41
 70
     1
102
RTVSPropertyOp42
 70
     1
102
RTVSPropertyOp43
 70
     1
102
RTVSPropertyOp44
 70
     1
102
RTVSPropertyOp45
 70
     1
102
RTVSPropertyOp46
 70
     1
102
RTVSPropertyOp47
 70
     1
102
RTVSPropertyOp48
 70
     1
102
RTVSPropertyOp49
 70
     1
102
RTVSPropertyOp50
 70
     1
102
RTVSPropertyOp51
 70
     0
102
RTVSPropertyOp52
 70
     0
102
RTVSPropertyOp53
 70
     1
102
RTVSPropertyOp54
 70
     1
102
RTVSPropertyOp55
 70
     1
102
RTVSPropertyOp56
 70
     1
102
RTVSPropertyOp57
 70
     1
102
RTVSPropertyOp58
 70
     1
102
RTVSPropertyOp59
 70
     1
102
RTVSPropertyOp60
 70
     1
102
RTVSPropertyOp61
 70
     1
102
RTVSPropertyOp62
 70
     1
  0
XRECORD
  5
3D7
102
{ACAD_REACTORS
330
3D6
102
}
330
3D6
100
AcDbXrecord
280
     1
102
RTVSPost2010Prop28
280
     0
102
RTVSPost2010PropOp28
 70
     0
102
RTVSPost2010Prop29
280
     1
102
RTVSPost2010PropOp29
 70
     0
102
RTVSPost2010Prop30
280
     1
102
RTVSPost2010PropOp30
 70
     0
102
RTVSPost2010Prop31
280
     0
102
RTVSPost2010PropOp31
 70
     0
102
RTVSPost2010Prop32
280
     0
102
RTVSPost2010PropOp32
 70
     0
102
RTVSPost2010Prop33
280
     0
102
RTVSPost2010PropOp33
 70
     0
102
RTVSPost2010Prop34
280
     0
102
RTVSPost2010PropOp34
 70
     0
102
RTVSPost2010Prop35
280
     0
102
RTVSPost2010PropOp35
 70
     0
102
RTVSPost2010Prop36
280
     0
102
RTVSPost2010PropOp36
 70
     0
102
RTVSPost2010Prop37
 90
       50
102
RTVSPost2010PropOp37
 70
     0
102
RTVSPost2010Prop38
140
0.0
102
RTVSPost2010PropOp38
 70
     0
102
RTVSPost2010Prop39
140
1.0
102
RTVSPost2010PropOp39
 70
     0
102
RTVSPost2010Prop40
 90
        0
102
RTVSPost2010PropOp40
 70
     0
102
RTVSPost2010Prop41ColorIndex
 90
       18
102
RTVSPost2010Prop41ColorRGB
 90
        0
102
RTVSPost2010PropOp41
 70
     0
102
RTVSPost2010Prop42
 90
       50
102
RTVSPost2010PropOp42
 70
     0
102
RTVSPost2010Prop43
 90
        3
102
RTVSPost2010PropOp43
 70
     0
102
RTVSPost2010Prop44ColorIndex
 90
        5
102
RTVSPost2010Prop44ColorRGB
 90
      255
102
RTVSPost2010PropOp44
 70
     0
102
RTVSPost2010Prop45
280
     0
102
RTVSPost2010PropOp45
 70
     0
102
RTVSPost2010Prop46
 90
       50
102
RTVSPost2010PropOp46
 70
     0
102
RTVSPost2010Prop47
 90
       50
102
RTVSPost2010PropOp47
 70
     0
102
RTVSPost2010Prop48
 90
       50
102
RTVSPost2010PropOp48
 70
     0
102
RTVSPost2010Prop49
280
     0
102
RTVSPost2010PropOp49
 70
     0
102
RTVSPost2010Prop50
 90
       50
102
RTVSPost2010PropOp50
 70
     0
102
RTVSPost2010Prop51ColorIndex
 90
      256
102
RTVSPost2010Prop51ColorRGB
 90
-16777216
102
RTVSPost2010PropOp51
 70
     0
102
RTVSPost2010Prop52
140
1.0
102
RTVSPost2010PropOp52
 70
     0
102
RTVSPost2010Prop53
 90
        2
102
RTVSPost2010PropOp53
 70
     0
102
RTVSPost2010Prop54
  1
strokes_ogs.tif
102
RTVSPost2010PropOp54
 70
     0
102
RTVSPost2010Prop55
280
     0
102
RTVSPost2010PropOp55
 70
     0
102
RTVSPost2010Prop56
140
1.0
102
RTVSPost2010PropOp56
 70
     0
102
RTVSPost2010Prop57
140
1.0
102
RTVSPost2010PropOp57
 70
     0
102
RTVSPropertyOp0
 70
     0
102
RTVSPropertyOp1
 70
     0
102
RTVSPropertyOp2
 70
     0
102
RTVSPropertyOp3
 70
     0
102
RTVSPropertyOp4
 70
     0
102
RTVSPropertyOp5
 70
     0
102
RTVSPropertyOp6
 70
     0
102
RTVSPropertyOp7
 70
     0
102
RTVSPropertyOp8
 70
     0
102
RTVSPropertyOp9
 70
     0
102
RTVSPropertyOp10
 70
     0
102
RTVSPropertyOp11
 70
     0
102
RTVSPropertyOp12
 70
     0
102
RTVSPropertyOp13
 70
     0
102
RTVSPropertyOp14
 70
     2
102
RTVSPropertyOp15
 70
     0
102
RTVSPropertyOp16
 70
     0
102
RTVSPropertyOp17
 70
     0
102
RTVSPropertyOp18
 70
     0
102
RTVSPropertyOp19
 70
     0
102
RTVSPropertyOp20
 70
     0
102
RTVSPropertyOp21
 70
     0
102
RTVSPropertyOp22
 70
     0
102
RTVSPropertyOp23
 70
     0
102
RTVSPropertyOp24
 70
     0
102
RTVSPropertyOp25
 70
     0
102
RTVSPropertyOp26
 70
     0
102
RTVSPropertyOp27
 70
     0
102
RTVSPropertyOp28
 70
     0
102
RTVSPropertyOp29
 70
     0
102
RTVSPropertyOp30
 70
     0
102
RTVSPropertyOp31
 70
     0
102
RTVSPropertyOp32
 70
     0
102
RTVSPropertyOp33
 70
     0
102
RTVSPropertyOp34
 70
     0
102
RTVSPropertyOp35
 70
     0
102
RTVSPropertyOp36
 70
     0
102
RTVSPropertyOp37
 70
     0
102
RTVSPropertyOp38
 70
     0
102
RTVSPropertyOp39
 70
     0
102
RTVSPropertyOp40
 70
     0
102
RTVSPropertyOp41
 70
     0
102
RTVSPropertyOp42
 70
     0
102
RTVSPropertyOp43
 70
     0
102
RTVSPropertyOp44
 70
     0
102
RTVSPropertyOp45
 70
     0
102
RTVSPropertyOp46
 70
     0
102
RTVSPropertyOp47
 70
     0
102
RTVSPropertyOp48
 70
     0
102
RTVSPropertyOp49
 70
     0
102
RTVSPropertyOp50
 70
     0
102
RTVSPropertyOp51
 70
     0
102
RTVSPropertyOp52
 70
     0
102
RTVSPropertyOp53
 70
     0
102
RTVSPropertyOp54
 70
     0
102
RTVSPropertyOp55
 70
     0
102
RTVSPropertyOp56
 70
     0
102
RTVSPropertyOp57
 70
     0
102
RTVSPropertyOp58
 70
     1
102
RTVSPropertyOp59
 70
     1
102
RTVSPropertyOp60
 70
     1
102
RTVSPropertyOp61
 70
     1
102
RTVSPropertyOp62
 70
     1
  0
XRECORD
  5
3CF
102
{ACAD_REACTORS
330
3CE
102
}
330
3CE
100
AcDbXrecord
280
     1
102
RTVSPost2010Prop28
280
     0
102
RTVSPost2010PropOp28
 70
     1
102
RTVSPost2010Prop29
280
     1
102
RTVSPost2010PropOp29
 70
     1
102
RTVSPost2010Prop30
280
     1
102
RTVSPost2010PropOp30
 70
     1
102
RTVSPost2010Prop31
280
     0
102
RTVSPost2010PropOp31
 70
     1
102
RTVSPost2010Prop32
280
     0
102
RTVSPost2010PropOp32
 70
     1
102
RTVSPost2010Prop33
280
     0
102
RTVSPost2010PropOp33
 70
     1
102
RTVSPost2010Prop34
280
     0
102
RTVSPost2010PropOp34
 70
     1
102
RTVSPost2010Prop35
280
     0
102
RTVSPost2010PropOp35
 70
     1
102
RTVSPost2010Prop36
280
     0
102
RTVSPost2010PropOp36
 70
     1
102
RTVSPost2010Prop37
 90
       50
102
RTVSPost2010PropOp37
 70
     1
102
RTVSPost2010Prop38
140
0.0
102
RTVSPost2010PropOp38
 70
     1
102
RTVSPost2010Prop39
140
1.0
102
RTVSPost2010PropOp39
 70
     1
102
RTVSPost2010Prop40
 90
        0
102
RTVSPost2010PropOp40
 70
     1
102
RTVSPost2010Prop41ColorIndex
 90
       18
102
RTVSPost2010Prop41ColorRGB
 90
        0
102
RTVSPost2010PropOp41
 70
     1
102
RTVSPost2010Prop42
 90
       50
102
RTVSPost2010PropOp42
 70
     1
102
RTVSPost2010Prop43
 90
        3
102
RTVSPost2010PropOp43
 70
     1
102
RTVSPost2010Prop44ColorIndex
 90
        5
102
RTVSPost2010Prop44ColorRGB
 90
      255
102
RTVSPost2010PropOp44
 70
     1
102
RTVSPost2010Prop45
280
     0
102
RTVSPost2010PropOp45
 70
     1
102
RTVSPost2010Prop46
 90
       50
102
RTVSPost2010PropOp46
 70
     1
102
RTVSPost2010Prop47
 90
       50
102
RTVSPost2010PropOp47
 70
     1
102
RTVSPost2010Prop48
 90
       50
102
RTVSPost2010PropOp48
 70
     1
102
RTVSPost2010Prop49
280
     0
102
RTVSPost2010PropOp49
 70
     1
102
RTVSPost2010Prop50
 90
       50
102
RTVSPost2010PropOp50
 70
     1
102
RTVSPost2010Prop51ColorIndex
 90
      256
102
RTVSPost2010Prop51ColorRGB
 90
-16777216
102
RTVSPost2010PropOp51
 70
     0
102
RTVSPost2010Prop52
140
1.0
102
RTVSPost2010PropOp52
 70
     0
102
RTVSPost2010Prop53
 90
        2
102
RTVSPost2010PropOp53
 70
     1
102
RTVSPost2010Prop54
  1
strokes_ogs.tif
102
RTVSPost2010PropOp54
 70
     1
102
RTVSPost2010Prop55
280
     0
102
RTVSPost2010PropOp55
 70
     1
102
RTVSPost2010Prop56
140
1.0
102
RTVSPost2010PropOp56
 70
     1
102
RTVSPost2010Prop57
140
1.0
102
RTVSPost2010PropOp57
 70
     1
102
RTVSPropertyOp0
 70
     1
102
RTVSPropertyOp1
 70
     1
102
RTVSPropertyOp2
 70
     1
102
RTVSPropertyOp3
 70
     1
102
RTVSPropertyOp4
 70
     1
102
RTVSPropertyOp5
 70
     1
102
RTVSPropertyOp6
 70
     1
102
RTVSPropertyOp7
 70
     1
102
RTVSPropertyOp8
 70
     1
102
RTVSPropertyOp9
 70
     1
102
RTVSPropertyOp10
 70
     1
102
RTVSPropertyOp11
 70
     1
102
RTVSPropertyOp12
 70
     1
102
RTVSPropertyOp13
 70
     1
102
RTVSPropertyOp14
 70
     1
102
RTVSPropertyOp15
 70
     1
102
RTVSPropertyOp16
 70
     1
102
RTVSPropertyOp17
 70
     1
102
RTVSPropertyOp18
 70
     1
102
RTVSPropertyOp19
 70
     1
102
RTVSPropertyOp20
 70
     1
102
RTVSPropertyOp21
 70
     1
102
RTVSPropertyOp22
 70
     1
102
RTVSPropertyOp23
 70
     1
102
RTVSPropertyOp24
 70
     1
102
RTVSPropertyOp25
 70
     1
102
RTVSPropertyOp26
 70
     1
102
RTVSPropertyOp27
 70
     1
102
RTVSPropertyOp28
 70
     1
102
RTVSPropertyOp29
 70
     1
102
RTVSPropertyOp30
 70
     1
102
RTVSPropertyOp31
 70
     1
102
RTVSPropertyOp32
 70
     1
102
RTVSPropertyOp33
 70
     1
102
RTVSPropertyOp34
 70
     1
102
RTVSPropertyOp35
 70
     1
102
RTVSPropertyOp36
 70
     1
102
RTVSPropertyOp37
 70
     1
102
RTVSPropertyOp38
 70
     1
102
RTVSPropertyOp39
 70
     1
102
RTVSPropertyOp40
 70
     1
102
RTVSPropertyOp41
 70
     1
102
RTVSPropertyOp42
 70
     1
102
RTVSPropertyOp43
 70
     1
102
RTVSPropertyOp44
 70
     1
102
RTVSPropertyOp45
 70
     1
102
RTVSPropertyOp46
 70
     1
102
RTVSPropertyOp47
 70
     1
102
RTVSPropertyOp48
 70
     1
102
RTVSPropertyOp49
 70
     1
102
RTVSPropertyOp50
 70
     1
102
RTVSPropertyOp51
 70
     0
102
RTVSPropertyOp52
 70
     0
102
RTVSPropertyOp53
 70
     1
102
RTVSPropertyOp54
 70
     1
102
RTVSPropertyOp55
 70
     1
102
RTVSPropertyOp56
 70
     1
102
RTVSPropertyOp57
 70
     1
102
RTVSPropertyOp58
 70
     1
102
RTVSPropertyOp59
 70
     1
102
RTVSPropertyOp60
 70
     1
102
RTVSPropertyOp61
 70
     1
102
RTVSPropertyOp62
 70
     1
  0
XRECORD
  5
3B3
102
{ACAD_REACTORS
330
3B2
102
}
330
3B2
100
AcDbXrecord
280
     1
102
RTVSPost2010Prop28
280
     0
102
RTVSPost2010PropOp28
 70
     1
102
RTVSPost2010Prop29
280
     1
102
RTVSPost2010PropOp29
 70
     1
102
RTVSPost2010Prop30
280
     1
102
RTVSPost2010PropOp30
 70
     1
102
RTVSPost2010Prop31
280
     0
102
RTVSPost2010PropOp31
 70
     1
102
RTVSPost2010Prop32
280
     0
102
RTVSPost2010PropOp32
 70
     1
102
RTVSPost2010Prop33
280
     0
102
RTVSPost2010PropOp33
 70
     1
102
RTVSPost2010Prop34
280
     0
102
RTVSPost2010PropOp34
 70
     1
102
RTVSPost2010Prop35
280
     0
102
RTVSPost2010PropOp35
 70
     1
102
RTVSPost2010Prop36
280
     0
102
RTVSPost2010PropOp36
 70
     1
102
RTVSPost2010Prop37
 90
       50
102
RTVSPost2010PropOp37
 70
     1
102
RTVSPost2010Prop38
140
0.0
102
RTVSPost2010PropOp38
 70
     1
102
RTVSPost2010Prop39
140
1.0
102
RTVSPost2010PropOp39
 70
     1
102
RTVSPost2010Prop40
 90
        0
102
RTVSPost2010PropOp40
 70
     1
102
RTVSPost2010Prop41ColorIndex
 90
       18
102
RTVSPost2010Prop41ColorRGB
 90
        0
102
RTVSPost2010PropOp41
 70
     1
102
RTVSPost2010Prop42
 90
       50
102
RTVSPost2010PropOp42
 70
     1
102
RTVSPost2010Prop43
 90
        3
102
RTVSPost2010PropOp43
 70
     1
102
RTVSPost2010Prop44ColorIndex
 90
        5
102
RTVSPost2010Prop44ColorRGB
 90
      255
102
RTVSPost2010PropOp44
 70
     1
102
RTVSPost2010Prop45
280
     0
102
RTVSPost2010PropOp45
 70
     1
102
RTVSPost2010Prop46
 90
       50
102
RTVSPost2010PropOp46
 70
     1
102
RTVSPost2010Prop47
 90
       50
102
RTVSPost2010PropOp47
 70
     1
102
RTVSPost2010Prop48
 90
       50
102
RTVSPost2010PropOp48
 70
     1
102
RTVSPost2010Prop49
280
     0
102
RTVSPost2010PropOp49
 70
     1
102
RTVSPost2010Prop50
 90
       50
102
RTVSPost2010PropOp50
 70
     1
102
RTVSPost2010Prop51ColorIndex
 90
      256
102
RTVSPost2010Prop51ColorRGB
 90
-16777216
102
RTVSPost2010PropOp51
 70
     0
102
RTVSPost2010Prop52
140
1.0
102
RTVSPost2010PropOp52
 70
     0
102
RTVSPost2010Prop53
 90
        2
102
RTVSPost2010PropOp53
 70
     1
102
RTVSPost2010Prop54
  1
strokes_ogs.tif
102
RTVSPost2010PropOp54
 70
     1
102
RTVSPost2010Prop55
280
     0
102
RTVSPost2010PropOp55
 70
     1
102
RTVSPost2010Prop56
140
1.0
102
RTVSPost2010PropOp56
 70
     1
102
RTVSPost2010Prop57
140
1.0
102
RTVSPost2010PropOp57
 70
     1
102
RTVSPropertyOp0
 70
     1
102
RTVSPropertyOp1
 70
     1
102
RTVSPropertyOp2
 70
     1
102
RTVSPropertyOp3
 70
     1
102
RTVSPropertyOp4
 70
     1
102
RTVSPropertyOp5
 70
     1
102
RTVSPropertyOp6
 70
     1
102
RTVSPropertyOp7
 70
     1
102
RTVSPropertyOp8
 70
     1
102
RTVSPropertyOp9
 70
     1
102
RTVSPropertyOp10
 70
     1
102
RTVSPropertyOp11
 70
     1
102
RTVSPropertyOp12
 70
     1
102
RTVSPropertyOp13
 70
     1
102
RTVSPropertyOp14
 70
     1
102
RTVSPropertyOp15
 70
     1
102
RTVSPropertyOp16
 70
     1
102
RTVSPropertyOp17
 70
     1
102
RTVSPropertyOp18
 70
     1
102
RTVSPropertyOp19
 70
     1
102
RTVSPropertyOp20
 70
     1
102
RTVSPropertyOp21
 70
     1
102
RTVSPropertyOp22
 70
     1
102
RTVSPropertyOp23
 70
     1
102
RTVSPropertyOp24
 70
     1
102
RTVSPropertyOp25
 70
     1
102
RTVSPropertyOp26
 70
     1
102
RTVSPropertyOp27
 70
     1
102
RTVSPropertyOp28
 70
     1
102
RTVSPropertyOp29
 70
     1
102
RTVSPropertyOp30
 70
     1
102
RTVSPropertyOp31
 70
     1
102
RTVSPropertyOp32
 70
     1
102
RTVSPropertyOp33
 70
     1
102
RTVSPropertyOp34
 70
     1
102
RTVSPropertyOp35
 70
     1
102
RTVSPropertyOp36
 70
     1
102
RTVSPropertyOp37
 70
     1
102
RTVSPropertyOp38
 70
     1
102
RTVSPropertyOp39
 70
     1
102
RTVSPropertyOp40
 70
     1
102
RTVSPropertyOp41
 70
     1
102
RTVSPropertyOp42
 70
     1
102
RTVSPropertyOp43
 70
     1
102
RTVSPropertyOp44
 70
     1
102
RTVSPropertyOp45
 70
     1
102
RTVSPropertyOp46
 70
     1
102
RTVSPropertyOp47
 70
     1
102
RTVSPropertyOp48
 70
     1
102
RTVSPropertyOp49
 70
     1
102
RTVSPropertyOp50
 70
     1
102
RTVSPropertyOp51
 70
     0
102
RTVSPropertyOp52
 70
     0
102
RTVSPropertyOp53
 70
     1
102
RTVSPropertyOp54
 70
     1
102
RTVSPropertyOp55
 70
     1
102
RTVSPropertyOp56
 70
     1
102
RTVSPropertyOp57
 70
     1
102
RTVSPropertyOp58
 70
     1
102
RTVSPropertyOp59
 70
     1
102
RTVSPropertyOp60
 70
     1
102
RTVSPropertyOp61
 70
     1
102
RTVSPropertyOp62
 70
     1
  0
XRECORD
  5
3B5
102
{ACAD_REACTORS
330
3B4
102
}
330
3B4
100
AcDbXrecord
280
     1
102
RTVSPost2010Prop28
280
     0
102
RTVSPost2010PropOp28
 70
     1
102
RTVSPost2010Prop29
280
     1
102
RTVSPost2010PropOp29
 70
     1
102
RTVSPost2010Prop30
280
     1
102
RTVSPost2010PropOp30
 70
     1
102
RTVSPost2010Prop31
280
     0
102
RTVSPost2010PropOp31
 70
     1
102
RTVSPost2010Prop32
280
     0
102
RTVSPost2010PropOp32
 70
     1
102
RTVSPost2010Prop33
280
     0
102
RTVSPost2010PropOp33
 70
     1
102
RTVSPost2010Prop34
280
     0
102
RTVSPost2010PropOp34
 70
     1
102
RTVSPost2010Prop35
280
     0
102
RTVSPost2010PropOp35
 70
     1
102
RTVSPost2010Prop36
280
     0
102
RTVSPost2010PropOp36
 70
     1
102
RTVSPost2010Prop37
 90
       50
102
RTVSPost2010PropOp37
 70
     1
102
RTVSPost2010Prop38
140
0.0
102
RTVSPost2010PropOp38
 70
     1
102
RTVSPost2010Prop39
140
1.0
102
RTVSPost2010PropOp39
 70
     1
102
RTVSPost2010Prop40
 90
        0
102
RTVSPost2010PropOp40
 70
     1
102
RTVSPost2010Prop41ColorIndex
 90
       18
102
RTVSPost2010Prop41ColorRGB
 90
        0
102
RTVSPost2010PropOp41
 70
     1
102
RTVSPost2010Prop42
 90
       50
102
RTVSPost2010PropOp42
 70
     1
102
RTVSPost2010Prop43
 90
        3
102
RTVSPost2010PropOp43
 70
     1
102
RTVSPost2010Prop44ColorIndex
 90
        5
102
RTVSPost2010Prop44ColorRGB
 90
      255
102
RTVSPost2010PropOp44
 70
     1
102
RTVSPost2010Prop45
280
     0
102
RTVSPost2010PropOp45
 70
     1
102
RTVSPost2010Prop46
 90
       50
102
RTVSPost2010PropOp46
 70
     1
102
RTVSPost2010Prop47
 90
       50
102
RTVSPost2010PropOp47
 70
     1
102
RTVSPost2010Prop48
 90
       50
102
RTVSPost2010PropOp48
 70
     1
102
RTVSPost2010Prop49
280
     0
102
RTVSPost2010PropOp49
 70
     1
102
RTVSPost2010Prop50
 90
       50
102
RTVSPost2010PropOp50
 70
     1
102
RTVSPost2010Prop51ColorIndex
 90
      256
102
RTVSPost2010Prop51ColorRGB
 90
-16777216
102
RTVSPost2010PropOp51
 70
     0
102
RTVSPost2010Prop52
140
1.0
102
RTVSPost2010PropOp52
 70
     0
102
RTVSPost2010Prop53
 90
        2
102
RTVSPost2010PropOp53
 70
     1
102
RTVSPost2010Prop54
  1
strokes_ogs.tif
102
RTVSPost2010PropOp54
 70
     1
102
RTVSPost2010Prop55
280
     0
102
RTVSPost2010PropOp55
 70
     1
102
RTVSPost2010Prop56
140
1.0
102
RTVSPost2010PropOp56
 70
     1
102
RTVSPost2010Prop57
140
1.0
102
RTVSPost2010PropOp57
 70
     1
102
RTVSPropertyOp0
 70
     1
102
RTVSPropertyOp1
 70
     1
102
RTVSPropertyOp2
 70
     1
102
RTVSPropertyOp3
 70
     1
102
RTVSPropertyOp4
 70
     1
102
RTVSPropertyOp5
 70
     1
102
RTVSPropertyOp6
 70
     1
102
RTVSPropertyOp7
 70
     1
102
RTVSPropertyOp8
 70
     1
102
RTVSPropertyOp9
 70
     1
102
RTVSPropertyOp10
 70
     1
102
RTVSPropertyOp11
 70
     1
102
RTVSPropertyOp12
 70
     1
102
RTVSPropertyOp13
 70
     1
102
RTVSPropertyOp14
 70
     1
102
RTVSPropertyOp15
 70
     1
102
RTVSPropertyOp16
 70
     1
102
RTVSPropertyOp17
 70
     1
102
RTVSPropertyOp18
 70
     1
102
RTVSPropertyOp19
 70
     1
102
RTVSPropertyOp20
 70
     1
102
RTVSPropertyOp21
 70
     1
102
RTVSPropertyOp22
 70
     1
102
RTVSPropertyOp23
 70
     1
102
RTVSPropertyOp24
 70
     1
102
RTVSPropertyOp25
 70
     1
102
RTVSPropertyOp26
 70
     1
102
RTVSPropertyOp27
 70
     1
102
RTVSPropertyOp28
 70
     1
102
RTVSPropertyOp29
 70
     1
102
RTVSPropertyOp30
 70
     1
102
RTVSPropertyOp31
 70
     1
102
RTVSPropertyOp32
 70
     1
102
RTVSPropertyOp33
 70
     1
102
RTVSPropertyOp34
 70
     1
102
RTVSPropertyOp35
 70
     1
102
RTVSPropertyOp36
 70
     1
102
RTVSPropertyOp37
 70
     1
102
RTVSPropertyOp38
 70
     1
102
RTVSPropertyOp39
 70
     1
102
RTVSPropertyOp40
 70
     1
102
RTVSPropertyOp41
 70
     1
102
RTVSPropertyOp42
 70
     1
102
RTVSPropertyOp43
 70
     1
102
RTVSPropertyOp44
 70
     1
102
RTVSPropertyOp45
 70
     1
102
RTVSPropertyOp46
 70
     1
102
RTVSPropertyOp47
 70
     1
102
RTVSPropertyOp48
 70
     1
102
RTVSPropertyOp49
 70
     1
102
RTVSPropertyOp50
 70
     1
102
RTVSPropertyOp51
 70
     0
102
RTVSPropertyOp52
 70
     0
102
RTVSPropertyOp53
 70
     1
102
RTVSPropertyOp54
 70
     1
102
RTVSPropertyOp55
 70
     1
102
RTVSPropertyOp56
 70
     1
102
RTVSPropertyOp57
 70
     1
102
RTVSPropertyOp58
 70
     1
102
RTVSPropertyOp59
 70
     1
102
RTVSPropertyOp60
 70
     1
102
RTVSPropertyOp61
 70
     1
102
RTVSPropertyOp62
 70
     1
  0
XRECORD
  5
3B7
102
{ACAD_REACTORS
330
3B6
102
}
330
3B6
100
AcDbXrecord
280
     1
102
RTVSPost2010Prop28
280
     0
102
RTVSPost2010PropOp28
 70
     1
102
RTVSPost2010Prop29
280
     1
102
RTVSPost2010PropOp29
 70
     1
102
RTVSPost2010Prop30
280
     1
102
RTVSPost2010PropOp30
 70
     1
102
RTVSPost2010Prop31
280
     0
102
RTVSPost2010PropOp31
 70
     1
102
RTVSPost2010Prop32
280
     0
102
RTVSPost2010PropOp32
 70
     1
102
RTVSPost2010Prop33
280
     0
102
RTVSPost2010PropOp33
 70
     1
102
RTVSPost2010Prop34
280
     0
102
RTVSPost2010PropOp34
 70
     1
102
RTVSPost2010Prop35
280
     0
102
RTVSPost2010PropOp35
 70
     1
102
RTVSPost2010Prop36
280
     0
102
RTVSPost2010PropOp36
 70
     1
102
RTVSPost2010Prop37
 90
       50
102
RTVSPost2010PropOp37
 70
     1
102
RTVSPost2010Prop38
140
0.0
102
RTVSPost2010PropOp38
 70
     1
102
RTVSPost2010Prop39
140
1.0
102
RTVSPost2010PropOp39
 70
     1
102
RTVSPost2010Prop40
 90
        0
102
RTVSPost2010PropOp40
 70
     1
102
RTVSPost2010Prop41ColorIndex
 90
       18
102
RTVSPost2010Prop41ColorRGB
 90
        0
102
RTVSPost2010PropOp41
 70
     1
102
RTVSPost2010Prop42
 90
       50
102
RTVSPost2010PropOp42
 70
     1
102
RTVSPost2010Prop43
 90
        3
102
RTVSPost2010PropOp43
 70
     1
102
RTVSPost2010Prop44ColorIndex
 90
        5
102
RTVSPost2010Prop44ColorRGB
 90
      255
102
RTVSPost2010PropOp44
 70
     1
102
RTVSPost2010Prop45
280
     0
102
RTVSPost2010PropOp45
 70
     1
102
RTVSPost2010Prop46
 90
       50
102
RTVSPost2010PropOp46
 70
     1
102
RTVSPost2010Prop47
 90
       50
102
RTVSPost2010PropOp47
 70
     1
102
RTVSPost2010Prop48
 90
       50
102
RTVSPost2010PropOp48
 70
     1
102
RTVSPost2010Prop49
280
     0
102
RTVSPost2010PropOp49
 70
     1
102
RTVSPost2010Prop50
 90
       50
102
RTVSPost2010PropOp50
 70
     1
102
RTVSPost2010Prop51ColorIndex
 90
      256
102
RTVSPost2010Prop51ColorRGB
 90
-16777216
102
RTVSPost2010PropOp51
 70
     0
102
RTVSPost2010Prop52
140
1.0
102
RTVSPost2010PropOp52
 70
     0
102
RTVSPost2010Prop53
 90
        2
102
RTVSPost2010PropOp53
 70
     1
102
RTVSPost2010Prop54
  1
strokes_ogs.tif
102
RTVSPost2010PropOp54
 70
     1
102
RTVSPost2010Prop55
280
     0
102
RTVSPost2010PropOp55
 70
     1
102
RTVSPost2010Prop56
140
1.0
102
RTVSPost2010PropOp56
 70
     1
102
RTVSPost2010Prop57
140
1.0
102
RTVSPost2010PropOp57
 70
     1
102
RTVSPropertyOp0
 70
     1
102
RTVSPropertyOp1
 70
     1
102
RTVSPropertyOp2
 70
     1
102
RTVSPropertyOp3
 70
     1
102
RTVSPropertyOp4
 70
     1
102
RTVSPropertyOp5
 70
     1
102
RTVSPropertyOp6
 70
     1
102
RTVSPropertyOp7
 70
     1
102
RTVSPropertyOp8
 70
     1
102
RTVSPropertyOp9
 70
     1
102
RTVSPropertyOp10
 70
     1
102
RTVSPropertyOp11
 70
     1
102
RTVSPropertyOp12
 70
     1
102
RTVSPropertyOp13
 70
     1
102
RTVSPropertyOp14
 70
     1
102
RTVSPropertyOp15
 70
     1
102
RTVSPropertyOp16
 70
     1
102
RTVSPropertyOp17
 70
     1
102
RTVSPropertyOp18
 70
     1
102
RTVSPropertyOp19
 70
     1
102
RTVSPropertyOp20
 70
     1
102
RTVSPropertyOp21
 70
     1
102
RTVSPropertyOp22
 70
     1
102
RTVSPropertyOp23
 70
     1
102
RTVSPropertyOp24
 70
     1
102
RTVSPropertyOp25
 70
     1
102
RTVSPropertyOp26
 70
     1
102
RTVSPropertyOp27
 70
     1
102
RTVSPropertyOp28
 70
     1
102
RTVSPropertyOp29
 70
     1
102
RTVSPropertyOp30
 70
     1
102
RTVSPropertyOp31
 70
     1
102
RTVSPropertyOp32
 70
     1
102
RTVSPropertyOp33
 70
     1
102
RTVSPropertyOp34
 70
     1
102
RTVSPropertyOp35
 70
     1
102
RTVSPropertyOp36
 70
     1
102
RTVSPropertyOp37
 70
     1
102
RTVSPropertyOp38
 70
     1
102
RTVSPropertyOp39
 70
     1
102
RTVSPropertyOp40
 70
     1
102
RTVSPropertyOp41
 70
     1
102
RTVSPropertyOp42
 70
     1
102
RTVSPropertyOp43
 70
     1
102
RTVSPropertyOp44
 70
     1
102
RTVSPropertyOp45
 70
     1
102
RTVSPropertyOp46
 70
     1
102
RTVSPropertyOp47
 70
     1
102
RTVSPropertyOp48
 70
     1
102
RTVSPropertyOp49
 70
     1
102
RTVSPropertyOp50
 70
     1
102
RTVSPropertyOp51
 70
     0
102
RTVSPropertyOp52
 70
     0
102
RTVSPropertyOp53
 70
     1
102
RTVSPropertyOp54
 70
     1
102
RTVSPropertyOp55
 70
     1
102
RTVSPropertyOp56
 70
     1
102
RTVSPropertyOp57
 70
     1
102
RTVSPropertyOp58
 70
     1
102
RTVSPropertyOp59
 70
     1
102
RTVSPropertyOp60
 70
     1
102
RTVSPropertyOp61
 70
     1
102
RTVSPropertyOp62
 70
     1
  0
XRECORD
  5
3B9
102
{ACAD_REACTORS
330
3B8
102
}
330
3B8
100
AcDbXrecord
280
     1
102
RTVSPost2010Prop28
280
     0
102
RTVSPost2010PropOp28
 70
     1
102
RTVSPost2010Prop29
280
     1
102
RTVSPost2010PropOp29
 70
     1
102
RTVSPost2010Prop30
280
     1
102
RTVSPost2010PropOp30
 70
     1
102
RTVSPost2010Prop31
280
     0
102
RTVSPost2010PropOp31
 70
     1
102
RTVSPost2010Prop32
280
     0
102
RTVSPost2010PropOp32
 70
     1
102
RTVSPost2010Prop33
280
     0
102
RTVSPost2010PropOp33
 70
     1
102
RTVSPost2010Prop34
280
     0
102
RTVSPost2010PropOp34
 70
     1
102
RTVSPost2010Prop35
280
     0
102
RTVSPost2010PropOp35
 70
     1
102
RTVSPost2010Prop36
280
     0
102
RTVSPost2010PropOp36
 70
     1
102
RTVSPost2010Prop37
 90
       50
102
RTVSPost2010PropOp37
 70
     1
102
RTVSPost2010Prop38
140
0.0
102
RTVSPost2010PropOp38
 70
     1
102
RTVSPost2010Prop39
140
1.0
102
RTVSPost2010PropOp39
 70
     1
102
RTVSPost2010Prop40
 90
        0
102
RTVSPost2010PropOp40
 70
     1
102
RTVSPost2010Prop41ColorIndex
 90
       18
102
RTVSPost2010Prop41ColorRGB
 90
        0
102
RTVSPost2010PropOp41
 70
     1
102
RTVSPost2010Prop42
 90
       50
102
RTVSPost2010PropOp42
 70
     1
102
RTVSPost2010Prop43
 90
        3
102
RTVSPost2010PropOp43
 70
     1
102
RTVSPost2010Prop44ColorIndex
 90
        5
102
RTVSPost2010Prop44ColorRGB
 90
      255
102
RTVSPost2010PropOp44
 70
     1
102
RTVSPost2010Prop45
280
     0
102
RTVSPost2010PropOp45
 70
     1
102
RTVSPost2010Prop46
 90
       50
102
RTVSPost2010PropOp46
 70
     1
102
RTVSPost2010Prop47
 90
       50
102
RTVSPost2010PropOp47
 70
     1
102
RTVSPost2010Prop48
 90
       50
102
RTVSPost2010PropOp48
 70
     1
102
RTVSPost2010Prop49
280
     0
102
RTVSPost2010PropOp49
 70
     1
102
RTVSPost2010Prop50
 90
       50
102
RTVSPost2010PropOp50
 70
     1
102
RTVSPost2010Prop51ColorIndex
 90
      256
102
RTVSPost2010Prop51ColorRGB
 90
-16777216
102
RTVSPost2010PropOp51
 70
     0
102
RTVSPost2010Prop52
140
1.0
102
RTVSPost2010PropOp52
 70
     0
102
RTVSPost2010Prop53
 90
        2
102
RTVSPost2010PropOp53
 70
     1
102
RTVSPost2010Prop54
  1
strokes_ogs.tif
102
RTVSPost2010PropOp54
 70
     1
102
RTVSPost2010Prop55
280
     0
102
RTVSPost2010PropOp55
 70
     1
102
RTVSPost2010Prop56
140
1.0
102
RTVSPost2010PropOp56
 70
     1
102
RTVSPost2010Prop57
140
1.0
102
RTVSPost2010PropOp57
 70
     1
102
RTVSPropertyOp0
 70
     1
102
RTVSPropertyOp1
 70
     1
102
RTVSPropertyOp2
 70
     1
102
RTVSPropertyOp3
 70
     1
102
RTVSPropertyOp4
 70
     1
102
RTVSPropertyOp5
 70
     1
102
RTVSPropertyOp6
 70
     1
102
RTVSPropertyOp7
 70
     1
102
RTVSPropertyOp8
 70
     1
102
RTVSPropertyOp9
 70
     1
102
RTVSPropertyOp10
 70
     1
102
RTVSPropertyOp11
 70
     1
102
RTVSPropertyOp12
 70
     1
102
RTVSPropertyOp13
 70
     1
102
RTVSPropertyOp14
 70
     1
102
RTVSPropertyOp15
 70
     1
102
RTVSPropertyOp16
 70
     1
102
RTVSPropertyOp17
 70
     1
102
RTVSPropertyOp18
 70
     1
102
RTVSPropertyOp19
 70
     1
102
RTVSPropertyOp20
 70
     1
102
RTVSPropertyOp21
 70
     1
102
RTVSPropertyOp22
 70
     1
102
RTVSPropertyOp23
 70
     1
102
RTVSPropertyOp24
 70
     1
102
RTVSPropertyOp25
 70
     1
102
RTVSPropertyOp26
 70
     1
102
RTVSPropertyOp27
 70
     1
102
RTVSPropertyOp28
 70
     1
102
RTVSPropertyOp29
 70
     1
102
RTVSPropertyOp30
 70
     1
102
RTVSPropertyOp31
 70
     1
102
RTVSPropertyOp32
 70
     1
102
RTVSPropertyOp33
 70
     1
102
RTVSPropertyOp34
 70
     1
102
RTVSPropertyOp35
 70
     1
102
RTVSPropertyOp36
 70
     1
102
RTVSPropertyOp37
 70
     1
102
RTVSPropertyOp38
 70
     1
102
RTVSPropertyOp39
 70
     1
102
RTVSPropertyOp40
 70
     1
102
RTVSPropertyOp41
 70
     1
102
RTVSPropertyOp42
 70
     1
102
RTVSPropertyOp43
 70
     1
102
RTVSPropertyOp44
 70
     1
102
RTVSPropertyOp45
 70
     1
102
RTVSPropertyOp46
 70
     1
102
RTVSPropertyOp47
 70
     1
102
RTVSPropertyOp48
 70
     1
102
RTVSPropertyOp49
 70
     1
102
RTVSPropertyOp50
 70
     1
102
RTVSPropertyOp51
 70
     0
102
RTVSPropertyOp52
 70
     0
102
RTVSPropertyOp53
 70
     1
102
RTVSPropertyOp54
 70
     1
102
RTVSPropertyOp55
 70
     1
102
RTVSPropertyOp56
 70
     1
102
RTVSPropertyOp57
 70
     1
102
RTVSPropertyOp58
 70
     1
102
RTVSPropertyOp59
 70
     1
102
RTVSPropertyOp60
 70
     1
102
RTVSPropertyOp61
 70
     1
102
RTVSPropertyOp62
 70
     1
  0
XRECORD
  5
3BF
102
{ACAD_REACTORS
330
3BE
102
}
330
3BE
100
AcDbXrecord
280
     1
102
RTVSPost2010Prop28
280
     0
102
RTVSPost2010PropOp28
 70
     1
102
RTVSPost2010Prop29
280
     1
102
RTVSPost2010PropOp29
 70
     1
102
RTVSPost2010Prop30
280
     1
102
RTVSPost2010PropOp30
 70
     1
102
RTVSPost2010Prop31
280
     0
102
RTVSPost2010PropOp31
 70
     1
102
RTVSPost2010Prop32
280
     0
102
RTVSPost2010PropOp32
 70
     1
102
RTVSPost2010Prop33
280
     0
102
RTVSPost2010PropOp33
 70
     1
102
RTVSPost2010Prop34
280
     0
102
RTVSPost2010PropOp34
 70
     1
102
RTVSPost2010Prop35
280
     0
102
RTVSPost2010PropOp35
 70
     1
102
RTVSPost2010Prop36
280
     0
102
RTVSPost2010PropOp36
 70
     1
102
RTVSPost2010Prop37
 90
       50
102
RTVSPost2010PropOp37
 70
     1
102
RTVSPost2010Prop38
140
0.0
102
RTVSPost2010PropOp38
 70
     1
102
RTVSPost2010Prop39
140
1.0
102
RTVSPost2010PropOp39
 70
     1
102
RTVSPost2010Prop40
 90
        0
102
RTVSPost2010PropOp40
 70
     1
102
RTVSPost2010Prop41ColorIndex
 90
       18
102
RTVSPost2010Prop41ColorRGB
 90
        0
102
RTVSPost2010PropOp41
 70
     1
102
RTVSPost2010Prop42
 90
       50
102
RTVSPost2010PropOp42
 70
     1
102
RTVSPost2010Prop43
 90
        3
102
RTVSPost2010PropOp43
 70
     1
102
RTVSPost2010Prop44ColorIndex
 90
        5
102
RTVSPost2010Prop44ColorRGB
 90
      255
102
RTVSPost2010PropOp44
 70
     1
102
RTVSPost2010Prop45
280
     0
102
RTVSPost2010PropOp45
 70
     1
102
RTVSPost2010Prop46
 90
       50
102
RTVSPost2010PropOp46
 70
     1
102
RTVSPost2010Prop47
 90
       50
102
RTVSPost2010PropOp47
 70
     1
102
RTVSPost2010Prop48
 90
       50
102
RTVSPost2010PropOp48
 70
     1
102
RTVSPost2010Prop49
280
     0
102
RTVSPost2010PropOp49
 70
     1
102
RTVSPost2010Prop50
 90
       50
102
RTVSPost2010PropOp50
 70
     1
102
RTVSPost2010Prop51ColorIndex
 90
      256
102
RTVSPost2010Prop51ColorRGB
 90
-16777216
102
RTVSPost2010PropOp51
 70
     0
102
RTVSPost2010Prop52
140
1.0
102
RTVSPost2010PropOp52
 70
     0
102
RTVSPost2010Prop53
 90
        2
102
RTVSPost2010PropOp53
 70
     1
102
RTVSPost2010Prop54
  1
strokes_ogs.tif
102
RTVSPost2010PropOp54
 70
     1
102
RTVSPost2010Prop55
280
     0
102
RTVSPost2010PropOp55
 70
     1
102
RTVSPost2010Prop56
140
1.0
102
RTVSPost2010PropOp56
 70
     1
102
RTVSPost2010Prop57
140
1.0
102
RTVSPost2010PropOp57
 70
     1
102
RTVSPropertyOp0
 70
     1
102
RTVSPropertyOp1
 70
     1
102
RTVSPropertyOp2
 70
     1
102
RTVSPropertyOp3
 70
     1
102
RTVSPropertyOp4
 70
     1
102
RTVSPropertyOp5
 70
     1
102
RTVSPropertyOp6
 70
     1
102
RTVSPropertyOp7
 70
     1
102
RTVSPropertyOp8
 70
     1
102
RTVSPropertyOp9
 70
     1
102
RTVSPropertyOp10
 70
     1
102
RTVSPropertyOp11
 70
     1
102
RTVSPropertyOp12
 70
     1
102
RTVSPropertyOp13
 70
     1
102
RTVSPropertyOp14
 70
     1
102
RTVSPropertyOp15
 70
     1
102
RTVSPropertyOp16
 70
     1
102
RTVSPropertyOp17
 70
     1
102
RTVSPropertyOp18
 70
     1
102
RTVSPropertyOp19
 70
     1
102
RTVSPropertyOp20
 70
     1
102
RTVSPropertyOp21
 70
     1
102
RTVSPropertyOp22
 70
     1
102
RTVSPropertyOp23
 70
     1
102
RTVSPropertyOp24
 70
     1
102
RTVSPropertyOp25
 70
     1
102
RTVSPropertyOp26
 70
     1
102
RTVSPropertyOp27
 70
     1
102
RTVSPropertyOp28
 70
     1
102
RTVSPropertyOp29
 70
     1
102
RTVSPropertyOp30
 70
     1
102
RTVSPropertyOp31
 70
     1
102
RTVSPropertyOp32
 70
     1
102
RTVSPropertyOp33
 70
     1
102
RTVSPropertyOp34
 70
     1
102
RTVSPropertyOp35
 70
     1
102
RTVSPropertyOp36
 70
     1
102
RTVSPropertyOp37
 70
     1
102
RTVSPropertyOp38
 70
     1
102
RTVSPropertyOp39
 70
     1
102
RTVSPropertyOp40
 70
     1
102
RTVSPropertyOp41
 70
     1
102
RTVSPropertyOp42
 70
     1
102
RTVSPropertyOp43
 70
     1
102
RTVSPropertyOp44
 70
     1
102
RTVSPropertyOp45
 70
     1
102
RTVSPropertyOp46
 70
     1
102
RTVSPropertyOp47
 70
     1
102
RTVSPropertyOp48
 70
     1
102
RTVSPropertyOp49
 70
     1
102
RTVSPropertyOp50
 70
     1
102
RTVSPropertyOp51
 70
     0
102
RTVSPropertyOp52
 70
     0
102
RTVSPropertyOp53
 70
     1
102
RTVSPropertyOp54
 70
     1
102
RTVSPropertyOp55
 70
     1
102
RTVSPropertyOp56
 70
     1
102
RTVSPropertyOp57
 70
     1
102
RTVSPropertyOp58
 70
     1
102
RTVSPropertyOp59
 70
     1
102
RTVSPropertyOp60
 70
     1
102
RTVSPropertyOp61
 70
     1
102
RTVSPropertyOp62
 70
     1
  0
XRECORD
  5
3D3
102
{ACAD_REACTORS
330
3D2
102
}
330
3D2
100
AcDbXrecord
280
     1
102
RTVSPost2010Prop28
280
     0
102
RTVSPost2010PropOp28
 70
     0
102
RTVSPost2010Prop29
280
     1
102
RTVSPost2010PropOp29
 70
     0
102
RTVSPost2010Prop30
280
     1
102
RTVSPost2010PropOp30
 70
     0
102
RTVSPost2010Prop31
280
     0
102
RTVSPost2010PropOp31
 70
     0
102
RTVSPost2010Prop32
280
     0
102
RTVSPost2010PropOp32
 70
     0
102
RTVSPost2010Prop33
280
     0
102
RTVSPost2010PropOp33
 70
     0
102
RTVSPost2010Prop34
280
     0
102
RTVSPost2010PropOp34
 70
     0
102
RTVSPost2010Prop35
280
     0
102
RTVSPost2010PropOp35
 70
     0
102
RTVSPost2010Prop36
280
     0
102
RTVSPost2010PropOp36
 70
     0
102
RTVSPost2010Prop37
 90
       50
102
RTVSPost2010PropOp37
 70
     0
102
RTVSPost2010Prop38
140
0.0
102
RTVSPost2010PropOp38
 70
     0
102
RTVSPost2010Prop39
140
1.0
102
RTVSPost2010PropOp39
 70
     0
102
RTVSPost2010Prop40
 90
        0
102
RTVSPost2010PropOp40
 70
     0
102
RTVSPost2010Prop41ColorIndex
 90
       18
102
RTVSPost2010Prop41ColorRGB
 90
        0
102
RTVSPost2010PropOp41
 70
     0
102
RTVSPost2010Prop42
 90
       50
102
RTVSPost2010PropOp42
 70
     0
102
RTVSPost2010Prop43
 90
        3
102
RTVSPost2010PropOp43
 70
     0
102
RTVSPost2010Prop44ColorIndex
 90
        5
102
RTVSPost2010Prop44ColorRGB
 90
      255
102
RTVSPost2010PropOp44
 70
     0
102
RTVSPost2010Prop45
280
     0
102
RTVSPost2010PropOp45
 70
     0
102
RTVSPost2010Prop46
 90
       50
102
RTVSPost2010PropOp46
 70
     0
102
RTVSPost2010Prop47
 90
       50
102
RTVSPost2010PropOp47
 70
     0
102
RTVSPost2010Prop48
 90
       50
102
RTVSPost2010PropOp48
 70
     0
102
RTVSPost2010Prop49
280
     0
102
RTVSPost2010PropOp49
 70
     0
102
RTVSPost2010Prop50
 90
       50
102
RTVSPost2010PropOp50
 70
     0
102
RTVSPost2010Prop51ColorIndex
 90
      256
102
RTVSPost2010Prop51ColorRGB
 90
-16777216
102
RTVSPost2010PropOp51
 70
     0
102
RTVSPost2010Prop52
140
1.0
102
RTVSPost2010PropOp52
 70
     0
102
RTVSPost2010Prop53
 90
        2
102
RTVSPost2010PropOp53
 70
     0
102
RTVSPost2010Prop54
  1
strokes_ogs.tif
102
RTVSPost2010PropOp54
 70
     0
102
RTVSPost2010Prop55
280
     0
102
RTVSPost2010PropOp55
 70
     0
102
RTVSPost2010Prop56
140
1.0
102
RTVSPost2010PropOp56
 70
     0
102
RTVSPost2010Prop57
140
1.0
102
RTVSPost2010PropOp57
 70
     0
102
RTVSPropertyOp0
 70
     0
102
RTVSPropertyOp1
 70
     0
102
RTVSPropertyOp2
 70
     0
102
RTVSPropertyOp3
 70
     0
102
RTVSPropertyOp4
 70
     0
102
RTVSPropertyOp5
 70
     0
102
RTVSPropertyOp6
 70
     0
102
RTVSPropertyOp7
 70
     0
102
RTVSPropertyOp8
 70
     0
102
RTVSPropertyOp9
 70
     0
102
RTVSPropertyOp10
 70
     0
102
RTVSPropertyOp11
 70
     0
102
RTVSPropertyOp12
 70
     0
102
RTVSPropertyOp13
 70
     0
102
RTVSPropertyOp14
 70
     2
102
RTVSPropertyOp15
 70
     0
102
RTVSPropertyOp16
 70
     0
102
RTVSPropertyOp17
 70
     0
102
RTVSPropertyOp18
 70
     0
102
RTVSPropertyOp19
 70
     0
102
RTVSPropertyOp20
 70
     0
102
RTVSPropertyOp21
 70
     0
102
RTVSPropertyOp22
 70
     0
102
RTVSPropertyOp23
 70
     0
102
RTVSPropertyOp24
 70
     0
102
RTVSPropertyOp25
 70
     0
102
RTVSPropertyOp26
 70
     0
102
RTVSPropertyOp27
 70
     0
102
RTVSPropertyOp28
 70
     0
102
RTVSPropertyOp29
 70
     0
102
RTVSPropertyOp30
 70
     0
102
RTVSPropertyOp31
 70
     0
102
RTVSPropertyOp32
 70
     0
102
RTVSPropertyOp33
 70
     0
102
RTVSPropertyOp34
 70
     0
102
RTVSPropertyOp35
 70
     0
102
RTVSPropertyOp36
 70
     0
102
RTVSPropertyOp37
 70
     0
102
RTVSPropertyOp38
 70
     0
102
RTVSPropertyOp39
 70
     0
102
RTVSPropertyOp40
 70
     0
102
RTVSPropertyOp41
 70
     0
102
RTVSPropertyOp42
 70
     0
102
RTVSPropertyOp43
 70
     0
102
RTVSPropertyOp44
 70
     0
102
RTVSPropertyOp45
 70
     0
102
RTVSPropertyOp46
 70
     0
102
RTVSPropertyOp47
 70
     0
102
RTVSPropertyOp48
 70
     0
102
RTVSPropertyOp49
 70
     0
102
RTVSPropertyOp50
 70
     0
102
RTVSPropertyOp51
 70
     0
102
RTVSPropertyOp52
 70
     0
102
RTVSPropertyOp53
 70
     0
102
RTVSPropertyOp54
 70
     0
102
RTVSPropertyOp55
 70
     0
102
RTVSPropertyOp56
 70
     0
102
RTVSPropertyOp57
 70
     0
102
RTVSPropertyOp58
 70
     1
102
RTVSPropertyOp59
 70
     1
102
RTVSPropertyOp60
 70
     1
102
RTVSPropertyOp61
 70
     1
102
RTVSPropertyOp62
 70
     1
  0
XRECORD
  5
3CD
102
{ACAD_REACTORS
330
3CC
102
}
330
3CC
100
AcDbXrecord
280
     1
102
RTVSPost2010Prop28
280
     0
102
RTVSPost2010PropOp28
 70
     1
102
RTVSPost2010Prop29
280
     1
102
RTVSPost2010PropOp29
 70
     1
102
RTVSPost2010Prop30
280
     1
102
RTVSPost2010PropOp30
 70
     1
102
RTVSPost2010Prop31
280
     0
102
RTVSPost2010PropOp31
 70
     1
102
RTVSPost2010Prop32
280
     0
102
RTVSPost2010PropOp32
 70
     1
102
RTVSPost2010Prop33
280
     0
102
RTVSPost2010PropOp33
 70
     1
102
RTVSPost2010Prop34
280
     0
102
RTVSPost2010PropOp34
 70
     1
102
RTVSPost2010Prop35
280
     0
102
RTVSPost2010PropOp35
 70
     1
102
RTVSPost2010Prop36
280
     0
102
RTVSPost2010PropOp36
 70
     1
102
RTVSPost2010Prop37
 90
       50
102
RTVSPost2010PropOp37
 70
     1
102
RTVSPost2010Prop38
140
0.0
102
RTVSPost2010PropOp38
 70
     1
102
RTVSPost2010Prop39
140
1.0
102
RTVSPost2010PropOp39
 70
     1
102
RTVSPost2010Prop40
 90
        0
102
RTVSPost2010PropOp40
 70
     1
102
RTVSPost2010Prop41ColorIndex
 90
       18
102
RTVSPost2010Prop41ColorRGB
 90
        0
102
RTVSPost2010PropOp41
 70
     1
102
RTVSPost2010Prop42
 90
       50
102
RTVSPost2010PropOp42
 70
     1
102
RTVSPost2010Prop43
 90
        3
102
RTVSPost2010PropOp43
 70
     1
102
RTVSPost2010Prop44ColorIndex
 90
        5
102
RTVSPost2010Prop44ColorRGB
 90
      255
102
RTVSPost2010PropOp44
 70
     1
102
RTVSPost2010Prop45
280
     0
102
RTVSPost2010PropOp45
 70
     1
102
RTVSPost2010Prop46
 90
       50
102
RTVSPost2010PropOp46
 70
     1
102
RTVSPost2010Prop47
 90
       50
102
RTVSPost2010PropOp47
 70
     1
102
RTVSPost2010Prop48
 90
       50
102
RTVSPost2010PropOp48
 70
     1
102
RTVSPost2010Prop49
280
     0
102
RTVSPost2010PropOp49
 70
     1
102
RTVSPost2010Prop50
 90
       50
102
RTVSPost2010PropOp50
 70
     1
102
RTVSPost2010Prop51ColorIndex
 90
      256
102
RTVSPost2010Prop51ColorRGB
 90
-16777216
102
RTVSPost2010PropOp51
 70
     0
102
RTVSPost2010Prop52
140
1.0
102
RTVSPost2010PropOp52
 70
     0
102
RTVSPost2010Prop53
 90
        2
102
RTVSPost2010PropOp53
 70
     1
102
RTVSPost2010Prop54
  1
strokes_ogs.tif
102
RTVSPost2010PropOp54
 70
     1
102
RTVSPost2010Prop55
280
     0
102
RTVSPost2010PropOp55
 70
     1
102
RTVSPost2010Prop56
140
1.0
102
RTVSPost2010PropOp56
 70
     1
102
RTVSPost2010Prop57
140
1.0
102
RTVSPost2010PropOp57
 70
     1
102
RTVSPropertyOp0
 70
     1
102
RTVSPropertyOp1
 70
     1
102
RTVSPropertyOp2
 70
     1
102
RTVSPropertyOp3
 70
     1
102
RTVSPropertyOp4
 70
     1
102
RTVSPropertyOp5
 70
     1
102
RTVSPropertyOp6
 70
     1
102
RTVSPropertyOp7
 70
     1
102
RTVSPropertyOp8
 70
     1
102
RTVSPropertyOp9
 70
     1
102
RTVSPropertyOp10
 70
     1
102
RTVSPropertyOp11
 70
     1
102
RTVSPropertyOp12
 70
     1
102
RTVSPropertyOp13
 70
     1
102
RTVSPropertyOp14
 70
     1
102
RTVSPropertyOp15
 70
     1
102
RTVSPropertyOp16
 70
     1
102
RTVSPropertyOp17
 70
     1
102
RTVSPropertyOp18
 70
     1
102
RTVSPropertyOp19
 70
     1
102
RTVSPropertyOp20
 70
     1
102
RTVSPropertyOp21
 70
     1
102
RTVSPropertyOp22
 70
     1
102
RTVSPropertyOp23
 70
     1
102
RTVSPropertyOp24
 70
     1
102
RTVSPropertyOp25
 70
     1
102
RTVSPropertyOp26
 70
     1
102
RTVSPropertyOp27
 70
     1
102
RTVSPropertyOp28
 70
     1
102
RTVSPropertyOp29
 70
     1
102
RTVSPropertyOp30
 70
     1
102
RTVSPropertyOp31
 70
     1
102
RTVSPropertyOp32
 70
     1
102
RTVSPropertyOp33
 70
     1
102
RTVSPropertyOp34
 70
     1
102
RTVSPropertyOp35
 70
     1
102
RTVSPropertyOp36
 70
     1
102
RTVSPropertyOp37
 70
     1
102
RTVSPropertyOp38
 70
     1
102
RTVSPropertyOp39
 70
     1
102
RTVSPropertyOp40
 70
     1
102
RTVSPropertyOp41
 70
     1
102
RTVSPropertyOp42
 70
     1
102
RTVSPropertyOp43
 70
     1
102
RTVSPropertyOp44
 70
     1
102
RTVSPropertyOp45
 70
     1
102
RTVSPropertyOp46
 70
     1
102
RTVSPropertyOp47
 70
     1
102
RTVSPropertyOp48
 70
     1
102
RTVSPropertyOp49
 70
     1
102
RTVSPropertyOp50
 70
     1
102
RTVSPropertyOp51
 70
     0
102
RTVSPropertyOp52
 70
     0
102
RTVSPropertyOp53
 70
     1
102
RTVSPropertyOp54
 70
     1
102
RTVSPropertyOp55
 70
     1
102
RTVSPropertyOp56
 70
     1
102
RTVSPropertyOp57
 70
     1
102
RTVSPropertyOp58
 70
     1
102
RTVSPropertyOp59
 70
     1
102
RTVSPropertyOp60
 70
     1
102
RTVSPropertyOp61
 70
     1
102
RTVSPropertyOp62
 70
     1
  0
XRECORD
  5
3D5
102
{ACAD_REACTORS
330
3D4
102
}
330
3D4
100
AcDbXrecord
280
     1
102
RTVSPost2010Prop28
280
     0
102
RTVSPost2010PropOp28
 70
     0
102
RTVSPost2010Prop29
280
     1
102
RTVSPost2010PropOp29
 70
     0
102
RTVSPost2010Prop30
280
     1
102
RTVSPost2010PropOp30
 70
     0
102
RTVSPost2010Prop31
280
     0
102
RTVSPost2010PropOp31
 70
     0
102
RTVSPost2010Prop32
280
     0
102
RTVSPost2010PropOp32
 70
     0
102
RTVSPost2010Prop33
280
     0
102
RTVSPost2010PropOp33
 70
     0
102
RTVSPost2010Prop34
280
     0
102
RTVSPost2010PropOp34
 70
     0
102
RTVSPost2010Prop35
280
     0
102
RTVSPost2010PropOp35
 70
     0
102
RTVSPost2010Prop36
280
     0
102
RTVSPost2010PropOp36
 70
     0
102
RTVSPost2010Prop37
 90
       50
102
RTVSPost2010PropOp37
 70
     0
102
RTVSPost2010Prop38
140
0.0
102
RTVSPost2010PropOp38
 70
     0
102
RTVSPost2010Prop39
140
1.0
102
RTVSPost2010PropOp39
 70
     0
102
RTVSPost2010Prop40
 90
        0
102
RTVSPost2010PropOp40
 70
     0
102
RTVSPost2010Prop41ColorIndex
 90
       18
102
RTVSPost2010Prop41ColorRGB
 90
        0
102
RTVSPost2010PropOp41
 70
     0
102
RTVSPost2010Prop42
 90
       50
102
RTVSPost2010PropOp42
 70
     0
102
RTVSPost2010Prop43
 90
        3
102
RTVSPost2010PropOp43
 70
     0
102
RTVSPost2010Prop44ColorIndex
 90
        5
102
RTVSPost2010Prop44ColorRGB
 90
      255
102
RTVSPost2010PropOp44
 70
     0
102
RTVSPost2010Prop45
280
     0
102
RTVSPost2010PropOp45
 70
     0
102
RTVSPost2010Prop46
 90
       50
102
RTVSPost2010PropOp46
 70
     0
102
RTVSPost2010Prop47
 90
       50
102
RTVSPost2010PropOp47
 70
     0
102
RTVSPost2010Prop48
 90
       50
102
RTVSPost2010PropOp48
 70
     0
102
RTVSPost2010Prop49
280
     0
102
RTVSPost2010PropOp49
 70
     0
102
RTVSPost2010Prop50
 90
       50
102
RTVSPost2010PropOp50
 70
     0
102
RTVSPost2010Prop51ColorIndex
 90
      256
102
RTVSPost2010Prop51ColorRGB
 90
-16777216
102
RTVSPost2010PropOp51
 70
     0
102
RTVSPost2010Prop52
140
1.0
102
RTVSPost2010PropOp52
 70
     0
102
RTVSPost2010Prop53
 90
        2
102
RTVSPost2010PropOp53
 70
     0
102
RTVSPost2010Prop54
  1
strokes_ogs.tif
102
RTVSPost2010PropOp54
 70
     0
102
RTVSPost2010Prop55
280
     0
102
RTVSPost2010PropOp55
 70
     0
102
RTVSPost2010Prop56
140
1.0
102
RTVSPost2010PropOp56
 70
     0
102
RTVSPost2010Prop57
140
1.0
102
RTVSPost2010PropOp57
 70
     0
102
RTVSPropertyOp0
 70
     0
102
RTVSPropertyOp1
 70
     0
102
RTVSPropertyOp2
 70
     0
102
RTVSPropertyOp3
 70
     0
102
RTVSPropertyOp4
 70
     0
102
RTVSPropertyOp5
 70
     0
102
RTVSPropertyOp6
 70
     0
102
RTVSPropertyOp7
 70
     0
102
RTVSPropertyOp8
 70
     0
102
RTVSPropertyOp9
 70
     0
102
RTVSPropertyOp10
 70
     0
102
RTVSPropertyOp11
 70
     0
102
RTVSPropertyOp12
 70
     0
102
RTVSPropertyOp13
 70
     0
102
RTVSPropertyOp14
 70
     2
102
RTVSPropertyOp15
 70
     0
102
RTVSPropertyOp16
 70
     0
102
RTVSPropertyOp17
 70
     0
102
RTVSPropertyOp18
 70
     0
102
RTVSPropertyOp19
 70
     0
102
RTVSPropertyOp20
 70
     0
102
RTVSPropertyOp21
 70
     0
102
RTVSPropertyOp22
 70
     0
102
RTVSPropertyOp23
 70
     0
102
RTVSPropertyOp24
 70
     0
102
RTVSPropertyOp25
 70
     0
102
RTVSPropertyOp26
 70
     0
102
RTVSPropertyOp27
 70
     0
102
RTVSPropertyOp28
 70
     0
102
RTVSPropertyOp29
 70
     0
102
RTVSPropertyOp30
 70
     0
102
RTVSPropertyOp31
 70
     0
102
RTVSPropertyOp32
 70
     0
102
RTVSPropertyOp33
 70
     0
102
RTVSPropertyOp34
 70
     0
102
RTVSPropertyOp35
 70
     0
102
RTVSPropertyOp36
 70
     0
102
RTVSPropertyOp37
 70
     0
102
RTVSPropertyOp38
 70
     0
102
RTVSPropertyOp39
 70
     0
102
RTVSPropertyOp40
 70
     0
102
RTVSPropertyOp41
 70
     0
102
RTVSPropertyOp42
 70
     0
102
RTVSPropertyOp43
 70
     0
102
RTVSPropertyOp44
 70
     0
102
RTVSPropertyOp45
 70
     0
102
RTVSPropertyOp46
 70
     0
102
RTVSPropertyOp47
 70
     0
102
RTVSPropertyOp48
 70
     0
102
RTVSPropertyOp49
 70
     0
102
RTVSPropertyOp50
 70
     0
102
RTVSPropertyOp51
 70
     0
102
RTVSPropertyOp52
 70
     0
102
RTVSPropertyOp53
 70
     0
102
RTVSPropertyOp54
 70
     0
102
RTVSPropertyOp55
 70
     0
102
RTVSPropertyOp56
 70
     0
102
RTVSPropertyOp57
 70
     0
102
RTVSPropertyOp58
 70
     1
102
RTVSPropertyOp59
 70
     1
102
RTVSPropertyOp60
 70
     1
102
RTVSPropertyOp61
 70
     1
102
RTVSPropertyOp62
 70
     1
  0
XRECORD
  5
3C3
102
{ACAD_REACTORS
330
3C2
102
}
330
3C2
100
AcDbXrecord
280
     1
102
RTVSPost2010Prop28
280
     0
102
RTVSPost2010PropOp28
 70
     1
102
RTVSPost2010Prop29
280
     1
102
RTVSPost2010PropOp29
 70
     1
102
RTVSPost2010Prop30
280
     1
102
RTVSPost2010PropOp30
 70
     1
102
RTVSPost2010Prop31
280
     0
102
RTVSPost2010PropOp31
 70
     1
102
RTVSPost2010Prop32
280
     0
102
RTVSPost2010PropOp32
 70
     1
102
RTVSPost2010Prop33
280
     0
102
RTVSPost2010PropOp33
 70
     1
102
RTVSPost2010Prop34
280
     0
102
RTVSPost2010PropOp34
 70
     1
102
RTVSPost2010Prop35
280
     0
102
RTVSPost2010PropOp35
 70
     1
102
RTVSPost2010Prop36
280
     0
102
RTVSPost2010PropOp36
 70
     1
102
RTVSPost2010Prop37
 90
       50
102
RTVSPost2010PropOp37
 70
     1
102
RTVSPost2010Prop38
140
0.0
102
RTVSPost2010PropOp38
 70
     1
102
RTVSPost2010Prop39
140
1.0
102
RTVSPost2010PropOp39
 70
     1
102
RTVSPost2010Prop40
 90
        0
102
RTVSPost2010PropOp40
 70
     1
102
RTVSPost2010Prop41ColorIndex
 90
       18
102
RTVSPost2010Prop41ColorRGB
 90
        0
102
RTVSPost2010PropOp41
 70
     1
102
RTVSPost2010Prop42
 90
       50
102
RTVSPost2010PropOp42
 70
     1
102
RTVSPost2010Prop43
 90
        3
102
RTVSPost2010PropOp43
 70
     1
102
RTVSPost2010Prop44ColorIndex
 90
        5
102
RTVSPost2010Prop44ColorRGB
 90
      255
102
RTVSPost2010PropOp44
 70
     1
102
RTVSPost2010Prop45
280
     0
102
RTVSPost2010PropOp45
 70
     1
102
RTVSPost2010Prop46
 90
       50
102
RTVSPost2010PropOp46
 70
     1
102
RTVSPost2010Prop47
 90
       50
102
RTVSPost2010PropOp47
 70
     1
102
RTVSPost2010Prop48
 90
       50
102
RTVSPost2010PropOp48
 70
     1
102
RTVSPost2010Prop49
280
     0
102
RTVSPost2010PropOp49
 70
     1
102
RTVSPost2010Prop50
 90
       50
102
RTVSPost2010PropOp50
 70
     1
102
RTVSPost2010Prop51ColorIndex
 90
      256
102
RTVSPost2010Prop51ColorRGB
 90
-16777216
102
RTVSPost2010PropOp51
 70
     0
102
RTVSPost2010Prop52
140
1.0
102
RTVSPost2010PropOp52
 70
     0
102
RTVSPost2010Prop53
 90
        2
102
RTVSPost2010PropOp53
 70
     1
102
RTVSPost2010Prop54
  1
strokes_ogs.tif
102
RTVSPost2010PropOp54
 70
     1
102
RTVSPost2010Prop55
280
     0
102
RTVSPost2010PropOp55
 70
     1
102
RTVSPost2010Prop56
140
1.0
102
RTVSPost2010PropOp56
 70
     1
102
RTVSPost2010Prop57
140
1.0
102
RTVSPost2010PropOp57
 70
     1
102
RTVSPropertyOp0
 70
     1
102
RTVSPropertyOp1
 70
     1
102
RTVSPropertyOp2
 70
     1
102
RTVSPropertyOp3
 70
     1
102
RTVSPropertyOp4
 70
     1
102
RTVSPropertyOp5
 70
     1
102
RTVSPropertyOp6
 70
     1
102
RTVSPropertyOp7
 70
     1
102
RTVSPropertyOp8
 70
     1
102
RTVSPropertyOp9
 70
     1
102
RTVSPropertyOp10
 70
     1
102
RTVSPropertyOp11
 70
     1
102
RTVSPropertyOp12
 70
     1
102
RTVSPropertyOp13
 70
     1
102
RTVSPropertyOp14
 70
     1
102
RTVSPropertyOp15
 70
     1
102
RTVSPropertyOp16
 70
     1
102
RTVSPropertyOp17
 70
     1
102
RTVSPropertyOp18
 70
     1
102
RTVSPropertyOp19
 70
     1
102
RTVSPropertyOp20
 70
     1
102
RTVSPropertyOp21
 70
     1
102
RTVSPropertyOp22
 70
     1
102
RTVSPropertyOp23
 70
     1
102
RTVSPropertyOp24
 70
     1
102
RTVSPropertyOp25
 70
     1
102
RTVSPropertyOp26
 70
     1
102
RTVSPropertyOp27
 70
     1
102
RTVSPropertyOp28
 70
     1
102
RTVSPropertyOp29
 70
     1
102
RTVSPropertyOp30
 70
     1
102
RTVSPropertyOp31
 70
     1
102
RTVSPropertyOp32
 70
     1
102
RTVSPropertyOp33
 70
     1
102
RTVSPropertyOp34
 70
     1
102
RTVSPropertyOp35
 70
     1
102
RTVSPropertyOp36
 70
     1
102
RTVSPropertyOp37
 70
     1
102
RTVSPropertyOp38
 70
     1
102
RTVSPropertyOp39
 70
     1
102
RTVSPropertyOp40
 70
     1
102
RTVSPropertyOp41
 70
     1
102
RTVSPropertyOp42
 70
     1
102
RTVSPropertyOp43
 70
     1
102
RTVSPropertyOp44
 70
     1
102
RTVSPropertyOp45
 70
     1
102
RTVSPropertyOp46
 70
     1
102
RTVSPropertyOp47
 70
     1
102
RTVSPropertyOp48
 70
     1
102
RTVSPropertyOp49
 70
     1
102
RTVSPropertyOp50
 70
     1
102
RTVSPropertyOp51
 70
     0
102
RTVSPropertyOp52
 70
     0
102
RTVSPropertyOp53
 70
     1
102
RTVSPropertyOp54
 70
     1
102
RTVSPropertyOp55
 70
     1
102
RTVSPropertyOp56
 70
     1
102
RTVSPropertyOp57
 70
     1
102
RTVSPropertyOp58
 70
     1
102
RTVSPropertyOp59
 70
     1
102
RTVSPropertyOp60
 70
     1
102
RTVSPropertyOp61
 70
     1
102
RTVSPropertyOp62
 70
     1
  0
XRECORD
  5
3E1
102
{ACAD_REACTORS
330
3E0
102
}
330
3E0
100
AcDbXrecord
280
     1
102
RTVSPost2010Prop28
280
     0
102
RTVSPost2010PropOp28
 70
     1
102
RTVSPost2010Prop29
280
     1
102
RTVSPost2010PropOp29
 70
     1
102
RTVSPost2010Prop30
280
     1
102
RTVSPost2010PropOp30
 70
     1
102
RTVSPost2010Prop31
280
     0
102
RTVSPost2010PropOp31
 70
     1
102
RTVSPost2010Prop32
280
     0
102
RTVSPost2010PropOp32
 70
     1
102
RTVSPost2010Prop33
280
     0
102
RTVSPost2010PropOp33
 70
     1
102
RTVSPost2010Prop34
280
     0
102
RTVSPost2010PropOp34
 70
     1
102
RTVSPost2010Prop35
280
     0
102
RTVSPost2010PropOp35
 70
     1
102
RTVSPost2010Prop36
280
     0
102
RTVSPost2010PropOp36
 70
     1
102
RTVSPost2010Prop37
 90
       50
102
RTVSPost2010PropOp37
 70
     1
102
RTVSPost2010Prop38
140
0.0
102
RTVSPost2010PropOp38
 70
     1
102
RTVSPost2010Prop39
140
1.0
102
RTVSPost2010PropOp39
 70
     1
102
RTVSPost2010Prop40
 90
        0
102
RTVSPost2010PropOp40
 70
     1
102
RTVSPost2010Prop41ColorIndex
 90
       18
102
RTVSPost2010Prop41ColorRGB
 90
        0
102
RTVSPost2010PropOp41
 70
     1
102
RTVSPost2010Prop42
 90
       50
102
RTVSPost2010PropOp42
 70
     1
102
RTVSPost2010Prop43
 90
        3
102
RTVSPost2010PropOp43
 70
     1
102
RTVSPost2010Prop44ColorIndex
 90
        5
102
RTVSPost2010Prop44ColorRGB
 90
      255
102
RTVSPost2010PropOp44
 70
     1
102
RTVSPost2010Prop45
280
     0
102
RTVSPost2010PropOp45
 70
     1
102
RTVSPost2010Prop46
 90
       50
102
RTVSPost2010PropOp46
 70
     1
102
RTVSPost2010Prop47
 90
       50
102
RTVSPost2010PropOp47
 70
     1
102
RTVSPost2010Prop48
 90
       50
102
RTVSPost2010PropOp48
 70
     1
102
RTVSPost2010Prop49
280
     0
102
RTVSPost2010PropOp49
 70
     1
102
RTVSPost2010Prop50
 90
       50
102
RTVSPost2010PropOp50
 70
     1
102
RTVSPost2010Prop51ColorIndex
 90
      256
102
RTVSPost2010Prop51ColorRGB
 90
-16777216
102
RTVSPost2010PropOp51
 70
     0
102
RTVSPost2010Prop52
140
1.0
102
RTVSPost2010PropOp52
 70
     0
102
RTVSPost2010Prop53
 90
        2
102
RTVSPost2010PropOp53
 70
     1
102
RTVSPost2010Prop54
  1
strokes_ogs.tif
102
RTVSPost2010PropOp54
 70
     1
102
RTVSPost2010Prop55
280
     0
102
RTVSPost2010PropOp55
 70
     1
102
RTVSPost2010Prop56
140
1.0
102
RTVSPost2010PropOp56
 70
     1
102
RTVSPost2010Prop57
140
1.0
102
RTVSPost2010PropOp57
 70
     1
102
RTVSPropertyOp0
 70
     1
102
RTVSPropertyOp1
 70
     1
102
RTVSPropertyOp2
 70
     1
102
RTVSPropertyOp3
 70
     1
102
RTVSPropertyOp4
 70
     1
102
RTVSPropertyOp5
 70
     1
102
RTVSPropertyOp6
 70
     1
102
RTVSPropertyOp7
 70
     1
102
RTVSPropertyOp8
 70
     1
102
RTVSPropertyOp9
 70
     1
102
RTVSPropertyOp10
 70
     1
102
RTVSPropertyOp11
 70
     1
102
RTVSPropertyOp12
 70
     1
102
RTVSPropertyOp13
 70
     1
102
RTVSPropertyOp14
 70
     1
102
RTVSPropertyOp15
 70
     1
102
RTVSPropertyOp16
 70
     1
102
RTVSPropertyOp17
 70
     1
102
RTVSPropertyOp18
 70
     1
102
RTVSPropertyOp19
 70
     1
102
RTVSPropertyOp20
 70
     1
102
RTVSPropertyOp21
 70
     1
102
RTVSPropertyOp22
 70
     1
102
RTVSPropertyOp23
 70
     1
102
RTVSPropertyOp24
 70
     1
102
RTVSPropertyOp25
 70
     1
102
RTVSPropertyOp26
 70
     1
102
RTVSPropertyOp27
 70
     1
102
RTVSPropertyOp28
 70
     1
102
RTVSPropertyOp29
 70
     1
102
RTVSPropertyOp30
 70
     1
102
RTVSPropertyOp31
 70
     1
102
RTVSPropertyOp32
 70
     1
102
RTVSPropertyOp33
 70
     1
102
RTVSPropertyOp34
 70
     1
102
RTVSPropertyOp35
 70
     1
102
RTVSPropertyOp36
 70
     1
102
RTVSPropertyOp37
 70
     1
102
RTVSPropertyOp38
 70
     1
102
RTVSPropertyOp39
 70
     1
102
RTVSPropertyOp40
 70
     1
102
RTVSPropertyOp41
 70
     1
102
RTVSPropertyOp42
 70
     1
102
RTVSPropertyOp43
 70
     1
102
RTVSPropertyOp44
 70
     1
102
RTVSPropertyOp45
 70
     1
102
RTVSPropertyOp46
 70
     1
102
RTVSPropertyOp47
 70
     1
102
RTVSPropertyOp48
 70
     1
102
RTVSPropertyOp49
 70
     1
102
RTVSPropertyOp50
 70
     1
102
RTVSPropertyOp51
 70
     0
102
RTVSPropertyOp52
 70
     0
102
RTVSPropertyOp53
 70
     1
102
RTVSPropertyOp54
 70
     1
102
RTVSPropertyOp55
 70
     1
102
RTVSPropertyOp56
 70
     1
102
RTVSPropertyOp57
 70
     1
102
RTVSPropertyOp58
 70
     1
102
RTVSPropertyOp59
 70
     1
102
RTVSPropertyOp60
 70
     1
102
RTVSPropertyOp61
 70
     1
102
RTVSPropertyOp62
 70
     1
  0
XRECORD
  5
3DF
102
{ACAD_REACTORS
330
3DE
102
}
330
3DE
100
AcDbXrecord
280
     1
102
RTVSPost2010Prop28
280
     0
102
RTVSPost2010PropOp28
 70
     1
102
RTVSPost2010Prop29
280
     1
102
RTVSPost2010PropOp29
 70
     1
102
RTVSPost2010Prop30
280
     1
102
RTVSPost2010PropOp30
 70
     1
102
RTVSPost2010Prop31
280
     0
102
RTVSPost2010PropOp31
 70
     1
102
RTVSPost2010Prop32
280
     0
102
RTVSPost2010PropOp32
 70
     1
102
RTVSPost2010Prop33
280
     0
102
RTVSPost2010PropOp33
 70
     1
102
RTVSPost2010Prop34
280
     0
102
RTVSPost2010PropOp34
 70
     1
102
RTVSPost2010Prop35
280
     0
102
RTVSPost2010PropOp35
 70
     1
102
RTVSPost2010Prop36
280
     0
102
RTVSPost2010PropOp36
 70
     1
102
RTVSPost2010Prop37
 90
       50
102
RTVSPost2010PropOp37
 70
     1
102
RTVSPost2010Prop38
140
0.0
102
RTVSPost2010PropOp38
 70
     1
102
RTVSPost2010Prop39
140
1.0
102
RTVSPost2010PropOp39
 70
     1
102
RTVSPost2010Prop40
 90
        0
102
RTVSPost2010PropOp40
 70
     1
102
RTVSPost2010Prop41ColorIndex
 90
       18
102
RTVSPost2010Prop41ColorRGB
 90
        0
102
RTVSPost2010PropOp41
 70
     1
102
RTVSPost2010Prop42
 90
       50
102
RTVSPost2010PropOp42
 70
     1
102
RTVSPost2010Prop43
 90
        3
102
RTVSPost2010PropOp43
 70
     1
102
RTVSPost2010Prop44ColorIndex
 90
        5
102
RTVSPost2010Prop44ColorRGB
 90
      255
102
RTVSPost2010PropOp44
 70
     1
102
RTVSPost2010Prop45
280
     0
102
RTVSPost2010PropOp45
 70
     1
102
RTVSPost2010Prop46
 90
       50
102
RTVSPost2010PropOp46
 70
     1
102
RTVSPost2010Prop47
 90
       50
102
RTVSPost2010PropOp47
 70
     1
102
RTVSPost2010Prop48
 90
       50
102
RTVSPost2010PropOp48
 70
     1
102
RTVSPost2010Prop49
280
     0
102
RTVSPost2010PropOp49
 70
     1
102
RTVSPost2010Prop50
 90
       50
102
RTVSPost2010PropOp50
 70
     1
102
RTVSPost2010Prop51ColorIndex
 90
      256
102
RTVSPost2010Prop51ColorRGB
 90
-16777216
102
RTVSPost2010PropOp51
 70
     0
102
RTVSPost2010Prop52
140
1.0
102
RTVSPost2010PropOp52
 70
     0
102
RTVSPost2010Prop53
 90
        2
102
RTVSPost2010PropOp53
 70
     1
102
RTVSPost2010Prop54
  1
strokes_ogs.tif
102
RTVSPost2010PropOp54
 70
     1
102
RTVSPost2010Prop55
280
     0
102
RTVSPost2010PropOp55
 70
     1
102
RTVSPost2010Prop56
140
1.0
102
RTVSPost2010PropOp56
 70
     1
102
RTVSPost2010Prop57
140
1.0
102
RTVSPost2010PropOp57
 70
     1
102
RTVSPropertyOp0
 70
     1
102
RTVSPropertyOp1
 70
     1
102
RTVSPropertyOp2
 70
     1
102
RTVSPropertyOp3
 70
     1
102
RTVSPropertyOp4
 70
     1
102
RTVSPropertyOp5
 70
     1
102
RTVSPropertyOp6
 70
     1
102
RTVSPropertyOp7
 70
     1
102
RTVSPropertyOp8
 70
     1
102
RTVSPropertyOp9
 70
     1
102
RTVSPropertyOp10
 70
     1
102
RTVSPropertyOp11
 70
     1
102
RTVSPropertyOp12
 70
     1
102
RTVSPropertyOp13
 70
     1
102
RTVSPropertyOp14
 70
     1
102
RTVSPropertyOp15
 70
     1
102
RTVSPropertyOp16
 70
     1
102
RTVSPropertyOp17
 70
     1
102
RTVSPropertyOp18
 70
     1
102
RTVSPropertyOp19
 70
     1
102
RTVSPropertyOp20
 70
     1
102
RTVSPropertyOp21
 70
     1
102
RTVSPropertyOp22
 70
     1
102
RTVSPropertyOp23
 70
     1
102
RTVSPropertyOp24
 70
     1
102
RTVSPropertyOp25
 70
     1
102
RTVSPropertyOp26
 70
     1
102
RTVSPropertyOp27
 70
     1
102
RTVSPropertyOp28
 70
     1
102
RTVSPropertyOp29
 70
     1
102
RTVSPropertyOp30
 70
     1
102
RTVSPropertyOp31
 70
     1
102
RTVSPropertyOp32
 70
     1
102
RTVSPropertyOp33
 70
     1
102
RTVSPropertyOp34
 70
     1
102
RTVSPropertyOp35
 70
     1
102
RTVSPropertyOp36
 70
     1
102
RTVSPropertyOp37
 70
     1
102
RTVSPropertyOp38
 70
     1
102
RTVSPropertyOp39
 70
     1
102
RTVSPropertyOp40
 70
     1
102
RTVSPropertyOp41
 70
     1
102
RTVSPropertyOp42
 70
     1
102
RTVSPropertyOp43
 70
     1
102
RTVSPropertyOp44
 70
     1
102
RTVSPropertyOp45
 70
     1
102
RTVSPropertyOp46
 70
     1
102
RTVSPropertyOp47
 70
     1
102
RTVSPropertyOp48
 70
     1
102
RTVSPropertyOp49
 70
     1
102
RTVSPropertyOp50
 70
     1
102
RTVSPropertyOp51
 70
     0
102
RTVSPropertyOp52
 70
     0
102
RTVSPropertyOp53
 70
     1
102
RTVSPropertyOp54
 70
     1
102
RTVSPropertyOp55
 70
     1
102
RTVSPropertyOp56
 70
     1
102
RTVSPropertyOp57
 70
     1
102
RTVSPropertyOp58
 70
     1
102
RTVSPropertyOp59
 70
     1
102
RTVSPropertyOp60
 70
     1
102
RTVSPropertyOp61
 70
     1
102
RTVSPropertyOp62
 70
     1
  0
XRECORD
  5
3D9
102
{ACAD_REACTORS
330
3D8
102
}
330
3D8
100
AcDbXrecord
280
     1
102
RTVSPost2010Prop28
280
     0
102
RTVSPost2010PropOp28
 70
     1
102
RTVSPost2010Prop29
280
     1
102
RTVSPost2010PropOp29
 70
     1
102
RTVSPost2010Prop30
280
     1
102
RTVSPost2010PropOp30
 70
     1
102
RTVSPost2010Prop31
280
     0
102
RTVSPost2010PropOp31
 70
     1
102
RTVSPost2010Prop32
280
     0
102
RTVSPost2010PropOp32
 70
     1
102
RTVSPost2010Prop33
280
     0
102
RTVSPost2010PropOp33
 70
     1
102
RTVSPost2010Prop34
280
     0
102
RTVSPost2010PropOp34
 70
     1
102
RTVSPost2010Prop35
280
     0
102
RTVSPost2010PropOp35
 70
     1
102
RTVSPost2010Prop36
280
     0
102
RTVSPost2010PropOp36
 70
     1
102
RTVSPost2010Prop37
 90
       50
102
RTVSPost2010PropOp37
 70
     1
102
RTVSPost2010Prop38
140
0.0
102
RTVSPost2010PropOp38
 70
     1
102
RTVSPost2010Prop39
140
1.0
102
RTVSPost2010PropOp39
 70
     1
102
RTVSPost2010Prop40
 90
        0
102
RTVSPost2010PropOp40
 70
     1
102
RTVSPost2010Prop41ColorIndex
 90
       18
102
RTVSPost2010Prop41ColorRGB
 90
        0
102
RTVSPost2010PropOp41
 70
     1
102
RTVSPost2010Prop42
 90
       50
102
RTVSPost2010PropOp42
 70
     1
102
RTVSPost2010Prop43
 90
        3
102
RTVSPost2010PropOp43
 70
     1
102
RTVSPost2010Prop44ColorIndex
 90
        5
102
RTVSPost2010Prop44ColorRGB
 90
      255
102
RTVSPost2010PropOp44
 70
     1
102
RTVSPost2010Prop45
280
     0
102
RTVSPost2010PropOp45
 70
     1
102
RTVSPost2010Prop46
 90
       50
102
RTVSPost2010PropOp46
 70
     1
102
RTVSPost2010Prop47
 90
       50
102
RTVSPost2010PropOp47
 70
     1
102
RTVSPost2010Prop48
 90
       50
102
RTVSPost2010PropOp48
 70
     1
102
RTVSPost2010Prop49
280
     0
102
RTVSPost2010PropOp49
 70
     1
102
RTVSPost2010Prop50
 90
       50
102
RTVSPost2010PropOp50
 70
     1
102
RTVSPost2010Prop51ColorIndex
 90
      256
102
RTVSPost2010Prop51ColorRGB
 90
-16777216
102
RTVSPost2010PropOp51
 70
     0
102
RTVSPost2010Prop52
140
1.0
102
RTVSPost2010PropOp52
 70
     0
102
RTVSPost2010Prop53
 90
        2
102
RTVSPost2010PropOp53
 70
     1
102
RTVSPost2010Prop54
  1
strokes_ogs.tif
102
RTVSPost2010PropOp54
 70
     1
102
RTVSPost2010Prop55
280
     0
102
RTVSPost2010PropOp55
 70
     1
102
RTVSPost2010Prop56
140
1.0
102
RTVSPost2010PropOp56
 70
     1
102
RTVSPost2010Prop57
140
1.0
102
RTVSPost2010PropOp57
 70
     1
102
RTVSPropertyOp0
 70
     1
102
RTVSPropertyOp1
 70
     1
102
RTVSPropertyOp2
 70
     1
102
RTVSPropertyOp3
 70
     1
102
RTVSPropertyOp4
 70
     1
102
RTVSPropertyOp5
 70
     1
102
RTVSPropertyOp6
 70
     1
102
RTVSPropertyOp7
 70
     1
102
RTVSPropertyOp8
 70
     1
102
RTVSPropertyOp9
 70
     1
102
RTVSPropertyOp10
 70
     1
102
RTVSPropertyOp11
 70
     1
102
RTVSPropertyOp12
 70
     1
102
RTVSPropertyOp13
 70
     1
102
RTVSPropertyOp14
 70
     1
102
RTVSPropertyOp15
 70
     1
102
RTVSPropertyOp16
 70
     1
102
RTVSPropertyOp17
 70
     1
102
RTVSPropertyOp18
 70
     1
102
RTVSPropertyOp19
 70
     1
102
RTVSPropertyOp20
 70
     1
102
RTVSPropertyOp21
 70
     1
102
RTVSPropertyOp22
 70
     1
102
RTVSPropertyOp23
 70
     1
102
RTVSPropertyOp24
 70
     1
102
RTVSPropertyOp25
 70
     1
102
RTVSPropertyOp26
 70
     1
102
RTVSPropertyOp27
 70
     1
102
RTVSPropertyOp28
 70
     1
102
RTVSPropertyOp29
 70
     1
102
RTVSPropertyOp30
 70
     1
102
RTVSPropertyOp31
 70
     1
102
RTVSPropertyOp32
 70
     1
102
RTVSPropertyOp33
 70
     1
102
RTVSPropertyOp34
 70
     1
102
RTVSPropertyOp35
 70
     1
102
RTVSPropertyOp36
 70
     1
102
RTVSPropertyOp37
 70
     1
102
RTVSPropertyOp38
 70
     1
102
RTVSPropertyOp39
 70
     1
102
RTVSPropertyOp40
 70
     1
102
RTVSPropertyOp41
 70
     1
102
RTVSPropertyOp42
 70
     1
102
RTVSPropertyOp43
 70
     1
102
RTVSPropertyOp44
 70
     1
102
RTVSPropertyOp45
 70
     1
102
RTVSPropertyOp46
 70
     1
102
RTVSPropertyOp47
 70
     1
102
RTVSPropertyOp48
 70
     1
102
RTVSPropertyOp49
 70
     1
102
RTVSPropertyOp50
 70
     1
102
RTVSPropertyOp51
 70
     0
102
RTVSPropertyOp52
 70
     0
102
RTVSPropertyOp53
 70
     1
102
RTVSPropertyOp54
 70
     1
102
RTVSPropertyOp55
 70
     1
102
RTVSPropertyOp56
 70
     1
102
RTVSPropertyOp57
 70
     1
102
RTVSPropertyOp58
 70
     1
102
RTVSPropertyOp59
 70
     1
102
RTVSPropertyOp60
 70
     1
102
RTVSPropertyOp61
 70
     1
102
RTVSPropertyOp62
 70
     1
  0
XRECORD
  5
3DB
102
{ACAD_REACTORS
330
3DA
102
}
330
3DA
100
AcDbXrecord
280
     1
102
RTVSPost2010Prop28
280
     0
102
RTVSPost2010PropOp28
 70
     1
102
RTVSPost2010Prop29
280
     1
102
RTVSPost2010PropOp29
 70
     1
102
RTVSPost2010Prop30
280
     1
102
RTVSPost2010PropOp30
 70
     1
102
RTVSPost2010Prop31
280
     0
102
RTVSPost2010PropOp31
 70
     1
102
RTVSPost2010Prop32
280
     0
102
RTVSPost2010PropOp32
 70
     1
102
RTVSPost2010Prop33
280
     0
102
RTVSPost2010PropOp33
 70
     1
102
RTVSPost2010Prop34
280
     0
102
RTVSPost2010PropOp34
 70
     1
102
RTVSPost2010Prop35
280
     0
102
RTVSPost2010PropOp35
 70
     1
102
RTVSPost2010Prop36
280
     0
102
RTVSPost2010PropOp36
 70
     1
102
RTVSPost2010Prop37
 90
       50
102
RTVSPost2010PropOp37
 70
     1
102
RTVSPost2010Prop38
140
0.0
102
RTVSPost2010PropOp38
 70
     1
102
RTVSPost2010Prop39
140
1.0
102
RTVSPost2010PropOp39
 70
     1
102
RTVSPost2010Prop40
 90
        0
102
RTVSPost2010PropOp40
 70
     1
102
RTVSPost2010Prop41ColorIndex
 90
       18
102
RTVSPost2010Prop41ColorRGB
 90
        0
102
RTVSPost2010PropOp41
 70
     1
102
RTVSPost2010Prop42
 90
       50
102
RTVSPost2010PropOp42
 70
     1
102
RTVSPost2010Prop43
 90
        3
102
RTVSPost2010PropOp43
 70
     1
102
RTVSPost2010Prop44ColorIndex
 90
        5
102
RTVSPost2010Prop44ColorRGB
 90
      255
102
RTVSPost2010PropOp44
 70
     1
102
RTVSPost2010Prop45
280
     0
102
RTVSPost2010PropOp45
 70
     1
102
RTVSPost2010Prop46
 90
       50
102
RTVSPost2010PropOp46
 70
     1
102
RTVSPost2010Prop47
 90
       50
102
RTVSPost2010PropOp47
 70
     1
102
RTVSPost2010Prop48
 90
       50
102
RTVSPost2010PropOp48
 70
     1
102
RTVSPost2010Prop49
280
     0
102
RTVSPost2010PropOp49
 70
     1
102
RTVSPost2010Prop50
 90
       50
102
RTVSPost2010PropOp50
 70
     1
102
RTVSPost2010Prop51ColorIndex
 90
      256
102
RTVSPost2010Prop51ColorRGB
 90
-16777216
102
RTVSPost2010PropOp51
 70
     0
102
RTVSPost2010Prop52
140
1.0
102
RTVSPost2010PropOp52
 70
     0
102
RTVSPost2010Prop53
 90
        2
102
RTVSPost2010PropOp53
 70
     1
102
RTVSPost2010Prop54
  1
strokes_ogs.tif
102
RTVSPost2010PropOp54
 70
     1
102
RTVSPost2010Prop55
280
     0
102
RTVSPost2010PropOp55
 70
     1
102
RTVSPost2010Prop56
140
1.0
102
RTVSPost2010PropOp56
 70
     1
102
RTVSPost2010Prop57
140
1.0
102
RTVSPost2010PropOp57
 70
     1
102
RTVSPropertyOp0
 70
     1
102
RTVSPropertyOp1
 70
     1
102
RTVSPropertyOp2
 70
     1
102
RTVSPropertyOp3
 70
     1
102
RTVSPropertyOp4
 70
     1
102
RTVSPropertyOp5
 70
     1
102
RTVSPropertyOp6
 70
     1
102
RTVSPropertyOp7
 70
     1
102
RTVSPropertyOp8
 70
     1
102
RTVSPropertyOp9
 70
     1
102
RTVSPropertyOp10
 70
     1
102
RTVSPropertyOp11
 70
     1
102
RTVSPropertyOp12
 70
     1
102
RTVSPropertyOp13
 70
     1
102
RTVSPropertyOp14
 70
     1
102
RTVSPropertyOp15
 70
     1
102
RTVSPropertyOp16
 70
     1
102
RTVSPropertyOp17
 70
     1
102
RTVSPropertyOp18
 70
     1
102
RTVSPropertyOp19
 70
     1
102
RTVSPropertyOp20
 70
     1
102
RTVSPropertyOp21
 70
     1
102
RTVSPropertyOp22
 70
     1
102
RTVSPropertyOp23
 70
     1
102
RTVSPropertyOp24
 70
     1
102
RTVSPropertyOp25
 70
     1
102
RTVSPropertyOp26
 70
     1
102
RTVSPropertyOp27
 70
     1
102
RTVSPropertyOp28
 70
     1
102
RTVSPropertyOp29
 70
     1
102
RTVSPropertyOp30
 70
     1
102
RTVSPropertyOp31
 70
     1
102
RTVSPropertyOp32
 70
     1
102
RTVSPropertyOp33
 70
     1
102
RTVSPropertyOp34
 70
     1
102
RTVSPropertyOp35
 70
     1
102
RTVSPropertyOp36
 70
     1
102
RTVSPropertyOp37
 70
     1
102
RTVSPropertyOp38
 70
     1
102
RTVSPropertyOp39
 70
     1
102
RTVSPropertyOp40
 70
     1
102
RTVSPropertyOp41
 70
     1
102
RTVSPropertyOp42
 70
     1
102
RTVSPropertyOp43
 70
     1
102
RTVSPropertyOp44
 70
     1
102
RTVSPropertyOp45
 70
     1
102
RTVSPropertyOp46
 70
     1
102
RTVSPropertyOp47
 70
     1
102
RTVSPropertyOp48
 70
     1
102
RTVSPropertyOp49
 70
     1
102
RTVSPropertyOp50
 70
     1
102
RTVSPropertyOp51
 70
     0
102
RTVSPropertyOp52
 70
     0
102
RTVSPropertyOp53
 70
     1
102
RTVSPropertyOp54
 70
     1
102
RTVSPropertyOp55
 70
     1
102
RTVSPropertyOp56
 70
     1
102
RTVSPropertyOp57
 70
     1
102
RTVSPropertyOp58
 70
     1
102
RTVSPropertyOp59
 70
     1
102
RTVSPropertyOp60
 70
     1
102
RTVSPropertyOp61
 70
     1
102
RTVSPropertyOp62
 70
     1
  0
XRECORD
  5
3CB
102
{ACAD_REACTORS
330
3CA
102
}
330
3CA
100
AcDbXrecord
280
     1
102
RTVSPost2010Prop28
280
     0
102
RTVSPost2010PropOp28
 70
     1
102
RTVSPost2010Prop29
280
     1
102
RTVSPost2010PropOp29
 70
     1
102
RTVSPost2010Prop30
280
     1
102
RTVSPost2010PropOp30
 70
     1
102
RTVSPost2010Prop31
280
     0
102
RTVSPost2010PropOp31
 70
     1
102
RTVSPost2010Prop32
280
     0
102
RTVSPost2010PropOp32
 70
     1
102
RTVSPost2010Prop33
280
     0
102
RTVSPost2010PropOp33
 70
     1
102
RTVSPost2010Prop34
280
     0
102
RTVSPost2010PropOp34
 70
     1
102
RTVSPost2010Prop35
280
     0
102
RTVSPost2010PropOp35
 70
     1
102
RTVSPost2010Prop36
280
     0
102
RTVSPost2010PropOp36
 70
     1
102
RTVSPost2010Prop37
 90
       50
102
RTVSPost2010PropOp37
 70
     1
102
RTVSPost2010Prop38
140
0.0
102
RTVSPost2010PropOp38
 70
     1
102
RTVSPost2010Prop39
140
1.0
102
RTVSPost2010PropOp39
 70
     1
102
RTVSPost2010Prop40
 90
        0
102
RTVSPost2010PropOp40
 70
     1
102
RTVSPost2010Prop41ColorIndex
 90
       18
102
RTVSPost2010Prop41ColorRGB
 90
        0
102
RTVSPost2010PropOp41
 70
     1
102
RTVSPost2010Prop42
 90
       50
102
RTVSPost2010PropOp42
 70
     1
102
RTVSPost2010Prop43
 90
        3
102
RTVSPost2010PropOp43
 70
     1
102
RTVSPost2010Prop44ColorIndex
 90
        5
102
RTVSPost2010Prop44ColorRGB
 90
      255
102
RTVSPost2010PropOp44
 70
     1
102
RTVSPost2010Prop45
280
     0
102
RTVSPost2010PropOp45
 70
     1
102
RTVSPost2010Prop46
 90
       50
102
RTVSPost2010PropOp46
 70
     1
102
RTVSPost2010Prop47
 90
       50
102
RTVSPost2010PropOp47
 70
     1
102
RTVSPost2010Prop48
 90
       50
102
RTVSPost2010PropOp48
 70
     1
102
RTVSPost2010Prop49
280
     0
102
RTVSPost2010PropOp49
 70
     1
102
RTVSPost2010Prop50
 90
       50
102
RTVSPost2010PropOp50
 70
     1
102
RTVSPost2010Prop51ColorIndex
 90
      256
102
RTVSPost2010Prop51ColorRGB
 90
-16777216
102
RTVSPost2010PropOp51
 70
     0
102
RTVSPost2010Prop52
140
1.0
102
RTVSPost2010PropOp52
 70
     0
102
RTVSPost2010Prop53
 90
        2
102
RTVSPost2010PropOp53
 70
     1
102
RTVSPost2010Prop54
  1
strokes_ogs.tif
102
RTVSPost2010PropOp54
 70
     1
102
RTVSPost2010Prop55
280
     0
102
RTVSPost2010PropOp55
 70
     1
102
RTVSPost2010Prop56
140
1.0
102
RTVSPost2010PropOp56
 70
     1
102
RTVSPost2010Prop57
140
1.0
102
RTVSPost2010PropOp57
 70
     1
102
RTVSPropertyOp0
 70
     1
102
RTVSPropertyOp1
 70
     1
102
RTVSPropertyOp2
 70
     1
102
RTVSPropertyOp3
 70
     1
102
RTVSPropertyOp4
 70
     1
102
RTVSPropertyOp5
 70
     1
102
RTVSPropertyOp6
 70
     1
102
RTVSPropertyOp7
 70
     1
102
RTVSPropertyOp8
 70
     1
102
RTVSPropertyOp9
 70
     1
102
RTVSPropertyOp10
 70
     1
102
RTVSPropertyOp11
 70
     1
102
RTVSPropertyOp12
 70
     1
102
RTVSPropertyOp13
 70
     1
102
RTVSPropertyOp14
 70
     1
102
RTVSPropertyOp15
 70
     1
102
RTVSPropertyOp16
 70
     1
102
RTVSPropertyOp17
 70
     1
102
RTVSPropertyOp18
 70
     1
102
RTVSPropertyOp19
 70
     1
102
RTVSPropertyOp20
 70
     1
102
RTVSPropertyOp21
 70
     1
102
RTVSPropertyOp22
 70
     1
102
RTVSPropertyOp23
 70
     1
102
RTVSPropertyOp24
 70
     1
102
RTVSPropertyOp25
 70
     1
102
RTVSPropertyOp26
 70
     1
102
RTVSPropertyOp27
 70
     1
102
RTVSPropertyOp28
 70
     1
102
RTVSPropertyOp29
 70
     1
102
RTVSPropertyOp30
 70
     1
102
RTVSPropertyOp31
 70
     1
102
RTVSPropertyOp32
 70
     1
102
RTVSPropertyOp33
 70
     1
102
RTVSPropertyOp34
 70
     1
102
RTVSPropertyOp35
 70
     1
102
RTVSPropertyOp36
 70
     1
102
RTVSPropertyOp37
 70
     1
102
RTVSPropertyOp38
 70
     1
102
RTVSPropertyOp39
 70
     1
102
RTVSPropertyOp40
 70
     1
102
RTVSPropertyOp41
 70
     1
102
RTVSPropertyOp42
 70
     1
102
RTVSPropertyOp43
 70
     1
102
RTVSPropertyOp44
 70
     1
102
RTVSPropertyOp45
 70
     1
102
RTVSPropertyOp46
 70
     1
102
RTVSPropertyOp47
 70
     1
102
RTVSPropertyOp48
 70
     1
102
RTVSPropertyOp49
 70
     1
102
RTVSPropertyOp50
 70
     1
102
RTVSPropertyOp51
 70
     0
102
RTVSPropertyOp52
 70
     0
102
RTVSPropertyOp53
 70
     1
102
RTVSPropertyOp54
 70
     1
102
RTVSPropertyOp55
 70
     1
102
RTVSPropertyOp56
 70
     1
102
RTVSPropertyOp57
 70
     1
102
RTVSPropertyOp58
 70
     1
102
RTVSPropertyOp59
 70
     1
102
RTVSPropertyOp60
 70
     1
102
RTVSPropertyOp61
 70
     1
102
RTVSPropertyOp62
 70
     1
  0
XRECORD
  5
3BD
102
{ACAD_REACTORS
330
3BC
102
}
330
3BC
100
AcDbXrecord
280
     1
102
RTVSPost2010Prop28
280
     0
102
RTVSPost2010PropOp28
 70
     1
102
RTVSPost2010Prop29
280
     1
102
RTVSPost2010PropOp29
 70
     1
102
RTVSPost2010Prop30
280
     1
102
RTVSPost2010PropOp30
 70
     1
102
RTVSPost2010Prop31
280
     0
102
RTVSPost2010PropOp31
 70
     1
102
RTVSPost2010Prop32
280
     0
102
RTVSPost2010PropOp32
 70
     1
102
RTVSPost2010Prop33
280
     0
102
RTVSPost2010PropOp33
 70
     1
102
RTVSPost2010Prop34
280
     0
102
RTVSPost2010PropOp34
 70
     1
102
RTVSPost2010Prop35
280
     0
102
RTVSPost2010PropOp35
 70
     1
102
RTVSPost2010Prop36
280
     0
102
RTVSPost2010PropOp36
 70
     1
102
RTVSPost2010Prop37
 90
       50
102
RTVSPost2010PropOp37
 70
     1
102
RTVSPost2010Prop38
140
0.0
102
RTVSPost2010PropOp38
 70
     1
102
RTVSPost2010Prop39
140
1.0
102
RTVSPost2010PropOp39
 70
     1
102
RTVSPost2010Prop40
 90
        0
102
RTVSPost2010PropOp40
 70
     1
102
RTVSPost2010Prop41ColorIndex
 90
       18
102
RTVSPost2010Prop41ColorRGB
 90
        0
102
RTVSPost2010PropOp41
 70
     1
102
RTVSPost2010Prop42
 90
       50
102
RTVSPost2010PropOp42
 70
     1
102
RTVSPost2010Prop43
 90
        3
102
RTVSPost2010PropOp43
 70
     1
102
RTVSPost2010Prop44ColorIndex
 90
        5
102
RTVSPost2010Prop44ColorRGB
 90
      255
102
RTVSPost2010PropOp44
 70
     1
102
RTVSPost2010Prop45
280
     0
102
RTVSPost2010PropOp45
 70
     1
102
RTVSPost2010Prop46
 90
       50
102
RTVSPost2010PropOp46
 70
     1
102
RTVSPost2010Prop47
 90
       50
102
RTVSPost2010PropOp47
 70
     1
102
RTVSPost2010Prop48
 90
       50
102
RTVSPost2010PropOp48
 70
     1
102
RTVSPost2010Prop49
280
     0
102
RTVSPost2010PropOp49
 70
     1
102
RTVSPost2010Prop50
 90
       50
102
RTVSPost2010PropOp50
 70
     1
102
RTVSPost2010Prop51ColorIndex
 90
      256
102
RTVSPost2010Prop51ColorRGB
 90
-16777216
102
RTVSPost2010PropOp51
 70
     0
102
RTVSPost2010Prop52
140
1.0
102
RTVSPost2010PropOp52
 70
     0
102
RTVSPost2010Prop53
 90
        2
102
RTVSPost2010PropOp53
 70
     1
102
RTVSPost2010Prop54
  1
strokes_ogs.tif
102
RTVSPost2010PropOp54
 70
     1
102
RTVSPost2010Prop55
280
     0
102
RTVSPost2010PropOp55
 70
     1
102
RTVSPost2010Prop56
140
1.0
102
RTVSPost2010PropOp56
 70
     1
102
RTVSPost2010Prop57
140
1.0
102
RTVSPost2010PropOp57
 70
     1
102
RTVSPropertyOp0
 70
     1
102
RTVSPropertyOp1
 70
     1
102
RTVSPropertyOp2
 70
     1
102
RTVSPropertyOp3
 70
     1
102
RTVSPropertyOp4
 70
     1
102
RTVSPropertyOp5
 70
     1
102
RTVSPropertyOp6
 70
     1
102
RTVSPropertyOp7
 70
     1
102
RTVSPropertyOp8
 70
     1
102
RTVSPropertyOp9
 70
     1
102
RTVSPropertyOp10
 70
     1
102
RTVSPropertyOp11
 70
     1
102
RTVSPropertyOp12
 70
     1
102
RTVSPropertyOp13
 70
     1
102
RTVSPropertyOp14
 70
     1
102
RTVSPropertyOp15
 70
     1
102
RTVSPropertyOp16
 70
     1
102
RTVSPropertyOp17
 70
     1
102
RTVSPropertyOp18
 70
     1
102
RTVSPropertyOp19
 70
     1
102
RTVSPropertyOp20
 70
     1
102
RTVSPropertyOp21
 70
     1
102
RTVSPropertyOp22
 70
     1
102
RTVSPropertyOp23
 70
     1
102
RTVSPropertyOp24
 70
     1
102
RTVSPropertyOp25
 70
     1
102
RTVSPropertyOp26
 70
     1
102
RTVSPropertyOp27
 70
     1
102
RTVSPropertyOp28
 70
     1
102
RTVSPropertyOp29
 70
     1
102
RTVSPropertyOp30
 70
     1
102
RTVSPropertyOp31
 70
     1
102
RTVSPropertyOp32
 70
     1
102
RTVSPropertyOp33
 70
     1
102
RTVSPropertyOp34
 70
     1
102
RTVSPropertyOp35
 70
     1
102
RTVSPropertyOp36
 70
     1
102
RTVSPropertyOp37
 70
     1
102
RTVSPropertyOp38
 70
     1
102
RTVSPropertyOp39
 70
     1
102
RTVSPropertyOp40
 70
     1
102
RTVSPropertyOp41
 70
     1
102
RTVSPropertyOp42
 70
     1
102
RTVSPropertyOp43
 70
     1
102
RTVSPropertyOp44
 70
     1
102
RTVSPropertyOp45
 70
     1
102
RTVSPropertyOp46
 70
     1
102
RTVSPropertyOp47
 70
     1
102
RTVSPropertyOp48
 70
     1
102
RTVSPropertyOp49
 70
     1
102
RTVSPropertyOp50
 70
     1
102
RTVSPropertyOp51
 70
     0
102
RTVSPropertyOp52
 70
     0
102
RTVSPropertyOp53
 70
     1
102
RTVSPropertyOp54
 70
     1
102
RTVSPropertyOp55
 70
     1
102
RTVSPropertyOp56
 70
     1
102
RTVSPropertyOp57
 70
     1
102
RTVSPropertyOp58
 70
     1
102
RTVSPropertyOp59
 70
     1
102
RTVSPropertyOp60
 70
     1
102
RTVSPropertyOp61
 70
     1
102
RTVSPropertyOp62
 70
     1
  0
XRECORD
  5
3DD
102
{ACAD_REACTORS
330
3DC
102
}
330
3DC
100
AcDbXrecord
280
     1
102
RTVSPost2010Prop28
280
     0
102
RTVSPost2010PropOp28
 70
     1
102
RTVSPost2010Prop29
280
     1
102
RTVSPost2010PropOp29
 70
     1
102
RTVSPost2010Prop30
280
     1
102
RTVSPost2010PropOp30
 70
     1
102
RTVSPost2010Prop31
280
     0
102
RTVSPost2010PropOp31
 70
     1
102
RTVSPost2010Prop32
280
     0
102
RTVSPost2010PropOp32
 70
     1
102
RTVSPost2010Prop33
280
     0
102
RTVSPost2010PropOp33
 70
     1
102
RTVSPost2010Prop34
280
     0
102
RTVSPost2010PropOp34
 70
     1
102
RTVSPost2010Prop35
280
     0
102
RTVSPost2010PropOp35
 70
     1
102
RTVSPost2010Prop36
280
     0
102
RTVSPost2010PropOp36
 70
     1
102
RTVSPost2010Prop37
 90
       50
102
RTVSPost2010PropOp37
 70
     1
102
RTVSPost2010Prop38
140
0.0
102
RTVSPost2010PropOp38
 70
     1
102
RTVSPost2010Prop39
140
1.0
102
RTVSPost2010PropOp39
 70
     1
102
RTVSPost2010Prop40
 90
        0
102
RTVSPost2010PropOp40
 70
     1
102
RTVSPost2010Prop41ColorIndex
 90
       18
102
RTVSPost2010Prop41ColorRGB
 90
        0
102
RTVSPost2010PropOp41
 70
     1
102
RTVSPost2010Prop42
 90
       50
102
RTVSPost2010PropOp42
 70
     1
102
RTVSPost2010Prop43
 90
        3
102
RTVSPost2010PropOp43
 70
     1
102
RTVSPost2010Prop44ColorIndex
 90
        5
102
RTVSPost2010Prop44ColorRGB
 90
      255
102
RTVSPost2010PropOp44
 70
     1
102
RTVSPost2010Prop45
280
     0
102
RTVSPost2010PropOp45
 70
     1
102
RTVSPost2010Prop46
 90
       50
102
RTVSPost2010PropOp46
 70
     1
102
RTVSPost2010Prop47
 90
       50
102
RTVSPost2010PropOp47
 70
     1
102
RTVSPost2010Prop48
 90
       50
102
RTVSPost2010PropOp48
 70
     1
102
RTVSPost2010Prop49
280
     0
102
RTVSPost2010PropOp49
 70
     1
102
RTVSPost2010Prop50
 90
       50
102
RTVSPost2010PropOp50
 70
     1
102
RTVSPost2010Prop51ColorIndex
 90
      256
102
RTVSPost2010Prop51ColorRGB
 90
-16777216
102
RTVSPost2010PropOp51
 70
     0
102
RTVSPost2010Prop52
140
1.0
102
RTVSPost2010PropOp52
 70
     0
102
RTVSPost2010Prop53
 90
        2
102
RTVSPost2010PropOp53
 70
     1
102
RTVSPost2010Prop54
  1
strokes_ogs.tif
102
RTVSPost2010PropOp54
 70
     1
102
RTVSPost2010Prop55
280
     0
102
RTVSPost2010PropOp55
 70
     1
102
RTVSPost2010Prop56
140
1.0
102
RTVSPost2010PropOp56
 70
     1
102
RTVSPost2010Prop57
140
1.0
102
RTVSPost2010PropOp57
 70
     1
102
RTVSPropertyOp0
 70
     1
102
RTVSPropertyOp1
 70
     1
102
RTVSPropertyOp2
 70
     1
102
RTVSPropertyOp3
 70
     1
102
RTVSPropertyOp4
 70
     1
102
RTVSPropertyOp5
 70
     1
102
RTVSPropertyOp6
 70
     1
102
RTVSPropertyOp7
 70
     1
102
RTVSPropertyOp8
 70
     1
102
RTVSPropertyOp9
 70
     1
102
RTVSPropertyOp10
 70
     1
102
RTVSPropertyOp11
 70
     1
102
RTVSPropertyOp12
 70
     1
102
RTVSPropertyOp13
 70
     1
102
RTVSPropertyOp14
 70
     1
102
RTVSPropertyOp15
 70
     1
102
RTVSPropertyOp16
 70
     1
102
RTVSPropertyOp17
 70
     1
102
RTVSPropertyOp18
 70
     1
102
RTVSPropertyOp19
 70
     1
102
RTVSPropertyOp20
 70
     1
102
RTVSPropertyOp21
 70
     1
102
RTVSPropertyOp22
 70
     1
102
RTVSPropertyOp23
 70
     1
102
RTVSPropertyOp24
 70
     1
102
RTVSPropertyOp25
 70
     1
102
RTVSPropertyOp26
 70
     1
102
RTVSPropertyOp27
 70
     1
102
RTVSPropertyOp28
 70
     1
102
RTVSPropertyOp29
 70
     1
102
RTVSPropertyOp30
 70
     1
102
RTVSPropertyOp31
 70
     1
102
RTVSPropertyOp32
 70
     1
102
RTVSPropertyOp33
 70
     1
102
RTVSPropertyOp34
 70
     1
102
RTVSPropertyOp35
 70
     1
102
RTVSPropertyOp36
 70
     1
102
RTVSPropertyOp37
 70
     1
102
RTVSPropertyOp38
 70
     1
102
RTVSPropertyOp39
 70
     1
102
RTVSPropertyOp40
 70
     1
102
RTVSPropertyOp41
 70
     1
102
RTVSPropertyOp42
 70
     1
102
RTVSPropertyOp43
 70
     1
102
RTVSPropertyOp44
 70
     1
102
RTVSPropertyOp45
 70
     1
102
RTVSPropertyOp46
 70
     1
102
RTVSPropertyOp47
 70
     1
102
RTVSPropertyOp48
 70
     1
102
RTVSPropertyOp49
 70
     1
102
RTVSPropertyOp50
 70
     1
102
RTVSPropertyOp51
 70
     0
102
RTVSPropertyOp52
 70
     0
102
RTVSPropertyOp53
 70
     1
102
RTVSPropertyOp54
 70
     1
102
RTVSPropertyOp55
 70
     1
102
RTVSPropertyOp56
 70
     1
102
RTVSPropertyOp57
 70
     1
102
RTVSPropertyOp58
 70
     1
102
RTVSPropertyOp59
 70
     1
102
RTVSPropertyOp60
 70
     1
102
RTVSPropertyOp61
 70
     1
102
RTVSPropertyOp62
 70
     1
  0
ENDSEC
  0
EOF
