  0
SECTION
  2
HEADER
  9
$ACADVER
  1
AC1012
  9
$DWGCODEPAGE
  3
ANSI_1252
  9
$INSBASE
 10
0.0
 20
0.0
 30
0.0
  9
$EXTMIN
 10
-4.953962986597602
 20
2.640747013230537
 30
-0.0000000349181948
  9
$EXTMAX
 10
14.04716442829278
 20
10.51271305544297
 30
0.0000000814935746
  9
$LIMMIN
 10
0.0
 20
0.0
  9
$LIMMAX
 10
12.0
 20
9.0
  9
$ORTHOMODE
 70
     1
  9
$REGENMODE
 70
     1
  9
$FILLMODE
 70
     1
  9
$QTEXTMODE
 70
     0
  9
$MIRRTEXT
 70
     1
  9
$DRAGMODE
 70
     2
  9
$LTSCALE
 40
1.0
  9
$OSMODE
 70
   547
  9
$ATTMODE
 70
     1
  9
$TEXTSIZE
 40
0.2
  9
$TRACEWID
 40
0.05
  9
$TEXTSTYLE
  7
STANDARD
  9
$CLAYER
  8
0
  9
$CELTYPE
  6
BYLAYER
  9
$CECOLOR
 62
   256
  9
$CELTSCALE
 40
1.0
  9
$DELOBJ
 70
     1
  9
$DISPSILH
 70
     0
  9
$DIMSCALE
 40
1.0
  9
$DIMASZ
 40
0.18
  9
$DIMEXO
 40
0.0625
  9
$DIMDLI
 40
0.38
  9
$DIMRND
 40
0.0
  9
$DIMDLE
 40
0.0
  9
$DIMEXE
 40
0.18
  9
$DIMTP
 40
0.0
  9
$DIMTM
 40
0.0
  9
$DIMTXT
 40
0.18
  9
$DIMCEN
 40
0.09
  9
$DIMTSZ
 40
0.0
  9
$DIMTOL
 70
     0
  9
$DIMLIM
 70
     0
  9
$DIMTIH
 70
     1
  9
$DIMTOH
 70
     1
  9
$DIMSE1
 70
     0
  9
$DIMSE2
 70
     0
  9
$DIMTAD
 70
     0
  9
$DIMZIN
 70
     0
  9
$DIMBLK
  1

  9
$DIMASO
 70
     1
  9
$DIMSHO
 70
     1
  9
$DIMPOST
  1

  9
$DIMAPOST
  1

  9
$DIMALT
 70
     0
  9
$DIMALTD
 70
     2
  9
$DIMALTF
 40
25.4
  9
$DIMLFAC
 40
1.0
  9
$DIMTOFL
 70
     0
  9
$DIMTVP
 40
0.0
  9
$DIMTIX
 70
     0
  9
$DIMSOXD
 70
     0
  9
$DIMSAH
 70
     0
  9
$DIMBLK1
  1

  9
$DIMBLK2
  1

  9
$DIMSTYLE
  2
STANDARD
  9
$DIMCLRD
 70
     0
  9
$DIMCLRE
 70
     0
  9
$DIMCLRT
 70
     0
  9
$DIMTFAC
 40
1.0
  9
$DIMGAP
 40
0.09
  9
$DIMJUST
 70
     0
  9
$DIMSD1
 70
     0
  9
$DIMSD2
 70
     0
  9
$DIMTOLJ
 70
     1
  9
$DIMTZIN
 70
     0
  9
$DIMALTZ
 70
     0
  9
$DIMALTTZ
 70
     0
  9
$DIMFIT
 70
     5
  9
$DIMUPT
 70
     0
  9
$DIMUNIT
 70
     2
  9
$DIMDEC
 70
     4
  9
$DIMTDEC
 70
     4
  9
$DIMALTU
 70
     2
  9
$DIMALTTD
 70
     2
  9
$DIMTXSTY
  7
STANDARD
  9
$DIMAUNIT
 70
     0
  9
$LUNITS
 70
     2
  9
$LUPREC
 70
     4
  9
$SKETCHINC
 40
0.1
  9
$FILLETRAD
 40
0.0
  9
$AUNITS
 70
     0
  9
$AUPREC
 70
     0
  9
$MENU
  1
acad
  9
$ELEVATION
 40
0.0
  9
$PELEVATION
 40
0.0
  9
$THICKNESS
 40
0.0
  9
$LIMCHECK
 70
     0
  9
$BLIPMODE
 70
     0
  9
$CHAMFERA
 40
0.0
  9
$CHAMFERB
 40
0.0
  9
$CHAMFERC
 40
0.0
  9
$CHAMFERD
 40
0.0
  9
$SKPOLY
 70
     0
  9
$TDCREATE
 40
2453682.562523148
  9
$TDUPDATE
 40
2453946.339672314
  9
$TDINDWG
 40
0.0012655556
  9
$TDUSRTIMER
 40
0.0012655556
  9
$USRTIMER
 70
     1
  9
$ANGBASE
 50
0.0
  9
$ANGDIR
 70
     0
  9
$PDMODE
 70
     0
  9
$PDSIZE
 40
0.0
  9
$PLINEWID
 40
0.0
  9
$COORDS
 70
     1
  9
$SPLFRAME
 70
     0
  9
$SPLINETYPE
 70
     6
  9
$SPLINESEGS
 70
     8
  9
$ATTDIA
 70
     0
  9
$ATTREQ
 70
     1
  9
$HANDLING
 70
  4097
  9
$HANDSEED
  5
4BC5
  9
$SURFTAB1
 70
     6
  9
$SURFTAB2
 70
     6
  9
$SURFTYPE
 70
     6
  9
$SURFU
 70
     6
  9
$SURFV
 70
     6
  9
$UCSNAME
  2

  9
$UCSORG
 10
0.0
 20
0.0
 30
0.0
  9
$UCSXDIR
 10
1.0
 20
0.0
 30
0.0
  9
$UCSYDIR
 10
0.0
 20
1.0
 30
0.0
  9
$PUCSNAME
  2

  9
$PUCSORG
 10
0.0
 20
0.0
 30
0.0
  9
$PUCSXDIR
 10
1.0
 20
0.0
 30
0.0
  9
$PUCSYDIR
 10
0.0
 20
1.0
 30
0.0
  9
$USERI1
 70
     0
  9
$USERI2
 70
     0
  9
$USERI3
 70
     0
  9
$USERI4
 70
     0
  9
$USERI5
 70
     0
  9
$USERR1
 40
0.0
  9
$USERR2
 40
0.0
  9
$USERR3
 40
0.0
  9
$USERR4
 40
0.0
  9
$USERR5
 40
0.0
  9
$WORLDVIEW
 70
     1
  9
$SHADEDGE
 70
     3
  9
$SHADEDIF
 70
    70
  9
$TILEMODE
 70
     1
  9
$MAXACTVP
 70
    16
  9
$PINSBASE
 10
0.0
 20
0.0
 30
0.0
  9
$PLIMCHECK
 70
     0
  9
$PEXTMIN
 10
1.000000000000000E+20
 20
1.000000000000000E+20
 30
1.000000000000000E+20
  9
$PEXTMAX
 10
-1.000000000000000E+20
 20
-1.000000000000000E+20
 30
-1.000000000000000E+20
  9
$PLIMMIN
 10
0.0
 20
0.0
  9
$PLIMMAX
 10
12.0
 20
9.0
  9
$UNITMODE
 70
     0
  9
$VISRETAIN
 70
     0
  9
$PLINEGEN
 70
     0
  9
$PSLTSCALE
 70
     1
  9
$TREEDEPTH
 70
  3020
  9
$PICKSTYLE
 70
     1
  9
$CMLSTYLE
  2
STANDARD
  9
$CMLJUST
 70
     0
  9
$CMLSCALE
 40
1.0
  9
$SAVEIMAGES
 70
     1
  0
ENDSEC
  0
SECTION
  2
CLASSES
  0
CLASS
  1
ACDBDICTIONARYWDFLT
  2
AcDbDictionaryWithDefault
  3
AutoCAD 2000
 90
    32768
280
     0
281
     0
  0
CLASS
  1
ACDBPLACEHOLDER
  2
AcDbPlaceHolder
  3
AutoCAD 2000
 90
    32768
280
     0
281
     0
  0
CLASS
  1
LAYOUT
  2
AcDbLayout
  3
AutoCAD 2000
 90
    32768
280
     0
281
     0
  0
CLASS
  1
LONG_TRANSACTION
  2
AcDbLongTransaction
  3
AutoCAD 2000
 90
    32768
280
     0
281
     0
  0
CLASS
  1
LWPOLYLINE
  2
AcDbPolyline
  3
AutoCAD 2000
 90
    32768
280
     0
281
     1
  0
CLASS
  1
HATCH
  2
AcDbHatch
  3
AutoCAD 2000
 90
    32768
280
     0
281
     1
  0
CLASS
  1
XRECORD
  2
AcDbXrecord
  3
AutoCAD 2000
 90
    32768
280
     0
281
     0
  0
CLASS
  1
LONG_TRANSACTION
  2
AcDbLongTransaction
  3
AutoCAD 2000
 90
    32768
280
     0
281
     0
  0
CLASS
  1
LWPOLYLINE
  2
AcDbPolyline
  3
AutoCAD 2000
 90
    32768
280
     0
281
     1
  0
CLASS
  1
HATCH
  2
AcDbHatch
  3
AutoCAD 2000
 90
    32768
280
     0
281
     1
  0
CLASS
  1
XRECORD
  2
AcDbXrecord
  3
AutoCAD 2000
 90
    32768
280
     0
281
     0
  0
ENDSEC
  0
SECTION
  2
TABLES
  0
TABLE
  2
VPORT
  5
8
330
0
100
AcDbSymbolTable
 70
     3
  0
VPORT
  5
4BC2
330
8
100
AcDbSymbolTableRecord
100
AcDbViewportTableRecord
  2
*ACTIVE
 70
     0
 10
0.0
 20
0.0
 11
1.0
 21
1.0
 12
4.546600720847589
 22
6.576730034336759
 13
0.0
 23
0.0
 14
1.0
 24
1.0
 15
0.0
 25
0.0
 16
0.0
 26
0.0
 36
1.0
 17
0.0
 27
0.0
 37
0.0
 40
11.60561265111164
 41
1.647569444444444
 42
50.0
 43
0.0
 44
0.0
 50
0.0
 51
0.0
 71
     0
 72
   100
 73
     1
 74
     1
 75
     0
 76
     0
 77
     0
 78
     0
  0
ENDTAB
  0
TABLE
  2
LTYPE
  5
5
330
0
100
AcDbSymbolTable
 70
    25
  0
LTYPE
  5
13
330
5
100
AcDbSymbolTableRecord
100
AcDbLinetypeTableRecord
  2
BYBLOCK
 70
     0
  3

 72
    65
 73
     0
 40
0.0
  0
LTYPE
  5
14
330
5
100
AcDbSymbolTableRecord
100
AcDbLinetypeTableRecord
  2
BYLAYER
 70
     0
  3

 72
    65
 73
     0
 40
0.0
  0
LTYPE
  5
15
330
5
100
AcDbSymbolTableRecord
100
AcDbLinetypeTableRecord
  2
CONTINUOUS
 70
     0
  3
Solid line
 72
    65
 73
     0
 40
0.0
  0
LTYPE
  5
22
330
5
100
AcDbSymbolTableRecord
100
AcDbLinetypeTableRecord
  2
BORDER
 70
     0
  3
__ __ . __ __ . __ __ . __ __ . __ __ . __ __ .
 72
    65
 73
     6
 40
1.75
 49
0.5
 74
     0
 49
-0.25
 74
     0
 49
0.5
 74
     0
 49
-0.25
 74
     0
 49
0.5
 74
     0
 49
-0.25
 74
     0
  0
LTYPE
  5
23
330
5
100
AcDbSymbolTableRecord
100
AcDbLinetypeTableRecord
  2
BORDER2
 70
     0
  3
__.__.__.__.__.__.__.__.__.__.__.__.__.__.__.__
 72
    65
 73
     6
 40
0.875
 49
0.25
 74
     0
 49
-0.125
 74
     0
 49
0.25
 74
     0
 49
-0.125
 74
     0
 49
0.25
 74
     0
 49
-0.125
 74
     0
  0
LTYPE
  5
24
330
5
100
AcDbSymbolTableRecord
100
AcDbLinetypeTableRecord
  2
BORDERX2
 70
     0
  3
____  ____  .  ____  ____  .  
 72
    65
 73
     6
 40
3.5
 49
1.0
 74
     0
 49
-0.5
 74
     0
 49
1.0
 74
     0
 49
-0.5
 74
     0
 49
1.0
 74
     0
 49
-0.5
 74
     0
  0
LTYPE
  5
25
330
5
100
AcDbSymbolTableRecord
100
AcDbLinetypeTableRecord
  2
CENTER
 70
     0
  3
____ _ ____ _ ____ _ ____ _ ____ _ ____ _ ____
 72
    65
 73
     4
 40
2.0
 49
1.25
 74
     0
 49
-0.25
 74
     0
 49
0.25
 74
     0
 49
-0.25
 74
     0
  0
LTYPE
  5
26
330
5
100
AcDbSymbolTableRecord
100
AcDbLinetypeTableRecord
  2
CENTER2
 70
     0
  3
____ _ ____ _ ____ _ ____ _ ____ _ ____ _ ____
 72
    65
 73
     4
 40
1.125
 49
0.75
 74
     0
 49
-0.125
 74
     0
 49
0.125
 74
     0
 49
-0.125
 74
     0
  0
LTYPE
  5
27
330
5
100
AcDbSymbolTableRecord
100
AcDbLinetypeTableRecord
  2
CENTERX2
 70
     0
  3
________  __  ________  __  ________  __  
 72
    65
 73
     4
 40
4.0
 49
2.5
 74
     0
 49
-0.5
 74
     0
 49
0.5
 74
     0
 49
-0.5
 74
     0
  0
LTYPE
  5
28
330
5
100
AcDbSymbolTableRecord
100
AcDbLinetypeTableRecord
  2
DASHDOT
 70
     0
  3
__ . __ . __ . __ . __ . __ . __ . 
 72
    65
 73
     4
 40
1.0
 49
0.5
 74
     0
 49
-0.25
 74
     0
 49
0.0
 74
     0
 49
-0.25
 74
     0
  0
LTYPE
  5
29
330
5
100
AcDbSymbolTableRecord
100
AcDbLinetypeTableRecord
  2
DASHDOT2
 70
     0
  3
_._._._._._._._._._._._._._._._.
 72
    65
 73
     4
 40
0.5
 49
0.25
 74
     0
 49
-0.125
 74
     0
 49
0.0
 74
     0
 49
-0.125
 74
     0
  0
LTYPE
  5
2A
330
5
100
AcDbSymbolTableRecord
100
AcDbLinetypeTableRecord
  2
DASHDOTX2
 70
     0
  3
____  .  ____  .  ____  .  ____  .  
 72
    65
 73
     4
 40
2.0
 49
1.0
 74
     0
 49
-0.5
 74
     0
 49
0.0
 74
     0
 49
-0.5
 74
     0
  0
LTYPE
  5
2B
330
5
100
AcDbSymbolTableRecord
100
AcDbLinetypeTableRecord
  2
DASHED
 70
     0
  3
__ __ __ __ __ __ __ __ __ __ __ __ 
 72
    65
 73
     2
 40
0.75
 49
0.5
 74
     0
 49
-0.25
 74
     0
  0
LTYPE
  5
2C
330
5
100
AcDbSymbolTableRecord
100
AcDbLinetypeTableRecord
  2
DASHED2
 70
     0
  3
_ _ _ _ _ _ _ _ _ _ _ _ _ _ _ _ _ _ 
 72
    65
 73
     2
 40
0.375
 49
0.25
 74
     0
 49
-0.125
 74
     0
  0
LTYPE
  5
2D
330
5
100
AcDbSymbolTableRecord
100
AcDbLinetypeTableRecord
  2
DASHEDX2
 70
     0
  3
____  ____  ____  ____  ____  ____  
 72
    65
 73
     2
 40
1.5
 49
1.0
 74
     0
 49
-0.5
 74
     0
  0
LTYPE
  5
2E
330
5
100
AcDbSymbolTableRecord
100
AcDbLinetypeTableRecord
  2
DIVIDE
 70
     0
  3
____ . . ____ . . ____ . . ____ . . 
 72
    65
 73
     6
 40
1.25
 49
0.5
 74
     0
 49
-0.25
 74
     0
 49
0.0
 74
     0
 49
-0.25
 74
     0
 49
0.0
 74
     0
 49
-0.25
 74
     0
  0
LTYPE
  5
2F
330
5
100
AcDbSymbolTableRecord
100
AcDbLinetypeTableRecord
  2
DIVIDE2
 70
     0
  3
__..__..__..__..__..__..__..__..__..
 72
    65
 73
     6
 40
0.625
 49
0.25
 74
     0
 49
-0.125
 74
     0
 49
0.0
 74
     0
 49
-0.125
 74
     0
 49
0.0
 74
     0
 49
-0.125
 74
     0
  0
LTYPE
  5
30
330
5
100
AcDbSymbolTableRecord
100
AcDbLinetypeTableRecord
  2
DIVIDEX2
 70
     0
  3
________  .  .  ________  .  .  ________  .  . 
 72
    65
 73
     6
 40
2.5
 49
1.0
 74
     0
 49
-0.5
 74
     0
 49
0.0
 74
     0
 49
-0.5
 74
     0
 49
0.0
 74
     0
 49
-0.5
 74
     0
  0
LTYPE
  5
31
330
5
100
AcDbSymbolTableRecord
100
AcDbLinetypeTableRecord
  2
DOT
 70
     0
  3
. . . . . . . . . . . . . . . . . . 
 72
    65
 73
     2
 40
0.25
 49
0.0
 74
     0
 49
-0.25
 74
     0
  0
LTYPE
  5
32
330
5
100
AcDbSymbolTableRecord
100
AcDbLinetypeTableRecord
  2
DOT2
 70
     0
  3
....................................
 72
    65
 73
     2
 40
0.125
 49
0.0
 74
     0
 49
-0.125
 74
     0
  0
LTYPE
  5
33
330
5
100
AcDbSymbolTableRecord
100
AcDbLinetypeTableRecord
  2
DOTX2
 70
     0
  3
.  .  .  .  .  .  .  .  .  .  .  .  .  
 72
    65
 73
     2
 40
0.5
 49
0.0
 74
     0
 49
-0.5
 74
     0
  0
LTYPE
  5
34
330
5
100
AcDbSymbolTableRecord
100
AcDbLinetypeTableRecord
  2
HIDDEN
 70
     0
  3
__ __ __ __ __ __ __ __ __ __ __ __ 
 72
    65
 73
     2
 40
0.375
 49
0.25
 74
     0
 49
-0.125
 74
     0
  0
LTYPE
  5
35
330
5
100
AcDbSymbolTableRecord
100
AcDbLinetypeTableRecord
  2
HIDDEN2
 70
     0
  3
_ _ _ _ _ _ _ _ _ _ _ _ _ _ _ _ _ _ 
 72
    65
 73
     2
 40
0.1875
 49
0.125
 74
     0
 49
-0.0625
 74
     0
  0
LTYPE
  5
36
330
5
100
AcDbSymbolTableRecord
100
AcDbLinetypeTableRecord
  2
HIDDENX2
 70
     0
  3
____ ____ ____ ____ ____ ____ ____ 
 72
    65
 73
     2
 40
0.75
 49
0.5
 74
     0
 49
-0.25
 74
     0
  0
LTYPE
  5
37
330
5
100
AcDbSymbolTableRecord
100
AcDbLinetypeTableRecord
  2
PHANTOM
 70
     0
  3
______  __  __  ______  __  __  
 72
    65
 73
     6
 40
2.5
 49
1.25
 74
     0
 49
-0.25
 74
     0
 49
0.25
 74
     0
 49
-0.25
 74
     0
 49
0.25
 74
     0
 49
-0.25
 74
     0
  0
LTYPE
  5
38
330
5
100
AcDbSymbolTableRecord
100
AcDbLinetypeTableRecord
  2
PHANTOM2
 70
     0
  3
___ _ _ ___ _ _ ___ _ _ ___ _ _ 
 72
    65
 73
     6
 40
1.25
 49
0.625
 74
     0
 49
-0.125
 74
     0
 49
0.125
 74
     0
 49
-0.125
 74
     0
 49
0.125
 74
     0
 49
-0.125
 74
     0
  0
LTYPE
  5
39
330
5
100
AcDbSymbolTableRecord
100
AcDbLinetypeTableRecord
  2
PHANTOMX2
 70
     0
  3
___ _ _ ___ _ _ ___ _ _ ___ _ _ 
 72
    65
 73
     6
 40
5.0
 49
2.5
 74
     0
 49
-0.5
 74
     0
 49
0.5
 74
     0
 49
-0.5
 74
     0
 49
0.5
 74
     0
 49
-0.5
 74
     0
  0
ENDTAB
  0
TABLE
  2
LAYER
  5
2
330
0
100
AcDbSymbolTable
 70
   257
  0
LAYER
  5
10
330
2
100
AcDbSymbolTableRecord
100
AcDbLayerTableRecord
  2
0
 70
     0
 62
     7
  6
CONTINUOUS
  0
LAYER
  5
3A
330
2
100
AcDbSymbolTableRecord
100
AcDbLayerTableRecord
  2
1
 70
     0
 62
     1
  6
CONTINUOUS
  0
LAYER
  5
3B
330
2
100
AcDbSymbolTableRecord
100
AcDbLayerTableRecord
  2
2
 70
     0
 62
     2
  6
CONTINUOUS
  0
LAYER
  5
3C
330
2
100
AcDbSymbolTableRecord
100
AcDbLayerTableRecord
  2
3
 70
     0
 62
     3
  6
CONTINUOUS
  0
LAYER
  5
3D
330
2
100
AcDbSymbolTableRecord
100
AcDbLayerTableRecord
  2
4
 70
     0
 62
     4
  6
CONTINUOUS
  0
LAYER
  5
3E
330
2
100
AcDbSymbolTableRecord
100
AcDbLayerTableRecord
  2
5
 70
     0
 62
     5
  6
CONTINUOUS
  0
LAYER
  5
3F
330
2
100
AcDbSymbolTableRecord
100
AcDbLayerTableRecord
  2
6
 70
     0
 62
     6
  6
CONTINUOUS
  0
LAYER
  5
40
330
2
100
AcDbSymbolTableRecord
100
AcDbLayerTableRecord
  2
7
 70
     0
 62
     7
  6
CONTINUOUS
  0
LAYER
  5
41
330
2
100
AcDbSymbolTableRecord
100
AcDbLayerTableRecord
  2
8
 70
     0
 62
     8
  6
CONTINUOUS
  0
LAYER
  5
42
330
2
100
AcDbSymbolTableRecord
100
AcDbLayerTableRecord
  2
9
 70
     0
 62
     9
  6
CONTINUOUS
  0
LAYER
  5
43
330
2
100
AcDbSymbolTableRecord
100
AcDbLayerTableRecord
  2
10
 70
     0
 62
    10
  6
CONTINUOUS
  0
LAYER
  5
44
330
2
100
AcDbSymbolTableRecord
100
AcDbLayerTableRecord
  2
11
 70
     0
 62
    11
  6
CONTINUOUS
  0
LAYER
  5
45
330
2
100
AcDbSymbolTableRecord
100
AcDbLayerTableRecord
  2
12
 70
     0
 62
    12
  6
CONTINUOUS
  0
LAYER
  5
46
330
2
100
AcDbSymbolTableRecord
100
AcDbLayerTableRecord
  2
13
 70
     0
 62
    13
  6
CONTINUOUS
  0
LAYER
  5
47
330
2
100
AcDbSymbolTableRecord
100
AcDbLayerTableRecord
  2
14
 70
     0
 62
    14
  6
CONTINUOUS
  0
LAYER
  5
48
330
2
100
AcDbSymbolTableRecord
100
AcDbLayerTableRecord
  2
15
 70
     0
 62
    15
  6
CONTINUOUS
  0
LAYER
  5
49
330
2
100
AcDbSymbolTableRecord
100
AcDbLayerTableRecord
  2
16
 70
     0
 62
    16
  6
CONTINUOUS
  0
LAYER
  5
4A
330
2
100
AcDbSymbolTableRecord
100
AcDbLayerTableRecord
  2
17
 70
     0
 62
    17
  6
CONTINUOUS
  0
LAYER
  5
4B
330
2
100
AcDbSymbolTableRecord
100
AcDbLayerTableRecord
  2
18
 70
     0
 62
    18
  6
CONTINUOUS
  0
LAYER
  5
4C
330
2
100
AcDbSymbolTableRecord
100
AcDbLayerTableRecord
  2
19
 70
     0
 62
    19
  6
CONTINUOUS
  0
LAYER
  5
4D
330
2
100
AcDbSymbolTableRecord
100
AcDbLayerTableRecord
  2
20
 70
     0
 62
    20
  6
CONTINUOUS
  0
LAYER
  5
4E
330
2
100
AcDbSymbolTableRecord
100
AcDbLayerTableRecord
  2
21
 70
     0
 62
    21
  6
CONTINUOUS
  0
LAYER
  5
4F
330
2
100
AcDbSymbolTableRecord
100
AcDbLayerTableRecord
  2
22
 70
     0
 62
    22
  6
CONTINUOUS
  0
LAYER
  5
50
330
2
100
AcDbSymbolTableRecord
100
AcDbLayerTableRecord
  2
23
 70
     0
 62
    23
  6
CONTINUOUS
  0
LAYER
  5
51
330
2
100
AcDbSymbolTableRecord
100
AcDbLayerTableRecord
  2
24
 70
     0
 62
    24
  6
CONTINUOUS
  0
LAYER
  5
52
330
2
100
AcDbSymbolTableRecord
100
AcDbLayerTableRecord
  2
25
 70
     0
 62
    25
  6
CONTINUOUS
  0
LAYER
  5
53
330
2
100
AcDbSymbolTableRecord
100
AcDbLayerTableRecord
  2
26
 70
     0
 62
    26
  6
CONTINUOUS
  0
LAYER
  5
54
330
2
100
AcDbSymbolTableRecord
100
AcDbLayerTableRecord
  2
27
 70
     0
 62
    27
  6
CONTINUOUS
  0
LAYER
  5
55
330
2
100
AcDbSymbolTableRecord
100
AcDbLayerTableRecord
  2
28
 70
     0
 62
    28
  6
CONTINUOUS
  0
LAYER
  5
56
330
2
100
AcDbSymbolTableRecord
100
AcDbLayerTableRecord
  2
29
 70
     0
 62
    29
  6
CONTINUOUS
  0
LAYER
  5
57
330
2
100
AcDbSymbolTableRecord
100
AcDbLayerTableRecord
  2
30
 70
     0
 62
    30
  6
CONTINUOUS
  0
LAYER
  5
58
330
2
100
AcDbSymbolTableRecord
100
AcDbLayerTableRecord
  2
31
 70
     0
 62
    31
  6
CONTINUOUS
  0
LAYER
  5
59
330
2
100
AcDbSymbolTableRecord
100
AcDbLayerTableRecord
  2
32
 70
     0
 62
    32
  6
CONTINUOUS
  0
LAYER
  5
5A
330
2
100
AcDbSymbolTableRecord
100
AcDbLayerTableRecord
  2
33
 70
     0
 62
    33
  6
CONTINUOUS
  0
LAYER
  5
5B
330
2
100
AcDbSymbolTableRecord
100
AcDbLayerTableRecord
  2
34
 70
     0
 62
    34
  6
CONTINUOUS
  0
LAYER
  5
5C
330
2
100
AcDbSymbolTableRecord
100
AcDbLayerTableRecord
  2
35
 70
     0
 62
    35
  6
CONTINUOUS
  0
LAYER
  5
5D
330
2
100
AcDbSymbolTableRecord
100
AcDbLayerTableRecord
  2
36
 70
     0
 62
    36
  6
CONTINUOUS
  0
LAYER
  5
5E
330
2
100
AcDbSymbolTableRecord
100
AcDbLayerTableRecord
  2
37
 70
     0
 62
    37
  6
CONTINUOUS
  0
LAYER
  5
5F
330
2
100
AcDbSymbolTableRecord
100
AcDbLayerTableRecord
  2
38
 70
     0
 62
    38
  6
CONTINUOUS
  0
LAYER
  5
60
330
2
100
AcDbSymbolTableRecord
100
AcDbLayerTableRecord
  2
39
 70
     0
 62
    39
  6
CONTINUOUS
  0
LAYER
  5
61
330
2
100
AcDbSymbolTableRecord
100
AcDbLayerTableRecord
  2
40
 70
     0
 62
    40
  6
CONTINUOUS
  0
LAYER
  5
62
330
2
100
AcDbSymbolTableRecord
100
AcDbLayerTableRecord
  2
41
 70
     0
 62
    41
  6
CONTINUOUS
  0
LAYER
  5
63
330
2
100
AcDbSymbolTableRecord
100
AcDbLayerTableRecord
  2
42
 70
     0
 62
    42
  6
CONTINUOUS
  0
LAYER
  5
64
330
2
100
AcDbSymbolTableRecord
100
AcDbLayerTableRecord
  2
43
 70
     0
 62
    43
  6
CONTINUOUS
  0
LAYER
  5
65
330
2
100
AcDbSymbolTableRecord
100
AcDbLayerTableRecord
  2
44
 70
     0
 62
    44
  6
CONTINUOUS
  0
LAYER
  5
66
330
2
100
AcDbSymbolTableRecord
100
AcDbLayerTableRecord
  2
45
 70
     0
 62
    45
  6
CONTINUOUS
  0
LAYER
  5
67
330
2
100
AcDbSymbolTableRecord
100
AcDbLayerTableRecord
  2
46
 70
     0
 62
    46
  6
CONTINUOUS
  0
LAYER
  5
68
330
2
100
AcDbSymbolTableRecord
100
AcDbLayerTableRecord
  2
47
 70
     0
 62
    47
  6
CONTINUOUS
  0
LAYER
  5
69
330
2
100
AcDbSymbolTableRecord
100
AcDbLayerTableRecord
  2
48
 70
     0
 62
    48
  6
CONTINUOUS
  0
LAYER
  5
6A
330
2
100
AcDbSymbolTableRecord
100
AcDbLayerTableRecord
  2
49
 70
     0
 62
    49
  6
CONTINUOUS
  0
LAYER
  5
6B
330
2
100
AcDbSymbolTableRecord
100
AcDbLayerTableRecord
  2
50
 70
     0
 62
    50
  6
CONTINUOUS
  0
LAYER
  5
6C
330
2
100
AcDbSymbolTableRecord
100
AcDbLayerTableRecord
  2
51
 70
     0
 62
    51
  6
CONTINUOUS
  0
LAYER
  5
6D
330
2
100
AcDbSymbolTableRecord
100
AcDbLayerTableRecord
  2
52
 70
     0
 62
    52
  6
CONTINUOUS
  0
LAYER
  5
6E
330
2
100
AcDbSymbolTableRecord
100
AcDbLayerTableRecord
  2
53
 70
     0
 62
    53
  6
CONTINUOUS
  0
LAYER
  5
6F
330
2
100
AcDbSymbolTableRecord
100
AcDbLayerTableRecord
  2
54
 70
     0
 62
    54
  6
CONTINUOUS
  0
LAYER
  5
70
330
2
100
AcDbSymbolTableRecord
100
AcDbLayerTableRecord
  2
55
 70
     0
 62
    55
  6
CONTINUOUS
  0
LAYER
  5
71
330
2
100
AcDbSymbolTableRecord
100
AcDbLayerTableRecord
  2
56
 70
     0
 62
    56
  6
CONTINUOUS
  0
LAYER
  5
72
330
2
100
AcDbSymbolTableRecord
100
AcDbLayerTableRecord
  2
57
 70
     0
 62
    57
  6
CONTINUOUS
  0
LAYER
  5
73
330
2
100
AcDbSymbolTableRecord
100
AcDbLayerTableRecord
  2
58
 70
     0
 62
    58
  6
CONTINUOUS
  0
LAYER
  5
74
330
2
100
AcDbSymbolTableRecord
100
AcDbLayerTableRecord
  2
59
 70
     0
 62
    59
  6
CONTINUOUS
  0
LAYER
  5
75
330
2
100
AcDbSymbolTableRecord
100
AcDbLayerTableRecord
  2
60
 70
     0
 62
    60
  6
CONTINUOUS
  0
LAYER
  5
76
330
2
100
AcDbSymbolTableRecord
100
AcDbLayerTableRecord
  2
61
 70
     0
 62
    61
  6
CONTINUOUS
  0
LAYER
  5
77
330
2
100
AcDbSymbolTableRecord
100
AcDbLayerTableRecord
  2
62
 70
     0
 62
    62
  6
CONTINUOUS
  0
LAYER
  5
78
330
2
100
AcDbSymbolTableRecord
100
AcDbLayerTableRecord
  2
63
 70
     0
 62
    63
  6
CONTINUOUS
  0
LAYER
  5
79
330
2
100
AcDbSymbolTableRecord
100
AcDbLayerTableRecord
  2
64
 70
     0
 62
    64
  6
CONTINUOUS
  0
LAYER
  5
7A
330
2
100
AcDbSymbolTableRecord
100
AcDbLayerTableRecord
  2
65
 70
     0
 62
    65
  6
CONTINUOUS
  0
LAYER
  5
7B
330
2
100
AcDbSymbolTableRecord
100
AcDbLayerTableRecord
  2
66
 70
     0
 62
    66
  6
CONTINUOUS
  0
LAYER
  5
7C
330
2
100
AcDbSymbolTableRecord
100
AcDbLayerTableRecord
  2
67
 70
     0
 62
    67
  6
CONTINUOUS
  0
LAYER
  5
7D
330
2
100
AcDbSymbolTableRecord
100
AcDbLayerTableRecord
  2
68
 70
     0
 62
    68
  6
CONTINUOUS
  0
LAYER
  5
7E
330
2
100
AcDbSymbolTableRecord
100
AcDbLayerTableRecord
  2
69
 70
     0
 62
    69
  6
CONTINUOUS
  0
LAYER
  5
7F
330
2
100
AcDbSymbolTableRecord
100
AcDbLayerTableRecord
  2
70
 70
     0
 62
    70
  6
CONTINUOUS
  0
LAYER
  5
80
330
2
100
AcDbSymbolTableRecord
100
AcDbLayerTableRecord
  2
71
 70
     0
 62
    71
  6
CONTINUOUS
  0
LAYER
  5
81
330
2
100
AcDbSymbolTableRecord
100
AcDbLayerTableRecord
  2
72
 70
     0
 62
    72
  6
CONTINUOUS
  0
LAYER
  5
82
330
2
100
AcDbSymbolTableRecord
100
AcDbLayerTableRecord
  2
73
 70
     0
 62
    73
  6
CONTINUOUS
  0
LAYER
  5
83
330
2
100
AcDbSymbolTableRecord
100
AcDbLayerTableRecord
  2
74
 70
     0
 62
    74
  6
CONTINUOUS
  0
LAYER
  5
84
330
2
100
AcDbSymbolTableRecord
100
AcDbLayerTableRecord
  2
75
 70
     0
 62
    75
  6
CONTINUOUS
  0
LAYER
  5
85
330
2
100
AcDbSymbolTableRecord
100
AcDbLayerTableRecord
  2
76
 70
     0
 62
    76
  6
CONTINUOUS
  0
LAYER
  5
86
330
2
100
AcDbSymbolTableRecord
100
AcDbLayerTableRecord
  2
77
 70
     0
 62
    77
  6
CONTINUOUS
  0
LAYER
  5
87
330
2
100
AcDbSymbolTableRecord
100
AcDbLayerTableRecord
  2
78
 70
     0
 62
    78
  6
CONTINUOUS
  0
LAYER
  5
88
330
2
100
AcDbSymbolTableRecord
100
AcDbLayerTableRecord
  2
79
 70
     0
 62
    79
  6
CONTINUOUS
  0
LAYER
  5
89
330
2
100
AcDbSymbolTableRecord
100
AcDbLayerTableRecord
  2
80
 70
     0
 62
    80
  6
CONTINUOUS
  0
LAYER
  5
8A
330
2
100
AcDbSymbolTableRecord
100
AcDbLayerTableRecord
  2
81
 70
     0
 62
    81
  6
CONTINUOUS
  0
LAYER
  5
8B
330
2
100
AcDbSymbolTableRecord
100
AcDbLayerTableRecord
  2
82
 70
     0
 62
    82
  6
CONTINUOUS
  0
LAYER
  5
8C
330
2
100
AcDbSymbolTableRecord
100
AcDbLayerTableRecord
  2
83
 70
     0
 62
    83
  6
CONTINUOUS
  0
LAYER
  5
8D
330
2
100
AcDbSymbolTableRecord
100
AcDbLayerTableRecord
  2
84
 70
     0
 62
    84
  6
CONTINUOUS
  0
LAYER
  5
8E
330
2
100
AcDbSymbolTableRecord
100
AcDbLayerTableRecord
  2
85
 70
     0
 62
    85
  6
CONTINUOUS
  0
LAYER
  5
8F
330
2
100
AcDbSymbolTableRecord
100
AcDbLayerTableRecord
  2
86
 70
     0
 62
    86
  6
CONTINUOUS
  0
LAYER
  5
90
330
2
100
AcDbSymbolTableRecord
100
AcDbLayerTableRecord
  2
87
 70
     0
 62
    87
  6
CONTINUOUS
  0
LAYER
  5
91
330
2
100
AcDbSymbolTableRecord
100
AcDbLayerTableRecord
  2
88
 70
     0
 62
    88
  6
CONTINUOUS
  0
LAYER
  5
92
330
2
100
AcDbSymbolTableRecord
100
AcDbLayerTableRecord
  2
89
 70
     0
 62
    89
  6
CONTINUOUS
  0
LAYER
  5
93
330
2
100
AcDbSymbolTableRecord
100
AcDbLayerTableRecord
  2
90
 70
     0
 62
    90
  6
CONTINUOUS
  0
LAYER
  5
94
330
2
100
AcDbSymbolTableRecord
100
AcDbLayerTableRecord
  2
91
 70
     0
 62
    91
  6
CONTINUOUS
  0
LAYER
  5
95
330
2
100
AcDbSymbolTableRecord
100
AcDbLayerTableRecord
  2
92
 70
     0
 62
    92
  6
CONTINUOUS
  0
LAYER
  5
96
330
2
100
AcDbSymbolTableRecord
100
AcDbLayerTableRecord
  2
93
 70
     0
 62
    93
  6
CONTINUOUS
  0
LAYER
  5
97
330
2
100
AcDbSymbolTableRecord
100
AcDbLayerTableRecord
  2
94
 70
     0
 62
    94
  6
CONTINUOUS
  0
LAYER
  5
98
330
2
100
AcDbSymbolTableRecord
100
AcDbLayerTableRecord
  2
95
 70
     0
 62
    95
  6
CONTINUOUS
  0
LAYER
  5
99
330
2
100
AcDbSymbolTableRecord
100
AcDbLayerTableRecord
  2
96
 70
     0
 62
    96
  6
CONTINUOUS
  0
LAYER
  5
9A
330
2
100
AcDbSymbolTableRecord
100
AcDbLayerTableRecord
  2
97
 70
     0
 62
    97
  6
CONTINUOUS
  0
LAYER
  5
9B
330
2
100
AcDbSymbolTableRecord
100
AcDbLayerTableRecord
  2
98
 70
     0
 62
    98
  6
CONTINUOUS
  0
LAYER
  5
9C
330
2
100
AcDbSymbolTableRecord
100
AcDbLayerTableRecord
  2
99
 70
     0
 62
    99
  6
CONTINUOUS
  0
LAYER
  5
9D
330
2
100
AcDbSymbolTableRecord
100
AcDbLayerTableRecord
  2
100
 70
     0
 62
   100
  6
CONTINUOUS
  0
LAYER
  5
9E
330
2
100
AcDbSymbolTableRecord
100
AcDbLayerTableRecord
  2
101
 70
     0
 62
   101
  6
CONTINUOUS
  0
LAYER
  5
9F
330
2
100
AcDbSymbolTableRecord
100
AcDbLayerTableRecord
  2
102
 70
     0
 62
   102
  6
CONTINUOUS
  0
LAYER
  5
A0
330
2
100
AcDbSymbolTableRecord
100
AcDbLayerTableRecord
  2
103
 70
     0
 62
   103
  6
CONTINUOUS
  0
LAYER
  5
A1
330
2
100
AcDbSymbolTableRecord
100
AcDbLayerTableRecord
  2
104
 70
     0
 62
   104
  6
CONTINUOUS
  0
LAYER
  5
A2
330
2
100
AcDbSymbolTableRecord
100
AcDbLayerTableRecord
  2
105
 70
     0
 62
   105
  6
CONTINUOUS
  0
LAYER
  5
A3
330
2
100
AcDbSymbolTableRecord
100
AcDbLayerTableRecord
  2
106
 70
     0
 62
   106
  6
CONTINUOUS
  0
LAYER
  5
A4
330
2
100
AcDbSymbolTableRecord
100
AcDbLayerTableRecord
  2
107
 70
     0
 62
   107
  6
CONTINUOUS
  0
LAYER
  5
A5
330
2
100
AcDbSymbolTableRecord
100
AcDbLayerTableRecord
  2
108
 70
     0
 62
   108
  6
CONTINUOUS
  0
LAYER
  5
A6
330
2
100
AcDbSymbolTableRecord
100
AcDbLayerTableRecord
  2
109
 70
     0
 62
   109
  6
CONTINUOUS
  0
LAYER
  5
A7
330
2
100
AcDbSymbolTableRecord
100
AcDbLayerTableRecord
  2
110
 70
     0
 62
   110
  6
CONTINUOUS
  0
LAYER
  5
A8
330
2
100
AcDbSymbolTableRecord
100
AcDbLayerTableRecord
  2
111
 70
     0
 62
   111
  6
CONTINUOUS
  0
LAYER
  5
A9
330
2
100
AcDbSymbolTableRecord
100
AcDbLayerTableRecord
  2
112
 70
     0
 62
   112
  6
CONTINUOUS
  0
LAYER
  5
AA
330
2
100
AcDbSymbolTableRecord
100
AcDbLayerTableRecord
  2
113
 70
     0
 62
   113
  6
CONTINUOUS
  0
LAYER
  5
AB
330
2
100
AcDbSymbolTableRecord
100
AcDbLayerTableRecord
  2
114
 70
     0
 62
   114
  6
CONTINUOUS
  0
LAYER
  5
AC
330
2
100
AcDbSymbolTableRecord
100
AcDbLayerTableRecord
  2
115
 70
     0
 62
   115
  6
CONTINUOUS
  0
LAYER
  5
AD
330
2
100
AcDbSymbolTableRecord
100
AcDbLayerTableRecord
  2
116
 70
     0
 62
   116
  6
CONTINUOUS
  0
LAYER
  5
AE
330
2
100
AcDbSymbolTableRecord
100
AcDbLayerTableRecord
  2
117
 70
     0
 62
   117
  6
CONTINUOUS
  0
LAYER
  5
AF
330
2
100
AcDbSymbolTableRecord
100
AcDbLayerTableRecord
  2
118
 70
     0
 62
   118
  6
CONTINUOUS
  0
LAYER
  5
B0
330
2
100
AcDbSymbolTableRecord
100
AcDbLayerTableRecord
  2
119
 70
     0
 62
   119
  6
CONTINUOUS
  0
LAYER
  5
B1
330
2
100
AcDbSymbolTableRecord
100
AcDbLayerTableRecord
  2
120
 70
     0
 62
   120
  6
CONTINUOUS
  0
LAYER
  5
B2
330
2
100
AcDbSymbolTableRecord
100
AcDbLayerTableRecord
  2
121
 70
     0
 62
   121
  6
CONTINUOUS
  0
LAYER
  5
B3
330
2
100
AcDbSymbolTableRecord
100
AcDbLayerTableRecord
  2
122
 70
     0
 62
   122
  6
CONTINUOUS
  0
LAYER
  5
B4
330
2
100
AcDbSymbolTableRecord
100
AcDbLayerTableRecord
  2
123
 70
     0
 62
   123
  6
CONTINUOUS
  0
LAYER
  5
B5
330
2
100
AcDbSymbolTableRecord
100
AcDbLayerTableRecord
  2
124
 70
     0
 62
   124
  6
CONTINUOUS
  0
LAYER
  5
B6
330
2
100
AcDbSymbolTableRecord
100
AcDbLayerTableRecord
  2
125
 70
     0
 62
   125
  6
CONTINUOUS
  0
LAYER
  5
B7
330
2
100
AcDbSymbolTableRecord
100
AcDbLayerTableRecord
  2
126
 70
     0
 62
   126
  6
CONTINUOUS
  0
LAYER
  5
B8
330
2
100
AcDbSymbolTableRecord
100
AcDbLayerTableRecord
  2
127
 70
     0
 62
   127
  6
CONTINUOUS
  0
LAYER
  5
B9
330
2
100
AcDbSymbolTableRecord
100
AcDbLayerTableRecord
  2
128
 70
     0
 62
   128
  6
CONTINUOUS
  0
LAYER
  5
BA
330
2
100
AcDbSymbolTableRecord
100
AcDbLayerTableRecord
  2
129
 70
     0
 62
   129
  6
CONTINUOUS
  0
LAYER
  5
BB
330
2
100
AcDbSymbolTableRecord
100
AcDbLayerTableRecord
  2
130
 70
     0
 62
   130
  6
CONTINUOUS
  0
LAYER
  5
BC
330
2
100
AcDbSymbolTableRecord
100
AcDbLayerTableRecord
  2
131
 70
     0
 62
   131
  6
CONTINUOUS
  0
LAYER
  5
BD
330
2
100
AcDbSymbolTableRecord
100
AcDbLayerTableRecord
  2
132
 70
     0
 62
   132
  6
CONTINUOUS
  0
LAYER
  5
BE
330
2
100
AcDbSymbolTableRecord
100
AcDbLayerTableRecord
  2
133
 70
     0
 62
   133
  6
CONTINUOUS
  0
LAYER
  5
BF
330
2
100
AcDbSymbolTableRecord
100
AcDbLayerTableRecord
  2
134
 70
     0
 62
   134
  6
CONTINUOUS
  0
LAYER
  5
C0
330
2
100
AcDbSymbolTableRecord
100
AcDbLayerTableRecord
  2
135
 70
     0
 62
   135
  6
CONTINUOUS
  0
LAYER
  5
C1
330
2
100
AcDbSymbolTableRecord
100
AcDbLayerTableRecord
  2
136
 70
     0
 62
   136
  6
CONTINUOUS
  0
LAYER
  5
C2
330
2
100
AcDbSymbolTableRecord
100
AcDbLayerTableRecord
  2
137
 70
     0
 62
   137
  6
CONTINUOUS
  0
LAYER
  5
C3
330
2
100
AcDbSymbolTableRecord
100
AcDbLayerTableRecord
  2
138
 70
     0
 62
   138
  6
CONTINUOUS
  0
LAYER
  5
C4
330
2
100
AcDbSymbolTableRecord
100
AcDbLayerTableRecord
  2
139
 70
     0
 62
   139
  6
CONTINUOUS
  0
LAYER
  5
C5
330
2
100
AcDbSymbolTableRecord
100
AcDbLayerTableRecord
  2
140
 70
     0
 62
   140
  6
CONTINUOUS
  0
LAYER
  5
C6
330
2
100
AcDbSymbolTableRecord
100
AcDbLayerTableRecord
  2
141
 70
     0
 62
   141
  6
CONTINUOUS
  0
LAYER
  5
C7
330
2
100
AcDbSymbolTableRecord
100
AcDbLayerTableRecord
  2
142
 70
     0
 62
   142
  6
CONTINUOUS
  0
LAYER
  5
C8
330
2
100
AcDbSymbolTableRecord
100
AcDbLayerTableRecord
  2
143
 70
     0
 62
   143
  6
CONTINUOUS
  0
LAYER
  5
C9
330
2
100
AcDbSymbolTableRecord
100
AcDbLayerTableRecord
  2
144
 70
     0
 62
   144
  6
CONTINUOUS
  0
LAYER
  5
CA
330
2
100
AcDbSymbolTableRecord
100
AcDbLayerTableRecord
  2
145
 70
     0
 62
   145
  6
CONTINUOUS
  0
LAYER
  5
CB
330
2
100
AcDbSymbolTableRecord
100
AcDbLayerTableRecord
  2
146
 70
     0
 62
   146
  6
CONTINUOUS
  0
LAYER
  5
CC
330
2
100
AcDbSymbolTableRecord
100
AcDbLayerTableRecord
  2
147
 70
     0
 62
   147
  6
CONTINUOUS
  0
LAYER
  5
CD
330
2
100
AcDbSymbolTableRecord
100
AcDbLayerTableRecord
  2
148
 70
     0
 62
   148
  6
CONTINUOUS
  0
LAYER
  5
CE
330
2
100
AcDbSymbolTableRecord
100
AcDbLayerTableRecord
  2
149
 70
     0
 62
   149
  6
CONTINUOUS
  0
LAYER
  5
CF
330
2
100
AcDbSymbolTableRecord
100
AcDbLayerTableRecord
  2
150
 70
     0
 62
   150
  6
CONTINUOUS
  0
LAYER
  5
D0
330
2
100
AcDbSymbolTableRecord
100
AcDbLayerTableRecord
  2
151
 70
     0
 62
   151
  6
CONTINUOUS
  0
LAYER
  5
D1
330
2
100
AcDbSymbolTableRecord
100
AcDbLayerTableRecord
  2
152
 70
     0
 62
   152
  6
CONTINUOUS
  0
LAYER
  5
D2
330
2
100
AcDbSymbolTableRecord
100
AcDbLayerTableRecord
  2
153
 70
     0
 62
   153
  6
CONTINUOUS
  0
LAYER
  5
D3
330
2
100
AcDbSymbolTableRecord
100
AcDbLayerTableRecord
  2
154
 70
     0
 62
   154
  6
CONTINUOUS
  0
LAYER
  5
D4
330
2
100
AcDbSymbolTableRecord
100
AcDbLayerTableRecord
  2
155
 70
     0
 62
   155
  6
CONTINUOUS
  0
LAYER
  5
D5
330
2
100
AcDbSymbolTableRecord
100
AcDbLayerTableRecord
  2
156
 70
     0
 62
   156
  6
CONTINUOUS
  0
LAYER
  5
D6
330
2
100
AcDbSymbolTableRecord
100
AcDbLayerTableRecord
  2
157
 70
     0
 62
   157
  6
CONTINUOUS
  0
LAYER
  5
D7
330
2
100
AcDbSymbolTableRecord
100
AcDbLayerTableRecord
  2
158
 70
     0
 62
   158
  6
CONTINUOUS
  0
LAYER
  5
D8
330
2
100
AcDbSymbolTableRecord
100
AcDbLayerTableRecord
  2
159
 70
     0
 62
   159
  6
CONTINUOUS
  0
LAYER
  5
D9
330
2
100
AcDbSymbolTableRecord
100
AcDbLayerTableRecord
  2
160
 70
     0
 62
   160
  6
CONTINUOUS
  0
LAYER
  5
DA
330
2
100
AcDbSymbolTableRecord
100
AcDbLayerTableRecord
  2
161
 70
     0
 62
   161
  6
CONTINUOUS
  0
LAYER
  5
DB
330
2
100
AcDbSymbolTableRecord
100
AcDbLayerTableRecord
  2
162
 70
     0
 62
   162
  6
CONTINUOUS
  0
LAYER
  5
DC
330
2
100
AcDbSymbolTableRecord
100
AcDbLayerTableRecord
  2
163
 70
     0
 62
   163
  6
CONTINUOUS
  0
LAYER
  5
DD
330
2
100
AcDbSymbolTableRecord
100
AcDbLayerTableRecord
  2
164
 70
     0
 62
   164
  6
CONTINUOUS
  0
LAYER
  5
DE
330
2
100
AcDbSymbolTableRecord
100
AcDbLayerTableRecord
  2
165
 70
     0
 62
   165
  6
CONTINUOUS
  0
LAYER
  5
DF
330
2
100
AcDbSymbolTableRecord
100
AcDbLayerTableRecord
  2
166
 70
     0
 62
   166
  6
CONTINUOUS
  0
LAYER
  5
E0
330
2
100
AcDbSymbolTableRecord
100
AcDbLayerTableRecord
  2
167
 70
     0
 62
   167
  6
CONTINUOUS
  0
LAYER
  5
E1
330
2
100
AcDbSymbolTableRecord
100
AcDbLayerTableRecord
  2
168
 70
     0
 62
   168
  6
CONTINUOUS
  0
LAYER
  5
E2
330
2
100
AcDbSymbolTableRecord
100
AcDbLayerTableRecord
  2
169
 70
     0
 62
   169
  6
CONTINUOUS
  0
LAYER
  5
E3
330
2
100
AcDbSymbolTableRecord
100
AcDbLayerTableRecord
  2
170
 70
     0
 62
   170
  6
CONTINUOUS
  0
LAYER
  5
E4
330
2
100
AcDbSymbolTableRecord
100
AcDbLayerTableRecord
  2
171
 70
     0
 62
   171
  6
CONTINUOUS
  0
LAYER
  5
E5
330
2
100
AcDbSymbolTableRecord
100
AcDbLayerTableRecord
  2
172
 70
     0
 62
   172
  6
CONTINUOUS
  0
LAYER
  5
E6
330
2
100
AcDbSymbolTableRecord
100
AcDbLayerTableRecord
  2
173
 70
     0
 62
   173
  6
CONTINUOUS
  0
LAYER
  5
E7
330
2
100
AcDbSymbolTableRecord
100
AcDbLayerTableRecord
  2
174
 70
     0
 62
   174
  6
CONTINUOUS
  0
LAYER
  5
E8
330
2
100
AcDbSymbolTableRecord
100
AcDbLayerTableRecord
  2
175
 70
     0
 62
   175
  6
CONTINUOUS
  0
LAYER
  5
E9
330
2
100
AcDbSymbolTableRecord
100
AcDbLayerTableRecord
  2
176
 70
     0
 62
   176
  6
CONTINUOUS
  0
LAYER
  5
EA
330
2
100
AcDbSymbolTableRecord
100
AcDbLayerTableRecord
  2
177
 70
     0
 62
   177
  6
CONTINUOUS
  0
LAYER
  5
EB
330
2
100
AcDbSymbolTableRecord
100
AcDbLayerTableRecord
  2
178
 70
     0
 62
   178
  6
CONTINUOUS
  0
LAYER
  5
EC
330
2
100
AcDbSymbolTableRecord
100
AcDbLayerTableRecord
  2
179
 70
     0
 62
   179
  6
CONTINUOUS
  0
LAYER
  5
ED
330
2
100
AcDbSymbolTableRecord
100
AcDbLayerTableRecord
  2
180
 70
     0
 62
   180
  6
CONTINUOUS
  0
LAYER
  5
EE
330
2
100
AcDbSymbolTableRecord
100
AcDbLayerTableRecord
  2
181
 70
     0
 62
   181
  6
CONTINUOUS
  0
LAYER
  5
EF
330
2
100
AcDbSymbolTableRecord
100
AcDbLayerTableRecord
  2
182
 70
     0
 62
   182
  6
CONTINUOUS
  0
LAYER
  5
F0
330
2
100
AcDbSymbolTableRecord
100
AcDbLayerTableRecord
  2
183
 70
     0
 62
   183
  6
CONTINUOUS
  0
LAYER
  5
F1
330
2
100
AcDbSymbolTableRecord
100
AcDbLayerTableRecord
  2
184
 70
     0
 62
   184
  6
CONTINUOUS
  0
LAYER
  5
F2
330
2
100
AcDbSymbolTableRecord
100
AcDbLayerTableRecord
  2
185
 70
     0
 62
   185
  6
CONTINUOUS
  0
LAYER
  5
F3
330
2
100
AcDbSymbolTableRecord
100
AcDbLayerTableRecord
  2
186
 70
     0
 62
   186
  6
CONTINUOUS
  0
LAYER
  5
F4
330
2
100
AcDbSymbolTableRecord
100
AcDbLayerTableRecord
  2
187
 70
     0
 62
   187
  6
CONTINUOUS
  0
LAYER
  5
F5
330
2
100
AcDbSymbolTableRecord
100
AcDbLayerTableRecord
  2
188
 70
     0
 62
   188
  6
CONTINUOUS
  0
LAYER
  5
F6
330
2
100
AcDbSymbolTableRecord
100
AcDbLayerTableRecord
  2
189
 70
     0
 62
   189
  6
CONTINUOUS
  0
LAYER
  5
F7
330
2
100
AcDbSymbolTableRecord
100
AcDbLayerTableRecord
  2
190
 70
     0
 62
   190
  6
CONTINUOUS
  0
LAYER
  5
F8
330
2
100
AcDbSymbolTableRecord
100
AcDbLayerTableRecord
  2
191
 70
     0
 62
   191
  6
CONTINUOUS
  0
LAYER
  5
F9
330
2
100
AcDbSymbolTableRecord
100
AcDbLayerTableRecord
  2
192
 70
     0
 62
   192
  6
CONTINUOUS
  0
LAYER
  5
FA
330
2
100
AcDbSymbolTableRecord
100
AcDbLayerTableRecord
  2
193
 70
     0
 62
   193
  6
CONTINUOUS
  0
LAYER
  5
FB
330
2
100
AcDbSymbolTableRecord
100
AcDbLayerTableRecord
  2
194
 70
     0
 62
   194
  6
CONTINUOUS
  0
LAYER
  5
FC
330
2
100
AcDbSymbolTableRecord
100
AcDbLayerTableRecord
  2
195
 70
     0
 62
   195
  6
CONTINUOUS
  0
LAYER
  5
FD
330
2
100
AcDbSymbolTableRecord
100
AcDbLayerTableRecord
  2
196
 70
     0
 62
   196
  6
CONTINUOUS
  0
LAYER
  5
FE
330
2
100
AcDbSymbolTableRecord
100
AcDbLayerTableRecord
  2
197
 70
     0
 62
   197
  6
CONTINUOUS
  0
LAYER
  5
FF
330
2
100
AcDbSymbolTableRecord
100
AcDbLayerTableRecord
  2
198
 70
     0
 62
   198
  6
CONTINUOUS
  0
LAYER
  5
100
330
2
100
AcDbSymbolTableRecord
100
AcDbLayerTableRecord
  2
199
 70
     0
 62
   199
  6
CONTINUOUS
  0
LAYER
  5
101
330
2
100
AcDbSymbolTableRecord
100
AcDbLayerTableRecord
  2
200
 70
     0
 62
   200
  6
CONTINUOUS
  0
LAYER
  5
102
330
2
100
AcDbSymbolTableRecord
100
AcDbLayerTableRecord
  2
201
 70
     0
 62
   201
  6
CONTINUOUS
  0
LAYER
  5
103
330
2
100
AcDbSymbolTableRecord
100
AcDbLayerTableRecord
  2
202
 70
     0
 62
   202
  6
CONTINUOUS
  0
LAYER
  5
104
330
2
100
AcDbSymbolTableRecord
100
AcDbLayerTableRecord
  2
203
 70
     0
 62
   203
  6
CONTINUOUS
  0
LAYER
  5
105
330
2
100
AcDbSymbolTableRecord
100
AcDbLayerTableRecord
  2
204
 70
     0
 62
   204
  6
CONTINUOUS
  0
LAYER
  5
106
330
2
100
AcDbSymbolTableRecord
100
AcDbLayerTableRecord
  2
205
 70
     0
 62
   205
  6
CONTINUOUS
  0
LAYER
  5
107
330
2
100
AcDbSymbolTableRecord
100
AcDbLayerTableRecord
  2
206
 70
     0
 62
   206
  6
CONTINUOUS
  0
LAYER
  5
108
330
2
100
AcDbSymbolTableRecord
100
AcDbLayerTableRecord
  2
207
 70
     0
 62
   207
  6
CONTINUOUS
  0
LAYER
  5
109
330
2
100
AcDbSymbolTableRecord
100
AcDbLayerTableRecord
  2
208
 70
     0
 62
   208
  6
CONTINUOUS
  0
LAYER
  5
10A
330
2
100
AcDbSymbolTableRecord
100
AcDbLayerTableRecord
  2
209
 70
     0
 62
   209
  6
CONTINUOUS
  0
LAYER
  5
10B
330
2
100
AcDbSymbolTableRecord
100
AcDbLayerTableRecord
  2
210
 70
     0
 62
   210
  6
CONTINUOUS
  0
LAYER
  5
10C
330
2
100
AcDbSymbolTableRecord
100
AcDbLayerTableRecord
  2
211
 70
     0
 62
   211
  6
CONTINUOUS
  0
LAYER
  5
10D
330
2
100
AcDbSymbolTableRecord
100
AcDbLayerTableRecord
  2
212
 70
     0
 62
   212
  6
CONTINUOUS
  0
LAYER
  5
10E
330
2
100
AcDbSymbolTableRecord
100
AcDbLayerTableRecord
  2
213
 70
     0
 62
   213
  6
CONTINUOUS
  0
LAYER
  5
10F
330
2
100
AcDbSymbolTableRecord
100
AcDbLayerTableRecord
  2
214
 70
     0
 62
   214
  6
CONTINUOUS
  0
LAYER
  5
110
330
2
100
AcDbSymbolTableRecord
100
AcDbLayerTableRecord
  2
215
 70
     0
 62
   215
  6
CONTINUOUS
  0
LAYER
  5
111
330
2
100
AcDbSymbolTableRecord
100
AcDbLayerTableRecord
  2
216
 70
     0
 62
   216
  6
CONTINUOUS
  0
LAYER
  5
112
330
2
100
AcDbSymbolTableRecord
100
AcDbLayerTableRecord
  2
217
 70
     0
 62
   217
  6
CONTINUOUS
  0
LAYER
  5
113
330
2
100
AcDbSymbolTableRecord
100
AcDbLayerTableRecord
  2
218
 70
     0
 62
   218
  6
CONTINUOUS
  0
LAYER
  5
114
330
2
100
AcDbSymbolTableRecord
100
AcDbLayerTableRecord
  2
219
 70
     0
 62
   219
  6
CONTINUOUS
  0
LAYER
  5
115
330
2
100
AcDbSymbolTableRecord
100
AcDbLayerTableRecord
  2
220
 70
     0
 62
   220
  6
CONTINUOUS
  0
LAYER
  5
116
330
2
100
AcDbSymbolTableRecord
100
AcDbLayerTableRecord
  2
221
 70
     0
 62
   221
  6
CONTINUOUS
  0
LAYER
  5
117
330
2
100
AcDbSymbolTableRecord
100
AcDbLayerTableRecord
  2
222
 70
     0
 62
   222
  6
CONTINUOUS
  0
LAYER
  5
118
330
2
100
AcDbSymbolTableRecord
100
AcDbLayerTableRecord
  2
223
 70
     0
 62
   223
  6
CONTINUOUS
  0
LAYER
  5
119
330
2
100
AcDbSymbolTableRecord
100
AcDbLayerTableRecord
  2
224
 70
     0
 62
   224
  6
CONTINUOUS
  0
LAYER
  5
11A
330
2
100
AcDbSymbolTableRecord
100
AcDbLayerTableRecord
  2
225
 70
     0
 62
   225
  6
CONTINUOUS
  0
LAYER
  5
11B
330
2
100
AcDbSymbolTableRecord
100
AcDbLayerTableRecord
  2
226
 70
     0
 62
   226
  6
CONTINUOUS
  0
LAYER
  5
11C
330
2
100
AcDbSymbolTableRecord
100
AcDbLayerTableRecord
  2
227
 70
     0
 62
   227
  6
CONTINUOUS
  0
LAYER
  5
11D
330
2
100
AcDbSymbolTableRecord
100
AcDbLayerTableRecord
  2
228
 70
     0
 62
   228
  6
CONTINUOUS
  0
LAYER
  5
11E
330
2
100
AcDbSymbolTableRecord
100
AcDbLayerTableRecord
  2
229
 70
     0
 62
   229
  6
CONTINUOUS
  0
LAYER
  5
11F
330
2
100
AcDbSymbolTableRecord
100
AcDbLayerTableRecord
  2
230
 70
     0
 62
   230
  6
CONTINUOUS
  0
LAYER
  5
120
330
2
100
AcDbSymbolTableRecord
100
AcDbLayerTableRecord
  2
231
 70
     0
 62
   231
  6
CONTINUOUS
  0
LAYER
  5
121
330
2
100
AcDbSymbolTableRecord
100
AcDbLayerTableRecord
  2
232
 70
     0
 62
   232
  6
CONTINUOUS
  0
LAYER
  5
122
330
2
100
AcDbSymbolTableRecord
100
AcDbLayerTableRecord
  2
233
 70
     0
 62
   233
  6
CONTINUOUS
  0
LAYER
  5
123
330
2
100
AcDbSymbolTableRecord
100
AcDbLayerTableRecord
  2
234
 70
     0
 62
   234
  6
CONTINUOUS
  0
LAYER
  5
124
330
2
100
AcDbSymbolTableRecord
100
AcDbLayerTableRecord
  2
235
 70
     0
 62
   235
  6
CONTINUOUS
  0
LAYER
  5
125
330
2
100
AcDbSymbolTableRecord
100
AcDbLayerTableRecord
  2
236
 70
     0
 62
   236
  6
CONTINUOUS
  0
LAYER
  5
126
330
2
100
AcDbSymbolTableRecord
100
AcDbLayerTableRecord
  2
237
 70
     0
 62
   237
  6
CONTINUOUS
  0
LAYER
  5
127
330
2
100
AcDbSymbolTableRecord
100
AcDbLayerTableRecord
  2
238
 70
     0
 62
   238
  6
CONTINUOUS
  0
LAYER
  5
128
330
2
100
AcDbSymbolTableRecord
100
AcDbLayerTableRecord
  2
239
 70
     0
 62
   239
  6
CONTINUOUS
  0
LAYER
  5
129
330
2
100
AcDbSymbolTableRecord
100
AcDbLayerTableRecord
  2
240
 70
     0
 62
   240
  6
CONTINUOUS
  0
LAYER
  5
12A
330
2
100
AcDbSymbolTableRecord
100
AcDbLayerTableRecord
  2
241
 70
     0
 62
   241
  6
CONTINUOUS
  0
LAYER
  5
12B
330
2
100
AcDbSymbolTableRecord
100
AcDbLayerTableRecord
  2
242
 70
     0
 62
   242
  6
CONTINUOUS
  0
LAYER
  5
12C
330
2
100
AcDbSymbolTableRecord
100
AcDbLayerTableRecord
  2
243
 70
     0
 62
   243
  6
CONTINUOUS
  0
LAYER
  5
12D
330
2
100
AcDbSymbolTableRecord
100
AcDbLayerTableRecord
  2
244
 70
     0
 62
   244
  6
CONTINUOUS
  0
LAYER
  5
12E
330
2
100
AcDbSymbolTableRecord
100
AcDbLayerTableRecord
  2
245
 70
     0
 62
   245
  6
CONTINUOUS
  0
LAYER
  5
12F
330
2
100
AcDbSymbolTableRecord
100
AcDbLayerTableRecord
  2
246
 70
     0
 62
   246
  6
CONTINUOUS
  0
LAYER
  5
130
330
2
100
AcDbSymbolTableRecord
100
AcDbLayerTableRecord
  2
247
 70
     0
 62
   247
  6
CONTINUOUS
  0
LAYER
  5
131
330
2
100
AcDbSymbolTableRecord
100
AcDbLayerTableRecord
  2
248
 70
     0
 62
   248
  6
CONTINUOUS
  0
LAYER
  5
132
330
2
100
AcDbSymbolTableRecord
100
AcDbLayerTableRecord
  2
249
 70
     0
 62
   249
  6
CONTINUOUS
  0
LAYER
  5
133
330
2
100
AcDbSymbolTableRecord
100
AcDbLayerTableRecord
  2
250
 70
     0
 62
   250
  6
CONTINUOUS
  0
LAYER
  5
134
330
2
100
AcDbSymbolTableRecord
100
AcDbLayerTableRecord
  2
251
 70
     0
 62
   251
  6
CONTINUOUS
  0
LAYER
  5
135
330
2
100
AcDbSymbolTableRecord
100
AcDbLayerTableRecord
  2
252
 70
     0
 62
   252
  6
CONTINUOUS
  0
LAYER
  5
136
330
2
100
AcDbSymbolTableRecord
100
AcDbLayerTableRecord
  2
253
 70
     0
 62
   253
  6
CONTINUOUS
  0
LAYER
  5
137
330
2
100
AcDbSymbolTableRecord
100
AcDbLayerTableRecord
  2
254
 70
     0
 62
   254
  6
CONTINUOUS
  0
LAYER
  5
138
330
2
100
AcDbSymbolTableRecord
100
AcDbLayerTableRecord
  2
255
 70
     0
 62
   255
  6
CONTINUOUS
  0
LAYER
  5
4B77
330
2
100
AcDbSymbolTableRecord
100
AcDbLayerTableRecord
  2
ASHADE
 70
     4
 62
     7
  6
CONTINUOUS
  0
ENDTAB
  0
TABLE
  2
STYLE
  5
3
330
0
100
AcDbSymbolTable
 70
     2
  0
STYLE
  5
11
330
3
100
AcDbSymbolTableRecord
100
AcDbTextStyleTableRecord
  2
STANDARD
 70
     0
 40
0.0
 41
1.0
 50
0.0
 71
     0
 42
0.2
  3
monotxt
  4

  0
STYLE
  5
4B74
330
3
100
AcDbSymbolTableRecord
100
AcDbTextStyleTableRecord
  2
ASHADE
 70
     0
 40
0.2
 41
1.0
 50
0.0
 71
     0
 42
0.2
  3
simplex.shx
  4

  0
ENDTAB
  0
TABLE
  2
VIEW
  5
6
330
0
100
AcDbSymbolTable
 70
     0
  0
ENDTAB
  0
TABLE
  2
UCS
  5
7
330
0
100
AcDbSymbolTable
 70
     0
  0
ENDTAB
  0
TABLE
  2
APPID
  5
9
330
0
100
AcDbSymbolTable
 70
     6
  0
APPID
  5
12
330
9
100
AcDbSymbolTableRecord
100
AcDbRegAppTableRecord
  2
ACAD
 70
     0
  0
APPID
  5
4B75
330
9
100
AcDbSymbolTableRecord
100
AcDbRegAppTableRecord
  2
AVE_RENDER
 70
     0
  0
APPID
  5
4B76
330
9
100
AcDbSymbolTableRecord
100
AcDbRegAppTableRecord
  2
AVE_ENTITY_MATERIAL
 70
     0
  0
APPID
  5
4B83
330
9
100
AcDbSymbolTableRecord
100
AcDbRegAppTableRecord
  2
AVE_FINISH
 70
     0
  0
APPID
  5
4B84
330
9
100
AcDbSymbolTableRecord
100
AcDbRegAppTableRecord
  2
AVE_MATERIAL
 70
     0
  0
APPID
  5
4B85
330
9
100
AcDbSymbolTableRecord
100
AcDbRegAppTableRecord
  2
AVE_GLOBAL
 70
     0
  0
ENDTAB
  0
TABLE
  2
DIMSTYLE
  5
A
330
0
100
AcDbSymbolTable
 70
     1
  0
DIMSTYLE
105
3492
330
A
100
AcDbSymbolTableRecord
100
AcDbDimStyleTableRecord
  2
STANDARD
 70
     0
  3

  4

  5

  6

  7

 40
1.0
 41
0.18
 42
0.0625
 43
0.38
 44
0.18
 45
0.0
 46
0.0
 47
0.0
 48
0.0
140
0.18
141
0.09
142
0.0
143
25.4
144
1.0
145
0.0
146
1.0
147
0.09
 71
     0
 72
     0
 73
     1
 74
     1
 75
     0
 76
     0
 77
     0
 78
     0
170
     0
171
     2
172
     0
173
     0
174
     0
175
     0
176
     0
177
     0
178
     0
270
     2
271
     4
272
     4
273
     2
274
     2
340
11
275
     0
280
     0
281
     0
282
     0
283
     1
284
     0
285
     0
286
     0
287
     3
288
     0
  0
ENDTAB
  0
TABLE
  2
BLOCK_RECORD
  5
1
330
0
100
AcDbSymbolTable
 70
     2
  0
BLOCK_RECORD
  5
1E
102
{ACAD_XDICTIONARY
360
4B8B
102
}
330
1
100
AcDbSymbolTableRecord
100
AcDbBlockTableRecord
  2
*MODEL_SPACE
  0
BLOCK_RECORD
  5
1A
102
{ACAD_XDICTIONARY
360
4B8D
102
}
330
1
100
AcDbSymbolTableRecord
100
AcDbBlockTableRecord
  2
*PAPER_SPACE
  0
BLOCK_RECORD
  5
4B78
330
1
100
AcDbSymbolTableRecord
100
AcDbBlockTableRecord
  2
AVE_RENDER
  0
BLOCK_RECORD
  5
4B86
330
1
100
AcDbSymbolTableRecord
100
AcDbBlockTableRecord
  2
AVE_GLOBAL
  0
ENDTAB
  0
ENDSEC
  0
SECTION
  2
BLOCKS
  0
BLOCK
  5
13B
330
1E
100
AcDbEntity
  8
0
100
AcDbBlockBegin
  2
*MODEL_SPACE
 70
     0
 10
0.0
 20
0.0
 30
0.0
  3
*MODEL_SPACE
  1

  0
ENDBLK
  5
13C
330
1E
100
AcDbEntity
  8
0
100
AcDbBlockEnd
  0
BLOCK
  5
139
330
1A
100
AcDbEntity
 67
     1
  8
0
100
AcDbBlockBegin
  2
*PAPER_SPACE
 70
     0
 10
0.0
 20
0.0
 30
0.0
  3
*PAPER_SPACE
  1

  0
ENDBLK
  5
13A
330
1A
100
AcDbEntity
 67
     1
  8
0
100
AcDbBlockEnd
  0
BLOCK
  5
4B79
330
4B78
100
AcDbEntity
  8
0
100
AcDbBlockBegin
  2
AVE_RENDER
 70
     0
 10
0.0
 20
0.0
 30
0.0
  3
AVE_RENDER
  1
AVE_RENDER
  0
ENDBLK
  5
4B7A
330
4B78
100
AcDbEntity
  8
0
100
AcDbBlockEnd
  0
BLOCK
  5
4B87
330
4B86
100
AcDbEntity
  8
0
100
AcDbBlockBegin
  2
AVE_GLOBAL
 70
     0
 10
0.0
 20
0.0
 30
0.0
  3
AVE_GLOBAL
  1
AVE_GLOBAL
  0
ENDBLK
  5
4B88
330
4B86
100
AcDbEntity
  8
0
100
AcDbBlockEnd
  0
ENDSEC
  0
SECTION
  2
ENTITIES
  0
LINE
  5
27D4
330
1E
100
AcDbEntity
  8
7
100
AcDbLine
 10
13.36497820631371
 20
10.02755372075923
 30
0.0
 11
13.36497820631371
 21
10.02755372075923
 31
0.0
  0
LINE
  5
27D5
330
1E
100
AcDbEntity
  8
7
100
AcDbLine
 10
13.58545064725859
 20
10.02755372075923
 30
0.0
 11
13.58545064725859
 21
10.02755372075923
 31
0.0
  0
LINE
  5
27D6
330
1E
100
AcDbEntity
  8
7
100
AcDbLine
 10
13.8610411984397
 20
10.02755372075923
 30
0.0
 11
13.8610411984397
 21
10.02755372075923
 31
0.0
  0
LINE
  5
27D7
330
1E
100
AcDbEntity
  8
7
100
AcDbLine
 10
13.77836403308537
 20
10.02755372075923
 30
0.0
 11
13.77836403308537
 21
10.02755372075923
 31
0.0
  0
LINE
  5
27D8
330
1E
100
AcDbEntity
  8
7
100
AcDbLine
 10
13.435844348046
 20
10.02755372075923
 30
0.0
 11
13.44765537166805
 21
10.02755372075923
 31
0.0
  0
LINE
  5
27D9
330
1E
100
AcDbEntity
  8
7
100
AcDbLine
 10
13.55789159214048
 20
10.02755372075923
 30
0.0
 11
13.56576560788852
 21
10.02755372075923
 31
0.0
  0
LINE
  5
27DA
330
1E
100
AcDbEntity
  8
7
100
AcDbLine
 10
13.36497820631371
 20
10.02755372075923
 30
0.0
 11
13.47127741891214
 21
10.02755372075923
 31
0.0
  0
LINE
  5
27DB
330
1E
100
AcDbEntity
  8
7
100
AcDbLine
 10
13.9122223008019
 20
10.02755372075923
 30
0.0
 11
13.935844348046
 21
10.02755372075923
 31
0.0
  0
LINE
  5
27DC
330
1E
100
AcDbEntity
  8
7
100
AcDbLine
 10
13.58545064725859
 20
10.02755372075923
 30
0.0
 11
13.62088371812474
 21
10.02755372075923
 31
0.0
  0
LINE
  5
27DD
330
1E
100
AcDbEntity
  8
7
100
AcDbLine
 10
13.61694671025072
 20
10.02755372075923
 30
0.0
 11
13.6366317496208
 21
10.02755372075923
 31
0.0
  0
LINE
  5
27DE
330
1E
100
AcDbEntity
  8
7
100
AcDbLine
 10
13.64056875749481
 20
10.02755372075923
 30
0.0
 11
13.67206482048694
 21
10.02755372075923
 31
0.0
  0
LINE
  5
27DF
330
1E
100
AcDbEntity
  8
7
100
AcDbLine
 10
13.90041127717986
 20
10.02755372075923
 30
0.0
 11
13.87285222206174
 21
10.02755372075923
 31
0.0
  0
LINE
  5
27E0
330
1E
100
AcDbEntity
  8
7
100
AcDbLine
 10
13.87285222206174
 20
10.02755372075923
 30
0.0
 11
13.87285222206174
 21
10.02755372075923
 31
0.0
  0
LINE
  5
27E1
330
1E
100
AcDbEntity
  8
7
100
AcDbLine
 10
13.50671048977828
 20
10.02755372075923
 30
0.0
 11
13.47127741891214
 21
10.02755372075923
 31
0.0
  0
LINE
  5
27E2
330
1E
100
AcDbEntity
  8
7
100
AcDbLine
 10
13.55001757639245
 20
10.02755372075923
 30
0.0
 11
13.58545064725859
 21
10.02755372075923
 31
0.0
  0
LINE
  5
27E3
330
1E
100
AcDbEntity
  8
7
100
AcDbLine
 10
13.81773411182552
 20
10.02755372075923
 30
0.0
 11
13.81773411182552
 21
10.02755372075923
 31
0.0
  0
LINE
  5
27E4
330
1E
100
AcDbEntity
  8
7
100
AcDbLine
 10
13.71537190710111
 20
10.02755372075923
 30
0.0
 11
13.72718293072316
 21
10.02755372075923
 31
0.0
  0
LINE
  5
27E5
330
1E
100
AcDbEntity
  8
7
100
AcDbLine
 10
13.51852151340033
 20
10.02755372075923
 30
0.0
 11
13.55001757639245
 21
10.02755372075923
 31
0.0
  0
LINE
  5
27E6
330
1E
100
AcDbEntity
  8
7
100
AcDbLine
 10
13.68387584410899
 20
10.02755372075923
 30
0.0
 11
13.68387584410899
 21
10.02755372075923
 31
0.0
  0
LINE
  5
27E7
330
1E
100
AcDbEntity
  8
7
100
AcDbLine
 10
13.435844348046
 20
10.02755372075923
 30
0.0
 11
13.435844348046
 21
10.02755372075923
 31
0.0
  0
LINE
  5
27E8
330
1E
100
AcDbEntity
  8
7
100
AcDbLine
 10
13.55001757639245
 20
10.02755372075923
 30
0.0
 11
13.53426954489639
 21
10.02755372075923
 31
0.0
  0
LINE
  5
27E9
330
1E
100
AcDbEntity
  8
7
100
AcDbLine
 10
13.61694671025072
 20
10.02755372075923
 30
0.0
 11
13.56576560788852
 21
10.02755372075923
 31
0.0
  0
LINE
  5
27EA
330
1E
100
AcDbEntity
  8
7
100
AcDbLine
 10
13.97127741891214
 20
10.02755372075923
 30
0.0
 11
13.97127741891214
 21
10.02755372075923
 31
0.0
  0
LINE
  5
27EB
330
1E
100
AcDbEntity
  8
7
100
AcDbLine
 10
13.8374191511956
 20
10.02755372075923
 30
0.0
 11
13.8610411984397
 21
10.02755372075923
 31
0.0
  0
LINE
  5
27EC
330
1E
100
AcDbEntity
  8
7
100
AcDbLine
 10
13.64056875749481
 20
10.02755372075923
 30
0.0
 11
13.64056875749481
 21
10.02755372075923
 31
0.0
  0
LINE
  5
27ED
330
1E
100
AcDbEntity
  8
7
100
AcDbLine
 10
13.67206482048694
 20
10.02755372075923
 30
0.0
 11
13.67206482048694
 21
10.02755372075923
 31
0.0
  0
LINE
  5
27EE
330
1E
100
AcDbEntity
  8
7
100
AcDbLine
 10
13.73505694647119
 20
10.02755372075923
 30
0.0
 11
13.73505694647119
 21
10.02755372075923
 31
0.0
  0
LINE
  5
27EF
330
1E
100
AcDbEntity
  8
7
100
AcDbLine
 10
13.99489946615623
 20
10.02755372075923
 30
0.0
 11
13.97127741891214
 21
10.02755372075923
 31
0.0
  0
LINE
  5
27F0
330
1E
100
AcDbEntity
  8
7
100
AcDbLine
 10
13.435844348046
 20
10.02755372075923
 30
0.0
 11
13.435844348046
 21
10.02755372075923
 31
0.0
  0
LINE
  5
27F1
330
1E
100
AcDbEntity
  8
7
100
AcDbLine
 10
13.79804907245544
 20
10.02755372075923
 30
0.0
 11
13.84135615906962
 21
10.02755372075923
 31
0.0
  0
LINE
  5
27F2
330
1E
100
AcDbEntity
  8
7
100
AcDbLine
 10
13.435844348046
 20
10.02755372075923
 30
0.0
 11
13.36497820631371
 21
10.02755372075923
 31
0.0
  0
LINE
  5
27F3
330
1E
100
AcDbEntity
  8
7
100
AcDbLine
 10
13.90041127717986
 20
10.02755372075923
 30
0.0
 11
13.90041127717986
 21
10.02755372075923
 31
0.0
  0
LINE
  5
27F4
330
1E
100
AcDbEntity
  8
7
100
AcDbLine
 10
13.82167111969954
 20
10.02755372075923
 30
0.0
 11
13.82954513544757
 21
10.02755372075923
 31
0.0
  0
LINE
  5
27F5
330
1E
100
AcDbEntity
  8
7
100
AcDbLine
 10
13.45552938741607
 20
10.02755372075923
 30
0.0
 11
13.45552938741607
 21
10.02755372075923
 31
0.0
  0
LINE
  5
27F6
330
1E
100
AcDbEntity
  8
7
100
AcDbLine
 10
13.61694671025072
 20
10.02755372075923
 30
0.0
 11
13.61694671025072
 21
10.02755372075923
 31
0.0
  0
LINE
  5
27F7
330
1E
100
AcDbEntity
  8
7
100
AcDbLine
 10
13.435844348046
 20
10.02755372075923
 30
0.0
 11
13.44765537166805
 21
10.02755372075923
 31
0.0
  0
LINE
  5
27F8
330
1E
100
AcDbEntity
  8
7
100
AcDbLine
 10
13.71537190710111
 20
10.02755372075923
 30
0.0
 11
13.72718293072316
 21
10.02755372075923
 31
0.0
  0
LINE
  5
27F9
330
1E
100
AcDbEntity
  8
7
100
AcDbLine
 10
13.74686797009324
 20
10.02755372075923
 30
0.0
 11
13.68387584410899
 21
10.02755372075923
 31
0.0
  0
LINE
  5
27FA
330
1E
100
AcDbEntity
  8
7
100
AcDbLine
 10
13.97127741891214
 20
10.02755372075923
 30
0.0
 11
13.935844348046
 21
10.02755372075923
 31
0.0
  0
LINE
  5
27FB
330
1E
100
AcDbEntity
  8
7
100
AcDbLine
 10
13.77836403308537
 20
10.02755372075923
 30
0.0
 11
13.81773411182552
 21
10.02755372075923
 31
0.0
  0
LINE
  5
27FC
330
1E
100
AcDbEntity
  8
7
100
AcDbLine
 10
13.51852151340033
 20
10.02755372075923
 30
0.0
 11
13.53426954489639
 21
10.02755372075923
 31
0.0
  0
LINE
  5
27FD
330
1E
100
AcDbEntity
  8
7
100
AcDbLine
 10
13.51852151340033
 20
10.02755372075923
 30
0.0
 11
13.55001757639245
 21
10.02755372075923
 31
0.0
  0
LINE
  5
27FE
330
1E
100
AcDbEntity
  8
7
100
AcDbLine
 10
13.76655300946332
 20
10.02755372075923
 30
0.0
 11
13.76655300946332
 21
10.02755372075923
 31
0.0
  0
LINE
  5
27FF
330
1E
100
AcDbEntity
  8
7
100
AcDbLine
 10
13.8374191511956
 20
10.02755372075923
 30
0.0
 11
13.8374191511956
 21
10.02755372075923
 31
0.0
  0
LINE
  5
2800
330
1E
100
AcDbEntity
  8
7
100
AcDbLine
 10
13.67206482048694
 20
10.02755372075923
 30
0.0
 11
13.6366317496208
 21
10.02755372075923
 31
0.0
  0
LINE
  5
2801
330
1E
100
AcDbEntity
  8
7
100
AcDbLine
 10
13.64056875749481
 20
10.02755372075923
 30
0.0
 11
13.62088371812474
 21
10.02755372075923
 31
0.0
  0
LINE
  5
2802
330
1E
100
AcDbEntity
  8
7
100
AcDbLine
 10
13.435844348046
 20
10.02755372075923
 30
0.0
 11
13.47127741891214
 21
10.02755372075923
 31
0.0
  0
LINE
  5
2803
330
1E
100
AcDbEntity
  8
7
100
AcDbLine
 10
13.47127741891214
 20
10.02755372075923
 30
0.0
 11
13.49489946615623
 21
10.02755372075923
 31
0.0
  0
LINE
  5
2804
330
1E
100
AcDbEntity
  8
7
100
AcDbLine
 10
13.935844348046
 20
10.02755372075923
 30
0.0
 11
13.935844348046
 21
10.02755372075923
 31
0.0
  0
LINE
  5
2805
330
1E
100
AcDbEntity
  8
7
100
AcDbLine
 10
13.99489946615623
 20
10.02755372075923
 30
0.0
 11
13.99489946615623
 21
10.02755372075923
 31
0.0
  0
LINE
  5
2806
330
1E
100
AcDbEntity
  8
7
100
AcDbLine
 10
13.68387584410899
 20
10.02755372075923
 30
0.0
 11
13.74686797009324
 21
10.02755372075923
 31
0.0
  0
LINE
  5
2807
330
1E
100
AcDbEntity
  8
7
100
AcDbLine
 10
13.9122223008019
 20
10.02755372075923
 30
0.0
 11
13.9122223008019
 21
10.02755372075923
 31
0.0
  0
LINE
  5
2808
330
1E
100
AcDbEntity
  8
7
100
AcDbLine
 10
13.87285222206174
 20
10.02755372075923
 30
0.0
 11
13.90041127717986
 21
10.02755372075923
 31
0.0
  0
LINE
  5
2809
330
1E
100
AcDbEntity
  8
7
100
AcDbLine
 10
13.9122223008019
 20
10.02755372075923
 30
0.0
 11
13.99489946615623
 21
10.02755372075923
 31
0.0
  0
LINE
  5
280A
330
1E
100
AcDbEntity
  8
7
100
AcDbLine
 10
13.51458450552631
 20
10.02755372075923
 30
0.0
 11
13.55789159214048
 21
10.02755372075923
 31
0.0
  0
LINE
  5
280B
330
1E
100
AcDbEntity
  8
7
100
AcDbLine
 10
13.71537190710111
 20
10.02755372075923
 30
0.0
 11
13.71537190710111
 21
10.02755372075923
 31
0.0
  0
LINE
  5
280C
330
1E
100
AcDbEntity
  8
7
100
AcDbLine
 10
13.50671048977828
 20
10.02755372075923
 30
0.0
 11
13.51458450552631
 21
10.02755372075923
 31
0.0
  0
LINE
  5
2817
330
1E
100
AcDbEntity
  8
7
100
AcDbLine
 10
13.81773411182552
 20
10.02755372075923
 30
0.0
 11
13.82167111969954
 21
10.02755372075923
 31
0.0
  0
LINE
  5
2818
330
1E
100
AcDbEntity
  8
7
100
AcDbLine
 10
13.45552938741607
 20
10.02755372075923
 30
0.0
 11
13.44765537166805
 21
10.02755372075923
 31
0.0
  0
LINE
  5
2819
330
1E
100
AcDbEntity
  8
7
100
AcDbLine
 10
13.44765537166805
 20
10.02755372075923
 30
0.0
 11
13.45552938741607
 21
10.02755372075923
 31
0.0
  0
LINE
  5
283D
330
1E
100
AcDbEntity
  8
7
100
AcDbLine
 10
4.683875844108992
 20
9.744089153830097
 30
0.0
 11
7.325608127573559
 21
9.744089153830097
 31
0.0
  0
LINE
  5
283E
330
1E
100
AcDbEntity
  8
7
100
AcDbLine
 10
7.325608127573559
 20
9.744089153830097
 30
0.0
 11
7.333482143321589
 21
10.02755372075923
 31
0.0
  0
LINE
  5
283F
330
1E
100
AcDbEntity
  8
7
100
AcDbLine
 10
7.333482143321589
 20
10.02755372075923
 30
0.0
 11
4.676001828360959
 21
10.02755372075923
 31
0.0
  0
LINE
  5
2840
330
1E
100
AcDbEntity
  8
7
100
AcDbLine
 10
4.683875844108992
 20
9.744089153830097
 30
0.0
 11
4.676001828360959
 21
10.02755372075923
 31
0.0
  0
LINE
  5
2841
330
1E
100
AcDbEntity
  8
7
100
AcDbLine
 10
7.325608127573559
 20
9.629915925483642
 30
0.0
 11
4.683875844108992
 21
9.629915925483642
 31
0.0
  0
LINE
  5
2852
330
1E
100
AcDbEntity
  8
7
100
AcDbLine
 10
4.553954584266474
 20
10.02755372075923
 30
0.0
 11
4.565765607888518
 21
9.744089153830097
 31
0.0
  0
LINE
  5
2864
330
1E
100
AcDbEntity
  8
7
100
AcDbLine
 10
7.455529387416078
 20
10.02755372075923
 30
0.0
 11
7.44371836379403
 21
9.744089153830097
 31
0.0
  0
LINE
  5
287A
330
1E
100
AcDbEntity
  8
7
100
AcDbLine
 10
6.305923088203481
 20
10.51180568926316
 30
0.0
 11
5.70356088347907
 21
10.51180568926316
 31
0.0
  0
LINE
  5
287B
330
1E
100
AcDbEntity
  8
7
100
AcDbLine
 10
7.597261670880644
 20
9.744089153830097
 30
0.0
 11
10.23899395434521
 21
9.744089153830097
 31
0.0
  0
LINE
  5
287C
330
1E
100
AcDbEntity
  8
7
100
AcDbLine
 10
10.23899395434521
 20
9.744089153830097
 30
0.0
 11
10.25080497796726
 21
10.02755372075923
 31
0.0
  0
LINE
  5
287D
330
1E
100
AcDbEntity
  8
7
100
AcDbLine
 10
10.25080497796726
 20
10.02755372075923
 30
0.0
 11
7.589387655132615
 21
10.02755372075923
 31
0.0
  0
LINE
  5
287E
330
1E
100
AcDbEntity
  8
7
100
AcDbLine
 10
7.597261670880644
 20
9.744089153830097
 30
0.0
 11
7.589387655132615
 21
10.02755372075923
 31
0.0
  0
LINE
  5
287F
330
1E
100
AcDbEntity
  8
7
100
AcDbLine
 10
10.23899395434521
 20
9.629915925483642
 30
0.0
 11
7.597261670880644
 21
9.629915925483642
 31
0.0
  0
LINE
  5
2890
330
1E
100
AcDbEntity
  8
7
100
AcDbLine
 10
7.467340411038126
 20
10.02755372075923
 30
0.0
 11
7.479151434660174
 21
9.744089153830097
 31
0.0
  0
LINE
  5
28A2
330
1E
100
AcDbEntity
  8
7
100
AcDbLine
 10
10.36891521418773
 20
10.02755372075923
 30
0.0
 11
10.36104119843969
 21
9.744089153830097
 31
0.0
  0
LINE
  5
28B8
330
1E
100
AcDbEntity
  8
7
100
AcDbLine
 10
9.219308914975133
 20
10.51180568926316
 30
0.0
 11
8.616946710250722
 21
10.51180568926316
 31
0.0
  0
LINE
  5
28B9
330
1E
100
AcDbEntity
  8
7
100
AcDbLine
 10
10.51458450552631
 20
9.744089153830097
 30
0.0
 11
13.15631678899088
 21
9.744089153830097
 31
0.0
  0
LINE
  5
28BA
330
1E
100
AcDbEntity
  8
7
100
AcDbLine
 10
13.15631678899088
 20
9.744089153830097
 30
0.0
 11
13.16419080473891
 21
10.02755372075923
 31
0.0
  0
LINE
  5
28BB
330
1E
100
AcDbEntity
  8
7
100
AcDbLine
 10
13.16419080473891
 20
10.02755372075923
 30
0.0
 11
10.50277348190426
 21
10.02755372075923
 31
0.0
  0
LINE
  5
28BC
330
1E
100
AcDbEntity
  8
7
100
AcDbLine
 10
10.51458450552631
 20
9.744089153830097
 30
0.0
 11
10.50277348190426
 21
10.02755372075923
 31
0.0
  0
LINE
  5
28BD
330
1E
100
AcDbEntity
  8
7
100
AcDbLine
 10
13.15631678899088
 20
9.629915925483638
 30
0.0
 11
10.51458450552631
 21
9.629915925483642
 31
0.0
  0
LINE
  5
28CE
330
1E
100
AcDbEntity
  8
7
100
AcDbLine
 10
10.38466324568379
 20
10.02755372075923
 30
0.0
 11
10.39253726143182
 21
9.744089153830097
 31
0.0
  0
LINE
  5
28E0
330
1E
100
AcDbEntity
  8
7
100
AcDbLine
 10
13.28230104095938
 20
10.02755372075923
 30
0.0
 11
13.27442702521135
 21
9.744089153830097
 31
0.0
  0
LINE
  5
28F6
330
1E
100
AcDbEntity
  8
7
100
AcDbLine
 10
12.1366317496208
 20
10.51180568926316
 30
0.0
 11
11.53426954489639
 21
10.51180568926316
 31
0.0
  0
LINE
  5
28F7
330
1E
100
AcDbEntity
  8
7
100
AcDbLine
 10
-4.060218644079984
 20
9.744089153830101
 30
0.0
 11
-1.422423368489432
 21
9.744089153830097
 31
0.0
  0
LINE
  5
28F8
330
1E
100
AcDbEntity
  8
7
100
AcDbLine
 10
-1.422423368489432
 20
9.744089153830097
 30
0.0
 11
-1.410612344867384
 21
10.02755372075923
 31
0.0
  0
LINE
  5
28F9
330
1E
100
AcDbEntity
  8
7
100
AcDbLine
 10
-1.410612344867384
 20
10.02755372075923
 30
0.0
 11
-4.072029667702032
 21
10.02755372075923
 31
0.0
  0
LINE
  5
28FA
330
1E
100
AcDbEntity
  8
7
100
AcDbLine
 10
-4.060218644079984
 20
9.744089153830101
 30
0.0
 11
-4.072029667702032
 21
10.02755372075923
 31
0.0
  0
LINE
  5
28FB
330
1E
100
AcDbEntity
  8
7
100
AcDbLine
 10
-1.422423368489432
 20
9.629915925483642
 30
0.0
 11
-4.060218644079984
 21
9.629915925483642
 31
0.0
  0
LINE
  5
290C
330
1E
100
AcDbEntity
  8
7
100
AcDbLine
 10
-4.190139903922503
 20
10.02755372075923
 30
0.0
 11
-4.182265888174473
 21
9.744089153830101
 31
0.0
  0
LINE
  5
291E
330
1E
100
AcDbEntity
  8
7
100
AcDbLine
 10
-1.292502108646914
 20
10.02755372075923
 30
0.0
 11
-1.300376124394945
 21
9.744089153830097
 31
0.0
  0
LINE
  5
2934
330
1E
100
AcDbEntity
  8
7
100
AcDbLine
 10
-2.438171399985495
 20
10.51180568926317
 30
0.0
 11
-3.040533604709906
 21
10.51180568926317
 31
0.0
  0
LINE
  5
2935
330
1E
100
AcDbEntity
  8
7
100
AcDbLine
 10
-1.146832817308331
 20
9.744089153830097
 30
0.0
 11
1.494899466156235
 21
9.744089153830097
 31
0.0
  0
LINE
  5
2936
330
1E
100
AcDbEntity
  8
7
100
AcDbLine
 10
1.494899466156235
 20
9.744089153830097
 30
0.0
 11
1.502773481904267
 21
10.02755372075923
 31
0.0
  0
LINE
  5
2937
330
1E
100
AcDbEntity
  8
7
100
AcDbLine
 10
1.502773481904267
 20
10.02755372075923
 30
0.0
 11
-1.154706833056362
 21
10.02755372075923
 31
0.0
  0
LINE
  5
2938
330
1E
100
AcDbEntity
  8
7
100
AcDbLine
 10
-1.146832817308331
 20
9.744089153830097
 30
0.0
 11
-1.154706833056362
 21
10.02755372075923
 31
0.0
  0
LINE
  5
2939
330
1E
100
AcDbEntity
  8
7
100
AcDbLine
 10
1.494899466156235
 20
9.629915925483642
 30
0.0
 11
-1.146832817308331
 21
9.629915925483642
 31
0.0
  0
LINE
  5
294A
330
1E
100
AcDbEntity
  8
7
100
AcDbLine
 10
-1.276754077150851
 20
10.02755372075923
 30
0.0
 11
-1.264943053528803
 21
9.744089153830097
 31
0.0
  0
LINE
  5
295C
330
1E
100
AcDbEntity
  8
7
100
AcDbLine
 10
1.624820725998755
 20
10.02755372075923
 30
0.0
 11
1.613009702376707
 21
9.744089153830097
 31
0.0
  0
LINE
  5
2972
330
1E
100
AcDbEntity
  8
7
100
AcDbLine
 10
0.4752144267861578
 20
10.51180568926317
 30
0.0
 11
-0.1271477779382515
 21
10.51180568926317
 31
0.0
  0
LINE
  5
2973
330
1E
100
AcDbEntity
  8
7
100
AcDbLine
 10
1.770490017337339
 20
9.744089153830097
 30
0.0
 11
4.408285292927889
 21
9.744089153830097
 31
0.0
  0
LINE
  5
2974
330
1E
100
AcDbEntity
  8
7
100
AcDbLine
 10
4.408285292927889
 20
9.744089153830097
 30
0.0
 11
4.420096316549937
 21
10.02755372075923
 31
0.0
  0
LINE
  5
2975
330
1E
100
AcDbEntity
  8
7
100
AcDbLine
 10
4.420096316549937
 20
10.02755372075923
 30
0.0
 11
1.758678993715291
 21
10.02755372075923
 31
0.0
  0
LINE
  5
2976
330
1E
100
AcDbEntity
  8
7
100
AcDbLine
 10
1.770490017337339
 20
9.744089153830097
 30
0.0
 11
1.758678993715291
 21
10.02755372075923
 31
0.0
  0
LINE
  5
2977
330
1E
100
AcDbEntity
  8
7
100
AcDbLine
 10
4.408285292927889
 20
9.629915925483642
 30
0.0
 11
1.770490017337339
 21
9.629915925483642
 31
0.0
  0
LINE
  5
2988
330
1E
100
AcDbEntity
  8
7
100
AcDbLine
 10
1.640568757494818
 20
10.02755372075923
 30
0.0
 11
1.64844277324285
 21
9.744089153830097
 31
0.0
  0
LINE
  5
299A
330
1E
100
AcDbEntity
  8
7
100
AcDbLine
 10
4.538206552770411
 20
10.02755372075923
 30
0.0
 11
4.530332537022378
 21
9.744089153830097
 31
0.0
  0
LINE
  5
29B0
330
1E
100
AcDbEntity
  8
7
100
AcDbLine
 10
3.388600253557811
 20
10.51180568926317
 30
0.0
 11
2.786238048833402
 21
10.51180568926317
 31
0.0
  0
LINE
  5
29B6
330
1E
100
AcDbEntity
  8
7
100
AcDbLine
 10
-4.414549352741399
 20
10.09054584674348
 30
0.0
 11
-4.894864313371321
 21
10.09054584674348
 31
0.0
  0
LINE
  5
29CB
330
1E
100
AcDbEntity
  8
7
100
AcDbLine
 10
13.9870254504082
 20
10.09054584674348
 30
0.0
 11
13.50671048977828
 21
10.09054584674348
 31
0.0
  0
LINE
  5
29D6
330
1E
100
AcDbEntity
  8
7
100
AcDbLine
 10
13.50671048977828
 20
10.02755372075923
 30
0.0
 11
13.9870254504082
 21
10.02755372075923
 31
0.0
  0
LINE
  5
29E1
330
1E
100
AcDbEntity
  8
7
100
AcDbLine
 10
13.38860025355781
 20
10.02755372075923
 30
0.0
 11
13.28230104095938
 21
10.02755372075923
 31
0.0
  0
LINE
  5
29E2
330
1E
100
AcDbEntity
  8
7
100
AcDbLine
 10
10.38466324568379
 20
10.02755372075923
 30
0.0
 11
10.36891521418773
 21
10.02755372075923
 31
0.0
  0
LINE
  5
29E3
330
1E
100
AcDbEntity
  8
7
100
AcDbLine
 10
7.467340411038126
 20
10.02755372075923
 30
0.0
 11
7.455529387416078
 21
10.02755372075923
 31
0.0
  0
LINE
  5
29E4
330
1E
100
AcDbEntity
  8
7
100
AcDbLine
 10
4.553954584266474
 20
10.02755372075923
 30
0.0
 11
4.538206552770411
 21
10.02755372075923
 31
0.0
  0
LINE
  5
29E5
330
1E
100
AcDbEntity
  8
7
100
AcDbLine
 10
1.640568757494818
 20
10.02755372075923
 30
0.0
 11
1.624820725998755
 21
10.02755372075923
 31
0.0
  0
LINE
  5
29E6
330
1E
100
AcDbEntity
  8
7
100
AcDbLine
 10
-1.276754077150851
 20
10.02755372075923
 30
0.0
 11
-1.292502108646914
 21
10.02755372075923
 31
0.0
  0
LINE
  5
29E7
330
1E
100
AcDbEntity
  8
7
100
AcDbLine
 10
-4.190139903922503
 20
10.02755372075923
 30
0.0
 11
-4.292502108646914
 21
10.02755372075923
 31
0.0
  0
LINE
  5
29F2
330
1E
100
AcDbEntity
  8
7
100
AcDbLine
 10
-4.894864313371321
 20
10.02755372075923
 30
0.0
 11
-4.414549352741399
 21
10.02755372075923
 31
0.0
  0
LINE
  5
29FD
330
1E
100
AcDbEntity
  8
7
100
AcDbLine
 10
-4.17439187242644
 20
10.24015214595608
 30
0.0
 11
-4.138958801560299
 21
10.24015214595608
 31
0.0
  0
LINE
  5
2A03
330
1E
100
AcDbEntity
  8
7
100
AcDbLine
 10
-4.079903683450062
 20
10.29920726406632
 30
0.0
 11
-4.079903683450062
 21
10.40944348453876
 31
0.0
  0
LINE
  5
2A09
330
1E
100
AcDbEntity
  8
7
100
AcDbLine
 10
-4.414549352741399
 20
10.02755372075923
 30
0.0
 11
-4.414549352741399
 21
10.09054584674348
 31
0.0
  0
LINE
  5
2A0A
330
1E
100
AcDbEntity
  8
7
100
AcDbLine
 10
-4.351557226757147
 20
10.02755372075923
 30
0.0
 11
-4.351557226757147
 21
10.09054584674348
 31
0.0
  0
LINE
  5
2A0B
330
1E
100
AcDbEntity
  8
7
100
AcDbLine
 10
-4.894864313371321
 20
10.09054584674348
 30
0.0
 11
-4.894864313371321
 21
10.02755372075923
 31
0.0
  0
LINE
  5
2A0C
330
1E
100
AcDbEntity
  8
7
100
AcDbLine
 10
-4.953919431481558
 20
10.02755372075923
 30
0.0
 11
-4.953919431481558
 21
10.09054584674348
 31
0.0
  0
LINE
  5
2A24
330
1E
100
AcDbEntity
  8
7
100
AcDbLine
 10
-4.233446990536677
 20
10.17716001997183
 30
0.0
 11
-4.233446990536677
 21
10.14960096485372
 31
0.0
  0
LINE
  5
2A25
330
1E
100
AcDbEntity
  8
7
100
AcDbLine
 10
13.1130097023767
 20
10.46849860264899
 30
0.0
 11
-4.01691155746581
 21
10.46849860264899
 31
0.0
  0
LINE
  5
2A33
330
1E
100
AcDbEntity
  8
7
100
AcDbLine
 10
-4.233446990536677
 20
10.14960096485372
 30
0.0
 11
13.32560812757356
 21
10.14960096485371
 31
0.0
  0
LINE
  5
2A3E
330
1E
100
AcDbEntity
  8
7
100
AcDbLine
 10
13.32560812757356
 20
10.17716001997182
 30
0.0
 11
13.32560812757356
 21
10.14960096485371
 31
0.0
  0
LINE
  5
2A44
330
1E
100
AcDbEntity
  8
7
100
AcDbLine
 10
13.26655300946332
 20
10.24015214595608
 30
0.0
 11
13.23111993859718
 21
10.24015214595608
 31
0.0
  0
LINE
  5
2A4A
330
1E
100
AcDbEntity
  8
7
100
AcDbLine
 10
13.17206482048694
 20
10.40944348453875
 30
0.0
 11
13.17206482048694
 21
10.29920726406631
 31
0.0
  0
LINE
  5
2A50
330
1E
100
AcDbEntity
  8
7
100
AcDbLine
 10
13.9870254504082
 20
10.02755372075923
 30
0.0
 11
13.9870254504082
 21
10.09054584674348
 31
0.0
  0
LINE
  5
2A51
330
1E
100
AcDbEntity
  8
7
100
AcDbLine
 10
14.04608056851844
 20
10.09054584674348
 30
0.0
 11
14.04608056851844
 21
10.02755372075923
 31
0.0
  0
LINE
  5
2A52
330
1E
100
AcDbEntity
  8
7
100
AcDbLine
 10
13.44765537166805
 20
10.09054584674348
 30
0.0
 11
13.44765537166805
 21
10.02755372075923
 31
0.0
  0
LINE
  5
2A53
330
1E
100
AcDbEntity
  8
7
100
AcDbLine
 10
13.50671048977828
 20
10.09054584674348
 30
0.0
 11
13.50671048977828
 21
10.02755372075923
 31
0.0
  0
LINE
  5
2A54
330
1E
100
AcDbEntity
  8
7
100
AcDbLine
 10
4.416159308675922
 20
9.629915925483642
 30
0.0
 11
4.408285292927889
 21
9.629915925483642
 31
0.0
  0
LINE
  5
2A55
330
1E
100
AcDbEntity
  8
7
100
AcDbLine
 10
4.534269544896393
 20
9.744089153830097
 30
0.0
 11
4.530332537022378
 21
9.744089153830097
 31
0.0
  0
LINE
  5
2A56
330
1E
100
AcDbEntity
  8
7
100
AcDbLine
 10
4.546080568518441
 20
10.02755372075923
 30
0.0
 11
4.534269544896393
 21
9.744089153830097
 31
0.0
  0
LINE
  5
2A61
330
1E
100
AcDbEntity
  8
7
100
AcDbLine
 10
13.17600182836096
 20
9.629915925483638
 30
0.0
 11
13.15631678899088
 21
9.629915925483638
 31
0.0
  0
LINE
  5
2A67
330
1E
100
AcDbEntity
  8
7
100
AcDbLine
 10
13.30592308820347
 20
10.02755372075923
 30
0.0
 11
13.29411206458143
 21
9.744089153830097
 31
0.0
  0
LINE
  5
2A72
330
1E
100
AcDbEntity
  8
7
100
AcDbLine
 10
13.36497820631371
 20
4.35038836642852
 30
0.0
 11
13.36497820631371
 21
4.49999466564112
 31
0.0
  0
LINE
  5
2A73
330
1E
100
AcDbEntity
  8
7
100
AcDbLine
 10
13.58545064725859
 20
4.389758445168679
 30
0.0
 11
13.58545064725859
 21
4.464561594774979
 31
0.0
  0
LINE
  5
2A74
330
1E
100
AcDbEntity
  8
7
100
AcDbLine
 10
13.8610411984397
 20
4.464561594774979
 30
0.0
 11
13.8610411984397
 21
4.370073405798601
 31
0.0
  0
LINE
  5
2A75
330
1E
100
AcDbEntity
  8
7
100
AcDbLine
 10
13.77836403308537
 20
4.370073405798601
 30
0.0
 11
13.77836403308537
 21
4.464561594774979
 31
0.0
  0
LINE
  5
2A76
330
1E
100
AcDbEntity
  8
7
100
AcDbLine
 10
13.435844348046
 20
4.476372618397023
 30
0.0
 11
13.44765537166805
 21
4.476372618397023
 31
0.0
  0
LINE
  5
2A77
330
1E
100
AcDbEntity
  8
7
100
AcDbLine
 10
13.55789159214048
 20
4.366136397924583
 30
0.0
 11
13.56576560788852
 21
4.35038836642852
 31
0.0
  0
LINE
  5
2A78
330
1E
100
AcDbEntity
  8
7
100
AcDbLine
 10
13.36497820631371
 20
4.49999466564112
 30
0.0
 11
13.47127741891214
 21
4.49999466564112
 31
0.0
  0
LINE
  5
2A79
330
1E
100
AcDbEntity
  8
7
100
AcDbLine
 10
13.9122223008019
 20
4.440939547530883
 30
0.0
 11
13.935844348046
 21
4.440939547530883
 31
0.0
  0
LINE
  5
2A7A
330
1E
100
AcDbEntity
  8
7
100
AcDbLine
 10
13.58545064725859
 20
4.464561594774979
 30
0.0
 11
13.62088371812474
 21
4.464561594774979
 31
0.0
  0
LINE
  5
2A7B
330
1E
100
AcDbEntity
  8
7
100
AcDbLine
 10
13.61694671025072
 20
4.401569468790727
 30
0.0
 11
13.6366317496208
 21
4.35038836642852
 31
0.0
  0
LINE
  5
2A7C
330
1E
100
AcDbEntity
  8
7
100
AcDbLine
 10
13.64056875749481
 20
4.464561594774979
 30
0.0
 11
13.67206482048694
 21
4.464561594774979
 31
0.0
  0
LINE
  5
2A7D
330
1E
100
AcDbEntity
  8
7
100
AcDbLine
 10
13.90041127717986
 20
4.35038836642852
 30
0.0
 11
13.87285222206174
 21
4.35038836642852
 31
0.0
  0
LINE
  5
2A7E
330
1E
100
AcDbEntity
  8
7
100
AcDbLine
 10
13.87285222206174
 20
4.35038836642852
 30
0.0
 11
13.87285222206174
 21
4.464561594774979
 31
0.0
  0
LINE
  5
2A7F
330
1E
100
AcDbEntity
  8
7
100
AcDbLine
 10
13.50671048977828
 20
4.35038836642852
 30
0.0
 11
13.47127741891214
 21
4.35038836642852
 31
0.0
  0
LINE
  5
2A80
330
1E
100
AcDbEntity
  8
7
100
AcDbLine
 10
13.55001757639245
 20
4.464561594774979
 30
0.0
 11
13.58545064725859
 21
4.389758445168679
 31
0.0
  0
LINE
  5
2A81
330
1E
100
AcDbEntity
  8
7
100
AcDbLine
 10
13.81773411182552
 20
4.464561594774979
 30
0.0
 11
13.81773411182552
 21
4.381884429420646
 31
0.0
  0
LINE
  5
2A82
330
1E
100
AcDbEntity
  8
7
100
AcDbLine
 10
13.71537190710111
 20
4.440939547530883
 30
0.0
 11
13.72718293072316
 21
4.440939547530883
 31
0.0
  0
LINE
  5
2A83
330
1E
100
AcDbEntity
  8
7
100
AcDbLine
 10
13.51852151340033
 20
4.464561594774979
 30
0.0
 11
13.55001757639245
 21
4.464561594774979
 31
0.0
  0
LINE
  5
2A84
330
1E
100
AcDbEntity
  8
7
100
AcDbLine
 10
13.68387584410899
 20
4.35038836642852
 30
0.0
 11
13.68387584410899
 21
4.464561594774979
 31
0.0
  0
LINE
  5
2A85
330
1E
100
AcDbEntity
  8
7
100
AcDbLine
 10
13.435844348046
 20
4.397632460916709
 30
0.0
 11
13.435844348046
 21
4.35038836642852
 31
0.0
  0
LINE
  5
2A86
330
1E
100
AcDbEntity
  8
7
100
AcDbLine
 10
13.55001757639245
 20
4.393695453042694
 30
0.0
 11
13.53426954489639
 21
4.42519151603482
 31
0.0
  0
LINE
  5
2A87
330
1E
100
AcDbEntity
  8
7
100
AcDbLine
 10
13.61694671025072
 20
4.35038836642852
 30
0.0
 11
13.56576560788852
 21
4.35038836642852
 31
0.0
  0
LINE
  5
2A88
330
1E
100
AcDbEntity
  8
7
100
AcDbLine
 10
13.97127741891214
 20
4.35038836642852
 30
0.0
 11
13.97127741891214
 21
4.440939547530883
 31
0.0
  0
LINE
  5
2A89
330
1E
100
AcDbEntity
  8
7
100
AcDbLine
 10
13.8374191511956
 20
4.464561594774979
 30
0.0
 11
13.8610411984397
 21
4.464561594774979
 31
0.0
  0
LINE
  5
2A8A
330
1E
100
AcDbEntity
  8
7
100
AcDbLine
 10
13.64056875749481
 20
4.42519151603482
 30
0.0
 11
13.64056875749481
 21
4.464561594774979
 31
0.0
  0
LINE
  5
2A8B
330
1E
100
AcDbEntity
  8
7
100
AcDbLine
 10
13.67206482048694
 20
4.464561594774979
 30
0.0
 11
13.67206482048694
 21
4.35038836642852
 31
0.0
  0
LINE
  5
2A8C
330
1E
100
AcDbEntity
  8
7
100
AcDbLine
 10
13.73505694647119
 20
4.437002539656868
 30
0.0
 11
13.73505694647119
 21
4.381884429420646
 31
0.0
  0
LINE
  5
2A8D
330
1E
100
AcDbEntity
  8
7
100
AcDbLine
 10
13.99489946615623
 20
4.440939547530883
 30
0.0
 11
13.97127741891214
 21
4.440939547530883
 31
0.0
  0
LINE
  5
2A8E
330
1E
100
AcDbEntity
  8
7
100
AcDbLine
 10
13.435844348046
 20
4.421254508160805
 30
0.0
 11
13.435844348046
 21
4.476372618397023
 31
0.0
  0
LINE
  5
2A8F
330
1E
100
AcDbEntity
  8
7
100
AcDbLine
 10
13.79804907245544
 20
4.35038836642852
 30
0.0
 11
13.84135615906962
 21
4.35038836642852
 31
0.0
  0
LINE
  5
2A90
330
1E
100
AcDbEntity
  8
7
100
AcDbLine
 10
13.435844348046
 20
4.35038836642852
 30
0.0
 11
13.36497820631371
 21
4.35038836642852
 31
0.0
  0
LINE
  5
2A91
330
1E
100
AcDbEntity
  8
7
100
AcDbLine
 10
13.90041127717986
 20
4.35038836642852
 30
0.0
 11
13.90041127717986
 21
4.464561594774979
 31
0.0
  0
LINE
  5
2A92
330
1E
100
AcDbEntity
  8
7
100
AcDbLine
 10
13.82167111969954
 20
4.377947421546631
 30
0.0
 11
13.82954513544757
 21
4.377947421546631
 31
0.0
  0
LINE
  5
2A93
330
1E
100
AcDbEntity
  8
7
100
AcDbLine
 10
13.45552938741607
 20
4.429128523908834
 30
0.0
 11
13.45552938741607
 21
4.468498602648994
 31
0.0
  0
LINE
  5
2A94
330
1E
100
AcDbEntity
  8
7
100
AcDbLine
 10
13.61694671025072
 20
4.35038836642852
 30
0.0
 11
13.61694671025072
 21
4.401569468790727
 31
0.0
  0
LINE
  5
2A95
330
1E
100
AcDbEntity
  8
7
100
AcDbLine
 10
13.435844348046
 20
4.421254508160805
 30
0.0
 11
13.44765537166805
 21
4.421254508160805
 31
0.0
  0
LINE
  5
2A96
330
1E
100
AcDbEntity
  8
7
100
AcDbLine
 10
13.71537190710111
 20
4.377947421546631
 30
0.0
 11
13.72718293072316
 21
4.377947421546631
 31
0.0
  0
LINE
  5
2A97
330
1E
100
AcDbEntity
  8
7
100
AcDbLine
 10
13.74686797009324
 20
4.35038836642852
 30
0.0
 11
13.68387584410899
 21
4.35038836642852
 31
0.0
  0
LINE
  5
2A98
330
1E
100
AcDbEntity
  8
7
100
AcDbLine
 10
13.97127741891214
 20
4.35038836642852
 30
0.0
 11
13.935844348046
 21
4.35038836642852
 31
0.0
  0
LINE
  5
2A99
330
1E
100
AcDbEntity
  8
7
100
AcDbLine
 10
13.77836403308537
 20
4.464561594774979
 30
0.0
 11
13.81773411182552
 21
4.464561594774979
 31
0.0
  0
LINE
  5
2A9A
330
1E
100
AcDbEntity
  8
7
100
AcDbLine
 10
13.51852151340033
 20
4.393695453042694
 30
0.0
 11
13.53426954489639
 21
4.42519151603482
 31
0.0
  0
LINE
  5
2A9B
330
1E
100
AcDbEntity
  8
7
100
AcDbLine
 10
13.51852151340033
 20
4.393695453042694
 30
0.0
 11
13.55001757639245
 21
4.393695453042694
 31
0.0
  0
LINE
  5
2A9C
330
1E
100
AcDbEntity
  8
7
100
AcDbLine
 10
13.76655300946332
 20
4.444876555404897
 30
0.0
 11
13.76655300946332
 21
4.370073405798601
 31
0.0
  0
LINE
  5
2A9D
330
1E
100
AcDbEntity
  8
7
100
AcDbLine
 10
13.8374191511956
 20
4.381884429420646
 30
0.0
 11
13.8374191511956
 21
4.464561594774979
 31
0.0
  0
LINE
  5
2A9E
330
1E
100
AcDbEntity
  8
7
100
AcDbLine
 10
13.67206482048694
 20
4.35038836642852
 30
0.0
 11
13.6366317496208
 21
4.35038836642852
 31
0.0
  0
LINE
  5
2A9F
330
1E
100
AcDbEntity
  8
7
100
AcDbLine
 10
13.64056875749481
 20
4.42519151603482
 30
0.0
 11
13.62088371812474
 21
4.464561594774979
 31
0.0
  0
LINE
  5
2AA0
330
1E
100
AcDbEntity
  8
7
100
AcDbLine
 10
13.435844348046
 20
4.397632460916709
 30
0.0
 11
13.47127741891214
 21
4.397632460916709
 31
0.0
  0
LINE
  5
2AA1
330
1E
100
AcDbEntity
  8
7
100
AcDbLine
 10
13.47127741891214
 20
4.35038836642852
 30
0.0
 11
13.49489946615623
 21
4.401569468790727
 31
0.0
  0
LINE
  5
2AA2
330
1E
100
AcDbEntity
  8
7
100
AcDbLine
 10
13.935844348046
 20
4.35038836642852
 30
0.0
 11
13.935844348046
 21
4.440939547530883
 31
0.0
  0
LINE
  5
2AA3
330
1E
100
AcDbEntity
  8
7
100
AcDbLine
 10
13.99489946615623
 20
4.440939547530883
 30
0.0
 11
13.99489946615623
 21
4.464561594774979
 31
0.0
  0
LINE
  5
2AA4
330
1E
100
AcDbEntity
  8
7
100
AcDbLine
 10
13.68387584410899
 20
4.464561594774979
 30
0.0
 11
13.74686797009324
 21
4.464561594774979
 31
0.0
  0
LINE
  5
2AA5
330
1E
100
AcDbEntity
  8
7
100
AcDbLine
 10
13.9122223008019
 20
4.464561594774979
 30
0.0
 11
13.9122223008019
 21
4.440939547530883
 31
0.0
  0
LINE
  5
2AA6
330
1E
100
AcDbEntity
  8
7
100
AcDbLine
 10
13.87285222206174
 20
4.464561594774979
 30
0.0
 11
13.90041127717986
 21
4.464561594774979
 31
0.0
  0
LINE
  5
2AA7
330
1E
100
AcDbEntity
  8
7
100
AcDbLine
 10
13.9122223008019
 20
4.464561594774979
 30
0.0
 11
13.99489946615623
 21
4.464561594774979
 31
0.0
  0
LINE
  5
2AA8
330
1E
100
AcDbEntity
  8
7
100
AcDbLine
 10
13.51458450552631
 20
4.366136397924583
 30
0.0
 11
13.55789159214048
 21
4.366136397924583
 31
0.0
  0
LINE
  5
2AA9
330
1E
100
AcDbEntity
  8
7
100
AcDbLine
 10
13.71537190710111
 20
4.377947421546631
 30
0.0
 11
13.71537190710111
 21
4.440939547530883
 31
0.0
  0
LINE
  5
2AAA
330
1E
100
AcDbEntity
  8
7
100
AcDbLine
 10
13.50671048977828
 20
4.35038836642852
 30
0.0
 11
13.51458450552631
 21
4.366136397924583
 31
0.0
  0
LINE
  5
2AE7
330
1E
100
AcDbEntity
  8
7
100
AcDbLine
 10
5.502773481904267
 20
4.468498602648994
 30
0.0
 11
5.502773481904267
 21
4.456687579026949
 31
0.0
  0
LINE
  5
2AE8
330
1E
100
AcDbEntity
  8
7
100
AcDbLine
 10
5.502773481904267
 20
4.468498602648994
 30
0.0
 11
4.683875844108989
 21
4.468498602648994
 31
0.0
  0
LINE
  5
2AE9
330
1E
100
AcDbEntity
  8
7
100
AcDbLine
 10
4.676001828360959
 20
4.456687579026949
 30
0.0
 11
4.683875844108989
 21
4.468498602648994
 31
0.0
  0
LINE
  5
2AEA
330
1E
100
AcDbEntity
  8
7
100
AcDbLine
 10
5.502773481904267
 20
4.456687579026949
 30
0.0
 11
4.676001828360959
 21
4.456687579026949
 31
0.0
  0
LINE
  5
2AEB
330
1E
100
AcDbEntity
  8
7
100
AcDbLine
 10
7.270490017337337
 20
5.059049783751357
 30
0.0
 11
7.270490017337337
 21
5.704719075089942
 31
0.0
  0
LINE
  5
2AEC
330
1E
100
AcDbEntity
  8
7
100
AcDbLine
 10
4.738993954345211
 20
5.059049783751357
 30
0.0
 11
4.738993954345211
 21
5.704719075089942
 31
0.0
  0
LINE
  5
2AED
330
1E
100
AcDbEntity
  8
7
100
AcDbLine
 10
5.502773481904267
 20
4.472435610523012
 30
0.0
 11
6.502773481904267
 21
4.472435610523012
 31
0.0
  0
LINE
  5
2AEE
330
1E
100
AcDbEntity
  8
7
100
AcDbLine
 10
5.317734111825529
 20
5.704719075089942
 30
0.0
 11
4.738993954345211
 21
5.704719075089942
 31
0.0
  0
LINE
  5
2AEF
330
1E
100
AcDbEntity
  8
7
100
AcDbLine
 10
5.967340411038126
 20
5.704719075089942
 30
0.0
 11
5.388600253557811
 21
5.704719075089942
 31
0.0
  0
LINE
  5
2AF0
330
1E
100
AcDbEntity
  8
7
100
AcDbLine
 10
5.317734111825529
 20
5.059049783751357
 30
0.0
 11
5.317734111825529
 21
5.704719075089942
 31
0.0
  0
LINE
  5
2AF1
330
1E
100
AcDbEntity
  8
7
100
AcDbLine
 10
5.317734111825529
 20
5.059049783751357
 30
0.0
 11
4.738993954345211
 21
5.059049783751357
 31
0.0
  0
LINE
  5
2AF2
330
1E
100
AcDbEntity
  8
7
100
AcDbLine
 10
5.967340411038126
 20
5.059049783751357
 30
0.0
 11
5.967340411038126
 21
5.704719075089942
 31
0.0
  0
LINE
  5
2AF3
330
1E
100
AcDbEntity
  8
7
100
AcDbLine
 10
5.967340411038126
 20
5.059049783751357
 30
0.0
 11
5.388600253557811
 21
5.059049783751357
 31
0.0
  0
LINE
  5
2AF4
330
1E
100
AcDbEntity
  8
7
100
AcDbLine
 10
5.388600253557811
 20
5.059049783751357
 30
0.0
 11
5.388600253557811
 21
5.704719075089942
 31
0.0
  0
LINE
  5
2AF5
330
1E
100
AcDbEntity
  8
7
100
AcDbLine
 10
6.620883718124737
 20
5.704719075089942
 30
0.0
 11
6.038206552770411
 21
5.704719075089942
 31
0.0
  0
LINE
  5
2AF6
330
1E
100
AcDbEntity
  8
7
100
AcDbLine
 10
6.038206552770411
 20
5.059049783751357
 30
0.0
 11
6.038206552770411
 21
5.704719075089942
 31
0.0
  0
LINE
  5
2AF7
330
1E
100
AcDbEntity
  8
7
100
AcDbLine
 10
6.620883718124737
 20
5.059049783751357
 30
0.0
 11
6.038206552770411
 21
5.059049783751357
 31
0.0
  0
LINE
  5
2AF8
330
1E
100
AcDbEntity
  8
7
100
AcDbLine
 10
6.620883718124737
 20
5.059049783751357
 30
0.0
 11
6.620883718124737
 21
5.704719075089942
 31
0.0
  0
LINE
  5
2AF9
330
1E
100
AcDbEntity
  8
7
100
AcDbLine
 10
7.270490017337337
 20
5.704719075089942
 30
0.0
 11
6.687812851983007
 21
5.704719075089942
 31
0.0
  0
LINE
  5
2AFA
330
1E
100
AcDbEntity
  8
7
100
AcDbLine
 10
6.687812851983007
 20
5.059049783751357
 30
0.0
 11
6.687812851983007
 21
5.704719075089942
 31
0.0
  0
LINE
  5
2AFB
330
1E
100
AcDbEntity
  8
7
100
AcDbLine
 10
7.270490017337337
 20
5.059049783751357
 30
0.0
 11
6.687812851983007
 21
5.059049783751357
 31
0.0
  0
LINE
  5
2AFC
330
1E
100
AcDbEntity
  8
7
100
AcDbLine
 10
6.506710489778281
 20
4.456687579026949
 30
0.0
 11
6.502773481904267
 21
4.468498602648994
 31
0.0
  0
LINE
  5
2AFD
330
1E
100
AcDbEntity
  8
7
100
AcDbLine
 10
7.333482143321589
 20
4.456687579026949
 30
0.0
 11
6.506710489778281
 21
4.456687579026949
 31
0.0
  0
LINE
  5
2AFE
330
1E
100
AcDbEntity
  8
7
100
AcDbLine
 10
7.333482143321589
 20
4.456687579026949
 30
0.0
 11
7.325608127573559
 21
4.468498602648994
 31
0.0
  0
LINE
  5
2AFF
330
1E
100
AcDbEntity
  8
7
100
AcDbLine
 10
7.325608127573559
 20
4.468498602648994
 30
0.0
 11
6.502773481904267
 21
4.468498602648994
 31
0.0
  0
LINE
  5
2B00
330
1E
100
AcDbEntity
  8
7
100
AcDbLine
 10
5.502773481904267
 20
4.468498602648994
 30
0.0
 11
5.502773481904267
 21
4.472435610523012
 31
0.0
  0
LINE
  5
2B01
330
1E
100
AcDbEntity
  8
7
100
AcDbLine
 10
6.502773481904267
 20
4.472435610523012
 30
0.0
 11
6.502773481904267
 21
4.468498602648994
 31
0.0
  0
LINE
  5
2B07
330
1E
100
AcDbEntity
  8
7
100
AcDbLine
 10
7.325608127573559
 20
4.586608838869468
 30
0.0
 11
4.683875844108989
 21
4.586608838869468
 31
0.0
  0
LINE
  5
2B0D
330
1E
100
AcDbEntity
  8
7
100
AcDbLine
 10
4.565765607888518
 20
4.586608838869468
 30
0.0
 11
4.55395458426647
 21
4.578734823121434
 31
0.0
  0
LINE
  5
2B1F
330
1E
100
AcDbEntity
  8
7
100
AcDbLine
 10
7.44371836379403
 20
4.586608838869468
 30
0.0
 11
7.455529387416078
 21
4.578734823121434
 31
0.0
  0
LINE
  5
2B31
330
1E
100
AcDbEntity
  8
7
100
AcDbLine
 10
4.683875844108989
 20
6.153537972727734
 30
0.0
 11
7.325608127573559
 21
6.153537972727734
 31
0.0
  0
LINE
  5
2B32
330
1E
100
AcDbEntity
  8
7
100
AcDbLine
 10
7.325608127573559
 20
6.153537972727734
 30
0.0
 11
7.333482143321589
 21
6.161411988475768
 31
0.0
  0
LINE
  5
2B33
330
1E
100
AcDbEntity
  8
7
100
AcDbLine
 10
7.333482143321589
 20
6.161411988475768
 30
0.0
 11
4.676001828360959
 21
6.161411988475768
 31
0.0
  0
LINE
  5
2B34
330
1E
100
AcDbEntity
  8
7
100
AcDbLine
 10
4.683875844108989
 20
6.153537972727734
 30
0.0
 11
4.676001828360959
 21
6.161411988475768
 31
0.0
  0
LINE
  5
2B35
330
1E
100
AcDbEntity
  8
7
100
AcDbLine
 10
7.325608127573559
 20
6.035427736507264
 30
0.0
 11
4.683875844108989
 21
6.035427736507264
 31
0.0
  0
LINE
  5
2B46
330
1E
100
AcDbEntity
  8
7
100
AcDbLine
 10
4.55395458426647
 20
6.043301752255294
 30
0.0
 11
4.565765607888518
 21
6.035427736507264
 31
0.0
  0
LINE
  5
2B58
330
1E
100
AcDbEntity
  8
7
100
AcDbLine
 10
7.455529387416078
 20
6.043301752255294
 30
0.0
 11
7.44371836379403
 21
6.035427736507264
 31
0.0
  0
LINE
  5
2B64
330
1E
100
AcDbEntity
  8
7
100
AcDbLine
 10
7.325608127573559
 20
6.035427736507264
 30
0.0
 11
7.325608127573559
 21
4.586608838869468
 31
0.0
  0
LINE
  5
2B65
330
1E
100
AcDbEntity
  8
7
100
AcDbLine
 10
7.44371836379403
 20
4.586608838869468
 30
0.0
 11
7.44371836379403
 21
6.035427736507264
 31
0.0
  0
LINE
  5
2B66
330
1E
100
AcDbEntity
  8
7
100
AcDbLine
 10
7.455529387416078
 20
6.043301752255294
 30
0.0
 11
7.455529387416078
 21
4.578734823121434
 31
0.0
  0
LINE
  5
2B67
330
1E
100
AcDbEntity
  8
7
100
AcDbLine
 10
4.565765607888518
 20
4.586608838869468
 30
0.0
 11
4.565765607888518
 21
6.035427736507264
 31
0.0
  0
LINE
  5
2B68
330
1E
100
AcDbEntity
  8
7
100
AcDbLine
 10
4.683875844108989
 20
6.035427736507264
 30
0.0
 11
4.683875844108989
 21
4.586608838869468
 31
0.0
  0
LINE
  5
2B69
330
1E
100
AcDbEntity
  8
7
100
AcDbLine
 10
4.55395458426647
 20
6.043301752255294
 30
0.0
 11
4.55395458426647
 21
4.578734823121434
 31
0.0
  0
LINE
  5
2B6A
330
1E
100
AcDbEntity
  8
7
100
AcDbLine
 10
8.420096316549937
 20
4.468498602648994
 30
0.0
 11
8.416159308675922
 21
4.456687579026949
 31
0.0
  0
LINE
  5
2B6B
330
1E
100
AcDbEntity
  8
7
100
AcDbLine
 10
8.420096316549937
 20
4.468498602648994
 30
0.0
 11
7.597261670880644
 21
4.468498602648994
 31
0.0
  0
LINE
  5
2B6C
330
1E
100
AcDbEntity
  8
7
100
AcDbLine
 10
7.589387655132615
 20
4.456687579026949
 30
0.0
 11
7.597261670880644
 21
4.468498602648994
 31
0.0
  0
LINE
  5
2B6D
330
1E
100
AcDbEntity
  8
7
100
AcDbLine
 10
8.416159308675922
 20
4.456687579026949
 30
0.0
 11
7.589387655132615
 21
4.456687579026949
 31
0.0
  0
LINE
  5
2B6E
330
1E
100
AcDbEntity
  8
7
100
AcDbLine
 10
10.18387584410899
 20
5.059049783751357
 30
0.0
 11
10.18387584410899
 21
5.704719075089942
 31
0.0
  0
LINE
  5
2B6F
330
1E
100
AcDbEntity
  8
7
100
AcDbLine
 10
7.652379781116867
 20
5.059049783751357
 30
0.0
 11
7.652379781116867
 21
5.704719075089942
 31
0.0
  0
LINE
  5
2B70
330
1E
100
AcDbEntity
  8
7
100
AcDbLine
 10
8.420096316549937
 20
4.472435610523012
 30
0.0
 11
9.420096316549937
 21
4.472435610523012
 31
0.0
  0
LINE
  5
2B71
330
1E
100
AcDbEntity
  8
7
100
AcDbLine
 10
8.235056946471196
 20
5.704719075089942
 30
0.0
 11
7.652379781116867
 21
5.704719075089942
 31
0.0
  0
LINE
  5
2B72
330
1E
100
AcDbEntity
  8
7
100
AcDbLine
 10
8.884663245683796
 20
5.704719075089942
 30
0.0
 11
8.305923088203478
 21
5.704719075089942
 31
0.0
  0
LINE
  5
2B73
330
1E
100
AcDbEntity
  8
7
100
AcDbLine
 10
8.235056946471196
 20
5.059049783751357
 30
0.0
 11
8.235056946471196
 21
5.704719075089942
 31
0.0
  0
LINE
  5
2B74
330
1E
100
AcDbEntity
  8
7
100
AcDbLine
 10
8.235056946471196
 20
5.059049783751357
 30
0.0
 11
7.652379781116867
 21
5.059049783751357
 31
0.0
  0
LINE
  5
2B75
330
1E
100
AcDbEntity
  8
7
100
AcDbLine
 10
8.884663245683796
 20
5.059049783751357
 30
0.0
 11
8.884663245683796
 21
5.704719075089942
 31
0.0
  0
LINE
  5
2B76
330
1E
100
AcDbEntity
  8
7
100
AcDbLine
 10
8.884663245683796
 20
5.059049783751357
 30
0.0
 11
8.305923088203478
 21
5.059049783751357
 31
0.0
  0
LINE
  5
2B77
330
1E
100
AcDbEntity
  8
7
100
AcDbLine
 10
8.305923088203478
 20
5.059049783751357
 30
0.0
 11
8.305923088203478
 21
5.704719075089942
 31
0.0
  0
LINE
  5
2B78
330
1E
100
AcDbEntity
  8
7
100
AcDbLine
 10
9.534269544896393
 20
5.704719075089942
 30
0.0
 11
8.955529387416078
 21
5.704719075089942
 31
0.0
  0
LINE
  5
2B79
330
1E
100
AcDbEntity
  8
7
100
AcDbLine
 10
8.955529387416078
 20
5.059049783751357
 30
0.0
 11
8.955529387416078
 21
5.704719075089942
 31
0.0
  0
LINE
  5
2B7A
330
1E
100
AcDbEntity
  8
7
100
AcDbLine
 10
9.534269544896393
 20
5.059049783751357
 30
0.0
 11
8.955529387416078
 21
5.059049783751357
 31
0.0
  0
LINE
  5
2B7B
330
1E
100
AcDbEntity
  8
7
100
AcDbLine
 10
9.534269544896393
 20
5.059049783751357
 30
0.0
 11
9.534269544896393
 21
5.704719075089942
 31
0.0
  0
LINE
  5
2B7C
330
1E
100
AcDbEntity
  8
7
100
AcDbLine
 10
10.18387584410899
 20
5.704719075089942
 30
0.0
 11
9.605135686628678
 21
5.704719075089942
 31
0.0
  0
LINE
  5
2B7D
330
1E
100
AcDbEntity
  8
7
100
AcDbLine
 10
9.605135686628678
 20
5.059049783751357
 30
0.0
 11
9.605135686628678
 21
5.704719075089942
 31
0.0
  0
LINE
  5
2B7E
330
1E
100
AcDbEntity
  8
7
100
AcDbLine
 10
10.18387584410899
 20
5.059049783751357
 30
0.0
 11
9.605135686628678
 21
5.059049783751357
 31
0.0
  0
LINE
  5
2B7F
330
1E
100
AcDbEntity
  8
7
100
AcDbLine
 10
9.420096316549937
 20
4.456687579026949
 30
0.0
 11
9.420096316549937
 21
4.468498602648994
 31
0.0
  0
LINE
  5
2B80
330
1E
100
AcDbEntity
  8
7
100
AcDbLine
 10
10.25080497796726
 20
4.456687579026949
 30
0.0
 11
9.420096316549937
 21
4.456687579026949
 31
0.0
  0
LINE
  5
2B81
330
1E
100
AcDbEntity
  8
7
100
AcDbLine
 10
10.25080497796726
 20
4.456687579026949
 30
0.0
 11
10.23899395434521
 21
4.468498602648994
 31
0.0
  0
LINE
  5
2B82
330
1E
100
AcDbEntity
  8
7
100
AcDbLine
 10
10.23899395434521
 20
4.468498602648994
 30
0.0
 11
9.420096316549937
 21
4.468498602648994
 31
0.0
  0
LINE
  5
2B83
330
1E
100
AcDbEntity
  8
7
100
AcDbLine
 10
8.420096316549937
 20
4.468498602648994
 30
0.0
 11
8.420096316549937
 21
4.472435610523012
 31
0.0
  0
LINE
  5
2B84
330
1E
100
AcDbEntity
  8
7
100
AcDbLine
 10
9.420096316549937
 20
4.472435610523012
 30
0.0
 11
9.420096316549937
 21
4.468498602648994
 31
0.0
  0
LINE
  5
2B8A
330
1E
100
AcDbEntity
  8
7
100
AcDbLine
 10
10.23899395434521
 20
4.586608838869468
 30
0.0
 11
7.597261670880644
 21
4.586608838869468
 31
0.0
  0
LINE
  5
2B90
330
1E
100
AcDbEntity
  8
7
100
AcDbLine
 10
7.479151434660174
 20
4.586608838869468
 30
0.0
 11
7.467340411038126
 21
4.578734823121434
 31
0.0
  0
LINE
  5
2BA2
330
1E
100
AcDbEntity
  8
7
100
AcDbLine
 10
10.36104119843969
 20
4.586608838869468
 30
0.0
 11
10.36891521418773
 21
4.578734823121434
 31
0.0
  0
LINE
  5
2BB4
330
1E
100
AcDbEntity
  8
7
100
AcDbLine
 10
7.597261670880644
 20
6.153537972727734
 30
0.0
 11
10.23899395434521
 21
6.153537972727734
 31
0.0
  0
LINE
  5
2BB5
330
1E
100
AcDbEntity
  8
7
100
AcDbLine
 10
10.23899395434521
 20
6.153537972727734
 30
0.0
 11
10.25080497796726
 21
6.161411988475768
 31
0.0
  0
LINE
  5
2BB6
330
1E
100
AcDbEntity
  8
7
100
AcDbLine
 10
10.25080497796726
 20
6.161411988475768
 30
0.0
 11
7.589387655132615
 21
6.161411988475768
 31
0.0
  0
LINE
  5
2BB7
330
1E
100
AcDbEntity
  8
7
100
AcDbLine
 10
7.597261670880644
 20
6.153537972727734
 30
0.0
 11
7.589387655132615
 21
6.161411988475768
 31
0.0
  0
LINE
  5
2BB8
330
1E
100
AcDbEntity
  8
7
100
AcDbLine
 10
10.23899395434521
 20
6.035427736507264
 30
0.0
 11
7.597261670880644
 21
6.035427736507264
 31
0.0
  0
LINE
  5
2BC9
330
1E
100
AcDbEntity
  8
7
100
AcDbLine
 10
7.467340411038126
 20
6.043301752255294
 30
0.0
 11
7.479151434660174
 21
6.035427736507264
 31
0.0
  0
LINE
  5
2BDB
330
1E
100
AcDbEntity
  8
7
100
AcDbLine
 10
10.36891521418773
 20
6.043301752255294
 30
0.0
 11
10.36104119843969
 21
6.035427736507264
 31
0.0
  0
LINE
  5
2BE7
330
1E
100
AcDbEntity
  8
7
100
AcDbLine
 10
10.23899395434521
 20
6.035427736507264
 30
0.0
 11
10.23899395434521
 21
4.586608838869468
 31
0.0
  0
LINE
  5
2BE8
330
1E
100
AcDbEntity
  8
7
100
AcDbLine
 10
10.36104119843969
 20
4.586608838869468
 30
0.0
 11
10.36104119843969
 21
6.035427736507264
 31
0.0
  0
LINE
  5
2BE9
330
1E
100
AcDbEntity
  8
7
100
AcDbLine
 10
10.36891521418773
 20
6.043301752255294
 30
0.0
 11
10.36891521418773
 21
4.578734823121434
 31
0.0
  0
LINE
  5
2BEA
330
1E
100
AcDbEntity
  8
7
100
AcDbLine
 10
7.479151434660174
 20
4.586608838869468
 30
0.0
 11
7.479151434660174
 21
6.035427736507264
 31
0.0
  0
LINE
  5
2BEB
330
1E
100
AcDbEntity
  8
7
100
AcDbLine
 10
7.597261670880644
 20
6.035427736507264
 30
0.0
 11
7.597261670880644
 21
4.586608838869468
 31
0.0
  0
LINE
  5
2BEC
330
1E
100
AcDbEntity
  8
7
100
AcDbLine
 10
7.467340411038126
 20
6.043301752255294
 30
0.0
 11
7.467340411038126
 21
4.578734823121434
 31
0.0
  0
LINE
  5
2BED
330
1E
100
AcDbEntity
  8
7
100
AcDbLine
 10
9.116946710250722
 20
4.472435610523012
 30
0.0
 11
9.105135686628678
 21
4.362199390050571
 31
0.0
  0
LINE
  5
2BEE
330
1E
100
AcDbEntity
  8
7
100
AcDbLine
 10
8.723245922849148
 20
4.472435610523012
 30
0.0
 11
8.735056946471196
 21
4.362199390050571
 31
0.0
  0
LINE
  5
2BEF
330
1E
100
AcDbEntity
  8
7
100
AcDbLine
 10
11.33348214332158
 20
4.468498602648994
 30
0.0
 11
11.33348214332158
 21
4.456687579026949
 31
0.0
  0
LINE
  5
2BF0
330
1E
100
AcDbEntity
  8
7
100
AcDbLine
 10
11.33348214332158
 20
4.468498602648994
 30
0.0
 11
10.51458450552631
 21
4.468498602648994
 31
0.0
  0
LINE
  5
2BF1
330
1E
100
AcDbEntity
  8
7
100
AcDbLine
 10
10.50277348190426
 20
4.456687579026949
 30
0.0
 11
10.51458450552631
 21
4.468498602648994
 31
0.0
  0
LINE
  5
2BF2
330
1E
100
AcDbEntity
  8
7
100
AcDbLine
 10
11.33348214332158
 20
4.456687579026949
 30
0.0
 11
10.50277348190426
 21
4.456687579026949
 31
0.0
  0
LINE
  5
2BF3
330
1E
100
AcDbEntity
  8
7
100
AcDbLine
 10
13.10119867875465
 20
5.059049783751357
 30
0.0
 11
13.10119867875465
 21
5.704719075089938
 31
0.0
  0
LINE
  5
2BF4
330
1E
100
AcDbEntity
  8
7
100
AcDbLine
 10
10.56970261576253
 20
5.059049783751357
 30
0.0
 11
10.56970261576253
 21
5.704719075089942
 31
0.0
  0
LINE
  5
2BF5
330
1E
100
AcDbEntity
  8
7
100
AcDbLine
 10
11.33348214332158
 20
4.472435610523008
 30
0.0
 11
12.33348214332159
 21
4.472435610523008
 31
0.0
  0
LINE
  5
2BF6
330
1E
100
AcDbEntity
  8
7
100
AcDbLine
 10
11.14844277324284
 20
5.704719075089942
 30
0.0
 11
10.56970261576253
 21
5.704719075089942
 31
0.0
  0
LINE
  5
2BF7
330
1E
100
AcDbEntity
  8
7
100
AcDbLine
 10
11.79804907245544
 20
5.704719075089942
 30
0.0
 11
11.21930891497513
 21
5.704719075089942
 31
0.0
  0
LINE
  5
2BF8
330
1E
100
AcDbEntity
  8
7
100
AcDbLine
 10
11.14844277324284
 20
5.059049783751357
 30
0.0
 11
11.14844277324284
 21
5.704719075089942
 31
0.0
  0
LINE
  5
2BF9
330
1E
100
AcDbEntity
  8
7
100
AcDbLine
 10
11.14844277324284
 20
5.059049783751357
 30
0.0
 11
10.56970261576253
 21
5.059049783751357
 31
0.0
  0
LINE
  5
2BFA
330
1E
100
AcDbEntity
  8
7
100
AcDbLine
 10
11.79804907245544
 20
5.059049783751357
 30
0.0
 11
11.79804907245544
 21
5.704719075089942
 31
0.0
  0
LINE
  5
2BFB
330
1E
100
AcDbEntity
  8
7
100
AcDbLine
 10
11.79804907245544
 20
5.059049783751357
 30
0.0
 11
11.21930891497513
 21
5.059049783751357
 31
0.0
  0
LINE
  5
2BFC
330
1E
100
AcDbEntity
  8
7
100
AcDbLine
 10
11.21930891497513
 20
5.059049783751357
 30
0.0
 11
11.21930891497513
 21
5.704719075089942
 31
0.0
  0
LINE
  5
2BFD
330
1E
100
AcDbEntity
  8
7
100
AcDbLine
 10
12.44765537166804
 20
5.704719075089942
 30
0.0
 11
11.86891521418773
 21
5.704719075089942
 31
0.0
  0
LINE
  5
2BFE
330
1E
100
AcDbEntity
  8
7
100
AcDbLine
 10
11.86891521418773
 20
5.059049783751357
 30
0.0
 11
11.86891521418773
 21
5.704719075089942
 31
0.0
  0
LINE
  5
2BFF
330
1E
100
AcDbEntity
  8
7
100
AcDbLine
 10
12.44765537166804
 20
5.059049783751357
 30
0.0
 11
11.86891521418773
 21
5.059049783751357
 31
0.0
  0
LINE
  5
2C00
330
1E
100
AcDbEntity
  8
7
100
AcDbLine
 10
12.44765537166804
 20
5.059049783751357
 30
0.0
 11
12.44765537166804
 21
5.704719075089942
 31
0.0
  0
LINE
  5
2C01
330
1E
100
AcDbEntity
  8
7
100
AcDbLine
 10
13.10119867875465
 20
5.704719075089938
 30
0.0
 11
12.51852151340033
 21
5.704719075089938
 31
0.0
  0
LINE
  5
2C02
330
1E
100
AcDbEntity
  8
7
100
AcDbLine
 10
12.51852151340033
 20
5.059049783751357
 30
0.0
 11
12.51852151340033
 21
5.704719075089938
 31
0.0
  0
LINE
  5
2C03
330
1E
100
AcDbEntity
  8
7
100
AcDbLine
 10
13.10119867875465
 20
5.059049783751357
 30
0.0
 11
12.51852151340033
 21
5.059049783751357
 31
0.0
  0
LINE
  5
2C04
330
1E
100
AcDbEntity
  8
7
100
AcDbLine
 10
12.3374191511956
 20
4.456687579026949
 30
0.0
 11
12.33348214332159
 21
4.468498602648994
 31
0.0
  0
LINE
  5
2C05
330
1E
100
AcDbEntity
  8
7
100
AcDbLine
 10
13.16419080473891
 20
4.456687579026946
 30
0.0
 11
12.3374191511956
 21
4.456687579026949
 31
0.0
  0
LINE
  5
2C06
330
1E
100
AcDbEntity
  8
7
100
AcDbLine
 10
13.16419080473891
 20
4.456687579026946
 30
0.0
 11
13.15631678899088
 21
4.468498602648994
 31
0.0
  0
LINE
  5
2C07
330
1E
100
AcDbEntity
  8
7
100
AcDbLine
 10
13.15631678899088
 20
4.468498602648994
 30
0.0
 11
12.33348214332159
 21
4.468498602648994
 31
0.0
  0
LINE
  5
2C08
330
1E
100
AcDbEntity
  8
7
100
AcDbLine
 10
11.33348214332158
 20
4.468498602648994
 30
0.0
 11
11.33348214332158
 21
4.472435610523008
 31
0.0
  0
LINE
  5
2C09
330
1E
100
AcDbEntity
  8
7
100
AcDbLine
 10
12.33348214332159
 20
4.472435610523008
 30
0.0
 11
12.33348214332159
 21
4.468498602648994
 31
0.0
  0
LINE
  5
2C0F
330
1E
100
AcDbEntity
  8
7
100
AcDbLine
 10
13.15631678899088
 20
4.586608838869464
 30
0.0
 11
10.51458450552631
 21
4.586608838869468
 31
0.0
  0
LINE
  5
2C15
330
1E
100
AcDbEntity
  8
7
100
AcDbLine
 10
10.39253726143182
 20
4.586608838869468
 30
0.0
 11
10.38466324568379
 21
4.578734823121434
 31
0.0
  0
LINE
  5
2C27
330
1E
100
AcDbEntity
  8
7
100
AcDbLine
 10
13.27442702521135
 20
4.586608838869464
 30
0.0
 11
13.28230104095938
 21
4.578734823121434
 31
0.0
  0
LINE
  5
2C39
330
1E
100
AcDbEntity
  8
7
100
AcDbLine
 10
10.51458450552631
 20
6.153537972727734
 30
0.0
 11
13.15631678899088
 21
6.153537972727734
 31
0.0
  0
LINE
  5
2C3A
330
1E
100
AcDbEntity
  8
7
100
AcDbLine
 10
13.15631678899088
 20
6.153537972727734
 30
0.0
 11
13.16419080473891
 21
6.161411988475764
 31
0.0
  0
LINE
  5
2C3B
330
1E
100
AcDbEntity
  8
7
100
AcDbLine
 10
13.16419080473891
 20
6.161411988475764
 30
0.0
 11
10.50277348190426
 21
6.161411988475768
 31
0.0
  0
LINE
  5
2C3C
330
1E
100
AcDbEntity
  8
7
100
AcDbLine
 10
10.51458450552631
 20
6.153537972727734
 30
0.0
 11
10.50277348190426
 21
6.161411988475768
 31
0.0
  0
LINE
  5
2C3D
330
1E
100
AcDbEntity
  8
7
100
AcDbLine
 10
13.15631678899088
 20
6.03542773650726
 30
0.0
 11
10.51458450552631
 21
6.035427736507264
 31
0.0
  0
LINE
  5
2C4E
330
1E
100
AcDbEntity
  8
7
100
AcDbLine
 10
10.38466324568379
 20
6.043301752255294
 30
0.0
 11
10.39253726143182
 21
6.035427736507264
 31
0.0
  0
LINE
  5
2C60
330
1E
100
AcDbEntity
  8
7
100
AcDbLine
 10
13.28230104095938
 20
6.043301752255294
 30
0.0
 11
13.27442702521135
 21
6.03542773650726
 31
0.0
  0
LINE
  5
2C6C
330
1E
100
AcDbEntity
  8
7
100
AcDbLine
 10
13.15631678899088
 20
6.03542773650726
 30
0.0
 11
13.15631678899088
 21
4.586608838869464
 31
0.0
  0
LINE
  5
2C6D
330
1E
100
AcDbEntity
  8
7
100
AcDbLine
 10
13.27442702521135
 20
4.586608838869464
 30
0.0
 11
13.27442702521135
 21
6.03542773650726
 31
0.0
  0
LINE
  5
2C6E
330
1E
100
AcDbEntity
  8
7
100
AcDbLine
 10
13.28230104095938
 20
6.043301752255294
 30
0.0
 11
13.28230104095938
 21
4.578734823121434
 31
0.0
  0
LINE
  5
2C6F
330
1E
100
AcDbEntity
  8
7
100
AcDbLine
 10
10.39253726143182
 20
4.586608838869468
 30
0.0
 11
10.39253726143182
 21
6.035427736507264
 31
0.0
  0
LINE
  5
2C70
330
1E
100
AcDbEntity
  8
7
100
AcDbLine
 10
10.51458450552631
 20
6.035427736507264
 30
0.0
 11
10.51458450552631
 21
4.586608838869468
 31
0.0
  0
LINE
  5
2C71
330
1E
100
AcDbEntity
  8
7
100
AcDbLine
 10
10.38466324568379
 20
6.043301752255294
 30
0.0
 11
10.38466324568379
 21
4.578734823121434
 31
0.0
  0
LINE
  5
2C72
330
1E
100
AcDbEntity
  8
7
100
AcDbLine
 10
-3.241321006284707
 20
4.468498602648997
 30
0.0
 11
-3.241321006284707
 21
4.456687579026949
 31
0.0
  0
LINE
  5
2C73
330
1E
100
AcDbEntity
  8
7
100
AcDbLine
 10
-3.241321006284707
 20
4.468498602648997
 30
0.0
 11
-4.060218644079984
 21
4.468498602648997
 31
0.0
  0
LINE
  5
2C74
330
1E
100
AcDbEntity
  8
7
100
AcDbLine
 10
-4.072029667702032
 20
4.456687579026949
 30
0.0
 11
-4.060218644079984
 21
4.468498602648997
 31
0.0
  0
LINE
  5
2C75
330
1E
100
AcDbEntity
  8
7
100
AcDbLine
 10
-3.241321006284707
 20
4.456687579026949
 30
0.0
 11
-4.072029667702032
 21
4.456687579026949
 31
0.0
  0
LINE
  5
2C76
330
1E
100
AcDbEntity
  8
7
100
AcDbLine
 10
-1.477541478725653
 20
5.05904978375136
 30
0.0
 11
-1.477541478725653
 21
5.704719075089942
 31
0.0
  0
LINE
  5
2C77
330
1E
100
AcDbEntity
  8
7
100
AcDbLine
 10
-4.005100533843762
 20
5.05904978375136
 30
0.0
 11
-4.005100533843762
 21
5.704719075089942
 31
0.0
  0
LINE
  5
2C78
330
1E
100
AcDbEntity
  8
7
100
AcDbLine
 10
-3.241321006284707
 20
4.472435610523012
 30
0.0
 11
-2.241321006284708
 21
4.472435610523012
 31
0.0
  0
LINE
  5
2C79
330
1E
100
AcDbEntity
  8
7
100
AcDbLine
 10
-3.426360376363447
 20
5.704719075089942
 30
0.0
 11
-4.005100533843762
 21
5.704719075089942
 31
0.0
  0
LINE
  5
2C7A
330
1E
100
AcDbEntity
  8
7
100
AcDbLine
 10
-2.776754077150851
 20
5.704719075089942
 30
0.0
 11
-3.355494234631166
 21
5.704719075089942
 31
0.0
  0
LINE
  5
2C7B
330
1E
100
AcDbEntity
  8
7
100
AcDbLine
 10
-3.426360376363447
 20
5.05904978375136
 30
0.0
 11
-3.426360376363447
 21
5.704719075089942
 31
0.0
  0
LINE
  5
2C7C
330
1E
100
AcDbEntity
  8
7
100
AcDbLine
 10
-3.426360376363447
 20
5.05904978375136
 30
0.0
 11
-4.005100533843762
 21
5.05904978375136
 31
0.0
  0
LINE
  5
2C7D
330
1E
100
AcDbEntity
  8
7
100
AcDbLine
 10
-2.776754077150851
 20
5.05904978375136
 30
0.0
 11
-2.776754077150851
 21
5.704719075089942
 31
0.0
  0
LINE
  5
2C7E
330
1E
100
AcDbEntity
  8
7
100
AcDbLine
 10
-2.776754077150851
 20
5.05904978375136
 30
0.0
 11
-3.355494234631166
 21
5.05904978375136
 31
0.0
  0
LINE
  5
2C7F
330
1E
100
AcDbEntity
  8
7
100
AcDbLine
 10
-3.355494234631166
 20
5.05904978375136
 30
0.0
 11
-3.355494234631166
 21
5.704719075089942
 31
0.0
  0
LINE
  5
2C80
330
1E
100
AcDbEntity
  8
7
100
AcDbLine
 10
-2.127147777938251
 20
5.704719075089942
 30
0.0
 11
-2.705887935418566
 21
5.704719075089942
 31
0.0
  0
LINE
  5
2C81
330
1E
100
AcDbEntity
  8
7
100
AcDbLine
 10
-2.705887935418566
 20
5.05904978375136
 30
0.0
 11
-2.705887935418566
 21
5.704719075089942
 31
0.0
  0
LINE
  5
2C82
330
1E
100
AcDbEntity
  8
7
100
AcDbLine
 10
-2.127147777938251
 20
5.05904978375136
 30
0.0
 11
-2.705887935418566
 21
5.05904978375136
 31
0.0
  0
LINE
  5
2C83
330
1E
100
AcDbEntity
  8
7
100
AcDbLine
 10
-2.127147777938251
 20
5.05904978375136
 30
0.0
 11
-2.127147777938251
 21
5.704719075089942
 31
0.0
  0
LINE
  5
2C84
330
1E
100
AcDbEntity
  8
7
100
AcDbLine
 10
-1.477541478725653
 20
5.704719075089942
 30
0.0
 11
-2.056281636205969
 21
5.704719075089942
 31
0.0
  0
LINE
  5
2C85
330
1E
100
AcDbEntity
  8
7
100
AcDbLine
 10
-2.056281636205969
 20
5.05904978375136
 30
0.0
 11
-2.056281636205969
 21
5.704719075089942
 31
0.0
  0
LINE
  5
2C86
330
1E
100
AcDbEntity
  8
7
100
AcDbLine
 10
-1.477541478725653
 20
5.05904978375136
 30
0.0
 11
-2.056281636205969
 21
5.05904978375136
 31
0.0
  0
LINE
  5
2C87
330
1E
100
AcDbEntity
  8
7
100
AcDbLine
 10
-2.241321006284708
 20
4.456687579026949
 30
0.0
 11
-2.241321006284708
 21
4.468498602648997
 31
0.0
  0
LINE
  5
2C88
330
1E
100
AcDbEntity
  8
7
100
AcDbLine
 10
-1.410612344867384
 20
4.456687579026949
 30
0.0
 11
-2.241321006284708
 21
4.456687579026949
 31
0.0
  0
LINE
  5
2C89
330
1E
100
AcDbEntity
  8
7
100
AcDbLine
 10
-1.410612344867384
 20
4.456687579026949
 30
0.0
 11
-1.422423368489432
 21
4.468498602648997
 31
0.0
  0
LINE
  5
2C8A
330
1E
100
AcDbEntity
  8
7
100
AcDbLine
 10
-1.422423368489432
 20
4.468498602648997
 30
0.0
 11
-2.241321006284708
 21
4.468498602648997
 31
0.0
  0
LINE
  5
2C8B
330
1E
100
AcDbEntity
  8
7
100
AcDbLine
 10
-3.241321006284707
 20
4.468498602648997
 30
0.0
 11
-3.241321006284707
 21
4.472435610523012
 31
0.0
  0
LINE
  5
2C8C
330
1E
100
AcDbEntity
  8
7
100
AcDbLine
 10
-2.241321006284708
 20
4.472435610523012
 30
0.0
 11
-2.241321006284708
 21
4.468498602648997
 31
0.0
  0
LINE
  5
2C92
330
1E
100
AcDbEntity
  8
7
100
AcDbLine
 10
-1.422423368489432
 20
4.586608838869468
 30
0.0
 11
-4.060218644079984
 21
4.586608838869468
 31
0.0
  0
LINE
  5
2C98
330
1E
100
AcDbEntity
  8
7
100
AcDbLine
 10
-4.182265888174473
 20
4.586608838869468
 30
0.0
 11
-4.190139903922503
 21
4.578734823121438
 31
0.0
  0
LINE
  5
2CAA
330
1E
100
AcDbEntity
  8
7
100
AcDbLine
 10
-1.300376124394945
 20
4.586608838869468
 30
0.0
 11
-1.292502108646914
 21
4.578734823121438
 31
0.0
  0
LINE
  5
2CBC
330
1E
100
AcDbEntity
  8
7
100
AcDbLine
 10
-4.060218644079984
 20
6.153537972727738
 30
0.0
 11
-1.422423368489432
 21
6.153537972727738
 31
0.0
  0
LINE
  5
2CBD
330
1E
100
AcDbEntity
  8
7
100
AcDbLine
 10
-1.422423368489432
 20
6.153537972727738
 30
0.0
 11
-1.410612344867384
 21
6.161411988475768
 31
0.0
  0
LINE
  5
2CBE
330
1E
100
AcDbEntity
  8
7
100
AcDbLine
 10
-1.410612344867384
 20
6.161411988475768
 30
0.0
 11
-4.072029667702032
 21
6.161411988475768
 31
0.0
  0
LINE
  5
2CBF
330
1E
100
AcDbEntity
  8
7
100
AcDbLine
 10
-4.060218644079984
 20
6.153537972727738
 30
0.0
 11
-4.072029667702032
 21
6.161411988475768
 31
0.0
  0
LINE
  5
2CC0
330
1E
100
AcDbEntity
  8
7
100
AcDbLine
 10
-1.422423368489432
 20
6.035427736507264
 30
0.0
 11
-4.060218644079984
 21
6.035427736507264
 31
0.0
  0
LINE
  5
2CD1
330
1E
100
AcDbEntity
  8
7
100
AcDbLine
 10
-4.190139903922503
 20
6.043301752255297
 30
0.0
 11
-4.182265888174473
 21
6.035427736507264
 31
0.0
  0
LINE
  5
2CE3
330
1E
100
AcDbEntity
  8
7
100
AcDbLine
 10
-1.292502108646914
 20
6.043301752255297
 30
0.0
 11
-1.300376124394945
 21
6.035427736507264
 31
0.0
  0
LINE
  5
2CEF
330
1E
100
AcDbEntity
  8
7
100
AcDbLine
 10
-1.422423368489432
 20
6.035427736507264
 30
0.0
 11
-1.422423368489432
 21
4.586608838869468
 31
0.0
  0
LINE
  5
2CF0
330
1E
100
AcDbEntity
  8
7
100
AcDbLine
 10
-1.300376124394945
 20
4.586608838869468
 30
0.0
 11
-1.300376124394945
 21
6.035427736507264
 31
0.0
  0
LINE
  5
2CF1
330
1E
100
AcDbEntity
  8
7
100
AcDbLine
 10
-1.292502108646914
 20
6.043301752255297
 30
0.0
 11
-1.292502108646914
 21
4.578734823121438
 31
0.0
  0
LINE
  5
2CF2
330
1E
100
AcDbEntity
  8
7
100
AcDbLine
 10
-4.182265888174473
 20
4.586608838869468
 30
0.0
 11
-4.182265888174473
 21
6.035427736507264
 31
0.0
  0
LINE
  5
2CF3
330
1E
100
AcDbEntity
  8
7
100
AcDbLine
 10
-4.060218644079984
 20
6.035427736507264
 30
0.0
 11
-4.060218644079984
 21
4.586608838869468
 31
0.0
  0
LINE
  5
2CF4
330
1E
100
AcDbEntity
  8
7
100
AcDbLine
 10
-4.190139903922503
 20
6.043301752255297
 30
0.0
 11
-4.190139903922503
 21
4.578734823121438
 31
0.0
  0
LINE
  5
2CF5
330
1E
100
AcDbEntity
  8
7
100
AcDbLine
 10
-0.3279351795130552
 20
4.468498602648997
 30
0.0
 11
-0.3279351795130552
 21
4.456687579026949
 31
0.0
  0
LINE
  5
2CF6
330
1E
100
AcDbEntity
  8
7
100
AcDbLine
 10
-0.3279351795130552
 20
4.468498602648997
 30
0.0
 11
-1.146832817308331
 21
4.468498602648997
 31
0.0
  0
LINE
  5
2CF7
330
1E
100
AcDbEntity
  8
7
100
AcDbLine
 10
-1.154706833056362
 20
4.456687579026949
 30
0.0
 11
-1.146832817308331
 21
4.468498602648997
 31
0.0
  0
LINE
  5
2CF8
330
1E
100
AcDbEntity
  8
7
100
AcDbLine
 10
-0.3279351795130552
 20
4.456687579026949
 30
0.0
 11
-1.154706833056362
 21
4.456687579026949
 31
0.0
  0
LINE
  5
2CF9
330
1E
100
AcDbEntity
  8
7
100
AcDbLine
 10
1.439781355920015
 20
5.05904978375136
 30
0.0
 11
1.439781355920015
 21
5.704719075089942
 31
0.0
  0
LINE
  5
2CFA
330
1E
100
AcDbEntity
  8
7
100
AcDbLine
 10
-1.09171470707211
 20
5.05904978375136
 30
0.0
 11
-1.09171470707211
 21
5.704719075089942
 31
0.0
  0
LINE
  5
2CFB
330
1E
100
AcDbEntity
  8
7
100
AcDbLine
 10
-0.3239981716390403
 20
4.472435610523012
 30
0.0
 11
0.6760018283609597
 21
4.472435610523012
 31
0.0
  0
LINE
  5
2CFC
330
1E
100
AcDbEntity
  8
7
100
AcDbLine
 10
-0.5090375417177793
 20
5.704719075089942
 30
0.0
 11
-1.09171470707211
 21
5.704719075089942
 31
0.0
  0
LINE
  5
2CFD
330
1E
100
AcDbEntity
  8
7
100
AcDbLine
 10
0.1405687574948189
 20
5.704719075089942
 30
0.0
 11
-0.4421084078595126
 21
5.704719075089942
 31
0.0
  0
LINE
  5
2CFE
330
1E
100
AcDbEntity
  8
7
100
AcDbLine
 10
-0.5090375417177793
 20
5.05904978375136
 30
0.0
 11
-0.5090375417177793
 21
5.704719075089942
 31
0.0
  0
LINE
  5
2CFF
330
1E
100
AcDbEntity
  8
7
100
AcDbLine
 10
-0.5090375417177793
 20
5.05904978375136
 30
0.0
 11
-1.09171470707211
 21
5.05904978375136
 31
0.0
  0
LINE
  5
2D00
330
1E
100
AcDbEntity
  8
7
100
AcDbLine
 10
0.1405687574948189
 20
5.05904978375136
 30
0.0
 11
0.1405687574948189
 21
5.704719075089942
 31
0.0
  0
LINE
  5
2D01
330
1E
100
AcDbEntity
  8
7
100
AcDbLine
 10
0.1405687574948189
 20
5.05904978375136
 30
0.0
 11
-0.4421084078595126
 21
5.05904978375136
 31
0.0
  0
LINE
  5
2D02
330
1E
100
AcDbEntity
  8
7
100
AcDbLine
 10
-0.4421084078595126
 20
5.05904978375136
 30
0.0
 11
-0.4421084078595126
 21
5.704719075089942
 31
0.0
  0
LINE
  5
2D03
330
1E
100
AcDbEntity
  8
7
100
AcDbLine
 10
0.7901750567074171
 20
5.704719075089942
 30
0.0
 11
0.2074978913530856
 21
5.704719075089942
 31
0.0
  0
LINE
  5
2D04
330
1E
100
AcDbEntity
  8
7
100
AcDbLine
 10
0.2074978913530856
 20
5.05904978375136
 30
0.0
 11
0.2074978913530856
 21
5.704719075089942
 31
0.0
  0
LINE
  5
2D05
330
1E
100
AcDbEntity
  8
7
100
AcDbLine
 10
0.7901750567074171
 20
5.05904978375136
 30
0.0
 11
0.2074978913530856
 21
5.05904978375136
 31
0.0
  0
LINE
  5
2D06
330
1E
100
AcDbEntity
  8
7
100
AcDbLine
 10
0.7901750567074171
 20
5.05904978375136
 30
0.0
 11
0.7901750567074171
 21
5.704719075089942
 31
0.0
  0
LINE
  5
2D07
330
1E
100
AcDbEntity
  8
7
100
AcDbLine
 10
1.439781355920015
 20
5.704719075089942
 30
0.0
 11
0.8610411984397003
 21
5.704719075089942
 31
0.0
  0
LINE
  5
2D08
330
1E
100
AcDbEntity
  8
7
100
AcDbLine
 10
0.8610411984397003
 20
5.05904978375136
 30
0.0
 11
0.8610411984397003
 21
5.704719075089942
 31
0.0
  0
LINE
  5
2D09
330
1E
100
AcDbEntity
  8
7
100
AcDbLine
 10
1.439781355920015
 20
5.05904978375136
 30
0.0
 11
0.8610411984397003
 21
5.05904978375136
 31
0.0
  0
LINE
  5
2D0A
330
1E
100
AcDbEntity
  8
7
100
AcDbLine
 10
0.6760018283609597
 20
4.456687579026949
 30
0.0
 11
0.6760018283609597
 21
4.468498602648997
 31
0.0
  0
LINE
  5
2D0B
330
1E
100
AcDbEntity
  8
7
100
AcDbLine
 10
1.502773481904267
 20
4.456687579026949
 30
0.0
 11
0.6760018283609597
 21
4.456687579026949
 31
0.0
  0
LINE
  5
2D0C
330
1E
100
AcDbEntity
  8
7
100
AcDbLine
 10
1.502773481904267
 20
4.456687579026949
 30
0.0
 11
1.494899466156235
 21
4.468498602648994
 31
0.0
  0
LINE
  5
2D0D
330
1E
100
AcDbEntity
  8
7
100
AcDbLine
 10
1.494899466156235
 20
4.468498602648994
 30
0.0
 11
0.6760018283609597
 21
4.468498602648997
 31
0.0
  0
LINE
  5
2D0E
330
1E
100
AcDbEntity
  8
7
100
AcDbLine
 10
-0.3279351795130552
 20
4.468498602648997
 30
0.0
 11
-0.3239981716390403
 21
4.472435610523012
 31
0.0
  0
LINE
  5
2D0F
330
1E
100
AcDbEntity
  8
7
100
AcDbLine
 10
0.6760018283609597
 20
4.472435610523012
 30
0.0
 11
0.6760018283609597
 21
4.468498602648997
 31
0.0
  0
LINE
  5
2D15
330
1E
100
AcDbEntity
  8
7
100
AcDbLine
 10
1.494899466156235
 20
4.586608838869468
 30
0.0
 11
-1.146832817308331
 21
4.586608838869468
 31
0.0
  0
LINE
  5
2D1B
330
1E
100
AcDbEntity
  8
7
100
AcDbLine
 10
-1.264943053528803
 20
4.586608838869468
 30
0.0
 11
-1.276754077150851
 21
4.578734823121438
 31
0.0
  0
LINE
  5
2D2D
330
1E
100
AcDbEntity
  8
7
100
AcDbLine
 10
1.613009702376707
 20
4.586608838869468
 30
0.0
 11
1.624820725998755
 21
4.578734823121438
 31
0.0
  0
LINE
  5
2D3F
330
1E
100
AcDbEntity
  8
7
100
AcDbLine
 10
-1.146832817308331
 20
6.153537972727738
 30
0.0
 11
1.494899466156235
 21
6.153537972727738
 31
0.0
  0
LINE
  5
2D40
330
1E
100
AcDbEntity
  8
7
100
AcDbLine
 10
1.494899466156235
 20
6.153537972727738
 30
0.0
 11
1.502773481904267
 21
6.161411988475768
 31
0.0
  0
LINE
  5
2D41
330
1E
100
AcDbEntity
  8
7
100
AcDbLine
 10
1.502773481904267
 20
6.161411988475768
 30
0.0
 11
-1.154706833056362
 21
6.161411988475768
 31
0.0
  0
LINE
  5
2D42
330
1E
100
AcDbEntity
  8
7
100
AcDbLine
 10
-1.146832817308331
 20
6.153537972727738
 30
0.0
 11
-1.154706833056362
 21
6.161411988475768
 31
0.0
  0
LINE
  5
2D43
330
1E
100
AcDbEntity
  8
7
100
AcDbLine
 10
1.494899466156235
 20
6.035427736507264
 30
0.0
 11
-1.146832817308331
 21
6.035427736507264
 31
0.0
  0
LINE
  5
2D54
330
1E
100
AcDbEntity
  8
7
100
AcDbLine
 10
-1.276754077150851
 20
6.043301752255297
 30
0.0
 11
-1.264943053528803
 21
6.035427736507264
 31
0.0
  0
LINE
  5
2D66
330
1E
100
AcDbEntity
  8
7
100
AcDbLine
 10
1.624820725998755
 20
6.043301752255297
 30
0.0
 11
1.613009702376707
 21
6.035427736507264
 31
0.0
  0
LINE
  5
2D72
330
1E
100
AcDbEntity
  8
7
100
AcDbLine
 10
1.494899466156235
 20
6.035427736507264
 30
0.0
 11
1.494899466156235
 21
4.586608838869468
 31
0.0
  0
LINE
  5
2D73
330
1E
100
AcDbEntity
  8
7
100
AcDbLine
 10
1.613009702376707
 20
4.586608838869468
 30
0.0
 11
1.613009702376707
 21
6.035427736507264
 31
0.0
  0
LINE
  5
2D74
330
1E
100
AcDbEntity
  8
7
100
AcDbLine
 10
1.624820725998755
 20
6.043301752255297
 30
0.0
 11
1.624820725998755
 21
4.578734823121438
 31
0.0
  0
LINE
  5
2D75
330
1E
100
AcDbEntity
  8
7
100
AcDbLine
 10
-1.264943053528803
 20
4.586608838869468
 30
0.0
 11
-1.264943053528803
 21
6.035427736507264
 31
0.0
  0
LINE
  5
2D76
330
1E
100
AcDbEntity
  8
7
100
AcDbLine
 10
-1.146832817308331
 20
6.035427736507264
 30
0.0
 11
-1.146832817308331
 21
4.586608838869468
 31
0.0
  0
LINE
  5
2D77
330
1E
100
AcDbEntity
  8
7
100
AcDbLine
 10
-1.276754077150851
 20
6.043301752255297
 30
0.0
 11
-1.276754077150851
 21
4.578734823121438
 31
0.0
  0
LINE
  5
2D78
330
1E
100
AcDbEntity
  8
7
100
AcDbLine
 10
0.3728522220617485
 20
4.472435610523012
 30
0.0
 11
0.3610411984397004
 21
4.362199390050571
 31
0.0
  0
LINE
  5
2D79
330
1E
100
AcDbEntity
  8
7
100
AcDbLine
 10
-0.0247855732138422
 20
4.472435610523012
 30
0.0
 11
-0.0129745495917959
 21
4.362199390050571
 31
0.0
  0
LINE
  5
2D7A
330
1E
100
AcDbEntity
  8
7
100
AcDbLine
 10
2.589387655132613
 20
4.468498602648994
 30
0.0
 11
2.589387655132613
 21
4.456687579026949
 31
0.0
  0
LINE
  5
2D7B
330
1E
100
AcDbEntity
  8
7
100
AcDbLine
 10
2.589387655132613
 20
4.468498602648994
 30
0.0
 11
1.770490017337339
 21
4.468498602648994
 31
0.0
  0
LINE
  5
2D7C
330
1E
100
AcDbEntity
  8
7
100
AcDbLine
 10
1.758678993715291
 20
4.456687579026949
 30
0.0
 11
1.770490017337339
 21
4.468498602648994
 31
0.0
  0
LINE
  5
2D7D
330
1E
100
AcDbEntity
  8
7
100
AcDbLine
 10
2.589387655132613
 20
4.456687579026949
 30
0.0
 11
1.758678993715291
 21
4.456687579026949
 31
0.0
  0
LINE
  5
2D7E
330
1E
100
AcDbEntity
  8
7
100
AcDbLine
 10
4.353167182691668
 20
5.059049783751357
 30
0.0
 11
4.353167182691668
 21
5.704719075089942
 31
0.0
  0
LINE
  5
2D7F
330
1E
100
AcDbEntity
  8
7
100
AcDbLine
 10
1.825608127573559
 20
5.059049783751357
 30
0.0
 11
1.825608127573559
 21
5.704719075089942
 31
0.0
  0
LINE
  5
2D80
330
1E
100
AcDbEntity
  8
7
100
AcDbLine
 10
2.589387655132613
 20
4.472435610523012
 30
0.0
 11
3.589387655132613
 21
4.472435610523012
 31
0.0
  0
LINE
  5
2D81
330
1E
100
AcDbEntity
  8
7
100
AcDbLine
 10
2.404348285053874
 20
5.704719075089942
 30
0.0
 11
1.825608127573559
 21
5.704719075089942
 31
0.0
  0
LINE
  5
2D82
330
1E
100
AcDbEntity
  8
7
100
AcDbLine
 10
3.053954584266472
 20
5.704719075089942
 30
0.0
 11
2.475214426786157
 21
5.704719075089942
 31
0.0
  0
LINE
  5
2D83
330
1E
100
AcDbEntity
  8
7
100
AcDbLine
 10
2.404348285053874
 20
5.059049783751357
 30
0.0
 11
2.404348285053874
 21
5.704719075089942
 31
0.0
  0
LINE
  5
2D84
330
1E
100
AcDbEntity
  8
7
100
AcDbLine
 10
2.404348285053874
 20
5.059049783751357
 30
0.0
 11
1.825608127573559
 21
5.059049783751357
 31
0.0
  0
LINE
  5
2D85
330
1E
100
AcDbEntity
  8
7
100
AcDbLine
 10
3.053954584266472
 20
5.059049783751357
 30
0.0
 11
3.053954584266472
 21
5.704719075089942
 31
0.0
  0
LINE
  5
2D86
330
1E
100
AcDbEntity
  8
7
100
AcDbLine
 10
3.053954584266472
 20
5.059049783751357
 30
0.0
 11
2.475214426786157
 21
5.059049783751357
 31
0.0
  0
LINE
  5
2D87
330
1E
100
AcDbEntity
  8
7
100
AcDbLine
 10
2.475214426786157
 20
5.059049783751357
 30
0.0
 11
2.475214426786157
 21
5.704719075089942
 31
0.0
  0
LINE
  5
2D88
330
1E
100
AcDbEntity
  8
7
100
AcDbLine
 10
3.70356088347907
 20
5.704719075089942
 30
0.0
 11
3.124820725998755
 21
5.704719075089942
 31
0.0
  0
LINE
  5
2D89
330
1E
100
AcDbEntity
  8
7
100
AcDbLine
 10
3.124820725998755
 20
5.059049783751357
 30
0.0
 11
3.124820725998755
 21
5.704719075089942
 31
0.0
  0
LINE
  5
2D8A
330
1E
100
AcDbEntity
  8
7
100
AcDbLine
 10
3.70356088347907
 20
5.059049783751357
 30
0.0
 11
3.124820725998755
 21
5.059049783751357
 31
0.0
  0
LINE
  5
2D8B
330
1E
100
AcDbEntity
  8
7
100
AcDbLine
 10
3.70356088347907
 20
5.059049783751357
 30
0.0
 11
3.70356088347907
 21
5.704719075089942
 31
0.0
  0
LINE
  5
2D8C
330
1E
100
AcDbEntity
  8
7
100
AcDbLine
 10
4.353167182691668
 20
5.704719075089942
 30
0.0
 11
3.774427025211354
 21
5.704719075089942
 31
0.0
  0
LINE
  5
2D8D
330
1E
100
AcDbEntity
  8
7
100
AcDbLine
 10
3.774427025211354
 20
5.059049783751357
 30
0.0
 11
3.774427025211354
 21
5.704719075089942
 31
0.0
  0
LINE
  5
2D8E
330
1E
100
AcDbEntity
  8
7
100
AcDbLine
 10
4.353167182691668
 20
5.059049783751357
 30
0.0
 11
3.774427025211354
 21
5.059049783751357
 31
0.0
  0
LINE
  5
2D8F
330
1E
100
AcDbEntity
  8
7
100
AcDbLine
 10
3.589387655132613
 20
4.456687579026949
 30
0.0
 11
3.589387655132613
 21
4.468498602648994
 31
0.0
  0
LINE
  5
2D90
330
1E
100
AcDbEntity
  8
7
100
AcDbLine
 10
4.420096316549937
 20
4.456687579026949
 30
0.0
 11
3.589387655132613
 21
4.456687579026949
 31
0.0
  0
LINE
  5
2D91
330
1E
100
AcDbEntity
  8
7
100
AcDbLine
 10
4.420096316549937
 20
4.456687579026949
 30
0.0
 11
4.408285292927889
 21
4.468498602648994
 31
0.0
  0
LINE
  5
2D92
330
1E
100
AcDbEntity
  8
7
100
AcDbLine
 10
4.408285292927889
 20
4.468498602648994
 30
0.0
 11
3.589387655132613
 21
4.468498602648994
 31
0.0
  0
LINE
  5
2D93
330
1E
100
AcDbEntity
  8
7
100
AcDbLine
 10
2.589387655132613
 20
4.468498602648994
 30
0.0
 11
2.589387655132613
 21
4.472435610523012
 31
0.0
  0
LINE
  5
2D94
330
1E
100
AcDbEntity
  8
7
100
AcDbLine
 10
3.589387655132613
 20
4.472435610523012
 30
0.0
 11
3.589387655132613
 21
4.468498602648994
 31
0.0
  0
LINE
  5
2D9A
330
1E
100
AcDbEntity
  8
7
100
AcDbLine
 10
4.408285292927889
 20
4.586608838869468
 30
0.0
 11
1.770490017337339
 21
4.586608838869468
 31
0.0
  0
LINE
  5
2DA0
330
1E
100
AcDbEntity
  8
7
100
AcDbLine
 10
1.64844277324285
 20
4.586608838869468
 30
0.0
 11
1.640568757494818
 21
4.578734823121438
 31
0.0
  0
LINE
  5
2DB2
330
1E
100
AcDbEntity
  8
7
100
AcDbLine
 10
4.530332537022378
 20
4.586608838869468
 30
0.0
 11
4.538206552770411
 21
4.578734823121434
 31
0.0
  0
LINE
  5
2DC4
330
1E
100
AcDbEntity
  8
7
100
AcDbLine
 10
1.770490017337339
 20
6.153537972727738
 30
0.0
 11
4.408285292927889
 21
6.153537972727734
 31
0.0
  0
LINE
  5
2DC5
330
1E
100
AcDbEntity
  8
7
100
AcDbLine
 10
4.408285292927889
 20
6.153537972727734
 30
0.0
 11
4.420096316549937
 21
6.161411988475768
 31
0.0
  0
LINE
  5
2DC6
330
1E
100
AcDbEntity
  8
7
100
AcDbLine
 10
4.420096316549937
 20
6.161411988475768
 30
0.0
 11
1.758678993715291
 21
6.161411988475768
 31
0.0
  0
LINE
  5
2DC7
330
1E
100
AcDbEntity
  8
7
100
AcDbLine
 10
1.770490017337339
 20
6.153537972727738
 30
0.0
 11
1.758678993715291
 21
6.161411988475768
 31
0.0
  0
LINE
  5
2DC8
330
1E
100
AcDbEntity
  8
7
100
AcDbLine
 10
4.408285292927889
 20
6.035427736507264
 30
0.0
 11
1.770490017337339
 21
6.035427736507264
 31
0.0
  0
LINE
  5
2DD9
330
1E
100
AcDbEntity
  8
7
100
AcDbLine
 10
1.640568757494818
 20
6.043301752255297
 30
0.0
 11
1.64844277324285
 21
6.035427736507264
 31
0.0
  0
LINE
  5
2DEB
330
1E
100
AcDbEntity
  8
7
100
AcDbLine
 10
4.538206552770411
 20
6.043301752255294
 30
0.0
 11
4.530332537022378
 21
6.035427736507264
 31
0.0
  0
LINE
  5
2DF7
330
1E
100
AcDbEntity
  8
7
100
AcDbLine
 10
4.408285292927889
 20
6.035427736507264
 30
0.0
 11
4.408285292927889
 21
4.586608838869468
 31
0.0
  0
LINE
  5
2DF8
330
1E
100
AcDbEntity
  8
7
100
AcDbLine
 10
4.530332537022378
 20
4.586608838869468
 30
0.0
 11
4.530332537022378
 21
6.035427736507264
 31
0.0
  0
LINE
  5
2DF9
330
1E
100
AcDbEntity
  8
7
100
AcDbLine
 10
4.538206552770411
 20
6.043301752255294
 30
0.0
 11
4.538206552770411
 21
4.578734823121434
 31
0.0
  0
LINE
  5
2DFA
330
1E
100
AcDbEntity
  8
7
100
AcDbLine
 10
1.64844277324285
 20
4.586608838869468
 30
0.0
 11
1.64844277324285
 21
6.035427736507264
 31
0.0
  0
LINE
  5
2DFB
330
1E
100
AcDbEntity
  8
7
100
AcDbLine
 10
1.770490017337339
 20
6.035427736507264
 30
0.0
 11
1.770490017337339
 21
4.586608838869468
 31
0.0
  0
LINE
  5
2DFC
330
1E
100
AcDbEntity
  8
7
100
AcDbLine
 10
1.640568757494818
 20
6.043301752255297
 30
0.0
 11
1.640568757494818
 21
4.578734823121438
 31
0.0
  0
LINE
  5
2DFD
330
1E
100
AcDbEntity
  8
7
100
AcDbLine
 10
3.286238048833402
 20
4.472435610523012
 30
0.0
 11
3.274427025211354
 21
4.362199390050571
 31
0.0
  0
LINE
  5
2DFE
330
1E
100
AcDbEntity
  8
7
100
AcDbLine
 10
2.892537261431826
 20
4.472435610523012
 30
0.0
 11
2.904348285053874
 21
4.362199390050571
 31
0.0
  0
LINE
  5
2E08
330
1E
100
AcDbEntity
  8
7
100
AcDbLine
 10
13.64844277324285
 20
4.031490728633245
 30
0.0
 11
13.76655300946332
 21
4.031490728633245
 31
0.0
  0
LINE
  5
2E12
330
1E
100
AcDbEntity
  8
7
100
AcDbLine
 10
13.76655300946332
 20
4.314955295562379
 30
0.0
 11
13.64844277324285
 21
4.314955295562379
 31
0.0
  0
LINE
  5
2E1C
330
1E
100
AcDbEntity
  8
7
100
AcDbLine
 10
13.64844277324285
 20
4.531490728633245
 30
0.0
 11
13.76655300946332
 21
4.531490728633245
 31
0.0
  0
LINE
  5
2E26
330
1E
100
AcDbEntity
  8
7
100
AcDbLine
 10
13.76655300946332
 20
4.814955295562379
 30
0.0
 11
13.64844277324285
 21
4.814955295562379
 31
0.0
  0
LINE
  5
2E30
330
1E
100
AcDbEntity
  8
7
100
AcDbLine
 10
-4.67439187242644
 20
4.031490728633249
 30
0.0
 11
-4.552344628331955
 21
4.031490728633249
 31
0.0
  0
LINE
  5
2E3A
330
1E
100
AcDbEntity
  8
7
100
AcDbLine
 10
-4.552344628331955
 20
4.314955295562382
 30
0.0
 11
-4.67439187242644
 21
4.314955295562382
 31
0.0
  0
LINE
  5
2E44
330
1E
100
AcDbEntity
  8
7
100
AcDbLine
 10
-4.67439187242644
 20
4.531490728633249
 30
0.0
 11
-4.552344628331955
 21
4.531490728633249
 31
0.0
  0
LINE
  5
2E4E
330
1E
100
AcDbEntity
  8
7
100
AcDbLine
 10
-4.552344628331955
 20
4.814955295562382
 30
0.0
 11
-4.67439187242644
 21
4.814955295562382
 31
0.0
  0
LINE
  5
2E4F
330
1E
100
AcDbEntity
  8
7
100
AcDbLine
 10
-4.552344628331955
 20
5.783459232570256
 30
0.0
 11
-4.67439187242644
 21
5.783459232570256
 31
0.0
  0
LINE
  5
2E59
330
1E
100
AcDbEntity
  8
7
100
AcDbLine
 10
-4.67439187242644
 20
6.062986791625375
 30
0.0
 11
-4.552344628331955
 21
6.062986791625375
 31
0.0
  0
LINE
  5
2E63
330
1E
100
AcDbEntity
  8
7
100
AcDbLine
 10
-4.552344628331955
 20
2.783459232570256
 30
0.0
 11
-4.67439187242644
 21
2.783459232570256
 31
0.0
  0
LINE
  5
2E6D
330
1E
100
AcDbEntity
  8
7
100
AcDbLine
 10
-4.67439187242644
 20
3.062986791625375
 30
0.0
 11
-4.552344628331955
 21
3.062986791625375
 31
0.0
  0
LINE
  5
2E77
330
1E
100
AcDbEntity
  8
7
100
AcDbLine
 10
14.04608056851844
 20
3.283459232570253
 30
0.0
 11
14.04608056851844
 21
2.748026161704112
 31
0.0
  0
LINE
  5
2E78
330
1E
100
AcDbEntity
  8
7
100
AcDbLine
 10
14.04608056851844
 20
3.283459232570253
 30
0.0
 11
13.92009631654993
 21
3.409443484538757
 31
0.0
  0
LINE
  5
2E79
330
1E
100
AcDbEntity
  8
7
100
AcDbLine
 10
13.92009631654993
 20
3.409443484538757
 30
0.0
 11
13.60513568662867
 21
3.409443484538757
 31
0.0
  0
LINE
  5
2E83
330
1E
100
AcDbEntity
  8
7
100
AcDbLine
 10
13.60513568662867
 20
3.688971043593875
 30
0.0
 11
14.04608056851844
 21
3.688971043593875
 31
0.0
  0
LINE
  5
2E84
330
1E
100
AcDbEntity
  8
7
100
AcDbLine
 10
14.04608056851844
 20
5.157474980601749
 30
0.0
 11
14.04608056851844
 21
3.688971043593875
 31
0.0
  0
LINE
  5
2E85
330
1E
100
AcDbEntity
  8
7
100
AcDbLine
 10
14.04608056851844
 20
5.157474980601749
 30
0.0
 11
13.60513568662867
 21
5.157474980601749
 31
0.0
  0
LINE
  5
2E8F
330
1E
100
AcDbEntity
  8
7
100
AcDbLine
 10
13.60513568662867
 20
5.437002539656868
 30
0.0
 11
14.04608056851844
 21
5.437002539656868
 31
0.0
  0
LINE
  5
2E90
330
1E
100
AcDbEntity
  8
7
100
AcDbLine
 10
14.04608056851844
 20
6.098419862491512
 30
0.0
 11
14.04608056851844
 21
5.437002539656868
 31
0.0
  0
LINE
  5
2E96
330
1E
100
AcDbEntity
  8
7
100
AcDbLine
 10
13.50671048977828
 20
6.157474980601749
 30
0.0
 11
13.9870254504082
 21
6.157474980601749
 31
0.0
  0
LINE
  5
2EA1
330
1E
100
AcDbEntity
  8
7
100
AcDbLine
 10
13.38860025355781
 20
6.039364744381275
 30
0.0
 11
13.28230104095938
 21
6.039364744381275
 31
0.0
  0
LINE
  5
2EA2
330
1E
100
AcDbEntity
  8
7
100
AcDbLine
 10
10.38466324568379
 20
6.039364744381279
 30
0.0
 11
10.36891521418773
 21
6.039364744381279
 31
0.0
  0
LINE
  5
2EA3
330
1E
100
AcDbEntity
  8
7
100
AcDbLine
 10
7.467340411038126
 20
6.039364744381279
 30
0.0
 11
7.455529387416078
 21
6.039364744381279
 31
0.0
  0
LINE
  5
2EA4
330
1E
100
AcDbEntity
  8
7
100
AcDbLine
 10
4.55395458426647
 20
6.039364744381279
 30
0.0
 11
4.538206552770411
 21
6.039364744381279
 31
0.0
  0
LINE
  5
2EA5
330
1E
100
AcDbEntity
  8
7
100
AcDbLine
 10
1.640568757494818
 20
6.039364744381279
 30
0.0
 11
1.624820725998755
 21
6.039364744381279
 31
0.0
  0
LINE
  5
2EA6
330
1E
100
AcDbEntity
  8
7
100
AcDbLine
 10
-1.276754077150851
 20
6.039364744381279
 30
0.0
 11
-1.292502108646914
 21
6.039364744381279
 31
0.0
  0
LINE
  5
2EA7
330
1E
100
AcDbEntity
  8
7
100
AcDbLine
 10
-4.190139903922503
 20
6.039364744381279
 30
0.0
 11
-4.292502108646914
 21
6.039364744381279
 31
0.0
  0
LINE
  5
2EB2
330
1E
100
AcDbEntity
  8
7
100
AcDbLine
 10
-4.894864313371321
 20
6.157474980601753
 30
0.0
 11
-4.414549352741399
 21
6.157474980601753
 31
0.0
  0
LINE
  5
2EB8
330
1E
100
AcDbEntity
  8
7
100
AcDbLine
 10
-4.953919431481558
 20
5.437002539656871
 30
0.0
 11
-4.953919431481558
 21
6.098419862491516
 31
0.0
  0
LINE
  5
2EB9
330
1E
100
AcDbEntity
  8
7
100
AcDbLine
 10
-4.953919431481558
 20
5.437002539656871
 30
0.0
 11
-4.512974549591795
 21
5.437002539656871
 31
0.0
  0
LINE
  5
2EC3
330
1E
100
AcDbEntity
  8
7
100
AcDbLine
 10
-4.512974549591795
 20
5.157474980601753
 30
0.0
 11
-4.953919431481558
 21
5.157474980601753
 31
0.0
  0
LINE
  5
2EC4
330
1E
100
AcDbEntity
  8
7
100
AcDbLine
 10
-4.953919431481558
 20
3.688971043593879
 30
0.0
 11
-4.953919431481558
 21
5.157474980601753
 31
0.0
  0
LINE
  5
2EC5
330
1E
100
AcDbEntity
  8
7
100
AcDbLine
 10
-4.953919431481558
 20
3.688971043593879
 30
0.0
 11
-4.512974549591795
 21
3.688971043593879
 31
0.0
  0
LINE
  5
2ECF
330
1E
100
AcDbEntity
  8
7
100
AcDbLine
 10
-4.512974549591795
 20
3.40944348453876
 30
0.0
 11
-4.953919431481558
 21
3.40944348453876
 31
0.0
  0
LINE
  5
2ED0
330
1E
100
AcDbEntity
  8
7
100
AcDbLine
 10
-4.953919431481558
 20
2.748026161704116
 30
0.0
 11
-4.953919431481558
 21
3.40944348453876
 31
0.0
  0
LINE
  5
2ED6
330
1E
100
AcDbEntity
  8
7
100
AcDbLine
 10
-4.414549352741399
 20
2.688971043593879
 30
0.0
 11
-4.894864313371321
 21
2.688971043593879
 31
0.0
  0
LINE
  5
2EE1
330
1E
100
AcDbEntity
  8
7
100
AcDbLine
 10
-4.292502108646914
 20
2.807081279814353
 30
0.0
 11
-4.178328880300458
 21
2.807081279814353
 31
0.0
  0
LINE
  5
2EE2
330
1E
100
AcDbEntity
  8
7
100
AcDbLine
 10
-1.300376124394945
 20
2.807081279814353
 30
0.0
 11
-1.264943053528803
 21
2.807081279814353
 31
0.0
  0
LINE
  5
2EE3
330
1E
100
AcDbEntity
  8
7
100
AcDbLine
 10
1.613009702376707
 20
2.807081279814349
 30
0.0
 11
1.656316788990881
 21
2.807081279814349
 31
0.0
  0
LINE
  5
2EE4
330
1E
100
AcDbEntity
  8
7
100
AcDbLine
 10
4.534269544896393
 20
2.807081279814349
 30
0.0
 11
4.565765607888518
 21
2.807081279814349
 31
0.0
  0
LINE
  5
2EE5
330
1E
100
AcDbEntity
  8
7
100
AcDbLine
 10
7.44371836379403
 20
2.807081279814349
 30
0.0
 11
7.479151434660174
 21
2.807081279814349
 31
0.0
  0
LINE
  5
2EE6
330
1E
100
AcDbEntity
  8
7
100
AcDbLine
 10
10.35710419056568
 20
2.807081279814349
 30
0.0
 11
10.41615930867592
 21
2.807081279814349
 31
0.0
  0
LINE
  5
2EE7
330
1E
100
AcDbEntity
  8
7
100
AcDbLine
 10
13.29411206458143
 20
2.807081279814349
 30
0.0
 11
13.38860025355781
 21
2.807081279814349
 31
0.0
  0
LINE
  5
2EF2
330
1E
100
AcDbEntity
  8
7
100
AcDbLine
 10
13.9870254504082
 20
2.688971043593875
 30
0.0
 11
13.50671048977828
 21
2.688971043593875
 31
0.0
  0
LINE
  5
2EF8
330
1E
100
AcDbEntity
  8
7
100
AcDbLine
 10
13.76655300946332
 20
5.783459232570253
 30
0.0
 11
13.64844277324285
 21
5.783459232570253
 31
0.0
  0
LINE
  5
2F02
330
1E
100
AcDbEntity
  8
7
100
AcDbLine
 10
13.64844277324285
 20
6.062986791625371
 30
0.0
 11
13.76655300946332
 21
6.062986791625371
 31
0.0
  0
LINE
  5
2F0C
330
1E
100
AcDbEntity
  8
7
100
AcDbLine
 10
13.76655300946332
 20
2.783459232570253
 30
0.0
 11
13.64844277324285
 21
2.783459232570253
 31
0.0
  0
LINE
  5
2F16
330
1E
100
AcDbEntity
  8
7
100
AcDbLine
 10
13.64844277324285
 20
3.062986791625371
 30
0.0
 11
13.76655300946332
 21
3.062986791625371
 31
0.0
  0
LINE
  5
2F47
330
1E
100
AcDbEntity
  8
7
100
AcDbLine
 10
-4.233446990536677
 20
6.157474980601753
 30
0.0
 11
-4.103525730694158
 21
6.157474980601753
 31
0.0
  0
LINE
  5
2F48
330
1E
100
AcDbEntity
  8
7
100
AcDbLine
 10
-1.375179274001244
 20
6.157474980601753
 30
0.0
 11
-1.190139903922503
 21
6.157474980601753
 31
0.0
  0
LINE
  5
2F49
330
1E
100
AcDbEntity
  8
7
100
AcDbLine
 10
1.538206552770409
 20
6.157474980601753
 30
0.0
 11
1.723245922849148
 21
6.157474980601753
 31
0.0
  0
LINE
  5
2F4A
330
1E
100
AcDbEntity
  8
7
100
AcDbLine
 10
4.455529387416078
 20
6.157474980601753
 30
0.0
 11
4.640568757494818
 21
6.157474980601753
 31
0.0
  0
LINE
  5
2F4B
330
1E
100
AcDbEntity
  8
7
100
AcDbLine
 10
7.368915214187733
 20
6.157474980601753
 30
0.0
 11
7.55395458426647
 21
6.157474980601753
 31
0.0
  0
LINE
  5
2F4C
330
1E
100
AcDbEntity
  8
7
100
AcDbLine
 10
10.28230104095938
 20
6.157474980601753
 30
0.0
 11
10.47127741891214
 21
6.157474980601753
 31
0.0
  0
LINE
  5
2F4D
330
1E
100
AcDbEntity
  8
7
100
AcDbLine
 10
13.19962387560505
 20
6.157474980601749
 30
0.0
 11
13.32560812757356
 21
6.157474980601749
 31
0.0
  0
LINE
  5
2F4E
330
1E
100
AcDbEntity
  8
7
100
AcDbLine
 10
13.32560812757356
 20
2.688971043593875
 30
0.0
 11
12.04608056851844
 21
2.688971043593875
 31
0.0
  0
LINE
  5
2F4F
330
1E
100
AcDbEntity
  8
7
100
AcDbLine
 10
11.66419080473891
 20
2.688971043593875
 30
0.0
 11
9.109072694502692
 21
2.688971043593879
 31
0.0
  0
LINE
  5
2F50
330
1E
100
AcDbEntity
  8
7
100
AcDbLine
 10
8.727182930723163
 20
2.688971043593879
 30
0.0
 11
6.195686867731037
 21
2.688971043593879
 31
0.0
  0
LINE
  5
2F51
330
1E
100
AcDbEntity
  8
7
100
AcDbLine
 10
5.813797103951511
 20
2.688971043593879
 30
0.0
 11
3.286238048833402
 21
2.688971043593879
 31
0.0
  0
LINE
  5
2F52
330
1E
100
AcDbEntity
  8
7
100
AcDbLine
 10
2.904348285053874
 20
2.688971043593879
 30
0.0
 11
0.364978206313717
 21
2.688971043593879
 31
0.0
  0
LINE
  5
2F53
330
1E
100
AcDbEntity
  8
7
100
AcDbLine
 10
-0.0169115574658108
 20
2.688971043593879
 30
0.0
 11
-2.548407620457936
 21
2.688971043593879
 31
0.0
  0
LINE
  5
2F54
330
1E
100
AcDbEntity
  8
7
100
AcDbLine
 10
-2.930297384237464
 20
2.688971043593879
 30
0.0
 11
-4.233446990536677
 21
2.688971043593879
 31
0.0
  0
LINE
  5
2F62
330
1E
100
AcDbEntity
  8
7
100
AcDbLine
 10
-4.272817069276836
 20
4.499994665641123
 30
0.0
 11
-4.272817069276836
 21
4.346451358554508
 31
0.0
  0
LINE
  5
2F63
330
1E
100
AcDbEntity
  8
7
100
AcDbLine
 10
-4.902738329119355
 20
4.499994665641123
 30
0.0
 11
-4.272817069276836
 21
4.499994665641123
 31
0.0
  0
LINE
  5
2F64
330
1E
100
AcDbEntity
  8
7
100
AcDbLine
 10
-4.902738329119355
 20
4.346451358554508
 30
0.0
 11
-4.902738329119355
 21
4.499994665641123
 31
0.0
  0
LINE
  5
2F65
330
1E
100
AcDbEntity
  8
7
100
AcDbLine
 10
-4.272817069276836
 20
4.346451358554508
 30
0.0
 11
-4.902738329119355
 21
4.346451358554508
 31
0.0
  0
LINE
  5
2F66
330
1E
100
AcDbEntity
  8
7
100
AcDbLine
 10
2.59332466300663
 20
2.748026161704112
 30
0.0
 11
2.59332466300663
 21
2.740152145956082
 31
0.0
  0
LINE
  5
2F67
330
1E
100
AcDbEntity
  8
7
100
AcDbLine
 10
2.59332466300663
 20
2.748026161704112
 30
0.0
 11
1.774427025211354
 21
2.748026161704112
 31
0.0
  0
LINE
  5
2F68
330
1E
100
AcDbEntity
  8
7
100
AcDbLine
 10
1.762616001589307
 20
2.740152145956082
 30
0.0
 11
1.774427025211354
 21
2.748026161704112
 31
0.0
  0
LINE
  5
2F69
330
1E
100
AcDbEntity
  8
7
100
AcDbLine
 10
2.59332466300663
 20
2.740152145956082
 30
0.0
 11
1.762616001589307
 21
2.740152145956082
 31
0.0
  0
LINE
  5
2F6A
330
1E
100
AcDbEntity
  8
7
100
AcDbLine
 10
4.3610411984397
 20
3.338577342806475
 30
0.0
 11
4.3610411984397
 21
3.984246634145057
 31
0.0
  0
LINE
  5
2F6B
330
1E
100
AcDbEntity
  8
7
100
AcDbLine
 10
1.829545135447574
 20
3.338577342806475
 30
0.0
 11
1.829545135447574
 21
3.98424663414506
 31
0.0
  0
LINE
  5
2F6C
330
1E
100
AcDbEntity
  8
7
100
AcDbLine
 10
2.59332466300663
 20
2.751963169578131
 30
0.0
 11
3.59332466300663
 21
2.751963169578131
 31
0.0
  0
LINE
  5
2F6D
330
1E
100
AcDbEntity
  8
7
100
AcDbLine
 10
2.408285292927889
 20
3.98424663414506
 30
0.0
 11
1.829545135447574
 21
3.98424663414506
 31
0.0
  0
LINE
  5
2F6E
330
1E
100
AcDbEntity
  8
7
100
AcDbLine
 10
3.057891592140487
 20
3.98424663414506
 30
0.0
 11
2.479151434660172
 21
3.98424663414506
 31
0.0
  0
LINE
  5
2F6F
330
1E
100
AcDbEntity
  8
7
100
AcDbLine
 10
2.408285292927889
 20
3.338577342806475
 30
0.0
 11
2.408285292927889
 21
3.98424663414506
 31
0.0
  0
LINE
  5
2F70
330
1E
100
AcDbEntity
  8
7
100
AcDbLine
 10
2.408285292927889
 20
3.338577342806475
 30
0.0
 11
1.829545135447574
 21
3.338577342806475
 31
0.0
  0
LINE
  5
2F71
330
1E
100
AcDbEntity
  8
7
100
AcDbLine
 10
3.057891592140487
 20
3.338577342806475
 30
0.0
 11
3.057891592140487
 21
3.98424663414506
 31
0.0
  0
LINE
  5
2F72
330
1E
100
AcDbEntity
  8
7
100
AcDbLine
 10
3.057891592140487
 20
3.338577342806475
 30
0.0
 11
2.479151434660172
 21
3.338577342806475
 31
0.0
  0
LINE
  5
2F73
330
1E
100
AcDbEntity
  8
7
100
AcDbLine
 10
2.479151434660172
 20
3.338577342806475
 30
0.0
 11
2.479151434660172
 21
3.98424663414506
 31
0.0
  0
LINE
  5
2F74
330
1E
100
AcDbEntity
  8
7
100
AcDbLine
 10
3.707497891353085
 20
3.984246634145057
 30
0.0
 11
3.12875773387277
 21
3.98424663414506
 31
0.0
  0
LINE
  5
2F75
330
1E
100
AcDbEntity
  8
7
100
AcDbLine
 10
3.12875773387277
 20
3.338577342806475
 30
0.0
 11
3.12875773387277
 21
3.98424663414506
 31
0.0
  0
LINE
  5
2F76
330
1E
100
AcDbEntity
  8
7
100
AcDbLine
 10
3.707497891353085
 20
3.338577342806475
 30
0.0
 11
3.12875773387277
 21
3.338577342806475
 31
0.0
  0
LINE
  5
2F77
330
1E
100
AcDbEntity
  8
7
100
AcDbLine
 10
3.707497891353085
 20
3.338577342806475
 30
0.0
 11
3.707497891353085
 21
3.984246634145057
 31
0.0
  0
LINE
  5
2F78
330
1E
100
AcDbEntity
  8
7
100
AcDbLine
 10
4.3610411984397
 20
3.984246634145057
 30
0.0
 11
3.77836403308537
 21
3.984246634145057
 31
0.0
  0
LINE
  5
2F79
330
1E
100
AcDbEntity
  8
7
100
AcDbLine
 10
3.77836403308537
 20
3.338577342806475
 30
0.0
 11
3.77836403308537
 21
3.984246634145057
 31
0.0
  0
LINE
  5
2F7A
330
1E
100
AcDbEntity
  8
7
100
AcDbLine
 10
4.3610411984397
 20
3.338577342806475
 30
0.0
 11
3.77836403308537
 21
3.338577342806475
 31
0.0
  0
LINE
  5
2F7B
330
1E
100
AcDbEntity
  8
7
100
AcDbLine
 10
3.597261670880644
 20
2.740152145956082
 30
0.0
 11
3.59332466300663
 21
2.748026161704112
 31
0.0
  0
LINE
  5
2F7C
330
1E
100
AcDbEntity
  8
7
100
AcDbLine
 10
4.424033324423952
 20
2.740152145956082
 30
0.0
 11
3.597261670880644
 21
2.740152145956082
 31
0.0
  0
LINE
  5
2F7D
330
1E
100
AcDbEntity
  8
7
100
AcDbLine
 10
4.424033324423952
 20
2.740152145956082
 30
0.0
 11
4.416159308675918
 21
2.748026161704112
 31
0.0
  0
LINE
  5
2F7E
330
1E
100
AcDbEntity
  8
7
100
AcDbLine
 10
4.416159308675918
 20
2.748026161704112
 30
0.0
 11
3.59332466300663
 21
2.748026161704112
 31
0.0
  0
LINE
  5
2F7F
330
1E
100
AcDbEntity
  8
7
100
AcDbLine
 10
2.59332466300663
 20
2.748026161704112
 30
0.0
 11
2.59332466300663
 21
2.751963169578131
 31
0.0
  0
LINE
  5
2F80
330
1E
100
AcDbEntity
  8
7
100
AcDbLine
 10
3.59332466300663
 20
2.751963169578131
 30
0.0
 11
3.59332466300663
 21
2.748026161704112
 31
0.0
  0
LINE
  5
2F86
330
1E
100
AcDbEntity
  8
7
100
AcDbLine
 10
4.416159308675918
 20
2.870073405798601
 30
0.0
 11
1.774427025211354
 21
2.870073405798601
 31
0.0
  0
LINE
  5
2F8C
330
1E
100
AcDbEntity
  8
7
100
AcDbLine
 10
1.652379781116865
 20
2.870073405798601
 30
0.0
 11
1.644505765368833
 21
2.858262382176556
 31
0.0
  0
LINE
  5
2F9E
330
1E
100
AcDbEntity
  8
7
100
AcDbLine
 10
4.534269544896393
 20
2.870073405798601
 30
0.0
 11
4.546080568518441
 21
2.858262382176556
 31
0.0
  0
LINE
  5
2FB0
330
1E
100
AcDbEntity
  8
7
100
AcDbLine
 10
1.774427025211354
 20
4.433065531782853
 30
0.0
 11
4.416159308675918
 21
4.433065531782853
 31
0.0
  0
LINE
  5
2FB1
330
1E
100
AcDbEntity
  8
7
100
AcDbLine
 10
4.416159308675918
 20
4.433065531782853
 30
0.0
 11
4.424033324423952
 21
4.444876555404901
 31
0.0
  0
LINE
  5
2FB2
330
1E
100
AcDbEntity
  8
7
100
AcDbLine
 10
4.424033324423952
 20
4.444876555404901
 30
0.0
 11
3.282301040959385
 21
4.444876555404901
 31
0.0
  0
LINE
  5
2FB3
330
1E
100
AcDbEntity
  8
7
100
AcDbLine
 10
2.892537261431826
 20
4.444876555404901
 30
0.0
 11
1.762616001589307
 21
4.444876555404901
 31
0.0
  0
LINE
  5
2FB4
330
1E
100
AcDbEntity
  8
7
100
AcDbLine
 10
1.774427025211354
 20
4.433065531782853
 30
0.0
 11
1.762616001589307
 21
4.444876555404901
 31
0.0
  0
LINE
  5
2FB5
330
1E
100
AcDbEntity
  8
7
100
AcDbLine
 10
4.416159308675918
 20
4.314955295562382
 30
0.0
 11
1.774427025211354
 21
4.314955295562382
 31
0.0
  0
LINE
  5
2FC6
330
1E
100
AcDbEntity
  8
7
100
AcDbLine
 10
1.644505765368833
 20
4.322829311310416
 30
0.0
 11
1.652379781116865
 21
4.314955295562382
 31
0.0
  0
LINE
  5
2FD8
330
1E
100
AcDbEntity
  8
7
100
AcDbLine
 10
4.546080568518441
 20
4.322829311310412
 30
0.0
 11
4.534269544896393
 21
4.314955295562382
 31
0.0
  0
LINE
  5
2FE4
330
1E
100
AcDbEntity
  8
7
100
AcDbLine
 10
4.416159308675918
 20
4.314955295562382
 30
0.0
 11
4.416159308675918
 21
2.870073405798601
 31
0.0
  0
LINE
  5
2FE5
330
1E
100
AcDbEntity
  8
7
100
AcDbLine
 10
4.534269544896393
 20
2.870073405798601
 30
0.0
 11
4.534269544896393
 21
4.314955295562382
 31
0.0
  0
LINE
  5
2FE6
330
1E
100
AcDbEntity
  8
7
100
AcDbLine
 10
4.546080568518441
 20
4.322829311310412
 30
0.0
 11
4.546080568518441
 21
2.858262382176556
 31
0.0
  0
LINE
  5
2FE7
330
1E
100
AcDbEntity
  8
7
100
AcDbLine
 10
1.652379781116865
 20
2.870073405798601
 30
0.0
 11
1.652379781116865
 21
4.314955295562382
 31
0.0
  0
LINE
  5
2FE8
330
1E
100
AcDbEntity
  8
7
100
AcDbLine
 10
1.774427025211354
 20
4.314955295562382
 30
0.0
 11
1.774427025211354
 21
2.870073405798601
 31
0.0
  0
LINE
  5
2FE9
330
1E
100
AcDbEntity
  8
7
100
AcDbLine
 10
1.644505765368833
 20
4.322829311310416
 30
0.0
 11
1.644505765368833
 21
2.858262382176556
 31
0.0
  0
LINE
  5
2FEA
330
1E
100
AcDbEntity
  8
7
100
AcDbLine
 10
3.27836403308537
 20
2.64172694910569
 30
0.0
 11
2.908285292927889
 21
2.64172694910569
 31
0.0
  0
LINE
  5
2FEB
330
1E
100
AcDbEntity
  8
7
100
AcDbLine
 10
3.290175056707417
 20
2.751963169578131
 30
0.0
 11
3.27836403308537
 21
2.64172694910569
 31
0.0
  0
LINE
  5
2FEC
330
1E
100
AcDbEntity
  8
7
100
AcDbLine
 10
2.896474269305842
 20
2.751963169578131
 30
0.0
 11
2.908285292927889
 21
2.64172694910569
 31
0.0
  0
LINE
  5
2FED
330
1E
100
AcDbEntity
  8
7
100
AcDbLine
 10
-3.241321006284707
 20
2.748026161704116
 30
0.0
 11
-3.241321006284707
 21
2.740152145956082
 31
0.0
  0
LINE
  5
2FEE
330
1E
100
AcDbEntity
  8
7
100
AcDbLine
 10
-3.241321006284707
 20
2.748026161704116
 30
0.0
 11
-4.060218644079984
 21
2.748026161704116
 31
0.0
  0
LINE
  5
2FEF
330
1E
100
AcDbEntity
  8
7
100
AcDbLine
 10
-4.072029667702032
 20
2.740152145956082
 30
0.0
 11
-4.060218644079984
 21
2.748026161704116
 31
0.0
  0
LINE
  5
2FF0
330
1E
100
AcDbEntity
  8
7
100
AcDbLine
 10
-3.241321006284707
 20
2.740152145956082
 30
0.0
 11
-4.072029667702032
 21
2.740152145956082
 31
0.0
  0
LINE
  5
2FF1
330
1E
100
AcDbEntity
  8
7
100
AcDbLine
 10
-1.477541478725653
 20
3.338577342806479
 30
0.0
 11
-1.477541478725653
 21
3.98424663414506
 31
0.0
  0
LINE
  5
2FF2
330
1E
100
AcDbEntity
  8
7
100
AcDbLine
 10
-4.005100533843762
 20
3.338577342806479
 30
0.0
 11
-4.005100533843762
 21
3.98424663414506
 31
0.0
  0
LINE
  5
2FF3
330
1E
100
AcDbEntity
  8
7
100
AcDbLine
 10
-3.241321006284707
 20
2.751963169578131
 30
0.0
 11
-2.241321006284708
 21
2.751963169578131
 31
0.0
  0
LINE
  5
2FF4
330
1E
100
AcDbEntity
  8
7
100
AcDbLine
 10
-3.426360376363447
 20
3.98424663414506
 30
0.0
 11
-4.005100533843762
 21
3.98424663414506
 31
0.0
  0
LINE
  5
2FF5
330
1E
100
AcDbEntity
  8
7
100
AcDbLine
 10
-2.776754077150851
 20
3.98424663414506
 30
0.0
 11
-3.355494234631166
 21
3.98424663414506
 31
0.0
  0
LINE
  5
2FF6
330
1E
100
AcDbEntity
  8
7
100
AcDbLine
 10
-3.426360376363447
 20
3.338577342806479
 30
0.0
 11
-3.426360376363447
 21
3.98424663414506
 31
0.0
  0
LINE
  5
2FF7
330
1E
100
AcDbEntity
  8
7
100
AcDbLine
 10
-3.426360376363447
 20
3.338577342806479
 30
0.0
 11
-4.005100533843762
 21
3.338577342806479
 31
0.0
  0
LINE
  5
2FF8
330
1E
100
AcDbEntity
  8
7
100
AcDbLine
 10
-2.776754077150851
 20
3.338577342806479
 30
0.0
 11
-2.776754077150851
 21
3.98424663414506
 31
0.0
  0
LINE
  5
2FF9
330
1E
100
AcDbEntity
  8
7
100
AcDbLine
 10
-2.776754077150851
 20
3.338577342806479
 30
0.0
 11
-3.355494234631166
 21
3.338577342806479
 31
0.0
  0
LINE
  5
2FFA
330
1E
100
AcDbEntity
  8
7
100
AcDbLine
 10
-3.355494234631166
 20
3.338577342806479
 30
0.0
 11
-3.355494234631166
 21
3.98424663414506
 31
0.0
  0
LINE
  5
2FFB
330
1E
100
AcDbEntity
  8
7
100
AcDbLine
 10
-2.127147777938251
 20
3.98424663414506
 30
0.0
 11
-2.705887935418566
 21
3.98424663414506
 31
0.0
  0
LINE
  5
2FFC
330
1E
100
AcDbEntity
  8
7
100
AcDbLine
 10
-2.705887935418566
 20
3.338577342806479
 30
0.0
 11
-2.705887935418566
 21
3.98424663414506
 31
0.0
  0
LINE
  5
2FFD
330
1E
100
AcDbEntity
  8
7
100
AcDbLine
 10
-2.127147777938251
 20
3.338577342806479
 30
0.0
 11
-2.705887935418566
 21
3.338577342806479
 31
0.0
  0
LINE
  5
2FFE
330
1E
100
AcDbEntity
  8
7
100
AcDbLine
 10
-2.127147777938251
 20
3.338577342806479
 30
0.0
 11
-2.127147777938251
 21
3.98424663414506
 31
0.0
  0
LINE
  5
2FFF
330
1E
100
AcDbEntity
  8
7
100
AcDbLine
 10
-1.477541478725653
 20
3.98424663414506
 30
0.0
 11
-2.056281636205969
 21
3.98424663414506
 31
0.0
  0
LINE
  5
3000
330
1E
100
AcDbEntity
  8
7
100
AcDbLine
 10
-2.056281636205969
 20
3.338577342806479
 30
0.0
 11
-2.056281636205969
 21
3.98424663414506
 31
0.0
  0
LINE
  5
3001
330
1E
100
AcDbEntity
  8
7
100
AcDbLine
 10
-1.477541478725653
 20
3.338577342806479
 30
0.0
 11
-2.056281636205969
 21
3.338577342806479
 31
0.0
  0
LINE
  5
3002
330
1E
100
AcDbEntity
  8
7
100
AcDbLine
 10
-2.241321006284708
 20
2.740152145956082
 30
0.0
 11
-2.241321006284708
 21
2.748026161704116
 31
0.0
  0
LINE
  5
3003
330
1E
100
AcDbEntity
  8
7
100
AcDbLine
 10
-1.410612344867384
 20
2.740152145956082
 30
0.0
 11
-2.241321006284708
 21
2.740152145956082
 31
0.0
  0
LINE
  5
3004
330
1E
100
AcDbEntity
  8
7
100
AcDbLine
 10
-1.410612344867384
 20
2.740152145956082
 30
0.0
 11
-1.422423368489432
 21
2.748026161704116
 31
0.0
  0
LINE
  5
3005
330
1E
100
AcDbEntity
  8
7
100
AcDbLine
 10
-1.422423368489432
 20
2.748026161704116
 30
0.0
 11
-2.241321006284708
 21
2.748026161704116
 31
0.0
  0
LINE
  5
3006
330
1E
100
AcDbEntity
  8
7
100
AcDbLine
 10
-3.241321006284707
 20
2.748026161704116
 30
0.0
 11
-3.241321006284707
 21
2.751963169578131
 31
0.0
  0
LINE
  5
3007
330
1E
100
AcDbEntity
  8
7
100
AcDbLine
 10
-2.241321006284708
 20
2.751963169578131
 30
0.0
 11
-2.241321006284708
 21
2.748026161704116
 31
0.0
  0
LINE
  5
300D
330
1E
100
AcDbEntity
  8
7
100
AcDbLine
 10
-1.422423368489432
 20
2.870073405798605
 30
0.0
 11
-4.060218644079984
 21
2.870073405798605
 31
0.0
  0
LINE
  5
3013
330
1E
100
AcDbEntity
  8
7
100
AcDbLine
 10
-4.182265888174473
 20
2.870073405798605
 30
0.0
 11
-4.190139903922503
 21
2.858262382176556
 31
0.0
  0
LINE
  5
3025
330
1E
100
AcDbEntity
  8
7
100
AcDbLine
 10
-1.300376124394945
 20
2.870073405798605
 30
0.0
 11
-1.292502108646914
 21
2.858262382176556
 31
0.0
  0
LINE
  5
3037
330
1E
100
AcDbEntity
  8
7
100
AcDbLine
 10
-4.060218644079984
 20
4.433065531782856
 30
0.0
 11
-1.422423368489432
 21
4.433065531782856
 31
0.0
  0
LINE
  5
3038
330
1E
100
AcDbEntity
  8
7
100
AcDbLine
 10
-1.422423368489432
 20
4.433065531782856
 30
0.0
 11
-1.410612344867384
 21
4.444876555404901
 31
0.0
  0
LINE
  5
3039
330
1E
100
AcDbEntity
  8
7
100
AcDbLine
 10
-1.410612344867384
 20
4.444876555404901
 30
0.0
 11
-2.544470612583921
 21
4.444876555404901
 31
0.0
  0
LINE
  5
303A
330
1E
100
AcDbEntity
  8
7
100
AcDbLine
 10
-2.934234392111481
 20
4.444876555404901
 30
0.0
 11
-4.072029667702032
 21
4.444876555404901
 31
0.0
  0
LINE
  5
303B
330
1E
100
AcDbEntity
  8
7
100
AcDbLine
 10
-4.060218644079984
 20
4.433065531782856
 30
0.0
 11
-4.072029667702032
 21
4.444876555404901
 31
0.0
  0
LINE
  5
303C
330
1E
100
AcDbEntity
  8
7
100
AcDbLine
 10
-1.422423368489432
 20
4.314955295562382
 30
0.0
 11
-4.060218644079984
 21
4.314955295562382
 31
0.0
  0
LINE
  5
304D
330
1E
100
AcDbEntity
  8
7
100
AcDbLine
 10
-4.190139903922503
 20
4.322829311310416
 30
0.0
 11
-4.182265888174473
 21
4.314955295562382
 31
0.0
  0
LINE
  5
305F
330
1E
100
AcDbEntity
  8
7
100
AcDbLine
 10
-1.292502108646914
 20
4.322829311310416
 30
0.0
 11
-1.300376124394945
 21
4.314955295562382
 31
0.0
  0
LINE
  5
306B
330
1E
100
AcDbEntity
  8
7
100
AcDbLine
 10
-1.422423368489432
 20
4.314955295562382
 30
0.0
 11
-1.422423368489432
 21
2.870073405798605
 31
0.0
  0
LINE
  5
306C
330
1E
100
AcDbEntity
  8
7
100
AcDbLine
 10
-1.300376124394945
 20
2.870073405798605
 30
0.0
 11
-1.300376124394945
 21
4.314955295562382
 31
0.0
  0
LINE
  5
306D
330
1E
100
AcDbEntity
  8
7
100
AcDbLine
 10
-1.292502108646914
 20
4.322829311310416
 30
0.0
 11
-1.292502108646914
 21
2.858262382176556
 31
0.0
  0
LINE
  5
306E
330
1E
100
AcDbEntity
  8
7
100
AcDbLine
 10
-4.182265888174473
 20
2.870073405798605
 30
0.0
 11
-4.182265888174473
 21
4.314955295562382
 31
0.0
  0
LINE
  5
306F
330
1E
100
AcDbEntity
  8
7
100
AcDbLine
 10
-4.060218644079984
 20
4.314955295562382
 30
0.0
 11
-4.060218644079984
 21
2.870073405798605
 31
0.0
  0
LINE
  5
3070
330
1E
100
AcDbEntity
  8
7
100
AcDbLine
 10
-4.190139903922503
 20
4.322829311310416
 30
0.0
 11
-4.190139903922503
 21
2.858262382176556
 31
0.0
  0
LINE
  5
3071
330
1E
100
AcDbEntity
  8
7
100
AcDbLine
 10
-2.556281636205969
 20
2.64172694910569
 30
0.0
 11
-2.926360376363447
 21
2.64172694910569
 31
0.0
  0
LINE
  5
3072
330
1E
100
AcDbEntity
  8
7
100
AcDbLine
 10
-2.544470612583921
 20
2.751963169578131
 30
0.0
 11
-2.556281636205969
 21
2.64172694910569
 31
0.0
  0
LINE
  5
3073
330
1E
100
AcDbEntity
  8
7
100
AcDbLine
 10
-2.938171399985495
 20
2.751963169578131
 30
0.0
 11
-2.926360376363447
 21
2.64172694910569
 31
0.0
  0
LINE
  5
3074
330
1E
100
AcDbEntity
  8
7
100
AcDbLine
 10
8.420096316549937
 20
2.748026161704112
 30
0.0
 11
8.416159308675922
 21
2.740152145956082
 31
0.0
  0
LINE
  5
3075
330
1E
100
AcDbEntity
  8
7
100
AcDbLine
 10
8.420096316549937
 20
2.748026161704112
 30
0.0
 11
7.597261670880644
 21
2.748026161704112
 31
0.0
  0
LINE
  5
3076
330
1E
100
AcDbEntity
  8
7
100
AcDbLine
 10
7.589387655132615
 20
2.740152145956082
 30
0.0
 11
7.597261670880644
 21
2.748026161704112
 31
0.0
  0
LINE
  5
3077
330
1E
100
AcDbEntity
  8
7
100
AcDbLine
 10
8.416159308675922
 20
2.740152145956082
 30
0.0
 11
7.589387655132615
 21
2.740152145956082
 31
0.0
  0
LINE
  5
3078
330
1E
100
AcDbEntity
  8
7
100
AcDbLine
 10
10.18387584410899
 20
3.338577342806475
 30
0.0
 11
10.18387584410899
 21
3.984246634145057
 31
0.0
  0
LINE
  5
3079
330
1E
100
AcDbEntity
  8
7
100
AcDbLine
 10
7.652379781116867
 20
3.338577342806475
 30
0.0
 11
7.652379781116867
 21
3.984246634145057
 31
0.0
  0
LINE
  5
307A
330
1E
100
AcDbEntity
  8
7
100
AcDbLine
 10
8.420096316549937
 20
2.751963169578131
 30
0.0
 11
9.420096316549937
 21
2.751963169578131
 31
0.0
  0
LINE
  5
307B
330
1E
100
AcDbEntity
  8
7
100
AcDbLine
 10
8.235056946471196
 20
3.984246634145057
 30
0.0
 11
7.652379781116867
 21
3.984246634145057
 31
0.0
  0
LINE
  5
307C
330
1E
100
AcDbEntity
  8
7
100
AcDbLine
 10
8.884663245683796
 20
3.984246634145057
 30
0.0
 11
8.305923088203478
 21
3.984246634145057
 31
0.0
  0
LINE
  5
307D
330
1E
100
AcDbEntity
  8
7
100
AcDbLine
 10
8.235056946471196
 20
3.338577342806475
 30
0.0
 11
8.235056946471196
 21
3.984246634145057
 31
0.0
  0
LINE
  5
307E
330
1E
100
AcDbEntity
  8
7
100
AcDbLine
 10
8.235056946471196
 20
3.338577342806475
 30
0.0
 11
7.652379781116867
 21
3.338577342806475
 31
0.0
  0
LINE
  5
307F
330
1E
100
AcDbEntity
  8
7
100
AcDbLine
 10
8.884663245683796
 20
3.338577342806475
 30
0.0
 11
8.884663245683796
 21
3.984246634145057
 31
0.0
  0
LINE
  5
3080
330
1E
100
AcDbEntity
  8
7
100
AcDbLine
 10
8.884663245683796
 20
3.338577342806475
 30
0.0
 11
8.305923088203478
 21
3.338577342806475
 31
0.0
  0
LINE
  5
3081
330
1E
100
AcDbEntity
  8
7
100
AcDbLine
 10
8.305923088203478
 20
3.338577342806475
 30
0.0
 11
8.305923088203478
 21
3.984246634145057
 31
0.0
  0
LINE
  5
3082
330
1E
100
AcDbEntity
  8
7
100
AcDbLine
 10
9.534269544896393
 20
3.984246634145057
 30
0.0
 11
8.955529387416078
 21
3.984246634145057
 31
0.0
  0
LINE
  5
3083
330
1E
100
AcDbEntity
  8
7
100
AcDbLine
 10
8.955529387416078
 20
3.338577342806475
 30
0.0
 11
8.955529387416078
 21
3.984246634145057
 31
0.0
  0
LINE
  5
3084
330
1E
100
AcDbEntity
  8
7
100
AcDbLine
 10
9.534269544896393
 20
3.338577342806475
 30
0.0
 11
8.955529387416078
 21
3.338577342806475
 31
0.0
  0
LINE
  5
3085
330
1E
100
AcDbEntity
  8
7
100
AcDbLine
 10
9.534269544896393
 20
3.338577342806475
 30
0.0
 11
9.534269544896393
 21
3.984246634145057
 31
0.0
  0
LINE
  5
3086
330
1E
100
AcDbEntity
  8
7
100
AcDbLine
 10
10.18387584410899
 20
3.984246634145057
 30
0.0
 11
9.605135686628678
 21
3.984246634145057
 31
0.0
  0
LINE
  5
3087
330
1E
100
AcDbEntity
  8
7
100
AcDbLine
 10
9.605135686628678
 20
3.338577342806475
 30
0.0
 11
9.605135686628678
 21
3.984246634145057
 31
0.0
  0
LINE
  5
3088
330
1E
100
AcDbEntity
  8
7
100
AcDbLine
 10
10.18387584410899
 20
3.338577342806475
 30
0.0
 11
9.605135686628678
 21
3.338577342806475
 31
0.0
  0
LINE
  5
3089
330
1E
100
AcDbEntity
  8
7
100
AcDbLine
 10
9.420096316549937
 20
2.740152145956082
 30
0.0
 11
9.420096316549937
 21
2.748026161704112
 31
0.0
  0
LINE
  5
308A
330
1E
100
AcDbEntity
  8
7
100
AcDbLine
 10
10.25080497796726
 20
2.740152145956082
 30
0.0
 11
9.420096316549937
 21
2.740152145956082
 31
0.0
  0
LINE
  5
308B
330
1E
100
AcDbEntity
  8
7
100
AcDbLine
 10
10.25080497796726
 20
2.740152145956082
 30
0.0
 11
10.23899395434521
 21
2.748026161704112
 31
0.0
  0
LINE
  5
308C
330
1E
100
AcDbEntity
  8
7
100
AcDbLine
 10
10.23899395434521
 20
2.748026161704112
 30
0.0
 11
9.420096316549937
 21
2.748026161704112
 31
0.0
  0
LINE
  5
308D
330
1E
100
AcDbEntity
  8
7
100
AcDbLine
 10
8.420096316549937
 20
2.748026161704112
 30
0.0
 11
8.420096316549937
 21
2.751963169578131
 31
0.0
  0
LINE
  5
308E
330
1E
100
AcDbEntity
  8
7
100
AcDbLine
 10
9.420096316549937
 20
2.751963169578131
 30
0.0
 11
9.420096316549937
 21
2.748026161704112
 31
0.0
  0
LINE
  5
3094
330
1E
100
AcDbEntity
  8
7
100
AcDbLine
 10
10.23899395434521
 20
2.870073405798601
 30
0.0
 11
7.597261670880644
 21
2.870073405798601
 31
0.0
  0
LINE
  5
309A
330
1E
100
AcDbEntity
  8
7
100
AcDbLine
 10
7.479151434660174
 20
2.870073405798601
 30
0.0
 11
7.467340411038126
 21
2.858262382176553
 31
0.0
  0
LINE
  5
30AC
330
1E
100
AcDbEntity
  8
7
100
AcDbLine
 10
10.36104119843969
 20
2.870073405798601
 30
0.0
 11
10.36891521418773
 21
2.858262382176553
 31
0.0
  0
LINE
  5
30BE
330
1E
100
AcDbEntity
  8
7
100
AcDbLine
 10
7.597261670880644
 20
4.433065531782853
 30
0.0
 11
10.23899395434521
 21
4.433065531782853
 31
0.0
  0
LINE
  5
30BF
330
1E
100
AcDbEntity
  8
7
100
AcDbLine
 10
10.23899395434521
 20
4.433065531782853
 30
0.0
 11
10.25080497796726
 21
4.444876555404901
 31
0.0
  0
LINE
  5
30C0
330
1E
100
AcDbEntity
  8
7
100
AcDbLine
 10
10.25080497796726
 20
4.444876555404901
 30
0.0
 11
9.113009702376707
 21
4.444876555404901
 31
0.0
  0
LINE
  5
30C1
330
1E
100
AcDbEntity
  8
7
100
AcDbLine
 10
8.723245922849148
 20
4.444876555404901
 30
0.0
 11
7.589387655132615
 21
4.444876555404901
 31
0.0
  0
LINE
  5
30C2
330
1E
100
AcDbEntity
  8
7
100
AcDbLine
 10
7.597261670880644
 20
4.433065531782853
 30
0.0
 11
7.589387655132615
 21
4.444876555404901
 31
0.0
  0
LINE
  5
30C3
330
1E
100
AcDbEntity
  8
7
100
AcDbLine
 10
10.23899395434521
 20
4.314955295562382
 30
0.0
 11
7.597261670880644
 21
4.314955295562382
 31
0.0
  0
LINE
  5
30D4
330
1E
100
AcDbEntity
  8
7
100
AcDbLine
 10
7.467340411038126
 20
4.322829311310412
 30
0.0
 11
7.479151434660174
 21
4.314955295562382
 31
0.0
  0
LINE
  5
30E6
330
1E
100
AcDbEntity
  8
7
100
AcDbLine
 10
10.36891521418773
 20
4.322829311310412
 30
0.0
 11
10.36104119843969
 21
4.314955295562382
 31
0.0
  0
LINE
  5
30F2
330
1E
100
AcDbEntity
  8
7
100
AcDbLine
 10
10.23899395434521
 20
4.314955295562382
 30
0.0
 11
10.23899395434521
 21
2.870073405798601
 31
0.0
  0
LINE
  5
30F3
330
1E
100
AcDbEntity
  8
7
100
AcDbLine
 10
10.36104119843969
 20
2.870073405798601
 30
0.0
 11
10.36104119843969
 21
4.314955295562382
 31
0.0
  0
LINE
  5
30F4
330
1E
100
AcDbEntity
  8
7
100
AcDbLine
 10
10.36891521418773
 20
4.322829311310412
 30
0.0
 11
10.36891521418773
 21
2.858262382176553
 31
0.0
  0
LINE
  5
30F5
330
1E
100
AcDbEntity
  8
7
100
AcDbLine
 10
7.479151434660174
 20
2.870073405798601
 30
0.0
 11
7.479151434660174
 21
4.314955295562382
 31
0.0
  0
LINE
  5
30F6
330
1E
100
AcDbEntity
  8
7
100
AcDbLine
 10
7.597261670880644
 20
4.314955295562382
 30
0.0
 11
7.597261670880644
 21
2.870073405798601
 31
0.0
  0
LINE
  5
30F7
330
1E
100
AcDbEntity
  8
7
100
AcDbLine
 10
7.467340411038126
 20
4.322829311310412
 30
0.0
 11
7.467340411038126
 21
2.858262382176553
 31
0.0
  0
LINE
  5
30F8
330
1E
100
AcDbEntity
  8
7
100
AcDbLine
 10
9.105135686628678
 20
2.64172694910569
 30
0.0
 11
8.735056946471196
 21
2.64172694910569
 31
0.0
  0
LINE
  5
30F9
330
1E
100
AcDbEntity
  8
7
100
AcDbLine
 10
9.116946710250722
 20
2.751963169578131
 30
0.0
 11
9.105135686628678
 21
2.64172694910569
 31
0.0
  0
LINE
  5
30FA
330
1E
100
AcDbEntity
  8
7
100
AcDbLine
 10
8.723245922849148
 20
2.751963169578131
 30
0.0
 11
8.735056946471196
 21
2.64172694910569
 31
0.0
  0
LINE
  5
30FB
330
1E
100
AcDbEntity
  8
7
100
AcDbLine
 10
5.502773481904267
 20
2.748026161704112
 30
0.0
 11
5.502773481904267
 21
2.740152145956082
 31
0.0
  0
LINE
  5
30FC
330
1E
100
AcDbEntity
  8
7
100
AcDbLine
 10
5.502773481904267
 20
2.748026161704112
 30
0.0
 11
4.683875844108989
 21
2.748026161704112
 31
0.0
  0
LINE
  5
30FD
330
1E
100
AcDbEntity
  8
7
100
AcDbLine
 10
4.676001828360959
 20
2.740152145956082
 30
0.0
 11
4.683875844108989
 21
2.748026161704112
 31
0.0
  0
LINE
  5
30FE
330
1E
100
AcDbEntity
  8
7
100
AcDbLine
 10
5.502773481904267
 20
2.740152145956082
 30
0.0
 11
4.676001828360959
 21
2.740152145956082
 31
0.0
  0
LINE
  5
30FF
330
1E
100
AcDbEntity
  8
7
100
AcDbLine
 10
7.270490017337337
 20
3.338577342806475
 30
0.0
 11
7.270490017337337
 21
3.984246634145057
 31
0.0
  0
LINE
  5
3100
330
1E
100
AcDbEntity
  8
7
100
AcDbLine
 10
4.738993954345211
 20
3.338577342806475
 30
0.0
 11
4.738993954345211
 21
3.984246634145057
 31
0.0
  0
LINE
  5
3101
330
1E
100
AcDbEntity
  8
7
100
AcDbLine
 10
5.502773481904267
 20
2.751963169578131
 30
0.0
 11
6.502773481904267
 21
2.751963169578131
 31
0.0
  0
LINE
  5
3102
330
1E
100
AcDbEntity
  8
7
100
AcDbLine
 10
5.317734111825526
 20
3.984246634145057
 30
0.0
 11
4.738993954345211
 21
3.984246634145057
 31
0.0
  0
LINE
  5
3103
330
1E
100
AcDbEntity
  8
7
100
AcDbLine
 10
5.967340411038126
 20
3.984246634145057
 30
0.0
 11
5.388600253557811
 21
3.984246634145057
 31
0.0
  0
LINE
  5
3104
330
1E
100
AcDbEntity
  8
7
100
AcDbLine
 10
5.317734111825526
 20
3.338577342806475
 30
0.0
 11
5.317734111825526
 21
3.984246634145057
 31
0.0
  0
LINE
  5
3105
330
1E
100
AcDbEntity
  8
7
100
AcDbLine
 10
5.317734111825526
 20
3.338577342806475
 30
0.0
 11
4.738993954345211
 21
3.338577342806475
 31
0.0
  0
LINE
  5
3106
330
1E
100
AcDbEntity
  8
7
100
AcDbLine
 10
5.967340411038126
 20
3.338577342806475
 30
0.0
 11
5.967340411038126
 21
3.984246634145057
 31
0.0
  0
LINE
  5
3107
330
1E
100
AcDbEntity
  8
7
100
AcDbLine
 10
5.967340411038126
 20
3.338577342806475
 30
0.0
 11
5.388600253557811
 21
3.338577342806475
 31
0.0
  0
LINE
  5
3108
330
1E
100
AcDbEntity
  8
7
100
AcDbLine
 10
5.388600253557811
 20
3.338577342806475
 30
0.0
 11
5.388600253557811
 21
3.984246634145057
 31
0.0
  0
LINE
  5
3109
330
1E
100
AcDbEntity
  8
7
100
AcDbLine
 10
6.620883718124737
 20
3.984246634145057
 30
0.0
 11
6.038206552770407
 21
3.984246634145057
 31
0.0
  0
LINE
  5
310A
330
1E
100
AcDbEntity
  8
7
100
AcDbLine
 10
6.038206552770407
 20
3.338577342806475
 30
0.0
 11
6.038206552770407
 21
3.984246634145057
 31
0.0
  0
LINE
  5
310B
330
1E
100
AcDbEntity
  8
7
100
AcDbLine
 10
6.620883718124737
 20
3.338577342806475
 30
0.0
 11
6.038206552770407
 21
3.338577342806475
 31
0.0
  0
LINE
  5
310C
330
1E
100
AcDbEntity
  8
7
100
AcDbLine
 10
6.620883718124737
 20
3.338577342806475
 30
0.0
 11
6.620883718124737
 21
3.984246634145057
 31
0.0
  0
LINE
  5
310D
330
1E
100
AcDbEntity
  8
7
100
AcDbLine
 10
7.270490017337337
 20
3.984246634145057
 30
0.0
 11
6.687812851983007
 21
3.984246634145057
 31
0.0
  0
LINE
  5
310E
330
1E
100
AcDbEntity
  8
7
100
AcDbLine
 10
6.687812851983007
 20
3.338577342806475
 30
0.0
 11
6.687812851983007
 21
3.984246634145057
 31
0.0
  0
LINE
  5
310F
330
1E
100
AcDbEntity
  8
7
100
AcDbLine
 10
7.270490017337337
 20
3.338577342806475
 30
0.0
 11
6.687812851983007
 21
3.338577342806475
 31
0.0
  0
LINE
  5
3110
330
1E
100
AcDbEntity
  8
7
100
AcDbLine
 10
6.506710489778281
 20
2.740152145956082
 30
0.0
 11
6.502773481904267
 21
2.748026161704112
 31
0.0
  0
LINE
  5
3111
330
1E
100
AcDbEntity
  8
7
100
AcDbLine
 10
7.333482143321589
 20
2.740152145956082
 30
0.0
 11
6.506710489778281
 21
2.740152145956082
 31
0.0
  0
LINE
  5
3112
330
1E
100
AcDbEntity
  8
7
100
AcDbLine
 10
7.333482143321589
 20
2.740152145956082
 30
0.0
 11
7.325608127573559
 21
2.748026161704112
 31
0.0
  0
LINE
  5
3113
330
1E
100
AcDbEntity
  8
7
100
AcDbLine
 10
7.325608127573559
 20
2.748026161704112
 30
0.0
 11
6.502773481904267
 21
2.748026161704112
 31
0.0
  0
LINE
  5
3114
330
1E
100
AcDbEntity
  8
7
100
AcDbLine
 10
5.502773481904267
 20
2.748026161704112
 30
0.0
 11
5.502773481904267
 21
2.751963169578131
 31
0.0
  0
LINE
  5
3115
330
1E
100
AcDbEntity
  8
7
100
AcDbLine
 10
6.502773481904267
 20
2.751963169578131
 30
0.0
 11
6.502773481904267
 21
2.748026161704112
 31
0.0
  0
LINE
  5
311B
330
1E
100
AcDbEntity
  8
7
100
AcDbLine
 10
7.325608127573559
 20
2.870073405798601
 30
0.0
 11
4.683875844108989
 21
2.870073405798601
 31
0.0
  0
LINE
  5
3121
330
1E
100
AcDbEntity
  8
7
100
AcDbLine
 10
4.565765607888518
 20
2.870073405798601
 30
0.0
 11
4.55395458426647
 21
2.858262382176556
 31
0.0
  0
LINE
  5
3133
330
1E
100
AcDbEntity
  8
7
100
AcDbLine
 10
7.44371836379403
 20
2.870073405798601
 30
0.0
 11
7.455529387416078
 21
2.858262382176553
 31
0.0
  0
LINE
  5
3145
330
1E
100
AcDbEntity
  8
7
100
AcDbLine
 10
4.683875844108989
 20
4.433065531782853
 30
0.0
 11
7.325608127573559
 21
4.433065531782853
 31
0.0
  0
LINE
  5
3146
330
1E
100
AcDbEntity
  8
7
100
AcDbLine
 10
7.325608127573559
 20
4.433065531782853
 30
0.0
 11
7.333482143321589
 21
4.444876555404901
 31
0.0
  0
LINE
  5
3147
330
1E
100
AcDbEntity
  8
7
100
AcDbLine
 10
7.333482143321589
 20
4.444876555404901
 30
0.0
 11
6.199623875605052
 21
4.444876555404901
 31
0.0
  0
LINE
  5
3148
330
1E
100
AcDbEntity
  8
7
100
AcDbLine
 10
5.809860096077496
 20
4.444876555404901
 30
0.0
 11
4.676001828360959
 21
4.444876555404901
 31
0.0
  0
LINE
  5
3149
330
1E
100
AcDbEntity
  8
7
100
AcDbLine
 10
4.683875844108989
 20
4.433065531782853
 30
0.0
 11
4.676001828360959
 21
4.444876555404901
 31
0.0
  0
LINE
  5
314A
330
1E
100
AcDbEntity
  8
7
100
AcDbLine
 10
7.325608127573559
 20
4.314955295562382
 30
0.0
 11
4.683875844108989
 21
4.314955295562382
 31
0.0
  0
LINE
  5
315B
330
1E
100
AcDbEntity
  8
7
100
AcDbLine
 10
4.55395458426647
 20
4.322829311310412
 30
0.0
 11
4.565765607888518
 21
4.314955295562382
 31
0.0
  0
LINE
  5
316D
330
1E
100
AcDbEntity
  8
7
100
AcDbLine
 10
7.455529387416078
 20
4.322829311310412
 30
0.0
 11
7.44371836379403
 21
4.314955295562382
 31
0.0
  0
LINE
  5
3179
330
1E
100
AcDbEntity
  8
7
100
AcDbLine
 10
7.325608127573559
 20
4.314955295562382
 30
0.0
 11
7.325608127573559
 21
2.870073405798601
 31
0.0
  0
LINE
  5
317A
330
1E
100
AcDbEntity
  8
7
100
AcDbLine
 10
7.44371836379403
 20
2.870073405798601
 30
0.0
 11
7.44371836379403
 21
4.314955295562382
 31
0.0
  0
LINE
  5
317B
330
1E
100
AcDbEntity
  8
7
100
AcDbLine
 10
7.455529387416078
 20
4.322829311310412
 30
0.0
 11
7.455529387416078
 21
2.858262382176553
 31
0.0
  0
LINE
  5
317C
330
1E
100
AcDbEntity
  8
7
100
AcDbLine
 10
4.565765607888518
 20
2.870073405798601
 30
0.0
 11
4.565765607888518
 21
4.314955295562382
 31
0.0
  0
LINE
  5
317D
330
1E
100
AcDbEntity
  8
7
100
AcDbLine
 10
4.683875844108989
 20
4.314955295562382
 30
0.0
 11
4.683875844108989
 21
2.870073405798601
 31
0.0
  0
LINE
  5
317E
330
1E
100
AcDbEntity
  8
7
100
AcDbLine
 10
4.55395458426647
 20
4.322829311310412
 30
0.0
 11
4.55395458426647
 21
2.858262382176556
 31
0.0
  0
LINE
  5
317F
330
1E
100
AcDbEntity
  8
7
100
AcDbLine
 10
6.191749859857022
 20
2.64172694910569
 30
0.0
 11
5.817734111825526
 21
2.64172694910569
 31
0.0
  0
LINE
  5
3180
330
1E
100
AcDbEntity
  8
7
100
AcDbLine
 10
6.20356088347907
 20
2.751963169578131
 30
0.0
 11
6.191749859857022
 21
2.64172694910569
 31
0.0
  0
LINE
  5
3181
330
1E
100
AcDbEntity
  8
7
100
AcDbLine
 10
5.805923088203478
 20
2.751963169578131
 30
0.0
 11
5.817734111825526
 21
2.64172694910569
 31
0.0
  0
LINE
  5
3182
330
1E
100
AcDbEntity
  8
7
100
AcDbLine
 10
11.35316718269167
 20
2.748026161704112
 30
0.0
 11
11.35316718269167
 21
2.740152145956082
 31
0.0
  0
LINE
  5
3183
330
1E
100
AcDbEntity
  8
7
100
AcDbLine
 10
11.35316718269167
 20
2.748026161704112
 30
0.0
 11
10.53426954489639
 21
2.748026161704112
 31
0.0
  0
LINE
  5
3184
330
1E
100
AcDbEntity
  8
7
100
AcDbLine
 10
10.52245852127434
 20
2.740152145956082
 30
0.0
 11
10.53426954489639
 21
2.748026161704112
 31
0.0
  0
LINE
  5
3185
330
1E
100
AcDbEntity
  8
7
100
AcDbLine
 10
11.35316718269167
 20
2.740152145956082
 30
0.0
 11
10.52245852127434
 21
2.740152145956082
 31
0.0
  0
LINE
  5
3186
330
1E
100
AcDbEntity
  8
7
100
AcDbLine
 10
13.12088371812474
 20
3.338577342806475
 30
0.0
 11
13.12088371812474
 21
3.984246634145057
 31
0.0
  0
LINE
  5
3187
330
1E
100
AcDbEntity
  8
7
100
AcDbLine
 10
10.58938765513261
 20
3.338577342806475
 30
0.0
 11
10.58938765513261
 21
3.984246634145057
 31
0.0
  0
LINE
  5
3188
330
1E
100
AcDbEntity
  8
7
100
AcDbLine
 10
11.35316718269167
 20
2.751963169578127
 30
0.0
 11
12.35316718269167
 21
2.751963169578127
 31
0.0
  0
LINE
  5
3189
330
1E
100
AcDbEntity
  8
7
100
AcDbLine
 10
11.16812781261293
 20
3.984246634145057
 30
0.0
 11
10.58938765513261
 21
3.984246634145057
 31
0.0
  0
LINE
  5
318A
330
1E
100
AcDbEntity
  8
7
100
AcDbLine
 10
11.81773411182552
 20
3.984246634145057
 30
0.0
 11
11.23899395434521
 21
3.984246634145057
 31
0.0
  0
LINE
  5
318B
330
1E
100
AcDbEntity
  8
7
100
AcDbLine
 10
11.16812781261293
 20
3.338577342806475
 30
0.0
 11
11.16812781261293
 21
3.984246634145057
 31
0.0
  0
LINE
  5
318C
330
1E
100
AcDbEntity
  8
7
100
AcDbLine
 10
11.16812781261293
 20
3.338577342806475
 30
0.0
 11
10.58938765513261
 21
3.338577342806475
 31
0.0
  0
LINE
  5
318D
330
1E
100
AcDbEntity
  8
7
100
AcDbLine
 10
11.81773411182552
 20
3.338577342806475
 30
0.0
 11
11.81773411182552
 21
3.984246634145057
 31
0.0
  0
LINE
  5
318E
330
1E
100
AcDbEntity
  8
7
100
AcDbLine
 10
11.81773411182552
 20
3.338577342806475
 30
0.0
 11
11.23899395434521
 21
3.338577342806475
 31
0.0
  0
LINE
  5
318F
330
1E
100
AcDbEntity
  8
7
100
AcDbLine
 10
11.23899395434521
 20
3.338577342806475
 30
0.0
 11
11.23899395434521
 21
3.984246634145057
 31
0.0
  0
LINE
  5
3190
330
1E
100
AcDbEntity
  8
7
100
AcDbLine
 10
12.46734041103812
 20
3.984246634145057
 30
0.0
 11
11.88860025355781
 21
3.984246634145057
 31
0.0
  0
LINE
  5
3191
330
1E
100
AcDbEntity
  8
7
100
AcDbLine
 10
11.88860025355781
 20
3.338577342806475
 30
0.0
 11
11.88860025355781
 21
3.984246634145057
 31
0.0
  0
LINE
  5
3192
330
1E
100
AcDbEntity
  8
7
100
AcDbLine
 10
12.46734041103812
 20
3.338577342806475
 30
0.0
 11
11.88860025355781
 21
3.338577342806475
 31
0.0
  0
LINE
  5
3193
330
1E
100
AcDbEntity
  8
7
100
AcDbLine
 10
12.46734041103812
 20
3.338577342806475
 30
0.0
 11
12.46734041103812
 21
3.984246634145057
 31
0.0
  0
LINE
  5
3194
330
1E
100
AcDbEntity
  8
7
100
AcDbLine
 10
13.12088371812474
 20
3.984246634145057
 30
0.0
 11
12.5382065527704
 21
3.984246634145057
 31
0.0
  0
LINE
  5
3195
330
1E
100
AcDbEntity
  8
7
100
AcDbLine
 10
12.5382065527704
 20
3.338577342806475
 30
0.0
 11
12.5382065527704
 21
3.984246634145057
 31
0.0
  0
LINE
  5
3196
330
1E
100
AcDbEntity
  8
7
100
AcDbLine
 10
13.12088371812474
 20
3.338577342806475
 30
0.0
 11
12.5382065527704
 21
3.338577342806475
 31
0.0
  0
LINE
  5
3197
330
1E
100
AcDbEntity
  8
7
100
AcDbLine
 10
12.35710419056568
 20
2.740152145956082
 30
0.0
 11
12.35316718269167
 21
2.748026161704112
 31
0.0
  0
LINE
  5
3198
330
1E
100
AcDbEntity
  8
7
100
AcDbLine
 10
13.18387584410899
 20
2.740152145956082
 30
0.0
 11
12.35710419056568
 21
2.740152145956082
 31
0.0
  0
LINE
  5
3199
330
1E
100
AcDbEntity
  8
7
100
AcDbLine
 10
13.18387584410899
 20
2.740152145956082
 30
0.0
 11
13.17600182836096
 21
2.748026161704112
 31
0.0
  0
LINE
  5
319A
330
1E
100
AcDbEntity
  8
7
100
AcDbLine
 10
13.17600182836096
 20
2.748026161704112
 30
0.0
 11
12.35316718269167
 21
2.748026161704112
 31
0.0
  0
LINE
  5
319B
330
1E
100
AcDbEntity
  8
7
100
AcDbLine
 10
11.35316718269167
 20
2.748026161704112
 30
0.0
 11
11.35316718269167
 21
2.751963169578127
 31
0.0
  0
LINE
  5
319C
330
1E
100
AcDbEntity
  8
7
100
AcDbLine
 10
12.35316718269167
 20
2.751963169578127
 30
0.0
 11
12.35316718269167
 21
2.748026161704112
 31
0.0
  0
LINE
  5
31A2
330
1E
100
AcDbEntity
  8
7
100
AcDbLine
 10
13.17600182836096
 20
2.870073405798601
 30
0.0
 11
10.53426954489639
 21
2.870073405798601
 31
0.0
  0
LINE
  5
31A8
330
1E
100
AcDbEntity
  8
7
100
AcDbLine
 10
10.4122223008019
 20
2.870073405798601
 30
0.0
 11
10.40434828505387
 21
2.858262382176553
 31
0.0
  0
LINE
  5
31BA
330
1E
100
AcDbEntity
  8
7
100
AcDbLine
 10
13.29411206458143
 20
2.870073405798601
 30
0.0
 11
13.30592308820347
 21
2.858262382176553
 31
0.0
  0
LINE
  5
31CC
330
1E
100
AcDbEntity
  8
7
100
AcDbLine
 10
10.53426954489639
 20
4.433065531782853
 30
0.0
 11
13.17600182836096
 21
4.433065531782853
 31
0.0
  0
LINE
  5
31CD
330
1E
100
AcDbEntity
  8
7
100
AcDbLine
 10
13.17600182836096
 20
4.433065531782853
 30
0.0
 11
13.18387584410899
 21
4.444876555404897
 31
0.0
  0
LINE
  5
31CE
330
1E
100
AcDbEntity
  8
7
100
AcDbLine
 10
13.18387584410899
 20
4.444876555404897
 30
0.0
 11
12.03033253702237
 21
4.444876555404897
 31
0.0
  0
LINE
  5
31CF
330
1E
100
AcDbEntity
  8
7
100
AcDbLine
 10
11.64056875749482
 20
4.444876555404897
 30
0.0
 11
10.52245852127434
 21
4.444876555404901
 31
0.0
  0
LINE
  5
31D0
330
1E
100
AcDbEntity
  8
7
100
AcDbLine
 10
10.53426954489639
 20
4.433065531782853
 30
0.0
 11
10.52245852127434
 21
4.444876555404901
 31
0.0
  0
LINE
  5
31D1
330
1E
100
AcDbEntity
  8
7
100
AcDbLine
 10
13.17600182836096
 20
4.314955295562379
 30
0.0
 11
10.53426954489639
 21
4.314955295562382
 31
0.0
  0
LINE
  5
31E2
330
1E
100
AcDbEntity
  8
7
100
AcDbLine
 10
10.40434828505387
 20
4.322829311310412
 30
0.0
 11
10.4122223008019
 21
4.314955295562382
 31
0.0
  0
LINE
  5
31F4
330
1E
100
AcDbEntity
  8
7
100
AcDbLine
 10
13.30592308820347
 20
4.322829311310412
 30
0.0
 11
13.29411206458143
 21
4.314955295562379
 31
0.0
  0
LINE
  5
3200
330
1E
100
AcDbEntity
  8
7
100
AcDbLine
 10
13.17600182836096
 20
4.314955295562379
 30
0.0
 11
13.17600182836096
 21
2.870073405798601
 31
0.0
  0
LINE
  5
3201
330
1E
100
AcDbEntity
  8
7
100
AcDbLine
 10
13.29411206458143
 20
2.870073405798601
 30
0.0
 11
13.29411206458143
 21
4.314955295562379
 31
0.0
  0
LINE
  5
3202
330
1E
100
AcDbEntity
  8
7
100
AcDbLine
 10
13.30592308820347
 20
4.322829311310412
 30
0.0
 11
13.30592308820347
 21
2.858262382176553
 31
0.0
  0
LINE
  5
3203
330
1E
100
AcDbEntity
  8
7
100
AcDbLine
 10
10.4122223008019
 20
2.870073405798601
 30
0.0
 11
10.4122223008019
 21
4.314955295562382
 31
0.0
  0
LINE
  5
3204
330
1E
100
AcDbEntity
  8
7
100
AcDbLine
 10
10.53426954489639
 20
4.314955295562382
 30
0.0
 11
10.53426954489639
 21
2.870073405798601
 31
0.0
  0
LINE
  5
3205
330
1E
100
AcDbEntity
  8
7
100
AcDbLine
 10
10.40434828505387
 20
4.322829311310412
 30
0.0
 11
10.40434828505387
 21
2.858262382176553
 31
0.0
  0
LINE
  5
3206
330
1E
100
AcDbEntity
  8
7
100
AcDbLine
 10
12.04214356064442
 20
2.64172694910569
 30
0.0
 11
11.66812781261292
 21
2.64172694910569
 31
0.0
  0
LINE
  5
3207
330
1E
100
AcDbEntity
  8
7
100
AcDbLine
 10
12.05001757639245
 20
2.751963169578127
 30
0.0
 11
12.04214356064442
 21
2.64172694910569
 31
0.0
  0
LINE
  5
3208
330
1E
100
AcDbEntity
  8
7
100
AcDbLine
 10
11.65631678899088
 20
2.751963169578127
 30
0.0
 11
11.66812781261292
 21
2.64172694910569
 31
0.0
  0
LINE
  5
3209
330
1E
100
AcDbEntity
  8
7
100
AcDbLine
 10
-0.3279351795130552
 20
2.748026161704116
 30
0.0
 11
-0.3279351795130552
 21
2.740152145956082
 31
0.0
  0
LINE
  5
320A
330
1E
100
AcDbEntity
  8
7
100
AcDbLine
 10
-0.3279351795130552
 20
2.748026161704116
 30
0.0
 11
-1.146832817308331
 21
2.748026161704116
 31
0.0
  0
LINE
  5
320B
330
1E
100
AcDbEntity
  8
7
100
AcDbLine
 10
-1.154706833056362
 20
2.740152145956082
 30
0.0
 11
-1.146832817308331
 21
2.748026161704116
 31
0.0
  0
LINE
  5
320C
330
1E
100
AcDbEntity
  8
7
100
AcDbLine
 10
-0.3279351795130552
 20
2.740152145956082
 30
0.0
 11
-1.154706833056362
 21
2.740152145956082
 31
0.0
  0
LINE
  5
320D
330
1E
100
AcDbEntity
  8
7
100
AcDbLine
 10
1.439781355920015
 20
3.338577342806475
 30
0.0
 11
1.439781355920015
 21
3.98424663414506
 31
0.0
  0
LINE
  5
320E
330
1E
100
AcDbEntity
  8
7
100
AcDbLine
 10
-1.09171470707211
 20
3.338577342806479
 30
0.0
 11
-1.09171470707211
 21
3.98424663414506
 31
0.0
  0
LINE
  5
320F
330
1E
100
AcDbEntity
  8
7
100
AcDbLine
 10
-0.3239981716390403
 20
2.751963169578131
 30
0.0
 11
0.6760018283609597
 21
2.751963169578131
 31
0.0
  0
LINE
  5
3210
330
1E
100
AcDbEntity
  8
7
100
AcDbLine
 10
-0.5090375417177793
 20
3.98424663414506
 30
0.0
 11
-1.09171470707211
 21
3.98424663414506
 31
0.0
  0
LINE
  5
3211
330
1E
100
AcDbEntity
  8
7
100
AcDbLine
 10
0.1405687574948189
 20
3.98424663414506
 30
0.0
 11
-0.4421084078595126
 21
3.98424663414506
 31
0.0
  0
LINE
  5
3212
330
1E
100
AcDbEntity
  8
7
100
AcDbLine
 10
-0.5090375417177793
 20
3.338577342806479
 30
0.0
 11
-0.5090375417177793
 21
3.98424663414506
 31
0.0
  0
LINE
  5
3213
330
1E
100
AcDbEntity
  8
7
100
AcDbLine
 10
-0.5090375417177793
 20
3.338577342806479
 30
0.0
 11
-1.09171470707211
 21
3.338577342806479
 31
0.0
  0
LINE
  5
3214
330
1E
100
AcDbEntity
  8
7
100
AcDbLine
 10
0.1405687574948189
 20
3.338577342806479
 30
0.0
 11
0.1405687574948189
 21
3.98424663414506
 31
0.0
  0
LINE
  5
3215
330
1E
100
AcDbEntity
  8
7
100
AcDbLine
 10
0.1405687574948189
 20
3.338577342806479
 30
0.0
 11
-0.4421084078595126
 21
3.338577342806479
 31
0.0
  0
LINE
  5
3216
330
1E
100
AcDbEntity
  8
7
100
AcDbLine
 10
-0.4421084078595126
 20
3.338577342806479
 30
0.0
 11
-0.4421084078595126
 21
3.98424663414506
 31
0.0
  0
LINE
  5
3217
330
1E
100
AcDbEntity
  8
7
100
AcDbLine
 10
0.7901750567074171
 20
3.98424663414506
 30
0.0
 11
0.2074978913530856
 21
3.98424663414506
 31
0.0
  0
LINE
  5
3218
330
1E
100
AcDbEntity
  8
7
100
AcDbLine
 10
0.2074978913530856
 20
3.338577342806479
 30
0.0
 11
0.2074978913530856
 21
3.98424663414506
 31
0.0
  0
LINE
  5
3219
330
1E
100
AcDbEntity
  8
7
100
AcDbLine
 10
0.7901750567074171
 20
3.338577342806479
 30
0.0
 11
0.2074978913530856
 21
3.338577342806479
 31
0.0
  0
LINE
  5
321A
330
1E
100
AcDbEntity
  8
7
100
AcDbLine
 10
0.7901750567074171
 20
3.338577342806479
 30
0.0
 11
0.7901750567074171
 21
3.98424663414506
 31
0.0
  0
LINE
  5
321B
330
1E
100
AcDbEntity
  8
7
100
AcDbLine
 10
1.439781355920015
 20
3.98424663414506
 30
0.0
 11
0.8610411984397003
 21
3.98424663414506
 31
0.0
  0
LINE
  5
321C
330
1E
100
AcDbEntity
  8
7
100
AcDbLine
 10
0.8610411984397003
 20
3.338577342806479
 30
0.0
 11
0.8610411984397003
 21
3.98424663414506
 31
0.0
  0
LINE
  5
321D
330
1E
100
AcDbEntity
  8
7
100
AcDbLine
 10
1.439781355920015
 20
3.338577342806475
 30
0.0
 11
0.8610411984397003
 21
3.338577342806479
 31
0.0
  0
LINE
  5
321E
330
1E
100
AcDbEntity
  8
7
100
AcDbLine
 10
0.6760018283609597
 20
2.740152145956082
 30
0.0
 11
0.6760018283609597
 21
2.748026161704112
 31
0.0
  0
LINE
  5
321F
330
1E
100
AcDbEntity
  8
7
100
AcDbLine
 10
1.502773481904267
 20
2.740152145956082
 30
0.0
 11
0.6760018283609597
 21
2.740152145956082
 31
0.0
  0
LINE
  5
3220
330
1E
100
AcDbEntity
  8
7
100
AcDbLine
 10
1.502773481904267
 20
2.740152145956082
 30
0.0
 11
1.494899466156235
 21
2.748026161704112
 31
0.0
  0
LINE
  5
3221
330
1E
100
AcDbEntity
  8
7
100
AcDbLine
 10
1.494899466156235
 20
2.748026161704112
 30
0.0
 11
0.6760018283609597
 21
2.748026161704112
 31
0.0
  0
LINE
  5
3222
330
1E
100
AcDbEntity
  8
7
100
AcDbLine
 10
-0.3279351795130552
 20
2.748026161704116
 30
0.0
 11
-0.3239981716390403
 21
2.751963169578131
 31
0.0
  0
LINE
  5
3223
330
1E
100
AcDbEntity
  8
7
100
AcDbLine
 10
0.6760018283609597
 20
2.751963169578131
 30
0.0
 11
0.6760018283609597
 21
2.748026161704112
 31
0.0
  0
LINE
  5
3229
330
1E
100
AcDbEntity
  8
7
100
AcDbLine
 10
1.494899466156235
 20
2.870073405798601
 30
0.0
 11
-1.146832817308331
 21
2.870073405798605
 31
0.0
  0
LINE
  5
322F
330
1E
100
AcDbEntity
  8
7
100
AcDbLine
 10
-1.264943053528803
 20
2.870073405798605
 30
0.0
 11
-1.276754077150851
 21
2.858262382176556
 31
0.0
  0
LINE
  5
3241
330
1E
100
AcDbEntity
  8
7
100
AcDbLine
 10
1.613009702376707
 20
2.870073405798601
 30
0.0
 11
1.624820725998755
 21
2.858262382176556
 31
0.0
  0
LINE
  5
3253
330
1E
100
AcDbEntity
  8
7
100
AcDbLine
 10
-1.146832817308331
 20
4.433065531782856
 30
0.0
 11
1.494899466156235
 21
4.433065531782853
 31
0.0
  0
LINE
  5
3254
330
1E
100
AcDbEntity
  8
7
100
AcDbLine
 10
1.494899466156235
 20
4.433065531782853
 30
0.0
 11
1.502773481904267
 21
4.444876555404901
 31
0.0
  0
LINE
  5
3255
330
1E
100
AcDbEntity
  8
7
100
AcDbLine
 10
1.502773481904267
 20
4.444876555404901
 30
0.0
 11
0.3689152141877319
 21
4.444876555404901
 31
0.0
  0
LINE
  5
3256
330
1E
100
AcDbEntity
  8
7
100
AcDbLine
 10
-0.0208485653398274
 20
4.444876555404901
 30
0.0
 11
-1.154706833056362
 21
4.444876555404901
 31
0.0
  0
LINE
  5
3257
330
1E
100
AcDbEntity
  8
7
100
AcDbLine
 10
-1.146832817308331
 20
4.433065531782856
 30
0.0
 11
-1.154706833056362
 21
4.444876555404901
 31
0.0
  0
LINE
  5
3258
330
1E
100
AcDbEntity
  8
7
100
AcDbLine
 10
1.494899466156235
 20
4.314955295562382
 30
0.0
 11
-1.146832817308331
 21
4.314955295562382
 31
0.0
  0
LINE
  5
3269
330
1E
100
AcDbEntity
  8
7
100
AcDbLine
 10
-1.276754077150851
 20
4.322829311310416
 30
0.0
 11
-1.264943053528803
 21
4.314955295562382
 31
0.0
  0
LINE
  5
327B
330
1E
100
AcDbEntity
  8
7
100
AcDbLine
 10
1.624820725998755
 20
4.322829311310416
 30
0.0
 11
1.613009702376707
 21
4.314955295562382
 31
0.0
  0
LINE
  5
3287
330
1E
100
AcDbEntity
  8
7
100
AcDbLine
 10
1.494899466156235
 20
4.314955295562382
 30
0.0
 11
1.494899466156235
 21
2.870073405798601
 31
0.0
  0
LINE
  5
3288
330
1E
100
AcDbEntity
  8
7
100
AcDbLine
 10
1.613009702376707
 20
2.870073405798601
 30
0.0
 11
1.613009702376707
 21
4.314955295562382
 31
0.0
  0
LINE
  5
3289
330
1E
100
AcDbEntity
  8
7
100
AcDbLine
 10
1.624820725998755
 20
4.322829311310416
 30
0.0
 11
1.624820725998755
 21
2.858262382176556
 31
0.0
  0
LINE
  5
328A
330
1E
100
AcDbEntity
  8
7
100
AcDbLine
 10
-1.264943053528803
 20
2.870073405798605
 30
0.0
 11
-1.264943053528803
 21
4.314955295562382
 31
0.0
  0
LINE
  5
328B
330
1E
100
AcDbEntity
  8
7
100
AcDbLine
 10
-1.146832817308331
 20
4.314955295562382
 30
0.0
 11
-1.146832817308331
 21
2.870073405798605
 31
0.0
  0
LINE
  5
328C
330
1E
100
AcDbEntity
  8
7
100
AcDbLine
 10
-1.276754077150851
 20
4.322829311310416
 30
0.0
 11
-1.276754077150851
 21
2.858262382176556
 31
0.0
  0
LINE
  5
328D
330
1E
100
AcDbEntity
  8
7
100
AcDbLine
 10
0.3610411984397004
 20
2.64172694910569
 30
0.0
 11
-0.0129745495917959
 21
2.64172694910569
 31
0.0
  0
LINE
  5
328E
330
1E
100
AcDbEntity
  8
7
100
AcDbLine
 10
0.3728522220617485
 20
2.751963169578131
 30
0.0
 11
0.3610411984397004
 21
2.64172694910569
 31
0.0
  0
LINE
  5
328F
330
1E
100
AcDbEntity
  8
7
100
AcDbLine
 10
-0.0247855732138422
 20
2.751963169578131
 30
0.0
 11
-0.0129745495917959
 21
2.64172694910569
 31
0.0
  0
LINE
  5
3579
330
1E
100
AcDbEntity
  8
7
100
AcDbLine
 10
1.613009702376707
 20
4.314955295562382
 30
0.0
 11
1.577576631510567
 21
4.314955295562382
 31
0.0
  0
LINE
  5
357A
330
1E
100
AcDbEntity
  8
7
100
AcDbLine
 10
1.577576631510567
 20
4.314955295562382
 30
0.0
 11
1.494899466156235
 21
4.314955295562382
 31
0.0
  0
LINE
  5
357B
330
1E
100
AcDbEntity
  8
7
100
AcDbLine
 10
1.502773481904267
 20
4.444876555404901
 30
0.0
 11
1.565765607888518
 21
4.429128523908838
 31
0.0
  0
LINE
  5
357C
330
1E
100
AcDbEntity
  8
7
100
AcDbLine
 10
1.565765607888518
 20
4.429128523908838
 30
0.0
 11
1.609072694502692
 21
4.385821437294668
 31
0.0
  0
LINE
  5
357D
330
1E
100
AcDbEntity
  8
7
100
AcDbLine
 10
1.609072694502692
 20
4.385821437294668
 30
0.0
 11
1.624820725998755
 21
4.322829311310416
 31
0.0
  0
LINE
  5
357E
330
1E
100
AcDbEntity
  8
7
100
AcDbLine
 10
1.613009702376707
 20
4.314955295562382
 30
0.0
 11
1.597261670880644
 21
4.374010413672616
 31
0.0
  0
LINE
  5
357F
330
1E
100
AcDbEntity
  8
7
100
AcDbLine
 10
1.597261670880644
 20
4.374010413672616
 30
0.0
 11
1.553954584266472
 21
4.417317500286793
 31
0.0
  0
LINE
  5
3580
330
1E
100
AcDbEntity
  8
7
100
AcDbLine
 10
1.553954584266472
 20
4.417317500286793
 30
0.0
 11
1.494899466156235
 21
4.433065531782853
 31
0.0
  0
LINE
  5
3581
330
1E
100
AcDbEntity
  8
7
100
AcDbLine
 10
-1.264943053528803
 20
4.314955295562382
 30
0.0
 11
-1.22950998266266
 21
4.314955295562382
 31
0.0
  0
LINE
  5
3582
330
1E
100
AcDbEntity
  8
7
100
AcDbLine
 10
-1.22950998266266
 20
4.314955295562382
 30
0.0
 11
-1.146832817308331
 21
4.314955295562382
 31
0.0
  0
LINE
  5
3583
330
1E
100
AcDbEntity
  8
7
100
AcDbLine
 10
-1.264943053528803
 20
4.314955295562382
 30
0.0
 11
-1.24919502203274
 21
4.374010413672619
 31
0.0
  0
LINE
  5
3584
330
1E
100
AcDbEntity
  8
7
100
AcDbLine
 10
-1.24919502203274
 20
4.374010413672619
 30
0.0
 11
-1.205887935418566
 21
4.417317500286793
 31
0.0
  0
LINE
  5
3585
330
1E
100
AcDbEntity
  8
7
100
AcDbLine
 10
-1.205887935418566
 20
4.417317500286793
 30
0.0
 11
-1.146832817308331
 21
4.433065531782856
 31
0.0
  0
LINE
  5
3586
330
1E
100
AcDbEntity
  8
7
100
AcDbLine
 10
-1.154706833056362
 20
4.444876555404901
 30
0.0
 11
-1.217698959040614
 21
4.429128523908838
 31
0.0
  0
LINE
  5
3587
330
1E
100
AcDbEntity
  8
7
100
AcDbLine
 10
-1.217698959040614
 20
4.429128523908838
 30
0.0
 11
-1.261006045654786
 21
4.385821437294668
 31
0.0
  0
LINE
  5
3588
330
1E
100
AcDbEntity
  8
7
100
AcDbLine
 10
-1.261006045654786
 20
4.385821437294668
 30
0.0
 11
-1.276754077150851
 21
4.322829311310416
 31
0.0
  0
LINE
  5
3589
330
1E
100
AcDbEntity
  8
7
100
AcDbLine
 10
-1.146832817308331
 20
4.433065531782856
 30
0.0
 11
-1.146832817308331
 21
4.397632460916712
 31
0.0
  0
LINE
  5
358A
330
1E
100
AcDbEntity
  8
7
100
AcDbLine
 10
-1.146832817308331
 20
4.397632460916712
 30
0.0
 11
-1.146832817308331
 21
4.314955295562382
 31
0.0
  0
LINE
  5
358B
330
1E
100
AcDbEntity
  8
7
100
AcDbLine
 10
1.494899466156235
 20
4.433065531782853
 30
0.0
 11
1.494899466156235
 21
4.397632460916712
 31
0.0
  0
LINE
  5
358C
330
1E
100
AcDbEntity
  8
7
100
AcDbLine
 10
1.494899466156235
 20
4.397632460916712
 30
0.0
 11
1.494899466156235
 21
4.314955295562382
 31
0.0
  0
LINE
  5
358D
330
1E
100
AcDbEntity
  8
7
100
AcDbLine
 10
1.613009702376707
 20
2.870073405798601
 30
0.0
 11
1.577576631510567
 21
2.870073405798601
 31
0.0
  0
LINE
  5
358E
330
1E
100
AcDbEntity
  8
7
100
AcDbLine
 10
1.577576631510567
 20
2.870073405798601
 30
0.0
 11
1.494899466156235
 21
2.870073405798601
 31
0.0
  0
LINE
  5
358F
330
1E
100
AcDbEntity
  8
7
100
AcDbLine
 10
1.624820725998755
 20
2.858262382176556
 30
0.0
 11
1.609072694502692
 21
2.799207264066319
 31
0.0
  0
LINE
  5
3590
330
1E
100
AcDbEntity
  8
7
100
AcDbLine
 10
1.609072694502692
 20
2.799207264066319
 30
0.0
 11
1.565765607888518
 21
2.755900177452145
 31
0.0
  0
LINE
  5
3591
330
1E
100
AcDbEntity
  8
7
100
AcDbLine
 10
1.565765607888518
 20
2.755900177452145
 30
0.0
 11
1.502773481904267
 21
2.740152145956082
 31
0.0
  0
LINE
  5
3592
330
1E
100
AcDbEntity
  8
7
100
AcDbLine
 10
1.613009702376707
 20
2.870073405798601
 30
0.0
 11
1.597261670880644
 21
2.811018287688364
 31
0.0
  0
LINE
  5
3593
330
1E
100
AcDbEntity
  8
7
100
AcDbLine
 10
1.597261670880644
 20
2.811018287688364
 30
0.0
 11
1.553954584266472
 21
2.763774193200179
 31
0.0
  0
LINE
  5
3594
330
1E
100
AcDbEntity
  8
7
100
AcDbLine
 10
1.553954584266472
 20
2.763774193200179
 30
0.0
 11
1.494899466156235
 21
2.748026161704112
 31
0.0
  0
LINE
  5
3595
330
1E
100
AcDbEntity
  8
7
100
AcDbLine
 10
-1.264943053528803
 20
2.870073405798605
 30
0.0
 11
-1.22950998266266
 21
2.870073405798605
 31
0.0
  0
LINE
  5
3596
330
1E
100
AcDbEntity
  8
7
100
AcDbLine
 10
-1.22950998266266
 20
2.870073405798605
 30
0.0
 11
-1.146832817308331
 21
2.870073405798605
 31
0.0
  0
LINE
  5
3597
330
1E
100
AcDbEntity
  8
7
100
AcDbLine
 10
-1.264943053528803
 20
2.870073405798605
 30
0.0
 11
-1.24919502203274
 21
2.811018287688368
 31
0.0
  0
LINE
  5
3598
330
1E
100
AcDbEntity
  8
7
100
AcDbLine
 10
-1.24919502203274
 20
2.811018287688368
 30
0.0
 11
-1.205887935418566
 21
2.763774193200179
 31
0.0
  0
LINE
  5
3599
330
1E
100
AcDbEntity
  8
7
100
AcDbLine
 10
-1.205887935418566
 20
2.763774193200179
 30
0.0
 11
-1.146832817308331
 21
2.748026161704116
 31
0.0
  0
LINE
  5
359A
330
1E
100
AcDbEntity
  8
7
100
AcDbLine
 10
-1.276754077150851
 20
2.858262382176556
 30
0.0
 11
-1.261006045654786
 21
2.799207264066319
 31
0.0
  0
LINE
  5
359B
330
1E
100
AcDbEntity
  8
7
100
AcDbLine
 10
-1.261006045654786
 20
2.799207264066319
 30
0.0
 11
-1.217698959040614
 21
2.755900177452145
 31
0.0
  0
LINE
  5
359C
330
1E
100
AcDbEntity
  8
7
100
AcDbLine
 10
-1.217698959040614
 20
2.755900177452145
 30
0.0
 11
-1.154706833056362
 21
2.740152145956082
 31
0.0
  0
LINE
  5
359D
330
1E
100
AcDbEntity
  8
7
100
AcDbLine
 10
-1.146832817308331
 20
2.870073405798605
 30
0.0
 11
-1.146832817308331
 21
2.787396240444271
 31
0.0
  0
LINE
  5
359E
330
1E
100
AcDbEntity
  8
7
100
AcDbLine
 10
-1.146832817308331
 20
2.787396240444271
 30
0.0
 11
-1.146832817308331
 21
2.748026161704116
 31
0.0
  0
LINE
  5
359F
330
1E
100
AcDbEntity
  8
7
100
AcDbLine
 10
1.494899466156235
 20
2.870073405798601
 30
0.0
 11
1.494899466156235
 21
2.787396240444271
 31
0.0
  0
LINE
  5
35A0
330
1E
100
AcDbEntity
  8
7
100
AcDbLine
 10
1.494899466156235
 20
2.787396240444271
 30
0.0
 11
1.494899466156235
 21
2.748026161704112
 31
0.0
  0
LINE
  5
35A1
330
1E
100
AcDbEntity
  8
7
100
AcDbLine
 10
13.29411206458143
 20
4.314955295562379
 30
0.0
 11
13.25867899371528
 21
4.314955295562379
 31
0.0
  0
LINE
  5
35A2
330
1E
100
AcDbEntity
  8
7
100
AcDbLine
 10
13.25867899371528
 20
4.314955295562379
 30
0.0
 11
13.17600182836096
 21
4.314955295562379
 31
0.0
  0
LINE
  5
35A3
330
1E
100
AcDbEntity
  8
7
100
AcDbLine
 10
13.18387584410899
 20
4.444876555404897
 30
0.0
 11
13.24293096221922
 21
4.429128523908834
 31
0.0
  0
LINE
  5
35A4
330
1E
100
AcDbEntity
  8
7
100
AcDbLine
 10
13.24293096221922
 20
4.429128523908834
 30
0.0
 11
13.2862380488334
 21
4.385821437294664
 31
0.0
  0
LINE
  5
35A5
330
1E
100
AcDbEntity
  8
7
100
AcDbLine
 10
13.2862380488334
 20
4.385821437294664
 30
0.0
 11
13.30592308820347
 21
4.322829311310412
 31
0.0
  0
LINE
  5
35A6
330
1E
100
AcDbEntity
  8
7
100
AcDbLine
 10
13.29411206458143
 20
4.314955295562379
 30
0.0
 11
13.27836403308537
 21
4.374010413672616
 31
0.0
  0
LINE
  5
35A7
330
1E
100
AcDbEntity
  8
7
100
AcDbLine
 10
13.27836403308537
 20
4.374010413672616
 30
0.0
 11
13.23505694647119
 21
4.41731750028679
 31
0.0
  0
LINE
  5
35A8
330
1E
100
AcDbEntity
  8
7
100
AcDbLine
 10
13.23505694647119
 20
4.41731750028679
 30
0.0
 11
13.17600182836096
 21
4.433065531782853
 31
0.0
  0
LINE
  5
35A9
330
1E
100
AcDbEntity
  8
7
100
AcDbLine
 10
10.4122223008019
 20
4.314955295562382
 30
0.0
 11
10.45159237954206
 21
4.314955295562382
 31
0.0
  0
LINE
  5
35AA
330
1E
100
AcDbEntity
  8
7
100
AcDbLine
 10
10.45159237954206
 20
4.314955295562382
 30
0.0
 11
10.53426954489639
 21
4.314955295562382
 31
0.0
  0
LINE
  5
35AB
330
1E
100
AcDbEntity
  8
7
100
AcDbLine
 10
10.4122223008019
 20
4.314955295562382
 30
0.0
 11
10.43190734017198
 21
4.374010413672616
 31
0.0
  0
LINE
  5
35AC
330
1E
100
AcDbEntity
  8
7
100
AcDbLine
 10
10.43190734017198
 20
4.374010413672616
 30
0.0
 11
10.47521442678615
 21
4.41731750028679
 31
0.0
  0
LINE
  5
35AD
330
1E
100
AcDbEntity
  8
7
100
AcDbLine
 10
10.47521442678615
 20
4.41731750028679
 30
0.0
 11
10.53426954489639
 21
4.433065531782853
 31
0.0
  0
LINE
  5
35AE
330
1E
100
AcDbEntity
  8
7
100
AcDbLine
 10
10.52245852127434
 20
4.444876555404901
 30
0.0
 11
10.46340340316411
 21
4.429128523908838
 31
0.0
  0
LINE
  5
35AF
330
1E
100
AcDbEntity
  8
7
100
AcDbLine
 10
10.46340340316411
 20
4.429128523908838
 30
0.0
 11
10.42009631654993
 21
4.385821437294664
 31
0.0
  0
LINE
  5
35B0
330
1E
100
AcDbEntity
  8
7
100
AcDbLine
 10
10.42009631654993
 20
4.385821437294664
 30
0.0
 11
10.40434828505387
 21
4.322829311310412
 31
0.0
  0
LINE
  5
35B1
330
1E
100
AcDbEntity
  8
7
100
AcDbLine
 10
10.53426954489639
 20
4.433065531782853
 30
0.0
 11
10.53426954489639
 21
4.397632460916712
 31
0.0
  0
LINE
  5
35B2
330
1E
100
AcDbEntity
  8
7
100
AcDbLine
 10
10.53426954489639
 20
4.397632460916712
 30
0.0
 11
10.53426954489639
 21
4.314955295562382
 31
0.0
  0
LINE
  5
35B3
330
1E
100
AcDbEntity
  8
7
100
AcDbLine
 10
13.17600182836096
 20
4.433065531782853
 30
0.0
 11
13.17600182836096
 21
4.397632460916709
 31
0.0
  0
LINE
  5
35B4
330
1E
100
AcDbEntity
  8
7
100
AcDbLine
 10
13.17600182836096
 20
4.397632460916709
 30
0.0
 11
13.17600182836096
 21
4.314955295562379
 31
0.0
  0
LINE
  5
35B5
330
1E
100
AcDbEntity
  8
7
100
AcDbLine
 10
13.29411206458143
 20
2.870073405798601
 30
0.0
 11
13.25867899371528
 21
2.870073405798601
 31
0.0
  0
LINE
  5
35B6
330
1E
100
AcDbEntity
  8
7
100
AcDbLine
 10
13.25867899371528
 20
2.870073405798601
 30
0.0
 11
13.17600182836096
 21
2.870073405798601
 31
0.0
  0
LINE
  5
35B7
330
1E
100
AcDbEntity
  8
7
100
AcDbLine
 10
13.30592308820347
 20
2.858262382176553
 30
0.0
 11
13.2862380488334
 21
2.799207264066319
 31
0.0
  0
LINE
  5
35B8
330
1E
100
AcDbEntity
  8
7
100
AcDbLine
 10
13.2862380488334
 20
2.799207264066319
 30
0.0
 11
13.24293096221922
 21
2.755900177452142
 31
0.0
  0
LINE
  5
35B9
330
1E
100
AcDbEntity
  8
7
100
AcDbLine
 10
13.24293096221922
 20
2.755900177452142
 30
0.0
 11
13.18387584410899
 21
2.740152145956082
 31
0.0
  0
LINE
  5
35BA
330
1E
100
AcDbEntity
  8
7
100
AcDbLine
 10
13.29411206458143
 20
2.870073405798601
 30
0.0
 11
13.27836403308537
 21
2.811018287688364
 31
0.0
  0
LINE
  5
35BB
330
1E
100
AcDbEntity
  8
7
100
AcDbLine
 10
13.27836403308537
 20
2.811018287688364
 30
0.0
 11
13.23505694647119
 21
2.763774193200175
 31
0.0
  0
LINE
  5
35BC
330
1E
100
AcDbEntity
  8
7
100
AcDbLine
 10
13.23505694647119
 20
2.763774193200175
 30
0.0
 11
13.17600182836096
 21
2.748026161704112
 31
0.0
  0
LINE
  5
35BD
330
1E
100
AcDbEntity
  8
7
100
AcDbLine
 10
10.4122223008019
 20
2.870073405798601
 30
0.0
 11
10.45159237954206
 21
2.870073405798601
 31
0.0
  0
LINE
  5
35BE
330
1E
100
AcDbEntity
  8
7
100
AcDbLine
 10
10.45159237954206
 20
2.870073405798601
 30
0.0
 11
10.53426954489639
 21
2.870073405798601
 31
0.0
  0
LINE
  5
35BF
330
1E
100
AcDbEntity
  8
7
100
AcDbLine
 10
10.4122223008019
 20
2.870073405798601
 30
0.0
 11
10.43190734017198
 21
2.811018287688364
 31
0.0
  0
LINE
  5
35C0
330
1E
100
AcDbEntity
  8
7
100
AcDbLine
 10
10.43190734017198
 20
2.811018287688364
 30
0.0
 11
10.47521442678615
 21
2.763774193200175
 31
0.0
  0
LINE
  5
35C1
330
1E
100
AcDbEntity
  8
7
100
AcDbLine
 10
10.47521442678615
 20
2.763774193200175
 30
0.0
 11
10.53426954489639
 21
2.748026161704112
 31
0.0
  0
LINE
  5
35C2
330
1E
100
AcDbEntity
  8
7
100
AcDbLine
 10
10.40434828505387
 20
2.858262382176553
 30
0.0
 11
10.42009631654993
 21
2.799207264066319
 31
0.0
  0
LINE
  5
35C3
330
1E
100
AcDbEntity
  8
7
100
AcDbLine
 10
10.42009631654993
 20
2.799207264066319
 30
0.0
 11
10.46340340316411
 21
2.755900177452142
 31
0.0
  0
LINE
  5
35C4
330
1E
100
AcDbEntity
  8
7
100
AcDbLine
 10
10.46340340316411
 20
2.755900177452142
 30
0.0
 11
10.52245852127434
 21
2.740152145956082
 31
0.0
  0
LINE
  5
35C5
330
1E
100
AcDbEntity
  8
7
100
AcDbLine
 10
10.53426954489639
 20
2.870073405798601
 30
0.0
 11
10.53426954489639
 21
2.787396240444268
 31
0.0
  0
LINE
  5
35C6
330
1E
100
AcDbEntity
  8
7
100
AcDbLine
 10
10.53426954489639
 20
2.787396240444268
 30
0.0
 11
10.53426954489639
 21
2.748026161704112
 31
0.0
  0
LINE
  5
35C7
330
1E
100
AcDbEntity
  8
7
100
AcDbLine
 10
13.17600182836096
 20
2.870073405798601
 30
0.0
 11
13.17600182836096
 21
2.787396240444268
 31
0.0
  0
LINE
  5
35C8
330
1E
100
AcDbEntity
  8
7
100
AcDbLine
 10
13.17600182836096
 20
2.787396240444268
 30
0.0
 11
13.17600182836096
 21
2.748026161704112
 31
0.0
  0
LINE
  5
35C9
330
1E
100
AcDbEntity
  8
7
100
AcDbLine
 10
7.44371836379403
 20
4.314955295562382
 30
0.0
 11
7.408285292927889
 21
4.314955295562382
 31
0.0
  0
LINE
  5
35CA
330
1E
100
AcDbEntity
  8
7
100
AcDbLine
 10
7.408285292927889
 20
4.314955295562382
 30
0.0
 11
7.325608127573559
 21
4.314955295562382
 31
0.0
  0
LINE
  5
35CB
330
1E
100
AcDbEntity
  8
7
100
AcDbLine
 10
7.333482143321589
 20
4.444876555404901
 30
0.0
 11
7.392537261431826
 21
4.429128523908838
 31
0.0
  0
LINE
  5
35CC
330
1E
100
AcDbEntity
  8
7
100
AcDbLine
 10
7.392537261431826
 20
4.429128523908838
 30
0.0
 11
7.439781355920015
 21
4.385821437294664
 31
0.0
  0
LINE
  5
35CD
330
1E
100
AcDbEntity
  8
7
100
AcDbLine
 10
7.439781355920015
 20
4.385821437294664
 30
0.0
 11
7.455529387416078
 21
4.322829311310412
 31
0.0
  0
LINE
  5
35CE
330
1E
100
AcDbEntity
  8
7
100
AcDbLine
 10
7.44371836379403
 20
4.314955295562382
 30
0.0
 11
7.427970332297967
 21
4.374010413672616
 31
0.0
  0
LINE
  5
35CF
330
1E
100
AcDbEntity
  8
7
100
AcDbLine
 10
7.427970332297967
 20
4.374010413672616
 30
0.0
 11
7.384663245683796
 21
4.41731750028679
 31
0.0
  0
LINE
  5
35D0
330
1E
100
AcDbEntity
  8
7
100
AcDbLine
 10
7.384663245683796
 20
4.41731750028679
 30
0.0
 11
7.325608127573559
 21
4.433065531782853
 31
0.0
  0
LINE
  5
35D1
330
1E
100
AcDbEntity
  8
7
100
AcDbLine
 10
4.565765607888518
 20
4.314955295562382
 30
0.0
 11
4.601198678754659
 21
4.314955295562382
 31
0.0
  0
LINE
  5
35D2
330
1E
100
AcDbEntity
  8
7
100
AcDbLine
 10
4.601198678754659
 20
4.314955295562382
 30
0.0
 11
4.683875844108989
 21
4.314955295562382
 31
0.0
  0
LINE
  5
35D3
330
1E
100
AcDbEntity
  8
7
100
AcDbLine
 10
4.565765607888518
 20
4.314955295562382
 30
0.0
 11
4.581513639384581
 21
4.374010413672616
 31
0.0
  0
LINE
  5
35D4
330
1E
100
AcDbEntity
  8
7
100
AcDbLine
 10
4.581513639384581
 20
4.374010413672616
 30
0.0
 11
4.624820725998755
 21
4.41731750028679
 31
0.0
  0
LINE
  5
35D5
330
1E
100
AcDbEntity
  8
7
100
AcDbLine
 10
4.624820725998755
 20
4.41731750028679
 30
0.0
 11
4.683875844108989
 21
4.433065531782853
 31
0.0
  0
LINE
  5
35D6
330
1E
100
AcDbEntity
  8
7
100
AcDbLine
 10
4.676001828360959
 20
4.444876555404901
 30
0.0
 11
4.613009702376707
 21
4.429128523908838
 31
0.0
  0
LINE
  5
35D7
330
1E
100
AcDbEntity
  8
7
100
AcDbLine
 10
4.613009702376707
 20
4.429128523908838
 30
0.0
 11
4.569702615762533
 21
4.385821437294664
 31
0.0
  0
LINE
  5
35D8
330
1E
100
AcDbEntity
  8
7
100
AcDbLine
 10
4.569702615762533
 20
4.385821437294664
 30
0.0
 11
4.55395458426647
 21
4.322829311310412
 31
0.0
  0
LINE
  5
35D9
330
1E
100
AcDbEntity
  8
7
100
AcDbLine
 10
4.683875844108989
 20
4.433065531782853
 30
0.0
 11
4.683875844108989
 21
4.397632460916712
 31
0.0
  0
LINE
  5
35DA
330
1E
100
AcDbEntity
  8
7
100
AcDbLine
 10
4.683875844108989
 20
4.397632460916712
 30
0.0
 11
4.683875844108989
 21
4.314955295562382
 31
0.0
  0
LINE
  5
35DB
330
1E
100
AcDbEntity
  8
7
100
AcDbLine
 10
7.325608127573559
 20
4.433065531782853
 30
0.0
 11
7.325608127573559
 21
4.397632460916712
 31
0.0
  0
LINE
  5
35DC
330
1E
100
AcDbEntity
  8
7
100
AcDbLine
 10
7.325608127573559
 20
4.397632460916712
 30
0.0
 11
7.325608127573559
 21
4.314955295562382
 31
0.0
  0
LINE
  5
35DD
330
1E
100
AcDbEntity
  8
7
100
AcDbLine
 10
7.44371836379403
 20
2.870073405798601
 30
0.0
 11
7.408285292927889
 21
2.870073405798601
 31
0.0
  0
LINE
  5
35DE
330
1E
100
AcDbEntity
  8
7
100
AcDbLine
 10
7.408285292927889
 20
2.870073405798601
 30
0.0
 11
7.325608127573559
 21
2.870073405798601
 31
0.0
  0
LINE
  5
35DF
330
1E
100
AcDbEntity
  8
7
100
AcDbLine
 10
7.455529387416078
 20
2.858262382176553
 30
0.0
 11
7.439781355920015
 21
2.799207264066319
 31
0.0
  0
LINE
  5
35E0
330
1E
100
AcDbEntity
  8
7
100
AcDbLine
 10
7.439781355920015
 20
2.799207264066319
 30
0.0
 11
7.392537261431826
 21
2.755900177452145
 31
0.0
  0
LINE
  5
35E1
330
1E
100
AcDbEntity
  8
7
100
AcDbLine
 10
7.392537261431826
 20
2.755900177452145
 30
0.0
 11
7.333482143321589
 21
2.740152145956082
 31
0.0
  0
LINE
  5
35E2
330
1E
100
AcDbEntity
  8
7
100
AcDbLine
 10
7.44371836379403
 20
2.870073405798601
 30
0.0
 11
7.427970332297967
 21
2.811018287688364
 31
0.0
  0
LINE
  5
35E3
330
1E
100
AcDbEntity
  8
7
100
AcDbLine
 10
7.427970332297967
 20
2.811018287688364
 30
0.0
 11
7.384663245683796
 21
2.763774193200175
 31
0.0
  0
LINE
  5
35E4
330
1E
100
AcDbEntity
  8
7
100
AcDbLine
 10
7.384663245683796
 20
2.763774193200175
 30
0.0
 11
7.325608127573559
 21
2.748026161704112
 31
0.0
  0
LINE
  5
35E5
330
1E
100
AcDbEntity
  8
7
100
AcDbLine
 10
4.565765607888518
 20
2.870073405798601
 30
0.0
 11
4.601198678754659
 21
2.870073405798601
 31
0.0
  0
LINE
  5
35E6
330
1E
100
AcDbEntity
  8
7
100
AcDbLine
 10
4.601198678754659
 20
2.870073405798601
 30
0.0
 11
4.683875844108989
 21
2.870073405798601
 31
0.0
  0
LINE
  5
35E7
330
1E
100
AcDbEntity
  8
7
100
AcDbLine
 10
4.565765607888518
 20
2.870073405798601
 30
0.0
 11
4.581513639384581
 21
2.811018287688364
 31
0.0
  0
LINE
  5
35E8
330
1E
100
AcDbEntity
  8
7
100
AcDbLine
 10
4.581513639384581
 20
2.811018287688364
 30
0.0
 11
4.624820725998755
 21
2.763774193200175
 31
0.0
  0
LINE
  5
35E9
330
1E
100
AcDbEntity
  8
7
100
AcDbLine
 10
4.624820725998755
 20
2.763774193200175
 30
0.0
 11
4.683875844108989
 21
2.748026161704112
 31
0.0
  0
LINE
  5
35EA
330
1E
100
AcDbEntity
  8
7
100
AcDbLine
 10
4.55395458426647
 20
2.858262382176556
 30
0.0
 11
4.569702615762533
 21
2.799207264066319
 31
0.0
  0
LINE
  5
35EB
330
1E
100
AcDbEntity
  8
7
100
AcDbLine
 10
4.569702615762533
 20
2.799207264066319
 30
0.0
 11
4.613009702376707
 21
2.755900177452145
 31
0.0
  0
LINE
  5
35EC
330
1E
100
AcDbEntity
  8
7
100
AcDbLine
 10
4.613009702376707
 20
2.755900177452145
 30
0.0
 11
4.676001828360959
 21
2.740152145956082
 31
0.0
  0
LINE
  5
35ED
330
1E
100
AcDbEntity
  8
7
100
AcDbLine
 10
4.683875844108989
 20
2.870073405798601
 30
0.0
 11
4.683875844108989
 21
2.787396240444271
 31
0.0
  0
LINE
  5
35EE
330
1E
100
AcDbEntity
  8
7
100
AcDbLine
 10
4.683875844108989
 20
2.787396240444271
 30
0.0
 11
4.683875844108989
 21
2.748026161704112
 31
0.0
  0
LINE
  5
35EF
330
1E
100
AcDbEntity
  8
7
100
AcDbLine
 10
7.325608127573559
 20
2.870073405798601
 30
0.0
 11
7.325608127573559
 21
2.787396240444271
 31
0.0
  0
LINE
  5
35F0
330
1E
100
AcDbEntity
  8
7
100
AcDbLine
 10
7.325608127573559
 20
2.787396240444271
 30
0.0
 11
7.325608127573559
 21
2.748026161704112
 31
0.0
  0
LINE
  5
35F1
330
1E
100
AcDbEntity
  8
7
100
AcDbLine
 10
10.36104119843969
 20
4.314955295562382
 30
0.0
 11
10.32167111969954
 21
4.314955295562382
 31
0.0
  0
LINE
  5
35F2
330
1E
100
AcDbEntity
  8
7
100
AcDbLine
 10
10.32167111969954
 20
4.314955295562382
 30
0.0
 11
10.23899395434521
 21
4.314955295562382
 31
0.0
  0
LINE
  5
35F3
330
1E
100
AcDbEntity
  8
7
100
AcDbLine
 10
10.25080497796726
 20
4.444876555404901
 30
0.0
 11
10.30986009607749
 21
4.429128523908838
 31
0.0
  0
LINE
  5
35F4
330
1E
100
AcDbEntity
  8
7
100
AcDbLine
 10
10.30986009607749
 20
4.429128523908838
 30
0.0
 11
10.35316718269167
 21
4.385821437294664
 31
0.0
  0
LINE
  5
35F5
330
1E
100
AcDbEntity
  8
7
100
AcDbLine
 10
10.35316718269167
 20
4.385821437294664
 30
0.0
 11
10.36891521418773
 21
4.322829311310412
 31
0.0
  0
LINE
  5
35F6
330
1E
100
AcDbEntity
  8
7
100
AcDbLine
 10
10.36104119843969
 20
4.314955295562382
 30
0.0
 11
10.34135615906962
 21
4.374010413672616
 31
0.0
  0
LINE
  5
35F7
330
1E
100
AcDbEntity
  8
7
100
AcDbLine
 10
10.34135615906962
 20
4.374010413672616
 30
0.0
 11
10.29804907245544
 21
4.41731750028679
 31
0.0
  0
LINE
  5
35F8
330
1E
100
AcDbEntity
  8
7
100
AcDbLine
 10
10.29804907245544
 20
4.41731750028679
 30
0.0
 11
10.23899395434521
 21
4.433065531782853
 31
0.0
  0
LINE
  5
35F9
330
1E
100
AcDbEntity
  8
7
100
AcDbLine
 10
7.479151434660174
 20
4.314955295562382
 30
0.0
 11
7.514584505526315
 21
4.314955295562382
 31
0.0
  0
LINE
  5
35FA
330
1E
100
AcDbEntity
  8
7
100
AcDbLine
 10
7.514584505526315
 20
4.314955295562382
 30
0.0
 11
7.597261670880644
 21
4.314955295562382
 31
0.0
  0
LINE
  5
35FB
330
1E
100
AcDbEntity
  8
7
100
AcDbLine
 10
7.479151434660174
 20
4.314955295562382
 30
0.0
 11
7.494899466156237
 21
4.374010413672616
 31
0.0
  0
LINE
  5
35FC
330
1E
100
AcDbEntity
  8
7
100
AcDbLine
 10
7.494899466156237
 20
4.374010413672616
 30
0.0
 11
7.538206552770407
 21
4.41731750028679
 31
0.0
  0
LINE
  5
35FD
330
1E
100
AcDbEntity
  8
7
100
AcDbLine
 10
7.538206552770407
 20
4.41731750028679
 30
0.0
 11
7.597261670880644
 21
4.433065531782853
 31
0.0
  0
LINE
  5
35FE
330
1E
100
AcDbEntity
  8
7
100
AcDbLine
 10
7.589387655132615
 20
4.444876555404901
 30
0.0
 11
7.530332537022378
 21
4.429128523908838
 31
0.0
  0
LINE
  5
35FF
330
1E
100
AcDbEntity
  8
7
100
AcDbLine
 10
7.530332537022378
 20
4.429128523908838
 30
0.0
 11
7.487025450408204
 21
4.385821437294664
 31
0.0
  0
LINE
  5
3600
330
1E
100
AcDbEntity
  8
7
100
AcDbLine
 10
7.487025450408204
 20
4.385821437294664
 30
0.0
 11
7.467340411038126
 21
4.322829311310412
 31
0.0
  0
LINE
  5
3601
330
1E
100
AcDbEntity
  8
7
100
AcDbLine
 10
7.597261670880644
 20
4.433065531782853
 30
0.0
 11
7.597261670880644
 21
4.397632460916712
 31
0.0
  0
LINE
  5
3602
330
1E
100
AcDbEntity
  8
7
100
AcDbLine
 10
7.597261670880644
 20
4.397632460916712
 30
0.0
 11
7.597261670880644
 21
4.314955295562382
 31
0.0
  0
LINE
  5
3603
330
1E
100
AcDbEntity
  8
7
100
AcDbLine
 10
10.23899395434521
 20
4.433065531782853
 30
0.0
 11
10.23899395434521
 21
4.397632460916712
 31
0.0
  0
LINE
  5
3604
330
1E
100
AcDbEntity
  8
7
100
AcDbLine
 10
10.23899395434521
 20
4.397632460916712
 30
0.0
 11
10.23899395434521
 21
4.314955295562382
 31
0.0
  0
LINE
  5
3605
330
1E
100
AcDbEntity
  8
7
100
AcDbLine
 10
10.36104119843969
 20
2.870073405798601
 30
0.0
 11
10.32167111969954
 21
2.870073405798601
 31
0.0
  0
LINE
  5
3606
330
1E
100
AcDbEntity
  8
7
100
AcDbLine
 10
10.32167111969954
 20
2.870073405798601
 30
0.0
 11
10.23899395434521
 21
2.870073405798601
 31
0.0
  0
LINE
  5
3607
330
1E
100
AcDbEntity
  8
7
100
AcDbLine
 10
10.36891521418773
 20
2.858262382176553
 30
0.0
 11
10.35316718269167
 21
2.799207264066319
 31
0.0
  0
LINE
  5
3608
330
1E
100
AcDbEntity
  8
7
100
AcDbLine
 10
10.35316718269167
 20
2.799207264066319
 30
0.0
 11
10.30986009607749
 21
2.755900177452142
 31
0.0
  0
LINE
  5
3609
330
1E
100
AcDbEntity
  8
7
100
AcDbLine
 10
10.30986009607749
 20
2.755900177452142
 30
0.0
 11
10.25080497796726
 21
2.740152145956082
 31
0.0
  0
LINE
  5
360A
330
1E
100
AcDbEntity
  8
7
100
AcDbLine
 10
10.36104119843969
 20
2.870073405798601
 30
0.0
 11
10.34135615906962
 21
2.811018287688364
 31
0.0
  0
LINE
  5
360B
330
1E
100
AcDbEntity
  8
7
100
AcDbLine
 10
10.34135615906962
 20
2.811018287688364
 30
0.0
 11
10.29804907245544
 21
2.763774193200175
 31
0.0
  0
LINE
  5
360C
330
1E
100
AcDbEntity
  8
7
100
AcDbLine
 10
10.29804907245544
 20
2.763774193200175
 30
0.0
 11
10.23899395434521
 21
2.748026161704112
 31
0.0
  0
LINE
  5
360D
330
1E
100
AcDbEntity
  8
7
100
AcDbLine
 10
7.479151434660174
 20
2.870073405798601
 30
0.0
 11
7.514584505526315
 21
2.870073405798601
 31
0.0
  0
LINE
  5
360E
330
1E
100
AcDbEntity
  8
7
100
AcDbLine
 10
7.514584505526315
 20
2.870073405798601
 30
0.0
 11
7.597261670880644
 21
2.870073405798601
 31
0.0
  0
LINE
  5
360F
330
1E
100
AcDbEntity
  8
7
100
AcDbLine
 10
7.479151434660174
 20
2.870073405798601
 30
0.0
 11
7.494899466156237
 21
2.811018287688364
 31
0.0
  0
LINE
  5
3610
330
1E
100
AcDbEntity
  8
7
100
AcDbLine
 10
7.494899466156237
 20
2.811018287688364
 30
0.0
 11
7.538206552770407
 21
2.763774193200175
 31
0.0
  0
LINE
  5
3611
330
1E
100
AcDbEntity
  8
7
100
AcDbLine
 10
7.538206552770407
 20
2.763774193200175
 30
0.0
 11
7.597261670880644
 21
2.748026161704112
 31
0.0
  0
LINE
  5
3612
330
1E
100
AcDbEntity
  8
7
100
AcDbLine
 10
7.467340411038126
 20
2.858262382176553
 30
0.0
 11
7.487025450408204
 21
2.799207264066319
 31
0.0
  0
LINE
  5
3613
330
1E
100
AcDbEntity
  8
7
100
AcDbLine
 10
7.487025450408204
 20
2.799207264066319
 30
0.0
 11
7.530332537022378
 21
2.755900177452145
 31
0.0
  0
LINE
  5
3614
330
1E
100
AcDbEntity
  8
7
100
AcDbLine
 10
7.530332537022378
 20
2.755900177452145
 30
0.0
 11
7.589387655132615
 21
2.740152145956082
 31
0.0
  0
LINE
  5
3615
330
1E
100
AcDbEntity
  8
7
100
AcDbLine
 10
7.597261670880644
 20
2.870073405798601
 30
0.0
 11
7.597261670880644
 21
2.787396240444271
 31
0.0
  0
LINE
  5
3616
330
1E
100
AcDbEntity
  8
7
100
AcDbLine
 10
7.597261670880644
 20
2.787396240444271
 30
0.0
 11
7.597261670880644
 21
2.748026161704112
 31
0.0
  0
LINE
  5
3617
330
1E
100
AcDbEntity
  8
7
100
AcDbLine
 10
10.23899395434521
 20
2.870073405798601
 30
0.0
 11
10.23899395434521
 21
2.787396240444268
 31
0.0
  0
LINE
  5
3618
330
1E
100
AcDbEntity
  8
7
100
AcDbLine
 10
10.23899395434521
 20
2.787396240444268
 30
0.0
 11
10.23899395434521
 21
2.748026161704112
 31
0.0
  0
LINE
  5
3619
330
1E
100
AcDbEntity
  8
7
100
AcDbLine
 10
-1.300376124394945
 20
4.314955295562382
 30
0.0
 11
-1.335809195261086
 21
4.314955295562382
 31
0.0
  0
LINE
  5
361A
330
1E
100
AcDbEntity
  8
7
100
AcDbLine
 10
-1.335809195261086
 20
4.314955295562382
 30
0.0
 11
-1.422423368489432
 21
4.314955295562382
 31
0.0
  0
LINE
  5
361B
330
1E
100
AcDbEntity
  8
7
100
AcDbLine
 10
-1.410612344867384
 20
4.444876555404901
 30
0.0
 11
-1.351557226757149
 21
4.429128523908838
 31
0.0
  0
LINE
  5
361C
330
1E
100
AcDbEntity
  8
7
100
AcDbLine
 10
-1.351557226757149
 20
4.429128523908838
 30
0.0
 11
-1.308250140142977
 21
4.385821437294668
 31
0.0
  0
LINE
  5
361D
330
1E
100
AcDbEntity
  8
7
100
AcDbLine
 10
-1.308250140142977
 20
4.385821437294668
 30
0.0
 11
-1.292502108646914
 21
4.322829311310416
 31
0.0
  0
LINE
  5
361E
330
1E
100
AcDbEntity
  8
7
100
AcDbLine
 10
-1.300376124394945
 20
4.314955295562382
 30
0.0
 11
-1.316124155891008
 21
4.374010413672619
 31
0.0
  0
LINE
  5
361F
330
1E
100
AcDbEntity
  8
7
100
AcDbLine
 10
-1.316124155891008
 20
4.374010413672619
 30
0.0
 11
-1.359431242505181
 21
4.417317500286793
 31
0.0
  0
LINE
  5
3620
330
1E
100
AcDbEntity
  8
7
100
AcDbLine
 10
-1.359431242505181
 20
4.417317500286793
 30
0.0
 11
-1.422423368489432
 21
4.433065531782856
 31
0.0
  0
LINE
  5
3621
330
1E
100
AcDbEntity
  8
7
100
AcDbLine
 10
-4.182265888174473
 20
4.314955295562382
 30
0.0
 11
-4.142895809434314
 21
4.314955295562382
 31
0.0
  0
LINE
  5
3622
330
1E
100
AcDbEntity
  8
7
100
AcDbLine
 10
-4.142895809434314
 20
4.314955295562382
 30
0.0
 11
-4.060218644079984
 21
4.314955295562382
 31
0.0
  0
LINE
  5
3623
330
1E
100
AcDbEntity
  8
7
100
AcDbLine
 10
-4.182265888174473
 20
4.314955295562382
 30
0.0
 11
-4.16651785667841
 21
4.374010413672619
 31
0.0
  0
LINE
  5
3624
330
1E
100
AcDbEntity
  8
7
100
AcDbLine
 10
-4.16651785667841
 20
4.374010413672619
 30
0.0
 11
-4.119273762190221
 21
4.417317500286793
 31
0.0
  0
LINE
  5
3625
330
1E
100
AcDbEntity
  8
7
100
AcDbLine
 10
-4.119273762190221
 20
4.417317500286793
 30
0.0
 11
-4.060218644079984
 21
4.433065531782856
 31
0.0
  0
LINE
  5
3626
330
1E
100
AcDbEntity
  8
7
100
AcDbLine
 10
-4.072029667702032
 20
4.444876555404901
 30
0.0
 11
-4.131084785812266
 21
4.429128523908838
 31
0.0
  0
LINE
  5
3627
330
1E
100
AcDbEntity
  8
7
100
AcDbLine
 10
-4.131084785812266
 20
4.429128523908838
 30
0.0
 11
-4.17439187242644
 21
4.385821437294668
 31
0.0
  0
LINE
  5
3628
330
1E
100
AcDbEntity
  8
7
100
AcDbLine
 10
-4.17439187242644
 20
4.385821437294668
 30
0.0
 11
-4.190139903922503
 21
4.322829311310416
 31
0.0
  0
LINE
  5
3629
330
1E
100
AcDbEntity
  8
7
100
AcDbLine
 10
-4.060218644079984
 20
4.433065531782856
 30
0.0
 11
-4.060218644079984
 21
4.397632460916712
 31
0.0
  0
LINE
  5
362A
330
1E
100
AcDbEntity
  8
7
100
AcDbLine
 10
-4.060218644079984
 20
4.397632460916712
 30
0.0
 11
-4.060218644079984
 21
4.314955295562382
 31
0.0
  0
LINE
  5
362B
330
1E
100
AcDbEntity
  8
7
100
AcDbLine
 10
-1.422423368489432
 20
4.433065531782856
 30
0.0
 11
-1.422423368489432
 21
4.397632460916712
 31
0.0
  0
LINE
  5
362C
330
1E
100
AcDbEntity
  8
7
100
AcDbLine
 10
-1.422423368489432
 20
4.397632460916712
 30
0.0
 11
-1.422423368489432
 21
4.314955295562382
 31
0.0
  0
LINE
  5
362D
330
1E
100
AcDbEntity
  8
7
100
AcDbLine
 10
-1.300376124394945
 20
2.870073405798605
 30
0.0
 11
-1.335809195261086
 21
2.870073405798605
 31
0.0
  0
LINE
  5
362E
330
1E
100
AcDbEntity
  8
7
100
AcDbLine
 10
-1.335809195261086
 20
2.870073405798605
 30
0.0
 11
-1.422423368489432
 21
2.870073405798605
 31
0.0
  0
LINE
  5
362F
330
1E
100
AcDbEntity
  8
7
100
AcDbLine
 10
-1.292502108646914
 20
2.858262382176556
 30
0.0
 11
-1.308250140142977
 21
2.799207264066319
 31
0.0
  0
LINE
  5
3630
330
1E
100
AcDbEntity
  8
7
100
AcDbLine
 10
-1.308250140142977
 20
2.799207264066319
 30
0.0
 11
-1.351557226757149
 21
2.755900177452145
 31
0.0
  0
LINE
  5
3631
330
1E
100
AcDbEntity
  8
7
100
AcDbLine
 10
-1.351557226757149
 20
2.755900177452145
 30
0.0
 11
-1.410612344867384
 21
2.740152145956082
 31
0.0
  0
LINE
  5
3632
330
1E
100
AcDbEntity
  8
7
100
AcDbLine
 10
-1.300376124394945
 20
2.870073405798605
 30
0.0
 11
-1.316124155891008
 21
2.811018287688368
 31
0.0
  0
LINE
  5
3633
330
1E
100
AcDbEntity
  8
7
100
AcDbLine
 10
-1.316124155891008
 20
2.811018287688368
 30
0.0
 11
-1.359431242505181
 21
2.763774193200179
 31
0.0
  0
LINE
  5
3634
330
1E
100
AcDbEntity
  8
7
100
AcDbLine
 10
-1.359431242505181
 20
2.763774193200179
 30
0.0
 11
-1.422423368489432
 21
2.748026161704116
 31
0.0
  0
LINE
  5
3635
330
1E
100
AcDbEntity
  8
7
100
AcDbLine
 10
-4.182265888174473
 20
2.870073405798605
 30
0.0
 11
-4.142895809434314
 21
2.870073405798605
 31
0.0
  0
LINE
  5
3636
330
1E
100
AcDbEntity
  8
7
100
AcDbLine
 10
-4.142895809434314
 20
2.870073405798605
 30
0.0
 11
-4.060218644079984
 21
2.870073405798605
 31
0.0
  0
LINE
  5
3637
330
1E
100
AcDbEntity
  8
7
100
AcDbLine
 10
-4.182265888174473
 20
2.870073405798605
 30
0.0
 11
-4.16651785667841
 21
2.811018287688368
 31
0.0
  0
LINE
  5
3638
330
1E
100
AcDbEntity
  8
7
100
AcDbLine
 10
-4.16651785667841
 20
2.811018287688368
 30
0.0
 11
-4.119273762190221
 21
2.763774193200179
 31
0.0
  0
LINE
  5
3639
330
1E
100
AcDbEntity
  8
7
100
AcDbLine
 10
-4.119273762190221
 20
2.763774193200179
 30
0.0
 11
-4.060218644079984
 21
2.748026161704116
 31
0.0
  0
LINE
  5
363A
330
1E
100
AcDbEntity
  8
7
100
AcDbLine
 10
-4.190139903922503
 20
2.858262382176556
 30
0.0
 11
-4.17439187242644
 21
2.799207264066319
 31
0.0
  0
LINE
  5
363B
330
1E
100
AcDbEntity
  8
7
100
AcDbLine
 10
-4.17439187242644
 20
2.799207264066319
 30
0.0
 11
-4.131084785812266
 21
2.755900177452145
 31
0.0
  0
LINE
  5
363C
330
1E
100
AcDbEntity
  8
7
100
AcDbLine
 10
-4.131084785812266
 20
2.755900177452145
 30
0.0
 11
-4.072029667702032
 21
2.740152145956082
 31
0.0
  0
LINE
  5
363D
330
1E
100
AcDbEntity
  8
7
100
AcDbLine
 10
-4.060218644079984
 20
2.870073405798605
 30
0.0
 11
-4.060218644079984
 21
2.787396240444271
 31
0.0
  0
LINE
  5
363E
330
1E
100
AcDbEntity
  8
7
100
AcDbLine
 10
-4.060218644079984
 20
2.787396240444271
 30
0.0
 11
-4.060218644079984
 21
2.748026161704116
 31
0.0
  0
LINE
  5
363F
330
1E
100
AcDbEntity
  8
7
100
AcDbLine
 10
-1.422423368489432
 20
2.870073405798605
 30
0.0
 11
-1.422423368489432
 21
2.787396240444271
 31
0.0
  0
LINE
  5
3640
330
1E
100
AcDbEntity
  8
7
100
AcDbLine
 10
-1.422423368489432
 20
2.787396240444271
 30
0.0
 11
-1.422423368489432
 21
2.748026161704116
 31
0.0
  0
LINE
  5
3641
330
1E
100
AcDbEntity
  8
7
100
AcDbLine
 10
4.534269544896393
 20
4.314955295562382
 30
0.0
 11
4.498836474030252
 21
4.314955295562382
 31
0.0
  0
LINE
  5
3642
330
1E
100
AcDbEntity
  8
7
100
AcDbLine
 10
4.498836474030252
 20
4.314955295562382
 30
0.0
 11
4.416159308675918
 21
4.314955295562382
 31
0.0
  0
LINE
  5
3643
330
1E
100
AcDbEntity
  8
7
100
AcDbLine
 10
4.424033324423952
 20
4.444876555404901
 30
0.0
 11
4.483088442534189
 21
4.429128523908838
 31
0.0
  0
LINE
  5
3644
330
1E
100
AcDbEntity
  8
7
100
AcDbLine
 10
4.483088442534189
 20
4.429128523908838
 30
0.0
 11
4.526395529148359
 21
4.385821437294664
 31
0.0
  0
LINE
  5
3645
330
1E
100
AcDbEntity
  8
7
100
AcDbLine
 10
4.526395529148359
 20
4.385821437294664
 30
0.0
 11
4.546080568518441
 21
4.322829311310412
 31
0.0
  0
LINE
  5
3646
330
1E
100
AcDbEntity
  8
7
100
AcDbLine
 10
4.534269544896393
 20
4.314955295562382
 30
0.0
 11
4.51852151340033
 21
4.374010413672616
 31
0.0
  0
LINE
  5
3647
330
1E
100
AcDbEntity
  8
7
100
AcDbLine
 10
4.51852151340033
 20
4.374010413672616
 30
0.0
 11
4.475214426786155
 21
4.41731750028679
 31
0.0
  0
LINE
  5
3648
330
1E
100
AcDbEntity
  8
7
100
AcDbLine
 10
4.475214426786155
 20
4.41731750028679
 30
0.0
 11
4.416159308675918
 21
4.433065531782853
 31
0.0
  0
LINE
  5
3649
330
1E
100
AcDbEntity
  8
7
100
AcDbLine
 10
1.652379781116865
 20
4.314955295562382
 30
0.0
 11
1.691749859857022
 21
4.314955295562382
 31
0.0
  0
LINE
  5
364A
330
1E
100
AcDbEntity
  8
7
100
AcDbLine
 10
1.691749859857022
 20
4.314955295562382
 30
0.0
 11
1.774427025211354
 21
4.314955295562382
 31
0.0
  0
LINE
  5
364B
330
1E
100
AcDbEntity
  8
7
100
AcDbLine
 10
1.652379781116865
 20
4.314955295562382
 30
0.0
 11
1.672064820486944
 21
4.374010413672616
 31
0.0
  0
LINE
  5
364C
330
1E
100
AcDbEntity
  8
7
100
AcDbLine
 10
1.672064820486944
 20
4.374010413672616
 30
0.0
 11
1.715371907101117
 21
4.417317500286793
 31
0.0
  0
LINE
  5
364D
330
1E
100
AcDbEntity
  8
7
100
AcDbLine
 10
1.715371907101117
 20
4.417317500286793
 30
0.0
 11
1.774427025211354
 21
4.433065531782853
 31
0.0
  0
LINE
  5
364E
330
1E
100
AcDbEntity
  8
7
100
AcDbLine
 10
1.762616001589307
 20
4.444876555404901
 30
0.0
 11
1.70356088347907
 21
4.429128523908838
 31
0.0
  0
LINE
  5
364F
330
1E
100
AcDbEntity
  8
7
100
AcDbLine
 10
1.70356088347907
 20
4.429128523908838
 30
0.0
 11
1.660253796864896
 21
4.385821437294668
 31
0.0
  0
LINE
  5
3650
330
1E
100
AcDbEntity
  8
7
100
AcDbLine
 10
1.660253796864896
 20
4.385821437294668
 30
0.0
 11
1.644505765368833
 21
4.322829311310416
 31
0.0
  0
LINE
  5
3651
330
1E
100
AcDbEntity
  8
7
100
AcDbLine
 10
1.774427025211354
 20
4.433065531782853
 30
0.0
 11
1.774427025211354
 21
4.397632460916712
 31
0.0
  0
LINE
  5
3652
330
1E
100
AcDbEntity
  8
7
100
AcDbLine
 10
1.774427025211354
 20
4.397632460916712
 30
0.0
 11
1.774427025211354
 21
4.314955295562382
 31
0.0
  0
LINE
  5
3653
330
1E
100
AcDbEntity
  8
7
100
AcDbLine
 10
4.416159308675918
 20
4.433065531782853
 30
0.0
 11
4.416159308675918
 21
4.397632460916712
 31
0.0
  0
LINE
  5
3654
330
1E
100
AcDbEntity
  8
7
100
AcDbLine
 10
4.416159308675918
 20
4.397632460916712
 30
0.0
 11
4.416159308675918
 21
4.314955295562382
 31
0.0
  0
LINE
  5
3655
330
1E
100
AcDbEntity
  8
7
100
AcDbLine
 10
4.534269544896393
 20
2.870073405798601
 30
0.0
 11
4.498836474030252
 21
2.870073405798601
 31
0.0
  0
LINE
  5
3656
330
1E
100
AcDbEntity
  8
7
100
AcDbLine
 10
4.498836474030252
 20
2.870073405798601
 30
0.0
 11
4.416159308675918
 21
2.870073405798601
 31
0.0
  0
LINE
  5
3657
330
1E
100
AcDbEntity
  8
7
100
AcDbLine
 10
4.546080568518441
 20
2.858262382176556
 30
0.0
 11
4.526395529148359
 21
2.799207264066319
 31
0.0
  0
LINE
  5
3658
330
1E
100
AcDbEntity
  8
7
100
AcDbLine
 10
4.526395529148359
 20
2.799207264066319
 30
0.0
 11
4.483088442534189
 21
2.755900177452145
 31
0.0
  0
LINE
  5
3659
330
1E
100
AcDbEntity
  8
7
100
AcDbLine
 10
4.483088442534189
 20
2.755900177452145
 30
0.0
 11
4.424033324423952
 21
2.740152145956082
 31
0.0
  0
LINE
  5
365A
330
1E
100
AcDbEntity
  8
7
100
AcDbLine
 10
4.534269544896393
 20
2.870073405798601
 30
0.0
 11
4.51852151340033
 21
2.811018287688364
 31
0.0
  0
LINE
  5
365B
330
1E
100
AcDbEntity
  8
7
100
AcDbLine
 10
4.51852151340033
 20
2.811018287688364
 30
0.0
 11
4.475214426786155
 21
2.763774193200179
 31
0.0
  0
LINE
  5
365C
330
1E
100
AcDbEntity
  8
7
100
AcDbLine
 10
4.475214426786155
 20
2.763774193200179
 30
0.0
 11
4.416159308675918
 21
2.748026161704112
 31
0.0
  0
LINE
  5
365D
330
1E
100
AcDbEntity
  8
7
100
AcDbLine
 10
1.652379781116865
 20
2.870073405798601
 30
0.0
 11
1.691749859857022
 21
2.870073405798601
 31
0.0
  0
LINE
  5
365E
330
1E
100
AcDbEntity
  8
7
100
AcDbLine
 10
1.691749859857022
 20
2.870073405798601
 30
0.0
 11
1.774427025211354
 21
2.870073405798601
 31
0.0
  0
LINE
  5
365F
330
1E
100
AcDbEntity
  8
7
100
AcDbLine
 10
1.652379781116865
 20
2.870073405798601
 30
0.0
 11
1.672064820486944
 21
2.811018287688364
 31
0.0
  0
LINE
  5
3660
330
1E
100
AcDbEntity
  8
7
100
AcDbLine
 10
1.672064820486944
 20
2.811018287688364
 30
0.0
 11
1.715371907101117
 21
2.763774193200179
 31
0.0
  0
LINE
  5
3661
330
1E
100
AcDbEntity
  8
7
100
AcDbLine
 10
1.715371907101117
 20
2.763774193200179
 30
0.0
 11
1.774427025211354
 21
2.748026161704112
 31
0.0
  0
LINE
  5
3662
330
1E
100
AcDbEntity
  8
7
100
AcDbLine
 10
1.644505765368833
 20
2.858262382176556
 30
0.0
 11
1.660253796864896
 21
2.799207264066319
 31
0.0
  0
LINE
  5
3663
330
1E
100
AcDbEntity
  8
7
100
AcDbLine
 10
1.660253796864896
 20
2.799207264066319
 30
0.0
 11
1.70356088347907
 21
2.755900177452145
 31
0.0
  0
LINE
  5
3664
330
1E
100
AcDbEntity
  8
7
100
AcDbLine
 10
1.70356088347907
 20
2.755900177452145
 30
0.0
 11
1.762616001589307
 21
2.740152145956082
 31
0.0
  0
LINE
  5
3665
330
1E
100
AcDbEntity
  8
7
100
AcDbLine
 10
1.774427025211354
 20
2.870073405798601
 30
0.0
 11
1.774427025211354
 21
2.787396240444271
 31
0.0
  0
LINE
  5
3666
330
1E
100
AcDbEntity
  8
7
100
AcDbLine
 10
1.774427025211354
 20
2.787396240444271
 30
0.0
 11
1.774427025211354
 21
2.748026161704112
 31
0.0
  0
LINE
  5
3667
330
1E
100
AcDbEntity
  8
7
100
AcDbLine
 10
4.416159308675918
 20
2.870073405798601
 30
0.0
 11
4.416159308675918
 21
2.787396240444271
 31
0.0
  0
LINE
  5
3668
330
1E
100
AcDbEntity
  8
7
100
AcDbLine
 10
4.416159308675918
 20
2.787396240444271
 30
0.0
 11
4.416159308675918
 21
2.748026161704112
 31
0.0
  0
LINE
  5
3669
330
1E
100
AcDbEntity
  8
7
100
AcDbLine
 10
13.38860025355781
 20
2.807081279814349
 30
0.0
 11
13.36497820631371
 21
2.803144271940334
 31
0.0
  0
LINE
  5
366A
330
1E
100
AcDbEntity
  8
7
100
AcDbLine
 10
13.36497820631371
 20
2.803144271940334
 30
0.0
 11
13.34923017481765
 21
2.795270256192301
 31
0.0
  0
LINE
  5
366B
330
1E
100
AcDbEntity
  8
7
100
AcDbLine
 10
13.34923017481765
 20
2.795270256192301
 30
0.0
 11
13.3374191511956
 21
2.779522224696238
 31
0.0
  0
LINE
  5
366C
330
1E
100
AcDbEntity
  8
7
100
AcDbLine
 10
13.3374191511956
 20
2.779522224696238
 30
0.0
 11
13.32954513544757
 21
2.763774193200175
 31
0.0
  0
LINE
  5
366D
330
1E
100
AcDbEntity
  8
7
100
AcDbLine
 10
13.32954513544757
 20
2.763774193200175
 30
0.0
 11
13.32560812757356
 21
2.748026161704112
 31
0.0
  0
LINE
  5
366E
330
1E
100
AcDbEntity
  8
7
100
AcDbLine
 10
13.32560812757356
 20
2.748026161704112
 30
0.0
 11
13.32560812757356
 21
2.704719075089942
 31
0.0
  0
LINE
  5
366F
330
1E
100
AcDbEntity
  8
7
100
AcDbLine
 10
13.32560812757356
 20
2.704719075089942
 30
0.0
 11
13.32560812757356
 21
2.688971043593875
 31
0.0
  0
LINE
  5
3670
330
1E
100
AcDbEntity
  8
7
100
AcDbLine
 10
13.32560812757356
 20
6.157474980601749
 30
0.0
 11
13.32560812757356
 21
6.141726949105686
 31
0.0
  0
LINE
  5
3671
330
1E
100
AcDbEntity
  8
7
100
AcDbLine
 10
13.32560812757356
 20
6.141726949105686
 30
0.0
 11
13.32560812757356
 21
6.098419862491512
 31
0.0
  0
LINE
  5
3672
330
1E
100
AcDbEntity
  8
7
100
AcDbLine
 10
13.32560812757356
 20
6.098419862491512
 30
0.0
 11
13.32954513544757
 21
6.078734823121434
 31
0.0
  0
LINE
  5
3673
330
1E
100
AcDbEntity
  8
7
100
AcDbLine
 10
13.32954513544757
 20
6.078734823121434
 30
0.0
 11
13.3374191511956
 21
6.062986791625371
 31
0.0
  0
LINE
  5
3674
330
1E
100
AcDbEntity
  8
7
100
AcDbLine
 10
13.3374191511956
 20
6.062986791625371
 30
0.0
 11
13.35316718269167
 21
6.051175768003323
 31
0.0
  0
LINE
  5
3675
330
1E
100
AcDbEntity
  8
7
100
AcDbLine
 10
13.35316718269167
 20
6.051175768003323
 30
0.0
 11
13.36891521418773
 21
6.039364744381275
 31
0.0
  0
LINE
  5
3676
330
1E
100
AcDbEntity
  8
7
100
AcDbLine
 10
13.36891521418773
 20
6.039364744381275
 30
0.0
 11
13.38860025355781
 21
6.039364744381275
 31
0.0
  0
LINE
  5
3677
330
1E
100
AcDbEntity
  8
7
100
AcDbLine
 10
-4.233446990536677
 20
2.748026161704116
 30
0.0
 11
-4.237383998410692
 21
2.767711201074193
 31
0.0
  0
LINE
  5
3678
330
1E
100
AcDbEntity
  8
7
100
AcDbLine
 10
-4.237383998410692
 20
2.767711201074193
 30
0.0
 11
-4.245258014158725
 21
2.783459232570256
 31
0.0
  0
LINE
  5
3679
330
1E
100
AcDbEntity
  8
7
100
AcDbLine
 10
-4.245258014158725
 20
2.783459232570256
 30
0.0
 11
-4.25706903778077
 21
2.795270256192305
 31
0.0
  0
LINE
  5
367A
330
1E
100
AcDbEntity
  8
7
100
AcDbLine
 10
-4.25706903778077
 20
2.795270256192305
 30
0.0
 11
-4.276754077150851
 21
2.807081279814353
 31
0.0
  0
LINE
  5
367B
330
1E
100
AcDbEntity
  8
7
100
AcDbLine
 10
-4.276754077150851
 20
2.807081279814353
 30
0.0
 11
-4.292502108646914
 21
2.807081279814353
 31
0.0
  0
LINE
  5
367C
330
1E
100
AcDbEntity
  8
7
100
AcDbLine
 10
-4.233446990536677
 20
2.688971043593879
 30
0.0
 11
-4.233446990536677
 21
2.704719075089942
 31
0.0
  0
LINE
  5
367D
330
1E
100
AcDbEntity
  8
7
100
AcDbLine
 10
-4.233446990536677
 20
2.704719075089942
 30
0.0
 11
-4.233446990536677
 21
2.748026161704116
 31
0.0
  0
LINE
  5
367E
330
1E
100
AcDbEntity
  8
7
100
AcDbLine
 10
-4.233446990536677
 20
6.098419862491516
 30
0.0
 11
-4.233446990536677
 21
6.14172694910569
 31
0.0
  0
LINE
  5
367F
330
1E
100
AcDbEntity
  8
7
100
AcDbLine
 10
-4.233446990536677
 20
6.14172694910569
 30
0.0
 11
-4.233446990536677
 21
6.157474980601753
 31
0.0
  0
LINE
  5
3680
330
1E
100
AcDbEntity
  8
7
100
AcDbLine
 10
-4.292502108646914
 20
6.039364744381279
 30
0.0
 11
-4.272817069276836
 21
6.043301752255297
 31
0.0
  0
LINE
  5
3681
330
1E
100
AcDbEntity
  8
7
100
AcDbLine
 10
-4.272817069276836
 20
6.043301752255297
 30
0.0
 11
-4.25706903778077
 21
6.051175768003327
 31
0.0
  0
LINE
  5
3682
330
1E
100
AcDbEntity
  8
7
100
AcDbLine
 10
-4.25706903778077
 20
6.051175768003327
 30
0.0
 11
-4.24132100628471
 21
6.06692379949939
 31
0.0
  0
LINE
  5
3683
330
1E
100
AcDbEntity
  8
7
100
AcDbLine
 10
-4.24132100628471
 20
6.06692379949939
 30
0.0
 11
-4.233446990536677
 21
6.082671830995453
 31
0.0
  0
LINE
  5
3684
330
1E
100
AcDbEntity
  8
7
100
AcDbLine
 10
-4.233446990536677
 20
6.082671830995453
 30
0.0
 11
-4.233446990536677
 21
6.098419862491516
 31
0.0
  0
LINE
  5
3685
330
1E
100
AcDbEntity
  8
7
100
AcDbLine
 10
13.76655300946332
 20
3.062986791625371
 30
0.0
 11
13.8374191511956
 21
3.043301752255294
 31
0.0
  0
LINE
  5
3686
330
1E
100
AcDbEntity
  8
7
100
AcDbLine
 10
13.8374191511956
 20
3.043301752255294
 30
0.0
 11
13.88860025355781
 21
2.992120649893086
 31
0.0
  0
LINE
  5
3687
330
1E
100
AcDbEntity
  8
7
100
AcDbLine
 10
13.88860025355781
 20
2.992120649893086
 30
0.0
 11
13.90828529292789
 21
2.925191516034823
 31
0.0
  0
LINE
  5
3688
330
1E
100
AcDbEntity
  8
7
100
AcDbLine
 10
13.90828529292789
 20
2.925191516034823
 30
0.0
 11
13.88860025355781
 21
2.854325374302538
 31
0.0
  0
LINE
  5
3689
330
1E
100
AcDbEntity
  8
7
100
AcDbLine
 10
13.88860025355781
 20
2.854325374302538
 30
0.0
 11
13.8374191511956
 21
2.803144271940334
 31
0.0
  0
LINE
  5
368A
330
1E
100
AcDbEntity
  8
7
100
AcDbLine
 10
13.8374191511956
 20
2.803144271940334
 30
0.0
 11
13.76655300946332
 21
2.783459232570253
 31
0.0
  0
LINE
  5
368B
330
1E
100
AcDbEntity
  8
7
100
AcDbLine
 10
13.64844277324285
 20
2.783459232570253
 30
0.0
 11
13.57757663151056
 21
2.803144271940334
 31
0.0
  0
LINE
  5
368C
330
1E
100
AcDbEntity
  8
7
100
AcDbLine
 10
13.57757663151056
 20
2.803144271940334
 30
0.0
 11
13.52639552914836
 21
2.854325374302538
 31
0.0
  0
LINE
  5
368D
330
1E
100
AcDbEntity
  8
7
100
AcDbLine
 10
13.52639552914836
 20
2.854325374302538
 30
0.0
 11
13.50671048977828
 21
2.925191516034823
 31
0.0
  0
LINE
  5
368E
330
1E
100
AcDbEntity
  8
7
100
AcDbLine
 10
13.50671048977828
 20
2.925191516034823
 30
0.0
 11
13.52639552914836
 21
2.992120649893086
 31
0.0
  0
LINE
  5
368F
330
1E
100
AcDbEntity
  8
7
100
AcDbLine
 10
13.52639552914836
 20
2.992120649893086
 30
0.0
 11
13.57757663151056
 21
3.043301752255294
 31
0.0
  0
LINE
  5
3690
330
1E
100
AcDbEntity
  8
7
100
AcDbLine
 10
13.57757663151056
 20
3.043301752255294
 30
0.0
 11
13.64844277324285
 21
3.062986791625371
 31
0.0
  0
LINE
  5
3691
330
1E
100
AcDbEntity
  8
7
100
AcDbLine
 10
13.76655300946332
 20
6.062986791625371
 30
0.0
 11
13.8374191511956
 21
6.043301752255294
 31
0.0
  0
LINE
  5
3692
330
1E
100
AcDbEntity
  8
7
100
AcDbLine
 10
13.8374191511956
 20
6.043301752255294
 30
0.0
 11
13.88860025355781
 21
5.992120649893086
 31
0.0
  0
LINE
  5
3693
330
1E
100
AcDbEntity
  8
7
100
AcDbLine
 10
13.88860025355781
 20
5.992120649893086
 30
0.0
 11
13.90828529292789
 21
5.92519151603482
 31
0.0
  0
LINE
  5
3694
330
1E
100
AcDbEntity
  8
7
100
AcDbLine
 10
13.90828529292789
 20
5.92519151603482
 30
0.0
 11
13.88860025355781
 21
5.854325374302538
 31
0.0
  0
LINE
  5
3695
330
1E
100
AcDbEntity
  8
7
100
AcDbLine
 10
13.88860025355781
 20
5.854325374302538
 30
0.0
 11
13.8374191511956
 21
5.803144271940331
 31
0.0
  0
LINE
  5
3696
330
1E
100
AcDbEntity
  8
7
100
AcDbLine
 10
13.8374191511956
 20
5.803144271940331
 30
0.0
 11
13.76655300946332
 21
5.783459232570253
 31
0.0
  0
LINE
  5
3697
330
1E
100
AcDbEntity
  8
7
100
AcDbLine
 10
13.64844277324285
 20
5.783459232570253
 30
0.0
 11
13.57757663151056
 21
5.803144271940331
 31
0.0
  0
LINE
  5
3698
330
1E
100
AcDbEntity
  8
7
100
AcDbLine
 10
13.57757663151056
 20
5.803144271940331
 30
0.0
 11
13.52639552914836
 21
5.854325374302538
 31
0.0
  0
LINE
  5
3699
330
1E
100
AcDbEntity
  8
7
100
AcDbLine
 10
13.52639552914836
 20
5.854325374302538
 30
0.0
 11
13.50671048977828
 21
5.92519151603482
 31
0.0
  0
LINE
  5
369A
330
1E
100
AcDbEntity
  8
7
100
AcDbLine
 10
13.50671048977828
 20
5.92519151603482
 30
0.0
 11
13.52639552914836
 21
5.992120649893086
 31
0.0
  0
LINE
  5
369B
330
1E
100
AcDbEntity
  8
7
100
AcDbLine
 10
13.52639552914836
 20
5.992120649893086
 30
0.0
 11
13.57757663151056
 21
6.043301752255294
 31
0.0
  0
LINE
  5
369C
330
1E
100
AcDbEntity
  8
7
100
AcDbLine
 10
13.57757663151056
 20
6.043301752255294
 30
0.0
 11
13.64844277324285
 21
6.062986791625371
 31
0.0
  0
LINE
  5
369D
330
1E
100
AcDbEntity
  8
7
100
AcDbLine
 10
13.9870254504082
 20
2.688971043593875
 30
0.0
 11
14.03033253702237
 21
2.704719075089942
 31
0.0
  0
LINE
  5
369E
330
1E
100
AcDbEntity
  8
7
100
AcDbLine
 10
14.03033253702237
 20
2.704719075089942
 30
0.0
 11
14.04608056851844
 21
2.748026161704112
 31
0.0
  0
LINE
  5
369F
330
1E
100
AcDbEntity
  8
7
100
AcDbLine
 10
13.44765537166805
 20
2.748026161704112
 30
0.0
 11
13.46340340316411
 21
2.704719075089942
 31
0.0
  0
LINE
  5
36A0
330
1E
100
AcDbEntity
  8
7
100
AcDbLine
 10
13.46340340316411
 20
2.704719075089942
 30
0.0
 11
13.50671048977828
 21
2.688971043593875
 31
0.0
  0
LINE
  5
36A1
330
1E
100
AcDbEntity
  8
7
100
AcDbLine
 10
13.38860025355781
 20
2.807081279814349
 30
0.0
 11
13.42797033229796
 21
2.791333248318286
 31
0.0
  0
LINE
  5
36A2
330
1E
100
AcDbEntity
  8
7
100
AcDbLine
 10
13.42797033229796
 20
2.791333248318286
 30
0.0
 11
13.44765537166805
 21
2.748026161704112
 31
0.0
  0
LINE
  5
36A3
330
1E
100
AcDbEntity
  8
7
100
AcDbLine
 10
-4.351557226757147
 20
2.748026161704116
 30
0.0
 11
-4.335809195261088
 21
2.79133324831829
 31
0.0
  0
LINE
  5
36A4
330
1E
100
AcDbEntity
  8
7
100
AcDbLine
 10
-4.335809195261088
 20
2.79133324831829
 30
0.0
 11
-4.292502108646914
 21
2.807081279814353
 31
0.0
  0
LINE
  5
36A5
330
1E
100
AcDbEntity
  8
7
100
AcDbLine
 10
-4.414549352741399
 20
2.688971043593879
 30
0.0
 11
-4.371242266127229
 21
2.704719075089942
 31
0.0
  0
LINE
  5
36A6
330
1E
100
AcDbEntity
  8
7
100
AcDbLine
 10
-4.371242266127229
 20
2.704719075089942
 30
0.0
 11
-4.351557226757147
 21
2.748026161704116
 31
0.0
  0
LINE
  5
36A7
330
1E
100
AcDbEntity
  8
7
100
AcDbLine
 10
-4.953919431481558
 20
2.748026161704116
 30
0.0
 11
-4.934234392111481
 21
2.704719075089942
 31
0.0
  0
LINE
  5
36A8
330
1E
100
AcDbEntity
  8
7
100
AcDbLine
 10
-4.934234392111481
 20
2.704719075089942
 30
0.0
 11
-4.894864313371321
 21
2.688971043593879
 31
0.0
  0
LINE
  5
36A9
330
1E
100
AcDbEntity
  8
7
100
AcDbLine
 10
-4.512974549591795
 20
3.40944348453876
 30
0.0
 11
-4.44210840785951
 21
3.425191516034823
 31
0.0
  0
LINE
  5
36AA
330
1E
100
AcDbEntity
  8
7
100
AcDbLine
 10
-4.44210840785951
 20
3.425191516034823
 30
0.0
 11
-4.390927305497307
 21
3.480309626271045
 31
0.0
  0
LINE
  5
36AB
330
1E
100
AcDbEntity
  8
7
100
AcDbLine
 10
-4.390927305497307
 20
3.480309626271045
 30
0.0
 11
-4.375179274001244
 21
3.547238760129312
 31
0.0
  0
LINE
  5
36AC
330
1E
100
AcDbEntity
  8
7
100
AcDbLine
 10
-4.375179274001244
 20
3.547238760129312
 30
0.0
 11
-4.390927305497307
 21
3.618104901861597
 31
0.0
  0
LINE
  5
36AD
330
1E
100
AcDbEntity
  8
7
100
AcDbLine
 10
-4.390927305497307
 20
3.618104901861597
 30
0.0
 11
-4.44210840785951
 21
3.669286004223801
 31
0.0
  0
LINE
  5
36AE
330
1E
100
AcDbEntity
  8
7
100
AcDbLine
 10
-4.44210840785951
 20
3.669286004223801
 30
0.0
 11
-4.512974549591795
 21
3.688971043593879
 31
0.0
  0
LINE
  5
36AF
330
1E
100
AcDbEntity
  8
7
100
AcDbLine
 10
-4.512974549591795
 20
5.157474980601753
 30
0.0
 11
-4.44210840785951
 21
5.177160019971831
 31
0.0
  0
LINE
  5
36B0
330
1E
100
AcDbEntity
  8
7
100
AcDbLine
 10
-4.44210840785951
 20
5.177160019971831
 30
0.0
 11
-4.390927305497307
 21
5.228341122334038
 31
0.0
  0
LINE
  5
36B1
330
1E
100
AcDbEntity
  8
7
100
AcDbLine
 10
-4.390927305497307
 20
5.228341122334038
 30
0.0
 11
-4.375179274001244
 21
5.299207264066319
 31
0.0
  0
LINE
  5
36B2
330
1E
100
AcDbEntity
  8
7
100
AcDbLine
 10
-4.375179274001244
 20
5.299207264066319
 30
0.0
 11
-4.390927305497307
 21
5.370073405798605
 31
0.0
  0
LINE
  5
36B3
330
1E
100
AcDbEntity
  8
7
100
AcDbLine
 10
-4.390927305497307
 20
5.370073405798605
 30
0.0
 11
-4.44210840785951
 21
5.421254508160808
 31
0.0
  0
LINE
  5
36B4
330
1E
100
AcDbEntity
  8
7
100
AcDbLine
 10
-4.44210840785951
 20
5.421254508160808
 30
0.0
 11
-4.512974549591795
 21
5.437002539656871
 31
0.0
  0
LINE
  5
36B5
330
1E
100
AcDbEntity
  8
7
100
AcDbLine
 10
-4.894864313371321
 20
6.157474980601753
 30
0.0
 11
-4.934234392111481
 21
6.14172694910569
 31
0.0
  0
LINE
  5
36B6
330
1E
100
AcDbEntity
  8
7
100
AcDbLine
 10
-4.934234392111481
 20
6.14172694910569
 30
0.0
 11
-4.953919431481558
 21
6.098419862491516
 31
0.0
  0
LINE
  5
36B7
330
1E
100
AcDbEntity
  8
7
100
AcDbLine
 10
-4.351557226757147
 20
6.098419862491516
 30
0.0
 11
-4.371242266127229
 21
6.14172694910569
 31
0.0
  0
LINE
  5
36B8
330
1E
100
AcDbEntity
  8
7
100
AcDbLine
 10
-4.371242266127229
 20
6.14172694910569
 30
0.0
 11
-4.414549352741399
 21
6.157474980601753
 31
0.0
  0
LINE
  5
36B9
330
1E
100
AcDbEntity
  8
7
100
AcDbLine
 10
-4.292502108646914
 20
6.039364744381279
 30
0.0
 11
-4.335809195261088
 21
6.055112775877342
 31
0.0
  0
LINE
  5
36BA
330
1E
100
AcDbEntity
  8
7
100
AcDbLine
 10
-4.335809195261088
 20
6.055112775877342
 30
0.0
 11
-4.351557226757147
 21
6.098419862491516
 31
0.0
  0
LINE
  5
36BB
330
1E
100
AcDbEntity
  8
7
100
AcDbLine
 10
13.44765537166805
 20
6.098419862491512
 30
0.0
 11
13.42797033229796
 21
6.055112775877338
 31
0.0
  0
LINE
  5
36BC
330
1E
100
AcDbEntity
  8
7
100
AcDbLine
 10
13.42797033229796
 20
6.055112775877338
 30
0.0
 11
13.38860025355781
 21
6.039364744381275
 31
0.0
  0
LINE
  5
36BD
330
1E
100
AcDbEntity
  8
7
100
AcDbLine
 10
13.50671048977828
 20
6.157474980601749
 30
0.0
 11
13.46340340316411
 21
6.141726949105686
 31
0.0
  0
LINE
  5
36BE
330
1E
100
AcDbEntity
  8
7
100
AcDbLine
 10
13.46340340316411
 20
6.141726949105686
 30
0.0
 11
13.44765537166805
 21
6.098419862491512
 31
0.0
  0
LINE
  5
36BF
330
1E
100
AcDbEntity
  8
7
100
AcDbLine
 10
14.04608056851844
 20
6.098419862491512
 30
0.0
 11
14.03033253702237
 21
6.141726949105686
 31
0.0
  0
LINE
  5
36C0
330
1E
100
AcDbEntity
  8
7
100
AcDbLine
 10
14.03033253702237
 20
6.141726949105686
 30
0.0
 11
13.9870254504082
 21
6.157474980601749
 31
0.0
  0
LINE
  5
36C1
330
1E
100
AcDbEntity
  8
7
100
AcDbLine
 10
13.60513568662867
 20
5.437002539656868
 30
0.0
 11
13.5382065527704
 21
5.421254508160805
 31
0.0
  0
LINE
  5
36C2
330
1E
100
AcDbEntity
  8
7
100
AcDbLine
 10
13.5382065527704
 20
5.421254508160805
 30
0.0
 11
13.4870254504082
 21
5.370073405798601
 31
0.0
  0
LINE
  5
36C3
330
1E
100
AcDbEntity
  8
7
100
AcDbLine
 10
13.4870254504082
 20
5.370073405798601
 30
0.0
 11
13.46734041103812
 21
5.299207264066316
 31
0.0
  0
LINE
  5
36C4
330
1E
100
AcDbEntity
  8
7
100
AcDbLine
 10
13.46734041103812
 20
5.299207264066316
 30
0.0
 11
13.4870254504082
 21
5.228341122334034
 31
0.0
  0
LINE
  5
36C5
330
1E
100
AcDbEntity
  8
7
100
AcDbLine
 10
13.4870254504082
 20
5.228341122334034
 30
0.0
 11
13.5382065527704
 21
5.177160019971827
 31
0.0
  0
LINE
  5
36C6
330
1E
100
AcDbEntity
  8
7
100
AcDbLine
 10
13.5382065527704
 20
5.177160019971827
 30
0.0
 11
13.60513568662867
 21
5.157474980601749
 31
0.0
  0
LINE
  5
36C7
330
1E
100
AcDbEntity
  8
7
100
AcDbLine
 10
13.60513568662867
 20
3.688971043593875
 30
0.0
 11
13.5382065527704
 21
3.669286004223797
 31
0.0
  0
LINE
  5
36C8
330
1E
100
AcDbEntity
  8
7
100
AcDbLine
 10
13.5382065527704
 20
3.669286004223797
 30
0.0
 11
13.4870254504082
 21
3.618104901861594
 31
0.0
  0
LINE
  5
36C9
330
1E
100
AcDbEntity
  8
7
100
AcDbLine
 10
13.4870254504082
 20
3.618104901861594
 30
0.0
 11
13.46734041103812
 21
3.547238760129308
 31
0.0
  0
LINE
  5
36CA
330
1E
100
AcDbEntity
  8
7
100
AcDbLine
 10
13.46734041103812
 20
3.547238760129308
 30
0.0
 11
13.4870254504082
 21
3.480309626271042
 31
0.0
  0
LINE
  5
36CB
330
1E
100
AcDbEntity
  8
7
100
AcDbLine
 10
13.4870254504082
 20
3.480309626271042
 30
0.0
 11
13.5382065527704
 21
3.42519151603482
 31
0.0
  0
LINE
  5
36CC
330
1E
100
AcDbEntity
  8
7
100
AcDbLine
 10
13.5382065527704
 20
3.42519151603482
 30
0.0
 11
13.60513568662867
 21
3.409443484538757
 31
0.0
  0
LINE
  5
36CD
330
1E
100
AcDbEntity
  8
7
100
AcDbLine
 10
-4.552344628331955
 20
3.062986791625375
 30
0.0
 11
-4.481478486599669
 21
3.043301752255297
 31
0.0
  0
LINE
  5
36CE
330
1E
100
AcDbEntity
  8
7
100
AcDbLine
 10
-4.481478486599669
 20
3.043301752255297
 30
0.0
 11
-4.430297384237466
 21
2.99212064989309
 31
0.0
  0
LINE
  5
36CF
330
1E
100
AcDbEntity
  8
7
100
AcDbLine
 10
-4.430297384237466
 20
2.99212064989309
 30
0.0
 11
-4.414549352741399
 21
2.925191516034823
 31
0.0
  0
LINE
  5
36D0
330
1E
100
AcDbEntity
  8
7
100
AcDbLine
 10
-4.414549352741399
 20
2.925191516034823
 30
0.0
 11
-4.430297384237466
 21
2.854325374302542
 31
0.0
  0
LINE
  5
36D1
330
1E
100
AcDbEntity
  8
7
100
AcDbLine
 10
-4.430297384237466
 20
2.854325374302542
 30
0.0
 11
-4.481478486599669
 21
2.803144271940334
 31
0.0
  0
LINE
  5
36D2
330
1E
100
AcDbEntity
  8
7
100
AcDbLine
 10
-4.481478486599669
 20
2.803144271940334
 30
0.0
 11
-4.552344628331955
 21
2.783459232570256
 31
0.0
  0
LINE
  5
36D3
330
1E
100
AcDbEntity
  8
7
100
AcDbLine
 10
-4.67439187242644
 20
2.783459232570256
 30
0.0
 11
-4.74132100628471
 21
2.803144271940334
 31
0.0
  0
LINE
  5
36D4
330
1E
100
AcDbEntity
  8
7
100
AcDbLine
 10
-4.74132100628471
 20
2.803144271940334
 30
0.0
 11
-4.796439116520929
 21
2.854325374302542
 31
0.0
  0
LINE
  5
36D5
330
1E
100
AcDbEntity
  8
7
100
AcDbLine
 10
-4.796439116520929
 20
2.854325374302542
 30
0.0
 11
-4.812187148016992
 21
2.925191516034823
 31
0.0
  0
LINE
  5
36D6
330
1E
100
AcDbEntity
  8
7
100
AcDbLine
 10
-4.812187148016992
 20
2.925191516034823
 30
0.0
 11
-4.796439116520929
 21
2.99212064989309
 31
0.0
  0
LINE
  5
36D7
330
1E
100
AcDbEntity
  8
7
100
AcDbLine
 10
-4.796439116520929
 20
2.99212064989309
 30
0.0
 11
-4.74132100628471
 21
3.043301752255297
 31
0.0
  0
LINE
  5
36D8
330
1E
100
AcDbEntity
  8
7
100
AcDbLine
 10
-4.74132100628471
 20
3.043301752255297
 30
0.0
 11
-4.67439187242644
 21
3.062986791625375
 31
0.0
  0
LINE
  5
36D9
330
1E
100
AcDbEntity
  8
7
100
AcDbLine
 10
-4.552344628331955
 20
6.062986791625375
 30
0.0
 11
-4.481478486599669
 21
6.043301752255297
 31
0.0
  0
LINE
  5
36DA
330
1E
100
AcDbEntity
  8
7
100
AcDbLine
 10
-4.481478486599669
 20
6.043301752255297
 30
0.0
 11
-4.430297384237466
 21
5.99212064989309
 31
0.0
  0
LINE
  5
36DB
330
1E
100
AcDbEntity
  8
7
100
AcDbLine
 10
-4.430297384237466
 20
5.99212064989309
 30
0.0
 11
-4.414549352741399
 21
5.925191516034823
 31
0.0
  0
LINE
  5
36DC
330
1E
100
AcDbEntity
  8
7
100
AcDbLine
 10
-4.414549352741399
 20
5.925191516034823
 30
0.0
 11
-4.430297384237466
 21
5.854325374302542
 31
0.0
  0
LINE
  5
36DD
330
1E
100
AcDbEntity
  8
7
100
AcDbLine
 10
-4.430297384237466
 20
5.854325374302542
 30
0.0
 11
-4.481478486599669
 21
5.803144271940334
 31
0.0
  0
LINE
  5
36DE
330
1E
100
AcDbEntity
  8
7
100
AcDbLine
 10
-4.481478486599669
 20
5.803144271940334
 30
0.0
 11
-4.552344628331955
 21
5.783459232570256
 31
0.0
  0
LINE
  5
36DF
330
1E
100
AcDbEntity
  8
7
100
AcDbLine
 10
-4.67439187242644
 20
5.783459232570256
 30
0.0
 11
-4.74132100628471
 21
5.803144271940334
 31
0.0
  0
LINE
  5
36E0
330
1E
100
AcDbEntity
  8
7
100
AcDbLine
 10
-4.74132100628471
 20
5.803144271940334
 30
0.0
 11
-4.796439116520929
 21
5.854325374302542
 31
0.0
  0
LINE
  5
36E1
330
1E
100
AcDbEntity
  8
7
100
AcDbLine
 10
-4.796439116520929
 20
5.854325374302542
 30
0.0
 11
-4.812187148016992
 21
5.925191516034823
 31
0.0
  0
LINE
  5
36E2
330
1E
100
AcDbEntity
  8
7
100
AcDbLine
 10
-4.812187148016992
 20
5.925191516034823
 30
0.0
 11
-4.796439116520929
 21
5.99212064989309
 31
0.0
  0
LINE
  5
36E3
330
1E
100
AcDbEntity
  8
7
100
AcDbLine
 10
-4.796439116520929
 20
5.99212064989309
 30
0.0
 11
-4.74132100628471
 21
6.043301752255297
 31
0.0
  0
LINE
  5
36E4
330
1E
100
AcDbEntity
  8
7
100
AcDbLine
 10
-4.74132100628471
 20
6.043301752255297
 30
0.0
 11
-4.67439187242644
 21
6.062986791625375
 31
0.0
  0
LINE
  5
36E5
330
1E
100
AcDbEntity
  8
7
100
AcDbLine
 10
-4.67439187242644
 20
4.531490728633249
 30
0.0
 11
-4.74132100628471
 21
4.551175768003327
 31
0.0
  0
LINE
  5
36E6
330
1E
100
AcDbEntity
  8
7
100
AcDbLine
 10
-4.74132100628471
 20
4.551175768003327
 30
0.0
 11
-4.796439116520929
 21
4.602356870365534
 31
0.0
  0
LINE
  5
36E7
330
1E
100
AcDbEntity
  8
7
100
AcDbLine
 10
-4.796439116520929
 20
4.602356870365534
 30
0.0
 11
-4.812187148016992
 21
4.673223012097816
 31
0.0
  0
LINE
  5
36E8
330
1E
100
AcDbEntity
  8
7
100
AcDbLine
 10
-4.812187148016992
 20
4.673223012097816
 30
0.0
 11
-4.796439116520929
 21
4.744089153830101
 31
0.0
  0
LINE
  5
36E9
330
1E
100
AcDbEntity
  8
7
100
AcDbLine
 10
-4.796439116520929
 20
4.744089153830101
 30
0.0
 11
-4.74132100628471
 21
4.795270256192305
 31
0.0
  0
LINE
  5
36EA
330
1E
100
AcDbEntity
  8
7
100
AcDbLine
 10
-4.74132100628471
 20
4.795270256192305
 30
0.0
 11
-4.67439187242644
 21
4.814955295562382
 31
0.0
  0
LINE
  5
36EB
330
1E
100
AcDbEntity
  8
7
100
AcDbLine
 10
-4.552344628331955
 20
4.814955295562382
 30
0.0
 11
-4.481478486599669
 21
4.795270256192305
 31
0.0
  0
LINE
  5
36EC
330
1E
100
AcDbEntity
  8
7
100
AcDbLine
 10
-4.481478486599669
 20
4.795270256192305
 30
0.0
 11
-4.430297384237466
 21
4.744089153830101
 31
0.0
  0
LINE
  5
36ED
330
1E
100
AcDbEntity
  8
7
100
AcDbLine
 10
-4.430297384237466
 20
4.744089153830101
 30
0.0
 11
-4.414549352741399
 21
4.673223012097816
 31
0.0
  0
LINE
  5
36EE
330
1E
100
AcDbEntity
  8
7
100
AcDbLine
 10
-4.414549352741399
 20
4.673223012097816
 30
0.0
 11
-4.430297384237466
 21
4.602356870365534
 31
0.0
  0
LINE
  5
36EF
330
1E
100
AcDbEntity
  8
7
100
AcDbLine
 10
-4.430297384237466
 20
4.602356870365534
 30
0.0
 11
-4.481478486599669
 21
4.551175768003327
 31
0.0
  0
LINE
  5
36F0
330
1E
100
AcDbEntity
  8
7
100
AcDbLine
 10
-4.481478486599669
 20
4.551175768003327
 30
0.0
 11
-4.552344628331955
 21
4.531490728633249
 31
0.0
  0
LINE
  5
36F1
330
1E
100
AcDbEntity
  8
7
100
AcDbLine
 10
-4.67439187242644
 20
4.031490728633249
 30
0.0
 11
-4.74132100628471
 21
4.051175768003327
 31
0.0
  0
LINE
  5
36F2
330
1E
100
AcDbEntity
  8
7
100
AcDbLine
 10
-4.74132100628471
 20
4.051175768003327
 30
0.0
 11
-4.796439116520929
 21
4.102356870365534
 31
0.0
  0
LINE
  5
36F3
330
1E
100
AcDbEntity
  8
7
100
AcDbLine
 10
-4.796439116520929
 20
4.102356870365534
 30
0.0
 11
-4.812187148016992
 21
4.173223012097816
 31
0.0
  0
LINE
  5
36F4
330
1E
100
AcDbEntity
  8
7
100
AcDbLine
 10
-4.812187148016992
 20
4.173223012097816
 30
0.0
 11
-4.796439116520929
 21
4.244089153830101
 31
0.0
  0
LINE
  5
36F5
330
1E
100
AcDbEntity
  8
7
100
AcDbLine
 10
-4.796439116520929
 20
4.244089153830101
 30
0.0
 11
-4.74132100628471
 21
4.295270256192305
 31
0.0
  0
LINE
  5
36F6
330
1E
100
AcDbEntity
  8
7
100
AcDbLine
 10
-4.74132100628471
 20
4.295270256192305
 30
0.0
 11
-4.67439187242644
 21
4.314955295562382
 31
0.0
  0
LINE
  5
36F7
330
1E
100
AcDbEntity
  8
7
100
AcDbLine
 10
-4.552344628331955
 20
4.314955295562382
 30
0.0
 11
-4.481478486599669
 21
4.295270256192305
 31
0.0
  0
LINE
  5
36F8
330
1E
100
AcDbEntity
  8
7
100
AcDbLine
 10
-4.481478486599669
 20
4.295270256192305
 30
0.0
 11
-4.430297384237466
 21
4.244089153830101
 31
0.0
  0
LINE
  5
36F9
330
1E
100
AcDbEntity
  8
7
100
AcDbLine
 10
-4.430297384237466
 20
4.244089153830101
 30
0.0
 11
-4.414549352741399
 21
4.173223012097816
 31
0.0
  0
LINE
  5
36FA
330
1E
100
AcDbEntity
  8
7
100
AcDbLine
 10
-4.414549352741399
 20
4.173223012097816
 30
0.0
 11
-4.430297384237466
 21
4.102356870365534
 31
0.0
  0
LINE
  5
36FB
330
1E
100
AcDbEntity
  8
7
100
AcDbLine
 10
-4.430297384237466
 20
4.102356870365534
 30
0.0
 11
-4.481478486599669
 21
4.051175768003327
 31
0.0
  0
LINE
  5
36FC
330
1E
100
AcDbEntity
  8
7
100
AcDbLine
 10
-4.481478486599669
 20
4.051175768003327
 30
0.0
 11
-4.552344628331955
 21
4.031490728633249
 31
0.0
  0
LINE
  5
36FD
330
1E
100
AcDbEntity
  8
7
100
AcDbLine
 10
13.64844277324285
 20
4.531490728633245
 30
0.0
 11
13.57757663151056
 21
4.551175768003323
 31
0.0
  0
LINE
  5
36FE
330
1E
100
AcDbEntity
  8
7
100
AcDbLine
 10
13.57757663151056
 20
4.551175768003323
 30
0.0
 11
13.52639552914836
 21
4.602356870365531
 31
0.0
  0
LINE
  5
36FF
330
1E
100
AcDbEntity
  8
7
100
AcDbLine
 10
13.52639552914836
 20
4.602356870365531
 30
0.0
 11
13.50671048977828
 21
4.673223012097812
 31
0.0
  0
LINE
  5
3700
330
1E
100
AcDbEntity
  8
7
100
AcDbLine
 10
13.50671048977828
 20
4.673223012097812
 30
0.0
 11
13.52639552914836
 21
4.744089153830097
 31
0.0
  0
LINE
  5
3701
330
1E
100
AcDbEntity
  8
7
100
AcDbLine
 10
13.52639552914836
 20
4.744089153830097
 30
0.0
 11
13.57757663151056
 21
4.795270256192301
 31
0.0
  0
LINE
  5
3702
330
1E
100
AcDbEntity
  8
7
100
AcDbLine
 10
13.57757663151056
 20
4.795270256192301
 30
0.0
 11
13.64844277324285
 21
4.814955295562379
 31
0.0
  0
LINE
  5
3703
330
1E
100
AcDbEntity
  8
7
100
AcDbLine
 10
13.76655300946332
 20
4.814955295562379
 30
0.0
 11
13.8374191511956
 21
4.795270256192301
 31
0.0
  0
LINE
  5
3704
330
1E
100
AcDbEntity
  8
7
100
AcDbLine
 10
13.8374191511956
 20
4.795270256192301
 30
0.0
 11
13.88860025355781
 21
4.744089153830097
 31
0.0
  0
LINE
  5
3705
330
1E
100
AcDbEntity
  8
7
100
AcDbLine
 10
13.88860025355781
 20
4.744089153830097
 30
0.0
 11
13.90828529292789
 21
4.673223012097812
 31
0.0
  0
LINE
  5
3706
330
1E
100
AcDbEntity
  8
7
100
AcDbLine
 10
13.90828529292789
 20
4.673223012097812
 30
0.0
 11
13.88860025355781
 21
4.602356870365531
 31
0.0
  0
LINE
  5
3707
330
1E
100
AcDbEntity
  8
7
100
AcDbLine
 10
13.88860025355781
 20
4.602356870365531
 30
0.0
 11
13.8374191511956
 21
4.551175768003323
 31
0.0
  0
LINE
  5
3708
330
1E
100
AcDbEntity
  8
7
100
AcDbLine
 10
13.8374191511956
 20
4.551175768003323
 30
0.0
 11
13.76655300946332
 21
4.531490728633245
 31
0.0
  0
LINE
  5
3709
330
1E
100
AcDbEntity
  8
7
100
AcDbLine
 10
13.64844277324285
 20
4.031490728633245
 30
0.0
 11
13.57757663151056
 21
4.051175768003323
 31
0.0
  0
LINE
  5
370A
330
1E
100
AcDbEntity
  8
7
100
AcDbLine
 10
13.57757663151056
 20
4.051175768003323
 30
0.0
 11
13.52639552914836
 21
4.102356870365531
 31
0.0
  0
LINE
  5
370B
330
1E
100
AcDbEntity
  8
7
100
AcDbLine
 10
13.52639552914836
 20
4.102356870365531
 30
0.0
 11
13.50671048977828
 21
4.173223012097812
 31
0.0
  0
LINE
  5
370C
330
1E
100
AcDbEntity
  8
7
100
AcDbLine
 10
13.50671048977828
 20
4.173223012097812
 30
0.0
 11
13.52639552914836
 21
4.244089153830097
 31
0.0
  0
LINE
  5
370D
330
1E
100
AcDbEntity
  8
7
100
AcDbLine
 10
13.52639552914836
 20
4.244089153830097
 30
0.0
 11
13.57757663151056
 21
4.295270256192301
 31
0.0
  0
LINE
  5
370E
330
1E
100
AcDbEntity
  8
7
100
AcDbLine
 10
13.57757663151056
 20
4.295270256192301
 30
0.0
 11
13.64844277324285
 21
4.314955295562379
 31
0.0
  0
LINE
  5
370F
330
1E
100
AcDbEntity
  8
7
100
AcDbLine
 10
13.76655300946332
 20
4.314955295562379
 30
0.0
 11
13.8374191511956
 21
4.295270256192301
 31
0.0
  0
LINE
  5
3710
330
1E
100
AcDbEntity
  8
7
100
AcDbLine
 10
13.8374191511956
 20
4.295270256192301
 30
0.0
 11
13.88860025355781
 21
4.244089153830097
 31
0.0
  0
LINE
  5
3711
330
1E
100
AcDbEntity
  8
7
100
AcDbLine
 10
13.88860025355781
 20
4.244089153830097
 30
0.0
 11
13.90828529292789
 21
4.173223012097812
 31
0.0
  0
LINE
  5
3712
330
1E
100
AcDbEntity
  8
7
100
AcDbLine
 10
13.90828529292789
 20
4.173223012097812
 30
0.0
 11
13.88860025355781
 21
4.102356870365531
 31
0.0
  0
LINE
  5
3713
330
1E
100
AcDbEntity
  8
7
100
AcDbLine
 10
13.88860025355781
 20
4.102356870365531
 30
0.0
 11
13.8374191511956
 21
4.051175768003323
 31
0.0
  0
LINE
  5
3714
330
1E
100
AcDbEntity
  8
7
100
AcDbLine
 10
13.8374191511956
 20
4.051175768003323
 30
0.0
 11
13.76655300946332
 21
4.031490728633245
 31
0.0
  0
LINE
  5
3715
330
1E
100
AcDbEntity
  8
7
100
AcDbLine
 10
4.530332537022378
 20
6.035427736507264
 30
0.0
 11
4.490962458282218
 21
6.035427736507264
 31
0.0
  0
LINE
  5
3716
330
1E
100
AcDbEntity
  8
7
100
AcDbLine
 10
4.490962458282218
 20
6.035427736507264
 30
0.0
 11
4.408285292927889
 21
6.035427736507264
 31
0.0
  0
LINE
  5
3717
330
1E
100
AcDbEntity
  8
7
100
AcDbLine
 10
4.420096316549937
 20
6.161411988475768
 30
0.0
 11
4.479151434660174
 21
6.145663956979705
 31
0.0
  0
LINE
  5
3718
330
1E
100
AcDbEntity
  8
7
100
AcDbLine
 10
4.479151434660174
 20
6.145663956979705
 30
0.0
 11
4.522458521274344
 21
6.102356870365531
 31
0.0
  0
LINE
  5
3719
330
1E
100
AcDbEntity
  8
7
100
AcDbLine
 10
4.522458521274344
 20
6.102356870365531
 30
0.0
 11
4.538206552770411
 21
6.043301752255294
 31
0.0
  0
LINE
  5
371A
330
1E
100
AcDbEntity
  8
7
100
AcDbLine
 10
4.530332537022378
 20
6.035427736507264
 30
0.0
 11
4.514584505526315
 21
6.094482854617497
 31
0.0
  0
LINE
  5
371B
330
1E
100
AcDbEntity
  8
7
100
AcDbLine
 10
4.514584505526315
 20
6.094482854617497
 30
0.0
 11
4.471277418912141
 21
6.137789941231671
 31
0.0
  0
LINE
  5
371C
330
1E
100
AcDbEntity
  8
7
100
AcDbLine
 10
4.471277418912141
 20
6.137789941231671
 30
0.0
 11
4.408285292927889
 21
6.153537972727734
 31
0.0
  0
LINE
  5
371D
330
1E
100
AcDbEntity
  8
7
100
AcDbLine
 10
1.64844277324285
 20
6.035427736507264
 30
0.0
 11
1.683875844108991
 21
6.035427736507264
 31
0.0
  0
LINE
  5
371E
330
1E
100
AcDbEntity
  8
7
100
AcDbLine
 10
1.683875844108991
 20
6.035427736507264
 30
0.0
 11
1.770490017337339
 21
6.035427736507264
 31
0.0
  0
LINE
  5
371F
330
1E
100
AcDbEntity
  8
7
100
AcDbLine
 10
1.64844277324285
 20
6.035427736507264
 30
0.0
 11
1.664190804738913
 21
6.094482854617501
 31
0.0
  0
LINE
  5
3720
330
1E
100
AcDbEntity
  8
7
100
AcDbLine
 10
1.664190804738913
 20
6.094482854617501
 30
0.0
 11
1.707497891353085
 21
6.137789941231675
 31
0.0
  0
LINE
  5
3721
330
1E
100
AcDbEntity
  8
7
100
AcDbLine
 10
1.707497891353085
 20
6.137789941231675
 30
0.0
 11
1.770490017337339
 21
6.153537972727738
 31
0.0
  0
LINE
  5
3722
330
1E
100
AcDbEntity
  8
7
100
AcDbLine
 10
1.758678993715291
 20
6.161411988475768
 30
0.0
 11
1.699623875605054
 21
6.145663956979705
 31
0.0
  0
LINE
  5
3723
330
1E
100
AcDbEntity
  8
7
100
AcDbLine
 10
1.699623875605054
 20
6.145663956979705
 30
0.0
 11
1.656316788990881
 21
6.102356870365531
 31
0.0
  0
LINE
  5
3724
330
1E
100
AcDbEntity
  8
7
100
AcDbLine
 10
1.656316788990881
 20
6.102356870365531
 30
0.0
 11
1.640568757494818
 21
6.043301752255297
 31
0.0
  0
LINE
  5
3725
330
1E
100
AcDbEntity
  8
7
100
AcDbLine
 10
1.770490017337339
 20
6.153537972727738
 30
0.0
 11
1.770490017337339
 21
6.118104901861597
 31
0.0
  0
LINE
  5
3726
330
1E
100
AcDbEntity
  8
7
100
AcDbLine
 10
1.770490017337339
 20
6.118104901861597
 30
0.0
 11
1.770490017337339
 21
6.035427736507264
 31
0.0
  0
LINE
  5
3727
330
1E
100
AcDbEntity
  8
7
100
AcDbLine
 10
4.408285292927889
 20
6.153537972727734
 30
0.0
 11
4.408285292927889
 21
6.118104901861594
 31
0.0
  0
LINE
  5
3728
330
1E
100
AcDbEntity
  8
7
100
AcDbLine
 10
4.408285292927889
 20
6.118104901861594
 30
0.0
 11
4.408285292927889
 21
6.035427736507264
 31
0.0
  0
LINE
  5
3729
330
1E
100
AcDbEntity
  8
7
100
AcDbLine
 10
4.530332537022378
 20
4.586608838869468
 30
0.0
 11
4.490962458282218
 21
4.586608838869468
 31
0.0
  0
LINE
  5
372A
330
1E
100
AcDbEntity
  8
7
100
AcDbLine
 10
4.490962458282218
 20
4.586608838869468
 30
0.0
 11
4.408285292927889
 21
4.586608838869468
 31
0.0
  0
LINE
  5
372B
330
1E
100
AcDbEntity
  8
7
100
AcDbLine
 10
4.538206552770411
 20
4.578734823121434
 30
0.0
 11
4.522458521274344
 21
4.519679705011201
 31
0.0
  0
LINE
  5
372C
330
1E
100
AcDbEntity
  8
7
100
AcDbLine
 10
4.522458521274344
 20
4.519679705011201
 30
0.0
 11
4.47915143466017
 21
4.476372618397027
 31
0.0
  0
LINE
  5
372D
330
1E
100
AcDbEntity
  8
7
100
AcDbLine
 10
4.47915143466017
 20
4.476372618397027
 30
0.0
 11
4.420096316549937
 21
4.456687579026949
 31
0.0
  0
LINE
  5
372E
330
1E
100
AcDbEntity
  8
7
100
AcDbLine
 10
4.530332537022378
 20
4.586608838869468
 30
0.0
 11
4.514584505526315
 21
4.527553720759231
 31
0.0
  0
LINE
  5
372F
330
1E
100
AcDbEntity
  8
7
100
AcDbLine
 10
4.514584505526315
 20
4.527553720759231
 30
0.0
 11
4.471277418912141
 21
4.484246634145057
 31
0.0
  0
LINE
  5
3730
330
1E
100
AcDbEntity
  8
7
100
AcDbLine
 10
4.471277418912141
 20
4.484246634145057
 30
0.0
 11
4.408285292927889
 21
4.468498602648994
 31
0.0
  0
LINE
  5
3731
330
1E
100
AcDbEntity
  8
7
100
AcDbLine
 10
1.64844277324285
 20
4.586608838869468
 30
0.0
 11
1.683875844108991
 21
4.586608838869468
 31
0.0
  0
LINE
  5
3732
330
1E
100
AcDbEntity
  8
7
100
AcDbLine
 10
1.683875844108991
 20
4.586608838869468
 30
0.0
 11
1.770490017337339
 21
4.586608838869468
 31
0.0
  0
LINE
  5
3733
330
1E
100
AcDbEntity
  8
7
100
AcDbLine
 10
1.64844277324285
 20
4.586608838869468
 30
0.0
 11
1.664190804738913
 21
4.527553720759231
 31
0.0
  0
LINE
  5
3734
330
1E
100
AcDbEntity
  8
7
100
AcDbLine
 10
1.664190804738913
 20
4.527553720759231
 30
0.0
 11
1.707497891353085
 21
4.48424663414506
 31
0.0
  0
LINE
  5
3735
330
1E
100
AcDbEntity
  8
7
100
AcDbLine
 10
1.707497891353085
 20
4.48424663414506
 30
0.0
 11
1.770490017337339
 21
4.468498602648994
 31
0.0
  0
LINE
  5
3736
330
1E
100
AcDbEntity
  8
7
100
AcDbLine
 10
1.640568757494818
 20
4.578734823121438
 30
0.0
 11
1.656316788990881
 21
4.519679705011201
 31
0.0
  0
LINE
  5
3737
330
1E
100
AcDbEntity
  8
7
100
AcDbLine
 10
1.656316788990881
 20
4.519679705011201
 30
0.0
 11
1.699623875605054
 21
4.476372618397027
 31
0.0
  0
LINE
  5
3738
330
1E
100
AcDbEntity
  8
7
100
AcDbLine
 10
1.699623875605054
 20
4.476372618397027
 30
0.0
 11
1.758678993715291
 21
4.456687579026949
 31
0.0
  0
LINE
  5
3739
330
1E
100
AcDbEntity
  8
7
100
AcDbLine
 10
1.770490017337339
 20
4.586608838869468
 30
0.0
 11
1.770490017337339
 21
4.503931673515138
 31
0.0
  0
LINE
  5
373A
330
1E
100
AcDbEntity
  8
7
100
AcDbLine
 10
1.770490017337339
 20
4.503931673515138
 30
0.0
 11
1.770490017337339
 21
4.468498602648994
 31
0.0
  0
LINE
  5
373B
330
1E
100
AcDbEntity
  8
7
100
AcDbLine
 10
4.408285292927889
 20
4.586608838869468
 30
0.0
 11
4.408285292927889
 21
4.503931673515138
 31
0.0
  0
LINE
  5
373C
330
1E
100
AcDbEntity
  8
7
100
AcDbLine
 10
4.408285292927889
 20
4.503931673515138
 30
0.0
 11
4.408285292927889
 21
4.468498602648994
 31
0.0
  0
LINE
  5
373D
330
1E
100
AcDbEntity
  8
7
100
AcDbLine
 10
1.613009702376707
 20
6.035427736507264
 30
0.0
 11
1.577576631510567
 21
6.035427736507264
 31
0.0
  0
LINE
  5
373E
330
1E
100
AcDbEntity
  8
7
100
AcDbLine
 10
1.577576631510567
 20
6.035427736507264
 30
0.0
 11
1.494899466156235
 21
6.035427736507264
 31
0.0
  0
LINE
  5
373F
330
1E
100
AcDbEntity
  8
7
100
AcDbLine
 10
1.502773481904267
 20
6.161411988475768
 30
0.0
 11
1.565765607888518
 21
6.145663956979705
 31
0.0
  0
LINE
  5
3740
330
1E
100
AcDbEntity
  8
7
100
AcDbLine
 10
1.565765607888518
 20
6.145663956979705
 30
0.0
 11
1.609072694502692
 21
6.102356870365531
 31
0.0
  0
LINE
  5
3741
330
1E
100
AcDbEntity
  8
7
100
AcDbLine
 10
1.609072694502692
 20
6.102356870365531
 30
0.0
 11
1.624820725998755
 21
6.043301752255297
 31
0.0
  0
LINE
  5
3742
330
1E
100
AcDbEntity
  8
7
100
AcDbLine
 10
1.613009702376707
 20
6.035427736507264
 30
0.0
 11
1.597261670880644
 21
6.094482854617501
 31
0.0
  0
LINE
  5
3743
330
1E
100
AcDbEntity
  8
7
100
AcDbLine
 10
1.597261670880644
 20
6.094482854617501
 30
0.0
 11
1.553954584266472
 21
6.137789941231675
 31
0.0
  0
LINE
  5
3744
330
1E
100
AcDbEntity
  8
7
100
AcDbLine
 10
1.553954584266472
 20
6.137789941231675
 30
0.0
 11
1.494899466156235
 21
6.153537972727738
 31
0.0
  0
LINE
  5
3745
330
1E
100
AcDbEntity
  8
7
100
AcDbLine
 10
-1.264943053528803
 20
6.035427736507264
 30
0.0
 11
-1.22950998266266
 21
6.035427736507264
 31
0.0
  0
LINE
  5
3746
330
1E
100
AcDbEntity
  8
7
100
AcDbLine
 10
-1.22950998266266
 20
6.035427736507264
 30
0.0
 11
-1.146832817308331
 21
6.035427736507264
 31
0.0
  0
LINE
  5
3747
330
1E
100
AcDbEntity
  8
7
100
AcDbLine
 10
-1.264943053528803
 20
6.035427736507264
 30
0.0
 11
-1.24919502203274
 21
6.094482854617501
 31
0.0
  0
LINE
  5
3748
330
1E
100
AcDbEntity
  8
7
100
AcDbLine
 10
-1.24919502203274
 20
6.094482854617501
 30
0.0
 11
-1.205887935418566
 21
6.137789941231675
 31
0.0
  0
LINE
  5
3749
330
1E
100
AcDbEntity
  8
7
100
AcDbLine
 10
-1.205887935418566
 20
6.137789941231675
 30
0.0
 11
-1.146832817308331
 21
6.153537972727738
 31
0.0
  0
LINE
  5
374A
330
1E
100
AcDbEntity
  8
7
100
AcDbLine
 10
-1.154706833056362
 20
6.161411988475768
 30
0.0
 11
-1.217698959040614
 21
6.145663956979705
 31
0.0
  0
LINE
  5
374B
330
1E
100
AcDbEntity
  8
7
100
AcDbLine
 10
-1.217698959040614
 20
6.145663956979705
 30
0.0
 11
-1.261006045654786
 21
6.102356870365531
 31
0.0
  0
LINE
  5
374C
330
1E
100
AcDbEntity
  8
7
100
AcDbLine
 10
-1.261006045654786
 20
6.102356870365531
 30
0.0
 11
-1.276754077150851
 21
6.043301752255297
 31
0.0
  0
LINE
  5
374D
330
1E
100
AcDbEntity
  8
7
100
AcDbLine
 10
-1.146832817308331
 20
6.153537972727738
 30
0.0
 11
-1.146832817308331
 21
6.118104901861597
 31
0.0
  0
LINE
  5
374E
330
1E
100
AcDbEntity
  8
7
100
AcDbLine
 10
-1.146832817308331
 20
6.118104901861597
 30
0.0
 11
-1.146832817308331
 21
6.035427736507264
 31
0.0
  0
LINE
  5
374F
330
1E
100
AcDbEntity
  8
7
100
AcDbLine
 10
1.494899466156235
 20
6.153537972727738
 30
0.0
 11
1.494899466156235
 21
6.118104901861597
 31
0.0
  0
LINE
  5
3750
330
1E
100
AcDbEntity
  8
7
100
AcDbLine
 10
1.494899466156235
 20
6.118104901861597
 30
0.0
 11
1.494899466156235
 21
6.035427736507264
 31
0.0
  0
LINE
  5
3751
330
1E
100
AcDbEntity
  8
7
100
AcDbLine
 10
1.613009702376707
 20
4.586608838869468
 30
0.0
 11
1.577576631510567
 21
4.586608838869468
 31
0.0
  0
LINE
  5
3752
330
1E
100
AcDbEntity
  8
7
100
AcDbLine
 10
1.577576631510567
 20
4.586608838869468
 30
0.0
 11
1.494899466156235
 21
4.586608838869468
 31
0.0
  0
LINE
  5
3753
330
1E
100
AcDbEntity
  8
7
100
AcDbLine
 10
1.624820725998755
 20
4.578734823121438
 30
0.0
 11
1.609072694502692
 21
4.519679705011201
 31
0.0
  0
LINE
  5
3754
330
1E
100
AcDbEntity
  8
7
100
AcDbLine
 10
1.609072694502692
 20
4.519679705011201
 30
0.0
 11
1.565765607888518
 21
4.476372618397027
 31
0.0
  0
LINE
  5
3755
330
1E
100
AcDbEntity
  8
7
100
AcDbLine
 10
1.565765607888518
 20
4.476372618397027
 30
0.0
 11
1.502773481904267
 21
4.456687579026949
 31
0.0
  0
LINE
  5
3756
330
1E
100
AcDbEntity
  8
7
100
AcDbLine
 10
1.613009702376707
 20
4.586608838869468
 30
0.0
 11
1.597261670880644
 21
4.527553720759231
 31
0.0
  0
LINE
  5
3757
330
1E
100
AcDbEntity
  8
7
100
AcDbLine
 10
1.597261670880644
 20
4.527553720759231
 30
0.0
 11
1.553954584266472
 21
4.48424663414506
 31
0.0
  0
LINE
  5
3758
330
1E
100
AcDbEntity
  8
7
100
AcDbLine
 10
1.553954584266472
 20
4.48424663414506
 30
0.0
 11
1.494899466156235
 21
4.468498602648994
 31
0.0
  0
LINE
  5
3759
330
1E
100
AcDbEntity
  8
7
100
AcDbLine
 10
-1.264943053528803
 20
4.586608838869468
 30
0.0
 11
-1.22950998266266
 21
4.586608838869468
 31
0.0
  0
LINE
  5
375A
330
1E
100
AcDbEntity
  8
7
100
AcDbLine
 10
-1.22950998266266
 20
4.586608838869468
 30
0.0
 11
-1.146832817308331
 21
4.586608838869468
 31
0.0
  0
LINE
  5
375B
330
1E
100
AcDbEntity
  8
7
100
AcDbLine
 10
-1.264943053528803
 20
4.586608838869468
 30
0.0
 11
-1.24919502203274
 21
4.527553720759234
 31
0.0
  0
LINE
  5
375C
330
1E
100
AcDbEntity
  8
7
100
AcDbLine
 10
-1.24919502203274
 20
4.527553720759234
 30
0.0
 11
-1.205887935418566
 21
4.48424663414506
 31
0.0
  0
LINE
  5
375D
330
1E
100
AcDbEntity
  8
7
100
AcDbLine
 10
-1.205887935418566
 20
4.48424663414506
 30
0.0
 11
-1.146832817308331
 21
4.468498602648997
 31
0.0
  0
LINE
  5
375E
330
1E
100
AcDbEntity
  8
7
100
AcDbLine
 10
-1.276754077150851
 20
4.578734823121438
 30
0.0
 11
-1.261006045654786
 21
4.519679705011201
 31
0.0
  0
LINE
  5
375F
330
1E
100
AcDbEntity
  8
7
100
AcDbLine
 10
-1.261006045654786
 20
4.519679705011201
 30
0.0
 11
-1.217698959040614
 21
4.476372618397027
 31
0.0
  0
LINE
  5
3760
330
1E
100
AcDbEntity
  8
7
100
AcDbLine
 10
-1.217698959040614
 20
4.476372618397027
 30
0.0
 11
-1.154706833056362
 21
4.456687579026949
 31
0.0
  0
LINE
  5
3761
330
1E
100
AcDbEntity
  8
7
100
AcDbLine
 10
-1.146832817308331
 20
4.586608838869468
 30
0.0
 11
-1.146832817308331
 21
4.503931673515138
 31
0.0
  0
LINE
  5
3762
330
1E
100
AcDbEntity
  8
7
100
AcDbLine
 10
-1.146832817308331
 20
4.503931673515138
 30
0.0
 11
-1.146832817308331
 21
4.468498602648997
 31
0.0
  0
LINE
  5
3763
330
1E
100
AcDbEntity
  8
7
100
AcDbLine
 10
1.494899466156235
 20
4.586608838869468
 30
0.0
 11
1.494899466156235
 21
4.503931673515138
 31
0.0
  0
LINE
  5
3764
330
1E
100
AcDbEntity
  8
7
100
AcDbLine
 10
1.494899466156235
 20
4.503931673515138
 30
0.0
 11
1.494899466156235
 21
4.468498602648994
 31
0.0
  0
LINE
  5
3765
330
1E
100
AcDbEntity
  8
7
100
AcDbLine
 10
-1.300376124394945
 20
6.035427736507264
 30
0.0
 11
-1.335809195261086
 21
6.035427736507264
 31
0.0
  0
LINE
  5
3766
330
1E
100
AcDbEntity
  8
7
100
AcDbLine
 10
-1.335809195261086
 20
6.035427736507264
 30
0.0
 11
-1.422423368489432
 21
6.035427736507264
 31
0.0
  0
LINE
  5
3767
330
1E
100
AcDbEntity
  8
7
100
AcDbLine
 10
-1.410612344867384
 20
6.161411988475768
 30
0.0
 11
-1.351557226757149
 21
6.145663956979705
 31
0.0
  0
LINE
  5
3768
330
1E
100
AcDbEntity
  8
7
100
AcDbLine
 10
-1.351557226757149
 20
6.145663956979705
 30
0.0
 11
-1.308250140142977
 21
6.102356870365531
 31
0.0
  0
LINE
  5
3769
330
1E
100
AcDbEntity
  8
7
100
AcDbLine
 10
-1.308250140142977
 20
6.102356870365531
 30
0.0
 11
-1.292502108646914
 21
6.043301752255297
 31
0.0
  0
LINE
  5
376A
330
1E
100
AcDbEntity
  8
7
100
AcDbLine
 10
-1.300376124394945
 20
6.035427736507264
 30
0.0
 11
-1.316124155891008
 21
6.094482854617501
 31
0.0
  0
LINE
  5
376B
330
1E
100
AcDbEntity
  8
7
100
AcDbLine
 10
-1.316124155891008
 20
6.094482854617501
 30
0.0
 11
-1.359431242505181
 21
6.137789941231675
 31
0.0
  0
LINE
  5
376C
330
1E
100
AcDbEntity
  8
7
100
AcDbLine
 10
-1.359431242505181
 20
6.137789941231675
 30
0.0
 11
-1.422423368489432
 21
6.153537972727738
 31
0.0
  0
LINE
  5
376D
330
1E
100
AcDbEntity
  8
7
100
AcDbLine
 10
-4.182265888174473
 20
6.035427736507264
 30
0.0
 11
-4.142895809434314
 21
6.035427736507264
 31
0.0
  0
LINE
  5
376E
330
1E
100
AcDbEntity
  8
7
100
AcDbLine
 10
-4.142895809434314
 20
6.035427736507264
 30
0.0
 11
-4.060218644079984
 21
6.035427736507264
 31
0.0
  0
LINE
  5
376F
330
1E
100
AcDbEntity
  8
7
100
AcDbLine
 10
-4.182265888174473
 20
6.035427736507264
 30
0.0
 11
-4.16651785667841
 21
6.094482854617501
 31
0.0
  0
LINE
  5
3770
330
1E
100
AcDbEntity
  8
7
100
AcDbLine
 10
-4.16651785667841
 20
6.094482854617501
 30
0.0
 11
-4.119273762190221
 21
6.137789941231675
 31
0.0
  0
LINE
  5
3771
330
1E
100
AcDbEntity
  8
7
100
AcDbLine
 10
-4.119273762190221
 20
6.137789941231675
 30
0.0
 11
-4.060218644079984
 21
6.153537972727738
 31
0.0
  0
LINE
  5
3772
330
1E
100
AcDbEntity
  8
7
100
AcDbLine
 10
-4.072029667702032
 20
6.161411988475768
 30
0.0
 11
-4.131084785812266
 21
6.145663956979705
 31
0.0
  0
LINE
  5
3773
330
1E
100
AcDbEntity
  8
7
100
AcDbLine
 10
-4.131084785812266
 20
6.145663956979705
 30
0.0
 11
-4.17439187242644
 21
6.102356870365531
 31
0.0
  0
LINE
  5
3774
330
1E
100
AcDbEntity
  8
7
100
AcDbLine
 10
-4.17439187242644
 20
6.102356870365531
 30
0.0
 11
-4.190139903922503
 21
6.043301752255297
 31
0.0
  0
LINE
  5
3775
330
1E
100
AcDbEntity
  8
7
100
AcDbLine
 10
-4.060218644079984
 20
6.153537972727738
 30
0.0
 11
-4.060218644079984
 21
6.118104901861597
 31
0.0
  0
LINE
  5
3776
330
1E
100
AcDbEntity
  8
7
100
AcDbLine
 10
-4.060218644079984
 20
6.118104901861597
 30
0.0
 11
-4.060218644079984
 21
6.035427736507264
 31
0.0
  0
LINE
  5
3777
330
1E
100
AcDbEntity
  8
7
100
AcDbLine
 10
-1.422423368489432
 20
6.153537972727738
 30
0.0
 11
-1.422423368489432
 21
6.118104901861597
 31
0.0
  0
LINE
  5
3778
330
1E
100
AcDbEntity
  8
7
100
AcDbLine
 10
-1.422423368489432
 20
6.118104901861597
 30
0.0
 11
-1.422423368489432
 21
6.035427736507264
 31
0.0
  0
LINE
  5
3779
330
1E
100
AcDbEntity
  8
7
100
AcDbLine
 10
-1.300376124394945
 20
4.586608838869468
 30
0.0
 11
-1.335809195261086
 21
4.586608838869468
 31
0.0
  0
LINE
  5
377A
330
1E
100
AcDbEntity
  8
7
100
AcDbLine
 10
-1.335809195261086
 20
4.586608838869468
 30
0.0
 11
-1.422423368489432
 21
4.586608838869468
 31
0.0
  0
LINE
  5
377B
330
1E
100
AcDbEntity
  8
7
100
AcDbLine
 10
-1.292502108646914
 20
4.578734823121438
 30
0.0
 11
-1.308250140142977
 21
4.519679705011201
 31
0.0
  0
LINE
  5
377C
330
1E
100
AcDbEntity
  8
7
100
AcDbLine
 10
-1.308250140142977
 20
4.519679705011201
 30
0.0
 11
-1.351557226757149
 21
4.476372618397027
 31
0.0
  0
LINE
  5
377D
330
1E
100
AcDbEntity
  8
7
100
AcDbLine
 10
-1.351557226757149
 20
4.476372618397027
 30
0.0
 11
-1.410612344867384
 21
4.456687579026949
 31
0.0
  0
LINE
  5
377E
330
1E
100
AcDbEntity
  8
7
100
AcDbLine
 10
-1.300376124394945
 20
4.586608838869468
 30
0.0
 11
-1.316124155891008
 21
4.527553720759234
 31
0.0
  0
LINE
  5
377F
330
1E
100
AcDbEntity
  8
7
100
AcDbLine
 10
-1.316124155891008
 20
4.527553720759234
 30
0.0
 11
-1.359431242505181
 21
4.48424663414506
 31
0.0
  0
LINE
  5
3780
330
1E
100
AcDbEntity
  8
7
100
AcDbLine
 10
-1.359431242505181
 20
4.48424663414506
 30
0.0
 11
-1.422423368489432
 21
4.468498602648997
 31
0.0
  0
LINE
  5
3781
330
1E
100
AcDbEntity
  8
7
100
AcDbLine
 10
-4.182265888174473
 20
4.586608838869468
 30
0.0
 11
-4.142895809434314
 21
4.586608838869468
 31
0.0
  0
LINE
  5
3782
330
1E
100
AcDbEntity
  8
7
100
AcDbLine
 10
-4.142895809434314
 20
4.586608838869468
 30
0.0
 11
-4.060218644079984
 21
4.586608838869468
 31
0.0
  0
LINE
  5
3783
330
1E
100
AcDbEntity
  8
7
100
AcDbLine
 10
-4.182265888174473
 20
4.586608838869468
 30
0.0
 11
-4.16651785667841
 21
4.527553720759234
 31
0.0
  0
LINE
  5
3784
330
1E
100
AcDbEntity
  8
7
100
AcDbLine
 10
-4.16651785667841
 20
4.527553720759234
 30
0.0
 11
-4.119273762190221
 21
4.48424663414506
 31
0.0
  0
LINE
  5
3785
330
1E
100
AcDbEntity
  8
7
100
AcDbLine
 10
-4.119273762190221
 20
4.48424663414506
 30
0.0
 11
-4.060218644079984
 21
4.468498602648997
 31
0.0
  0
LINE
  5
3786
330
1E
100
AcDbEntity
  8
7
100
AcDbLine
 10
-4.190139903922503
 20
4.578734823121438
 30
0.0
 11
-4.17439187242644
 21
4.519679705011201
 31
0.0
  0
LINE
  5
3787
330
1E
100
AcDbEntity
  8
7
100
AcDbLine
 10
-4.17439187242644
 20
4.519679705011201
 30
0.0
 11
-4.131084785812266
 21
4.476372618397027
 31
0.0
  0
LINE
  5
3788
330
1E
100
AcDbEntity
  8
7
100
AcDbLine
 10
-4.131084785812266
 20
4.476372618397027
 30
0.0
 11
-4.072029667702032
 21
4.456687579026949
 31
0.0
  0
LINE
  5
3789
330
1E
100
AcDbEntity
  8
7
100
AcDbLine
 10
-4.060218644079984
 20
4.586608838869468
 30
0.0
 11
-4.060218644079984
 21
4.503931673515138
 31
0.0
  0
LINE
  5
378A
330
1E
100
AcDbEntity
  8
7
100
AcDbLine
 10
-4.060218644079984
 20
4.503931673515138
 30
0.0
 11
-4.060218644079984
 21
4.468498602648997
 31
0.0
  0
LINE
  5
378B
330
1E
100
AcDbEntity
  8
7
100
AcDbLine
 10
-1.422423368489432
 20
4.586608838869468
 30
0.0
 11
-1.422423368489432
 21
4.503931673515138
 31
0.0
  0
LINE
  5
378C
330
1E
100
AcDbEntity
  8
7
100
AcDbLine
 10
-1.422423368489432
 20
4.503931673515138
 30
0.0
 11
-1.422423368489432
 21
4.468498602648997
 31
0.0
  0
LINE
  5
378D
330
1E
100
AcDbEntity
  8
7
100
AcDbLine
 10
13.27442702521135
 20
6.03542773650726
 30
0.0
 11
13.23899395434521
 21
6.03542773650726
 31
0.0
  0
LINE
  5
378E
330
1E
100
AcDbEntity
  8
7
100
AcDbLine
 10
13.23899395434521
 20
6.03542773650726
 30
0.0
 11
13.15631678899088
 21
6.03542773650726
 31
0.0
  0
LINE
  5
378F
330
1E
100
AcDbEntity
  8
7
100
AcDbLine
 10
13.16419080473891
 20
6.161411988475764
 30
0.0
 11
13.22324592284914
 21
6.145663956979701
 31
0.0
  0
LINE
  5
3790
330
1E
100
AcDbEntity
  8
7
100
AcDbLine
 10
13.22324592284914
 20
6.145663956979701
 30
0.0
 11
13.26655300946332
 21
6.102356870365527
 31
0.0
  0
LINE
  5
3791
330
1E
100
AcDbEntity
  8
7
100
AcDbLine
 10
13.26655300946332
 20
6.102356870365527
 30
0.0
 11
13.28230104095938
 21
6.043301752255294
 31
0.0
  0
LINE
  5
3792
330
1E
100
AcDbEntity
  8
7
100
AcDbLine
 10
13.27442702521135
 20
6.03542773650726
 30
0.0
 11
13.25867899371528
 21
6.094482854617497
 31
0.0
  0
LINE
  5
3793
330
1E
100
AcDbEntity
  8
7
100
AcDbLine
 10
13.25867899371528
 20
6.094482854617497
 30
0.0
 11
13.21537190710111
 21
6.137789941231671
 31
0.0
  0
LINE
  5
3794
330
1E
100
AcDbEntity
  8
7
100
AcDbLine
 10
13.21537190710111
 20
6.137789941231671
 30
0.0
 11
13.15631678899088
 21
6.153537972727734
 31
0.0
  0
LINE
  5
3795
330
1E
100
AcDbEntity
  8
7
100
AcDbLine
 10
10.39253726143182
 20
6.035427736507264
 30
0.0
 11
10.43190734017198
 21
6.035427736507264
 31
0.0
  0
LINE
  5
3796
330
1E
100
AcDbEntity
  8
7
100
AcDbLine
 10
10.43190734017198
 20
6.035427736507264
 30
0.0
 11
10.51458450552631
 21
6.035427736507264
 31
0.0
  0
LINE
  5
3797
330
1E
100
AcDbEntity
  8
7
100
AcDbLine
 10
10.39253726143182
 20
6.035427736507264
 30
0.0
 11
10.4122223008019
 21
6.094482854617497
 31
0.0
  0
LINE
  5
3798
330
1E
100
AcDbEntity
  8
7
100
AcDbLine
 10
10.4122223008019
 20
6.094482854617497
 30
0.0
 11
10.45552938741607
 21
6.137789941231671
 31
0.0
  0
LINE
  5
3799
330
1E
100
AcDbEntity
  8
7
100
AcDbLine
 10
10.45552938741607
 20
6.137789941231671
 30
0.0
 11
10.51458450552631
 21
6.153537972727734
 31
0.0
  0
LINE
  5
379A
330
1E
100
AcDbEntity
  8
7
100
AcDbLine
 10
10.50277348190426
 20
6.161411988475768
 30
0.0
 11
10.44371836379403
 21
6.145663956979705
 31
0.0
  0
LINE
  5
379B
330
1E
100
AcDbEntity
  8
7
100
AcDbLine
 10
10.44371836379403
 20
6.145663956979705
 30
0.0
 11
10.40041127717985
 21
6.102356870365531
 31
0.0
  0
LINE
  5
379C
330
1E
100
AcDbEntity
  8
7
100
AcDbLine
 10
10.40041127717985
 20
6.102356870365531
 30
0.0
 11
10.38466324568379
 21
6.043301752255294
 31
0.0
  0
LINE
  5
379D
330
1E
100
AcDbEntity
  8
7
100
AcDbLine
 10
10.51458450552631
 20
6.153537972727734
 30
0.0
 11
10.51458450552631
 21
6.118104901861594
 31
0.0
  0
LINE
  5
379E
330
1E
100
AcDbEntity
  8
7
100
AcDbLine
 10
10.51458450552631
 20
6.118104901861594
 30
0.0
 11
10.51458450552631
 21
6.035427736507264
 31
0.0
  0
LINE
  5
379F
330
1E
100
AcDbEntity
  8
7
100
AcDbLine
 10
13.15631678899088
 20
6.153537972727734
 30
0.0
 11
13.15631678899088
 21
6.118104901861594
 31
0.0
  0
LINE
  5
37A0
330
1E
100
AcDbEntity
  8
7
100
AcDbLine
 10
13.15631678899088
 20
6.118104901861594
 30
0.0
 11
13.15631678899088
 21
6.03542773650726
 31
0.0
  0
LINE
  5
37A1
330
1E
100
AcDbEntity
  8
7
100
AcDbLine
 10
13.27442702521135
 20
4.586608838869464
 30
0.0
 11
13.23899395434521
 21
4.586608838869464
 31
0.0
  0
LINE
  5
37A2
330
1E
100
AcDbEntity
  8
7
100
AcDbLine
 10
13.23899395434521
 20
4.586608838869464
 30
0.0
 11
13.15631678899088
 21
4.586608838869464
 31
0.0
  0
LINE
  5
37A3
330
1E
100
AcDbEntity
  8
7
100
AcDbLine
 10
13.28230104095938
 20
4.578734823121434
 30
0.0
 11
13.26655300946332
 21
4.519679705011197
 31
0.0
  0
LINE
  5
37A4
330
1E
100
AcDbEntity
  8
7
100
AcDbLine
 10
13.26655300946332
 20
4.519679705011197
 30
0.0
 11
13.22324592284914
 21
4.476372618397023
 31
0.0
  0
LINE
  5
37A5
330
1E
100
AcDbEntity
  8
7
100
AcDbLine
 10
13.22324592284914
 20
4.476372618397023
 30
0.0
 11
13.16419080473891
 21
4.456687579026946
 31
0.0
  0
LINE
  5
37A6
330
1E
100
AcDbEntity
  8
7
100
AcDbLine
 10
13.27442702521135
 20
4.586608838869464
 30
0.0
 11
13.25867899371528
 21
4.527553720759231
 31
0.0
  0
LINE
  5
37A7
330
1E
100
AcDbEntity
  8
7
100
AcDbLine
 10
13.25867899371528
 20
4.527553720759231
 30
0.0
 11
13.21537190710111
 21
4.484246634145057
 31
0.0
  0
LINE
  5
37A8
330
1E
100
AcDbEntity
  8
7
100
AcDbLine
 10
13.21537190710111
 20
4.484246634145057
 30
0.0
 11
13.15631678899088
 21
4.468498602648994
 31
0.0
  0
LINE
  5
37A9
330
1E
100
AcDbEntity
  8
7
100
AcDbLine
 10
10.39253726143182
 20
4.586608838869468
 30
0.0
 11
10.43190734017198
 21
4.586608838869468
 31
0.0
  0
LINE
  5
37AA
330
1E
100
AcDbEntity
  8
7
100
AcDbLine
 10
10.43190734017198
 20
4.586608838869468
 30
0.0
 11
10.51458450552631
 21
4.586608838869468
 31
0.0
  0
LINE
  5
37AB
330
1E
100
AcDbEntity
  8
7
100
AcDbLine
 10
10.39253726143182
 20
4.586608838869468
 30
0.0
 11
10.4122223008019
 21
4.527553720759231
 31
0.0
  0
LINE
  5
37AC
330
1E
100
AcDbEntity
  8
7
100
AcDbLine
 10
10.4122223008019
 20
4.527553720759231
 30
0.0
 11
10.45552938741607
 21
4.484246634145057
 31
0.0
  0
LINE
  5
37AD
330
1E
100
AcDbEntity
  8
7
100
AcDbLine
 10
10.45552938741607
 20
4.484246634145057
 30
0.0
 11
10.51458450552631
 21
4.468498602648994
 31
0.0
  0
LINE
  5
37AE
330
1E
100
AcDbEntity
  8
7
100
AcDbLine
 10
10.38466324568379
 20
4.578734823121434
 30
0.0
 11
10.40041127717985
 21
4.519679705011201
 31
0.0
  0
LINE
  5
37AF
330
1E
100
AcDbEntity
  8
7
100
AcDbLine
 10
10.40041127717985
 20
4.519679705011201
 30
0.0
 11
10.44371836379403
 21
4.476372618397027
 31
0.0
  0
LINE
  5
37B0
330
1E
100
AcDbEntity
  8
7
100
AcDbLine
 10
10.44371836379403
 20
4.476372618397027
 30
0.0
 11
10.50277348190426
 21
4.456687579026949
 31
0.0
  0
LINE
  5
37B1
330
1E
100
AcDbEntity
  8
7
100
AcDbLine
 10
10.51458450552631
 20
4.586608838869468
 30
0.0
 11
10.51458450552631
 21
4.503931673515138
 31
0.0
  0
LINE
  5
37B2
330
1E
100
AcDbEntity
  8
7
100
AcDbLine
 10
10.51458450552631
 20
4.503931673515138
 30
0.0
 11
10.51458450552631
 21
4.468498602648994
 31
0.0
  0
LINE
  5
37B3
330
1E
100
AcDbEntity
  8
7
100
AcDbLine
 10
13.15631678899088
 20
4.586608838869464
 30
0.0
 11
13.15631678899088
 21
4.503931673515134
 31
0.0
  0
LINE
  5
37B4
330
1E
100
AcDbEntity
  8
7
100
AcDbLine
 10
13.15631678899088
 20
4.503931673515134
 30
0.0
 11
13.15631678899088
 21
4.468498602648994
 31
0.0
  0
LINE
  5
37B5
330
1E
100
AcDbEntity
  8
7
100
AcDbLine
 10
10.36104119843969
 20
6.035427736507264
 30
0.0
 11
10.32167111969954
 21
6.035427736507264
 31
0.0
  0
LINE
  5
37B6
330
1E
100
AcDbEntity
  8
7
100
AcDbLine
 10
10.32167111969954
 20
6.035427736507264
 30
0.0
 11
10.23899395434521
 21
6.035427736507264
 31
0.0
  0
LINE
  5
37B7
330
1E
100
AcDbEntity
  8
7
100
AcDbLine
 10
10.25080497796726
 20
6.161411988475768
 30
0.0
 11
10.30986009607749
 21
6.145663956979705
 31
0.0
  0
LINE
  5
37B8
330
1E
100
AcDbEntity
  8
7
100
AcDbLine
 10
10.30986009607749
 20
6.145663956979705
 30
0.0
 11
10.35316718269167
 21
6.102356870365531
 31
0.0
  0
LINE
  5
37B9
330
1E
100
AcDbEntity
  8
7
100
AcDbLine
 10
10.35316718269167
 20
6.102356870365531
 30
0.0
 11
10.36891521418773
 21
6.043301752255294
 31
0.0
  0
LINE
  5
37BA
330
1E
100
AcDbEntity
  8
7
100
AcDbLine
 10
10.36104119843969
 20
6.035427736507264
 30
0.0
 11
10.34135615906962
 21
6.094482854617497
 31
0.0
  0
LINE
  5
37BB
330
1E
100
AcDbEntity
  8
7
100
AcDbLine
 10
10.34135615906962
 20
6.094482854617497
 30
0.0
 11
10.29804907245544
 21
6.137789941231671
 31
0.0
  0
LINE
  5
37BC
330
1E
100
AcDbEntity
  8
7
100
AcDbLine
 10
10.29804907245544
 20
6.137789941231671
 30
0.0
 11
10.23899395434521
 21
6.153537972727734
 31
0.0
  0
LINE
  5
37BD
330
1E
100
AcDbEntity
  8
7
100
AcDbLine
 10
7.479151434660174
 20
6.035427736507264
 30
0.0
 11
7.514584505526315
 21
6.035427736507264
 31
0.0
  0
LINE
  5
37BE
330
1E
100
AcDbEntity
  8
7
100
AcDbLine
 10
7.514584505526315
 20
6.035427736507264
 30
0.0
 11
7.597261670880644
 21
6.035427736507264
 31
0.0
  0
LINE
  5
37BF
330
1E
100
AcDbEntity
  8
7
100
AcDbLine
 10
7.479151434660174
 20
6.035427736507264
 30
0.0
 11
7.494899466156237
 21
6.094482854617497
 31
0.0
  0
LINE
  5
37C0
330
1E
100
AcDbEntity
  8
7
100
AcDbLine
 10
7.494899466156237
 20
6.094482854617497
 30
0.0
 11
7.538206552770407
 21
6.137789941231671
 31
0.0
  0
LINE
  5
37C1
330
1E
100
AcDbEntity
  8
7
100
AcDbLine
 10
7.538206552770407
 20
6.137789941231671
 30
0.0
 11
7.597261670880644
 21
6.153537972727734
 31
0.0
  0
LINE
  5
37C2
330
1E
100
AcDbEntity
  8
7
100
AcDbLine
 10
7.589387655132615
 20
6.161411988475768
 30
0.0
 11
7.530332537022378
 21
6.145663956979705
 31
0.0
  0
LINE
  5
37C3
330
1E
100
AcDbEntity
  8
7
100
AcDbLine
 10
7.530332537022378
 20
6.145663956979705
 30
0.0
 11
7.487025450408204
 21
6.102356870365531
 31
0.0
  0
LINE
  5
37C4
330
1E
100
AcDbEntity
  8
7
100
AcDbLine
 10
7.487025450408204
 20
6.102356870365531
 30
0.0
 11
7.467340411038126
 21
6.043301752255294
 31
0.0
  0
LINE
  5
37C5
330
1E
100
AcDbEntity
  8
7
100
AcDbLine
 10
7.597261670880644
 20
6.153537972727734
 30
0.0
 11
7.597261670880644
 21
6.118104901861594
 31
0.0
  0
LINE
  5
37C6
330
1E
100
AcDbEntity
  8
7
100
AcDbLine
 10
7.597261670880644
 20
6.118104901861594
 30
0.0
 11
7.597261670880644
 21
6.035427736507264
 31
0.0
  0
LINE
  5
37C7
330
1E
100
AcDbEntity
  8
7
100
AcDbLine
 10
10.23899395434521
 20
6.153537972727734
 30
0.0
 11
10.23899395434521
 21
6.118104901861594
 31
0.0
  0
LINE
  5
37C8
330
1E
100
AcDbEntity
  8
7
100
AcDbLine
 10
10.23899395434521
 20
6.118104901861594
 30
0.0
 11
10.23899395434521
 21
6.035427736507264
 31
0.0
  0
LINE
  5
37C9
330
1E
100
AcDbEntity
  8
7
100
AcDbLine
 10
10.36104119843969
 20
4.586608838869468
 30
0.0
 11
10.32167111969954
 21
4.586608838869468
 31
0.0
  0
LINE
  5
37CA
330
1E
100
AcDbEntity
  8
7
100
AcDbLine
 10
10.32167111969954
 20
4.586608838869468
 30
0.0
 11
10.23899395434521
 21
4.586608838869468
 31
0.0
  0
LINE
  5
37CB
330
1E
100
AcDbEntity
  8
7
100
AcDbLine
 10
10.36891521418773
 20
4.578734823121434
 30
0.0
 11
10.35316718269167
 21
4.519679705011201
 31
0.0
  0
LINE
  5
37CC
330
1E
100
AcDbEntity
  8
7
100
AcDbLine
 10
10.35316718269167
 20
4.519679705011201
 30
0.0
 11
10.30986009607749
 21
4.476372618397027
 31
0.0
  0
LINE
  5
37CD
330
1E
100
AcDbEntity
  8
7
100
AcDbLine
 10
10.30986009607749
 20
4.476372618397027
 30
0.0
 11
10.25080497796726
 21
4.456687579026949
 31
0.0
  0
LINE
  5
37CE
330
1E
100
AcDbEntity
  8
7
100
AcDbLine
 10
10.36104119843969
 20
4.586608838869468
 30
0.0
 11
10.34135615906962
 21
4.527553720759231
 31
0.0
  0
LINE
  5
37CF
330
1E
100
AcDbEntity
  8
7
100
AcDbLine
 10
10.34135615906962
 20
4.527553720759231
 30
0.0
 11
10.29804907245544
 21
4.484246634145057
 31
0.0
  0
LINE
  5
37D0
330
1E
100
AcDbEntity
  8
7
100
AcDbLine
 10
10.29804907245544
 20
4.484246634145057
 30
0.0
 11
10.23899395434521
 21
4.468498602648994
 31
0.0
  0
LINE
  5
37D1
330
1E
100
AcDbEntity
  8
7
100
AcDbLine
 10
7.479151434660174
 20
4.586608838869468
 30
0.0
 11
7.514584505526315
 21
4.586608838869468
 31
0.0
  0
LINE
  5
37D2
330
1E
100
AcDbEntity
  8
7
100
AcDbLine
 10
7.514584505526315
 20
4.586608838869468
 30
0.0
 11
7.597261670880644
 21
4.586608838869468
 31
0.0
  0
LINE
  5
37D3
330
1E
100
AcDbEntity
  8
7
100
AcDbLine
 10
7.479151434660174
 20
4.586608838869468
 30
0.0
 11
7.494899466156237
 21
4.527553720759231
 31
0.0
  0
LINE
  5
37D4
330
1E
100
AcDbEntity
  8
7
100
AcDbLine
 10
7.494899466156237
 20
4.527553720759231
 30
0.0
 11
7.538206552770407
 21
4.484246634145057
 31
0.0
  0
LINE
  5
37D5
330
1E
100
AcDbEntity
  8
7
100
AcDbLine
 10
7.538206552770407
 20
4.484246634145057
 30
0.0
 11
7.597261670880644
 21
4.468498602648994
 31
0.0
  0
LINE
  5
37D6
330
1E
100
AcDbEntity
  8
7
100
AcDbLine
 10
7.467340411038126
 20
4.578734823121434
 30
0.0
 11
7.487025450408204
 21
4.519679705011201
 31
0.0
  0
LINE
  5
37D7
330
1E
100
AcDbEntity
  8
7
100
AcDbLine
 10
7.487025450408204
 20
4.519679705011201
 30
0.0
 11
7.530332537022378
 21
4.476372618397027
 31
0.0
  0
LINE
  5
37D8
330
1E
100
AcDbEntity
  8
7
100
AcDbLine
 10
7.530332537022378
 20
4.476372618397027
 30
0.0
 11
7.589387655132615
 21
4.456687579026949
 31
0.0
  0
LINE
  5
37D9
330
1E
100
AcDbEntity
  8
7
100
AcDbLine
 10
7.597261670880644
 20
4.586608838869468
 30
0.0
 11
7.597261670880644
 21
4.503931673515138
 31
0.0
  0
LINE
  5
37DA
330
1E
100
AcDbEntity
  8
7
100
AcDbLine
 10
7.597261670880644
 20
4.503931673515138
 30
0.0
 11
7.597261670880644
 21
4.468498602648994
 31
0.0
  0
LINE
  5
37DB
330
1E
100
AcDbEntity
  8
7
100
AcDbLine
 10
10.23899395434521
 20
4.586608838869468
 30
0.0
 11
10.23899395434521
 21
4.503931673515138
 31
0.0
  0
LINE
  5
37DC
330
1E
100
AcDbEntity
  8
7
100
AcDbLine
 10
10.23899395434521
 20
4.503931673515138
 30
0.0
 11
10.23899395434521
 21
4.468498602648994
 31
0.0
  0
LINE
  5
37DD
330
1E
100
AcDbEntity
  8
7
100
AcDbLine
 10
7.44371836379403
 20
6.035427736507264
 30
0.0
 11
7.408285292927889
 21
6.035427736507264
 31
0.0
  0
LINE
  5
37DE
330
1E
100
AcDbEntity
  8
7
100
AcDbLine
 10
7.408285292927889
 20
6.035427736507264
 30
0.0
 11
7.325608127573559
 21
6.035427736507264
 31
0.0
  0
LINE
  5
37DF
330
1E
100
AcDbEntity
  8
7
100
AcDbLine
 10
7.333482143321589
 20
6.161411988475768
 30
0.0
 11
7.392537261431826
 21
6.145663956979705
 31
0.0
  0
LINE
  5
37E0
330
1E
100
AcDbEntity
  8
7
100
AcDbLine
 10
7.392537261431826
 20
6.145663956979705
 30
0.0
 11
7.439781355920015
 21
6.102356870365531
 31
0.0
  0
LINE
  5
37E1
330
1E
100
AcDbEntity
  8
7
100
AcDbLine
 10
7.439781355920015
 20
6.102356870365531
 30
0.0
 11
7.455529387416078
 21
6.043301752255294
 31
0.0
  0
LINE
  5
37E2
330
1E
100
AcDbEntity
  8
7
100
AcDbLine
 10
7.44371836379403
 20
6.035427736507264
 30
0.0
 11
7.427970332297967
 21
6.094482854617497
 31
0.0
  0
LINE
  5
37E3
330
1E
100
AcDbEntity
  8
7
100
AcDbLine
 10
7.427970332297967
 20
6.094482854617497
 30
0.0
 11
7.384663245683796
 21
6.137789941231671
 31
0.0
  0
LINE
  5
37E4
330
1E
100
AcDbEntity
  8
7
100
AcDbLine
 10
7.384663245683796
 20
6.137789941231671
 30
0.0
 11
7.325608127573559
 21
6.153537972727734
 31
0.0
  0
LINE
  5
37E5
330
1E
100
AcDbEntity
  8
7
100
AcDbLine
 10
4.565765607888518
 20
6.035427736507264
 30
0.0
 11
4.601198678754663
 21
6.035427736507264
 31
0.0
  0
LINE
  5
37E6
330
1E
100
AcDbEntity
  8
7
100
AcDbLine
 10
4.601198678754663
 20
6.035427736507264
 30
0.0
 11
4.683875844108989
 21
6.035427736507264
 31
0.0
  0
LINE
  5
37E7
330
1E
100
AcDbEntity
  8
7
100
AcDbLine
 10
4.565765607888518
 20
6.035427736507264
 30
0.0
 11
4.581513639384581
 21
6.094482854617497
 31
0.0
  0
LINE
  5
37E8
330
1E
100
AcDbEntity
  8
7
100
AcDbLine
 10
4.581513639384581
 20
6.094482854617497
 30
0.0
 11
4.624820725998755
 21
6.137789941231671
 31
0.0
  0
LINE
  5
37E9
330
1E
100
AcDbEntity
  8
7
100
AcDbLine
 10
4.624820725998755
 20
6.137789941231671
 30
0.0
 11
4.683875844108989
 21
6.153537972727734
 31
0.0
  0
LINE
  5
37EA
330
1E
100
AcDbEntity
  8
7
100
AcDbLine
 10
4.676001828360959
 20
6.161411988475768
 30
0.0
 11
4.613009702376707
 21
6.145663956979705
 31
0.0
  0
LINE
  5
37EB
330
1E
100
AcDbEntity
  8
7
100
AcDbLine
 10
4.613009702376707
 20
6.145663956979705
 30
0.0
 11
4.569702615762537
 21
6.102356870365531
 31
0.0
  0
LINE
  5
37EC
330
1E
100
AcDbEntity
  8
7
100
AcDbLine
 10
4.569702615762537
 20
6.102356870365531
 30
0.0
 11
4.55395458426647
 21
6.043301752255294
 31
0.0
  0
LINE
  5
37ED
330
1E
100
AcDbEntity
  8
7
100
AcDbLine
 10
4.683875844108989
 20
6.153537972727734
 30
0.0
 11
4.683875844108989
 21
6.118104901861594
 31
0.0
  0
LINE
  5
37EE
330
1E
100
AcDbEntity
  8
7
100
AcDbLine
 10
4.683875844108989
 20
6.118104901861594
 30
0.0
 11
4.683875844108989
 21
6.035427736507264
 31
0.0
  0
LINE
  5
37EF
330
1E
100
AcDbEntity
  8
7
100
AcDbLine
 10
7.325608127573559
 20
6.153537972727734
 30
0.0
 11
7.325608127573559
 21
6.118104901861594
 31
0.0
  0
LINE
  5
37F0
330
1E
100
AcDbEntity
  8
7
100
AcDbLine
 10
7.325608127573559
 20
6.118104901861594
 30
0.0
 11
7.325608127573559
 21
6.035427736507264
 31
0.0
  0
LINE
  5
37F1
330
1E
100
AcDbEntity
  8
7
100
AcDbLine
 10
7.44371836379403
 20
4.586608838869468
 30
0.0
 11
7.408285292927889
 21
4.586608838869468
 31
0.0
  0
LINE
  5
37F2
330
1E
100
AcDbEntity
  8
7
100
AcDbLine
 10
7.408285292927889
 20
4.586608838869468
 30
0.0
 11
7.325608127573559
 21
4.586608838869468
 31
0.0
  0
LINE
  5
37F3
330
1E
100
AcDbEntity
  8
7
100
AcDbLine
 10
7.455529387416078
 20
4.578734823121434
 30
0.0
 11
7.439781355920015
 21
4.519679705011201
 31
0.0
  0
LINE
  5
37F4
330
1E
100
AcDbEntity
  8
7
100
AcDbLine
 10
7.439781355920015
 20
4.519679705011201
 30
0.0
 11
7.392537261431826
 21
4.476372618397027
 31
0.0
  0
LINE
  5
37F5
330
1E
100
AcDbEntity
  8
7
100
AcDbLine
 10
7.392537261431826
 20
4.476372618397027
 30
0.0
 11
7.333482143321589
 21
4.456687579026949
 31
0.0
  0
LINE
  5
37F6
330
1E
100
AcDbEntity
  8
7
100
AcDbLine
 10
7.44371836379403
 20
4.586608838869468
 30
0.0
 11
7.427970332297967
 21
4.527553720759231
 31
0.0
  0
LINE
  5
37F7
330
1E
100
AcDbEntity
  8
7
100
AcDbLine
 10
7.427970332297967
 20
4.527553720759231
 30
0.0
 11
7.384663245683796
 21
4.484246634145057
 31
0.0
  0
LINE
  5
37F8
330
1E
100
AcDbEntity
  8
7
100
AcDbLine
 10
7.384663245683796
 20
4.484246634145057
 30
0.0
 11
7.325608127573559
 21
4.468498602648994
 31
0.0
  0
LINE
  5
37F9
330
1E
100
AcDbEntity
  8
7
100
AcDbLine
 10
4.565765607888518
 20
4.586608838869468
 30
0.0
 11
4.601198678754663
 21
4.586608838869468
 31
0.0
  0
LINE
  5
37FA
330
1E
100
AcDbEntity
  8
7
100
AcDbLine
 10
4.601198678754663
 20
4.586608838869468
 30
0.0
 11
4.683875844108989
 21
4.586608838869468
 31
0.0
  0
LINE
  5
37FB
330
1E
100
AcDbEntity
  8
7
100
AcDbLine
 10
4.565765607888518
 20
4.586608838869468
 30
0.0
 11
4.581513639384581
 21
4.527553720759231
 31
0.0
  0
LINE
  5
37FC
330
1E
100
AcDbEntity
  8
7
100
AcDbLine
 10
4.581513639384581
 20
4.527553720759231
 30
0.0
 11
4.624820725998755
 21
4.484246634145057
 31
0.0
  0
LINE
  5
37FD
330
1E
100
AcDbEntity
  8
7
100
AcDbLine
 10
4.624820725998755
 20
4.484246634145057
 30
0.0
 11
4.683875844108989
 21
4.468498602648994
 31
0.0
  0
LINE
  5
37FE
330
1E
100
AcDbEntity
  8
7
100
AcDbLine
 10
4.55395458426647
 20
4.578734823121434
 30
0.0
 11
4.569702615762533
 21
4.519679705011201
 31
0.0
  0
LINE
  5
37FF
330
1E
100
AcDbEntity
  8
7
100
AcDbLine
 10
4.569702615762533
 20
4.519679705011201
 30
0.0
 11
4.613009702376707
 21
4.476372618397027
 31
0.0
  0
LINE
  5
3800
330
1E
100
AcDbEntity
  8
7
100
AcDbLine
 10
4.613009702376707
 20
4.476372618397027
 30
0.0
 11
4.676001828360959
 21
4.456687579026949
 31
0.0
  0
LINE
  5
3801
330
1E
100
AcDbEntity
  8
7
100
AcDbLine
 10
4.683875844108989
 20
4.586608838869468
 30
0.0
 11
4.683875844108989
 21
4.503931673515138
 31
0.0
  0
LINE
  5
3802
330
1E
100
AcDbEntity
  8
7
100
AcDbLine
 10
4.683875844108989
 20
4.503931673515138
 30
0.0
 11
4.683875844108989
 21
4.468498602648994
 31
0.0
  0
LINE
  5
3803
330
1E
100
AcDbEntity
  8
7
100
AcDbLine
 10
7.325608127573559
 20
4.586608838869468
 30
0.0
 11
7.325608127573559
 21
4.503931673515138
 31
0.0
  0
LINE
  5
3804
330
1E
100
AcDbEntity
  8
7
100
AcDbLine
 10
7.325608127573559
 20
4.503931673515138
 30
0.0
 11
7.325608127573559
 21
4.468498602648994
 31
0.0
  0
LINE
  5
3805
330
1E
100
AcDbEntity
  8
7
100
AcDbLine
 10
13.84135615906962
 20
4.35038836642852
 30
0.0
 11
13.85316718269167
 21
4.358262382176553
 31
0.0
  0
LINE
  5
3806
330
1E
100
AcDbEntity
  8
7
100
AcDbLine
 10
13.85316718269167
 20
4.358262382176553
 30
0.0
 11
13.8610411984397
 21
4.370073405798601
 31
0.0
  0
LINE
  5
3807
330
1E
100
AcDbEntity
  8
7
100
AcDbLine
 10
13.73505694647119
 20
4.437002539656868
 30
0.0
 11
13.73111993859718
 21
4.440939547530883
 31
0.0
  0
LINE
  5
3808
330
1E
100
AcDbEntity
  8
7
100
AcDbLine
 10
13.73111993859718
 20
4.440939547530883
 30
0.0
 11
13.72718293072316
 21
4.440939547530883
 31
0.0
  0
LINE
  5
3809
330
1E
100
AcDbEntity
  8
7
100
AcDbLine
 10
13.77836403308537
 20
4.370073405798601
 30
0.0
 11
13.7862380488334
 21
4.358262382176553
 31
0.0
  0
LINE
  5
380A
330
1E
100
AcDbEntity
  8
7
100
AcDbLine
 10
13.7862380488334
 20
4.358262382176553
 30
0.0
 11
13.79804907245544
 21
4.35038836642852
 31
0.0
  0
LINE
  5
380B
330
1E
100
AcDbEntity
  8
7
100
AcDbLine
 10
13.51852151340033
 20
4.464561594774979
 30
0.0
 11
13.50277348190426
 21
4.492120649893086
 31
0.0
  0
LINE
  5
380C
330
1E
100
AcDbEntity
  8
7
100
AcDbLine
 10
13.50277348190426
 20
4.492120649893086
 30
0.0
 11
13.47127741891214
 21
4.49999466564112
 31
0.0
  0
LINE
  5
380D
330
1E
100
AcDbEntity
  8
7
100
AcDbLine
 10
13.47127741891214
 20
4.397632460916709
 30
0.0
 11
13.48308844253419
 21
4.397632460916709
 31
0.0
  0
LINE
  5
380E
330
1E
100
AcDbEntity
  8
7
100
AcDbLine
 10
13.48308844253419
 20
4.397632460916709
 30
0.0
 11
13.49489946615623
 21
4.401569468790727
 31
0.0
  0
LINE
  5
380F
330
1E
100
AcDbEntity
  8
7
100
AcDbLine
 10
13.76655300946332
 20
4.444876555404897
 30
0.0
 11
13.7626160015893
 21
4.46062458690096
 31
0.0
  0
LINE
  5
3810
330
1E
100
AcDbEntity
  8
7
100
AcDbLine
 10
13.7626160015893
 20
4.46062458690096
 30
0.0
 11
13.74686797009324
 21
4.464561594774979
 31
0.0
  0
LINE
  5
3811
330
1E
100
AcDbEntity
  8
7
100
AcDbLine
 10
13.74686797009324
 20
4.35038836642852
 30
0.0
 11
13.7626160015893
 21
4.358262382176553
 31
0.0
  0
LINE
  5
3812
330
1E
100
AcDbEntity
  8
7
100
AcDbLine
 10
13.7626160015893
 20
4.358262382176553
 30
0.0
 11
13.76655300946332
 21
4.370073405798601
 31
0.0
  0
LINE
  5
3813
330
1E
100
AcDbEntity
  8
7
100
AcDbLine
 10
13.44765537166805
 20
4.421254508160805
 30
0.0
 11
13.45552938741607
 21
4.42519151603482
 31
0.0
  0
LINE
  5
3814
330
1E
100
AcDbEntity
  8
7
100
AcDbLine
 10
13.45552938741607
 20
4.42519151603482
 30
0.0
 11
13.45552938741607
 21
4.429128523908834
 31
0.0
  0
LINE
  5
3815
330
1E
100
AcDbEntity
  8
7
100
AcDbLine
 10
13.45552938741607
 20
4.468498602648994
 30
0.0
 11
13.45552938741607
 21
4.472435610523008
 31
0.0
  0
LINE
  5
3816
330
1E
100
AcDbEntity
  8
7
100
AcDbLine
 10
13.45552938741607
 20
4.472435610523008
 30
0.0
 11
13.44765537166805
 21
4.476372618397023
 31
0.0
  0
LINE
  5
3817
330
1E
100
AcDbEntity
  8
7
100
AcDbLine
 10
13.81773411182552
 20
4.381884429420646
 30
0.0
 11
13.81773411182552
 21
4.377947421546631
 31
0.0
  0
LINE
  5
3818
330
1E
100
AcDbEntity
  8
7
100
AcDbLine
 10
13.81773411182552
 20
4.377947421546631
 30
0.0
 11
13.82167111969954
 21
4.377947421546631
 31
0.0
  0
LINE
  5
3819
330
1E
100
AcDbEntity
  8
7
100
AcDbLine
 10
13.82954513544757
 20
4.377947421546631
 30
0.0
 11
13.83348214332158
 21
4.377947421546631
 31
0.0
  0
LINE
  5
381A
330
1E
100
AcDbEntity
  8
7
100
AcDbLine
 10
13.83348214332158
 20
4.377947421546631
 30
0.0
 11
13.8374191511956
 21
4.381884429420646
 31
0.0
  0
LINE
  5
381B
330
1E
100
AcDbEntity
  8
7
100
AcDbLine
 10
13.72718293072316
 20
4.377947421546631
 30
0.0
 11
13.73111993859718
 21
4.377947421546631
 31
0.0
  0
LINE
  5
381C
330
1E
100
AcDbEntity
  8
7
100
AcDbLine
 10
13.73111993859718
 20
4.377947421546631
 30
0.0
 11
13.73505694647119
 21
4.381884429420646
 31
0.0
  0
LINE
  5
381D
330
1E
100
AcDbEntity
  8
7
100
AcDbLine
 10
12.15631678899088
 20
10.51180568926316
 30
0.0
 11
12.2114348992271
 21
10.49999466564112
 31
0.0
  0
LINE
  5
381E
330
1E
100
AcDbEntity
  8
7
100
AcDbLine
 10
12.2114348992271
 20
10.49999466564112
 30
0.0
 11
12.2626160015893
 21
10.46849860264899
 31
0.0
  0
LINE
  5
381F
330
1E
100
AcDbEntity
  8
7
100
AcDbLine
 10
13.29411206458143
 20
9.744089153830097
 30
0.0
 11
13.25867899371528
 21
9.661411988475764
 31
0.0
  0
LINE
  5
3820
330
1E
100
AcDbEntity
  8
7
100
AcDbLine
 10
13.25867899371528
 20
9.661411988475764
 30
0.0
 11
13.17600182836096
 21
9.629915925483638
 31
0.0
  0
LINE
  5
3821
330
1E
100
AcDbEntity
  8
7
100
AcDbLine
 10
13.29411206458143
 20
9.744089153830097
 30
0.0
 11
13.29017505670741
 21
9.744089153830097
 31
0.0
  0
LINE
  5
3822
330
1E
100
AcDbEntity
  8
7
100
AcDbLine
 10
13.29017505670741
 20
9.744089153830097
 30
0.0
 11
13.27442702521135
 21
9.744089153830097
 31
0.0
  0
LINE
  5
3823
330
1E
100
AcDbEntity
  8
7
100
AcDbLine
 10
3.396474269305842
 20
10.51180568926317
 30
0.0
 11
3.451592379542063
 21
10.49999466564112
 31
0.0
  0
LINE
  5
3824
330
1E
100
AcDbEntity
  8
7
100
AcDbLine
 10
3.451592379542063
 20
10.49999466564112
 30
0.0
 11
3.498836474030252
 21
10.46849860264899
 31
0.0
  0
LINE
  5
3825
330
1E
100
AcDbEntity
  8
7
100
AcDbLine
 10
4.534269544896393
 20
9.744089153830097
 30
0.0
 11
4.498836474030252
 21
9.661411988475768
 31
0.0
  0
LINE
  5
3826
330
1E
100
AcDbEntity
  8
7
100
AcDbLine
 10
4.498836474030252
 20
9.661411988475768
 30
0.0
 11
4.416159308675922
 21
9.629915925483642
 31
0.0
  0
LINE
  5
3827
330
1E
100
AcDbEntity
  8
7
100
AcDbLine
 10
13.17206482048694
 20
10.40944348453875
 30
0.0
 11
13.15237978111686
 21
10.45275057115293
 31
0.0
  0
LINE
  5
3828
330
1E
100
AcDbEntity
  8
7
100
AcDbLine
 10
13.15237978111686
 20
10.45275057115293
 30
0.0
 11
13.1130097023767
 21
10.46849860264899
 31
0.0
  0
LINE
  5
3829
330
1E
100
AcDbEntity
  8
7
100
AcDbLine
 10
13.23111993859718
 20
10.24015214595608
 30
0.0
 11
13.187812851983
 21
10.25590017745214
 31
0.0
  0
LINE
  5
382A
330
1E
100
AcDbEntity
  8
7
100
AcDbLine
 10
13.187812851983
 20
10.25590017745214
 30
0.0
 11
13.17206482048694
 21
10.29920726406631
 31
0.0
  0
LINE
  5
382B
330
1E
100
AcDbEntity
  8
7
100
AcDbLine
 10
13.32560812757356
 20
10.17716001997182
 30
0.0
 11
13.30986009607749
 21
10.220467106586
 31
0.0
  0
LINE
  5
382C
330
1E
100
AcDbEntity
  8
7
100
AcDbLine
 10
13.30986009607749
 20
10.220467106586
 30
0.0
 11
13.26655300946332
 21
10.24015214595608
 31
0.0
  0
LINE
  5
382D
330
1E
100
AcDbEntity
  8
7
100
AcDbLine
 10
13.38860025355781
 20
10.09054584674348
 30
0.0
 11
13.36891521418773
 21
10.09054584674348
 31
0.0
  0
LINE
  5
382E
330
1E
100
AcDbEntity
  8
7
100
AcDbLine
 10
13.36891521418773
 20
10.09054584674348
 30
0.0
 11
13.34923017481765
 21
10.09054584674348
 31
0.0
  0
LINE
  5
382F
330
1E
100
AcDbEntity
  8
7
100
AcDbLine
 10
13.34923017481765
 20
10.09054584674348
 30
0.0
 11
13.3374191511956
 21
10.09448285461749
 31
0.0
  0
LINE
  5
3830
330
1E
100
AcDbEntity
  8
7
100
AcDbLine
 10
13.3374191511956
 20
10.09448285461749
 30
0.0
 11
13.32954513544757
 21
10.10235687036553
 31
0.0
  0
LINE
  5
3831
330
1E
100
AcDbEntity
  8
7
100
AcDbLine
 10
13.32954513544757
 20
10.10235687036553
 30
0.0
 11
13.32954513544757
 21
10.11416789398757
 31
0.0
  0
LINE
  5
3832
330
1E
100
AcDbEntity
  8
7
100
AcDbLine
 10
13.32954513544757
 20
10.11416789398757
 30
0.0
 11
13.32560812757356
 21
10.12991592548363
 31
0.0
  0
LINE
  5
3833
330
1E
100
AcDbEntity
  8
7
100
AcDbLine
 10
13.32560812757356
 20
10.12991592548363
 30
0.0
 11
13.32560812757356
 21
10.14960096485371
 31
0.0
  0
LINE
  5
3834
330
1E
100
AcDbEntity
  8
7
100
AcDbLine
 10
13.32560812757356
 20
10.14960096485371
 30
0.0
 11
13.32560812757356
 21
10.09054584674348
 31
0.0
  0
LINE
  5
3835
330
1E
100
AcDbEntity
  8
7
100
AcDbLine
 10
13.32560812757356
 20
10.09054584674348
 30
0.0
 11
13.32560812757356
 21
10.04330175225529
 31
0.0
  0
LINE
  5
3836
330
1E
100
AcDbEntity
  8
7
100
AcDbLine
 10
13.32560812757356
 20
10.04330175225529
 30
0.0
 11
13.32954513544757
 21
10.03542773650726
 31
0.0
  0
LINE
  5
3837
330
1E
100
AcDbEntity
  8
7
100
AcDbLine
 10
13.32954513544757
 20
10.03542773650726
 30
0.0
 11
13.3374191511956
 21
10.03149072863324
 31
0.0
  0
LINE
  5
3838
330
1E
100
AcDbEntity
  8
7
100
AcDbLine
 10
13.3374191511956
 20
10.03149072863324
 30
0.0
 11
13.35316718269167
 21
10.02755372075923
 31
0.0
  0
LINE
  5
3839
330
1E
100
AcDbEntity
  8
7
100
AcDbLine
 10
13.35316718269167
 20
10.02755372075923
 30
0.0
 11
13.36891521418773
 21
10.02755372075923
 31
0.0
  0
LINE
  5
383A
330
1E
100
AcDbEntity
  8
7
100
AcDbLine
 10
13.36891521418773
 20
10.02755372075923
 30
0.0
 11
13.38860025355781
 21
10.02755372075923
 31
0.0
  0
LINE
  5
383B
330
1E
100
AcDbEntity
  8
7
100
AcDbLine
 10
-4.233446990536677
 20
10.04330175225529
 30
0.0
 11
-4.233446990536677
 21
10.09054584674348
 31
0.0
  0
LINE
  5
383C
330
1E
100
AcDbEntity
  8
7
100
AcDbLine
 10
-4.233446990536677
 20
10.09054584674348
 30
0.0
 11
-4.233446990536677
 21
10.14960096485372
 31
0.0
  0
LINE
  5
383D
330
1E
100
AcDbEntity
  8
7
100
AcDbLine
 10
-4.233446990536677
 20
10.14960096485372
 30
0.0
 11
-4.233446990536677
 21
10.12991592548364
 31
0.0
  0
LINE
  5
383E
330
1E
100
AcDbEntity
  8
7
100
AcDbLine
 10
-4.233446990536677
 20
10.12991592548364
 30
0.0
 11
-4.233446990536677
 21
10.11023088611356
 31
0.0
  0
LINE
  5
383F
330
1E
100
AcDbEntity
  8
7
100
AcDbLine
 10
-4.233446990536677
 20
10.11023088611356
 30
0.0
 11
-4.24132100628471
 21
10.09841986249151
 31
0.0
  0
LINE
  5
3840
330
1E
100
AcDbEntity
  8
7
100
AcDbLine
 10
-4.24132100628471
 20
10.09841986249151
 30
0.0
 11
-4.24919502203274
 21
10.09054584674348
 31
0.0
  0
LINE
  5
3841
330
1E
100
AcDbEntity
  8
7
100
AcDbLine
 10
-4.24919502203274
 20
10.09054584674348
 30
0.0
 11
-4.261006045654788
 21
10.09054584674348
 31
0.0
  0
LINE
  5
3842
330
1E
100
AcDbEntity
  8
7
100
AcDbLine
 10
-4.261006045654788
 20
10.09054584674348
 30
0.0
 11
-4.272817069276836
 21
10.09054584674348
 31
0.0
  0
LINE
  5
3843
330
1E
100
AcDbEntity
  8
7
100
AcDbLine
 10
-4.272817069276836
 20
10.09054584674348
 30
0.0
 11
-4.292502108646914
 21
10.09054584674348
 31
0.0
  0
LINE
  5
3844
330
1E
100
AcDbEntity
  8
7
100
AcDbLine
 10
-4.292502108646914
 20
10.02755372075923
 30
0.0
 11
-4.272817069276836
 21
10.02755372075923
 31
0.0
  0
LINE
  5
3845
330
1E
100
AcDbEntity
  8
7
100
AcDbLine
 10
-4.272817069276836
 20
10.02755372075923
 30
0.0
 11
-4.25706903778077
 21
10.02755372075923
 31
0.0
  0
LINE
  5
3846
330
1E
100
AcDbEntity
  8
7
100
AcDbLine
 10
-4.25706903778077
 20
10.02755372075923
 30
0.0
 11
-4.24132100628471
 21
10.03149072863324
 31
0.0
  0
LINE
  5
3847
330
1E
100
AcDbEntity
  8
7
100
AcDbLine
 10
-4.24132100628471
 20
10.03149072863324
 30
0.0
 11
-4.233446990536677
 21
10.03542773650726
 31
0.0
  0
LINE
  5
3848
330
1E
100
AcDbEntity
  8
7
100
AcDbLine
 10
-4.233446990536677
 20
10.03542773650726
 30
0.0
 11
-4.233446990536677
 21
10.04330175225529
 31
0.0
  0
LINE
  5
3849
330
1E
100
AcDbEntity
  8
7
100
AcDbLine
 10
-4.01691155746581
 20
10.46849860264899
 30
0.0
 11
-4.060218644079984
 21
10.45275057115293
 31
0.0
  0
LINE
  5
384A
330
1E
100
AcDbEntity
  8
7
100
AcDbLine
 10
-4.060218644079984
 20
10.45275057115293
 30
0.0
 11
-4.079903683450062
 21
10.40944348453876
 31
0.0
  0
LINE
  5
384B
330
1E
100
AcDbEntity
  8
7
100
AcDbLine
 10
-4.079903683450062
 20
10.29920726406632
 30
0.0
 11
-4.095651714946125
 21
10.25590017745214
 31
0.0
  0
LINE
  5
384C
330
1E
100
AcDbEntity
  8
7
100
AcDbLine
 10
-4.095651714946125
 20
10.25590017745214
 30
0.0
 11
-4.138958801560299
 21
10.24015214595608
 31
0.0
  0
LINE
  5
384D
330
1E
100
AcDbEntity
  8
7
100
AcDbLine
 10
-4.17439187242644
 20
10.24015214595608
 30
0.0
 11
-4.213761951166599
 21
10.220467106586
 31
0.0
  0
LINE
  5
384E
330
1E
100
AcDbEntity
  8
7
100
AcDbLine
 10
-4.213761951166599
 20
10.220467106586
 30
0.0
 11
-4.233446990536677
 21
10.17716001997183
 31
0.0
  0
LINE
  5
384F
330
1E
100
AcDbEntity
  8
7
100
AcDbLine
 10
-4.894864313371321
 20
10.02755372075923
 30
0.0
 11
-4.934234392111481
 21
10.02755372075923
 31
0.0
  0
LINE
  5
3850
330
1E
100
AcDbEntity
  8
7
100
AcDbLine
 10
-4.934234392111481
 20
10.02755372075923
 30
0.0
 11
-4.953919431481558
 21
10.02755372075923
 31
0.0
  0
LINE
  5
3851
330
1E
100
AcDbEntity
  8
7
100
AcDbLine
 10
-4.351557226757147
 20
10.02755372075923
 30
0.0
 11
-4.371242266127229
 21
10.02755372075923
 31
0.0
  0
LINE
  5
3852
330
1E
100
AcDbEntity
  8
7
100
AcDbLine
 10
-4.371242266127229
 20
10.02755372075923
 30
0.0
 11
-4.414549352741399
 21
10.02755372075923
 31
0.0
  0
LINE
  5
3853
330
1E
100
AcDbEntity
  8
7
100
AcDbLine
 10
-4.292502108646914
 20
10.02755372075923
 30
0.0
 11
-4.335809195261088
 21
10.02755372075923
 31
0.0
  0
LINE
  5
3854
330
1E
100
AcDbEntity
  8
7
100
AcDbLine
 10
-4.335809195261088
 20
10.02755372075923
 30
0.0
 11
-4.351557226757147
 21
10.02755372075923
 31
0.0
  0
LINE
  5
3855
330
1E
100
AcDbEntity
  8
7
100
AcDbLine
 10
13.44765537166805
 20
10.02755372075923
 30
0.0
 11
13.42797033229796
 21
10.02755372075923
 31
0.0
  0
LINE
  5
3856
330
1E
100
AcDbEntity
  8
7
100
AcDbLine
 10
13.42797033229796
 20
10.02755372075923
 30
0.0
 11
13.38860025355781
 21
10.02755372075923
 31
0.0
  0
LINE
  5
3857
330
1E
100
AcDbEntity
  8
7
100
AcDbLine
 10
13.50671048977828
 20
10.02755372075923
 30
0.0
 11
13.46340340316411
 21
10.02755372075923
 31
0.0
  0
LINE
  5
3858
330
1E
100
AcDbEntity
  8
7
100
AcDbLine
 10
13.46340340316411
 20
10.02755372075923
 30
0.0
 11
13.44765537166805
 21
10.02755372075923
 31
0.0
  0
LINE
  5
3859
330
1E
100
AcDbEntity
  8
7
100
AcDbLine
 10
14.04608056851844
 20
10.02755372075923
 30
0.0
 11
14.03033253702237
 21
10.02755372075923
 31
0.0
  0
LINE
  5
385A
330
1E
100
AcDbEntity
  8
7
100
AcDbLine
 10
14.03033253702237
 20
10.02755372075923
 30
0.0
 11
13.9870254504082
 21
10.02755372075923
 31
0.0
  0
LINE
  5
385B
330
1E
100
AcDbEntity
  8
7
100
AcDbLine
 10
13.9870254504082
 20
10.09054584674348
 30
0.0
 11
14.03033253702237
 21
10.09054584674348
 31
0.0
  0
LINE
  5
385C
330
1E
100
AcDbEntity
  8
7
100
AcDbLine
 10
14.03033253702237
 20
10.09054584674348
 30
0.0
 11
14.04608056851844
 21
10.09054584674348
 31
0.0
  0
LINE
  5
385D
330
1E
100
AcDbEntity
  8
7
100
AcDbLine
 10
13.44765537166805
 20
10.09054584674348
 30
0.0
 11
13.46340340316411
 21
10.09054584674348
 31
0.0
  0
LINE
  5
385E
330
1E
100
AcDbEntity
  8
7
100
AcDbLine
 10
13.46340340316411
 20
10.09054584674348
 30
0.0
 11
13.50671048977828
 21
10.09054584674348
 31
0.0
  0
LINE
  5
385F
330
1E
100
AcDbEntity
  8
7
100
AcDbLine
 10
13.38860025355781
 20
10.09054584674348
 30
0.0
 11
13.42797033229796
 21
10.09054584674348
 31
0.0
  0
LINE
  5
3860
330
1E
100
AcDbEntity
  8
7
100
AcDbLine
 10
13.42797033229796
 20
10.09054584674348
 30
0.0
 11
13.44765537166805
 21
10.09054584674348
 31
0.0
  0
LINE
  5
3861
330
1E
100
AcDbEntity
  8
7
100
AcDbLine
 10
-4.351557226757147
 20
10.09054584674348
 30
0.0
 11
-4.335809195261088
 21
10.09054584674348
 31
0.0
  0
LINE
  5
3862
330
1E
100
AcDbEntity
  8
7
100
AcDbLine
 10
-4.335809195261088
 20
10.09054584674348
 30
0.0
 11
-4.292502108646914
 21
10.09054584674348
 31
0.0
  0
LINE
  5
3863
330
1E
100
AcDbEntity
  8
7
100
AcDbLine
 10
-4.414549352741399
 20
10.09054584674348
 30
0.0
 11
-4.371242266127229
 21
10.09054584674348
 31
0.0
  0
LINE
  5
3864
330
1E
100
AcDbEntity
  8
7
100
AcDbLine
 10
-4.371242266127229
 20
10.09054584674348
 30
0.0
 11
-4.351557226757147
 21
10.09054584674348
 31
0.0
  0
LINE
  5
3865
330
1E
100
AcDbEntity
  8
7
100
AcDbLine
 10
-4.953919431481558
 20
10.09054584674348
 30
0.0
 11
-4.934234392111481
 21
10.09054584674348
 31
0.0
  0
LINE
  5
3866
330
1E
100
AcDbEntity
  8
7
100
AcDbLine
 10
-4.934234392111481
 20
10.09054584674348
 30
0.0
 11
-4.894864313371321
 21
10.09054584674348
 31
0.0
  0
LINE
  5
3867
330
1E
100
AcDbEntity
  8
7
100
AcDbLine
 10
3.388600253557811
 20
10.51180568926317
 30
0.0
 11
3.447655371668046
 21
10.49999466564112
 31
0.0
  0
LINE
  5
3868
330
1E
100
AcDbEntity
  8
7
100
AcDbLine
 10
3.447655371668046
 20
10.49999466564112
 30
0.0
 11
3.494899466156235
 21
10.46849860264899
 31
0.0
  0
LINE
  5
3869
330
1E
100
AcDbEntity
  8
7
100
AcDbLine
 10
2.683875844108991
 20
10.46849860264899
 30
0.0
 11
2.73111993859718
 21
10.49999466564112
 31
0.0
  0
LINE
  5
386A
330
1E
100
AcDbEntity
  8
7
100
AcDbLine
 10
2.73111993859718
 20
10.49999466564112
 30
0.0
 11
2.786238048833402
 21
10.51180568926317
 31
0.0
  0
LINE
  5
386B
330
1E
100
AcDbEntity
  8
7
100
AcDbLine
 10
4.530332537022378
 20
9.744089153830097
 30
0.0
 11
4.490962458282222
 21
9.661411988475768
 31
0.0
  0
LINE
  5
386C
330
1E
100
AcDbEntity
  8
7
100
AcDbLine
 10
4.490962458282222
 20
9.661411988475768
 30
0.0
 11
4.408285292927889
 21
9.629915925483642
 31
0.0
  0
LINE
  5
386D
330
1E
100
AcDbEntity
  8
7
100
AcDbLine
 10
4.420096316549937
 20
10.02755372075923
 30
0.0
 11
4.479151434660174
 21
10.02755372075923
 31
0.0
  0
LINE
  5
386E
330
1E
100
AcDbEntity
  8
7
100
AcDbLine
 10
4.479151434660174
 20
10.02755372075923
 30
0.0
 11
4.522458521274348
 21
10.02755372075923
 31
0.0
  0
LINE
  5
386F
330
1E
100
AcDbEntity
  8
7
100
AcDbLine
 10
4.522458521274348
 20
10.02755372075923
 30
0.0
 11
4.538206552770411
 21
10.02755372075923
 31
0.0
  0
LINE
  5
3870
330
1E
100
AcDbEntity
  8
7
100
AcDbLine
 10
4.530332537022378
 20
9.744089153830097
 30
0.0
 11
4.514584505526315
 21
9.744089153830097
 31
0.0
  0
LINE
  5
3871
330
1E
100
AcDbEntity
  8
7
100
AcDbLine
 10
4.514584505526315
 20
9.744089153830097
 30
0.0
 11
4.471277418912141
 21
9.744089153830097
 31
0.0
  0
LINE
  5
3872
330
1E
100
AcDbEntity
  8
7
100
AcDbLine
 10
4.471277418912141
 20
9.744089153830097
 30
0.0
 11
4.408285292927889
 21
9.744089153830097
 31
0.0
  0
LINE
  5
3873
330
1E
100
AcDbEntity
  8
7
100
AcDbLine
 10
1.64844277324285
 20
9.744089153830097
 30
0.0
 11
1.683875844108991
 21
9.661411988475768
 31
0.0
  0
LINE
  5
3874
330
1E
100
AcDbEntity
  8
7
100
AcDbLine
 10
1.683875844108991
 20
9.661411988475768
 30
0.0
 11
1.770490017337339
 21
9.629915925483642
 31
0.0
  0
LINE
  5
3875
330
1E
100
AcDbEntity
  8
7
100
AcDbLine
 10
1.64844277324285
 20
9.744089153830097
 30
0.0
 11
1.664190804738913
 21
9.744089153830097
 31
0.0
  0
LINE
  5
3876
330
1E
100
AcDbEntity
  8
7
100
AcDbLine
 10
1.664190804738913
 20
9.744089153830097
 30
0.0
 11
1.707497891353085
 21
9.744089153830097
 31
0.0
  0
LINE
  5
3877
330
1E
100
AcDbEntity
  8
7
100
AcDbLine
 10
1.707497891353085
 20
9.744089153830097
 30
0.0
 11
1.770490017337339
 21
9.744089153830097
 31
0.0
  0
LINE
  5
3878
330
1E
100
AcDbEntity
  8
7
100
AcDbLine
 10
1.758678993715291
 20
10.02755372075923
 30
0.0
 11
1.699623875605054
 21
10.02755372075923
 31
0.0
  0
LINE
  5
3879
330
1E
100
AcDbEntity
  8
7
100
AcDbLine
 10
1.699623875605054
 20
10.02755372075923
 30
0.0
 11
1.656316788990881
 21
10.02755372075923
 31
0.0
  0
LINE
  5
387A
330
1E
100
AcDbEntity
  8
7
100
AcDbLine
 10
1.656316788990881
 20
10.02755372075923
 30
0.0
 11
1.640568757494818
 21
10.02755372075923
 31
0.0
  0
LINE
  5
387B
330
1E
100
AcDbEntity
  8
7
100
AcDbLine
 10
1.770490017337339
 20
9.744089153830097
 30
0.0
 11
1.770490017337339
 21
9.661411988475768
 31
0.0
  0
LINE
  5
387C
330
1E
100
AcDbEntity
  8
7
100
AcDbLine
 10
1.770490017337339
 20
9.661411988475768
 30
0.0
 11
1.770490017337339
 21
9.629915925483642
 31
0.0
  0
LINE
  5
387D
330
1E
100
AcDbEntity
  8
7
100
AcDbLine
 10
4.408285292927889
 20
9.744089153830097
 30
0.0
 11
4.408285292927889
 21
9.661411988475768
 31
0.0
  0
LINE
  5
387E
330
1E
100
AcDbEntity
  8
7
100
AcDbLine
 10
4.408285292927889
 20
9.661411988475768
 30
0.0
 11
4.408285292927889
 21
9.629915925483642
 31
0.0
  0
LINE
  5
387F
330
1E
100
AcDbEntity
  8
7
100
AcDbLine
 10
0.4752144267861578
 20
10.51180568926317
 30
0.0
 11
0.534269544896393
 21
10.49999466564112
 31
0.0
  0
LINE
  5
3880
330
1E
100
AcDbEntity
  8
7
100
AcDbLine
 10
0.534269544896393
 20
10.49999466564112
 30
0.0
 11
0.5815136393845819
 21
10.46849860264899
 31
0.0
  0
LINE
  5
3881
330
1E
100
AcDbEntity
  8
7
100
AcDbLine
 10
-0.2334469905366774
 20
10.46849860264899
 30
0.0
 11
-0.1822658881744719
 21
10.49999466564112
 31
0.0
  0
LINE
  5
3882
330
1E
100
AcDbEntity
  8
7
100
AcDbLine
 10
-0.1822658881744719
 20
10.49999466564112
 30
0.0
 11
-0.1271477779382515
 21
10.51180568926317
 31
0.0
  0
LINE
  5
3883
330
1E
100
AcDbEntity
  8
7
100
AcDbLine
 10
1.613009702376707
 20
9.744089153830097
 30
0.0
 11
1.577576631510567
 21
9.661411988475768
 31
0.0
  0
LINE
  5
3884
330
1E
100
AcDbEntity
  8
7
100
AcDbLine
 10
1.577576631510567
 20
9.661411988475768
 30
0.0
 11
1.494899466156235
 21
9.629915925483642
 31
0.0
  0
LINE
  5
3885
330
1E
100
AcDbEntity
  8
7
100
AcDbLine
 10
1.502773481904267
 20
10.02755372075923
 30
0.0
 11
1.565765607888518
 21
10.02755372075923
 31
0.0
  0
LINE
  5
3886
330
1E
100
AcDbEntity
  8
7
100
AcDbLine
 10
1.565765607888518
 20
10.02755372075923
 30
0.0
 11
1.609072694502692
 21
10.02755372075923
 31
0.0
  0
LINE
  5
3887
330
1E
100
AcDbEntity
  8
7
100
AcDbLine
 10
1.609072694502692
 20
10.02755372075923
 30
0.0
 11
1.624820725998755
 21
10.02755372075923
 31
0.0
  0
LINE
  5
3888
330
1E
100
AcDbEntity
  8
7
100
AcDbLine
 10
1.613009702376707
 20
9.744089153830097
 30
0.0
 11
1.597261670880644
 21
9.744089153830097
 31
0.0
  0
LINE
  5
3889
330
1E
100
AcDbEntity
  8
7
100
AcDbLine
 10
1.597261670880644
 20
9.744089153830097
 30
0.0
 11
1.553954584266472
 21
9.744089153830097
 31
0.0
  0
LINE
  5
388A
330
1E
100
AcDbEntity
  8
7
100
AcDbLine
 10
1.553954584266472
 20
9.744089153830097
 30
0.0
 11
1.494899466156235
 21
9.744089153830097
 31
0.0
  0
LINE
  5
388B
330
1E
100
AcDbEntity
  8
7
100
AcDbLine
 10
-1.264943053528803
 20
9.744089153830097
 30
0.0
 11
-1.22950998266266
 21
9.661411988475768
 31
0.0
  0
LINE
  5
388C
330
1E
100
AcDbEntity
  8
7
100
AcDbLine
 10
-1.22950998266266
 20
9.661411988475768
 30
0.0
 11
-1.146832817308331
 21
9.629915925483642
 31
0.0
  0
LINE
  5
388D
330
1E
100
AcDbEntity
  8
7
100
AcDbLine
 10
-1.264943053528803
 20
9.744089153830097
 30
0.0
 11
-1.24919502203274
 21
9.744089153830097
 31
0.0
  0
LINE
  5
388E
330
1E
100
AcDbEntity
  8
7
100
AcDbLine
 10
-1.24919502203274
 20
9.744089153830097
 30
0.0
 11
-1.205887935418566
 21
9.744089153830097
 31
0.0
  0
LINE
  5
388F
330
1E
100
AcDbEntity
  8
7
100
AcDbLine
 10
-1.205887935418566
 20
9.744089153830097
 30
0.0
 11
-1.146832817308331
 21
9.744089153830097
 31
0.0
  0
LINE
  5
3890
330
1E
100
AcDbEntity
  8
7
100
AcDbLine
 10
-1.154706833056362
 20
10.02755372075923
 30
0.0
 11
-1.217698959040614
 21
10.02755372075923
 31
0.0
  0
LINE
  5
3891
330
1E
100
AcDbEntity
  8
7
100
AcDbLine
 10
-1.217698959040614
 20
10.02755372075923
 30
0.0
 11
-1.261006045654786
 21
10.02755372075923
 31
0.0
  0
LINE
  5
3892
330
1E
100
AcDbEntity
  8
7
100
AcDbLine
 10
-1.261006045654786
 20
10.02755372075923
 30
0.0
 11
-1.276754077150851
 21
10.02755372075923
 31
0.0
  0
LINE
  5
3893
330
1E
100
AcDbEntity
  8
7
100
AcDbLine
 10
-1.146832817308331
 20
9.744089153830097
 30
0.0
 11
-1.146832817308331
 21
9.661411988475768
 31
0.0
  0
LINE
  5
3894
330
1E
100
AcDbEntity
  8
7
100
AcDbLine
 10
-1.146832817308331
 20
9.661411988475768
 30
0.0
 11
-1.146832817308331
 21
9.629915925483642
 31
0.0
  0
LINE
  5
3895
330
1E
100
AcDbEntity
  8
7
100
AcDbLine
 10
1.494899466156235
 20
9.744089153830097
 30
0.0
 11
1.494899466156235
 21
9.661411988475768
 31
0.0
  0
LINE
  5
3896
330
1E
100
AcDbEntity
  8
7
100
AcDbLine
 10
1.494899466156235
 20
9.661411988475768
 30
0.0
 11
1.494899466156235
 21
9.629915925483642
 31
0.0
  0
LINE
  5
3897
330
1E
100
AcDbEntity
  8
7
100
AcDbLine
 10
-2.438171399985495
 20
10.51180568926317
 30
0.0
 11
-2.383053289749275
 21
10.49999466564112
 31
0.0
  0
LINE
  5
3898
330
1E
100
AcDbEntity
  8
7
100
AcDbLine
 10
-2.383053289749275
 20
10.49999466564112
 30
0.0
 11
-2.335809195261086
 21
10.46849860264899
 31
0.0
  0
LINE
  5
3899
330
1E
100
AcDbEntity
  8
7
100
AcDbLine
 10
-3.146832817308331
 20
10.46849860264899
 30
0.0
 11
-3.099588722820142
 21
10.49999466564112
 31
0.0
  0
LINE
  5
389A
330
1E
100
AcDbEntity
  8
7
100
AcDbLine
 10
-3.099588722820142
 20
10.49999466564112
 30
0.0
 11
-3.040533604709906
 21
10.51180568926317
 31
0.0
  0
LINE
  5
389B
330
1E
100
AcDbEntity
  8
7
100
AcDbLine
 10
-1.300376124394945
 20
9.744089153830097
 30
0.0
 11
-1.335809195261086
 21
9.661411988475768
 31
0.0
  0
LINE
  5
389C
330
1E
100
AcDbEntity
  8
7
100
AcDbLine
 10
-1.335809195261086
 20
9.661411988475768
 30
0.0
 11
-1.422423368489432
 21
9.629915925483642
 31
0.0
  0
LINE
  5
389D
330
1E
100
AcDbEntity
  8
7
100
AcDbLine
 10
-1.410612344867384
 20
10.02755372075923
 30
0.0
 11
-1.351557226757149
 21
10.02755372075923
 31
0.0
  0
LINE
  5
389E
330
1E
100
AcDbEntity
  8
7
100
AcDbLine
 10
-1.351557226757149
 20
10.02755372075923
 30
0.0
 11
-1.308250140142977
 21
10.02755372075923
 31
0.0
  0
LINE
  5
389F
330
1E
100
AcDbEntity
  8
7
100
AcDbLine
 10
-1.308250140142977
 20
10.02755372075923
 30
0.0
 11
-1.292502108646914
 21
10.02755372075923
 31
0.0
  0
LINE
  5
38A0
330
1E
100
AcDbEntity
  8
7
100
AcDbLine
 10
-1.300376124394945
 20
9.744089153830097
 30
0.0
 11
-1.316124155891008
 21
9.744089153830097
 31
0.0
  0
LINE
  5
38A1
330
1E
100
AcDbEntity
  8
7
100
AcDbLine
 10
-1.316124155891008
 20
9.744089153830097
 30
0.0
 11
-1.359431242505181
 21
9.744089153830097
 31
0.0
  0
LINE
  5
38A2
330
1E
100
AcDbEntity
  8
7
100
AcDbLine
 10
-1.359431242505181
 20
9.744089153830097
 30
0.0
 11
-1.422423368489432
 21
9.744089153830097
 31
0.0
  0
LINE
  5
38A3
330
1E
100
AcDbEntity
  8
7
100
AcDbLine
 10
-4.182265888174473
 20
9.744089153830101
 30
0.0
 11
-4.142895809434314
 21
9.661411988475768
 31
0.0
  0
LINE
  5
38A4
330
1E
100
AcDbEntity
  8
7
100
AcDbLine
 10
-4.142895809434314
 20
9.661411988475768
 30
0.0
 11
-4.060218644079984
 21
9.629915925483642
 31
0.0
  0
LINE
  5
38A5
330
1E
100
AcDbEntity
  8
7
100
AcDbLine
 10
-4.182265888174473
 20
9.744089153830101
 30
0.0
 11
-4.16651785667841
 21
9.744089153830101
 31
0.0
  0
LINE
  5
38A6
330
1E
100
AcDbEntity
  8
7
100
AcDbLine
 10
-4.16651785667841
 20
9.744089153830101
 30
0.0
 11
-4.119273762190221
 21
9.744089153830101
 31
0.0
  0
LINE
  5
38A7
330
1E
100
AcDbEntity
  8
7
100
AcDbLine
 10
-4.119273762190221
 20
9.744089153830101
 30
0.0
 11
-4.060218644079984
 21
9.744089153830101
 31
0.0
  0
LINE
  5
38A8
330
1E
100
AcDbEntity
  8
7
100
AcDbLine
 10
-4.072029667702032
 20
10.02755372075923
 30
0.0
 11
-4.131084785812266
 21
10.02755372075923
 31
0.0
  0
LINE
  5
38A9
330
1E
100
AcDbEntity
  8
7
100
AcDbLine
 10
-4.131084785812266
 20
10.02755372075923
 30
0.0
 11
-4.17439187242644
 21
10.02755372075923
 31
0.0
  0
LINE
  5
38AA
330
1E
100
AcDbEntity
  8
7
100
AcDbLine
 10
-4.17439187242644
 20
10.02755372075923
 30
0.0
 11
-4.190139903922503
 21
10.02755372075923
 31
0.0
  0
LINE
  5
38AB
330
1E
100
AcDbEntity
  8
7
100
AcDbLine
 10
-4.060218644079984
 20
9.744089153830101
 30
0.0
 11
-4.060218644079984
 21
9.661411988475768
 31
0.0
  0
LINE
  5
38AC
330
1E
100
AcDbEntity
  8
7
100
AcDbLine
 10
-4.060218644079984
 20
9.661411988475768
 30
0.0
 11
-4.060218644079984
 21
9.629915925483642
 31
0.0
  0
LINE
  5
38AD
330
1E
100
AcDbEntity
  8
7
100
AcDbLine
 10
-1.422423368489432
 20
9.744089153830097
 30
0.0
 11
-1.422423368489432
 21
9.661411988475768
 31
0.0
  0
LINE
  5
38AE
330
1E
100
AcDbEntity
  8
7
100
AcDbLine
 10
-1.422423368489432
 20
9.661411988475768
 30
0.0
 11
-1.422423368489432
 21
9.629915925483642
 31
0.0
  0
LINE
  5
38AF
330
1E
100
AcDbEntity
  8
7
100
AcDbLine
 10
12.1366317496208
 20
10.51180568926316
 30
0.0
 11
12.19174985985702
 21
10.49999466564112
 31
0.0
  0
LINE
  5
38B0
330
1E
100
AcDbEntity
  8
7
100
AcDbLine
 10
12.19174985985702
 20
10.49999466564112
 30
0.0
 11
12.23899395434521
 21
10.46849860264899
 31
0.0
  0
LINE
  5
38B1
330
1E
100
AcDbEntity
  8
7
100
AcDbLine
 10
11.42797033229796
 20
10.46849860264899
 30
0.0
 11
11.47521442678615
 21
10.49999466564112
 31
0.0
  0
LINE
  5
38B2
330
1E
100
AcDbEntity
  8
7
100
AcDbLine
 10
11.47521442678615
 20
10.49999466564112
 30
0.0
 11
11.53426954489639
 21
10.51180568926316
 31
0.0
  0
LINE
  5
38B3
330
1E
100
AcDbEntity
  8
7
100
AcDbLine
 10
13.27442702521135
 20
9.744089153830097
 30
0.0
 11
13.23899395434521
 21
9.661411988475764
 31
0.0
  0
LINE
  5
38B4
330
1E
100
AcDbEntity
  8
7
100
AcDbLine
 10
13.23899395434521
 20
9.661411988475764
 30
0.0
 11
13.15631678899088
 21
9.629915925483638
 31
0.0
  0
LINE
  5
38B5
330
1E
100
AcDbEntity
  8
7
100
AcDbLine
 10
13.16419080473891
 20
10.02755372075923
 30
0.0
 11
13.22324592284914
 21
10.02755372075923
 31
0.0
  0
LINE
  5
38B6
330
1E
100
AcDbEntity
  8
7
100
AcDbLine
 10
13.22324592284914
 20
10.02755372075923
 30
0.0
 11
13.26655300946332
 21
10.02755372075923
 31
0.0
  0
LINE
  5
38B7
330
1E
100
AcDbEntity
  8
7
100
AcDbLine
 10
13.26655300946332
 20
10.02755372075923
 30
0.0
 11
13.28230104095938
 21
10.02755372075923
 31
0.0
  0
LINE
  5
38B8
330
1E
100
AcDbEntity
  8
7
100
AcDbLine
 10
13.27442702521135
 20
9.744089153830097
 30
0.0
 11
13.25867899371528
 21
9.744089153830097
 31
0.0
  0
LINE
  5
38B9
330
1E
100
AcDbEntity
  8
7
100
AcDbLine
 10
13.25867899371528
 20
9.744089153830097
 30
0.0
 11
13.21537190710111
 21
9.744089153830097
 31
0.0
  0
LINE
  5
38BA
330
1E
100
AcDbEntity
  8
7
100
AcDbLine
 10
13.21537190710111
 20
9.744089153830097
 30
0.0
 11
13.15631678899088
 21
9.744089153830097
 31
0.0
  0
LINE
  5
38BB
330
1E
100
AcDbEntity
  8
7
100
AcDbLine
 10
10.39253726143182
 20
9.744089153830097
 30
0.0
 11
10.43190734017198
 21
9.661411988475768
 31
0.0
  0
LINE
  5
38BC
330
1E
100
AcDbEntity
  8
7
100
AcDbLine
 10
10.43190734017198
 20
9.661411988475768
 30
0.0
 11
10.51458450552631
 21
9.629915925483642
 31
0.0
  0
LINE
  5
38BD
330
1E
100
AcDbEntity
  8
7
100
AcDbLine
 10
10.39253726143182
 20
9.744089153830097
 30
0.0
 11
10.4122223008019
 21
9.744089153830097
 31
0.0
  0
LINE
  5
38BE
330
1E
100
AcDbEntity
  8
7
100
AcDbLine
 10
10.4122223008019
 20
9.744089153830097
 30
0.0
 11
10.45552938741607
 21
9.744089153830097
 31
0.0
  0
LINE
  5
38BF
330
1E
100
AcDbEntity
  8
7
100
AcDbLine
 10
10.45552938741607
 20
9.744089153830097
 30
0.0
 11
10.51458450552631
 21
9.744089153830097
 31
0.0
  0
LINE
  5
38C0
330
1E
100
AcDbEntity
  8
7
100
AcDbLine
 10
10.50277348190426
 20
10.02755372075923
 30
0.0
 11
10.44371836379403
 21
10.02755372075923
 31
0.0
  0
LINE
  5
38C1
330
1E
100
AcDbEntity
  8
7
100
AcDbLine
 10
10.44371836379403
 20
10.02755372075923
 30
0.0
 11
10.40041127717985
 21
10.02755372075923
 31
0.0
  0
LINE
  5
38C2
330
1E
100
AcDbEntity
  8
7
100
AcDbLine
 10
10.40041127717985
 20
10.02755372075923
 30
0.0
 11
10.38466324568379
 21
10.02755372075923
 31
0.0
  0
LINE
  5
38C3
330
1E
100
AcDbEntity
  8
7
100
AcDbLine
 10
10.51458450552631
 20
9.744089153830097
 30
0.0
 11
10.51458450552631
 21
9.661411988475768
 31
0.0
  0
LINE
  5
38C4
330
1E
100
AcDbEntity
  8
7
100
AcDbLine
 10
10.51458450552631
 20
9.661411988475768
 30
0.0
 11
10.51458450552631
 21
9.629915925483642
 31
0.0
  0
LINE
  5
38C5
330
1E
100
AcDbEntity
  8
7
100
AcDbLine
 10
13.15631678899088
 20
9.744089153830097
 30
0.0
 11
13.15631678899088
 21
9.661411988475764
 31
0.0
  0
LINE
  5
38C6
330
1E
100
AcDbEntity
  8
7
100
AcDbLine
 10
13.15631678899088
 20
9.661411988475764
 30
0.0
 11
13.15631678899088
 21
9.629915925483638
 31
0.0
  0
LINE
  5
38C7
330
1E
100
AcDbEntity
  8
7
100
AcDbLine
 10
9.219308914975133
 20
10.51180568926316
 30
0.0
 11
9.27836403308537
 21
10.49999466564112
 31
0.0
  0
LINE
  5
38C8
330
1E
100
AcDbEntity
  8
7
100
AcDbLine
 10
9.27836403308537
 20
10.49999466564112
 30
0.0
 11
9.325608127573559
 21
10.46849860264899
 31
0.0
  0
LINE
  5
38C9
330
1E
100
AcDbEntity
  8
7
100
AcDbLine
 10
8.514584505526315
 20
10.46849860264899
 30
0.0
 11
8.561828600014504
 21
10.49999466564112
 31
0.0
  0
LINE
  5
38CA
330
1E
100
AcDbEntity
  8
7
100
AcDbLine
 10
8.561828600014504
 20
10.49999466564112
 30
0.0
 11
8.616946710250722
 21
10.51180568926316
 31
0.0
  0
LINE
  5
38CB
330
1E
100
AcDbEntity
  8
7
100
AcDbLine
 10
10.36104119843969
 20
9.744089153830097
 30
0.0
 11
10.32167111969954
 21
9.661411988475768
 31
0.0
  0
LINE
  5
38CC
330
1E
100
AcDbEntity
  8
7
100
AcDbLine
 10
10.32167111969954
 20
9.661411988475768
 30
0.0
 11
10.23899395434521
 21
9.629915925483642
 31
0.0
  0
LINE
  5
38CD
330
1E
100
AcDbEntity
  8
7
100
AcDbLine
 10
10.25080497796726
 20
10.02755372075923
 30
0.0
 11
10.30986009607749
 21
10.02755372075923
 31
0.0
  0
LINE
  5
38CE
330
1E
100
AcDbEntity
  8
7
100
AcDbLine
 10
10.30986009607749
 20
10.02755372075923
 30
0.0
 11
10.35316718269167
 21
10.02755372075923
 31
0.0
  0
LINE
  5
38CF
330
1E
100
AcDbEntity
  8
7
100
AcDbLine
 10
10.35316718269167
 20
10.02755372075923
 30
0.0
 11
10.36891521418773
 21
10.02755372075923
 31
0.0
  0
LINE
  5
38D0
330
1E
100
AcDbEntity
  8
7
100
AcDbLine
 10
10.36104119843969
 20
9.744089153830097
 30
0.0
 11
10.34135615906962
 21
9.744089153830097
 31
0.0
  0
LINE
  5
38D1
330
1E
100
AcDbEntity
  8
7
100
AcDbLine
 10
10.34135615906962
 20
9.744089153830097
 30
0.0
 11
10.29804907245544
 21
9.744089153830097
 31
0.0
  0
LINE
  5
38D2
330
1E
100
AcDbEntity
  8
7
100
AcDbLine
 10
10.29804907245544
 20
9.744089153830097
 30
0.0
 11
10.23899395434521
 21
9.744089153830097
 31
0.0
  0
LINE
  5
38D3
330
1E
100
AcDbEntity
  8
7
100
AcDbLine
 10
7.479151434660174
 20
9.744089153830097
 30
0.0
 11
7.514584505526315
 21
9.661411988475768
 31
0.0
  0
LINE
  5
38D4
330
1E
100
AcDbEntity
  8
7
100
AcDbLine
 10
7.514584505526315
 20
9.661411988475768
 30
0.0
 11
7.597261670880644
 21
9.629915925483642
 31
0.0
  0
LINE
  5
38D5
330
1E
100
AcDbEntity
  8
7
100
AcDbLine
 10
7.479151434660174
 20
9.744089153830097
 30
0.0
 11
7.494899466156237
 21
9.744089153830097
 31
0.0
  0
LINE
  5
38D6
330
1E
100
AcDbEntity
  8
7
100
AcDbLine
 10
7.494899466156237
 20
9.744089153830097
 30
0.0
 11
7.538206552770407
 21
9.744089153830097
 31
0.0
  0
LINE
  5
38D7
330
1E
100
AcDbEntity
  8
7
100
AcDbLine
 10
7.538206552770407
 20
9.744089153830097
 30
0.0
 11
7.597261670880644
 21
9.744089153830097
 31
0.0
  0
LINE
  5
38D8
330
1E
100
AcDbEntity
  8
7
100
AcDbLine
 10
7.589387655132615
 20
10.02755372075923
 30
0.0
 11
7.530332537022378
 21
10.02755372075923
 31
0.0
  0
LINE
  5
38D9
330
1E
100
AcDbEntity
  8
7
100
AcDbLine
 10
7.530332537022378
 20
10.02755372075923
 30
0.0
 11
7.487025450408204
 21
10.02755372075923
 31
0.0
  0
LINE
  5
38DA
330
1E
100
AcDbEntity
  8
7
100
AcDbLine
 10
7.487025450408204
 20
10.02755372075923
 30
0.0
 11
7.467340411038126
 21
10.02755372075923
 31
0.0
  0
LINE
  5
38DB
330
1E
100
AcDbEntity
  8
7
100
AcDbLine
 10
7.597261670880644
 20
9.744089153830097
 30
0.0
 11
7.597261670880644
 21
9.661411988475768
 31
0.0
  0
LINE
  5
38DC
330
1E
100
AcDbEntity
  8
7
100
AcDbLine
 10
7.597261670880644
 20
9.661411988475768
 30
0.0
 11
7.597261670880644
 21
9.629915925483642
 31
0.0
  0
LINE
  5
38DD
330
1E
100
AcDbEntity
  8
7
100
AcDbLine
 10
10.23899395434521
 20
9.744089153830097
 30
0.0
 11
10.23899395434521
 21
9.661411988475768
 31
0.0
  0
LINE
  5
38DE
330
1E
100
AcDbEntity
  8
7
100
AcDbLine
 10
10.23899395434521
 20
9.661411988475768
 30
0.0
 11
10.23899395434521
 21
9.629915925483642
 31
0.0
  0
LINE
  5
38DF
330
1E
100
AcDbEntity
  8
7
100
AcDbLine
 10
6.305923088203481
 20
10.51180568926316
 30
0.0
 11
6.3610411984397
 21
10.49999466564112
 31
0.0
  0
LINE
  5
38E0
330
1E
100
AcDbEntity
  8
7
100
AcDbLine
 10
6.3610411984397
 20
10.49999466564112
 30
0.0
 11
6.412222300801907
 21
10.46849860264899
 31
0.0
  0
LINE
  5
38E1
330
1E
100
AcDbEntity
  8
7
100
AcDbLine
 10
5.597261670880644
 20
10.46849860264899
 30
0.0
 11
5.644505765368833
 21
10.49999466564112
 31
0.0
  0
LINE
  5
38E2
330
1E
100
AcDbEntity
  8
7
100
AcDbLine
 10
5.644505765368833
 20
10.49999466564112
 30
0.0
 11
5.70356088347907
 21
10.51180568926316
 31
0.0
  0
LINE
  5
38E3
330
1E
100
AcDbEntity
  8
7
100
AcDbLine
 10
7.44371836379403
 20
9.744089153830097
 30
0.0
 11
7.408285292927889
 21
9.661411988475768
 31
0.0
  0
LINE
  5
38E4
330
1E
100
AcDbEntity
  8
7
100
AcDbLine
 10
7.408285292927889
 20
9.661411988475768
 30
0.0
 11
7.325608127573559
 21
9.629915925483642
 31
0.0
  0
LINE
  5
38E5
330
1E
100
AcDbEntity
  8
7
100
AcDbLine
 10
7.333482143321589
 20
10.02755372075923
 30
0.0
 11
7.392537261431826
 21
10.02755372075923
 31
0.0
  0
LINE
  5
38E6
330
1E
100
AcDbEntity
  8
7
100
AcDbLine
 10
7.392537261431826
 20
10.02755372075923
 30
0.0
 11
7.439781355920015
 21
10.02755372075923
 31
0.0
  0
LINE
  5
38E7
330
1E
100
AcDbEntity
  8
7
100
AcDbLine
 10
7.439781355920015
 20
10.02755372075923
 30
0.0
 11
7.455529387416078
 21
10.02755372075923
 31
0.0
  0
LINE
  5
38E8
330
1E
100
AcDbEntity
  8
7
100
AcDbLine
 10
7.44371836379403
 20
9.744089153830097
 30
0.0
 11
7.427970332297967
 21
9.744089153830097
 31
0.0
  0
LINE
  5
38E9
330
1E
100
AcDbEntity
  8
7
100
AcDbLine
 10
7.427970332297967
 20
9.744089153830097
 30
0.0
 11
7.384663245683796
 21
9.744089153830097
 31
0.0
  0
LINE
  5
38EA
330
1E
100
AcDbEntity
  8
7
100
AcDbLine
 10
7.384663245683796
 20
9.744089153830097
 30
0.0
 11
7.325608127573559
 21
9.744089153830097
 31
0.0
  0
LINE
  5
38EB
330
1E
100
AcDbEntity
  8
7
100
AcDbLine
 10
4.565765607888518
 20
9.744089153830097
 30
0.0
 11
4.601198678754663
 21
9.661411988475768
 31
0.0
  0
LINE
  5
38EC
330
1E
100
AcDbEntity
  8
7
100
AcDbLine
 10
4.601198678754663
 20
9.661411988475768
 30
0.0
 11
4.683875844108992
 21
9.629915925483642
 31
0.0
  0
LINE
  5
38ED
330
1E
100
AcDbEntity
  8
7
100
AcDbLine
 10
4.565765607888518
 20
9.744089153830097
 30
0.0
 11
4.581513639384581
 21
9.744089153830097
 31
0.0
  0
LINE
  5
38EE
330
1E
100
AcDbEntity
  8
7
100
AcDbLine
 10
4.581513639384581
 20
9.744089153830097
 30
0.0
 11
4.624820725998755
 21
9.744089153830097
 31
0.0
  0
LINE
  5
38EF
330
1E
100
AcDbEntity
  8
7
100
AcDbLine
 10
4.624820725998755
 20
9.744089153830097
 30
0.0
 11
4.683875844108992
 21
9.744089153830097
 31
0.0
  0
LINE
  5
38F0
330
1E
100
AcDbEntity
  8
7
100
AcDbLine
 10
4.676001828360959
 20
10.02755372075923
 30
0.0
 11
4.613009702376707
 21
10.02755372075923
 31
0.0
  0
LINE
  5
38F1
330
1E
100
AcDbEntity
  8
7
100
AcDbLine
 10
4.613009702376707
 20
10.02755372075923
 30
0.0
 11
4.569702615762537
 21
10.02755372075923
 31
0.0
  0
LINE
  5
38F2
330
1E
100
AcDbEntity
  8
7
100
AcDbLine
 10
4.569702615762537
 20
10.02755372075923
 30
0.0
 11
4.553954584266474
 21
10.02755372075923
 31
0.0
  0
LINE
  5
38F3
330
1E
100
AcDbEntity
  8
7
100
AcDbLine
 10
4.683875844108992
 20
9.744089153830097
 30
0.0
 11
4.683875844108992
 21
9.661411988475768
 31
0.0
  0
LINE
  5
38F4
330
1E
100
AcDbEntity
  8
7
100
AcDbLine
 10
4.683875844108992
 20
9.661411988475768
 30
0.0
 11
4.683875844108992
 21
9.629915925483642
 31
0.0
  0
LINE
  5
38F5
330
1E
100
AcDbEntity
  8
7
100
AcDbLine
 10
7.325608127573559
 20
9.744089153830097
 30
0.0
 11
7.325608127573559
 21
9.661411988475768
 31
0.0
  0
LINE
  5
38F6
330
1E
100
AcDbEntity
  8
7
100
AcDbLine
 10
7.325608127573559
 20
9.661411988475768
 30
0.0
 11
7.325608127573559
 21
9.629915925483642
 31
0.0
  0
LINE
  5
38F7
330
1E
100
AcDbEntity
  8
7
100
AcDbLine
 10
13.84135615906962
 20
10.02755372075923
 30
0.0
 11
13.85316718269167
 21
10.02755372075923
 31
0.0
  0
LINE
  5
38F8
330
1E
100
AcDbEntity
  8
7
100
AcDbLine
 10
13.85316718269167
 20
10.02755372075923
 30
0.0
 11
13.8610411984397
 21
10.02755372075923
 31
0.0
  0
LINE
  5
38F9
330
1E
100
AcDbEntity
  8
7
100
AcDbLine
 10
13.73505694647119
 20
10.02755372075923
 30
0.0
 11
13.73111993859718
 21
10.02755372075923
 31
0.0
  0
LINE
  5
38FA
330
1E
100
AcDbEntity
  8
7
100
AcDbLine
 10
13.73111993859718
 20
10.02755372075923
 30
0.0
 11
13.72718293072316
 21
10.02755372075923
 31
0.0
  0
LINE
  5
38FB
330
1E
100
AcDbEntity
  8
7
100
AcDbLine
 10
13.77836403308537
 20
10.02755372075923
 30
0.0
 11
13.7862380488334
 21
10.02755372075923
 31
0.0
  0
LINE
  5
38FC
330
1E
100
AcDbEntity
  8
7
100
AcDbLine
 10
13.7862380488334
 20
10.02755372075923
 30
0.0
 11
13.79804907245544
 21
10.02755372075923
 31
0.0
  0
LINE
  5
38FD
330
1E
100
AcDbEntity
  8
7
100
AcDbLine
 10
13.51852151340033
 20
10.02755372075923
 30
0.0
 11
13.50277348190426
 21
10.02755372075923
 31
0.0
  0
LINE
  5
38FE
330
1E
100
AcDbEntity
  8
7
100
AcDbLine
 10
13.50277348190426
 20
10.02755372075923
 30
0.0
 11
13.47127741891214
 21
10.02755372075923
 31
0.0
  0
LINE
  5
38FF
330
1E
100
AcDbEntity
  8
7
100
AcDbLine
 10
13.47127741891214
 20
10.02755372075923
 30
0.0
 11
13.48308844253419
 21
10.02755372075923
 31
0.0
  0
LINE
  5
3900
330
1E
100
AcDbEntity
  8
7
100
AcDbLine
 10
13.48308844253419
 20
10.02755372075923
 30
0.0
 11
13.49489946615623
 21
10.02755372075923
 31
0.0
  0
LINE
  5
3901
330
1E
100
AcDbEntity
  8
7
100
AcDbLine
 10
13.76655300946332
 20
10.02755372075923
 30
0.0
 11
13.7626160015893
 21
10.02755372075923
 31
0.0
  0
LINE
  5
3902
330
1E
100
AcDbEntity
  8
7
100
AcDbLine
 10
13.7626160015893
 20
10.02755372075923
 30
0.0
 11
13.74686797009324
 21
10.02755372075923
 31
0.0
  0
LINE
  5
3903
330
1E
100
AcDbEntity
  8
7
100
AcDbLine
 10
13.74686797009324
 20
10.02755372075923
 30
0.0
 11
13.7626160015893
 21
10.02755372075923
 31
0.0
  0
LINE
  5
3904
330
1E
100
AcDbEntity
  8
7
100
AcDbLine
 10
13.7626160015893
 20
10.02755372075923
 30
0.0
 11
13.76655300946332
 21
10.02755372075923
 31
0.0
  0
LINE
  5
3905
330
1E
100
AcDbEntity
  8
7
100
AcDbLine
 10
13.82954513544757
 20
10.02755372075923
 30
0.0
 11
13.83348214332158
 21
10.02755372075923
 31
0.0
  0
LINE
  5
3906
330
1E
100
AcDbEntity
  8
7
100
AcDbLine
 10
13.83348214332158
 20
10.02755372075923
 30
0.0
 11
13.8374191511956
 21
10.02755372075923
 31
0.0
  0
LINE
  5
3907
330
1E
100
AcDbEntity
  8
7
100
AcDbLine
 10
13.72718293072316
 20
10.02755372075923
 30
0.0
 11
13.73111993859718
 21
10.02755372075923
 31
0.0
  0
LINE
  5
3908
330
1E
100
AcDbEntity
  8
7
100
AcDbLine
 10
13.73111993859718
 20
10.02755372075923
 30
0.0
 11
13.73505694647119
 21
10.02755372075923
 31
0.0
  0
INSERT
  5
4B7B
330
1E
100
AcDbEntity
  8
ASHADE
 62
     1
100
AcDbBlockReference
  2
AVE_RENDER
 10
0.0
 20
0.0
 30
0.0
1001
AVE_RENDER
1002
{
1070
     7
1000
Pref
1070
    30
1070
    20
1070
     1
1070
     0
1000

1070
    10
1070
     1
1070
    10
1040
1.0
1070
     1
1040
0.3
1040
0.7
1040
0.0
1040
10.0
1010
-1.0
1020
-1.0
1030
-1.0
1040
0.3
1070
    49
1070
     0
1070
     0
1010
1.0
1020
1.0
1030
1.0
1040
45.0
1070
     1
1070
     0
1000
WCS
1040
0.0
1070
     0
1040
10.0
1002
}
  0
INSERT
  5
4B7C
330
1E
100
AcDbEntity
  8
ASHADE
 62
     3
100
AcDbBlockReference
  2
AVE_RENDER
 10
0.0
 20
0.0
 30
0.0
1001
AVE_RENDER
1002
{
1070
     0
1000
Full Opt
1070
     0
1070
     1
1070
     1
1070
     1
1070
     0
1070
     0
1070
     0
1070
     1
1070
     1
1040
0.0001
1040
0.0001
1002
}
  0
INSERT
  5
4B7D
330
1E
100
AcDbEntity
  8
ASHADE
 62
     4
100
AcDbBlockReference
  2
AVE_RENDER
 10
0.0
 20
0.0
 30
0.0
1001
AVE_RENDER
1002
{
1070
     0
1000
Quick Opt
1070
     0
1070
     1
1070
     1
1070
     1
1070
     0
1070
     0
1070
     1
1002
}
  0
INSERT
  5
4B7E
330
1E
100
AcDbEntity
  8
ASHADE
 62
     5
100
AcDbBlockReference
  2
AVE_RENDER
 10
0.0
 20
0.0
 30
0.0
1001
AVE_RENDER
1002
{
1070
     1
1000
Scanl Opt
1070
     2
1070
     0
1070
     2
1040
2.0
1040
4.0
1070
     0
1070
     1
1070
     0
1040
0.03
1002
}
  0
INSERT
  5
4B7F
330
1E
100
AcDbEntity
  8
ASHADE
 62
     6
100
AcDbBlockReference
  2
AVE_RENDER
 10
0.0
 20
0.0
 30
0.0
1001
AVE_RENDER
1002
{
1070
     2
1000
Raytr Opt
1070
     2
1070
     0
1070
     2
1040
2.0
1040
4.0
1070
     0
1070
     1
1070
     1
1040
0.03
1070
     3
1040
0.03
1002
}
  0
INSERT
  5
4B80
330
1E
100
AcDbEntity
  8
ASHADE
 62
     7
100
AcDbBlockReference
  2
AVE_RENDER
 10
0.0
 20
0.0
 30
0.0
1001
AVE_RENDER
1002
{
1070
     0
1000
RFile Opt
1070
     1
1070
   640
1070
   480
1070
 10000
1070
     1
1070
     8
1070
     8
1070
     0
1070
     0
1070
     0
1070
     0
1070
     0
1070
     0
1070
     0
1002
}
  0
INSERT
  5
4B81
330
1E
100
AcDbEntity
  8
ASHADE
 62
     8
100
AcDbBlockReference
  2
AVE_RENDER
 10
0.0
 20
0.0
 30
0.0
1001
AVE_RENDER
1002
{
1070
     0
1000
Fog Opt
1070
     0
1070
     0
1040
0.0
1040
1.0
1040
0.0
1040
1.0
1010
0.5
1020
0.5
1030
0.5
1002
}
  0
INSERT
  5
4B82
330
1E
100
AcDbEntity
  8
ASHADE
 62
     9
100
AcDbBlockReference
  2
AVE_RENDER
 10
0.0
 20
0.0
 30
0.0
1001
AVE_RENDER
1002
{
1070
     0
1000
BG Opt
1070
     0
1070
     1
1010
0.0
1020
0.0
1030
0.0
1010
1.0
1020
0.0
1030
0.0
1010
0.0
1020
1.0
1030
0.0
1010
0.0
1020
0.0
1030
1.0
1040
0.5
1040
0.33
1040
0.0
1000

1070
     1
1000

1070
     1
1070
     1
1040
1.0
1040
1.0
1040
0.0
1040
0.0
1070
     0
1002
}
  0
INSERT
  5
4B89
330
1E
100
AcDbEntity
  8
ASHADE
 62
     1
100
AcDbBlockReference
  2
AVE_GLOBAL
 10
0.0
 20
0.0
 30
0.0
1001
AVE_MATERIAL
1002
{
1000
*GLOBAL*
1000
2
1000
Global finish.
1002
{
1002
}
1002
{
1070
    63
1002
{
1002
{
1010
-1.0
1020
-1.0
1030
-1.0
1002
}
1040
0.1000000014901161
1000

1040
0.0
1002
{
1002
}
1040
0.0
1002
{
1002
}
1040
0.0
1002
}
1002
{
1002
{
1010
-1.0
1020
-1.0
1030
-1.0
1002
}
1040
0.6999999880790711
1000

1040
0.0
1002
{
1002
}
1040
0.0
1002
{
1002
}
1040
0.0
1002
}
1002
{
1002
{
1010
-1.0
1020
-1.0
1030
-1.0
1002
}
1040
0.2000000029802322
1000

1040
0.0
1002
{
1002
}
1040
0.0
1002
{
1002
}
1040
0.0
1002
}
1002
{
1070
     0
1002
{
1070
     1
1002
{
1040
1.0
1040
1.0
1000

1040
0.0
1002
{
1002
}
1040
0.0
1002
{
1002
}
1040
0.0
1002
}
1002
}
1040
1.0
1040
0.0
1040
0.0
1002
}
1002
{
1040
1.0
1040
1.0
1000

1040
0.0
1002
{
1002
}
1040
0.0
1002
{
1002
}
1040
0.0
1002
}
1002
{
1040
0.5
1040
1.0
1000

1040
0.0
1002
{
1002
}
1040
0.0
1002
{
1002
}
1040
0.0
1002
}
1002
{
1070
     0
1040
0.0
1002
{
1002
}
1040
1.0
1002
{
1002
}
1040
0.0
1002
}
1002
{
1040
0.0
1002
{
1002
{
1010
0.0
1020
0.0
1030
0.0
1002
}
1040
1.0
1000

1040
0.0
1002
{
1002
}
1040
0.0
1002
{
1002
}
1040
0.0
1002
}
1002
}
1002
{
1002
{
1070
     1
1002
{
1040
0.0
1040
1.0
1000

1040
0.0
1002
{
1002
}
1040
0.0
1002
{
1002
}
1040
0.0
1002
}
1002
}
1040
0.0
1002
{
1002
}
1010
1.0
1020
0.0
1030
0.0
1010
0.0
1020
1.0
1030
0.0
1010
0.0
1020
0.0
1030
1.0
1070
     0
1002
}
1002
{
1002
{
1040
1.0
1040
1.0
1002
{
1070
     1
1002
{
1040
1.0
1040
1.0
1000

1040
0.0
1002
{
1002
}
1040
0.0
1002
{
1002
}
1040
0.0
1002
}
1002
}
1002
}
1070
     0
1040
0.0
1002
{
1002
}
1002
}
1002
{
1002
}
1002
}
1002
{
1071
        3
1070
     3
1070
     0
1002
{
1070
     2
1070
     0
1070
     0
1040
0.0
1002
}
1070
     0
1070
     2
1002
{
1002
}
1002
}
1002
{
1040
8030.0
1040
190.3000030517578
1040
0.3050000071525574
1040
228.0
1040
545.0
1040
14.0
1040
17.39999961853027
1040
0.4560000002384186
1002
}
1002
}
  0
ENDSEC
  0
SECTION
  2
OBJECTS
  0
DICTIONARY
  5
C
330
0
100
AcDbDictionary
  3
ACAD_GROUP
350
D
  3
ACAD_LAYOUT
350
19
  3
ACAD_MLINESTYLE
350
16
  3
ACAD_PLOTSETTINGS
350
18
1001
ACAD
1000
TREAT_AS_HARD
1070
     0
  0
DICTIONARY
  5
4B8B
330
1E
100
AcDbDictionary
  3
ACAD_LAYOUTSELFREF
350
4BC4
1001
ACAD
1000
TREAT_AS_HARD
1070
     1
  0
DICTIONARY
  5
4B8D
330
1A
100
AcDbDictionary
  3
ACAD_LAYOUTSELFREF
350
4BC3
1001
ACAD
1000
TREAT_AS_HARD
1070
     1
  0
DICTIONARY
  5
D
102
{ACAD_REACTORS
330
C
102
}
330
C
100
AcDbDictionary
1001
ACAD
1000
TREAT_AS_HARD
1070
     0
  0
DICTIONARY
  5
19
102
{ACAD_REACTORS
330
C
102
}
330
C
100
AcDbDictionary
1001
ACAD
1000
TREAT_AS_HARD
1070
     0
  0
DICTIONARY
  5
16
102
{ACAD_REACTORS
330
C
102
}
330
C
100
AcDbDictionary
  3
STANDARD
350
17
1001
ACAD
1000
TREAT_AS_HARD
1070
     0
  0
DICTIONARY
  5
18
102
{ACAD_REACTORS
330
C
102
}
330
C
100
AcDbDictionary
1001
ACAD
1000
TREAT_AS_HARD
1070
     0
  0
XRECORD
  5
4BC4
102
{ACAD_REACTORS
330
4B8B
102
}
330
4B8B
100
AcDbXrecord
340
1E
  0
XRECORD
  5
4BC3
102
{ACAD_REACTORS
330
4B8D
102
}
330
4B8D
100
AcDbXrecord
340
1A
  0
MLINESTYLE
  5
17
102
{ACAD_REACTORS
330
16
102
}
330
16
100
AcDbMlineStyle
  2
STANDARD
 70
     0
  3

 62
   256
 51
90.0
 52
90.0
 71
     2
 49
0.5
 62
   256
  6
BYLAYER
 49
-0.5
 62
   256
  6
BYLAYER
  0
ENDSEC
  0
EOF
