  0
SECTION
  2
HEADER
  9
$ACADVER
  1
AC1012
  9
$DWGCODEPAGE
  3
ANSI_1252
  9
$INSBASE
 10
0.0
 20
0.0
 30
0.0
  9
$EXTMIN
 10
0.0161133092084356
 20
3.653366114075023
 30
-0.0015258207003583
  9
$EXTMAX
 10
5.4351196492034
 20
8.174240132298134
 30
0.0000000349246037
  9
$LIMMIN
 10
0.0
 20
0.0
  9
$LIMMAX
 10
12.0
 20
9.0
  9
$ORTHOMODE
 70
     0
  9
$REGENMODE
 70
     1
  9
$FILLMODE
 70
     1
  9
$QTEXTMODE
 70
     0
  9
$MIRRTEXT
 70
     1
  9
$DRAGMODE
 70
     2
  9
$LTSCALE
 40
1.0
  9
$OSMODE
 70
   547
  9
$ATTMODE
 70
     1
  9
$TEXTSIZE
 40
0.2
  9
$TRACEWID
 40
0.05
  9
$TEXTSTYLE
  7
STANDARD
  9
$CLAYER
  8
0
  9
$CELTYPE
  6
BYLAYER
  9
$CECOLOR
 62
   256
  9
$CELTSCALE
 40
1.0
  9
$DELOBJ
 70
     1
  9
$DISPSILH
 70
     0
  9
$DIMSCALE
 40
1.0
  9
$DIMASZ
 40
0.18
  9
$DIMEXO
 40
0.0625
  9
$DIMDLI
 40
0.38
  9
$DIMRND
 40
0.0
  9
$DIMDLE
 40
0.0
  9
$DIMEXE
 40
0.18
  9
$DIMTP
 40
0.0
  9
$DIMTM
 40
0.0
  9
$DIMTXT
 40
0.18
  9
$DIMCEN
 40
0.09
  9
$DIMTSZ
 40
0.0
  9
$DIMTOL
 70
     0
  9
$DIMLIM
 70
     0
  9
$DIMTIH
 70
     1
  9
$DIMTOH
 70
     1
  9
$DIMSE1
 70
     0
  9
$DIMSE2
 70
     0
  9
$DIMTAD
 70
     0
  9
$DIMZIN
 70
     0
  9
$DIMBLK
  1

  9
$DIMASO
 70
     1
  9
$DIMSHO
 70
     1
  9
$DIMPOST
  1

  9
$DIMAPOST
  1

  9
$DIMALT
 70
     0
  9
$DIMALTD
 70
     2
  9
$DIMALTF
 40
25.4
  9
$DIMLFAC
 40
1.0
  9
$DIMTOFL
 70
     0
  9
$DIMTVP
 40
0.0
  9
$DIMTIX
 70
     0
  9
$DIMSOXD
 70
     0
  9
$DIMSAH
 70
     0
  9
$DIMBLK1
  1

  9
$DIMBLK2
  1

  9
$DIMSTYLE
  2
STANDARD
  9
$DIMCLRD
 70
     0
  9
$DIMCLRE
 70
     0
  9
$DIMCLRT
 70
     0
  9
$DIMTFAC
 40
1.0
  9
$DIMGAP
 40
0.09
  9
$DIMJUST
 70
     0
  9
$DIMSD1
 70
     0
  9
$DIMSD2
 70
     0
  9
$DIMTOLJ
 70
     1
  9
$DIMTZIN
 70
     0
  9
$DIMALTZ
 70
     0
  9
$DIMALTTZ
 70
     0
  9
$DIMFIT
 70
     5
  9
$DIMUPT
 70
     0
  9
$DIMUNIT
 70
     2
  9
$DIMDEC
 70
     4
  9
$DIMTDEC
 70
     4
  9
$DIMALTU
 70
     2
  9
$DIMALTTD
 70
     2
  9
$DIMTXSTY
  7
STANDARD
  9
$DIMAUNIT
 70
     0
  9
$LUNITS
 70
     2
  9
$LUPREC
 70
     4
  9
$SKETCHINC
 40
0.1
  9
$FILLETRAD
 40
0.0
  9
$AUNITS
 70
     0
  9
$AUPREC
 70
     0
  9
$MENU
  1
acad
  9
$ELEVATION
 40
0.0
  9
$PELEVATION
 40
0.0
  9
$THICKNESS
 40
0.0
  9
$LIMCHECK
 70
     0
  9
$BLIPMODE
 70
     0
  9
$CHAMFERA
 40
0.0
  9
$CHAMFERB
 40
0.0
  9
$CHAMFERC
 40
0.0
  9
$CHAMFERD
 40
0.0
  9
$SKPOLY
 70
     0
  9
$TDCREATE
 40
2453844.721562500
  9
$TDUPDATE
 40
2453844.723354768
  9
$TDINDWG
 40
0.0014603241
  9
$TDUSRTIMER
 40
0.0014603241
  9
$USRTIMER
 70
     1
  9
$ANGBASE
 50
0.0
  9
$ANGDIR
 70
     0
  9
$PDMODE
 70
     0
  9
$PDSIZE
 40
0.0
  9
$PLINEWID
 40
0.0
  9
$COORDS
 70
     1
  9
$SPLFRAME
 70
     0
  9
$SPLINETYPE
 70
     6
  9
$SPLINESEGS
 70
     8
  9
$ATTDIA
 70
     0
  9
$ATTREQ
 70
     1
  9
$HANDLING
 70
  4097
  9
$HANDSEED
  5
3794
  9
$SURFTAB1
 70
     6
  9
$SURFTAB2
 70
     6
  9
$SURFTYPE
 70
     6
  9
$SURFU
 70
     6
  9
$SURFV
 70
     6
  9
$UCSNAME
  2

  9
$UCSORG
 10
0.0
 20
0.0
 30
0.0
  9
$UCSXDIR
 10
1.0
 20
0.0
 30
0.0
  9
$UCSYDIR
 10
0.0
 20
1.0
 30
0.0
  9
$PUCSNAME
  2

  9
$PUCSORG
 10
0.0
 20
0.0
 30
0.0
  9
$PUCSXDIR
 10
1.0
 20
0.0
 30
0.0
  9
$PUCSYDIR
 10
0.0
 20
1.0
 30
0.0
  9
$USERI1
 70
     0
  9
$USERI2
 70
     0
  9
$USERI3
 70
     0
  9
$USERI4
 70
     0
  9
$USERI5
 70
     0
  9
$USERR1
 40
0.0
  9
$USERR2
 40
0.0
  9
$USERR3
 40
0.0
  9
$USERR4
 40
0.0
  9
$USERR5
 40
0.0
  9
$WORLDVIEW
 70
     1
  9
$SHADEDGE
 70
     3
  9
$SHADEDIF
 70
    70
  9
$TILEMODE
 70
     1
  9
$MAXACTVP
 70
    16
  9
$PINSBASE
 10
0.0
 20
0.0
 30
0.0
  9
$PLIMCHECK
 70
     0
  9
$PEXTMIN
 10
1.000000000000000E+20
 20
1.000000000000000E+20
 30
1.000000000000000E+20
  9
$PEXTMAX
 10
-1.000000000000000E+20
 20
-1.000000000000000E+20
 30
-1.000000000000000E+20
  9
$PLIMMIN
 10
0.0
 20
0.0
  9
$PLIMMAX
 10
12.0
 20
9.0
  9
$UNITMODE
 70
     0
  9
$VISRETAIN
 70
     0
  9
$PLINEGEN
 70
     0
  9
$PSLTSCALE
 70
     1
  9
$TREEDEPTH
 70
  3020
  9
$PICKSTYLE
 70
     1
  9
$CMLSTYLE
  2
STANDARD
  9
$CMLJUST
 70
     0
  9
$CMLSCALE
 40
1.0
  9
$SAVEIMAGES
 70
     1
  0
ENDSEC
  0
SECTION
  2
CLASSES
  0
CLASS
  1
ACDBDICTIONARYWDFLT
  2
AcDbDictionaryWithDefault
  3
AutoCAD 2000
 90
    32768
280
     0
281
     0
  0
CLASS
  1
ACDBPLACEHOLDER
  2
AcDbPlaceHolder
  3
AutoCAD 2000
 90
    32768
280
     0
281
     0
  0
CLASS
  1
LAYOUT
  2
AcDbLayout
  3
AutoCAD 2000
 90
    32768
280
     0
281
     0
  0
CLASS
  1
LONG_TRANSACTION
  2
AcDbLongTransaction
  3
AutoCAD 2000
 90
    32768
280
     0
281
     0
  0
CLASS
  1
LWPOLYLINE
  2
AcDbPolyline
  3
AutoCAD 2000
 90
    32768
280
     0
281
     1
  0
CLASS
  1
HATCH
  2
AcDbHatch
  3
AutoCAD 2000
 90
    32768
280
     0
281
     1
  0
CLASS
  1
XRECORD
  2
AcDbXrecord
  3
AutoCAD 2000
 90
    32768
280
     0
281
     0
  0
ENDSEC
  0
SECTION
  2
TABLES
  0
TABLE
  2
VPORT
  5
8
330
0
100
AcDbSymbolTable
 70
     3
  0
VPORT
  5
32BB
330
8
100
AcDbSymbolTableRecord
100
AcDbViewportTableRecord
  2
*ACTIVE
 70
     0
 10
0.0
 20
0.0
 11
1.0
 21
1.0
 12
2.725616479205918
 22
5.913803123186578
 13
0.0
 23
0.0
 14
1.0
 24
1.0
 15
0.0
 25
0.0
 16
0.0
 26
0.0
 36
1.0
 17
0.0
 27
0.0
 37
0.0
 40
4.571386577085938
 41
1.740671641791044
 42
50.0
 43
0.0
 44
0.0
 50
0.0
 51
0.0
 71
     0
 72
   100
 73
     1
 74
     1
 75
     0
 76
     0
 77
     0
 78
     0
  0
ENDTAB
  0
TABLE
  2
LTYPE
  5
5
330
0
100
AcDbSymbolTable
 70
    25
  0
LTYPE
  5
13
330
5
100
AcDbSymbolTableRecord
100
AcDbLinetypeTableRecord
  2
BYBLOCK
 70
     0
  3

 72
    65
 73
     0
 40
0.0
  0
LTYPE
  5
14
330
5
100
AcDbSymbolTableRecord
100
AcDbLinetypeTableRecord
  2
BYLAYER
 70
     0
  3

 72
    65
 73
     0
 40
0.0
  0
LTYPE
  5
15
330
5
100
AcDbSymbolTableRecord
100
AcDbLinetypeTableRecord
  2
CONTINUOUS
 70
     0
  3
Solid line
 72
    65
 73
     0
 40
0.0
  0
LTYPE
  5
22
330
5
100
AcDbSymbolTableRecord
100
AcDbLinetypeTableRecord
  2
BORDER
 70
     0
  3
__ __ . __ __ . __ __ . __ __ . __ __ . __ __ .
 72
    65
 73
     6
 40
1.75
 49
0.5
 74
     0
 49
-0.25
 74
     0
 49
0.5
 74
     0
 49
-0.25
 74
     0
 49
0.5
 74
     0
 49
-0.25
 74
     0
  0
LTYPE
  5
23
330
5
100
AcDbSymbolTableRecord
100
AcDbLinetypeTableRecord
  2
BORDER2
 70
     0
  3
__.__.__.__.__.__.__.__.
 72
    65
 73
     6
 40
0.875
 49
0.25
 74
     0
 49
-0.125
 74
     0
 49
0.25
 74
     0
 49
-0.125
 74
     0
 49
0.25
 74
     0
 49
-0.125
 74
     0
  0
LTYPE
  5
24
330
5
100
AcDbSymbolTableRecord
100
AcDbLinetypeTableRecord
  2
BORDERX2
 70
     0
  3
____  ____  .  
 72
    65
 73
     6
 40
3.5
 49
1.0
 74
     0
 49
-0.5
 74
     0
 49
1.0
 74
     0
 49
-0.5
 74
     0
 49
1.0
 74
     0
 49
-0.5
 74
     0
  0
LTYPE
  5
25
330
5
100
AcDbSymbolTableRecord
100
AcDbLinetypeTableRecord
  2
CENTER
 70
     0
  3
____ _ ____ _ ____ _ 
 72
    65
 73
     4
 40
2.0
 49
1.25
 74
     0
 49
-0.25
 74
     0
 49
0.25
 74
     0
 49
-0.25
 74
     0
  0
LTYPE
  5
26
330
5
100
AcDbSymbolTableRecord
100
AcDbLinetypeTableRecord
  2
CENTER2
 70
     0
  3
____ _ ____ _ ____ _ 
 72
    65
 73
     4
 40
1.125
 49
0.75
 74
     0
 49
-0.125
 74
     0
 49
0.125
 74
     0
 49
-0.125
 74
     0
  0
LTYPE
  5
27
330
5
100
AcDbSymbolTableRecord
100
AcDbLinetypeTableRecord
  2
CENTERX2
 70
     0
  3
________  __  
 72
    65
 73
     4
 40
4.0
 49
2.5
 74
     0
 49
-0.5
 74
     0
 49
0.5
 74
     0
 49
-0.5
 74
     0
  0
LTYPE
  5
28
330
5
100
AcDbSymbolTableRecord
100
AcDbLinetypeTableRecord
  2
DASHDOT
 70
     0
  3
__ . __ . __ . __ . 
 72
    65
 73
     4
 40
1.0
 49
0.5
 74
     0
 49
-0.25
 74
     0
 49
0.0
 74
     0
 49
-0.25
 74
     0
  0
LTYPE
  5
29
330
5
100
AcDbSymbolTableRecord
100
AcDbLinetypeTableRecord
  2
DASHDOT2
 70
     0
  3
_._._._._._._._._.
 72
    65
 73
     4
 40
0.5
 49
0.25
 74
     0
 49
-0.125
 74
     0
 49
0.0
 74
     0
 49
-0.125
 74
     0
  0
LTYPE
  5
2A
330
5
100
AcDbSymbolTableRecord
100
AcDbLinetypeTableRecord
  2
DASHDOTX2
 70
     0
  3
____  .  ____  .  
 72
    65
 73
     4
 40
2.0
 49
1.0
 74
     0
 49
-0.5
 74
     0
 49
0.0
 74
     0
 49
-0.5
 74
     0
  0
LTYPE
  5
2B
330
5
100
AcDbSymbolTableRecord
100
AcDbLinetypeTableRecord
  2
DASHED
 70
     0
  3
__ __ __ __ __ __ __ 
 72
    65
 73
     2
 40
0.75
 49
0.5
 74
     0
 49
-0.25
 74
     0
  0
LTYPE
  5
2C
330
5
100
AcDbSymbolTableRecord
100
AcDbLinetypeTableRecord
  2
DASHED2
 70
     0
  3
_ _ _ _ _ _ _ _ _ _ 
 72
    65
 73
     2
 40
0.375
 49
0.25
 74
     0
 49
-0.125
 74
     0
  0
LTYPE
  5
2D
330
5
100
AcDbSymbolTableRecord
100
AcDbLinetypeTableRecord
  2
DASHEDX2
 70
     0
  3
____  ____  ____  
 72
    65
 73
     2
 40
1.5
 49
1.0
 74
     0
 49
-0.5
 74
     0
  0
LTYPE
  5
2E
330
5
100
AcDbSymbolTableRecord
100
AcDbLinetypeTableRecord
  2
DIVIDE
 70
     0
  3
____ . . ____ . . 
 72
    65
 73
     6
 40
1.25
 49
0.5
 74
     0
 49
-0.25
 74
     0
 49
0.0
 74
     0
 49
-0.25
 74
     0
 49
0.0
 74
     0
 49
-0.25
 74
     0
  0
LTYPE
  5
2F
330
5
100
AcDbSymbolTableRecord
100
AcDbLinetypeTableRecord
  2
DIVIDE2
 70
     0
  3
__..__..__..__..__..
 72
    65
 73
     6
 40
0.625
 49
0.25
 74
     0
 49
-0.125
 74
     0
 49
0.0
 74
     0
 49
-0.125
 74
     0
 49
0.0
 74
     0
 49
-0.125
 74
     0
  0
LTYPE
  5
30
330
5
100
AcDbSymbolTableRecord
100
AcDbLinetypeTableRecord
  2
DIVIDEX2
 70
     0
  3
________  .  .  
 72
    65
 73
     6
 40
2.5
 49
1.0
 74
     0
 49
-0.5
 74
     0
 49
0.0
 74
     0
 49
-0.5
 74
     0
 49
0.0
 74
     0
 49
-0.5
 74
     0
  0
LTYPE
  5
31
330
5
100
AcDbSymbolTableRecord
100
AcDbLinetypeTableRecord
  2
DOT
 70
     0
  3
. . . . . . . . . 
 72
    65
 73
     2
 40
0.25
 49
0.0
 74
     0
 49
-0.25
 74
     0
  0
LTYPE
  5
32
330
5
100
AcDbSymbolTableRecord
100
AcDbLinetypeTableRecord
  2
DOT2
 70
     0
  3
..................
 72
    65
 73
     2
 40
0.125
 49
0.0
 74
     0
 49
-0.125
 74
     0
  0
LTYPE
  5
33
330
5
100
AcDbSymbolTableRecord
100
AcDbLinetypeTableRecord
  2
DOTX2
 70
     0
  3
.  .  .  .  .  .  
 72
    65
 73
     2
 40
0.5
 49
0.0
 74
     0
 49
-0.5
 74
     0
  0
LTYPE
  5
34
330
5
100
AcDbSymbolTableRecord
100
AcDbLinetypeTableRecord
  2
HIDDEN
 70
     0
  3
__ __ __ __ __ __ 
 72
    65
 73
     2
 40
0.375
 49
0.25
 74
     0
 49
-0.125
 74
     0
  0
LTYPE
  5
35
330
5
100
AcDbSymbolTableRecord
100
AcDbLinetypeTableRecord
  2
HIDDEN2
 70
     0
  3
_ _ _ _ _ _ _ _ _ 
 72
    65
 73
     2
 40
0.1875
 49
0.125
 74
     0
 49
-0.0625
 74
     0
  0
LTYPE
  5
36
330
5
100
AcDbSymbolTableRecord
100
AcDbLinetypeTableRecord
  2
HIDDENX2
 70
     0
  3
____ ____ ____ ____ 
 72
    65
 73
     2
 40
0.75
 49
0.5
 74
     0
 49
-0.25
 74
     0
  0
LTYPE
  5
37
330
5
100
AcDbSymbolTableRecord
100
AcDbLinetypeTableRecord
  2
PHANTOM
 70
     0
  3
______  __  __  
 72
    65
 73
     6
 40
2.5
 49
1.25
 74
     0
 49
-0.25
 74
     0
 49
0.25
 74
     0
 49
-0.25
 74
     0
 49
0.25
 74
     0
 49
-0.25
 74
     0
  0
LTYPE
  5
38
330
5
100
AcDbSymbolTableRecord
100
AcDbLinetypeTableRecord
  2
PHANTOM2
 70
     0
  3
___ _ _ ___ _ _ 
 72
    65
 73
     6
 40
1.25
 49
0.625
 74
     0
 49
-0.125
 74
     0
 49
0.125
 74
     0
 49
-0.125
 74
     0
 49
0.125
 74
     0
 49
-0.125
 74
     0
  0
LTYPE
  5
39
330
5
100
AcDbSymbolTableRecord
100
AcDbLinetypeTableRecord
  2
PHANTOMX2
 70
     0
  3
___ _ _ ___ _ _ 
 72
    65
 73
     6
 40
5.0
 49
2.5
 74
     0
 49
-0.5
 74
     0
 49
0.5
 74
     0
 49
-0.5
 74
     0
 49
0.5
 74
     0
 49
-0.5
 74
     0
  0
ENDTAB
  0
TABLE
  2
LAYER
  5
2
330
0
100
AcDbSymbolTable
 70
   256
  0
LAYER
  5
10
330
2
100
AcDbSymbolTableRecord
100
AcDbLayerTableRecord
  2
0
 70
     0
 62
     7
  6
CONTINUOUS
  0
LAYER
  5
3A
330
2
100
AcDbSymbolTableRecord
100
AcDbLayerTableRecord
  2
1
 70
     0
 62
     1
  6
CONTINUOUS
  0
LAYER
  5
3B
330
2
100
AcDbSymbolTableRecord
100
AcDbLayerTableRecord
  2
2
 70
     0
 62
     2
  6
CONTINUOUS
  0
LAYER
  5
3C
330
2
100
AcDbSymbolTableRecord
100
AcDbLayerTableRecord
  2
3
 70
     0
 62
     3
  6
CONTINUOUS
  0
LAYER
  5
3D
330
2
100
AcDbSymbolTableRecord
100
AcDbLayerTableRecord
  2
4
 70
     0
 62
     4
  6
CONTINUOUS
  0
LAYER
  5
3E
330
2
100
AcDbSymbolTableRecord
100
AcDbLayerTableRecord
  2
5
 70
     0
 62
     5
  6
CONTINUOUS
  0
LAYER
  5
3F
330
2
100
AcDbSymbolTableRecord
100
AcDbLayerTableRecord
  2
6
 70
     0
 62
     6
  6
CONTINUOUS
  0
LAYER
  5
40
330
2
100
AcDbSymbolTableRecord
100
AcDbLayerTableRecord
  2
7
 70
     0
 62
     7
  6
CONTINUOUS
  0
LAYER
  5
41
330
2
100
AcDbSymbolTableRecord
100
AcDbLayerTableRecord
  2
8
 70
     0
 62
     8
  6
CONTINUOUS
  0
LAYER
  5
42
330
2
100
AcDbSymbolTableRecord
100
AcDbLayerTableRecord
  2
9
 70
     0
 62
     9
  6
CONTINUOUS
  0
LAYER
  5
43
330
2
100
AcDbSymbolTableRecord
100
AcDbLayerTableRecord
  2
10
 70
     0
 62
    10
  6
CONTINUOUS
  0
LAYER
  5
44
330
2
100
AcDbSymbolTableRecord
100
AcDbLayerTableRecord
  2
11
 70
     0
 62
    11
  6
CONTINUOUS
  0
LAYER
  5
45
330
2
100
AcDbSymbolTableRecord
100
AcDbLayerTableRecord
  2
12
 70
     0
 62
    12
  6
CONTINUOUS
  0
LAYER
  5
46
330
2
100
AcDbSymbolTableRecord
100
AcDbLayerTableRecord
  2
13
 70
     0
 62
    13
  6
CONTINUOUS
  0
LAYER
  5
47
330
2
100
AcDbSymbolTableRecord
100
AcDbLayerTableRecord
  2
14
 70
     0
 62
    14
  6
CONTINUOUS
  0
LAYER
  5
48
330
2
100
AcDbSymbolTableRecord
100
AcDbLayerTableRecord
  2
15
 70
     0
 62
    15
  6
CONTINUOUS
  0
LAYER
  5
49
330
2
100
AcDbSymbolTableRecord
100
AcDbLayerTableRecord
  2
16
 70
     0
 62
    16
  6
CONTINUOUS
  0
LAYER
  5
4A
330
2
100
AcDbSymbolTableRecord
100
AcDbLayerTableRecord
  2
17
 70
     0
 62
    17
  6
CONTINUOUS
  0
LAYER
  5
4B
330
2
100
AcDbSymbolTableRecord
100
AcDbLayerTableRecord
  2
18
 70
     0
 62
    18
  6
CONTINUOUS
  0
LAYER
  5
4C
330
2
100
AcDbSymbolTableRecord
100
AcDbLayerTableRecord
  2
19
 70
     0
 62
    19
  6
CONTINUOUS
  0
LAYER
  5
4D
330
2
100
AcDbSymbolTableRecord
100
AcDbLayerTableRecord
  2
20
 70
     0
 62
    20
  6
CONTINUOUS
  0
LAYER
  5
4E
330
2
100
AcDbSymbolTableRecord
100
AcDbLayerTableRecord
  2
21
 70
     0
 62
    21
  6
CONTINUOUS
  0
LAYER
  5
4F
330
2
100
AcDbSymbolTableRecord
100
AcDbLayerTableRecord
  2
22
 70
     0
 62
    22
  6
CONTINUOUS
  0
LAYER
  5
50
330
2
100
AcDbSymbolTableRecord
100
AcDbLayerTableRecord
  2
23
 70
     0
 62
    23
  6
CONTINUOUS
  0
LAYER
  5
51
330
2
100
AcDbSymbolTableRecord
100
AcDbLayerTableRecord
  2
24
 70
     0
 62
    24
  6
CONTINUOUS
  0
LAYER
  5
52
330
2
100
AcDbSymbolTableRecord
100
AcDbLayerTableRecord
  2
25
 70
     0
 62
    25
  6
CONTINUOUS
  0
LAYER
  5
53
330
2
100
AcDbSymbolTableRecord
100
AcDbLayerTableRecord
  2
26
 70
     0
 62
    26
  6
CONTINUOUS
  0
LAYER
  5
54
330
2
100
AcDbSymbolTableRecord
100
AcDbLayerTableRecord
  2
27
 70
     0
 62
    27
  6
CONTINUOUS
  0
LAYER
  5
55
330
2
100
AcDbSymbolTableRecord
100
AcDbLayerTableRecord
  2
28
 70
     0
 62
    28
  6
CONTINUOUS
  0
LAYER
  5
56
330
2
100
AcDbSymbolTableRecord
100
AcDbLayerTableRecord
  2
29
 70
     0
 62
    29
  6
CONTINUOUS
  0
LAYER
  5
57
330
2
100
AcDbSymbolTableRecord
100
AcDbLayerTableRecord
  2
30
 70
     0
 62
    30
  6
CONTINUOUS
  0
LAYER
  5
58
330
2
100
AcDbSymbolTableRecord
100
AcDbLayerTableRecord
  2
31
 70
     0
 62
    31
  6
CONTINUOUS
  0
LAYER
  5
59
330
2
100
AcDbSymbolTableRecord
100
AcDbLayerTableRecord
  2
32
 70
     0
 62
    32
  6
CONTINUOUS
  0
LAYER
  5
5A
330
2
100
AcDbSymbolTableRecord
100
AcDbLayerTableRecord
  2
33
 70
     0
 62
    33
  6
CONTINUOUS
  0
LAYER
  5
5B
330
2
100
AcDbSymbolTableRecord
100
AcDbLayerTableRecord
  2
34
 70
     0
 62
    34
  6
CONTINUOUS
  0
LAYER
  5
5C
330
2
100
AcDbSymbolTableRecord
100
AcDbLayerTableRecord
  2
35
 70
     0
 62
    35
  6
CONTINUOUS
  0
LAYER
  5
5D
330
2
100
AcDbSymbolTableRecord
100
AcDbLayerTableRecord
  2
36
 70
     0
 62
    36
  6
CONTINUOUS
  0
LAYER
  5
5E
330
2
100
AcDbSymbolTableRecord
100
AcDbLayerTableRecord
  2
37
 70
     0
 62
    37
  6
CONTINUOUS
  0
LAYER
  5
5F
330
2
100
AcDbSymbolTableRecord
100
AcDbLayerTableRecord
  2
38
 70
     0
 62
    38
  6
CONTINUOUS
  0
LAYER
  5
60
330
2
100
AcDbSymbolTableRecord
100
AcDbLayerTableRecord
  2
39
 70
     0
 62
    39
  6
CONTINUOUS
  0
LAYER
  5
61
330
2
100
AcDbSymbolTableRecord
100
AcDbLayerTableRecord
  2
40
 70
     0
 62
    40
  6
CONTINUOUS
  0
LAYER
  5
62
330
2
100
AcDbSymbolTableRecord
100
AcDbLayerTableRecord
  2
41
 70
     0
 62
    41
  6
CONTINUOUS
  0
LAYER
  5
63
330
2
100
AcDbSymbolTableRecord
100
AcDbLayerTableRecord
  2
42
 70
     0
 62
    42
  6
CONTINUOUS
  0
LAYER
  5
64
330
2
100
AcDbSymbolTableRecord
100
AcDbLayerTableRecord
  2
43
 70
     0
 62
    43
  6
CONTINUOUS
  0
LAYER
  5
65
330
2
100
AcDbSymbolTableRecord
100
AcDbLayerTableRecord
  2
44
 70
     0
 62
    44
  6
CONTINUOUS
  0
LAYER
  5
66
330
2
100
AcDbSymbolTableRecord
100
AcDbLayerTableRecord
  2
45
 70
     0
 62
    45
  6
CONTINUOUS
  0
LAYER
  5
67
330
2
100
AcDbSymbolTableRecord
100
AcDbLayerTableRecord
  2
46
 70
     0
 62
    46
  6
CONTINUOUS
  0
LAYER
  5
68
330
2
100
AcDbSymbolTableRecord
100
AcDbLayerTableRecord
  2
47
 70
     0
 62
    47
  6
CONTINUOUS
  0
LAYER
  5
69
330
2
100
AcDbSymbolTableRecord
100
AcDbLayerTableRecord
  2
48
 70
     0
 62
    48
  6
CONTINUOUS
  0
LAYER
  5
6A
330
2
100
AcDbSymbolTableRecord
100
AcDbLayerTableRecord
  2
49
 70
     0
 62
    49
  6
CONTINUOUS
  0
LAYER
  5
6B
330
2
100
AcDbSymbolTableRecord
100
AcDbLayerTableRecord
  2
50
 70
     0
 62
    50
  6
CONTINUOUS
  0
LAYER
  5
6C
330
2
100
AcDbSymbolTableRecord
100
AcDbLayerTableRecord
  2
51
 70
     0
 62
    51
  6
CONTINUOUS
  0
LAYER
  5
6D
330
2
100
AcDbSymbolTableRecord
100
AcDbLayerTableRecord
  2
52
 70
     0
 62
    52
  6
CONTINUOUS
  0
LAYER
  5
6E
330
2
100
AcDbSymbolTableRecord
100
AcDbLayerTableRecord
  2
53
 70
     0
 62
    53
  6
CONTINUOUS
  0
LAYER
  5
6F
330
2
100
AcDbSymbolTableRecord
100
AcDbLayerTableRecord
  2
54
 70
     0
 62
    54
  6
CONTINUOUS
  0
LAYER
  5
70
330
2
100
AcDbSymbolTableRecord
100
AcDbLayerTableRecord
  2
55
 70
     0
 62
    55
  6
CONTINUOUS
  0
LAYER
  5
71
330
2
100
AcDbSymbolTableRecord
100
AcDbLayerTableRecord
  2
56
 70
     0
 62
    56
  6
CONTINUOUS
  0
LAYER
  5
72
330
2
100
AcDbSymbolTableRecord
100
AcDbLayerTableRecord
  2
57
 70
     0
 62
    57
  6
CONTINUOUS
  0
LAYER
  5
73
330
2
100
AcDbSymbolTableRecord
100
AcDbLayerTableRecord
  2
58
 70
     0
 62
    58
  6
CONTINUOUS
  0
LAYER
  5
74
330
2
100
AcDbSymbolTableRecord
100
AcDbLayerTableRecord
  2
59
 70
     0
 62
    59
  6
CONTINUOUS
  0
LAYER
  5
75
330
2
100
AcDbSymbolTableRecord
100
AcDbLayerTableRecord
  2
60
 70
     0
 62
    60
  6
CONTINUOUS
  0
LAYER
  5
76
330
2
100
AcDbSymbolTableRecord
100
AcDbLayerTableRecord
  2
61
 70
     0
 62
    61
  6
CONTINUOUS
  0
LAYER
  5
77
330
2
100
AcDbSymbolTableRecord
100
AcDbLayerTableRecord
  2
62
 70
     0
 62
    62
  6
CONTINUOUS
  0
LAYER
  5
78
330
2
100
AcDbSymbolTableRecord
100
AcDbLayerTableRecord
  2
63
 70
     0
 62
    63
  6
CONTINUOUS
  0
LAYER
  5
79
330
2
100
AcDbSymbolTableRecord
100
AcDbLayerTableRecord
  2
64
 70
     0
 62
    64
  6
CONTINUOUS
  0
LAYER
  5
7A
330
2
100
AcDbSymbolTableRecord
100
AcDbLayerTableRecord
  2
65
 70
     0
 62
    65
  6
CONTINUOUS
  0
LAYER
  5
7B
330
2
100
AcDbSymbolTableRecord
100
AcDbLayerTableRecord
  2
66
 70
     0
 62
    66
  6
CONTINUOUS
  0
LAYER
  5
7C
330
2
100
AcDbSymbolTableRecord
100
AcDbLayerTableRecord
  2
67
 70
     0
 62
    67
  6
CONTINUOUS
  0
LAYER
  5
7D
330
2
100
AcDbSymbolTableRecord
100
AcDbLayerTableRecord
  2
68
 70
     0
 62
    68
  6
CONTINUOUS
  0
LAYER
  5
7E
330
2
100
AcDbSymbolTableRecord
100
AcDbLayerTableRecord
  2
69
 70
     0
 62
    69
  6
CONTINUOUS
  0
LAYER
  5
7F
330
2
100
AcDbSymbolTableRecord
100
AcDbLayerTableRecord
  2
70
 70
     0
 62
    70
  6
CONTINUOUS
  0
LAYER
  5
80
330
2
100
AcDbSymbolTableRecord
100
AcDbLayerTableRecord
  2
71
 70
     0
 62
    71
  6
CONTINUOUS
  0
LAYER
  5
81
330
2
100
AcDbSymbolTableRecord
100
AcDbLayerTableRecord
  2
72
 70
     0
 62
    72
  6
CONTINUOUS
  0
LAYER
  5
82
330
2
100
AcDbSymbolTableRecord
100
AcDbLayerTableRecord
  2
73
 70
     0
 62
    73
  6
CONTINUOUS
  0
LAYER
  5
83
330
2
100
AcDbSymbolTableRecord
100
AcDbLayerTableRecord
  2
74
 70
     0
 62
    74
  6
CONTINUOUS
  0
LAYER
  5
84
330
2
100
AcDbSymbolTableRecord
100
AcDbLayerTableRecord
  2
75
 70
     0
 62
    75
  6
CONTINUOUS
  0
LAYER
  5
85
330
2
100
AcDbSymbolTableRecord
100
AcDbLayerTableRecord
  2
76
 70
     0
 62
    76
  6
CONTINUOUS
  0
LAYER
  5
86
330
2
100
AcDbSymbolTableRecord
100
AcDbLayerTableRecord
  2
77
 70
     0
 62
    77
  6
CONTINUOUS
  0
LAYER
  5
87
330
2
100
AcDbSymbolTableRecord
100
AcDbLayerTableRecord
  2
78
 70
     0
 62
    78
  6
CONTINUOUS
  0
LAYER
  5
88
330
2
100
AcDbSymbolTableRecord
100
AcDbLayerTableRecord
  2
79
 70
     0
 62
    79
  6
CONTINUOUS
  0
LAYER
  5
89
330
2
100
AcDbSymbolTableRecord
100
AcDbLayerTableRecord
  2
80
 70
     0
 62
    80
  6
CONTINUOUS
  0
LAYER
  5
8A
330
2
100
AcDbSymbolTableRecord
100
AcDbLayerTableRecord
  2
81
 70
     0
 62
    81
  6
CONTINUOUS
  0
LAYER
  5
8B
330
2
100
AcDbSymbolTableRecord
100
AcDbLayerTableRecord
  2
82
 70
     0
 62
    82
  6
CONTINUOUS
  0
LAYER
  5
8C
330
2
100
AcDbSymbolTableRecord
100
AcDbLayerTableRecord
  2
83
 70
     0
 62
    83
  6
CONTINUOUS
  0
LAYER
  5
8D
330
2
100
AcDbSymbolTableRecord
100
AcDbLayerTableRecord
  2
84
 70
     0
 62
    84
  6
CONTINUOUS
  0
LAYER
  5
8E
330
2
100
AcDbSymbolTableRecord
100
AcDbLayerTableRecord
  2
85
 70
     0
 62
    85
  6
CONTINUOUS
  0
LAYER
  5
8F
330
2
100
AcDbSymbolTableRecord
100
AcDbLayerTableRecord
  2
86
 70
     0
 62
    86
  6
CONTINUOUS
  0
LAYER
  5
90
330
2
100
AcDbSymbolTableRecord
100
AcDbLayerTableRecord
  2
87
 70
     0
 62
    87
  6
CONTINUOUS
  0
LAYER
  5
91
330
2
100
AcDbSymbolTableRecord
100
AcDbLayerTableRecord
  2
88
 70
     0
 62
    88
  6
CONTINUOUS
  0
LAYER
  5
92
330
2
100
AcDbSymbolTableRecord
100
AcDbLayerTableRecord
  2
89
 70
     0
 62
    89
  6
CONTINUOUS
  0
LAYER
  5
93
330
2
100
AcDbSymbolTableRecord
100
AcDbLayerTableRecord
  2
90
 70
     0
 62
    90
  6
CONTINUOUS
  0
LAYER
  5
94
330
2
100
AcDbSymbolTableRecord
100
AcDbLayerTableRecord
  2
91
 70
     0
 62
    91
  6
CONTINUOUS
  0
LAYER
  5
95
330
2
100
AcDbSymbolTableRecord
100
AcDbLayerTableRecord
  2
92
 70
     0
 62
    92
  6
CONTINUOUS
  0
LAYER
  5
96
330
2
100
AcDbSymbolTableRecord
100
AcDbLayerTableRecord
  2
93
 70
     0
 62
    93
  6
CONTINUOUS
  0
LAYER
  5
97
330
2
100
AcDbSymbolTableRecord
100
AcDbLayerTableRecord
  2
94
 70
     0
 62
    94
  6
CONTINUOUS
  0
LAYER
  5
98
330
2
100
AcDbSymbolTableRecord
100
AcDbLayerTableRecord
  2
95
 70
     0
 62
    95
  6
CONTINUOUS
  0
LAYER
  5
99
330
2
100
AcDbSymbolTableRecord
100
AcDbLayerTableRecord
  2
96
 70
     0
 62
    96
  6
CONTINUOUS
  0
LAYER
  5
9A
330
2
100
AcDbSymbolTableRecord
100
AcDbLayerTableRecord
  2
97
 70
     0
 62
    97
  6
CONTINUOUS
  0
LAYER
  5
9B
330
2
100
AcDbSymbolTableRecord
100
AcDbLayerTableRecord
  2
98
 70
     0
 62
    98
  6
CONTINUOUS
  0
LAYER
  5
9C
330
2
100
AcDbSymbolTableRecord
100
AcDbLayerTableRecord
  2
99
 70
     0
 62
    99
  6
CONTINUOUS
  0
LAYER
  5
9D
330
2
100
AcDbSymbolTableRecord
100
AcDbLayerTableRecord
  2
100
 70
     0
 62
   100
  6
CONTINUOUS
  0
LAYER
  5
9E
330
2
100
AcDbSymbolTableRecord
100
AcDbLayerTableRecord
  2
101
 70
     0
 62
   101
  6
CONTINUOUS
  0
LAYER
  5
9F
330
2
100
AcDbSymbolTableRecord
100
AcDbLayerTableRecord
  2
102
 70
     0
 62
   102
  6
CONTINUOUS
  0
LAYER
  5
A0
330
2
100
AcDbSymbolTableRecord
100
AcDbLayerTableRecord
  2
103
 70
     0
 62
   103
  6
CONTINUOUS
  0
LAYER
  5
A1
330
2
100
AcDbSymbolTableRecord
100
AcDbLayerTableRecord
  2
104
 70
     0
 62
   104
  6
CONTINUOUS
  0
LAYER
  5
A2
330
2
100
AcDbSymbolTableRecord
100
AcDbLayerTableRecord
  2
105
 70
     0
 62
   105
  6
CONTINUOUS
  0
LAYER
  5
A3
330
2
100
AcDbSymbolTableRecord
100
AcDbLayerTableRecord
  2
106
 70
     0
 62
   106
  6
CONTINUOUS
  0
LAYER
  5
A4
330
2
100
AcDbSymbolTableRecord
100
AcDbLayerTableRecord
  2
107
 70
     0
 62
   107
  6
CONTINUOUS
  0
LAYER
  5
A5
330
2
100
AcDbSymbolTableRecord
100
AcDbLayerTableRecord
  2
108
 70
     0
 62
   108
  6
CONTINUOUS
  0
LAYER
  5
A6
330
2
100
AcDbSymbolTableRecord
100
AcDbLayerTableRecord
  2
109
 70
     0
 62
   109
  6
CONTINUOUS
  0
LAYER
  5
A7
330
2
100
AcDbSymbolTableRecord
100
AcDbLayerTableRecord
  2
110
 70
     0
 62
   110
  6
CONTINUOUS
  0
LAYER
  5
A8
330
2
100
AcDbSymbolTableRecord
100
AcDbLayerTableRecord
  2
111
 70
     0
 62
   111
  6
CONTINUOUS
  0
LAYER
  5
A9
330
2
100
AcDbSymbolTableRecord
100
AcDbLayerTableRecord
  2
112
 70
     0
 62
   112
  6
CONTINUOUS
  0
LAYER
  5
AA
330
2
100
AcDbSymbolTableRecord
100
AcDbLayerTableRecord
  2
113
 70
     0
 62
   113
  6
CONTINUOUS
  0
LAYER
  5
AB
330
2
100
AcDbSymbolTableRecord
100
AcDbLayerTableRecord
  2
114
 70
     0
 62
   114
  6
CONTINUOUS
  0
LAYER
  5
AC
330
2
100
AcDbSymbolTableRecord
100
AcDbLayerTableRecord
  2
115
 70
     0
 62
   115
  6
CONTINUOUS
  0
LAYER
  5
AD
330
2
100
AcDbSymbolTableRecord
100
AcDbLayerTableRecord
  2
116
 70
     0
 62
   116
  6
CONTINUOUS
  0
LAYER
  5
AE
330
2
100
AcDbSymbolTableRecord
100
AcDbLayerTableRecord
  2
117
 70
     0
 62
   117
  6
CONTINUOUS
  0
LAYER
  5
AF
330
2
100
AcDbSymbolTableRecord
100
AcDbLayerTableRecord
  2
118
 70
     0
 62
   118
  6
CONTINUOUS
  0
LAYER
  5
B0
330
2
100
AcDbSymbolTableRecord
100
AcDbLayerTableRecord
  2
119
 70
     0
 62
   119
  6
CONTINUOUS
  0
LAYER
  5
B1
330
2
100
AcDbSymbolTableRecord
100
AcDbLayerTableRecord
  2
120
 70
     0
 62
   120
  6
CONTINUOUS
  0
LAYER
  5
B2
330
2
100
AcDbSymbolTableRecord
100
AcDbLayerTableRecord
  2
121
 70
     0
 62
   121
  6
CONTINUOUS
  0
LAYER
  5
B3
330
2
100
AcDbSymbolTableRecord
100
AcDbLayerTableRecord
  2
122
 70
     0
 62
   122
  6
CONTINUOUS
  0
LAYER
  5
B4
330
2
100
AcDbSymbolTableRecord
100
AcDbLayerTableRecord
  2
123
 70
     0
 62
   123
  6
CONTINUOUS
  0
LAYER
  5
B5
330
2
100
AcDbSymbolTableRecord
100
AcDbLayerTableRecord
  2
124
 70
     0
 62
   124
  6
CONTINUOUS
  0
LAYER
  5
B6
330
2
100
AcDbSymbolTableRecord
100
AcDbLayerTableRecord
  2
125
 70
     0
 62
   125
  6
CONTINUOUS
  0
LAYER
  5
B7
330
2
100
AcDbSymbolTableRecord
100
AcDbLayerTableRecord
  2
126
 70
     0
 62
   126
  6
CONTINUOUS
  0
LAYER
  5
B8
330
2
100
AcDbSymbolTableRecord
100
AcDbLayerTableRecord
  2
127
 70
     0
 62
   127
  6
CONTINUOUS
  0
LAYER
  5
B9
330
2
100
AcDbSymbolTableRecord
100
AcDbLayerTableRecord
  2
128
 70
     0
 62
   128
  6
CONTINUOUS
  0
LAYER
  5
BA
330
2
100
AcDbSymbolTableRecord
100
AcDbLayerTableRecord
  2
129
 70
     0
 62
   129
  6
CONTINUOUS
  0
LAYER
  5
BB
330
2
100
AcDbSymbolTableRecord
100
AcDbLayerTableRecord
  2
130
 70
     0
 62
   130
  6
CONTINUOUS
  0
LAYER
  5
BC
330
2
100
AcDbSymbolTableRecord
100
AcDbLayerTableRecord
  2
131
 70
     0
 62
   131
  6
CONTINUOUS
  0
LAYER
  5
BD
330
2
100
AcDbSymbolTableRecord
100
AcDbLayerTableRecord
  2
132
 70
     0
 62
   132
  6
CONTINUOUS
  0
LAYER
  5
BE
330
2
100
AcDbSymbolTableRecord
100
AcDbLayerTableRecord
  2
133
 70
     0
 62
   133
  6
CONTINUOUS
  0
LAYER
  5
BF
330
2
100
AcDbSymbolTableRecord
100
AcDbLayerTableRecord
  2
134
 70
     0
 62
   134
  6
CONTINUOUS
  0
LAYER
  5
C0
330
2
100
AcDbSymbolTableRecord
100
AcDbLayerTableRecord
  2
135
 70
     0
 62
   135
  6
CONTINUOUS
  0
LAYER
  5
C1
330
2
100
AcDbSymbolTableRecord
100
AcDbLayerTableRecord
  2
136
 70
     0
 62
   136
  6
CONTINUOUS
  0
LAYER
  5
C2
330
2
100
AcDbSymbolTableRecord
100
AcDbLayerTableRecord
  2
137
 70
     0
 62
   137
  6
CONTINUOUS
  0
LAYER
  5
C3
330
2
100
AcDbSymbolTableRecord
100
AcDbLayerTableRecord
  2
138
 70
     0
 62
   138
  6
CONTINUOUS
  0
LAYER
  5
C4
330
2
100
AcDbSymbolTableRecord
100
AcDbLayerTableRecord
  2
139
 70
     0
 62
   139
  6
CONTINUOUS
  0
LAYER
  5
C5
330
2
100
AcDbSymbolTableRecord
100
AcDbLayerTableRecord
  2
140
 70
     0
 62
   140
  6
CONTINUOUS
  0
LAYER
  5
C6
330
2
100
AcDbSymbolTableRecord
100
AcDbLayerTableRecord
  2
141
 70
     0
 62
   141
  6
CONTINUOUS
  0
LAYER
  5
C7
330
2
100
AcDbSymbolTableRecord
100
AcDbLayerTableRecord
  2
142
 70
     0
 62
   142
  6
CONTINUOUS
  0
LAYER
  5
C8
330
2
100
AcDbSymbolTableRecord
100
AcDbLayerTableRecord
  2
143
 70
     0
 62
   143
  6
CONTINUOUS
  0
LAYER
  5
C9
330
2
100
AcDbSymbolTableRecord
100
AcDbLayerTableRecord
  2
144
 70
     0
 62
   144
  6
CONTINUOUS
  0
LAYER
  5
CA
330
2
100
AcDbSymbolTableRecord
100
AcDbLayerTableRecord
  2
145
 70
     0
 62
   145
  6
CONTINUOUS
  0
LAYER
  5
CB
330
2
100
AcDbSymbolTableRecord
100
AcDbLayerTableRecord
  2
146
 70
     0
 62
   146
  6
CONTINUOUS
  0
LAYER
  5
CC
330
2
100
AcDbSymbolTableRecord
100
AcDbLayerTableRecord
  2
147
 70
     0
 62
   147
  6
CONTINUOUS
  0
LAYER
  5
CD
330
2
100
AcDbSymbolTableRecord
100
AcDbLayerTableRecord
  2
148
 70
     0
 62
   148
  6
CONTINUOUS
  0
LAYER
  5
CE
330
2
100
AcDbSymbolTableRecord
100
AcDbLayerTableRecord
  2
149
 70
     0
 62
   149
  6
CONTINUOUS
  0
LAYER
  5
CF
330
2
100
AcDbSymbolTableRecord
100
AcDbLayerTableRecord
  2
150
 70
     0
 62
   150
  6
CONTINUOUS
  0
LAYER
  5
D0
330
2
100
AcDbSymbolTableRecord
100
AcDbLayerTableRecord
  2
151
 70
     0
 62
   151
  6
CONTINUOUS
  0
LAYER
  5
D1
330
2
100
AcDbSymbolTableRecord
100
AcDbLayerTableRecord
  2
152
 70
     0
 62
   152
  6
CONTINUOUS
  0
LAYER
  5
D2
330
2
100
AcDbSymbolTableRecord
100
AcDbLayerTableRecord
  2
153
 70
     0
 62
   153
  6
CONTINUOUS
  0
LAYER
  5
D3
330
2
100
AcDbSymbolTableRecord
100
AcDbLayerTableRecord
  2
154
 70
     0
 62
   154
  6
CONTINUOUS
  0
LAYER
  5
D4
330
2
100
AcDbSymbolTableRecord
100
AcDbLayerTableRecord
  2
155
 70
     0
 62
   155
  6
CONTINUOUS
  0
LAYER
  5
D5
330
2
100
AcDbSymbolTableRecord
100
AcDbLayerTableRecord
  2
156
 70
     0
 62
   156
  6
CONTINUOUS
  0
LAYER
  5
D6
330
2
100
AcDbSymbolTableRecord
100
AcDbLayerTableRecord
  2
157
 70
     0
 62
   157
  6
CONTINUOUS
  0
LAYER
  5
D7
330
2
100
AcDbSymbolTableRecord
100
AcDbLayerTableRecord
  2
158
 70
     0
 62
   158
  6
CONTINUOUS
  0
LAYER
  5
D8
330
2
100
AcDbSymbolTableRecord
100
AcDbLayerTableRecord
  2
159
 70
     0
 62
   159
  6
CONTINUOUS
  0
LAYER
  5
D9
330
2
100
AcDbSymbolTableRecord
100
AcDbLayerTableRecord
  2
160
 70
     0
 62
   160
  6
CONTINUOUS
  0
LAYER
  5
DA
330
2
100
AcDbSymbolTableRecord
100
AcDbLayerTableRecord
  2
161
 70
     0
 62
   161
  6
CONTINUOUS
  0
LAYER
  5
DB
330
2
100
AcDbSymbolTableRecord
100
AcDbLayerTableRecord
  2
162
 70
     0
 62
   162
  6
CONTINUOUS
  0
LAYER
  5
DC
330
2
100
AcDbSymbolTableRecord
100
AcDbLayerTableRecord
  2
163
 70
     0
 62
   163
  6
CONTINUOUS
  0
LAYER
  5
DD
330
2
100
AcDbSymbolTableRecord
100
AcDbLayerTableRecord
  2
164
 70
     0
 62
   164
  6
CONTINUOUS
  0
LAYER
  5
DE
330
2
100
AcDbSymbolTableRecord
100
AcDbLayerTableRecord
  2
165
 70
     0
 62
   165
  6
CONTINUOUS
  0
LAYER
  5
DF
330
2
100
AcDbSymbolTableRecord
100
AcDbLayerTableRecord
  2
166
 70
     0
 62
   166
  6
CONTINUOUS
  0
LAYER
  5
E0
330
2
100
AcDbSymbolTableRecord
100
AcDbLayerTableRecord
  2
167
 70
     0
 62
   167
  6
CONTINUOUS
  0
LAYER
  5
E1
330
2
100
AcDbSymbolTableRecord
100
AcDbLayerTableRecord
  2
168
 70
     0
 62
   168
  6
CONTINUOUS
  0
LAYER
  5
E2
330
2
100
AcDbSymbolTableRecord
100
AcDbLayerTableRecord
  2
169
 70
     0
 62
   169
  6
CONTINUOUS
  0
LAYER
  5
E3
330
2
100
AcDbSymbolTableRecord
100
AcDbLayerTableRecord
  2
170
 70
     0
 62
   170
  6
CONTINUOUS
  0
LAYER
  5
E4
330
2
100
AcDbSymbolTableRecord
100
AcDbLayerTableRecord
  2
171
 70
     0
 62
   171
  6
CONTINUOUS
  0
LAYER
  5
E5
330
2
100
AcDbSymbolTableRecord
100
AcDbLayerTableRecord
  2
172
 70
     0
 62
   172
  6
CONTINUOUS
  0
LAYER
  5
E6
330
2
100
AcDbSymbolTableRecord
100
AcDbLayerTableRecord
  2
173
 70
     0
 62
   173
  6
CONTINUOUS
  0
LAYER
  5
E7
330
2
100
AcDbSymbolTableRecord
100
AcDbLayerTableRecord
  2
174
 70
     0
 62
   174
  6
CONTINUOUS
  0
LAYER
  5
E8
330
2
100
AcDbSymbolTableRecord
100
AcDbLayerTableRecord
  2
175
 70
     0
 62
   175
  6
CONTINUOUS
  0
LAYER
  5
E9
330
2
100
AcDbSymbolTableRecord
100
AcDbLayerTableRecord
  2
176
 70
     0
 62
   176
  6
CONTINUOUS
  0
LAYER
  5
EA
330
2
100
AcDbSymbolTableRecord
100
AcDbLayerTableRecord
  2
177
 70
     0
 62
   177
  6
CONTINUOUS
  0
LAYER
  5
EB
330
2
100
AcDbSymbolTableRecord
100
AcDbLayerTableRecord
  2
178
 70
     0
 62
   178
  6
CONTINUOUS
  0
LAYER
  5
EC
330
2
100
AcDbSymbolTableRecord
100
AcDbLayerTableRecord
  2
179
 70
     0
 62
   179
  6
CONTINUOUS
  0
LAYER
  5
ED
330
2
100
AcDbSymbolTableRecord
100
AcDbLayerTableRecord
  2
180
 70
     0
 62
   180
  6
CONTINUOUS
  0
LAYER
  5
EE
330
2
100
AcDbSymbolTableRecord
100
AcDbLayerTableRecord
  2
181
 70
     0
 62
   181
  6
CONTINUOUS
  0
LAYER
  5
EF
330
2
100
AcDbSymbolTableRecord
100
AcDbLayerTableRecord
  2
182
 70
     0
 62
   182
  6
CONTINUOUS
  0
LAYER
  5
F0
330
2
100
AcDbSymbolTableRecord
100
AcDbLayerTableRecord
  2
183
 70
     0
 62
   183
  6
CONTINUOUS
  0
LAYER
  5
F1
330
2
100
AcDbSymbolTableRecord
100
AcDbLayerTableRecord
  2
184
 70
     0
 62
   184
  6
CONTINUOUS
  0
LAYER
  5
F2
330
2
100
AcDbSymbolTableRecord
100
AcDbLayerTableRecord
  2
185
 70
     0
 62
   185
  6
CONTINUOUS
  0
LAYER
  5
F3
330
2
100
AcDbSymbolTableRecord
100
AcDbLayerTableRecord
  2
186
 70
     0
 62
   186
  6
CONTINUOUS
  0
LAYER
  5
F4
330
2
100
AcDbSymbolTableRecord
100
AcDbLayerTableRecord
  2
187
 70
     0
 62
   187
  6
CONTINUOUS
  0
LAYER
  5
F5
330
2
100
AcDbSymbolTableRecord
100
AcDbLayerTableRecord
  2
188
 70
     0
 62
   188
  6
CONTINUOUS
  0
LAYER
  5
F6
330
2
100
AcDbSymbolTableRecord
100
AcDbLayerTableRecord
  2
189
 70
     0
 62
   189
  6
CONTINUOUS
  0
LAYER
  5
F7
330
2
100
AcDbSymbolTableRecord
100
AcDbLayerTableRecord
  2
190
 70
     0
 62
   190
  6
CONTINUOUS
  0
LAYER
  5
F8
330
2
100
AcDbSymbolTableRecord
100
AcDbLayerTableRecord
  2
191
 70
     0
 62
   191
  6
CONTINUOUS
  0
LAYER
  5
F9
330
2
100
AcDbSymbolTableRecord
100
AcDbLayerTableRecord
  2
192
 70
     0
 62
   192
  6
CONTINUOUS
  0
LAYER
  5
FA
330
2
100
AcDbSymbolTableRecord
100
AcDbLayerTableRecord
  2
193
 70
     0
 62
   193
  6
CONTINUOUS
  0
LAYER
  5
FB
330
2
100
AcDbSymbolTableRecord
100
AcDbLayerTableRecord
  2
194
 70
     0
 62
   194
  6
CONTINUOUS
  0
LAYER
  5
FC
330
2
100
AcDbSymbolTableRecord
100
AcDbLayerTableRecord
  2
195
 70
     0
 62
   195
  6
CONTINUOUS
  0
LAYER
  5
FD
330
2
100
AcDbSymbolTableRecord
100
AcDbLayerTableRecord
  2
196
 70
     0
 62
   196
  6
CONTINUOUS
  0
LAYER
  5
FE
330
2
100
AcDbSymbolTableRecord
100
AcDbLayerTableRecord
  2
197
 70
     0
 62
   197
  6
CONTINUOUS
  0
LAYER
  5
FF
330
2
100
AcDbSymbolTableRecord
100
AcDbLayerTableRecord
  2
198
 70
     0
 62
   198
  6
CONTINUOUS
  0
LAYER
  5
100
330
2
100
AcDbSymbolTableRecord
100
AcDbLayerTableRecord
  2
199
 70
     0
 62
   199
  6
CONTINUOUS
  0
LAYER
  5
101
330
2
100
AcDbSymbolTableRecord
100
AcDbLayerTableRecord
  2
200
 70
     0
 62
   200
  6
CONTINUOUS
  0
LAYER
  5
102
330
2
100
AcDbSymbolTableRecord
100
AcDbLayerTableRecord
  2
201
 70
     0
 62
   201
  6
CONTINUOUS
  0
LAYER
  5
103
330
2
100
AcDbSymbolTableRecord
100
AcDbLayerTableRecord
  2
202
 70
     0
 62
   202
  6
CONTINUOUS
  0
LAYER
  5
104
330
2
100
AcDbSymbolTableRecord
100
AcDbLayerTableRecord
  2
203
 70
     0
 62
   203
  6
CONTINUOUS
  0
LAYER
  5
105
330
2
100
AcDbSymbolTableRecord
100
AcDbLayerTableRecord
  2
204
 70
     0
 62
   204
  6
CONTINUOUS
  0
LAYER
  5
106
330
2
100
AcDbSymbolTableRecord
100
AcDbLayerTableRecord
  2
205
 70
     0
 62
   205
  6
CONTINUOUS
  0
LAYER
  5
107
330
2
100
AcDbSymbolTableRecord
100
AcDbLayerTableRecord
  2
206
 70
     0
 62
   206
  6
CONTINUOUS
  0
LAYER
  5
108
330
2
100
AcDbSymbolTableRecord
100
AcDbLayerTableRecord
  2
207
 70
     0
 62
   207
  6
CONTINUOUS
  0
LAYER
  5
109
330
2
100
AcDbSymbolTableRecord
100
AcDbLayerTableRecord
  2
208
 70
     0
 62
   208
  6
CONTINUOUS
  0
LAYER
  5
10A
330
2
100
AcDbSymbolTableRecord
100
AcDbLayerTableRecord
  2
209
 70
     0
 62
   209
  6
CONTINUOUS
  0
LAYER
  5
10B
330
2
100
AcDbSymbolTableRecord
100
AcDbLayerTableRecord
  2
210
 70
     0
 62
   210
  6
CONTINUOUS
  0
LAYER
  5
10C
330
2
100
AcDbSymbolTableRecord
100
AcDbLayerTableRecord
  2
211
 70
     0
 62
   211
  6
CONTINUOUS
  0
LAYER
  5
10D
330
2
100
AcDbSymbolTableRecord
100
AcDbLayerTableRecord
  2
212
 70
     0
 62
   212
  6
CONTINUOUS
  0
LAYER
  5
10E
330
2
100
AcDbSymbolTableRecord
100
AcDbLayerTableRecord
  2
213
 70
     0
 62
   213
  6
CONTINUOUS
  0
LAYER
  5
10F
330
2
100
AcDbSymbolTableRecord
100
AcDbLayerTableRecord
  2
214
 70
     0
 62
   214
  6
CONTINUOUS
  0
LAYER
  5
110
330
2
100
AcDbSymbolTableRecord
100
AcDbLayerTableRecord
  2
215
 70
     0
 62
   215
  6
CONTINUOUS
  0
LAYER
  5
111
330
2
100
AcDbSymbolTableRecord
100
AcDbLayerTableRecord
  2
216
 70
     0
 62
   216
  6
CONTINUOUS
  0
LAYER
  5
112
330
2
100
AcDbSymbolTableRecord
100
AcDbLayerTableRecord
  2
217
 70
     0
 62
   217
  6
CONTINUOUS
  0
LAYER
  5
113
330
2
100
AcDbSymbolTableRecord
100
AcDbLayerTableRecord
  2
218
 70
     0
 62
   218
  6
CONTINUOUS
  0
LAYER
  5
114
330
2
100
AcDbSymbolTableRecord
100
AcDbLayerTableRecord
  2
219
 70
     0
 62
   219
  6
CONTINUOUS
  0
LAYER
  5
115
330
2
100
AcDbSymbolTableRecord
100
AcDbLayerTableRecord
  2
220
 70
     0
 62
   220
  6
CONTINUOUS
  0
LAYER
  5
116
330
2
100
AcDbSymbolTableRecord
100
AcDbLayerTableRecord
  2
221
 70
     0
 62
   221
  6
CONTINUOUS
  0
LAYER
  5
117
330
2
100
AcDbSymbolTableRecord
100
AcDbLayerTableRecord
  2
222
 70
     0
 62
   222
  6
CONTINUOUS
  0
LAYER
  5
118
330
2
100
AcDbSymbolTableRecord
100
AcDbLayerTableRecord
  2
223
 70
     0
 62
   223
  6
CONTINUOUS
  0
LAYER
  5
119
330
2
100
AcDbSymbolTableRecord
100
AcDbLayerTableRecord
  2
224
 70
     0
 62
   224
  6
CONTINUOUS
  0
LAYER
  5
11A
330
2
100
AcDbSymbolTableRecord
100
AcDbLayerTableRecord
  2
225
 70
     0
 62
   225
  6
CONTINUOUS
  0
LAYER
  5
11B
330
2
100
AcDbSymbolTableRecord
100
AcDbLayerTableRecord
  2
226
 70
     0
 62
   226
  6
CONTINUOUS
  0
LAYER
  5
11C
330
2
100
AcDbSymbolTableRecord
100
AcDbLayerTableRecord
  2
227
 70
     0
 62
   227
  6
CONTINUOUS
  0
LAYER
  5
11D
330
2
100
AcDbSymbolTableRecord
100
AcDbLayerTableRecord
  2
228
 70
     0
 62
   228
  6
CONTINUOUS
  0
LAYER
  5
11E
330
2
100
AcDbSymbolTableRecord
100
AcDbLayerTableRecord
  2
229
 70
     0
 62
   229
  6
CONTINUOUS
  0
LAYER
  5
11F
330
2
100
AcDbSymbolTableRecord
100
AcDbLayerTableRecord
  2
230
 70
     0
 62
   230
  6
CONTINUOUS
  0
LAYER
  5
120
330
2
100
AcDbSymbolTableRecord
100
AcDbLayerTableRecord
  2
231
 70
     0
 62
   231
  6
CONTINUOUS
  0
LAYER
  5
121
330
2
100
AcDbSymbolTableRecord
100
AcDbLayerTableRecord
  2
232
 70
     0
 62
   232
  6
CONTINUOUS
  0
LAYER
  5
122
330
2
100
AcDbSymbolTableRecord
100
AcDbLayerTableRecord
  2
233
 70
     0
 62
   233
  6
CONTINUOUS
  0
LAYER
  5
123
330
2
100
AcDbSymbolTableRecord
100
AcDbLayerTableRecord
  2
234
 70
     0
 62
   234
  6
CONTINUOUS
  0
LAYER
  5
124
330
2
100
AcDbSymbolTableRecord
100
AcDbLayerTableRecord
  2
235
 70
     0
 62
   235
  6
CONTINUOUS
  0
LAYER
  5
125
330
2
100
AcDbSymbolTableRecord
100
AcDbLayerTableRecord
  2
236
 70
     0
 62
   236
  6
CONTINUOUS
  0
LAYER
  5
126
330
2
100
AcDbSymbolTableRecord
100
AcDbLayerTableRecord
  2
237
 70
     0
 62
   237
  6
CONTINUOUS
  0
LAYER
  5
127
330
2
100
AcDbSymbolTableRecord
100
AcDbLayerTableRecord
  2
238
 70
     0
 62
   238
  6
CONTINUOUS
  0
LAYER
  5
128
330
2
100
AcDbSymbolTableRecord
100
AcDbLayerTableRecord
  2
239
 70
     0
 62
   239
  6
CONTINUOUS
  0
LAYER
  5
129
330
2
100
AcDbSymbolTableRecord
100
AcDbLayerTableRecord
  2
240
 70
     0
 62
   240
  6
CONTINUOUS
  0
LAYER
  5
12A
330
2
100
AcDbSymbolTableRecord
100
AcDbLayerTableRecord
  2
241
 70
     0
 62
   241
  6
CONTINUOUS
  0
LAYER
  5
12B
330
2
100
AcDbSymbolTableRecord
100
AcDbLayerTableRecord
  2
242
 70
     0
 62
   242
  6
CONTINUOUS
  0
LAYER
  5
12C
330
2
100
AcDbSymbolTableRecord
100
AcDbLayerTableRecord
  2
243
 70
     0
 62
   243
  6
CONTINUOUS
  0
LAYER
  5
12D
330
2
100
AcDbSymbolTableRecord
100
AcDbLayerTableRecord
  2
244
 70
     0
 62
   244
  6
CONTINUOUS
  0
LAYER
  5
12E
330
2
100
AcDbSymbolTableRecord
100
AcDbLayerTableRecord
  2
245
 70
     0
 62
   245
  6
CONTINUOUS
  0
LAYER
  5
12F
330
2
100
AcDbSymbolTableRecord
100
AcDbLayerTableRecord
  2
246
 70
     0
 62
   246
  6
CONTINUOUS
  0
LAYER
  5
130
330
2
100
AcDbSymbolTableRecord
100
AcDbLayerTableRecord
  2
247
 70
     0
 62
   247
  6
CONTINUOUS
  0
LAYER
  5
131
330
2
100
AcDbSymbolTableRecord
100
AcDbLayerTableRecord
  2
248
 70
     0
 62
   248
  6
CONTINUOUS
  0
LAYER
  5
132
330
2
100
AcDbSymbolTableRecord
100
AcDbLayerTableRecord
  2
249
 70
     0
 62
   249
  6
CONTINUOUS
  0
LAYER
  5
133
330
2
100
AcDbSymbolTableRecord
100
AcDbLayerTableRecord
  2
250
 70
     0
 62
   250
  6
CONTINUOUS
  0
LAYER
  5
134
330
2
100
AcDbSymbolTableRecord
100
AcDbLayerTableRecord
  2
251
 70
     0
 62
   251
  6
CONTINUOUS
  0
LAYER
  5
135
330
2
100
AcDbSymbolTableRecord
100
AcDbLayerTableRecord
  2
252
 70
     0
 62
   252
  6
CONTINUOUS
  0
LAYER
  5
136
330
2
100
AcDbSymbolTableRecord
100
AcDbLayerTableRecord
  2
253
 70
     0
 62
   253
  6
CONTINUOUS
  0
LAYER
  5
137
330
2
100
AcDbSymbolTableRecord
100
AcDbLayerTableRecord
  2
254
 70
     0
 62
   254
  6
CONTINUOUS
  0
LAYER
  5
138
330
2
100
AcDbSymbolTableRecord
100
AcDbLayerTableRecord
  2
255
 70
     0
 62
   255
  6
CONTINUOUS
  0
ENDTAB
  0
TABLE
  2
STYLE
  5
3
330
0
100
AcDbSymbolTable
 70
     1
  0
STYLE
  5
11
330
3
100
AcDbSymbolTableRecord
100
AcDbTextStyleTableRecord
  2
STANDARD
 70
     0
 40
0.0
 41
1.0
 50
0.0
 71
     0
 42
0.2
  3
txt
  4

  0
ENDTAB
  0
TABLE
  2
VIEW
  5
6
330
0
100
AcDbSymbolTable
 70
     0
  0
ENDTAB
  0
TABLE
  2
UCS
  5
7
330
0
100
AcDbSymbolTable
 70
     0
  0
ENDTAB
  0
TABLE
  2
APPID
  5
9
330
0
100
AcDbSymbolTable
 70
     1
  0
APPID
  5
12
330
9
100
AcDbSymbolTableRecord
100
AcDbRegAppTableRecord
  2
ACAD
 70
     0
  0
ENDTAB
  0
TABLE
  2
DIMSTYLE
  5
A
330
0
100
AcDbSymbolTable
 70
     1
  0
DIMSTYLE
105
32B7
330
A
100
AcDbSymbolTableRecord
100
AcDbDimStyleTableRecord
  2
STANDARD
 70
     0
  3

  4

  5

  6

  7

 40
1.0
 41
0.18
 42
0.0625
 43
0.38
 44
0.18
 45
0.0
 46
0.0
 47
0.0
 48
0.0
140
0.18
141
0.09
142
0.0
143
25.4
144
1.0
145
0.0
146
1.0
147
0.09
 71
     0
 72
     0
 73
     1
 74
     1
 75
     0
 76
     0
 77
     0
 78
     0
170
     0
171
     2
172
     0
173
     0
174
     0
175
     0
176
     0
177
     0
178
     0
270
     2
271
     4
272
     4
273
     2
274
     2
340
11
275
     0
280
     0
281
     0
282
     0
283
     1
284
     0
285
     0
286
     0
287
     3
288
     0
  0
ENDTAB
  0
TABLE
  2
BLOCK_RECORD
  5
1
330
0
100
AcDbSymbolTable
 70
     0
  0
BLOCK_RECORD
  5
1E
102
{ACAD_XDICTIONARY
360
32BE
102
}
330
1
100
AcDbSymbolTableRecord
100
AcDbBlockTableRecord
  2
*MODEL_SPACE
  0
BLOCK_RECORD
  5
1A
102
{ACAD_XDICTIONARY
360
32BC
102
}
330
1
100
AcDbSymbolTableRecord
100
AcDbBlockTableRecord
  2
*PAPER_SPACE
  0
ENDTAB
  0
ENDSEC
  0
SECTION
  2
BLOCKS
  0
BLOCK
  5
13B
330
1E
100
AcDbEntity
  8
0
100
AcDbBlockBegin
  2
*MODEL_SPACE
 70
     0
 10
0.0
 20
0.0
 30
0.0
  3
*MODEL_SPACE
  1

  0
ENDBLK
  5
13C
330
1E
100
AcDbEntity
  8
0
100
AcDbBlockEnd
  0
BLOCK
  5
139
330
1A
100
AcDbEntity
 67
     1
  8
0
100
AcDbBlockBegin
  2
*PAPER_SPACE
 70
     0
 10
0.0
 20
0.0
 30
0.0
  3
*PAPER_SPACE
  1

  0
ENDBLK
  5
13A
330
1A
100
AcDbEntity
 67
     1
  8
0
100
AcDbBlockEnd
  0
ENDSEC
  0
SECTION
  2
ENTITIES
  0
LINE
  5
2AD7
330
1E
100
AcDbEntity
  8
0
100
AcDbLine
 10
2.777878712501022
 20
3.686583630127152
 30
0.0
 11
2.781828909351416
 21
3.683950165560223
 31
0.0
  0
LINE
  5
2AD8
330
1E
100
AcDbEntity
  8
0
100
AcDbLine
 10
2.781828909351416
 20
8.145039141938177
 30
0.0
 11
2.781828909351416
 21
3.683950165560223
 31
0.0
  0
LINE
  5
2AD9
330
1E
100
AcDbEntity
  8
0
100
AcDbLine
 10
2.781828909351416
 20
8.145039141938177
 30
0.0
 11
2.777878712501022
 21
8.141088945087782
 31
0.0
  0
POLYLINE
  5
2ADA
330
1E
100
AcDbEntity
  8
0
100
AcDb2dPolyline
 66
     1
 10
0.0
 20
0.0
 30
0.0
  0
VERTEX
  5
32C0
330
2ADA
100
AcDbEntity
  8
0
100
AcDbVertex
100
AcDb2dVertex
 10
2.781828909351416
 20
3.683950165560223
 30
0.0
  0
VERTEX
  5
32C1
330
2ADA
100
AcDbEntity
  8
0
100
AcDbVertex
100
AcDb2dVertex
 10
2.777878712501022
 20
3.668149378158648
 30
0.0
  0
VERTEX
  5
32C2
330
2ADA
100
AcDbEntity
  8
0
100
AcDbVertex
100
AcDb2dVertex
 10
2.76602812194984
 20
3.657615519890931
 30
0.0
  0
VERTEX
  5
32C3
330
2ADA
100
AcDbEntity
  8
0
100
AcDbVertex
100
AcDb2dVertex
 10
2.75154406683173
 20
3.653665323040538
 30
0.0
  0
SEQEND
  5
32C4
330
2ADA
100
AcDbEntity
  8
0
  0
LINE
  5
2AE0
330
1E
100
AcDbEntity
  8
0
100
AcDbLine
 10
0.0456592243120451
 20
3.653665323040538
 30
0.0
 11
2.75154406683173
 21
3.653665323040538
 31
0.0
  0
POLYLINE
  5
2AE1
330
1E
100
AcDbEntity
  8
0
100
AcDb2dPolyline
 66
     1
 10
0.0
 20
0.0
 30
0.0
  0
VERTEX
  5
32C5
330
2AE1
100
AcDbEntity
  8
0
100
AcDbVertex
100
AcDb2dVertex
 10
0.0456592243120457
 20
3.653665323040538
 30
0.0
  0
VERTEX
  5
32C6
330
2AE1
100
AcDbEntity
  8
0
100
AcDbVertex
100
AcDb2dVertex
 10
0.0311751691939355
 20
3.657615519890931
 30
0.0
  0
VERTEX
  5
32C7
330
2AE1
100
AcDbEntity
  8
0
100
AcDbVertex
100
AcDb2dVertex
 10
0.0206413109262189
 20
3.668149378158648
 30
0.0
  0
VERTEX
  5
32C8
330
2AE1
100
AcDbEntity
  8
0
100
AcDbVertex
100
AcDb2dVertex
 10
0.0166911140758253
 20
3.683950165560223
 30
0.0
  0
SEQEND
  5
32C9
330
2AE1
100
AcDbEntity
  8
0
  0
LINE
  5
2AE7
330
1E
100
AcDbEntity
  8
0
100
AcDbLine
 10
0.0166911140758259
 20
8.145039141938177
 30
0.0
 11
0.0166911140758259
 21
3.683950165560223
 31
0.0
  0
POLYLINE
  5
2AE8
330
1E
100
AcDbEntity
  8
0
100
AcDb2dPolyline
 66
     1
 10
0.0
 20
0.0
 30
0.0
  0
VERTEX
  5
32CA
330
2AE8
100
AcDbEntity
  8
0
100
AcDbVertex
100
AcDb2dVertex
 10
0.0166911140758253
 20
8.145039141938175
 30
0.0
  0
VERTEX
  5
32CB
330
2AE8
100
AcDbEntity
  8
0
100
AcDbVertex
100
AcDb2dVertex
 10
0.0206413109262189
 20
8.159523197056286
 30
0.0
  0
VERTEX
  5
32CC
330
2AE8
100
AcDbEntity
  8
0
100
AcDbVertex
100
AcDb2dVertex
 10
0.0311751691939355
 20
8.170057055324003
 30
0.0
  0
VERTEX
  5
32CD
330
2AE8
100
AcDbEntity
  8
0
100
AcDbVertex
100
AcDb2dVertex
 10
0.0456592243120457
 20
8.174007252174396
 30
0.0
  0
SEQEND
  5
32CE
330
2AE8
100
AcDbEntity
  8
0
  0
LINE
  5
2AEE
330
1E
100
AcDbEntity
  8
0
100
AcDbLine
 10
0.0456592243120451
 20
8.174007252174398
 30
0.0
 11
2.75154406683173
 21
8.174007252174398
 31
0.0
  0
POLYLINE
  5
2AEF
330
1E
100
AcDbEntity
  8
0
100
AcDb2dPolyline
 66
     1
 10
0.0
 20
0.0
 30
0.0
  0
VERTEX
  5
32CF
330
2AEF
100
AcDbEntity
  8
0
100
AcDbVertex
100
AcDb2dVertex
 10
2.75154406683173
 20
8.174007252174396
 30
0.0
  0
VERTEX
  5
32D0
330
2AEF
100
AcDbEntity
  8
0
100
AcDbVertex
100
AcDb2dVertex
 10
2.76602812194984
 20
8.170057055324003
 30
0.0
  0
VERTEX
  5
32D1
330
2AEF
100
AcDbEntity
  8
0
100
AcDbVertex
100
AcDb2dVertex
 10
2.777878712501022
 20
8.159523197056286
 30
0.0
  0
VERTEX
  5
32D2
330
2AEF
100
AcDbEntity
  8
0
100
AcDbVertex
100
AcDb2dVertex
 10
2.781828909351416
 20
8.145039141938175
 30
0.0
  0
SEQEND
  5
32D3
330
2AEF
100
AcDbEntity
  8
0
  0
LINE
  5
2AF5
330
1E
100
AcDbEntity
  8
0
100
AcDbLine
 10
0.0193245786427543
 20
8.141088945087782
 30
0.0
 11
0.0166911140758259
 21
8.145039141938177
 31
0.0
  0
LINE
  5
2AF6
330
1E
100
AcDbEntity
  8
0
100
AcDbLine
 10
0.0166911140758259
 20
3.683950165560223
 30
0.0
 11
0.0193245786427543
 21
3.686583630127152
 31
0.0
  0
LINE
  5
2AF7
330
1E
100
AcDbEntity
  8
0
100
AcDbLine
 10
0.6316050904537774
 20
4.539826149812191
 30
0.0
 11
0.639505484154566
 21
4.531925756111404
 31
0.0
  0
LINE
  5
2AF8
330
1E
100
AcDbEntity
  8
0
100
AcDbLine
 10
0.639505484154566
 20
4.531925756111404
 30
0.0
 11
0.6908580432096843
 21
4.531925756111404
 31
0.0
  0
LINE
  5
2AF9
330
1E
100
AcDbEntity
  8
0
100
AcDbLine
 10
0.8317483975403918
 20
4.531925756111404
 30
0.0
 11
0.8844176888789752
 21
4.531925756111404
 31
0.0
  0
LINE
  5
2AFA
330
1E
100
AcDbEntity
  8
0
100
AcDbLine
 10
0.8844176888789752
 20
4.531925756111404
 30
0.0
 11
0.892318082579762
 21
4.539826149812191
 31
0.0
  0
LINE
  5
2AFB
330
1E
100
AcDbEntity
  8
0
100
AcDbLine
 10
1.475630484154565
 20
4.512174771859435
 30
0.0
 11
1.469046822737242
 21
4.512174771859435
 31
0.0
  0
LINE
  5
2AFC
330
1E
100
AcDbEntity
  8
0
100
AcDbLine
 10
1.328156468406533
 20
4.512174771859435
 30
0.0
 11
1.321572806989211
 21
4.512174771859435
 31
0.0
  0
LINE
  5
2AFD
330
1E
100
AcDbEntity
  8
0
100
AcDbLine
 10
1.321572806989211
 20
4.512174771859435
 30
0.0
 11
1.321572806989211
 21
4.501640913591719
 31
0.0
  0
LINE
  5
2AFE
330
1E
100
AcDbEntity
  8
0
100
AcDbLine
 10
1.475630484154565
 20
4.501640913591719
 30
0.0
 11
1.475630484154565
 21
4.512174771859435
 31
0.0
  0
LINE
  5
2AFF
330
1E
100
AcDbEntity
  8
0
100
AcDbLine
 10
1.904885208564014
 20
4.539826149812191
 30
0.0
 11
1.912785602264801
 21
4.531925756111404
 31
0.0
  0
LINE
  5
2B00
330
1E
100
AcDbEntity
  8
0
100
AcDbLine
 10
1.912785602264801
 20
4.531925756111404
 30
0.0
 11
1.965454893603384
 21
4.531925756111404
 31
0.0
  0
LINE
  5
2B01
330
1E
100
AcDbEntity
  8
0
100
AcDbLine
 10
2.106345247934092
 20
4.531925756111404
 30
0.0
 11
2.157697806989211
 21
4.531925756111404
 31
0.0
  0
LINE
  5
2B02
330
1E
100
AcDbEntity
  8
0
100
AcDbLine
 10
2.157697806989211
 20
4.531925756111404
 30
0.0
 11
2.166914932973463
 21
4.539826149812191
 31
0.0
  0
LINE
  5
2B03
330
1E
100
AcDbEntity
  8
0
100
AcDbLine
 10
2.086594263682124
 20
7.287846425402743
 30
0.0
 11
2.077377137697872
 21
7.295746819103531
 31
0.0
  0
LINE
  5
2B04
330
1E
100
AcDbEntity
  8
0
100
AcDbLine
 10
2.077377137697872
 20
7.295746819103531
 30
0.0
 11
2.026024578642754
 21
7.295746819103531
 31
0.0
  0
LINE
  5
2B05
330
1E
100
AcDbEntity
  8
0
100
AcDbLine
 10
1.885134224312045
 20
7.295746819103531
 30
0.0
 11
1.833781665256927
 21
7.295746819103531
 31
0.0
  0
LINE
  5
2B06
330
1E
100
AcDbEntity
  8
0
100
AcDbLine
 10
1.833781665256927
 20
7.295746819103531
 30
0.0
 11
1.824564539272675
 21
7.287846425402743
 31
0.0
  0
LINE
  5
2B07
330
1E
100
AcDbEntity
  8
0
100
AcDbLine
 10
1.321572806989211
 20
7.32734839390668
 30
0.0
 11
1.321572806989211
 21
7.316814535638964
 31
0.0
  0
LINE
  5
2B08
330
1E
100
AcDbEntity
  8
0
100
AcDbLine
 10
1.321572806989211
 20
7.316814535638964
 30
0.0
 11
1.328156468406533
 21
7.316814535638964
 31
0.0
  0
LINE
  5
2B09
330
1E
100
AcDbEntity
  8
0
100
AcDbLine
 10
1.469046822737242
 20
7.316814535638964
 30
0.0
 11
1.475630484154565
 21
7.316814535638964
 31
0.0
  0
LINE
  5
2B0A
330
1E
100
AcDbEntity
  8
0
100
AcDbLine
 10
1.475630484154565
 20
7.316814535638964
 30
0.0
 11
1.475630484154565
 21
7.32734839390668
 31
0.0
  0
LINE
  5
2B0B
330
1E
100
AcDbEntity
  8
0
100
AcDbLine
 10
0.9726387518711003
 20
7.287846425402743
 30
0.0
 11
0.9647383581703135
 21
7.295746819103531
 31
0.0
  0
LINE
  5
2B0C
330
1E
100
AcDbEntity
  8
0
100
AcDbLine
 10
0.9647383581703135
 20
7.295746819103531
 30
0.0
 11
0.912069066831731
 21
7.295746819103531
 31
0.0
  0
LINE
  5
2B0D
330
1E
100
AcDbEntity
  8
0
100
AcDbLine
 10
0.7711787125010217
 20
7.295746819103531
 30
0.0
 11
0.7198261534459034
 21
7.295746819103531
 31
0.0
  0
LINE
  5
2B0E
330
1E
100
AcDbEntity
  8
0
100
AcDbLine
 10
0.7198261534459034
 20
7.295746819103531
 30
0.0
 11
0.7119257597451166
 21
7.287846425402743
 31
0.0
  0
POLYLINE
  5
2B0F
330
1E
100
AcDbEntity
  8
0
100
AcDb2dPolyline
 66
     1
 10
0.0
 20
0.0
 30
0.0
  0
VERTEX
  5
32D4
330
2B0F
100
AcDbEntity
  8
0
100
AcDbVertex
100
AcDb2dVertex
 10
0.3748422951781876
 20
4.48452339390668
 30
0.0
  0
VERTEX
  5
32D5
330
2B0F
100
AcDbEntity
  8
0
100
AcDbVertex
100
AcDb2dVertex
 10
0.378792492028581
 20
4.500324181308255
 30
0.0
  0
VERTEX
  5
32D6
330
2B0F
100
AcDbEntity
  8
0
100
AcDbVertex
100
AcDb2dVertex
 10
0.3893263502962976
 20
4.510858039575971
 30
0.0
  0
VERTEX
  5
32D7
330
2B0F
100
AcDbEntity
  8
0
100
AcDbVertex
100
AcDb2dVertex
 10
0.4051271376978728
 20
4.514808236426365
 30
0.0
  0
SEQEND
  5
32D8
330
2B0F
100
AcDbEntity
  8
0
  0
LINE
  5
2B15
330
1E
100
AcDbEntity
  8
0
100
AcDbLine
 10
0.4051271376978729
 20
4.514808236426365
 30
0.0
 11
1.317622610138817
 21
4.514808236426365
 31
0.0
  0
LINE
  5
2B16
330
1E
100
AcDbEntity
  8
0
100
AcDbLine
 10
1.317622610138817
 20
4.514808236426365
 30
0.0
 11
1.317622610138817
 21
4.537192685245263
 31
0.0
  0
LINE
  5
2B17
330
1E
100
AcDbEntity
  8
0
100
AcDbLine
 10
1.479580681004958
 20
4.537192685245263
 30
0.0
 11
1.479580681004958
 21
4.514808236426365
 31
0.0
  0
LINE
  5
2B18
330
1E
100
AcDbEntity
  8
0
100
AcDbLine
 10
1.479580681004958
 20
4.514808236426365
 30
0.0
 11
2.392076153445903
 21
4.514808236426365
 31
0.0
  0
POLYLINE
  5
2B19
330
1E
100
AcDbEntity
  8
0
100
AcDb2dPolyline
 66
     1
 10
0.0
 20
0.0
 30
0.0
  0
VERTEX
  5
32D9
330
2B19
100
AcDbEntity
  8
0
100
AcDbVertex
100
AcDb2dVertex
 10
2.392076153445903
 20
4.514808236426365
 30
0.0
  0
VERTEX
  5
32DA
330
2B19
100
AcDbEntity
  8
0
100
AcDbVertex
100
AcDb2dVertex
 10
2.407876940847478
 20
4.510858039575971
 30
0.0
  0
VERTEX
  5
32DB
330
2B19
100
AcDbEntity
  8
0
100
AcDbVertex
100
AcDb2dVertex
 10
2.418410799115195
 20
4.500324181308255
 30
0.0
  0
VERTEX
  5
32DC
330
2B19
100
AcDbEntity
  8
0
100
AcDbVertex
100
AcDb2dVertex
 10
2.422360995965588
 20
4.48452339390668
 30
0.0
  0
SEQEND
  5
32DD
330
2B19
100
AcDbEntity
  8
0
  0
LINE
  5
2B1F
330
1E
100
AcDbEntity
  8
0
100
AcDbLine
 10
2.422360995965588
 20
4.48452339390668
 30
0.0
 11
2.422360995965588
 21
4.051318472646837
 31
0.0
  0
POLYLINE
  5
2B20
330
1E
100
AcDbEntity
  8
0
100
AcDb2dPolyline
 66
     1
 10
0.0
 20
0.0
 30
0.0
  0
VERTEX
  5
32DE
330
2B20
100
AcDbEntity
  8
0
100
AcDbVertex
100
AcDb2dVertex
 10
2.422360995965588
 20
4.051318472646837
 30
0.0
  0
VERTEX
  5
32DF
330
2B20
100
AcDbEntity
  8
0
100
AcDbVertex
100
AcDb2dVertex
 10
2.418410799115195
 20
4.036834417528726
 30
0.0
  0
VERTEX
  5
32E0
330
2B20
100
AcDbEntity
  8
0
100
AcDbVertex
100
AcDb2dVertex
 10
2.407876940847478
 20
4.024983826977546
 30
0.0
  0
VERTEX
  5
32E1
330
2B20
100
AcDbEntity
  8
0
100
AcDbVertex
100
AcDb2dVertex
 10
2.392076153445903
 20
4.021033630127152
 30
0.0
  0
SEQEND
  5
32E2
330
2B20
100
AcDbEntity
  8
0
  0
LINE
  5
2B26
330
1E
100
AcDbEntity
  8
0
100
AcDbLine
 10
0.4051271376978729
 20
4.021033630127152
 30
0.0
 11
2.392076153445903
 21
4.021033630127152
 31
0.0
  0
POLYLINE
  5
2B27
330
1E
100
AcDbEntity
  8
0
100
AcDb2dPolyline
 66
     1
 10
0.0
 20
0.0
 30
0.0
  0
VERTEX
  5
32E3
330
2B27
100
AcDbEntity
  8
0
100
AcDbVertex
100
AcDb2dVertex
 10
0.4051271376978728
 20
4.021033630127152
 30
0.0
  0
VERTEX
  5
32E4
330
2B27
100
AcDbEntity
  8
0
100
AcDbVertex
100
AcDb2dVertex
 10
0.3893263502962976
 20
4.024983826977546
 30
0.0
  0
VERTEX
  5
32E5
330
2B27
100
AcDbEntity
  8
0
100
AcDbVertex
100
AcDb2dVertex
 10
0.378792492028581
 20
4.036834417528726
 30
0.0
  0
VERTEX
  5
32E6
330
2B27
100
AcDbEntity
  8
0
100
AcDbVertex
100
AcDb2dVertex
 10
0.3748422951781876
 20
4.051318472646837
 30
0.0
  0
SEQEND
  5
32E7
330
2B27
100
AcDbEntity
  8
0
  0
LINE
  5
2B2D
330
1E
100
AcDbEntity
  8
0
100
AcDbLine
 10
0.3748422951781869
 20
4.051318472646837
 30
0.0
 11
0.3748422951781869
 21
4.48452339390668
 31
0.0
  0
LINE
  5
2B2E
330
1E
100
AcDbEntity
  8
0
100
AcDbLine
 10
0.8844176888789752
 20
4.581961582883057
 30
0.0
 11
0.8857344211624393
 21
4.581961582883057
 31
0.0
  0
POLYLINE
  5
2B2F
330
1E
100
AcDbEntity
  8
0
100
AcDb2dPolyline
 66
     1
 10
0.0
 20
0.0
 30
0.0
  0
VERTEX
  5
32E8
330
2B2F
100
AcDbEntity
  8
0
100
AcDbVertex
100
AcDb2dVertex
 10
0.8857344211624395
 20
4.581961582883057
 30
0.0
  0
VERTEX
  5
32E9
330
2B2F
100
AcDbEntity
  8
0
100
AcDbVertex
100
AcDb2dVertex
 10
0.8962682794301562
 20
4.576694653749199
 30
0.0
  0
VERTEX
  5
32EA
330
2B2F
100
AcDbEntity
  8
0
100
AcDbVertex
100
AcDb2dVertex
 10
0.9015352085640142
 20
4.566160795481483
 30
0.0
  0
SEQEND
  5
32EB
330
2B2F
100
AcDbEntity
  8
0
  0
LINE
  5
2B34
330
1E
100
AcDbEntity
  8
0
100
AcDbLine
 10
0.901535208564014
 20
4.566160795481483
 30
0.0
 11
0.901535208564014
 21
4.535875952961799
 31
0.0
  0
POLYLINE
  5
2B35
330
1E
100
AcDbEntity
  8
0
100
AcDb2dPolyline
 66
     1
 10
0.0
 20
0.0
 30
0.0
  0
VERTEX
  5
32EC
330
2B35
100
AcDbEntity
  8
0
100
AcDbVertex
100
AcDb2dVertex
 10
0.9015352085640142
 20
4.535875952961799
 30
0.0
  0
VERTEX
  5
32ED
330
2B35
100
AcDbEntity
  8
0
100
AcDbVertex
100
AcDb2dVertex
 10
0.8962682794301562
 20
4.524025362410617
 30
0.0
  0
VERTEX
  5
32EE
330
2B35
100
AcDbEntity
  8
0
100
AcDbVertex
100
AcDb2dVertex
 10
0.8857344211624395
 20
4.518758433276758
 30
0.0
  0
SEQEND
  5
32EF
330
2B35
100
AcDbEntity
  8
0
  0
LINE
  5
2B3A
330
1E
100
AcDbEntity
  8
0
100
AcDbLine
 10
0.8857344211624393
 20
4.518758433276758
 30
0.0
 11
0.638188751871101
 21
4.518758433276758
 31
0.0
  0
POLYLINE
  5
2B3B
330
1E
100
AcDbEntity
  8
0
100
AcDb2dPolyline
 66
     1
 10
0.0
 20
0.0
 30
0.0
  0
VERTEX
  5
32F0
330
2B3B
100
AcDbEntity
  8
0
100
AcDbVertex
100
AcDb2dVertex
 10
0.6381887518711008
 20
4.518758433276758
 30
0.0
  0
VERTEX
  5
32F1
330
2B3B
100
AcDbEntity
  8
0
100
AcDbVertex
100
AcDb2dVertex
 10
0.6263381613199196
 20
4.524025362410617
 30
0.0
  0
VERTEX
  5
32F2
330
2B3B
100
AcDbEntity
  8
0
100
AcDbVertex
100
AcDb2dVertex
 10
0.6210712321860614
 20
4.535875952961799
 30
0.0
  0
SEQEND
  5
32F3
330
2B3B
100
AcDbEntity
  8
0
  0
LINE
  5
2B40
330
1E
100
AcDbEntity
  8
0
100
AcDbLine
 10
0.6210712321860612
 20
4.535875952961799
 30
0.0
 11
0.6210712321860612
 21
4.566160795481483
 31
0.0
  0
POLYLINE
  5
2B41
330
1E
100
AcDbEntity
  8
0
100
AcDb2dPolyline
 66
     1
 10
0.0
 20
0.0
 30
0.0
  0
VERTEX
  5
32F4
330
2B41
100
AcDbEntity
  8
0
100
AcDbVertex
100
AcDb2dVertex
 10
0.6210712321860614
 20
4.566160795481483
 30
0.0
  0
VERTEX
  5
32F5
330
2B41
100
AcDbEntity
  8
0
100
AcDbVertex
100
AcDb2dVertex
 10
0.6263381613199196
 20
4.576694653749199
 30
0.0
  0
VERTEX
  5
32F6
330
2B41
100
AcDbEntity
  8
0
100
AcDbVertex
100
AcDb2dVertex
 10
0.6381887518711008
 20
4.581961582883057
 30
0.0
  0
SEQEND
  5
32F7
330
2B41
100
AcDbEntity
  8
0
  0
LINE
  5
2B46
330
1E
100
AcDbEntity
  8
0
100
AcDbLine
 10
0.638188751871101
 20
4.581961582883057
 30
0.0
 11
0.638188751871101
 21
4.581961582883057
 31
0.0
  0
LINE
  5
2B47
330
1E
100
AcDbEntity
  8
0
100
AcDbLine
 10
1.911468869981336
 20
4.581961582883057
 30
0.0
 11
1.912785602264801
 21
4.581961582883057
 31
0.0
  0
LINE
  5
2B48
330
1E
100
AcDbEntity
  8
0
100
AcDbLine
 10
2.159014539272675
 20
4.581961582883057
 30
0.0
 11
2.16033127155614
 21
4.581961582883057
 31
0.0
  0
POLYLINE
  5
2B49
330
1E
100
AcDbEntity
  8
0
100
AcDb2dPolyline
 66
     1
 10
0.0
 20
0.0
 30
0.0
  0
VERTEX
  5
32F8
330
2B49
100
AcDbEntity
  8
0
100
AcDbVertex
100
AcDb2dVertex
 10
2.16033127155614
 20
4.581961582883057
 30
0.0
  0
VERTEX
  5
32F9
330
2B49
100
AcDbEntity
  8
0
100
AcDbVertex
100
AcDb2dVertex
 10
2.170865129823856
 20
4.576694653749199
 30
0.0
  0
VERTEX
  5
32FA
330
2B49
100
AcDbEntity
  8
0
100
AcDbVertex
100
AcDb2dVertex
 10
2.176132058957715
 20
4.566160795481483
 30
0.0
  0
SEQEND
  5
32FB
330
2B49
100
AcDbEntity
  8
0
  0
LINE
  5
2B4E
330
1E
100
AcDbEntity
  8
0
100
AcDbLine
 10
2.176132058957715
 20
4.566160795481483
 30
0.0
 11
2.176132058957715
 21
4.535875952961799
 31
0.0
  0
POLYLINE
  5
2B4F
330
1E
100
AcDbEntity
  8
0
100
AcDb2dPolyline
 66
     1
 10
0.0
 20
0.0
 30
0.0
  0
VERTEX
  5
32FC
330
2B4F
100
AcDbEntity
  8
0
100
AcDbVertex
100
AcDb2dVertex
 10
2.176132058957715
 20
4.535875952961799
 30
0.0
  0
VERTEX
  5
32FD
330
2B4F
100
AcDbEntity
  8
0
100
AcDbVertex
100
AcDb2dVertex
 10
2.170865129823856
 20
4.524025362410617
 30
0.0
  0
VERTEX
  5
32FE
330
2B4F
100
AcDbEntity
  8
0
100
AcDbVertex
100
AcDb2dVertex
 10
2.16033127155614
 20
4.518758433276758
 30
0.0
  0
SEQEND
  5
32FF
330
2B4F
100
AcDbEntity
  8
0
  0
LINE
  5
2B54
330
1E
100
AcDbEntity
  8
0
100
AcDbLine
 10
2.16033127155614
 20
4.518758433276758
 30
0.0
 11
1.911468869981336
 21
4.518758433276758
 31
0.0
  0
POLYLINE
  5
2B55
330
1E
100
AcDbEntity
  8
0
100
AcDb2dPolyline
 66
     1
 10
0.0
 20
0.0
 30
0.0
  0
VERTEX
  5
3300
330
2B55
100
AcDbEntity
  8
0
100
AcDbVertex
100
AcDb2dVertex
 10
1.911468869981336
 20
4.518758433276758
 30
0.0
  0
VERTEX
  5
3301
330
2B55
100
AcDbEntity
  8
0
100
AcDbVertex
100
AcDb2dVertex
 10
1.90093501171362
 20
4.524025362410617
 30
0.0
  0
VERTEX
  5
3302
330
2B55
100
AcDbEntity
  8
0
100
AcDbVertex
100
AcDb2dVertex
 10
1.895668082579762
 20
4.535875952961799
 30
0.0
  0
SEQEND
  5
3303
330
2B55
100
AcDbEntity
  8
0
  0
LINE
  5
2B5A
330
1E
100
AcDbEntity
  8
0
100
AcDbLine
 10
1.895668082579762
 20
4.535875952961799
 30
0.0
 11
1.895668082579762
 21
4.566160795481483
 31
0.0
  0
POLYLINE
  5
2B5B
330
1E
100
AcDbEntity
  8
0
100
AcDb2dPolyline
 66
     1
 10
0.0
 20
0.0
 30
0.0
  0
VERTEX
  5
3304
330
2B5B
100
AcDbEntity
  8
0
100
AcDbVertex
100
AcDb2dVertex
 10
1.895668082579762
 20
4.566160795481483
 30
0.0
  0
VERTEX
  5
3305
330
2B5B
100
AcDbEntity
  8
0
100
AcDbVertex
100
AcDb2dVertex
 10
1.90093501171362
 20
4.576694653749199
 30
0.0
  0
VERTEX
  5
3306
330
2B5B
100
AcDbEntity
  8
0
100
AcDbVertex
100
AcDb2dVertex
 10
1.911468869981336
 20
4.581961582883057
 30
0.0
  0
SEQEND
  5
3307
330
2B5B
100
AcDbEntity
  8
0
  0
LINE
  5
2B60
330
1E
100
AcDbEntity
  8
0
100
AcDbLine
 10
1.698158240060077
 20
5.038867685245262
 30
0.0
 11
1.698158240060077
 21
5.70118402382794
 31
0.0
  0
LINE
  5
2B61
330
1E
100
AcDbEntity
  8
0
100
AcDbLine
 10
1.099045051083699
 20
5.70118402382794
 30
0.0
 11
1.099045051083699
 21
5.038867685245262
 31
0.0
  0
LINE
  5
2B62
330
1E
100
AcDbEntity
  8
0
100
AcDbLine
 10
1.698158240060077
 20
6.192325165560224
 30
0.0
 11
1.698158240060077
 21
6.8546415041429
 31
0.0
  0
LINE
  5
2B63
330
1E
100
AcDbEntity
  8
0
100
AcDbLine
 10
1.099045051083699
 20
6.8546415041429
 30
0.0
 11
1.099045051083699
 21
6.192325165560224
 31
0.0
  0
LINE
  5
2B64
330
1E
100
AcDbEntity
  8
0
100
AcDbLine
 10
1.479580681004958
 20
7.312864338788569
 30
0.0
 11
2.392076153445903
 21
7.312864338788569
 31
0.0
  0
LINE
  5
2B65
330
1E
100
AcDbEntity
  8
0
100
AcDbLine
 10
1.479580681004958
 20
7.312864338788569
 30
0.0
 11
1.479580681004958
 21
7.290479889969672
 31
0.0
  0
LINE
  5
2B66
330
1E
100
AcDbEntity
  8
0
100
AcDbLine
 10
1.317622610138817
 20
7.290479889969672
 30
0.0
 11
1.317622610138817
 21
7.312864338788569
 31
0.0
  0
LINE
  5
2B67
330
1E
100
AcDbEntity
  8
0
100
AcDbLine
 10
0.4051271376978729
 20
7.312864338788569
 30
0.0
 11
1.317622610138817
 21
7.312864338788569
 31
0.0
  0
POLYLINE
  5
2B68
330
1E
100
AcDbEntity
  8
0
100
AcDb2dPolyline
 66
     1
 10
0.0
 20
0.0
 30
0.0
  0
VERTEX
  5
3308
330
2B68
100
AcDbEntity
  8
0
100
AcDbVertex
100
AcDb2dVertex
 10
0.4051271376978728
 20
7.312864338788569
 30
0.0
  0
VERTEX
  5
3309
330
2B68
100
AcDbEntity
  8
0
100
AcDbVertex
100
AcDb2dVertex
 10
0.3893263502962976
 20
7.316814535638963
 30
0.0
  0
VERTEX
  5
330A
330
2B68
100
AcDbEntity
  8
0
100
AcDbVertex
100
AcDb2dVertex
 10
0.378792492028581
 20
7.328665126190145
 30
0.0
  0
VERTEX
  5
330B
330
2B68
100
AcDbEntity
  8
0
100
AcDbVertex
100
AcDb2dVertex
 10
0.3748422951781876
 20
7.343149181308255
 30
0.0
  0
SEQEND
  5
330C
330
2B68
100
AcDbEntity
  8
0
  0
LINE
  5
2B6E
330
1E
100
AcDbEntity
  8
0
100
AcDbLine
 10
0.3748422951781869
 20
7.343149181308255
 30
0.0
 11
0.3748422951781869
 21
7.776354102568097
 31
0.0
  0
POLYLINE
  5
2B6F
330
1E
100
AcDbEntity
  8
0
100
AcDb2dPolyline
 66
     1
 10
0.0
 20
0.0
 30
0.0
  0
VERTEX
  5
330D
330
2B6F
100
AcDbEntity
  8
0
100
AcDbVertex
100
AcDb2dVertex
 10
0.3748422951781876
 20
7.776354102568097
 30
0.0
  0
VERTEX
  5
330E
330
2B6F
100
AcDbEntity
  8
0
100
AcDbVertex
100
AcDb2dVertex
 10
0.378792492028581
 20
7.792154889969673
 30
0.0
  0
VERTEX
  5
330F
330
2B6F
100
AcDbEntity
  8
0
100
AcDbVertex
100
AcDb2dVertex
 10
0.3893263502962976
 20
7.80268874823739
 30
0.0
  0
VERTEX
  5
3310
330
2B6F
100
AcDbEntity
  8
0
100
AcDbVertex
100
AcDb2dVertex
 10
0.4051271376978728
 20
7.806638945087781
 30
0.0
  0
SEQEND
  5
3311
330
2B6F
100
AcDbEntity
  8
0
  0
LINE
  5
2B75
330
1E
100
AcDbEntity
  8
0
100
AcDbLine
 10
0.4051271376978729
 20
7.806638945087781
 30
0.0
 11
2.392076153445903
 21
7.806638945087781
 31
0.0
  0
POLYLINE
  5
2B76
330
1E
100
AcDbEntity
  8
0
100
AcDb2dPolyline
 66
     1
 10
0.0
 20
0.0
 30
0.0
  0
VERTEX
  5
3312
330
2B76
100
AcDbEntity
  8
0
100
AcDbVertex
100
AcDb2dVertex
 10
2.392076153445903
 20
7.806638945087781
 30
0.0
  0
VERTEX
  5
3313
330
2B76
100
AcDbEntity
  8
0
100
AcDbVertex
100
AcDb2dVertex
 10
2.407876940847478
 20
7.80268874823739
 30
0.0
  0
VERTEX
  5
3314
330
2B76
100
AcDbEntity
  8
0
100
AcDbVertex
100
AcDb2dVertex
 10
2.418410799115195
 20
7.792154889969673
 30
0.0
  0
VERTEX
  5
3315
330
2B76
100
AcDbEntity
  8
0
100
AcDbVertex
100
AcDb2dVertex
 10
2.422360995965588
 20
7.776354102568097
 30
0.0
  0
SEQEND
  5
3316
330
2B76
100
AcDbEntity
  8
0
  0
LINE
  5
2B7C
330
1E
100
AcDbEntity
  8
0
100
AcDbLine
 10
2.422360995965588
 20
7.776354102568097
 30
0.0
 11
2.422360995965588
 21
7.343149181308255
 31
0.0
  0
POLYLINE
  5
2B7D
330
1E
100
AcDbEntity
  8
0
100
AcDb2dPolyline
 66
     1
 10
0.0
 20
0.0
 30
0.0
  0
VERTEX
  5
3317
330
2B7D
100
AcDbEntity
  8
0
100
AcDbVertex
100
AcDb2dVertex
 10
2.422360995965588
 20
7.343149181308255
 30
0.0
  0
VERTEX
  5
3318
330
2B7D
100
AcDbEntity
  8
0
100
AcDbVertex
100
AcDb2dVertex
 10
2.418410799115195
 20
7.328665126190145
 30
0.0
  0
VERTEX
  5
3319
330
2B7D
100
AcDbEntity
  8
0
100
AcDbVertex
100
AcDb2dVertex
 10
2.407876940847478
 20
7.316814535638963
 30
0.0
  0
VERTEX
  5
331A
330
2B7D
100
AcDbEntity
  8
0
100
AcDbVertex
100
AcDb2dVertex
 10
2.392076153445903
 20
7.312864338788569
 30
0.0
  0
SEQEND
  5
331B
330
2B7D
100
AcDbEntity
  8
0
  0
LINE
  5
2B83
330
1E
100
AcDbEntity
  8
0
100
AcDbLine
 10
1.832464932973462
 20
7.247027724615341
 30
0.0
 11
1.831148200689998
 21
7.247027724615341
 31
0.0
  0
POLYLINE
  5
2B84
330
1E
100
AcDbEntity
  8
0
100
AcDb2dPolyline
 66
     1
 10
0.0
 20
0.0
 30
0.0
  0
VERTEX
  5
331C
330
2B84
100
AcDbEntity
  8
0
100
AcDbVertex
100
AcDb2dVertex
 10
1.831148200689998
 20
7.247027724615341
 30
0.0
  0
VERTEX
  5
331D
330
2B84
100
AcDbEntity
  8
0
100
AcDbVertex
100
AcDb2dVertex
 10
1.820614342422282
 20
7.250977921465734
 30
0.0
  0
VERTEX
  5
331E
330
2B84
100
AcDbEntity
  8
0
100
AcDbVertex
100
AcDb2dVertex
 10
1.815347413288423
 20
7.262828512016916
 30
0.0
  0
SEQEND
  5
331F
330
2B84
100
AcDbEntity
  8
0
  0
LINE
  5
2B89
330
1E
100
AcDbEntity
  8
0
100
AcDbLine
 10
1.815347413288423
 20
7.262828512016916
 30
0.0
 11
1.815347413288423
 21
7.2931133545366
 31
0.0
  0
POLYLINE
  5
2B8A
330
1E
100
AcDbEntity
  8
0
100
AcDb2dPolyline
 66
     1
 10
0.0
 20
0.0
 30
0.0
  0
VERTEX
  5
3320
330
2B8A
100
AcDbEntity
  8
0
100
AcDbVertex
100
AcDb2dVertex
 10
1.815347413288423
 20
7.2931133545366
 30
0.0
  0
VERTEX
  5
3321
330
2B8A
100
AcDbEntity
  8
0
100
AcDbVertex
100
AcDb2dVertex
 10
1.820614342422282
 20
7.303647212804317
 30
0.0
  0
VERTEX
  5
3322
330
2B8A
100
AcDbEntity
  8
0
100
AcDbVertex
100
AcDb2dVertex
 10
1.831148200689998
 20
7.308914141938176
 30
0.0
  0
SEQEND
  5
3323
330
2B8A
100
AcDbEntity
  8
0
  0
LINE
  5
2B8F
330
1E
100
AcDbEntity
  8
0
100
AcDbLine
 10
1.831148200689998
 20
7.308914141938176
 30
0.0
 11
2.080010602264801
 21
7.308914141938176
 31
0.0
  0
POLYLINE
  5
2B90
330
1E
100
AcDbEntity
  8
0
100
AcDb2dPolyline
 66
     1
 10
0.0
 20
0.0
 30
0.0
  0
VERTEX
  5
3324
330
2B90
100
AcDbEntity
  8
0
100
AcDbVertex
100
AcDb2dVertex
 10
2.080010602264802
 20
7.308914141938176
 30
0.0
  0
VERTEX
  5
3325
330
2B90
100
AcDbEntity
  8
0
100
AcDbVertex
100
AcDb2dVertex
 10
2.090544460532518
 20
7.303647212804317
 30
0.0
  0
VERTEX
  5
3326
330
2B90
100
AcDbEntity
  8
0
100
AcDbVertex
100
AcDb2dVertex
 10
2.095811389666376
 20
7.2931133545366
 30
0.0
  0
SEQEND
  5
3327
330
2B90
100
AcDbEntity
  8
0
  0
LINE
  5
2B95
330
1E
100
AcDbEntity
  8
0
100
AcDbLine
 10
2.095811389666376
 20
7.2931133545366
 30
0.0
 11
2.095811389666376
 21
7.262828512016916
 31
0.0
  0
POLYLINE
  5
2B96
330
1E
100
AcDbEntity
  8
0
100
AcDb2dPolyline
 66
     1
 10
0.0
 20
0.0
 30
0.0
  0
VERTEX
  5
3328
330
2B96
100
AcDbEntity
  8
0
100
AcDbVertex
100
AcDb2dVertex
 10
2.095811389666376
 20
7.262828512016916
 30
0.0
  0
VERTEX
  5
3329
330
2B96
100
AcDbEntity
  8
0
100
AcDbVertex
100
AcDb2dVertex
 10
2.090544460532518
 20
7.250977921465734
 30
0.0
  0
VERTEX
  5
332A
330
2B96
100
AcDbEntity
  8
0
100
AcDbVertex
100
AcDb2dVertex
 10
2.080010602264802
 20
7.247027724615341
 30
0.0
  0
SEQEND
  5
332B
330
2B96
100
AcDbEntity
  8
0
  0
LINE
  5
2B9B
330
1E
100
AcDbEntity
  8
0
100
AcDbLine
 10
2.080010602264801
 20
7.247027724615341
 30
0.0
 11
2.078693869981336
 21
7.247027724615341
 31
0.0
  0
LINE
  5
2B9C
330
1E
100
AcDbEntity
  8
0
100
AcDbLine
 10
0.9660550904537785
 20
7.247027724615341
 30
0.0
 11
0.9647383581703135
 21
7.247027724615341
 31
0.0
  0
LINE
  5
2B9D
330
1E
100
AcDbEntity
  8
0
100
AcDbLine
 10
0.7185094211624392
 20
7.247027724615341
 30
0.0
 11
0.7185094211624392
 21
7.247027724615341
 31
0.0
  0
POLYLINE
  5
2B9E
330
1E
100
AcDbEntity
  8
0
100
AcDb2dPolyline
 66
     1
 10
0.0
 20
0.0
 30
0.0
  0
VERTEX
  5
332C
330
2B9E
100
AcDbEntity
  8
0
100
AcDbVertex
100
AcDb2dVertex
 10
0.7185094211624394
 20
7.247027724615341
 30
0.0
  0
VERTEX
  5
332D
330
2B9E
100
AcDbEntity
  8
0
100
AcDbVertex
100
AcDb2dVertex
 10
0.7066588306112582
 20
7.250977921465734
 30
0.0
  0
VERTEX
  5
332E
330
2B9E
100
AcDbEntity
  8
0
100
AcDbVertex
100
AcDb2dVertex
 10
0.7013919014774002
 20
7.262828512016916
 30
0.0
  0
SEQEND
  5
332F
330
2B9E
100
AcDbEntity
  8
0
  0
LINE
  5
2BA3
330
1E
100
AcDbEntity
  8
0
100
AcDbLine
 10
0.7013919014774004
 20
7.262828512016916
 30
0.0
 11
0.7013919014774004
 21
7.2931133545366
 31
0.0
  0
POLYLINE
  5
2BA4
330
1E
100
AcDbEntity
  8
0
100
AcDb2dPolyline
 66
     1
 10
0.0
 20
0.0
 30
0.0
  0
VERTEX
  5
3330
330
2BA4
100
AcDbEntity
  8
0
100
AcDbVertex
100
AcDb2dVertex
 10
0.7013919014774002
 20
7.2931133545366
 30
0.0
  0
VERTEX
  5
3331
330
2BA4
100
AcDbEntity
  8
0
100
AcDbVertex
100
AcDb2dVertex
 10
0.7066588306112582
 20
7.303647212804317
 30
0.0
  0
VERTEX
  5
3332
330
2BA4
100
AcDbEntity
  8
0
100
AcDbVertex
100
AcDb2dVertex
 10
0.7185094211624394
 20
7.308914141938176
 30
0.0
  0
SEQEND
  5
3333
330
2BA4
100
AcDbEntity
  8
0
  0
LINE
  5
2BA9
330
1E
100
AcDbEntity
  8
0
100
AcDbLine
 10
0.7185094211624392
 20
7.308914141938176
 30
0.0
 11
0.9660550904537785
 21
7.308914141938176
 31
0.0
  0
POLYLINE
  5
2BAA
330
1E
100
AcDbEntity
  8
0
100
AcDb2dPolyline
 66
     1
 10
0.0
 20
0.0
 30
0.0
  0
VERTEX
  5
3334
330
2BAA
100
AcDbEntity
  8
0
100
AcDbVertex
100
AcDb2dVertex
 10
0.9660550904537783
 20
7.308914141938176
 30
0.0
  0
VERTEX
  5
3335
330
2BAA
100
AcDbEntity
  8
0
100
AcDbVertex
100
AcDb2dVertex
 10
0.9765889487214948
 20
7.303647212804317
 30
0.0
  0
VERTEX
  5
3336
330
2BAA
100
AcDbEntity
  8
0
100
AcDbVertex
100
AcDb2dVertex
 10
0.981855877855353
 20
7.2931133545366
 30
0.0
  0
SEQEND
  5
3337
330
2BAA
100
AcDbEntity
  8
0
  0
LINE
  5
2BAF
330
1E
100
AcDbEntity
  8
0
100
AcDbLine
 10
0.9818558778553532
 20
7.2931133545366
 30
0.0
 11
0.9818558778553532
 21
7.262828512016916
 31
0.0
  0
POLYLINE
  5
2BB0
330
1E
100
AcDbEntity
  8
0
100
AcDb2dPolyline
 66
     1
 10
0.0
 20
0.0
 30
0.0
  0
VERTEX
  5
3338
330
2BB0
100
AcDbEntity
  8
0
100
AcDbVertex
100
AcDb2dVertex
 10
0.981855877855353
 20
7.262828512016916
 30
0.0
  0
VERTEX
  5
3339
330
2BB0
100
AcDbEntity
  8
0
100
AcDbVertex
100
AcDb2dVertex
 10
0.9765889487214948
 20
7.250977921465734
 30
0.0
  0
VERTEX
  5
333A
330
2BB0
100
AcDbEntity
  8
0
100
AcDbVertex
100
AcDb2dVertex
 10
0.9660550904537783
 20
7.247027724615341
 30
0.0
  0
SEQEND
  5
333B
330
2BB0
100
AcDbEntity
  8
0
  0
LINE
  5
2BB5
330
1E
100
AcDbEntity
  8
0
100
AcDbLine
 10
0.0496094211624394
 20
3.656298787607467
 30
0.0
 11
0.0456592243120451
 21
3.653665323040538
 31
0.0
  0
LINE
  5
2BB6
330
1E
100
AcDbEntity
  8
0
100
AcDbLine
 10
0.3748422951781869
 20
4.052635204930302
 30
0.0
 11
0.3748422951781869
 21
4.48452339390668
 31
0.0
  0
LINE
  5
2BB7
330
1E
100
AcDbEntity
  8
0
100
AcDbLine
 10
0.3748422951781869
 20
4.48452339390668
 30
0.0
 11
0.3748422951781869
 21
4.48452339390668
 31
0.0
  0
LINE
  5
2BB8
330
1E
100
AcDbEntity
  8
0
100
AcDbLine
 10
0.3748422951781869
 20
4.051318472646837
 30
0.0
 11
0.3748422951781869
 21
4.052635204930302
 31
0.0
  0
POLYLINE
  5
2BB9
330
1E
100
AcDbEntity
  8
0
100
AcDb2dPolyline
 66
     1
 10
0.0
 20
0.0
 30
0.0
  0
VERTEX
  5
333C
330
2BB9
100
AcDbEntity
  8
0
100
AcDbVertex
100
AcDb2dVertex
 10
0.4051271376978728
 20
4.514808236426365
 30
0.0
  0
VERTEX
  5
333D
330
2BB9
100
AcDbEntity
  8
0
100
AcDbVertex
100
AcDb2dVertex
 10
0.3906430825797622
 20
4.509541307292507
 30
0.0
  0
VERTEX
  5
333E
330
2BB9
100
AcDbEntity
  8
0
100
AcDbVertex
100
AcDb2dVertex
 10
0.3801092243120456
 20
4.499007449024791
 30
0.0
  0
VERTEX
  5
333F
330
2BB9
100
AcDbEntity
  8
0
100
AcDbVertex
100
AcDb2dVertex
 10
0.3748422951781876
 20
4.48452339390668
 30
0.0
  0
SEQEND
  5
3340
330
2BB9
100
AcDbEntity
  8
0
  0
LINE
  5
2BBF
330
1E
100
AcDbEntity
  8
0
100
AcDbLine
 10
0.4051271376978729
 20
4.514808236426365
 30
0.0
 11
0.4051271376978729
 21
4.514808236426365
 31
0.0
  0
LINE
  5
2BC0
330
1E
100
AcDbEntity
  8
0
100
AcDbLine
 10
0.4051271376978729
 20
4.022350362410616
 30
0.0
 11
0.4051271376978729
 21
4.021033630127152
 31
0.0
  0
POLYLINE
  5
2BC1
330
1E
100
AcDbEntity
  8
0
100
AcDb2dPolyline
 66
     1
 10
0.0
 20
0.0
 30
0.0
  0
VERTEX
  5
3341
330
2BC1
100
AcDbEntity
  8
0
100
AcDbVertex
100
AcDb2dVertex
 10
0.3748422951781876
 20
4.052635204930302
 30
0.0
  0
VERTEX
  5
3342
330
2BC1
100
AcDbEntity
  8
0
100
AcDbVertex
100
AcDb2dVertex
 10
0.3801092243120456
 20
4.036834417528726
 30
0.0
  0
VERTEX
  5
3343
330
2BC1
100
AcDbEntity
  8
0
100
AcDbVertex
100
AcDb2dVertex
 10
0.3906430825797622
 20
4.02630055926101
 30
0.0
  0
VERTEX
  5
3344
330
2BC1
100
AcDbEntity
  8
0
100
AcDbVertex
100
AcDb2dVertex
 10
0.4051271376978728
 20
4.022350362410616
 30
0.0
  0
SEQEND
  5
3345
330
2BC1
100
AcDbEntity
  8
0
  0
LINE
  5
2BC7
330
1E
100
AcDbEntity
  8
0
100
AcDbLine
 10
2.392076153445903
 20
4.022350362410616
 30
0.0
 11
0.4051271376978729
 21
4.022350362410616
 31
0.0
  0
POLYLINE
  5
2BC8
330
1E
100
AcDbEntity
  8
0
100
AcDb2dPolyline
 66
     1
 10
0.0
 20
0.0
 30
0.0
  0
VERTEX
  5
3346
330
2BC8
100
AcDbEntity
  8
0
100
AcDbVertex
100
AcDb2dVertex
 10
2.392076153445903
 20
4.022350362410616
 30
0.0
  0
VERTEX
  5
3347
330
2BC8
100
AcDbEntity
  8
0
100
AcDbVertex
100
AcDb2dVertex
 10
2.406560208564013
 20
4.02630055926101
 30
0.0
  0
VERTEX
  5
3348
330
2BC8
100
AcDbEntity
  8
0
100
AcDbVertex
100
AcDb2dVertex
 10
2.418410799115195
 20
4.036834417528726
 30
0.0
  0
VERTEX
  5
3349
330
2BC8
100
AcDbEntity
  8
0
100
AcDbVertex
100
AcDb2dVertex
 10
2.422360995965588
 20
4.052635204930302
 30
0.0
  0
SEQEND
  5
334A
330
2BC8
100
AcDbEntity
  8
0
  0
LINE
  5
2BCE
330
1E
100
AcDbEntity
  8
0
100
AcDbLine
 10
2.422360995965588
 20
4.48452339390668
 30
0.0
 11
2.422360995965588
 21
4.052635204930302
 31
0.0
  0
POLYLINE
  5
2BCF
330
1E
100
AcDbEntity
  8
0
100
AcDb2dPolyline
 66
     1
 10
0.0
 20
0.0
 30
0.0
  0
VERTEX
  5
334B
330
2BCF
100
AcDbEntity
  8
0
100
AcDbVertex
100
AcDb2dVertex
 10
2.422360995965588
 20
4.48452339390668
 30
0.0
  0
VERTEX
  5
334C
330
2BCF
100
AcDbEntity
  8
0
100
AcDbVertex
100
AcDb2dVertex
 10
2.418410799115195
 20
4.499007449024791
 30
0.0
  0
VERTEX
  5
334D
330
2BCF
100
AcDbEntity
  8
0
100
AcDbVertex
100
AcDb2dVertex
 10
2.406560208564013
 20
4.509541307292507
 30
0.0
  0
VERTEX
  5
334E
330
2BCF
100
AcDbEntity
  8
0
100
AcDbVertex
100
AcDb2dVertex
 10
2.392076153445903
 20
4.514808236426365
 30
0.0
  0
SEQEND
  5
334F
330
2BCF
100
AcDbEntity
  8
0
  0
LINE
  5
2BD5
330
1E
100
AcDbEntity
  8
0
100
AcDbLine
 10
1.480897413288424
 20
4.514808236426365
 30
0.0
 11
2.392076153445903
 21
4.514808236426365
 31
0.0
  0
LINE
  5
2BD6
330
1E
100
AcDbEntity
  8
0
100
AcDbLine
 10
1.480897413288424
 20
4.475306267922428
 30
0.0
 11
1.480897413288424
 21
4.514808236426365
 31
0.0
  0
LINE
  5
2BD7
330
1E
100
AcDbEntity
  8
0
100
AcDbLine
 10
1.480897413288424
 20
4.475306267922428
 30
0.0
 11
2.328873003839604
 21
4.475306267922428
 31
0.0
  0
POLYLINE
  5
2BD8
330
1E
100
AcDbEntity
  8
0
100
AcDb2dPolyline
 66
     1
 10
0.0
 20
0.0
 30
0.0
  0
VERTEX
  5
3350
330
2BD8
100
AcDbEntity
  8
0
100
AcDbVertex
100
AcDb2dVertex
 10
2.328873003839604
 20
4.475306267922428
 30
0.0
  0
VERTEX
  5
3351
330
2BD8
100
AcDbEntity
  8
0
100
AcDbVertex
100
AcDb2dVertex
 10
2.336773397540391
 20
4.471356071072034
 30
0.0
  0
VERTEX
  5
3352
330
2BD8
100
AcDbEntity
  8
0
100
AcDbVertex
100
AcDb2dVertex
 10
2.33940686210732
 20
4.464772409654711
 30
0.0
  0
SEQEND
  5
3353
330
2BD8
100
AcDbEntity
  8
0
  0
LINE
  5
2BDD
330
1E
100
AcDbEntity
  8
0
100
AcDbLine
 10
2.339406862107321
 20
4.464772409654711
 30
0.0
 11
2.339406862107321
 21
4.071069456898806
 31
0.0
  0
POLYLINE
  5
2BDE
330
1E
100
AcDbEntity
  8
0
100
AcDb2dPolyline
 66
     1
 10
0.0
 20
0.0
 30
0.0
  0
VERTEX
  5
3354
330
2BDE
100
AcDbEntity
  8
0
100
AcDbVertex
100
AcDb2dVertex
 10
2.33940686210732
 20
4.071069456898806
 30
0.0
  0
VERTEX
  5
3355
330
2BDE
100
AcDbEntity
  8
0
100
AcDbVertex
100
AcDb2dVertex
 10
2.336773397540391
 20
4.064485795481482
 30
0.0
  0
VERTEX
  5
3356
330
2BDE
100
AcDbEntity
  8
0
100
AcDbVertex
100
AcDb2dVertex
 10
2.328873003839604
 20
4.061852330914554
 30
0.0
  0
SEQEND
  5
3357
330
2BDE
100
AcDbEntity
  8
0
  0
LINE
  5
2BE3
330
1E
100
AcDbEntity
  8
0
100
AcDbLine
 10
0.4683302873041715
 20
4.061852330914554
 30
0.0
 11
2.328873003839604
 21
4.061852330914554
 31
0.0
  0
POLYLINE
  5
2BE4
330
1E
100
AcDbEntity
  8
0
100
AcDb2dPolyline
 66
     1
 10
0.0
 20
0.0
 30
0.0
  0
VERTEX
  5
3358
330
2BE4
100
AcDbEntity
  8
0
100
AcDbVertex
100
AcDb2dVertex
 10
0.4683302873041717
 20
4.061852330914554
 30
0.0
  0
VERTEX
  5
3359
330
2BE4
100
AcDbEntity
  8
0
100
AcDbVertex
100
AcDb2dVertex
 10
0.4604298936033845
 20
4.064485795481482
 30
0.0
  0
VERTEX
  5
335A
330
2BE4
100
AcDbEntity
  8
0
100
AcDbVertex
100
AcDb2dVertex
 10
0.4577964290364552
 20
4.071069456898806
 30
0.0
  0
SEQEND
  5
335B
330
2BE4
100
AcDbEntity
  8
0
  0
LINE
  5
2BE9
330
1E
100
AcDbEntity
  8
0
100
AcDbLine
 10
0.4577964290364554
 20
4.464772409654711
 30
0.0
 11
0.4577964290364554
 21
4.071069456898806
 31
0.0
  0
POLYLINE
  5
2BEA
330
1E
100
AcDbEntity
  8
0
100
AcDb2dPolyline
 66
     1
 10
0.0
 20
0.0
 30
0.0
  0
VERTEX
  5
335C
330
2BEA
100
AcDbEntity
  8
0
100
AcDbVertex
100
AcDb2dVertex
 10
0.4577964290364552
 20
4.464772409654711
 30
0.0
  0
VERTEX
  5
335D
330
2BEA
100
AcDbEntity
  8
0
100
AcDbVertex
100
AcDb2dVertex
 10
0.4604298936033845
 20
4.471356071072034
 30
0.0
  0
VERTEX
  5
335E
330
2BEA
100
AcDbEntity
  8
0
100
AcDbVertex
100
AcDb2dVertex
 10
0.4683302873041717
 20
4.475306267922428
 30
0.0
  0
SEQEND
  5
335F
330
2BEA
100
AcDbEntity
  8
0
  0
LINE
  5
2BEF
330
1E
100
AcDbEntity
  8
0
100
AcDbLine
 10
0.4683302873041715
 20
4.475306267922428
 30
0.0
 11
1.316305877855353
 21
4.475306267922428
 31
0.0
  0
LINE
  5
2BF0
330
1E
100
AcDbEntity
  8
0
100
AcDbLine
 10
1.316305877855353
 20
4.475306267922428
 30
0.0
 11
1.316305877855353
 21
4.514808236426365
 31
0.0
  0
LINE
  5
2BF1
330
1E
100
AcDbEntity
  8
0
100
AcDbLine
 10
0.4051271376978729
 20
4.514808236426365
 30
0.0
 11
1.316305877855353
 21
4.514808236426365
 31
0.0
  0
LINE
  5
2BF2
330
1E
100
AcDbEntity
  8
0
100
AcDbLine
 10
2.75154406683173
 20
3.653665323040538
 30
0.0
 11
2.747593869981336
 21
3.656298787607467
 31
0.0
  0
LINE
  5
2BF3
330
1E
100
AcDbEntity
  8
0
100
AcDbLine
 10
1.29260469675299
 20
4.208009614379121
 30
0.0
 11
1.504598594390786
 21
4.208009614379121
 31
0.0
  0
LINE
  5
2BF4
330
1E
100
AcDbEntity
  8
0
100
AcDbLine
 10
1.29260469675299
 20
4.327832252174396
 30
0.0
 11
1.504598594390786
 21
4.327832252174396
 31
0.0
  0
POLYLINE
  5
2BF5
330
1E
100
AcDbEntity
  8
0
100
AcDb2dPolyline
 66
     1
 10
0.0
 20
0.0
 30
0.0
  0
VERTEX
  5
3360
330
2BF5
100
AcDbEntity
  8
0
100
AcDbVertex
100
AcDb2dVertex
 10
1.29260469675299
 20
4.327832252174396
 30
0.0
  0
VERTEX
  5
3361
330
2BF5
100
AcDbEntity
  8
0
100
AcDbVertex
100
AcDb2dVertex
 10
1.270220247934093
 20
4.301497606505106
 30
0.0
  0
VERTEX
  5
3362
330
2BF5
100
AcDbEntity
  8
0
100
AcDbVertex
100
AcDb2dVertex
 10
1.262319854233305
 20
4.26857929941849
 30
0.0
  0
VERTEX
  5
3363
330
2BF5
100
AcDbEntity
  8
0
100
AcDbVertex
100
AcDb2dVertex
 10
1.270220247934093
 20
4.234344260048412
 30
0.0
  0
VERTEX
  5
3364
330
2BF5
100
AcDbEntity
  8
0
100
AcDbVertex
100
AcDb2dVertex
 10
1.29260469675299
 20
4.208009614379121
 30
0.0
  0
SEQEND
  5
3365
330
2BF5
100
AcDbEntity
  8
0
  0
LINE
  5
2BFC
330
1E
100
AcDbEntity
  8
0
100
AcDbLine
 10
0.4577964290364554
 20
4.464772409654711
 30
0.0
 11
0.4591131613199196
 21
4.464772409654711
 31
0.0
  0
POLYLINE
  5
2BFD
330
1E
100
AcDbEntity
  8
0
100
AcDb2dPolyline
 66
     1
 10
0.0
 20
0.0
 30
0.0
  0
VERTEX
  5
3366
330
2BFD
100
AcDbEntity
  8
0
100
AcDbVertex
100
AcDb2dVertex
 10
0.4591131613199197
 20
4.464772409654711
 30
0.0
  0
VERTEX
  5
3367
330
2BFD
100
AcDbEntity
  8
0
100
AcDbVertex
100
AcDb2dVertex
 10
0.4617466258868486
 20
4.471356071072034
 30
0.0
  0
VERTEX
  5
3368
330
2BFD
100
AcDbEntity
  8
0
100
AcDbVertex
100
AcDb2dVertex
 10
0.4683302873041717
 20
4.473989535638963
 30
0.0
  0
SEQEND
  5
3369
330
2BFD
100
AcDbEntity
  8
0
  0
LINE
  5
2C02
330
1E
100
AcDbEntity
  8
0
100
AcDbLine
 10
0.4683302873041715
 20
4.475306267922428
 30
0.0
 11
0.4683302873041715
 21
4.473989535638963
 31
0.0
  0
LINE
  5
2C03
330
1E
100
AcDbEntity
  8
0
100
AcDbLine
 10
0.4577964290364554
 20
4.071069456898806
 30
0.0
 11
0.4591131613199196
 21
4.071069456898806
 31
0.0
  0
LINE
  5
2C04
330
1E
100
AcDbEntity
  8
0
100
AcDbLine
 10
0.4591131613199196
 20
4.071069456898806
 30
0.0
 11
0.4591131613199196
 21
4.464772409654711
 31
0.0
  0
LINE
  5
2C05
330
1E
100
AcDbEntity
  8
0
100
AcDbLine
 10
0.4683302873041715
 20
4.061852330914554
 30
0.0
 11
0.4683302873041715
 21
4.061852330914554
 31
0.0
  0
POLYLINE
  5
2C06
330
1E
100
AcDbEntity
  8
0
100
AcDb2dPolyline
 66
     1
 10
0.0
 20
0.0
 30
0.0
  0
VERTEX
  5
336A
330
2C06
100
AcDbEntity
  8
0
100
AcDbVertex
100
AcDb2dVertex
 10
0.4683302873041717
 20
4.061852330914554
 30
0.0
  0
VERTEX
  5
336B
330
2C06
100
AcDbEntity
  8
0
100
AcDbVertex
100
AcDb2dVertex
 10
0.4617466258868486
 20
4.064485795481482
 30
0.0
  0
VERTEX
  5
336C
330
2C06
100
AcDbEntity
  8
0
100
AcDbVertex
100
AcDb2dVertex
 10
0.4591131613199197
 20
4.071069456898806
 30
0.0
  0
SEQEND
  5
336D
330
2C06
100
AcDbEntity
  8
0
  0
LINE
  5
2C0B
330
1E
100
AcDbEntity
  8
0
100
AcDbLine
 10
2.339406862107321
 20
4.071069456898806
 30
0.0
 11
2.339406862107321
 21
4.071069456898806
 31
0.0
  0
POLYLINE
  5
2C0C
330
1E
100
AcDbEntity
  8
0
100
AcDb2dPolyline
 66
     1
 10
0.0
 20
0.0
 30
0.0
  0
VERTEX
  5
336E
330
2C0C
100
AcDbEntity
  8
0
100
AcDbVertex
100
AcDb2dVertex
 10
2.33940686210732
 20
4.071069456898806
 30
0.0
  0
VERTEX
  5
336F
330
2C0C
100
AcDbEntity
  8
0
100
AcDbVertex
100
AcDb2dVertex
 10
2.335456665256927
 20
4.064485795481482
 30
0.0
  0
VERTEX
  5
3370
330
2C0C
100
AcDbEntity
  8
0
100
AcDbVertex
100
AcDb2dVertex
 10
2.328873003839604
 20
4.061852330914554
 30
0.0
  0
SEQEND
  5
3371
330
2C0C
100
AcDbEntity
  8
0
  0
LINE
  5
2C11
330
1E
100
AcDbEntity
  8
0
100
AcDbLine
 10
2.328873003839604
 20
4.061852330914554
 30
0.0
 11
2.328873003839604
 21
4.061852330914554
 31
0.0
  0
LINE
  5
2C12
330
1E
100
AcDbEntity
  8
0
100
AcDbLine
 10
2.339406862107321
 20
4.464772409654711
 30
0.0
 11
2.339406862107321
 21
4.464772409654711
 31
0.0
  0
LINE
  5
2C13
330
1E
100
AcDbEntity
  8
0
100
AcDbLine
 10
2.339406862107321
 20
4.464772409654711
 30
0.0
 11
2.339406862107321
 21
4.071069456898806
 31
0.0
  0
LINE
  5
2C14
330
1E
100
AcDbEntity
  8
0
100
AcDbLine
 10
2.328873003839604
 20
4.475306267922428
 30
0.0
 11
2.328873003839604
 21
4.473989535638963
 31
0.0
  0
POLYLINE
  5
2C15
330
1E
100
AcDbEntity
  8
0
100
AcDb2dPolyline
 66
     1
 10
0.0
 20
0.0
 30
0.0
  0
VERTEX
  5
3372
330
2C15
100
AcDbEntity
  8
0
100
AcDbVertex
100
AcDb2dVertex
 10
2.328873003839604
 20
4.473989535638963
 30
0.0
  0
VERTEX
  5
3373
330
2C15
100
AcDbEntity
  8
0
100
AcDbVertex
100
AcDb2dVertex
 10
2.335456665256927
 20
4.471356071072034
 30
0.0
  0
VERTEX
  5
3374
330
2C15
100
AcDbEntity
  8
0
100
AcDbVertex
100
AcDb2dVertex
 10
2.33940686210732
 20
4.464772409654711
 30
0.0
  0
SEQEND
  5
3375
330
2C15
100
AcDbEntity
  8
0
  0
LINE
  5
2C1A
330
1E
100
AcDbEntity
  8
0
100
AcDbLine
 10
1.458512964469525
 20
4.117155086820065
 30
0.0
 11
1.458512964469525
 21
4.115838354536601
 31
0.0
  0
LINE
  5
2C1B
330
1E
100
AcDbEntity
  8
0
100
AcDbLine
 10
1.33869032667425
 20
4.117155086820065
 30
0.0
 11
1.458512964469525
 21
4.117155086820065
 31
0.0
  0
LINE
  5
2C1C
330
1E
100
AcDbEntity
  8
0
100
AcDbLine
 10
1.33869032667425
 20
4.115838354536601
 30
0.0
 11
1.33869032667425
 21
4.117155086820065
 31
0.0
  0
LINE
  5
2C1D
330
1E
100
AcDbEntity
  8
0
100
AcDbLine
 10
1.33869032667425
 20
4.115838354536601
 30
0.0
 11
1.458512964469525
 21
4.115838354536601
 31
0.0
  0
LINE
  5
2C1E
330
1E
100
AcDbEntity
  8
0
100
AcDbLine
 10
1.458512964469525
 20
4.190892094694082
 30
0.0
 11
1.458512964469525
 21
4.189575362410616
 31
0.0
  0
LINE
  5
2C1F
330
1E
100
AcDbEntity
  8
0
100
AcDbLine
 10
1.458512964469525
 20
4.190892094694082
 30
0.0
 11
1.33869032667425
 21
4.190892094694082
 31
0.0
  0
LINE
  5
2C20
330
1E
100
AcDbEntity
  8
0
100
AcDbLine
 10
1.33869032667425
 20
4.190892094694082
 30
0.0
 11
1.33869032667425
 21
4.189575362410616
 31
0.0
  0
LINE
  5
2C21
330
1E
100
AcDbEntity
  8
0
100
AcDbLine
 10
1.458512964469525
 20
4.189575362410616
 30
0.0
 11
1.33869032667425
 21
4.189575362410616
 31
0.0
  0
POLYLINE
  5
2C22
330
1E
100
AcDbEntity
  8
0
100
AcDb2dPolyline
 66
     1
 10
0.0
 20
0.0
 30
0.0
  0
VERTEX
  5
3376
330
2C22
100
AcDbEntity
  8
0
100
AcDbVertex
100
AcDb2dVertex
 10
1.33869032667425
 20
4.190892094694082
 30
0.0
  0
VERTEX
  5
3377
330
2C22
100
AcDbEntity
  8
0
100
AcDbVertex
100
AcDb2dVertex
 10
1.320256074705746
 20
4.193525559261011
 30
0.0
  0
VERTEX
  5
3378
330
2C22
100
AcDbEntity
  8
0
100
AcDbVertex
100
AcDb2dVertex
 10
1.301821822737242
 20
4.200109220678333
 30
0.0
  0
SEQEND
  5
3379
330
2C22
100
AcDbEntity
  8
0
  0
POLYLINE
  5
2C27
330
1E
100
AcDbEntity
  8
0
100
AcDb2dPolyline
 66
     1
 10
0.0
 20
0.0
 30
0.0
  0
VERTEX
  5
337A
330
2C27
100
AcDbEntity
  8
0
100
AcDbVertex
100
AcDb2dVertex
 10
1.495381468406533
 20
4.200109220678333
 30
0.0
  0
VERTEX
  5
337B
330
2C27
100
AcDbEntity
  8
0
100
AcDbVertex
100
AcDb2dVertex
 10
1.478263948721494
 20
4.193525559261011
 30
0.0
  0
VERTEX
  5
337C
330
2C27
100
AcDbEntity
  8
0
100
AcDbVertex
100
AcDb2dVertex
 10
1.458512964469526
 20
4.190892094694082
 30
0.0
  0
SEQEND
  5
337D
330
2C27
100
AcDbEntity
  8
0
  0
LINE
  5
2C2C
330
1E
100
AcDbEntity
  8
0
100
AcDbLine
 10
1.495381468406533
 20
4.200109220678333
 30
0.0
 11
1.301821822737242
 21
4.200109220678333
 31
0.0
  0
LINE
  5
2C2D
330
1E
100
AcDbEntity
  8
0
100
AcDbLine
 10
1.504598594390786
 20
4.208009614379121
 30
0.0
 11
1.495381468406533
 21
4.200109220678333
 31
0.0
  0
LINE
  5
2C2E
330
1E
100
AcDbEntity
  8
0
100
AcDbLine
 10
1.301821822737242
 20
4.200109220678333
 30
0.0
 11
1.29260469675299
 21
4.208009614379121
 31
0.0
  0
POLYLINE
  5
2C2F
330
1E
100
AcDbEntity
  8
0
100
AcDb2dPolyline
 66
     1
 10
0.0
 20
0.0
 30
0.0
  0
VERTEX
  5
337E
330
2C2F
100
AcDbEntity
  8
0
100
AcDbVertex
100
AcDb2dVertex
 10
1.504598594390786
 20
4.208009614379121
 30
0.0
  0
VERTEX
  5
337F
330
2C2F
100
AcDbEntity
  8
0
100
AcDbVertex
100
AcDb2dVertex
 10
1.526983043209683
 20
4.234344260048412
 30
0.0
  0
VERTEX
  5
3380
330
2C2F
100
AcDbEntity
  8
0
100
AcDbVertex
100
AcDb2dVertex
 10
1.53488343691047
 20
4.26857929941849
 30
0.0
  0
VERTEX
  5
3381
330
2C2F
100
AcDbEntity
  8
0
100
AcDbVertex
100
AcDb2dVertex
 10
1.526983043209683
 20
4.301497606505106
 30
0.0
  0
VERTEX
  5
3382
330
2C2F
100
AcDbEntity
  8
0
100
AcDbVertex
100
AcDb2dVertex
 10
1.504598594390786
 20
4.327832252174396
 30
0.0
  0
SEQEND
  5
3383
330
2C2F
100
AcDbEntity
  8
0
  0
LINE
  5
2C36
330
1E
100
AcDbEntity
  8
0
100
AcDbLine
 10
1.495381468406533
 20
4.335732645875183
 30
0.0
 11
1.504598594390786
 21
4.327832252174396
 31
0.0
  0
LINE
  5
2C37
330
1E
100
AcDbEntity
  8
0
100
AcDbLine
 10
1.495381468406533
 20
4.335732645875183
 30
0.0
 11
1.301821822737242
 21
4.335732645875183
 31
0.0
  0
LINE
  5
2C38
330
1E
100
AcDbEntity
  8
0
100
AcDbLine
 10
1.29260469675299
 20
4.327832252174396
 30
0.0
 11
1.301821822737242
 21
4.335732645875183
 31
0.0
  0
POLYLINE
  5
2C39
330
1E
100
AcDbEntity
  8
0
100
AcDb2dPolyline
 66
     1
 10
0.0
 20
0.0
 30
0.0
  0
VERTEX
  5
3384
330
2C39
100
AcDbEntity
  8
0
100
AcDbVertex
100
AcDb2dVertex
 10
1.458512964469526
 20
4.344949771859435
 30
0.0
  0
VERTEX
  5
3385
330
2C39
100
AcDbEntity
  8
0
100
AcDbVertex
100
AcDb2dVertex
 10
1.478263948721494
 20
4.342316307292507
 30
0.0
  0
VERTEX
  5
3386
330
2C39
100
AcDbEntity
  8
0
100
AcDbVertex
100
AcDb2dVertex
 10
1.495381468406533
 20
4.335732645875183
 30
0.0
  0
SEQEND
  5
3387
330
2C39
100
AcDbEntity
  8
0
  0
LINE
  5
2C3E
330
1E
100
AcDbEntity
  8
0
100
AcDbLine
 10
1.458512964469525
 20
4.344949771859436
 30
0.0
 11
1.33869032667425
 21
4.344949771859436
 31
0.0
  0
POLYLINE
  5
2C3F
330
1E
100
AcDbEntity
  8
0
100
AcDb2dPolyline
 66
     1
 10
0.0
 20
0.0
 30
0.0
  0
VERTEX
  5
3388
330
2C3F
100
AcDbEntity
  8
0
100
AcDbVertex
100
AcDb2dVertex
 10
1.301821822737242
 20
4.335732645875183
 30
0.0
  0
VERTEX
  5
3389
330
2C3F
100
AcDbEntity
  8
0
100
AcDbVertex
100
AcDb2dVertex
 10
1.320256074705746
 20
4.342316307292507
 30
0.0
  0
VERTEX
  5
338A
330
2C3F
100
AcDbEntity
  8
0
100
AcDbVertex
100
AcDb2dVertex
 10
1.33869032667425
 20
4.344949771859435
 30
0.0
  0
SEQEND
  5
338B
330
2C3F
100
AcDbEntity
  8
0
  0
LINE
  5
2C44
330
1E
100
AcDbEntity
  8
0
100
AcDbLine
 10
1.458512964469525
 20
4.344949771859436
 30
0.0
 11
1.458512964469525
 21
4.344949771859436
 31
0.0
  0
LINE
  5
2C45
330
1E
100
AcDbEntity
  8
0
100
AcDbLine
 10
1.458512964469525
 20
4.344949771859436
 30
0.0
 11
1.33869032667425
 21
4.344949771859436
 31
0.0
  0
LINE
  5
2C46
330
1E
100
AcDbEntity
  8
0
100
AcDbLine
 10
1.33869032667425
 20
4.344949771859436
 30
0.0
 11
1.33869032667425
 21
4.344949771859436
 31
0.0
  0
LINE
  5
2C47
330
1E
100
AcDbEntity
  8
0
100
AcDbLine
 10
0.892318082579762
 20
4.563527330914554
 30
0.0
 11
0.8844176888789752
 21
4.57142772461534
 31
0.0
  0
LINE
  5
2C48
330
1E
100
AcDbEntity
  8
0
100
AcDbLine
 10
0.6987584369104712
 20
4.531925756111404
 30
0.0
 11
0.7000751691939353
 21
4.533242488394868
 31
0.0
  0
LINE
  5
2C49
330
1E
100
AcDbEntity
  8
0
100
AcDbLine
 10
0.8238480038396049
 20
4.531925756111404
 30
0.0
 11
0.8225312715561408
 21
4.533242488394868
 31
0.0
  0
LINE
  5
2C4A
330
1E
100
AcDbEntity
  8
0
100
AcDbLine
 10
0.639505484154566
 20
4.57142772461534
 30
0.0
 11
0.6316050904537774
 21
4.563527330914554
 31
0.0
  0
LINE
  5
2C4B
330
1E
100
AcDbEntity
  8
0
100
AcDbLine
 10
0.5078322558081095
 20
4.061852330914554
 30
0.0
 11
0.4683302873041715
 21
4.061852330914554
 31
0.0
  0
LINE
  5
2C4C
330
1E
100
AcDbEntity
  8
0
100
AcDbLine
 10
0.4683302873041715
 20
4.473989535638963
 30
0.0
 11
0.5078322558081095
 21
4.473989535638963
 31
0.0
  0
LINE
  5
2C4D
330
1E
100
AcDbEntity
  8
0
100
AcDbLine
 10
2.289371035335667
 20
4.061852330914554
 30
0.0
 11
2.288054303052203
 21
4.061852330914554
 31
0.0
  0
LINE
  5
2C4E
330
1E
100
AcDbEntity
  8
0
100
AcDbLine
 10
0.5091489880915736
 20
4.061852330914554
 30
0.0
 11
2.288054303052203
 21
4.061852330914554
 31
0.0
  0
LINE
  5
2C4F
330
1E
100
AcDbEntity
  8
0
100
AcDbLine
 10
0.5091489880915736
 20
4.061852330914554
 30
0.0
 11
0.5078322558081095
 21
4.061852330914554
 31
0.0
  0
LINE
  5
2C50
330
1E
100
AcDbEntity
  8
0
100
AcDbLine
 10
2.328873003839604
 20
4.061852330914554
 30
0.0
 11
2.289371035335667
 21
4.061852330914554
 31
0.0
  0
LINE
  5
2C51
330
1E
100
AcDbEntity
  8
0
100
AcDbLine
 10
2.289371035335667
 20
4.473989535638963
 30
0.0
 11
2.328873003839604
 21
4.473989535638963
 31
0.0
  0
LINE
  5
2C52
330
1E
100
AcDbEntity
  8
0
100
AcDbLine
 10
2.166914932973463
 20
4.563527330914554
 30
0.0
 11
2.157697806989211
 21
4.57142772461534
 31
0.0
  0
LINE
  5
2C53
330
1E
100
AcDbEntity
  8
0
100
AcDbLine
 10
1.973355287304171
 20
4.531925756111404
 30
0.0
 11
1.974672019587636
 21
4.533242488394868
 31
0.0
  0
LINE
  5
2C54
330
1E
100
AcDbEntity
  8
0
100
AcDbLine
 10
2.098444854233305
 20
4.531925756111404
 30
0.0
 11
2.09712812194984
 21
4.533242488394868
 31
0.0
  0
LINE
  5
2C55
330
1E
100
AcDbEntity
  8
0
100
AcDbLine
 10
1.912785602264801
 20
4.57142772461534
 30
0.0
 11
1.904885208564014
 21
4.563527330914554
 31
0.0
  0
LINE
  5
2C56
330
1E
100
AcDbEntity
  8
0
100
AcDbLine
 10
1.911468869981336
 20
4.574061189182271
 30
0.0
 11
1.912785602264801
 21
4.572744456898806
 31
0.0
  0
LINE
  5
2C57
330
1E
100
AcDbEntity
  8
0
100
AcDbLine
 10
1.911468869981336
 20
4.574061189182271
 30
0.0
 11
1.903568476280549
 21
4.566160795481483
 31
0.0
  0
LINE
  5
2C58
330
1E
100
AcDbEntity
  8
0
100
AcDbLine
 10
1.904885208564014
 20
4.563527330914554
 30
0.0
 11
1.903568476280549
 21
4.566160795481483
 31
0.0
  0
LINE
  5
2C59
330
1E
100
AcDbEntity
  8
0
100
AcDbLine
 10
1.903568476280549
 20
4.566160795481483
 30
0.0
 11
1.903568476280549
 21
4.535875952961799
 31
0.0
  0
LINE
  5
2C5A
330
1E
100
AcDbEntity
  8
0
100
AcDbLine
 10
1.903568476280549
 20
4.535875952961799
 30
0.0
 11
1.904885208564014
 21
4.539826149812191
 31
0.0
  0
LINE
  5
2C5B
330
1E
100
AcDbEntity
  8
0
100
AcDbLine
 10
1.904885208564014
 20
4.563527330914554
 30
0.0
 11
1.904885208564014
 21
4.539826149812191
 31
0.0
  0
LINE
  5
2C5C
330
1E
100
AcDbEntity
  8
0
100
AcDbLine
 10
2.166914932973463
 20
4.539826149812191
 30
0.0
 11
2.168231665256927
 21
4.535875952961799
 31
0.0
  0
LINE
  5
2C5D
330
1E
100
AcDbEntity
  8
0
100
AcDbLine
 10
2.168231665256927
 20
4.535875952961799
 30
0.0
 11
2.168231665256927
 21
4.566160795481483
 31
0.0
  0
LINE
  5
2C5E
330
1E
100
AcDbEntity
  8
0
100
AcDbLine
 10
2.168231665256927
 20
4.566160795481483
 30
0.0
 11
2.166914932973463
 21
4.563527330914554
 31
0.0
  0
LINE
  5
2C5F
330
1E
100
AcDbEntity
  8
0
100
AcDbLine
 10
2.166914932973463
 20
4.539826149812191
 30
0.0
 11
2.166914932973463
 21
4.563527330914554
 31
0.0
  0
LINE
  5
2C60
330
1E
100
AcDbEntity
  8
0
100
AcDbLine
 10
2.168231665256927
 20
4.566160795481483
 30
0.0
 11
2.16033127155614
 21
4.574061189182271
 31
0.0
  0
LINE
  5
2C61
330
1E
100
AcDbEntity
  8
0
100
AcDbLine
 10
2.159014539272675
 20
4.572744456898806
 30
0.0
 11
2.16033127155614
 21
4.574061189182271
 31
0.0
  0
LINE
  5
2C62
330
1E
100
AcDbEntity
  8
0
100
AcDbLine
 10
2.16033127155614
 20
4.574061189182271
 30
0.0
 11
2.159014539272675
 21
4.574061189182271
 31
0.0
  0
LINE
  5
2C63
330
1E
100
AcDbEntity
  8
0
100
AcDbLine
 10
1.912785602264801
 20
4.574061189182271
 30
0.0
 11
1.911468869981336
 21
4.574061189182271
 31
0.0
  0
LINE
  5
2C64
330
1E
100
AcDbEntity
  8
0
100
AcDbLine
 10
0.638188751871101
 20
4.574061189182271
 30
0.0
 11
0.638188751871101
 21
4.574061189182271
 31
0.0
  0
LINE
  5
2C65
330
1E
100
AcDbEntity
  8
0
100
AcDbLine
 10
0.638188751871101
 20
4.574061189182271
 30
0.0
 11
0.638188751871101
 21
4.572744456898806
 31
0.0
  0
LINE
  5
2C66
330
1E
100
AcDbEntity
  8
0
100
AcDbLine
 10
0.638188751871101
 20
4.574061189182271
 30
0.0
 11
0.6302883581703132
 21
4.566160795481483
 31
0.0
  0
LINE
  5
2C67
330
1E
100
AcDbEntity
  8
0
100
AcDbLine
 10
0.6316050904537774
 20
4.563527330914554
 30
0.0
 11
0.6302883581703132
 21
4.566160795481483
 31
0.0
  0
LINE
  5
2C68
330
1E
100
AcDbEntity
  8
0
100
AcDbLine
 10
0.6302883581703132
 20
4.566160795481483
 30
0.0
 11
0.6302883581703132
 21
4.535875952961799
 31
0.0
  0
LINE
  5
2C69
330
1E
100
AcDbEntity
  8
0
100
AcDbLine
 10
0.6302883581703132
 20
4.535875952961799
 30
0.0
 11
0.6316050904537774
 21
4.539826149812191
 31
0.0
  0
LINE
  5
2C6A
330
1E
100
AcDbEntity
  8
0
100
AcDbLine
 10
0.6316050904537774
 20
4.563527330914554
 30
0.0
 11
0.6316050904537774
 21
4.539826149812191
 31
0.0
  0
LINE
  5
2C6B
330
1E
100
AcDbEntity
  8
0
100
AcDbLine
 10
0.892318082579762
 20
4.539826149812191
 30
0.0
 11
0.8936348148632271
 21
4.535875952961799
 31
0.0
  0
LINE
  5
2C6C
330
1E
100
AcDbEntity
  8
0
100
AcDbLine
 10
0.8936348148632271
 20
4.535875952961799
 30
0.0
 11
0.8936348148632271
 21
4.566160795481483
 31
0.0
  0
LINE
  5
2C6D
330
1E
100
AcDbEntity
  8
0
100
AcDbLine
 10
0.8936348148632271
 20
4.566160795481483
 30
0.0
 11
0.892318082579762
 21
4.563527330914554
 31
0.0
  0
LINE
  5
2C6E
330
1E
100
AcDbEntity
  8
0
100
AcDbLine
 10
0.892318082579762
 20
4.539826149812191
 30
0.0
 11
0.892318082579762
 21
4.563527330914554
 31
0.0
  0
LINE
  5
2C6F
330
1E
100
AcDbEntity
  8
0
100
AcDbLine
 10
0.8936348148632271
 20
4.566160795481483
 30
0.0
 11
0.8857344211624393
 21
4.574061189182271
 31
0.0
  0
LINE
  5
2C70
330
1E
100
AcDbEntity
  8
0
100
AcDbLine
 10
0.8844176888789752
 20
4.572744456898806
 30
0.0
 11
0.8857344211624393
 21
4.574061189182271
 31
0.0
  0
LINE
  5
2C71
330
1E
100
AcDbEntity
  8
0
100
AcDbLine
 10
0.8857344211624393
 20
4.574061189182271
 30
0.0
 11
0.8844176888789752
 21
4.574061189182271
 31
0.0
  0
LINE
  5
2C72
330
1E
100
AcDbEntity
  8
0
100
AcDbLine
 10
1.322889539272675
 20
4.489790323040538
 30
0.0
 11
1.321572806989211
 21
4.491107055324002
 31
0.0
  0
POLYLINE
  5
2C73
330
1E
100
AcDbEntity
  8
0
100
AcDb2dPolyline
 66
     1
 10
0.0
 20
0.0
 30
0.0
  0
VERTEX
  5
338C
330
2C73
100
AcDbEntity
  8
0
100
AcDbVertex
100
AcDb2dVertex
 10
1.328156468406533
 20
4.491107055324002
 30
0.0
  0
VERTEX
  5
338D
330
2C73
100
AcDbEntity
  8
0
100
AcDbVertex
100
AcDb2dVertex
 10
1.325523003839604
 20
4.491107055324002
 30
0.0
  0
VERTEX
  5
338E
330
2C73
100
AcDbEntity
  8
0
100
AcDbVertex
100
AcDb2dVertex
 10
1.322889539272675
 20
4.489790323040538
 30
0.0
  0
SEQEND
  5
338F
330
2C73
100
AcDbEntity
  8
0
  0
POLYLINE
  5
2C78
330
1E
100
AcDbEntity
  8
0
100
AcDb2dPolyline
 66
     1
 10
0.0
 20
0.0
 30
0.0
  0
VERTEX
  5
3390
330
2C78
100
AcDbEntity
  8
0
100
AcDbVertex
100
AcDb2dVertex
 10
1.33869032667425
 20
4.344949771859435
 30
0.0
  0
VERTEX
  5
3391
330
2C78
100
AcDbEntity
  8
0
100
AcDbVertex
100
AcDb2dVertex
 10
1.330789932973462
 20
4.344949771859435
 30
0.0
  0
VERTEX
  5
3392
330
2C78
100
AcDbEntity
  8
0
100
AcDbVertex
100
AcDb2dVertex
 10
1.322889539272675
 20
4.343633039575971
 30
0.0
  0
SEQEND
  5
3393
330
2C78
100
AcDbEntity
  8
0
  0
LINE
  5
2C7D
330
1E
100
AcDbEntity
  8
0
100
AcDbLine
 10
1.322889539272675
 20
4.343633039575971
 30
0.0
 11
1.321572806989211
 21
4.344949771859436
 31
0.0
  0
POLYLINE
  5
2C7E
330
1E
100
AcDbEntity
  8
0
100
AcDb2dPolyline
 66
     1
 10
0.0
 20
0.0
 30
0.0
  0
VERTEX
  5
3394
330
2C7E
100
AcDbEntity
  8
0
100
AcDbVertex
100
AcDb2dVertex
 10
1.33869032667425
 20
4.189575362410616
 30
0.0
  0
VERTEX
  5
3395
330
2C7E
100
AcDbEntity
  8
0
100
AcDbVertex
100
AcDb2dVertex
 10
1.3070887518711
 20
4.197475756111404
 30
0.0
  0
VERTEX
  5
3396
330
2C7E
100
AcDbEntity
  8
0
100
AcDbVertex
100
AcDb2dVertex
 10
1.280754106201809
 20
4.215910008079908
 30
0.0
  0
VERTEX
  5
3397
330
2C7E
100
AcDbEntity
  8
0
100
AcDbVertex
100
AcDb2dVertex
 10
1.264953318800234
 20
4.243561386032665
 30
0.0
  0
VERTEX
  5
3398
330
2C7E
100
AcDbEntity
  8
0
100
AcDbVertex
100
AcDb2dVertex
 10
1.261003121949841
 20
4.276479693119278
 30
0.0
  0
VERTEX
  5
3399
330
2C7E
100
AcDbEntity
  8
0
100
AcDbVertex
100
AcDb2dVertex
 10
1.271536980217557
 20
4.306764535638963
 30
0.0
  0
VERTEX
  5
339A
330
2C7E
100
AcDbEntity
  8
0
100
AcDbVertex
100
AcDb2dVertex
 10
1.29260469675299
 20
4.330465716741325
 30
0.0
  0
VERTEX
  5
339B
330
2C7E
100
AcDbEntity
  8
0
100
AcDbVertex
100
AcDb2dVertex
 10
1.321572806989211
 20
4.344949771859435
 30
0.0
  0
SEQEND
  5
339C
330
2C7E
100
AcDbEntity
  8
0
  0
POLYLINE
  5
2C88
330
1E
100
AcDbEntity
  8
0
100
AcDb2dPolyline
 66
     1
 10
0.0
 20
0.0
 30
0.0
  0
VERTEX
  5
339D
330
2C88
100
AcDbEntity
  8
0
100
AcDbVertex
100
AcDb2dVertex
 10
1.33869032667425
 20
4.117155086820065
 30
0.0
  0
VERTEX
  5
339E
330
2C88
100
AcDbEntity
  8
0
100
AcDbVertex
100
AcDb2dVertex
 10
1.297871625886849
 20
4.123738748237388
 30
0.0
  0
VERTEX
  5
339F
330
2C88
100
AcDbEntity
  8
0
100
AcDbVertex
100
AcDb2dVertex
 10
1.259686389666376
 20
4.139539535638964
 30
0.0
  0
VERTEX
  5
33A0
330
2C88
100
AcDbEntity
  8
0
100
AcDbVertex
100
AcDb2dVertex
 10
1.228084814863226
 20
4.165874181308255
 30
0.0
  0
VERTEX
  5
33A1
330
2C88
100
AcDbEntity
  8
0
100
AcDbVertex
100
AcDb2dVertex
 10
1.204383633760864
 20
4.200109220678333
 30
0.0
  0
VERTEX
  5
33A2
330
2C88
100
AcDbEntity
  8
0
100
AcDbVertex
100
AcDb2dVertex
 10
1.191216310926219
 20
4.23961118918227
 30
0.0
  0
VERTEX
  5
33A3
330
2C88
100
AcDbEntity
  8
0
100
AcDbVertex
100
AcDb2dVertex
 10
1.188582846359289
 20
4.280429889969672
 30
0.0
  0
VERTEX
  5
33A4
330
2C88
100
AcDbEntity
  8
0
100
AcDbVertex
100
AcDb2dVertex
 10
1.197799972343541
 20
4.321248590757074
 30
0.0
  0
VERTEX
  5
33A5
330
2C88
100
AcDbEntity
  8
0
100
AcDbVertex
100
AcDb2dVertex
 10
1.21755095659551
 20
4.356800362410616
 30
0.0
  0
VERTEX
  5
33A6
330
2C88
100
AcDbEntity
  8
0
100
AcDbVertex
100
AcDb2dVertex
 10
1.24651906683173
 20
4.387085204930301
 30
0.0
  0
VERTEX
  5
33A7
330
2C88
100
AcDbEntity
  8
0
100
AcDbVertex
100
AcDb2dVertex
 10
1.282070838485274
 20
4.408152921465735
 30
0.0
  0
VERTEX
  5
33A8
330
2C88
100
AcDbEntity
  8
0
100
AcDbVertex
100
AcDb2dVertex
 10
1.321572806989211
 20
4.417370047449987
 30
0.0
  0
SEQEND
  5
33A9
330
2C88
100
AcDbEntity
  8
0
  0
LINE
  5
2C96
330
1E
100
AcDbEntity
  8
0
100
AcDbLine
 10
1.321572806989211
 20
4.417370047449987
 30
0.0
 11
1.318939342422281
 21
4.418686779733452
 31
0.0
  0
POLYLINE
  5
2C97
330
1E
100
AcDbEntity
  8
0
100
AcDb2dPolyline
 66
     1
 10
0.0
 20
0.0
 30
0.0
  0
VERTEX
  5
33AA
330
2C97
100
AcDbEntity
  8
0
100
AcDbVertex
100
AcDb2dVertex
 10
1.318939342422282
 20
4.418686779733451
 30
0.0
  0
VERTEX
  5
33AB
330
2C97
100
AcDbEntity
  8
0
100
AcDbVertex
100
AcDb2dVertex
 10
1.27812064163488
 20
4.408152921465735
 30
0.0
  0
VERTEX
  5
33AC
330
2C97
100
AcDbEntity
  8
0
100
AcDbVertex
100
AcDb2dVertex
 10
1.242568869981336
 20
4.387085204930301
 30
0.0
  0
VERTEX
  5
33AD
330
2C97
100
AcDbEntity
  8
0
100
AcDbVertex
100
AcDb2dVertex
 10
1.214917492028581
 20
4.356800362410616
 30
0.0
  0
VERTEX
  5
33AE
330
2C97
100
AcDbEntity
  8
0
100
AcDbVertex
100
AcDb2dVertex
 10
1.195166507776612
 20
4.319931858473609
 30
0.0
  0
VERTEX
  5
33AF
330
2C97
100
AcDbEntity
  8
0
100
AcDbVertex
100
AcDb2dVertex
 10
1.187266114075825
 20
4.279113157686206
 30
0.0
  0
VERTEX
  5
33B0
330
2C97
100
AcDbEntity
  8
0
100
AcDbVertex
100
AcDb2dVertex
 10
1.189899578642754
 20
4.236977724615341
 30
0.0
  0
VERTEX
  5
33B1
330
2C97
100
AcDbEntity
  8
0
100
AcDbVertex
100
AcDb2dVertex
 10
1.203066901477399
 20
4.198792488394869
 30
0.0
  0
VERTEX
  5
33B2
330
2C97
100
AcDbEntity
  8
0
100
AcDbVertex
100
AcDb2dVertex
 10
1.226768082579762
 20
4.16455744902479
 30
0.0
  0
VERTEX
  5
33B3
330
2C97
100
AcDbEntity
  8
0
100
AcDbVertex
100
AcDb2dVertex
 10
1.259686389666376
 20
4.138222803355498
 30
0.0
  0
VERTEX
  5
33B4
330
2C97
100
AcDbEntity
  8
0
100
AcDbVertex
100
AcDb2dVertex
 10
1.297871625886849
 20
4.121105283670459
 30
0.0
  0
VERTEX
  5
33B5
330
2C97
100
AcDbEntity
  8
0
100
AcDbVertex
100
AcDb2dVertex
 10
1.33869032667425
 20
4.115838354536601
 30
0.0
  0
SEQEND
  5
33B6
330
2C97
100
AcDbEntity
  8
0
  0
LINE
  5
2CA5
330
1E
100
AcDbEntity
  8
0
100
AcDbLine
 10
0.5091489880915736
 20
4.473989535638963
 30
0.0
 11
1.318939342422281
 21
4.473989535638963
 31
0.0
  0
LINE
  5
2CA6
330
1E
100
AcDbEntity
  8
0
100
AcDbLine
 10
1.318939342422281
 20
4.473989535638963
 30
0.0
 11
1.316305877855353
 21
4.475306267922428
 31
0.0
  0
LINE
  5
2CA7
330
1E
100
AcDbEntity
  8
0
100
AcDbLine
 10
0.5078322558081095
 20
4.473989535638963
 30
0.0
 11
0.5091489880915736
 21
4.473989535638963
 31
0.0
  0
LINE
  5
2CA8
330
1E
100
AcDbEntity
  8
0
100
AcDbLine
 10
1.480897413288424
 20
4.475306267922428
 30
0.0
 11
1.478263948721494
 21
4.473989535638963
 31
0.0
  0
LINE
  5
2CA9
330
1E
100
AcDbEntity
  8
0
100
AcDbLine
 10
1.478263948721494
 20
4.473989535638963
 30
0.0
 11
2.288054303052203
 21
4.473989535638963
 31
0.0
  0
LINE
  5
2CAA
330
1E
100
AcDbEntity
  8
0
100
AcDbLine
 10
2.288054303052203
 20
4.473989535638963
 30
0.0
 11
2.289371035335667
 21
4.473989535638963
 31
0.0
  0
LINE
  5
2CAB
330
1E
100
AcDbEntity
  8
0
100
AcDbLine
 10
1.318939342422281
 20
4.418686779733452
 30
0.0
 11
1.318939342422281
 21
4.473989535638963
 31
0.0
  0
LINE
  5
2CAC
330
1E
100
AcDbEntity
  8
0
100
AcDbLine
 10
0.5091489880915736
 20
4.473989535638963
 30
0.0
 11
0.5091489880915736
 21
4.472672803355498
 31
0.0
  0
LINE
  5
2CAD
330
1E
100
AcDbEntity
  8
0
100
AcDbLine
 10
0.5091489880915736
 20
4.472672803355498
 30
0.0
 11
0.5091489880915736
 21
4.063169063198018
 31
0.0
  0
LINE
  5
2CAE
330
1E
100
AcDbEntity
  8
0
100
AcDbLine
 10
0.5091489880915736
 20
4.063169063198018
 30
0.0
 11
0.5091489880915736
 21
4.061852330914554
 31
0.0
  0
LINE
  5
2CAF
330
1E
100
AcDbEntity
  8
0
100
AcDbLine
 10
2.288054303052203
 20
4.061852330914554
 30
0.0
 11
2.288054303052203
 21
4.063169063198018
 31
0.0
  0
LINE
  5
2CB0
330
1E
100
AcDbEntity
  8
0
100
AcDbLine
 10
2.288054303052203
 20
4.063169063198018
 30
0.0
 11
2.288054303052203
 21
4.472672803355498
 31
0.0
  0
LINE
  5
2CB1
330
1E
100
AcDbEntity
  8
0
100
AcDbLine
 10
2.288054303052203
 20
4.472672803355498
 30
0.0
 11
2.288054303052203
 21
4.473989535638963
 31
0.0
  0
LINE
  5
2CB2
330
1E
100
AcDbEntity
  8
0
100
AcDbLine
 10
1.478263948721494
 20
4.473989535638963
 30
0.0
 11
1.478263948721494
 21
4.418686779733452
 31
0.0
  0
POLYLINE
  5
2CB3
330
1E
100
AcDbEntity
  8
0
100
AcDb2dPolyline
 66
     1
 10
0.0
 20
0.0
 30
0.0
  0
VERTEX
  5
33B7
330
2CB3
100
AcDbEntity
  8
0
100
AcDbVertex
100
AcDb2dVertex
 10
1.458512964469526
 20
4.115838354536601
 30
0.0
  0
VERTEX
  5
33B8
330
2CB3
100
AcDbEntity
  8
0
100
AcDbVertex
100
AcDb2dVertex
 10
1.500648397540391
 20
4.121105283670459
 30
0.0
  0
VERTEX
  5
33B9
330
2CB3
100
AcDbEntity
  8
0
100
AcDbVertex
100
AcDb2dVertex
 10
1.537516901477399
 20
4.138222803355498
 30
0.0
  0
VERTEX
  5
33BA
330
2CB3
100
AcDbEntity
  8
0
100
AcDbVertex
100
AcDb2dVertex
 10
1.570435208564014
 20
4.16455744902479
 30
0.0
  0
VERTEX
  5
33BB
330
2CB3
100
AcDbEntity
  8
0
100
AcDbVertex
100
AcDb2dVertex
 10
1.594136389666376
 20
4.198792488394869
 30
0.0
  0
VERTEX
  5
33BC
330
2CB3
100
AcDbEntity
  8
0
100
AcDbVertex
100
AcDb2dVertex
 10
1.608620444784486
 20
4.236977724615341
 30
0.0
  0
VERTEX
  5
33BD
330
2CB3
100
AcDbEntity
  8
0
100
AcDbVertex
100
AcDb2dVertex
 10
1.611253909351416
 20
4.279113157686206
 30
0.0
  0
VERTEX
  5
33BE
330
2CB3
100
AcDbEntity
  8
0
100
AcDbVertex
100
AcDb2dVertex
 10
1.602036783367163
 20
4.319931858473609
 30
0.0
  0
VERTEX
  5
33BF
330
2CB3
100
AcDbEntity
  8
0
100
AcDbVertex
100
AcDb2dVertex
 10
1.582285799115195
 20
4.356800362410616
 30
0.0
  0
VERTEX
  5
33C0
330
2CB3
100
AcDbEntity
  8
0
100
AcDbVertex
100
AcDb2dVertex
 10
1.554634421162439
 20
4.387085204930301
 30
0.0
  0
VERTEX
  5
33C1
330
2CB3
100
AcDbEntity
  8
0
100
AcDbVertex
100
AcDb2dVertex
 10
1.519082649508895
 20
4.408152921465735
 30
0.0
  0
VERTEX
  5
33C2
330
2CB3
100
AcDbEntity
  8
0
100
AcDbVertex
100
AcDb2dVertex
 10
1.478263948721494
 20
4.418686779733451
 30
0.0
  0
SEQEND
  5
33C3
330
2CB3
100
AcDbEntity
  8
0
  0
LINE
  5
2CC1
330
1E
100
AcDbEntity
  8
0
100
AcDbLine
 10
1.478263948721494
 20
4.418686779733452
 30
0.0
 11
1.475630484154565
 21
4.417370047449987
 31
0.0
  0
POLYLINE
  5
2CC2
330
1E
100
AcDbEntity
  8
0
100
AcDb2dPolyline
 66
     1
 10
0.0
 20
0.0
 30
0.0
  0
VERTEX
  5
33C4
330
2CC2
100
AcDbEntity
  8
0
100
AcDbVertex
100
AcDb2dVertex
 10
1.475630484154565
 20
4.417370047449987
 30
0.0
  0
VERTEX
  5
33C5
330
2CC2
100
AcDbEntity
  8
0
100
AcDbVertex
100
AcDb2dVertex
 10
1.515132452658502
 20
4.408152921465735
 30
0.0
  0
VERTEX
  5
33C6
330
2CC2
100
AcDbEntity
  8
0
100
AcDbVertex
100
AcDb2dVertex
 10
1.550684224312045
 20
4.387085204930301
 30
0.0
  0
VERTEX
  5
33C7
330
2CC2
100
AcDbEntity
  8
0
100
AcDbVertex
100
AcDb2dVertex
 10
1.579652334548265
 20
4.356800362410616
 30
0.0
  0
VERTEX
  5
33C8
330
2CC2
100
AcDbEntity
  8
0
100
AcDbVertex
100
AcDb2dVertex
 10
1.599403318800234
 20
4.321248590757074
 30
0.0
  0
VERTEX
  5
33C9
330
2CC2
100
AcDbEntity
  8
0
100
AcDbVertex
100
AcDb2dVertex
 10
1.608620444784486
 20
4.280429889969672
 30
0.0
  0
VERTEX
  5
33CA
330
2CC2
100
AcDbEntity
  8
0
100
AcDbVertex
100
AcDb2dVertex
 10
1.605986980217557
 20
4.23961118918227
 30
0.0
  0
VERTEX
  5
33CB
330
2CC2
100
AcDbEntity
  8
0
100
AcDbVertex
100
AcDb2dVertex
 10
1.592819657382911
 20
4.200109220678333
 30
0.0
  0
VERTEX
  5
33CC
330
2CC2
100
AcDbEntity
  8
0
100
AcDbVertex
100
AcDb2dVertex
 10
1.569118476280549
 20
4.165874181308255
 30
0.0
  0
VERTEX
  5
33CD
330
2CC2
100
AcDbEntity
  8
0
100
AcDbVertex
100
AcDb2dVertex
 10
1.537516901477399
 20
4.139539535638964
 30
0.0
  0
VERTEX
  5
33CE
330
2CC2
100
AcDbEntity
  8
0
100
AcDbVertex
100
AcDb2dVertex
 10
1.499331665256927
 20
4.123738748237388
 30
0.0
  0
VERTEX
  5
33CF
330
2CC2
100
AcDbEntity
  8
0
100
AcDbVertex
100
AcDb2dVertex
 10
1.458512964469526
 20
4.117155086820065
 30
0.0
  0
SEQEND
  5
33D0
330
2CC2
100
AcDbEntity
  8
0
  0
LINE
  5
2CD0
330
1E
100
AcDbEntity
  8
0
100
AcDbLine
 10
1.321572806989211
 20
4.344949771859436
 30
0.0
 11
1.321572806989211
 21
4.417370047449987
 31
0.0
  0
LINE
  5
2CD1
330
1E
100
AcDbEntity
  8
0
100
AcDbLine
 10
1.475630484154565
 20
4.417370047449987
 30
0.0
 11
1.475630484154565
 21
4.344949771859436
 31
0.0
  0
POLYLINE
  5
2CD2
330
1E
100
AcDbEntity
  8
0
100
AcDb2dPolyline
 66
     1
 10
0.0
 20
0.0
 30
0.0
  0
VERTEX
  5
33D1
330
2CD2
100
AcDbEntity
  8
0
100
AcDbVertex
100
AcDb2dVertex
 10
1.475630484154565
 20
4.344949771859435
 30
0.0
  0
VERTEX
  5
33D2
330
2CD2
100
AcDbEntity
  8
0
100
AcDbVertex
100
AcDb2dVertex
 10
1.504598594390786
 20
4.330465716741325
 30
0.0
  0
VERTEX
  5
33D3
330
2CD2
100
AcDbEntity
  8
0
100
AcDbVertex
100
AcDb2dVertex
 10
1.526983043209683
 20
4.306764535638963
 30
0.0
  0
VERTEX
  5
33D4
330
2CD2
100
AcDbEntity
  8
0
100
AcDbVertex
100
AcDb2dVertex
 10
1.536200169193935
 20
4.276479693119278
 30
0.0
  0
VERTEX
  5
33D5
330
2CD2
100
AcDbEntity
  8
0
100
AcDbVertex
100
AcDb2dVertex
 10
1.533566704627006
 20
4.243561386032665
 30
0.0
  0
VERTEX
  5
33D6
330
2CD2
100
AcDbEntity
  8
0
100
AcDbVertex
100
AcDb2dVertex
 10
1.516449184941967
 20
4.215910008079908
 30
0.0
  0
VERTEX
  5
33D7
330
2CD2
100
AcDbEntity
  8
0
100
AcDbVertex
100
AcDb2dVertex
 10
1.490114539272675
 20
4.197475756111404
 30
0.0
  0
VERTEX
  5
33D8
330
2CD2
100
AcDbEntity
  8
0
100
AcDbVertex
100
AcDb2dVertex
 10
1.458512964469526
 20
4.189575362410616
 30
0.0
  0
SEQEND
  5
33D9
330
2CD2
100
AcDbEntity
  8
0
  0
LINE
  5
2CDC
330
1E
100
AcDbEntity
  8
0
100
AcDbLine
 10
1.475630484154565
 20
4.344949771859436
 30
0.0
 11
1.4743137518711
 21
4.343633039575971
 31
0.0
  0
POLYLINE
  5
2CDD
330
1E
100
AcDbEntity
  8
0
100
AcDb2dPolyline
 66
     1
 10
0.0
 20
0.0
 30
0.0
  0
VERTEX
  5
33DA
330
2CDD
100
AcDbEntity
  8
0
100
AcDbVertex
100
AcDb2dVertex
 10
1.4743137518711
 20
4.343633039575971
 30
0.0
  0
VERTEX
  5
33DB
330
2CDD
100
AcDbEntity
  8
0
100
AcDbVertex
100
AcDb2dVertex
 10
1.466413358170313
 20
4.344949771859435
 30
0.0
  0
VERTEX
  5
33DC
330
2CDD
100
AcDbEntity
  8
0
100
AcDbVertex
100
AcDb2dVertex
 10
1.458512964469526
 20
4.344949771859435
 30
0.0
  0
SEQEND
  5
33DD
330
2CDD
100
AcDbEntity
  8
0
  0
LINE
  5
2CE2
330
1E
100
AcDbEntity
  8
0
100
AcDbLine
 10
1.322889539272675
 20
4.343633039575971
 30
0.0
 11
1.322889539272675
 21
4.489790323040538
 31
0.0
  0
LINE
  5
2CE3
330
1E
100
AcDbEntity
  8
0
100
AcDbLine
 10
1.4743137518711
 20
4.343633039575971
 30
0.0
 11
1.4743137518711
 21
4.489790323040538
 31
0.0
  0
POLYLINE
  5
2CE4
330
1E
100
AcDbEntity
  8
0
100
AcDb2dPolyline
 66
     1
 10
0.0
 20
0.0
 30
0.0
  0
VERTEX
  5
33DE
330
2CE4
100
AcDbEntity
  8
0
100
AcDbVertex
100
AcDb2dVertex
 10
1.4743137518711
 20
4.489790323040538
 30
0.0
  0
VERTEX
  5
33DF
330
2CE4
100
AcDbEntity
  8
0
100
AcDbVertex
100
AcDb2dVertex
 10
1.471680287304171
 20
4.491107055324002
 30
0.0
  0
VERTEX
  5
33E0
330
2CE4
100
AcDbEntity
  8
0
100
AcDbVertex
100
AcDb2dVertex
 10
1.469046822737242
 20
4.491107055324002
 30
0.0
  0
SEQEND
  5
33E1
330
2CE4
100
AcDbEntity
  8
0
  0
LINE
  5
2CE9
330
1E
100
AcDbEntity
  8
0
100
AcDbLine
 10
1.475630484154565
 20
4.491107055324002
 30
0.0
 11
1.4743137518711
 21
4.489790323040538
 31
0.0
  0
LINE
  5
2CEA
330
1E
100
AcDbEntity
  8
0
100
AcDbLine
 10
0.8857344211624393
 20
4.52797555926101
 30
0.0
 11
0.8844176888789752
 21
4.531925756111404
 31
0.0
  0
LINE
  5
2CEB
330
1E
100
AcDbEntity
  8
0
100
AcDbLine
 10
0.8857344211624393
 20
4.52797555926101
 30
0.0
 11
0.8936348148632271
 21
4.535875952961799
 31
0.0
  0
LINE
  5
2CEC
330
1E
100
AcDbEntity
  8
0
100
AcDbLine
 10
0.8317483975403918
 20
4.531925756111404
 30
0.0
 11
0.8238480038396049
 21
4.531925756111404
 31
0.0
  0
LINE
  5
2CED
330
1E
100
AcDbEntity
  8
0
100
AcDbLine
 10
0.6987584369104712
 20
4.531925756111404
 30
0.0
 11
0.6908580432096843
 21
4.531925756111404
 31
0.0
  0
LINE
  5
2CEE
330
1E
100
AcDbEntity
  8
0
100
AcDbLine
 10
0.639505484154566
 20
4.531925756111404
 30
0.0
 11
0.638188751871101
 21
4.52797555926101
 31
0.0
  0
LINE
  5
2CEF
330
1E
100
AcDbEntity
  8
0
100
AcDbLine
 10
0.638188751871101
 20
4.52797555926101
 30
0.0
 11
0.8857344211624393
 21
4.52797555926101
 31
0.0
  0
LINE
  5
2CF0
330
1E
100
AcDbEntity
  8
0
100
AcDbLine
 10
0.6302883581703132
 20
4.535875952961799
 30
0.0
 11
0.638188751871101
 21
4.52797555926101
 31
0.0
  0
POLYLINE
  5
2CF1
330
1E
100
AcDbEntity
  8
0
100
AcDb2dPolyline
 66
     1
 10
0.0
 20
0.0
 30
0.0
  0
VERTEX
  5
33E2
330
2CF1
100
AcDbEntity
  8
0
100
AcDbVertex
100
AcDb2dVertex
 10
1.475630484154565
 20
4.491107055324002
 30
0.0
  0
VERTEX
  5
33E3
330
2CF1
100
AcDbEntity
  8
0
100
AcDbVertex
100
AcDb2dVertex
 10
1.475630484154565
 20
4.493740519890932
 30
0.0
  0
VERTEX
  5
33E4
330
2CF1
100
AcDbEntity
  8
0
100
AcDbVertex
100
AcDb2dVertex
 10
1.475630484154565
 20
4.496373984457861
 30
0.0
  0
VERTEX
  5
33E5
330
2CF1
100
AcDbEntity
  8
0
100
AcDbVertex
100
AcDb2dVertex
 10
1.475630484154565
 20
4.499007449024791
 30
0.0
  0
VERTEX
  5
33E6
330
2CF1
100
AcDbEntity
  8
0
100
AcDbVertex
100
AcDb2dVertex
 10
1.475630484154565
 20
4.501640913591719
 30
0.0
  0
SEQEND
  5
33E7
330
2CF1
100
AcDbEntity
  8
0
  0
POLYLINE
  5
2CF8
330
1E
100
AcDbEntity
  8
0
100
AcDb2dPolyline
 66
     1
 10
0.0
 20
0.0
 30
0.0
  0
VERTEX
  5
33E8
330
2CF8
100
AcDbEntity
  8
0
100
AcDbVertex
100
AcDb2dVertex
 10
1.321572806989211
 20
4.501640913591719
 30
0.0
  0
VERTEX
  5
33E9
330
2CF8
100
AcDbEntity
  8
0
100
AcDbVertex
100
AcDb2dVertex
 10
1.321572806989211
 20
4.497690716741325
 30
0.0
  0
VERTEX
  5
33EA
330
2CF8
100
AcDbEntity
  8
0
100
AcDbVertex
100
AcDb2dVertex
 10
1.321572806989211
 20
4.495057252174397
 30
0.0
  0
VERTEX
  5
33EB
330
2CF8
100
AcDbEntity
  8
0
100
AcDbVertex
100
AcDb2dVertex
 10
1.321572806989211
 20
4.492423787607467
 30
0.0
  0
VERTEX
  5
33EC
330
2CF8
100
AcDbEntity
  8
0
100
AcDbVertex
100
AcDb2dVertex
 10
1.321572806989211
 20
4.491107055324002
 30
0.0
  0
SEQEND
  5
33ED
330
2CF8
100
AcDbEntity
  8
0
  0
LINE
  5
2CFF
330
1E
100
AcDbEntity
  8
0
100
AcDbLine
 10
1.478263948721494
 20
4.5134915041429
 30
0.0
 11
1.475630484154565
 21
4.512174771859435
 31
0.0
  0
LINE
  5
2D00
330
1E
100
AcDbEntity
  8
0
100
AcDbLine
 10
1.478263948721494
 20
4.5134915041429
 30
0.0
 11
1.469046822737242
 21
4.5134915041429
 31
0.0
  0
LINE
  5
2D01
330
1E
100
AcDbEntity
  8
0
100
AcDbLine
 10
1.328156468406533
 20
4.5134915041429
 30
0.0
 11
1.318939342422281
 21
4.5134915041429
 31
0.0
  0
LINE
  5
2D02
330
1E
100
AcDbEntity
  8
0
100
AcDbLine
 10
1.318939342422281
 20
4.5134915041429
 30
0.0
 11
1.321572806989211
 21
4.512174771859435
 31
0.0
  0
LINE
  5
2D03
330
1E
100
AcDbEntity
  8
0
100
AcDbLine
 10
2.16033127155614
 20
4.52797555926101
 30
0.0
 11
2.157697806989211
 21
4.531925756111404
 31
0.0
  0
LINE
  5
2D04
330
1E
100
AcDbEntity
  8
0
100
AcDbLine
 10
2.16033127155614
 20
4.52797555926101
 30
0.0
 11
2.168231665256927
 21
4.535875952961799
 31
0.0
  0
LINE
  5
2D05
330
1E
100
AcDbEntity
  8
0
100
AcDbLine
 10
2.106345247934092
 20
4.531925756111404
 30
0.0
 11
2.098444854233305
 21
4.531925756111404
 31
0.0
  0
LINE
  5
2D06
330
1E
100
AcDbEntity
  8
0
100
AcDbLine
 10
1.973355287304171
 20
4.531925756111404
 30
0.0
 11
1.965454893603384
 21
4.531925756111404
 31
0.0
  0
LINE
  5
2D07
330
1E
100
AcDbEntity
  8
0
100
AcDbLine
 10
1.912785602264801
 20
4.531925756111404
 30
0.0
 11
1.911468869981336
 21
4.52797555926101
 31
0.0
  0
LINE
  5
2D08
330
1E
100
AcDbEntity
  8
0
100
AcDbLine
 10
1.911468869981336
 20
4.52797555926101
 30
0.0
 11
2.16033127155614
 21
4.52797555926101
 31
0.0
  0
LINE
  5
2D09
330
1E
100
AcDbEntity
  8
0
100
AcDbLine
 10
1.903568476280549
 20
4.535875952961799
 30
0.0
 11
1.911468869981336
 21
4.52797555926101
 31
0.0
  0
POLYLINE
  5
2D0A
330
1E
100
AcDbEntity
  8
0
100
AcDb2dPolyline
 66
     1
 10
0.0
 20
0.0
 30
0.0
  0
VERTEX
  5
33EE
330
2D0A
100
AcDbEntity
  8
0
100
AcDbVertex
100
AcDb2dVertex
 10
1.895668082579762
 20
4.566160795481483
 30
0.0
  0
VERTEX
  5
33EF
330
2D0A
100
AcDbEntity
  8
0
100
AcDbVertex
100
AcDb2dVertex
 10
1.90093501171362
 20
4.566160795481483
 30
0.0
  0
VERTEX
  5
33F0
330
2D0A
100
AcDbEntity
  8
0
100
AcDbVertex
100
AcDb2dVertex
 10
1.903568476280549
 20
4.566160795481483
 30
0.0
  0
SEQEND
  5
33F1
330
2D0A
100
AcDbEntity
  8
0
  0
POLYLINE
  5
2D0F
330
1E
100
AcDbEntity
  8
0
100
AcDb2dPolyline
 66
     1
 10
0.0
 20
0.0
 30
0.0
  0
VERTEX
  5
33F2
330
2D0F
100
AcDbEntity
  8
0
100
AcDbVertex
100
AcDb2dVertex
 10
1.911468869981336
 20
4.581961582883057
 30
0.0
  0
VERTEX
  5
33F3
330
2D0F
100
AcDbEntity
  8
0
100
AcDbVertex
100
AcDb2dVertex
 10
1.911468869981336
 20
4.575377921465735
 30
0.0
  0
VERTEX
  5
33F4
330
2D0F
100
AcDbEntity
  8
0
100
AcDbVertex
100
AcDb2dVertex
 10
1.911468869981336
 20
4.574061189182271
 30
0.0
  0
SEQEND
  5
33F5
330
2D0F
100
AcDbEntity
  8
0
  0
POLYLINE
  5
2D14
330
1E
100
AcDbEntity
  8
0
100
AcDb2dPolyline
 66
     1
 10
0.0
 20
0.0
 30
0.0
  0
VERTEX
  5
33F6
330
2D14
100
AcDbEntity
  8
0
100
AcDbVertex
100
AcDb2dVertex
 10
1.895668082579762
 20
4.535875952961799
 30
0.0
  0
VERTEX
  5
33F7
330
2D14
100
AcDbEntity
  8
0
100
AcDbVertex
100
AcDb2dVertex
 10
1.90093501171362
 20
4.535875952961799
 30
0.0
  0
VERTEX
  5
33F8
330
2D14
100
AcDbEntity
  8
0
100
AcDbVertex
100
AcDb2dVertex
 10
1.903568476280549
 20
4.535875952961799
 30
0.0
  0
SEQEND
  5
33F9
330
2D14
100
AcDbEntity
  8
0
  0
POLYLINE
  5
2D19
330
1E
100
AcDbEntity
  8
0
100
AcDb2dPolyline
 66
     1
 10
0.0
 20
0.0
 30
0.0
  0
VERTEX
  5
33FA
330
2D19
100
AcDbEntity
  8
0
100
AcDbVertex
100
AcDb2dVertex
 10
1.911468869981336
 20
4.518758433276758
 30
0.0
  0
VERTEX
  5
33FB
330
2D19
100
AcDbEntity
  8
0
100
AcDbVertex
100
AcDb2dVertex
 10
1.911468869981336
 20
4.525342094694082
 30
0.0
  0
VERTEX
  5
33FC
330
2D19
100
AcDbEntity
  8
0
100
AcDbVertex
100
AcDb2dVertex
 10
1.911468869981336
 20
4.52797555926101
 30
0.0
  0
SEQEND
  5
33FD
330
2D19
100
AcDbEntity
  8
0
  0
POLYLINE
  5
2D1E
330
1E
100
AcDbEntity
  8
0
100
AcDb2dPolyline
 66
     1
 10
0.0
 20
0.0
 30
0.0
  0
VERTEX
  5
33FE
330
2D1E
100
AcDbEntity
  8
0
100
AcDbVertex
100
AcDb2dVertex
 10
2.16033127155614
 20
4.518758433276758
 30
0.0
  0
VERTEX
  5
33FF
330
2D1E
100
AcDbEntity
  8
0
100
AcDbVertex
100
AcDb2dVertex
 10
2.16033127155614
 20
4.525342094694082
 30
0.0
  0
VERTEX
  5
3400
330
2D1E
100
AcDbEntity
  8
0
100
AcDbVertex
100
AcDb2dVertex
 10
2.16033127155614
 20
4.52797555926101
 30
0.0
  0
SEQEND
  5
3401
330
2D1E
100
AcDbEntity
  8
0
  0
POLYLINE
  5
2D23
330
1E
100
AcDbEntity
  8
0
100
AcDb2dPolyline
 66
     1
 10
0.0
 20
0.0
 30
0.0
  0
VERTEX
  5
3402
330
2D23
100
AcDbEntity
  8
0
100
AcDbVertex
100
AcDb2dVertex
 10
2.176132058957715
 20
4.535875952961799
 30
0.0
  0
VERTEX
  5
3403
330
2D23
100
AcDbEntity
  8
0
100
AcDbVertex
100
AcDb2dVertex
 10
2.169548397540392
 20
4.535875952961799
 30
0.0
  0
VERTEX
  5
3404
330
2D23
100
AcDbEntity
  8
0
100
AcDbVertex
100
AcDb2dVertex
 10
2.168231665256928
 20
4.535875952961799
 30
0.0
  0
SEQEND
  5
3405
330
2D23
100
AcDbEntity
  8
0
  0
POLYLINE
  5
2D28
330
1E
100
AcDbEntity
  8
0
100
AcDb2dPolyline
 66
     1
 10
0.0
 20
0.0
 30
0.0
  0
VERTEX
  5
3406
330
2D28
100
AcDbEntity
  8
0
100
AcDbVertex
100
AcDb2dVertex
 10
2.168231665256928
 20
4.566160795481483
 30
0.0
  0
VERTEX
  5
3407
330
2D28
100
AcDbEntity
  8
0
100
AcDbVertex
100
AcDb2dVertex
 10
2.169548397540392
 20
4.566160795481483
 30
0.0
  0
VERTEX
  5
3408
330
2D28
100
AcDbEntity
  8
0
100
AcDbVertex
100
AcDb2dVertex
 10
2.176132058957715
 20
4.566160795481483
 30
0.0
  0
SEQEND
  5
3409
330
2D28
100
AcDbEntity
  8
0
  0
POLYLINE
  5
2D2D
330
1E
100
AcDbEntity
  8
0
100
AcDb2dPolyline
 66
     1
 10
0.0
 20
0.0
 30
0.0
  0
VERTEX
  5
340A
330
2D2D
100
AcDbEntity
  8
0
100
AcDbVertex
100
AcDb2dVertex
 10
2.16033127155614
 20
4.574061189182271
 30
0.0
  0
VERTEX
  5
340B
330
2D2D
100
AcDbEntity
  8
0
100
AcDbVertex
100
AcDb2dVertex
 10
2.16033127155614
 20
4.575377921465735
 30
0.0
  0
VERTEX
  5
340C
330
2D2D
100
AcDbEntity
  8
0
100
AcDbVertex
100
AcDb2dVertex
 10
2.16033127155614
 20
4.581961582883057
 30
0.0
  0
SEQEND
  5
340D
330
2D2D
100
AcDbEntity
  8
0
  0
POLYLINE
  5
2D32
330
1E
100
AcDbEntity
  8
0
100
AcDb2dPolyline
 66
     1
 10
0.0
 20
0.0
 30
0.0
  0
VERTEX
  5
340E
330
2D32
100
AcDbEntity
  8
0
100
AcDbVertex
100
AcDb2dVertex
 10
0.6381887518711008
 20
4.581961582883057
 30
0.0
  0
VERTEX
  5
340F
330
2D32
100
AcDbEntity
  8
0
100
AcDbVertex
100
AcDb2dVertex
 10
0.6381887518711008
 20
4.575377921465735
 30
0.0
  0
VERTEX
  5
3410
330
2D32
100
AcDbEntity
  8
0
100
AcDbVertex
100
AcDb2dVertex
 10
0.6381887518711008
 20
4.574061189182271
 30
0.0
  0
SEQEND
  5
3411
330
2D32
100
AcDbEntity
  8
0
  0
POLYLINE
  5
2D37
330
1E
100
AcDbEntity
  8
0
100
AcDb2dPolyline
 66
     1
 10
0.0
 20
0.0
 30
0.0
  0
VERTEX
  5
3412
330
2D37
100
AcDbEntity
  8
0
100
AcDbVertex
100
AcDb2dVertex
 10
0.6210712321860614
 20
4.566160795481483
 30
0.0
  0
VERTEX
  5
3413
330
2D37
100
AcDbEntity
  8
0
100
AcDbVertex
100
AcDb2dVertex
 10
0.6276548936033841
 20
4.566160795481483
 30
0.0
  0
VERTEX
  5
3414
330
2D37
100
AcDbEntity
  8
0
100
AcDbVertex
100
AcDb2dVertex
 10
0.6302883581703134
 20
4.566160795481483
 30
0.0
  0
SEQEND
  5
3415
330
2D37
100
AcDbEntity
  8
0
  0
POLYLINE
  5
2D3C
330
1E
100
AcDbEntity
  8
0
100
AcDb2dPolyline
 66
     1
 10
0.0
 20
0.0
 30
0.0
  0
VERTEX
  5
3416
330
2D3C
100
AcDbEntity
  8
0
100
AcDbVertex
100
AcDb2dVertex
 10
0.6302883581703134
 20
4.535875952961799
 30
0.0
  0
VERTEX
  5
3417
330
2D3C
100
AcDbEntity
  8
0
100
AcDbVertex
100
AcDb2dVertex
 10
0.6276548936033841
 20
4.535875952961799
 30
0.0
  0
VERTEX
  5
3418
330
2D3C
100
AcDbEntity
  8
0
100
AcDbVertex
100
AcDb2dVertex
 10
0.6210712321860614
 20
4.535875952961799
 30
0.0
  0
SEQEND
  5
3419
330
2D3C
100
AcDbEntity
  8
0
  0
POLYLINE
  5
2D41
330
1E
100
AcDbEntity
  8
0
100
AcDb2dPolyline
 66
     1
 10
0.0
 20
0.0
 30
0.0
  0
VERTEX
  5
341A
330
2D41
100
AcDbEntity
  8
0
100
AcDbVertex
100
AcDb2dVertex
 10
0.6381887518711008
 20
4.52797555926101
 30
0.0
  0
VERTEX
  5
341B
330
2D41
100
AcDbEntity
  8
0
100
AcDbVertex
100
AcDb2dVertex
 10
0.6381887518711008
 20
4.525342094694082
 30
0.0
  0
VERTEX
  5
341C
330
2D41
100
AcDbEntity
  8
0
100
AcDbVertex
100
AcDb2dVertex
 10
0.6381887518711008
 20
4.518758433276758
 30
0.0
  0
SEQEND
  5
341D
330
2D41
100
AcDbEntity
  8
0
  0
POLYLINE
  5
2D46
330
1E
100
AcDbEntity
  8
0
100
AcDb2dPolyline
 66
     1
 10
0.0
 20
0.0
 30
0.0
  0
VERTEX
  5
341E
330
2D46
100
AcDbEntity
  8
0
100
AcDbVertex
100
AcDb2dVertex
 10
0.8857344211624395
 20
4.52797555926101
 30
0.0
  0
VERTEX
  5
341F
330
2D46
100
AcDbEntity
  8
0
100
AcDbVertex
100
AcDb2dVertex
 10
0.8857344211624395
 20
4.525342094694082
 30
0.0
  0
VERTEX
  5
3420
330
2D46
100
AcDbEntity
  8
0
100
AcDbVertex
100
AcDb2dVertex
 10
0.8857344211624395
 20
4.518758433276758
 30
0.0
  0
SEQEND
  5
3421
330
2D46
100
AcDbEntity
  8
0
  0
POLYLINE
  5
2D4B
330
1E
100
AcDbEntity
  8
0
100
AcDb2dPolyline
 66
     1
 10
0.0
 20
0.0
 30
0.0
  0
VERTEX
  5
3422
330
2D4B
100
AcDbEntity
  8
0
100
AcDbVertex
100
AcDb2dVertex
 10
0.8936348148632269
 20
4.535875952961799
 30
0.0
  0
VERTEX
  5
3423
330
2D4B
100
AcDbEntity
  8
0
100
AcDbVertex
100
AcDb2dVertex
 10
0.8962682794301562
 20
4.535875952961799
 30
0.0
  0
VERTEX
  5
3424
330
2D4B
100
AcDbEntity
  8
0
100
AcDbVertex
100
AcDb2dVertex
 10
0.9015352085640142
 20
4.535875952961799
 30
0.0
  0
SEQEND
  5
3425
330
2D4B
100
AcDbEntity
  8
0
  0
POLYLINE
  5
2D50
330
1E
100
AcDbEntity
  8
0
100
AcDb2dPolyline
 66
     1
 10
0.0
 20
0.0
 30
0.0
  0
VERTEX
  5
3426
330
2D50
100
AcDbEntity
  8
0
100
AcDbVertex
100
AcDb2dVertex
 10
0.8936348148632269
 20
4.566160795481483
 30
0.0
  0
VERTEX
  5
3427
330
2D50
100
AcDbEntity
  8
0
100
AcDbVertex
100
AcDb2dVertex
 10
0.8962682794301562
 20
4.566160795481483
 30
0.0
  0
VERTEX
  5
3428
330
2D50
100
AcDbEntity
  8
0
100
AcDbVertex
100
AcDb2dVertex
 10
0.9015352085640142
 20
4.566160795481483
 30
0.0
  0
SEQEND
  5
3429
330
2D50
100
AcDbEntity
  8
0
  0
POLYLINE
  5
2D55
330
1E
100
AcDbEntity
  8
0
100
AcDb2dPolyline
 66
     1
 10
0.0
 20
0.0
 30
0.0
  0
VERTEX
  5
342A
330
2D55
100
AcDbEntity
  8
0
100
AcDbVertex
100
AcDb2dVertex
 10
0.8857344211624395
 20
4.574061189182271
 30
0.0
  0
VERTEX
  5
342B
330
2D55
100
AcDbEntity
  8
0
100
AcDbVertex
100
AcDb2dVertex
 10
0.8857344211624395
 20
4.575377921465735
 30
0.0
  0
VERTEX
  5
342C
330
2D55
100
AcDbEntity
  8
0
100
AcDbVertex
100
AcDb2dVertex
 10
0.8857344211624395
 20
4.581961582883057
 30
0.0
  0
SEQEND
  5
342D
330
2D55
100
AcDbEntity
  8
0
  0
LINE
  5
2D5A
330
1E
100
AcDbEntity
  8
0
100
AcDbLine
 10
1.317622610138817
 20
4.514808236426365
 30
0.0
 11
1.316305877855353
 21
4.514808236426365
 31
0.0
  0
POLYLINE
  5
2D5B
330
1E
100
AcDbEntity
  8
0
100
AcDb2dPolyline
 66
     1
 10
0.0
 20
0.0
 30
0.0
  0
VERTEX
  5
342E
330
2D5B
100
AcDbEntity
  8
0
100
AcDbVertex
100
AcDb2dVertex
 10
1.318939342422282
 20
4.5134915041429
 30
0.0
  0
VERTEX
  5
342F
330
2D5B
100
AcDbEntity
  8
0
100
AcDbVertex
100
AcDb2dVertex
 10
1.318939342422282
 20
4.521391897843688
 30
0.0
  0
VERTEX
  5
3430
330
2D5B
100
AcDbEntity
  8
0
100
AcDbVertex
100
AcDb2dVertex
 10
1.317622610138817
 20
4.537192685245263
 30
0.0
  0
SEQEND
  5
3431
330
2D5B
100
AcDbEntity
  8
0
  0
LINE
  5
2D60
330
1E
100
AcDbEntity
  8
0
100
AcDbLine
 10
2.392076153445903
 20
4.021033630127152
 30
0.0
 11
2.392076153445903
 21
4.022350362410616
 31
0.0
  0
LINE
  5
2D61
330
1E
100
AcDbEntity
  8
0
100
AcDbLine
 10
2.422360995965588
 20
4.48452339390668
 30
0.0
 11
2.422360995965588
 21
4.48452339390668
 31
0.0
  0
LINE
  5
2D62
330
1E
100
AcDbEntity
  8
0
100
AcDbLine
 10
2.422360995965588
 20
4.052635204930302
 30
0.0
 11
2.422360995965588
 21
4.051318472646837
 31
0.0
  0
LINE
  5
2D63
330
1E
100
AcDbEntity
  8
0
100
AcDbLine
 10
2.392076153445903
 20
4.514808236426365
 30
0.0
 11
2.392076153445903
 21
4.514808236426365
 31
0.0
  0
LINE
  5
2D64
330
1E
100
AcDbEntity
  8
0
100
AcDbLine
 10
1.480897413288424
 20
4.514808236426365
 30
0.0
 11
1.479580681004958
 21
4.514808236426365
 31
0.0
  0
POLYLINE
  5
2D65
330
1E
100
AcDbEntity
  8
0
100
AcDb2dPolyline
 66
     1
 10
0.0
 20
0.0
 30
0.0
  0
VERTEX
  5
3432
330
2D65
100
AcDbEntity
  8
0
100
AcDbVertex
100
AcDb2dVertex
 10
1.479580681004959
 20
4.537192685245263
 30
0.0
  0
VERTEX
  5
3433
330
2D65
100
AcDbEntity
  8
0
100
AcDbVertex
100
AcDb2dVertex
 10
1.479580681004959
 20
4.521391897843688
 30
0.0
  0
VERTEX
  5
3434
330
2D65
100
AcDbEntity
  8
0
100
AcDbVertex
100
AcDb2dVertex
 10
1.478263948721494
 20
4.5134915041429
 30
0.0
  0
SEQEND
  5
3435
330
2D65
100
AcDbEntity
  8
0
  0
LINE
  5
2D6A
330
1E
100
AcDbEntity
  8
0
100
AcDbLine
 10
1.147764145571888
 20
5.036234220678333
 30
0.0
 11
1.649439145571887
 21
5.036234220678333
 31
0.0
  0
LINE
  5
2D6B
330
1E
100
AcDbEntity
  8
0
100
AcDbLine
 10
1.692891310926218
 20
5.038867685245262
 30
0.0
 11
1.692891310926218
 21
5.70118402382794
 31
0.0
  0
LINE
  5
2D6C
330
1E
100
AcDbEntity
  8
0
100
AcDbLine
 10
1.104311980217557
 20
5.038867685245262
 30
0.0
 11
1.104311980217557
 21
5.70118402382794
 31
0.0
  0
LINE
  5
2D6D
330
1E
100
AcDbEntity
  8
0
100
AcDbLine
 10
1.147764145571888
 20
6.189691700993294
 30
0.0
 11
1.649439145571887
 21
6.189691700993294
 31
0.0
  0
LINE
  5
2D6E
330
1E
100
AcDbEntity
  8
0
100
AcDbLine
 10
1.692891310926218
 20
6.192325165560224
 30
0.0
 11
1.692891310926218
 21
6.8546415041429
 31
0.0
  0
LINE
  5
2D6F
330
1E
100
AcDbEntity
  8
0
100
AcDbLine
 10
1.104311980217557
 20
6.192325165560224
 30
0.0
 11
1.104311980217557
 21
6.8546415041429
 31
0.0
  0
LINE
  5
2D70
330
1E
100
AcDbEntity
  8
0
100
AcDbLine
 10
1.29260469675299
 20
7.619662960835814
 30
0.0
 11
1.504598594390786
 21
7.619662960835814
 31
0.0
  0
LINE
  5
2D71
330
1E
100
AcDbEntity
  8
0
100
AcDbLine
 10
1.29260469675299
 20
7.499840323040539
 30
0.0
 11
1.504598594390786
 21
7.499840323040539
 31
0.0
  0
POLYLINE
  5
2D72
330
1E
100
AcDbEntity
  8
0
100
AcDb2dPolyline
 66
     1
 10
0.0
 20
0.0
 30
0.0
  0
VERTEX
  5
3436
330
2D72
100
AcDbEntity
  8
0
100
AcDbVertex
100
AcDb2dVertex
 10
1.504598594390786
 20
7.499840323040539
 30
0.0
  0
VERTEX
  5
3437
330
2D72
100
AcDbEntity
  8
0
100
AcDbVertex
100
AcDb2dVertex
 10
1.526983043209683
 20
7.526174968709829
 30
0.0
  0
VERTEX
  5
3438
330
2D72
100
AcDbEntity
  8
0
100
AcDbVertex
100
AcDb2dVertex
 10
1.53488343691047
 20
7.560410008079909
 30
0.0
  0
VERTEX
  5
3439
330
2D72
100
AcDbEntity
  8
0
100
AcDbVertex
100
AcDb2dVertex
 10
1.526983043209683
 20
7.593328315166523
 30
0.0
  0
VERTEX
  5
343A
330
2D72
100
AcDbEntity
  8
0
100
AcDbVertex
100
AcDb2dVertex
 10
1.504598594390786
 20
7.619662960835814
 30
0.0
  0
SEQEND
  5
343B
330
2D72
100
AcDbEntity
  8
0
  0
LINE
  5
2D79
330
1E
100
AcDbEntity
  8
0
100
AcDbLine
 10
0.4577964290364554
 20
7.362900165560224
 30
0.0
 11
0.4591131613199196
 21
7.362900165560224
 31
0.0
  0
LINE
  5
2D7A
330
1E
100
AcDbEntity
  8
0
100
AcDbLine
 10
0.4591131613199196
 20
7.362900165560224
 30
0.0
 11
0.4591131613199196
 21
7.756603118316129
 31
0.0
  0
LINE
  5
2D7B
330
1E
100
AcDbEntity
  8
0
100
AcDbLine
 10
0.4577964290364554
 20
7.756603118316129
 30
0.0
 11
0.4591131613199196
 21
7.756603118316129
 31
0.0
  0
LINE
  5
2D7C
330
1E
100
AcDbEntity
  8
0
100
AcDbLine
 10
0.4577964290364554
 20
7.756603118316129
 30
0.0
 11
0.4577964290364554
 21
7.362900165560224
 31
0.0
  0
LINE
  5
2D7D
330
1E
100
AcDbEntity
  8
0
100
AcDbLine
 10
0.4683302873041715
 20
7.353683039575972
 30
0.0
 11
0.4683302873041715
 21
7.353683039575972
 31
0.0
  0
POLYLINE
  5
2D7E
330
1E
100
AcDbEntity
  8
0
100
AcDb2dPolyline
 66
     1
 10
0.0
 20
0.0
 30
0.0
  0
VERTEX
  5
343C
330
2D7E
100
AcDbEntity
  8
0
100
AcDbVertex
100
AcDb2dVertex
 10
0.4683302873041717
 20
7.353683039575971
 30
0.0
  0
VERTEX
  5
343D
330
2D7E
100
AcDbEntity
  8
0
100
AcDbVertex
100
AcDb2dVertex
 10
0.4617466258868486
 20
7.356316504142901
 30
0.0
  0
VERTEX
  5
343E
330
2D7E
100
AcDbEntity
  8
0
100
AcDbVertex
100
AcDb2dVertex
 10
0.4591131613199197
 20
7.362900165560224
 30
0.0
  0
SEQEND
  5
343F
330
2D7E
100
AcDbEntity
  8
0
  0
POLYLINE
  5
2D83
330
1E
100
AcDbEntity
  8
0
100
AcDb2dPolyline
 66
     1
 10
0.0
 20
0.0
 30
0.0
  0
VERTEX
  5
3440
330
2D83
100
AcDbEntity
  8
0
100
AcDbVertex
100
AcDb2dVertex
 10
0.4683302873041717
 20
7.353683039575971
 30
0.0
  0
VERTEX
  5
3441
330
2D83
100
AcDbEntity
  8
0
100
AcDbVertex
100
AcDb2dVertex
 10
0.4604298936033845
 20
7.356316504142901
 30
0.0
  0
VERTEX
  5
3442
330
2D83
100
AcDbEntity
  8
0
100
AcDbVertex
100
AcDb2dVertex
 10
0.4577964290364552
 20
7.362900165560224
 30
0.0
  0
SEQEND
  5
3443
330
2D83
100
AcDbEntity
  8
0
  0
LINE
  5
2D88
330
1E
100
AcDbEntity
  8
0
100
AcDbLine
 10
1.33869032667425
 20
7.638097212804318
 30
0.0
 11
1.33869032667425
 21
7.636780480520853
 31
0.0
  0
LINE
  5
2D89
330
1E
100
AcDbEntity
  8
0
100
AcDbLine
 10
1.458512964469525
 20
7.636780480520853
 30
0.0
 11
1.33869032667425
 21
7.636780480520853
 31
0.0
  0
LINE
  5
2D8A
330
1E
100
AcDbEntity
  8
0
100
AcDbLine
 10
1.458512964469525
 20
7.638097212804318
 30
0.0
 11
1.458512964469525
 21
7.636780480520853
 31
0.0
  0
LINE
  5
2D8B
330
1E
100
AcDbEntity
  8
0
100
AcDbLine
 10
1.458512964469525
 20
7.638097212804318
 30
0.0
 11
1.33869032667425
 21
7.638097212804318
 31
0.0
  0
LINE
  5
2D8C
330
1E
100
AcDbEntity
  8
0
100
AcDbLine
 10
1.495381468406533
 20
7.627563354536601
 30
0.0
 11
1.301821822737242
 21
7.627563354536601
 31
0.0
  0
POLYLINE
  5
2D8D
330
1E
100
AcDbEntity
  8
0
100
AcDb2dPolyline
 66
     1
 10
0.0
 20
0.0
 30
0.0
  0
VERTEX
  5
3444
330
2D8D
100
AcDbEntity
  8
0
100
AcDbVertex
100
AcDb2dVertex
 10
1.458512964469526
 20
7.636780480520853
 30
0.0
  0
VERTEX
  5
3445
330
2D8D
100
AcDbEntity
  8
0
100
AcDbVertex
100
AcDb2dVertex
 10
1.478263948721494
 20
7.634147015953924
 30
0.0
  0
VERTEX
  5
3446
330
2D8D
100
AcDbEntity
  8
0
100
AcDbVertex
100
AcDb2dVertex
 10
1.495381468406533
 20
7.627563354536601
 30
0.0
  0
SEQEND
  5
3447
330
2D8D
100
AcDbEntity
  8
0
  0
POLYLINE
  5
2D92
330
1E
100
AcDbEntity
  8
0
100
AcDb2dPolyline
 66
     1
 10
0.0
 20
0.0
 30
0.0
  0
VERTEX
  5
3448
330
2D92
100
AcDbEntity
  8
0
100
AcDbVertex
100
AcDb2dVertex
 10
1.301821822737242
 20
7.627563354536601
 30
0.0
  0
VERTEX
  5
3449
330
2D92
100
AcDbEntity
  8
0
100
AcDbVertex
100
AcDb2dVertex
 10
1.320256074705746
 20
7.634147015953924
 30
0.0
  0
VERTEX
  5
344A
330
2D92
100
AcDbEntity
  8
0
100
AcDbVertex
100
AcDb2dVertex
 10
1.33869032667425
 20
7.636780480520853
 30
0.0
  0
SEQEND
  5
344B
330
2D92
100
AcDbEntity
  8
0
  0
LINE
  5
2D97
330
1E
100
AcDbEntity
  8
0
100
AcDbLine
 10
1.495381468406533
 20
7.627563354536601
 30
0.0
 11
1.504598594390786
 21
7.619662960835814
 31
0.0
  0
LINE
  5
2D98
330
1E
100
AcDbEntity
  8
0
100
AcDbLine
 10
1.29260469675299
 20
7.619662960835814
 30
0.0
 11
1.301821822737242
 21
7.627563354536601
 31
0.0
  0
POLYLINE
  5
2D99
330
1E
100
AcDbEntity
  8
0
100
AcDb2dPolyline
 66
     1
 10
0.0
 20
0.0
 30
0.0
  0
VERTEX
  5
344C
330
2D99
100
AcDbEntity
  8
0
100
AcDbVertex
100
AcDb2dVertex
 10
1.29260469675299
 20
7.619662960835814
 30
0.0
  0
VERTEX
  5
344D
330
2D99
100
AcDbEntity
  8
0
100
AcDbVertex
100
AcDb2dVertex
 10
1.270220247934093
 20
7.593328315166523
 30
0.0
  0
VERTEX
  5
344E
330
2D99
100
AcDbEntity
  8
0
100
AcDbVertex
100
AcDb2dVertex
 10
1.262319854233305
 20
7.560410008079909
 30
0.0
  0
VERTEX
  5
344F
330
2D99
100
AcDbEntity
  8
0
100
AcDbVertex
100
AcDb2dVertex
 10
1.270220247934093
 20
7.526174968709829
 30
0.0
  0
VERTEX
  5
3450
330
2D99
100
AcDbEntity
  8
0
100
AcDbVertex
100
AcDb2dVertex
 10
1.29260469675299
 20
7.499840323040539
 30
0.0
  0
SEQEND
  5
3451
330
2D99
100
AcDbEntity
  8
0
  0
LINE
  5
2DA0
330
1E
100
AcDbEntity
  8
0
100
AcDbLine
 10
1.495381468406533
 20
7.49193992933975
 30
0.0
 11
1.301821822737242
 21
7.49193992933975
 31
0.0
  0
LINE
  5
2DA1
330
1E
100
AcDbEntity
  8
0
100
AcDbLine
 10
1.504598594390786
 20
7.499840323040539
 30
0.0
 11
1.495381468406533
 21
7.49193992933975
 31
0.0
  0
LINE
  5
2DA2
330
1E
100
AcDbEntity
  8
0
100
AcDbLine
 10
1.301821822737242
 20
7.49193992933975
 30
0.0
 11
1.29260469675299
 21
7.499840323040539
 31
0.0
  0
POLYLINE
  5
2DA3
330
1E
100
AcDbEntity
  8
0
100
AcDb2dPolyline
 66
     1
 10
0.0
 20
0.0
 30
0.0
  0
VERTEX
  5
3452
330
2DA3
100
AcDbEntity
  8
0
100
AcDbVertex
100
AcDb2dVertex
 10
1.33869032667425
 20
7.484039535638963
 30
0.0
  0
VERTEX
  5
3453
330
2DA3
100
AcDbEntity
  8
0
100
AcDbVertex
100
AcDb2dVertex
 10
1.320256074705746
 20
7.485356267922428
 30
0.0
  0
VERTEX
  5
3454
330
2DA3
100
AcDbEntity
  8
0
100
AcDbVertex
100
AcDb2dVertex
 10
1.301821822737242
 20
7.49193992933975
 30
0.0
  0
SEQEND
  5
3455
330
2DA3
100
AcDbEntity
  8
0
  0
LINE
  5
2DA8
330
1E
100
AcDbEntity
  8
0
100
AcDbLine
 10
1.458512964469525
 20
7.484039535638964
 30
0.0
 11
1.33869032667425
 21
7.484039535638964
 31
0.0
  0
POLYLINE
  5
2DA9
330
1E
100
AcDbEntity
  8
0
100
AcDb2dPolyline
 66
     1
 10
0.0
 20
0.0
 30
0.0
  0
VERTEX
  5
3456
330
2DA9
100
AcDbEntity
  8
0
100
AcDbVertex
100
AcDb2dVertex
 10
1.495381468406533
 20
7.49193992933975
 30
0.0
  0
VERTEX
  5
3457
330
2DA9
100
AcDbEntity
  8
0
100
AcDbVertex
100
AcDb2dVertex
 10
1.478263948721494
 20
7.485356267922428
 30
0.0
  0
VERTEX
  5
3458
330
2DA9
100
AcDbEntity
  8
0
100
AcDbVertex
100
AcDb2dVertex
 10
1.458512964469526
 20
7.484039535638963
 30
0.0
  0
SEQEND
  5
3459
330
2DA9
100
AcDbEntity
  8
0
  0
LINE
  5
2DAE
330
1E
100
AcDbEntity
  8
0
100
AcDbLine
 10
1.33869032667425
 20
7.484039535638964
 30
0.0
 11
1.33869032667425
 21
7.482722803355498
 31
0.0
  0
LINE
  5
2DAF
330
1E
100
AcDbEntity
  8
0
100
AcDbLine
 10
1.33869032667425
 20
7.482722803355498
 30
0.0
 11
1.458512964469525
 21
7.482722803355498
 31
0.0
  0
LINE
  5
2DB0
330
1E
100
AcDbEntity
  8
0
100
AcDbLine
 10
1.458512964469525
 20
7.484039535638964
 30
0.0
 11
1.458512964469525
 21
7.482722803355498
 31
0.0
  0
LINE
  5
2DB1
330
1E
100
AcDbEntity
  8
0
100
AcDbLine
 10
1.33869032667425
 20
7.710517488394868
 30
0.0
 11
1.33869032667425
 21
7.711834220678333
 31
0.0
  0
LINE
  5
2DB2
330
1E
100
AcDbEntity
  8
0
100
AcDbLine
 10
1.458512964469525
 20
7.710517488394868
 30
0.0
 11
1.33869032667425
 21
7.710517488394868
 31
0.0
  0
LINE
  5
2DB3
330
1E
100
AcDbEntity
  8
0
100
AcDbLine
 10
1.458512964469525
 20
7.711834220678333
 30
0.0
 11
1.458512964469525
 21
7.710517488394868
 31
0.0
  0
LINE
  5
2DB4
330
1E
100
AcDbEntity
  8
0
100
AcDbLine
 10
1.458512964469525
 20
7.711834220678333
 30
0.0
 11
1.33869032667425
 21
7.711834220678333
 31
0.0
  0
POLYLINE
  5
2DB5
330
1E
100
AcDbEntity
  8
0
100
AcDb2dPolyline
 66
     1
 10
0.0
 20
0.0
 30
0.0
  0
VERTEX
  5
345A
330
2DB5
100
AcDbEntity
  8
0
100
AcDbVertex
100
AcDb2dVertex
 10
0.4591131613199197
 20
7.756603118316128
 30
0.0
  0
VERTEX
  5
345B
330
2DB5
100
AcDbEntity
  8
0
100
AcDbVertex
100
AcDb2dVertex
 10
0.4617466258868486
 20
7.763186779733452
 30
0.0
  0
VERTEX
  5
345C
330
2DB5
100
AcDbEntity
  8
0
100
AcDbVertex
100
AcDb2dVertex
 10
0.4683302873041717
 20
7.765820244300382
 30
0.0
  0
SEQEND
  5
345D
330
2DB5
100
AcDbEntity
  8
0
  0
LINE
  5
2DBA
330
1E
100
AcDbEntity
  8
0
100
AcDbLine
 10
0.4683302873041715
 20
7.767136976583845
 30
0.0
 11
0.4683302873041715
 21
7.765820244300382
 31
0.0
  0
POLYLINE
  5
2DBB
330
1E
100
AcDbEntity
  8
0
100
AcDb2dPolyline
 66
     1
 10
0.0
 20
0.0
 30
0.0
  0
VERTEX
  5
345E
330
2DBB
100
AcDbEntity
  8
0
100
AcDbVertex
100
AcDb2dVertex
 10
0.4577964290364552
 20
7.756603118316128
 30
0.0
  0
VERTEX
  5
345F
330
2DBB
100
AcDbEntity
  8
0
100
AcDbVertex
100
AcDb2dVertex
 10
0.4604298936033845
 20
7.763186779733452
 30
0.0
  0
VERTEX
  5
3460
330
2DBB
100
AcDbEntity
  8
0
100
AcDbVertex
100
AcDb2dVertex
 10
0.4683302873041717
 20
7.767136976583845
 30
0.0
  0
SEQEND
  5
3461
330
2DBB
100
AcDbEntity
  8
0
  0
LINE
  5
2DC0
330
1E
100
AcDbEntity
  8
0
100
AcDbLine
 10
2.328873003839604
 20
7.767136976583845
 30
0.0
 11
2.328873003839604
 21
7.765820244300382
 31
0.0
  0
POLYLINE
  5
2DC1
330
1E
100
AcDbEntity
  8
0
100
AcDb2dPolyline
 66
     1
 10
0.0
 20
0.0
 30
0.0
  0
VERTEX
  5
3462
330
2DC1
100
AcDbEntity
  8
0
100
AcDbVertex
100
AcDb2dVertex
 10
2.328873003839604
 20
7.765820244300382
 30
0.0
  0
VERTEX
  5
3463
330
2DC1
100
AcDbEntity
  8
0
100
AcDbVertex
100
AcDb2dVertex
 10
2.335456665256927
 20
7.763186779733452
 30
0.0
  0
VERTEX
  5
3464
330
2DC1
100
AcDbEntity
  8
0
100
AcDbVertex
100
AcDb2dVertex
 10
2.33940686210732
 20
7.756603118316128
 30
0.0
  0
SEQEND
  5
3465
330
2DC1
100
AcDbEntity
  8
0
  0
LINE
  5
2DC6
330
1E
100
AcDbEntity
  8
0
100
AcDbLine
 10
2.339406862107321
 20
7.756603118316129
 30
0.0
 11
2.339406862107321
 21
7.756603118316129
 31
0.0
  0
POLYLINE
  5
2DC7
330
1E
100
AcDbEntity
  8
0
100
AcDb2dPolyline
 66
     1
 10
0.0
 20
0.0
 30
0.0
  0
VERTEX
  5
3466
330
2DC7
100
AcDbEntity
  8
0
100
AcDbVertex
100
AcDb2dVertex
 10
2.328873003839604
 20
7.767136976583845
 30
0.0
  0
VERTEX
  5
3467
330
2DC7
100
AcDbEntity
  8
0
100
AcDbVertex
100
AcDb2dVertex
 10
2.336773397540391
 20
7.763186779733452
 30
0.0
  0
VERTEX
  5
3468
330
2DC7
100
AcDbEntity
  8
0
100
AcDbVertex
100
AcDb2dVertex
 10
2.33940686210732
 20
7.756603118316128
 30
0.0
  0
SEQEND
  5
3469
330
2DC7
100
AcDbEntity
  8
0
  0
LINE
  5
2DCC
330
1E
100
AcDbEntity
  8
0
100
AcDbLine
 10
2.339406862107321
 20
7.756603118316129
 30
0.0
 11
2.339406862107321
 21
7.362900165560224
 31
0.0
  0
LINE
  5
2DCD
330
1E
100
AcDbEntity
  8
0
100
AcDbLine
 10
2.339406862107321
 20
7.362900165560224
 30
0.0
 11
2.339406862107321
 21
7.362900165560224
 31
0.0
  0
LINE
  5
2DCE
330
1E
100
AcDbEntity
  8
0
100
AcDbLine
 10
2.339406862107321
 20
7.756603118316129
 30
0.0
 11
2.339406862107321
 21
7.362900165560224
 31
0.0
  0
POLYLINE
  5
2DCF
330
1E
100
AcDbEntity
  8
0
100
AcDb2dPolyline
 66
     1
 10
0.0
 20
0.0
 30
0.0
  0
VERTEX
  5
346A
330
2DCF
100
AcDbEntity
  8
0
100
AcDbVertex
100
AcDb2dVertex
 10
2.33940686210732
 20
7.362900165560224
 30
0.0
  0
VERTEX
  5
346B
330
2DCF
100
AcDbEntity
  8
0
100
AcDbVertex
100
AcDb2dVertex
 10
2.335456665256927
 20
7.356316504142901
 30
0.0
  0
VERTEX
  5
346C
330
2DCF
100
AcDbEntity
  8
0
100
AcDbVertex
100
AcDb2dVertex
 10
2.328873003839604
 20
7.353683039575971
 30
0.0
  0
SEQEND
  5
346D
330
2DCF
100
AcDbEntity
  8
0
  0
LINE
  5
2DD4
330
1E
100
AcDbEntity
  8
0
100
AcDbLine
 10
2.328873003839604
 20
7.353683039575972
 30
0.0
 11
2.328873003839604
 21
7.353683039575972
 31
0.0
  0
POLYLINE
  5
2DD5
330
1E
100
AcDbEntity
  8
0
100
AcDb2dPolyline
 66
     1
 10
0.0
 20
0.0
 30
0.0
  0
VERTEX
  5
346E
330
2DD5
100
AcDbEntity
  8
0
100
AcDbVertex
100
AcDb2dVertex
 10
2.33940686210732
 20
7.362900165560224
 30
0.0
  0
VERTEX
  5
346F
330
2DD5
100
AcDbEntity
  8
0
100
AcDbVertex
100
AcDb2dVertex
 10
2.336773397540391
 20
7.356316504142901
 30
0.0
  0
VERTEX
  5
3470
330
2DD5
100
AcDbEntity
  8
0
100
AcDbVertex
100
AcDb2dVertex
 10
2.328873003839604
 20
7.353683039575971
 30
0.0
  0
SEQEND
  5
3471
330
2DD5
100
AcDbEntity
  8
0
  0
LINE
  5
2DDA
330
1E
100
AcDbEntity
  8
0
100
AcDbLine
 10
0.9660550904537785
 20
7.254928118316129
 30
0.0
 11
0.9647383581703135
 21
7.254928118316129
 31
0.0
  0
LINE
  5
2DDB
330
1E
100
AcDbEntity
  8
0
100
AcDbLine
 10
0.9660550904537785
 20
7.254928118316129
 30
0.0
 11
0.9739554841545654
 21
7.262828512016916
 31
0.0
  0
LINE
  5
2DDC
330
1E
100
AcDbEntity
  8
0
100
AcDbLine
 10
0.9726387518711003
 20
7.264145244300381
 30
0.0
 11
0.9739554841545654
 21
7.262828512016916
 31
0.0
  0
LINE
  5
2DDD
330
1E
100
AcDbEntity
  8
0
100
AcDbLine
 10
0.9647383581703135
 20
7.256244850599593
 30
0.0
 11
0.9726387518711003
 21
7.264145244300381
 31
0.0
  0
LINE
  5
2DDE
330
1E
100
AcDbEntity
  8
0
100
AcDbLine
 10
0.7092922951781873
 20
7.262828512016916
 30
0.0
 11
0.7119257597451166
 21
7.264145244300381
 31
0.0
  0
LINE
  5
2DDF
330
1E
100
AcDbEntity
  8
0
100
AcDbLine
 10
0.7092922951781873
 20
7.262828512016916
 30
0.0
 11
0.7185094211624392
 21
7.254928118316129
 31
0.0
  0
LINE
  5
2DE0
330
1E
100
AcDbEntity
  8
0
100
AcDbLine
 10
0.7185094211624392
 20
7.254928118316129
 30
0.0
 11
0.7185094211624392
 21
7.254928118316129
 31
0.0
  0
LINE
  5
2DE1
330
1E
100
AcDbEntity
  8
0
100
AcDbLine
 10
0.7119257597451166
 20
7.264145244300381
 30
0.0
 11
0.7198261534459034
 21
7.256244850599593
 31
0.0
  0
LINE
  5
2DE2
330
1E
100
AcDbEntity
  8
0
100
AcDbLine
 10
0.7185094211624392
 20
7.254928118316129
 30
0.0
 11
0.7185094211624392
 21
7.254928118316129
 31
0.0
  0
LINE
  5
2DE3
330
1E
100
AcDbEntity
  8
0
100
AcDbLine
 10
0.9647383581703135
 20
7.254928118316129
 30
0.0
 11
0.9660550904537785
 21
7.254928118316129
 31
0.0
  0
LINE
  5
2DE4
330
1E
100
AcDbEntity
  8
0
100
AcDbLine
 10
2.078693869981336
 20
7.254928118316129
 30
0.0
 11
2.080010602264801
 21
7.254928118316129
 31
0.0
  0
LINE
  5
2DE5
330
1E
100
AcDbEntity
  8
0
100
AcDbLine
 10
2.080010602264801
 20
7.254928118316129
 30
0.0
 11
2.078693869981336
 21
7.254928118316129
 31
0.0
  0
LINE
  5
2DE6
330
1E
100
AcDbEntity
  8
0
100
AcDbLine
 10
2.080010602264801
 20
7.254928118316129
 30
0.0
 11
2.087910995965589
 21
7.262828512016916
 31
0.0
  0
LINE
  5
2DE7
330
1E
100
AcDbEntity
  8
0
100
AcDbLine
 10
2.086594263682124
 20
7.264145244300381
 30
0.0
 11
2.087910995965589
 21
7.262828512016916
 31
0.0
  0
LINE
  5
2DE8
330
1E
100
AcDbEntity
  8
0
100
AcDbLine
 10
2.077377137697872
 20
7.256244850599593
 30
0.0
 11
2.086594263682124
 21
7.264145244300381
 31
0.0
  0
LINE
  5
2DE9
330
1E
100
AcDbEntity
  8
0
100
AcDbLine
 10
1.823247806989211
 20
7.262828512016916
 30
0.0
 11
1.824564539272675
 21
7.264145244300381
 31
0.0
  0
LINE
  5
2DEA
330
1E
100
AcDbEntity
  8
0
100
AcDbLine
 10
1.823247806989211
 20
7.262828512016916
 30
0.0
 11
1.831148200689998
 21
7.254928118316129
 31
0.0
  0
LINE
  5
2DEB
330
1E
100
AcDbEntity
  8
0
100
AcDbLine
 10
1.832464932973462
 20
7.254928118316129
 30
0.0
 11
1.831148200689998
 21
7.254928118316129
 31
0.0
  0
LINE
  5
2DEC
330
1E
100
AcDbEntity
  8
0
100
AcDbLine
 10
1.824564539272675
 20
7.264145244300381
 30
0.0
 11
1.833781665256927
 21
7.256244850599593
 31
0.0
  0
LINE
  5
2DED
330
1E
100
AcDbEntity
  8
0
100
AcDbLine
 10
1.831148200689998
 20
7.254928118316129
 30
0.0
 11
1.832464932973462
 21
7.254928118316129
 31
0.0
  0
LINE
  5
2DEE
330
1E
100
AcDbEntity
  8
0
100
AcDbLine
 10
0.5078322558081095
 20
7.353683039575972
 30
0.0
 11
0.4683302873041715
 21
7.353683039575972
 31
0.0
  0
LINE
  5
2DEF
330
1E
100
AcDbEntity
  8
0
100
AcDbLine
 10
0.4683302873041715
 20
7.765820244300382
 30
0.0
 11
0.5078322558081095
 21
7.765820244300382
 31
0.0
  0
LINE
  5
2DF0
330
1E
100
AcDbEntity
  8
0
100
AcDbLine
 10
0.7119257597451166
 20
7.287846425402743
 30
0.0
 11
0.7092922951781873
 21
7.2931133545366
 31
0.0
  0
LINE
  5
2DF1
330
1E
100
AcDbEntity
  8
0
100
AcDbLine
 10
0.7092922951781873
 20
7.2931133545366
 30
0.0
 11
0.7092922951781873
 21
7.262828512016916
 31
0.0
  0
LINE
  5
2DF2
330
1E
100
AcDbEntity
  8
0
100
AcDbLine
 10
0.7119257597451166
 20
7.287846425402743
 30
0.0
 11
0.7119257597451166
 21
7.264145244300381
 31
0.0
  0
LINE
  5
2DF3
330
1E
100
AcDbEntity
  8
0
100
AcDbLine
 10
0.9041686731309432
 20
7.295746819103531
 30
0.0
 11
0.9028519408474782
 21
7.294430086820065
 31
0.0
  0
LINE
  5
2DF4
330
1E
100
AcDbEntity
  8
0
100
AcDbLine
 10
0.7790791062018095
 20
7.295746819103531
 30
0.0
 11
0.7803958384852745
 21
7.294430086820065
 31
0.0
  0
LINE
  5
2DF5
330
1E
100
AcDbEntity
  8
0
100
AcDbLine
 10
0.9739554841545654
 20
7.262828512016916
 30
0.0
 11
0.9739554841545654
 21
7.2931133545366
 31
0.0
  0
LINE
  5
2DF6
330
1E
100
AcDbEntity
  8
0
100
AcDbLine
 10
0.9739554841545654
 20
7.2931133545366
 30
0.0
 11
0.9726387518711003
 21
7.287846425402743
 31
0.0
  0
LINE
  5
2DF7
330
1E
100
AcDbEntity
  8
0
100
AcDbLine
 10
0.9726387518711003
 20
7.264145244300381
 30
0.0
 11
0.9726387518711003
 21
7.287846425402743
 31
0.0
  0
LINE
  5
2DF8
330
1E
100
AcDbEntity
  8
0
100
AcDbLine
 10
1.4743137518711
 20
7.337882252174397
 30
0.0
 11
1.475630484154565
 21
7.336565519890932
 31
0.0
  0
POLYLINE
  5
2DF9
330
1E
100
AcDbEntity
  8
0
100
AcDb2dPolyline
 66
     1
 10
0.0
 20
0.0
 30
0.0
  0
VERTEX
  5
3472
330
2DF9
100
AcDbEntity
  8
0
100
AcDbVertex
100
AcDb2dVertex
 10
1.469046822737242
 20
7.337882252174397
 30
0.0
  0
VERTEX
  5
3473
330
2DF9
100
AcDbEntity
  8
0
100
AcDbVertex
100
AcDb2dVertex
 10
1.471680287304171
 20
7.337882252174397
 30
0.0
  0
VERTEX
  5
3474
330
2DF9
100
AcDbEntity
  8
0
100
AcDbVertex
100
AcDb2dVertex
 10
1.4743137518711
 20
7.337882252174397
 30
0.0
  0
SEQEND
  5
3475
330
2DF9
100
AcDbEntity
  8
0
  0
POLYLINE
  5
2DFE
330
1E
100
AcDbEntity
  8
0
100
AcDb2dPolyline
 66
     1
 10
0.0
 20
0.0
 30
0.0
  0
VERTEX
  5
3476
330
2DFE
100
AcDbEntity
  8
0
100
AcDbVertex
100
AcDb2dVertex
 10
1.458512964469526
 20
7.482722803355498
 30
0.0
  0
VERTEX
  5
3477
330
2DFE
100
AcDbEntity
  8
0
100
AcDbVertex
100
AcDb2dVertex
 10
1.466413358170313
 20
7.484039535638963
 30
0.0
  0
VERTEX
  5
3478
330
2DFE
100
AcDbEntity
  8
0
100
AcDbVertex
100
AcDb2dVertex
 10
1.4743137518711
 20
7.485356267922428
 30
0.0
  0
SEQEND
  5
3479
330
2DFE
100
AcDbEntity
  8
0
  0
LINE
  5
2E03
330
1E
100
AcDbEntity
  8
0
100
AcDbLine
 10
1.4743137518711
 20
7.485356267922428
 30
0.0
 11
1.475630484154565
 21
7.484039535638964
 31
0.0
  0
POLYLINE
  5
2E04
330
1E
100
AcDbEntity
  8
0
100
AcDb2dPolyline
 66
     1
 10
0.0
 20
0.0
 30
0.0
  0
VERTEX
  5
347A
330
2E04
100
AcDbEntity
  8
0
100
AcDbVertex
100
AcDb2dVertex
 10
1.458512964469526
 20
7.638097212804318
 30
0.0
  0
VERTEX
  5
347B
330
2E04
100
AcDbEntity
  8
0
100
AcDbVertex
100
AcDb2dVertex
 10
1.490114539272675
 20
7.631513551386994
 30
0.0
  0
VERTEX
  5
347C
330
2E04
100
AcDbEntity
  8
0
100
AcDbVertex
100
AcDb2dVertex
 10
1.516449184941967
 20
7.611762567135027
 30
0.0
  0
VERTEX
  5
347D
330
2E04
100
AcDbEntity
  8
0
100
AcDbVertex
100
AcDb2dVertex
 10
1.533566704627006
 20
7.584111189182271
 30
0.0
  0
VERTEX
  5
347E
330
2E04
100
AcDbEntity
  8
0
100
AcDbVertex
100
AcDb2dVertex
 10
1.536200169193935
 20
7.552509614379122
 30
0.0
  0
VERTEX
  5
347F
330
2E04
100
AcDbEntity
  8
0
100
AcDbVertex
100
AcDb2dVertex
 10
1.526983043209683
 20
7.520908039575971
 30
0.0
  0
VERTEX
  5
3480
330
2E04
100
AcDbEntity
  8
0
100
AcDbVertex
100
AcDb2dVertex
 10
1.504598594390786
 20
7.497206858473608
 30
0.0
  0
VERTEX
  5
3481
330
2E04
100
AcDbEntity
  8
0
100
AcDbVertex
100
AcDb2dVertex
 10
1.475630484154565
 20
7.484039535638963
 30
0.0
  0
SEQEND
  5
3482
330
2E04
100
AcDbEntity
  8
0
  0
POLYLINE
  5
2E0E
330
1E
100
AcDbEntity
  8
0
100
AcDb2dPolyline
 66
     1
 10
0.0
 20
0.0
 30
0.0
  0
VERTEX
  5
3483
330
2E0E
100
AcDbEntity
  8
0
100
AcDbVertex
100
AcDb2dVertex
 10
1.458512964469526
 20
7.710517488394868
 30
0.0
  0
VERTEX
  5
3484
330
2E0E
100
AcDbEntity
  8
0
100
AcDbVertex
100
AcDb2dVertex
 10
1.499331665256927
 20
7.70525055926101
 30
0.0
  0
VERTEX
  5
3485
330
2E0E
100
AcDbEntity
  8
0
100
AcDbVertex
100
AcDb2dVertex
 10
1.537516901477399
 20
7.688133039575971
 30
0.0
  0
VERTEX
  5
3486
330
2E0E
100
AcDbEntity
  8
0
100
AcDbVertex
100
AcDb2dVertex
 10
1.569118476280549
 20
7.66179839390668
 30
0.0
  0
VERTEX
  5
3487
330
2E0E
100
AcDbEntity
  8
0
100
AcDbVertex
100
AcDb2dVertex
 10
1.592819657382911
 20
7.627563354536601
 30
0.0
  0
VERTEX
  5
3488
330
2E0E
100
AcDbEntity
  8
0
100
AcDbVertex
100
AcDb2dVertex
 10
1.605986980217557
 20
7.58937811831613
 30
0.0
  0
VERTEX
  5
3489
330
2E0E
100
AcDbEntity
  8
0
100
AcDbVertex
100
AcDb2dVertex
 10
1.608620444784486
 20
7.547242685245263
 30
0.0
  0
VERTEX
  5
348A
330
2E0E
100
AcDbEntity
  8
0
100
AcDbVertex
100
AcDb2dVertex
 10
1.599403318800234
 20
7.507740716741325
 30
0.0
  0
VERTEX
  5
348B
330
2E0E
100
AcDbEntity
  8
0
100
AcDbVertex
100
AcDb2dVertex
 10
1.579652334548265
 20
7.470872212804318
 30
0.0
  0
VERTEX
  5
348C
330
2E0E
100
AcDbEntity
  8
0
100
AcDbVertex
100
AcDb2dVertex
 10
1.550684224312045
 20
7.440587370284632
 30
0.0
  0
VERTEX
  5
348D
330
2E0E
100
AcDbEntity
  8
0
100
AcDbVertex
100
AcDb2dVertex
 10
1.515132452658502
 20
7.420836386032664
 30
0.0
  0
VERTEX
  5
348E
330
2E0E
100
AcDbEntity
  8
0
100
AcDbVertex
100
AcDb2dVertex
 10
1.475630484154565
 20
7.410302527764947
 30
0.0
  0
SEQEND
  5
348F
330
2E0E
100
AcDbEntity
  8
0
  0
LINE
  5
2E1C
330
1E
100
AcDbEntity
  8
0
100
AcDbLine
 10
1.475630484154565
 20
7.410302527764948
 30
0.0
 11
1.478263948721494
 21
7.408985795481482
 31
0.0
  0
POLYLINE
  5
2E1D
330
1E
100
AcDbEntity
  8
0
100
AcDb2dPolyline
 66
     1
 10
0.0
 20
0.0
 30
0.0
  0
VERTEX
  5
3490
330
2E1D
100
AcDbEntity
  8
0
100
AcDbVertex
100
AcDb2dVertex
 10
1.478263948721494
 20
7.408985795481482
 30
0.0
  0
VERTEX
  5
3491
330
2E1D
100
AcDbEntity
  8
0
100
AcDbVertex
100
AcDb2dVertex
 10
1.519082649508895
 20
7.419519653749199
 30
0.0
  0
VERTEX
  5
3492
330
2E1D
100
AcDbEntity
  8
0
100
AcDbVertex
100
AcDb2dVertex
 10
1.554634421162439
 20
7.441904102568098
 30
0.0
  0
VERTEX
  5
3493
330
2E1D
100
AcDbEntity
  8
0
100
AcDbVertex
100
AcDb2dVertex
 10
1.582285799115195
 20
7.472188945087781
 30
0.0
  0
VERTEX
  5
3494
330
2E1D
100
AcDbEntity
  8
0
100
AcDbVertex
100
AcDb2dVertex
 10
1.602036783367163
 20
7.509057449024789
 30
0.0
  0
VERTEX
  5
3495
330
2E1D
100
AcDbEntity
  8
0
100
AcDbVertex
100
AcDb2dVertex
 10
1.611253909351416
 20
7.548559417528727
 30
0.0
  0
VERTEX
  5
3496
330
2E1D
100
AcDbEntity
  8
0
100
AcDbVertex
100
AcDb2dVertex
 10
1.608620444784486
 20
7.590694850599593
 30
0.0
  0
VERTEX
  5
3497
330
2E1D
100
AcDbEntity
  8
0
100
AcDbVertex
100
AcDb2dVertex
 10
1.594136389666376
 20
7.630196819103531
 30
0.0
  0
VERTEX
  5
3498
330
2E1D
100
AcDbEntity
  8
0
100
AcDbVertex
100
AcDb2dVertex
 10
1.570435208564014
 20
7.664431858473609
 30
0.0
  0
VERTEX
  5
3499
330
2E1D
100
AcDbEntity
  8
0
100
AcDbVertex
100
AcDb2dVertex
 10
1.537516901477399
 20
7.689449771859436
 30
0.0
  0
VERTEX
  5
349A
330
2E1D
100
AcDbEntity
  8
0
100
AcDbVertex
100
AcDb2dVertex
 10
1.500648397540391
 20
7.706567291544475
 30
0.0
  0
VERTEX
  5
349B
330
2E1D
100
AcDbEntity
  8
0
100
AcDbVertex
100
AcDb2dVertex
 10
1.458512964469526
 20
7.711834220678333
 30
0.0
  0
SEQEND
  5
349C
330
2E1D
100
AcDbEntity
  8
0
  0
LINE
  5
2E2B
330
1E
100
AcDbEntity
  8
0
100
AcDbLine
 10
2.422360995965588
 20
7.776354102568097
 30
0.0
 11
2.422360995965588
 21
7.344465913591719
 31
0.0
  0
POLYLINE
  5
2E2C
330
1E
100
AcDbEntity
  8
0
100
AcDb2dPolyline
 66
     1
 10
0.0
 20
0.0
 30
0.0
  0
VERTEX
  5
349D
330
2E2C
100
AcDbEntity
  8
0
100
AcDbVertex
100
AcDb2dVertex
 10
2.422360995965588
 20
7.776354102568097
 30
0.0
  0
VERTEX
  5
349E
330
2E2C
100
AcDbEntity
  8
0
100
AcDbVertex
100
AcDb2dVertex
 10
2.418410799115195
 20
7.790838157686208
 30
0.0
  0
VERTEX
  5
349F
330
2E2C
100
AcDbEntity
  8
0
100
AcDbVertex
100
AcDb2dVertex
 10
2.406560208564013
 20
7.80268874823739
 30
0.0
  0
VERTEX
  5
34A0
330
2E2C
100
AcDbEntity
  8
0
100
AcDbVertex
100
AcDb2dVertex
 10
2.392076153445903
 20
7.806638945087781
 30
0.0
  0
SEQEND
  5
34A1
330
2E2C
100
AcDbEntity
  8
0
  0
LINE
  5
2E32
330
1E
100
AcDbEntity
  8
0
100
AcDbLine
 10
0.4051271376978729
 20
7.806638945087781
 30
0.0
 11
2.392076153445903
 21
7.806638945087781
 31
0.0
  0
POLYLINE
  5
2E33
330
1E
100
AcDbEntity
  8
0
100
AcDb2dPolyline
 66
     1
 10
0.0
 20
0.0
 30
0.0
  0
VERTEX
  5
34A2
330
2E33
100
AcDbEntity
  8
0
100
AcDbVertex
100
AcDb2dVertex
 10
0.4051271376978728
 20
7.806638945087781
 30
0.0
  0
VERTEX
  5
34A3
330
2E33
100
AcDbEntity
  8
0
100
AcDbVertex
100
AcDb2dVertex
 10
0.3906430825797622
 20
7.80268874823739
 30
0.0
  0
VERTEX
  5
34A4
330
2E33
100
AcDbEntity
  8
0
100
AcDbVertex
100
AcDb2dVertex
 10
0.3801092243120456
 20
7.790838157686208
 30
0.0
  0
VERTEX
  5
34A5
330
2E33
100
AcDbEntity
  8
0
100
AcDbVertex
100
AcDb2dVertex
 10
0.3748422951781876
 20
7.776354102568097
 30
0.0
  0
SEQEND
  5
34A6
330
2E33
100
AcDbEntity
  8
0
  0
LINE
  5
2E39
330
1E
100
AcDbEntity
  8
0
100
AcDbLine
 10
0.3748422951781869
 20
7.344465913591719
 30
0.0
 11
0.3748422951781869
 21
7.776354102568097
 31
0.0
  0
POLYLINE
  5
2E3A
330
1E
100
AcDbEntity
  8
0
100
AcDb2dPolyline
 66
     1
 10
0.0
 20
0.0
 30
0.0
  0
VERTEX
  5
34A7
330
2E3A
100
AcDbEntity
  8
0
100
AcDbVertex
100
AcDb2dVertex
 10
0.3748422951781876
 20
7.344465913591719
 30
0.0
  0
VERTEX
  5
34A8
330
2E3A
100
AcDbEntity
  8
0
100
AcDbVertex
100
AcDb2dVertex
 10
0.3801092243120456
 20
7.328665126190145
 30
0.0
  0
VERTEX
  5
34A9
330
2E3A
100
AcDbEntity
  8
0
100
AcDbVertex
100
AcDb2dVertex
 10
0.3906430825797622
 20
7.318131267922428
 30
0.0
  0
VERTEX
  5
34AA
330
2E3A
100
AcDbEntity
  8
0
100
AcDbVertex
100
AcDb2dVertex
 10
0.4051271376978728
 20
7.314181071072034
 30
0.0
  0
SEQEND
  5
34AB
330
2E3A
100
AcDbEntity
  8
0
  0
LINE
  5
2E40
330
1E
100
AcDbEntity
  8
0
100
AcDbLine
 10
1.316305877855353
 20
7.314181071072034
 30
0.0
 11
0.4051271376978729
 21
7.314181071072034
 31
0.0
  0
LINE
  5
2E41
330
1E
100
AcDbEntity
  8
0
100
AcDbLine
 10
1.316305877855353
 20
7.353683039575972
 30
0.0
 11
1.316305877855353
 21
7.314181071072034
 31
0.0
  0
LINE
  5
2E42
330
1E
100
AcDbEntity
  8
0
100
AcDbLine
 10
0.4683302873041715
 20
7.353683039575972
 30
0.0
 11
1.316305877855353
 21
7.353683039575972
 31
0.0
  0
LINE
  5
2E43
330
1E
100
AcDbEntity
  8
0
100
AcDbLine
 10
0.4683302873041715
 20
7.767136976583845
 30
0.0
 11
2.328873003839604
 21
7.767136976583845
 31
0.0
  0
LINE
  5
2E44
330
1E
100
AcDbEntity
  8
0
100
AcDbLine
 10
1.480897413288424
 20
7.353683039575972
 30
0.0
 11
2.328873003839604
 21
7.353683039575972
 31
0.0
  0
LINE
  5
2E45
330
1E
100
AcDbEntity
  8
0
100
AcDbLine
 10
1.480897413288424
 20
7.353683039575972
 30
0.0
 11
1.480897413288424
 21
7.314181071072034
 31
0.0
  0
LINE
  5
2E46
330
1E
100
AcDbEntity
  8
0
100
AcDbLine
 10
2.392076153445903
 20
7.314181071072034
 30
0.0
 11
1.480897413288424
 21
7.314181071072034
 31
0.0
  0
POLYLINE
  5
2E47
330
1E
100
AcDbEntity
  8
0
100
AcDb2dPolyline
 66
     1
 10
0.0
 20
0.0
 30
0.0
  0
VERTEX
  5
34AC
330
2E47
100
AcDbEntity
  8
0
100
AcDbVertex
100
AcDb2dVertex
 10
2.392076153445903
 20
7.314181071072034
 30
0.0
  0
VERTEX
  5
34AD
330
2E47
100
AcDbEntity
  8
0
100
AcDbVertex
100
AcDb2dVertex
 10
2.406560208564013
 20
7.318131267922428
 30
0.0
  0
VERTEX
  5
34AE
330
2E47
100
AcDbEntity
  8
0
100
AcDbVertex
100
AcDb2dVertex
 10
2.418410799115195
 20
7.328665126190145
 30
0.0
  0
VERTEX
  5
34AF
330
2E47
100
AcDbEntity
  8
0
100
AcDbVertex
100
AcDb2dVertex
 10
2.422360995965588
 20
7.344465913591719
 30
0.0
  0
SEQEND
  5
34B0
330
2E47
100
AcDbEntity
  8
0
  0
LINE
  5
2E4D
330
1E
100
AcDbEntity
  8
0
100
AcDbLine
 10
0.5091489880915736
 20
7.354999771859436
 30
0.0
 11
1.318939342422281
 21
7.354999771859436
 31
0.0
  0
LINE
  5
2E4E
330
1E
100
AcDbEntity
  8
0
100
AcDbLine
 10
0.5091489880915736
 20
7.354999771859436
 30
0.0
 11
0.5078322558081095
 21
7.353683039575972
 31
0.0
  0
LINE
  5
2E4F
330
1E
100
AcDbEntity
  8
0
100
AcDbLine
 10
1.316305877855353
 20
7.353683039575972
 30
0.0
 11
1.318939342422281
 21
7.354999771859436
 31
0.0
  0
POLYLINE
  5
2E50
330
1E
100
AcDbEntity
  8
0
100
AcDb2dPolyline
 66
     1
 10
0.0
 20
0.0
 30
0.0
  0
VERTEX
  5
34B1
330
2E50
100
AcDbEntity
  8
0
100
AcDbVertex
100
AcDb2dVertex
 10
1.33869032667425
 20
7.711834220678333
 30
0.0
  0
VERTEX
  5
34B2
330
2E50
100
AcDbEntity
  8
0
100
AcDbVertex
100
AcDb2dVertex
 10
1.297871625886849
 20
7.706567291544475
 30
0.0
  0
VERTEX
  5
34B3
330
2E50
100
AcDbEntity
  8
0
100
AcDbVertex
100
AcDb2dVertex
 10
1.259686389666376
 20
7.689449771859436
 30
0.0
  0
VERTEX
  5
34B4
330
2E50
100
AcDbEntity
  8
0
100
AcDbVertex
100
AcDb2dVertex
 10
1.226768082579762
 20
7.664431858473609
 30
0.0
  0
VERTEX
  5
34B5
330
2E50
100
AcDbEntity
  8
0
100
AcDbVertex
100
AcDb2dVertex
 10
1.203066901477399
 20
7.630196819103531
 30
0.0
  0
VERTEX
  5
34B6
330
2E50
100
AcDbEntity
  8
0
100
AcDbVertex
100
AcDb2dVertex
 10
1.189899578642754
 20
7.590694850599593
 30
0.0
  0
VERTEX
  5
34B7
330
2E50
100
AcDbEntity
  8
0
100
AcDbVertex
100
AcDb2dVertex
 10
1.187266114075825
 20
7.548559417528727
 30
0.0
  0
VERTEX
  5
34B8
330
2E50
100
AcDbEntity
  8
0
100
AcDbVertex
100
AcDb2dVertex
 10
1.195166507776612
 20
7.509057449024789
 30
0.0
  0
VERTEX
  5
34B9
330
2E50
100
AcDbEntity
  8
0
100
AcDbVertex
100
AcDb2dVertex
 10
1.214917492028581
 20
7.472188945087781
 30
0.0
  0
VERTEX
  5
34BA
330
2E50
100
AcDbEntity
  8
0
100
AcDbVertex
100
AcDb2dVertex
 10
1.242568869981336
 20
7.441904102568098
 30
0.0
  0
VERTEX
  5
34BB
330
2E50
100
AcDbEntity
  8
0
100
AcDbVertex
100
AcDb2dVertex
 10
1.27812064163488
 20
7.419519653749199
 30
0.0
  0
VERTEX
  5
34BC
330
2E50
100
AcDbEntity
  8
0
100
AcDbVertex
100
AcDb2dVertex
 10
1.318939342422282
 20
7.408985795481482
 30
0.0
  0
SEQEND
  5
34BD
330
2E50
100
AcDbEntity
  8
0
  0
LINE
  5
2E5E
330
1E
100
AcDbEntity
  8
0
100
AcDbLine
 10
1.318939342422281
 20
7.408985795481482
 30
0.0
 11
1.321572806989211
 21
7.410302527764948
 31
0.0
  0
POLYLINE
  5
2E5F
330
1E
100
AcDbEntity
  8
0
100
AcDb2dPolyline
 66
     1
 10
0.0
 20
0.0
 30
0.0
  0
VERTEX
  5
34BE
330
2E5F
100
AcDbEntity
  8
0
100
AcDbVertex
100
AcDb2dVertex
 10
1.321572806989211
 20
7.410302527764947
 30
0.0
  0
VERTEX
  5
34BF
330
2E5F
100
AcDbEntity
  8
0
100
AcDbVertex
100
AcDb2dVertex
 10
1.282070838485274
 20
7.420836386032664
 30
0.0
  0
VERTEX
  5
34C0
330
2E5F
100
AcDbEntity
  8
0
100
AcDbVertex
100
AcDb2dVertex
 10
1.24651906683173
 20
7.440587370284632
 30
0.0
  0
VERTEX
  5
34C1
330
2E5F
100
AcDbEntity
  8
0
100
AcDbVertex
100
AcDb2dVertex
 10
1.21755095659551
 20
7.470872212804318
 30
0.0
  0
VERTEX
  5
34C2
330
2E5F
100
AcDbEntity
  8
0
100
AcDbVertex
100
AcDb2dVertex
 10
1.197799972343541
 20
7.507740716741325
 30
0.0
  0
VERTEX
  5
34C3
330
2E5F
100
AcDbEntity
  8
0
100
AcDbVertex
100
AcDb2dVertex
 10
1.188582846359289
 20
7.547242685245263
 30
0.0
  0
VERTEX
  5
34C4
330
2E5F
100
AcDbEntity
  8
0
100
AcDbVertex
100
AcDb2dVertex
 10
1.191216310926219
 20
7.58937811831613
 30
0.0
  0
VERTEX
  5
34C5
330
2E5F
100
AcDbEntity
  8
0
100
AcDbVertex
100
AcDb2dVertex
 10
1.204383633760864
 20
7.627563354536601
 30
0.0
  0
VERTEX
  5
34C6
330
2E5F
100
AcDbEntity
  8
0
100
AcDbVertex
100
AcDb2dVertex
 10
1.228084814863226
 20
7.66179839390668
 30
0.0
  0
VERTEX
  5
34C7
330
2E5F
100
AcDbEntity
  8
0
100
AcDbVertex
100
AcDb2dVertex
 10
1.259686389666376
 20
7.688133039575971
 30
0.0
  0
VERTEX
  5
34C8
330
2E5F
100
AcDbEntity
  8
0
100
AcDbVertex
100
AcDb2dVertex
 10
1.297871625886849
 20
7.70525055926101
 30
0.0
  0
VERTEX
  5
34C9
330
2E5F
100
AcDbEntity
  8
0
100
AcDbVertex
100
AcDb2dVertex
 10
1.33869032667425
 20
7.710517488394868
 30
0.0
  0
SEQEND
  5
34CA
330
2E5F
100
AcDbEntity
  8
0
  0
LINE
  5
2E6D
330
1E
100
AcDbEntity
  8
0
100
AcDbLine
 10
1.321572806989211
 20
7.410302527764948
 30
0.0
 11
1.321572806989211
 21
7.484039535638964
 31
0.0
  0
POLYLINE
  5
2E6E
330
1E
100
AcDbEntity
  8
0
100
AcDb2dPolyline
 66
     1
 10
0.0
 20
0.0
 30
0.0
  0
VERTEX
  5
34CB
330
2E6E
100
AcDbEntity
  8
0
100
AcDbVertex
100
AcDb2dVertex
 10
1.321572806989211
 20
7.484039535638963
 30
0.0
  0
VERTEX
  5
34CC
330
2E6E
100
AcDbEntity
  8
0
100
AcDbVertex
100
AcDb2dVertex
 10
1.29260469675299
 20
7.497206858473608
 30
0.0
  0
VERTEX
  5
34CD
330
2E6E
100
AcDbEntity
  8
0
100
AcDbVertex
100
AcDb2dVertex
 10
1.271536980217557
 20
7.520908039575971
 30
0.0
  0
VERTEX
  5
34CE
330
2E6E
100
AcDbEntity
  8
0
100
AcDbVertex
100
AcDb2dVertex
 10
1.261003121949841
 20
7.552509614379122
 30
0.0
  0
VERTEX
  5
34CF
330
2E6E
100
AcDbEntity
  8
0
100
AcDbVertex
100
AcDb2dVertex
 10
1.264953318800234
 20
7.584111189182271
 30
0.0
  0
VERTEX
  5
34D0
330
2E6E
100
AcDbEntity
  8
0
100
AcDbVertex
100
AcDb2dVertex
 10
1.280754106201809
 20
7.611762567135027
 30
0.0
  0
VERTEX
  5
34D1
330
2E6E
100
AcDbEntity
  8
0
100
AcDbVertex
100
AcDb2dVertex
 10
1.3070887518711
 20
7.631513551386994
 30
0.0
  0
VERTEX
  5
34D2
330
2E6E
100
AcDbEntity
  8
0
100
AcDbVertex
100
AcDb2dVertex
 10
1.33869032667425
 20
7.638097212804318
 30
0.0
  0
SEQEND
  5
34D3
330
2E6E
100
AcDbEntity
  8
0
  0
LINE
  5
2E78
330
1E
100
AcDbEntity
  8
0
100
AcDbLine
 10
1.475630484154565
 20
7.484039535638964
 30
0.0
 11
1.475630484154565
 21
7.410302527764948
 31
0.0
  0
LINE
  5
2E79
330
1E
100
AcDbEntity
  8
0
100
AcDbLine
 10
1.321572806989211
 20
7.484039535638964
 30
0.0
 11
1.322889539272675
 21
7.485356267922428
 31
0.0
  0
POLYLINE
  5
2E7A
330
1E
100
AcDbEntity
  8
0
100
AcDb2dPolyline
 66
     1
 10
0.0
 20
0.0
 30
0.0
  0
VERTEX
  5
34D4
330
2E7A
100
AcDbEntity
  8
0
100
AcDbVertex
100
AcDb2dVertex
 10
1.322889539272675
 20
7.485356267922428
 30
0.0
  0
VERTEX
  5
34D5
330
2E7A
100
AcDbEntity
  8
0
100
AcDbVertex
100
AcDb2dVertex
 10
1.330789932973462
 20
7.484039535638963
 30
0.0
  0
VERTEX
  5
34D6
330
2E7A
100
AcDbEntity
  8
0
100
AcDbVertex
100
AcDb2dVertex
 10
1.33869032667425
 20
7.482722803355498
 30
0.0
  0
SEQEND
  5
34D7
330
2E7A
100
AcDbEntity
  8
0
  0
POLYLINE
  5
2E7F
330
1E
100
AcDbEntity
  8
0
100
AcDb2dPolyline
 66
     1
 10
0.0
 20
0.0
 30
0.0
  0
VERTEX
  5
34D8
330
2E7F
100
AcDbEntity
  8
0
100
AcDbVertex
100
AcDb2dVertex
 10
1.322889539272675
 20
7.337882252174397
 30
0.0
  0
VERTEX
  5
34D9
330
2E7F
100
AcDbEntity
  8
0
100
AcDbVertex
100
AcDb2dVertex
 10
1.325523003839604
 20
7.337882252174397
 30
0.0
  0
VERTEX
  5
34DA
330
2E7F
100
AcDbEntity
  8
0
100
AcDbVertex
100
AcDb2dVertex
 10
1.328156468406533
 20
7.337882252174397
 30
0.0
  0
SEQEND
  5
34DB
330
2E7F
100
AcDbEntity
  8
0
  0
LINE
  5
2E84
330
1E
100
AcDbEntity
  8
0
100
AcDbLine
 10
1.4743137518711
 20
7.485356267922428
 30
0.0
 11
1.4743137518711
 21
7.337882252174397
 31
0.0
  0
LINE
  5
2E85
330
1E
100
AcDbEntity
  8
0
100
AcDbLine
 10
1.322889539272675
 20
7.485356267922428
 30
0.0
 11
1.322889539272675
 21
7.337882252174397
 31
0.0
  0
LINE
  5
2E86
330
1E
100
AcDbEntity
  8
0
100
AcDbLine
 10
1.321572806989211
 20
7.336565519890932
 30
0.0
 11
1.322889539272675
 21
7.337882252174397
 31
0.0
  0
LINE
  5
2E87
330
1E
100
AcDbEntity
  8
0
100
AcDbLine
 10
1.824564539272675
 20
7.287846425402743
 30
0.0
 11
1.823247806989211
 21
7.2931133545366
 31
0.0
  0
LINE
  5
2E88
330
1E
100
AcDbEntity
  8
0
100
AcDbLine
 10
1.823247806989211
 20
7.2931133545366
 30
0.0
 11
1.823247806989211
 21
7.262828512016916
 31
0.0
  0
LINE
  5
2E89
330
1E
100
AcDbEntity
  8
0
100
AcDbLine
 10
1.824564539272675
 20
7.287846425402743
 30
0.0
 11
1.824564539272675
 21
7.264145244300381
 31
0.0
  0
LINE
  5
2E8A
330
1E
100
AcDbEntity
  8
0
100
AcDbLine
 10
2.018124184941966
 20
7.295746819103531
 30
0.0
 11
2.016807452658502
 21
7.294430086820065
 31
0.0
  0
LINE
  5
2E8B
330
1E
100
AcDbEntity
  8
0
100
AcDbLine
 10
1.893034618012833
 20
7.295746819103531
 30
0.0
 11
1.894351350296297
 21
7.294430086820065
 31
0.0
  0
LINE
  5
2E8C
330
1E
100
AcDbEntity
  8
0
100
AcDbLine
 10
2.087910995965589
 20
7.262828512016916
 30
0.0
 11
2.087910995965589
 21
7.2931133545366
 31
0.0
  0
LINE
  5
2E8D
330
1E
100
AcDbEntity
  8
0
100
AcDbLine
 10
2.087910995965589
 20
7.2931133545366
 30
0.0
 11
2.086594263682124
 21
7.287846425402743
 31
0.0
  0
LINE
  5
2E8E
330
1E
100
AcDbEntity
  8
0
100
AcDbLine
 10
2.086594263682124
 20
7.264145244300381
 30
0.0
 11
2.086594263682124
 21
7.287846425402743
 31
0.0
  0
LINE
  5
2E8F
330
1E
100
AcDbEntity
  8
0
100
AcDbLine
 10
1.478263948721494
 20
7.354999771859436
 30
0.0
 11
2.288054303052203
 21
7.354999771859436
 31
0.0
  0
LINE
  5
2E90
330
1E
100
AcDbEntity
  8
0
100
AcDbLine
 10
1.478263948721494
 20
7.354999771859436
 30
0.0
 11
1.480897413288424
 21
7.353683039575972
 31
0.0
  0
LINE
  5
2E91
330
1E
100
AcDbEntity
  8
0
100
AcDbLine
 10
2.328873003839604
 20
7.353683039575972
 30
0.0
 11
2.289371035335667
 21
7.353683039575972
 31
0.0
  0
LINE
  5
2E92
330
1E
100
AcDbEntity
  8
0
100
AcDbLine
 10
2.289371035335667
 20
7.353683039575972
 30
0.0
 11
2.288054303052203
 21
7.354999771859436
 31
0.0
  0
LINE
  5
2E93
330
1E
100
AcDbEntity
  8
0
100
AcDbLine
 10
0.5091489880915736
 20
7.765820244300382
 30
0.0
 11
2.288054303052203
 21
7.765820244300382
 31
0.0
  0
LINE
  5
2E94
330
1E
100
AcDbEntity
  8
0
100
AcDbLine
 10
0.5091489880915736
 20
7.765820244300382
 30
0.0
 11
0.5091489880915736
 21
7.354999771859436
 31
0.0
  0
LINE
  5
2E95
330
1E
100
AcDbEntity
  8
0
100
AcDbLine
 10
1.318939342422281
 20
7.354999771859436
 30
0.0
 11
1.318939342422281
 21
7.408985795481482
 31
0.0
  0
LINE
  5
2E96
330
1E
100
AcDbEntity
  8
0
100
AcDbLine
 10
1.478263948721494
 20
7.408985795481482
 30
0.0
 11
1.478263948721494
 21
7.354999771859436
 31
0.0
  0
LINE
  5
2E97
330
1E
100
AcDbEntity
  8
0
100
AcDbLine
 10
2.288054303052203
 20
7.354999771859436
 30
0.0
 11
2.288054303052203
 21
7.765820244300382
 31
0.0
  0
LINE
  5
2E98
330
1E
100
AcDbEntity
  8
0
100
AcDbLine
 10
0.5078322558081095
 20
7.765820244300382
 30
0.0
 11
0.5091489880915736
 21
7.765820244300382
 31
0.0
  0
LINE
  5
2E99
330
1E
100
AcDbEntity
  8
0
100
AcDbLine
 10
2.288054303052203
 20
7.765820244300382
 30
0.0
 11
2.289371035335667
 21
7.765820244300382
 31
0.0
  0
LINE
  5
2E9A
330
1E
100
AcDbEntity
  8
0
100
AcDbLine
 10
2.289371035335667
 20
7.765820244300382
 30
0.0
 11
2.328873003839604
 21
7.765820244300382
 31
0.0
  0
LINE
  5
2E9B
330
1E
100
AcDbEntity
  8
0
100
AcDbLine
 10
2.747593869981336
 20
8.171373787607468
 30
0.0
 11
2.75154406683173
 21
8.174007252174398
 31
0.0
  0
LINE
  5
2E9C
330
1E
100
AcDbEntity
  8
0
100
AcDbLine
 10
0.0456592243120451
 20
8.174007252174398
 30
0.0
 11
0.0496094211624394
 21
8.171373787607468
 31
0.0
  0
POLYLINE
  5
2E9D
330
1E
100
AcDbEntity
  8
0
100
AcDb2dPolyline
 66
     1
 10
0.0
 20
0.0
 30
0.0
  0
VERTEX
  5
34DC
330
2E9D
100
AcDbEntity
  8
0
100
AcDbVertex
100
AcDb2dVertex
 10
0.981855877855353
 20
7.262828512016916
 30
0.0
  0
VERTEX
  5
34DD
330
2E9D
100
AcDbEntity
  8
0
100
AcDbVertex
100
AcDb2dVertex
 10
0.9765889487214948
 20
7.262828512016916
 30
0.0
  0
VERTEX
  5
34DE
330
2E9D
100
AcDbEntity
  8
0
100
AcDbVertex
100
AcDb2dVertex
 10
0.9739554841545656
 20
7.262828512016916
 30
0.0
  0
SEQEND
  5
34DF
330
2E9D
100
AcDbEntity
  8
0
  0
POLYLINE
  5
2EA2
330
1E
100
AcDbEntity
  8
0
100
AcDb2dPolyline
 66
     1
 10
0.0
 20
0.0
 30
0.0
  0
VERTEX
  5
34E0
330
2EA2
100
AcDbEntity
  8
0
100
AcDbVertex
100
AcDb2dVertex
 10
0.9660550904537783
 20
7.247027724615341
 30
0.0
  0
VERTEX
  5
34E1
330
2EA2
100
AcDbEntity
  8
0
100
AcDbVertex
100
AcDb2dVertex
 10
0.9660550904537783
 20
7.252294653749199
 30
0.0
  0
VERTEX
  5
34E2
330
2EA2
100
AcDbEntity
  8
0
100
AcDbVertex
100
AcDb2dVertex
 10
0.9660550904537783
 20
7.254928118316129
 30
0.0
  0
SEQEND
  5
34E3
330
2EA2
100
AcDbEntity
  8
0
  0
POLYLINE
  5
2EA7
330
1E
100
AcDbEntity
  8
0
100
AcDb2dPolyline
 66
     1
 10
0.0
 20
0.0
 30
0.0
  0
VERTEX
  5
34E4
330
2EA7
100
AcDbEntity
  8
0
100
AcDbVertex
100
AcDb2dVertex
 10
0.981855877855353
 20
7.2931133545366
 30
0.0
  0
VERTEX
  5
34E5
330
2EA7
100
AcDbEntity
  8
0
100
AcDbVertex
100
AcDb2dVertex
 10
0.9765889487214948
 20
7.2931133545366
 30
0.0
  0
VERTEX
  5
34E6
330
2EA7
100
AcDbEntity
  8
0
100
AcDbVertex
100
AcDb2dVertex
 10
0.9739554841545656
 20
7.2931133545366
 30
0.0
  0
SEQEND
  5
34E7
330
2EA7
100
AcDbEntity
  8
0
  0
POLYLINE
  5
2EAC
330
1E
100
AcDbEntity
  8
0
100
AcDb2dPolyline
 66
     1
 10
0.0
 20
0.0
 30
0.0
  0
VERTEX
  5
34E8
330
2EAC
100
AcDbEntity
  8
0
100
AcDbVertex
100
AcDb2dVertex
 10
0.9660550904537783
 20
7.308914141938176
 30
0.0
  0
VERTEX
  5
34E9
330
2EAC
100
AcDbEntity
  8
0
100
AcDbVertex
100
AcDb2dVertex
 10
0.9660550904537783
 20
7.303647212804317
 30
0.0
  0
VERTEX
  5
34EA
330
2EAC
100
AcDbEntity
  8
0
100
AcDbVertex
100
AcDb2dVertex
 10
0.9660550904537783
 20
7.301013748237389
 30
0.0
  0
SEQEND
  5
34EB
330
2EAC
100
AcDbEntity
  8
0
  0
LINE
  5
2EB1
330
1E
100
AcDbEntity
  8
0
100
AcDbLine
 10
0.9739554841545654
 20
7.2931133545366
 30
0.0
 11
0.9660550904537785
 21
7.301013748237389
 31
0.0
  0
POLYLINE
  5
2EB2
330
1E
100
AcDbEntity
  8
0
100
AcDb2dPolyline
 66
     1
 10
0.0
 20
0.0
 30
0.0
  0
VERTEX
  5
34EC
330
2EB2
100
AcDbEntity
  8
0
100
AcDbVertex
100
AcDb2dVertex
 10
0.7185094211624394
 20
7.308914141938176
 30
0.0
  0
VERTEX
  5
34ED
330
2EB2
100
AcDbEntity
  8
0
100
AcDbVertex
100
AcDb2dVertex
 10
0.7185094211624394
 20
7.303647212804317
 30
0.0
  0
VERTEX
  5
34EE
330
2EB2
100
AcDbEntity
  8
0
100
AcDbVertex
100
AcDb2dVertex
 10
0.7185094211624394
 20
7.301013748237389
 30
0.0
  0
SEQEND
  5
34EF
330
2EB2
100
AcDbEntity
  8
0
  0
LINE
  5
2EB7
330
1E
100
AcDbEntity
  8
0
100
AcDbLine
 10
0.9660550904537785
 20
7.301013748237389
 30
0.0
 11
0.7185094211624392
 21
7.301013748237389
 31
0.0
  0
POLYLINE
  5
2EB8
330
1E
100
AcDbEntity
  8
0
100
AcDb2dPolyline
 66
     1
 10
0.0
 20
0.0
 30
0.0
  0
VERTEX
  5
34F0
330
2EB8
100
AcDbEntity
  8
0
100
AcDbVertex
100
AcDb2dVertex
 10
0.7013919014774002
 20
7.2931133545366
 30
0.0
  0
VERTEX
  5
34F1
330
2EB8
100
AcDbEntity
  8
0
100
AcDbVertex
100
AcDb2dVertex
 10
0.7079755628947229
 20
7.2931133545366
 30
0.0
  0
VERTEX
  5
34F2
330
2EB8
100
AcDbEntity
  8
0
100
AcDbVertex
100
AcDb2dVertex
 10
0.7092922951781875
 20
7.2931133545366
 30
0.0
  0
SEQEND
  5
34F3
330
2EB8
100
AcDbEntity
  8
0
  0
LINE
  5
2EBD
330
1E
100
AcDbEntity
  8
0
100
AcDbLine
 10
0.7185094211624392
 20
7.301013748237389
 30
0.0
 11
0.7092922951781873
 21
7.2931133545366
 31
0.0
  0
POLYLINE
  5
2EBE
330
1E
100
AcDbEntity
  8
0
100
AcDb2dPolyline
 66
     1
 10
0.0
 20
0.0
 30
0.0
  0
VERTEX
  5
34F4
330
2EBE
100
AcDbEntity
  8
0
100
AcDbVertex
100
AcDb2dVertex
 10
0.7092922951781875
 20
7.262828512016916
 30
0.0
  0
VERTEX
  5
34F5
330
2EBE
100
AcDbEntity
  8
0
100
AcDbVertex
100
AcDb2dVertex
 10
0.7079755628947229
 20
7.262828512016916
 30
0.0
  0
VERTEX
  5
34F6
330
2EBE
100
AcDbEntity
  8
0
100
AcDbVertex
100
AcDb2dVertex
 10
0.7013919014774002
 20
7.262828512016916
 30
0.0
  0
SEQEND
  5
34F7
330
2EBE
100
AcDbEntity
  8
0
  0
POLYLINE
  5
2EC3
330
1E
100
AcDbEntity
  8
0
100
AcDb2dPolyline
 66
     1
 10
0.0
 20
0.0
 30
0.0
  0
VERTEX
  5
34F8
330
2EC3
100
AcDbEntity
  8
0
100
AcDbVertex
100
AcDb2dVertex
 10
0.7185094211624394
 20
7.254928118316129
 30
0.0
  0
VERTEX
  5
34F9
330
2EC3
100
AcDbEntity
  8
0
100
AcDbVertex
100
AcDb2dVertex
 10
0.7185094211624394
 20
7.252294653749199
 30
0.0
  0
VERTEX
  5
34FA
330
2EC3
100
AcDbEntity
  8
0
100
AcDbVertex
100
AcDb2dVertex
 10
0.7185094211624394
 20
7.247027724615341
 30
0.0
  0
SEQEND
  5
34FB
330
2EC3
100
AcDbEntity
  8
0
  0
POLYLINE
  5
2EC8
330
1E
100
AcDbEntity
  8
0
100
AcDb2dPolyline
 66
     1
 10
0.0
 20
0.0
 30
0.0
  0
VERTEX
  5
34FC
330
2EC8
100
AcDbEntity
  8
0
100
AcDbVertex
100
AcDb2dVertex
 10
2.080010602264802
 20
7.247027724615341
 30
0.0
  0
VERTEX
  5
34FD
330
2EC8
100
AcDbEntity
  8
0
100
AcDbVertex
100
AcDb2dVertex
 10
2.080010602264802
 20
7.252294653749199
 30
0.0
  0
VERTEX
  5
34FE
330
2EC8
100
AcDbEntity
  8
0
100
AcDbVertex
100
AcDb2dVertex
 10
2.080010602264802
 20
7.254928118316129
 30
0.0
  0
SEQEND
  5
34FF
330
2EC8
100
AcDbEntity
  8
0
  0
POLYLINE
  5
2ECD
330
1E
100
AcDbEntity
  8
0
100
AcDb2dPolyline
 66
     1
 10
0.0
 20
0.0
 30
0.0
  0
VERTEX
  5
3500
330
2ECD
100
AcDbEntity
  8
0
100
AcDbVertex
100
AcDb2dVertex
 10
2.095811389666376
 20
7.262828512016916
 30
0.0
  0
VERTEX
  5
3501
330
2ECD
100
AcDbEntity
  8
0
100
AcDbVertex
100
AcDb2dVertex
 10
2.090544460532518
 20
7.262828512016916
 30
0.0
  0
VERTEX
  5
3502
330
2ECD
100
AcDbEntity
  8
0
100
AcDbVertex
100
AcDb2dVertex
 10
2.087910995965589
 20
7.262828512016916
 30
0.0
  0
SEQEND
  5
3503
330
2ECD
100
AcDbEntity
  8
0
  0
POLYLINE
  5
2ED2
330
1E
100
AcDbEntity
  8
0
100
AcDb2dPolyline
 66
     1
 10
0.0
 20
0.0
 30
0.0
  0
VERTEX
  5
3504
330
2ED2
100
AcDbEntity
  8
0
100
AcDbVertex
100
AcDb2dVertex
 10
2.087910995965589
 20
7.2931133545366
 30
0.0
  0
VERTEX
  5
3505
330
2ED2
100
AcDbEntity
  8
0
100
AcDbVertex
100
AcDb2dVertex
 10
2.090544460532518
 20
7.2931133545366
 30
0.0
  0
VERTEX
  5
3506
330
2ED2
100
AcDbEntity
  8
0
100
AcDbVertex
100
AcDb2dVertex
 10
2.095811389666376
 20
7.2931133545366
 30
0.0
  0
SEQEND
  5
3507
330
2ED2
100
AcDbEntity
  8
0
  0
POLYLINE
  5
2ED7
330
1E
100
AcDbEntity
  8
0
100
AcDb2dPolyline
 66
     1
 10
0.0
 20
0.0
 30
0.0
  0
VERTEX
  5
3508
330
2ED7
100
AcDbEntity
  8
0
100
AcDbVertex
100
AcDb2dVertex
 10
2.080010602264802
 20
7.301013748237389
 30
0.0
  0
VERTEX
  5
3509
330
2ED7
100
AcDbEntity
  8
0
100
AcDbVertex
100
AcDb2dVertex
 10
2.080010602264802
 20
7.303647212804317
 30
0.0
  0
VERTEX
  5
350A
330
2ED7
100
AcDbEntity
  8
0
100
AcDbVertex
100
AcDb2dVertex
 10
2.080010602264802
 20
7.308914141938176
 30
0.0
  0
SEQEND
  5
350B
330
2ED7
100
AcDbEntity
  8
0
  0
LINE
  5
2EDC
330
1E
100
AcDbEntity
  8
0
100
AcDbLine
 10
2.087910995965589
 20
7.2931133545366
 30
0.0
 11
2.080010602264801
 21
7.301013748237389
 31
0.0
  0
POLYLINE
  5
2EDD
330
1E
100
AcDbEntity
  8
0
100
AcDb2dPolyline
 66
     1
 10
0.0
 20
0.0
 30
0.0
  0
VERTEX
  5
350C
330
2EDD
100
AcDbEntity
  8
0
100
AcDbVertex
100
AcDb2dVertex
 10
1.831148200689998
 20
7.301013748237389
 30
0.0
  0
VERTEX
  5
350D
330
2EDD
100
AcDbEntity
  8
0
100
AcDbVertex
100
AcDb2dVertex
 10
1.831148200689998
 20
7.303647212804317
 30
0.0
  0
VERTEX
  5
350E
330
2EDD
100
AcDbEntity
  8
0
100
AcDbVertex
100
AcDb2dVertex
 10
1.831148200689998
 20
7.308914141938176
 30
0.0
  0
SEQEND
  5
350F
330
2EDD
100
AcDbEntity
  8
0
  0
LINE
  5
2EE2
330
1E
100
AcDbEntity
  8
0
100
AcDbLine
 10
2.080010602264801
 20
7.301013748237389
 30
0.0
 11
1.831148200689998
 21
7.301013748237389
 31
0.0
  0
POLYLINE
  5
2EE3
330
1E
100
AcDbEntity
  8
0
100
AcDb2dPolyline
 66
     1
 10
0.0
 20
0.0
 30
0.0
  0
VERTEX
  5
3510
330
2EE3
100
AcDbEntity
  8
0
100
AcDbVertex
100
AcDb2dVertex
 10
1.823247806989211
 20
7.2931133545366
 30
0.0
  0
VERTEX
  5
3511
330
2EE3
100
AcDbEntity
  8
0
100
AcDbVertex
100
AcDb2dVertex
 10
1.820614342422282
 20
7.2931133545366
 30
0.0
  0
VERTEX
  5
3512
330
2EE3
100
AcDbEntity
  8
0
100
AcDbVertex
100
AcDb2dVertex
 10
1.815347413288423
 20
7.2931133545366
 30
0.0
  0
SEQEND
  5
3513
330
2EE3
100
AcDbEntity
  8
0
  0
LINE
  5
2EE8
330
1E
100
AcDbEntity
  8
0
100
AcDbLine
 10
1.831148200689998
 20
7.301013748237389
 30
0.0
 11
1.823247806989211
 21
7.2931133545366
 31
0.0
  0
POLYLINE
  5
2EE9
330
1E
100
AcDbEntity
  8
0
100
AcDb2dPolyline
 66
     1
 10
0.0
 20
0.0
 30
0.0
  0
VERTEX
  5
3514
330
2EE9
100
AcDbEntity
  8
0
100
AcDbVertex
100
AcDb2dVertex
 10
1.823247806989211
 20
7.262828512016916
 30
0.0
  0
VERTEX
  5
3515
330
2EE9
100
AcDbEntity
  8
0
100
AcDbVertex
100
AcDb2dVertex
 10
1.820614342422282
 20
7.262828512016916
 30
0.0
  0
VERTEX
  5
3516
330
2EE9
100
AcDbEntity
  8
0
100
AcDbVertex
100
AcDb2dVertex
 10
1.815347413288423
 20
7.262828512016916
 30
0.0
  0
SEQEND
  5
3517
330
2EE9
100
AcDbEntity
  8
0
  0
POLYLINE
  5
2EEE
330
1E
100
AcDbEntity
  8
0
100
AcDb2dPolyline
 66
     1
 10
0.0
 20
0.0
 30
0.0
  0
VERTEX
  5
3518
330
2EEE
100
AcDbEntity
  8
0
100
AcDbVertex
100
AcDb2dVertex
 10
1.831148200689998
 20
7.254928118316129
 30
0.0
  0
VERTEX
  5
3519
330
2EEE
100
AcDbEntity
  8
0
100
AcDbVertex
100
AcDb2dVertex
 10
1.831148200689998
 20
7.252294653749199
 30
0.0
  0
VERTEX
  5
351A
330
2EEE
100
AcDbEntity
  8
0
100
AcDbVertex
100
AcDb2dVertex
 10
1.831148200689998
 20
7.247027724615341
 30
0.0
  0
SEQEND
  5
351B
330
2EEE
100
AcDbEntity
  8
0
  0
LINE
  5
2EF3
330
1E
100
AcDbEntity
  8
0
100
AcDbLine
 10
2.422360995965588
 20
7.344465913591719
 30
0.0
 11
2.422360995965588
 21
7.343149181308255
 31
0.0
  0
LINE
  5
2EF4
330
1E
100
AcDbEntity
  8
0
100
AcDbLine
 10
2.392076153445903
 20
7.312864338788569
 30
0.0
 11
2.392076153445903
 21
7.314181071072034
 31
0.0
  0
LINE
  5
2EF5
330
1E
100
AcDbEntity
  8
0
100
AcDbLine
 10
2.422360995965588
 20
7.776354102568097
 30
0.0
 11
2.422360995965588
 21
7.776354102568097
 31
0.0
  0
LINE
  5
2EF6
330
1E
100
AcDbEntity
  8
0
100
AcDbLine
 10
2.392076153445903
 20
7.806638945087781
 30
0.0
 11
2.392076153445903
 21
7.806638945087781
 31
0.0
  0
LINE
  5
2EF7
330
1E
100
AcDbEntity
  8
0
100
AcDbLine
 10
0.4051271376978729
 20
7.806638945087781
 30
0.0
 11
0.4051271376978729
 21
7.806638945087781
 31
0.0
  0
LINE
  5
2EF8
330
1E
100
AcDbEntity
  8
0
100
AcDbLine
 10
0.3748422951781869
 20
7.776354102568097
 30
0.0
 11
0.3748422951781869
 21
7.776354102568097
 31
0.0
  0
LINE
  5
2EF9
330
1E
100
AcDbEntity
  8
0
100
AcDbLine
 10
0.3748422951781869
 20
7.343149181308255
 30
0.0
 11
0.3748422951781869
 21
7.344465913591719
 31
0.0
  0
LINE
  5
2EFA
330
1E
100
AcDbEntity
  8
0
100
AcDbLine
 10
0.4051271376978729
 20
7.314181071072034
 30
0.0
 11
0.4051271376978729
 21
7.312864338788569
 31
0.0
  0
LINE
  5
2EFB
330
1E
100
AcDbEntity
  8
0
100
AcDbLine
 10
1.316305877855353
 20
7.314181071072034
 30
0.0
 11
1.317622610138817
 21
7.312864338788569
 31
0.0
  0
POLYLINE
  5
2EFC
330
1E
100
AcDbEntity
  8
0
100
AcDb2dPolyline
 66
     1
 10
0.0
 20
0.0
 30
0.0
  0
VERTEX
  5
351C
330
2EFC
100
AcDbEntity
  8
0
100
AcDbVertex
100
AcDb2dVertex
 10
1.317622610138817
 20
7.290479889969672
 30
0.0
  0
VERTEX
  5
351D
330
2EFC
100
AcDbEntity
  8
0
100
AcDbVertex
100
AcDb2dVertex
 10
1.318939342422282
 20
7.307597409654711
 30
0.0
  0
VERTEX
  5
351E
330
2EFC
100
AcDbEntity
  8
0
100
AcDbVertex
100
AcDb2dVertex
 10
1.318939342422282
 20
7.314181071072034
 30
0.0
  0
SEQEND
  5
351F
330
2EFC
100
AcDbEntity
  8
0
  0
POLYLINE
  5
2F01
330
1E
100
AcDbEntity
  8
0
100
AcDb2dPolyline
 66
     1
 10
0.0
 20
0.0
 30
0.0
  0
VERTEX
  5
3520
330
2F01
100
AcDbEntity
  8
0
100
AcDbVertex
100
AcDb2dVertex
 10
1.478263948721494
 20
7.314181071072034
 30
0.0
  0
VERTEX
  5
3521
330
2F01
100
AcDbEntity
  8
0
100
AcDbVertex
100
AcDb2dVertex
 10
1.479580681004959
 20
7.307597409654711
 30
0.0
  0
VERTEX
  5
3522
330
2F01
100
AcDbEntity
  8
0
100
AcDbVertex
100
AcDb2dVertex
 10
1.479580681004959
 20
7.290479889969672
 30
0.0
  0
SEQEND
  5
3523
330
2F01
100
AcDbEntity
  8
0
  0
LINE
  5
2F06
330
1E
100
AcDbEntity
  8
0
100
AcDbLine
 10
1.318939342422281
 20
7.314181071072034
 30
0.0
 11
1.328156468406533
 21
7.314181071072034
 31
0.0
  0
LINE
  5
2F07
330
1E
100
AcDbEntity
  8
0
100
AcDbLine
 10
1.469046822737242
 20
7.314181071072034
 30
0.0
 11
1.478263948721494
 21
7.314181071072034
 31
0.0
  0
LINE
  5
2F08
330
1E
100
AcDbEntity
  8
0
100
AcDbLine
 10
1.479580681004958
 20
7.312864338788569
 30
0.0
 11
1.480897413288424
 21
7.314181071072034
 31
0.0
  0
LINE
  5
2F09
330
1E
100
AcDbEntity
  8
0
100
AcDbLine
 10
0.7185094211624392
 20
7.301013748237389
 30
0.0
 11
0.7198261534459034
 21
7.295746819103531
 31
0.0
  0
LINE
  5
2F0A
330
1E
100
AcDbEntity
  8
0
100
AcDbLine
 10
0.7711787125010217
 20
7.295746819103531
 30
0.0
 11
0.7790791062018095
 21
7.295746819103531
 31
0.0
  0
LINE
  5
2F0B
330
1E
100
AcDbEntity
  8
0
100
AcDbLine
 10
0.9041686731309432
 20
7.295746819103531
 30
0.0
 11
0.912069066831731
 21
7.295746819103531
 31
0.0
  0
LINE
  5
2F0C
330
1E
100
AcDbEntity
  8
0
100
AcDbLine
 10
0.9647383581703135
 20
7.295746819103531
 30
0.0
 11
0.9660550904537785
 21
7.301013748237389
 31
0.0
  0
POLYLINE
  5
2F0D
330
1E
100
AcDbEntity
  8
0
100
AcDb2dPolyline
 66
     1
 10
0.0
 20
0.0
 30
0.0
  0
VERTEX
  5
3524
330
2F0D
100
AcDbEntity
  8
0
100
AcDbVertex
100
AcDb2dVertex
 10
1.475630484154565
 20
7.32734839390668
 30
0.0
  0
VERTEX
  5
3525
330
2F0D
100
AcDbEntity
  8
0
100
AcDbVertex
100
AcDb2dVertex
 10
1.475630484154565
 20
7.329981858473608
 30
0.0
  0
VERTEX
  5
3526
330
2F0D
100
AcDbEntity
  8
0
100
AcDbVertex
100
AcDb2dVertex
 10
1.475630484154565
 20
7.332615323040538
 30
0.0
  0
VERTEX
  5
3527
330
2F0D
100
AcDbEntity
  8
0
100
AcDbVertex
100
AcDb2dVertex
 10
1.475630484154565
 20
7.335248787607467
 30
0.0
  0
VERTEX
  5
3528
330
2F0D
100
AcDbEntity
  8
0
100
AcDbVertex
100
AcDb2dVertex
 10
1.475630484154565
 20
7.336565519890932
 30
0.0
  0
SEQEND
  5
3529
330
2F0D
100
AcDbEntity
  8
0
  0
LINE
  5
2F14
330
1E
100
AcDbEntity
  8
0
100
AcDbLine
 10
1.478263948721494
 20
7.314181071072034
 30
0.0
 11
1.475630484154565
 21
7.316814535638964
 31
0.0
  0
LINE
  5
2F15
330
1E
100
AcDbEntity
  8
0
100
AcDbLine
 10
1.318939342422281
 20
7.314181071072034
 30
0.0
 11
1.321572806989211
 21
7.316814535638964
 31
0.0
  0
POLYLINE
  5
2F16
330
1E
100
AcDbEntity
  8
0
100
AcDb2dPolyline
 66
     1
 10
0.0
 20
0.0
 30
0.0
  0
VERTEX
  5
352A
330
2F16
100
AcDbEntity
  8
0
100
AcDbVertex
100
AcDb2dVertex
 10
1.321572806989211
 20
7.336565519890932
 30
0.0
  0
VERTEX
  5
352B
330
2F16
100
AcDbEntity
  8
0
100
AcDbVertex
100
AcDb2dVertex
 10
1.321572806989211
 20
7.335248787607467
 30
0.0
  0
VERTEX
  5
352C
330
2F16
100
AcDbEntity
  8
0
100
AcDbVertex
100
AcDb2dVertex
 10
1.321572806989211
 20
7.332615323040538
 30
0.0
  0
VERTEX
  5
352D
330
2F16
100
AcDbEntity
  8
0
100
AcDbVertex
100
AcDb2dVertex
 10
1.321572806989211
 20
7.328665126190145
 30
0.0
  0
VERTEX
  5
352E
330
2F16
100
AcDbEntity
  8
0
100
AcDbVertex
100
AcDb2dVertex
 10
1.321572806989211
 20
7.32734839390668
 30
0.0
  0
SEQEND
  5
352F
330
2F16
100
AcDbEntity
  8
0
  0
LINE
  5
2F1D
330
1E
100
AcDbEntity
  8
0
100
AcDbLine
 10
1.831148200689998
 20
7.301013748237389
 30
0.0
 11
1.833781665256927
 21
7.295746819103531
 31
0.0
  0
LINE
  5
2F1E
330
1E
100
AcDbEntity
  8
0
100
AcDbLine
 10
1.885134224312045
 20
7.295746819103531
 30
0.0
 11
1.893034618012833
 21
7.295746819103531
 31
0.0
  0
LINE
  5
2F1F
330
1E
100
AcDbEntity
  8
0
100
AcDbLine
 10
2.018124184941966
 20
7.295746819103531
 30
0.0
 11
2.026024578642754
 21
7.295746819103531
 31
0.0
  0
LINE
  5
2F20
330
1E
100
AcDbEntity
  8
0
100
AcDbLine
 10
2.077377137697872
 20
7.295746819103531
 30
0.0
 11
2.080010602264801
 21
7.301013748237389
 31
0.0
  0
LINE
  5
2F21
330
1E
100
AcDbEntity
  8
0
100
AcDbLine
 10
1.912785602264801
 20
4.533242488394868
 30
0.0
 11
2.159014539272675
 21
4.533242488394868
 31
0.0
  0
LINE
  5
2F22
330
1E
100
AcDbEntity
  8
0
100
AcDbLine
 10
0.8844176888789752
 20
4.533242488394868
 30
0.0
 11
0.638188751871101
 21
4.533242488394868
 31
0.0
  0
LINE
  5
2F23
330
1E
100
AcDbEntity
  8
0
100
AcDbLine
 10
1.832464932973462
 20
7.294430086820065
 30
0.0
 11
2.078693869981336
 21
7.294430086820065
 31
0.0
  0
LINE
  5
2F24
330
1E
100
AcDbEntity
  8
0
100
AcDbLine
 10
0.9647383581703135
 20
7.294430086820065
 30
0.0
 11
0.7185094211624392
 21
7.294430086820065
 31
0.0
  0
LINE
  5
2F25
330
1E
100
AcDbEntity
  8
0
100
AcDbLine
 10
0.9752722164380296
 20
4.525342094694082
 30
0.0
 11
1.251785995965589
 21
4.525342094694082
 31
0.0
  0
POLYLINE
  5
2F26
330
1E
100
AcDbEntity
  8
0
100
AcDb2dPolyline
 66
     1
 10
0.0
 20
0.0
 30
0.0
  0
VERTEX
  5
3530
330
2F26
100
AcDbEntity
  8
0
100
AcDbVertex
100
AcDb2dVertex
 10
1.251785995965589
 20
4.525342094694082
 30
0.0
  0
VERTEX
  5
3531
330
2F26
100
AcDbEntity
  8
0
100
AcDbVertex
100
AcDb2dVertex
 10
1.26363658651677
 20
4.52797555926101
 30
0.0
  0
VERTEX
  5
3532
330
2F26
100
AcDbEntity
  8
0
100
AcDbVertex
100
AcDb2dVertex
 10
1.274170444784487
 20
4.534559220678333
 30
0.0
  0
SEQEND
  5
3533
330
2F26
100
AcDbEntity
  8
0
  0
POLYLINE
  5
2F2B
330
1E
100
AcDbEntity
  8
0
100
AcDb2dPolyline
 66
     1
 10
0.0
 20
0.0
 30
0.0
  0
VERTEX
  5
3534
330
2F2B
100
AcDbEntity
  8
0
100
AcDbVertex
100
AcDb2dVertex
 10
1.274170444784487
 20
4.534559220678333
 30
0.0
  0
VERTEX
  5
3535
330
2F2B
100
AcDbEntity
  8
0
100
AcDbVertex
100
AcDb2dVertex
 10
1.284704303052203
 20
4.54245961437912
 30
0.0
  0
VERTEX
  5
3536
330
2F2B
100
AcDbEntity
  8
0
100
AcDbVertex
100
AcDb2dVertex
 10
1.296554893603384
 20
4.54509307894605
 30
0.0
  0
SEQEND
  5
3537
330
2F2B
100
AcDbEntity
  8
0
  0
LINE
  5
2F30
330
1E
100
AcDbEntity
  8
0
100
AcDbLine
 10
1.297871625886849
 20
4.54509307894605
 30
0.0
 11
1.296554893603384
 21
4.54509307894605
 31
0.0
  0
POLYLINE
  5
2F31
330
1E
100
AcDbEntity
  8
0
100
AcDb2dPolyline
 66
     1
 10
0.0
 20
0.0
 30
0.0
  0
VERTEX
  5
3538
330
2F31
100
AcDbEntity
  8
0
100
AcDbVertex
100
AcDb2dVertex
 10
1.297871625886849
 20
4.54509307894605
 30
0.0
  0
VERTEX
  5
3539
330
2F31
100
AcDbEntity
  8
0
100
AcDbVertex
100
AcDb2dVertex
 10
1.313672413288424
 20
4.541142882095656
 30
0.0
  0
VERTEX
  5
353A
330
2F31
100
AcDbEntity
  8
0
100
AcDbVertex
100
AcDb2dVertex
 10
1.32420627155614
 20
4.529292291544475
 30
0.0
  0
SEQEND
  5
353B
330
2F31
100
AcDbEntity
  8
0
  0
LINE
  5
2F36
330
1E
100
AcDbEntity
  8
0
100
AcDbLine
 10
1.32420627155614
 20
4.529292291544475
 30
0.0
 11
1.472997019587636
 21
4.529292291544475
 31
0.0
  0
POLYLINE
  5
2F37
330
1E
100
AcDbEntity
  8
0
100
AcDb2dPolyline
 66
     1
 10
0.0
 20
0.0
 30
0.0
  0
VERTEX
  5
353C
330
2F37
100
AcDbEntity
  8
0
100
AcDbVertex
100
AcDb2dVertex
 10
1.472997019587636
 20
4.529292291544475
 30
0.0
  0
VERTEX
  5
353D
330
2F37
100
AcDbEntity
  8
0
100
AcDbVertex
100
AcDb2dVertex
 10
1.483530877855353
 20
4.541142882095656
 30
0.0
  0
VERTEX
  5
353E
330
2F37
100
AcDbEntity
  8
0
100
AcDbVertex
100
AcDb2dVertex
 10
1.499331665256927
 20
4.54509307894605
 30
0.0
  0
SEQEND
  5
353F
330
2F37
100
AcDbEntity
  8
0
  0
LINE
  5
2F3C
330
1E
100
AcDbEntity
  8
0
100
AcDbLine
 10
1.499331665256927
 20
4.54509307894605
 30
0.0
 11
1.500648397540392
 21
4.54509307894605
 31
0.0
  0
POLYLINE
  5
2F3D
330
1E
100
AcDbEntity
  8
0
100
AcDb2dPolyline
 66
     1
 10
0.0
 20
0.0
 30
0.0
  0
VERTEX
  5
3540
330
2F3D
100
AcDbEntity
  8
0
100
AcDbVertex
100
AcDb2dVertex
 10
1.500648397540391
 20
4.54509307894605
 30
0.0
  0
VERTEX
  5
3541
330
2F3D
100
AcDbEntity
  8
0
100
AcDbVertex
100
AcDb2dVertex
 10
1.512498988091573
 20
4.54245961437912
 30
0.0
  0
VERTEX
  5
3542
330
2F3D
100
AcDbEntity
  8
0
100
AcDbVertex
100
AcDb2dVertex
 10
1.52303284635929
 20
4.534559220678333
 30
0.0
  0
SEQEND
  5
3543
330
2F3D
100
AcDbEntity
  8
0
  0
POLYLINE
  5
2F42
330
1E
100
AcDbEntity
  8
0
100
AcDb2dPolyline
 66
     1
 10
0.0
 20
0.0
 30
0.0
  0
VERTEX
  5
3544
330
2F42
100
AcDbEntity
  8
0
100
AcDbVertex
100
AcDb2dVertex
 10
1.52303284635929
 20
4.534559220678333
 30
0.0
  0
VERTEX
  5
3545
330
2F42
100
AcDbEntity
  8
0
100
AcDbVertex
100
AcDb2dVertex
 10
1.533566704627006
 20
4.52797555926101
 30
0.0
  0
VERTEX
  5
3546
330
2F42
100
AcDbEntity
  8
0
100
AcDbVertex
100
AcDb2dVertex
 10
1.545417295178187
 20
4.525342094694082
 30
0.0
  0
SEQEND
  5
3547
330
2F42
100
AcDbEntity
  8
0
  0
LINE
  5
2F47
330
1E
100
AcDbEntity
  8
0
100
AcDbLine
 10
1.545417295178187
 20
4.525342094694082
 30
0.0
 11
1.823247806989211
 21
4.525342094694082
 31
0.0
  0
POLYLINE
  5
2F48
330
1E
100
AcDbEntity
  8
0
100
AcDb2dPolyline
 66
     1
 10
0.0
 20
0.0
 30
0.0
  0
VERTEX
  5
3548
330
2F48
100
AcDbEntity
  8
0
100
AcDbVertex
100
AcDb2dVertex
 10
1.823247806989211
 20
4.525342094694082
 30
0.0
  0
VERTEX
  5
3549
330
2F48
100
AcDbEntity
  8
0
100
AcDbVertex
100
AcDb2dVertex
 10
1.844315523524644
 20
4.533242488394868
 30
0.0
  0
VERTEX
  5
354A
330
2F48
100
AcDbEntity
  8
0
100
AcDbVertex
100
AcDb2dVertex
 10
1.852215917225431
 20
4.555626937213766
 30
0.0
  0
SEQEND
  5
354B
330
2F48
100
AcDbEntity
  8
0
  0
LINE
  5
2F4D
330
1E
100
AcDbEntity
  8
0
100
AcDbLine
 10
1.852215917225431
 20
4.588545244300381
 30
0.0
 11
1.852215917225431
 21
4.555626937213766
 31
0.0
  0
POLYLINE
  5
2F4E
330
1E
100
AcDbEntity
  8
0
100
AcDb2dPolyline
 66
     1
 10
0.0
 20
0.0
 30
0.0
  0
VERTEX
  5
354C
330
2F4E
100
AcDbEntity
  8
0
100
AcDbVertex
100
AcDb2dVertex
 10
1.852215917225431
 20
4.588545244300381
 30
0.0
  0
VERTEX
  5
354D
330
2F4E
100
AcDbEntity
  8
0
100
AcDbVertex
100
AcDb2dVertex
 10
1.858799578642754
 20
4.60566276398542
 30
0.0
  0
VERTEX
  5
354E
330
2F4E
100
AcDbEntity
  8
0
100
AcDbVertex
100
AcDb2dVertex
 10
1.873283633760864
 20
4.616196622253136
 30
0.0
  0
VERTEX
  5
354F
330
2F4E
100
AcDbEntity
  8
0
100
AcDbVertex
100
AcDb2dVertex
 10
1.891717885729368
 20
4.616196622253136
 30
0.0
  0
VERTEX
  5
3550
330
2F4E
100
AcDbEntity
  8
0
100
AcDbVertex
100
AcDb2dVertex
 10
1.907518673130943
 20
4.60566276398542
 30
0.0
  0
VERTEX
  5
3551
330
2F4E
100
AcDbEntity
  8
0
100
AcDbVertex
100
AcDb2dVertex
 10
1.912785602264801
 20
4.588545244300381
 30
0.0
  0
SEQEND
  5
3552
330
2F4E
100
AcDbEntity
  8
0
  0
LINE
  5
2F56
330
1E
100
AcDbEntity
  8
0
100
AcDbLine
 10
2.159014539272675
 20
4.588545244300381
 30
0.0
 11
1.912785602264801
 21
4.588545244300381
 31
0.0
  0
POLYLINE
  5
2F57
330
1E
100
AcDbEntity
  8
0
100
AcDb2dPolyline
 66
     1
 10
0.0
 20
0.0
 30
0.0
  0
VERTEX
  5
3553
330
2F57
100
AcDbEntity
  8
0
100
AcDbVertex
100
AcDb2dVertex
 10
2.159014539272675
 20
4.588545244300381
 30
0.0
  0
VERTEX
  5
3554
330
2F57
100
AcDbEntity
  8
0
100
AcDbVertex
100
AcDb2dVertex
 10
2.164281468406533
 20
4.60566276398542
 30
0.0
  0
VERTEX
  5
3555
330
2F57
100
AcDbEntity
  8
0
100
AcDbVertex
100
AcDb2dVertex
 10
2.180082255808108
 20
4.616196622253136
 30
0.0
  0
VERTEX
  5
3556
330
2F57
100
AcDbEntity
  8
0
100
AcDbVertex
100
AcDb2dVertex
 10
2.198516507776612
 20
4.616196622253136
 30
0.0
  0
VERTEX
  5
3557
330
2F57
100
AcDbEntity
  8
0
100
AcDbVertex
100
AcDb2dVertex
 10
2.213000562894722
 20
4.60566276398542
 30
0.0
  0
VERTEX
  5
3558
330
2F57
100
AcDbEntity
  8
0
100
AcDbVertex
100
AcDb2dVertex
 10
2.219584224312045
 20
4.588545244300381
 30
0.0
  0
SEQEND
  5
3559
330
2F57
100
AcDbEntity
  8
0
  0
LINE
  5
2F5F
330
1E
100
AcDbEntity
  8
0
100
AcDbLine
 10
2.219584224312045
 20
4.555626937213766
 30
0.0
 11
2.219584224312045
 21
4.588545244300381
 31
0.0
  0
POLYLINE
  5
2F60
330
1E
100
AcDbEntity
  8
0
100
AcDb2dPolyline
 66
     1
 10
0.0
 20
0.0
 30
0.0
  0
VERTEX
  5
355A
330
2F60
100
AcDbEntity
  8
0
100
AcDbVertex
100
AcDb2dVertex
 10
2.219584224312045
 20
4.555626937213766
 30
0.0
  0
VERTEX
  5
355B
330
2F60
100
AcDbEntity
  8
0
100
AcDbVertex
100
AcDb2dVertex
 10
2.227484618012832
 20
4.533242488394868
 30
0.0
  0
VERTEX
  5
355C
330
2F60
100
AcDbEntity
  8
0
100
AcDbVertex
100
AcDb2dVertex
 10
2.248552334548265
 20
4.525342094694082
 30
0.0
  0
SEQEND
  5
355D
330
2F60
100
AcDbEntity
  8
0
  0
LINE
  5
2F65
330
1E
100
AcDbEntity
  8
0
100
AcDbLine
 10
2.248552334548266
 20
4.525342094694082
 30
0.0
 11
2.40261001171362
 21
4.525342094694082
 31
0.0
  0
POLYLINE
  5
2F66
330
1E
100
AcDbEntity
  8
0
100
AcDb2dPolyline
 66
     1
 10
0.0
 20
0.0
 30
0.0
  0
VERTEX
  5
355E
330
2F66
100
AcDbEntity
  8
0
100
AcDbVertex
100
AcDb2dVertex
 10
2.40261001171362
 20
4.525342094694082
 30
0.0
  0
VERTEX
  5
355F
330
2F66
100
AcDbEntity
  8
0
100
AcDbVertex
100
AcDb2dVertex
 10
2.423677728249053
 20
4.51612496870983
 30
0.0
  0
VERTEX
  5
3560
330
2F66
100
AcDbEntity
  8
0
100
AcDbVertex
100
AcDb2dVertex
 10
2.432894854233305
 20
4.495057252174397
 30
0.0
  0
SEQEND
  5
3561
330
2F66
100
AcDbEntity
  8
0
  0
LINE
  5
2F6B
330
1E
100
AcDbEntity
  8
0
100
AcDbLine
 10
2.432894854233305
 20
4.040784614379121
 30
0.0
 11
2.432894854233305
 21
4.495057252174397
 31
0.0
  0
POLYLINE
  5
2F6C
330
1E
100
AcDbEntity
  8
0
100
AcDb2dPolyline
 66
     1
 10
0.0
 20
0.0
 30
0.0
  0
VERTEX
  5
3562
330
2F6C
100
AcDbEntity
  8
0
100
AcDbVertex
100
AcDb2dVertex
 10
2.432894854233305
 20
4.040784614379121
 30
0.0
  0
VERTEX
  5
3563
330
2F6C
100
AcDbEntity
  8
0
100
AcDbVertex
100
AcDb2dVertex
 10
2.423677728249053
 20
4.019716897843688
 30
0.0
  0
VERTEX
  5
3564
330
2F6C
100
AcDbEntity
  8
0
100
AcDbVertex
100
AcDb2dVertex
 10
2.40261001171362
 20
4.0118165041429
 30
0.0
  0
SEQEND
  5
3565
330
2F6C
100
AcDbEntity
  8
0
  0
LINE
  5
2F71
330
1E
100
AcDbEntity
  8
0
100
AcDbLine
 10
0.3945932794301559
 20
4.0118165041429
 30
0.0
 11
2.40261001171362
 21
4.0118165041429
 31
0.0
  0
POLYLINE
  5
2F72
330
1E
100
AcDbEntity
  8
0
100
AcDb2dPolyline
 66
     1
 10
0.0
 20
0.0
 30
0.0
  0
VERTEX
  5
3566
330
2F72
100
AcDbEntity
  8
0
100
AcDbVertex
100
AcDb2dVertex
 10
0.3945932794301561
 20
4.0118165041429
 30
0.0
  0
VERTEX
  5
3567
330
2F72
100
AcDbEntity
  8
0
100
AcDbVertex
100
AcDb2dVertex
 10
0.3735255628947229
 20
4.019716897843688
 30
0.0
  0
VERTEX
  5
3568
330
2F72
100
AcDbEntity
  8
0
100
AcDbVertex
100
AcDb2dVertex
 10
0.364308436910471
 20
4.040784614379121
 30
0.0
  0
SEQEND
  5
3569
330
2F72
100
AcDbEntity
  8
0
  0
LINE
  5
2F77
330
1E
100
AcDbEntity
  8
0
100
AcDbLine
 10
0.3643084369104708
 20
4.040784614379121
 30
0.0
 11
0.3643084369104708
 21
4.495057252174397
 31
0.0
  0
POLYLINE
  5
2F78
330
1E
100
AcDbEntity
  8
0
100
AcDb2dPolyline
 66
     1
 10
0.0
 20
0.0
 30
0.0
  0
VERTEX
  5
356A
330
2F78
100
AcDbEntity
  8
0
100
AcDbVertex
100
AcDb2dVertex
 10
0.364308436910471
 20
4.495057252174397
 30
0.0
  0
VERTEX
  5
356B
330
2F78
100
AcDbEntity
  8
0
100
AcDbVertex
100
AcDb2dVertex
 10
0.3735255628947229
 20
4.51612496870983
 30
0.0
  0
VERTEX
  5
356C
330
2F78
100
AcDbEntity
  8
0
100
AcDbVertex
100
AcDb2dVertex
 10
0.3945932794301561
 20
4.525342094694082
 30
0.0
  0
SEQEND
  5
356D
330
2F78
100
AcDbEntity
  8
0
  0
LINE
  5
2F7D
330
1E
100
AcDbEntity
  8
0
100
AcDbLine
 10
0.3945932794301559
 20
4.525342094694082
 30
0.0
 11
0.5486509565955107
 21
4.525342094694082
 31
0.0
  0
POLYLINE
  5
2F7E
330
1E
100
AcDbEntity
  8
0
100
AcDb2dPolyline
 66
     1
 10
0.0
 20
0.0
 30
0.0
  0
VERTEX
  5
356E
330
2F7E
100
AcDbEntity
  8
0
100
AcDbVertex
100
AcDb2dVertex
 10
0.5486509565955105
 20
4.525342094694082
 30
0.0
  0
VERTEX
  5
356F
330
2F7E
100
AcDbEntity
  8
0
100
AcDbVertex
100
AcDb2dVertex
 10
0.5697186731309431
 20
4.533242488394868
 30
0.0
  0
VERTEX
  5
3570
330
2F7E
100
AcDbEntity
  8
0
100
AcDbVertex
100
AcDb2dVertex
 10
0.5789357991151951
 20
4.555626937213766
 30
0.0
  0
SEQEND
  5
3571
330
2F7E
100
AcDbEntity
  8
0
  0
LINE
  5
2F83
330
1E
100
AcDbEntity
  8
0
100
AcDbLine
 10
0.5789357991151949
 20
4.588545244300381
 30
0.0
 11
0.5789357991151949
 21
4.555626937213766
 31
0.0
  0
POLYLINE
  5
2F84
330
1E
100
AcDbEntity
  8
0
100
AcDb2dPolyline
 66
     1
 10
0.0
 20
0.0
 30
0.0
  0
VERTEX
  5
3572
330
2F84
100
AcDbEntity
  8
0
100
AcDbVertex
100
AcDb2dVertex
 10
0.5789357991151951
 20
4.588545244300381
 30
0.0
  0
VERTEX
  5
3573
330
2F84
100
AcDbEntity
  8
0
100
AcDbVertex
100
AcDb2dVertex
 10
0.5842027282490536
 20
4.60566276398542
 30
0.0
  0
VERTEX
  5
3574
330
2F84
100
AcDbEntity
  8
0
100
AcDbVertex
100
AcDb2dVertex
 10
0.5986867833671637
 20
4.616196622253136
 30
0.0
  0
VERTEX
  5
3575
330
2F84
100
AcDbEntity
  8
0
100
AcDbVertex
100
AcDb2dVertex
 10
0.6184377676191322
 20
4.616196622253136
 30
0.0
  0
VERTEX
  5
3576
330
2F84
100
AcDbEntity
  8
0
100
AcDbVertex
100
AcDb2dVertex
 10
0.6329218227372426
 20
4.60566276398542
 30
0.0
  0
VERTEX
  5
3577
330
2F84
100
AcDbEntity
  8
0
100
AcDbVertex
100
AcDb2dVertex
 10
0.6381887518711008
 20
4.588545244300381
 30
0.0
  0
SEQEND
  5
3578
330
2F84
100
AcDbEntity
  8
0
  0
LINE
  5
2F8C
330
1E
100
AcDbEntity
  8
0
100
AcDbLine
 10
0.638188751871101
 20
4.588545244300381
 30
0.0
 11
0.8844176888789752
 21
4.588545244300381
 31
0.0
  0
POLYLINE
  5
2F8D
330
1E
100
AcDbEntity
  8
0
100
AcDb2dPolyline
 66
     1
 10
0.0
 20
0.0
 30
0.0
  0
VERTEX
  5
3579
330
2F8D
100
AcDbEntity
  8
0
100
AcDbVertex
100
AcDb2dVertex
 10
0.884417688878975
 20
4.588545244300381
 30
0.0
  0
VERTEX
  5
357A
330
2F8D
100
AcDbEntity
  8
0
100
AcDbVertex
100
AcDb2dVertex
 10
0.889684618012833
 20
4.60566276398542
 30
0.0
  0
VERTEX
  5
357B
330
2F8D
100
AcDbEntity
  8
0
100
AcDbVertex
100
AcDb2dVertex
 10
0.9054854054144076
 20
4.616196622253136
 30
0.0
  0
VERTEX
  5
357C
330
2F8D
100
AcDbEntity
  8
0
100
AcDbVertex
100
AcDb2dVertex
 10
0.923919657382912
 20
4.616196622253136
 30
0.0
  0
VERTEX
  5
357D
330
2F8D
100
AcDbEntity
  8
0
100
AcDbVertex
100
AcDb2dVertex
 10
0.938403712501022
 20
4.60566276398542
 30
0.0
  0
VERTEX
  5
357E
330
2F8D
100
AcDbEntity
  8
0
100
AcDbVertex
100
AcDb2dVertex
 10
0.9449873739183452
 20
4.588545244300381
 30
0.0
  0
SEQEND
  5
357F
330
2F8D
100
AcDbEntity
  8
0
  0
LINE
  5
2F95
330
1E
100
AcDbEntity
  8
0
100
AcDbLine
 10
0.9449873739183454
 20
4.555626937213766
 30
0.0
 11
0.9449873739183454
 21
4.588545244300381
 31
0.0
  0
POLYLINE
  5
2F96
330
1E
100
AcDbEntity
  8
0
100
AcDb2dPolyline
 66
     1
 10
0.0
 20
0.0
 30
0.0
  0
VERTEX
  5
3580
330
2F96
100
AcDbEntity
  8
0
100
AcDbVertex
100
AcDb2dVertex
 10
0.9449873739183452
 20
4.555626937213766
 30
0.0
  0
VERTEX
  5
3581
330
2F96
100
AcDbEntity
  8
0
100
AcDbVertex
100
AcDb2dVertex
 10
0.9528877676191324
 20
4.533242488394868
 30
0.0
  0
VERTEX
  5
3582
330
2F96
100
AcDbEntity
  8
0
100
AcDbVertex
100
AcDb2dVertex
 10
0.9752722164380298
 20
4.525342094694082
 30
0.0
  0
SEQEND
  5
3583
330
2F96
100
AcDbEntity
  8
0
  0
LINE
  5
2F9B
330
1E
100
AcDbEntity
  8
0
100
AcDbLine
 10
2.592219460532518
 20
3.841958039575971
 30
0.0
 11
2.592219460532518
 21
7.985714535638964
 31
0.0
  0
LINE
  5
2F9C
330
1E
100
AcDbEntity
  8
0
100
AcDbLine
 10
2.592219460532518
 20
7.985714535638964
 30
0.0
 11
0.2049838306112583
 21
7.985714535638964
 31
0.0
  0
LINE
  5
2F9D
330
1E
100
AcDbEntity
  8
0
100
AcDbLine
 10
0.2049838306112583
 20
3.841958039575971
 30
0.0
 11
0.2049838306112583
 21
7.985714535638964
 31
0.0
  0
LINE
  5
2F9E
330
1E
100
AcDbEntity
  8
0
100
AcDbLine
 10
2.592219460532518
 20
3.841958039575971
 30
0.0
 11
0.2049838306112583
 21
3.841958039575971
 31
0.0
  0
LINE
  5
2F9F
330
1E
100
AcDbEntity
  8
0
100
AcDbLine
 10
1.656022806989211
 20
5.038867685245262
 30
0.0
 11
1.700791704627006
 21
5.038867685245262
 31
0.0
  0
POLYLINE
  5
2FA0
330
1E
100
AcDbEntity
  8
0
100
AcDb2dPolyline
 66
     1
 10
0.0
 20
0.0
 30
0.0
  0
VERTEX
  5
3584
330
2FA0
100
AcDbEntity
  8
0
100
AcDbVertex
100
AcDb2dVertex
 10
1.656022806989211
 20
5.038867685245262
 30
0.0
  0
VERTEX
  5
3585
330
2FA0
100
AcDbEntity
  8
0
100
AcDbVertex
100
AcDb2dVertex
 10
1.648122413288423
 20
5.034917488394869
 30
0.0
  0
VERTEX
  5
3586
330
2FA0
100
AcDbEntity
  8
0
100
AcDbVertex
100
AcDb2dVertex
 10
1.64417221643803
 20
5.027017094694082
 30
0.0
  0
SEQEND
  5
3587
330
2FA0
100
AcDbEntity
  8
0
  0
LINE
  5
2FA5
330
1E
100
AcDbEntity
  8
0
100
AcDbLine
 10
1.644172216438029
 20
4.98619839390668
 30
0.0
 11
1.644172216438029
 21
5.027017094694082
 31
0.0
  0
POLYLINE
  5
2FA6
330
1E
100
AcDbEntity
  8
0
100
AcDb2dPolyline
 66
     1
 10
0.0
 20
0.0
 30
0.0
  0
VERTEX
  5
3588
330
2FA6
100
AcDbEntity
  8
0
100
AcDbVertex
100
AcDb2dVertex
 10
1.64417221643803
 20
4.98619839390668
 30
0.0
  0
VERTEX
  5
3589
330
2FA6
100
AcDbEntity
  8
0
100
AcDbVertex
100
AcDb2dVertex
 10
1.6415387518711
 20
4.976981267922428
 30
0.0
  0
VERTEX
  5
358A
330
2FA6
100
AcDbEntity
  8
0
100
AcDbVertex
100
AcDb2dVertex
 10
1.632321625886848
 20
4.973031071072034
 30
0.0
  0
SEQEND
  5
358B
330
2FA6
100
AcDbEntity
  8
0
  0
LINE
  5
2FAB
330
1E
100
AcDbEntity
  8
0
100
AcDbLine
 10
1.164881665256928
 20
4.973031071072034
 30
0.0
 11
1.632321625886849
 21
4.973031071072034
 31
0.0
  0
POLYLINE
  5
2FAC
330
1E
100
AcDbEntity
  8
0
100
AcDb2dPolyline
 66
     1
 10
0.0
 20
0.0
 30
0.0
  0
VERTEX
  5
358C
330
2FAC
100
AcDbEntity
  8
0
100
AcDbVertex
100
AcDb2dVertex
 10
1.164881665256927
 20
4.973031071072034
 30
0.0
  0
VERTEX
  5
358D
330
2FAC
100
AcDbEntity
  8
0
100
AcDbVertex
100
AcDb2dVertex
 10
1.15698127155614
 20
4.976981267922428
 30
0.0
  0
VERTEX
  5
358E
330
2FAC
100
AcDbEntity
  8
0
100
AcDbVertex
100
AcDb2dVertex
 10
1.153031074705746
 20
4.98619839390668
 30
0.0
  0
SEQEND
  5
358F
330
2FAC
100
AcDbEntity
  8
0
  0
LINE
  5
2FB1
330
1E
100
AcDbEntity
  8
0
100
AcDbLine
 10
1.153031074705746
 20
5.027017094694082
 30
0.0
 11
1.153031074705746
 21
4.98619839390668
 31
0.0
  0
POLYLINE
  5
2FB2
330
1E
100
AcDbEntity
  8
0
100
AcDb2dPolyline
 66
     1
 10
0.0
 20
0.0
 30
0.0
  0
VERTEX
  5
3590
330
2FB2
100
AcDbEntity
  8
0
100
AcDbVertex
100
AcDb2dVertex
 10
1.153031074705746
 20
5.027017094694082
 30
0.0
  0
VERTEX
  5
3591
330
2FB2
100
AcDbEntity
  8
0
100
AcDbVertex
100
AcDb2dVertex
 10
1.149080877855353
 20
5.034917488394869
 30
0.0
  0
VERTEX
  5
3592
330
2FB2
100
AcDbEntity
  8
0
100
AcDbVertex
100
AcDb2dVertex
 10
1.141180484154565
 20
5.038867685245262
 30
0.0
  0
SEQEND
  5
3593
330
2FB2
100
AcDbEntity
  8
0
  0
LINE
  5
2FB7
330
1E
100
AcDbEntity
  8
0
100
AcDbLine
 10
1.097728318800234
 20
5.038867685245262
 30
0.0
 11
1.141180484154565
 21
5.038867685245262
 31
0.0
  0
POLYLINE
  5
2FB8
330
1E
100
AcDbEntity
  8
0
100
AcDb2dPolyline
 66
     1
 10
0.0
 20
0.0
 30
0.0
  0
VERTEX
  5
3594
330
2FB8
100
AcDbEntity
  8
0
100
AcDbVertex
100
AcDb2dVertex
 10
1.097728318800234
 20
5.038867685245262
 30
0.0
  0
VERTEX
  5
3595
330
2FB8
100
AcDbEntity
  8
0
100
AcDbVertex
100
AcDb2dVertex
 10
1.088511192815982
 20
5.042817882095657
 30
0.0
  0
VERTEX
  5
3596
330
2FB8
100
AcDbEntity
  8
0
100
AcDbVertex
100
AcDb2dVertex
 10
1.084560995965589
 20
5.050718275796444
 30
0.0
  0
SEQEND
  5
3597
330
2FB8
100
AcDbEntity
  8
0
  0
LINE
  5
2FBD
330
1E
100
AcDbEntity
  8
0
100
AcDbLine
 10
1.084560995965588
 20
5.689333433276758
 30
0.0
 11
1.084560995965588
 21
5.050718275796444
 31
0.0
  0
POLYLINE
  5
2FBE
330
1E
100
AcDbEntity
  8
0
100
AcDb2dPolyline
 66
     1
 10
0.0
 20
0.0
 30
0.0
  0
VERTEX
  5
3598
330
2FBE
100
AcDbEntity
  8
0
100
AcDbVertex
100
AcDb2dVertex
 10
1.084560995965589
 20
5.689333433276758
 30
0.0
  0
VERTEX
  5
3599
330
2FBE
100
AcDbEntity
  8
0
100
AcDbVertex
100
AcDb2dVertex
 10
1.088511192815982
 20
5.697233826977546
 30
0.0
  0
VERTEX
  5
359A
330
2FBE
100
AcDbEntity
  8
0
100
AcDbVertex
100
AcDb2dVertex
 10
1.097728318800234
 20
5.70118402382794
 30
0.0
  0
SEQEND
  5
359B
330
2FBE
100
AcDbEntity
  8
0
  0
LINE
  5
2FC3
330
1E
100
AcDbEntity
  8
0
100
AcDbLine
 10
1.700791704627006
 20
5.70118402382794
 30
0.0
 11
1.097728318800234
 21
5.70118402382794
 31
0.0
  0
POLYLINE
  5
2FC4
330
1E
100
AcDbEntity
  8
0
100
AcDb2dPolyline
 66
     1
 10
0.0
 20
0.0
 30
0.0
  0
VERTEX
  5
359C
330
2FC4
100
AcDbEntity
  8
0
100
AcDbVertex
100
AcDb2dVertex
 10
1.700791704627006
 20
5.70118402382794
 30
0.0
  0
VERTEX
  5
359D
330
2FC4
100
AcDbEntity
  8
0
100
AcDbVertex
100
AcDb2dVertex
 10
1.708692098327793
 20
5.697233826977546
 30
0.0
  0
VERTEX
  5
359E
330
2FC4
100
AcDbEntity
  8
0
100
AcDbVertex
100
AcDb2dVertex
 10
1.712642295178187
 20
5.689333433276758
 30
0.0
  0
SEQEND
  5
359F
330
2FC4
100
AcDbEntity
  8
0
  0
LINE
  5
2FC9
330
1E
100
AcDbEntity
  8
0
100
AcDbLine
 10
1.712642295178187
 20
5.050718275796444
 30
0.0
 11
1.712642295178187
 21
5.689333433276758
 31
0.0
  0
POLYLINE
  5
2FCA
330
1E
100
AcDbEntity
  8
0
100
AcDb2dPolyline
 66
     1
 10
0.0
 20
0.0
 30
0.0
  0
VERTEX
  5
35A0
330
2FCA
100
AcDbEntity
  8
0
100
AcDbVertex
100
AcDb2dVertex
 10
1.712642295178187
 20
5.050718275796444
 30
0.0
  0
VERTEX
  5
35A1
330
2FCA
100
AcDbEntity
  8
0
100
AcDbVertex
100
AcDb2dVertex
 10
1.708692098327793
 20
5.042817882095657
 30
0.0
  0
VERTEX
  5
35A2
330
2FCA
100
AcDbEntity
  8
0
100
AcDbVertex
100
AcDb2dVertex
 10
1.700791704627006
 20
5.038867685245262
 30
0.0
  0
SEQEND
  5
35A3
330
2FCA
100
AcDbEntity
  8
0
  0
LINE
  5
2FCF
330
1E
100
AcDbEntity
  8
0
100
AcDbLine
 10
1.153031074705746
 20
6.180474575009042
 30
0.0
 11
1.153031074705746
 21
6.13965587422164
 31
0.0
  0
POLYLINE
  5
2FD0
330
1E
100
AcDbEntity
  8
0
100
AcDb2dPolyline
 66
     1
 10
0.0
 20
0.0
 30
0.0
  0
VERTEX
  5
35A4
330
2FD0
100
AcDbEntity
  8
0
100
AcDbVertex
100
AcDb2dVertex
 10
1.153031074705746
 20
6.180474575009042
 30
0.0
  0
VERTEX
  5
35A5
330
2FD0
100
AcDbEntity
  8
0
100
AcDbVertex
100
AcDb2dVertex
 10
1.149080877855353
 20
6.189691700993294
 30
0.0
  0
VERTEX
  5
35A6
330
2FD0
100
AcDbEntity
  8
0
100
AcDbVertex
100
AcDb2dVertex
 10
1.141180484154565
 20
6.192325165560224
 30
0.0
  0
SEQEND
  5
35A7
330
2FD0
100
AcDbEntity
  8
0
  0
LINE
  5
2FD5
330
1E
100
AcDbEntity
  8
0
100
AcDbLine
 10
1.097728318800234
 20
6.192325165560224
 30
0.0
 11
1.141180484154565
 21
6.192325165560224
 31
0.0
  0
POLYLINE
  5
2FD6
330
1E
100
AcDbEntity
  8
0
100
AcDb2dPolyline
 66
     1
 10
0.0
 20
0.0
 30
0.0
  0
VERTEX
  5
35A8
330
2FD6
100
AcDbEntity
  8
0
100
AcDbVertex
100
AcDb2dVertex
 10
1.097728318800234
 20
6.192325165560224
 30
0.0
  0
VERTEX
  5
35A9
330
2FD6
100
AcDbEntity
  8
0
100
AcDbVertex
100
AcDb2dVertex
 10
1.088511192815982
 20
6.196275362410617
 30
0.0
  0
VERTEX
  5
35AA
330
2FD6
100
AcDbEntity
  8
0
100
AcDbVertex
100
AcDb2dVertex
 10
1.084560995965589
 20
6.204175756111404
 30
0.0
  0
SEQEND
  5
35AB
330
2FD6
100
AcDbEntity
  8
0
  0
LINE
  5
2FDB
330
1E
100
AcDbEntity
  8
0
100
AcDbLine
 10
1.084560995965588
 20
6.842790913591719
 30
0.0
 11
1.084560995965588
 21
6.204175756111404
 31
0.0
  0
POLYLINE
  5
2FDC
330
1E
100
AcDbEntity
  8
0
100
AcDb2dPolyline
 66
     1
 10
0.0
 20
0.0
 30
0.0
  0
VERTEX
  5
35AC
330
2FDC
100
AcDbEntity
  8
0
100
AcDbVertex
100
AcDb2dVertex
 10
1.084560995965589
 20
6.84279091359172
 30
0.0
  0
VERTEX
  5
35AD
330
2FDC
100
AcDbEntity
  8
0
100
AcDbVertex
100
AcDb2dVertex
 10
1.088511192815982
 20
6.850691307292507
 30
0.0
  0
VERTEX
  5
35AE
330
2FDC
100
AcDbEntity
  8
0
100
AcDbVertex
100
AcDb2dVertex
 10
1.097728318800234
 20
6.8546415041429
 30
0.0
  0
SEQEND
  5
35AF
330
2FDC
100
AcDbEntity
  8
0
  0
LINE
  5
2FE1
330
1E
100
AcDbEntity
  8
0
100
AcDbLine
 10
1.700791704627006
 20
6.8546415041429
 30
0.0
 11
1.097728318800234
 21
6.8546415041429
 31
0.0
  0
POLYLINE
  5
2FE2
330
1E
100
AcDbEntity
  8
0
100
AcDb2dPolyline
 66
     1
 10
0.0
 20
0.0
 30
0.0
  0
VERTEX
  5
35B0
330
2FE2
100
AcDbEntity
  8
0
100
AcDbVertex
100
AcDb2dVertex
 10
1.700791704627006
 20
6.8546415041429
 30
0.0
  0
VERTEX
  5
35B1
330
2FE2
100
AcDbEntity
  8
0
100
AcDbVertex
100
AcDb2dVertex
 10
1.708692098327793
 20
6.850691307292507
 30
0.0
  0
VERTEX
  5
35B2
330
2FE2
100
AcDbEntity
  8
0
100
AcDbVertex
100
AcDb2dVertex
 10
1.712642295178187
 20
6.84279091359172
 30
0.0
  0
SEQEND
  5
35B3
330
2FE2
100
AcDbEntity
  8
0
  0
LINE
  5
2FE7
330
1E
100
AcDbEntity
  8
0
100
AcDbLine
 10
1.712642295178187
 20
6.204175756111404
 30
0.0
 11
1.712642295178187
 21
6.842790913591719
 31
0.0
  0
POLYLINE
  5
2FE8
330
1E
100
AcDbEntity
  8
0
100
AcDb2dPolyline
 66
     1
 10
0.0
 20
0.0
 30
0.0
  0
VERTEX
  5
35B4
330
2FE8
100
AcDbEntity
  8
0
100
AcDbVertex
100
AcDb2dVertex
 10
1.712642295178187
 20
6.204175756111404
 30
0.0
  0
VERTEX
  5
35B5
330
2FE8
100
AcDbEntity
  8
0
100
AcDbVertex
100
AcDb2dVertex
 10
1.708692098327793
 20
6.196275362410617
 30
0.0
  0
VERTEX
  5
35B6
330
2FE8
100
AcDbEntity
  8
0
100
AcDbVertex
100
AcDb2dVertex
 10
1.700791704627006
 20
6.192325165560224
 30
0.0
  0
SEQEND
  5
35B7
330
2FE8
100
AcDbEntity
  8
0
  0
LINE
  5
2FED
330
1E
100
AcDbEntity
  8
0
100
AcDbLine
 10
1.656022806989211
 20
6.192325165560224
 30
0.0
 11
1.700791704627006
 21
6.192325165560224
 31
0.0
  0
POLYLINE
  5
2FEE
330
1E
100
AcDbEntity
  8
0
100
AcDb2dPolyline
 66
     1
 10
0.0
 20
0.0
 30
0.0
  0
VERTEX
  5
35B8
330
2FEE
100
AcDbEntity
  8
0
100
AcDbVertex
100
AcDb2dVertex
 10
1.656022806989211
 20
6.192325165560224
 30
0.0
  0
VERTEX
  5
35B9
330
2FEE
100
AcDbEntity
  8
0
100
AcDbVertex
100
AcDb2dVertex
 10
1.648122413288423
 20
6.189691700993294
 30
0.0
  0
VERTEX
  5
35BA
330
2FEE
100
AcDbEntity
  8
0
100
AcDbVertex
100
AcDb2dVertex
 10
1.64417221643803
 20
6.180474575009042
 30
0.0
  0
SEQEND
  5
35BB
330
2FEE
100
AcDbEntity
  8
0
  0
LINE
  5
2FF3
330
1E
100
AcDbEntity
  8
0
100
AcDbLine
 10
1.644172216438029
 20
6.13965587422164
 30
0.0
 11
1.644172216438029
 21
6.180474575009042
 31
0.0
  0
POLYLINE
  5
2FF4
330
1E
100
AcDbEntity
  8
0
100
AcDb2dPolyline
 66
     1
 10
0.0
 20
0.0
 30
0.0
  0
VERTEX
  5
35BC
330
2FF4
100
AcDbEntity
  8
0
100
AcDbVertex
100
AcDb2dVertex
 10
1.64417221643803
 20
6.13965587422164
 30
0.0
  0
VERTEX
  5
35BD
330
2FF4
100
AcDbEntity
  8
0
100
AcDbVertex
100
AcDb2dVertex
 10
1.6415387518711
 20
6.130438748237389
 30
0.0
  0
VERTEX
  5
35BE
330
2FF4
100
AcDbEntity
  8
0
100
AcDbVertex
100
AcDb2dVertex
 10
1.632321625886848
 20
6.127805283670459
 30
0.0
  0
SEQEND
  5
35BF
330
2FF4
100
AcDbEntity
  8
0
  0
LINE
  5
2FF9
330
1E
100
AcDbEntity
  8
0
100
AcDbLine
 10
1.164881665256928
 20
6.127805283670459
 30
0.0
 11
1.632321625886849
 21
6.127805283670459
 31
0.0
  0
POLYLINE
  5
2FFA
330
1E
100
AcDbEntity
  8
0
100
AcDb2dPolyline
 66
     1
 10
0.0
 20
0.0
 30
0.0
  0
VERTEX
  5
35C0
330
2FFA
100
AcDbEntity
  8
0
100
AcDbVertex
100
AcDb2dVertex
 10
1.164881665256927
 20
6.127805283670459
 30
0.0
  0
VERTEX
  5
35C1
330
2FFA
100
AcDbEntity
  8
0
100
AcDbVertex
100
AcDb2dVertex
 10
1.15698127155614
 20
6.130438748237389
 30
0.0
  0
VERTEX
  5
35C2
330
2FFA
100
AcDbEntity
  8
0
100
AcDbVertex
100
AcDb2dVertex
 10
1.153031074705746
 20
6.13965587422164
 30
0.0
  0
SEQEND
  5
35C3
330
2FFA
100
AcDbEntity
  8
0
  0
POLYLINE
  5
2FFF
330
1E
100
AcDbEntity
  8
0
100
AcDb2dPolyline
 66
     1
 10
0.0
 20
0.0
 30
0.0
  0
VERTEX
  5
35C4
330
2FFF
100
AcDbEntity
  8
0
100
AcDbVertex
100
AcDb2dVertex
 10
1.296554893603384
 20
7.282579496268885
 30
0.0
  0
VERTEX
  5
35C5
330
2FFF
100
AcDbEntity
  8
0
100
AcDbVertex
100
AcDb2dVertex
 10
1.284704303052203
 20
7.285212960835814
 30
0.0
  0
VERTEX
  5
35C6
330
2FFF
100
AcDbEntity
  8
0
100
AcDbVertex
100
AcDb2dVertex
 10
1.274170444784487
 20
7.2931133545366
 30
0.0
  0
SEQEND
  5
35C7
330
2FFF
100
AcDbEntity
  8
0
  0
POLYLINE
  5
3004
330
1E
100
AcDbEntity
  8
0
100
AcDb2dPolyline
 66
     1
 10
0.0
 20
0.0
 30
0.0
  0
VERTEX
  5
35C8
330
3004
100
AcDbEntity
  8
0
100
AcDbVertex
100
AcDb2dVertex
 10
1.274170444784487
 20
7.2931133545366
 30
0.0
  0
VERTEX
  5
35C9
330
3004
100
AcDbEntity
  8
0
100
AcDbVertex
100
AcDb2dVertex
 10
1.26363658651677
 20
7.301013748237389
 30
0.0
  0
VERTEX
  5
35CA
330
3004
100
AcDbEntity
  8
0
100
AcDbVertex
100
AcDb2dVertex
 10
1.251785995965589
 20
7.303647212804317
 30
0.0
  0
SEQEND
  5
35CB
330
3004
100
AcDbEntity
  8
0
  0
LINE
  5
3009
330
1E
100
AcDbEntity
  8
0
100
AcDbLine
 10
1.055592885729368
 20
7.303647212804317
 30
0.0
 11
1.251785995965589
 21
7.303647212804317
 31
0.0
  0
POLYLINE
  5
300A
330
1E
100
AcDbEntity
  8
0
100
AcDb2dPolyline
 66
     1
 10
0.0
 20
0.0
 30
0.0
  0
VERTEX
  5
35CC
330
300A
100
AcDbEntity
  8
0
100
AcDbVertex
100
AcDb2dVertex
 10
1.055592885729368
 20
7.303647212804317
 30
0.0
  0
VERTEX
  5
35CD
330
300A
100
AcDbEntity
  8
0
100
AcDbVertex
100
AcDb2dVertex
 10
1.03320843691047
 20
7.294430086820065
 30
0.0
  0
VERTEX
  5
35CE
330
300A
100
AcDbEntity
  8
0
100
AcDbVertex
100
AcDb2dVertex
 10
1.025308043209683
 20
7.273362370284631
 30
0.0
  0
SEQEND
  5
35CF
330
300A
100
AcDbEntity
  8
0
  0
LINE
  5
300F
330
1E
100
AcDbEntity
  8
0
100
AcDbLine
 10
1.025308043209683
 20
7.240444063198019
 30
0.0
 11
1.025308043209683
 21
7.273362370284632
 31
0.0
  0
POLYLINE
  5
3010
330
1E
100
AcDbEntity
  8
0
100
AcDb2dPolyline
 66
     1
 10
0.0
 20
0.0
 30
0.0
  0
VERTEX
  5
35D0
330
3010
100
AcDbEntity
  8
0
100
AcDbVertex
100
AcDb2dVertex
 10
1.025308043209683
 20
7.240444063198019
 30
0.0
  0
VERTEX
  5
35D1
330
3010
100
AcDbEntity
  8
0
100
AcDbVertex
100
AcDb2dVertex
 10
1.01872438179236
 20
7.222009811229515
 30
0.0
  0
VERTEX
  5
35D2
330
3010
100
AcDbEntity
  8
0
100
AcDbVertex
100
AcDb2dVertex
 10
1.00424032667425
 20
7.211475952961798
 30
0.0
  0
VERTEX
  5
35D3
330
3010
100
AcDbEntity
  8
0
100
AcDbVertex
100
AcDb2dVertex
 10
0.9858060747057464
 20
7.211475952961798
 30
0.0
  0
VERTEX
  5
35D4
330
3010
100
AcDbEntity
  8
0
100
AcDbVertex
100
AcDb2dVertex
 10
0.9700052873041718
 20
7.222009811229515
 30
0.0
  0
VERTEX
  5
35D5
330
3010
100
AcDbEntity
  8
0
100
AcDbVertex
100
AcDb2dVertex
 10
0.9647383581703133
 20
7.240444063198019
 30
0.0
  0
SEQEND
  5
35D6
330
3010
100
AcDbEntity
  8
0
  0
LINE
  5
3018
330
1E
100
AcDbEntity
  8
0
100
AcDbLine
 10
0.7185094211624392
 20
7.240444063198019
 30
0.0
 11
0.9647383581703135
 21
7.240444063198019
 31
0.0
  0
POLYLINE
  5
3019
330
1E
100
AcDbEntity
  8
0
100
AcDb2dPolyline
 66
     1
 10
0.0
 20
0.0
 30
0.0
  0
VERTEX
  5
35D7
330
3019
100
AcDbEntity
  8
0
100
AcDbVertex
100
AcDb2dVertex
 10
0.7185094211624394
 20
7.240444063198019
 30
0.0
  0
VERTEX
  5
35D8
330
3019
100
AcDbEntity
  8
0
100
AcDbVertex
100
AcDb2dVertex
 10
0.7132424920285814
 20
7.222009811229515
 30
0.0
  0
VERTEX
  5
35D9
330
3019
100
AcDbEntity
  8
0
100
AcDbVertex
100
AcDb2dVertex
 10
0.698758436910471
 20
7.211475952961798
 30
0.0
  0
VERTEX
  5
35DA
330
3019
100
AcDbEntity
  8
0
100
AcDbVertex
100
AcDb2dVertex
 10
0.6790074526585024
 20
7.211475952961798
 30
0.0
  0
VERTEX
  5
35DB
330
3019
100
AcDbEntity
  8
0
100
AcDbVertex
100
AcDb2dVertex
 10
0.6645233975403919
 20
7.222009811229515
 30
0.0
  0
VERTEX
  5
35DC
330
3019
100
AcDbEntity
  8
0
100
AcDbVertex
100
AcDb2dVertex
 10
0.6592564684065339
 20
7.240444063198019
 30
0.0
  0
SEQEND
  5
35DD
330
3019
100
AcDbEntity
  8
0
  0
LINE
  5
3021
330
1E
100
AcDbEntity
  8
0
100
AcDbLine
 10
0.6592564684065341
 20
7.273362370284632
 30
0.0
 11
0.6592564684065341
 21
7.240444063198019
 31
0.0
  0
POLYLINE
  5
3022
330
1E
100
AcDbEntity
  8
0
100
AcDb2dPolyline
 66
     1
 10
0.0
 20
0.0
 30
0.0
  0
VERTEX
  5
35DE
330
3022
100
AcDbEntity
  8
0
100
AcDbVertex
100
AcDb2dVertex
 10
0.6592564684065339
 20
7.273362370284631
 30
0.0
  0
VERTEX
  5
35DF
330
3022
100
AcDbEntity
  8
0
100
AcDbVertex
100
AcDb2dVertex
 10
0.650039342422282
 20
7.294430086820065
 30
0.0
  0
VERTEX
  5
35E0
330
3022
100
AcDbEntity
  8
0
100
AcDbVertex
100
AcDb2dVertex
 10
0.6289716258868488
 20
7.303647212804317
 30
0.0
  0
SEQEND
  5
35E1
330
3022
100
AcDbEntity
  8
0
  0
LINE
  5
3027
330
1E
100
AcDbEntity
  8
0
100
AcDbLine
 10
0.3945932794301559
 20
7.303647212804317
 30
0.0
 11
0.628971625886849
 21
7.303647212804317
 31
0.0
  0
POLYLINE
  5
3028
330
1E
100
AcDbEntity
  8
0
100
AcDb2dPolyline
 66
     1
 10
0.0
 20
0.0
 30
0.0
  0
VERTEX
  5
35E2
330
3028
100
AcDbEntity
  8
0
100
AcDbVertex
100
AcDb2dVertex
 10
0.3945932794301561
 20
7.303647212804317
 30
0.0
  0
VERTEX
  5
35E3
330
3028
100
AcDbEntity
  8
0
100
AcDbVertex
100
AcDb2dVertex
 10
0.3735255628947229
 20
7.311547606505106
 30
0.0
  0
VERTEX
  5
35E4
330
3028
100
AcDbEntity
  8
0
100
AcDbVertex
100
AcDb2dVertex
 10
0.364308436910471
 20
7.333932055324003
 30
0.0
  0
SEQEND
  5
35E5
330
3028
100
AcDbEntity
  8
0
  0
LINE
  5
302D
330
1E
100
AcDbEntity
  8
0
100
AcDbLine
 10
0.3643084369104708
 20
7.786887960835814
 30
0.0
 11
0.3643084369104708
 21
7.333932055324003
 31
0.0
  0
POLYLINE
  5
302E
330
1E
100
AcDbEntity
  8
0
100
AcDb2dPolyline
 66
     1
 10
0.0
 20
0.0
 30
0.0
  0
VERTEX
  5
35E6
330
302E
100
AcDbEntity
  8
0
100
AcDbVertex
100
AcDb2dVertex
 10
0.364308436910471
 20
7.786887960835814
 30
0.0
  0
VERTEX
  5
35E7
330
302E
100
AcDbEntity
  8
0
100
AcDbVertex
100
AcDb2dVertex
 10
0.3735255628947229
 20
7.807955677371246
 30
0.0
  0
VERTEX
  5
35E8
330
302E
100
AcDbEntity
  8
0
100
AcDbVertex
100
AcDb2dVertex
 10
0.3945932794301561
 20
7.817172803355498
 30
0.0
  0
SEQEND
  5
35E9
330
302E
100
AcDbEntity
  8
0
  0
LINE
  5
3033
330
1E
100
AcDbEntity
  8
0
100
AcDbLine
 10
0.3945932794301559
 20
7.817172803355498
 30
0.0
 11
2.40261001171362
 21
7.817172803355498
 31
0.0
  0
POLYLINE
  5
3034
330
1E
100
AcDbEntity
  8
0
100
AcDb2dPolyline
 66
     1
 10
0.0
 20
0.0
 30
0.0
  0
VERTEX
  5
35EA
330
3034
100
AcDbEntity
  8
0
100
AcDbVertex
100
AcDb2dVertex
 10
2.40261001171362
 20
7.817172803355498
 30
0.0
  0
VERTEX
  5
35EB
330
3034
100
AcDbEntity
  8
0
100
AcDbVertex
100
AcDb2dVertex
 10
2.423677728249053
 20
7.807955677371246
 30
0.0
  0
VERTEX
  5
35EC
330
3034
100
AcDbEntity
  8
0
100
AcDbVertex
100
AcDb2dVertex
 10
2.432894854233305
 20
7.786887960835814
 30
0.0
  0
SEQEND
  5
35ED
330
3034
100
AcDbEntity
  8
0
  0
LINE
  5
3039
330
1E
100
AcDbEntity
  8
0
100
AcDbLine
 10
2.432894854233305
 20
7.786887960835814
 30
0.0
 11
2.432894854233305
 21
7.333932055324003
 31
0.0
  0
POLYLINE
  5
303A
330
1E
100
AcDbEntity
  8
0
100
AcDb2dPolyline
 66
     1
 10
0.0
 20
0.0
 30
0.0
  0
VERTEX
  5
35EE
330
303A
100
AcDbEntity
  8
0
100
AcDbVertex
100
AcDb2dVertex
 10
2.432894854233305
 20
7.333932055324003
 30
0.0
  0
VERTEX
  5
35EF
330
303A
100
AcDbEntity
  8
0
100
AcDbVertex
100
AcDb2dVertex
 10
2.423677728249053
 20
7.311547606505106
 30
0.0
  0
VERTEX
  5
35F0
330
303A
100
AcDbEntity
  8
0
100
AcDbVertex
100
AcDb2dVertex
 10
2.40261001171362
 20
7.303647212804317
 30
0.0
  0
SEQEND
  5
35F1
330
303A
100
AcDbEntity
  8
0
  0
LINE
  5
303F
330
1E
100
AcDbEntity
  8
0
100
AcDbLine
 10
2.168231665256927
 20
7.303647212804317
 30
0.0
 11
2.40261001171362
 21
7.303647212804317
 31
0.0
  0
POLYLINE
  5
3040
330
1E
100
AcDbEntity
  8
0
100
AcDb2dPolyline
 66
     1
 10
0.0
 20
0.0
 30
0.0
  0
VERTEX
  5
35F2
330
3040
100
AcDbEntity
  8
0
100
AcDbVertex
100
AcDb2dVertex
 10
2.168231665256928
 20
7.303647212804317
 30
0.0
  0
VERTEX
  5
35F3
330
3040
100
AcDbEntity
  8
0
100
AcDbVertex
100
AcDb2dVertex
 10
2.147163948721495
 20
7.294430086820065
 30
0.0
  0
VERTEX
  5
35F4
330
3040
100
AcDbEntity
  8
0
100
AcDbVertex
100
AcDb2dVertex
 10
2.139263555020707
 20
7.273362370284631
 30
0.0
  0
SEQEND
  5
35F5
330
3040
100
AcDbEntity
  8
0
  0
LINE
  5
3045
330
1E
100
AcDbEntity
  8
0
100
AcDbLine
 10
2.139263555020707
 20
7.240444063198019
 30
0.0
 11
2.139263555020707
 21
7.273362370284632
 31
0.0
  0
POLYLINE
  5
3046
330
1E
100
AcDbEntity
  8
0
100
AcDb2dPolyline
 66
     1
 10
0.0
 20
0.0
 30
0.0
  0
VERTEX
  5
35F6
330
3046
100
AcDbEntity
  8
0
100
AcDbVertex
100
AcDb2dVertex
 10
2.139263555020707
 20
7.240444063198019
 30
0.0
  0
VERTEX
  5
35F7
330
3046
100
AcDbEntity
  8
0
100
AcDbVertex
100
AcDb2dVertex
 10
2.132679893603384
 20
7.222009811229515
 30
0.0
  0
VERTEX
  5
35F8
330
3046
100
AcDbEntity
  8
0
100
AcDbVertex
100
AcDb2dVertex
 10
2.118195838485274
 20
7.211475952961798
 30
0.0
  0
VERTEX
  5
35F9
330
3046
100
AcDbEntity
  8
0
100
AcDbVertex
100
AcDb2dVertex
 10
2.09976158651677
 20
7.211475952961798
 30
0.0
  0
VERTEX
  5
35FA
330
3046
100
AcDbEntity
  8
0
100
AcDbVertex
100
AcDb2dVertex
 10
2.083960799115194
 20
7.222009811229515
 30
0.0
  0
VERTEX
  5
35FB
330
3046
100
AcDbEntity
  8
0
100
AcDbVertex
100
AcDb2dVertex
 10
2.078693869981337
 20
7.240444063198019
 30
0.0
  0
SEQEND
  5
35FC
330
3046
100
AcDbEntity
  8
0
  0
LINE
  5
304E
330
1E
100
AcDbEntity
  8
0
100
AcDbLine
 10
2.078693869981336
 20
7.240444063198019
 30
0.0
 11
1.832464932973462
 21
7.240444063198019
 31
0.0
  0
POLYLINE
  5
304F
330
1E
100
AcDbEntity
  8
0
100
AcDb2dPolyline
 66
     1
 10
0.0
 20
0.0
 30
0.0
  0
VERTEX
  5
35FD
330
304F
100
AcDbEntity
  8
0
100
AcDbVertex
100
AcDb2dVertex
 10
1.832464932973462
 20
7.240444063198019
 30
0.0
  0
VERTEX
  5
35FE
330
304F
100
AcDbEntity
  8
0
100
AcDbVertex
100
AcDb2dVertex
 10
1.827198003839604
 20
7.222009811229515
 30
0.0
  0
VERTEX
  5
35FF
330
304F
100
AcDbEntity
  8
0
100
AcDbVertex
100
AcDb2dVertex
 10
1.811397216438029
 20
7.211475952961798
 30
0.0
  0
VERTEX
  5
3600
330
304F
100
AcDbEntity
  8
0
100
AcDbVertex
100
AcDb2dVertex
 10
1.792962964469525
 20
7.211475952961798
 30
0.0
  0
VERTEX
  5
3601
330
304F
100
AcDbEntity
  8
0
100
AcDbVertex
100
AcDb2dVertex
 10
1.778478909351415
 20
7.222009811229515
 30
0.0
  0
VERTEX
  5
3602
330
304F
100
AcDbEntity
  8
0
100
AcDbVertex
100
AcDb2dVertex
 10
1.771895247934092
 20
7.240444063198019
 30
0.0
  0
SEQEND
  5
3603
330
304F
100
AcDbEntity
  8
0
  0
LINE
  5
3057
330
1E
100
AcDbEntity
  8
0
100
AcDbLine
 10
1.771895247934093
 20
7.273362370284632
 30
0.0
 11
1.771895247934093
 21
7.240444063198019
 31
0.0
  0
POLYLINE
  5
3058
330
1E
100
AcDbEntity
  8
0
100
AcDb2dPolyline
 66
     1
 10
0.0
 20
0.0
 30
0.0
  0
VERTEX
  5
3604
330
3058
100
AcDbEntity
  8
0
100
AcDbVertex
100
AcDb2dVertex
 10
1.771895247934092
 20
7.273362370284631
 30
0.0
  0
VERTEX
  5
3605
330
3058
100
AcDbEntity
  8
0
100
AcDbVertex
100
AcDb2dVertex
 10
1.763994854233305
 20
7.294430086820065
 30
0.0
  0
VERTEX
  5
3606
330
3058
100
AcDbEntity
  8
0
100
AcDbVertex
100
AcDb2dVertex
 10
1.742927137697872
 20
7.303647212804317
 30
0.0
  0
SEQEND
  5
3607
330
3058
100
AcDbEntity
  8
0
  0
LINE
  5
305D
330
1E
100
AcDbEntity
  8
0
100
AcDbLine
 10
1.545417295178187
 20
7.303647212804317
 30
0.0
 11
1.742927137697872
 21
7.303647212804317
 31
0.0
  0
POLYLINE
  5
305E
330
1E
100
AcDbEntity
  8
0
100
AcDb2dPolyline
 66
     1
 10
0.0
 20
0.0
 30
0.0
  0
VERTEX
  5
3608
330
305E
100
AcDbEntity
  8
0
100
AcDbVertex
100
AcDb2dVertex
 10
1.545417295178187
 20
7.303647212804317
 30
0.0
  0
VERTEX
  5
3609
330
305E
100
AcDbEntity
  8
0
100
AcDbVertex
100
AcDb2dVertex
 10
1.533566704627006
 20
7.301013748237389
 30
0.0
  0
VERTEX
  5
360A
330
305E
100
AcDbEntity
  8
0
100
AcDbVertex
100
AcDb2dVertex
 10
1.52303284635929
 20
7.2931133545366
 30
0.0
  0
SEQEND
  5
360B
330
305E
100
AcDbEntity
  8
0
  0
POLYLINE
  5
3063
330
1E
100
AcDbEntity
  8
0
100
AcDb2dPolyline
 66
     1
 10
0.0
 20
0.0
 30
0.0
  0
VERTEX
  5
360C
330
3063
100
AcDbEntity
  8
0
100
AcDbVertex
100
AcDb2dVertex
 10
1.52303284635929
 20
7.2931133545366
 30
0.0
  0
VERTEX
  5
360D
330
3063
100
AcDbEntity
  8
0
100
AcDbVertex
100
AcDb2dVertex
 10
1.512498988091573
 20
7.285212960835814
 30
0.0
  0
VERTEX
  5
360E
330
3063
100
AcDbEntity
  8
0
100
AcDbVertex
100
AcDb2dVertex
 10
1.500648397540391
 20
7.282579496268885
 30
0.0
  0
SEQEND
  5
360F
330
3063
100
AcDbEntity
  8
0
  0
LINE
  5
3068
330
1E
100
AcDbEntity
  8
0
100
AcDbLine
 10
1.499331665256927
 20
7.282579496268884
 30
0.0
 11
1.500648397540392
 21
7.282579496268884
 31
0.0
  0
POLYLINE
  5
3069
330
1E
100
AcDbEntity
  8
0
100
AcDb2dPolyline
 66
     1
 10
0.0
 20
0.0
 30
0.0
  0
VERTEX
  5
3610
330
3069
100
AcDbEntity
  8
0
100
AcDbVertex
100
AcDb2dVertex
 10
1.499331665256927
 20
7.282579496268885
 30
0.0
  0
VERTEX
  5
3611
330
3069
100
AcDbEntity
  8
0
100
AcDbVertex
100
AcDb2dVertex
 10
1.483530877855353
 20
7.286529693119279
 30
0.0
  0
VERTEX
  5
3612
330
3069
100
AcDbEntity
  8
0
100
AcDbVertex
100
AcDb2dVertex
 10
1.472997019587636
 20
7.298380283670459
 30
0.0
  0
SEQEND
  5
3613
330
3069
100
AcDbEntity
  8
0
  0
LINE
  5
306E
330
1E
100
AcDbEntity
  8
0
100
AcDbLine
 10
1.32420627155614
 20
7.298380283670459
 30
0.0
 11
1.472997019587636
 21
7.298380283670459
 31
0.0
  0
POLYLINE
  5
306F
330
1E
100
AcDbEntity
  8
0
100
AcDb2dPolyline
 66
     1
 10
0.0
 20
0.0
 30
0.0
  0
VERTEX
  5
3614
330
306F
100
AcDbEntity
  8
0
100
AcDbVertex
100
AcDb2dVertex
 10
1.32420627155614
 20
7.298380283670459
 30
0.0
  0
VERTEX
  5
3615
330
306F
100
AcDbEntity
  8
0
100
AcDbVertex
100
AcDb2dVertex
 10
1.313672413288424
 20
7.286529693119279
 30
0.0
  0
VERTEX
  5
3616
330
306F
100
AcDbEntity
  8
0
100
AcDbVertex
100
AcDb2dVertex
 10
1.297871625886849
 20
7.282579496268885
 30
0.0
  0
SEQEND
  5
3617
330
306F
100
AcDbEntity
  8
0
  0
LINE
  5
3074
330
1E
100
AcDbEntity
  8
0
100
AcDbLine
 10
1.297871625886849
 20
7.282579496268884
 30
0.0
 11
1.296554893603384
 21
7.282579496268884
 31
0.0
  0
LINE
  5
3075
330
1E
100
AcDbEntity
  8
0
100
AcDbLine
 10
2.777878712501022
 20
8.106853905717704
 30
0.0
 11
2.777878712501022
 21
3.720818669497231
 31
0.0
  0
LINE
  5
3076
330
1E
100
AcDbEntity
  8
0
100
AcDbLine
 10
2.777878712501022
 20
8.106853905717704
 30
0.0
 11
2.656739342422282
 21
7.985714535638964
 31
0.0
  0
LINE
  5
3077
330
1E
100
AcDbEntity
  8
0
100
AcDbLine
 10
2.656739342422282
 20
7.985714535638964
 30
0.0
 11
2.656739342422282
 21
3.841958039575971
 31
0.0
  0
LINE
  5
3078
330
1E
100
AcDbEntity
  8
0
100
AcDbLine
 10
2.777878712501022
 20
3.720818669497231
 30
0.0
 11
2.656739342422282
 21
3.841958039575971
 31
0.0
  0
POLYLINE
  5
3079
330
1E
100
AcDbEntity
  8
0
100
AcDb2dPolyline
 66
     1
 10
0.0
 20
0.0
 30
0.0
  0
VERTEX
  5
3618
330
3079
100
AcDbEntity
  8
0
100
AcDbVertex
100
AcDb2dVertex
 10
2.592219460532517
 20
3.841958039575971
 30
0.0
  0
VERTEX
  5
3619
330
3079
100
AcDbEntity
  8
0
100
AcDbVertex
100
AcDb2dVertex
 10
2.626454499902596
 20
3.841958039575971
 30
0.0
  0
VERTEX
  5
361A
330
3079
100
AcDbEntity
  8
0
100
AcDbVertex
100
AcDb2dVertex
 10
2.656739342422281
 20
3.841958039575971
 30
0.0
  0
SEQEND
  5
361B
330
3079
100
AcDbEntity
  8
0
  0
POLYLINE
  5
307E
330
1E
100
AcDbEntity
  8
0
100
AcDb2dPolyline
 66
     1
 10
0.0
 20
0.0
 30
0.0
  0
VERTEX
  5
361C
330
307E
100
AcDbEntity
  8
0
100
AcDbVertex
100
AcDb2dVertex
 10
2.592219460532517
 20
3.841958039575971
 30
0.0
  0
VERTEX
  5
361D
330
307E
100
AcDbEntity
  8
0
100
AcDbVertex
100
AcDb2dVertex
 10
2.592219460532517
 20
3.807723000205892
 30
0.0
  0
VERTEX
  5
361E
330
307E
100
AcDbEntity
  8
0
100
AcDbVertex
100
AcDb2dVertex
 10
2.592219460532517
 20
3.777438157686207
 30
0.0
  0
SEQEND
  5
361F
330
307E
100
AcDbEntity
  8
0
  0
POLYLINE
  5
3083
330
1E
100
AcDbEntity
  8
0
100
AcDb2dPolyline
 66
     1
 10
0.0
 20
0.0
 30
0.0
  0
VERTEX
  5
3620
330
3083
100
AcDbEntity
  8
0
100
AcDbVertex
100
AcDb2dVertex
 10
2.656739342422281
 20
3.841958039575971
 30
0.0
  0
VERTEX
  5
3621
330
3083
100
AcDbEntity
  8
0
100
AcDbVertex
100
AcDb2dVertex
 10
2.629087964469525
 20
3.806406267922428
 30
0.0
  0
VERTEX
  5
3622
330
3083
100
AcDbEntity
  8
0
100
AcDbVertex
100
AcDb2dVertex
 10
2.592219460532517
 20
3.777438157686207
 30
0.0
  0
SEQEND
  5
3623
330
3083
100
AcDbEntity
  8
0
  0
LINE
  5
3088
330
1E
100
AcDbEntity
  8
0
100
AcDbLine
 10
2.713358830611258
 20
3.656298787607467
 30
0.0
 11
2.747593869981336
 21
3.656298787607467
 31
0.0
  0
POLYLINE
  5
3089
330
1E
100
AcDbEntity
  8
0
100
AcDb2dPolyline
 66
     1
 10
0.0
 20
0.0
 30
0.0
  0
VERTEX
  5
3624
330
3089
100
AcDbEntity
  8
0
100
AcDbVertex
100
AcDb2dVertex
 10
2.747593869981336
 20
3.656298787607467
 30
0.0
  0
VERTEX
  5
3625
330
3089
100
AcDbEntity
  8
0
100
AcDbVertex
100
AcDb2dVertex
 10
2.758127728249053
 20
3.657615519890931
 30
0.0
  0
VERTEX
  5
3626
330
3089
100
AcDbEntity
  8
0
100
AcDbVertex
100
AcDb2dVertex
 10
2.76602812194984
 20
3.66288244902479
 30
0.0
  0
VERTEX
  5
3627
330
3089
100
AcDbEntity
  8
0
100
AcDbVertex
100
AcDb2dVertex
 10
2.772611783367163
 20
3.669466110442113
 30
0.0
  0
VERTEX
  5
3628
330
3089
100
AcDbEntity
  8
0
100
AcDbVertex
100
AcDb2dVertex
 10
2.777878712501022
 20
3.678683236426365
 30
0.0
  0
VERTEX
  5
3629
330
3089
100
AcDbEntity
  8
0
100
AcDbVertex
100
AcDb2dVertex
 10
2.777878712501022
 20
3.686583630127152
 30
0.0
  0
SEQEND
  5
362A
330
3089
100
AcDbEntity
  8
0
  0
LINE
  5
3091
330
1E
100
AcDbEntity
  8
0
100
AcDbLine
 10
2.777878712501022
 20
3.686583630127152
 30
0.0
 11
2.777878712501022
 21
3.720818669497231
 31
0.0
  0
LINE
  5
3092
330
1E
100
AcDbEntity
  8
0
100
AcDbLine
 10
2.592219460532518
 20
3.777438157686207
 30
0.0
 11
2.713358830611258
 21
3.656298787607467
 31
0.0
  0
LINE
  5
3093
330
1E
100
AcDbEntity
  8
0
100
AcDbLine
 10
2.777878712501022
 20
8.141088945087782
 30
0.0
 11
2.777878712501022
 21
8.106853905717704
 31
0.0
  0
POLYLINE
  5
3094
330
1E
100
AcDbEntity
  8
0
100
AcDb2dPolyline
 66
     1
 10
0.0
 20
0.0
 30
0.0
  0
VERTEX
  5
362B
330
3094
100
AcDbEntity
  8
0
100
AcDbVertex
100
AcDb2dVertex
 10
2.592219460532517
 20
7.985714535638964
 30
0.0
  0
VERTEX
  5
362C
330
3094
100
AcDbEntity
  8
0
100
AcDbVertex
100
AcDb2dVertex
 10
2.626454499902596
 20
7.985714535638964
 30
0.0
  0
VERTEX
  5
362D
330
3094
100
AcDbEntity
  8
0
100
AcDbVertex
100
AcDb2dVertex
 10
2.656739342422281
 20
7.985714535638964
 30
0.0
  0
SEQEND
  5
362E
330
3094
100
AcDbEntity
  8
0
  0
LINE
  5
3099
330
1E
100
AcDbEntity
  8
0
100
AcDbLine
 10
0.0838444605325179
 20
3.656298787607467
 30
0.0
 11
2.713358830611258
 21
3.656298787607467
 31
0.0
  0
LINE
  5
309A
330
1E
100
AcDbEntity
  8
0
100
AcDbLine
 10
0.0496094211624394
 20
3.656298787607467
 30
0.0
 11
0.0838444605325179
 21
3.656298787607467
 31
0.0
  0
POLYLINE
  5
309B
330
1E
100
AcDbEntity
  8
0
100
AcDb2dPolyline
 66
     1
 10
0.0
 20
0.0
 30
0.0
  0
VERTEX
  5
362F
330
309B
100
AcDbEntity
  8
0
100
AcDbVertex
100
AcDb2dVertex
 10
0.2049838306112583
 20
3.841958039575971
 30
0.0
  0
VERTEX
  5
3630
330
309B
100
AcDbEntity
  8
0
100
AcDbVertex
100
AcDb2dVertex
 10
0.2049838306112583
 20
3.807723000205892
 30
0.0
  0
VERTEX
  5
3631
330
309B
100
AcDbEntity
  8
0
100
AcDbVertex
100
AcDb2dVertex
 10
0.2049838306112583
 20
3.777438157686207
 30
0.0
  0
SEQEND
  5
3632
330
309B
100
AcDbEntity
  8
0
  0
LINE
  5
30A0
330
1E
100
AcDbEntity
  8
0
100
AcDbLine
 10
0.2049838306112583
 20
3.777438157686207
 30
0.0
 11
2.592219460532518
 21
3.777438157686207
 31
0.0
  0
LINE
  5
30A1
330
1E
100
AcDbEntity
  8
0
100
AcDbLine
 10
0.0838444605325179
 20
3.656298787607467
 30
0.0
 11
0.2049838306112583
 21
3.777438157686207
 31
0.0
  0
LINE
  5
30A2
330
1E
100
AcDbEntity
  8
0
100
AcDbLine
 10
0.1404639487214938
 20
7.985714535638964
 30
0.0
 11
0.1404639487214938
 21
3.841958039575971
 31
0.0
  0
LINE
  5
30A3
330
1E
100
AcDbEntity
  8
0
100
AcDbLine
 10
0.1404639487214938
 20
7.985714535638964
 30
0.0
 11
0.0193245786427543
 21
8.106853905717704
 31
0.0
  0
LINE
  5
30A4
330
1E
100
AcDbEntity
  8
0
100
AcDbLine
 10
0.0193245786427543
 20
8.106853905717704
 30
0.0
 11
0.0193245786427543
 21
3.720818669497231
 31
0.0
  0
LINE
  5
30A5
330
1E
100
AcDbEntity
  8
0
100
AcDbLine
 10
0.1404639487214938
 20
3.841958039575971
 30
0.0
 11
0.0193245786427543
 21
3.720818669497231
 31
0.0
  0
POLYLINE
  5
30A6
330
1E
100
AcDbEntity
  8
0
100
AcDb2dPolyline
 66
     1
 10
0.0
 20
0.0
 30
0.0
  0
VERTEX
  5
3633
330
30A6
100
AcDbEntity
  8
0
100
AcDbVertex
100
AcDb2dVertex
 10
0.1404639487214945
 20
3.841958039575971
 30
0.0
  0
VERTEX
  5
3634
330
30A6
100
AcDbEntity
  8
0
100
AcDbVertex
100
AcDb2dVertex
 10
0.1707487912411796
 20
3.841958039575971
 30
0.0
  0
VERTEX
  5
3635
330
30A6
100
AcDbEntity
  8
0
100
AcDbVertex
100
AcDb2dVertex
 10
0.2049838306112583
 20
3.841958039575971
 30
0.0
  0
SEQEND
  5
3636
330
30A6
100
AcDbEntity
  8
0
  0
POLYLINE
  5
30AB
330
1E
100
AcDbEntity
  8
0
100
AcDb2dPolyline
 66
     1
 10
0.0
 20
0.0
 30
0.0
  0
VERTEX
  5
3637
330
30AB
100
AcDbEntity
  8
0
100
AcDbVertex
100
AcDb2dVertex
 10
0.1404639487214945
 20
3.841958039575971
 30
0.0
  0
VERTEX
  5
3638
330
30AB
100
AcDbEntity
  8
0
100
AcDbVertex
100
AcDb2dVertex
 10
0.1694320589577152
 20
3.806406267922428
 30
0.0
  0
VERTEX
  5
3639
330
30AB
100
AcDbEntity
  8
0
100
AcDbVertex
100
AcDb2dVertex
 10
0.2049838306112583
 20
3.777438157686207
 30
0.0
  0
SEQEND
  5
363A
330
30AB
100
AcDbEntity
  8
0
  0
LINE
  5
30B0
330
1E
100
AcDbEntity
  8
0
100
AcDbLine
 10
0.0193245786427543
 20
3.720818669497231
 30
0.0
 11
0.0193245786427543
 21
3.686583630127152
 31
0.0
  0
POLYLINE
  5
30B1
330
1E
100
AcDbEntity
  8
0
100
AcDb2dPolyline
 66
     1
 10
0.0
 20
0.0
 30
0.0
  0
VERTEX
  5
363B
330
30B1
100
AcDbEntity
  8
0
100
AcDbVertex
100
AcDb2dVertex
 10
0.0193245786427545
 20
3.686583630127152
 30
0.0
  0
VERTEX
  5
363C
330
30B1
100
AcDbEntity
  8
0
100
AcDbVertex
100
AcDb2dVertex
 10
0.0206413109262189
 20
3.6773665041429
 30
0.0
  0
VERTEX
  5
363D
330
30B1
100
AcDbEntity
  8
0
100
AcDbVertex
100
AcDb2dVertex
 10
0.0245915077766128
 20
3.668149378158648
 30
0.0
  0
VERTEX
  5
363E
330
30B1
100
AcDbEntity
  8
0
100
AcDbVertex
100
AcDb2dVertex
 10
0.0324919014774001
 20
3.661565716741326
 30
0.0
  0
VERTEX
  5
363F
330
30B1
100
AcDbEntity
  8
0
100
AcDbVertex
100
AcDb2dVertex
 10
0.0417090274616521
 20
3.657615519890931
 30
0.0
  0
VERTEX
  5
3640
330
30B1
100
AcDbEntity
  8
0
100
AcDbVertex
100
AcDb2dVertex
 10
0.0496094211624394
 20
3.656298787607467
 30
0.0
  0
SEQEND
  5
3641
330
30B1
100
AcDbEntity
  8
0
  0
LINE
  5
30B9
330
1E
100
AcDbEntity
  8
0
100
AcDbLine
 10
0.0193245786427543
 20
8.106853905717704
 30
0.0
 11
0.0193245786427543
 21
8.141088945087782
 31
0.0
  0
POLYLINE
  5
30BA
330
1E
100
AcDbEntity
  8
0
100
AcDb2dPolyline
 66
     1
 10
0.0
 20
0.0
 30
0.0
  0
VERTEX
  5
3642
330
30BA
100
AcDbEntity
  8
0
100
AcDbVertex
100
AcDb2dVertex
 10
0.1404639487214945
 20
7.985714535638964
 30
0.0
  0
VERTEX
  5
3643
330
30BA
100
AcDbEntity
  8
0
100
AcDbVertex
100
AcDb2dVertex
 10
0.1707487912411796
 20
7.985714535638964
 30
0.0
  0
VERTEX
  5
3644
330
30BA
100
AcDbEntity
  8
0
100
AcDbVertex
100
AcDb2dVertex
 10
0.2049838306112583
 20
7.985714535638964
 30
0.0
  0
SEQEND
  5
3645
330
30BA
100
AcDbEntity
  8
0
  0
POLYLINE
  5
30BF
330
1E
100
AcDbEntity
  8
0
100
AcDb2dPolyline
 66
     1
 10
0.0
 20
0.0
 30
0.0
  0
VERTEX
  5
3646
330
30BF
100
AcDbEntity
  8
0
100
AcDbVertex
100
AcDb2dVertex
 10
0.884417688878975
 20
4.588545244300381
 30
0.0
  0
VERTEX
  5
3647
330
30BF
100
AcDbEntity
  8
0
100
AcDbVertex
100
AcDb2dVertex
 10
0.884417688878975
 20
4.560893866347624
 30
0.0
  0
VERTEX
  5
3648
330
30BF
100
AcDbEntity
  8
0
100
AcDbVertex
100
AcDb2dVertex
 10
0.884417688878975
 20
4.541142882095656
 30
0.0
  0
VERTEX
  5
3649
330
30BF
100
AcDbEntity
  8
0
100
AcDbVertex
100
AcDb2dVertex
 10
0.884417688878975
 20
4.533242488394868
 30
0.0
  0
SEQEND
  5
364A
330
30BF
100
AcDbEntity
  8
0
  0
POLYLINE
  5
30C5
330
1E
100
AcDbEntity
  8
0
100
AcDb2dPolyline
 66
     1
 10
0.0
 20
0.0
 30
0.0
  0
VERTEX
  5
364B
330
30C5
100
AcDbEntity
  8
0
100
AcDbVertex
100
AcDb2dVertex
 10
0.6381887518711008
 20
4.588545244300381
 30
0.0
  0
VERTEX
  5
364C
330
30C5
100
AcDbEntity
  8
0
100
AcDbVertex
100
AcDb2dVertex
 10
0.6381887518711008
 20
4.560893866347624
 30
0.0
  0
VERTEX
  5
364D
330
30C5
100
AcDbEntity
  8
0
100
AcDbVertex
100
AcDb2dVertex
 10
0.6381887518711008
 20
4.541142882095656
 30
0.0
  0
VERTEX
  5
364E
330
30C5
100
AcDbEntity
  8
0
100
AcDbVertex
100
AcDb2dVertex
 10
0.6381887518711008
 20
4.533242488394868
 30
0.0
  0
SEQEND
  5
364F
330
30C5
100
AcDbEntity
  8
0
  0
POLYLINE
  5
30CB
330
1E
100
AcDbEntity
  8
0
100
AcDb2dPolyline
 66
     1
 10
0.0
 20
0.0
 30
0.0
  0
VERTEX
  5
3650
330
30CB
100
AcDbEntity
  8
0
100
AcDbVertex
100
AcDb2dVertex
 10
1.912785602264801
 20
4.588545244300381
 30
0.0
  0
VERTEX
  5
3651
330
30CB
100
AcDbEntity
  8
0
100
AcDbVertex
100
AcDb2dVertex
 10
1.912785602264801
 20
4.560893866347624
 30
0.0
  0
VERTEX
  5
3652
330
30CB
100
AcDbEntity
  8
0
100
AcDbVertex
100
AcDb2dVertex
 10
1.912785602264801
 20
4.541142882095656
 30
0.0
  0
VERTEX
  5
3653
330
30CB
100
AcDbEntity
  8
0
100
AcDbVertex
100
AcDb2dVertex
 10
1.912785602264801
 20
4.533242488394868
 30
0.0
  0
SEQEND
  5
3654
330
30CB
100
AcDbEntity
  8
0
  0
POLYLINE
  5
30D1
330
1E
100
AcDbEntity
  8
0
100
AcDb2dPolyline
 66
     1
 10
0.0
 20
0.0
 30
0.0
  0
VERTEX
  5
3655
330
30D1
100
AcDbEntity
  8
0
100
AcDbVertex
100
AcDb2dVertex
 10
2.159014539272675
 20
4.588545244300381
 30
0.0
  0
VERTEX
  5
3656
330
30D1
100
AcDbEntity
  8
0
100
AcDbVertex
100
AcDb2dVertex
 10
2.159014539272675
 20
4.560893866347624
 30
0.0
  0
VERTEX
  5
3657
330
30D1
100
AcDbEntity
  8
0
100
AcDbVertex
100
AcDb2dVertex
 10
2.159014539272675
 20
4.541142882095656
 30
0.0
  0
VERTEX
  5
3658
330
30D1
100
AcDbEntity
  8
0
100
AcDbVertex
100
AcDb2dVertex
 10
2.159014539272675
 20
4.533242488394868
 30
0.0
  0
SEQEND
  5
3659
330
30D1
100
AcDbEntity
  8
0
  0
POLYLINE
  5
30D7
330
1E
100
AcDbEntity
  8
0
100
AcDb2dPolyline
 66
     1
 10
0.0
 20
0.0
 30
0.0
  0
VERTEX
  5
365A
330
30D7
100
AcDbEntity
  8
0
100
AcDbVertex
100
AcDb2dVertex
 10
1.469046822737242
 20
4.514808236426365
 30
0.0
  0
VERTEX
  5
365B
330
30D7
100
AcDbEntity
  8
0
100
AcDbVertex
100
AcDb2dVertex
 10
1.469046822737242
 20
4.487156858473609
 30
0.0
  0
VERTEX
  5
365C
330
30D7
100
AcDbEntity
  8
0
100
AcDbVertex
100
AcDb2dVertex
 10
1.469046822737242
 20
4.475306267922428
 30
0.0
  0
SEQEND
  5
365D
330
30D7
100
AcDbEntity
  8
0
  0
POLYLINE
  5
30DC
330
1E
100
AcDbEntity
  8
0
100
AcDb2dPolyline
 66
     1
 10
0.0
 20
0.0
 30
0.0
  0
VERTEX
  5
365E
330
30DC
100
AcDbEntity
  8
0
100
AcDbVertex
100
AcDb2dVertex
 10
1.328156468406533
 20
4.514808236426365
 30
0.0
  0
VERTEX
  5
365F
330
30DC
100
AcDbEntity
  8
0
100
AcDbVertex
100
AcDb2dVertex
 10
1.328156468406533
 20
4.487156858473609
 30
0.0
  0
VERTEX
  5
3660
330
30DC
100
AcDbEntity
  8
0
100
AcDbVertex
100
AcDb2dVertex
 10
1.328156468406533
 20
4.475306267922428
 30
0.0
  0
SEQEND
  5
3661
330
30DC
100
AcDbEntity
  8
0
  0
POLYLINE
  5
30E1
330
1E
100
AcDbEntity
  8
0
100
AcDb2dPolyline
 66
     1
 10
0.0
 20
0.0
 30
0.0
  0
VERTEX
  5
3662
330
30E1
100
AcDbEntity
  8
0
100
AcDbVertex
100
AcDb2dVertex
 10
1.32420627155614
 20
4.529292291544475
 30
0.0
  0
VERTEX
  5
3663
330
30E1
100
AcDbEntity
  8
0
100
AcDbVertex
100
AcDb2dVertex
 10
1.328156468406533
 20
4.521391897843688
 30
0.0
  0
VERTEX
  5
3664
330
30E1
100
AcDbEntity
  8
0
100
AcDbVertex
100
AcDb2dVertex
 10
1.328156468406533
 20
4.514808236426365
 30
0.0
  0
SEQEND
  5
3665
330
30E1
100
AcDbEntity
  8
0
  0
LINE
  5
30E6
330
1E
100
AcDbEntity
  8
0
100
AcDbLine
 10
1.469046822737242
 20
4.475306267922428
 30
0.0
 11
1.328156468406533
 21
4.475306267922428
 31
0.0
  0
POLYLINE
  5
30E7
330
1E
100
AcDbEntity
  8
0
100
AcDb2dPolyline
 66
     1
 10
0.0
 20
0.0
 30
0.0
  0
VERTEX
  5
3666
330
30E7
100
AcDbEntity
  8
0
100
AcDbVertex
100
AcDb2dVertex
 10
1.469046822737242
 20
4.514808236426365
 30
0.0
  0
VERTEX
  5
3667
330
30E7
100
AcDbEntity
  8
0
100
AcDbVertex
100
AcDb2dVertex
 10
1.470363555020707
 20
4.524025362410617
 30
0.0
  0
VERTEX
  5
3668
330
30E7
100
AcDbEntity
  8
0
100
AcDbVertex
100
AcDb2dVertex
 10
1.472997019587636
 20
4.529292291544475
 30
0.0
  0
SEQEND
  5
3669
330
30E7
100
AcDbEntity
  8
0
  0
POLYLINE
  5
30EC
330
1E
100
AcDbEntity
  8
0
100
AcDb2dPolyline
 66
     1
 10
0.0
 20
0.0
 30
0.0
  0
VERTEX
  5
366A
330
30EC
100
AcDbEntity
  8
0
100
AcDbVertex
100
AcDb2dVertex
 10
1.328156468406533
 20
4.475306267922428
 30
0.0
  0
VERTEX
  5
366B
330
30EC
100
AcDbEntity
  8
0
100
AcDbVertex
100
AcDb2dVertex
 10
1.328156468406533
 20
4.47003933878857
 30
0.0
  0
VERTEX
  5
366C
330
30EC
100
AcDbEntity
  8
0
100
AcDbVertex
100
AcDb2dVertex
 10
1.328156468406533
 20
4.458188748237389
 30
0.0
  0
SEQEND
  5
366D
330
30EC
100
AcDbEntity
  8
0
  0
POLYLINE
  5
30F1
330
1E
100
AcDbEntity
  8
0
100
AcDb2dPolyline
 66
     1
 10
0.0
 20
0.0
 30
0.0
  0
VERTEX
  5
366E
330
30F1
100
AcDbEntity
  8
0
100
AcDbVertex
100
AcDb2dVertex
 10
1.469046822737242
 20
4.475306267922428
 30
0.0
  0
VERTEX
  5
366F
330
30F1
100
AcDbEntity
  8
0
100
AcDbVertex
100
AcDb2dVertex
 10
1.469046822737242
 20
4.47003933878857
 30
0.0
  0
VERTEX
  5
3670
330
30F1
100
AcDbEntity
  8
0
100
AcDbVertex
100
AcDb2dVertex
 10
1.469046822737242
 20
4.458188748237389
 30
0.0
  0
SEQEND
  5
3671
330
30F1
100
AcDbEntity
  8
0
  0
LINE
  5
30F6
330
1E
100
AcDbEntity
  8
0
100
AcDbLine
 10
1.469046822737242
 20
4.458188748237389
 30
0.0
 11
1.328156468406533
 21
4.458188748237389
 31
0.0
  0
LINE
  5
30F7
330
1E
100
AcDbEntity
  8
0
100
AcDbLine
 10
1.328156468406533
 20
4.458188748237389
 30
0.0
 11
1.328156468406533
 21
4.37786807894605
 31
0.0
  0
LINE
  5
30F8
330
1E
100
AcDbEntity
  8
0
100
AcDbLine
 10
1.469046822737242
 20
4.458188748237389
 30
0.0
 11
1.469046822737242
 21
4.37786807894605
 31
0.0
  0
LINE
  5
30F9
330
1E
100
AcDbEntity
  8
0
100
AcDbLine
 10
1.438761980217557
 20
4.347583236426365
 30
0.0
 11
1.358441310926219
 21
4.347583236426365
 31
0.0
  0
POLYLINE
  5
30FA
330
1E
100
AcDbEntity
  8
0
100
AcDb2dPolyline
 66
     1
 10
0.0
 20
0.0
 30
0.0
  0
VERTEX
  5
3672
330
30FA
100
AcDbEntity
  8
0
100
AcDbVertex
100
AcDb2dVertex
 10
1.438761980217558
 20
4.347583236426365
 30
0.0
  0
VERTEX
  5
3673
330
30FA
100
AcDbEntity
  8
0
100
AcDbVertex
100
AcDb2dVertex
 10
1.45982969675299
 20
4.355483630127152
 30
0.0
  0
VERTEX
  5
3674
330
30FA
100
AcDbEntity
  8
0
100
AcDbVertex
100
AcDb2dVertex
 10
1.469046822737242
 20
4.37786807894605
 30
0.0
  0
SEQEND
  5
3675
330
30FA
100
AcDbEntity
  8
0
  0
POLYLINE
  5
30FF
330
1E
100
AcDbEntity
  8
0
100
AcDb2dPolyline
 66
     1
 10
0.0
 20
0.0
 30
0.0
  0
VERTEX
  5
3676
330
30FF
100
AcDbEntity
  8
0
100
AcDbVertex
100
AcDb2dVertex
 10
1.328156468406533
 20
4.37786807894605
 30
0.0
  0
VERTEX
  5
3677
330
30FF
100
AcDbEntity
  8
0
100
AcDbVertex
100
AcDb2dVertex
 10
1.337373594390786
 20
4.355483630127152
 30
0.0
  0
VERTEX
  5
3678
330
30FF
100
AcDbEntity
  8
0
100
AcDbVertex
100
AcDb2dVertex
 10
1.358441310926219
 20
4.347583236426365
 30
0.0
  0
SEQEND
  5
3679
330
30FF
100
AcDbEntity
  8
0
  0
POLYLINE
  5
3104
330
1E
100
AcDbEntity
  8
0
100
AcDb2dPolyline
 66
     1
 10
0.0
 20
0.0
 30
0.0
  0
VERTEX
  5
367A
330
3104
100
AcDbEntity
  8
0
100
AcDbVertex
100
AcDb2dVertex
 10
0.2049838306112583
 20
7.985714535638964
 30
0.0
  0
VERTEX
  5
367B
330
3104
100
AcDbEntity
  8
0
100
AcDbVertex
100
AcDb2dVertex
 10
0.2049838306112583
 20
8.019949575009041
 30
0.0
  0
VERTEX
  5
367C
330
3104
100
AcDbEntity
  8
0
100
AcDbVertex
100
AcDb2dVertex
 10
0.2049838306112583
 20
8.050234417528727
 30
0.0
  0
SEQEND
  5
367D
330
3104
100
AcDbEntity
  8
0
  0
POLYLINE
  5
3109
330
1E
100
AcDbEntity
  8
0
100
AcDb2dPolyline
 66
     1
 10
0.0
 20
0.0
 30
0.0
  0
VERTEX
  5
367E
330
3109
100
AcDbEntity
  8
0
100
AcDbVertex
100
AcDb2dVertex
 10
0.1404639487214945
 20
7.985714535638964
 30
0.0
  0
VERTEX
  5
367F
330
3109
100
AcDbEntity
  8
0
100
AcDbVertex
100
AcDb2dVertex
 10
0.1694320589577152
 20
8.021266307292506
 30
0.0
  0
VERTEX
  5
3680
330
3109
100
AcDbEntity
  8
0
100
AcDbVertex
100
AcDb2dVertex
 10
0.2049838306112583
 20
8.050234417528727
 30
0.0
  0
SEQEND
  5
3681
330
3109
100
AcDbEntity
  8
0
  0
LINE
  5
310E
330
1E
100
AcDbEntity
  8
0
100
AcDbLine
 10
0.0496094211624394
 20
8.171373787607468
 30
0.0
 11
0.0838444605325179
 21
8.171373787607468
 31
0.0
  0
POLYLINE
  5
310F
330
1E
100
AcDbEntity
  8
0
100
AcDb2dPolyline
 66
     1
 10
0.0
 20
0.0
 30
0.0
  0
VERTEX
  5
3682
330
310F
100
AcDbEntity
  8
0
100
AcDbVertex
100
AcDb2dVertex
 10
0.0496094211624394
 20
8.171373787607468
 30
0.0
  0
VERTEX
  5
3683
330
310F
100
AcDbEntity
  8
0
100
AcDbVertex
100
AcDb2dVertex
 10
0.0390755628947228
 20
8.170057055324003
 30
0.0
  0
VERTEX
  5
3684
330
310F
100
AcDbEntity
  8
0
100
AcDbVertex
100
AcDb2dVertex
 10
0.0311751691939355
 20
8.166106858473609
 30
0.0
  0
VERTEX
  5
3685
330
310F
100
AcDbEntity
  8
0
100
AcDbVertex
100
AcDb2dVertex
 10
0.0245915077766128
 20
8.158206464772822
 30
0.0
  0
VERTEX
  5
3686
330
310F
100
AcDbEntity
  8
0
100
AcDbVertex
100
AcDb2dVertex
 10
0.0206413109262189
 20
8.14898933878857
 30
0.0
  0
VERTEX
  5
3687
330
310F
100
AcDbEntity
  8
0
100
AcDbVertex
100
AcDb2dVertex
 10
0.0193245786427545
 20
8.141088945087782
 30
0.0
  0
SEQEND
  5
3688
330
310F
100
AcDbEntity
  8
0
  0
LINE
  5
3117
330
1E
100
AcDbEntity
  8
0
100
AcDbLine
 10
0.0838444605325179
 20
8.171373787607468
 30
0.0
 11
0.2049838306112583
 21
8.050234417528727
 31
0.0
  0
LINE
  5
3118
330
1E
100
AcDbEntity
  8
0
100
AcDbLine
 10
0.2049838306112583
 20
8.050234417528727
 30
0.0
 11
2.592219460532518
 21
8.050234417528727
 31
0.0
  0
LINE
  5
3119
330
1E
100
AcDbEntity
  8
0
100
AcDbLine
 10
2.592219460532518
 20
8.050234417528727
 30
0.0
 11
2.713358830611258
 21
8.171373787607468
 31
0.0
  0
LINE
  5
311A
330
1E
100
AcDbEntity
  8
0
100
AcDbLine
 10
0.0838444605325179
 20
8.171373787607468
 30
0.0
 11
2.713358830611258
 21
8.171373787607468
 31
0.0
  0
POLYLINE
  5
311B
330
1E
100
AcDbEntity
  8
0
100
AcDb2dPolyline
 66
     1
 10
0.0
 20
0.0
 30
0.0
  0
VERTEX
  5
3689
330
311B
100
AcDbEntity
  8
0
100
AcDbVertex
100
AcDb2dVertex
 10
2.592219460532517
 20
7.985714535638964
 30
0.0
  0
VERTEX
  5
368A
330
311B
100
AcDbEntity
  8
0
100
AcDbVertex
100
AcDb2dVertex
 10
2.592219460532517
 20
8.019949575009041
 30
0.0
  0
VERTEX
  5
368B
330
311B
100
AcDbEntity
  8
0
100
AcDbVertex
100
AcDb2dVertex
 10
2.592219460532517
 20
8.050234417528727
 30
0.0
  0
SEQEND
  5
368C
330
311B
100
AcDbEntity
  8
0
  0
LINE
  5
3120
330
1E
100
AcDbEntity
  8
0
100
AcDbLine
 10
2.713358830611258
 20
8.171373787607468
 30
0.0
 11
2.747593869981336
 21
8.171373787607468
 31
0.0
  0
POLYLINE
  5
3121
330
1E
100
AcDbEntity
  8
0
100
AcDb2dPolyline
 66
     1
 10
0.0
 20
0.0
 30
0.0
  0
VERTEX
  5
368D
330
3121
100
AcDbEntity
  8
0
100
AcDbVertex
100
AcDb2dVertex
 10
0.9647383581703133
 20
7.240444063198019
 30
0.0
  0
VERTEX
  5
368E
330
3121
100
AcDbEntity
  8
0
100
AcDbVertex
100
AcDb2dVertex
 10
0.9647383581703133
 20
7.26677870886731
 30
0.0
  0
VERTEX
  5
368F
330
3121
100
AcDbEntity
  8
0
100
AcDbVertex
100
AcDb2dVertex
 10
0.9647383581703133
 20
7.286529693119279
 30
0.0
  0
VERTEX
  5
3690
330
3121
100
AcDbEntity
  8
0
100
AcDbVertex
100
AcDb2dVertex
 10
0.9647383581703133
 20
7.294430086820065
 30
0.0
  0
SEQEND
  5
3691
330
3121
100
AcDbEntity
  8
0
  0
POLYLINE
  5
3127
330
1E
100
AcDbEntity
  8
0
100
AcDb2dPolyline
 66
     1
 10
0.0
 20
0.0
 30
0.0
  0
VERTEX
  5
3692
330
3127
100
AcDbEntity
  8
0
100
AcDbVertex
100
AcDb2dVertex
 10
0.7185094211624394
 20
7.240444063198019
 30
0.0
  0
VERTEX
  5
3693
330
3127
100
AcDbEntity
  8
0
100
AcDbVertex
100
AcDb2dVertex
 10
0.7185094211624394
 20
7.26677870886731
 30
0.0
  0
VERTEX
  5
3694
330
3127
100
AcDbEntity
  8
0
100
AcDbVertex
100
AcDb2dVertex
 10
0.7185094211624394
 20
7.286529693119279
 30
0.0
  0
VERTEX
  5
3695
330
3127
100
AcDbEntity
  8
0
100
AcDbVertex
100
AcDb2dVertex
 10
0.7185094211624394
 20
7.294430086820065
 30
0.0
  0
SEQEND
  5
3696
330
3127
100
AcDbEntity
  8
0
  0
LINE
  5
312D
330
1E
100
AcDbEntity
  8
0
100
AcDbLine
 10
1.438761980217557
 20
7.481406071072035
 30
0.0
 11
1.358441310926219
 21
7.481406071072035
 31
0.0
  0
LINE
  5
312E
330
1E
100
AcDbEntity
  8
0
100
AcDbLine
 10
1.469046822737242
 20
7.370800559261011
 30
0.0
 11
1.469046822737242
 21
7.451121228552349
 31
0.0
  0
LINE
  5
312F
330
1E
100
AcDbEntity
  8
0
100
AcDbLine
 10
1.328156468406533
 20
7.370800559261011
 30
0.0
 11
1.328156468406533
 21
7.451121228552349
 31
0.0
  0
POLYLINE
  5
3130
330
1E
100
AcDbEntity
  8
0
100
AcDb2dPolyline
 66
     1
 10
0.0
 20
0.0
 30
0.0
  0
VERTEX
  5
3697
330
3130
100
AcDbEntity
  8
0
100
AcDbVertex
100
AcDb2dVertex
 10
1.358441310926219
 20
7.481406071072035
 30
0.0
  0
VERTEX
  5
3698
330
3130
100
AcDbEntity
  8
0
100
AcDbVertex
100
AcDb2dVertex
 10
1.337373594390786
 20
7.472188945087781
 30
0.0
  0
VERTEX
  5
3699
330
3130
100
AcDbEntity
  8
0
100
AcDbVertex
100
AcDb2dVertex
 10
1.328156468406533
 20
7.451121228552349
 30
0.0
  0
SEQEND
  5
369A
330
3130
100
AcDbEntity
  8
0
  0
LINE
  5
3135
330
1E
100
AcDbEntity
  8
0
100
AcDbLine
 10
1.469046822737242
 20
7.370800559261011
 30
0.0
 11
1.328156468406533
 21
7.370800559261011
 31
0.0
  0
POLYLINE
  5
3136
330
1E
100
AcDbEntity
  8
0
100
AcDb2dPolyline
 66
     1
 10
0.0
 20
0.0
 30
0.0
  0
VERTEX
  5
369B
330
3136
100
AcDbEntity
  8
0
100
AcDbVertex
100
AcDb2dVertex
 10
1.469046822737242
 20
7.451121228552349
 30
0.0
  0
VERTEX
  5
369C
330
3136
100
AcDbEntity
  8
0
100
AcDbVertex
100
AcDb2dVertex
 10
1.45982969675299
 20
7.472188945087781
 30
0.0
  0
VERTEX
  5
369D
330
3136
100
AcDbEntity
  8
0
100
AcDbVertex
100
AcDb2dVertex
 10
1.438761980217558
 20
7.481406071072035
 30
0.0
  0
SEQEND
  5
369E
330
3136
100
AcDbEntity
  8
0
  0
POLYLINE
  5
313B
330
1E
100
AcDbEntity
  8
0
100
AcDb2dPolyline
 66
     1
 10
0.0
 20
0.0
 30
0.0
  0
VERTEX
  5
369F
330
313B
100
AcDbEntity
  8
0
100
AcDbVertex
100
AcDb2dVertex
 10
1.469046822737242
 20
7.352366307292507
 30
0.0
  0
VERTEX
  5
36A0
330
313B
100
AcDbEntity
  8
0
100
AcDbVertex
100
AcDb2dVertex
 10
1.469046822737242
 20
7.357633236426366
 30
0.0
  0
VERTEX
  5
36A1
330
313B
100
AcDbEntity
  8
0
100
AcDbVertex
100
AcDb2dVertex
 10
1.469046822737242
 20
7.370800559261011
 30
0.0
  0
SEQEND
  5
36A2
330
313B
100
AcDbEntity
  8
0
  0
POLYLINE
  5
3140
330
1E
100
AcDbEntity
  8
0
100
AcDb2dPolyline
 66
     1
 10
0.0
 20
0.0
 30
0.0
  0
VERTEX
  5
36A3
330
3140
100
AcDbEntity
  8
0
100
AcDbVertex
100
AcDb2dVertex
 10
1.328156468406533
 20
7.352366307292507
 30
0.0
  0
VERTEX
  5
36A4
330
3140
100
AcDbEntity
  8
0
100
AcDbVertex
100
AcDb2dVertex
 10
1.328156468406533
 20
7.357633236426366
 30
0.0
  0
VERTEX
  5
36A5
330
3140
100
AcDbEntity
  8
0
100
AcDbVertex
100
AcDb2dVertex
 10
1.328156468406533
 20
7.370800559261011
 30
0.0
  0
SEQEND
  5
36A6
330
3140
100
AcDbEntity
  8
0
  0
LINE
  5
3145
330
1E
100
AcDbEntity
  8
0
100
AcDbLine
 10
1.469046822737242
 20
7.352366307292507
 30
0.0
 11
1.328156468406533
 21
7.352366307292507
 31
0.0
  0
POLYLINE
  5
3146
330
1E
100
AcDbEntity
  8
0
100
AcDb2dPolyline
 66
     1
 10
0.0
 20
0.0
 30
0.0
  0
VERTEX
  5
36A7
330
3146
100
AcDbEntity
  8
0
100
AcDbVertex
100
AcDb2dVertex
 10
1.469046822737242
 20
7.312864338788569
 30
0.0
  0
VERTEX
  5
36A8
330
3146
100
AcDbEntity
  8
0
100
AcDbVertex
100
AcDb2dVertex
 10
1.469046822737242
 20
7.34183244902479
 30
0.0
  0
VERTEX
  5
36A9
330
3146
100
AcDbEntity
  8
0
100
AcDbVertex
100
AcDb2dVertex
 10
1.469046822737242
 20
7.352366307292507
 30
0.0
  0
SEQEND
  5
36AA
330
3146
100
AcDbEntity
  8
0
  0
POLYLINE
  5
314B
330
1E
100
AcDbEntity
  8
0
100
AcDb2dPolyline
 66
     1
 10
0.0
 20
0.0
 30
0.0
  0
VERTEX
  5
36AB
330
314B
100
AcDbEntity
  8
0
100
AcDbVertex
100
AcDb2dVertex
 10
1.328156468406533
 20
7.312864338788569
 30
0.0
  0
VERTEX
  5
36AC
330
314B
100
AcDbEntity
  8
0
100
AcDbVertex
100
AcDb2dVertex
 10
1.328156468406533
 20
7.34183244902479
 30
0.0
  0
VERTEX
  5
36AD
330
314B
100
AcDbEntity
  8
0
100
AcDbVertex
100
AcDb2dVertex
 10
1.328156468406533
 20
7.352366307292507
 30
0.0
  0
SEQEND
  5
36AE
330
314B
100
AcDbEntity
  8
0
  0
POLYLINE
  5
3150
330
1E
100
AcDbEntity
  8
0
100
AcDb2dPolyline
 66
     1
 10
0.0
 20
0.0
 30
0.0
  0
VERTEX
  5
36AF
330
3150
100
AcDbEntity
  8
0
100
AcDbVertex
100
AcDb2dVertex
 10
1.472997019587636
 20
7.298380283670459
 30
0.0
  0
VERTEX
  5
36B0
330
3150
100
AcDbEntity
  8
0
100
AcDbVertex
100
AcDb2dVertex
 10
1.469046822737242
 20
7.306280677371248
 30
0.0
  0
VERTEX
  5
36B1
330
3150
100
AcDbEntity
  8
0
100
AcDbVertex
100
AcDb2dVertex
 10
1.469046822737242
 20
7.312864338788569
 30
0.0
  0
SEQEND
  5
36B2
330
3150
100
AcDbEntity
  8
0
  0
POLYLINE
  5
3155
330
1E
100
AcDbEntity
  8
0
100
AcDb2dPolyline
 66
     1
 10
0.0
 20
0.0
 30
0.0
  0
VERTEX
  5
36B3
330
3155
100
AcDbEntity
  8
0
100
AcDbVertex
100
AcDb2dVertex
 10
1.328156468406533
 20
7.312864338788569
 30
0.0
  0
VERTEX
  5
36B4
330
3155
100
AcDbEntity
  8
0
100
AcDbVertex
100
AcDb2dVertex
 10
1.326839736123069
 20
7.304963945087783
 30
0.0
  0
VERTEX
  5
36B5
330
3155
100
AcDbEntity
  8
0
100
AcDbVertex
100
AcDb2dVertex
 10
1.32420627155614
 20
7.298380283670459
 30
0.0
  0
SEQEND
  5
36B6
330
3155
100
AcDbEntity
  8
0
  0
POLYLINE
  5
315A
330
1E
100
AcDbEntity
  8
0
100
AcDb2dPolyline
 66
     1
 10
0.0
 20
0.0
 30
0.0
  0
VERTEX
  5
36B7
330
315A
100
AcDbEntity
  8
0
100
AcDbVertex
100
AcDb2dVertex
 10
2.078693869981337
 20
7.240444063198019
 30
0.0
  0
VERTEX
  5
36B8
330
315A
100
AcDbEntity
  8
0
100
AcDbVertex
100
AcDb2dVertex
 10
2.078693869981337
 20
7.26677870886731
 30
0.0
  0
VERTEX
  5
36B9
330
315A
100
AcDbEntity
  8
0
100
AcDbVertex
100
AcDb2dVertex
 10
2.078693869981337
 20
7.286529693119279
 30
0.0
  0
VERTEX
  5
36BA
330
315A
100
AcDbEntity
  8
0
100
AcDbVertex
100
AcDb2dVertex
 10
2.078693869981337
 20
7.294430086820065
 30
0.0
  0
SEQEND
  5
36BB
330
315A
100
AcDbEntity
  8
0
  0
POLYLINE
  5
3160
330
1E
100
AcDbEntity
  8
0
100
AcDb2dPolyline
 66
     1
 10
0.0
 20
0.0
 30
0.0
  0
VERTEX
  5
36BC
330
3160
100
AcDbEntity
  8
0
100
AcDbVertex
100
AcDb2dVertex
 10
1.832464932973462
 20
7.240444063198019
 30
0.0
  0
VERTEX
  5
36BD
330
3160
100
AcDbEntity
  8
0
100
AcDbVertex
100
AcDb2dVertex
 10
1.832464932973462
 20
7.26677870886731
 30
0.0
  0
VERTEX
  5
36BE
330
3160
100
AcDbEntity
  8
0
100
AcDbVertex
100
AcDb2dVertex
 10
1.832464932973462
 20
7.286529693119279
 30
0.0
  0
VERTEX
  5
36BF
330
3160
100
AcDbEntity
  8
0
100
AcDbVertex
100
AcDb2dVertex
 10
1.832464932973462
 20
7.294430086820065
 30
0.0
  0
SEQEND
  5
36C0
330
3160
100
AcDbEntity
  8
0
  0
POLYLINE
  5
3166
330
1E
100
AcDbEntity
  8
0
100
AcDb2dPolyline
 66
     1
 10
0.0
 20
0.0
 30
0.0
  0
VERTEX
  5
36C1
330
3166
100
AcDbEntity
  8
0
100
AcDbVertex
100
AcDb2dVertex
 10
2.656739342422281
 20
7.985714535638964
 30
0.0
  0
VERTEX
  5
36C2
330
3166
100
AcDbEntity
  8
0
100
AcDbVertex
100
AcDb2dVertex
 10
2.629087964469525
 20
8.021266307292506
 30
0.0
  0
VERTEX
  5
36C3
330
3166
100
AcDbEntity
  8
0
100
AcDbVertex
100
AcDb2dVertex
 10
2.592219460532517
 20
8.050234417528727
 30
0.0
  0
SEQEND
  5
36C4
330
3166
100
AcDbEntity
  8
0
  0
POLYLINE
  5
316B
330
1E
100
AcDbEntity
  8
0
100
AcDb2dPolyline
 66
     1
 10
0.0
 20
0.0
 30
0.0
  0
VERTEX
  5
36C5
330
316B
100
AcDbEntity
  8
0
100
AcDbVertex
100
AcDb2dVertex
 10
2.777878712501022
 20
8.141088945087782
 30
0.0
  0
VERTEX
  5
36C6
330
316B
100
AcDbEntity
  8
0
100
AcDbVertex
100
AcDb2dVertex
 10
2.776561980217557
 20
8.151622803355499
 30
0.0
  0
VERTEX
  5
36C7
330
316B
100
AcDbEntity
  8
0
100
AcDbVertex
100
AcDb2dVertex
 10
2.772611783367163
 20
8.159523197056286
 30
0.0
  0
VERTEX
  5
36C8
330
316B
100
AcDbEntity
  8
0
100
AcDbVertex
100
AcDb2dVertex
 10
2.764711389666376
 20
8.166106858473609
 30
0.0
  0
VERTEX
  5
36C9
330
316B
100
AcDbEntity
  8
0
100
AcDbVertex
100
AcDb2dVertex
 10
2.756810995965588
 20
8.170057055324003
 30
0.0
  0
VERTEX
  5
36CA
330
316B
100
AcDbEntity
  8
0
100
AcDbVertex
100
AcDb2dVertex
 10
2.747593869981336
 20
8.171373787607468
 30
0.0
  0
SEQEND
  5
36CB
330
316B
100
AcDbEntity
  8
0
  0
LINE
  5
3173
330
1E
100
AcDbEntity
  8
0
100
AcDbLine
 10
5.140096429036455
 20
3.686583630127152
 30
0.0
 11
5.309954893603385
 21
3.683950165560223
 31
0.0
  0
LINE
  5
3174
330
1E
100
AcDbEntity
  8
0
100
AcDbLine
 10
5.309954893603385
 20
8.145039141938177
 30
0.0
 11
5.309954893603385
 21
3.683950165560223
 31
0.0
  0
LINE
  5
3175
330
1E
100
AcDbEntity
  8
0
100
AcDbLine
 10
5.309954893603385
 20
8.145039141938177
 30
0.0
 11
5.140096429036455
 21
8.141088945087782
 31
0.0
  0
LINE
  5
3176
330
1E
100
AcDbEntity
  8
0
100
AcDbLine
 10
5.140096429036455
 20
3.686583630127152
 30
0.0
 11
5.140096429036455
 21
8.141088945087782
 31
0.0
  0
POLYLINE
  5
3177
330
1E
100
AcDbEntity
  8
0
100
AcDb2dPolyline
 66
     1
 10
0.0
 20
0.0
 30
0.0
  0
VERTEX
  5
36CC
330
3177
100
AcDbEntity
  8
0
100
AcDbVertex
100
AcDb2dVertex
 10
5.140096429036455
 20
3.656298787607467
 30
0.0
  0
VERTEX
  5
36CD
330
3177
100
AcDbEntity
  8
0
100
AcDbVertex
100
AcDb2dVertex
 10
5.140096429036455
 20
3.660248984457861
 30
0.0
  0
VERTEX
  5
36CE
330
3177
100
AcDbEntity
  8
0
100
AcDbVertex
100
AcDb2dVertex
 10
5.140096429036455
 20
3.672099575009042
 30
0.0
  0
VERTEX
  5
36CF
330
3177
100
AcDbEntity
  8
0
100
AcDbVertex
100
AcDb2dVertex
 10
5.140096429036455
 20
3.686583630127152
 30
0.0
  0
SEQEND
  5
36D0
330
3177
100
AcDbEntity
  8
0
  0
POLYLINE
  5
317D
330
1E
100
AcDbEntity
  8
0
100
AcDb2dPolyline
 66
     1
 10
0.0
 20
0.0
 30
0.0
  0
VERTEX
  5
36D1
330
317D
100
AcDbEntity
  8
0
100
AcDbVertex
100
AcDb2dVertex
 10
5.140096429036455
 20
8.141088945087782
 30
0.0
  0
VERTEX
  5
36D2
330
317D
100
AcDbEntity
  8
0
100
AcDbVertex
100
AcDb2dVertex
 10
5.140096429036455
 20
8.156889732489357
 30
0.0
  0
VERTEX
  5
36D3
330
317D
100
AcDbEntity
  8
0
100
AcDbVertex
100
AcDb2dVertex
 10
5.140096429036455
 20
8.167423590757072
 30
0.0
  0
VERTEX
  5
36D4
330
317D
100
AcDbEntity
  8
0
100
AcDbVertex
100
AcDb2dVertex
 10
5.140096429036455
 20
8.171373787607468
 30
0.0
  0
SEQEND
  5
36D5
330
317D
100
AcDbEntity
  8
0
  0
POLYLINE
  5
3183
330
1E
100
AcDbEntity
  8
0
100
AcDb2dPolyline
 66
     1
 10
0.0
 20
0.0
 30
0.0
  0
VERTEX
  5
36D6
330
3183
100
AcDbEntity
  8
0
100
AcDbVertex
100
AcDb2dVertex
 10
5.309954893603385
 20
3.683950165560223
 30
0.0
  0
VERTEX
  5
36D7
330
3183
100
AcDbEntity
  8
0
100
AcDbVertex
100
AcDb2dVertex
 10
5.309954893603385
 20
3.668149378158648
 30
0.0
  0
VERTEX
  5
36D8
330
3183
100
AcDbEntity
  8
0
100
AcDbVertex
100
AcDb2dVertex
 10
5.309954893603385
 20
3.657615519890931
 30
0.0
  0
VERTEX
  5
36D9
330
3183
100
AcDbEntity
  8
0
100
AcDbVertex
100
AcDb2dVertex
 10
5.309954893603385
 20
3.653665323040538
 30
0.0
  0
SEQEND
  5
36DA
330
3183
100
AcDbEntity
  8
0
  0
POLYLINE
  5
3189
330
1E
100
AcDbEntity
  8
0
100
AcDb2dPolyline
 66
     1
 10
0.0
 20
0.0
 30
0.0
  0
VERTEX
  5
36DB
330
3189
100
AcDbEntity
  8
0
100
AcDbVertex
100
AcDb2dVertex
 10
5.309954893603385
 20
8.174007252174396
 30
0.0
  0
VERTEX
  5
36DC
330
3189
100
AcDbEntity
  8
0
100
AcDbVertex
100
AcDb2dVertex
 10
5.309954893603385
 20
8.170057055324003
 30
0.0
  0
VERTEX
  5
36DD
330
3189
100
AcDbEntity
  8
0
100
AcDbVertex
100
AcDb2dVertex
 10
5.309954893603385
 20
8.159523197056286
 30
0.0
  0
VERTEX
  5
36DE
330
3189
100
AcDbEntity
  8
0
100
AcDbVertex
100
AcDb2dVertex
 10
5.309954893603385
 20
8.145039141938175
 30
0.0
  0
SEQEND
  5
36DF
330
3189
100
AcDbEntity
  8
0
  0
LINE
  5
318F
330
1E
100
AcDbEntity
  8
0
100
AcDbLine
 10
5.309954893603385
 20
3.653665323040538
 30
0.0
 11
5.140096429036455
 21
3.656298787607467
 31
0.0
  0
LINE
  5
3190
330
1E
100
AcDbEntity
  8
0
100
AcDbLine
 10
5.435044460532518
 20
4.533242488394868
 30
0.0
 11
5.435044460532518
 21
4.520075165560224
 31
0.0
  0
LINE
  5
3191
330
1E
100
AcDbEntity
  8
0
100
AcDbLine
 10
5.435044460532518
 20
4.520075165560224
 30
0.0
 11
5.425827334548267
 21
4.510858039575971
 31
0.0
  0
LINE
  5
3192
330
1E
100
AcDbEntity
  8
0
100
AcDbLine
 10
5.427144066831731
 20
4.520075165560224
 30
0.0
 11
5.427144066831731
 21
4.533242488394868
 31
0.0
  0
POLYLINE
  5
3193
330
1E
100
AcDbEntity
  8
0
100
AcDb2dPolyline
 66
     1
 10
0.0
 20
0.0
 30
0.0
  0
VERTEX
  5
36E0
330
3193
100
AcDbEntity
  8
0
100
AcDbVertex
100
AcDb2dVertex
 10
5.42714406683173
 20
4.520075165560224
 30
0.0
  0
VERTEX
  5
36E1
330
3193
100
AcDbEntity
  8
0
100
AcDbVertex
100
AcDb2dVertex
 10
5.432410995965589
 20
4.520075165560224
 30
0.0
  0
VERTEX
  5
36E2
330
3193
100
AcDbEntity
  8
0
100
AcDbVertex
100
AcDb2dVertex
 10
5.435044460532517
 20
4.520075165560224
 30
0.0
  0
SEQEND
  5
36E3
330
3193
100
AcDbEntity
  8
0
  0
POLYLINE
  5
3198
330
1E
100
AcDbEntity
  8
0
100
AcDb2dPolyline
 66
     1
 10
0.0
 20
0.0
 30
0.0
  0
VERTEX
  5
36E4
330
3198
100
AcDbEntity
  8
0
100
AcDbVertex
100
AcDb2dVertex
 10
5.425827334548266
 20
4.518758433276758
 30
0.0
  0
VERTEX
  5
36E5
330
3198
100
AcDbEntity
  8
0
100
AcDbVertex
100
AcDb2dVertex
 10
5.425827334548266
 20
4.5134915041429
 30
0.0
  0
VERTEX
  5
36E6
330
3198
100
AcDbEntity
  8
0
100
AcDbVertex
100
AcDb2dVertex
 10
5.425827334548266
 20
4.510858039575971
 30
0.0
  0
SEQEND
  5
36E7
330
3198
100
AcDbEntity
  8
0
  0
LINE
  5
319D
330
1E
100
AcDbEntity
  8
0
100
AcDbLine
 10
5.425827334548267
 20
4.518758433276758
 30
0.0
 11
5.427144066831731
 21
4.520075165560224
 31
0.0
  0
LINE
  5
319E
330
1E
100
AcDbEntity
  8
0
100
AcDbLine
 10
5.435044460532518
 20
4.637264338788569
 30
0.0
 11
5.435044460532518
 21
4.626730480520853
 31
0.0
  0
POLYLINE
  5
319F
330
1E
100
AcDbEntity
  8
0
100
AcDb2dPolyline
 66
     1
 10
0.0
 20
0.0
 30
0.0
  0
VERTEX
  5
36E8
330
319F
100
AcDbEntity
  8
0
100
AcDbVertex
100
AcDb2dVertex
 10
5.435044460532517
 20
4.626730480520853
 30
0.0
  0
VERTEX
  5
36E9
330
319F
100
AcDbEntity
  8
0
100
AcDbVertex
100
AcDb2dVertex
 10
5.435044460532517
 20
4.612246425402743
 30
0.0
  0
VERTEX
  5
36EA
330
319F
100
AcDbEntity
  8
0
100
AcDbVertex
100
AcDb2dVertex
 10
5.435044460532517
 20
4.606979496268884
 30
0.0
  0
SEQEND
  5
36EB
330
319F
100
AcDbEntity
  8
0
  0
LINE
  5
31A4
330
1E
100
AcDbEntity
  8
0
100
AcDbLine
 10
5.435044460532518
 20
4.606979496268884
 30
0.0
 11
5.435044460532518
 21
4.55957713406416
 31
0.0
  0
POLYLINE
  5
31A5
330
1E
100
AcDbEntity
  8
0
100
AcDb2dPolyline
 66
     1
 10
0.0
 20
0.0
 30
0.0
  0
VERTEX
  5
36EC
330
31A5
100
AcDbEntity
  8
0
100
AcDbVertex
100
AcDb2dVertex
 10
5.424510602264801
 20
4.606979496268884
 30
0.0
  0
VERTEX
  5
36ED
330
31A5
100
AcDbEntity
  8
0
100
AcDbVertex
100
AcDb2dVertex
 10
5.424510602264801
 20
4.613563157686207
 30
0.0
  0
VERTEX
  5
36EE
330
31A5
100
AcDbEntity
  8
0
100
AcDbVertex
100
AcDb2dVertex
 10
5.424510602264801
 20
4.616196622253136
 30
0.0
  0
SEQEND
  5
36EF
330
31A5
100
AcDbEntity
  8
0
  0
POLYLINE
  5
31AA
330
1E
100
AcDbEntity
  8
0
100
AcDb2dPolyline
 66
     1
 10
0.0
 20
0.0
 30
0.0
  0
VERTEX
  5
36F0
330
31AA
100
AcDbEntity
  8
0
100
AcDbVertex
100
AcDb2dVertex
 10
5.424510602264801
 20
4.606979496268884
 30
0.0
  0
VERTEX
  5
36F1
330
31AA
100
AcDbEntity
  8
0
100
AcDbVertex
100
AcDb2dVertex
 10
5.432410995965589
 20
4.606979496268884
 30
0.0
  0
VERTEX
  5
36F2
330
31AA
100
AcDbEntity
  8
0
100
AcDbVertex
100
AcDb2dVertex
 10
5.435044460532517
 20
4.606979496268884
 30
0.0
  0
SEQEND
  5
36F3
330
31AA
100
AcDbEntity
  8
0
  0
POLYLINE
  5
31AF
330
1E
100
AcDbEntity
  8
0
100
AcDb2dPolyline
 66
     1
 10
0.0
 20
0.0
 30
0.0
  0
VERTEX
  5
36F4
330
31AF
100
AcDbEntity
  8
0
100
AcDbVertex
100
AcDb2dVertex
 10
5.424510602264801
 20
4.616196622253136
 30
0.0
  0
VERTEX
  5
36F5
330
31AF
100
AcDbEntity
  8
0
100
AcDbVertex
100
AcDb2dVertex
 10
5.432410995965589
 20
4.613563157686207
 30
0.0
  0
VERTEX
  5
36F6
330
31AF
100
AcDbEntity
  8
0
100
AcDbVertex
100
AcDb2dVertex
 10
5.435044460532517
 20
4.606979496268884
 30
0.0
  0
SEQEND
  5
36F7
330
31AF
100
AcDbEntity
  8
0
  0
LINE
  5
31B4
330
1E
100
AcDbEntity
  8
0
100
AcDbLine
 10
5.424510602264801
 20
4.55957713406416
 30
0.0
 11
5.424510602264801
 21
4.606979496268884
 31
0.0
  0
POLYLINE
  5
31B5
330
1E
100
AcDbEntity
  8
0
100
AcDb2dPolyline
 66
     1
 10
0.0
 20
0.0
 30
0.0
  0
VERTEX
  5
36F8
330
31B5
100
AcDbEntity
  8
0
100
AcDbVertex
100
AcDb2dVertex
 10
5.424510602264801
 20
4.55957713406416
 30
0.0
  0
VERTEX
  5
36F9
330
31B5
100
AcDbEntity
  8
0
100
AcDbVertex
100
AcDb2dVertex
 10
5.432410995965589
 20
4.55957713406416
 30
0.0
  0
VERTEX
  5
36FA
330
31B5
100
AcDbEntity
  8
0
100
AcDbVertex
100
AcDb2dVertex
 10
5.435044460532517
 20
4.55957713406416
 30
0.0
  0
SEQEND
  5
36FB
330
31B5
100
AcDbEntity
  8
0
  0
POLYLINE
  5
31BA
330
1E
100
AcDbEntity
  8
0
100
AcDb2dPolyline
 66
     1
 10
0.0
 20
0.0
 30
0.0
  0
VERTEX
  5
36FC
330
31BA
100
AcDbEntity
  8
0
100
AcDbVertex
100
AcDb2dVertex
 10
5.425827334548266
 20
4.549043275796443
 30
0.0
  0
VERTEX
  5
36FD
330
31BA
100
AcDbEntity
  8
0
100
AcDbVertex
100
AcDb2dVertex
 10
5.425827334548266
 20
4.551676740363373
 30
0.0
  0
VERTEX
  5
36FE
330
31BA
100
AcDbEntity
  8
0
100
AcDbVertex
100
AcDb2dVertex
 10
5.424510602264801
 20
4.55957713406416
 30
0.0
  0
SEQEND
  5
36FF
330
31BA
100
AcDbEntity
  8
0
  0
POLYLINE
  5
31BF
330
1E
100
AcDbEntity
  8
0
100
AcDb2dPolyline
 66
     1
 10
0.0
 20
0.0
 30
0.0
  0
VERTEX
  5
3700
330
31BF
100
AcDbEntity
  8
0
100
AcDbVertex
100
AcDb2dVertex
 10
5.425827334548266
 20
4.549043275796443
 30
0.0
  0
VERTEX
  5
3701
330
31BF
100
AcDbEntity
  8
0
100
AcDbVertex
100
AcDb2dVertex
 10
5.432410995965589
 20
4.552993472646837
 30
0.0
  0
VERTEX
  5
3702
330
31BF
100
AcDbEntity
  8
0
100
AcDbVertex
100
AcDb2dVertex
 10
5.435044460532517
 20
4.55957713406416
 30
0.0
  0
SEQEND
  5
3703
330
31BF
100
AcDbEntity
  8
0
  0
LINE
  5
31C4
330
1E
100
AcDbEntity
  8
0
100
AcDbLine
 10
5.309954893603385
 20
4.502957645875183
 30
0.0
 11
5.425827334548267
 21
4.518758433276758
 31
0.0
  0
LINE
  5
31C5
330
1E
100
AcDbEntity
  8
0
100
AcDbLine
 10
5.425827334548267
 20
4.510858039575971
 30
0.0
 11
5.309954893603385
 21
4.493740519890932
 31
0.0
  0
POLYLINE
  5
31C6
330
1E
100
AcDbEntity
  8
0
100
AcDb2dPolyline
 66
     1
 10
0.0
 20
0.0
 30
0.0
  0
VERTEX
  5
3704
330
31C6
100
AcDbEntity
  8
0
100
AcDbVertex
100
AcDb2dVertex
 10
5.424510602264801
 20
4.646481464772822
 30
0.0
  0
VERTEX
  5
3705
330
31C6
100
AcDbEntity
  8
0
100
AcDbVertex
100
AcDb2dVertex
 10
5.432410995965589
 20
4.643848000205892
 30
0.0
  0
VERTEX
  5
3706
330
31C6
100
AcDbEntity
  8
0
100
AcDbVertex
100
AcDb2dVertex
 10
5.435044460532517
 20
4.637264338788569
 30
0.0
  0
SEQEND
  5
3707
330
31C6
100
AcDbEntity
  8
0
  0
POLYLINE
  5
31CB
330
1E
100
AcDbEntity
  8
0
100
AcDb2dPolyline
 66
     1
 10
0.0
 20
0.0
 30
0.0
  0
VERTEX
  5
3708
330
31CB
100
AcDbEntity
  8
0
100
AcDbVertex
100
AcDb2dVertex
 10
5.424510602264801
 20
4.637264338788569
 30
0.0
  0
VERTEX
  5
3709
330
31CB
100
AcDbEntity
  8
0
100
AcDbVertex
100
AcDb2dVertex
 10
5.424510602264801
 20
4.643848000205892
 30
0.0
  0
VERTEX
  5
370A
330
31CB
100
AcDbEntity
  8
0
100
AcDbVertex
100
AcDb2dVertex
 10
5.424510602264801
 20
4.646481464772822
 30
0.0
  0
SEQEND
  5
370B
330
31CB
100
AcDbEntity
  8
0
  0
POLYLINE
  5
31D0
330
1E
100
AcDbEntity
  8
0
100
AcDb2dPolyline
 66
     1
 10
0.0
 20
0.0
 30
0.0
  0
VERTEX
  5
370C
330
31D0
100
AcDbEntity
  8
0
100
AcDbVertex
100
AcDb2dVertex
 10
5.424510602264801
 20
4.637264338788569
 30
0.0
  0
VERTEX
  5
370D
330
31D0
100
AcDbEntity
  8
0
100
AcDbVertex
100
AcDb2dVertex
 10
5.432410995965589
 20
4.637264338788569
 30
0.0
  0
VERTEX
  5
370E
330
31D0
100
AcDbEntity
  8
0
100
AcDbVertex
100
AcDb2dVertex
 10
5.435044460532517
 20
4.637264338788569
 30
0.0
  0
SEQEND
  5
370F
330
31D0
100
AcDbEntity
  8
0
  0
LINE
  5
31D5
330
1E
100
AcDbEntity
  8
0
100
AcDbLine
 10
5.424510602264801
 20
4.626730480520853
 30
0.0
 11
5.424510602264801
 21
4.637264338788569
 31
0.0
  0
POLYLINE
  5
31D6
330
1E
100
AcDbEntity
  8
0
100
AcDb2dPolyline
 66
     1
 10
0.0
 20
0.0
 30
0.0
  0
VERTEX
  5
3710
330
31D6
100
AcDbEntity
  8
0
100
AcDbVertex
100
AcDb2dVertex
 10
5.424510602264801
 20
4.626730480520853
 30
0.0
  0
VERTEX
  5
3711
330
31D6
100
AcDbEntity
  8
0
100
AcDbVertex
100
AcDb2dVertex
 10
5.432410995965589
 20
4.626730480520853
 30
0.0
  0
VERTEX
  5
3712
330
31D6
100
AcDbEntity
  8
0
100
AcDbVertex
100
AcDb2dVertex
 10
5.435044460532517
 20
4.626730480520853
 30
0.0
  0
SEQEND
  5
3713
330
31D6
100
AcDbEntity
  8
0
  0
POLYLINE
  5
31DB
330
1E
100
AcDbEntity
  8
0
100
AcDb2dPolyline
 66
     1
 10
0.0
 20
0.0
 30
0.0
  0
VERTEX
  5
3714
330
31DB
100
AcDbEntity
  8
0
100
AcDbVertex
100
AcDb2dVertex
 10
5.424510602264801
 20
4.616196622253136
 30
0.0
  0
VERTEX
  5
3715
330
31DB
100
AcDbEntity
  8
0
100
AcDbVertex
100
AcDb2dVertex
 10
5.424510602264801
 20
4.62014681910353
 30
0.0
  0
VERTEX
  5
3716
330
31DB
100
AcDbEntity
  8
0
100
AcDbVertex
100
AcDb2dVertex
 10
5.424510602264801
 20
4.626730480520853
 30
0.0
  0
SEQEND
  5
3717
330
31DB
100
AcDbEntity
  8
0
  0
LINE
  5
31E0
330
1E
100
AcDbEntity
  8
0
100
AcDbLine
 10
5.424510602264801
 20
4.606979496268884
 30
0.0
 11
5.309954893603385
 21
4.608296228552348
 31
0.0
  0
LINE
  5
31E1
330
1E
100
AcDbEntity
  8
0
100
AcDbLine
 10
5.309954893603385
 20
4.618830086820065
 30
0.0
 11
5.424510602264801
 21
4.616196622253137
 31
0.0
  0
LINE
  5
31E2
330
1E
100
AcDbEntity
  8
0
100
AcDbLine
 10
5.309954893603385
 20
4.549043275796443
 30
0.0
 11
5.424510602264801
 21
4.55957713406416
 31
0.0
  0
LINE
  5
31E3
330
1E
100
AcDbEntity
  8
0
100
AcDbLine
 10
5.425827334548267
 20
4.549043275796443
 30
0.0
 11
5.309954893603385
 21
4.538509417528727
 31
0.0
  0
LINE
  5
31E4
330
1E
100
AcDbEntity
  8
0
100
AcDbLine
 10
5.309954893603385
 20
4.64911492933975
 30
0.0
 11
5.424510602264801
 21
4.646481464772822
 31
0.0
  0
LINE
  5
31E5
330
1E
100
AcDbEntity
  8
0
100
AcDbLine
 10
5.424510602264801
 20
4.637264338788569
 30
0.0
 11
5.309954893603385
 21
4.638581071072033
 31
0.0
  0
LINE
  5
31E6
330
1E
100
AcDbEntity
  8
0
100
AcDbLine
 10
5.309954893603385
 20
4.629363945087781
 30
0.0
 11
5.424510602264801
 21
4.626730480520853
 31
0.0
  0
LINE
  5
31E7
330
1E
100
AcDbEntity
  8
0
100
AcDbLine
 10
5.432410995965589
 20
5.871042488394869
 30
0.0
 11
5.432410995965589
 21
5.909227724615341
 31
0.0
  0
LINE
  5
31E8
330
1E
100
AcDbEntity
  8
0
100
AcDbLine
 10
5.425827334548267
 20
5.859191897843688
 30
0.0
 11
5.432410995965589
 21
5.871042488394869
 31
0.0
  0
LINE
  5
31E9
330
1E
100
AcDbEntity
  8
0
100
AcDbLine
 10
5.361307452658502
 20
5.815739732489356
 30
0.0
 11
5.425827334548267
 21
5.859191897843688
 31
0.0
  0
LINE
  5
31EA
330
1E
100
AcDbEntity
  8
0
100
AcDbLine
 10
5.361307452658502
 20
5.034917488394869
 30
0.0
 11
5.361307452658502
 21
5.815739732489356
 31
0.0
  0
LINE
  5
31EB
330
1E
100
AcDbEntity
  8
0
100
AcDbLine
 10
5.361307452658502
 20
5.034917488394869
 30
0.0
 11
5.373158043209683
 21
5.034917488394869
 31
0.0
  0
POLYLINE
  5
31EC
330
1E
100
AcDbEntity
  8
0
100
AcDb2dPolyline
 66
     1
 10
0.0
 20
0.0
 30
0.0
  0
VERTEX
  5
3718
330
31EC
100
AcDbEntity
  8
0
100
AcDbVertex
100
AcDb2dVertex
 10
5.373158043209683
 20
5.034917488394869
 30
0.0
  0
VERTEX
  5
3719
330
31EC
100
AcDbEntity
  8
0
100
AcDbVertex
100
AcDb2dVertex
 10
5.395542492028581
 20
5.029650559261011
 30
0.0
  0
VERTEX
  5
371A
330
31EC
100
AcDbEntity
  8
0
100
AcDbVertex
100
AcDb2dVertex
 10
5.41529347628055
 20
5.016483236426365
 30
0.0
  0
VERTEX
  5
371B
330
31EC
100
AcDbEntity
  8
0
100
AcDbVertex
100
AcDb2dVertex
 10
5.42714406683173
 20
4.998048984457861
 30
0.0
  0
VERTEX
  5
371C
330
31EC
100
AcDbEntity
  8
0
100
AcDbVertex
100
AcDb2dVertex
 10
5.432410995965589
 20
4.974347803355498
 30
0.0
  0
SEQEND
  5
371D
330
31EC
100
AcDbEntity
  8
0
  0
LINE
  5
31F3
330
1E
100
AcDbEntity
  8
0
100
AcDbLine
 10
5.309954893603385
 20
5.910544456898806
 30
0.0
 11
5.432410995965589
 21
5.909227724615341
 31
0.0
  0
LINE
  5
31F4
330
1E
100
AcDbEntity
  8
0
100
AcDbLine
 10
5.432410995965589
 20
4.93747929941849
 30
0.0
 11
5.432410995965589
 21
4.974347803355498
 31
0.0
  0
LINE
  5
31F5
330
1E
100
AcDbEntity
  8
0
100
AcDbLine
 10
5.309954893603385
 20
4.934845834851562
 30
0.0
 11
5.432410995965589
 21
4.93747929941849
 31
0.0
  0
LINE
  5
31F6
330
1E
100
AcDbEntity
  8
0
100
AcDbLine
 10
5.432410995965589
 20
7.025816700993294
 30
0.0
 11
5.432410995965589
 21
7.062685204930302
 31
0.0
  0
LINE
  5
31F7
330
1E
100
AcDbEntity
  8
0
100
AcDbLine
 10
5.425827334548267
 20
7.012649378158648
 30
0.0
 11
5.432410995965589
 21
7.025816700993294
 31
0.0
  0
LINE
  5
31F8
330
1E
100
AcDbEntity
  8
0
100
AcDbLine
 10
5.361307452658502
 20
6.969197212804317
 30
0.0
 11
5.425827334548267
 21
7.012649378158648
 31
0.0
  0
LINE
  5
31F9
330
1E
100
AcDbEntity
  8
0
100
AcDbLine
 10
5.361307452658502
 20
6.189691700993294
 30
0.0
 11
5.361307452658502
 21
6.969197212804317
 31
0.0
  0
LINE
  5
31FA
330
1E
100
AcDbEntity
  8
0
100
AcDbLine
 10
5.361307452658502
 20
6.189691700993294
 30
0.0
 11
5.373158043209683
 21
6.18837496870983
 31
0.0
  0
POLYLINE
  5
31FB
330
1E
100
AcDbEntity
  8
0
100
AcDb2dPolyline
 66
     1
 10
0.0
 20
0.0
 30
0.0
  0
VERTEX
  5
371E
330
31FB
100
AcDbEntity
  8
0
100
AcDbVertex
100
AcDb2dVertex
 10
5.373158043209683
 20
6.18837496870983
 30
0.0
  0
VERTEX
  5
371F
330
31FB
100
AcDbEntity
  8
0
100
AcDbVertex
100
AcDb2dVertex
 10
5.395542492028581
 20
6.184424771859435
 30
0.0
  0
VERTEX
  5
3720
330
31FB
100
AcDbEntity
  8
0
100
AcDbVertex
100
AcDb2dVertex
 10
5.41529347628055
 20
6.171257449024791
 30
0.0
  0
VERTEX
  5
3721
330
31FB
100
AcDbEntity
  8
0
100
AcDbVertex
100
AcDb2dVertex
 10
5.42714406683173
 20
6.151506464772822
 30
0.0
  0
VERTEX
  5
3722
330
31FB
100
AcDbEntity
  8
0
100
AcDbVertex
100
AcDb2dVertex
 10
5.432410995965589
 20
6.129122015953924
 30
0.0
  0
SEQEND
  5
3723
330
31FB
100
AcDbEntity
  8
0
  0
LINE
  5
3202
330
1E
100
AcDbEntity
  8
0
100
AcDbLine
 10
5.309954893603385
 20
7.065318669497232
 30
0.0
 11
5.432410995965589
 21
7.062685204930302
 31
0.0
  0
LINE
  5
3203
330
1E
100
AcDbEntity
  8
0
100
AcDbLine
 10
5.432410995965589
 20
6.090936779733452
 30
0.0
 11
5.432410995965589
 21
6.129122015953924
 31
0.0
  0
LINE
  5
3204
330
1E
100
AcDbEntity
  8
0
100
AcDbLine
 10
5.309954893603385
 20
6.088303315166523
 30
0.0
 11
5.432410995965589
 21
6.090936779733452
 31
0.0
  0
LINE
  5
3205
330
1E
100
AcDbEntity
  8
0
100
AcDbLine
 10
5.435044460532518
 20
7.307597409654711
 30
0.0
 11
5.435044460532518
 21
7.294430086820065
 31
0.0
  0
LINE
  5
3206
330
1E
100
AcDbEntity
  8
0
100
AcDbLine
 10
5.425827334548267
 20
7.318131267922428
 30
0.0
 11
5.435044460532518
 21
7.307597409654711
 31
0.0
  0
POLYLINE
  5
3207
330
1E
100
AcDbEntity
  8
0
100
AcDb2dPolyline
 66
     1
 10
0.0
 20
0.0
 30
0.0
  0
VERTEX
  5
3724
330
3207
100
AcDbEntity
  8
0
100
AcDbVertex
100
AcDb2dVertex
 10
5.425827334548266
 20
7.318131267922428
 30
0.0
  0
VERTEX
  5
3725
330
3207
100
AcDbEntity
  8
0
100
AcDbVertex
100
AcDb2dVertex
 10
5.425827334548266
 20
7.315497803355498
 30
0.0
  0
VERTEX
  5
3726
330
3207
100
AcDbEntity
  8
0
100
AcDbVertex
100
AcDb2dVertex
 10
5.425827334548266
 20
7.308914141938176
 30
0.0
  0
SEQEND
  5
3727
330
3207
100
AcDbEntity
  8
0
  0
LINE
  5
320C
330
1E
100
AcDbEntity
  8
0
100
AcDbLine
 10
5.427144066831731
 20
7.307597409654711
 30
0.0
 11
5.425827334548267
 21
7.308914141938176
 31
0.0
  0
POLYLINE
  5
320D
330
1E
100
AcDbEntity
  8
0
100
AcDb2dPolyline
 66
     1
 10
0.0
 20
0.0
 30
0.0
  0
VERTEX
  5
3728
330
320D
100
AcDbEntity
  8
0
100
AcDbVertex
100
AcDb2dVertex
 10
5.435044460532517
 20
7.307597409654711
 30
0.0
  0
VERTEX
  5
3729
330
320D
100
AcDbEntity
  8
0
100
AcDbVertex
100
AcDb2dVertex
 10
5.432410995965589
 20
7.307597409654711
 30
0.0
  0
VERTEX
  5
372A
330
320D
100
AcDbEntity
  8
0
100
AcDbVertex
100
AcDb2dVertex
 10
5.42714406683173
 20
7.307597409654711
 30
0.0
  0
SEQEND
  5
372B
330
320D
100
AcDbEntity
  8
0
  0
LINE
  5
3212
330
1E
100
AcDbEntity
  8
0
100
AcDbLine
 10
5.427144066831731
 20
7.294430086820065
 30
0.0
 11
5.427144066831731
 21
7.307597409654711
 31
0.0
  0
LINE
  5
3213
330
1E
100
AcDbEntity
  8
0
100
AcDbLine
 10
5.435044460532518
 20
7.26941217343424
 30
0.0
 11
5.435044460532518
 21
7.22069307894605
 31
0.0
  0
POLYLINE
  5
3214
330
1E
100
AcDbEntity
  8
0
100
AcDb2dPolyline
 66
     1
 10
0.0
 20
0.0
 30
0.0
  0
VERTEX
  5
372C
330
3214
100
AcDbEntity
  8
0
100
AcDbVertex
100
AcDb2dVertex
 10
5.435044460532517
 20
7.22069307894605
 30
0.0
  0
VERTEX
  5
372D
330
3214
100
AcDbEntity
  8
0
100
AcDbVertex
100
AcDb2dVertex
 10
5.435044460532517
 20
7.215426149812191
 30
0.0
  0
VERTEX
  5
372E
330
3214
100
AcDbEntity
  8
0
100
AcDbVertex
100
AcDb2dVertex
 10
5.435044460532517
 20
7.200942094694083
 30
0.0
  0
SEQEND
  5
372F
330
3214
100
AcDbEntity
  8
0
  0
LINE
  5
3219
330
1E
100
AcDbEntity
  8
0
100
AcDbLine
 10
5.435044460532518
 20
7.200942094694083
 30
0.0
 11
5.435044460532518
 21
7.19172496870983
 31
0.0
  0
POLYLINE
  5
321A
330
1E
100
AcDbEntity
  8
0
100
AcDb2dPolyline
 66
     1
 10
0.0
 20
0.0
 30
0.0
  0
VERTEX
  5
3730
330
321A
100
AcDbEntity
  8
0
100
AcDbVertex
100
AcDb2dVertex
 10
5.435044460532517
 20
7.191724968709829
 30
0.0
  0
VERTEX
  5
3731
330
321A
100
AcDbEntity
  8
0
100
AcDbVertex
100
AcDb2dVertex
 10
5.432410995965589
 20
7.191724968709829
 30
0.0
  0
VERTEX
  5
3732
330
321A
100
AcDbEntity
  8
0
100
AcDbVertex
100
AcDb2dVertex
 10
5.424510602264801
 20
7.191724968709829
 30
0.0
  0
SEQEND
  5
3733
330
321A
100
AcDbEntity
  8
0
  0
POLYLINE
  5
321F
330
1E
100
AcDbEntity
  8
0
100
AcDb2dPolyline
 66
     1
 10
0.0
 20
0.0
 30
0.0
  0
VERTEX
  5
3734
330
321F
100
AcDbEntity
  8
0
100
AcDbVertex
100
AcDb2dVertex
 10
5.424510602264801
 20
7.181191110442114
 30
0.0
  0
VERTEX
  5
3735
330
321F
100
AcDbEntity
  8
0
100
AcDbVertex
100
AcDb2dVertex
 10
5.424510602264801
 20
7.183824575009042
 30
0.0
  0
VERTEX
  5
3736
330
321F
100
AcDbEntity
  8
0
100
AcDbVertex
100
AcDb2dVertex
 10
5.424510602264801
 20
7.191724968709829
 30
0.0
  0
SEQEND
  5
3737
330
321F
100
AcDbEntity
  8
0
  0
POLYLINE
  5
3224
330
1E
100
AcDbEntity
  8
0
100
AcDb2dPolyline
 66
     1
 10
0.0
 20
0.0
 30
0.0
  0
VERTEX
  5
3738
330
3224
100
AcDbEntity
  8
0
100
AcDbVertex
100
AcDb2dVertex
 10
5.435044460532517
 20
7.191724968709829
 30
0.0
  0
VERTEX
  5
3739
330
3224
100
AcDbEntity
  8
0
100
AcDbVertex
100
AcDb2dVertex
 10
5.432410995965589
 20
7.183824575009042
 30
0.0
  0
VERTEX
  5
373A
330
3224
100
AcDbEntity
  8
0
100
AcDbVertex
100
AcDb2dVertex
 10
5.424510602264801
 20
7.181191110442114
 30
0.0
  0
SEQEND
  5
373B
330
3224
100
AcDbEntity
  8
0
  0
LINE
  5
3229
330
1E
100
AcDbEntity
  8
0
100
AcDbLine
 10
5.309954893603385
 20
7.333932055324003
 30
0.0
 11
5.425827334548267
 21
7.318131267922428
 31
0.0
  0
LINE
  5
322A
330
1E
100
AcDbEntity
  8
0
100
AcDbLine
 10
5.425827334548267
 20
7.308914141938176
 30
0.0
 11
5.309954893603385
 21
7.326031661623215
 31
0.0
  0
POLYLINE
  5
322B
330
1E
100
AcDbEntity
  8
0
100
AcDb2dPolyline
 66
     1
 10
0.0
 20
0.0
 30
0.0
  0
VERTEX
  5
373C
330
322B
100
AcDbEntity
  8
0
100
AcDbVertex
100
AcDb2dVertex
 10
5.435044460532517
 20
7.26941217343424
 30
0.0
  0
VERTEX
  5
373D
330
322B
100
AcDbEntity
  8
0
100
AcDbVertex
100
AcDb2dVertex
 10
5.432410995965589
 20
7.275995834851562
 30
0.0
  0
VERTEX
  5
373E
330
322B
100
AcDbEntity
  8
0
100
AcDbVertex
100
AcDb2dVertex
 10
5.425827334548266
 20
7.27862929941849
 30
0.0
  0
SEQEND
  5
373F
330
322B
100
AcDbEntity
  8
0
  0
POLYLINE
  5
3230
330
1E
100
AcDbEntity
  8
0
100
AcDb2dPolyline
 66
     1
 10
0.0
 20
0.0
 30
0.0
  0
VERTEX
  5
3740
330
3230
100
AcDbEntity
  8
0
100
AcDbVertex
100
AcDb2dVertex
 10
5.424510602264801
 20
7.26941217343424
 30
0.0
  0
VERTEX
  5
3741
330
3230
100
AcDbEntity
  8
0
100
AcDbVertex
100
AcDb2dVertex
 10
5.425827334548266
 20
7.275995834851562
 30
0.0
  0
VERTEX
  5
3742
330
3230
100
AcDbEntity
  8
0
100
AcDbVertex
100
AcDb2dVertex
 10
5.425827334548266
 20
7.27862929941849
 30
0.0
  0
SEQEND
  5
3743
330
3230
100
AcDbEntity
  8
0
  0
POLYLINE
  5
3235
330
1E
100
AcDbEntity
  8
0
100
AcDb2dPolyline
 66
     1
 10
0.0
 20
0.0
 30
0.0
  0
VERTEX
  5
3744
330
3235
100
AcDbEntity
  8
0
100
AcDbVertex
100
AcDb2dVertex
 10
5.435044460532517
 20
7.26941217343424
 30
0.0
  0
VERTEX
  5
3745
330
3235
100
AcDbEntity
  8
0
100
AcDbVertex
100
AcDb2dVertex
 10
5.432410995965589
 20
7.26941217343424
 30
0.0
  0
VERTEX
  5
3746
330
3235
100
AcDbEntity
  8
0
100
AcDbVertex
100
AcDb2dVertex
 10
5.424510602264801
 20
7.26941217343424
 30
0.0
  0
SEQEND
  5
3747
330
3235
100
AcDbEntity
  8
0
  0
LINE
  5
323A
330
1E
100
AcDbEntity
  8
0
100
AcDbLine
 10
5.424510602264801
 20
7.22069307894605
 30
0.0
 11
5.424510602264801
 21
7.26941217343424
 31
0.0
  0
POLYLINE
  5
323B
330
1E
100
AcDbEntity
  8
0
100
AcDb2dPolyline
 66
     1
 10
0.0
 20
0.0
 30
0.0
  0
VERTEX
  5
3748
330
323B
100
AcDbEntity
  8
0
100
AcDbVertex
100
AcDb2dVertex
 10
5.435044460532517
 20
7.22069307894605
 30
0.0
  0
VERTEX
  5
3749
330
323B
100
AcDbEntity
  8
0
100
AcDbVertex
100
AcDb2dVertex
 10
5.432410995965589
 20
7.22069307894605
 30
0.0
  0
VERTEX
  5
374A
330
323B
100
AcDbEntity
  8
0
100
AcDbVertex
100
AcDb2dVertex
 10
5.424510602264801
 20
7.22069307894605
 30
0.0
  0
SEQEND
  5
374B
330
323B
100
AcDbEntity
  8
0
  0
POLYLINE
  5
3240
330
1E
100
AcDbEntity
  8
0
100
AcDb2dPolyline
 66
     1
 10
0.0
 20
0.0
 30
0.0
  0
VERTEX
  5
374C
330
3240
100
AcDbEntity
  8
0
100
AcDbVertex
100
AcDb2dVertex
 10
5.424510602264801
 20
7.211475952961798
 30
0.0
  0
VERTEX
  5
374D
330
3240
100
AcDbEntity
  8
0
100
AcDbVertex
100
AcDb2dVertex
 10
5.424510602264801
 20
7.214109417528726
 30
0.0
  0
VERTEX
  5
374E
330
3240
100
AcDbEntity
  8
0
100
AcDbVertex
100
AcDb2dVertex
 10
5.424510602264801
 20
7.22069307894605
 30
0.0
  0
SEQEND
  5
374F
330
3240
100
AcDbEntity
  8
0
  0
POLYLINE
  5
3245
330
1E
100
AcDbEntity
  8
0
100
AcDb2dPolyline
 66
     1
 10
0.0
 20
0.0
 30
0.0
  0
VERTEX
  5
3750
330
3245
100
AcDbEntity
  8
0
100
AcDbVertex
100
AcDb2dVertex
 10
5.435044460532517
 20
7.22069307894605
 30
0.0
  0
VERTEX
  5
3751
330
3245
100
AcDbEntity
  8
0
100
AcDbVertex
100
AcDb2dVertex
 10
5.432410995965589
 20
7.214109417528726
 30
0.0
  0
VERTEX
  5
3752
330
3245
100
AcDbEntity
  8
0
100
AcDbVertex
100
AcDb2dVertex
 10
5.424510602264801
 20
7.211475952961798
 30
0.0
  0
SEQEND
  5
3753
330
3245
100
AcDbEntity
  8
0
  0
POLYLINE
  5
324A
330
1E
100
AcDbEntity
  8
0
100
AcDb2dPolyline
 66
     1
 10
0.0
 20
0.0
 30
0.0
  0
VERTEX
  5
3754
330
324A
100
AcDbEntity
  8
0
100
AcDbVertex
100
AcDb2dVertex
 10
5.424510602264801
 20
7.200942094694083
 30
0.0
  0
VERTEX
  5
3755
330
324A
100
AcDbEntity
  8
0
100
AcDbVertex
100
AcDb2dVertex
 10
5.424510602264801
 20
7.20884248839487
 30
0.0
  0
VERTEX
  5
3756
330
324A
100
AcDbEntity
  8
0
100
AcDbVertex
100
AcDb2dVertex
 10
5.424510602264801
 20
7.211475952961798
 30
0.0
  0
SEQEND
  5
3757
330
324A
100
AcDbEntity
  8
0
  0
POLYLINE
  5
324F
330
1E
100
AcDbEntity
  8
0
100
AcDb2dPolyline
 66
     1
 10
0.0
 20
0.0
 30
0.0
  0
VERTEX
  5
3758
330
324F
100
AcDbEntity
  8
0
100
AcDbVertex
100
AcDb2dVertex
 10
5.435044460532517
 20
7.200942094694083
 30
0.0
  0
VERTEX
  5
3759
330
324F
100
AcDbEntity
  8
0
100
AcDbVertex
100
AcDb2dVertex
 10
5.432410995965589
 20
7.200942094694083
 30
0.0
  0
VERTEX
  5
375A
330
324F
100
AcDbEntity
  8
0
100
AcDbVertex
100
AcDb2dVertex
 10
5.424510602264801
 20
7.200942094694083
 30
0.0
  0
SEQEND
  5
375B
330
324F
100
AcDbEntity
  8
0
  0
LINE
  5
3254
330
1E
100
AcDbEntity
  8
0
100
AcDbLine
 10
5.424510602264801
 20
7.19172496870983
 30
0.0
 11
5.424510602264801
 21
7.200942094694083
 31
0.0
  0
LINE
  5
3255
330
1E
100
AcDbEntity
  8
0
100
AcDbLine
 10
5.140096429036455
 20
8.171373787607468
 30
0.0
 11
5.309954893603385
 21
8.174007252174398
 31
0.0
  0
LINE
  5
3256
330
1E
100
AcDbEntity
  8
0
100
AcDbLine
 10
5.424510602264801
 20
7.181191110442114
 30
0.0
 11
5.309954893603385
 21
7.178557645875184
 31
0.0
  0
LINE
  5
3257
330
1E
100
AcDbEntity
  8
0
100
AcDbLine
 10
5.309954893603385
 20
7.189091504142901
 30
0.0
 11
5.424510602264801
 21
7.19172496870983
 31
0.0
  0
LINE
  5
3258
330
1E
100
AcDbEntity
  8
0
100
AcDbLine
 10
5.309954893603385
 20
7.289163157686207
 30
0.0
 11
5.425827334548267
 21
7.27862929941849
 31
0.0
  0
LINE
  5
3259
330
1E
100
AcDbEntity
  8
0
100
AcDbLine
 10
5.424510602264801
 20
7.26941217343424
 30
0.0
 11
5.309954893603385
 21
7.27862929941849
 31
0.0
  0
LINE
  5
325A
330
1E
100
AcDbEntity
  8
0
100
AcDbLine
 10
5.309954893603385
 20
7.219376346662585
 30
0.0
 11
5.424510602264801
 21
7.22069307894605
 31
0.0
  0
LINE
  5
325B
330
1E
100
AcDbEntity
  8
0
100
AcDbLine
 10
5.424510602264801
 20
7.211475952961798
 30
0.0
 11
5.309954893603385
 21
7.208842488394869
 31
0.0
  0
LINE
  5
325C
330
1E
100
AcDbEntity
  8
0
100
AcDbLine
 10
5.424510602264801
 20
7.200942094694083
 30
0.0
 11
5.309954893603385
 21
7.199625362410617
 31
0.0
  0
POLYLINE
  5
325D
330
1E
100
AcDbEntity
  8
0
100
AcDb2dPolyline
 66
     1
 10
0.0
 20
0.0
 30
0.0
  0
VERTEX
  5
375C
330
325D
100
AcDbEntity
  8
0
100
AcDbVertex
100
AcDb2dVertex
 10
5.435044460532517
 20
4.533242488394868
 30
0.0
  0
VERTEX
  5
375D
330
325D
100
AcDbEntity
  8
0
100
AcDbVertex
100
AcDb2dVertex
 10
5.428460799115194
 20
4.533242488394868
 30
0.0
  0
VERTEX
  5
375E
330
325D
100
AcDbEntity
  8
0
100
AcDbVertex
100
AcDb2dVertex
 10
5.410026547146691
 20
4.533242488394868
 30
0.0
  0
VERTEX
  5
375F
330
325D
100
AcDbEntity
  8
0
100
AcDbVertex
100
AcDb2dVertex
 10
5.385008633760865
 20
4.533242488394868
 30
0.0
  0
SEQEND
  5
3760
330
325D
100
AcDbEntity
  8
0
  0
LINE
  5
3263
330
1E
100
AcDbEntity
  8
0
100
AcDbLine
 10
5.309954893603385
 20
4.533242488394868
 30
0.0
 11
5.385008633760865
 21
4.533242488394868
 31
0.0
  0
LINE
  5
3264
330
1E
100
AcDbEntity
  8
0
100
AcDbLine
 10
5.309954893603385
 20
7.294430086820065
 30
0.0
 11
5.385008633760865
 21
7.294430086820065
 31
0.0
  0
POLYLINE
  5
3265
330
1E
100
AcDbEntity
  8
0
100
AcDb2dPolyline
 66
     1
 10
0.0
 20
0.0
 30
0.0
  0
VERTEX
  5
3761
330
3265
100
AcDbEntity
  8
0
100
AcDbVertex
100
AcDb2dVertex
 10
5.385008633760865
 20
7.294430086820065
 30
0.0
  0
VERTEX
  5
3762
330
3265
100
AcDbEntity
  8
0
100
AcDbVertex
100
AcDb2dVertex
 10
5.410026547146691
 20
7.294430086820065
 30
0.0
  0
VERTEX
  5
3763
330
3265
100
AcDbEntity
  8
0
100
AcDbVertex
100
AcDb2dVertex
 10
5.428460799115194
 20
7.294430086820065
 30
0.0
  0
VERTEX
  5
3764
330
3265
100
AcDbEntity
  8
0
100
AcDbVertex
100
AcDb2dVertex
 10
5.435044460532517
 20
7.294430086820065
 30
0.0
  0
SEQEND
  5
3765
330
3265
100
AcDbEntity
  8
0
  0
LINE
  5
326B
330
1E
100
AcDbEntity
  8
0
100
AcDbLine
 10
4.979455090453777
 20
3.841958039575971
 30
0.0
 11
4.979455090453777
 21
7.985714535638964
 31
0.0
  0
LINE
  5
326C
330
1E
100
AcDbEntity
  8
0
100
AcDbLine
 10
5.104544657382912
 20
8.106853905717704
 30
0.0
 11
5.104544657382912
 21
3.720818669497231
 31
0.0
  0
LINE
  5
326D
330
1E
100
AcDbEntity
  8
0
100
AcDbLine
 10
5.104544657382912
 20
8.106853905717704
 30
0.0
 11
5.00315627155614
 21
7.985714535638964
 31
0.0
  0
LINE
  5
326E
330
1E
100
AcDbEntity
  8
0
100
AcDbLine
 10
5.00315627155614
 20
7.985714535638964
 30
0.0
 11
5.00315627155614
 21
3.841958039575971
 31
0.0
  0
LINE
  5
326F
330
1E
100
AcDbEntity
  8
0
100
AcDbLine
 10
5.104544657382912
 20
3.720818669497231
 30
0.0
 11
5.00315627155614
 21
3.841958039575971
 31
0.0
  0
POLYLINE
  5
3270
330
1E
100
AcDbEntity
  8
0
100
AcDb2dPolyline
 66
     1
 10
0.0
 20
0.0
 30
0.0
  0
VERTEX
  5
3766
330
3270
100
AcDbEntity
  8
0
100
AcDbVertex
100
AcDb2dVertex
 10
4.979455090453777
 20
3.841958039575971
 30
0.0
  0
VERTEX
  5
3767
330
3270
100
AcDbEntity
  8
0
100
AcDbVertex
100
AcDb2dVertex
 10
4.986038751871101
 20
3.841958039575971
 30
0.0
  0
VERTEX
  5
3768
330
3270
100
AcDbEntity
  8
0
100
AcDbVertex
100
AcDb2dVertex
 10
5.00315627155614
 20
3.841958039575971
 30
0.0
  0
SEQEND
  5
3769
330
3270
100
AcDbEntity
  8
0
  0
POLYLINE
  5
3275
330
1E
100
AcDbEntity
  8
0
100
AcDb2dPolyline
 66
     1
 10
0.0
 20
0.0
 30
0.0
  0
VERTEX
  5
376A
330
3275
100
AcDbEntity
  8
0
100
AcDbVertex
100
AcDb2dVertex
 10
4.979455090453777
 20
3.841958039575971
 30
0.0
  0
VERTEX
  5
376B
330
3275
100
AcDbEntity
  8
0
100
AcDbVertex
100
AcDb2dVertex
 10
4.986038751871101
 20
3.807723000205892
 30
0.0
  0
VERTEX
  5
376C
330
3275
100
AcDbEntity
  8
0
100
AcDbVertex
100
AcDb2dVertex
 10
5.00315627155614
 20
3.777438157686207
 30
0.0
  0
SEQEND
  5
376D
330
3275
100
AcDbEntity
  8
0
  0
POLYLINE
  5
327A
330
1E
100
AcDbEntity
  8
0
100
AcDb2dPolyline
 66
     1
 10
0.0
 20
0.0
 30
0.0
  0
VERTEX
  5
376E
330
327A
100
AcDbEntity
  8
0
100
AcDbVertex
100
AcDb2dVertex
 10
5.00315627155614
 20
3.841958039575971
 30
0.0
  0
VERTEX
  5
376F
330
327A
100
AcDbEntity
  8
0
100
AcDbVertex
100
AcDb2dVertex
 10
4.993939145571888
 20
3.806406267922428
 30
0.0
  0
VERTEX
  5
3770
330
327A
100
AcDbEntity
  8
0
100
AcDbVertex
100
AcDb2dVertex
 10
5.00315627155614
 20
3.777438157686207
 30
0.0
  0
SEQEND
  5
3771
330
327A
100
AcDbEntity
  8
0
  0
LINE
  5
327F
330
1E
100
AcDbEntity
  8
0
100
AcDbLine
 10
5.104544657382912
 20
3.656298787607467
 30
0.0
 11
5.109811586516769
 21
3.656298787607467
 31
0.0
  0
POLYLINE
  5
3280
330
1E
100
AcDbEntity
  8
0
100
AcDb2dPolyline
 66
     1
 10
0.0
 20
0.0
 30
0.0
  0
VERTEX
  5
3772
330
3280
100
AcDbEntity
  8
0
100
AcDbVertex
100
AcDb2dVertex
 10
5.109811586516769
 20
3.656298787607467
 30
0.0
  0
VERTEX
  5
3773
330
3280
100
AcDbEntity
  8
0
100
AcDbVertex
100
AcDb2dVertex
 10
5.111128318800234
 20
3.657615519890931
 30
0.0
  0
VERTEX
  5
3774
330
3280
100
AcDbEntity
  8
0
100
AcDbVertex
100
AcDb2dVertex
 10
5.111128318800234
 20
3.66288244902479
 30
0.0
  0
VERTEX
  5
3775
330
3280
100
AcDbEntity
  8
0
100
AcDbVertex
100
AcDb2dVertex
 10
5.111128318800234
 20
3.669466110442113
 30
0.0
  0
VERTEX
  5
3776
330
3280
100
AcDbEntity
  8
0
100
AcDbVertex
100
AcDb2dVertex
 10
5.111128318800234
 20
3.678683236426365
 30
0.0
  0
VERTEX
  5
3777
330
3280
100
AcDbEntity
  8
0
100
AcDbVertex
100
AcDb2dVertex
 10
5.109811586516769
 20
3.686583630127152
 30
0.0
  0
SEQEND
  5
3778
330
3280
100
AcDbEntity
  8
0
  0
LINE
  5
3288
330
1E
100
AcDbEntity
  8
0
100
AcDbLine
 10
5.109811586516769
 20
3.686583630127152
 30
0.0
 11
5.104544657382912
 21
3.720818669497231
 31
0.0
  0
LINE
  5
3289
330
1E
100
AcDbEntity
  8
0
100
AcDbLine
 10
5.00315627155614
 20
3.777438157686207
 30
0.0
 11
5.104544657382912
 21
3.656298787607467
 31
0.0
  0
LINE
  5
328A
330
1E
100
AcDbEntity
  8
0
100
AcDbLine
 10
5.109811586516769
 20
3.686583630127152
 30
0.0
 11
5.140096429036455
 21
3.686583630127152
 31
0.0
  0
LINE
  5
328B
330
1E
100
AcDbEntity
  8
0
100
AcDbLine
 10
5.140096429036455
 20
3.686583630127152
 30
0.0
 11
5.140096429036455
 21
8.141088945087782
 31
0.0
  0
LINE
  5
328C
330
1E
100
AcDbEntity
  8
0
100
AcDbLine
 10
5.140096429036455
 20
8.141088945087782
 30
0.0
 11
5.109811586516769
 21
8.141088945087782
 31
0.0
  0
LINE
  5
328D
330
1E
100
AcDbEntity
  8
0
100
AcDbLine
 10
5.109811586516769
 20
8.141088945087782
 30
0.0
 11
5.104544657382912
 21
8.106853905717704
 31
0.0
  0
POLYLINE
  5
328E
330
1E
100
AcDbEntity
  8
0
100
AcDb2dPolyline
 66
     1
 10
0.0
 20
0.0
 30
0.0
  0
VERTEX
  5
3779
330
328E
100
AcDbEntity
  8
0
100
AcDbVertex
100
AcDb2dVertex
 10
4.979455090453777
 20
7.985714535638964
 30
0.0
  0
VERTEX
  5
377A
330
328E
100
AcDbEntity
  8
0
100
AcDbVertex
100
AcDb2dVertex
 10
4.986038751871101
 20
7.985714535638964
 30
0.0
  0
VERTEX
  5
377B
330
328E
100
AcDbEntity
  8
0
100
AcDbVertex
100
AcDb2dVertex
 10
5.00315627155614
 20
7.985714535638964
 30
0.0
  0
SEQEND
  5
377C
330
328E
100
AcDbEntity
  8
0
  0
LINE
  5
3293
330
1E
100
AcDbEntity
  8
0
100
AcDbLine
 10
5.140096429036455
 20
3.656298787607467
 30
0.0
 11
5.109811586516769
 21
3.656298787607467
 31
0.0
  0
POLYLINE
  5
3294
330
1E
100
AcDbEntity
  8
0
100
AcDb2dPolyline
 66
     1
 10
0.0
 20
0.0
 30
0.0
  0
VERTEX
  5
377D
330
3294
100
AcDbEntity
  8
0
100
AcDbVertex
100
AcDb2dVertex
 10
5.140096429036455
 20
3.686583630127152
 30
0.0
  0
VERTEX
  5
377E
330
3294
100
AcDbEntity
  8
0
100
AcDbVertex
100
AcDb2dVertex
 10
5.140096429036455
 20
3.665515913591719
 30
0.0
  0
VERTEX
  5
377F
330
3294
100
AcDbEntity
  8
0
100
AcDbVertex
100
AcDb2dVertex
 10
5.140096429036455
 20
3.656298787607467
 30
0.0
  0
SEQEND
  5
3780
330
3294
100
AcDbEntity
  8
0
  0
POLYLINE
  5
3299
330
1E
100
AcDbEntity
  8
0
100
AcDb2dPolyline
 66
     1
 10
0.0
 20
0.0
 30
0.0
  0
VERTEX
  5
3781
330
3299
100
AcDbEntity
  8
0
100
AcDbVertex
100
AcDb2dVertex
 10
5.140096429036455
 20
8.171373787607468
 30
0.0
  0
VERTEX
  5
3782
330
3299
100
AcDbEntity
  8
0
100
AcDbVertex
100
AcDb2dVertex
 10
5.140096429036455
 20
8.162156661623216
 30
0.0
  0
VERTEX
  5
3783
330
3299
100
AcDbEntity
  8
0
100
AcDbVertex
100
AcDb2dVertex
 10
5.140096429036455
 20
8.141088945087782
 30
0.0
  0
SEQEND
  5
3784
330
3299
100
AcDbEntity
  8
0
  0
LINE
  5
329E
330
1E
100
AcDbEntity
  8
0
100
AcDbLine
 10
5.385008633760865
 20
4.533242488394868
 30
0.0
 11
5.385008633760865
 21
4.54509307894605
 31
0.0
  0
LINE
  5
329F
330
1E
100
AcDbEntity
  8
0
100
AcDbLine
 10
5.435044460532518
 20
4.55957713406416
 30
0.0
 11
5.435044460532518
 21
4.533242488394868
 31
0.0
  0
LINE
  5
32A0
330
1E
100
AcDbEntity
  8
0
100
AcDbLine
 10
5.00315627155614
 20
8.050234417528727
 30
0.0
 11
5.104544657382912
 21
8.171373787607468
 31
0.0
  0
POLYLINE
  5
32A1
330
1E
100
AcDbEntity
  8
0
100
AcDb2dPolyline
 66
     1
 10
0.0
 20
0.0
 30
0.0
  0
VERTEX
  5
3785
330
32A1
100
AcDbEntity
  8
0
100
AcDbVertex
100
AcDb2dVertex
 10
4.979455090453777
 20
7.985714535638964
 30
0.0
  0
VERTEX
  5
3786
330
32A1
100
AcDbEntity
  8
0
100
AcDbVertex
100
AcDb2dVertex
 10
4.986038751871101
 20
8.019949575009041
 30
0.0
  0
VERTEX
  5
3787
330
32A1
100
AcDbEntity
  8
0
100
AcDbVertex
100
AcDb2dVertex
 10
5.00315627155614
 20
8.050234417528727
 30
0.0
  0
SEQEND
  5
3788
330
32A1
100
AcDbEntity
  8
0
  0
LINE
  5
32A6
330
1E
100
AcDbEntity
  8
0
100
AcDbLine
 10
5.104544657382912
 20
8.171373787607468
 30
0.0
 11
5.109811586516769
 21
8.171373787607468
 31
0.0
  0
LINE
  5
32A7
330
1E
100
AcDbEntity
  8
0
100
AcDbLine
 10
5.109811586516769
 20
8.171373787607468
 30
0.0
 11
5.140096429036455
 21
8.171373787607468
 31
0.0
  0
LINE
  5
32A8
330
1E
100
AcDbEntity
  8
0
100
AcDbLine
 10
5.385008633760865
 20
7.282579496268884
 30
0.0
 11
5.385008633760865
 21
7.294430086820065
 31
0.0
  0
LINE
  5
32A9
330
1E
100
AcDbEntity
  8
0
100
AcDbLine
 10
5.435044460532518
 20
7.294430086820065
 30
0.0
 11
5.435044460532518
 21
7.26941217343424
 31
0.0
  0
POLYLINE
  5
32AA
330
1E
100
AcDbEntity
  8
0
100
AcDb2dPolyline
 66
     1
 10
0.0
 20
0.0
 30
0.0
  0
VERTEX
  5
3789
330
32AA
100
AcDbEntity
  8
0
100
AcDbVertex
100
AcDb2dVertex
 10
5.00315627155614
 20
7.985714535638964
 30
0.0
  0
VERTEX
  5
378A
330
32AA
100
AcDbEntity
  8
0
100
AcDbVertex
100
AcDb2dVertex
 10
4.993939145571888
 20
8.021266307292506
 30
0.0
  0
VERTEX
  5
378B
330
32AA
100
AcDbEntity
  8
0
100
AcDbVertex
100
AcDb2dVertex
 10
5.00315627155614
 20
8.050234417528727
 30
0.0
  0
SEQEND
  5
378C
330
32AA
100
AcDbEntity
  8
0
  0
POLYLINE
  5
32AF
330
1E
100
AcDbEntity
  8
0
100
AcDb2dPolyline
 66
     1
 10
0.0
 20
0.0
 30
0.0
  0
VERTEX
  5
378D
330
32AF
100
AcDbEntity
  8
0
100
AcDbVertex
100
AcDb2dVertex
 10
5.109811586516769
 20
8.141088945087782
 30
0.0
  0
VERTEX
  5
378E
330
32AF
100
AcDbEntity
  8
0
100
AcDbVertex
100
AcDb2dVertex
 10
5.111128318800234
 20
8.151622803355499
 30
0.0
  0
VERTEX
  5
378F
330
32AF
100
AcDbEntity
  8
0
100
AcDbVertex
100
AcDb2dVertex
 10
5.111128318800234
 20
8.159523197056286
 30
0.0
  0
VERTEX
  5
3790
330
32AF
100
AcDbEntity
  8
0
100
AcDbVertex
100
AcDb2dVertex
 10
5.111128318800234
 20
8.166106858473609
 30
0.0
  0
VERTEX
  5
3791
330
32AF
100
AcDbEntity
  8
0
100
AcDbVertex
100
AcDb2dVertex
 10
5.111128318800234
 20
8.170057055324003
 30
0.0
  0
VERTEX
  5
3792
330
32AF
100
AcDbEntity
  8
0
100
AcDbVertex
100
AcDb2dVertex
 10
5.109811586516769
 20
8.171373787607468
 30
0.0
  0
SEQEND
  5
3793
330
32AF
100
AcDbEntity
  8
0
  0
ENDSEC
  0
SECTION
  2
OBJECTS
  0
DICTIONARY
  5
C
330
0
100
AcDbDictionary
  3
ACAD_GROUP
350
D
  3
ACAD_MLINESTYLE
350
16
  3
ACAD_PLOTSETTINGS
350
18
  3
ACAD_LAYOUT
350
19
1001
ACAD
1000
TREAT_AS_HARD
1070
     0
  0
DICTIONARY
  5
32BE
330
1E
100
AcDbDictionary
  3
ACAD_LAYOUTSELFREF
350
32BF
  0
DICTIONARY
  5
32BC
330
1A
100
AcDbDictionary
  3
ACAD_LAYOUTSELFREF
350
32BD
  0
DICTIONARY
  5
D
102
{ACAD_REACTORS
330
C
102
}
330
C
100
AcDbDictionary
1001
ACAD
1000
TREAT_AS_HARD
1070
     0
  0
DICTIONARY
  5
16
102
{ACAD_REACTORS
330
C
102
}
330
C
100
AcDbDictionary
  3
STANDARD
350
17
1001
ACAD
1000
TREAT_AS_HARD
1070
     0
  0
DICTIONARY
  5
18
102
{ACAD_REACTORS
330
C
102
}
330
C
100
AcDbDictionary
1001
ACAD
1000
TREAT_AS_HARD
1070
     0
  0
DICTIONARY
  5
19
102
{ACAD_REACTORS
330
C
102
}
330
C
100
AcDbDictionary
1001
ACAD
1000
TREAT_AS_HARD
1070
     0
  0
XRECORD
  5
32BF
102
{ACAD_REACTORS
330
32BE
102
}
330
32BE
100
AcDbXrecord
340
1E
  0
XRECORD
  5
32BD
102
{ACAD_REACTORS
330
32BC
102
}
330
32BC
100
AcDbXrecord
340
1A
  0
MLINESTYLE
  5
17
102
{ACAD_REACTORS
330
16
102
}
330
16
100
AcDbMlineStyle
  2
STANDARD
 70
     0
  3

 62
   256
 51
90.0
 52
90.0
 71
     2
 49
0.5
 62
   256
  6
BYLAYER
 49
-0.5
 62
   256
  6
BYLAYER
  0
ENDSEC
  0
EOF
