  0
SECTION
  2
HEADER
  9
$ACADVER
  1
AC1014
  9
$ACADMAINTVER
 70
     9
  9
$DWGCODEPAGE
  3
ANSI_1252
  9
$INSBASE
 10
0.0
 20
0.0
 30
0.0
  9
$EXTMIN
 10
5.393305492355951
 20
6.877484671956574
 30
0.0
  9
$EXTMAX
 10
43.28292573224874
 20
28.34241676330566
 30
0.0
  9
$LIMMIN
 10
-0.5
 20
-0.5
  9
$LIMMAX
 10
5.0
 20
5.0
  9
$ORTHOMODE
 70
     0
  9
$REGENMODE
 70
     1
  9
$FILLMODE
 70
     1
  9
$QTEXTMODE
 70
     0
  9
$MIRRTEXT
 70
     1
  9
$DRAGMODE
 70
     2
  9
$LTSCALE
 40
1.0
  9
$OSMODE
 70
    37
  9
$ATTMODE
 70
     1
  9
$TEXTSIZE
 40
0.0
  9
$TRACEWID
 40
0.05
  9
$TEXTSTYLE
  7
STANDARD
  9
$CLAYER
  8
0
  9
$CELTYPE
  6
CONTINUOUS
  9
$CECOLOR
 62
   256
  9
$CELTSCALE
 40
1.0
  9
$DELOBJ
 70
     1
  9
$DISPSILH
 70
     0
  9
$DIMSCALE
 40
1.0
  9
$DIMASZ
 40
0.18
  9
$DIMEXO
 40
0.0625
  9
$DIMDLI
 40
0.38
  9
$DIMRND
 40
0.0
  9
$DIMDLE
 40
0.0
  9
$DIMEXE
 40
0.18
  9
$DIMTP
 40
0.0
  9
$DIMTM
 40
0.0
  9
$DIMTXT
 40
0.18
  9
$DIMCEN
 40
0.09
  9
$DIMTSZ
 40
0.0
  9
$DIMTOL
 70
     0
  9
$DIMLIM
 70
     0
  9
$DIMTIH
 70
     1
  9
$DIMTOH
 70
     1
  9
$DIMSE1
 70
     0
  9
$DIMSE2
 70
     0
  9
$DIMTAD
 70
     0
  9
$DIMZIN
 70
     0
  9
$DIMBLK
  1

  9
$DIMASO
 70
     1
  9
$DIMSHO
 70
     1
  9
$DIMPOST
  1

  9
$DIMAPOST
  1

  9
$DIMALT
 70
     0
  9
$DIMALTD
 70
     2
  9
$DIMALTF
 40
25.4
  9
$DIMLFAC
 40
1.0
  9
$DIMTOFL
 70
     0
  9
$DIMTVP
 40
0.0
  9
$DIMTIX
 70
     0
  9
$DIMSOXD
 70
     0
  9
$DIMSAH
 70
     0
  9
$DIMBLK1
  1

  9
$DIMBLK2
  1

  9
$DIMSTYLE
  2
STANDARD
  9
$DIMCLRD
 70
     0
  9
$DIMCLRE
 70
     0
  9
$DIMCLRT
 70
     0
  9
$DIMTFAC
 40
1.0
  9
$DIMGAP
 40
0.09
  9
$DIMJUST
 70
     0
  9
$DIMSD1
 70
     0
  9
$DIMSD2
 70
     0
  9
$DIMTOLJ
 70
     1
  9
$DIMTZIN
 70
     0
  9
$DIMALTZ
 70
     0
  9
$DIMALTTZ
 70
     0
  9
$DIMFIT
 70
     3
  9
$DIMUPT
 70
     0
  9
$DIMUNIT
 70
     2
  9
$DIMDEC
 70
     4
  9
$DIMTDEC
 70
     4
  9
$DIMALTU
 70
     2
  9
$DIMALTTD
 70
     2
  9
$DIMTXSTY
  7
STANDARD
  9
$DIMAUNIT
 70
     0
  9
$LUNITS
 70
     2
  9
$LUPREC
 70
     4
  9
$SKETCHINC
 40
0.1
  9
$FILLETRAD
 40
0.0
  9
$AUNITS
 70
     0
  9
$AUPREC
 70
     0
  9
$MENU
  1
acad
  9
$ELEVATION
 40
0.0
  9
$PELEVATION
 40
0.0
  9
$THICKNESS
 40
0.0
  9
$LIMCHECK
 70
     0
  9
$BLIPMODE
 70
     0
  9
$CHAMFERA
 40
0.0
  9
$CHAMFERB
 40
0.0
  9
$CHAMFERC
 40
0.0
  9
$CHAMFERD
 40
0.0
  9
$SKPOLY
 70
     0
  9
$TDCREATE
 40
2454573.331579861
  9
$TDUPDATE
 40
2454573.336058171
  9
$TDINDWG
 40
0.0045028356
  9
$TDUSRTIMER
 40
0.0045028356
  9
$USRTIMER
 70
     1
  9
$ANGBASE
 50
0.0
  9
$ANGDIR
 70
     0
  9
$PDMODE
 70
     0
  9
$PDSIZE
 40
0.0
  9
$PLINEWID
 40
0.0
  9
$COORDS
 70
     1
  9
$SPLFRAME
 70
     0
  9
$SPLINETYPE
 70
     6
  9
$SPLINESEGS
 70
     8
  9
$ATTDIA
 70
     0
  9
$ATTREQ
 70
     1
  9
$HANDLING
 70
-16383
  9
$HANDSEED
  5
366
  9
$SURFTAB1
 70
     6
  9
$SURFTAB2
 70
     6
  9
$SURFTYPE
 70
     6
  9
$SURFU
 70
     6
  9
$SURFV
 70
     6
  9
$UCSNAME
  2

  9
$UCSORG
 10
0.0
 20
0.0
 30
0.0
  9
$UCSXDIR
 10
1.0
 20
0.0
 30
0.0
  9
$UCSYDIR
 10
0.0
 20
1.0
 30
0.0
  9
$PUCSNAME
  2

  9
$PUCSORG
 10
0.0
 20
0.0
 30
0.0
  9
$PUCSXDIR
 10
1.0
 20
0.0
 30
0.0
  9
$PUCSYDIR
 10
0.0
 20
1.0
 30
0.0
  9
$USERI1
 70
     0
  9
$USERI2
 70
     0
  9
$USERI3
 70
     0
  9
$USERI4
 70
     0
  9
$USERI5
 70
     0
  9
$USERR1
 40
0.0
  9
$USERR2
 40
0.0
  9
$USERR3
 40
0.0
  9
$USERR4
 40
0.0
  9
$USERR5
 40
0.0
  9
$WORLDVIEW
 70
     1
  9
$SHADEDGE
 70
     3
  9
$SHADEDIF
 70
    70
  9
$TILEMODE
 70
     1
  9
$MAXACTVP
 70
    64
  9
$PINSBASE
 10
0.0
 20
0.0
 30
0.0
  9
$PLIMCHECK
 70
     0
  9
$PEXTMIN
 10
1.000000000000000E+20
 20
1.000000000000000E+20
 30
1.000000000000000E+20
  9
$PEXTMAX
 10
-1.000000000000000E+20
 20
-1.000000000000000E+20
 30
-1.000000000000000E+20
  9
$PLIMMIN
 10
-0.6666668268639271
 20
-0.6666666579058789
  9
$PLIMMAX
 10
10.33333293284018
 20
7.833333101798229
  9
$UNITMODE
 70
     0
  9
$VISRETAIN
 70
     0
  9
$PLINEGEN
 70
     1
  9
$PSLTSCALE
 70
     0
  9
$TREEDEPTH
 70
  3020
  9
$PICKSTYLE
 70
     1
  9
$CMLSTYLE
  2
STANDARD
  9
$CMLJUST
 70
     0
  9
$CMLSCALE
 40
1.0
  9
$PROXYGRAPHICS
 70
     0
  9
$MEASUREMENT
 70
     0
  0
ENDSEC
  0
SECTION
  2
CLASSES
  0
CLASS
  1
LWPOLYLINE
  2
AcDbPolyline
  3
AutoCAD 2000
 90
        0
280
     0
281
     1
  0
CLASS
  1
IMAGE
  2
AcDbRasterImage
  3
ISM
 90
      127
280
     0
281
     1
  0
CLASS
  1
OLE2FRAME
  2
AcDbOle2Frame
  3
AutoCAD 2000
 90
        0
280
     0
281
     1
  0
CLASS
  1
HATCH
  2
AcDbHatch
  3
AutoCAD 2000
 90
        0
280
     0
281
     1
  0
CLASS
  1
DICTIONARYVAR
  2
AcDbDictionaryVar
  3
AutoCAD 2000
 90
        0
280
     0
281
     0
  0
CLASS
  1
RASTERVARIABLES
  2
AcDbRasterVariables
  3
ISM
 90
        0
280
     0
281
     0
  0
CLASS
  1
IMAGEDEF
  2
AcDbRasterImageDef
  3
ISM
 90
        0
280
     0
281
     0
  0
CLASS
  1
IMAGEDEF_REACTOR
  2
AcDbRasterImageDefReactor
  3
ISM
 90
        1
280
     0
281
     0
  0
CLASS
  1
IDBUFFER
  2
AcDbIdBuffer
  3
AutoCAD 2000
 90
        0
280
     0
281
     0
  0
CLASS
  1
SPATIAL_FILTER
  2
AcDbSpatialFilter
  3
AutoCAD 2000
 90
        0
280
     0
281
     0
  0
CLASS
  1
XRECORD
  2
AcDbXrecord
  3
AutoCAD 2000
 90
        0
280
     0
281
     0
  0
CLASS
  1
SORTENTSTABLE
  2
AcDbSortentsTable
  3
AutoCAD 2000
 90
        0
280
     0
281
     0
  0
CLASS
  1
LAYER_INDEX
  2
AcDbLayerIndex
  3
AutoCAD 2000
 90
        0
280
     0
281
     0
  0
CLASS
  1
SPATIAL_INDEX
  2
AcDbSpatialIndex
  3
AutoCAD 2000
 90
        0
280
     0
281
     0
  0
CLASS
  1
OBJECT_PTR
  2
CAseDLPNTableRecord
  3
ASE-LPNTableRecord
 90
        1
280
     0
281
     0
  0
CLASS
  1
LAYOUT
  2
AcDbLayout
  3
AutoCAD 2000
 90
        0
280
     0
281
     0
  0
CLASS
  1
PLOTSETTINGS
  2
AcDbPlotSettings
  3
AutoCAD 2000
 90
        0
280
     0
281
     0
  0
CLASS
  1
ACDBDICTIONARYWDFLT
  2
AcDbDictionaryWithDefault
  3
AutoCAD 2000
 90
        0
280
     0
281
     0
  0
CLASS
  1
ACDBPLACEHOLDER
  2
AcDbPlaceHolder
  3
AutoCAD 2000
 90
        0
280
     0
281
     0
  0
CLASS
  1
VBA_PROJECT
  2
AcDbVbaProject
  3
acadvba
 90
        0
280
     0
281
     0
  0
CLASS
  1
WIPEOUT
  2
AcDbWipeout
  3
WipeOut|AutoCAD Express Tool|expresstools@autodesk.com
 90
      127
280
     0
281
     1
  0
CLASS
  1
WIPEOUTVARIABLES
  2
AcDbWipeoutVariables
  3
WipeOut|AutoCAD Express Tool|expresstools@autodesk.com
 90
        0
280
     0
281
     0
  0
CLASS
  1
RTEXT
  2
RText
  3
RText|AutoCAD Express Tool|expresstools@autodesk.com
 90
        0
280
     0
281
     1
  0
CLASS
  1
ARCALIGNEDTEXT
  2
AcDbArcAlignedText
  3
ATEXT|AutoCAD Express Tool|expresstools@autodesk.com
 90
        0
280
     0
281
     1
  0
CLASS
  1
ACAD_PROXY_OBJECT_WRAPPER
  2
AcDbProxyObjectWrapper
  3
AutoCAD 2000
 90
        0
280
     0
281
     0
  0
CLASS
  1
LONG_TRANSACTION
  2
AcDbLongTransaction
  3
AutoCAD 2000
 90
        0
280
     0
281
     0
  0
CLASS
  1
LWPOLYLINE
  2
AcDbPolyline
  3
AutoCAD 2000
 90
        0
280
     0
281
     1
  0
CLASS
  1
HATCH
  2
AcDbHatch
  3
AutoCAD 2000
 90
        0
280
     0
281
     1
  0
CLASS
  1
XRECORD
  2
AcDbXrecord
  3
AutoCAD 2000
 90
        0
280
     0
281
     0
  0
ENDSEC
  0
SECTION
  2
TABLES
  0
TABLE
  2
VPORT
  5
7
330
0
100
AcDbSymbolTable
 70
    19
  0
VPORT
  5
2C0
330
7
100
AcDbSymbolTableRecord
100
AcDbViewportTableRecord
  2
L1
 70
     0
 10
0.0
 20
0.0
 11
1.0
 21
1.0
 12
0.0
 22
0.0
 13
0.0
 23
0.0
 14
1.0
 24
1.0
 15
0.0
 25
0.0
 16
0.7188730927569434
 26
-0.5850486126764432
 36
0.3754192287502549
 17
0.0
 27
0.0
 37
0.0
 40
60.95637947544744
 41
0.688564
 42
50.0
 43
30.17384475913917
 44
-30.17384475913917
 50
0.0
 51
0.0
 71
    16
 72
   100
 73
     1
 74
     1
 75
     0
 76
     0
 77
     0
 78
     0
  0
VPORT
  5
2C1
330
7
100
AcDbSymbolTableRecord
100
AcDbViewportTableRecord
  2
L2
 70
     0
 10
0.0
 20
0.0
 11
0.5
 21
1.0
 12
0.0
 22
0.0
 13
0.0
 23
0.0
 14
1.0
 24
1.0
 15
0.0
 25
0.0
 16
0.0
 26
-1.0
 36
0.0
 17
0.0
 27
0.0
 37
0.0
 40
58.87579465197888
 41
0.688564
 42
50.0
 43
30.26453050782714
 44
-30.26453050782714
 50
0.0
 51
0.0
 71
    16
 72
   100
 73
     1
 74
     1
 75
     0
 76
     0
 77
     0
 78
     0
  0
VPORT
  5
2C2
330
7
100
AcDbSymbolTableRecord
100
AcDbViewportTableRecord
  2
L2
 70
     0
 10
0.5
 20
0.0
 11
1.0
 21
1.0
 12
0.0
 22
0.0
 13
0.0
 23
0.0
 14
1.0
 24
1.0
 15
0.0
 25
0.0
 16
1.0
 26
0.0
 36
0.0
 17
0.0
 27
0.0
 37
0.0
 40
58.87579465197888
 41
0.688564
 42
50.0
 43
29.83383436225564
 44
-29.83383436225564
 50
0.0
 51
0.0
 71
    16
 72
   100
 73
     1
 74
     1
 75
     0
 76
     0
 77
     0
 78
     0
  0
VPORT
  5
2C3
330
7
100
AcDbSymbolTableRecord
100
AcDbViewportTableRecord
  2
L3
 70
     0
 10
0.0
 20
0.5
 11
1.0
 21
1.0
 12
0.0
 22
0.0
 13
0.0
 23
0.0
 14
1.0
 24
1.0
 15
0.0
 25
0.0
 16
0.0
 26
0.0
 36
1.0
 17
0.0
 27
0.0
 37
0.0
 40
9.688730314960629
 41
0.688564
 42
50.0
 43
29.43789732598944
 44
-29.43789732598944
 50
0.0
 51
0.0
 71
    16
 72
   100
 73
     1
 74
     1
 75
     0
 76
     0
 77
     0
 78
     0
  0
VPORT
  5
2C4
330
7
100
AcDbSymbolTableRecord
100
AcDbViewportTableRecord
  2
L3
 70
     0
 10
0.0
 20
0.0
 11
1.0
 21
0.5
 12
0.0
 22
0.0
 13
0.0
 23
0.0
 14
1.0
 24
1.0
 15
0.0
 25
0.0
 16
0.0
 26
-1.0
 36
0.0
 17
0.0
 27
0.0
 37
0.0
 40
58.87579465197888
 41
0.688564
 42
50.0
 43
30.26453050782714
 44
-30.26453050782714
 50
0.0
 51
0.0
 71
    16
 72
   100
 73
     1
 74
     1
 75
     0
 76
     0
 77
     0
 78
     0
  0
VPORT
  5
2C5
330
7
100
AcDbSymbolTableRecord
100
AcDbViewportTableRecord
  2
L4
 70
     0
 10
0.0
 20
0.5
 11
0.5
 21
1.0
 12
0.0
 22
0.0
 13
0.0
 23
0.0
 14
1.0
 24
1.0
 15
0.0
 25
0.0
 16
0.0
 26
0.0
 36
1.0
 17
0.0
 27
0.0
 37
0.0
 40
9.688730314960629
 41
0.688564
 42
50.0
 43
29.43789732598944
 44
-29.43789732598944
 50
0.0
 51
0.0
 71
    16
 72
   100
 73
     1
 74
     1
 75
     0
 76
     0
 77
     0
 78
     0
  0
VPORT
  5
2C6
330
7
100
AcDbSymbolTableRecord
100
AcDbViewportTableRecord
  2
L4
 70
     0
 10
0.0
 20
0.0
 11
0.5
 21
0.5
 12
0.0
 22
0.0
 13
0.0
 23
0.0
 14
1.0
 24
1.0
 15
0.0
 25
0.0
 16
0.0
 26
-1.0
 36
0.0
 17
0.0
 27
0.0
 37
0.0
 40
58.87579465197888
 41
0.688564
 42
50.0
 43
30.26453050782714
 44
-30.26453050782714
 50
0.0
 51
0.0
 71
    16
 72
   100
 73
     1
 74
     1
 75
     0
 76
     0
 77
     0
 78
     0
  0
VPORT
  5
2C7
330
7
100
AcDbSymbolTableRecord
100
AcDbViewportTableRecord
  2
L4
 70
     0
 10
0.5
 20
0.0
 11
1.0
 21
0.5
 12
0.0
 22
0.0
 13
0.0
 23
0.0
 14
1.0
 24
1.0
 15
0.0
 25
0.0
 16
1.0
 26
0.0
 36
0.0
 17
0.0
 27
0.0
 37
0.0
 40
58.87579465197888
 41
0.688564
 42
50.0
 43
29.83383436225564
 44
-29.83383436225564
 50
0.0
 51
0.0
 71
    16
 72
   100
 73
     1
 74
     1
 75
     0
 76
     0
 77
     0
 78
     0
  0
VPORT
  5
2C8
330
7
100
AcDbSymbolTableRecord
100
AcDbViewportTableRecord
  2
L4
 70
     0
 10
0.5
 20
0.5
 11
1.0
 21
1.0
 12
0.0
 22
0.0
 13
0.0
 23
0.0
 14
1.0
 24
1.0
 15
0.0
 25
0.0
 16
0.5773502691896259
 26
-0.5773502691896259
 36
0.5773502691896259
 17
0.0
 27
0.0
 37
0.0
 40
57.76326146544572
 41
0.688564
 42
50.0
 43
30.07641395930723
 44
-30.07641395930723
 50
0.0
 51
0.0
 71
    16
 72
   100
 73
     1
 74
     1
 75
     0
 76
     0
 77
     0
 78
     0
  0
VPORT
  5
2C9
330
7
100
AcDbSymbolTableRecord
100
AcDbViewportTableRecord
  2
L6
 70
     0
 10
0.0
 20
0.5
 11
0.3333333333333334
 21
1.0
 12
0.0
 22
0.0
 13
0.0
 23
0.0
 14
1.0
 24
1.0
 15
0.0
 25
0.0
 16
0.7188730927569434
 26
-0.5850486126764432
 36
0.3754192287502549
 17
0.0
 27
0.0
 37
0.0
 40
60.95637947544744
 41
0.688564
 42
50.0
 43
30.17384475913917
 44
-30.17384475913917
 50
0.0
 51
0.0
 71
    16
 72
   100
 73
     1
 74
     1
 75
     0
 76
     0
 77
     0
 78
     0
  0
VPORT
  5
2CA
330
7
100
AcDbSymbolTableRecord
100
AcDbViewportTableRecord
  2
L6
 70
     0
 10
0.0
 20
0.0
 11
0.3333333333333334
 21
0.5
 12
0.0
 22
0.0
 13
0.0
 23
0.0
 14
1.0
 24
1.0
 15
0.0
 25
0.0
 16
-1.0
 26
0.0
 36
0.0
 17
0.0
 27
0.0
 37
0.0
 40
58.87579465197888
 41
0.688564
 42
50.0
 43
29.83383436225564
 44
-29.83383436225564
 50
0.0
 51
0.0
 71
    16
 72
   100
 73
     1
 74
     1
 75
     0
 76
     0
 77
     0
 78
     0
  0
VPORT
  5
2CB
330
7
100
AcDbSymbolTableRecord
100
AcDbViewportTableRecord
  2
L6
 70
     0
 10
0.3333333333333334
 20
0.5
 11
0.6666666666666666
 21
1.0
 12
0.0
 22
0.0
 13
0.0
 23
0.0
 14
1.0
 24
1.0
 15
0.0
 25
0.0
 16
0.0
 26
0.0
 36
1.0
 17
0.0
 27
0.0
 37
0.0
 40
9.688730314960629
 41
0.688564
 42
50.0
 43
29.43789732598944
 44
-29.43789732598944
 50
0.0
 51
0.0
 71
    16
 72
   100
 73
     1
 74
     1
 75
     0
 76
     0
 77
     0
 78
     0
  0
VPORT
  5
2CC
330
7
100
AcDbSymbolTableRecord
100
AcDbViewportTableRecord
  2
L6
 70
     0
 10
0.3333333333333334
 20
0.0
 11
0.6666666666666666
 21
0.5
 12
0.0
 22
0.0
 13
0.0
 23
0.0
 14
1.0
 24
1.0
 15
0.0
 25
0.0
 16
0.0
 26
-1.0
 36
0.0
 17
0.0
 27
0.0
 37
0.0
 40
58.87579465197888
 41
0.688564
 42
50.0
 43
30.26453050782714
 44
-30.26453050782714
 50
0.0
 51
0.0
 71
    16
 72
   100
 73
     1
 74
     1
 75
     0
 76
     0
 77
     0
 78
     0
  0
VPORT
  5
2CD
330
7
100
AcDbSymbolTableRecord
100
AcDbViewportTableRecord
  2
L6
 70
     0
 10
0.6666666666666666
 20
0.5
 11
1.0
 21
1.0
 12
0.0
 22
0.0
 13
0.0
 23
0.0
 14
1.0
 24
1.0
 15
0.0
 25
0.0
 16
0.5773502691896259
 26
-0.5773502691896259
 36
0.5773502691896259
 17
0.0
 27
0.0
 37
0.0
 40
57.76326146544572
 41
0.688564
 42
50.0
 43
30.07641395930723
 44
-30.07641395930723
 50
0.0
 51
0.0
 71
    16
 72
   100
 73
     1
 74
     1
 75
     0
 76
     0
 77
     0
 78
     0
  0
VPORT
  5
2CE
330
7
100
AcDbSymbolTableRecord
100
AcDbViewportTableRecord
  2
L6
 70
     0
 10
0.6666666666666666
 20
0.0
 11
1.0
 21
0.5
 12
0.0
 22
0.0
 13
0.0
 23
0.0
 14
1.0
 24
1.0
 15
0.0
 25
0.0
 16
1.0
 26
0.0
 36
0.0
 17
0.0
 27
0.0
 37
0.0
 40
58.87579465197888
 41
0.688564
 42
50.0
 43
29.83383436225564
 44
-29.83383436225564
 50
0.0
 51
0.0
 71
    16
 72
   100
 73
     1
 74
     1
 75
     0
 76
     0
 77
     0
 78
     0
  0
VPORT
  5
340
330
7
100
AcDbSymbolTableRecord
100
AcDbViewportTableRecord
  2
*ACTIVE
 70
     0
 10
0.0
 20
0.0
 11
1.0
 21
1.0
 12
26.28591282255799
 22
15.47561779215718
 13
0.0
 23
0.0
 14
1.0
 24
1.0
 15
0.0
 25
0.0
 16
0.0
 26
0.0
 36
1.0
 17
0.0
 27
0.0
 37
0.0
 40
39.13205912374324
 41
1.524050632911392
 42
50.0
 43
30.17384475913917
 44
-30.17384475913917
 50
0.0
 51
0.0
 71
    16
 72
   100
 73
     1
 74
     1
 75
     0
 76
     0
 77
     0
 78
     0
  0
ENDTAB
  0
TABLE
  2
LTYPE
  5
4
330
0
100
AcDbSymbolTable
 70
     7
  0
LTYPE
  5
11
330
4
100
AcDbSymbolTableRecord
100
AcDbLinetypeTableRecord
  2
BYBLOCK
 70
     0
  3

 72
    65
 73
     0
 40
0.0
  0
LTYPE
  5
12
330
4
100
AcDbSymbolTableRecord
100
AcDbLinetypeTableRecord
  2
BYLAYER
 70
     0
  3

 72
    65
 73
     0
 40
0.0
  0
LTYPE
  5
13
330
4
100
AcDbSymbolTableRecord
100
AcDbLinetypeTableRecord
  2
CONTINUOUS
 70
     0
  3
Solid line
 72
    65
 73
     0
 40
0.0
  0
LTYPE
  5
24
330
4
100
AcDbSymbolTableRecord
100
AcDbLinetypeTableRecord
  2
DASHED
 70
     0
  3
__ __ __ __ __ __ __ __ __
 72
    65
 73
     2
 40
25.72
 49
12.86
 74
     0
 49
-12.86
 74
     0
  0
LTYPE
  5
25
330
4
100
AcDbSymbolTableRecord
100
AcDbLinetypeTableRecord
  2
HIDDEN
 70
     0
  3
_ _ _ _ _ _ _ _ _ _ _ _ _ _ _
 72
    65
 73
     2
 40
0.5
 49
0.25
 74
     0
 49
-0.25
 74
     0
  0
LTYPE
  5
26
330
4
100
AcDbSymbolTableRecord
100
AcDbLinetypeTableRecord
  2
PHANTOM
 70
     0
  3
____ _ _ ____ _ _ _____ _ _ ____
 72
    65
 73
     6
 40
50.5
 49
18.0
 74
     0
 49
-6.5
 74
     0
 49
6.5
 74
     0
 49
-6.5
 74
     0
 49
6.5
 74
     0
 49
-6.5
 74
     0
  0
LTYPE
  5
27
330
4
100
AcDbSymbolTableRecord
100
AcDbLinetypeTableRecord
  2
CENTER
 70
     0
  3
____ _ ____ _ ____ _ ____
 72
    65
 73
     4
 40
47.5
 49
22.0
 74
     0
 49
-8.5
 74
     0
 49
8.5
 74
     0
 49
-8.5
 74
     0
  0
LTYPE
  5
28
330
4
100
AcDbSymbolTableRecord
100
AcDbLinetypeTableRecord
  2
DOT
 70
     0
  3
.........................
 72
    65
 73
     2
 40
10.0
 49
0.0
 74
     0
 49
-10.0
 74
     0
  0
LTYPE
  5
29
330
4
100
AcDbSymbolTableRecord
100
AcDbLinetypeTableRecord
  2
DASHDOT
 70
     0
  3
_._._._._._._._._._._._._._._._.
 72
    65
 73
     4
 40
70.0
 49
31.0
 74
     0
 49
-13.0
 74
     0
 49
13.0
 74
     0
 49
-13.0
 74
     0
  0
ENDTAB
  0
TABLE
  2
LAYER
  5
2
330
0
100
AcDbSymbolTable
 70
     2
  0
LAYER
  5
14
330
2
100
AcDbSymbolTableRecord
100
AcDbLayerTableRecord
  2
0
 70
     0
 62
     7
  6
CONTINUOUS
  0
LAYER
  5
2B
330
2
100
AcDbSymbolTableRecord
100
AcDbLayerTableRecord
  2
TFR-TRI
 70
     0
 62
     7
  6
CONTINUOUS
  0
ENDTAB
  0
TABLE
  2
STYLE
  5
3
330
0
100
AcDbSymbolTable
 70
     1
  0
STYLE
  5
17
330
3
100
AcDbSymbolTableRecord
100
AcDbTextStyleTableRecord
  2
STANDARD
 70
     0
 40
0.0
 41
1.0
 50
0.0
 71
     0
 42
0.0
  3
txt
  4

  0
ENDTAB
  0
TABLE
  2
VIEW
  5
5
330
0
100
AcDbSymbolTable
 70
     8
  0
VIEW
  5
2B7
330
5
100
AcDbSymbolTableRecord
100
AcDbViewTableRecord
  2
TOP
 70
     0
 40
9.688730314960629
 10
0.0
 20
0.0
 41
14.0501968503937
 11
0.0
 21
0.0
 31
1.0
 12
0.0
 22
0.0
 32
0.0
 42
50.0
 43
29.43789732598944
 44
-29.43789732598944
 50
0.0
 71
    16
  0
VIEW
  5
2B8
330
5
100
AcDbSymbolTableRecord
100
AcDbViewTableRecord
  2
FRONT
 70
     0
 40
58.87579465197888
 10
0.0
 20
0.0
 41
14.0501968503937
 11
0.0
 21
-1.0
 31
0.0
 12
0.0
 22
0.0
 32
0.0
 42
50.0
 43
30.26453050782714
 44
-30.26453050782714
 50
0.0
 71
    16
  0
VIEW
  5
2B9
330
5
100
AcDbSymbolTableRecord
100
AcDbViewTableRecord
  2
RIGHT
 70
     0
 40
58.87579465197888
 10
0.0
 20
0.0
 41
9.688730314960629
 11
1.0
 21
0.0
 31
0.0
 12
0.0
 22
0.0
 32
0.0
 42
50.0
 43
29.83383436225564
 44
-29.83383436225564
 50
0.0
 71
    16
  0
VIEW
  5
2BA
330
5
100
AcDbSymbolTableRecord
100
AcDbViewTableRecord
  2
BACK
 70
     0
 40
58.87579465197888
 10
0.0
 20
0.0
 41
14.0501968503937
 11
0.0
 21
1.0
 31
0.0
 12
0.0
 22
0.0
 32
0.0
 42
50.0
 43
30.26453050782714
 44
-30.26453050782714
 50
0.0
 71
    16
  0
VIEW
  5
2BB
330
5
100
AcDbSymbolTableRecord
100
AcDbViewTableRecord
  2
BOTTOM
 70
     0
 40
9.688730314960629
 10
0.0
 20
0.0
 41
14.0501968503937
 11
0.0
 21
0.0
 31
-1.0
 12
0.0
 22
0.0
 32
0.0
 42
50.0
 43
29.43789732598944
 44
-29.43789732598944
 50
180.0
 71
    16
  0
VIEW
  5
2BC
330
5
100
AcDbSymbolTableRecord
100
AcDbViewTableRecord
  2
LEFT
 70
     0
 40
58.87579465197888
 10
0.0
 20
0.0
 41
9.688730314960629
 11
-1.0
 21
0.0
 31
0.0
 12
0.0
 22
0.0
 32
0.0
 42
50.0
 43
29.83383436225564
 44
-29.83383436225564
 50
0.0
 71
    16
  0
VIEW
  5
2BD
330
5
100
AcDbSymbolTableRecord
100
AcDbViewTableRecord
  2
TFR-ISO
 70
     0
 40
57.76326146544572
 10
0.0
 20
0.0
 41
16.78595637671559
 11
0.5773502691896259
 21
-0.5773502691896259
 31
0.5773502691896259
 12
0.0
 22
0.0
 32
0.0
 42
50.0
 43
30.07641395930723
 44
-30.07641395930723
 50
0.0
 71
    16
  0
VIEW
  5
2BE
330
5
100
AcDbSymbolTableRecord
100
AcDbViewTableRecord
  2
TFR-TRI
 70
     0
 40
60.95637947544744
 10
0.0
 20
0.0
 41
16.38337585801188
 11
0.7188730927569434
 21
-0.5850486126764432
 31
0.3754192287502549
 12
0.0
 22
0.0
 32
0.0
 42
50.0
 43
30.17384475913917
 44
-30.17384475913917
 50
0.0
 71
    16
  0
ENDTAB
  0
TABLE
  2
UCS
  5
6
330
0
100
AcDbSymbolTable
 70
     0
  0
ENDTAB
  0
TABLE
  2
APPID
  5
8
330
0
100
AcDbSymbolTable
 70
     2
  0
APPID
  5
16
330
8
100
AcDbSymbolTableRecord
100
AcDbRegAppTableRecord
  2
ACAD
 70
     0
  0
APPID
  5
2D7
330
8
100
AcDbSymbolTableRecord
100
AcDbRegAppTableRecord
  2
DCO15
 70
     0
  0
ENDTAB
  0
TABLE
  2
DIMSTYLE
  5
9
330
0
100
AcDbSymbolTable
 70
     1
  0
DIMSTYLE
105
18
330
9
100
AcDbSymbolTableRecord
100
AcDbDimStyleTableRecord
  2
STANDARD
 70
     0
  3

  4

  5

  6

  7

 40
1.0
 41
0.18
 42
0.0625
 43
0.38
 44
0.18
 45
0.0
 46
0.0
 47
0.0
 48
0.0
140
0.18
141
0.09
142
0.0
143
25.4
144
1.0
145
0.0
146
1.0
147
0.09
 71
     0
 72
     0
 73
     1
 74
     1
 75
     0
 76
     0
 77
     0
 78
     0
170
     0
171
     2
172
     0
173
     0
174
     0
175
     0
176
     0
177
     0
178
     0
270
     2
271
     4
272
     4
273
     2
274
     2
340
17
275
     0
280
     0
281
     0
282
     0
283
     1
284
     0
285
     0
286
     0
287
     3
288
     0
  0
ENDTAB
  0
TABLE
  2
BLOCK_RECORD
  5
1
330
0
100
AcDbSymbolTable
 70
     0
  0
BLOCK_RECORD
  5
A
102
{ACAD_XDICTIONARY
360
362
102
}
330
1
100
AcDbSymbolTableRecord
100
AcDbBlockTableRecord
  2
*MODEL_SPACE
  0
BLOCK_RECORD
  5
B
102
{ACAD_XDICTIONARY
360
364
102
}
330
1
100
AcDbSymbolTableRecord
100
AcDbBlockTableRecord
  2
*PAPER_SPACE
  0
ENDTAB
  0
ENDSEC
  0
SECTION
  2
BLOCKS
  0
BLOCK
  5
D
330
A
100
AcDbEntity
  8
0
100
AcDbBlockBegin
  2
*MODEL_SPACE
 70
     0
 10
0.0
 20
0.0
 30
0.0
  3
*MODEL_SPACE
  1

  0
ENDBLK
  5
E
330
A
100
AcDbEntity
  8
0
100
AcDbBlockEnd
  0
BLOCK
  5
F
330
B
100
AcDbEntity
 67
     1
  8
0
100
AcDbBlockBegin
  2
*PAPER_SPACE
 70
     0
 10
0.0
 20
0.0
 30
0.0
  3
*PAPER_SPACE
  1

  0
ENDBLK
  5
10
330
B
100
AcDbEntity
 67
     1
  8
0
100
AcDbBlockEnd
  0
ENDSEC
  0
SECTION
  2
ENTITIES
  0
LINE
  5
2A
330
A
100
AcDbEntity
  8
TFR-TRI
  6
CONTINUOUS
 62
     7
100
AcDbLine
 10
24.00608253479004
 20
13.1134557723999
 30
0.0
 11
24.19408226013183
 21
13.1134557723999
 31
0.0
  0
LINE
  5
2C
330
A
100
AcDbEntity
  8
TFR-TRI
  6
CONTINUOUS
 62
     7
100
AcDbLine
 10
38.8034553527832
 20
12.07365226745605
 30
0.0
 11
38.8034553527832
 21
12.07845592498779
 31
0.0
  0
LINE
  5
2D
330
A
100
AcDbEntity
  8
TFR-TRI
  6
CONTINUOUS
 62
     7
100
AcDbLine
 10
5.487215042114257
 20
28.26391792297363
 30
0.0
 11
5.464112281799316
 21
28.26391792297363
 31
0.0
  0
LINE
  5
2E
330
A
100
AcDbEntity
  8
TFR-TRI
  6
CONTINUOUS
 62
     7
100
AcDbLine
 10
24.40295028686523
 20
6.899955749511718
 30
0.0
 11
24.37185859680175
 21
6.899955749511718
 31
0.0
  0
LINE
  5
2F
330
A
100
AcDbEntity
  8
TFR-TRI
  6
CONTINUOUS
 62
     7
100
AcDbLine
 10
38.88195419311523
 20
11.92412662506103
 30
0.0
 11
38.88195419311523
 21
11.87722873687744
 31
0.0
  0
LINE
  5
30
330
A
100
AcDbEntity
  8
TFR-TRI
  6
CONTINUOUS
 62
     7
100
AcDbLine
 10
24.33397483825683
 20
28.34241676330566
 30
0.0
 11
24.37185859680175
 21
28.34241676330566
 31
0.0
  0
LINE
  5
31
330
A
100
AcDbEntity
  8
TFR-TRI
  6
CONTINUOUS
 62
     7
100
AcDbLine
 10
24.44508171081543
 20
7.008455753326416
 30
0.0
 11
24.44508171081543
 21
13.56845569610595
 31
0.0
  0
LINE
  5
32
330
A
100
AcDbEntity
  8
TFR-TRI
  6
CONTINUOUS
 62
     7
100
AcDbLine
 10
43.18195343017578
 20
13.70734786987304
 30
0.0
 11
43.18195343017578
 21
13.74523258209228
 31
0.0
  0
LINE
  5
33
330
A
100
AcDbEntity
  8
TFR-TRI
  6
CONTINUOUS
 62
     7
100
AcDbLine
 10
5.464112281799316
 20
28.34241676330566
 30
0.0
 11
5.487215042114257
 21
28.34241676330566
 31
0.0
  0
LINE
  5
34
330
A
100
AcDbEntity
  8
TFR-TRI
  6
CONTINUOUS
 62
     7
100
AcDbLine
 10
24.44508171081543
 20
6.98247480392456
 30
0.0
 11
24.44508171081543
 21
6.978455543518066
 31
0.0
  0
LINE
  5
35
330
A
100
AcDbEntity
  8
TFR-TRI
  6
CONTINUOUS
 62
     7
100
AcDbLine
 10
43.26045227050781
 20
13.79942607879638
 30
0.0
 11
43.26045227050781
 21
13.77632331848144
 31
0.0
  0
LINE
  5
36
330
A
100
AcDbEntity
  8
TFR-TRI
  6
CONTINUOUS
 62
     7
100
AcDbLine
 10
24.44508171081543
 20
28.34241676330566
 30
0.0
 11
24.44508171081543
 21
28.26391792297363
 31
0.0
  0
LINE
  5
37
330
A
100
AcDbEntity
  8
TFR-TRI
  6
CONTINUOUS
 62
     7
100
AcDbLine
 10
6.135082244873046
 20
6.944681167602539
 30
0.0
 11
6.135082244873046
 21
6.974927425384521
 31
0.0
  0
LINE
  5
38
330
A
100
AcDbEntity
  8
TFR-TRI
  6
CONTINUOUS
 62
     7
100
AcDbLine
 10
5.695082187652587
 20
6.899955749511718
 30
0.0
 11
5.646309852600097
 21
6.899955749511718
 31
0.0
  0
LINE
  5
39
330
A
100
AcDbEntity
  8
TFR-TRI
  6
CONTINUOUS
 62
     7
100
AcDbLine
 10
6.135082244873046
 20
23.97891807556152
 30
0.0
 11
6.135082244873046
 21
23.96793746948242
 31
0.0
  0
LINE
  5
3A
330
A
100
AcDbEntity
  8
TFR-TRI
  6
CONTINUOUS
 62
     7
100
AcDbLine
 10
24.44508171081543
 20
28.23391723632812
 30
0.0
 11
24.44508171081543
 21
24.24391746520996
 31
0.0
  0
LINE
  5
3B
330
A
100
AcDbEntity
  8
TFR-TRI
  6
CONTINUOUS
 62
     7
100
AcDbLine
 10
6.135082244873046
 20
7.008455753326416
 30
0.0
 11
6.135082244873046
 21
11.82845592498779
 31
0.0
  0
LINE
  5
3C
330
A
100
AcDbEntity
  8
TFR-TRI
  6
CONTINUOUS
 62
     7
100
AcDbLine
 10
5.449885845184326
 20
6.899955749511718
 30
0.0
 11
5.445082187652587
 21
6.899955749511718
 31
0.0
  0
LINE
  5
3D
330
A
100
AcDbEntity
  8
TFR-TRI
  6
CONTINUOUS
 62
     7
100
AcDbLine
 10
18.14630889892578
 20
23.88541793823242
 30
0.0
 11
18.09941101074218
 21
23.88541793823242
 31
0.0
  0
LINE
  5
3E
330
A
100
AcDbEntity
  8
TFR-TRI
  6
CONTINUOUS
 62
     7
100
AcDbLine
 10
6.135082244873046
 20
23.88541793823242
 30
0.0
 11
6.135082244873046
 21
23.96391677856445
 31
0.0
  0
LINE
  5
3F
330
A
100
AcDbEntity
  8
TFR-TRI
  6
CONTINUOUS
 62
     7
100
AcDbLine
 10
24.29075241088867
 20
6.899955749511718
 30
0.0
 11
24.24385452270508
 21
6.899955749511718
 31
0.0
  0
LINE
  5
40
330
A
100
AcDbEntity
  8
TFR-TRI
  6
CONTINUOUS
 62
     7
100
AcDbLine
 10
38.93098449707031
 20
6.978455543518066
 30
0.0
 11
38.95408630371093
 21
6.978455543518066
 31
0.0
  0
LINE
  5
41
330
A
100
AcDbEntity
  8
TFR-TRI
  6
CONTINUOUS
 62
     7
100
AcDbLine
 10
38.8034553527832
 20
11.87722873687744
 30
0.0
 11
38.8034553527832
 21
11.92412662506103
 31
0.0
  0
LINE
  5
42
330
A
100
AcDbEntity
  8
TFR-TRI
  6
CONTINUOUS
 62
     7
100
AcDbLine
 10
5.518305778503417
 20
6.978455543518066
 30
0.0
 11
5.556189537048339
 21
6.978455543518066
 31
0.0
  0
LINE
  5
43
330
A
100
AcDbEntity
  8
TFR-TRI
  6
CONTINUOUS
 62
     7
100
AcDbLine
 10
38.88195419311523
 20
12.07845592498779
 30
0.0
 11
38.88195419311523
 21
12.07365226745605
 31
0.0
  0
LINE
  5
44
330
A
100
AcDbEntity
  8
TFR-TRI
  6
CONTINUOUS
 62
     7
100
AcDbLine
 10
24.24385452270508
 20
6.978455543518066
 30
0.0
 11
24.29075241088867
 21
6.978455543518066
 31
0.0
  0
LINE
  5
45
330
A
100
AcDbEntity
  8
TFR-TRI
  6
CONTINUOUS
 62
     7
100
AcDbLine
 10
38.88195419311523
 20
12.07365226745605
 30
0.0
 11
38.88195419311523
 21
12.0594253540039
 31
0.0
  0
LINE
  5
46
330
A
100
AcDbEntity
  8
TFR-TRI
  6
CONTINUOUS
 62
     7
100
AcDbLine
 10
38.88195419311523
 20
11.87722873687744
 30
0.0
 11
38.88195419311523
 21
11.82845592498779
 31
0.0
  0
LINE
  5
47
330
A
100
AcDbEntity
  8
TFR-TRI
  6
CONTINUOUS
 62
     7
100
AcDbLine
 10
5.884082317352294
 20
9.613455772399902
 30
0.0
 11
5.696082115173339
 21
9.613455772399902
 31
0.0
  0
LINE
  5
48
330
A
100
AcDbEntity
  8
TFR-TRI
  6
CONTINUOUS
 62
     7
100
AcDbLine
 10
11.96411228179931
 20
23.88541793823242
 30
0.0
 11
11.94988632202148
 21
23.88541793823242
 31
0.0
  0
LINE
  5
49
330
A
100
AcDbEntity
  8
TFR-TRI
  6
CONTINUOUS
 62
     7
100
AcDbLine
 10
17.87185859680175
 20
23.96391677856445
 30
0.0
 11
17.90295028686523
 21
23.96391677856445
 31
0.0
  0
LINE
  5
4A
330
A
100
AcDbEntity
  8
TFR-TRI
  6
CONTINUOUS
 62
     7
100
AcDbLine
 10
43.18195343017578
 20
13.74523258209228
 30
0.0
 11
43.18195343017578
 21
13.77632331848144
 31
0.0
  0
LINE
  5
4B
330
A
100
AcDbEntity
  8
TFR-TRI
  6
CONTINUOUS
 62
     7
100
AcDbLine
 10
38.88195419311523
 20
11.87722873687744
 30
0.0
 11
38.88195419311523
 21
11.82845592498779
 31
0.0
  0
LINE
  5
4C
330
A
100
AcDbEntity
  8
TFR-TRI
  6
CONTINUOUS
 62
     7
100
AcDbLine
 10
11.83397483825683
 20
23.88541793823242
 30
0.0
 11
11.79075336456298
 21
23.88541793823242
 31
0.0
  0
LINE
  5
4D
330
A
100
AcDbEntity
  8
TFR-TRI
  6
CONTINUOUS
 62
     7
100
AcDbLine
 10
43.26045227050781
 20
13.77632331848144
 30
0.0
 11
43.26045227050781
 21
13.74523258209228
 31
0.0
  0
LINE
  5
4E
330
A
100
AcDbEntity
  8
TFR-TRI
  6
CONTINUOUS
 62
     7
100
AcDbLine
 10
5.696082115173339
 20
7.613455772399902
 30
0.0
 11
5.884082317352294
 21
7.613455772399902
 31
0.0
  0
LINE
  5
4F
330
A
100
AcDbEntity
  8
TFR-TRI
  6
CONTINUOUS
 62
     7
100
AcDbLine
 10
23.50508308410644
 20
23.88541793823242
 30
0.0
 11
18.19508171081542
 21
23.88541793823242
 31
0.0
  0
LINE
  5
50
330
A
100
AcDbEntity
  8
TFR-TRI
  6
CONTINUOUS
 62
     7
100
AcDbLine
 10
6.208305835723876
 20
23.88541793823242
 30
0.0
 11
6.177215099334716
 21
23.88541793823242
 31
0.0
  0
LINE
  5
51
330
A
100
AcDbEntity
  8
TFR-TRI
  6
CONTINUOUS
 62
     7
100
AcDbLine
 10
17.96411323547363
 20
23.88541793823242
 30
0.0
 11
17.94988632202148
 21
23.88541793823242
 31
0.0
  0
LINE
  5
52
330
A
100
AcDbEntity
  8
TFR-TRI
  6
CONTINUOUS
 62
     7
100
AcDbLine
 10
5.696082115173339
 20
13.1134557723999
 30
0.0
 11
5.884082317352294
 21
13.1134557723999
 31
0.0
  0
LINE
  5
53
330
A
100
AcDbEntity
  8
TFR-TRI
  6
CONTINUOUS
 62
     7
100
AcDbLine
 10
23.71294975280761
 20
23.88541793823242
 30
0.0
 11
23.68185997009277
 21
23.88541793823242
 31
0.0
  0
LINE
  5
54
330
A
100
AcDbEntity
  8
TFR-TRI
  6
CONTINUOUS
 62
     7
100
AcDbLine
 10
38.98517608642578
 20
6.899955749511718
 30
0.0
 11
38.95408630371093
 21
6.899955749511718
 31
0.0
  0
LINE
  5
55
330
A
100
AcDbEntity
  8
TFR-TRI
  6
CONTINUOUS
 62
     7
100
AcDbLine
 10
5.445082187652587
 20
7.008455753326416
 30
0.0
 11
5.445082187652587
 21
6.99345588684082
 31
0.0
  0
LINE
  5
56
330
A
100
AcDbEntity
  8
TFR-TRI
  6
CONTINUOUS
 62
     7
100
AcDbLine
 10
17.83397483825683
 20
23.88541793823242
 30
0.0
 11
17.79075241088867
 21
23.88541793823242
 31
0.0
  0
LINE
  5
57
330
A
100
AcDbEntity
  8
TFR-TRI
  6
CONTINUOUS
 62
     7
100
AcDbLine
 10
17.96411323547363
 20
23.96391677856445
 30
0.0
 11
17.98721504211425
 21
23.96391677856445
 31
0.0
  0
LINE
  5
58
330
A
100
AcDbEntity
  8
TFR-TRI
  6
CONTINUOUS
 62
     7
100
AcDbLine
 10
38.95408630371093
 20
6.978455543518066
 30
0.0
 11
38.98517608642578
 21
6.978455543518066
 31
0.0
  0
LINE
  5
59
330
A
100
AcDbEntity
  8
TFR-TRI
  6
CONTINUOUS
 62
     7
100
AcDbLine
 10
5.696082115173339
 20
13.1134557723999
 30
0.0
 11
5.884082317352294
 21
13.1134557723999
 31
0.0
  0
LINE
  5
5A
330
A
100
AcDbEntity
  8
TFR-TRI
  6
CONTINUOUS
 62
     7
100
AcDbLine
 10
12.05618953704834
 20
23.88541793823242
 30
0.0
 11
12.01830577850341
 21
23.88541793823242
 31
0.0
  0
LINE
  5
5B
330
A
100
AcDbEntity
  8
TFR-TRI
  6
CONTINUOUS
 62
     7
100
AcDbLine
 10
23.50508308410644
 20
23.96391677856445
 30
0.0
 11
23.55385398864746
 21
23.96391677856445
 31
0.0
  0
LINE
  5
5C
330
A
100
AcDbEntity
  8
TFR-TRI
  6
CONTINUOUS
 62
     7
100
AcDbLine
 10
24.00608253479004
 20
11.3634557723999
 30
0.0
 11
24.19408226013183
 21
11.3634557723999
 31
0.0
  0
LINE
  5
5D
330
A
100
AcDbEntity
  8
TFR-TRI
  6
CONTINUOUS
 62
     7
100
AcDbLine
 10
6.135082244873046
 20
6.905266284942626
 30
0.0
 11
6.135082244873046
 21
6.920677185058593
 31
0.0
  0
LINE
  5
5E
330
A
100
AcDbEntity
  8
TFR-TRI
  6
CONTINUOUS
 62
     7
100
AcDbLine
 10
38.8034553527832
 20
12.07845592498779
 30
0.0
 11
38.88195419311523
 21
12.07845592498779
 31
0.0
  0
LINE
  5
5F
330
A
100
AcDbEntity
  8
TFR-TRI
  6
CONTINUOUS
 62
     7
100
AcDbLine
 10
11.92605209350585
 20
23.88541793823242
 30
0.0
 11
11.90294933319091
 21
23.88541793823242
 31
0.0
  0
LINE
  5
60
330
A
100
AcDbEntity
  8
TFR-TRI
  6
CONTINUOUS
 62
     7
100
AcDbLine
 10
23.75027847290039
 20
23.96391677856445
 30
0.0
 11
23.75508308410644
 21
23.96391677856445
 31
0.0
  0
LINE
  5
61
330
A
100
AcDbEntity
  8
TFR-TRI
  6
CONTINUOUS
 62
     7
100
AcDbLine
 10
6.385082244873046
 20
23.96391677856445
 30
0.0
 11
11.69508266448974
 21
23.96391677856445
 31
0.0
  0
LINE
  5
62
330
A
100
AcDbEntity
  8
TFR-TRI
  6
CONTINUOUS
 62
     7
100
AcDbLine
 10
18.0183048248291
 20
23.88541793823242
 30
0.0
 11
17.98721504211425
 21
23.88541793823242
 31
0.0
  0
LINE
  5
63
330
A
100
AcDbEntity
  8
TFR-TRI
  6
CONTINUOUS
 62
     7
100
AcDbLine
 10
23.75508308410644
 20
23.88541793823242
 30
0.0
 11
23.75027847290039
 21
23.88541793823242
 31
0.0
  0
LINE
  5
64
330
A
100
AcDbEntity
  8
TFR-TRI
  6
CONTINUOUS
 62
     7
100
AcDbLine
 10
24.440279006958
 20
6.978455543518066
 30
0.0
 11
24.44508171081543
 21
6.978455543518066
 31
0.0
  0
LINE
  5
65
330
A
100
AcDbEntity
  8
TFR-TRI
  6
CONTINUOUS
 62
     7
100
AcDbLine
 10
11.90294933319091
 20
23.96391677856445
 30
0.0
 11
11.92605209350585
 21
23.96391677856445
 31
0.0
  0
LINE
  5
66
330
A
100
AcDbEntity
  8
TFR-TRI
  6
CONTINUOUS
 62
     7
100
AcDbLine
 10
12.01830577850341
 20
23.96391677856445
 30
0.0
 11
12.05618953704834
 21
23.96391677856445
 31
0.0
  0
LINE
  5
67
330
A
100
AcDbEntity
  8
TFR-TRI
  6
CONTINUOUS
 62
     7
100
AcDbLine
 10
18.09941101074218
 20
23.96391677856445
 30
0.0
 11
18.14630889892578
 21
23.96391677856445
 31
0.0
  0
LINE
  5
68
330
A
100
AcDbEntity
  8
TFR-TRI
  6
CONTINUOUS
 62
     7
100
AcDbLine
 10
17.79075241088867
 20
23.96391677856445
 30
0.0
 11
17.83397483825683
 21
23.96391677856445
 31
0.0
  0
LINE
  5
69
330
A
100
AcDbEntity
  8
TFR-TRI
  6
CONTINUOUS
 62
     7
100
AcDbLine
 10
23.73605155944824
 20
23.96391677856445
 30
0.0
 11
23.75027847290039
 21
23.96391677856445
 31
0.0
  0
LINE
  5
6A
330
A
100
AcDbEntity
  8
TFR-TRI
  6
CONTINUOUS
 62
     7
100
AcDbLine
 10
23.68185997009277
 20
23.96391677856445
 30
0.0
 11
23.71294975280761
 21
23.96391677856445
 31
0.0
  0
LINE
  5
6B
330
A
100
AcDbEntity
  8
TFR-TRI
  6
CONTINUOUS
 62
     7
100
AcDbLine
 10
24.440279006958
 20
28.26391792297363
 30
0.0
 11
24.42605209350586
 21
28.26391792297363
 31
0.0
  0
LINE
  5
6C
330
A
100
AcDbEntity
  8
TFR-TRI
  6
CONTINUOUS
 62
     7
100
AcDbLine
 10
24.19508171081543
 20
28.26391792297363
 30
0.0
 11
5.695082187652587
 21
28.26391792297363
 31
0.0
  0
LINE
  5
6D
330
A
100
AcDbEntity
  8
TFR-TRI
  6
CONTINUOUS
 62
     7
100
AcDbLine
 10
5.464112281799316
 20
28.26391792297363
 30
0.0
 11
5.449885845184326
 21
28.26391792297363
 31
0.0
  0
LINE
  5
6E
330
A
100
AcDbEntity
  8
TFR-TRI
  6
CONTINUOUS
 62
     7
100
AcDbLine
 10
24.37185859680175
 20
28.34241676330566
 30
0.0
 11
24.40295028686523
 21
28.34241676330566
 31
0.0
  0
LINE
  5
6F
330
A
100
AcDbEntity
  8
TFR-TRI
  6
CONTINUOUS
 62
     7
100
AcDbLine
 10
5.487215042114257
 20
28.34241676330566
 30
0.0
 11
5.518305778503417
 21
28.34241676330566
 31
0.0
  0
LINE
  5
70
330
A
100
AcDbEntity
  8
TFR-TRI
  6
CONTINUOUS
 62
     7
100
AcDbLine
 10
11.98721504211425
 20
23.96391677856445
 30
0.0
 11
12.01830577850341
 21
23.96391677856445
 31
0.0
  0
LINE
  5
71
330
A
100
AcDbEntity
  8
TFR-TRI
  6
CONTINUOUS
 62
     7
100
AcDbLine
 10
24.44508171081543
 20
28.26391792297363
 30
0.0
 11
24.44508171081543
 21
28.25989913940429
 31
0.0
  0
LINE
  5
72
330
A
100
AcDbEntity
  8
TFR-TRI
  6
CONTINUOUS
 62
     7
100
AcDbLine
 10
12.05618953704834
 20
23.96391677856445
 30
0.0
 11
12.09941101074218
 21
23.96391677856445
 31
0.0
  0
LINE
  5
73
330
A
100
AcDbEntity
  8
TFR-TRI
  6
CONTINUOUS
 62
     7
100
AcDbLine
 10
5.445082187652587
 20
28.23391723632812
 30
0.0
 11
5.445082187652587
 21
24.24391746520996
 31
0.0
  0
LINE
  5
74
330
A
100
AcDbEntity
  8
TFR-TRI
  6
CONTINUOUS
 62
     7
100
AcDbLine
 10
11.90294933319091
 20
23.96391677856445
 30
0.0
 11
11.92605209350585
 21
23.96391677856445
 31
0.0
  0
LINE
  5
75
330
A
100
AcDbEntity
  8
TFR-TRI
  6
CONTINUOUS
 62
     7
100
AcDbLine
 10
24.440279006958
 20
28.26391792297363
 30
0.0
 11
24.42605209350586
 21
28.26391792297363
 31
0.0
  0
LINE
  5
76
330
A
100
AcDbEntity
  8
TFR-TRI
  6
CONTINUOUS
 62
     7
100
AcDbLine
 10
11.69508266448974
 20
12.07845592498779
 30
0.0
 11
6.385082244873046
 21
12.07845592498779
 31
0.0
  0
LINE
  5
77
330
A
100
AcDbEntity
  8
TFR-TRI
  6
CONTINUOUS
 62
     7
100
AcDbLine
 10
38.88195419311523
 20
12.03632354736328
 30
0.0
 11
38.88195419311523
 21
12.00523281097412
 31
0.0
  0
LINE
  5
78
330
A
100
AcDbEntity
  8
TFR-TRI
  6
CONTINUOUS
 62
     7
100
AcDbLine
 10
38.8034553527832
 20
11.87722873687744
 30
0.0
 11
38.8034553527832
 21
11.92412662506103
 31
0.0
  0
LINE
  5
79
330
A
100
AcDbEntity
  8
TFR-TRI
  6
CONTINUOUS
 62
     7
100
AcDbLine
 10
24.19508171081543
 20
28.26391792297363
 30
0.0
 11
5.695082187652587
 21
28.26391792297363
 31
0.0
  0
LINE
  5
7A
330
A
100
AcDbEntity
  8
TFR-TRI
  6
CONTINUOUS
 62
     7
100
AcDbLine
 10
24.440279006958
 20
6.899955749511718
 30
0.0
 11
24.42605209350586
 21
6.899955749511718
 31
0.0
  0
LINE
  5
7B
330
A
100
AcDbEntity
  8
TFR-TRI
  6
CONTINUOUS
 62
     7
100
AcDbLine
 10
38.88195419311523
 20
12.07845592498779
 30
0.0
 11
38.88195419311523
 21
12.07365226745605
 31
0.0
  0
LINE
  5
7C
330
A
100
AcDbEntity
  8
TFR-TRI
  6
CONTINUOUS
 62
     7
100
AcDbLine
 10
5.464112281799316
 20
28.26391792297363
 30
0.0
 11
5.449885845184326
 21
28.26391792297363
 31
0.0
  0
LINE
  5
7D
330
A
100
AcDbEntity
  8
TFR-TRI
  6
CONTINUOUS
 62
     7
100
AcDbLine
 10
38.91675949096679
 20
6.899955749511718
 30
0.0
 11
38.9119529724121
 21
6.899955749511718
 31
0.0
  0
LINE
  5
7E
330
A
100
AcDbEntity
  8
TFR-TRI
  6
CONTINUOUS
 62
     7
100
AcDbLine
 10
5.449885845184326
 20
6.978455543518066
 30
0.0
 11
5.464112281799316
 21
6.978455543518066
 31
0.0
  0
LINE
  5
7F
330
A
100
AcDbEntity
  8
TFR-TRI
  6
CONTINUOUS
 62
     7
100
AcDbLine
 10
24.37185859680175
 20
28.34241676330566
 30
0.0
 11
24.40295028686523
 21
28.34241676330566
 31
0.0
  0
LINE
  5
80
330
A
100
AcDbEntity
  8
TFR-TRI
  6
CONTINUOUS
 62
     7
100
AcDbLine
 10
43.18195343017578
 20
13.74523258209228
 30
0.0
 11
43.18195343017578
 21
13.77632331848144
 31
0.0
  0
LINE
  5
81
330
A
100
AcDbEntity
  8
TFR-TRI
  6
CONTINUOUS
 62
     7
100
AcDbLine
 10
5.487215042114257
 20
28.34241676330566
 30
0.0
 11
5.518305778503417
 21
28.34241676330566
 31
0.0
  0
LINE
  5
82
330
A
100
AcDbEntity
  8
TFR-TRI
  6
CONTINUOUS
 62
     7
100
AcDbLine
 10
6.154112339019775
 20
23.88541793823242
 30
0.0
 11
6.139885902404785
 21
23.88541793823242
 31
0.0
  0
LINE
  5
83
330
A
100
AcDbEntity
  8
TFR-TRI
  6
CONTINUOUS
 62
     7
100
AcDbLine
 10
5.445082187652587
 20
7.008455753326416
 30
0.0
 11
5.445082187652587
 21
6.99345588684082
 31
0.0
  0
LINE
  5
84
330
A
100
AcDbEntity
  8
TFR-TRI
  6
CONTINUOUS
 62
     7
100
AcDbLine
 10
24.40295028686523
 20
6.978455543518066
 30
0.0
 11
24.42605209350586
 21
6.978455543518066
 31
0.0
  0
LINE
  5
85
330
A
100
AcDbEntity
  8
TFR-TRI
  6
CONTINUOUS
 62
     7
100
AcDbLine
 10
24.44508171081543
 20
28.26391792297363
 30
0.0
 11
24.44508171081543
 21
28.25989913940429
 31
0.0
  0
LINE
  5
86
330
A
100
AcDbEntity
  8
TFR-TRI
  6
CONTINUOUS
 62
     7
100
AcDbLine
 10
6.135082244873046
 20
6.974927425384521
 30
0.0
 11
6.135082244873046
 21
7.008455753326416
 31
0.0
  0
LINE
  5
87
330
A
100
AcDbEntity
  8
TFR-TRI
  6
CONTINUOUS
 62
     7
100
AcDbLine
 10
6.135082244873046
 20
23.96793746948242
 30
0.0
 11
6.135082244873046
 21
23.96391677856445
 31
0.0
  0
LINE
  5
88
330
A
100
AcDbEntity
  8
TFR-TRI
  6
CONTINUOUS
 62
     7
100
AcDbLine
 10
5.445082187652587
 20
28.23391723632812
 30
0.0
 11
5.445082187652587
 21
24.24391746520996
 31
0.0
  0
LINE
  5
89
330
A
100
AcDbEntity
  8
TFR-TRI
  6
CONTINUOUS
 62
     7
100
AcDbLine
 10
24.44508171081543
 20
6.899955749511718
 30
0.0
 11
24.440279006958
 21
6.899955749511718
 31
0.0
  0
LINE
  5
8A
330
A
100
AcDbEntity
  8
TFR-TRI
  6
CONTINUOUS
 62
     7
100
AcDbLine
 10
18.09941101074218
 20
23.88541793823242
 30
0.0
 11
18.05619049072265
 21
23.88541793823242
 31
0.0
  0
LINE
  5
8B
330
A
100
AcDbEntity
  8
TFR-TRI
  6
CONTINUOUS
 62
     7
100
AcDbLine
 10
11.94508266448974
 20
23.96391677856445
 30
0.0
 11
11.94508266448974
 21
23.88541793823242
 31
0.0
  0
LINE
  5
8C
330
A
100
AcDbEntity
  8
TFR-TRI
  6
CONTINUOUS
 62
     7
100
AcDbLine
 10
11.940279006958
 20
23.96391677856445
 30
0.0
 11
11.94508266448974
 21
23.96391677856445
 31
0.0
  0
LINE
  5
8D
330
A
100
AcDbEntity
  8
TFR-TRI
  6
CONTINUOUS
 62
     7
100
AcDbLine
 10
24.24385452270508
 20
6.899955749511718
 30
0.0
 11
24.19508171081543
 21
6.899955749511718
 31
0.0
  0
LINE
  5
8E
330
A
100
AcDbEntity
  8
TFR-TRI
  6
CONTINUOUS
 62
     7
100
AcDbLine
 10
17.940279006958
 20
23.88541793823242
 30
0.0
 11
17.92605209350585
 21
23.88541793823242
 31
0.0
  0
LINE
  5
8F
330
A
100
AcDbEntity
  8
TFR-TRI
  6
CONTINUOUS
 62
     7
100
AcDbLine
 10
38.8034553527832
 20
11.92412662506103
 30
0.0
 11
38.8034553527832
 21
11.96734809875488
 31
0.0
  0
LINE
  5
90
330
A
100
AcDbEntity
  8
TFR-TRI
  6
CONTINUOUS
 62
     7
100
AcDbLine
 10
5.556189537048339
 20
6.978455543518066
 30
0.0
 11
5.599411487579345
 21
6.978455543518066
 31
0.0
  0
LINE
  5
91
330
A
100
AcDbEntity
  8
TFR-TRI
  6
CONTINUOUS
 62
     7
100
AcDbLine
 10
38.8034553527832
 20
12.07845592498779
 30
0.0
 11
38.88195419311523
 21
12.07845592498779
 31
0.0
  0
LINE
  5
92
330
A
100
AcDbEntity
  8
TFR-TRI
  6
CONTINUOUS
 62
     7
100
AcDbLine
 10
23.75508308410644
 20
6.920677185058593
 30
0.0
 11
23.75508308410644
 21
6.944681167602539
 31
0.0
  0
LINE
  5
93
330
A
100
AcDbEntity
  8
TFR-TRI
  6
CONTINUOUS
 62
     7
100
AcDbLine
 10
5.599411487579345
 20
6.899955749511718
 30
0.0
 11
5.556189537048339
 21
6.899955749511718
 31
0.0
  0
LINE
  5
94
330
A
100
AcDbEntity
  8
TFR-TRI
  6
CONTINUOUS
 62
     7
100
AcDbLine
 10
24.29075241088867
 20
6.978455543518066
 30
0.0
 11
24.33397483825683
 21
6.978455543518066
 31
0.0
  0
LINE
  5
95
330
A
100
AcDbEntity
  8
TFR-TRI
  6
CONTINUOUS
 62
     7
100
AcDbLine
 10
38.88195419311523
 20
7.008455753326416
 30
0.0
 11
38.88195419311523
 21
11.82845592498779
 31
0.0
  0
LINE
  5
96
330
A
100
AcDbEntity
  8
TFR-TRI
  6
CONTINUOUS
 62
     7
100
AcDbLine
 10
11.94988632202148
 20
23.88541793823242
 30
0.0
 11
11.94508266448974
 21
23.88541793823242
 31
0.0
  0
LINE
  5
97
330
A
100
AcDbEntity
  8
TFR-TRI
  6
CONTINUOUS
 62
     7
100
AcDbLine
 10
17.90295028686523
 20
23.96391677856445
 30
0.0
 11
17.92605209350585
 21
23.96391677856445
 31
0.0
  0
LINE
  5
98
330
A
100
AcDbEntity
  8
TFR-TRI
  6
CONTINUOUS
 62
     7
100
AcDbLine
 10
43.18195343017578
 20
13.77632331848144
 30
0.0
 11
43.18195343017578
 21
13.79942607879638
 31
0.0
  0
LINE
  5
99
330
A
100
AcDbEntity
  8
TFR-TRI
  6
CONTINUOUS
 62
     7
100
AcDbLine
 10
24.00608253479004
 20
9.613455772399902
 30
0.0
 11
24.19408226013183
 21
9.613455772399902
 31
0.0
  0
LINE
  5
9A
330
A
100
AcDbEntity
  8
TFR-TRI
  6
CONTINUOUS
 62
     7
100
AcDbLine
 10
6.135082244873046
 20
23.99391746520996
 30
0.0
 11
6.135082244873046
 21
23.97891807556152
 31
0.0
  0
LINE
  5
9B
330
A
100
AcDbEntity
  8
TFR-TRI
  6
CONTINUOUS
 62
     7
100
AcDbLine
 10
11.79075336456298
 20
23.88541793823242
 30
0.0
 11
11.74385452270507
 21
23.88541793823242
 31
0.0
  0
LINE
  5
9C
330
A
100
AcDbEntity
  8
TFR-TRI
  6
CONTINUOUS
 62
     7
100
AcDbLine
 10
43.26045227050781
 20
13.74523258209228
 30
0.0
 11
43.26045227050781
 21
13.70734786987304
 31
0.0
  0
LINE
  5
9D
330
A
100
AcDbEntity
  8
TFR-TRI
  6
CONTINUOUS
 62
     7
100
AcDbLine
 10
18.19508171081542
 20
23.88541793823242
 30
0.0
 11
18.14630889892578
 21
23.88541793823242
 31
0.0
  0
LINE
  5
9E
330
A
100
AcDbEntity
  8
TFR-TRI
  6
CONTINUOUS
 62
     7
100
AcDbLine
 10
39.0662841796875
 20
6.978455543518066
 30
0.0
 11
39.11318206787109
 21
6.978455543518066
 31
0.0
  0
LINE
  5
9F
330
A
100
AcDbEntity
  8
TFR-TRI
  6
CONTINUOUS
 62
     7
100
AcDbLine
 10
6.177215099334716
 20
23.88541793823242
 30
0.0
 11
6.154112339019775
 21
23.88541793823242
 31
0.0
  0
LINE
  5
A0
330
A
100
AcDbEntity
  8
TFR-TRI
  6
CONTINUOUS
 62
     7
100
AcDbLine
 10
23.64397430419921
 20
23.88541793823242
 30
0.0
 11
23.60075378417968
 21
23.88541793823242
 31
0.0
  0
LINE
  5
A1
330
A
100
AcDbEntity
  8
TFR-TRI
  6
CONTINUOUS
 62
     7
100
AcDbLine
 10
43.1519546508789
 20
6.978455543518066
 30
0.0
 11
39.16195297241211
 21
6.978455543518066
 31
0.0
  0
LINE
  5
A2
330
A
100
AcDbEntity
  8
TFR-TRI
  6
CONTINUOUS
 62
     7
100
AcDbLine
 10
24.19508171081543
 20
13.81845569610595
 30
0.0
 11
5.695082187652587
 21
13.81845569610595
 31
0.0
  0
LINE
  5
A3
330
A
100
AcDbEntity
  8
TFR-TRI
  6
CONTINUOUS
 62
     7
100
AcDbLine
 10
17.94988632202148
 20
23.88541793823242
 30
0.0
 11
17.94508171081543
 21
23.88541793823242
 31
0.0
  0
LINE
  5
A4
330
A
100
AcDbEntity
  8
TFR-TRI
  6
CONTINUOUS
 62
     7
100
AcDbLine
 10
6.208305835723876
 20
23.88541793823242
 30
0.0
 11
6.177215099334716
 21
23.88541793823242
 31
0.0
  0
LINE
  5
A5
330
A
100
AcDbEntity
  8
TFR-TRI
  6
CONTINUOUS
 62
     7
100
AcDbLine
 10
17.94988632202148
 20
23.88541793823242
 30
0.0
 11
17.94508171081543
 21
23.88541793823242
 31
0.0
  0
LINE
  5
A6
330
A
100
AcDbEntity
  8
TFR-TRI
  6
CONTINUOUS
 62
     7
100
AcDbLine
 10
23.68185997009277
 20
23.88541793823242
 30
0.0
 11
23.64397430419921
 21
23.88541793823242
 31
0.0
  0
LINE
  5
A7
330
A
100
AcDbEntity
  8
TFR-TRI
  6
CONTINUOUS
 62
     7
100
AcDbLine
 10
38.95408630371093
 20
6.899955749511718
 30
0.0
 11
38.93098449707031
 21
6.899955749511718
 31
0.0
  0
LINE
  5
A8
330
A
100
AcDbEntity
  8
TFR-TRI
  6
CONTINUOUS
 62
     7
100
AcDbLine
 10
17.74385452270507
 20
23.88541793823242
 30
0.0
 11
17.69508171081542
 21
23.88541793823242
 31
0.0
  0
LINE
  5
A9
330
A
100
AcDbEntity
  8
TFR-TRI
  6
CONTINUOUS
 62
     7
100
AcDbLine
 10
17.79075241088867
 20
23.88541793823242
 30
0.0
 11
17.74385452270507
 21
23.88541793823242
 31
0.0
  0
LINE
  5
AA
330
A
100
AcDbEntity
  8
TFR-TRI
  6
CONTINUOUS
 62
     7
100
AcDbLine
 10
17.98721504211425
 20
23.96391677856445
 30
0.0
 11
18.0183048248291
 21
23.96391677856445
 31
0.0
  0
LINE
  5
AB
330
A
100
AcDbEntity
  8
TFR-TRI
  6
CONTINUOUS
 62
     7
100
AcDbLine
 10
5.884082317352294
 20
11.1134557723999
 30
0.0
 11
5.696082115173339
 21
11.1134557723999
 31
0.0
  0
LINE
  5
AC
330
A
100
AcDbEntity
  8
TFR-TRI
  6
CONTINUOUS
 62
     7
100
AcDbLine
 10
38.98517608642578
 20
6.978455543518066
 30
0.0
 11
39.0230598449707
 21
6.978455543518066
 31
0.0
  0
LINE
  5
AD
330
A
100
AcDbEntity
  8
TFR-TRI
  6
CONTINUOUS
 62
     7
100
AcDbLine
 10
12.01830577850341
 20
23.88541793823242
 30
0.0
 11
11.98721504211425
 21
23.88541793823242
 31
0.0
  0
LINE
  5
AE
330
A
100
AcDbEntity
  8
TFR-TRI
  6
CONTINUOUS
 62
     7
100
AcDbLine
 10
23.55385398864746
 20
23.96391677856445
 30
0.0
 11
23.60075378417968
 21
23.96391677856445
 31
0.0
  0
LINE
  5
AF
330
A
100
AcDbEntity
  8
TFR-TRI
  6
CONTINUOUS
 62
     7
100
AcDbLine
 10
11.90294933319091
 20
23.88541793823242
 30
0.0
 11
11.87185859680175
 21
23.88541793823242
 31
0.0
  0
LINE
  5
B0
330
A
100
AcDbEntity
  8
TFR-TRI
  6
CONTINUOUS
 62
     7
100
AcDbLine
 10
6.135082244873046
 20
23.96391677856445
 30
0.0
 11
6.139885902404785
 21
23.96391677856445
 31
0.0
  0
LINE
  5
B1
330
A
100
AcDbEntity
  8
TFR-TRI
  6
CONTINUOUS
 62
     7
100
AcDbLine
 10
24.24385452270508
 20
6.978455543518066
 30
0.0
 11
24.29075241088867
 21
6.978455543518066
 31
0.0
  0
LINE
  5
B2
330
A
100
AcDbEntity
  8
TFR-TRI
  6
CONTINUOUS
 62
     7
100
AcDbLine
 10
5.696082115173339
 20
7.863455772399902
 30
0.0
 11
5.884082317352294
 21
7.863455772399902
 31
0.0
  0
LINE
  5
B3
330
A
100
AcDbEntity
  8
TFR-TRI
  6
CONTINUOUS
 62
     7
100
AcDbLine
 10
24.33397483825683
 20
6.899955749511718
 30
0.0
 11
24.29075241088867
 21
6.899955749511718
 31
0.0
  0
LINE
  5
B4
330
A
100
AcDbEntity
  8
TFR-TRI
  6
CONTINUOUS
 62
     7
100
AcDbLine
 10
6.336309909820556
 20
23.96391677856445
 30
0.0
 11
6.385082244873046
 21
23.96391677856445
 31
0.0
  0
LINE
  5
B5
330
A
100
AcDbEntity
  8
TFR-TRI
  6
CONTINUOUS
 62
     7
100
AcDbLine
 10
11.92605209350585
 20
23.96391677856445
 30
0.0
 11
11.940279006958
 21
23.96391677856445
 31
0.0
  0
LINE
  5
B6
330
A
100
AcDbEntity
  8
TFR-TRI
  6
CONTINUOUS
 62
     7
100
AcDbLine
 10
23.75027847290039
 20
23.88541793823242
 30
0.0
 11
23.73605155944824
 21
23.88541793823242
 31
0.0
  0
LINE
  5
B7
330
A
100
AcDbEntity
  8
TFR-TRI
  6
CONTINUOUS
 62
     7
100
AcDbLine
 10
11.92605209350585
 20
23.96391677856445
 30
0.0
 11
11.940279006958
 21
23.96391677856445
 31
0.0
  0
LINE
  5
B8
330
A
100
AcDbEntity
  8
TFR-TRI
  6
CONTINUOUS
 62
     7
100
AcDbLine
 10
17.94508171081543
 20
23.96391677856445
 30
0.0
 11
17.94988632202148
 21
23.96391677856445
 31
0.0
  0
LINE
  5
B9
330
A
100
AcDbEntity
  8
TFR-TRI
  6
CONTINUOUS
 62
     7
100
AcDbLine
 10
12.05618953704834
 20
23.96391677856445
 30
0.0
 11
12.09941101074218
 21
23.96391677856445
 31
0.0
  0
LINE
  5
BA
330
A
100
AcDbEntity
  8
TFR-TRI
  6
CONTINUOUS
 62
     7
100
AcDbLine
 10
18.14630889892578
 20
23.96391677856445
 30
0.0
 11
18.19508171081542
 21
23.96391677856445
 31
0.0
  0
LINE
  5
BB
330
A
100
AcDbEntity
  8
TFR-TRI
  6
CONTINUOUS
 62
     7
100
AcDbLine
 10
17.83397483825683
 20
23.96391677856445
 30
0.0
 11
17.87185859680175
 21
23.96391677856445
 31
0.0
  0
LINE
  5
BC
330
A
100
AcDbEntity
  8
TFR-TRI
  6
CONTINUOUS
 62
     7
100
AcDbLine
 10
24.42605209350586
 20
28.26391792297363
 30
0.0
 11
24.40295028686523
 21
28.26391792297363
 31
0.0
  0
LINE
  5
BD
330
A
100
AcDbEntity
  8
TFR-TRI
  6
CONTINUOUS
 62
     7
100
AcDbLine
 10
6.208305835723876
 20
23.96391677856445
 30
0.0
 11
6.246189594268798
 21
23.96391677856445
 31
0.0
  0
LINE
  5
BE
330
A
100
AcDbEntity
  8
TFR-TRI
  6
CONTINUOUS
 62
     7
100
AcDbLine
 10
6.289411544799804
 20
23.88541793823242
 30
0.0
 11
6.246189594268798
 21
23.88541793823242
 31
0.0
  0
LINE
  5
BF
330
A
100
AcDbEntity
  8
TFR-TRI
  6
CONTINUOUS
 62
     7
100
AcDbLine
 10
5.695082187652587
 20
28.26391792297363
 30
0.0
 11
5.646309852600097
 21
28.26391792297363
 31
0.0
  0
LINE
  5
C0
330
A
100
AcDbEntity
  8
TFR-TRI
  6
CONTINUOUS
 62
     7
100
AcDbLine
 10
17.98721504211425
 20
23.88541793823242
 30
0.0
 11
17.96411323547363
 21
23.88541793823242
 31
0.0
  0
LINE
  5
C1
330
A
100
AcDbEntity
  8
TFR-TRI
  6
CONTINUOUS
 62
     7
100
AcDbLine
 10
5.449885845184326
 20
28.26391792297363
 30
0.0
 11
5.445082187652587
 21
28.26391792297363
 31
0.0
  0
LINE
  5
C2
330
A
100
AcDbEntity
  8
TFR-TRI
  6
CONTINUOUS
 62
     7
100
AcDbLine
 10
24.33397483825683
 20
28.26391792297363
 30
0.0
 11
24.29075241088867
 21
28.26391792297363
 31
0.0
  0
LINE
  5
C3
330
A
100
AcDbEntity
  8
TFR-TRI
  6
CONTINUOUS
 62
     7
100
AcDbLine
 10
24.40295028686523
 20
28.34241676330566
 30
0.0
 11
24.42605209350586
 21
28.34241676330566
 31
0.0
  0
LINE
  5
C4
330
A
100
AcDbEntity
  8
TFR-TRI
  6
CONTINUOUS
 62
     7
100
AcDbLine
 10
5.518305778503417
 20
28.34241676330566
 30
0.0
 11
5.556189537048339
 21
28.34241676330566
 31
0.0
  0
LINE
  5
C5
330
A
100
AcDbEntity
  8
TFR-TRI
  6
CONTINUOUS
 62
     7
100
AcDbLine
 10
24.44508171081543
 20
28.25989913940429
 30
0.0
 11
24.44508171081543
 21
28.24891853332519
 31
0.0
  0
LINE
  5
C6
330
A
100
AcDbEntity
  8
TFR-TRI
  6
CONTINUOUS
 62
     7
100
AcDbLine
 10
12.09941101074218
 20
23.96391677856445
 30
0.0
 11
12.14630985260009
 21
23.96391677856445
 31
0.0
  0
LINE
  5
C7
330
A
100
AcDbEntity
  8
TFR-TRI
  6
CONTINUOUS
 62
     7
100
AcDbLine
 10
5.646309852600097
 20
6.899955749511718
 30
0.0
 11
5.599411487579345
 21
6.899955749511718
 31
0.0
  0
LINE
  5
C8
330
A
100
AcDbEntity
  8
TFR-TRI
  6
CONTINUOUS
 62
     7
100
AcDbLine
 10
6.336309909820556
 20
23.96391677856445
 30
0.0
 11
6.385082244873046
 21
23.96391677856445
 31
0.0
  0
LINE
  5
C9
330
A
100
AcDbEntity
  8
TFR-TRI
  6
CONTINUOUS
 62
     7
100
AcDbLine
 10
38.8034553527832
 20
12.03632354736328
 30
0.0
 11
38.8034553527832
 21
12.0594253540039
 31
0.0
  0
LINE
  5
CA
330
A
100
AcDbEntity
  8
TFR-TRI
  6
CONTINUOUS
 62
     7
100
AcDbLine
 10
5.445082187652587
 20
6.899955749511718
 30
0.0
 11
5.445082187652587
 21
6.978455543518066
 31
0.0
  0
LINE
  5
CB
330
A
100
AcDbEntity
  8
TFR-TRI
  6
CONTINUOUS
 62
     7
100
AcDbLine
 10
24.42605209350586
 20
28.26391792297363
 30
0.0
 11
24.40295028686523
 21
28.26391792297363
 31
0.0
  0
LINE
  5
CC
330
A
100
AcDbEntity
  8
TFR-TRI
  6
CONTINUOUS
 62
     7
100
AcDbLine
 10
6.135082244873046
 20
6.899955749511718
 30
0.0
 11
6.135082244873046
 21
6.905266284942626
 31
0.0
  0
LINE
  5
CD
330
A
100
AcDbEntity
  8
TFR-TRI
  6
CONTINUOUS
 62
     7
100
AcDbLine
 10
5.487215042114257
 20
6.899955749511718
 30
0.0
 11
5.464112281799316
 21
6.899955749511718
 31
0.0
  0
LINE
  5
CE
330
A
100
AcDbEntity
  8
TFR-TRI
  6
CONTINUOUS
 62
     7
100
AcDbLine
 10
5.695082187652587
 20
28.26391792297363
 30
0.0
 11
5.646309852600097
 21
28.26391792297363
 31
0.0
  0
LINE
  5
CF
330
A
100
AcDbEntity
  8
TFR-TRI
  6
CONTINUOUS
 62
     7
100
AcDbLine
 10
38.88195419311523
 20
12.07365226745605
 30
0.0
 11
38.88195419311523
 21
12.0594253540039
 31
0.0
  0
LINE
  5
D0
330
A
100
AcDbEntity
  8
TFR-TRI
  6
CONTINUOUS
 62
     7
100
AcDbLine
 10
5.449885845184326
 20
28.26391792297363
 30
0.0
 11
5.445082187652587
 21
28.26391792297363
 31
0.0
  0
LINE
  5
D1
330
A
100
AcDbEntity
  8
TFR-TRI
  6
CONTINUOUS
 62
     7
100
AcDbLine
 10
6.385082244873046
 20
23.88541793823242
 30
0.0
 11
6.336309909820556
 21
23.88541793823242
 31
0.0
  0
LINE
  5
D2
330
A
100
AcDbEntity
  8
TFR-TRI
  6
CONTINUOUS
 62
     7
100
AcDbLine
 10
38.88195419311523
 20
7.008455753326416
 30
0.0
 11
38.88195419311523
 21
11.82845592498779
 31
0.0
  0
LINE
  5
D3
330
A
100
AcDbEntity
  8
TFR-TRI
  6
CONTINUOUS
 62
     7
100
AcDbLine
 10
24.40295028686523
 20
28.34241676330566
 30
0.0
 11
24.42605209350586
 21
28.34241676330566
 31
0.0
  0
LINE
  5
D4
330
A
100
AcDbEntity
  8
TFR-TRI
  6
CONTINUOUS
 62
     7
100
AcDbLine
 10
23.50508308410644
 20
12.07845592498779
 30
0.0
 11
18.19508171081542
 21
12.07845592498779
 31
0.0
  0
LINE
  5
D5
330
A
100
AcDbEntity
  8
TFR-TRI
  6
CONTINUOUS
 62
     7
100
AcDbLine
 10
23.75508308410644
 20
6.920677185058593
 30
0.0
 11
23.75508308410644
 21
6.944681167602539
 31
0.0
  0
LINE
  5
D6
330
A
100
AcDbEntity
  8
TFR-TRI
  6
CONTINUOUS
 62
     7
100
AcDbLine
 10
24.19508171081543
 20
13.81845569610595
 30
0.0
 11
5.695082187652587
 21
13.81845569610595
 31
0.0
  0
LINE
  5
D7
330
A
100
AcDbEntity
  8
TFR-TRI
  6
CONTINUOUS
 62
     7
100
AcDbLine
 10
24.24385452270508
 20
6.899955749511718
 30
0.0
 11
24.19508171081543
 21
6.899955749511718
 31
0.0
  0
LINE
  5
D8
330
A
100
AcDbEntity
  8
TFR-TRI
  6
CONTINUOUS
 62
     7
100
AcDbLine
 10
23.75508308410644
 20
6.978455543518066
 30
0.0
 11
24.19508171081543
 21
6.978455543518066
 31
0.0
  0
LINE
  5
D9
330
A
100
AcDbEntity
  8
TFR-TRI
  6
CONTINUOUS
 62
     7
100
AcDbLine
 10
5.518305778503417
 20
28.34241676330566
 30
0.0
 11
5.556189537048339
 21
28.34241676330566
 31
0.0
  0
LINE
  5
DA
330
A
100
AcDbEntity
  8
TFR-TRI
  6
CONTINUOUS
 62
     7
100
AcDbLine
 10
5.445082187652587
 20
6.99345588684082
 30
0.0
 11
5.445082187652587
 21
6.98247480392456
 31
0.0
  0
LINE
  5
DB
330
A
100
AcDbEntity
  8
TFR-TRI
  6
CONTINUOUS
 62
     7
100
AcDbLine
 10
43.26045227050781
 20
13.74523258209228
 30
0.0
 11
43.26045227050781
 21
13.70734786987304
 31
0.0
  0
LINE
  5
DC
330
A
100
AcDbEntity
  8
TFR-TRI
  6
CONTINUOUS
 62
     7
100
AcDbLine
 10
24.44508171081543
 20
28.25989913940429
 30
0.0
 11
24.44508171081543
 21
28.24891853332519
 31
0.0
  0
LINE
  5
DD
330
A
100
AcDbEntity
  8
TFR-TRI
  6
CONTINUOUS
 62
     7
100
AcDbLine
 10
23.75508308410644
 20
6.899955749511718
 30
0.0
 11
6.135082244873046
 21
6.899955749511718
 31
0.0
  0
LINE
  5
DE
330
A
100
AcDbEntity
  8
TFR-TRI
  6
CONTINUOUS
 62
     7
100
AcDbLine
 10
5.646309852600097
 20
6.978455543518066
 30
0.0
 11
5.695082187652587
 21
6.978455543518066
 31
0.0
  0
LINE
  5
DF
330
A
100
AcDbEntity
  8
TFR-TRI
  6
CONTINUOUS
 62
     7
100
AcDbLine
 10
43.1519546508789
 20
6.978455543518066
 30
0.0
 11
39.16195297241211
 21
6.978455543518066
 31
0.0
  0
LINE
  5
E0
330
A
100
AcDbEntity
  8
TFR-TRI
  6
CONTINUOUS
 62
     7
100
AcDbLine
 10
43.26045227050781
 20
13.77632331848144
 30
0.0
 11
43.26045227050781
 21
13.74523258209228
 31
0.0
  0
LINE
  5
E1
330
A
100
AcDbEntity
  8
TFR-TRI
  6
CONTINUOUS
 62
     7
100
AcDbLine
 10
24.440279006958
 20
6.899955749511718
 30
0.0
 11
24.42605209350586
 21
6.899955749511718
 31
0.0
  0
LINE
  5
E2
330
A
100
AcDbEntity
  8
TFR-TRI
  6
CONTINUOUS
 62
     7
100
AcDbLine
 10
18.05619049072265
 20
23.88541793823242
 30
0.0
 11
18.0183048248291
 21
23.88541793823242
 31
0.0
  0
LINE
  5
E3
330
A
100
AcDbEntity
  8
TFR-TRI
  6
CONTINUOUS
 62
     7
100
AcDbLine
 10
17.94508171081543
 20
23.88541793823242
 30
0.0
 11
17.94508171081543
 21
23.96391677856445
 31
0.0
  0
LINE
  5
E4
330
A
100
AcDbEntity
  8
TFR-TRI
  6
CONTINUOUS
 62
     7
100
AcDbLine
 10
24.19508171081543
 20
6.899955749511718
 30
0.0
 11
23.75508308410644
 21
6.899955749511718
 31
0.0
  0
LINE
  5
E5
330
A
100
AcDbEntity
  8
TFR-TRI
  6
CONTINUOUS
 62
     7
100
AcDbLine
 10
38.98517608642578
 20
6.978455543518066
 30
0.0
 11
39.0230598449707
 21
6.978455543518066
 31
0.0
  0
LINE
  5
E6
330
A
100
AcDbEntity
  8
TFR-TRI
  6
CONTINUOUS
 62
     7
100
AcDbLine
 10
38.8034553527832
 20
11.96734809875488
 30
0.0
 11
38.8034553527832
 21
12.00523281097412
 31
0.0
  0
LINE
  5
E7
330
A
100
AcDbEntity
  8
TFR-TRI
  6
CONTINUOUS
 62
     7
100
AcDbLine
 10
5.599411487579345
 20
6.978455543518066
 30
0.0
 11
5.646309852600097
 21
6.978455543518066
 31
0.0
  0
LINE
  5
E8
330
A
100
AcDbEntity
  8
TFR-TRI
  6
CONTINUOUS
 62
     7
100
AcDbLine
 10
5.646309852600097
 20
6.899955749511718
 30
0.0
 11
5.599411487579345
 21
6.899955749511718
 31
0.0
  0
LINE
  5
E9
330
A
100
AcDbEntity
  8
TFR-TRI
  6
CONTINUOUS
 62
     7
100
AcDbLine
 10
23.75508308410644
 20
23.99391746520996
 30
0.0
 11
24.19508171081543
 21
23.99391746520996
 31
0.0
  0
LINE
  5
EA
330
A
100
AcDbEntity
  8
TFR-TRI
  6
CONTINUOUS
 62
     7
100
AcDbLine
 10
38.88195419311523
 20
12.0594253540039
 30
0.0
 11
38.88195419311523
 21
12.03632354736328
 31
0.0
  0
LINE
  5
EB
330
A
100
AcDbEntity
  8
TFR-TRI
  6
CONTINUOUS
 62
     7
100
AcDbLine
 10
38.88195419311523
 20
11.96734809875488
 30
0.0
 11
38.88195419311523
 21
11.92412662506103
 31
0.0
  0
LINE
  5
EC
330
A
100
AcDbEntity
  8
TFR-TRI
  6
CONTINUOUS
 62
     7
100
AcDbLine
 10
12.14630985260009
 20
23.88541793823242
 30
0.0
 11
12.09941101074218
 21
23.88541793823242
 31
0.0
  0
LINE
  5
ED
330
A
100
AcDbEntity
  8
TFR-TRI
  6
CONTINUOUS
 62
     7
100
AcDbLine
 10
24.33397483825683
 20
6.978455543518066
 30
0.0
 11
24.37185859680175
 21
6.978455543518066
 31
0.0
  0
LINE
  5
EE
330
A
100
AcDbEntity
  8
TFR-TRI
  6
CONTINUOUS
 62
     7
100
AcDbLine
 10
6.135082244873046
 20
23.97891807556152
 30
0.0
 11
6.135082244873046
 21
23.96793746948242
 31
0.0
  0
LINE
  5
EF
330
A
100
AcDbEntity
  8
TFR-TRI
  6
CONTINUOUS
 62
     7
100
AcDbLine
 10
43.18195343017578
 20
7.008455753326416
 30
0.0
 11
43.18195343017578
 21
13.56845569610595
 31
0.0
  0
LINE
  5
F0
330
A
100
AcDbEntity
  8
TFR-TRI
  6
CONTINUOUS
 62
     7
100
AcDbLine
 10
5.884082317352294
 20
9.363455772399902
 30
0.0
 11
5.696082115173339
 21
9.363455772399902
 31
0.0
  0
LINE
  5
F1
330
A
100
AcDbEntity
  8
TFR-TRI
  6
CONTINUOUS
 62
     7
100
AcDbLine
 10
11.94508266448974
 20
11.82845592498779
 30
0.0
 11
11.94508266448974
 21
10.82845592498779
 31
0.0
  0
LINE
  5
F2
330
A
100
AcDbEntity
  8
TFR-TRI
  6
CONTINUOUS
 62
     7
100
AcDbLine
 10
38.9119529724121
 20
6.978455543518066
 30
0.0
 11
38.91675949096679
 21
6.978455543518066
 31
0.0
  0
LINE
  5
F3
330
A
100
AcDbEntity
  8
TFR-TRI
  6
CONTINUOUS
 62
     7
100
AcDbLine
 10
11.94508266448974
 20
23.88541793823242
 30
0.0
 11
11.940279006958
 21
23.88541793823242
 31
0.0
  0
LINE
  5
F4
330
A
100
AcDbEntity
  8
TFR-TRI
  6
CONTINUOUS
 62
     7
100
AcDbLine
 10
17.92605209350585
 20
23.96391677856445
 30
0.0
 11
17.940279006958
 21
23.96391677856445
 31
0.0
  0
LINE
  5
F5
330
A
100
AcDbEntity
  8
TFR-TRI
  6
CONTINUOUS
 62
     7
100
AcDbLine
 10
43.18195343017578
 20
13.79942607879638
 30
0.0
 11
43.18195343017578
 21
13.81365203857422
 31
0.0
  0
LINE
  5
F6
330
A
100
AcDbEntity
  8
TFR-TRI
  6
CONTINUOUS
 62
     7
100
AcDbLine
 10
11.74385452270507
 20
23.88541793823242
 30
0.0
 11
11.69508266448974
 21
23.88541793823242
 31
0.0
  0
LINE
  5
F7
330
A
100
AcDbEntity
  8
TFR-TRI
  6
CONTINUOUS
 62
     7
100
AcDbLine
 10
43.26045227050781
 20
13.70734786987304
 30
0.0
 11
43.26045227050781
 21
13.66412639617919
 31
0.0
  0
LINE
  5
F8
330
A
100
AcDbEntity
  8
TFR-TRI
  6
CONTINUOUS
 62
     7
100
AcDbLine
 10
24.00608253479004
 20
7.863455772399902
 30
0.0
 11
24.19408226013183
 21
7.863455772399902
 31
0.0
  0
LINE
  5
F9
330
A
100
AcDbEntity
  8
TFR-TRI
  6
CONTINUOUS
 62
     7
100
AcDbLine
 10
18.14630889892578
 20
23.88541793823242
 30
0.0
 11
18.09941101074218
 21
23.88541793823242
 31
0.0
  0
LINE
  5
FA
330
A
100
AcDbEntity
  8
TFR-TRI
  6
CONTINUOUS
 62
     7
100
AcDbLine
 10
6.154112339019775
 20
23.88541793823242
 30
0.0
 11
6.139885902404785
 21
23.88541793823242
 31
0.0
  0
LINE
  5
FB
330
A
100
AcDbEntity
  8
TFR-TRI
  6
CONTINUOUS
 62
     7
100
AcDbLine
 10
43.1519546508789
 20
6.899955749511718
 30
0.0
 11
39.16195297241211
 21
6.899955749511718
 31
0.0
  0
LINE
  5
FC
330
A
100
AcDbEntity
  8
TFR-TRI
  6
CONTINUOUS
 62
     7
100
AcDbLine
 10
17.94508171081543
 20
23.88541793823242
 30
0.0
 11
17.940279006958
 21
23.88541793823242
 31
0.0
  0
LINE
  5
FD
330
A
100
AcDbEntity
  8
TFR-TRI
  6
CONTINUOUS
 62
     7
100
AcDbLine
 10
24.00608253479004
 20
7.863455772399902
 30
0.0
 11
24.19408226013183
 21
7.863455772399902
 31
0.0
  0
LINE
  5
FE
330
A
100
AcDbEntity
  8
TFR-TRI
  6
CONTINUOUS
 62
     7
100
AcDbLine
 10
23.64397430419921
 20
23.88541793823242
 30
0.0
 11
23.60075378417968
 21
23.88541793823242
 31
0.0
  0
LINE
  5
FF
330
A
100
AcDbEntity
  8
TFR-TRI
  6
CONTINUOUS
 62
     7
100
AcDbLine
 10
24.00608253479004
 20
13.1134557723999
 30
0.0
 11
24.19408226013183
 21
13.1134557723999
 31
0.0
  0
LINE
  5
100
330
A
100
AcDbEntity
  8
TFR-TRI
  6
CONTINUOUS
 62
     7
100
AcDbLine
 10
38.93098449707031
 20
6.899955749511718
 30
0.0
 11
38.91675949096679
 21
6.899955749511718
 31
0.0
  0
LINE
  5
101
330
A
100
AcDbEntity
  8
TFR-TRI
  6
CONTINUOUS
 62
     7
100
AcDbLine
 10
12.19508266448974
 20
23.88541793823242
 30
0.0
 11
17.69508171081542
 21
23.88541793823242
 31
0.0
  0
LINE
  5
102
330
A
100
AcDbEntity
  8
TFR-TRI
  6
CONTINUOUS
 62
     7
100
AcDbLine
 10
17.74385452270507
 20
23.88541793823242
 30
0.0
 11
17.69508171081542
 21
23.88541793823242
 31
0.0
  0
LINE
  5
103
330
A
100
AcDbEntity
  8
TFR-TRI
  6
CONTINUOUS
 62
     7
100
AcDbLine
 10
18.0183048248291
 20
23.96391677856445
 30
0.0
 11
18.05619049072265
 21
23.96391677856445
 31
0.0
  0
LINE
  5
104
330
A
100
AcDbEntity
  8
TFR-TRI
  6
CONTINUOUS
 62
     7
100
AcDbLine
 10
5.556189537048339
 20
6.978455543518066
 30
0.0
 11
5.599411487579345
 21
6.978455543518066
 31
0.0
  0
LINE
  5
105
330
A
100
AcDbEntity
  8
TFR-TRI
  6
CONTINUOUS
 62
     7
100
AcDbLine
 10
39.0230598449707
 20
6.978455543518066
 30
0.0
 11
39.0662841796875
 21
6.978455543518066
 31
0.0
  0
LINE
  5
106
330
A
100
AcDbEntity
  8
TFR-TRI
  6
CONTINUOUS
 62
     7
100
AcDbLine
 10
11.98721504211425
 20
23.88541793823242
 30
0.0
 11
11.96411228179931
 21
23.88541793823242
 31
0.0
  0
LINE
  5
107
330
A
100
AcDbEntity
  8
TFR-TRI
  6
CONTINUOUS
 62
     7
100
AcDbLine
 10
23.60075378417968
 20
23.96391677856445
 30
0.0
 11
23.64397430419921
 21
23.96391677856445
 31
0.0
  0
LINE
  5
108
330
A
100
AcDbEntity
  8
TFR-TRI
  6
CONTINUOUS
 62
     7
100
AcDbLine
 10
24.00608253479004
 20
11.1134557723999
 30
0.0
 11
24.19408226013183
 21
11.1134557723999
 31
0.0
  0
LINE
  5
109
330
A
100
AcDbEntity
  8
TFR-TRI
  6
CONTINUOUS
 62
     7
100
AcDbLine
 10
11.87185859680175
 20
23.88541793823242
 30
0.0
 11
11.83397483825683
 21
23.88541793823242
 31
0.0
  0
LINE
  5
10A
330
A
100
AcDbEntity
  8
TFR-TRI
  6
CONTINUOUS
 62
     7
100
AcDbLine
 10
6.139885902404785
 20
23.96391677856445
 30
0.0
 11
6.154112339019775
 21
23.96391677856445
 31
0.0
  0
LINE
  5
10B
330
A
100
AcDbEntity
  8
TFR-TRI
  6
CONTINUOUS
 62
     7
100
AcDbLine
 10
6.246189594268798
 20
23.88541793823242
 30
0.0
 11
6.208305835723876
 21
23.88541793823242
 31
0.0
  0
LINE
  5
10C
330
A
100
AcDbEntity
  8
TFR-TRI
  6
CONTINUOUS
 62
     7
100
AcDbLine
 10
17.98721504211425
 20
23.96391677856445
 30
0.0
 11
18.0183048248291
 21
23.96391677856445
 31
0.0
  0
LINE
  5
10D
330
A
100
AcDbEntity
  8
TFR-TRI
  6
CONTINUOUS
 62
     7
100
AcDbLine
 10
11.69508266448974
 20
23.96391677856445
 30
0.0
 11
11.74385452270507
 21
23.96391677856445
 31
0.0
  0
LINE
  5
10E
330
A
100
AcDbEntity
  8
TFR-TRI
  6
CONTINUOUS
 62
     7
100
AcDbLine
 10
6.135082244873046
 20
6.899955749511718
 30
0.0
 11
5.695082187652587
 21
6.899955749511718
 31
0.0
  0
LINE
  5
10F
330
A
100
AcDbEntity
  8
TFR-TRI
  6
CONTINUOUS
 62
     7
100
AcDbLine
 10
23.73605155944824
 20
23.88541793823242
 30
0.0
 11
23.71294975280761
 21
23.88541793823242
 31
0.0
  0
LINE
  5
110
330
A
100
AcDbEntity
  8
TFR-TRI
  6
CONTINUOUS
 62
     7
100
AcDbLine
 10
5.449885845184326
 20
28.34241676330566
 30
0.0
 11
5.464112281799316
 21
28.34241676330566
 31
0.0
  0
LINE
  5
111
330
A
100
AcDbEntity
  8
TFR-TRI
  6
CONTINUOUS
 62
     7
100
AcDbLine
 10
24.00608253479004
 20
9.363455772399902
 30
0.0
 11
24.19408226013183
 21
9.363455772399902
 31
0.0
  0
LINE
  5
112
330
A
100
AcDbEntity
  8
TFR-TRI
  6
CONTINUOUS
 62
     7
100
AcDbLine
 10
12.09941101074218
 20
23.96391677856445
 30
0.0
 11
12.14630985260009
 21
23.96391677856445
 31
0.0
  0
LINE
  5
113
330
A
100
AcDbEntity
  8
TFR-TRI
  6
CONTINUOUS
 62
     7
100
AcDbLine
 10
18.19508171081542
 20
23.96391677856445
 30
0.0
 11
23.50508308410644
 21
23.96391677856445
 31
0.0
  0
LINE
  5
114
330
A
100
AcDbEntity
  8
TFR-TRI
  6
CONTINUOUS
 62
     7
100
AcDbLine
 10
17.87185859680175
 20
23.96391677856445
 30
0.0
 11
17.90295028686523
 21
23.96391677856445
 31
0.0
  0
LINE
  5
115
330
A
100
AcDbEntity
  8
TFR-TRI
  6
CONTINUOUS
 62
     7
100
AcDbLine
 10
23.50508308410644
 20
23.88541793823242
 30
0.0
 11
18.19508171081542
 21
23.88541793823242
 31
0.0
  0
LINE
  5
116
330
A
100
AcDbEntity
  8
TFR-TRI
  6
CONTINUOUS
 62
     7
100
AcDbLine
 10
24.40295028686523
 20
28.26391792297363
 30
0.0
 11
24.37185859680175
 21
28.26391792297363
 31
0.0
  0
LINE
  5
117
330
A
100
AcDbEntity
  8
TFR-TRI
  6
CONTINUOUS
 62
     7
100
AcDbLine
 10
23.68185997009277
 20
23.88541793823242
 30
0.0
 11
23.64397430419921
 21
23.88541793823242
 31
0.0
  0
LINE
  5
118
330
A
100
AcDbEntity
  8
TFR-TRI
  6
CONTINUOUS
 62
     7
100
AcDbLine
 10
6.135082244873046
 20
6.920677185058593
 30
0.0
 11
6.135082244873046
 21
6.944681167602539
 31
0.0
  0
LINE
  5
119
330
A
100
AcDbEntity
  8
TFR-TRI
  6
CONTINUOUS
 62
     7
100
AcDbLine
 10
5.646309852600097
 20
28.26391792297363
 30
0.0
 11
5.599411487579345
 21
28.26391792297363
 31
0.0
  0
LINE
  5
11A
330
A
100
AcDbEntity
  8
TFR-TRI
  6
CONTINUOUS
 62
     7
100
AcDbLine
 10
5.445082187652587
 20
28.26391792297363
 30
0.0
 11
5.445082187652587
 21
28.34241676330566
 31
0.0
  0
LINE
  5
11B
330
A
100
AcDbEntity
  8
TFR-TRI
  6
CONTINUOUS
 62
     7
100
AcDbLine
 10
5.487215042114257
 20
6.978455543518066
 30
0.0
 11
5.518305778503417
 21
6.978455543518066
 31
0.0
  0
LINE
  5
11C
330
A
100
AcDbEntity
  8
TFR-TRI
  6
CONTINUOUS
 62
     7
100
AcDbLine
 10
5.884082317352294
 20
11.1134557723999
 30
0.0
 11
5.696082115173339
 21
11.1134557723999
 31
0.0
  0
LINE
  5
11D
330
A
100
AcDbEntity
  8
TFR-TRI
  6
CONTINUOUS
 62
     7
100
AcDbLine
 10
24.42605209350586
 20
28.34241676330566
 30
0.0
 11
24.440279006958
 21
28.34241676330566
 31
0.0
  0
LINE
  5
11E
330
A
100
AcDbEntity
  8
TFR-TRI
  6
CONTINUOUS
 62
     7
100
AcDbLine
 10
5.695082187652587
 20
6.899955749511718
 30
0.0
 11
5.646309852600097
 21
6.899955749511718
 31
0.0
  0
LINE
  5
11F
330
A
100
AcDbEntity
  8
TFR-TRI
  6
CONTINUOUS
 62
     7
100
AcDbLine
 10
5.556189537048339
 20
28.34241676330566
 30
0.0
 11
5.599411487579345
 21
28.34241676330566
 31
0.0
  0
LINE
  5
120
330
A
100
AcDbEntity
  8
TFR-TRI
  6
CONTINUOUS
 62
     7
100
AcDbLine
 10
38.8034553527832
 20
7.008455753326416
 30
0.0
 11
38.8034553527832
 21
11.82845592498779
 31
0.0
  0
LINE
  5
121
330
A
100
AcDbEntity
  8
TFR-TRI
  6
CONTINUOUS
 62
     7
100
AcDbLine
 10
24.44508171081543
 20
28.24891853332519
 30
0.0
 11
24.44508171081543
 21
28.23391723632812
 31
0.0
  0
LINE
  5
122
330
A
100
AcDbEntity
  8
TFR-TRI
  6
CONTINUOUS
 62
     7
100
AcDbLine
 10
24.44508171081543
 20
6.978455543518066
 30
0.0
 11
24.44508171081543
 21
6.899955749511718
 31
0.0
  0
LINE
  5
123
330
A
100
AcDbEntity
  8
TFR-TRI
  6
CONTINUOUS
 62
     7
100
AcDbLine
 10
5.695082187652587
 20
6.978455543518066
 30
0.0
 11
6.135082244873046
 21
6.978455543518066
 31
0.0
  0
LINE
  5
124
330
A
100
AcDbEntity
  8
TFR-TRI
  6
CONTINUOUS
 62
     7
100
AcDbLine
 10
11.69508266448974
 20
23.96391677856445
 30
0.0
 11
11.74385452270507
 21
23.96391677856445
 31
0.0
  0
LINE
  5
125
330
A
100
AcDbEntity
  8
TFR-TRI
  6
CONTINUOUS
 62
     7
100
AcDbLine
 10
11.940279006958
 20
23.96391677856445
 30
0.0
 11
11.94508266448974
 21
23.96391677856445
 31
0.0
  0
LINE
  5
126
330
A
100
AcDbEntity
  8
TFR-TRI
  6
CONTINUOUS
 62
     7
100
AcDbLine
 10
38.98517608642578
 20
6.899955749511718
 30
0.0
 11
38.95408630371093
 21
6.899955749511718
 31
0.0
  0
LINE
  5
127
330
A
100
AcDbEntity
  8
TFR-TRI
  6
CONTINUOUS
 62
     7
100
AcDbLine
 10
24.40295028686523
 20
28.26391792297363
 30
0.0
 11
24.37185859680175
 21
28.26391792297363
 31
0.0
  0
LINE
  5
128
330
A
100
AcDbEntity
  8
TFR-TRI
  6
CONTINUOUS
 62
     7
100
AcDbLine
 10
39.16195297241211
 20
6.899955749511718
 30
0.0
 11
39.11318206787109
 21
6.899955749511718
 31
0.0
  0
LINE
  5
129
330
A
100
AcDbEntity
  8
TFR-TRI
  6
CONTINUOUS
 62
     7
100
AcDbLine
 10
23.75508308410644
 20
23.97891807556152
 30
0.0
 11
23.75508308410644
 21
23.96793746948242
 31
0.0
  0
LINE
  5
12A
330
A
100
AcDbEntity
  8
TFR-TRI
  6
CONTINUOUS
 62
     7
100
AcDbLine
 10
38.8034553527832
 20
11.96734809875488
 30
0.0
 11
38.8034553527832
 21
12.00523281097412
 31
0.0
  0
LINE
  5
12B
330
A
100
AcDbEntity
  8
TFR-TRI
  6
CONTINUOUS
 62
     7
100
AcDbLine
 10
24.33397483825683
 20
6.899955749511718
 30
0.0
 11
24.29075241088867
 21
6.899955749511718
 31
0.0
  0
LINE
  5
12C
330
A
100
AcDbEntity
  8
TFR-TRI
  6
CONTINUOUS
 62
     7
100
AcDbLine
 10
5.445082187652587
 20
28.26391792297363
 30
0.0
 11
5.445082187652587
 21
28.34241676330566
 31
0.0
  0
LINE
  5
12D
330
A
100
AcDbEntity
  8
TFR-TRI
  6
CONTINUOUS
 62
     7
100
AcDbLine
 10
18.05619049072265
 20
23.96391677856445
 30
0.0
 11
18.09941101074218
 21
23.96391677856445
 31
0.0
  0
LINE
  5
12E
330
A
100
AcDbEntity
  8
TFR-TRI
  6
CONTINUOUS
 62
     7
100
AcDbLine
 10
43.18195343017578
 20
7.008455753326416
 30
0.0
 11
43.18195343017578
 21
13.56845569610595
 31
0.0
  0
LINE
  5
12F
330
A
100
AcDbEntity
  8
TFR-TRI
  6
CONTINUOUS
 62
     7
100
AcDbLine
 10
24.42605209350586
 20
28.34241676330566
 30
0.0
 11
24.440279006958
 21
28.34241676330566
 31
0.0
  0
LINE
  5
130
330
A
100
AcDbEntity
  8
TFR-TRI
  6
CONTINUOUS
 62
     7
100
AcDbLine
 10
6.246189594268798
 20
23.96391677856445
 30
0.0
 11
6.289411544799804
 21
23.96391677856445
 31
0.0
  0
LINE
  5
131
330
A
100
AcDbEntity
  8
TFR-TRI
  6
CONTINUOUS
 62
     7
100
AcDbLine
 10
43.18195343017578
 20
13.79942607879638
 30
0.0
 11
43.18195343017578
 21
13.81365203857422
 31
0.0
  0
LINE
  5
132
330
A
100
AcDbEntity
  8
TFR-TRI
  6
CONTINUOUS
 62
     7
100
AcDbLine
 10
5.556189537048339
 20
28.34241676330566
 30
0.0
 11
5.599411487579345
 21
28.34241676330566
 31
0.0
  0
LINE
  5
133
330
A
100
AcDbEntity
  8
TFR-TRI
  6
CONTINUOUS
 62
     7
100
AcDbLine
 10
17.94988632202148
 20
23.96391677856445
 30
0.0
 11
17.96411323547363
 21
23.96391677856445
 31
0.0
  0
LINE
  5
134
330
A
100
AcDbEntity
  8
TFR-TRI
  6
CONTINUOUS
 62
     7
100
AcDbLine
 10
5.445082187652587
 20
6.98247480392456
 30
0.0
 11
5.445082187652587
 21
6.978455543518066
 31
0.0
  0
LINE
  5
135
330
A
100
AcDbEntity
  8
TFR-TRI
  6
CONTINUOUS
 62
     7
100
AcDbLine
 10
43.26045227050781
 20
13.70734786987304
 30
0.0
 11
43.26045227050781
 21
13.66412639617919
 31
0.0
  0
LINE
  5
136
330
A
100
AcDbEntity
  8
TFR-TRI
  6
CONTINUOUS
 62
     7
100
AcDbLine
 10
24.44508171081543
 20
28.24891853332519
 30
0.0
 11
24.44508171081543
 21
28.23391723632812
 31
0.0
  0
LINE
  5
137
330
A
100
AcDbEntity
  8
TFR-TRI
  6
CONTINUOUS
 62
     7
100
AcDbLine
 10
5.556189537048339
 20
6.899955749511718
 30
0.0
 11
5.518305778503417
 21
6.899955749511718
 31
0.0
  0
LINE
  5
138
330
A
100
AcDbEntity
  8
TFR-TRI
  6
CONTINUOUS
 62
     7
100
AcDbLine
 10
43.1519546508789
 20
6.899955749511718
 30
0.0
 11
39.16195297241211
 21
6.899955749511718
 31
0.0
  0
LINE
  5
139
330
A
100
AcDbEntity
  8
TFR-TRI
  6
CONTINUOUS
 62
     7
100
AcDbLine
 10
23.75508308410644
 20
6.974927425384521
 30
0.0
 11
23.75508308410644
 21
7.008455753326416
 31
0.0
  0
LINE
  5
13A
330
A
100
AcDbEntity
  8
TFR-TRI
  6
CONTINUOUS
 62
     7
100
AcDbLine
 10
23.55385398864746
 20
23.88541793823242
 30
0.0
 11
23.50508308410644
 21
23.88541793823242
 31
0.0
  0
LINE
  5
13B
330
A
100
AcDbEntity
  8
TFR-TRI
  6
CONTINUOUS
 62
     7
100
AcDbLine
 10
24.42605209350586
 20
6.899955749511718
 30
0.0
 11
24.40295028686523
 21
6.899955749511718
 31
0.0
  0
LINE
  5
13C
330
A
100
AcDbEntity
  8
TFR-TRI
  6
CONTINUOUS
 62
     7
100
AcDbLine
 10
38.93098449707031
 20
6.899955749511718
 30
0.0
 11
38.91675949096679
 21
6.899955749511718
 31
0.0
  0
LINE
  5
13D
330
A
100
AcDbEntity
  8
TFR-TRI
  6
CONTINUOUS
 62
     7
100
AcDbLine
 10
5.445082187652587
 20
6.978455543518066
 30
0.0
 11
5.449885845184326
 21
6.978455543518066
 31
0.0
  0
LINE
  5
13E
330
A
100
AcDbEntity
  8
TFR-TRI
  6
CONTINUOUS
 62
     7
100
AcDbLine
 10
17.90295028686523
 20
23.88541793823242
 30
0.0
 11
17.87185859680175
 21
23.88541793823242
 31
0.0
  0
LINE
  5
13F
330
A
100
AcDbEntity
  8
TFR-TRI
  6
CONTINUOUS
 62
     7
100
AcDbLine
 10
38.8034553527832
 20
12.00523281097412
 30
0.0
 11
38.8034553527832
 21
12.03632354736328
 31
0.0
  0
LINE
  5
140
330
A
100
AcDbEntity
  8
TFR-TRI
  6
CONTINUOUS
 62
     7
100
AcDbLine
 10
5.646309852600097
 20
6.978455543518066
 30
0.0
 11
5.695082187652587
 21
6.978455543518066
 31
0.0
  0
LINE
  5
141
330
A
100
AcDbEntity
  8
TFR-TRI
  6
CONTINUOUS
 62
     7
100
AcDbLine
 10
24.00608253479004
 20
12.8634557723999
 30
0.0
 11
24.19408226013183
 21
12.8634557723999
 31
0.0
  0
LINE
  5
142
330
A
100
AcDbEntity
  8
TFR-TRI
  6
CONTINUOUS
 62
     7
100
AcDbLine
 10
38.8034553527832
 20
12.00523281097412
 30
0.0
 11
38.8034553527832
 21
12.03632354736328
 31
0.0
  0
LINE
  5
143
330
A
100
AcDbEntity
  8
TFR-TRI
  6
CONTINUOUS
 62
     7
100
AcDbLine
 10
38.88195419311523
 20
12.03632354736328
 30
0.0
 11
38.88195419311523
 21
12.00523281097412
 31
0.0
  0
LINE
  5
144
330
A
100
AcDbEntity
  8
TFR-TRI
  6
CONTINUOUS
 62
     7
100
AcDbLine
 10
17.94508171081543
 20
11.82845592498779
 30
0.0
 11
17.94508171081543
 21
10.82845592498779
 31
0.0
  0
LINE
  5
145
330
A
100
AcDbEntity
  8
TFR-TRI
  6
CONTINUOUS
 62
     7
100
AcDbLine
 10
12.09941101074218
 20
23.88541793823242
 30
0.0
 11
12.05618953704834
 21
23.88541793823242
 31
0.0
  0
LINE
  5
146
330
A
100
AcDbEntity
  8
TFR-TRI
  6
CONTINUOUS
 62
     7
100
AcDbLine
 10
24.37185859680175
 20
6.978455543518066
 30
0.0
 11
24.40295028686523
 21
6.978455543518066
 31
0.0
  0
LINE
  5
147
330
A
100
AcDbEntity
  8
TFR-TRI
  6
CONTINUOUS
 62
     7
100
AcDbLine
 10
43.18195343017578
 20
13.56845569610595
 30
0.0
 11
43.18195343017578
 21
13.6172285079956
 31
0.0
  0
LINE
  5
148
330
A
100
AcDbEntity
  8
TFR-TRI
  6
CONTINUOUS
 62
     7
100
AcDbLine
 10
11.940279006958
 20
23.88541793823242
 30
0.0
 11
11.92605209350585
 21
23.88541793823242
 31
0.0
  0
LINE
  5
149
330
A
100
AcDbEntity
  8
TFR-TRI
  6
CONTINUOUS
 62
     7
100
AcDbLine
 10
17.940279006958
 20
23.96391677856445
 30
0.0
 11
17.94508171081543
 21
23.96391677856445
 31
0.0
  0
LINE
  5
14A
330
A
100
AcDbEntity
  8
TFR-TRI
  6
CONTINUOUS
 62
     7
100
AcDbLine
 10
43.18195343017578
 20
13.81365203857422
 30
0.0
 11
43.18195343017578
 21
13.81845569610595
 31
0.0
  0
LINE
  5
14B
330
A
100
AcDbEntity
  8
TFR-TRI
  6
CONTINUOUS
 62
     7
100
AcDbLine
 10
6.135082244873046
 20
23.96793746948242
 30
0.0
 11
6.135082244873046
 21
23.96391677856445
 31
0.0
  0
LINE
  5
14C
330
A
100
AcDbEntity
  8
TFR-TRI
  6
CONTINUOUS
 62
     7
100
AcDbLine
 10
6.385082244873046
 20
23.88541793823242
 30
0.0
 11
6.336309909820556
 21
23.88541793823242
 31
0.0
  0
LINE
  5
14D
330
A
100
AcDbEntity
  8
TFR-TRI
  6
CONTINUOUS
 62
     7
100
AcDbLine
 10
43.18195343017578
 20
13.56845569610595
 30
0.0
 11
43.18195343017578
 21
13.6172285079956
 31
0.0
  0
LINE
  5
14E
330
A
100
AcDbEntity
  8
TFR-TRI
  6
CONTINUOUS
 62
     7
100
AcDbLine
 10
43.26045227050781
 20
13.66412639617919
 30
0.0
 11
43.26045227050781
 21
13.6172285079956
 31
0.0
  0
LINE
  5
14F
330
A
100
AcDbEntity
  8
TFR-TRI
  6
CONTINUOUS
 62
     7
100
AcDbLine
 10
18.09941101074218
 20
23.88541793823242
 30
0.0
 11
18.05619049072265
 21
23.88541793823242
 31
0.0
  0
LINE
  5
150
330
A
100
AcDbEntity
  8
TFR-TRI
  6
CONTINUOUS
 62
     7
100
AcDbLine
 10
38.95408630371093
 20
6.899955749511718
 30
0.0
 11
38.93098449707031
 21
6.899955749511718
 31
0.0
  0
LINE
  5
151
330
A
100
AcDbEntity
  8
TFR-TRI
  6
CONTINUOUS
 62
     7
100
AcDbLine
 10
6.177215099334716
 20
23.96391677856445
 30
0.0
 11
6.208305835723876
 21
23.96391677856445
 31
0.0
  0
LINE
  5
152
330
A
100
AcDbEntity
  8
TFR-TRI
  6
CONTINUOUS
 62
     7
100
AcDbLine
 10
6.139885902404785
 20
23.88541793823242
 30
0.0
 11
6.135082244873046
 21
23.88541793823242
 31
0.0
  0
LINE
  5
153
330
A
100
AcDbEntity
  8
TFR-TRI
  6
CONTINUOUS
 62
     7
100
AcDbLine
 10
39.16195297241211
 20
6.899955749511718
 30
0.0
 11
39.11318206787109
 21
6.899955749511718
 31
0.0
  0
LINE
  5
154
330
A
100
AcDbEntity
  8
TFR-TRI
  6
CONTINUOUS
 62
     7
100
AcDbLine
 10
5.445082187652587
 20
7.008455753326416
 30
0.0
 11
5.445082187652587
 21
13.56845569610595
 31
0.0
  0
LINE
  5
155
330
A
100
AcDbEntity
  8
TFR-TRI
  6
CONTINUOUS
 62
     7
100
AcDbLine
 10
17.940279006958
 20
23.88541793823242
 30
0.0
 11
17.92605209350585
 21
23.88541793823242
 31
0.0
  0
LINE
  5
156
330
A
100
AcDbEntity
  8
TFR-TRI
  6
CONTINUOUS
 62
     7
100
AcDbLine
 10
23.60075378417968
 20
23.88541793823242
 30
0.0
 11
23.55385398864746
 21
23.88541793823242
 31
0.0
  0
LINE
  5
157
330
A
100
AcDbEntity
  8
TFR-TRI
  6
CONTINUOUS
 62
     7
100
AcDbLine
 10
12.19508266448974
 20
23.88541793823242
 30
0.0
 11
12.14630985260009
 21
23.88541793823242
 31
0.0
  0
LINE
  5
158
330
A
100
AcDbEntity
  8
TFR-TRI
  6
CONTINUOUS
 62
     7
100
AcDbLine
 10
12.19508266448974
 20
23.88541793823242
 30
0.0
 11
17.69508171081542
 21
23.88541793823242
 31
0.0
  0
LINE
  5
159
330
A
100
AcDbEntity
  8
TFR-TRI
  6
CONTINUOUS
 62
     7
100
AcDbLine
 10
18.05619049072265
 20
23.96391677856445
 30
0.0
 11
18.09941101074218
 21
23.96391677856445
 31
0.0
  0
LINE
  5
15A
330
A
100
AcDbEntity
  8
TFR-TRI
  6
CONTINUOUS
 62
     7
100
AcDbLine
 10
6.246189594268798
 20
23.96391677856445
 30
0.0
 11
6.289411544799804
 21
23.96391677856445
 31
0.0
  0
LINE
  5
15B
330
A
100
AcDbEntity
  8
TFR-TRI
  6
CONTINUOUS
 62
     7
100
AcDbLine
 10
5.884082317352294
 20
9.613455772399902
 30
0.0
 11
5.696082115173339
 21
9.613455772399902
 31
0.0
  0
LINE
  5
15C
330
A
100
AcDbEntity
  8
TFR-TRI
  6
CONTINUOUS
 62
     7
100
AcDbLine
 10
39.0662841796875
 20
6.978455543518066
 30
0.0
 11
39.11318206787109
 21
6.978455543518066
 31
0.0
  0
LINE
  5
15D
330
A
100
AcDbEntity
  8
TFR-TRI
  6
CONTINUOUS
 62
     7
100
AcDbLine
 10
11.94508266448974
 20
23.96391677856445
 30
0.0
 11
11.94508266448974
 21
23.88541793823242
 31
0.0
  0
LINE
  5
15E
330
A
100
AcDbEntity
  8
TFR-TRI
  6
CONTINUOUS
 62
     7
100
AcDbLine
 10
23.64397430419921
 20
23.96391677856445
 30
0.0
 11
23.68185997009277
 21
23.96391677856445
 31
0.0
  0
LINE
  5
15F
330
A
100
AcDbEntity
  8
TFR-TRI
  6
CONTINUOUS
 62
     7
100
AcDbLine
 10
23.75508308410644
 20
7.008455753326416
 30
0.0
 11
23.75508308410644
 21
11.82845592498779
 31
0.0
  0
LINE
  5
160
330
A
100
AcDbEntity
  8
TFR-TRI
  6
CONTINUOUS
 62
     7
100
AcDbLine
 10
11.83397483825683
 20
23.88541793823242
 30
0.0
 11
11.79075336456298
 21
23.88541793823242
 31
0.0
  0
LINE
  5
161
330
A
100
AcDbEntity
  8
TFR-TRI
  6
CONTINUOUS
 62
     7
100
AcDbLine
 10
6.154112339019775
 20
23.96391677856445
 30
0.0
 11
6.177215099334716
 21
23.96391677856445
 31
0.0
  0
LINE
  5
162
330
A
100
AcDbEntity
  8
TFR-TRI
  6
CONTINUOUS
 62
     7
100
AcDbLine
 10
5.696082115173339
 20
7.613455772399902
 30
0.0
 11
5.884082317352294
 21
7.613455772399902
 31
0.0
  0
LINE
  5
163
330
A
100
AcDbEntity
  8
TFR-TRI
  6
CONTINUOUS
 62
     7
100
AcDbLine
 10
43.26045227050781
 20
13.81365203857422
 30
0.0
 11
43.26045227050781
 21
13.79942607879638
 31
0.0
  0
LINE
  5
164
330
A
100
AcDbEntity
  8
TFR-TRI
  6
CONTINUOUS
 62
     7
100
AcDbLine
 10
11.74385452270507
 20
23.96391677856445
 30
0.0
 11
11.79075336456298
 21
23.96391677856445
 31
0.0
  0
LINE
  5
165
330
A
100
AcDbEntity
  8
TFR-TRI
  6
CONTINUOUS
 62
     7
100
AcDbLine
 10
23.71294975280761
 20
23.88541793823242
 30
0.0
 11
23.68185997009277
 21
23.88541793823242
 31
0.0
  0
LINE
  5
166
330
A
100
AcDbEntity
  8
TFR-TRI
  6
CONTINUOUS
 62
     7
100
AcDbLine
 10
11.94508266448974
 20
23.96391677856445
 30
0.0
 11
11.94988632202148
 21
23.96391677856445
 31
0.0
  0
LINE
  5
167
330
A
100
AcDbEntity
  8
TFR-TRI
  6
CONTINUOUS
 62
     7
100
AcDbLine
 10
11.96411228179931
 20
23.88541793823242
 30
0.0
 11
11.94988632202148
 21
23.88541793823242
 31
0.0
  0
LINE
  5
168
330
A
100
AcDbEntity
  8
TFR-TRI
  6
CONTINUOUS
 62
     7
100
AcDbLine
 10
12.14630985260009
 20
23.96391677856445
 30
0.0
 11
12.19508266448974
 21
23.96391677856445
 31
0.0
  0
LINE
  5
169
330
A
100
AcDbEntity
  8
TFR-TRI
  6
CONTINUOUS
 62
     7
100
AcDbLine
 10
17.90295028686523
 20
23.96391677856445
 30
0.0
 11
17.92605209350585
 21
23.96391677856445
 31
0.0
  0
LINE
  5
16A
330
A
100
AcDbEntity
  8
TFR-TRI
  6
CONTINUOUS
 62
     7
100
AcDbLine
 10
23.75027847290039
 20
23.96391677856445
 30
0.0
 11
23.75508308410644
 21
23.96391677856445
 31
0.0
  0
LINE
  5
16B
330
A
100
AcDbEntity
  8
TFR-TRI
  6
CONTINUOUS
 62
     7
100
AcDbLine
 10
6.139885902404785
 20
23.96391677856445
 30
0.0
 11
6.154112339019775
 21
23.96391677856445
 31
0.0
  0
LINE
  5
16C
330
A
100
AcDbEntity
  8
TFR-TRI
  6
CONTINUOUS
 62
     7
100
AcDbLine
 10
24.37185859680175
 20
28.26391792297363
 30
0.0
 11
24.33397483825683
 21
28.26391792297363
 31
0.0
  0
LINE
  5
16D
330
A
100
AcDbEntity
  8
TFR-TRI
  6
CONTINUOUS
 62
     7
100
AcDbLine
 10
6.289411544799804
 20
23.96391677856445
 30
0.0
 11
6.336309909820556
 21
23.96391677856445
 31
0.0
  0
LINE
  5
16E
330
A
100
AcDbEntity
  8
TFR-TRI
  6
CONTINUOUS
 62
     7
100
AcDbLine
 10
5.599411487579345
 20
28.26391792297363
 30
0.0
 11
5.556189537048339
 21
28.26391792297363
 31
0.0
  0
LINE
  5
16F
330
A
100
AcDbEntity
  8
TFR-TRI
  6
CONTINUOUS
 62
     7
100
AcDbLine
 10
24.19508171081543
 20
28.34241676330566
 30
0.0
 11
24.24385452270508
 21
28.34241676330566
 31
0.0
  0
LINE
  5
170
330
A
100
AcDbEntity
  8
TFR-TRI
  6
CONTINUOUS
 62
     7
100
AcDbLine
 10
24.440279006958
 20
28.34241676330566
 30
0.0
 11
24.44508171081543
 21
28.34241676330566
 31
0.0
  0
LINE
  5
171
330
A
100
AcDbEntity
  8
TFR-TRI
  6
CONTINUOUS
 62
     7
100
AcDbLine
 10
17.79075241088867
 20
23.88541793823242
 30
0.0
 11
17.74385452270507
 21
23.88541793823242
 31
0.0
  0
LINE
  5
172
330
A
100
AcDbEntity
  8
TFR-TRI
  6
CONTINUOUS
 62
     7
100
AcDbLine
 10
5.599411487579345
 20
28.34241676330566
 30
0.0
 11
5.646309852600097
 21
28.34241676330566
 31
0.0
  0
LINE
  5
173
330
A
100
AcDbEntity
  8
TFR-TRI
  6
CONTINUOUS
 62
     7
100
AcDbLine
 10
5.445082187652587
 20
28.26391792297363
 30
0.0
 11
5.445082187652587
 21
28.25989913940429
 31
0.0
  0
LINE
  5
174
330
A
100
AcDbEntity
  8
TFR-TRI
  6
CONTINUOUS
 62
     7
100
AcDbLine
 10
12.19508266448974
 20
23.96391677856445
 30
0.0
 11
17.69508171081542
 21
23.96391677856445
 31
0.0
  0
LINE
  5
175
330
A
100
AcDbEntity
  8
TFR-TRI
  6
CONTINUOUS
 62
     7
100
AcDbLine
 10
11.74385452270507
 20
23.96391677856445
 30
0.0
 11
11.79075336456298
 21
23.96391677856445
 31
0.0
  0
LINE
  5
176
330
A
100
AcDbEntity
  8
TFR-TRI
  6
CONTINUOUS
 62
     7
100
AcDbLine
 10
11.69508266448974
 20
23.88541793823242
 30
0.0
 11
6.385082244873046
 21
23.88541793823242
 31
0.0
  0
LINE
  5
177
330
A
100
AcDbEntity
  8
TFR-TRI
  6
CONTINUOUS
 62
     7
100
AcDbLine
 10
11.94508266448974
 20
23.96391677856445
 30
0.0
 11
11.94988632202148
 21
23.96391677856445
 31
0.0
  0
LINE
  5
178
330
A
100
AcDbEntity
  8
TFR-TRI
  6
CONTINUOUS
 62
     7
100
AcDbLine
 10
24.37185859680175
 20
28.26391792297363
 30
0.0
 11
24.33397483825683
 21
28.26391792297363
 31
0.0
  0
LINE
  5
179
330
A
100
AcDbEntity
  8
TFR-TRI
  6
CONTINUOUS
 62
     7
100
AcDbLine
 10
5.449885845184326
 20
6.899955749511718
 30
0.0
 11
5.445082187652587
 21
6.899955749511718
 31
0.0
  0
LINE
  5
17A
330
A
100
AcDbEntity
  8
TFR-TRI
  6
CONTINUOUS
 62
     7
100
AcDbLine
 10
5.599411487579345
 20
28.26391792297363
 30
0.0
 11
5.556189537048339
 21
28.26391792297363
 31
0.0
  0
LINE
  5
17B
330
A
100
AcDbEntity
  8
TFR-TRI
  6
CONTINUOUS
 62
     7
100
AcDbLine
 10
24.37185859680175
 20
6.899955749511718
 30
0.0
 11
24.33397483825683
 21
6.899955749511718
 31
0.0
  0
LINE
  5
17C
330
A
100
AcDbEntity
  8
TFR-TRI
  6
CONTINUOUS
 62
     7
100
AcDbLine
 10
24.29075241088867
 20
6.899955749511718
 30
0.0
 11
24.24385452270508
 21
6.899955749511718
 31
0.0
  0
LINE
  5
17D
330
A
100
AcDbEntity
  8
TFR-TRI
  6
CONTINUOUS
 62
     7
100
AcDbLine
 10
24.19508171081543
 20
28.34241676330566
 30
0.0
 11
24.24385452270508
 21
28.34241676330566
 31
0.0
  0
LINE
  5
17E
330
A
100
AcDbEntity
  8
TFR-TRI
  6
CONTINUOUS
 62
     7
100
AcDbLine
 10
11.69508266448974
 20
12.07845592498779
 30
0.0
 11
6.385082244873046
 21
12.07845592498779
 31
0.0
  0
LINE
  5
17F
330
A
100
AcDbEntity
  8
TFR-TRI
  6
CONTINUOUS
 62
     7
100
AcDbLine
 10
5.518305778503417
 20
6.978455543518066
 30
0.0
 11
5.556189537048339
 21
6.978455543518066
 31
0.0
  0
LINE
  5
180
330
A
100
AcDbEntity
  8
TFR-TRI
  6
CONTINUOUS
 62
     7
100
AcDbLine
 10
24.440279006958
 20
28.34241676330566
 30
0.0
 11
24.44508171081543
 21
28.34241676330566
 31
0.0
  0
LINE
  5
181
330
A
100
AcDbEntity
  8
TFR-TRI
  6
CONTINUOUS
 62
     7
100
AcDbLine
 10
5.445082187652587
 20
7.008455753326416
 30
0.0
 11
5.445082187652587
 21
13.56845569610595
 31
0.0
  0
LINE
  5
182
330
A
100
AcDbEntity
  8
TFR-TRI
  6
CONTINUOUS
 62
     7
100
AcDbLine
 10
43.18195343017578
 20
13.81365203857422
 30
0.0
 11
43.18195343017578
 21
13.81845569610595
 31
0.0
  0
LINE
  5
183
330
A
100
AcDbEntity
  8
TFR-TRI
  6
CONTINUOUS
 62
     7
100
AcDbLine
 10
5.599411487579345
 20
28.34241676330566
 30
0.0
 11
5.646309852600097
 21
28.34241676330566
 31
0.0
  0
LINE
  5
184
330
A
100
AcDbEntity
  8
TFR-TRI
  6
CONTINUOUS
 62
     7
100
AcDbLine
 10
6.135082244873046
 20
6.899955749511718
 30
0.0
 11
6.135082244873046
 21
6.905266284942626
 31
0.0
  0
LINE
  5
185
330
A
100
AcDbEntity
  8
TFR-TRI
  6
CONTINUOUS
 62
     7
100
AcDbLine
 10
24.44508171081543
 20
6.978455543518066
 30
0.0
 11
24.44508171081543
 21
6.899955749511718
 31
0.0
  0
LINE
  5
186
330
A
100
AcDbEntity
  8
TFR-TRI
  6
CONTINUOUS
 62
     7
100
AcDbLine
 10
43.26045227050781
 20
13.66412639617919
 30
0.0
 11
43.26045227050781
 21
13.6172285079956
 31
0.0
  0
LINE
  5
187
330
A
100
AcDbEntity
  8
TFR-TRI
  6
CONTINUOUS
 62
     7
100
AcDbLine
 10
5.445082187652587
 20
28.26391792297363
 30
0.0
 11
5.445082187652587
 21
28.25989913940429
 31
0.0
  0
LINE
  5
188
330
A
100
AcDbEntity
  8
TFR-TRI
  6
CONTINUOUS
 62
     7
100
AcDbLine
 10
5.518305778503417
 20
6.899955749511718
 30
0.0
 11
5.487215042114257
 21
6.899955749511718
 31
0.0
  0
LINE
  5
189
330
A
100
AcDbEntity
  8
TFR-TRI
  6
CONTINUOUS
 62
     7
100
AcDbLine
 10
23.75508308410644
 20
23.96793746948242
 30
0.0
 11
23.75508308410644
 21
23.96391677856445
 31
0.0
  0
LINE
  5
18A
330
A
100
AcDbEntity
  8
TFR-TRI
  6
CONTINUOUS
 62
     7
100
AcDbLine
 10
23.75508308410644
 20
23.99391746520996
 30
0.0
 11
24.19508171081543
 21
23.99391746520996
 31
0.0
  0
LINE
  5
18B
330
A
100
AcDbEntity
  8
TFR-TRI
  6
CONTINUOUS
 62
     7
100
AcDbLine
 10
24.40295028686523
 20
6.899955749511718
 30
0.0
 11
24.37185859680175
 21
6.899955749511718
 31
0.0
  0
LINE
  5
18C
330
A
100
AcDbEntity
  8
TFR-TRI
  6
CONTINUOUS
 62
     7
100
AcDbLine
 10
38.91675949096679
 20
6.899955749511718
 30
0.0
 11
38.9119529724121
 21
6.899955749511718
 31
0.0
  0
LINE
  5
18D
330
A
100
AcDbEntity
  8
TFR-TRI
  6
CONTINUOUS
 62
     7
100
AcDbLine
 10
5.449885845184326
 20
6.978455543518066
 30
0.0
 11
5.464112281799316
 21
6.978455543518066
 31
0.0
  0
LINE
  5
18E
330
A
100
AcDbEntity
  8
TFR-TRI
  6
CONTINUOUS
 62
     7
100
AcDbLine
 10
24.42605209350586
 20
6.978455543518066
 30
0.0
 11
24.440279006958
 21
6.978455543518066
 31
0.0
  0
LINE
  5
18F
330
A
100
AcDbEntity
  8
TFR-TRI
  6
CONTINUOUS
 62
     7
100
AcDbLine
 10
17.87185859680175
 20
23.88541793823242
 30
0.0
 11
17.83397483825683
 21
23.88541793823242
 31
0.0
  0
LINE
  5
190
330
A
100
AcDbEntity
  8
TFR-TRI
  6
CONTINUOUS
 62
     7
100
AcDbLine
 10
38.8034553527832
 20
12.03632354736328
 30
0.0
 11
38.8034553527832
 21
12.0594253540039
 31
0.0
  0
LINE
  5
191
330
A
100
AcDbEntity
  8
TFR-TRI
  6
CONTINUOUS
 62
     7
100
AcDbLine
 10
5.695082187652587
 20
6.978455543518066
 30
0.0
 11
6.135082244873046
 21
6.978455543518066
 31
0.0
  0
LINE
  5
192
330
A
100
AcDbEntity
  8
TFR-TRI
  6
CONTINUOUS
 62
     7
100
AcDbLine
 10
23.75508308410644
 20
23.96391677856445
 30
0.0
 11
23.75508308410644
 21
23.88541793823242
 31
0.0
  0
LINE
  5
193
330
A
100
AcDbEntity
  8
TFR-TRI
  6
CONTINUOUS
 62
     7
100
AcDbLine
 10
38.88195419311523
 20
12.00523281097412
 30
0.0
 11
38.88195419311523
 21
11.96734809875488
 31
0.0
  0
LINE
  5
194
330
A
100
AcDbEntity
  8
TFR-TRI
  6
CONTINUOUS
 62
     7
100
AcDbLine
 10
12.05618953704834
 20
23.88541793823242
 30
0.0
 11
12.01830577850341
 21
23.88541793823242
 31
0.0
  0
LINE
  5
195
330
A
100
AcDbEntity
  8
TFR-TRI
  6
CONTINUOUS
 62
     7
100
AcDbLine
 10
24.40295028686523
 20
6.978455543518066
 30
0.0
 11
24.42605209350586
 21
6.978455543518066
 31
0.0
  0
LINE
  5
196
330
A
100
AcDbEntity
  8
TFR-TRI
  6
CONTINUOUS
 62
     7
100
AcDbLine
 10
43.18195343017578
 20
13.6172285079956
 30
0.0
 11
43.18195343017578
 21
13.66412639617919
 31
0.0
  0
LINE
  5
197
330
A
100
AcDbEntity
  8
TFR-TRI
  6
CONTINUOUS
 62
     7
100
AcDbLine
 10
24.00608253479004
 20
11.3634557723999
 30
0.0
 11
24.19408226013183
 21
11.3634557723999
 31
0.0
  0
LINE
  5
198
330
A
100
AcDbEntity
  8
TFR-TRI
  6
CONTINUOUS
 62
     7
100
AcDbLine
 10
11.92605209350585
 20
23.88541793823242
 30
0.0
 11
11.90294933319091
 21
23.88541793823242
 31
0.0
  0
LINE
  5
199
330
A
100
AcDbEntity
  8
TFR-TRI
  6
CONTINUOUS
 62
     7
100
AcDbLine
 10
24.44508171081543
 20
28.26391792297363
 30
0.0
 11
24.440279006958
 21
28.26391792297363
 31
0.0
  0
LINE
  5
19A
330
A
100
AcDbEntity
  8
TFR-TRI
  6
CONTINUOUS
 62
     7
100
AcDbLine
 10
43.26045227050781
 20
13.81845569610595
 30
0.0
 11
43.26045227050781
 21
13.81365203857422
 31
0.0
  0
LINE
  5
19B
330
A
100
AcDbEntity
  8
TFR-TRI
  6
CONTINUOUS
 62
     7
100
AcDbLine
 10
24.42605209350586
 20
6.899955749511718
 30
0.0
 11
24.40295028686523
 21
6.899955749511718
 31
0.0
  0
LINE
  5
19C
330
A
100
AcDbEntity
  8
TFR-TRI
  6
CONTINUOUS
 62
     7
100
AcDbLine
 10
23.75508308410644
 20
23.99391746520996
 30
0.0
 11
23.75508308410644
 21
23.97891807556152
 31
0.0
  0
LINE
  5
19D
330
A
100
AcDbEntity
  8
TFR-TRI
  6
CONTINUOUS
 62
     7
100
AcDbLine
 10
12.01830577850341
 20
23.96391677856445
 30
0.0
 11
12.05618953704834
 21
23.96391677856445
 31
0.0
  0
LINE
  5
19E
330
A
100
AcDbEntity
  8
TFR-TRI
  6
CONTINUOUS
 62
     7
100
AcDbLine
 10
6.336309909820556
 20
23.88541793823242
 30
0.0
 11
6.289411544799804
 21
23.88541793823242
 31
0.0
  0
LINE
  5
19F
330
A
100
AcDbEntity
  8
TFR-TRI
  6
CONTINUOUS
 62
     7
100
AcDbLine
 10
43.26045227050781
 20
13.6172285079956
 30
0.0
 11
43.26045227050781
 21
13.56845569610595
 31
0.0
  0
LINE
  5
1A0
330
A
100
AcDbEntity
  8
TFR-TRI
  6
CONTINUOUS
 62
     7
100
AcDbLine
 10
24.00608253479004
 20
7.613455772399902
 30
0.0
 11
24.19408226013183
 21
7.613455772399902
 31
0.0
  0
LINE
  5
1A1
330
A
100
AcDbEntity
  8
TFR-TRI
  6
CONTINUOUS
 62
     7
100
AcDbLine
 10
18.05619049072265
 20
23.88541793823242
 30
0.0
 11
18.0183048248291
 21
23.88541793823242
 31
0.0
  0
LINE
  5
1A2
330
A
100
AcDbEntity
  8
TFR-TRI
  6
CONTINUOUS
 62
     7
100
AcDbLine
 10
23.75508308410644
 20
23.88541793823242
 30
0.0
 11
23.75027847290039
 21
23.88541793823242
 31
0.0
  0
LINE
  5
1A3
330
A
100
AcDbEntity
  8
TFR-TRI
  6
CONTINUOUS
 62
     7
100
AcDbLine
 10
43.18195343017578
 20
13.81845569610595
 30
0.0
 11
43.26045227050781
 21
13.81845569610595
 31
0.0
  0
LINE
  5
1A4
330
A
100
AcDbEntity
  8
TFR-TRI
  6
CONTINUOUS
 62
     7
100
AcDbLine
 10
39.11318206787109
 20
6.899955749511718
 30
0.0
 11
39.0662841796875
 21
6.899955749511718
 31
0.0
  0
LINE
  5
1A5
330
A
100
AcDbEntity
  8
TFR-TRI
  6
CONTINUOUS
 62
     7
100
AcDbLine
 10
24.44508171081543
 20
7.008455753326416
 30
0.0
 11
24.44508171081543
 21
6.99345588684082
 31
0.0
  0
LINE
  5
1A6
330
A
100
AcDbEntity
  8
TFR-TRI
  6
CONTINUOUS
 62
     7
100
AcDbLine
 10
17.92605209350585
 20
23.88541793823242
 30
0.0
 11
17.90295028686523
 21
23.88541793823242
 31
0.0
  0
LINE
  5
1A7
330
A
100
AcDbEntity
  8
TFR-TRI
  6
CONTINUOUS
 62
     7
100
AcDbLine
 10
23.55385398864746
 20
23.88541793823242
 30
0.0
 11
23.50508308410644
 21
23.88541793823242
 31
0.0
  0
LINE
  5
1A8
330
A
100
AcDbEntity
  8
TFR-TRI
  6
CONTINUOUS
 62
     7
100
AcDbLine
 10
24.00608253479004
 20
12.8634557723999
 30
0.0
 11
24.19408226013183
 21
12.8634557723999
 31
0.0
  0
LINE
  5
1A9
330
A
100
AcDbEntity
  8
TFR-TRI
  6
CONTINUOUS
 62
     7
100
AcDbLine
 10
17.92605209350585
 20
23.88541793823242
 30
0.0
 11
17.90295028686523
 21
23.88541793823242
 31
0.0
  0
LINE
  5
1AA
330
A
100
AcDbEntity
  8
TFR-TRI
  6
CONTINUOUS
 62
     7
100
AcDbLine
 10
38.9119529724121
 20
6.978455543518066
 30
0.0
 11
38.91675949096679
 21
6.978455543518066
 31
0.0
  0
LINE
  5
1AB
330
A
100
AcDbEntity
  8
TFR-TRI
  6
CONTINUOUS
 62
     7
100
AcDbLine
 10
5.445082187652587
 20
6.98247480392456
 30
0.0
 11
5.445082187652587
 21
6.978455543518066
 31
0.0
  0
LINE
  5
1AC
330
A
100
AcDbEntity
  8
TFR-TRI
  6
CONTINUOUS
 62
     7
100
AcDbLine
 10
12.19508266448974
 20
23.88541793823242
 30
0.0
 11
12.14630985260009
 21
23.88541793823242
 31
0.0
  0
LINE
  5
1AD
330
A
100
AcDbEntity
  8
TFR-TRI
  6
CONTINUOUS
 62
     7
100
AcDbLine
 10
18.09941101074218
 20
23.96391677856445
 30
0.0
 11
18.14630889892578
 21
23.96391677856445
 31
0.0
  0
LINE
  5
1AE
330
A
100
AcDbEntity
  8
TFR-TRI
  6
CONTINUOUS
 62
     7
100
AcDbLine
 10
39.11318206787109
 20
6.978455543518066
 30
0.0
 11
39.16195297241211
 21
6.978455543518066
 31
0.0
  0
LINE
  5
1AF
330
A
100
AcDbEntity
  8
TFR-TRI
  6
CONTINUOUS
 62
     7
100
AcDbLine
 10
23.75508308410644
 20
6.899955749511718
 30
0.0
 11
6.135082244873046
 21
6.899955749511718
 31
0.0
  0
LINE
  5
1B0
330
A
100
AcDbEntity
  8
TFR-TRI
  6
CONTINUOUS
 62
     7
100
AcDbLine
 10
11.94988632202148
 20
23.88541793823242
 30
0.0
 11
11.94508266448974
 21
23.88541793823242
 31
0.0
  0
LINE
  5
1B1
330
A
100
AcDbEntity
  8
TFR-TRI
  6
CONTINUOUS
 62
     7
100
AcDbLine
 10
23.75508308410644
 20
6.944681167602539
 30
0.0
 11
23.75508308410644
 21
6.974927425384521
 31
0.0
  0
LINE
  5
1B2
330
A
100
AcDbEntity
  8
TFR-TRI
  6
CONTINUOUS
 62
     7
100
AcDbLine
 10
23.68185997009277
 20
23.96391677856445
 30
0.0
 11
23.71294975280761
 21
23.96391677856445
 31
0.0
  0
LINE
  5
1B3
330
A
100
AcDbEntity
  8
TFR-TRI
  6
CONTINUOUS
 62
     7
100
AcDbLine
 10
24.00608253479004
 20
9.613455772399902
 30
0.0
 11
24.19408226013183
 21
9.613455772399902
 31
0.0
  0
LINE
  5
1B4
330
A
100
AcDbEntity
  8
TFR-TRI
  6
CONTINUOUS
 62
     7
100
AcDbLine
 10
43.26045227050781
 20
13.6172285079956
 30
0.0
 11
43.26045227050781
 21
13.56845569610595
 31
0.0
  0
LINE
  5
1B5
330
A
100
AcDbEntity
  8
TFR-TRI
  6
CONTINUOUS
 62
     7
100
AcDbLine
 10
11.79075336456298
 20
23.88541793823242
 30
0.0
 11
11.74385452270507
 21
23.88541793823242
 31
0.0
  0
LINE
  5
1B6
330
A
100
AcDbEntity
  8
TFR-TRI
  6
CONTINUOUS
 62
     7
100
AcDbLine
 10
6.177215099334716
 20
23.96391677856445
 30
0.0
 11
6.208305835723876
 21
23.96391677856445
 31
0.0
  0
LINE
  5
1B7
330
A
100
AcDbEntity
  8
TFR-TRI
  6
CONTINUOUS
 62
     7
100
AcDbLine
 10
24.37185859680175
 20
6.978455543518066
 30
0.0
 11
24.40295028686523
 21
6.978455543518066
 31
0.0
  0
LINE
  5
1B8
330
A
100
AcDbEntity
  8
TFR-TRI
  6
CONTINUOUS
 62
     7
100
AcDbLine
 10
6.177215099334716
 20
23.88541793823242
 30
0.0
 11
6.154112339019775
 21
23.88541793823242
 31
0.0
  0
LINE
  5
1B9
330
A
100
AcDbEntity
  8
TFR-TRI
  6
CONTINUOUS
 62
     7
100
AcDbLine
 10
11.79075336456298
 20
23.96391677856445
 30
0.0
 11
11.83397483825683
 21
23.96391677856445
 31
0.0
  0
LINE
  5
1BA
330
A
100
AcDbEntity
  8
TFR-TRI
  6
CONTINUOUS
 62
     7
100
AcDbLine
 10
11.94988632202148
 20
23.96391677856445
 30
0.0
 11
11.96411228179931
 21
23.96391677856445
 31
0.0
  0
LINE
  5
1BB
330
A
100
AcDbEntity
  8
TFR-TRI
  6
CONTINUOUS
 62
     7
100
AcDbLine
 10
23.75508308410644
 20
6.944681167602539
 30
0.0
 11
23.75508308410644
 21
6.974927425384521
 31
0.0
  0
LINE
  5
1BC
330
A
100
AcDbEntity
  8
TFR-TRI
  6
CONTINUOUS
 62
     7
100
AcDbLine
 10
11.69508266448974
 20
23.88541793823242
 30
0.0
 11
6.385082244873046
 21
23.88541793823242
 31
0.0
  0
LINE
  5
1BD
330
A
100
AcDbEntity
  8
TFR-TRI
  6
CONTINUOUS
 62
     7
100
AcDbLine
 10
12.19508266448974
 20
23.96391677856445
 30
0.0
 11
17.69508171081542
 21
23.96391677856445
 31
0.0
  0
LINE
  5
1BE
330
A
100
AcDbEntity
  8
TFR-TRI
  6
CONTINUOUS
 62
     7
100
AcDbLine
 10
23.64397430419921
 20
23.96391677856445
 30
0.0
 11
23.68185997009277
 21
23.96391677856445
 31
0.0
  0
LINE
  5
1BF
330
A
100
AcDbEntity
  8
TFR-TRI
  6
CONTINUOUS
 62
     7
100
AcDbLine
 10
23.55385398864746
 20
23.96391677856445
 30
0.0
 11
23.60075378417968
 21
23.96391677856445
 31
0.0
  0
LINE
  5
1C0
330
A
100
AcDbEntity
  8
TFR-TRI
  6
CONTINUOUS
 62
     7
100
AcDbLine
 10
17.92605209350585
 20
23.96391677856445
 30
0.0
 11
17.940279006958
 21
23.96391677856445
 31
0.0
  0
LINE
  5
1C1
330
A
100
AcDbEntity
  8
TFR-TRI
  6
CONTINUOUS
 62
     7
100
AcDbLine
 10
6.135082244873046
 20
23.96391677856445
 30
0.0
 11
6.139885902404785
 21
23.96391677856445
 31
0.0
  0
LINE
  5
1C2
330
A
100
AcDbEntity
  8
TFR-TRI
  6
CONTINUOUS
 62
     7
100
AcDbLine
 10
39.11318206787109
 20
6.978455543518066
 30
0.0
 11
39.16195297241211
 21
6.978455543518066
 31
0.0
  0
LINE
  5
1C3
330
A
100
AcDbEntity
  8
TFR-TRI
  6
CONTINUOUS
 62
     7
100
AcDbLine
 10
5.556189537048339
 20
28.26391792297363
 30
0.0
 11
5.518305778503417
 21
28.26391792297363
 31
0.0
  0
LINE
  5
1C4
330
A
100
AcDbEntity
  8
TFR-TRI
  6
CONTINUOUS
 62
     7
100
AcDbLine
 10
17.94508171081543
 20
23.88541793823242
 30
0.0
 11
17.940279006958
 21
23.88541793823242
 31
0.0
  0
LINE
  5
1C5
330
A
100
AcDbEntity
  8
TFR-TRI
  6
CONTINUOUS
 62
     7
100
AcDbLine
 10
24.24385452270508
 20
28.34241676330566
 30
0.0
 11
24.29075241088867
 21
28.34241676330566
 31
0.0
  0
LINE
  5
1C6
330
A
100
AcDbEntity
  8
TFR-TRI
  6
CONTINUOUS
 62
     7
100
AcDbLine
 10
43.26045227050781
 20
13.81365203857422
 30
0.0
 11
43.26045227050781
 21
13.79942607879638
 31
0.0
  0
LINE
  5
1C7
330
A
100
AcDbEntity
  8
TFR-TRI
  6
CONTINUOUS
 62
     7
100
AcDbLine
 10
5.445082187652587
 20
28.34241676330566
 30
0.0
 11
5.449885845184326
 21
28.34241676330566
 31
0.0
  0
LINE
  5
1C8
330
A
100
AcDbEntity
  8
TFR-TRI
  6
CONTINUOUS
 62
     7
100
AcDbLine
 10
5.646309852600097
 20
28.34241676330566
 30
0.0
 11
5.695082187652587
 21
28.34241676330566
 31
0.0
  0
LINE
  5
1C9
330
A
100
AcDbEntity
  8
TFR-TRI
  6
CONTINUOUS
 62
     7
100
AcDbLine
 10
5.445082187652587
 20
28.25989913940429
 30
0.0
 11
5.445082187652587
 21
28.24891853332519
 31
0.0
  0
LINE
  5
1CA
330
A
100
AcDbEntity
  8
TFR-TRI
  6
CONTINUOUS
 62
     7
100
AcDbLine
 10
17.69508171081542
 20
23.96391677856445
 30
0.0
 11
17.74385452270507
 21
23.96391677856445
 31
0.0
  0
LINE
  5
1CB
330
A
100
AcDbEntity
  8
TFR-TRI
  6
CONTINUOUS
 62
     7
100
AcDbLine
 10
11.79075336456298
 20
23.96391677856445
 30
0.0
 11
11.83397483825683
 21
23.96391677856445
 31
0.0
  0
LINE
  5
1CC
330
A
100
AcDbEntity
  8
TFR-TRI
  6
CONTINUOUS
 62
     7
100
AcDbLine
 10
11.94988632202148
 20
23.96391677856445
 30
0.0
 11
11.96411228179931
 21
23.96391677856445
 31
0.0
  0
LINE
  5
1CD
330
A
100
AcDbEntity
  8
TFR-TRI
  6
CONTINUOUS
 62
     7
100
AcDbLine
 10
24.33397483825683
 20
28.26391792297363
 30
0.0
 11
24.29075241088867
 21
28.26391792297363
 31
0.0
  0
LINE
  5
1CE
330
A
100
AcDbEntity
  8
TFR-TRI
  6
CONTINUOUS
 62
     7
100
AcDbLine
 10
6.135082244873046
 20
6.944681167602539
 30
0.0
 11
6.135082244873046
 21
6.974927425384521
 31
0.0
  0
LINE
  5
1CF
330
A
100
AcDbEntity
  8
TFR-TRI
  6
CONTINUOUS
 62
     7
100
AcDbLine
 10
24.44508171081543
 20
6.899955749511718
 30
0.0
 11
24.440279006958
 21
6.899955749511718
 31
0.0
  0
LINE
  5
1D0
330
A
100
AcDbEntity
  8
TFR-TRI
  6
CONTINUOUS
 62
     7
100
AcDbLine
 10
5.556189537048339
 20
28.26391792297363
 30
0.0
 11
5.518305778503417
 21
28.26391792297363
 31
0.0
  0
LINE
  5
1D1
330
A
100
AcDbEntity
  8
TFR-TRI
  6
CONTINUOUS
 62
     7
100
AcDbLine
 10
39.0230598449707
 20
6.978455543518066
 30
0.0
 11
39.0662841796875
 21
6.978455543518066
 31
0.0
  0
LINE
  5
1D2
330
A
100
AcDbEntity
  8
TFR-TRI
  6
CONTINUOUS
 62
     7
100
AcDbLine
 10
38.88195419311523
 20
12.00523281097412
 30
0.0
 11
38.88195419311523
 21
11.96734809875488
 31
0.0
  0
LINE
  5
1D3
330
A
100
AcDbEntity
  8
TFR-TRI
  6
CONTINUOUS
 62
     7
100
AcDbLine
 10
24.24385452270508
 20
28.34241676330566
 30
0.0
 11
24.29075241088867
 21
28.34241676330566
 31
0.0
  0
LINE
  5
1D4
330
A
100
AcDbEntity
  8
TFR-TRI
  6
CONTINUOUS
 62
     7
100
AcDbLine
 10
24.00608253479004
 20
7.613455772399902
 30
0.0
 11
24.19408226013183
 21
7.613455772399902
 31
0.0
  0
LINE
  5
1D5
330
A
100
AcDbEntity
  8
TFR-TRI
  6
CONTINUOUS
 62
     7
100
AcDbLine
 10
43.18195343017578
 20
13.6172285079956
 30
0.0
 11
43.18195343017578
 21
13.66412639617919
 31
0.0
  0
LINE
  5
1D6
330
A
100
AcDbEntity
  8
TFR-TRI
  6
CONTINUOUS
 62
     7
100
AcDbLine
 10
5.445082187652587
 20
28.34241676330566
 30
0.0
 11
5.449885845184326
 21
28.34241676330566
 31
0.0
  0
LINE
  5
1D7
330
A
100
AcDbEntity
  8
TFR-TRI
  6
CONTINUOUS
 62
     7
100
AcDbLine
 10
23.50508308410644
 20
12.07845592498779
 30
0.0
 11
18.19508171081542
 21
12.07845592498779
 31
0.0
  0
LINE
  5
1D8
330
A
100
AcDbEntity
  8
TFR-TRI
  6
CONTINUOUS
 62
     7
100
AcDbLine
 10
24.44508171081543
 20
7.008455753326416
 30
0.0
 11
24.44508171081543
 21
6.99345588684082
 31
0.0
  0
LINE
  5
1D9
330
A
100
AcDbEntity
  8
TFR-TRI
  6
CONTINUOUS
 62
     7
100
AcDbLine
 10
24.29075241088867
 20
6.978455543518066
 30
0.0
 11
24.33397483825683
 21
6.978455543518066
 31
0.0
  0
LINE
  5
1DA
330
A
100
AcDbEntity
  8
TFR-TRI
  6
CONTINUOUS
 62
     7
100
AcDbLine
 10
5.646309852600097
 20
28.34241676330566
 30
0.0
 11
5.695082187652587
 21
28.34241676330566
 31
0.0
  0
LINE
  5
1DB
330
A
100
AcDbEntity
  8
TFR-TRI
  6
CONTINUOUS
 62
     7
100
AcDbLine
 10
6.135082244873046
 20
6.905266284942626
 30
0.0
 11
6.135082244873046
 21
6.920677185058593
 31
0.0
  0
LINE
  5
1DC
330
A
100
AcDbEntity
  8
TFR-TRI
  6
CONTINUOUS
 62
     7
100
AcDbLine
 10
5.445082187652587
 20
6.899955749511718
 30
0.0
 11
5.445082187652587
 21
6.978455543518066
 31
0.0
  0
LINE
  5
1DD
330
A
100
AcDbEntity
  8
TFR-TRI
  6
CONTINUOUS
 62
     7
100
AcDbLine
 10
6.385082244873046
 20
23.96391677856445
 30
0.0
 11
11.69508266448974
 21
23.96391677856445
 31
0.0
  0
LINE
  5
1DE
330
A
100
AcDbEntity
  8
TFR-TRI
  6
CONTINUOUS
 62
     7
100
AcDbLine
 10
5.445082187652587
 20
28.25989913940429
 30
0.0
 11
5.445082187652587
 21
28.24891853332519
 31
0.0
  0
LINE
  5
1DF
330
A
100
AcDbEntity
  8
TFR-TRI
  6
CONTINUOUS
 62
     7
100
AcDbLine
 10
11.83397483825683
 20
23.96391677856445
 30
0.0
 11
11.87185859680175
 21
23.96391677856445
 31
0.0
  0
LINE
  5
1E0
330
A
100
AcDbEntity
  8
TFR-TRI
  6
CONTINUOUS
 62
     7
100
AcDbLine
 10
5.487215042114257
 20
6.899955749511718
 30
0.0
 11
5.464112281799316
 21
6.899955749511718
 31
0.0
  0
LINE
  5
1E1
330
A
100
AcDbEntity
  8
TFR-TRI
  6
CONTINUOUS
 62
     7
100
AcDbLine
 10
39.11318206787109
 20
6.899955749511718
 30
0.0
 11
39.0662841796875
 21
6.899955749511718
 31
0.0
  0
LINE
  5
1E2
330
A
100
AcDbEntity
  8
TFR-TRI
  6
CONTINUOUS
 62
     7
100
AcDbLine
 10
24.19508171081543
 20
6.978455543518066
 30
0.0
 11
24.24385452270508
 21
6.978455543518066
 31
0.0
  0
LINE
  5
1E3
330
A
100
AcDbEntity
  8
TFR-TRI
  6
CONTINUOUS
 62
     7
100
AcDbLine
 10
24.37185859680175
 20
6.899955749511718
 30
0.0
 11
24.33397483825683
 21
6.899955749511718
 31
0.0
  0
LINE
  5
1E4
330
A
100
AcDbEntity
  8
TFR-TRI
  6
CONTINUOUS
 62
     7
100
AcDbLine
 10
17.96411323547363
 20
23.88541793823242
 30
0.0
 11
17.94988632202148
 21
23.88541793823242
 31
0.0
  0
LINE
  5
1E5
330
A
100
AcDbEntity
  8
TFR-TRI
  6
CONTINUOUS
 62
     7
100
AcDbLine
 10
38.8034553527832
 20
7.008455753326416
 30
0.0
 11
38.8034553527832
 21
11.82845592498779
 31
0.0
  0
LINE
  5
1E6
330
A
100
AcDbEntity
  8
TFR-TRI
  6
CONTINUOUS
 62
     7
100
AcDbLine
 10
5.464112281799316
 20
6.978455543518066
 30
0.0
 11
5.487215042114257
 21
6.978455543518066
 31
0.0
  0
LINE
  5
1E7
330
A
100
AcDbEntity
  8
TFR-TRI
  6
CONTINUOUS
 62
     7
100
AcDbLine
 10
17.83397483825683
 20
23.88541793823242
 30
0.0
 11
17.79075241088867
 21
23.88541793823242
 31
0.0
  0
LINE
  5
1E8
330
A
100
AcDbEntity
  8
TFR-TRI
  6
CONTINUOUS
 62
     7
100
AcDbLine
 10
38.8034553527832
 20
12.0594253540039
 30
0.0
 11
38.8034553527832
 21
12.07365226745605
 31
0.0
  0
LINE
  5
1E9
330
A
100
AcDbEntity
  8
TFR-TRI
  6
CONTINUOUS
 62
     7
100
AcDbLine
 10
23.75508308410644
 20
6.978455543518066
 30
0.0
 11
24.19508171081543
 21
6.978455543518066
 31
0.0
  0
LINE
  5
1EA
330
A
100
AcDbEntity
  8
TFR-TRI
  6
CONTINUOUS
 62
     7
100
AcDbLine
 10
5.884082317352294
 20
11.3634557723999
 30
0.0
 11
5.696082115173339
 21
11.3634557723999
 31
0.0
  0
LINE
  5
1EB
330
A
100
AcDbEntity
  8
TFR-TRI
  6
CONTINUOUS
 62
     7
100
AcDbLine
 10
6.135082244873046
 20
23.88541793823242
 30
0.0
 11
6.135082244873046
 21
23.96391677856445
 31
0.0
  0
LINE
  5
1EC
330
A
100
AcDbEntity
  8
TFR-TRI
  6
CONTINUOUS
 62
     7
100
AcDbLine
 10
38.88195419311523
 20
11.96734809875488
 30
0.0
 11
38.88195419311523
 21
11.92412662506103
 31
0.0
  0
LINE
  5
1ED
330
A
100
AcDbEntity
  8
TFR-TRI
  6
CONTINUOUS
 62
     7
100
AcDbLine
 10
5.518305778503417
 20
6.899955749511718
 30
0.0
 11
5.487215042114257
 21
6.899955749511718
 31
0.0
  0
LINE
  5
1EE
330
A
100
AcDbEntity
  8
TFR-TRI
  6
CONTINUOUS
 62
     7
100
AcDbLine
 10
12.19508266448974
 20
10.57845592498779
 30
0.0
 11
17.69508171081542
 21
10.57845592498779
 31
0.0
  0
LINE
  5
1EF
330
A
100
AcDbEntity
  8
TFR-TRI
  6
CONTINUOUS
 62
     7
100
AcDbLine
 10
12.01830577850341
 20
23.88541793823242
 30
0.0
 11
11.98721504211425
 21
23.88541793823242
 31
0.0
  0
LINE
  5
1F0
330
A
100
AcDbEntity
  8
TFR-TRI
  6
CONTINUOUS
 62
     7
100
AcDbLine
 10
24.42605209350586
 20
6.978455543518066
 30
0.0
 11
24.440279006958
 21
6.978455543518066
 31
0.0
  0
LINE
  5
1F1
330
A
100
AcDbEntity
  8
TFR-TRI
  6
CONTINUOUS
 62
     7
100
AcDbLine
 10
43.18195343017578
 20
13.66412639617919
 30
0.0
 11
43.18195343017578
 21
13.70734786987304
 31
0.0
  0
LINE
  5
1F2
330
A
100
AcDbEntity
  8
TFR-TRI
  6
CONTINUOUS
 62
     7
100
AcDbLine
 10
6.135082244873046
 20
7.008455753326416
 30
0.0
 11
6.135082244873046
 21
11.82845592498779
 31
0.0
  0
LINE
  5
1F3
330
A
100
AcDbEntity
  8
TFR-TRI
  6
CONTINUOUS
 62
     7
100
AcDbLine
 10
11.90294933319091
 20
23.88541793823242
 30
0.0
 11
11.87185859680175
 21
23.88541793823242
 31
0.0
  0
LINE
  5
1F4
330
A
100
AcDbEntity
  8
TFR-TRI
  6
CONTINUOUS
 62
     7
100
AcDbLine
 10
17.94508171081543
 20
11.82845592498779
 30
0.0
 11
17.94508171081543
 21
10.82845592498779
 31
0.0
  0
LINE
  5
1F5
330
A
100
AcDbEntity
  8
TFR-TRI
  6
CONTINUOUS
 62
     7
100
AcDbLine
 10
38.95408630371093
 20
6.978455543518066
 30
0.0
 11
38.98517608642578
 21
6.978455543518066
 31
0.0
  0
LINE
  5
1F6
330
A
100
AcDbEntity
  8
TFR-TRI
  6
CONTINUOUS
 62
     7
100
AcDbLine
 10
5.696082115173339
 20
7.863455772399902
 30
0.0
 11
5.884082317352294
 21
7.863455772399902
 31
0.0
  0
LINE
  5
1F7
330
A
100
AcDbEntity
  8
TFR-TRI
  6
CONTINUOUS
 62
     7
100
AcDbLine
 10
23.75508308410644
 20
23.97891807556152
 30
0.0
 11
23.75508308410644
 21
23.96793746948242
 31
0.0
  0
LINE
  5
1F8
330
A
100
AcDbEntity
  8
TFR-TRI
  6
CONTINUOUS
 62
     7
100
AcDbLine
 10
6.289411544799804
 20
23.88541793823242
 30
0.0
 11
6.246189594268798
 21
23.88541793823242
 31
0.0
  0
LINE
  5
1F9
330
A
100
AcDbEntity
  8
TFR-TRI
  6
CONTINUOUS
 62
     7
100
AcDbLine
 10
6.336309909820556
 20
23.88541793823242
 30
0.0
 11
6.289411544799804
 21
23.88541793823242
 31
0.0
  0
LINE
  5
1FA
330
A
100
AcDbEntity
  8
TFR-TRI
  6
CONTINUOUS
 62
     7
100
AcDbLine
 10
43.26045227050781
 20
7.008455753326416
 30
0.0
 11
43.26045227050781
 21
13.56845569610595
 31
0.0
  0
LINE
  5
1FB
330
A
100
AcDbEntity
  8
TFR-TRI
  6
CONTINUOUS
 62
     7
100
AcDbLine
 10
18.0183048248291
 20
23.88541793823242
 30
0.0
 11
17.98721504211425
 21
23.88541793823242
 31
0.0
  0
LINE
  5
1FC
330
A
100
AcDbEntity
  8
TFR-TRI
  6
CONTINUOUS
 62
     7
100
AcDbLine
 10
23.75027847290039
 20
23.88541793823242
 30
0.0
 11
23.73605155944824
 21
23.88541793823242
 31
0.0
  0
LINE
  5
1FD
330
A
100
AcDbEntity
  8
TFR-TRI
  6
CONTINUOUS
 62
     7
100
AcDbLine
 10
39.0662841796875
 20
6.899955749511718
 30
0.0
 11
39.0230598449707
 21
6.899955749511718
 31
0.0
  0
LINE
  5
1FE
330
A
100
AcDbEntity
  8
TFR-TRI
  6
CONTINUOUS
 62
     7
100
AcDbLine
 10
24.44508171081543
 20
6.99345588684082
 30
0.0
 11
24.44508171081543
 21
6.98247480392456
 31
0.0
  0
LINE
  5
1FF
330
A
100
AcDbEntity
  8
TFR-TRI
  6
CONTINUOUS
 62
     7
100
AcDbLine
 10
17.90295028686523
 20
23.88541793823242
 30
0.0
 11
17.87185859680175
 21
23.88541793823242
 31
0.0
  0
LINE
  5
200
330
A
100
AcDbEntity
  8
TFR-TRI
  6
CONTINUOUS
 62
     7
100
AcDbLine
 10
17.94508171081543
 20
23.96391677856445
 30
0.0
 11
17.94988632202148
 21
23.96391677856445
 31
0.0
  0
LINE
  5
201
330
A
100
AcDbEntity
  8
TFR-TRI
  6
CONTINUOUS
 62
     7
100
AcDbLine
 10
38.91675949096679
 20
6.978455543518066
 30
0.0
 11
38.93098449707031
 21
6.978455543518066
 31
0.0
  0
LINE
  5
202
330
A
100
AcDbEntity
  8
TFR-TRI
  6
CONTINUOUS
 62
     7
100
AcDbLine
 10
12.14630985260009
 20
23.88541793823242
 30
0.0
 11
12.09941101074218
 21
23.88541793823242
 31
0.0
  0
LINE
  5
203
330
A
100
AcDbEntity
  8
TFR-TRI
  6
CONTINUOUS
 62
     7
100
AcDbLine
 10
18.14630889892578
 20
23.96391677856445
 30
0.0
 11
18.19508171081542
 21
23.96391677856445
 31
0.0
  0
LINE
  5
204
330
A
100
AcDbEntity
  8
TFR-TRI
  6
CONTINUOUS
 62
     7
100
AcDbLine
 10
5.884082317352294
 20
9.363455772399902
 30
0.0
 11
5.696082115173339
 21
9.363455772399902
 31
0.0
  0
LINE
  5
205
330
A
100
AcDbEntity
  8
TFR-TRI
  6
CONTINUOUS
 62
     7
100
AcDbLine
 10
38.9119529724121
 20
6.899955749511718
 30
0.0
 11
38.9119529724121
 21
6.978455543518066
 31
0.0
  0
LINE
  5
206
330
A
100
AcDbEntity
  8
TFR-TRI
  6
CONTINUOUS
 62
     7
100
AcDbLine
 10
11.94508266448974
 20
23.88541793823242
 30
0.0
 11
11.940279006958
 21
23.88541793823242
 31
0.0
  0
LINE
  5
207
330
A
100
AcDbEntity
  8
TFR-TRI
  6
CONTINUOUS
 62
     7
100
AcDbLine
 10
23.71294975280761
 20
23.96391677856445
 30
0.0
 11
23.73605155944824
 21
23.96391677856445
 31
0.0
  0
LINE
  5
208
330
A
100
AcDbEntity
  8
TFR-TRI
  6
CONTINUOUS
 62
     7
100
AcDbLine
 10
23.75508308410644
 20
6.974927425384521
 30
0.0
 11
23.75508308410644
 21
7.008455753326416
 31
0.0
  0
LINE
  5
209
330
A
100
AcDbEntity
  8
TFR-TRI
  6
CONTINUOUS
 62
     7
100
AcDbLine
 10
11.74385452270507
 20
23.88541793823242
 30
0.0
 11
11.69508266448974
 21
23.88541793823242
 31
0.0
  0
LINE
  5
20A
330
A
100
AcDbEntity
  8
TFR-TRI
  6
CONTINUOUS
 62
     7
100
AcDbLine
 10
6.135082244873046
 20
23.99391746520996
 30
0.0
 11
6.135082244873046
 21
23.97891807556152
 31
0.0
  0
LINE
  5
20B
330
A
100
AcDbEntity
  8
TFR-TRI
  6
CONTINUOUS
 62
     7
100
AcDbLine
 10
6.208305835723876
 20
23.96391677856445
 30
0.0
 11
6.246189594268798
 21
23.96391677856445
 31
0.0
  0
LINE
  5
20C
330
A
100
AcDbEntity
  8
TFR-TRI
  6
CONTINUOUS
 62
     7
100
AcDbLine
 10
24.440279006958
 20
6.978455543518066
 30
0.0
 11
24.44508171081543
 21
6.978455543518066
 31
0.0
  0
LINE
  5
20D
330
A
100
AcDbEntity
  8
TFR-TRI
  6
CONTINUOUS
 62
     7
100
AcDbLine
 10
11.83397483825683
 20
23.96391677856445
 30
0.0
 11
11.87185859680175
 21
23.96391677856445
 31
0.0
  0
LINE
  5
20E
330
A
100
AcDbEntity
  8
TFR-TRI
  6
CONTINUOUS
 62
     7
100
AcDbLine
 10
11.96411228179931
 20
23.96391677856445
 30
0.0
 11
11.98721504211425
 21
23.96391677856445
 31
0.0
  0
LINE
  5
20F
330
A
100
AcDbEntity
  8
TFR-TRI
  6
CONTINUOUS
 62
     7
100
AcDbLine
 10
18.0183048248291
 20
23.96391677856445
 30
0.0
 11
18.05619049072265
 21
23.96391677856445
 31
0.0
  0
LINE
  5
210
330
A
100
AcDbEntity
  8
TFR-TRI
  6
CONTINUOUS
 62
     7
100
AcDbLine
 10
17.69508171081542
 20
23.96391677856445
 30
0.0
 11
17.74385452270507
 21
23.96391677856445
 31
0.0
  0
LINE
  5
211
330
A
100
AcDbEntity
  8
TFR-TRI
  6
CONTINUOUS
 62
     7
100
AcDbLine
 10
23.60075378417968
 20
23.96391677856445
 30
0.0
 11
23.64397430419921
 21
23.96391677856445
 31
0.0
  0
LINE
  5
212
330
A
100
AcDbEntity
  8
TFR-TRI
  6
CONTINUOUS
 62
     7
100
AcDbLine
 10
17.940279006958
 20
23.96391677856445
 30
0.0
 11
17.94508171081543
 21
23.96391677856445
 31
0.0
  0
LINE
  5
213
330
A
100
AcDbEntity
  8
TFR-TRI
  6
CONTINUOUS
 62
     7
100
AcDbLine
 10
24.29075241088867
 20
28.26391792297363
 30
0.0
 11
24.24385452270508
 21
28.26391792297363
 31
0.0
  0
LINE
  5
214
330
A
100
AcDbEntity
  8
TFR-TRI
  6
CONTINUOUS
 62
     7
100
AcDbLine
 10
23.75508308410644
 20
6.905266284942626
 30
0.0
 11
23.75508308410644
 21
6.920677185058593
 31
0.0
  0
LINE
  5
215
330
A
100
AcDbEntity
  8
TFR-TRI
  6
CONTINUOUS
 62
     7
100
AcDbLine
 10
5.695082187652587
 20
23.99391746520996
 30
0.0
 11
6.135082244873046
 21
23.99391746520996
 31
0.0
  0
LINE
  5
216
330
A
100
AcDbEntity
  8
TFR-TRI
  6
CONTINUOUS
 62
     7
100
AcDbLine
 10
5.518305778503417
 20
28.26391792297363
 30
0.0
 11
5.487215042114257
 21
28.26391792297363
 31
0.0
  0
LINE
  5
217
330
A
100
AcDbEntity
  8
TFR-TRI
  6
CONTINUOUS
 62
     7
100
AcDbLine
 10
24.29075241088867
 20
28.34241676330566
 30
0.0
 11
24.33397483825683
 21
28.34241676330566
 31
0.0
  0
LINE
  5
218
330
A
100
AcDbEntity
  8
TFR-TRI
  6
CONTINUOUS
 62
     7
100
AcDbLine
 10
5.599411487579345
 20
6.978455543518066
 30
0.0
 11
5.646309852600097
 21
6.978455543518066
 31
0.0
  0
LINE
  5
219
330
A
100
AcDbEntity
  8
TFR-TRI
  6
CONTINUOUS
 62
     7
100
AcDbLine
 10
5.449885845184326
 20
28.34241676330566
 30
0.0
 11
5.464112281799316
 21
28.34241676330566
 31
0.0
  0
LINE
  5
21A
330
A
100
AcDbEntity
  8
TFR-TRI
  6
CONTINUOUS
 62
     7
100
AcDbLine
 10
5.695082187652587
 20
28.34241676330566
 30
0.0
 11
24.19508171081543
 21
28.34241676330566
 31
0.0
  0
LINE
  5
21B
330
A
100
AcDbEntity
  8
TFR-TRI
  6
CONTINUOUS
 62
     7
100
AcDbLine
 10
5.445082187652587
 20
28.24891853332519
 30
0.0
 11
5.445082187652587
 21
28.23391723632812
 31
0.0
  0
LINE
  5
21C
330
A
100
AcDbEntity
  8
TFR-TRI
  6
CONTINUOUS
 62
     7
100
AcDbLine
 10
17.74385452270507
 20
23.96391677856445
 30
0.0
 11
17.79075241088867
 21
23.96391677856445
 31
0.0
  0
LINE
  5
21D
330
A
100
AcDbEntity
  8
TFR-TRI
  6
CONTINUOUS
 62
     7
100
AcDbLine
 10
11.96411228179931
 20
23.96391677856445
 30
0.0
 11
11.98721504211425
 21
23.96391677856445
 31
0.0
  0
LINE
  5
21E
330
A
100
AcDbEntity
  8
TFR-TRI
  6
CONTINUOUS
 62
     7
100
AcDbLine
 10
5.599411487579345
 20
6.899955749511718
 30
0.0
 11
5.556189537048339
 21
6.899955749511718
 31
0.0
  0
LINE
  5
21F
330
A
100
AcDbEntity
  8
TFR-TRI
  6
CONTINUOUS
 62
     7
100
AcDbLine
 10
24.29075241088867
 20
28.26391792297363
 30
0.0
 11
24.24385452270508
 21
28.26391792297363
 31
0.0
  0
LINE
  5
220
330
A
100
AcDbEntity
  8
TFR-TRI
  6
CONTINUOUS
 62
     7
100
AcDbLine
 10
18.19508171081542
 20
23.88541793823242
 30
0.0
 11
18.14630889892578
 21
23.88541793823242
 31
0.0
  0
LINE
  5
221
330
A
100
AcDbEntity
  8
TFR-TRI
  6
CONTINUOUS
 62
     7
100
AcDbLine
 10
38.8034553527832
 20
12.0594253540039
 30
0.0
 11
38.8034553527832
 21
12.07365226745605
 31
0.0
  0
LINE
  5
222
330
A
100
AcDbEntity
  8
TFR-TRI
  6
CONTINUOUS
 62
     7
100
AcDbLine
 10
5.518305778503417
 20
28.26391792297363
 30
0.0
 11
5.487215042114257
 21
28.26391792297363
 31
0.0
  0
LINE
  5
223
330
A
100
AcDbEntity
  8
TFR-TRI
  6
CONTINUOUS
 62
     7
100
AcDbLine
 10
39.0230598449707
 20
6.899955749511718
 30
0.0
 11
38.98517608642578
 21
6.899955749511718
 31
0.0
  0
LINE
  5
224
330
A
100
AcDbEntity
  8
TFR-TRI
  6
CONTINUOUS
 62
     7
100
AcDbLine
 10
24.19508171081543
 20
6.899955749511718
 30
0.0
 11
23.75508308410644
 21
6.899955749511718
 31
0.0
  0
LINE
  5
225
330
A
100
AcDbEntity
  8
TFR-TRI
  6
CONTINUOUS
 62
     7
100
AcDbLine
 10
24.29075241088867
 20
28.34241676330566
 30
0.0
 11
24.33397483825683
 21
28.34241676330566
 31
0.0
  0
LINE
  5
226
330
A
100
AcDbEntity
  8
TFR-TRI
  6
CONTINUOUS
 62
     7
100
AcDbLine
 10
43.18195343017578
 20
13.66412639617919
 30
0.0
 11
43.18195343017578
 21
13.70734786987304
 31
0.0
  0
LINE
  5
227
330
A
100
AcDbEntity
  8
TFR-TRI
  6
CONTINUOUS
 62
     7
100
AcDbLine
 10
43.18195343017578
 20
13.77632331848144
 30
0.0
 11
43.18195343017578
 21
13.79942607879638
 31
0.0
  0
LINE
  5
228
330
A
100
AcDbEntity
  8
TFR-TRI
  6
CONTINUOUS
 62
     7
100
AcDbLine
 10
24.44508171081543
 20
6.99345588684082
 30
0.0
 11
24.44508171081543
 21
6.98247480392456
 31
0.0
  0
LINE
  5
229
330
A
100
AcDbEntity
  8
TFR-TRI
  6
CONTINUOUS
 62
     7
100
AcDbLine
 10
24.33397483825683
 20
6.978455543518066
 30
0.0
 11
24.37185859680175
 21
6.978455543518066
 31
0.0
  0
LINE
  5
22A
330
A
100
AcDbEntity
  8
TFR-TRI
  6
CONTINUOUS
 62
     7
100
AcDbLine
 10
5.695082187652587
 20
28.34241676330566
 30
0.0
 11
24.19508171081543
 21
28.34241676330566
 31
0.0
  0
LINE
  5
22B
330
A
100
AcDbEntity
  8
TFR-TRI
  6
CONTINUOUS
 62
     7
100
AcDbLine
 10
6.135082244873046
 20
6.920677185058593
 30
0.0
 11
6.135082244873046
 21
6.944681167602539
 31
0.0
  0
LINE
  5
22C
330
A
100
AcDbEntity
  8
TFR-TRI
  6
CONTINUOUS
 62
     7
100
AcDbLine
 10
43.26045227050781
 20
13.81845569610595
 30
0.0
 11
43.26045227050781
 21
13.81365203857422
 31
0.0
  0
LINE
  5
22D
330
A
100
AcDbEntity
  8
TFR-TRI
  6
CONTINUOUS
 62
     7
100
AcDbLine
 10
6.135082244873046
 20
6.899955749511718
 30
0.0
 11
5.695082187652587
 21
6.899955749511718
 31
0.0
  0
LINE
  5
22E
330
A
100
AcDbEntity
  8
TFR-TRI
  6
CONTINUOUS
 62
     7
100
AcDbLine
 10
43.26045227050781
 20
7.008455753326416
 30
0.0
 11
43.26045227050781
 21
13.56845569610595
 31
0.0
  0
LINE
  5
22F
330
A
100
AcDbEntity
  8
TFR-TRI
  6
CONTINUOUS
 62
     7
100
AcDbLine
 10
5.445082187652587
 20
28.24891853332519
 30
0.0
 11
5.445082187652587
 21
28.23391723632812
 31
0.0
  0
LINE
  5
230
330
A
100
AcDbEntity
  8
TFR-TRI
  6
CONTINUOUS
 62
     7
100
AcDbLine
 10
23.75508308410644
 20
6.899955749511718
 30
0.0
 11
23.75508308410644
 21
6.905266284942626
 31
0.0
  0
LINE
  5
231
330
A
100
AcDbEntity
  8
TFR-TRI
  6
CONTINUOUS
 62
     7
100
AcDbLine
 10
5.464112281799316
 20
6.899955749511718
 30
0.0
 11
5.449885845184326
 21
6.899955749511718
 31
0.0
  0
LINE
  5
232
330
A
100
AcDbEntity
  8
TFR-TRI
  6
CONTINUOUS
 62
     7
100
AcDbLine
 10
39.0662841796875
 20
6.899955749511718
 30
0.0
 11
39.0230598449707
 21
6.899955749511718
 31
0.0
  0
LINE
  5
233
330
A
100
AcDbEntity
  8
TFR-TRI
  6
CONTINUOUS
 62
     7
100
AcDbLine
 10
23.75508308410644
 20
23.96391677856445
 30
0.0
 11
23.75508308410644
 21
23.88541793823242
 31
0.0
  0
LINE
  5
234
330
A
100
AcDbEntity
  8
TFR-TRI
  6
CONTINUOUS
 62
     7
100
AcDbLine
 10
38.8034553527832
 20
11.82845592498779
 30
0.0
 11
38.8034553527832
 21
11.87722873687744
 31
0.0
  0
LINE
  5
235
330
A
100
AcDbEntity
  8
TFR-TRI
  6
CONTINUOUS
 62
     7
100
AcDbLine
 10
17.96411323547363
 20
23.96391677856445
 30
0.0
 11
17.98721504211425
 21
23.96391677856445
 31
0.0
  0
LINE
  5
236
330
A
100
AcDbEntity
  8
TFR-TRI
  6
CONTINUOUS
 62
     7
100
AcDbLine
 10
38.91675949096679
 20
6.978455543518066
 30
0.0
 11
38.93098449707031
 21
6.978455543518066
 31
0.0
  0
LINE
  5
237
330
A
100
AcDbEntity
  8
TFR-TRI
  6
CONTINUOUS
 62
     7
100
AcDbLine
 10
38.8034553527832
 20
11.82845592498779
 30
0.0
 11
38.8034553527832
 21
11.87722873687744
 31
0.0
  0
LINE
  5
238
330
A
100
AcDbEntity
  8
TFR-TRI
  6
CONTINUOUS
 62
     7
100
AcDbLine
 10
38.88195419311523
 20
12.0594253540039
 30
0.0
 11
38.88195419311523
 21
12.03632354736328
 31
0.0
  0
LINE
  5
239
330
A
100
AcDbEntity
  8
TFR-TRI
  6
CONTINUOUS
 62
     7
100
AcDbLine
 10
5.487215042114257
 20
6.978455543518066
 30
0.0
 11
5.518305778503417
 21
6.978455543518066
 31
0.0
  0
LINE
  5
23A
330
A
100
AcDbEntity
  8
TFR-TRI
  6
CONTINUOUS
 62
     7
100
AcDbLine
 10
38.9119529724121
 20
6.899955749511718
 30
0.0
 11
38.9119529724121
 21
6.978455543518066
 31
0.0
  0
LINE
  5
23B
330
A
100
AcDbEntity
  8
TFR-TRI
  6
CONTINUOUS
 62
     7
100
AcDbLine
 10
38.8034553527832
 20
12.07365226745605
 30
0.0
 11
38.8034553527832
 21
12.07845592498779
 31
0.0
  0
LINE
  5
23C
330
A
100
AcDbEntity
  8
TFR-TRI
  6
CONTINUOUS
 62
     7
100
AcDbLine
 10
24.19508171081543
 20
6.978455543518066
 30
0.0
 11
24.24385452270508
 21
6.978455543518066
 31
0.0
  0
LINE
  5
23D
330
A
100
AcDbEntity
  8
TFR-TRI
  6
CONTINUOUS
 62
     7
100
AcDbLine
 10
5.646309852600097
 20
28.26391792297363
 30
0.0
 11
5.599411487579345
 21
28.26391792297363
 31
0.0
  0
LINE
  5
23E
330
A
100
AcDbEntity
  8
TFR-TRI
  6
CONTINUOUS
 62
     7
100
AcDbLine
 10
38.88195419311523
 20
11.92412662506103
 30
0.0
 11
38.88195419311523
 21
11.87722873687744
 31
0.0
  0
LINE
  5
23F
330
A
100
AcDbEntity
  8
TFR-TRI
  6
CONTINUOUS
 62
     7
100
AcDbLine
 10
11.98721504211425
 20
23.88541793823242
 30
0.0
 11
11.96411228179931
 21
23.88541793823242
 31
0.0
  0
LINE
  5
240
330
A
100
AcDbEntity
  8
TFR-TRI
  6
CONTINUOUS
 62
     7
100
AcDbLine
 10
17.83397483825683
 20
23.96391677856445
 30
0.0
 11
17.87185859680175
 21
23.96391677856445
 31
0.0
  0
LINE
  5
241
330
A
100
AcDbEntity
  8
TFR-TRI
  6
CONTINUOUS
 62
     7
100
AcDbLine
 10
43.18195343017578
 20
13.70734786987304
 30
0.0
 11
43.18195343017578
 21
13.74523258209228
 31
0.0
  0
LINE
  5
242
330
A
100
AcDbEntity
  8
TFR-TRI
  6
CONTINUOUS
 62
     7
100
AcDbLine
 10
24.00608253479004
 20
11.1134557723999
 30
0.0
 11
24.19408226013183
 21
11.1134557723999
 31
0.0
  0
LINE
  5
243
330
A
100
AcDbEntity
  8
TFR-TRI
  6
CONTINUOUS
 62
     7
100
AcDbLine
 10
23.75508308410644
 20
7.008455753326416
 30
0.0
 11
23.75508308410644
 21
11.82845592498779
 31
0.0
  0
LINE
  5
244
330
A
100
AcDbEntity
  8
TFR-TRI
  6
CONTINUOUS
 62
     7
100
AcDbLine
 10
11.87185859680175
 20
23.88541793823242
 30
0.0
 11
11.83397483825683
 21
23.88541793823242
 31
0.0
  0
LINE
  5
245
330
A
100
AcDbEntity
  8
TFR-TRI
  6
CONTINUOUS
 62
     7
100
AcDbLine
 10
43.26045227050781
 20
13.79942607879638
 30
0.0
 11
43.26045227050781
 21
13.77632331848144
 31
0.0
  0
LINE
  5
246
330
A
100
AcDbEntity
  8
TFR-TRI
  6
CONTINUOUS
 62
     7
100
AcDbLine
 10
23.75508308410644
 20
23.96793746948242
 30
0.0
 11
23.75508308410644
 21
23.96391677856445
 31
0.0
  0
LINE
  5
247
330
A
100
AcDbEntity
  8
TFR-TRI
  6
CONTINUOUS
 62
     7
100
AcDbLine
 10
6.246189594268798
 20
23.88541793823242
 30
0.0
 11
6.208305835723876
 21
23.88541793823242
 31
0.0
  0
LINE
  5
248
330
A
100
AcDbEntity
  8
TFR-TRI
  6
CONTINUOUS
 62
     7
100
AcDbLine
 10
24.44508171081543
 20
7.008455753326416
 30
0.0
 11
24.44508171081543
 21
13.56845569610595
 31
0.0
  0
LINE
  5
249
330
A
100
AcDbEntity
  8
TFR-TRI
  6
CONTINUOUS
 62
     7
100
AcDbLine
 10
17.98721504211425
 20
23.88541793823242
 30
0.0
 11
17.96411323547363
 21
23.88541793823242
 31
0.0
  0
LINE
  5
24A
330
A
100
AcDbEntity
  8
TFR-TRI
  6
CONTINUOUS
 62
     7
100
AcDbLine
 10
23.73605155944824
 20
23.88541793823242
 30
0.0
 11
23.71294975280761
 21
23.88541793823242
 31
0.0
  0
LINE
  5
24B
330
A
100
AcDbEntity
  8
TFR-TRI
  6
CONTINUOUS
 62
     7
100
AcDbLine
 10
39.0230598449707
 20
6.899955749511718
 30
0.0
 11
38.98517608642578
 21
6.899955749511718
 31
0.0
  0
LINE
  5
24C
330
A
100
AcDbEntity
  8
TFR-TRI
  6
CONTINUOUS
 62
     7
100
AcDbLine
 10
24.44508171081543
 20
6.98247480392456
 30
0.0
 11
24.44508171081543
 21
6.978455543518066
 31
0.0
  0
LINE
  5
24D
330
A
100
AcDbEntity
  8
TFR-TRI
  6
CONTINUOUS
 62
     7
100
AcDbLine
 10
17.87185859680175
 20
23.88541793823242
 30
0.0
 11
17.83397483825683
 21
23.88541793823242
 31
0.0
  0
LINE
  5
24E
330
A
100
AcDbEntity
  8
TFR-TRI
  6
CONTINUOUS
 62
     7
100
AcDbLine
 10
5.464112281799316
 20
6.978455543518066
 30
0.0
 11
5.487215042114257
 21
6.978455543518066
 31
0.0
  0
LINE
  5
24F
330
A
100
AcDbEntity
  8
TFR-TRI
  6
CONTINUOUS
 62
     7
100
AcDbLine
 10
17.94988632202148
 20
23.96391677856445
 30
0.0
 11
17.96411323547363
 21
23.96391677856445
 31
0.0
  0
LINE
  5
250
330
A
100
AcDbEntity
  8
TFR-TRI
  6
CONTINUOUS
 62
     7
100
AcDbLine
 10
5.884082317352294
 20
11.3634557723999
 30
0.0
 11
5.696082115173339
 21
11.3634557723999
 31
0.0
  0
LINE
  5
251
330
A
100
AcDbEntity
  8
TFR-TRI
  6
CONTINUOUS
 62
     7
100
AcDbLine
 10
38.93098449707031
 20
6.978455543518066
 30
0.0
 11
38.95408630371093
 21
6.978455543518066
 31
0.0
  0
LINE
  5
252
330
A
100
AcDbEntity
  8
TFR-TRI
  6
CONTINUOUS
 62
     7
100
AcDbLine
 10
12.09941101074218
 20
23.88541793823242
 30
0.0
 11
12.05618953704834
 21
23.88541793823242
 31
0.0
  0
LINE
  5
253
330
A
100
AcDbEntity
  8
TFR-TRI
  6
CONTINUOUS
 62
     7
100
AcDbLine
 10
18.19508171081542
 20
23.96391677856445
 30
0.0
 11
23.50508308410644
 21
23.96391677856445
 31
0.0
  0
LINE
  5
254
330
A
100
AcDbEntity
  8
TFR-TRI
  6
CONTINUOUS
 62
     7
100
AcDbLine
 10
43.18195343017578
 20
13.81845569610595
 30
0.0
 11
43.26045227050781
 21
13.81845569610595
 31
0.0
  0
LINE
  5
255
330
A
100
AcDbEntity
  8
TFR-TRI
  6
CONTINUOUS
 62
     7
100
AcDbLine
 10
23.75508308410644
 20
6.905266284942626
 30
0.0
 11
23.75508308410644
 21
6.920677185058593
 31
0.0
  0
LINE
  5
256
330
A
100
AcDbEntity
  8
TFR-TRI
  6
CONTINUOUS
 62
     7
100
AcDbLine
 10
11.940279006958
 20
23.88541793823242
 30
0.0
 11
11.92605209350585
 21
23.88541793823242
 31
0.0
  0
LINE
  5
257
330
A
100
AcDbEntity
  8
TFR-TRI
  6
CONTINUOUS
 62
     7
100
AcDbLine
 10
23.75508308410644
 20
6.899955749511718
 30
0.0
 11
23.75508308410644
 21
6.905266284942626
 31
0.0
  0
LINE
  5
258
330
A
100
AcDbEntity
  8
TFR-TRI
  6
CONTINUOUS
 62
     7
100
AcDbLine
 10
23.73605155944824
 20
23.96391677856445
 30
0.0
 11
23.75027847290039
 21
23.96391677856445
 31
0.0
  0
LINE
  5
259
330
A
100
AcDbEntity
  8
TFR-TRI
  6
CONTINUOUS
 62
     7
100
AcDbLine
 10
24.00608253479004
 20
9.363455772399902
 30
0.0
 11
24.19408226013183
 21
9.363455772399902
 31
0.0
  0
LINE
  5
25A
330
A
100
AcDbEntity
  8
TFR-TRI
  6
CONTINUOUS
 62
     7
100
AcDbLine
 10
6.139885902404785
 20
23.88541793823242
 30
0.0
 11
6.135082244873046
 21
23.88541793823242
 31
0.0
  0
LINE
  5
25B
330
A
100
AcDbEntity
  8
TFR-TRI
  6
CONTINUOUS
 62
     7
100
AcDbLine
 10
23.50508308410644
 20
23.96391677856445
 30
0.0
 11
23.55385398864746
 21
23.96391677856445
 31
0.0
  0
LINE
  5
25C
330
A
100
AcDbEntity
  8
TFR-TRI
  6
CONTINUOUS
 62
     7
100
AcDbLine
 10
11.87185859680175
 20
23.96391677856445
 30
0.0
 11
11.90294933319091
 21
23.96391677856445
 31
0.0
  0
LINE
  5
25D
330
A
100
AcDbEntity
  8
TFR-TRI
  6
CONTINUOUS
 62
     7
100
AcDbLine
 10
11.98721504211425
 20
23.96391677856445
 30
0.0
 11
12.01830577850341
 21
23.96391677856445
 31
0.0
  0
LINE
  5
25E
330
A
100
AcDbEntity
  8
TFR-TRI
  6
CONTINUOUS
 62
     7
100
AcDbLine
 10
12.14630985260009
 20
23.96391677856445
 30
0.0
 11
12.19508266448974
 21
23.96391677856445
 31
0.0
  0
LINE
  5
25F
330
A
100
AcDbEntity
  8
TFR-TRI
  6
CONTINUOUS
 62
     7
100
AcDbLine
 10
23.75508308410644
 20
23.99391746520996
 30
0.0
 11
23.75508308410644
 21
23.97891807556152
 31
0.0
  0
LINE
  5
260
330
A
100
AcDbEntity
  8
TFR-TRI
  6
CONTINUOUS
 62
     7
100
AcDbLine
 10
17.74385452270507
 20
23.96391677856445
 30
0.0
 11
17.79075241088867
 21
23.96391677856445
 31
0.0
  0
LINE
  5
261
330
A
100
AcDbEntity
  8
TFR-TRI
  6
CONTINUOUS
 62
     7
100
AcDbLine
 10
38.8034553527832
 20
11.92412662506103
 30
0.0
 11
38.8034553527832
 21
11.96734809875488
 31
0.0
  0
LINE
  5
262
330
A
100
AcDbEntity
  8
TFR-TRI
  6
CONTINUOUS
 62
     7
100
AcDbLine
 10
24.44508171081543
 20
28.26391792297363
 30
0.0
 11
24.440279006958
 21
28.26391792297363
 31
0.0
  0
LINE
  5
263
330
A
100
AcDbEntity
  8
TFR-TRI
  6
CONTINUOUS
 62
     7
100
AcDbLine
 10
5.696082115173339
 20
12.8634557723999
 30
0.0
 11
5.884082317352294
 21
12.8634557723999
 31
0.0
  0
LINE
  5
264
330
A
100
AcDbEntity
  8
TFR-TRI
  6
CONTINUOUS
 62
     7
100
AcDbLine
 10
11.94508266448974
 20
11.82845592498779
 30
0.0
 11
11.94508266448974
 21
10.82845592498779
 31
0.0
  0
LINE
  5
265
330
A
100
AcDbEntity
  8
TFR-TRI
  6
CONTINUOUS
 62
     7
100
AcDbLine
 10
6.154112339019775
 20
23.96391677856445
 30
0.0
 11
6.177215099334716
 21
23.96391677856445
 31
0.0
  0
LINE
  5
266
330
A
100
AcDbEntity
  8
TFR-TRI
  6
CONTINUOUS
 62
     7
100
AcDbLine
 10
24.24385452270508
 20
28.26391792297363
 30
0.0
 11
24.19508171081543
 21
28.26391792297363
 31
0.0
  0
LINE
  5
267
330
A
100
AcDbEntity
  8
TFR-TRI
  6
CONTINUOUS
 62
     7
100
AcDbLine
 10
5.487215042114257
 20
28.26391792297363
 30
0.0
 11
5.464112281799316
 21
28.26391792297363
 31
0.0
  0
LINE
  5
268
330
A
100
AcDbEntity
  8
TFR-TRI
  6
CONTINUOUS
 62
     7
100
AcDbLine
 10
5.445082187652587
 20
6.978455543518066
 30
0.0
 11
5.449885845184326
 21
6.978455543518066
 31
0.0
  0
LINE
  5
269
330
A
100
AcDbEntity
  8
TFR-TRI
  6
CONTINUOUS
 62
     7
100
AcDbLine
 10
5.695082187652587
 20
23.99391746520996
 30
0.0
 11
6.135082244873046
 21
23.99391746520996
 31
0.0
  0
LINE
  5
26A
330
A
100
AcDbEntity
  8
TFR-TRI
  6
CONTINUOUS
 62
     7
100
AcDbLine
 10
24.33397483825683
 20
28.34241676330566
 30
0.0
 11
24.37185859680175
 21
28.34241676330566
 31
0.0
  0
LINE
  5
26B
330
A
100
AcDbEntity
  8
TFR-TRI
  6
CONTINUOUS
 62
     7
100
AcDbLine
 10
6.289411544799804
 20
23.96391677856445
 30
0.0
 11
6.336309909820556
 21
23.96391677856445
 31
0.0
  0
LINE
  5
26C
330
A
100
AcDbEntity
  8
TFR-TRI
  6
CONTINUOUS
 62
     7
100
AcDbLine
 10
5.464112281799316
 20
28.34241676330566
 30
0.0
 11
5.487215042114257
 21
28.34241676330566
 31
0.0
  0
LINE
  5
26D
330
A
100
AcDbEntity
  8
TFR-TRI
  6
CONTINUOUS
 62
     7
100
AcDbLine
 10
6.135082244873046
 20
6.974927425384521
 30
0.0
 11
6.135082244873046
 21
7.008455753326416
 31
0.0
  0
LINE
  5
26E
330
A
100
AcDbEntity
  8
TFR-TRI
  6
CONTINUOUS
 62
     7
100
AcDbLine
 10
17.94508171081543
 20
23.88541793823242
 30
0.0
 11
17.94508171081543
 21
23.96391677856445
 31
0.0
  0
LINE
  5
26F
330
A
100
AcDbEntity
  8
TFR-TRI
  6
CONTINUOUS
 62
     7
100
AcDbLine
 10
23.60075378417968
 20
23.88541793823242
 30
0.0
 11
23.55385398864746
 21
23.88541793823242
 31
0.0
  0
LINE
  5
270
330
A
100
AcDbEntity
  8
TFR-TRI
  6
CONTINUOUS
 62
     7
100
AcDbLine
 10
24.44508171081543
 20
28.34241676330566
 30
0.0
 11
24.44508171081543
 21
28.26391792297363
 31
0.0
  0
LINE
  5
271
330
A
100
AcDbEntity
  8
TFR-TRI
  6
CONTINUOUS
 62
     7
100
AcDbLine
 10
5.445082187652587
 20
6.99345588684082
 30
0.0
 11
5.445082187652587
 21
6.98247480392456
 31
0.0
  0
LINE
  5
272
330
A
100
AcDbEntity
  8
TFR-TRI
  6
CONTINUOUS
 62
     7
100
AcDbLine
 10
24.44508171081543
 20
28.23391723632812
 30
0.0
 11
24.44508171081543
 21
24.24391746520996
 31
0.0
  0
LINE
  5
273
330
A
100
AcDbEntity
  8
TFR-TRI
  6
CONTINUOUS
 62
     7
100
AcDbLine
 10
17.79075241088867
 20
23.96391677856445
 30
0.0
 11
17.83397483825683
 21
23.96391677856445
 31
0.0
  0
LINE
  5
274
330
A
100
AcDbEntity
  8
TFR-TRI
  6
CONTINUOUS
 62
     7
100
AcDbLine
 10
11.87185859680175
 20
23.96391677856445
 30
0.0
 11
11.90294933319091
 21
23.96391677856445
 31
0.0
  0
LINE
  5
275
330
A
100
AcDbEntity
  8
TFR-TRI
  6
CONTINUOUS
 62
     7
100
AcDbLine
 10
5.464112281799316
 20
6.899955749511718
 30
0.0
 11
5.449885845184326
 21
6.899955749511718
 31
0.0
  0
LINE
  5
276
330
A
100
AcDbEntity
  8
TFR-TRI
  6
CONTINUOUS
 62
     7
100
AcDbLine
 10
23.71294975280761
 20
23.96391677856445
 30
0.0
 11
23.73605155944824
 21
23.96391677856445
 31
0.0
  0
LINE
  5
277
330
A
100
AcDbEntity
  8
TFR-TRI
  6
CONTINUOUS
 62
     7
100
AcDbLine
 10
12.19508266448974
 20
10.57845592498779
 30
0.0
 11
17.69508171081542
 21
10.57845592498779
 31
0.0
  0
LINE
  5
278
330
A
100
AcDbEntity
  8
TFR-TRI
  6
CONTINUOUS
 62
     7
100
AcDbLine
 10
5.556189537048339
 20
6.899955749511718
 30
0.0
 11
5.518305778503417
 21
6.899955749511718
 31
0.0
  0
LINE
  5
279
330
A
100
AcDbEntity
  8
TFR-TRI
  6
CONTINUOUS
 62
     7
100
AcDbLine
 10
24.24385452270508
 20
28.26391792297363
 30
0.0
 11
24.19508171081543
 21
28.26391792297363
 31
0.0
  0
LINE
  5
27A
330
A
100
AcDbEntity
  8
TFR-TRI
  6
CONTINUOUS
 62
     7
100
AcDbLine
 10
5.696082115173339
 20
12.8634557723999
 30
0.0
 11
5.884082317352294
 21
12.8634557723999
 31
0.0
  0
ARC
  5
27B
330
A
100
AcDbEntity
  8
TFR-TRI
  6
CONTINUOUS
 62
     7
100
AcDbCircle
 10
43.1519546508789
 20
7.008455753326416
 30
0.0
 40
0.0299999993294478
100
AcDbArc
 50
270.0
 51
0.0
  0
ARC
  5
27C
330
A
100
AcDbEntity
  8
TFR-TRI
  6
CONTINUOUS
 62
     7
100
AcDbCircle
 10
5.695082187652587
 20
24.24391746520996
 30
0.0
 40
0.25
100
AcDbArc
 50
180.0
 51
270.0
  0
ARC
  5
27D
330
A
100
AcDbEntity
  8
TFR-TRI
  6
CONTINUOUS
 62
     7
100
AcDbCircle
 10
24.00608253479004
 20
11.2384557723999
 30
0.0
 40
0.125
100
AcDbArc
 50
90.0
 51
270.0
  0
ARC
  5
27E
330
A
100
AcDbEntity
  8
TFR-TRI
  6
CONTINUOUS
 62
     7
100
AcDbCircle
 10
23.50508308410644
 20
11.82845592498779
 30
0.0
 40
0.25
100
AcDbArc
 50
0.0
 51
90.0
  0
ARC
  5
27F
330
A
100
AcDbEntity
  8
TFR-TRI
  6
CONTINUOUS
 62
     7
100
AcDbCircle
 10
43.1519546508789
 20
7.008455753326416
 30
0.0
 40
0.1084999963641167
100
AcDbArc
 50
270.0
 51
0.0
  0
ARC
  5
280
330
A
100
AcDbEntity
  8
TFR-TRI
  6
CONTINUOUS
 62
     7
100
AcDbCircle
 10
24.19508171081543
 20
13.56845569610595
 30
0.0
 40
0.25
100
AcDbArc
 50
0.0
 51
90.0
  0
ARC
  5
281
330
A
100
AcDbEntity
  8
TFR-TRI
  6
CONTINUOUS
 62
     7
100
AcDbCircle
 10
5.884082317352294
 20
11.2384557723999
 30
0.0
 40
0.125
100
AcDbArc
 50
270.0
 51
90.0
  0
ARC
  5
282
330
A
100
AcDbEntity
  8
TFR-TRI
  6
CONTINUOUS
 62
     7
100
AcDbCircle
 10
11.69508266448974
 20
11.82845592498779
 30
0.0
 40
0.25
100
AcDbArc
 50
0.0
 51
90.0
  0
ARC
  5
283
330
A
100
AcDbEntity
  8
TFR-TRI
  6
CONTINUOUS
 62
     7
100
AcDbCircle
 10
24.00608253479004
 20
9.488455772399902
 30
0.0
 40
0.125
100
AcDbArc
 50
90.0
 51
270.0
  0
ARC
  5
284
330
A
100
AcDbEntity
  8
TFR-TRI
  6
CONTINUOUS
 62
     7
100
AcDbCircle
 10
43.1519546508789
 20
7.008455753326416
 30
0.0
 40
0.1084999963641167
100
AcDbArc
 50
270.0
 51
0.0
  0
ARC
  5
285
330
A
100
AcDbEntity
  8
TFR-TRI
  6
CONTINUOUS
 62
     7
100
AcDbCircle
 10
24.19508171081543
 20
13.56845569610595
 30
0.0
 40
0.25
100
AcDbArc
 50
0.0
 51
90.0
  0
ARC
  5
286
330
A
100
AcDbEntity
  8
TFR-TRI
  6
CONTINUOUS
 62
     7
100
AcDbCircle
 10
17.69508171081542
 20
10.82845592498779
 30
0.0
 40
0.25
100
AcDbArc
 50
270.0
 51
0.0
  0
ARC
  5
287
330
A
100
AcDbEntity
  8
TFR-TRI
  6
CONTINUOUS
 62
     7
100
AcDbCircle
 10
5.884082317352294
 20
9.488455772399902
 30
0.0
 40
0.125
100
AcDbArc
 50
270.0
 51
90.0
  0
ARC
  5
288
330
A
100
AcDbEntity
  8
TFR-TRI
  6
CONTINUOUS
 62
     7
100
AcDbCircle
 10
12.19508266448974
 20
10.82845592498779
 30
0.0
 40
0.25
100
AcDbArc
 50
180.0
 51
270.0
  0
ARC
  5
289
330
A
100
AcDbEntity
  8
TFR-TRI
  6
CONTINUOUS
 62
     7
100
AcDbCircle
 10
5.696082115173339
 20
7.738455772399902
 30
0.0
 40
0.125
100
AcDbArc
 50
90.0
 51
270.0
  0
ARC
  5
28A
330
A
100
AcDbEntity
  8
TFR-TRI
  6
CONTINUOUS
 62
     7
100
AcDbCircle
 10
5.884082317352294
 20
12.9884557723999
 30
0.0
 40
0.125
100
AcDbArc
 50
270.0
 51
90.0
  0
ARC
  5
28B
330
A
100
AcDbEntity
  8
TFR-TRI
  6
CONTINUOUS
 62
     7
100
AcDbCircle
 10
24.19408226013183
 20
11.2384557723999
 30
0.0
 40
0.125
100
AcDbArc
 50
270.0
 51
90.0
  0
ARC
  5
28C
330
A
100
AcDbEntity
  8
TFR-TRI
  6
CONTINUOUS
 62
     7
100
AcDbCircle
 10
5.695082187652587
 20
24.24391746520996
 30
0.0
 40
0.25
100
AcDbArc
 50
180.0
 51
270.0
  0
ARC
  5
28D
330
A
100
AcDbEntity
  8
TFR-TRI
  6
CONTINUOUS
 62
     7
100
AcDbCircle
 10
24.19408226013183
 20
12.9884557723999
 30
0.0
 40
0.125
100
AcDbArc
 50
270.0
 51
90.0
  0
ARC
  5
28E
330
A
100
AcDbEntity
  8
TFR-TRI
  6
CONTINUOUS
 62
     7
100
AcDbCircle
 10
18.19508171081542
 20
11.82845592498779
 30
0.0
 40
0.25
100
AcDbArc
 50
90.0
 51
180.0
  0
ARC
  5
28F
330
A
100
AcDbEntity
  8
TFR-TRI
  6
CONTINUOUS
 62
     7
100
AcDbCircle
 10
24.19408226013183
 20
9.488455772399902
 30
0.0
 40
0.125
100
AcDbArc
 50
270.0
 51
90.0
  0
ARC
  5
290
330
A
100
AcDbEntity
  8
TFR-TRI
  6
CONTINUOUS
 62
     7
100
AcDbCircle
 10
5.884082317352294
 20
12.9884557723999
 30
0.0
 40
0.125
100
AcDbArc
 50
270.0
 51
90.0
  0
ARC
  5
291
330
A
100
AcDbEntity
  8
TFR-TRI
  6
CONTINUOUS
 62
     7
100
AcDbCircle
 10
5.695082187652587
 20
13.56845569610595
 30
0.0
 40
0.25
100
AcDbArc
 50
90.0
 51
180.0
  0
ARC
  5
292
330
A
100
AcDbEntity
  8
TFR-TRI
  6
CONTINUOUS
 62
     7
100
AcDbCircle
 10
5.696082115173339
 20
11.2384557723999
 30
0.0
 40
0.125
100
AcDbArc
 50
90.0
 51
270.0
  0
ARC
  5
293
330
A
100
AcDbEntity
  8
TFR-TRI
  6
CONTINUOUS
 62
     7
100
AcDbCircle
 10
12.19508266448974
 20
10.82845592498779
 30
0.0
 40
0.25
100
AcDbArc
 50
180.0
 51
270.0
  0
ARC
  5
294
330
A
100
AcDbEntity
  8
TFR-TRI
  6
CONTINUOUS
 62
     7
100
AcDbCircle
 10
5.884082317352294
 20
7.738455772399902
 30
0.0
 40
0.125
100
AcDbArc
 50
270.0
 51
90.0
  0
ARC
  5
295
330
A
100
AcDbEntity
  8
TFR-TRI
  6
CONTINUOUS
 62
     7
100
AcDbCircle
 10
5.884082317352294
 20
7.738455772399902
 30
0.0
 40
0.125
100
AcDbArc
 50
270.0
 51
90.0
  0
ARC
  5
296
330
A
100
AcDbEntity
  8
TFR-TRI
  6
CONTINUOUS
 62
     7
100
AcDbCircle
 10
5.695082187652587
 20
13.56845569610595
 30
0.0
 40
0.25
100
AcDbArc
 50
90.0
 51
180.0
  0
ARC
  5
297
330
A
100
AcDbEntity
  8
TFR-TRI
  6
CONTINUOUS
 62
     7
100
AcDbCircle
 10
38.9119529724121
 20
7.008455753326416
 30
0.0
 40
0.1084999963641167
100
AcDbArc
 50
180.0
 51
270.0
  0
ARC
  5
298
330
A
100
AcDbEntity
  8
TFR-TRI
  6
CONTINUOUS
 62
     7
100
AcDbCircle
 10
24.19508171081543
 20
24.24391746520996
 30
0.0
 40
0.25
100
AcDbArc
 50
270.0
 51
0.0
  0
ARC
  5
299
330
A
100
AcDbEntity
  8
TFR-TRI
  6
CONTINUOUS
 62
     7
100
AcDbCircle
 10
38.9119529724121
 20
7.008455753326416
 30
0.0
 40
0.1084999963641167
100
AcDbArc
 50
180.0
 51
270.0
  0
ARC
  5
29A
330
A
100
AcDbEntity
  8
TFR-TRI
  6
CONTINUOUS
 62
     7
100
AcDbCircle
 10
5.696082115173339
 20
9.488455772399902
 30
0.0
 40
0.125
100
AcDbArc
 50
90.0
 51
270.0
  0
ARC
  5
29B
330
A
100
AcDbEntity
  8
TFR-TRI
  6
CONTINUOUS
 62
     7
100
AcDbCircle
 10
11.69508266448974
 20
11.82845592498779
 30
0.0
 40
0.25
100
AcDbArc
 50
0.0
 51
90.0
  0
ARC
  5
29C
330
A
100
AcDbEntity
  8
TFR-TRI
  6
CONTINUOUS
 62
     7
100
AcDbCircle
 10
24.19408226013183
 20
7.738455772399902
 30
0.0
 40
0.125
100
AcDbArc
 50
270.0
 51
90.0
  0
ARC
  5
29D
330
A
100
AcDbEntity
  8
TFR-TRI
  6
CONTINUOUS
 62
     7
100
AcDbCircle
 10
24.19408226013183
 20
12.9884557723999
 30
0.0
 40
0.125
100
AcDbArc
 50
270.0
 51
90.0
  0
ARC
  5
29E
330
A
100
AcDbEntity
  8
TFR-TRI
  6
CONTINUOUS
 62
     7
100
AcDbCircle
 10
5.696082115173339
 20
12.9884557723999
 30
0.0
 40
0.125
100
AcDbArc
 50
90.0
 51
270.0
  0
ARC
  5
29F
330
A
100
AcDbEntity
  8
TFR-TRI
  6
CONTINUOUS
 62
     7
100
AcDbCircle
 10
24.00608253479004
 20
11.2384557723999
 30
0.0
 40
0.125
100
AcDbArc
 50
90.0
 51
270.0
  0
ARC
  5
2A0
330
A
100
AcDbEntity
  8
TFR-TRI
  6
CONTINUOUS
 62
     7
100
AcDbCircle
 10
6.385082244873046
 20
11.82845592498779
 30
0.0
 40
0.25
100
AcDbArc
 50
90.0
 51
180.0
  0
ARC
  5
2A1
330
A
100
AcDbEntity
  8
TFR-TRI
  6
CONTINUOUS
 62
     7
100
AcDbCircle
 10
43.1519546508789
 20
7.008455753326416
 30
0.0
 40
0.0299999993294478
100
AcDbArc
 50
270.0
 51
0.0
  0
ARC
  5
2A2
330
A
100
AcDbEntity
  8
TFR-TRI
  6
CONTINUOUS
 62
     7
100
AcDbCircle
 10
38.9119529724121
 20
7.008455753326416
 30
0.0
 40
0.0299999993294478
100
AcDbArc
 50
180.0
 51
270.0
  0
ARC
  5
2A3
330
A
100
AcDbEntity
  8
TFR-TRI
  6
CONTINUOUS
 62
     7
100
AcDbCircle
 10
24.00608253479004
 20
12.9884557723999
 30
0.0
 40
0.125
100
AcDbArc
 50
90.0
 51
270.0
  0
ARC
  5
2A4
330
A
100
AcDbEntity
  8
TFR-TRI
  6
CONTINUOUS
 62
     7
100
AcDbCircle
 10
17.69508171081542
 20
10.82845592498779
 30
0.0
 40
0.25
100
AcDbArc
 50
270.0
 51
0.0
  0
ARC
  5
2A5
330
A
100
AcDbEntity
  8
TFR-TRI
  6
CONTINUOUS
 62
     7
100
AcDbCircle
 10
24.19408226013183
 20
7.738455772399902
 30
0.0
 40
0.125
100
AcDbArc
 50
270.0
 51
90.0
  0
ARC
  5
2A6
330
A
100
AcDbEntity
  8
TFR-TRI
  6
CONTINUOUS
 62
     7
100
AcDbCircle
 10
6.385082244873046
 20
11.82845592498779
 30
0.0
 40
0.25
100
AcDbArc
 50
90.0
 51
180.0
  0
ARC
  5
2A7
330
A
100
AcDbEntity
  8
TFR-TRI
  6
CONTINUOUS
 62
     7
100
AcDbCircle
 10
18.19508171081542
 20
11.82845592498779
 30
0.0
 40
0.25
100
AcDbArc
 50
90.0
 51
180.0
  0
ARC
  5
2A8
330
A
100
AcDbEntity
  8
TFR-TRI
  6
CONTINUOUS
 62
     7
100
AcDbCircle
 10
24.00608253479004
 20
9.488455772399902
 30
0.0
 40
0.125
100
AcDbArc
 50
90.0
 51
270.0
  0
ARC
  5
2A9
330
A
100
AcDbEntity
  8
TFR-TRI
  6
CONTINUOUS
 62
     7
100
AcDbCircle
 10
5.884082317352294
 20
9.488455772399902
 30
0.0
 40
0.125
100
AcDbArc
 50
270.0
 51
90.0
  0
ARC
  5
2AA
330
A
100
AcDbEntity
  8
TFR-TRI
  6
CONTINUOUS
 62
     7
100
AcDbCircle
 10
5.696082115173339
 20
7.738455772399902
 30
0.0
 40
0.125
100
AcDbArc
 50
90.0
 51
270.0
  0
ARC
  5
2AB
330
A
100
AcDbEntity
  8
TFR-TRI
  6
CONTINUOUS
 62
     7
100
AcDbCircle
 10
5.884082317352294
 20
11.2384557723999
 30
0.0
 40
0.125
100
AcDbArc
 50
270.0
 51
90.0
  0
ARC
  5
2AC
330
A
100
AcDbEntity
  8
TFR-TRI
  6
CONTINUOUS
 62
     7
100
AcDbCircle
 10
24.19408226013183
 20
11.2384557723999
 30
0.0
 40
0.125
100
AcDbArc
 50
270.0
 51
90.0
  0
ARC
  5
2AD
330
A
100
AcDbEntity
  8
TFR-TRI
  6
CONTINUOUS
 62
     7
100
AcDbCircle
 10
24.00608253479004
 20
7.738455772399902
 30
0.0
 40
0.125
100
AcDbArc
 50
90.0
 51
270.0
  0
ARC
  5
2AE
330
A
100
AcDbEntity
  8
TFR-TRI
  6
CONTINUOUS
 62
     7
100
AcDbCircle
 10
24.00608253479004
 20
12.9884557723999
 30
0.0
 40
0.125
100
AcDbArc
 50
90.0
 51
270.0
  0
ARC
  5
2AF
330
A
100
AcDbEntity
  8
TFR-TRI
  6
CONTINUOUS
 62
     7
100
AcDbCircle
 10
24.19408226013183
 20
9.488455772399902
 30
0.0
 40
0.125
100
AcDbArc
 50
270.0
 51
90.0
  0
ARC
  5
2B0
330
A
100
AcDbEntity
  8
TFR-TRI
  6
CONTINUOUS
 62
     7
100
AcDbCircle
 10
5.696082115173339
 20
12.9884557723999
 30
0.0
 40
0.125
100
AcDbArc
 50
90.0
 51
270.0
  0
ARC
  5
2B1
330
A
100
AcDbEntity
  8
TFR-TRI
  6
CONTINUOUS
 62
     7
100
AcDbCircle
 10
24.00608253479004
 20
7.738455772399902
 30
0.0
 40
0.125
100
AcDbArc
 50
90.0
 51
270.0
  0
ARC
  5
2B2
330
A
100
AcDbEntity
  8
TFR-TRI
  6
CONTINUOUS
 62
     7
100
AcDbCircle
 10
5.696082115173339
 20
11.2384557723999
 30
0.0
 40
0.125
100
AcDbArc
 50
90.0
 51
270.0
  0
ARC
  5
2B3
330
A
100
AcDbEntity
  8
TFR-TRI
  6
CONTINUOUS
 62
     7
100
AcDbCircle
 10
24.19508171081543
 20
24.24391746520996
 30
0.0
 40
0.25
100
AcDbArc
 50
270.0
 51
0.0
  0
ARC
  5
2B4
330
A
100
AcDbEntity
  8
TFR-TRI
  6
CONTINUOUS
 62
     7
100
AcDbCircle
 10
5.696082115173339
 20
9.488455772399902
 30
0.0
 40
0.125
100
AcDbArc
 50
90.0
 51
270.0
  0
ARC
  5
2B5
330
A
100
AcDbEntity
  8
TFR-TRI
  6
CONTINUOUS
 62
     7
100
AcDbCircle
 10
38.9119529724121
 20
7.008455753326416
 30
0.0
 40
0.0299999993294478
100
AcDbArc
 50
180.0
 51
270.0
  0
ARC
  5
2B6
330
A
100
AcDbEntity
  8
TFR-TRI
  6
CONTINUOUS
 62
     7
100
AcDbCircle
 10
23.50508308410644
 20
11.82845592498779
 30
0.0
 40
0.25
100
AcDbArc
 50
0.0
 51
90.0
  0
VIEWPORT
  5
2D4
330
B
100
AcDbEntity
 67
     1
  8
0
  6
CONTINUOUS
100
AcDbViewport
 10
4.833333052988126
 20
3.583333221946175
 30
0.0
 40
13.7057869543081
 41
8.992999745766946
 68
     1
 69
     1
1001
ACAD
1000
MVIEW
1002
{
1070
    16
1010
0.0
1020
0.0
1030
0.0
1010
0.0
1020
0.0
1030
1.0
1040
0.0
1040
8.992999745766946
1040
4.833333052988126
1040
3.583333221946175
1040
50.0
1040
0.0
1040
0.0
1070
     0
1070
   100
1070
     1
1070
     1
1070
     0
1070
     0
1070
     0
1070
     0
1040
0.0
1040
0.0
1040
0.0
1040
0.5
1040
0.5
1040
0.5
1040
0.5
1070
     0
1002
{
1002
}
1002
}
  0
ENDSEC
  0
SECTION
  2
OBJECTS
  0
DICTIONARY
  5
19
330
0
100
AcDbDictionary
  3
ACAD_GROUP
350
1A
  3
ACAD_LAYOUT
350
1E
  3
ACAD_MLINESTYLE
350
1B
  3
ACAD_PLOTSETTINGS
350
22
  3
ACAD_PLOTSTYLENAME
350
1F
  3
ACAD_WIPEOUT_VARS
350
23
  3
ACDBHEADERROUNDTRIPXREC
350
341
  0
DICTIONARY
  5
362
330
A
100
AcDbDictionary
280
     1
  3
ACAD_LAYOUTSELFREF
360
363
  0
DICTIONARY
  5
364
330
B
100
AcDbDictionary
280
     1
  3
ACAD_LAYOUTSELFREF
360
365
  0
DICTIONARY
  5
1A
102
{ACAD_REACTORS
330
19
102
}
330
19
100
AcDbDictionary
  0
DICTIONARY
  5
1E
102
{ACAD_REACTORS
330
19
102
}
330
19
100
AcDbDictionary
  0
DICTIONARY
  5
1B
102
{ACAD_REACTORS
330
19
102
}
330
19
100
AcDbDictionary
  3
STANDARD
350
1C
  0
DICTIONARY
  5
22
102
{ACAD_REACTORS
330
19
102
}
330
19
100
AcDbDictionary
  0
ACDBDICTIONARYWDFLT
  5
1F
102
{ACAD_REACTORS
330
19
102
}
330
19
100
AcDbDictionary
281
     1
  3
Normal
350
1D
100
AcDbDictionaryWithDefault
340
1D
  0
ACAD_PROXY_OBJECT
  5
23
330
19
100
AcDbProxyObject
 90
      499
 91
      524
 93
       10
310
4042
 94
        0
1001
ACAD
1000
AcadProxyRoundTripData
1071
      521
1071
   655383
1070
     0
  0
DICTIONARY
  5
341
102
{ACAD_REACTORS
330
19
102
}
330
19
100
AcDbDictionary
  3
CEPSNTYPE
350
34B
  3
DIMSTYLEDATA
350
34F
  3
FINGERPRINTGUID
350
34C
  3
HYPERLINKBASE
350
344
  3
INSUNITS
350
34A
  3
LAYOUTDICT
350
346
  3
LWETCUNION
350
349
  3
PLOTSETDICT
350
347
  3
PLOTSTYLNAMDICT
350
348
  3
PSVPSCALE
350
34E
  3
PUCSBASE
350
352
  3
PUCSORGBACK
350
358
  3
PUCSORGBOTTOM
350
354
  3
PUCSORGFRONT
350
357
  3
PUCSORGLEFT
350
355
  3
PUCSORGRIGHT
350
356
  3
PUCSORGTOP
350
353
  3
PUCSORTHOREF
350
350
  3
PUCSORTHOVIEW
350
351
  3
STYLESHEET
350
345
  3
TSTACKALIGN
350
342
  3
TSTACKSIZE
350
343
  3
UCSBASE
350
35B
  3
UCSORGBACK
350
361
  3
UCSORGBOTTOM
350
35D
  3
UCSORGFRONT
350
360
  3
UCSORGLEFT
350
35E
  3
UCSORGRIGHT
350
35F
  3
UCSORGTOP
350
35C
  3
UCSORTHOREF
350
359
  3
UCSORTHOVIEW
350
35A
  3
VERSIONGUID
350
34D
  0
XRECORD
  5
363
102
{ACAD_REACTORS
330
362
102
}
330
362
100
AcDbXrecord
340
A
  0
XRECORD
  5
365
102
{ACAD_REACTORS
330
364
102
}
330
364
100
AcDbXrecord
340
B
  0
MLINESTYLE
  5
1C
102
{ACAD_REACTORS
330
1B
102
}
330
1B
100
AcDbMlineStyle
  2
STANDARD
 70
     0
  3

 62
     0
 51
90.0
 52
90.0
 71
     2
 49
0.5
 62
   256
  6
BYLAYER
 49
-0.5
 62
   256
  6
BYLAYER
  0
ACDBPLACEHOLDER
  5
1D
102
{ACAD_REACTORS
330
1F
102
}
330
1F
100
AcDbPlaceHolder
280
     0
  0
XRECORD
  5
34B
102
{ACAD_REACTORS
330
341
102
}
330
341
100
AcDbXrecord
 90
        0
  0
XRECORD
  5
34F
102
{ACAD_REACTORS
330
341
102
}
330
341
100
AcDbXrecord
1000
DSTYLE
1002
{
1070
   278
 70
     0
1070
   371
 70
     0
1070
   372
 70
     0
1002
}
  0
XRECORD
  5
34C
102
{ACAD_REACTORS
330
341
102
}
330
341
100
AcDbXrecord
  1

  0
XRECORD
  5
344
102
{ACAD_REACTORS
330
341
102
}
330
341
100
AcDbXrecord
  1

  0
XRECORD
  5
34A
102
{ACAD_REACTORS
330
341
102
}
330
341
100
AcDbXrecord
 90
        0
  0
XRECORD
  5
346
102
{ACAD_REACTORS
330
341
102
}
330
341
100
AcDbXrecord
340
1E
  0
XRECORD
  5
349
102
{ACAD_REACTORS
330
341
102
}
330
341
100
AcDbXrecord
 90
    10752
  0
XRECORD
  5
347
102
{ACAD_REACTORS
330
341
102
}
330
341
100
AcDbXrecord
340
22
  0
XRECORD
  5
348
102
{ACAD_REACTORS
330
341
102
}
330
341
100
AcDbXrecord
340
1F
  0
XRECORD
  5
34E
102
{ACAD_REACTORS
330
341
102
}
330
341
100
AcDbXrecord
 40
0.0
  0
XRECORD
  5
352
102
{ACAD_REACTORS
330
341
102
}
330
341
100
AcDbXrecord
340
0
  0
XRECORD
  5
358
102
{ACAD_REACTORS
330
341
102
}
330
341
100
AcDbXrecord
 10
0.0
 20
0.0
 30
0.0
  0
XRECORD
  5
354
102
{ACAD_REACTORS
330
341
102
}
330
341
100
AcDbXrecord
 10
0.0
 20
0.0
 30
0.0
  0
XRECORD
  5
357
102
{ACAD_REACTORS
330
341
102
}
330
341
100
AcDbXrecord
 10
0.0
 20
0.0
 30
0.0
  0
XRECORD
  5
355
102
{ACAD_REACTORS
330
341
102
}
330
341
100
AcDbXrecord
 10
0.0
 20
0.0
 30
0.0
  0
XRECORD
  5
356
102
{ACAD_REACTORS
330
341
102
}
330
341
100
AcDbXrecord
 10
0.0
 20
0.0
 30
0.0
  0
XRECORD
  5
353
102
{ACAD_REACTORS
330
341
102
}
330
341
100
AcDbXrecord
 10
0.0
 20
0.0
 30
0.0
  0
XRECORD
  5
350
102
{ACAD_REACTORS
330
341
102
}
330
341
100
AcDbXrecord
340
0
  0
XRECORD
  5
351
102
{ACAD_REACTORS
330
341
102
}
330
341
100
AcDbXrecord
 70
     0
  0
XRECORD
  5
345
102
{ACAD_REACTORS
330
341
102
}
330
341
100
AcDbXrecord
  1

  0
XRECORD
  5
342
102
{ACAD_REACTORS
330
341
102
}
330
341
100
AcDbXrecord
 90
        1
  0
XRECORD
  5
343
102
{ACAD_REACTORS
330
341
102
}
330
341
100
AcDbXrecord
 90
       70
  0
XRECORD
  5
35B
102
{ACAD_REACTORS
330
341
102
}
330
341
100
AcDbXrecord
340
0
  0
XRECORD
  5
361
102
{ACAD_REACTORS
330
341
102
}
330
341
100
AcDbXrecord
 10
0.0
 20
0.0
 30
0.0
  0
XRECORD
  5
35D
102
{ACAD_REACTORS
330
341
102
}
330
341
100
AcDbXrecord
 10
0.0
 20
0.0
 30
0.0
  0
XRECORD
  5
360
102
{ACAD_REACTORS
330
341
102
}
330
341
100
AcDbXrecord
 10
0.0
 20
0.0
 30
0.0
  0
XRECORD
  5
35E
102
{ACAD_REACTORS
330
341
102
}
330
341
100
AcDbXrecord
 10
0.0
 20
0.0
 30
0.0
  0
XRECORD
  5
35F
102
{ACAD_REACTORS
330
341
102
}
330
341
100
AcDbXrecord
 10
0.0
 20
0.0
 30
0.0
  0
XRECORD
  5
35C
102
{ACAD_REACTORS
330
341
102
}
330
341
100
AcDbXrecord
 10
0.0
 20
0.0
 30
0.0
  0
XRECORD
  5
359
102
{ACAD_REACTORS
330
341
102
}
330
341
100
AcDbXrecord
340
0
  0
XRECORD
  5
35A
102
{ACAD_REACTORS
330
341
102
}
330
341
100
AcDbXrecord
 70
     1
  0
XRECORD
  5
34D
102
{ACAD_REACTORS
330
341
102
}
330
341
100
AcDbXrecord
  1
{FD529E2C-D573-4451-A2E9-50C2BF0B349C}
  0
ENDSEC
  0
EOF
