  0
SECTION
  2
HEADER
  9
$ACADVER
  1
AC1015
  9
$ACADMAINTVER
 70
    10
  9
$DWGCODEPAGE
  3
ANSI_1252
  9
$INSBASE
 10
0.0
 20
0.0
 30
0.0
  9
$EXTMIN
 10
0.5388794230982655
 20
1.54124452958494
 30
-0.0015258207003583
  9
$EXTMAX
 10
6.108947774987839
 20
5.62266542229646
 30
0.0000000349246037
  9
$LIMMIN
 10
0.0
 20
0.0
  9
$LIMMAX
 10
12.0
 20
9.0
  9
$ORTHOMODE
 70
     0
  9
$REGENMODE
 70
     1
  9
$FILLMODE
 70
     1
  9
$QTEXTMODE
 70
     0
  9
$MIRRTEXT
 70
     1
  9
$LTSCALE
 40
1.0
  9
$ATTMODE
 70
     1
  9
$TEXTSIZE
 40
0.2
  9
$TRACEWID
 40
0.05
  9
$TEXTSTYLE
  7
STANDARD
  9
$CLAYER
  8
0
  9
$CELTYPE
  6
ByLayer
  9
$CECOLOR
 62
   256
  9
$CELTSCALE
 40
1.0
  9
$DISPSILH
 70
     0
  9
$DIMSCALE
 40
1.0
  9
$DIMASZ
 40
0.18
  9
$DIMEXO
 40
0.0625
  9
$DIMDLI
 40
0.38
  9
$DIMRND
 40
0.0
  9
$DIMDLE
 40
0.0
  9
$DIMEXE
 40
0.18
  9
$DIMTP
 40
0.0
  9
$DIMTM
 40
0.0
  9
$DIMTXT
 40
0.18
  9
$DIMCEN
 40
0.09
  9
$DIMTSZ
 40
0.0
  9
$DIMTOL
 70
     0
  9
$DIMLIM
 70
     0
  9
$DIMTIH
 70
     1
  9
$DIMTOH
 70
     1
  9
$DIMSE1
 70
     0
  9
$DIMSE2
 70
     0
  9
$DIMTAD
 70
     0
  9
$DIMZIN
 70
     0
  9
$DIMBLK
  1

  9
$DIMASO
 70
     1
  9
$DIMSHO
 70
     1
  9
$DIMPOST
  1

  9
$DIMAPOST
  1

  9
$DIMALT
 70
     0
  9
$DIMALTD
 70
     2
  9
$DIMALTF
 40
25.4
  9
$DIMLFAC
 40
1.0
  9
$DIMTOFL
 70
     0
  9
$DIMTVP
 40
0.0
  9
$DIMTIX
 70
     0
  9
$DIMSOXD
 70
     0
  9
$DIMSAH
 70
     0
  9
$DIMBLK1
  1

  9
$DIMBLK2
  1

  9
$DIMSTYLE
  2
Standard
  9
$DIMCLRD
 70
     0
  9
$DIMCLRE
 70
     0
  9
$DIMCLRT
 70
     0
  9
$DIMTFAC
 40
1.0
  9
$DIMGAP
 40
0.09
  9
$DIMJUST
 70
     0
  9
$DIMSD1
 70
     0
  9
$DIMSD2
 70
     0
  9
$DIMTOLJ
 70
     1
  9
$DIMTZIN
 70
     0
  9
$DIMALTZ
 70
     0
  9
$DIMALTTZ
 70
     0
  9
$DIMUPT
 70
     0
  9
$DIMDEC
 70
     4
  9
$DIMTDEC
 70
     4
  9
$DIMALTU
 70
     2
  9
$DIMALTTD
 70
     2
  9
$DIMTXSTY
  7
STANDARD
  9
$DIMAUNIT
 70
     0
  9
$DIMADEC
 70
     0
  9
$DIMALTRND
 40
0.0
  9
$DIMAZIN
 70
     0
  9
$DIMDSEP
 70
    46
  9
$DIMATFIT
 70
     3
  9
$DIMFRAC
 70
     0
  9
$DIMLDRBLK
  1

  9
$DIMLUNIT
 70
     2
  9
$DIMLWD
 70
    -2
  9
$DIMLWE
 70
    -2
  9
$DIMTMOVE
 70
     2
  9
$LUNITS
 70
     2
  9
$LUPREC
 70
     4
  9
$SKETCHINC
 40
0.1
  9
$FILLETRAD
 40
0.0
  9
$AUNITS
 70
     0
  9
$AUPREC
 70
     0
  9
$MENU
  1
acad
  9
$ELEVATION
 40
0.0
  9
$PELEVATION
 40
0.0
  9
$THICKNESS
 40
0.0
  9
$LIMCHECK
 70
     0
  9
$CHAMFERA
 40
0.0
  9
$CHAMFERB
 40
0.0
  9
$CHAMFERC
 40
0.0
  9
$CHAMFERD
 40
0.0
  9
$SKPOLY
 70
     0
  9
$TDCREATE
 40
2454685.464456018
  9
$TDUCREATE
 40
2454685.672789352
  9
$TDUPDATE
 40
2454685.467941863
  9
$TDUUPDATE
 40
2454685.676275197
  9
$TDINDWG
 40
0.0024381134
  9
$TDUSRTIMER
 40
0.0024381134
  9
$USRTIMER
 70
     1
  9
$ANGBASE
 50
0.0
  9
$ANGDIR
 70
     0
  9
$PDMODE
 70
     0
  9
$PDSIZE
 40
0.0
  9
$PLINEWID
 40
0.0
  9
$SPLFRAME
 70
     0
  9
$SPLINETYPE
 70
     6
  9
$SPLINESEGS
 70
     8
  9
$HANDSEED
  5
2D68
  9
$SURFTAB1
 70
     6
  9
$SURFTAB2
 70
     6
  9
$SURFTYPE
 70
     6
  9
$SURFU
 70
     6
  9
$SURFV
 70
     6
  9
$UCSBASE
  2

  9
$UCSNAME
  2

  9
$UCSORG
 10
0.0
 20
0.0
 30
0.0
  9
$UCSXDIR
 10
1.0
 20
0.0
 30
0.0
  9
$UCSYDIR
 10
0.0
 20
1.0
 30
0.0
  9
$UCSORTHOREF
  2

  9
$UCSORTHOVIEW
 70
     0
  9
$UCSORGTOP
 10
0.0
 20
0.0
 30
0.0
  9
$UCSORGBOTTOM
 10
0.0
 20
0.0
 30
0.0
  9
$UCSORGLEFT
 10
0.0
 20
0.0
 30
0.0
  9
$UCSORGRIGHT
 10
0.0
 20
0.0
 30
0.0
  9
$UCSORGFRONT
 10
0.0
 20
0.0
 30
0.0
  9
$UCSORGBACK
 10
0.0
 20
0.0
 30
0.0
  9
$PUCSBASE
  2

  9
$PUCSNAME
  2

  9
$PUCSORG
 10
0.0
 20
0.0
 30
0.0
  9
$PUCSXDIR
 10
1.0
 20
0.0
 30
0.0
  9
$PUCSYDIR
 10
0.0
 20
1.0
 30
0.0
  9
$PUCSORTHOREF
  2

  9
$PUCSORTHOVIEW
 70
     0
  9
$PUCSORGTOP
 10
0.0
 20
0.0
 30
0.0
  9
$PUCSORGBOTTOM
 10
0.0
 20
0.0
 30
0.0
  9
$PUCSORGLEFT
 10
0.0
 20
0.0
 30
0.0
  9
$PUCSORGRIGHT
 10
0.0
 20
0.0
 30
0.0
  9
$PUCSORGFRONT
 10
0.0
 20
0.0
 30
0.0
  9
$PUCSORGBACK
 10
0.0
 20
0.0
 30
0.0
  9
$USERI1
 70
     0
  9
$USERI2
 70
     0
  9
$USERI3
 70
     0
  9
$USERI4
 70
     0
  9
$USERI5
 70
     0
  9
$USERR1
 40
0.0
  9
$USERR2
 40
0.0
  9
$USERR3
 40
0.0
  9
$USERR4
 40
0.0
  9
$USERR5
 40
0.0
  9
$WORLDVIEW
 70
     1
  9
$SHADEDGE
 70
     3
  9
$SHADEDIF
 70
    70
  9
$TILEMODE
 70
     1
  9
$MAXACTVP
 70
    16
  9
$PINSBASE
 10
0.0
 20
0.0
 30
0.0
  9
$PLIMCHECK
 70
     0
  9
$PEXTMIN
 10
1.000000000000000E+20
 20
1.000000000000000E+20
 30
1.000000000000000E+20
  9
$PEXTMAX
 10
-1.000000000000000E+20
 20
-1.000000000000000E+20
 30
-1.000000000000000E+20
  9
$PLIMMIN
 10
0.0
 20
0.0
  9
$PLIMMAX
 10
12.0
 20
9.0
  9
$UNITMODE
 70
     0
  9
$VISRETAIN
 70
     0
  9
$PLINEGEN
 70
     0
  9
$PSLTSCALE
 70
     1
  9
$TREEDEPTH
 70
  3020
  9
$CMLSTYLE
  2
Standard
  9
$CMLJUST
 70
     0
  9
$CMLSCALE
 40
1.0
  9
$PROXYGRAPHICS
 70
     1
  9
$MEASUREMENT
 70
     0
  9
$CELWEIGHT
370
    -1
  9
$ENDCAPS
280
     0
  9
$JOINSTYLE
280
     0
  9
$LWDISPLAY
290
     0
  9
$INSUNITS
 70
     0
  9
$HYPERLINKBASE
  1

  9
$STYLESHEET
  1

  9
$XEDIT
290
     1
  9
$CEPSNTYPE
380
     0
  9
$PSTYLEMODE
290
     1
  9
$FINGERPRINTGUID
  2
{9DEDD6C9-324F-40CF-86D4-4246EEF09073}
  9
$VERSIONGUID
  2
{0C995C86-0886-4ED4-B282-511E401DDF95}
  9
$EXTNAMES
290
     1
  9
$PSVPSCALE
 40
0.0
  9
$OLESTARTUP
290
     0
  0
ENDSEC
  0
SECTION
  2
CLASSES
  0
CLASS
  1
ACDBDICTIONARYWDFLT
  2
AcDbDictionaryWithDefault
  3
AutoCAD 2000
 90
        0
280
     0
281
     0
  0
CLASS
  1
ACDBPLACEHOLDER
  2
AcDbPlaceHolder
  3
AutoCAD 2000
 90
        0
280
     0
281
     0
  0
CLASS
  1
LAYOUT
  2
AcDbLayout
  3
AutoCAD 2000
 90
        0
280
     0
281
     0
  0
ENDSEC
  0
SECTION
  2
TABLES
  0
TABLE
  2
VPORT
  5
8
330
0
100
AcDbSymbolTable
 70
     3
  0
VPORT
  5
2D67
330
8
100
AcDbSymbolTableRecord
100
AcDbViewportTableRecord
  2
*Active
 70
     0
 10
0.0
 20
0.0
 11
1.0
 21
1.0
 12
3.323913599043051
 22
3.5819549759407
 13
0.0
 23
0.0
 14
1.0
 24
1.0
 15
0.0
 25
0.0
 16
0.0
 26
0.0
 36
1.0
 17
0.0
 27
0.0
 37
0.0
 40
4.110889635619184
 41
1.937349397590361
 42
50.0
 43
0.0
 44
0.0
 50
0.0
 51
0.0
 71
     0
 72
   100
 73
     1
 74
     1
 75
     0
 76
     0
 77
     0
 78
     0
281
     0
 65
     1
110
0.0
120
0.0
130
0.0
111
1.0
121
0.0
131
0.0
112
0.0
122
1.0
132
0.0
 79
     0
146
0.0
  0
ENDTAB
  0
TABLE
  2
LTYPE
  5
5
330
0
100
AcDbSymbolTable
 70
    25
  0
LTYPE
  5
13
330
5
100
AcDbSymbolTableRecord
100
AcDbLinetypeTableRecord
  2
ByBlock
 70
     0
  3

 72
    65
 73
     0
 40
0.0
  0
LTYPE
  5
14
330
5
100
AcDbSymbolTableRecord
100
AcDbLinetypeTableRecord
  2
ByLayer
 70
     0
  3

 72
    65
 73
     0
 40
0.0
  0
LTYPE
  5
15
330
5
100
AcDbSymbolTableRecord
100
AcDbLinetypeTableRecord
  2
CONTINUOUS
 70
     0
  3
Solid line
 72
    65
 73
     0
 40
0.0
  0
LTYPE
  5
22
330
5
100
AcDbSymbolTableRecord
100
AcDbLinetypeTableRecord
  2
BORDER
 70
     0
  3
__ __ . __ __ . __ __ . __ __ . __ __ . __ __ .
 72
    65
 73
     6
 40
1.75
 49
0.5
 74
     0
 49
-0.25
 74
     0
 49
0.5
 74
     0
 49
-0.25
 74
     0
 49
0.5
 74
     0
 49
-0.25
 74
     0
  0
LTYPE
  5
23
330
5
100
AcDbSymbolTableRecord
100
AcDbLinetypeTableRecord
  2
BORDER2
 70
     0
  3
__.__.__.__.__.__.__.__.
 72
    65
 73
     6
 40
0.875
 49
0.25
 74
     0
 49
-0.125
 74
     0
 49
0.25
 74
     0
 49
-0.125
 74
     0
 49
0.25
 74
     0
 49
-0.125
 74
     0
  0
LTYPE
  5
24
330
5
100
AcDbSymbolTableRecord
100
AcDbLinetypeTableRecord
  2
BORDERX2
 70
     0
  3
____  ____  .  
 72
    65
 73
     6
 40
3.5
 49
1.0
 74
     0
 49
-0.5
 74
     0
 49
1.0
 74
     0
 49
-0.5
 74
     0
 49
1.0
 74
     0
 49
-0.5
 74
     0
  0
LTYPE
  5
25
330
5
100
AcDbSymbolTableRecord
100
AcDbLinetypeTableRecord
  2
CENTER
 70
     0
  3
____ _ ____ _ ____ _ 
 72
    65
 73
     4
 40
2.0
 49
1.25
 74
     0
 49
-0.25
 74
     0
 49
0.25
 74
     0
 49
-0.25
 74
     0
  0
LTYPE
  5
26
330
5
100
AcDbSymbolTableRecord
100
AcDbLinetypeTableRecord
  2
CENTER2
 70
     0
  3
____ _ ____ _ ____ _ 
 72
    65
 73
     4
 40
1.125
 49
0.75
 74
     0
 49
-0.125
 74
     0
 49
0.125
 74
     0
 49
-0.125
 74
     0
  0
LTYPE
  5
27
330
5
100
AcDbSymbolTableRecord
100
AcDbLinetypeTableRecord
  2
CENTERX2
 70
     0
  3
________  __  
 72
    65
 73
     4
 40
4.0
 49
2.5
 74
     0
 49
-0.5
 74
     0
 49
0.5
 74
     0
 49
-0.5
 74
     0
  0
LTYPE
  5
28
330
5
100
AcDbSymbolTableRecord
100
AcDbLinetypeTableRecord
  2
DASHDOT
 70
     0
  3
__ . __ . __ . __ . 
 72
    65
 73
     4
 40
1.0
 49
0.5
 74
     0
 49
-0.25
 74
     0
 49
0.0
 74
     0
 49
-0.25
 74
     0
  0
LTYPE
  5
29
330
5
100
AcDbSymbolTableRecord
100
AcDbLinetypeTableRecord
  2
DASHDOT2
 70
     0
  3
_._._._._._._._._.
 72
    65
 73
     4
 40
0.5
 49
0.25
 74
     0
 49
-0.125
 74
     0
 49
0.0
 74
     0
 49
-0.125
 74
     0
  0
LTYPE
  5
2A
330
5
100
AcDbSymbolTableRecord
100
AcDbLinetypeTableRecord
  2
DASHDOTX2
 70
     0
  3
____  .  ____  .  
 72
    65
 73
     4
 40
2.0
 49
1.0
 74
     0
 49
-0.5
 74
     0
 49
0.0
 74
     0
 49
-0.5
 74
     0
  0
LTYPE
  5
2B
330
5
100
AcDbSymbolTableRecord
100
AcDbLinetypeTableRecord
  2
DASHED
 70
     0
  3
__ __ __ __ __ __ __ 
 72
    65
 73
     2
 40
0.75
 49
0.5
 74
     0
 49
-0.25
 74
     0
  0
LTYPE
  5
2C
330
5
100
AcDbSymbolTableRecord
100
AcDbLinetypeTableRecord
  2
DASHED2
 70
     0
  3
_ _ _ _ _ _ _ _ _ _ 
 72
    65
 73
     2
 40
0.375
 49
0.25
 74
     0
 49
-0.125
 74
     0
  0
LTYPE
  5
2D
330
5
100
AcDbSymbolTableRecord
100
AcDbLinetypeTableRecord
  2
DASHEDX2
 70
     0
  3
____  ____  ____  
 72
    65
 73
     2
 40
1.5
 49
1.0
 74
     0
 49
-0.5
 74
     0
  0
LTYPE
  5
2E
330
5
100
AcDbSymbolTableRecord
100
AcDbLinetypeTableRecord
  2
DIVIDE
 70
     0
  3
____ . . ____ . . 
 72
    65
 73
     6
 40
1.25
 49
0.5
 74
     0
 49
-0.25
 74
     0
 49
0.0
 74
     0
 49
-0.25
 74
     0
 49
0.0
 74
     0
 49
-0.25
 74
     0
  0
LTYPE
  5
2F
330
5
100
AcDbSymbolTableRecord
100
AcDbLinetypeTableRecord
  2
DIVIDE2
 70
     0
  3
__..__..__..__..__..
 72
    65
 73
     6
 40
0.625
 49
0.25
 74
     0
 49
-0.125
 74
     0
 49
0.0
 74
     0
 49
-0.125
 74
     0
 49
0.0
 74
     0
 49
-0.125
 74
     0
  0
LTYPE
  5
30
330
5
100
AcDbSymbolTableRecord
100
AcDbLinetypeTableRecord
  2
DIVIDEX2
 70
     0
  3
________  .  .  
 72
    65
 73
     6
 40
2.5
 49
1.0
 74
     0
 49
-0.5
 74
     0
 49
0.0
 74
     0
 49
-0.5
 74
     0
 49
0.0
 74
     0
 49
-0.5
 74
     0
  0
LTYPE
  5
31
330
5
100
AcDbSymbolTableRecord
100
AcDbLinetypeTableRecord
  2
DOT
 70
     0
  3
. . . . . . . . . 
 72
    65
 73
     2
 40
0.25
 49
0.0
 74
     0
 49
-0.25
 74
     0
  0
LTYPE
  5
32
330
5
100
AcDbSymbolTableRecord
100
AcDbLinetypeTableRecord
  2
DOT2
 70
     0
  3
..................
 72
    65
 73
     2
 40
0.125
 49
0.0
 74
     0
 49
-0.125
 74
     0
  0
LTYPE
  5
33
330
5
100
AcDbSymbolTableRecord
100
AcDbLinetypeTableRecord
  2
DOTX2
 70
     0
  3
.  .  .  .  .  .  
 72
    65
 73
     2
 40
0.5
 49
0.0
 74
     0
 49
-0.5
 74
     0
  0
LTYPE
  5
34
330
5
100
AcDbSymbolTableRecord
100
AcDbLinetypeTableRecord
  2
HIDDEN
 70
     0
  3
__ __ __ __ __ __ 
 72
    65
 73
     2
 40
0.375
 49
0.25
 74
     0
 49
-0.125
 74
     0
  0
LTYPE
  5
35
330
5
100
AcDbSymbolTableRecord
100
AcDbLinetypeTableRecord
  2
HIDDEN2
 70
     0
  3
_ _ _ _ _ _ _ _ _ 
 72
    65
 73
     2
 40
0.1875
 49
0.125
 74
     0
 49
-0.0625
 74
     0
  0
LTYPE
  5
36
330
5
100
AcDbSymbolTableRecord
100
AcDbLinetypeTableRecord
  2
HIDDENX2
 70
     0
  3
____ ____ ____ ____ 
 72
    65
 73
     2
 40
0.75
 49
0.5
 74
     0
 49
-0.25
 74
     0
  0
LTYPE
  5
37
330
5
100
AcDbSymbolTableRecord
100
AcDbLinetypeTableRecord
  2
PHANTOM
 70
     0
  3
______  __  __  
 72
    65
 73
     6
 40
2.5
 49
1.25
 74
     0
 49
-0.25
 74
     0
 49
0.25
 74
     0
 49
-0.25
 74
     0
 49
0.25
 74
     0
 49
-0.25
 74
     0
  0
LTYPE
  5
38
330
5
100
AcDbSymbolTableRecord
100
AcDbLinetypeTableRecord
  2
PHANTOM2
 70
     0
  3
___ _ _ ___ _ _ 
 72
    65
 73
     6
 40
1.25
 49
0.625
 74
     0
 49
-0.125
 74
     0
 49
0.125
 74
     0
 49
-0.125
 74
     0
 49
0.125
 74
     0
 49
-0.125
 74
     0
  0
LTYPE
  5
39
330
5
100
AcDbSymbolTableRecord
100
AcDbLinetypeTableRecord
  2
PHANTOMX2
 70
     0
  3
___ _ _ ___ _ _ 
 72
    65
 73
     6
 40
5.0
 49
2.5
 74
     0
 49
-0.5
 74
     0
 49
0.5
 74
     0
 49
-0.5
 74
     0
 49
0.5
 74
     0
 49
-0.5
 74
     0
  0
ENDTAB
  0
TABLE
  2
LAYER
  5
2
330
0
100
AcDbSymbolTable
 70
   256
  0
LAYER
  5
10
330
2
100
AcDbSymbolTableRecord
100
AcDbLayerTableRecord
  2
0
 70
     0
 62
     7
  6
CONTINUOUS
370
    -3
390
F
  0
LAYER
  5
3A
330
2
100
AcDbSymbolTableRecord
100
AcDbLayerTableRecord
  2
1
 70
     0
 62
     1
  6
CONTINUOUS
370
    -3
390
F
  0
LAYER
  5
3B
330
2
100
AcDbSymbolTableRecord
100
AcDbLayerTableRecord
  2
2
 70
     0
 62
     2
  6
CONTINUOUS
370
    -3
390
F
  0
LAYER
  5
3C
330
2
100
AcDbSymbolTableRecord
100
AcDbLayerTableRecord
  2
3
 70
     0
 62
     3
  6
CONTINUOUS
370
    -3
390
F
  0
LAYER
  5
3D
330
2
100
AcDbSymbolTableRecord
100
AcDbLayerTableRecord
  2
4
 70
     0
 62
     4
  6
CONTINUOUS
370
    -3
390
F
  0
LAYER
  5
3E
330
2
100
AcDbSymbolTableRecord
100
AcDbLayerTableRecord
  2
5
 70
     0
 62
     5
  6
CONTINUOUS
370
    -3
390
F
  0
LAYER
  5
3F
330
2
100
AcDbSymbolTableRecord
100
AcDbLayerTableRecord
  2
6
 70
     0
 62
     6
  6
CONTINUOUS
370
    -3
390
F
  0
LAYER
  5
40
330
2
100
AcDbSymbolTableRecord
100
AcDbLayerTableRecord
  2
7
 70
     0
 62
     7
  6
CONTINUOUS
370
    -3
390
F
  0
LAYER
  5
41
330
2
100
AcDbSymbolTableRecord
100
AcDbLayerTableRecord
  2
8
 70
     0
 62
     8
  6
CONTINUOUS
370
    -3
390
F
  0
LAYER
  5
42
330
2
100
AcDbSymbolTableRecord
100
AcDbLayerTableRecord
  2
9
 70
     0
 62
     9
  6
CONTINUOUS
370
    -3
390
F
  0
LAYER
  5
43
330
2
100
AcDbSymbolTableRecord
100
AcDbLayerTableRecord
  2
10
 70
     0
 62
    10
  6
CONTINUOUS
370
    -3
390
F
  0
LAYER
  5
44
330
2
100
AcDbSymbolTableRecord
100
AcDbLayerTableRecord
  2
11
 70
     0
 62
    11
  6
CONTINUOUS
370
    -3
390
F
  0
LAYER
  5
45
330
2
100
AcDbSymbolTableRecord
100
AcDbLayerTableRecord
  2
12
 70
     0
 62
    12
  6
CONTINUOUS
370
    -3
390
F
  0
LAYER
  5
46
330
2
100
AcDbSymbolTableRecord
100
AcDbLayerTableRecord
  2
13
 70
     0
 62
    13
  6
CONTINUOUS
370
    -3
390
F
  0
LAYER
  5
47
330
2
100
AcDbSymbolTableRecord
100
AcDbLayerTableRecord
  2
14
 70
     0
 62
    14
  6
CONTINUOUS
370
    -3
390
F
  0
LAYER
  5
48
330
2
100
AcDbSymbolTableRecord
100
AcDbLayerTableRecord
  2
15
 70
     0
 62
    15
  6
CONTINUOUS
370
    -3
390
F
  0
LAYER
  5
49
330
2
100
AcDbSymbolTableRecord
100
AcDbLayerTableRecord
  2
16
 70
     0
 62
    16
  6
CONTINUOUS
370
    -3
390
F
  0
LAYER
  5
4A
330
2
100
AcDbSymbolTableRecord
100
AcDbLayerTableRecord
  2
17
 70
     0
 62
    17
  6
CONTINUOUS
370
    -3
390
F
  0
LAYER
  5
4B
330
2
100
AcDbSymbolTableRecord
100
AcDbLayerTableRecord
  2
18
 70
     0
 62
    18
  6
CONTINUOUS
370
    -3
390
F
  0
LAYER
  5
4C
330
2
100
AcDbSymbolTableRecord
100
AcDbLayerTableRecord
  2
19
 70
     0
 62
    19
  6
CONTINUOUS
370
    -3
390
F
  0
LAYER
  5
4D
330
2
100
AcDbSymbolTableRecord
100
AcDbLayerTableRecord
  2
20
 70
     0
 62
    20
  6
CONTINUOUS
370
    -3
390
F
  0
LAYER
  5
4E
330
2
100
AcDbSymbolTableRecord
100
AcDbLayerTableRecord
  2
21
 70
     0
 62
    21
  6
CONTINUOUS
370
    -3
390
F
  0
LAYER
  5
4F
330
2
100
AcDbSymbolTableRecord
100
AcDbLayerTableRecord
  2
22
 70
     0
 62
    22
  6
CONTINUOUS
370
    -3
390
F
  0
LAYER
  5
50
330
2
100
AcDbSymbolTableRecord
100
AcDbLayerTableRecord
  2
23
 70
     0
 62
    23
  6
CONTINUOUS
370
    -3
390
F
  0
LAYER
  5
51
330
2
100
AcDbSymbolTableRecord
100
AcDbLayerTableRecord
  2
24
 70
     0
 62
    24
  6
CONTINUOUS
370
    -3
390
F
  0
LAYER
  5
52
330
2
100
AcDbSymbolTableRecord
100
AcDbLayerTableRecord
  2
25
 70
     0
 62
    25
  6
CONTINUOUS
370
    -3
390
F
  0
LAYER
  5
53
330
2
100
AcDbSymbolTableRecord
100
AcDbLayerTableRecord
  2
26
 70
     0
 62
    26
  6
CONTINUOUS
370
    -3
390
F
  0
LAYER
  5
54
330
2
100
AcDbSymbolTableRecord
100
AcDbLayerTableRecord
  2
27
 70
     0
 62
    27
  6
CONTINUOUS
370
    -3
390
F
  0
LAYER
  5
55
330
2
100
AcDbSymbolTableRecord
100
AcDbLayerTableRecord
  2
28
 70
     0
 62
    28
  6
CONTINUOUS
370
    -3
390
F
  0
LAYER
  5
56
330
2
100
AcDbSymbolTableRecord
100
AcDbLayerTableRecord
  2
29
 70
     0
 62
    29
  6
CONTINUOUS
370
    -3
390
F
  0
LAYER
  5
57
330
2
100
AcDbSymbolTableRecord
100
AcDbLayerTableRecord
  2
30
 70
     0
 62
    30
  6
CONTINUOUS
370
    -3
390
F
  0
LAYER
  5
58
330
2
100
AcDbSymbolTableRecord
100
AcDbLayerTableRecord
  2
31
 70
     0
 62
    31
  6
CONTINUOUS
370
    -3
390
F
  0
LAYER
  5
59
330
2
100
AcDbSymbolTableRecord
100
AcDbLayerTableRecord
  2
32
 70
     0
 62
    32
  6
CONTINUOUS
370
    -3
390
F
  0
LAYER
  5
5A
330
2
100
AcDbSymbolTableRecord
100
AcDbLayerTableRecord
  2
33
 70
     0
 62
    33
  6
CONTINUOUS
370
    -3
390
F
  0
LAYER
  5
5B
330
2
100
AcDbSymbolTableRecord
100
AcDbLayerTableRecord
  2
34
 70
     0
 62
    34
  6
CONTINUOUS
370
    -3
390
F
  0
LAYER
  5
5C
330
2
100
AcDbSymbolTableRecord
100
AcDbLayerTableRecord
  2
35
 70
     0
 62
    35
  6
CONTINUOUS
370
    -3
390
F
  0
LAYER
  5
5D
330
2
100
AcDbSymbolTableRecord
100
AcDbLayerTableRecord
  2
36
 70
     0
 62
    36
  6
CONTINUOUS
370
    -3
390
F
  0
LAYER
  5
5E
330
2
100
AcDbSymbolTableRecord
100
AcDbLayerTableRecord
  2
37
 70
     0
 62
    37
  6
CONTINUOUS
370
    -3
390
F
  0
LAYER
  5
5F
330
2
100
AcDbSymbolTableRecord
100
AcDbLayerTableRecord
  2
38
 70
     0
 62
    38
  6
CONTINUOUS
370
    -3
390
F
  0
LAYER
  5
60
330
2
100
AcDbSymbolTableRecord
100
AcDbLayerTableRecord
  2
39
 70
     0
 62
    39
  6
CONTINUOUS
370
    -3
390
F
  0
LAYER
  5
61
330
2
100
AcDbSymbolTableRecord
100
AcDbLayerTableRecord
  2
40
 70
     0
 62
    40
  6
CONTINUOUS
370
    -3
390
F
  0
LAYER
  5
62
330
2
100
AcDbSymbolTableRecord
100
AcDbLayerTableRecord
  2
41
 70
     0
 62
    41
  6
CONTINUOUS
370
    -3
390
F
  0
LAYER
  5
63
330
2
100
AcDbSymbolTableRecord
100
AcDbLayerTableRecord
  2
42
 70
     0
 62
    42
  6
CONTINUOUS
370
    -3
390
F
  0
LAYER
  5
64
330
2
100
AcDbSymbolTableRecord
100
AcDbLayerTableRecord
  2
43
 70
     0
 62
    43
  6
CONTINUOUS
370
    -3
390
F
  0
LAYER
  5
65
330
2
100
AcDbSymbolTableRecord
100
AcDbLayerTableRecord
  2
44
 70
     0
 62
    44
  6
CONTINUOUS
370
    -3
390
F
  0
LAYER
  5
66
330
2
100
AcDbSymbolTableRecord
100
AcDbLayerTableRecord
  2
45
 70
     0
 62
    45
  6
CONTINUOUS
370
    -3
390
F
  0
LAYER
  5
67
330
2
100
AcDbSymbolTableRecord
100
AcDbLayerTableRecord
  2
46
 70
     0
 62
    46
  6
CONTINUOUS
370
    -3
390
F
  0
LAYER
  5
68
330
2
100
AcDbSymbolTableRecord
100
AcDbLayerTableRecord
  2
47
 70
     0
 62
    47
  6
CONTINUOUS
370
    -3
390
F
  0
LAYER
  5
69
330
2
100
AcDbSymbolTableRecord
100
AcDbLayerTableRecord
  2
48
 70
     0
 62
    48
  6
CONTINUOUS
370
    -3
390
F
  0
LAYER
  5
6A
330
2
100
AcDbSymbolTableRecord
100
AcDbLayerTableRecord
  2
49
 70
     0
 62
    49
  6
CONTINUOUS
370
    -3
390
F
  0
LAYER
  5
6B
330
2
100
AcDbSymbolTableRecord
100
AcDbLayerTableRecord
  2
50
 70
     0
 62
    50
  6
CONTINUOUS
370
    -3
390
F
  0
LAYER
  5
6C
330
2
100
AcDbSymbolTableRecord
100
AcDbLayerTableRecord
  2
51
 70
     0
 62
    51
  6
CONTINUOUS
370
    -3
390
F
  0
LAYER
  5
6D
330
2
100
AcDbSymbolTableRecord
100
AcDbLayerTableRecord
  2
52
 70
     0
 62
    52
  6
CONTINUOUS
370
    -3
390
F
  0
LAYER
  5
6E
330
2
100
AcDbSymbolTableRecord
100
AcDbLayerTableRecord
  2
53
 70
     0
 62
    53
  6
CONTINUOUS
370
    -3
390
F
  0
LAYER
  5
6F
330
2
100
AcDbSymbolTableRecord
100
AcDbLayerTableRecord
  2
54
 70
     0
 62
    54
  6
CONTINUOUS
370
    -3
390
F
  0
LAYER
  5
70
330
2
100
AcDbSymbolTableRecord
100
AcDbLayerTableRecord
  2
55
 70
     0
 62
    55
  6
CONTINUOUS
370
    -3
390
F
  0
LAYER
  5
71
330
2
100
AcDbSymbolTableRecord
100
AcDbLayerTableRecord
  2
56
 70
     0
 62
    56
  6
CONTINUOUS
370
    -3
390
F
  0
LAYER
  5
72
330
2
100
AcDbSymbolTableRecord
100
AcDbLayerTableRecord
  2
57
 70
     0
 62
    57
  6
CONTINUOUS
370
    -3
390
F
  0
LAYER
  5
73
330
2
100
AcDbSymbolTableRecord
100
AcDbLayerTableRecord
  2
58
 70
     0
 62
    58
  6
CONTINUOUS
370
    -3
390
F
  0
LAYER
  5
74
330
2
100
AcDbSymbolTableRecord
100
AcDbLayerTableRecord
  2
59
 70
     0
 62
    59
  6
CONTINUOUS
370
    -3
390
F
  0
LAYER
  5
75
330
2
100
AcDbSymbolTableRecord
100
AcDbLayerTableRecord
  2
60
 70
     0
 62
    60
  6
CONTINUOUS
370
    -3
390
F
  0
LAYER
  5
76
330
2
100
AcDbSymbolTableRecord
100
AcDbLayerTableRecord
  2
61
 70
     0
 62
    61
  6
CONTINUOUS
370
    -3
390
F
  0
LAYER
  5
77
330
2
100
AcDbSymbolTableRecord
100
AcDbLayerTableRecord
  2
62
 70
     0
 62
    62
  6
CONTINUOUS
370
    -3
390
F
  0
LAYER
  5
78
330
2
100
AcDbSymbolTableRecord
100
AcDbLayerTableRecord
  2
63
 70
     0
 62
    63
  6
CONTINUOUS
370
    -3
390
F
  0
LAYER
  5
79
330
2
100
AcDbSymbolTableRecord
100
AcDbLayerTableRecord
  2
64
 70
     0
 62
    64
  6
CONTINUOUS
370
    -3
390
F
  0
LAYER
  5
7A
330
2
100
AcDbSymbolTableRecord
100
AcDbLayerTableRecord
  2
65
 70
     0
 62
    65
  6
CONTINUOUS
370
    -3
390
F
  0
LAYER
  5
7B
330
2
100
AcDbSymbolTableRecord
100
AcDbLayerTableRecord
  2
66
 70
     0
 62
    66
  6
CONTINUOUS
370
    -3
390
F
  0
LAYER
  5
7C
330
2
100
AcDbSymbolTableRecord
100
AcDbLayerTableRecord
  2
67
 70
     0
 62
    67
  6
CONTINUOUS
370
    -3
390
F
  0
LAYER
  5
7D
330
2
100
AcDbSymbolTableRecord
100
AcDbLayerTableRecord
  2
68
 70
     0
 62
    68
  6
CONTINUOUS
370
    -3
390
F
  0
LAYER
  5
7E
330
2
100
AcDbSymbolTableRecord
100
AcDbLayerTableRecord
  2
69
 70
     0
 62
    69
  6
CONTINUOUS
370
    -3
390
F
  0
LAYER
  5
7F
330
2
100
AcDbSymbolTableRecord
100
AcDbLayerTableRecord
  2
70
 70
     0
 62
    70
  6
CONTINUOUS
370
    -3
390
F
  0
LAYER
  5
80
330
2
100
AcDbSymbolTableRecord
100
AcDbLayerTableRecord
  2
71
 70
     0
 62
    71
  6
CONTINUOUS
370
    -3
390
F
  0
LAYER
  5
81
330
2
100
AcDbSymbolTableRecord
100
AcDbLayerTableRecord
  2
72
 70
     0
 62
    72
  6
CONTINUOUS
370
    -3
390
F
  0
LAYER
  5
82
330
2
100
AcDbSymbolTableRecord
100
AcDbLayerTableRecord
  2
73
 70
     0
 62
    73
  6
CONTINUOUS
370
    -3
390
F
  0
LAYER
  5
83
330
2
100
AcDbSymbolTableRecord
100
AcDbLayerTableRecord
  2
74
 70
     0
 62
    74
  6
CONTINUOUS
370
    -3
390
F
  0
LAYER
  5
84
330
2
100
AcDbSymbolTableRecord
100
AcDbLayerTableRecord
  2
75
 70
     0
 62
    75
  6
CONTINUOUS
370
    -3
390
F
  0
LAYER
  5
85
330
2
100
AcDbSymbolTableRecord
100
AcDbLayerTableRecord
  2
76
 70
     0
 62
    76
  6
CONTINUOUS
370
    -3
390
F
  0
LAYER
  5
86
330
2
100
AcDbSymbolTableRecord
100
AcDbLayerTableRecord
  2
77
 70
     0
 62
    77
  6
CONTINUOUS
370
    -3
390
F
  0
LAYER
  5
87
330
2
100
AcDbSymbolTableRecord
100
AcDbLayerTableRecord
  2
78
 70
     0
 62
    78
  6
CONTINUOUS
370
    -3
390
F
  0
LAYER
  5
88
330
2
100
AcDbSymbolTableRecord
100
AcDbLayerTableRecord
  2
79
 70
     0
 62
    79
  6
CONTINUOUS
370
    -3
390
F
  0
LAYER
  5
89
330
2
100
AcDbSymbolTableRecord
100
AcDbLayerTableRecord
  2
80
 70
     0
 62
    80
  6
CONTINUOUS
370
    -3
390
F
  0
LAYER
  5
8A
330
2
100
AcDbSymbolTableRecord
100
AcDbLayerTableRecord
  2
81
 70
     0
 62
    81
  6
CONTINUOUS
370
    -3
390
F
  0
LAYER
  5
8B
330
2
100
AcDbSymbolTableRecord
100
AcDbLayerTableRecord
  2
82
 70
     0
 62
    82
  6
CONTINUOUS
370
    -3
390
F
  0
LAYER
  5
8C
330
2
100
AcDbSymbolTableRecord
100
AcDbLayerTableRecord
  2
83
 70
     0
 62
    83
  6
CONTINUOUS
370
    -3
390
F
  0
LAYER
  5
8D
330
2
100
AcDbSymbolTableRecord
100
AcDbLayerTableRecord
  2
84
 70
     0
 62
    84
  6
CONTINUOUS
370
    -3
390
F
  0
LAYER
  5
8E
330
2
100
AcDbSymbolTableRecord
100
AcDbLayerTableRecord
  2
85
 70
     0
 62
    85
  6
CONTINUOUS
370
    -3
390
F
  0
LAYER
  5
8F
330
2
100
AcDbSymbolTableRecord
100
AcDbLayerTableRecord
  2
86
 70
     0
 62
    86
  6
CONTINUOUS
370
    -3
390
F
  0
LAYER
  5
90
330
2
100
AcDbSymbolTableRecord
100
AcDbLayerTableRecord
  2
87
 70
     0
 62
    87
  6
CONTINUOUS
370
    -3
390
F
  0
LAYER
  5
91
330
2
100
AcDbSymbolTableRecord
100
AcDbLayerTableRecord
  2
88
 70
     0
 62
    88
  6
CONTINUOUS
370
    -3
390
F
  0
LAYER
  5
92
330
2
100
AcDbSymbolTableRecord
100
AcDbLayerTableRecord
  2
89
 70
     0
 62
    89
  6
CONTINUOUS
370
    -3
390
F
  0
LAYER
  5
93
330
2
100
AcDbSymbolTableRecord
100
AcDbLayerTableRecord
  2
90
 70
     0
 62
    90
  6
CONTINUOUS
370
    -3
390
F
  0
LAYER
  5
94
330
2
100
AcDbSymbolTableRecord
100
AcDbLayerTableRecord
  2
91
 70
     0
 62
    91
  6
CONTINUOUS
370
    -3
390
F
  0
LAYER
  5
95
330
2
100
AcDbSymbolTableRecord
100
AcDbLayerTableRecord
  2
92
 70
     0
 62
    92
  6
CONTINUOUS
370
    -3
390
F
  0
LAYER
  5
96
330
2
100
AcDbSymbolTableRecord
100
AcDbLayerTableRecord
  2
93
 70
     0
 62
    93
  6
CONTINUOUS
370
    -3
390
F
  0
LAYER
  5
97
330
2
100
AcDbSymbolTableRecord
100
AcDbLayerTableRecord
  2
94
 70
     0
 62
    94
  6
CONTINUOUS
370
    -3
390
F
  0
LAYER
  5
98
330
2
100
AcDbSymbolTableRecord
100
AcDbLayerTableRecord
  2
95
 70
     0
 62
    95
  6
CONTINUOUS
370
    -3
390
F
  0
LAYER
  5
99
330
2
100
AcDbSymbolTableRecord
100
AcDbLayerTableRecord
  2
96
 70
     0
 62
    96
  6
CONTINUOUS
370
    -3
390
F
  0
LAYER
  5
9A
330
2
100
AcDbSymbolTableRecord
100
AcDbLayerTableRecord
  2
97
 70
     0
 62
    97
  6
CONTINUOUS
370
    -3
390
F
  0
LAYER
  5
9B
330
2
100
AcDbSymbolTableRecord
100
AcDbLayerTableRecord
  2
98
 70
     0
 62
    98
  6
CONTINUOUS
370
    -3
390
F
  0
LAYER
  5
9C
330
2
100
AcDbSymbolTableRecord
100
AcDbLayerTableRecord
  2
99
 70
     0
 62
    99
  6
CONTINUOUS
370
    -3
390
F
  0
LAYER
  5
9D
330
2
100
AcDbSymbolTableRecord
100
AcDbLayerTableRecord
  2
100
 70
     0
 62
   100
  6
CONTINUOUS
370
    -3
390
F
  0
LAYER
  5
9E
330
2
100
AcDbSymbolTableRecord
100
AcDbLayerTableRecord
  2
101
 70
     0
 62
   101
  6
CONTINUOUS
370
    -3
390
F
  0
LAYER
  5
9F
330
2
100
AcDbSymbolTableRecord
100
AcDbLayerTableRecord
  2
102
 70
     0
 62
   102
  6
CONTINUOUS
370
    -3
390
F
  0
LAYER
  5
A0
330
2
100
AcDbSymbolTableRecord
100
AcDbLayerTableRecord
  2
103
 70
     0
 62
   103
  6
CONTINUOUS
370
    -3
390
F
  0
LAYER
  5
A1
330
2
100
AcDbSymbolTableRecord
100
AcDbLayerTableRecord
  2
104
 70
     0
 62
   104
  6
CONTINUOUS
370
    -3
390
F
  0
LAYER
  5
A2
330
2
100
AcDbSymbolTableRecord
100
AcDbLayerTableRecord
  2
105
 70
     0
 62
   105
  6
CONTINUOUS
370
    -3
390
F
  0
LAYER
  5
A3
330
2
100
AcDbSymbolTableRecord
100
AcDbLayerTableRecord
  2
106
 70
     0
 62
   106
  6
CONTINUOUS
370
    -3
390
F
  0
LAYER
  5
A4
330
2
100
AcDbSymbolTableRecord
100
AcDbLayerTableRecord
  2
107
 70
     0
 62
   107
  6
CONTINUOUS
370
    -3
390
F
  0
LAYER
  5
A5
330
2
100
AcDbSymbolTableRecord
100
AcDbLayerTableRecord
  2
108
 70
     0
 62
   108
  6
CONTINUOUS
370
    -3
390
F
  0
LAYER
  5
A6
330
2
100
AcDbSymbolTableRecord
100
AcDbLayerTableRecord
  2
109
 70
     0
 62
   109
  6
CONTINUOUS
370
    -3
390
F
  0
LAYER
  5
A7
330
2
100
AcDbSymbolTableRecord
100
AcDbLayerTableRecord
  2
110
 70
     0
 62
   110
  6
CONTINUOUS
370
    -3
390
F
  0
LAYER
  5
A8
330
2
100
AcDbSymbolTableRecord
100
AcDbLayerTableRecord
  2
111
 70
     0
 62
   111
  6
CONTINUOUS
370
    -3
390
F
  0
LAYER
  5
A9
330
2
100
AcDbSymbolTableRecord
100
AcDbLayerTableRecord
  2
112
 70
     0
 62
   112
  6
CONTINUOUS
370
    -3
390
F
  0
LAYER
  5
AA
330
2
100
AcDbSymbolTableRecord
100
AcDbLayerTableRecord
  2
113
 70
     0
 62
   113
  6
CONTINUOUS
370
    -3
390
F
  0
LAYER
  5
AB
330
2
100
AcDbSymbolTableRecord
100
AcDbLayerTableRecord
  2
114
 70
     0
 62
   114
  6
CONTINUOUS
370
    -3
390
F
  0
LAYER
  5
AC
330
2
100
AcDbSymbolTableRecord
100
AcDbLayerTableRecord
  2
115
 70
     0
 62
   115
  6
CONTINUOUS
370
    -3
390
F
  0
LAYER
  5
AD
330
2
100
AcDbSymbolTableRecord
100
AcDbLayerTableRecord
  2
116
 70
     0
 62
   116
  6
CONTINUOUS
370
    -3
390
F
  0
LAYER
  5
AE
330
2
100
AcDbSymbolTableRecord
100
AcDbLayerTableRecord
  2
117
 70
     0
 62
   117
  6
CONTINUOUS
370
    -3
390
F
  0
LAYER
  5
AF
330
2
100
AcDbSymbolTableRecord
100
AcDbLayerTableRecord
  2
118
 70
     0
 62
   118
  6
CONTINUOUS
370
    -3
390
F
  0
LAYER
  5
B0
330
2
100
AcDbSymbolTableRecord
100
AcDbLayerTableRecord
  2
119
 70
     0
 62
   119
  6
CONTINUOUS
370
    -3
390
F
  0
LAYER
  5
B1
330
2
100
AcDbSymbolTableRecord
100
AcDbLayerTableRecord
  2
120
 70
     0
 62
   120
  6
CONTINUOUS
370
    -3
390
F
  0
LAYER
  5
B2
330
2
100
AcDbSymbolTableRecord
100
AcDbLayerTableRecord
  2
121
 70
     0
 62
   121
  6
CONTINUOUS
370
    -3
390
F
  0
LAYER
  5
B3
330
2
100
AcDbSymbolTableRecord
100
AcDbLayerTableRecord
  2
122
 70
     0
 62
   122
  6
CONTINUOUS
370
    -3
390
F
  0
LAYER
  5
B4
330
2
100
AcDbSymbolTableRecord
100
AcDbLayerTableRecord
  2
123
 70
     0
 62
   123
  6
CONTINUOUS
370
    -3
390
F
  0
LAYER
  5
B5
330
2
100
AcDbSymbolTableRecord
100
AcDbLayerTableRecord
  2
124
 70
     0
 62
   124
  6
CONTINUOUS
370
    -3
390
F
  0
LAYER
  5
B6
330
2
100
AcDbSymbolTableRecord
100
AcDbLayerTableRecord
  2
125
 70
     0
 62
   125
  6
CONTINUOUS
370
    -3
390
F
  0
LAYER
  5
B7
330
2
100
AcDbSymbolTableRecord
100
AcDbLayerTableRecord
  2
126
 70
     0
 62
   126
  6
CONTINUOUS
370
    -3
390
F
  0
LAYER
  5
B8
330
2
100
AcDbSymbolTableRecord
100
AcDbLayerTableRecord
  2
127
 70
     0
 62
   127
  6
CONTINUOUS
370
    -3
390
F
  0
LAYER
  5
B9
330
2
100
AcDbSymbolTableRecord
100
AcDbLayerTableRecord
  2
128
 70
     0
 62
   128
  6
CONTINUOUS
370
    -3
390
F
  0
LAYER
  5
BA
330
2
100
AcDbSymbolTableRecord
100
AcDbLayerTableRecord
  2
129
 70
     0
 62
   129
  6
CONTINUOUS
370
    -3
390
F
  0
LAYER
  5
BB
330
2
100
AcDbSymbolTableRecord
100
AcDbLayerTableRecord
  2
130
 70
     0
 62
   130
  6
CONTINUOUS
370
    -3
390
F
  0
LAYER
  5
BC
330
2
100
AcDbSymbolTableRecord
100
AcDbLayerTableRecord
  2
131
 70
     0
 62
   131
  6
CONTINUOUS
370
    -3
390
F
  0
LAYER
  5
BD
330
2
100
AcDbSymbolTableRecord
100
AcDbLayerTableRecord
  2
132
 70
     0
 62
   132
  6
CONTINUOUS
370
    -3
390
F
  0
LAYER
  5
BE
330
2
100
AcDbSymbolTableRecord
100
AcDbLayerTableRecord
  2
133
 70
     0
 62
   133
  6
CONTINUOUS
370
    -3
390
F
  0
LAYER
  5
BF
330
2
100
AcDbSymbolTableRecord
100
AcDbLayerTableRecord
  2
134
 70
     0
 62
   134
  6
CONTINUOUS
370
    -3
390
F
  0
LAYER
  5
C0
330
2
100
AcDbSymbolTableRecord
100
AcDbLayerTableRecord
  2
135
 70
     0
 62
   135
  6
CONTINUOUS
370
    -3
390
F
  0
LAYER
  5
C1
330
2
100
AcDbSymbolTableRecord
100
AcDbLayerTableRecord
  2
136
 70
     0
 62
   136
  6
CONTINUOUS
370
    -3
390
F
  0
LAYER
  5
C2
330
2
100
AcDbSymbolTableRecord
100
AcDbLayerTableRecord
  2
137
 70
     0
 62
   137
  6
CONTINUOUS
370
    -3
390
F
  0
LAYER
  5
C3
330
2
100
AcDbSymbolTableRecord
100
AcDbLayerTableRecord
  2
138
 70
     0
 62
   138
  6
CONTINUOUS
370
    -3
390
F
  0
LAYER
  5
C4
330
2
100
AcDbSymbolTableRecord
100
AcDbLayerTableRecord
  2
139
 70
     0
 62
   139
  6
CONTINUOUS
370
    -3
390
F
  0
LAYER
  5
C5
330
2
100
AcDbSymbolTableRecord
100
AcDbLayerTableRecord
  2
140
 70
     0
 62
   140
  6
CONTINUOUS
370
    -3
390
F
  0
LAYER
  5
C6
330
2
100
AcDbSymbolTableRecord
100
AcDbLayerTableRecord
  2
141
 70
     0
 62
   141
  6
CONTINUOUS
370
    -3
390
F
  0
LAYER
  5
C7
330
2
100
AcDbSymbolTableRecord
100
AcDbLayerTableRecord
  2
142
 70
     0
 62
   142
  6
CONTINUOUS
370
    -3
390
F
  0
LAYER
  5
C8
330
2
100
AcDbSymbolTableRecord
100
AcDbLayerTableRecord
  2
143
 70
     0
 62
   143
  6
CONTINUOUS
370
    -3
390
F
  0
LAYER
  5
C9
330
2
100
AcDbSymbolTableRecord
100
AcDbLayerTableRecord
  2
144
 70
     0
 62
   144
  6
CONTINUOUS
370
    -3
390
F
  0
LAYER
  5
CA
330
2
100
AcDbSymbolTableRecord
100
AcDbLayerTableRecord
  2
145
 70
     0
 62
   145
  6
CONTINUOUS
370
    -3
390
F
  0
LAYER
  5
CB
330
2
100
AcDbSymbolTableRecord
100
AcDbLayerTableRecord
  2
146
 70
     0
 62
   146
  6
CONTINUOUS
370
    -3
390
F
  0
LAYER
  5
CC
330
2
100
AcDbSymbolTableRecord
100
AcDbLayerTableRecord
  2
147
 70
     0
 62
   147
  6
CONTINUOUS
370
    -3
390
F
  0
LAYER
  5
CD
330
2
100
AcDbSymbolTableRecord
100
AcDbLayerTableRecord
  2
148
 70
     0
 62
   148
  6
CONTINUOUS
370
    -3
390
F
  0
LAYER
  5
CE
330
2
100
AcDbSymbolTableRecord
100
AcDbLayerTableRecord
  2
149
 70
     0
 62
   149
  6
CONTINUOUS
370
    -3
390
F
  0
LAYER
  5
CF
330
2
100
AcDbSymbolTableRecord
100
AcDbLayerTableRecord
  2
150
 70
     0
 62
   150
  6
CONTINUOUS
370
    -3
390
F
  0
LAYER
  5
D0
330
2
100
AcDbSymbolTableRecord
100
AcDbLayerTableRecord
  2
151
 70
     0
 62
   151
  6
CONTINUOUS
370
    -3
390
F
  0
LAYER
  5
D1
330
2
100
AcDbSymbolTableRecord
100
AcDbLayerTableRecord
  2
152
 70
     0
 62
   152
  6
CONTINUOUS
370
    -3
390
F
  0
LAYER
  5
D2
330
2
100
AcDbSymbolTableRecord
100
AcDbLayerTableRecord
  2
153
 70
     0
 62
   153
  6
CONTINUOUS
370
    -3
390
F
  0
LAYER
  5
D3
330
2
100
AcDbSymbolTableRecord
100
AcDbLayerTableRecord
  2
154
 70
     0
 62
   154
  6
CONTINUOUS
370
    -3
390
F
  0
LAYER
  5
D4
330
2
100
AcDbSymbolTableRecord
100
AcDbLayerTableRecord
  2
155
 70
     0
 62
   155
  6
CONTINUOUS
370
    -3
390
F
  0
LAYER
  5
D5
330
2
100
AcDbSymbolTableRecord
100
AcDbLayerTableRecord
  2
156
 70
     0
 62
   156
  6
CONTINUOUS
370
    -3
390
F
  0
LAYER
  5
D6
330
2
100
AcDbSymbolTableRecord
100
AcDbLayerTableRecord
  2
157
 70
     0
 62
   157
  6
CONTINUOUS
370
    -3
390
F
  0
LAYER
  5
D7
330
2
100
AcDbSymbolTableRecord
100
AcDbLayerTableRecord
  2
158
 70
     0
 62
   158
  6
CONTINUOUS
370
    -3
390
F
  0
LAYER
  5
D8
330
2
100
AcDbSymbolTableRecord
100
AcDbLayerTableRecord
  2
159
 70
     0
 62
   159
  6
CONTINUOUS
370
    -3
390
F
  0
LAYER
  5
D9
330
2
100
AcDbSymbolTableRecord
100
AcDbLayerTableRecord
  2
160
 70
     0
 62
   160
  6
CONTINUOUS
370
    -3
390
F
  0
LAYER
  5
DA
330
2
100
AcDbSymbolTableRecord
100
AcDbLayerTableRecord
  2
161
 70
     0
 62
   161
  6
CONTINUOUS
370
    -3
390
F
  0
LAYER
  5
DB
330
2
100
AcDbSymbolTableRecord
100
AcDbLayerTableRecord
  2
162
 70
     0
 62
   162
  6
CONTINUOUS
370
    -3
390
F
  0
LAYER
  5
DC
330
2
100
AcDbSymbolTableRecord
100
AcDbLayerTableRecord
  2
163
 70
     0
 62
   163
  6
CONTINUOUS
370
    -3
390
F
  0
LAYER
  5
DD
330
2
100
AcDbSymbolTableRecord
100
AcDbLayerTableRecord
  2
164
 70
     0
 62
   164
  6
CONTINUOUS
370
    -3
390
F
  0
LAYER
  5
DE
330
2
100
AcDbSymbolTableRecord
100
AcDbLayerTableRecord
  2
165
 70
     0
 62
   165
  6
CONTINUOUS
370
    -3
390
F
  0
LAYER
  5
DF
330
2
100
AcDbSymbolTableRecord
100
AcDbLayerTableRecord
  2
166
 70
     0
 62
   166
  6
CONTINUOUS
370
    -3
390
F
  0
LAYER
  5
E0
330
2
100
AcDbSymbolTableRecord
100
AcDbLayerTableRecord
  2
167
 70
     0
 62
   167
  6
CONTINUOUS
370
    -3
390
F
  0
LAYER
  5
E1
330
2
100
AcDbSymbolTableRecord
100
AcDbLayerTableRecord
  2
168
 70
     0
 62
   168
  6
CONTINUOUS
370
    -3
390
F
  0
LAYER
  5
E2
330
2
100
AcDbSymbolTableRecord
100
AcDbLayerTableRecord
  2
169
 70
     0
 62
   169
  6
CONTINUOUS
370
    -3
390
F
  0
LAYER
  5
E3
330
2
100
AcDbSymbolTableRecord
100
AcDbLayerTableRecord
  2
170
 70
     0
 62
   170
  6
CONTINUOUS
370
    -3
390
F
  0
LAYER
  5
E4
330
2
100
AcDbSymbolTableRecord
100
AcDbLayerTableRecord
  2
171
 70
     0
 62
   171
  6
CONTINUOUS
370
    -3
390
F
  0
LAYER
  5
E5
330
2
100
AcDbSymbolTableRecord
100
AcDbLayerTableRecord
  2
172
 70
     0
 62
   172
  6
CONTINUOUS
370
    -3
390
F
  0
LAYER
  5
E6
330
2
100
AcDbSymbolTableRecord
100
AcDbLayerTableRecord
  2
173
 70
     0
 62
   173
  6
CONTINUOUS
370
    -3
390
F
  0
LAYER
  5
E7
330
2
100
AcDbSymbolTableRecord
100
AcDbLayerTableRecord
  2
174
 70
     0
 62
   174
  6
CONTINUOUS
370
    -3
390
F
  0
LAYER
  5
E8
330
2
100
AcDbSymbolTableRecord
100
AcDbLayerTableRecord
  2
175
 70
     0
 62
   175
  6
CONTINUOUS
370
    -3
390
F
  0
LAYER
  5
E9
330
2
100
AcDbSymbolTableRecord
100
AcDbLayerTableRecord
  2
176
 70
     0
 62
   176
  6
CONTINUOUS
370
    -3
390
F
  0
LAYER
  5
EA
330
2
100
AcDbSymbolTableRecord
100
AcDbLayerTableRecord
  2
177
 70
     0
 62
   177
  6
CONTINUOUS
370
    -3
390
F
  0
LAYER
  5
EB
330
2
100
AcDbSymbolTableRecord
100
AcDbLayerTableRecord
  2
178
 70
     0
 62
   178
  6
CONTINUOUS
370
    -3
390
F
  0
LAYER
  5
EC
330
2
100
AcDbSymbolTableRecord
100
AcDbLayerTableRecord
  2
179
 70
     0
 62
   179
  6
CONTINUOUS
370
    -3
390
F
  0
LAYER
  5
ED
330
2
100
AcDbSymbolTableRecord
100
AcDbLayerTableRecord
  2
180
 70
     0
 62
   180
  6
CONTINUOUS
370
    -3
390
F
  0
LAYER
  5
EE
330
2
100
AcDbSymbolTableRecord
100
AcDbLayerTableRecord
  2
181
 70
     0
 62
   181
  6
CONTINUOUS
370
    -3
390
F
  0
LAYER
  5
EF
330
2
100
AcDbSymbolTableRecord
100
AcDbLayerTableRecord
  2
182
 70
     0
 62
   182
  6
CONTINUOUS
370
    -3
390
F
  0
LAYER
  5
F0
330
2
100
AcDbSymbolTableRecord
100
AcDbLayerTableRecord
  2
183
 70
     0
 62
   183
  6
CONTINUOUS
370
    -3
390
F
  0
LAYER
  5
F1
330
2
100
AcDbSymbolTableRecord
100
AcDbLayerTableRecord
  2
184
 70
     0
 62
   184
  6
CONTINUOUS
370
    -3
390
F
  0
LAYER
  5
F2
330
2
100
AcDbSymbolTableRecord
100
AcDbLayerTableRecord
  2
185
 70
     0
 62
   185
  6
CONTINUOUS
370
    -3
390
F
  0
LAYER
  5
F3
330
2
100
AcDbSymbolTableRecord
100
AcDbLayerTableRecord
  2
186
 70
     0
 62
   186
  6
CONTINUOUS
370
    -3
390
F
  0
LAYER
  5
F4
330
2
100
AcDbSymbolTableRecord
100
AcDbLayerTableRecord
  2
187
 70
     0
 62
   187
  6
CONTINUOUS
370
    -3
390
F
  0
LAYER
  5
F5
330
2
100
AcDbSymbolTableRecord
100
AcDbLayerTableRecord
  2
188
 70
     0
 62
   188
  6
CONTINUOUS
370
    -3
390
F
  0
LAYER
  5
F6
330
2
100
AcDbSymbolTableRecord
100
AcDbLayerTableRecord
  2
189
 70
     0
 62
   189
  6
CONTINUOUS
370
    -3
390
F
  0
LAYER
  5
F7
330
2
100
AcDbSymbolTableRecord
100
AcDbLayerTableRecord
  2
190
 70
     0
 62
   190
  6
CONTINUOUS
370
    -3
390
F
  0
LAYER
  5
F8
330
2
100
AcDbSymbolTableRecord
100
AcDbLayerTableRecord
  2
191
 70
     0
 62
   191
  6
CONTINUOUS
370
    -3
390
F
  0
LAYER
  5
F9
330
2
100
AcDbSymbolTableRecord
100
AcDbLayerTableRecord
  2
192
 70
     0
 62
   192
  6
CONTINUOUS
370
    -3
390
F
  0
LAYER
  5
FA
330
2
100
AcDbSymbolTableRecord
100
AcDbLayerTableRecord
  2
193
 70
     0
 62
   193
  6
CONTINUOUS
370
    -3
390
F
  0
LAYER
  5
FB
330
2
100
AcDbSymbolTableRecord
100
AcDbLayerTableRecord
  2
194
 70
     0
 62
   194
  6
CONTINUOUS
370
    -3
390
F
  0
LAYER
  5
FC
330
2
100
AcDbSymbolTableRecord
100
AcDbLayerTableRecord
  2
195
 70
     0
 62
   195
  6
CONTINUOUS
370
    -3
390
F
  0
LAYER
  5
FD
330
2
100
AcDbSymbolTableRecord
100
AcDbLayerTableRecord
  2
196
 70
     0
 62
   196
  6
CONTINUOUS
370
    -3
390
F
  0
LAYER
  5
FE
330
2
100
AcDbSymbolTableRecord
100
AcDbLayerTableRecord
  2
197
 70
     0
 62
   197
  6
CONTINUOUS
370
    -3
390
F
  0
LAYER
  5
FF
330
2
100
AcDbSymbolTableRecord
100
AcDbLayerTableRecord
  2
198
 70
     0
 62
   198
  6
CONTINUOUS
370
    -3
390
F
  0
LAYER
  5
100
330
2
100
AcDbSymbolTableRecord
100
AcDbLayerTableRecord
  2
199
 70
     0
 62
   199
  6
CONTINUOUS
370
    -3
390
F
  0
LAYER
  5
101
330
2
100
AcDbSymbolTableRecord
100
AcDbLayerTableRecord
  2
200
 70
     0
 62
   200
  6
CONTINUOUS
370
    -3
390
F
  0
LAYER
  5
102
330
2
100
AcDbSymbolTableRecord
100
AcDbLayerTableRecord
  2
201
 70
     0
 62
   201
  6
CONTINUOUS
370
    -3
390
F
  0
LAYER
  5
103
330
2
100
AcDbSymbolTableRecord
100
AcDbLayerTableRecord
  2
202
 70
     0
 62
   202
  6
CONTINUOUS
370
    -3
390
F
  0
LAYER
  5
104
330
2
100
AcDbSymbolTableRecord
100
AcDbLayerTableRecord
  2
203
 70
     0
 62
   203
  6
CONTINUOUS
370
    -3
390
F
  0
LAYER
  5
105
330
2
100
AcDbSymbolTableRecord
100
AcDbLayerTableRecord
  2
204
 70
     0
 62
   204
  6
CONTINUOUS
370
    -3
390
F
  0
LAYER
  5
106
330
2
100
AcDbSymbolTableRecord
100
AcDbLayerTableRecord
  2
205
 70
     0
 62
   205
  6
CONTINUOUS
370
    -3
390
F
  0
LAYER
  5
107
330
2
100
AcDbSymbolTableRecord
100
AcDbLayerTableRecord
  2
206
 70
     0
 62
   206
  6
CONTINUOUS
370
    -3
390
F
  0
LAYER
  5
108
330
2
100
AcDbSymbolTableRecord
100
AcDbLayerTableRecord
  2
207
 70
     0
 62
   207
  6
CONTINUOUS
370
    -3
390
F
  0
LAYER
  5
109
330
2
100
AcDbSymbolTableRecord
100
AcDbLayerTableRecord
  2
208
 70
     0
 62
   208
  6
CONTINUOUS
370
    -3
390
F
  0
LAYER
  5
10A
330
2
100
AcDbSymbolTableRecord
100
AcDbLayerTableRecord
  2
209
 70
     0
 62
   209
  6
CONTINUOUS
370
    -3
390
F
  0
LAYER
  5
10B
330
2
100
AcDbSymbolTableRecord
100
AcDbLayerTableRecord
  2
210
 70
     0
 62
   210
  6
CONTINUOUS
370
    -3
390
F
  0
LAYER
  5
10C
330
2
100
AcDbSymbolTableRecord
100
AcDbLayerTableRecord
  2
211
 70
     0
 62
   211
  6
CONTINUOUS
370
    -3
390
F
  0
LAYER
  5
10D
330
2
100
AcDbSymbolTableRecord
100
AcDbLayerTableRecord
  2
212
 70
     0
 62
   212
  6
CONTINUOUS
370
    -3
390
F
  0
LAYER
  5
10E
330
2
100
AcDbSymbolTableRecord
100
AcDbLayerTableRecord
  2
213
 70
     0
 62
   213
  6
CONTINUOUS
370
    -3
390
F
  0
LAYER
  5
10F
330
2
100
AcDbSymbolTableRecord
100
AcDbLayerTableRecord
  2
214
 70
     0
 62
   214
  6
CONTINUOUS
370
    -3
390
F
  0
LAYER
  5
110
330
2
100
AcDbSymbolTableRecord
100
AcDbLayerTableRecord
  2
215
 70
     0
 62
   215
  6
CONTINUOUS
370
    -3
390
F
  0
LAYER
  5
111
330
2
100
AcDbSymbolTableRecord
100
AcDbLayerTableRecord
  2
216
 70
     0
 62
   216
  6
CONTINUOUS
370
    -3
390
F
  0
LAYER
  5
112
330
2
100
AcDbSymbolTableRecord
100
AcDbLayerTableRecord
  2
217
 70
     0
 62
   217
  6
CONTINUOUS
370
    -3
390
F
  0
LAYER
  5
113
330
2
100
AcDbSymbolTableRecord
100
AcDbLayerTableRecord
  2
218
 70
     0
 62
   218
  6
CONTINUOUS
370
    -3
390
F
  0
LAYER
  5
114
330
2
100
AcDbSymbolTableRecord
100
AcDbLayerTableRecord
  2
219
 70
     0
 62
   219
  6
CONTINUOUS
370
    -3
390
F
  0
LAYER
  5
115
330
2
100
AcDbSymbolTableRecord
100
AcDbLayerTableRecord
  2
220
 70
     0
 62
   220
  6
CONTINUOUS
370
    -3
390
F
  0
LAYER
  5
116
330
2
100
AcDbSymbolTableRecord
100
AcDbLayerTableRecord
  2
221
 70
     0
 62
   221
  6
CONTINUOUS
370
    -3
390
F
  0
LAYER
  5
117
330
2
100
AcDbSymbolTableRecord
100
AcDbLayerTableRecord
  2
222
 70
     0
 62
   222
  6
CONTINUOUS
370
    -3
390
F
  0
LAYER
  5
118
330
2
100
AcDbSymbolTableRecord
100
AcDbLayerTableRecord
  2
223
 70
     0
 62
   223
  6
CONTINUOUS
370
    -3
390
F
  0
LAYER
  5
119
330
2
100
AcDbSymbolTableRecord
100
AcDbLayerTableRecord
  2
224
 70
     0
 62
   224
  6
CONTINUOUS
370
    -3
390
F
  0
LAYER
  5
11A
330
2
100
AcDbSymbolTableRecord
100
AcDbLayerTableRecord
  2
225
 70
     0
 62
   225
  6
CONTINUOUS
370
    -3
390
F
  0
LAYER
  5
11B
330
2
100
AcDbSymbolTableRecord
100
AcDbLayerTableRecord
  2
226
 70
     0
 62
   226
  6
CONTINUOUS
370
    -3
390
F
  0
LAYER
  5
11C
330
2
100
AcDbSymbolTableRecord
100
AcDbLayerTableRecord
  2
227
 70
     0
 62
   227
  6
CONTINUOUS
370
    -3
390
F
  0
LAYER
  5
11D
330
2
100
AcDbSymbolTableRecord
100
AcDbLayerTableRecord
  2
228
 70
     0
 62
   228
  6
CONTINUOUS
370
    -3
390
F
  0
LAYER
  5
11E
330
2
100
AcDbSymbolTableRecord
100
AcDbLayerTableRecord
  2
229
 70
     0
 62
   229
  6
CONTINUOUS
370
    -3
390
F
  0
LAYER
  5
11F
330
2
100
AcDbSymbolTableRecord
100
AcDbLayerTableRecord
  2
230
 70
     0
 62
   230
  6
CONTINUOUS
370
    -3
390
F
  0
LAYER
  5
120
330
2
100
AcDbSymbolTableRecord
100
AcDbLayerTableRecord
  2
231
 70
     0
 62
   231
  6
CONTINUOUS
370
    -3
390
F
  0
LAYER
  5
121
330
2
100
AcDbSymbolTableRecord
100
AcDbLayerTableRecord
  2
232
 70
     0
 62
   232
  6
CONTINUOUS
370
    -3
390
F
  0
LAYER
  5
122
330
2
100
AcDbSymbolTableRecord
100
AcDbLayerTableRecord
  2
233
 70
     0
 62
   233
  6
CONTINUOUS
370
    -3
390
F
  0
LAYER
  5
123
330
2
100
AcDbSymbolTableRecord
100
AcDbLayerTableRecord
  2
234
 70
     0
 62
   234
  6
CONTINUOUS
370
    -3
390
F
  0
LAYER
  5
124
330
2
100
AcDbSymbolTableRecord
100
AcDbLayerTableRecord
  2
235
 70
     0
 62
   235
  6
CONTINUOUS
370
    -3
390
F
  0
LAYER
  5
125
330
2
100
AcDbSymbolTableRecord
100
AcDbLayerTableRecord
  2
236
 70
     0
 62
   236
  6
CONTINUOUS
370
    -3
390
F
  0
LAYER
  5
126
330
2
100
AcDbSymbolTableRecord
100
AcDbLayerTableRecord
  2
237
 70
     0
 62
   237
  6
CONTINUOUS
370
    -3
390
F
  0
LAYER
  5
127
330
2
100
AcDbSymbolTableRecord
100
AcDbLayerTableRecord
  2
238
 70
     0
 62
   238
  6
CONTINUOUS
370
    -3
390
F
  0
LAYER
  5
128
330
2
100
AcDbSymbolTableRecord
100
AcDbLayerTableRecord
  2
239
 70
     0
 62
   239
  6
CONTINUOUS
370
    -3
390
F
  0
LAYER
  5
129
330
2
100
AcDbSymbolTableRecord
100
AcDbLayerTableRecord
  2
240
 70
     0
 62
   240
  6
CONTINUOUS
370
    -3
390
F
  0
LAYER
  5
12A
330
2
100
AcDbSymbolTableRecord
100
AcDbLayerTableRecord
  2
241
 70
     0
 62
   241
  6
CONTINUOUS
370
    -3
390
F
  0
LAYER
  5
12B
330
2
100
AcDbSymbolTableRecord
100
AcDbLayerTableRecord
  2
242
 70
     0
 62
   242
  6
CONTINUOUS
370
    -3
390
F
  0
LAYER
  5
12C
330
2
100
AcDbSymbolTableRecord
100
AcDbLayerTableRecord
  2
243
 70
     0
 62
   243
  6
CONTINUOUS
370
    -3
390
F
  0
LAYER
  5
12D
330
2
100
AcDbSymbolTableRecord
100
AcDbLayerTableRecord
  2
244
 70
     0
 62
   244
  6
CONTINUOUS
370
    -3
390
F
  0
LAYER
  5
12E
330
2
100
AcDbSymbolTableRecord
100
AcDbLayerTableRecord
  2
245
 70
     0
 62
   245
  6
CONTINUOUS
370
    -3
390
F
  0
LAYER
  5
12F
330
2
100
AcDbSymbolTableRecord
100
AcDbLayerTableRecord
  2
246
 70
     0
 62
   246
  6
CONTINUOUS
370
    -3
390
F
  0
LAYER
  5
130
330
2
100
AcDbSymbolTableRecord
100
AcDbLayerTableRecord
  2
247
 70
     0
 62
   247
  6
CONTINUOUS
370
    -3
390
F
  0
LAYER
  5
131
330
2
100
AcDbSymbolTableRecord
100
AcDbLayerTableRecord
  2
248
 70
     0
 62
   248
  6
CONTINUOUS
370
    -3
390
F
  0
LAYER
  5
132
330
2
100
AcDbSymbolTableRecord
100
AcDbLayerTableRecord
  2
249
 70
     0
 62
   249
  6
CONTINUOUS
370
    -3
390
F
  0
LAYER
  5
133
330
2
100
AcDbSymbolTableRecord
100
AcDbLayerTableRecord
  2
250
 70
     0
 62
   250
  6
CONTINUOUS
370
    -3
390
F
  0
LAYER
  5
134
330
2
100
AcDbSymbolTableRecord
100
AcDbLayerTableRecord
  2
251
 70
     0
 62
   251
  6
CONTINUOUS
370
    -3
390
F
  0
LAYER
  5
135
330
2
100
AcDbSymbolTableRecord
100
AcDbLayerTableRecord
  2
252
 70
     0
 62
   252
  6
CONTINUOUS
370
    -3
390
F
  0
LAYER
  5
136
330
2
100
AcDbSymbolTableRecord
100
AcDbLayerTableRecord
  2
253
 70
     0
 62
   253
  6
CONTINUOUS
370
    -3
390
F
  0
LAYER
  5
137
330
2
100
AcDbSymbolTableRecord
100
AcDbLayerTableRecord
  2
254
 70
     0
 62
   254
  6
CONTINUOUS
370
    -3
390
F
  0
LAYER
  5
138
330
2
100
AcDbSymbolTableRecord
100
AcDbLayerTableRecord
  2
255
 70
     0
 62
   255
  6
CONTINUOUS
370
    -3
390
F
  0
ENDTAB
  0
TABLE
  2
STYLE
  5
3
330
0
100
AcDbSymbolTable
 70
     1
  0
STYLE
  5
11
330
3
100
AcDbSymbolTableRecord
100
AcDbTextStyleTableRecord
  2
STANDARD
 70
     0
 40
0.0
 41
1.0
 50
0.0
 71
     0
 42
0.2
  3
txt
  4

  0
ENDTAB
  0
TABLE
  2
VIEW
  5
6
330
0
100
AcDbSymbolTable
 70
     0
  0
ENDTAB
  0
TABLE
  2
UCS
  5
7
330
0
100
AcDbSymbolTable
 70
     0
  0
ENDTAB
  0
TABLE
  2
APPID
  5
9
330
0
100
AcDbSymbolTable
 70
     1
  0
APPID
  5
12
330
9
100
AcDbSymbolTableRecord
100
AcDbRegAppTableRecord
  2
ACAD
 70
     0
  0
ENDTAB
  0
TABLE
  2
DIMSTYLE
  5
A
330
0
100
AcDbSymbolTable
 70
     1
100
AcDbDimStyleTable
 71
     0
  0
DIMSTYLE
105
2D63
330
A
100
AcDbSymbolTableRecord
100
AcDbDimStyleTableRecord
  2
Standard
 70
     0
340
11
  0
ENDTAB
  0
TABLE
  2
BLOCK_RECORD
  5
1
330
0
100
AcDbSymbolTable
 70
     0
  0
BLOCK_RECORD
  5
1E
330
1
100
AcDbSymbolTableRecord
100
AcDbBlockTableRecord
  2
*Model_Space
340
21
  0
BLOCK_RECORD
  5
1A
330
1
100
AcDbSymbolTableRecord
100
AcDbBlockTableRecord
  2
*Paper_Space
340
1D
  0
ENDTAB
  0
ENDSEC
  0
SECTION
  2
BLOCKS
  0
BLOCK
  5
13B
330
1E
100
AcDbEntity
  8
0
100
AcDbBlockBegin
  2
*Model_Space
 70
     0
 10
0.0
 20
0.0
 30
0.0
  3
*Model_Space
  1

  0
ENDBLK
  5
13C
330
1E
100
AcDbEntity
  8
0
100
AcDbBlockEnd
  0
BLOCK
  5
139
330
1A
100
AcDbEntity
 67
     1
  8
0
100
AcDbBlockBegin
  2
*Paper_Space
 70
     0
 10
0.0
 20
0.0
 30
0.0
  3
*Paper_Space
  1

  0
ENDBLK
  5
13A
330
1A
100
AcDbEntity
 67
     1
  8
0
100
AcDbBlockEnd
  0
ENDSEC
  0
SECTION
  2
ENTITIES
  0
LWPOLYLINE
  5
10A4
330
1E
100
AcDbEntity
  8
0
100
AcDbPolyline
 90
        7
 70
     0
 43
0.0
 10
3.609750615666359
 20
2.490969280684253
 10
3.609750615666359
 20
2.579551957849608
 10
3.663884473934075
 20
2.579551957849608
 10
3.681601009367146
 20
2.571677942101576
 10
3.681601009367146
 20
2.544118886983466
 10
3.662900221965571
 20
2.536244871235434
 10
3.609750615666359
 20
2.536244871235434
  0
LWPOLYLINE
  5
10AD
330
1E
100
AcDbEntity
  8
0
100
AcDbPolyline
 90
        4
 70
     0
 43
0.0
 10
3.779041954249036
 20
2.490969280684253
 10
3.708175812516752
 20
2.490969280684253
 10
3.779041954249036
 20
2.579551957849608
 10
3.708175812516752
 20
2.579551957849608
  0
LINE
  5
10B3
330
1E
100
AcDbEntity
  8
0
100
AcDbLine
 10
3.832191560548249
 20
2.490969280684253
 30
0.0
 11
3.849908095981319
 21
2.490969280684253
 31
0.0
  0
LINE
  5
10B4
330
1E
100
AcDbEntity
  8
0
100
AcDbLine
 10
3.842034080233288
 20
2.579551957849608
 30
0.0
 11
3.842034080233288
 21
2.490969280684253
 31
0.0
  0
LINE
  5
10B5
330
1E
100
AcDbEntity
  8
0
100
AcDbLine
 10
3.832191560548249
 20
2.579551957849608
 30
0.0
 11
3.849908095981319
 21
2.579551957849608
 31
0.0
  0
LWPOLYLINE
  5
10B6
330
1E
100
AcDbEntity
  8
0
100
AcDbPolyline
 90
        8
 70
     0
 43
0.0
 10
3.974908095981319
 20
2.508685816117323
 10
3.957191560548249
 20
2.490969280684253
 10
3.921758489682107
 20
2.490969280684253
 10
3.904041954249036
 20
2.508685816117323
 10
3.904041954249036
 20
2.561835422416536
 10
3.921758489682107
 20
2.579551957849608
 10
3.957191560548249
 20
2.579551957849608
 10
3.975892347949823
 20
2.561835422416536
  0
LWPOLYLINE
  5
10C0
330
1E
100
AcDbEntity
  8
0
100
AcDbPolyline
 90
       10
 70
     0
 43
0.0
 10
4.037900221965571
 20
2.536244871235434
 10
4.073333292831714
 20
2.536244871235434
 10
4.073333292831714
 20
2.508685816117323
 10
4.055616757398642
 20
2.490969280684253
 10
4.019199434563997
 20
2.490969280684253
 10
4.001482899130927
 20
2.508685816117323
 10
4.001482899130927
 20
2.561835422416536
 10
4.020183686532501
 20
2.579551957849608
 10
4.054632505430138
 20
2.579551957849608
 10
4.07234904086321
 20
2.561835422416536
  0
LINE
  5
10CC
330
1E
100
AcDbEntity
  8
0
100
AcDbLine
 10
4.099908095981319
 20
2.490969280684253
 30
0.0
 11
4.099908095981319
 21
2.579551957849608
 31
0.0
  0
LINE
  5
10CD
330
1E
100
AcDbEntity
  8
0
100
AcDbLine
 10
4.161915969997068
 20
2.579551957849608
 30
0.0
 11
4.099908095981319
 21
2.517544083833859
 31
0.0
  0
LINE
  5
10CE
330
1E
100
AcDbEntity
  8
0
100
AcDbLine
 10
4.161915969997068
 20
2.490969280684253
 30
0.0
 11
4.126482899130927
 21
2.544118886983466
 31
0.0
  0
LINE
  5
2362
330
1E
100
AcDbEntity
  8
0
100
AcDbLine
 10
6.108484503707163
 20
4.534021259422809
 30
0.0
 11
6.108484503707163
 21
4.756462204304698
 31
0.0
  0
LINE
  5
2363
330
1E
100
AcDbEntity
  8
0
100
AcDbLine
 10
5.927382141502439
 20
4.482840157060604
 30
0.0
 11
5.813208913155982
 21
4.415911023202336
 31
0.0
  0
LINE
  5
2364
330
1E
100
AcDbEntity
  8
0
100
AcDbLine
 10
5.860453007644171
 20
4.334218109816509
 30
0.0
 11
5.974626235990626
 21
4.400162991706273
 31
0.0
  0
LINE
  5
2365
330
1E
100
AcDbEntity
  8
0
100
AcDbLine
 10
5.972657732053621
 20
4.822407086194462
 30
0.0
 11
5.972657732053621
 21
4.600950393281076
 31
0.0
  0
LINE
  5
2366
330
1E
100
AcDbEntity
  8
0
100
AcDbLine
 10
6.062224661187478
 20
4.460202361785013
 30
0.0
 11
6.068130172998502
 21
4.463155117690525
 31
0.0
  0
LINE
  5
2367
330
1E
100
AcDbEntity
  8
0
100
AcDbLine
 10
5.942145921029998
 20
4.548785038950367
 30
0.0
 11
5.936240409218974
 21
4.544848031076352
 31
0.0
  0
LINE
  5
2368
330
1E
100
AcDbEntity
  8
0
100
AcDbLine
 10
0.9854530076441708
 20
1.577328346036983
 30
0.0
 11
0.9854530076441708
 21
2.022210235800763
 31
0.0
  0
LINE
  5
2369
330
1E
100
AcDbEntity
  8
0
100
AcDbLine
 10
0.8486419840221234
 20
2.088155117690527
 30
0.0
 11
0.8486419840221234
 21
1.644257479895251
 31
0.0
  0
LINE
  5
236A
330
1E
100
AcDbEntity
  8
0
100
AcDbLine
 10
0.8643900155181864
 20
1.611777164934621
 30
0.0
 11
0.9795474958331471
 21
1.544848031076353
 31
0.0
  0
LINE
  5
236B
330
1E
100
AcDbEntity
  8
0
100
AcDbLine
 10
1.014980566699288
 20
1.547800786981865
 30
0.0
 11
1.015964818667792
 21
1.547800786981865
 31
0.0
  0
LINE
  5
236C
330
1E
100
AcDbEntity
  8
0
100
AcDbLine
 10
1.138996314730785
 20
1.71906062950155
 30
0.0
 11
0.9854530076441708
 21
1.630477952336196
 31
0.0
  0
LINE
  5
236D
330
1E
100
AcDbEntity
  8
0
100
AcDbLine
 10
1.024823086384328
 20
1.543863779107849
 30
0.0
 11
1.186240409218974
 21
1.637367716115723
 31
0.0
  0
LINE
  5
236E
330
1E
100
AcDbEntity
  8
0
100
AcDbLine
 10
1.195098676935509
 20
1.65902125942281
 30
0.0
 11
1.195098676935509
 21
1.661974015328322
 31
0.0
  0
LINE
  5
236F
330
1E
100
AcDbEntity
  8
0
100
AcDbLine
 10
1.165571117880391
 20
1.715123621627534
 30
0.0
 11
1.162618361974879
 21
1.716107873596039
 31
0.0
  0
LINE
  5
2370
330
1E
100
AcDbEntity
  8
0
100
AcDbLine
 10
0.6763978895339347
 20
1.7564622043047
 30
0.0
 11
0.6763978895339347
 21
2.201344094068479
 31
0.0
  0
LINE
  5
2371
330
1E
100
AcDbEntity
  8
0
100
AcDbLine
 10
0.5395868659118875
 20
2.267288975958243
 30
0.0
 11
0.5395868659118875
 21
1.822407086194464
 31
0.0
  0
LINE
  5
2372
330
1E
100
AcDbEntity
  8
0
100
AcDbLine
 10
0.5553348974079504
 20
1.789926771233833
 30
0.0
 11
0.6695081257544069
 21
1.72398188934407
 31
0.0
  0
LINE
  5
2373
330
1E
100
AcDbEntity
  8
0
100
AcDbLine
 10
0.7059254485890527
 20
1.725950393281078
 30
0.0
 11
0.7059254485890527
 21
1.726934645249581
 31
0.0
  0
LINE
  5
2374
330
1E
100
AcDbEntity
  8
0
100
AcDbLine
 10
0.8289569446520449
 20
1.897210235800763
 30
0.0
 11
0.6763978895339347
 21
1.808627558635408
 31
0.0
  0
LINE
  5
2375
330
1E
100
AcDbEntity
  8
0
100
AcDbLine
 10
0.7157679682740921
 20
1.722997637375565
 30
0.0
 11
0.8486419840221234
 21
1.799769290918873
 31
0.0
  0
LINE
  5
2376
330
1E
100
AcDbEntity
  8
0
100
AcDbLine
 10
1.292539621817399
 20
4.173785038950368
 30
0.0
 11
1.205925448589053
 21
3.949375590131471
 31
0.0
  0
LINE
  5
2377
330
1E
100
AcDbEntity
  8
0
100
AcDbLine
 10
1.311240409218974
 20
3.908037007454305
 30
0.0
 11
1.398838834415824
 21
4.132446456273203
 31
0.0
  0
LINE
  5
2378
330
1E
100
AcDbEntity
  8
0
100
AcDbLine
 10
1.357500251738659
 20
4.160989763359817
 30
0.0
 11
1.344704976148108
 21
4.167879527139344
 31
0.0
  0
LINE
  5
2379
330
1E
100
AcDbEntity
  8
0
100
AcDbLine
 10
1.934271905281966
 20
4.358824409029109
 30
0.0
 11
1.760059306856769
 21
4.45921810981651
 31
0.0
  0
LINE
  5
237A
330
1E
100
AcDbEntity
  8
0
100
AcDbLine
 10
1.919508125754407
 20
4.341107873596038
 30
0.0
 11
1.932303401344958
 21
4.33421810981651
 31
0.0
  0
LINE
  5
237B
330
1E
100
AcDbEntity
  8
0
100
AcDbLine
 10
2.31517741709299
 20
4.578312598005487
 30
0.0
 11
2.140964818667793
 21
4.678706298792889
 31
0.0
  0
LINE
  5
237C
330
1E
100
AcDbEntity
  8
0
100
AcDbLine
 10
2.30041363756543
 20
4.560596062572416
 30
0.0
 11
2.312224661187478
 21
4.553706298792889
 31
0.0
  0
LINE
  5
237D
330
1E
100
AcDbEntity
  8
0
100
AcDbLine
 10
2.486437259612674
 20
4.656068503517298
 30
0.0
 11
2.312224661187478
 21
4.7564622043047
 31
0.0
  0
LINE
  5
237E
330
1E
100
AcDbEntity
  8
0
100
AcDbLine
 10
2.327972692683541
 20
4.555674802729896
 30
0.0
 11
2.486437259612674
 21
4.463155117690526
 31
0.0
  0
LINE
  5
237F
330
1E
100
AcDbEntity
  8
0
100
AcDbLine
 10
2.520886078510312
 20
4.478903149186589
 30
0.0
 11
2.520886078510312
 21
4.493666928714148
 31
0.0
  0
LINE
  5
2380
330
1E
100
AcDbEntity
  8
0
100
AcDbLine
 10
5.799429385596926
 20
4.713155117690525
 30
0.0
 11
5.799429385596926
 21
4.934611810603911
 31
0.0
  0
LINE
  5
2381
330
1E
100
AcDbEntity
  8
0
100
AcDbLine
 10
5.618327023392202
 20
4.660989763359816
 30
0.0
 11
5.503169543077241
 21
4.595044881470053
 31
0.0
  0
LINE
  5
2382
330
1E
100
AcDbEntity
  8
0
100
AcDbLine
 10
5.550413637565432
 20
4.513351968084226
 30
0.0
 11
5.665571117880391
 21
4.579296849973991
 31
0.0
  0
LINE
  5
2383
330
1E
100
AcDbEntity
  8
0
100
AcDbLine
 10
5.663602613943384
 20
5.000556692493675
 30
0.0
 11
5.663602613943384
 21
4.779099999580289
 31
0.0
  0
LINE
  5
2384
330
1E
100
AcDbEntity
  8
0
100
AcDbLine
 10
5.752185291108737
 20
4.638351968084226
 30
0.0
 11
5.758090802919761
 21
4.642288975958242
 31
0.0
  0
LINE
  5
2385
330
1E
100
AcDbEntity
  8
0
100
AcDbLine
 10
5.633090802919761
 20
4.726934645249581
 30
0.0
 11
5.627185291108737
 21
4.723981889344068
 31
0.0
  0
LINE
  5
2386
330
1E
100
AcDbEntity
  8
0
100
AcDbLine
 10
4.834862456463069
 20
5.200359842099974
 30
0.0
 11
2.026791590321336
 21
3.578312598005486
 31
0.0
  0
LINE
  5
2387
330
1E
100
AcDbEntity
  8
0
100
AcDbLine
 10
2.05533489740795
 20
3.528115747611786
 30
0.0
 11
4.864390015518187
 21
5.150162991706274
 31
0.0
  0
LINE
  5
2388
330
1E
100
AcDbEntity
  8
0
100
AcDbLine
 10
1.195098676935509
 20
1.651147243674778
 30
0.0
 11
5.969704976148108
 21
4.408037007454304
 31
0.0
  0
LINE
  5
2389
330
1E
100
AcDbEntity
  8
0
100
AcDbLine
 10
5.932303401344958
 20
4.473981889344068
 30
0.0
 11
1.158681354100863
 21
1.718076377533046
 31
0.0
  0
LINE
  5
238A
330
1E
100
AcDbEntity
  8
0
100
AcDbLine
 10
1.684271905281966
 20
3.30173779485588
 30
0.0
 11
1.876201039140234
 21
3.412958267296825
 31
0.0
  0
LINE
  5
238B
330
1E
100
AcDbEntity
  8
0
100
AcDbLine
 10
1.75021678717173
 20
3.497603936588164
 30
0.0
 11
1.558287653313462
 21
3.387367716115723
 31
0.0
  0
LINE
  5
238C
330
1E
100
AcDbEntity
  8
0
100
AcDbLine
 10
1.998248283234722
 20
3.583233857848006
 30
0.0
 11
1.839783716305588
 21
3.49169842477714
 31
0.0
  0
LINE
  5
238D
330
1E
100
AcDbEntity
  8
0
100
AcDbLine
 10
1.885059306856769
 20
3.409021259422809
 30
0.0
 11
2.045492377722911
 21
3.501540944462179
 31
0.0
  0
LINE
  5
238E
330
1E
100
AcDbEntity
  8
0
100
AcDbLine
 10
2.05533489740795
 20
3.523194487769266
 30
0.0
 11
2.05533489740795
 21
3.527131495643282
 31
0.0
  0
LINE
  5
238F
330
1E
100
AcDbEntity
  8
0
100
AcDbLine
 10
2.024823086384328
 20
3.579296849973991
 30
0.0
 11
2.021870330478817
 21
3.581265353910998
 31
0.0
  0
LINE
  5
2390
330
1E
100
AcDbEntity
  8
0
100
AcDbLine
 10
5.112421511581178
 20
5.329296849973991
 30
0.0
 11
5.112421511581178
 21
5.550753542887376
 31
0.0
  0
LINE
  5
2391
330
1E
100
AcDbEntity
  8
0
100
AcDbLine
 10
4.807303401344958
 20
5.189533070446431
 30
0.0
 11
4.807303401344958
 21
5.185596062572416
 31
0.0
  0
LINE
  5
2392
330
1E
100
AcDbEntity
  8
0
100
AcDbLine
 10
4.836830960400076
 20
5.133430708241706
 30
0.0
 11
4.840767968274093
 21
5.131462204304699
 31
0.0
  0
LINE
  5
2393
330
1E
100
AcDbEntity
  8
0
100
AcDbLine
 10
4.931319149376454
 20
5.277131495643281
 30
0.0
 11
4.817145921029998
 21
5.211186613753517
 31
0.0
  0
LINE
  5
2394
330
1E
100
AcDbEntity
  8
0
100
AcDbLine
 10
4.864390015518187
 20
5.128509448399187
 30
0.0
 11
4.978563243864643
 21
5.195438582257454
 31
0.0
  0
LINE
  5
2395
330
1E
100
AcDbEntity
  8
0
100
AcDbLine
 10
4.976594739927636
 20
5.61669842477714
 30
0.0
 11
4.976594739927636
 21
5.395241731863753
 31
0.0
  0
LINE
  5
2396
330
1E
100
AcDbEntity
  8
0
100
AcDbLine
 10
5.066161669061495
 20
5.254493700367691
 30
0.0
 11
5.072067180872517
 21
5.257446456273203
 31
0.0
  0
LINE
  5
2397
330
1E
100
AcDbEntity
  8
0
100
AcDbLine
 10
4.946082928904013
 20
5.343076377533045
 30
0.0
 11
4.940177417092989
 21
5.339139369659029
 31
0.0
  0
LINE
  5
2398
330
1E
100
AcDbEntity
  8
0
100
AcDbLine
 10
0.886043558825273
 20
1.830281101942495
 30
0.0
 11
0.8968703304788165
 21
1.836186613753518
 31
0.0
  0
LINE
  5
2399
330
1E
100
AcDbEntity
  8
0
100
AcDbLine
 10
0.9854530076441708
 20
1.887367716115723
 30
0.0
 11
5.660649858037873
 21
4.587170865722022
 31
0.0
  0
LINE
  5
239A
330
1E
100
AcDbEntity
  8
0
100
AcDbLine
 10
5.622264031266219
 20
4.653115747611785
 30
0.0
 11
0.9854530076441708
 21
1.975950393281078
 31
0.0
  0
LINE
  5
239B
330
1E
100
AcDbEntity
  8
0
100
AcDbLine
 10
0.9490356848095249
 20
1.955281101942495
 30
0.0
 11
0.9116341100063753
 21
1.932643306666904
 31
0.0
  0
LWPOLYLINE
  5
239C
330
1E
100
AcDbEntity
  8
0
100
AcDbPolyline
 90
       17
 70
     0
 43
0.0
 10
5.991358519455193
 20
4.413942519265328
 10
5.993327023392202
 20
4.415911023202336
 10
5.99529552732921
 20
4.416895275170841
 10
6.001201039140234
 20
4.420832283044855
 10
6.007106550951256
 20
4.424769290918872
 10
6.014980566699287
 20
4.428706298792887
 10
6.021870330478815
 20
4.432643306666903
 10
6.031712850163856
 20
4.438548818477927
 10
6.041555369848895
 20
4.445438582257454
 10
6.043523873785902
 20
4.447407086194462
 10
6.046476629691415
 20
4.44937559013147
 10
6.048445133628423
 20
4.451344094068478
 10
6.051397889533935
 20
4.453312598005485
 10
6.054350645439447
 20
4.455281101942493
 10
6.056319149376454
 20
4.456265353910998
 10
6.059271905281967
 20
4.458233857848005
 10
6.062224661187478
 20
4.460202361785013
  0
LWPOLYLINE
  5
23AF
330
1E
100
AcDbEntity
  8
0
100
AcDbPolyline
 90
       15
 70
     0
 43
0.0
 10
6.068130172998502
 20
4.463155117690525
 10
6.071082928904013
 20
4.465123621627533
 10
6.073051432841021
 20
4.467092125564541
 10
6.078956944652045
 20
4.471029133438556
 10
6.083878204494565
 20
4.475950393281076
 10
6.08781521236858
 20
4.480871653123596
 10
6.0927364722111
 20
4.48677716493462
 10
6.095689228116611
 20
4.492682676745643
 10
6.099626235990628
 20
4.498588188556666
 10
6.102578991896139
 20
4.505477952336194
 10
6.104547495833147
 20
4.511383464147218
 10
6.106515999770156
 20
4.518273227926746
 10
6.108484503707163
 20
4.524178739737769
 10
6.108484503707163
 20
4.530084251548792
 10
6.108484503707163
 20
4.534021259422809
  0
LWPOLYLINE
  5
23C0
330
1E
100
AcDbEntity
  8
0
100
AcDbPolyline
 90
        7
 70
     0
 43
0.0
 10
5.934271905281967
 20
4.543863779107848
 10
5.934271905281967
 20
4.542879527139344
 10
5.933287653313463
 20
4.542879527139344
 10
5.932303401344958
 20
4.540911023202336
 10
5.93033489740795
 20
4.538942519265328
 10
5.928366393470943
 20
4.534021259422809
 10
5.926397889533935
 20
4.528115747611785
  0
LWPOLYLINE
  5
23C9
330
1E
100
AcDbEntity
  8
0
100
AcDbPolyline
 90
        3
 70
     0
 43
0.0
 10
5.936240409218974
 20
4.544848031076352
 10
5.935256157250471
 20
4.543863779107848
 10
5.934271905281967
 20
4.543863779107848
  0
LWPOLYLINE
  5
23CE
330
1E
100
AcDbEntity
  8
0
100
AcDbPolyline
 90
       12
 70
     0
 43
0.0
 10
5.926397889533935
 20
4.504493700367691
 10
5.927382141502439
 20
4.501540944462179
 10
5.927382141502439
 20
4.49957244052517
 10
5.927382141502439
 20
4.497603936588163
 10
5.927382141502439
 20
4.496619684619659
 10
5.927382141502439
 20
4.492682676745643
 10
5.926397889533935
 20
4.489729920840131
 10
5.926397889533935
 20
4.487761416903124
 10
5.926397889533935
 20
4.485792912966116
 10
5.926397889533935
 20
4.483824409029107
 10
5.925413637565432
 20
4.482840157060604
 10
5.925413637565432
 20
4.480871653123596
  0
LWPOLYLINE
  5
23DC
330
1E
100
AcDbEntity
  8
0
100
AcDbPolyline
 90
       15
 70
     0
 43
0.0
 10
5.972657732053621
 20
4.600950393281076
 10
5.972657732053621
 20
4.597997637375565
 10
5.972657732053621
 20
4.596029133438556
 10
5.971673480085115
 20
4.591107873596037
 10
5.970689228116611
 20
4.586186613753516
 10
5.968720724179604
 20
4.581265353910998
 10
5.966752220242597
 20
4.576344094068478
 10
5.963799464337084
 20
4.571422834225958
 10
5.960846708431573
 20
4.566501574383439
 10
5.957893952526061
 20
4.561580314540918
 10
5.953956944652045
 20
4.557643306666903
 10
5.95001993677803
 20
4.554690550761391
 10
5.946082928904013
 20
4.550753542887376
 10
5.944114424967006
 20
4.549769290918872
 10
5.942145921029998
 20
4.548785038950367
  0
LWPOLYLINE
  5
23ED
330
1E
100
AcDbEntity
  8
0
100
AcDbPolyline
 90
        9
 70
     0
 43
0.0
 10
0.9903742674866904
 20
1.564533070446432
 10
0.9893900155181864
 20
1.564533070446432
 10
0.9893900155181864
 20
1.565517322414936
 10
0.9884057635496825
 20
1.56650157438344
 10
0.9874215115811786
 20
1.568470078320448
 10
0.9864372596126747
 20
1.570438582257455
 10
0.9854530076441708
 20
1.573391338162967
 10
0.9854530076441708
 20
1.575359842099976
 10
0.9854530076441708
 20
1.577328346036983
  0
LWPOLYLINE
  5
23F8
330
1E
100
AcDbEntity
  8
0
100
AcDbPolyline
 90
        9
 70
     0
 43
0.0
 10
0.9795474958331471
 20
1.545832283044857
 10
0.9834845037071628
 20
1.543863779107849
 10
0.9874215115811786
 20
1.541895275170841
 10
0.9923427714236982
 20
1.541895275170841
 10
0.9972640312662178
 20
1.541895275170841
 10
1.002185291108737
 20
1.541895275170841
 10
1.007106550951257
 20
1.543863779107849
 10
1.011043558825273
 20
1.545832283044857
 10
1.014980566699288
 20
1.547800786981865
  0
LINE
  5
2403
330
1E
100
AcDbEntity
  8
0
100
AcDbLine
 10
1.015964818667792
 20
1.547800786981865
 30
0.0
 11
1.015964818667792
 21
1.548785038950369
 31
0.0
  0
LWPOLYLINE
  5
2404
330
1E
100
AcDbEntity
  8
0
100
AcDbPolyline
 90
        9
 70
     0
 43
0.0
 10
1.013996314730784
 20
1.546816535013361
 10
1.015964818667792
 20
1.545832283044857
 10
1.016949070636296
 20
1.545832283044857
 10
1.018917574573304
 20
1.545832283044857
 10
1.020886078510312
 20
1.546816535013361
 10
1.02285458244732
 20
1.548785038950369
 10
1.024823086384328
 20
1.550753542887377
 10
1.025807338352832
 20
1.552722046824385
 10
1.026791590321336
 20
1.554690550761392
  0
LINE
  5
240F
330
1E
100
AcDbEntity
  8
0
100
AcDbLine
 10
1.021870330478816
 20
1.547800786981865
 30
0.0
 11
1.021870330478816
 21
1.547800786981865
 31
0.0
  0
LWPOLYLINE
  5
2410
330
1E
100
AcDbEntity
  8
0
100
AcDbPolyline
 90
       10
 70
     0
 43
0.0
 10
0.8486419840221234
 20
1.644257479895251
 10
0.8486419840221234
 20
1.640320472021235
 10
0.8496262359906275
 20
1.637367716115723
 10
0.8506104879591314
 20
1.6314622043047
 10
0.8525789918961393
 20
1.625556692493676
 10
0.8545474958331471
 20
1.62161968461966
 10
0.857500251738659
 20
1.617682676745644
 10
0.8604530076441708
 20
1.614729920840133
 10
0.8643900155181864
 20
1.611777164934621
 10
0.8653742674866904
 20
1.611777164934621
  0
LWPOLYLINE
  5
241C
330
1E
100
AcDbEntity
  8
0
100
AcDbPolyline
 90
        9
 70
     0
 43
0.0
 10
0.6813191493764542
 20
1.742682676745644
 10
0.6803348974079503
 20
1.743666928714149
 10
0.6793506454394464
 20
1.743666928714149
 10
0.6783663934709425
 20
1.744651180682653
 10
0.6773821415024385
 20
1.74661968461966
 10
0.6763978895339346
 20
1.749572440525172
 10
0.6763978895339346
 20
1.752525196430684
 10
0.6763978895339346
 20
1.754493700367691
 10
0.6763978895339346
 20
1.7564622043047
  0
LWPOLYLINE
  5
2427
330
1E
100
AcDbEntity
  8
0
100
AcDbPolyline
 90
        9
 70
     0
 43
0.0
 10
0.6704923777229109
 20
1.72398188934407
 10
0.6744293855969266
 20
1.722013385407062
 10
0.6783663934709424
 20
1.721029133438558
 10
0.683287653313462
 20
1.720044881470054
 10
0.6872246611874778
 20
1.720044881470054
 10
0.6921459210299974
 20
1.721029133438558
 10
0.6970671808725172
 20
1.722013385407062
 10
0.7019884407150369
 20
1.72398188934407
 10
0.7059254485890527
 20
1.725950393281078
  0
LINE
  5
2432
330
1E
100
AcDbEntity
  8
0
100
AcDbLine
 10
0.7059254485890527
 20
1.726934645249581
 30
0.0
 11
0.7069097005575565
 21
1.726934645249581
 31
0.0
  0
LWPOLYLINE
  5
2433
330
1E
100
AcDbEntity
  8
0
100
AcDbPolyline
 90
        9
 70
     0
 43
0.0
 10
0.7049411966205487
 20
1.724966141312574
 10
0.7059254485890527
 20
1.724966141312574
 10
0.7078939525260605
 20
1.72398188934407
 10
0.7098624564630684
 20
1.724966141312574
 10
0.7118309604000763
 20
1.725950393281078
 10
0.7137994643370841
 20
1.726934645249581
 10
0.715767968274092
 20
1.72890314918659
 10
0.7167522202425961
 20
1.730871653123597
 10
0.7177364722111
 20
1.733824409029109
  0
LINE
  5
243E
330
1E
100
AcDbEntity
  8
0
100
AcDbLine
 10
0.7128152123685801
 20
1.725950393281078
 30
0.0
 11
0.7128152123685801
 21
1.725950393281078
 31
0.0
  0
LWPOLYLINE
  5
243F
330
1E
100
AcDbEntity
  8
0
100
AcDbPolyline
 90
       10
 70
     0
 43
0.0
 10
0.5395868659118874
 20
1.822407086194464
 10
0.5395868659118874
 20
1.819454330288952
 10
0.5395868659118874
 20
1.815517322414936
 10
0.5415553698488952
 20
1.809611810603912
 10
0.5425396218173991
 20
1.804690550761392
 10
0.545492377722911
 20
1.799769290918873
 10
0.5484451336284227
 20
1.795832283044857
 10
0.5513978895339346
 20
1.792879527139345
 10
0.5543506454394464
 20
1.789926771233833
 10
0.5553348974079503
 20
1.789926771233833
  0
LWPOLYLINE
  5
244B
330
1E
100
AcDbEntity
  8
0
100
AcDbPolyline
 90
       17
 70
     0
 43
0.0
 10
5.682303401344958
 20
4.593076377533045
 10
5.684271905281967
 20
4.594060629501549
 10
5.685256157250471
 20
4.595044881470053
 10
5.692145921029998
 20
4.598981889344068
 10
5.698051432841021
 20
4.602918897218085
 10
5.704941196620548
 20
4.6068559050921
 10
5.711830960400076
 20
4.61177716493462
 10
5.722657732053621
 20
4.617682676745644
 10
5.73250025173866
 20
4.624572440525171
 10
5.734468755675667
 20
4.626540944462179
 10
5.736437259612674
 20
4.627525196430683
 10
5.739390015518187
 20
4.629493700367691
 10
5.742342771423698
 20
4.631462204304699
 10
5.744311275360706
 20
4.633430708241707
 10
5.747264031266219
 20
4.635399212178715
 10
5.75021678717173
 20
4.637367716115722
 10
5.752185291108737
 20
4.638351968084226
  0
LWPOLYLINE
  5
245E
330
1E
100
AcDbEntity
  8
0
100
AcDbPolyline
 90
       15
 70
     0
 43
0.0
 10
5.758090802919761
 20
4.642288975958242
 10
5.761043558825273
 20
4.64425747989525
 10
5.763996314730785
 20
4.646225983832257
 10
5.768917574573306
 20
4.650162991706273
 10
5.773838834415824
 20
4.654099999580289
 10
5.778760094258345
 20
4.660005511391313
 10
5.78269710213236
 20
4.664926771233832
 10
5.786634110006376
 20
4.670832283044855
 10
5.790571117880391
 20
4.677722046824383
 10
5.793523873785904
 20
4.683627558635407
 10
5.795492377722911
 20
4.690517322414935
 10
5.797460881659919
 20
4.696422834225958
 10
5.798445133628423
 20
4.703312598005485
 10
5.799429385596926
 20
4.708233857848005
 10
5.799429385596926
 20
4.713155117690525
  0
LWPOLYLINE
  5
246F
330
1E
100
AcDbEntity
  8
0
100
AcDbPolyline
 90
        7
 70
     0
 43
0.0
 10
5.62521678717173
 20
4.722013385407061
 10
5.624232535203226
 20
4.722013385407061
 10
5.624232535203226
 20
4.721029133438557
 10
5.622264031266219
 20
4.719060629501549
 10
5.621279779297715
 20
4.717092125564541
 10
5.618327023392202
 20
4.712170865722022
 10
5.617342771423698
 20
4.706265353910998
  0
LWPOLYLINE
  5
2478
330
1E
100
AcDbEntity
  8
0
100
AcDbPolyline
 90
        3
 70
     0
 43
0.0
 10
5.627185291108737
 20
4.723981889344068
 10
5.626201039140234
 20
4.722997637375565
 10
5.62521678717173
 20
4.722013385407061
  0
LWPOLYLINE
  5
247D
330
1E
100
AcDbEntity
  8
0
100
AcDbPolyline
 90
       12
 70
     0
 43
0.0
 10
5.617342771423698
 20
4.682643306666903
 10
5.617342771423698
 20
4.680674802729896
 10
5.617342771423698
 20
4.678706298792888
 10
5.618327023392202
 20
4.676737794855879
 10
5.618327023392202
 20
4.674769290918872
 10
5.617342771423698
 20
4.670832283044856
 10
5.617342771423698
 20
4.667879527139344
 10
5.617342771423698
 20
4.666895275170841
 10
5.617342771423698
 20
4.664926771233833
 10
5.616358519455195
 20
4.662958267296825
 10
5.616358519455195
 20
4.660989763359816
 10
5.616358519455195
 20
4.660005511391313
  0
LWPOLYLINE
  5
248B
330
1E
100
AcDbEntity
  8
0
100
AcDbPolyline
 90
       15
 70
     0
 43
0.0
 10
5.663602613943384
 20
4.779099999580289
 10
5.663602613943384
 20
4.777131495643281
 10
5.66261836197488
 20
4.775162991706274
 10
5.66261836197488
 20
4.770241731863753
 10
5.660649858037873
 20
4.765320472021234
 10
5.659665606069369
 20
4.760399212178715
 10
5.656712850163856
 20
4.755477952336194
 10
5.654744346226848
 20
4.749572440525171
 10
5.651791590321337
 20
4.744651180682652
 10
5.647854582447321
 20
4.740714172808636
 10
5.64490182654181
 20
4.73677716493462
 10
5.640964818667793
 20
4.732840157060604
 10
5.637027810793778
 20
4.729887401155092
 10
5.635059306856769
 20
4.727918897218085
 10
5.633090802919761
 20
4.726934645249581
  0
LWPOLYLINE
  5
249C
330
1E
100
AcDbEntity
  8
0
100
AcDbPolyline
 90
        9
 70
     0
 43
0.0
 10
1.874232535203226
 20
3.411974015328321
 10
1.87521678717173
 20
3.410989763359817
 10
1.877185291108738
 20
3.410989763359817
 10
1.879153795045746
 20
3.410989763359817
 10
1.881122298982754
 20
3.411974015328321
 10
1.883090802919761
 20
3.412958267296825
 10
1.885059306856769
 20
3.414926771233833
 10
1.886043558825273
 20
3.417879527139345
 10
1.887027810793777
 20
3.419848031076353
  0
LWPOLYLINE
  5
24A7
330
1E
100
AcDbEntity
  8
0
100
AcDbPolyline
 90
        9
 70
     0
 43
0.0
 10
1.775807338352832
 20
3.499572440525172
 10
1.773838834415824
 20
3.499572440525172
 10
1.77285458244732
 20
3.499572440525172
 10
1.766949070636297
 20
3.500556692493676
 10
1.761043558825273
 20
3.500556692493676
 10
1.758090802919761
 20
3.499572440525172
 10
1.755138047014249
 20
3.499572440525172
 10
1.753169543077242
 20
3.498588188556668
 10
1.75021678717173
 20
3.497603936588164
  0
LWPOLYLINE
  5
24B2
330
1E
100
AcDbEntity
  8
0
100
AcDbPolyline
 90
       15
 70
     0
 43
0.0
 10
1.840767968274092
 20
3.49169842477714
 10
1.838799464337084
 20
3.49169842477714
 10
1.835846708431572
 20
3.490714172808636
 10
1.832893952526061
 20
3.490714172808636
 10
1.829941196620548
 20
3.490714172808636
 10
1.826988440715037
 20
3.490714172808636
 10
1.824035684809525
 20
3.49169842477714
 10
1.81517741709299
 20
3.492682676745644
 10
1.807303401344958
 20
3.493666928714148
 10
1.799429385596927
 20
3.494651180682652
 10
1.791555369848895
 20
3.49661968461966
 10
1.786634110006375
 20
3.497603936588164
 10
1.781712850163856
 20
3.498588188556668
 10
1.778760094258344
 20
3.498588188556668
 10
1.775807338352832
 20
3.499572440525172
  0
LWPOLYLINE
  5
24C3
330
1E
100
AcDbEntity
  8
0
100
AcDbPolyline
 90
       17
 70
     0
 43
0.0
 10
4.99529552732921
 20
5.20921810981651
 10
4.997264031266219
 20
5.210202361785014
 10
4.999232535203226
 20
5.211186613753517
 10
5.00513804701425
 20
5.215123621627533
 10
5.011043558825273
 20
5.219060629501549
 10
5.018917574573306
 20
5.222997637375565
 10
5.025807338352832
 20
5.22693464524958
 10
5.035649858037873
 20
5.233824409029108
 10
5.045492377722911
 20
5.239729920840131
 10
5.047460881659919
 20
5.24169842477714
 10
5.050413637565432
 20
5.243666928714148
 10
5.052382141502439
 20
5.245635432651155
 10
5.05533489740795
 20
5.247603936588163
 10
5.058287653313463
 20
5.249572440525171
 10
5.060256157250471
 20
5.251540944462179
 10
5.063208913155982
 20
5.252525196430683
 10
5.066161669061495
 20
5.254493700367691
  0
LWPOLYLINE
  5
24D6
330
1E
100
AcDbEntity
  8
0
100
AcDbPolyline
 90
       15
 70
     0
 43
0.0
 10
5.072067180872517
 20
5.257446456273203
 10
5.07501993677803
 20
5.259414960210211
 10
5.076988440715037
 20
5.261383464147218
 10
5.082893952526061
 20
5.265320472021234
 10
5.08781521236858
 20
5.270241731863753
 10
5.091752220242597
 20
5.275162991706274
 10
5.096673480085115
 20
5.281068503517297
 10
5.099626235990628
 20
5.28697401532832
 10
5.103563243864643
 20
5.292879527139344
 10
5.106515999770156
 20
5.299769290918872
 10
5.108484503707163
 20
5.305674802729896
 10
5.110453007644171
 20
5.312564566509423
 10
5.112421511581178
 20
5.319454330288951
 10
5.112421511581178
 20
5.32437559013147
 10
5.112421511581178
 20
5.329296849973991
  0
LWPOLYLINE
  5
24E7
330
1E
100
AcDbEntity
  8
0
100
AcDbPolyline
 90
        7
 70
     0
 43
0.0
 10
4.938208913155982
 20
5.338155117690526
 10
4.938208913155982
 20
5.337170865722022
 10
4.937224661187478
 20
5.337170865722022
 10
4.936240409218974
 20
5.335202361785014
 10
4.934271905281967
 20
5.333233857848005
 10
4.932303401344958
 20
5.328312598005486
 10
4.93033489740795
 20
5.322407086194463
  0
LWPOLYLINE
  5
24F0
330
1E
100
AcDbEntity
  8
0
100
AcDbPolyline
 90
        3
 70
     0
 43
0.0
 10
4.940177417092989
 20
5.339139369659029
 10
4.939193165124486
 20
5.339139369659029
 10
4.938208913155982
 20
5.338155117690526
  0
LWPOLYLINE
  5
24F5
330
1E
100
AcDbEntity
  8
0
100
AcDbPolyline
 90
       13
 70
     0
 43
0.0
 10
4.93033489740795
 20
5.298785038950368
 10
4.931319149376454
 20
5.29681653501336
 10
4.931319149376454
 20
5.293863779107848
 10
4.931319149376454
 20
5.292879527139344
 10
4.931319149376454
 20
5.290911023202337
 10
4.931319149376454
 20
5.28697401532832
 10
4.93033489740795
 20
5.284021259422809
 10
4.93033489740795
 20
5.282052755485801
 10
4.93033489740795
 20
5.280084251548793
 10
4.93033489740795
 20
5.278115747611785
 10
4.929350645439447
 20
5.277131495643281
 10
4.929350645439447
 20
5.276147243674778
 10
4.929350645439447
 20
5.275162991706274
  0
LWPOLYLINE
  5
2504
330
1E
100
AcDbEntity
  8
0
100
AcDbPolyline
 90
       15
 70
     0
 43
0.0
 10
4.976594739927636
 20
5.395241731863753
 10
4.976594739927636
 20
5.393273227926746
 10
4.976594739927636
 20
5.390320472021234
 10
4.975610487959132
 20
5.386383464147218
 10
4.974626235990628
 20
5.381462204304699
 10
4.972657732053621
 20
5.375556692493675
 10
4.970689228116611
 20
5.370635432651155
 10
4.9677364722111
 20
5.365714172808636
 10
4.964783716305589
 20
5.360792912966116
 10
4.961830960400076
 20
5.3568559050921
 10
4.957893952526061
 20
5.35193464524958
 10
4.953956944652045
 20
5.348981889344068
 10
4.95001993677803
 20
5.346029133438557
 10
4.948051432841021
 20
5.344060629501549
 10
4.946082928904013
 20
5.343076377533045
  0
LWPOLYLINE
  5
2515
330
1E
100
AcDbEntity
  8
0
100
AcDbPolyline
 90
       12
 70
     0
 43
0.0
 10
4.872264031266219
 20
5.212170865722022
 10
4.87521678717173
 20
5.197407086194463
 10
4.884075054888265
 20
5.183627558635407
 10
4.895886078510313
 20
5.174769290918872
 10
4.906712850163856
 20
5.174769290918872
 10
4.91261836197488
 20
5.1816590546984
 10
4.91261836197488
 20
5.195438582257454
 10
4.906712850163856
 20
5.210202361785014
 10
4.895886078510313
 20
5.222013385407061
 10
4.884075054888265
 20
5.22693464524958
 10
4.87521678717173
 20
5.222997637375565
 10
4.872264031266219
 20
5.212170865722022
  0
LWPOLYLINE
  5
2523
330
1E
100
AcDbEntity
  8
0
100
AcDbPolyline
 90
       14
 70
     0
 43
0.0
 10
0.7187207241796039
 20
1.74661968461966
 10
0.7157679682740921
 20
1.763351968084228
 10
0.7069097005575566
 20
1.77909999958029
 10
0.6950986769355093
 20
1.790911023202338
 10
0.6823034013449582
 20
1.796816535013361
 10
0.6714766296914149
 20
1.794848031076353
 10
0.6655711178803913
 20
1.785005511391314
 10
0.6655711178803913
 20
1.770241731863754
 10
0.6714766296914149
 20
1.753509448399188
 10
0.6823034013449582
 20
1.738745668871628
 10
0.6950986769355093
 20
1.729887401155093
 10
0.7069097005575565
 20
1.727918897218086
 10
0.7157679682740921
 20
1.733824409029109
 10
0.7187207241796039
 20
1.74661968461966
  0
LWPOLYLINE
  5
2533
330
1E
100
AcDbEntity
  8
0
100
AcDbPolyline
 90
       14
 70
     0
 43
0.0
 10
1.027775842289839
 20
1.568470078320448
 10
1.024823086384328
 20
1.584218109816511
 10
1.016949070636296
 20
1.600950393281078
 10
1.004153795045745
 20
1.612761416903125
 10
0.9913585194551943
 20
1.618666928714149
 10
0.980531747801651
 20
1.615714172808637
 10
0.9746262359906275
 20
1.605871653123597
 10
0.9746262359906275
 20
1.591107873596039
 10
0.980531747801651
 20
1.574375590131471
 10
0.9913585194551943
 20
1.559611810603912
 10
1.004153795045745
 20
1.550753542887377
 10
1.016949070636296
 20
1.548785038950369
 10
1.024823086384328
 20
1.555674802729896
 10
1.027775842289839
 20
1.568470078320448
  0
LINE
  5
2543
330
1E
100
AcDbEntity
  8
0
100
AcDbLine
 10
1.332893952526061
 20
4.167879527139344
 30
0.0
 11
1.321082928904013
 21
4.175753542887376
 31
0.0
  0
LWPOLYLINE
  5
2544
330
1E
100
AcDbEntity
  8
0
100
AcDbPolyline
 90
        4
 70
     0
 43
0.0
 10
1.37521678717173
 20
4.009414960210211
 10
1.386043558825273
 20
4.044848031076353
 10
1.390964818667793
 20
4.078312598005487
 10
1.388996314730785
 20
4.108824409029109
  0
LWPOLYLINE
  5
254A
330
1E
100
AcDbEntity
  8
0
100
AcDbPolyline
 90
        3
 70
     0
 43
0.0
 10
1.357500251738659
 20
4.160989763359817
 10
1.345689228116612
 20
4.165911023202337
 10
1.332893952526061
 20
4.167879527139344
  0
LWPOLYLINE
  5
254F
330
1E
100
AcDbEntity
  8
0
100
AcDbPolyline
 90
        3
 70
     0
 43
0.0
 10
1.321082928904013
 20
4.175753542887376
 10
1.333878204494564
 20
4.172800786981865
 10
1.344704976148108
 20
4.167879527139344
  0
LINE
  5
2554
330
1E
100
AcDbEntity
  8
0
100
AcDbLine
 10
1.380138047014249
 20
3.984808660997613
 30
0.0
 11
1.388996314730785
 21
3.988745668871628
 31
0.0
  0
LWPOLYLINE
  5
2555
330
1E
100
AcDbEntity
  8
0
100
AcDbPolyline
 90
        6
 70
     0
 43
0.0
 10
1.480531747801651
 20
4.050753542887376
 10
1.498248283234722
 20
4.057643306666903
 10
1.518917574573305
 20
4.059611810603912
 10
1.539586865911887
 20
4.0566590546984
 10
1.556319149376454
 20
4.048785038950368
 10
1.566161669061494
 20
4.036974015328321
  0
LWPOLYLINE
  5
255D
330
1E
100
AcDbEntity
  8
0
100
AcDbPolyline
 90
        3
 70
     0
 43
0.0
 10
1.466752220242596
 20
4.036974015328321
 10
1.471673480085116
 20
4.044848031076353
 10
1.480531747801651
 20
4.050753542887376
  0
LINE
  5
2562
330
1E
100
AcDbEntity
  8
0
100
AcDbLine
 10
1.483484503707163
 20
3.910989763359817
 30
0.0
 11
1.674429385596927
 21
4.021225983832258
 31
0.0
  0
LINE
  5
2563
330
1E
100
AcDbEntity
  8
0
100
AcDbLine
 10
1.390964818667793
 20
4.072407086194463
 30
0.0
 11
1.50021678717173
 21
4.135399212178715
 31
0.0
  0
LINE
  5
2564
330
1E
100
AcDbEntity
  8
0
100
AcDbLine
 10
1.388996314730785
 20
3.988745668871628
 30
0.0
 11
1.371279779297714
 21
3.998588188556668
 31
0.0
  0
LINE
  5
2565
330
1E
100
AcDbEntity
  8
0
100
AcDbLine
 10
1.483484503707163
 20
3.924769290918872
 30
0.0
 11
1.380138047014249
 21
3.984808660997613
 31
0.0
  0
LINE
  5
2566
330
1E
100
AcDbEntity
  8
0
100
AcDbLine
 10
1.483484503707163
 20
3.924769290918872
 30
0.0
 11
1.674429385596927
 21
4.035005511391313
 31
0.0
  0
LINE
  5
2567
330
1E
100
AcDbEntity
  8
0
100
AcDbLine
 10
1.674429385596927
 20
4.035005511391313
 30
0.0
 11
1.50021678717173
 21
4.135399212178715
 31
0.0
  0
LWPOLYLINE
  5
2568
330
1E
100
AcDbEntity
  8
0
100
AcDbPolyline
 90
       16
 70
     0
 43
0.0
 10
1.552382141502438
 20
4.023194487769266
 10
1.564193165124486
 20
4.034021259422809
 10
1.567145921029998
 20
4.045832283044857
 10
1.562224661187478
 20
4.057643306666903
 10
1.548445133628423
 20
4.067485826351943
 10
1.529744346226848
 20
4.072407086194463
 10
1.508090802919761
 20
4.073391338162966
 10
1.488405763549683
 20
4.069454330288952
 10
1.473641984022123
 20
4.060596062572416
 10
1.465767968274092
 20
4.048785038950368
 10
1.466752220242596
 20
4.036974015328321
 10
1.476594739927635
 20
4.026147243674778
 10
1.493327023392202
 20
4.018273227926746
 10
1.513996314730785
 20
4.014336220052731
 10
1.534665606069367
 20
4.016304723989739
 10
1.552382141502438
 20
4.023194487769266
  0
LINE
  5
257A
330
1E
100
AcDbEntity
  8
0
100
AcDbLine
 10
2.327972692683541
 20
4.555674802729896
 30
0.0
 11
2.475610487959131
 21
4.640320472021235
 31
0.0
  0
LINE
  5
257B
330
1E
100
AcDbEntity
  8
0
100
AcDbLine
 10
1.947067180872517
 20
4.335202361785015
 30
0.0
 11
2.233484503707163
 21
4.500556692493676
 31
0.0
  0
LINE
  5
257C
330
1E
100
AcDbEntity
  8
0
100
AcDbLine
 10
1.704941196620549
 20
4.195438582257455
 30
0.0
 11
1.852578991896139
 21
4.281068503517298
 31
0.0
  0
LWPOLYLINE
  5
257D
330
1E
100
AcDbEntity
  8
0
100
AcDbPolyline
 90
        3
 70
     0
 43
0.0
 10
2.520886078510312
 20
4.478903149186589
 10
2.518917574573305
 20
4.473981889344069
 10
2.513996314730785
 20
4.470044881470053
  0
LINE
  5
2582
330
1E
100
AcDbEntity
  8
0
100
AcDbLine
 10
2.506122298982754
 20
4.465123621627533
 30
0.0
 11
2.513996314730785
 21
4.470044881470053
 31
0.0
  0
LINE
  5
2583
330
1E
100
AcDbEntity
  8
0
100
AcDbLine
 10
2.513996314730785
 20
4.502525196430683
 30
0.0
 11
2.491358519455194
 21
4.515320472021235
 31
0.0
  0
LINE
  5
2584
330
1E
100
AcDbEntity
  8
0
100
AcDbLine
 10
2.506122298982754
 20
4.479887401155092
 30
0.0
 11
2.491358519455194
 21
4.488745668871628
 31
0.0
  0
LINE
  5
2585
330
1E
100
AcDbEntity
  8
0
100
AcDbLine
 10
2.506122298982754
 20
4.479887401155092
 30
0.0
 11
2.513996314730785
 21
4.483824409029109
 31
0.0
  0
LWPOLYLINE
  5
2586
330
1E
100
AcDbEntity
  8
0
100
AcDbPolyline
 90
        3
 70
     0
 43
0.0
 10
2.513996314730785
 20
4.483824409029109
 10
2.520886078510312
 20
4.493666928714148
 10
2.513996314730785
 20
4.502525196430683
  0
LWPOLYLINE
  5
258B
330
1E
100
AcDbEntity
  8
0
100
AcDbPolyline
 90
        3
 70
     0
 43
0.0
 10
2.491358519455194
 20
4.488745668871628
 10
2.49529552732921
 20
4.478903149186589
 10
2.506122298982754
 20
4.479887401155092
  0
LINE
  5
2590
330
1E
100
AcDbEntity
  8
0
100
AcDbLine
 10
2.491358519455194
 20
4.646225983832258
 30
0.0
 11
2.491358519455194
 21
4.488745668871628
 31
0.0
  0
LWPOLYLINE
  5
2591
330
1E
100
AcDbEntity
  8
0
100
AcDbPolyline
 90
        3
 70
     0
 43
0.0
 10
2.301397889533935
 20
4.755477952336195
 10
2.307303401344958
 20
4.757446456273203
 10
2.312224661187478
 20
4.7564622043047
  0
LINE
  5
2596
330
1E
100
AcDbEntity
  8
0
100
AcDbLine
 10
2.475610487959131
 20
4.655084251548794
 30
0.0
 11
2.301397889533935
 21
4.755477952336195
 31
0.0
  0
LWPOLYLINE
  5
2597
330
1E
100
AcDbEntity
  8
0
100
AcDbPolyline
 90
        3
 70
     0
 43
0.0
 10
2.475610487959131
 20
4.655084251548794
 10
2.486437259612674
 20
4.656068503517298
 10
2.491358519455194
 20
4.646225983832258
  0
LWPOLYLINE
  5
259C
330
1E
100
AcDbEntity
  8
0
100
AcDbPolyline
 90
       10
 70
     0
 43
0.0
 10
2.329941196620548
 20
4.633430708241707
 10
2.335846708431572
 20
4.641304723989739
 10
2.336830960400076
 20
4.651147243674778
 10
2.331909700557556
 20
4.659021259422809
 10
2.323051432841021
 20
4.665911023202337
 10
2.31025615725047
 20
4.670832283044857
 10
2.296476629691415
 20
4.672800786981865
 10
2.28269710213236
 20
4.671816535013361
 10
2.270886078510312
 20
4.667879527139344
 10
2.267933322604801
 20
4.666895275170841
  0
LWPOLYLINE
  5
25A8
330
1E
100
AcDbEntity
  8
0
100
AcDbPolyline
 90
        3
 70
     0
 43
0.0
 10
2.318130172998501
 20
4.626540944462179
 10
2.325019936778029
 20
4.629493700367691
 10
2.329941196620548
 20
4.633430708241707
  0
LWPOLYLINE
  5
25AD
330
1E
100
AcDbEntity
  8
0
100
AcDbPolyline
 90
       11
 70
     0
 43
0.0
 10
2.261043558825273
 20
4.662958267296826
 10
2.256122298982754
 20
4.659021259422809
 10
2.251201039140234
 20
4.652131495643281
 10
2.251201039140234
 20
4.64425747989525
 10
2.254153795045746
 20
4.637367716115723
 10
2.263012062762281
 20
4.630477952336195
 10
2.273838834415824
 20
4.625556692493676
 10
2.288602613943383
 20
4.622603936588164
 10
2.303366393470942
 20
4.623588188556668
 10
2.317145921029998
 20
4.626540944462179
 10
2.318130172998501
 20
4.626540944462179
  0
LWPOLYLINE
  5
25BA
330
1E
100
AcDbEntity
  8
0
100
AcDbPolyline
 90
        3
 70
     0
 43
0.0
 10
2.267933322604801
 20
4.666895275170841
 10
2.263996314730785
 20
4.664926771233833
 10
2.261043558825273
 20
4.662958267296826
  0
LINE
  5
25BF
330
1E
100
AcDbEntity
  8
0
100
AcDbLine
 10
2.154744346226848
 20
4.670832283044857
 30
0.0
 11
2.301397889533935
 21
4.755477952336195
 31
0.0
  0
LINE
  5
25C0
330
1E
100
AcDbEntity
  8
0
100
AcDbLine
 10
2.327972692683541
 20
4.569454330288952
 30
0.0
 11
2.317145921029998
 21
4.575359842099975
 31
0.0
  0
LINE
  5
25C1
330
1E
100
AcDbEntity
  8
0
100
AcDbLine
 10
2.327972692683541
 20
4.569454330288952
 30
0.0
 11
2.475610487959131
 21
4.655084251548794
 31
0.0
  0
LWPOLYLINE
  5
25C2
330
1E
100
AcDbEntity
  8
0
100
AcDbPolyline
 90
        3
 70
     0
 43
0.0
 10
2.319114424967005
 20
4.572407086194463
 10
2.322067180872517
 20
4.568470078320447
 10
2.327972692683541
 20
4.569454330288952
  0
LWPOLYLINE
  5
25C7
330
1E
100
AcDbEntity
  8
0
100
AcDbPolyline
 90
        3
 70
     0
 43
0.0
 10
2.130138047014249
 20
4.677722046824384
 10
2.136043558825273
 20
4.679690550761392
 10
2.140964818667793
 20
4.678706298792889
  0
LINE
  5
25CC
330
1E
100
AcDbEntity
  8
0
100
AcDbLine
 10
2.304350645439446
 20
4.577328346036983
 30
0.0
 11
2.130138047014249
 21
4.677722046824384
 31
0.0
  0
LWPOLYLINE
  5
25CD
330
1E
100
AcDbEntity
  8
0
100
AcDbPolyline
 90
        3
 70
     0
 43
0.0
 10
2.304350645439446
 20
4.577328346036983
 10
2.313208913155982
 20
4.579296849973991
 10
2.319114424967005
 20
4.572407086194463
  0
LINE
  5
25D2
330
1E
100
AcDbEntity
  8
0
100
AcDbLine
 10
2.130138047014249
 20
4.677722046824384
 30
0.0
 11
2.082893952526061
 21
4.651147243674778
 31
0.0
  0
LINE
  5
25D3
330
1E
100
AcDbEntity
  8
0
100
AcDbLine
 10
2.257106550951257
 20
4.550753542887376
 30
0.0
 11
2.082893952526061
 21
4.651147243674778
 31
0.0
  0
LINE
  5
25D4
330
1E
100
AcDbEntity
  8
0
100
AcDbLine
 10
2.257106550951257
 20
4.550753542887376
 30
0.0
 11
2.304350645439446
 21
4.577328346036983
 31
0.0
  0
LWPOLYLINE
  5
25D5
330
1E
100
AcDbEntity
  8
0
100
AcDbPolyline
 90
        3
 70
     0
 43
0.0
 10
2.068130172998501
 20
4.628509448399187
 10
2.074035684809525
 20
4.641304723989739
 10
2.082893952526061
 20
4.651147243674778
  0
LINE
  5
25DA
330
1E
100
AcDbEntity
  8
0
100
AcDbLine
 10
2.242342771423698
 20
4.528115747611786
 30
0.0
 11
2.068130172998501
 21
4.628509448399187
 31
0.0
  0
LWPOLYLINE
  5
25DB
330
1E
100
AcDbEntity
  8
0
100
AcDbPolyline
 90
        3
 70
     0
 43
0.0
 10
2.242342771423698
 20
4.528115747611786
 10
2.248248283234722
 20
4.540911023202337
 10
2.257106550951257
 20
4.550753542887376
  0
LWPOLYLINE
  5
25E0
330
1E
100
AcDbEntity
  8
0
100
AcDbPolyline
 90
        3
 70
     0
 43
0.0
 10
2.059271905281966
 20
4.615714172808637
 10
2.06517741709299
 20
4.62161968461966
 10
2.068130172998501
 20
4.628509448399187
  0
LINE
  5
25E5
330
1E
100
AcDbEntity
  8
0
100
AcDbLine
 10
2.233484503707163
 20
4.515320472021235
 30
0.0
 11
2.059271905281966
 21
4.615714172808637
 31
0.0
  0
LWPOLYLINE
  5
25E6
330
1E
100
AcDbEntity
  8
0
100
AcDbPolyline
 90
        3
 70
     0
 43
0.0
 10
2.233484503707163
 20
4.515320472021235
 10
2.239390015518186
 20
4.520241731863754
 10
2.242342771423698
 20
4.528115747611786
  0
LWPOLYLINE
  5
25EB
330
1E
100
AcDbEntity
  8
0
100
AcDbPolyline
 90
       10
 70
     0
 43
0.0
 10
2.135059306856769
 20
4.521225983832258
 10
2.140964818667793
 20
4.52909999958029
 10
2.140964818667793
 20
4.537958267296826
 10
2.137027810793777
 20
4.545832283044857
 10
2.128169543077242
 20
4.553706298792889
 10
2.115374267486691
 20
4.557643306666903
 10
2.101594739927635
 20
4.559611810603912
 10
2.08781521236858
 20
4.558627558635407
 10
2.076004188746533
 20
4.555674802729896
 10
2.072067180872517
 20
4.553706298792889
  0
LWPOLYLINE
  5
25F7
330
1E
100
AcDbEntity
  8
0
100
AcDbPolyline
 90
        3
 70
     0
 43
0.0
 10
2.123248283234722
 20
4.513351968084227
 10
2.129153795045746
 20
4.517288975958242
 10
2.135059306856769
 20
4.521225983832258
  0
LWPOLYLINE
  5
25FC
330
1E
100
AcDbEntity
  8
0
100
AcDbPolyline
 90
       11
 70
     0
 43
0.0
 10
2.06517741709299
 20
4.549769290918872
 10
2.061240409218974
 20
4.546816535013361
 10
2.056319149376454
 20
4.539926771233833
 10
2.05533489740795
 20
4.532052755485802
 10
2.059271905281966
 20
4.52417873973777
 10
2.068130172998501
 20
4.517288975958242
 10
2.078956944652045
 20
4.512367716115723
 10
2.0927364722111
 20
4.510399212178715
 10
2.108484503707163
 20
4.510399212178715
 10
2.122264031266218
 20
4.513351968084227
 10
2.123248283234722
 20
4.513351968084227
  0
LWPOLYLINE
  5
2609
330
1E
100
AcDbEntity
  8
0
100
AcDbPolyline
 90
        3
 70
     0
 43
0.0
 10
2.072067180872517
 20
4.553706298792889
 10
2.069114424967005
 20
4.55173779485588
 10
2.06517741709299
 20
4.549769290918872
  0
LWPOLYLINE
  5
260E
330
1E
100
AcDbEntity
  8
0
100
AcDbPolyline
 90
       10
 70
     0
 43
0.0
 10
1.950019936778029
 20
4.413942519265329
 10
1.954941196620548
 20
4.421816535013361
 10
1.955925448589053
 20
4.430674802729896
 10
1.951004188746533
 20
4.439533070446431
 10
1.942145921029998
 20
4.446422834225959
 10
1.93033489740795
 20
4.451344094068478
 10
1.916555369848895
 20
4.453312598005487
 10
1.901791590321336
 20
4.452328346036983
 10
1.889980566699289
 20
4.448391338162966
 10
1.887027810793777
 20
4.446422834225959
  0
LWPOLYLINE
  5
261A
330
1E
100
AcDbEntity
  8
0
100
AcDbPolyline
 90
        3
 70
     0
 43
0.0
 10
1.937224661187478
 20
4.407052755485802
 10
1.944114424967006
 20
4.410005511391313
 10
1.950019936778029
 20
4.413942519265329
  0
LWPOLYLINE
  5
261F
330
1E
100
AcDbEntity
  8
0
100
AcDbPolyline
 90
       10
 70
     0
 43
0.0
 10
1.880138047014249
 20
4.443470078320447
 10
1.87521678717173
 20
4.439533070446431
 10
1.871279779297714
 20
4.432643306666903
 10
1.87029552732921
 20
4.424769290918872
 10
1.874232535203226
 20
4.416895275170841
 10
1.882106550951257
 20
4.410005511391313
 10
1.893917574573304
 20
4.406068503517298
 10
1.90769710213236
 20
4.403115747611786
 10
1.923445133628423
 20
4.403115747611786
 10
1.937224661187478
 20
4.407052755485802
  0
LWPOLYLINE
  5
262B
330
1E
100
AcDbEntity
  8
0
100
AcDbPolyline
 90
        3
 70
     0
 43
0.0
 10
1.887027810793777
 20
4.446422834225959
 10
1.883090802919761
 20
4.445438582257455
 10
1.880138047014249
 20
4.443470078320447
  0
LINE
  5
2630
330
1E
100
AcDbEntity
  8
0
100
AcDbLine
 10
1.773838834415824
 20
4.451344094068478
 30
0.0
 11
2.059271905281966
 21
4.615714172808637
 31
0.0
  0
LINE
  5
2631
330
1E
100
AcDbEntity
  8
0
100
AcDbLine
 10
1.947067180872517
 20
4.349966141312574
 30
0.0
 11
1.937224661187478
 21
4.355871653123597
 31
0.0
  0
LINE
  5
2632
330
1E
100
AcDbEntity
  8
0
100
AcDbLine
 10
1.947067180872517
 20
4.349966141312574
 30
0.0
 11
2.233484503707163
 21
4.515320472021235
 31
0.0
  0
LWPOLYLINE
  5
2633
330
1E
100
AcDbEntity
  8
0
100
AcDbPolyline
 90
        3
 70
     0
 43
0.0
 10
1.938208913155982
 20
4.352918897218085
 10
1.941161669061493
 20
4.348981889344069
 10
1.947067180872517
 20
4.349966141312574
  0
LWPOLYLINE
  5
2638
330
1E
100
AcDbEntity
  8
0
100
AcDbPolyline
 90
        3
 70
     0
 43
0.0
 10
1.749232535203226
 20
4.458233857848006
 10
1.755138047014249
 20
4.460202361785015
 10
1.760059306856769
 20
4.45921810981651
  0
LINE
  5
263D
330
1E
100
AcDbEntity
  8
0
100
AcDbLine
 10
1.923445133628423
 20
4.357840157060605
 30
0.0
 11
1.749232535203226
 21
4.458233857848006
 31
0.0
  0
LWPOLYLINE
  5
263E
330
1E
100
AcDbEntity
  8
0
100
AcDbPolyline
 90
        3
 70
     0
 43
0.0
 10
1.923445133628423
 20
4.357840157060605
 10
1.933287653313462
 20
4.358824409029109
 10
1.938208913155982
 20
4.352918897218085
  0
LINE
  5
2643
330
1E
100
AcDbEntity
  8
0
100
AcDbLine
 10
1.749232535203226
 20
4.458233857848006
 30
0.0
 11
1.702972692683541
 21
4.4316590546984
 31
0.0
  0
LINE
  5
2644
330
1E
100
AcDbEntity
  8
0
100
AcDbLine
 10
1.877185291108738
 20
4.330281101942494
 30
0.0
 11
1.702972692683541
 21
4.4316590546984
 31
0.0
  0
LINE
  5
2645
330
1E
100
AcDbEntity
  8
0
100
AcDbLine
 10
1.877185291108738
 20
4.330281101942494
 30
0.0
 11
1.923445133628423
 21
4.357840157060605
 31
0.0
  0
LWPOLYLINE
  5
2646
330
1E
100
AcDbEntity
  8
0
100
AcDbPolyline
 90
        3
 70
     0
 43
0.0
 10
1.688208913155982
 20
4.409021259422809
 10
1.693130172998501
 20
4.421816535013361
 10
1.702972692683541
 20
4.4316590546984
  0
LINE
  5
264B
330
1E
100
AcDbEntity
  8
0
100
AcDbLine
 10
1.862421511581178
 20
4.308627558635407
 30
0.0
 11
1.688208913155982
 21
4.409021259422809
 31
0.0
  0
LWPOLYLINE
  5
264C
330
1E
100
AcDbEntity
  8
0
100
AcDbPolyline
 90
        3
 70
     0
 43
0.0
 10
1.862421511581178
 20
4.308627558635407
 10
1.867342771423698
 20
4.321422834225959
 10
1.877185291108738
 20
4.330281101942494
  0
LWPOLYLINE
  5
2651
330
1E
100
AcDbEntity
  8
0
100
AcDbPolyline
 90
        3
 70
     0
 43
0.0
 10
1.678366393470942
 20
4.396225983832258
 10
1.684271905281966
 20
4.401147243674778
 10
1.688208913155982
 20
4.409021259422809
  0
LINE
  5
2656
330
1E
100
AcDbEntity
  8
0
100
AcDbLine
 10
1.852578991896139
 20
4.295832283044857
 30
0.0
 11
1.678366393470942
 21
4.396225983832258
 31
0.0
  0
LWPOLYLINE
  5
2657
330
1E
100
AcDbEntity
  8
0
100
AcDbPolyline
 90
        3
 70
     0
 43
0.0
 10
1.852578991896139
 20
4.295832283044857
 10
1.858484503707163
 20
4.300753542887376
 10
1.862421511581178
 20
4.308627558635407
  0
LWPOLYLINE
  5
265C
330
1E
100
AcDbEntity
  8
0
100
AcDbPolyline
 90
       10
 70
     0
 43
0.0
 10
1.754153795045746
 20
4.300753542887376
 10
1.760059306856769
 20
4.308627558635407
 10
1.760059306856769
 20
4.318470078320447
 10
1.756122298982754
 20
4.326344094068478
 10
1.747264031266218
 20
4.333233857848006
 10
1.734468755675667
 20
4.338155117690526
 10
1.720689228116611
 20
4.340123621627533
 10
1.706909700557557
 20
4.339139369659029
 10
1.695098676935509
 20
4.335202361785015
 10
1.691161669061494
 20
4.33421810981651
  0
LWPOLYLINE
  5
2668
330
1E
100
AcDbEntity
  8
0
100
AcDbPolyline
 90
        3
 70
     0
 43
0.0
 10
1.742342771423698
 20
4.293863779107849
 10
1.748248283234722
 20
4.296816535013361
 10
1.754153795045746
 20
4.300753542887376
  0
LWPOLYLINE
  5
266D
330
1E
100
AcDbEntity
  8
0
100
AcDbPolyline
 90
       11
 70
     0
 43
0.0
 10
1.68525615725047
 20
4.330281101942494
 10
1.68033489740795
 20
4.326344094068478
 10
1.675413637565431
 20
4.319454330288952
 10
1.674429385596927
 20
4.31158031454092
 10
1.678366393470942
 20
4.304690550761392
 10
1.687224661187478
 20
4.297800786981865
 10
1.698051432841021
 20
4.292879527139344
 10
1.71281521236858
 20
4.289926771233833
 10
1.727578991896139
 20
4.290911023202337
 10
1.741358519455194
 20
4.293863779107849
 10
1.742342771423698
 20
4.293863779107849
  0
LWPOLYLINE
  5
267A
330
1E
100
AcDbEntity
  8
0
100
AcDbPolyline
 90
        3
 70
     0
 43
0.0
 10
1.691161669061494
 20
4.33421810981651
 10
1.688208913155982
 20
4.332249605879502
 10
1.68525615725047
 20
4.330281101942494
  0
LINE
  5
267F
330
1E
100
AcDbEntity
  8
0
100
AcDbLine
 10
1.530728598195352
 20
4.310596062572416
 30
0.0
 11
1.678366393470942
 21
4.396225983832258
 31
0.0
  0
LINE
  5
2680
330
1E
100
AcDbEntity
  8
0
100
AcDbLine
 10
1.704941196620549
 20
4.210202361785015
 30
0.0
 11
1.530728598195352
 21
4.310596062572416
 31
0.0
  0
LINE
  5
2681
330
1E
100
AcDbEntity
  8
0
100
AcDbLine
 10
1.704941196620549
 20
4.210202361785015
 30
0.0
 11
1.852578991896139
 21
4.295832283044857
 31
0.0
  0
LWPOLYLINE
  5
2682
330
1E
100
AcDbEntity
  8
0
100
AcDbPolyline
 90
        3
 70
     0
 43
0.0
 10
1.515964818667793
 20
4.284021259422809
 10
1.519901826541808
 20
4.298785038950368
 10
1.530728598195352
 20
4.310596062572416
  0
LINE
  5
2687
330
1E
100
AcDbEntity
  8
0
100
AcDbLine
 10
1.69017741709299
 20
4.183627558635407
 30
0.0
 11
1.515964818667793
 21
4.284021259422809
 31
0.0
  0
LWPOLYLINE
  5
2688
330
1E
100
AcDbEntity
  8
0
100
AcDbPolyline
 90
        3
 70
     0
 43
0.0
 10
1.69017741709299
 20
4.183627558635407
 10
1.694114424967005
 20
4.198391338162966
 10
1.704941196620549
 20
4.210202361785015
  0
LINE
  5
268D
330
1E
100
AcDbEntity
  8
0
100
AcDbLine
 10
1.515964818667793
 20
4.161974015328321
 30
0.0
 11
1.515964818667793
 21
4.284021259422809
 31
0.0
  0
LINE
  5
268E
330
1E
100
AcDbEntity
  8
0
100
AcDbLine
 10
1.69017741709299
 20
4.06158031454092
 30
0.0
 11
1.515964818667793
 21
4.161974015328321
 31
0.0
  0
LINE
  5
268F
330
1E
100
AcDbEntity
  8
0
100
AcDbLine
 10
1.69017741709299
 20
4.06158031454092
 30
0.0
 11
1.69017741709299
 21
4.183627558635407
 31
0.0
  0
LWPOLYLINE
  5
2690
330
1E
100
AcDbEntity
  8
0
100
AcDbPolyline
 90
        3
 70
     0
 43
0.0
 10
1.50021678717173
 20
4.135399212178715
 10
1.511043558825273
 20
4.147210235800763
 10
1.515964818667793
 20
4.161974015328321
  0
LWPOLYLINE
  5
2695
330
1E
100
AcDbEntity
  8
0
100
AcDbPolyline
 90
        3
 70
     0
 43
0.0
 10
1.674429385596927
 20
4.035005511391313
 10
1.68525615725047
 20
4.046816535013361
 10
1.69017741709299
 20
4.06158031454092
  0
LWPOLYLINE
  5
269A
330
1E
100
AcDbEntity
  8
0
100
AcDbPolyline
 90
        4
 70
     0
 43
0.0
 10
1.674429385596927
 20
4.021225983832258
 10
1.688208913155982
 20
4.033037007454305
 10
1.698051432841021
 20
4.050753542887376
 10
1.701988440715037
 20
4.069454330288952
  0
LINE
  5
26A0
330
1E
100
AcDbEntity
  8
0
100
AcDbLine
 10
1.701988440715037
 20
4.069454330288952
 30
0.0
 11
1.701988440715037
 21
4.190517322414935
 31
0.0
  0
LWPOLYLINE
  5
26A1
330
1E
100
AcDbEntity
  8
0
100
AcDbPolyline
 90
        3
 70
     0
 43
0.0
 10
1.701988440715037
 20
4.190517322414935
 10
1.702972692683541
 20
4.193470078320447
 10
1.704941196620549
 20
4.195438582257455
  0
LWPOLYLINE
  5
26A6
330
1E
100
AcDbEntity
  8
0
100
AcDbPolyline
 90
        3
 70
     0
 43
0.0
 10
1.852578991896139
 20
4.281068503517298
 10
1.866358519455194
 20
4.293863779107849
 10
1.874232535203226
 20
4.31158031454092
  0
LWPOLYLINE
  5
26AB
330
1E
100
AcDbEntity
  8
0
100
AcDbPolyline
 90
        3
 70
     0
 43
0.0
 10
1.874232535203226
 20
4.31158031454092
 10
1.87521678717173
 20
4.314533070446431
 10
1.877185291108738
 20
4.316501574383439
  0
LINE
  5
26B0
330
1E
100
AcDbEntity
  8
0
100
AcDbLine
 10
1.877185291108738
 20
4.316501574383439
 30
0.0
 11
1.923445133628423
 21
4.343076377533046
 31
0.0
  0
LINE
  5
26B1
330
1E
100
AcDbEntity
  8
0
100
AcDbLine
 10
1.926397889533935
 20
4.342092125564541
 30
0.0
 11
1.924429385596927
 21
4.343076377533046
 31
0.0
  0
LWPOLYLINE
  5
26B2
330
1E
100
AcDbEntity
  8
0
100
AcDbPolyline
 90
        3
 70
     0
 43
0.0
 10
1.923445133628423
 20
4.343076377533046
 10
1.92541363756543
 20
4.343076377533046
 10
1.926397889533935
 20
4.342092125564541
  0
LWPOLYLINE
  5
26B7
330
1E
100
AcDbEntity
  8
0
100
AcDbPolyline
 90
        3
 70
     0
 43
0.0
 10
1.926397889533935
 20
4.342092125564541
 10
1.934271905281966
 20
4.333233857848006
 10
1.947067180872517
 20
4.335202361785015
  0
LWPOLYLINE
  5
26BC
330
1E
100
AcDbEntity
  8
0
100
AcDbPolyline
 90
        3
 70
     0
 43
0.0
 10
2.233484503707163
 20
4.500556692493676
 10
2.246279779297714
 20
4.513351968084227
 10
2.254153795045746
 20
4.532052755485802
  0
LWPOLYLINE
  5
26C1
330
1E
100
AcDbEntity
  8
0
100
AcDbPolyline
 90
        3
 70
     0
 43
0.0
 10
2.254153795045746
 20
4.532052755485802
 10
2.255138047014249
 20
4.534021259422809
 10
2.257106550951257
 20
4.535989763359817
  0
LINE
  5
26C6
330
1E
100
AcDbEntity
  8
0
100
AcDbLine
 10
2.257106550951257
 20
4.535989763359817
 30
0.0
 11
2.304350645439446
 21
4.562564566509424
 31
0.0
  0
LINE
  5
26C7
330
1E
100
AcDbEntity
  8
0
100
AcDbLine
 10
2.307303401344958
 20
4.56158031454092
 30
0.0
 11
2.304350645439446
 21
4.563548818477928
 31
0.0
  0
LWPOLYLINE
  5
26C8
330
1E
100
AcDbEntity
  8
0
100
AcDbPolyline
 90
        3
 70
     0
 43
0.0
 10
2.304350645439446
 20
4.562564566509424
 10
2.30533489740795
 20
4.563548818477928
 10
2.307303401344958
 20
4.56158031454092
  0
LWPOLYLINE
  5
26CD
330
1E
100
AcDbEntity
  8
0
100
AcDbPolyline
 90
        3
 70
     0
 43
0.0
 10
2.307303401344958
 20
4.56158031454092
 10
2.314193165124486
 20
4.552722046824384
 10
2.327972692683541
 20
4.555674802729896
  0
LINE
  5
26D2
330
1E
100
AcDbEntity
  8
0
100
AcDbLine
 10
2.478563243864643
 20
4.638351968084227
 30
0.0
 11
2.475610487959131
 21
4.640320472021235
 31
0.0
  0
LWPOLYLINE
  5
26D3
330
1E
100
AcDbEntity
  8
0
100
AcDbPolyline
 90
        3
 70
     0
 43
0.0
 10
2.475610487959131
 20
4.640320472021235
 10
2.477578991896139
 20
4.640320472021235
 10
2.478563243864643
 20
4.638351968084227
  0
LINE
  5
26D8
330
1E
100
AcDbEntity
  8
0
100
AcDbLine
 10
2.304350645439446
 20
4.641304723989739
 30
0.0
 11
2.304350645439446
 21
4.623588188556668
 31
0.0
  0
LINE
  5
26D9
330
1E
100
AcDbEntity
  8
0
100
AcDbLine
 10
2.478563243864643
 20
4.481855905092101
 30
0.0
 11
2.339783716305588
 21
4.56158031454092
 31
0.0
  0
LINE
  5
26DA
330
1E
100
AcDbEntity
  8
0
100
AcDbLine
 10
2.478563243864643
 20
4.638351968084227
 30
0.0
 11
2.478563243864643
 21
4.481855905092101
 31
0.0
  0
LWPOLYLINE
  5
26DB
330
1E
100
AcDbEntity
  8
0
100
AcDbPolyline
 90
        4
 70
     0
 43
0.0
 10
2.478563243864643
 20
4.481855905092101
 10
2.482500251738659
 20
4.468076377533046
 10
2.492342771423698
 20
4.462170865722022
 10
2.506122298982754
 20
4.465123621627533
  0
LINE
  5
26E1
330
1E
100
AcDbEntity
  8
0
100
AcDbLine
 10
1.483484503707163
 20
3.910989763359817
 30
0.0
 11
1.483484503707163
 21
3.924769290918872
 31
0.0
  0
LINE
  5
26E2
330
1E
100
AcDbEntity
  8
0
100
AcDbLine
 10
1.674429385596927
 20
4.021225983832258
 30
0.0
 11
1.674429385596927
 21
4.035005511391313
 31
0.0
  0
LINE
  5
26E3
330
1E
100
AcDbEntity
  8
0
100
AcDbLine
 10
2.506122298982754
 20
4.479887401155092
 30
0.0
 11
2.506122298982754
 21
4.465123621627533
 31
0.0
  0
LINE
  5
26E4
330
1E
100
AcDbEntity
  8
0
100
AcDbLine
 10
2.478563243864643
 20
4.481855905092101
 30
0.0
 11
2.491358519455194
 21
4.488745668871628
 31
0.0
  0
LINE
  5
26E5
330
1E
100
AcDbEntity
  8
0
100
AcDbLine
 10
2.513996314730785
 20
4.470044881470053
 30
0.0
 11
2.513996314730785
 21
4.483824409029109
 31
0.0
  0
LINE
  5
26E6
330
1E
100
AcDbEntity
  8
0
100
AcDbLine
 10
2.491358519455194
 20
4.646225983832258
 30
0.0
 11
2.478563243864643
 21
4.638351968084227
 31
0.0
  0
LINE
  5
26E7
330
1E
100
AcDbEntity
  8
0
100
AcDbLine
 10
2.475610487959131
 20
4.640320472021235
 30
0.0
 11
2.475610487959131
 21
4.655084251548794
 31
0.0
  0
LINE
  5
26E8
330
1E
100
AcDbEntity
  8
0
100
AcDbLine
 10
2.327972692683541
 20
4.569454330288952
 30
0.0
 11
2.327972692683541
 21
4.555674802729896
 31
0.0
  0
LINE
  5
26E9
330
1E
100
AcDbEntity
  8
0
100
AcDbLine
 10
2.319114424967005
 20
4.572407086194463
 30
0.0
 11
2.307303401344958
 21
4.56158031454092
 31
0.0
  0
LINE
  5
26EA
330
1E
100
AcDbEntity
  8
0
100
AcDbLine
 10
2.304350645439446
 20
4.562564566509424
 30
0.0
 11
2.304350645439446
 21
4.577328346036983
 31
0.0
  0
LINE
  5
26EB
330
1E
100
AcDbEntity
  8
0
100
AcDbLine
 10
2.257106550951257
 20
4.550753542887376
 30
0.0
 11
2.257106550951257
 21
4.535989763359817
 31
0.0
  0
LINE
  5
26EC
330
1E
100
AcDbEntity
  8
0
100
AcDbLine
 10
2.242342771423698
 20
4.528115747611786
 30
0.0
 11
2.254153795045746
 21
4.532052755485802
 31
0.0
  0
LINE
  5
26ED
330
1E
100
AcDbEntity
  8
0
100
AcDbLine
 10
2.233484503707163
 20
4.500556692493676
 30
0.0
 11
2.233484503707163
 21
4.515320472021235
 31
0.0
  0
LINE
  5
26EE
330
1E
100
AcDbEntity
  8
0
100
AcDbLine
 10
1.947067180872517
 20
4.349966141312574
 30
0.0
 11
1.947067180872517
 21
4.335202361785015
 31
0.0
  0
LINE
  5
26EF
330
1E
100
AcDbEntity
  8
0
100
AcDbLine
 10
1.938208913155982
 20
4.352918897218085
 30
0.0
 11
1.926397889533935
 21
4.342092125564541
 31
0.0
  0
LINE
  5
26F0
330
1E
100
AcDbEntity
  8
0
100
AcDbLine
 10
1.923445133628423
 20
4.343076377533046
 30
0.0
 11
1.923445133628423
 21
4.357840157060605
 31
0.0
  0
LINE
  5
26F1
330
1E
100
AcDbEntity
  8
0
100
AcDbLine
 10
1.877185291108738
 20
4.330281101942494
 30
0.0
 11
1.877185291108738
 21
4.316501574383439
 31
0.0
  0
LINE
  5
26F2
330
1E
100
AcDbEntity
  8
0
100
AcDbLine
 10
1.862421511581178
 20
4.308627558635407
 30
0.0
 11
1.874232535203226
 21
4.31158031454092
 31
0.0
  0
LINE
  5
26F3
330
1E
100
AcDbEntity
  8
0
100
AcDbLine
 10
1.852578991896139
 20
4.281068503517298
 30
0.0
 11
1.852578991896139
 21
4.295832283044857
 31
0.0
  0
LINE
  5
26F4
330
1E
100
AcDbEntity
  8
0
100
AcDbLine
 10
1.704941196620549
 20
4.210202361785015
 30
0.0
 11
1.704941196620549
 21
4.195438582257455
 31
0.0
  0
LINE
  5
26F5
330
1E
100
AcDbEntity
  8
0
100
AcDbLine
 10
1.701988440715037
 20
4.190517322414935
 30
0.0
 11
1.69017741709299
 21
4.183627558635407
 31
0.0
  0
LINE
  5
26F6
330
1E
100
AcDbEntity
  8
0
100
AcDbLine
 10
1.69017741709299
 20
4.06158031454092
 30
0.0
 11
1.701988440715037
 21
4.069454330288952
 31
0.0
  0
LWPOLYLINE
  5
26F7
330
1E
100
AcDbEntity
  8
0
100
AcDbPolyline
 90
        4
 70
     0
 43
0.0
 10
1.688208913155982
 20
4.303706298792889
 10
1.707893952526061
 20
4.309611810603912
 10
1.730531747801651
 20
4.308627558635407
 10
1.748248283234722
 20
4.299769290918872
  0
LWPOLYLINE
  5
26FD
330
1E
100
AcDbEntity
  8
0
100
AcDbPolyline
 90
        3
 70
     0
 43
0.0
 10
1.683287653313462
 20
4.300753542887376
 10
1.68525615725047
 20
4.30173779485588
 10
1.688208913155982
 20
4.303706298792889
  0
LWPOLYLINE
  5
2702
330
1E
100
AcDbEntity
  8
0
100
AcDbPolyline
 90
        4
 70
     0
 43
0.0
 10
1.883090802919761
 20
4.416895275170841
 10
1.903760094258344
 20
4.422800786981865
 10
1.926397889533935
 20
4.421816535013361
 10
1.943130172998501
 20
4.412958267296826
  0
LWPOLYLINE
  5
2708
330
1E
100
AcDbEntity
  8
0
100
AcDbPolyline
 90
        3
 70
     0
 43
0.0
 10
1.879153795045746
 20
4.412958267296826
 10
1.881122298982754
 20
4.414926771233833
 10
1.883090802919761
 20
4.416895275170841
  0
LWPOLYLINE
  5
270D
330
1E
100
AcDbEntity
  8
0
100
AcDbPolyline
 90
        4
 70
     0
 43
0.0
 10
2.069114424967005
 20
4.523194487769266
 10
2.088799464337084
 20
4.530084251548794
 10
2.111437259612674
 20
4.528115747611786
 10
2.128169543077242
 20
4.520241731863754
  0
LWPOLYLINE
  5
2713
330
1E
100
AcDbEntity
  8
0
100
AcDbPolyline
 90
        3
 70
     0
 43
0.0
 10
2.064193165124486
 20
4.520241731863754
 10
2.066161669061493
 20
4.522210235800763
 10
2.069114424967005
 20
4.523194487769266
  0
LWPOLYLINE
  5
2718
330
1E
100
AcDbEntity
  8
0
100
AcDbPolyline
 90
        4
 70
     0
 43
0.0
 10
2.263996314730785
 20
4.636383464147218
 10
2.283681354100864
 20
4.642288975958242
 10
2.306319149376454
 20
4.641304723989739
 10
2.324035684809525
 20
4.632446456273203
  0
LWPOLYLINE
  5
271E
330
1E
100
AcDbEntity
  8
0
100
AcDbPolyline
 90
        3
 70
     0
 43
0.0
 10
2.259075054888265
 20
4.633430708241707
 10
2.261043558825273
 20
4.634414960210211
 10
2.263996314730785
 20
4.636383464147218
  0
LINE
  5
2723
330
1E
100
AcDbEntity
  8
0
100
AcDbLine
 10
2.309271905281966
 20
4.640320472021235
 30
0.0
 11
2.309271905281966
 21
4.64917873973777
 31
0.0
  0
LWPOLYLINE
  5
2724
330
1E
100
AcDbEntity
  8
0
100
AcDbPolyline
 90
        5
 70
     0
 43
0.0
 10
2.309271905281966
 20
4.640320472021235
 10
2.298445133628423
 20
4.643273227926746
 10
2.285649858037872
 20
4.643273227926746
 10
2.27285458244732
 20
4.641304723989739
 10
2.258090802919761
 20
4.633430708241707
  0
LWPOLYLINE
  5
272B
330
1E
100
AcDbEntity
  8
0
100
AcDbPolyline
 90
        8
 70
     0
 43
0.0
 10
2.326988440715037
 20
4.637367716115723
 10
2.325019936778029
 20
4.639336220052731
 10
2.317145921029998
 20
4.646225983832258
 10
2.306319149376454
 20
4.650162991706274
 10
2.293523873785903
 20
4.652131495643281
 10
2.280728598195352
 20
4.652131495643281
 10
2.268917574573305
 20
4.64917873973777
 10
2.254153795045746
 20
4.638351968084227
  0
LWPOLYLINE
  5
2735
330
1E
100
AcDbEntity
  8
0
100
AcDbPolyline
 90
       10
 70
     0
 43
0.0
 10
2.328956944652045
 20
4.640320472021235
 10
2.327972692683541
 20
4.64425747989525
 10
2.322067180872517
 20
4.651147243674778
 10
2.313208913155982
 20
4.657052755485802
 10
2.301397889533935
 20
4.660005511391313
 10
2.287618361974879
 20
4.661974015328321
 10
2.275807338352832
 20
4.660005511391313
 10
2.264980566699289
 20
4.656068503517298
 10
2.257106550951257
 20
4.651147243674778
 10
2.253169543077242
 20
4.641304723989739
  0
LWPOLYLINE
  5
2741
330
1E
100
AcDbEntity
  8
0
100
AcDbPolyline
 90
       11
 70
     0
 43
0.0
 10
2.31517741709299
 20
4.626540944462179
 10
2.324035684809525
 20
4.632446456273203
 10
2.328956944652045
 20
4.640320472021235
 10
2.329941196620548
 20
4.648194487769266
 10
2.326004188746533
 20
4.656068503517298
 10
2.319114424967005
 20
4.662958267296826
 10
2.308287653313462
 20
4.667879527139344
 10
2.295492377722911
 20
4.669848031076353
 10
2.28269710213236
 20
4.669848031076353
 10
2.270886078510312
 20
4.667879527139344
 10
2.267933322604801
 20
4.666895275170841
  0
LWPOLYLINE
  5
274E
330
1E
100
AcDbEntity
  8
0
100
AcDbPolyline
 90
        8
 70
     0
 43
0.0
 10
2.261043558825273
 20
4.662958267296826
 10
2.268917574573305
 20
4.666895275170841
 10
2.280728598195352
 20
4.669848031076353
 10
2.294508125754407
 20
4.669848031076353
 10
2.306319149376454
 20
4.667879527139344
 10
2.318130172998501
 20
4.662958267296826
 10
2.326004188746533
 20
4.657052755485802
 10
2.329941196620548
 20
4.645241731863754
  0
LWPOLYLINE
  5
2758
330
1E
100
AcDbEntity
  8
0
100
AcDbPolyline
 90
       10
 70
     0
 43
0.0
 10
2.253169543077242
 20
4.641304723989739
 10
2.253169543077242
 20
4.643273227926746
 10
2.256122298982754
 20
4.64917873973777
 10
2.263012062762281
 20
4.655084251548794
 10
2.273838834415824
 20
4.659021259422809
 10
2.286634110006375
 20
4.660989763359817
 10
2.299429385596927
 20
4.660005511391313
 10
2.311240409218974
 20
4.657052755485802
 10
2.321082928904013
 20
4.652131495643281
 10
2.328956944652045
 20
4.640320472021235
  0
LWPOLYLINE
  5
2764
330
1E
100
AcDbEntity
  8
0
100
AcDbPolyline
 90
        7
 70
     0
 43
0.0
 10
2.254153795045746
 20
4.636383464147218
 10
2.258090802919761
 20
4.643273227926746
 10
2.266949070636297
 20
4.648194487769266
 10
2.278760094258344
 20
4.651147243674778
 10
2.291555369848895
 20
4.652131495643281
 10
2.304350645439446
 20
4.650162991706274
 10
2.309271905281966
 20
4.64917873973777
  0
LINE
  5
276D
330
1E
100
AcDbEntity
  8
0
100
AcDbLine
 10
2.114390015518186
 20
4.528115747611786
 30
0.0
 11
2.114390015518186
 21
4.535989763359817
 31
0.0
  0
LWPOLYLINE
  5
276E
330
1E
100
AcDbEntity
  8
0
100
AcDbPolyline
 90
        5
 70
     0
 43
0.0
 10
2.114390015518186
 20
4.528115747611786
 10
2.103563243864643
 20
4.530084251548794
 10
2.089783716305588
 20
4.531068503517298
 10
2.077972692683541
 20
4.52909999958029
 10
2.063208913155982
 20
4.521225983832258
  0
LWPOLYLINE
  5
2775
330
1E
100
AcDbEntity
  8
0
100
AcDbPolyline
 90
        8
 70
     0
 43
0.0
 10
2.131122298982754
 20
4.52417873973777
 10
2.130138047014249
 20
4.527131495643281
 10
2.121279779297714
 20
4.533037007454305
 10
2.110453007644171
 20
4.537958267296826
 10
2.097657732053619
 20
4.539926771233833
 10
2.084862456463068
 20
4.538942519265329
 10
2.073051432841021
 20
4.536974015328321
 10
2.059271905281966
 20
4.525162991706274
  0
LWPOLYLINE
  5
277F
330
1E
100
AcDbEntity
  8
0
100
AcDbPolyline
 90
       10
 70
     0
 43
0.0
 10
2.134075054888265
 20
4.528115747611786
 10
2.133090802919761
 20
4.531068503517298
 10
2.127185291108738
 20
4.538942519265329
 10
2.117342771423698
 20
4.543863779107849
 10
2.105531747801651
 20
4.547800786981865
 10
2.0927364722111
 20
4.548785038950368
 10
2.079941196620548
 20
4.547800786981865
 10
2.069114424967005
 20
4.543863779107849
 10
2.061240409218974
 20
4.537958267296826
 10
2.058287653313462
 20
4.52909999958029
  0
LWPOLYLINE
  5
278B
330
1E
100
AcDbEntity
  8
0
100
AcDbPolyline
 90
       12
 70
     0
 43
0.0
 10
2.119311275360706
 20
4.514336220052731
 10
2.12029552732921
 20
4.514336220052731
 10
2.128169543077242
 20
4.520241731863754
 10
2.134075054888265
 20
4.527131495643281
 10
2.135059306856769
 20
4.535989763359817
 10
2.131122298982754
 20
4.542879527139344
 10
2.124232535203226
 20
4.549769290918872
 10
2.113405763549683
 20
4.554690550761392
 10
2.100610487959131
 20
4.557643306666903
 10
2.08781521236858
 20
4.557643306666903
 10
2.076004188746533
 20
4.554690550761392
 10
2.072067180872517
 20
4.553706298792889
  0
LWPOLYLINE
  5
2799
330
1E
100
AcDbEntity
  8
0
100
AcDbPolyline
 90
        8
 70
     0
 43
0.0
 10
2.06517741709299
 20
4.549769290918872
 10
2.074035684809525
 20
4.554690550761392
 10
2.085846708431572
 20
4.5566590546984
 10
2.098641984022123
 20
4.557643306666903
 10
2.111437259612674
 20
4.554690550761392
 10
2.122264031266218
 20
4.550753542887376
 10
2.130138047014249
 20
4.543863779107849
 10
2.134075054888265
 20
4.533037007454305
  0
LWPOLYLINE
  5
27A3
330
1E
100
AcDbEntity
  8
0
100
AcDbPolyline
 90
       10
 70
     0
 43
0.0
 10
2.058287653313462
 20
4.528115747611786
 10
2.057303401344958
 20
4.530084251548794
 10
2.061240409218974
 20
4.536974015328321
 10
2.068130172998501
 20
4.542879527139344
 10
2.078956944652045
 20
4.546816535013361
 10
2.090767968274092
 20
4.548785038950368
 10
2.103563243864643
 20
4.547800786981865
 10
2.116358519455194
 20
4.544848031076353
 10
2.126201039140234
 20
4.538942519265329
 10
2.134075054888265
 20
4.528115747611786
  0
LWPOLYLINE
  5
27AF
330
1E
100
AcDbEntity
  8
0
100
AcDbPolyline
 90
        7
 70
     0
 43
0.0
 10
2.058287653313462
 20
4.52417873973777
 10
2.063208913155982
 20
4.530084251548794
 10
2.072067180872517
 20
4.535989763359817
 10
2.082893952526061
 20
4.538942519265329
 10
2.095689228116611
 20
4.539926771233833
 10
2.108484503707163
 20
4.537958267296826
 10
2.114390015518186
 20
4.535989763359817
  0
LINE
  5
27B8
330
1E
100
AcDbEntity
  8
0
100
AcDbLine
 10
1.928366393470943
 20
4.420832283044857
 30
0.0
 11
1.928366393470943
 21
4.429690550761392
 31
0.0
  0
LWPOLYLINE
  5
27B9
330
1E
100
AcDbEntity
  8
0
100
AcDbPolyline
 90
        5
 70
     0
 43
0.0
 10
1.928366393470943
 20
4.420832283044857
 10
1.917539621817399
 20
4.423785038950368
 10
1.904744346226848
 20
4.423785038950368
 10
1.891949070636297
 20
4.421816535013361
 10
1.878169543077241
 20
4.413942519265329
  0
LWPOLYLINE
  5
27C0
330
1E
100
AcDbEntity
  8
0
100
AcDbPolyline
 90
        8
 70
     0
 43
0.0
 10
1.946082928904013
 20
4.416895275170841
 10
1.945098676935509
 20
4.419848031076353
 10
1.936240409218974
 20
4.42673779485588
 10
1.92541363756543
 20
4.430674802729896
 10
1.91261836197488
 20
4.432643306666903
 10
1.899823086384328
 20
4.432643306666903
 10
1.888012062762281
 20
4.429690550761392
 10
1.873248283234722
 20
4.417879527139344
  0
LWPOLYLINE
  5
27CA
330
1E
100
AcDbEntity
  8
0
100
AcDbPolyline
 90
       10
 70
     0
 43
0.0
 10
1.948051432841021
 20
4.420832283044857
 10
1.948051432841021
 20
4.424769290918872
 10
1.942145921029998
 20
4.4316590546984
 10
1.932303401344958
 20
4.437564566509424
 10
1.920492377722911
 20
4.440517322414935
 10
1.90769710213236
 20
4.441501574383439
 10
1.894901826541809
 20
4.440517322414935
 10
1.884075054888265
 20
4.43658031454092
 10
1.876201039140234
 20
4.4316590546984
 10
1.872264031266218
 20
4.421816535013361
  0
LWPOLYLINE
  5
27D6
330
1E
100
AcDbEntity
  8
0
100
AcDbPolyline
 90
       11
 70
     0
 43
0.0
 10
1.934271905281966
 20
4.407052755485802
 10
1.943130172998501
 20
4.412958267296826
 10
1.948051432841021
 20
4.420832283044857
 10
1.949035684809525
 20
4.428706298792889
 10
1.946082928904013
 20
4.43658031454092
 10
1.938208913155982
 20
4.442485826351943
 10
1.928366393470943
 20
4.447407086194463
 10
1.915571117880391
 20
4.450359842099975
 10
1.90277584228984
 20
4.450359842099975
 10
1.889980566699289
 20
4.448391338162966
 10
1.887027810793777
 20
4.446422834225959
  0
LWPOLYLINE
  5
27E3
330
1E
100
AcDbEntity
  8
0
100
AcDbPolyline
 90
        8
 70
     0
 43
0.0
 10
1.880138047014249
 20
4.443470078320447
 10
1.888996314730785
 20
4.447407086194463
 10
1.900807338352832
 20
4.450359842099975
 10
1.913602613943383
 20
4.450359842099975
 10
1.926397889533935
 20
4.448391338162966
 10
1.937224661187478
 20
4.443470078320447
 10
1.945098676935509
 20
4.43658031454092
 10
1.949035684809525
 20
4.425753542887376
  0
LWPOLYLINE
  5
27ED
330
1E
100
AcDbEntity
  8
0
100
AcDbPolyline
 90
       10
 70
     0
 43
0.0
 10
1.872264031266218
 20
4.421816535013361
 10
1.872264031266218
 20
4.422800786981865
 10
1.87521678717173
 20
4.429690550761392
 10
1.883090802919761
 20
4.435596062572416
 10
1.892933322604801
 20
4.439533070446431
 10
1.905728598195352
 20
4.441501574383439
 10
1.918523873785903
 20
4.440517322414935
 10
1.93033489740795
 20
4.437564566509424
 10
1.941161669061493
 20
4.4316590546984
 10
1.948051432841021
 20
4.420832283044857
  0
LWPOLYLINE
  5
27F9
330
1E
100
AcDbEntity
  8
0
100
AcDbPolyline
 90
        7
 70
     0
 43
0.0
 10
1.874232535203226
 20
4.417879527139344
 10
1.878169543077241
 20
4.423785038950368
 10
1.887027810793777
 20
4.428706298792889
 10
1.89785458244732
 20
4.4316590546984
 10
1.910649858037872
 20
4.432643306666903
 10
1.923445133628423
 20
4.430674802729896
 10
1.928366393470943
 20
4.429690550761392
  0
LINE
  5
2802
330
1E
100
AcDbEntity
  8
0
100
AcDbLine
 10
1.733484503707163
 20
4.307643306666903
 30
0.0
 11
1.733484503707163
 21
4.316501574383439
 31
0.0
  0
LWPOLYLINE
  5
2803
330
1E
100
AcDbEntity
  8
0
100
AcDbPolyline
 90
        5
 70
     0
 43
0.0
 10
1.733484503707163
 20
4.307643306666903
 10
1.722657732053619
 20
4.310596062572416
 10
1.708878204494564
 20
4.310596062572416
 10
1.697067180872517
 20
4.308627558635407
 10
1.682303401344958
 20
4.30173779485588
  0
LWPOLYLINE
  5
280A
330
1E
100
AcDbEntity
  8
0
100
AcDbPolyline
 90
        8
 70
     0
 43
0.0
 10
1.75021678717173
 20
4.304690550761392
 10
1.749232535203226
 20
4.3066590546984
 10
1.741358519455194
 20
4.313548818477928
 10
1.729547495833147
 20
4.317485826351943
 10
1.716752220242596
 20
4.319454330288952
 10
1.703956944652045
 20
4.319454330288952
 10
1.692145921029998
 20
4.316501574383439
 10
1.678366393470942
 20
4.305674802729896
  0
LWPOLYLINE
  5
2814
330
1E
100
AcDbEntity
  8
0
100
AcDbPolyline
 90
       10
 70
     0
 43
0.0
 10
1.753169543077242
 20
4.307643306666903
 10
1.752185291108738
 20
4.31158031454092
 10
1.746279779297714
 20
4.318470078320447
 10
1.736437259612675
 20
4.32437559013147
 10
1.724626235990627
 20
4.328312598005487
 10
1.711830960400076
 20
4.329296849973991
 10
1.699035684809525
 20
4.327328346036983
 10
1.688208913155982
 20
4.323391338162966
 10
1.681319149376454
 20
4.318470078320447
 10
1.677382141502438
 20
4.308627558635407
  0
LWPOLYLINE
  5
2820
330
1E
100
AcDbEntity
  8
0
100
AcDbPolyline
 90
       11
 70
     0
 43
0.0
 10
1.739390015518186
 20
4.293863779107849
 10
1.748248283234722
 20
4.300753542887376
 10
1.753169543077242
 20
4.307643306666903
 10
1.754153795045746
 20
4.315517322414935
 10
1.75021678717173
 20
4.323391338162966
 10
1.743327023392202
 20
4.330281101942494
 10
1.732500251738659
 20
4.335202361785015
 10
1.719704976148108
 20
4.337170865722022
 10
1.706909700557557
 20
4.337170865722022
 10
1.695098676935509
 20
4.335202361785015
 10
1.691161669061494
 20
4.33421810981651
  0
LWPOLYLINE
  5
282D
330
1E
100
AcDbEntity
  8
0
100
AcDbPolyline
 90
        8
 70
     0
 43
0.0
 10
1.68525615725047
 20
4.330281101942494
 10
1.693130172998501
 20
4.33421810981651
 10
1.704941196620549
 20
4.337170865722022
 10
1.7177364722111
 20
4.337170865722022
 10
1.730531747801651
 20
4.335202361785015
 10
1.741358519455194
 20
4.330281101942494
 10
1.749232535203226
 20
4.32437559013147
 10
1.753169543077242
 20
4.312564566509424
  0
LWPOLYLINE
  5
2837
330
1E
100
AcDbEntity
  8
0
100
AcDbPolyline
 90
       10
 70
     0
 43
0.0
 10
1.677382141502438
 20
4.308627558635407
 10
1.676397889533935
 20
4.310596062572416
 10
1.68033489740795
 20
4.317485826351943
 10
1.687224661187478
 20
4.322407086194463
 10
1.698051432841021
 20
4.326344094068478
 10
1.709862456463068
 20
4.328312598005487
 10
1.723641984022123
 20
4.327328346036983
 10
1.735453007644171
 20
4.32437559013147
 10
1.74529552732921
 20
4.319454330288952
 10
1.753169543077242
 20
4.307643306666903
  0
LWPOLYLINE
  5
2843
330
1E
100
AcDbEntity
  8
0
100
AcDbPolyline
 90
        7
 70
     0
 43
0.0
 10
1.677382141502438
 20
4.304690550761392
 10
1.682303401344958
 20
4.310596062572416
 10
1.691161669061494
 20
4.315517322414935
 10
1.702972692683541
 20
4.318470078320447
 10
1.715767968274092
 20
4.319454330288952
 10
1.728563243864643
 20
4.317485826351943
 10
1.733484503707163
 20
4.316501574383439
  0
LINE
  5
284C
330
1E
100
AcDbEntity
  8
0
100
AcDbLine
 10
1.477578991896139
 20
3.909021259422809
 30
0.0
 11
1.483484503707163
 21
3.924769290918872
 31
0.0
  0
LWPOLYLINE
  5
284D
330
1E
100
AcDbEntity
  8
0
100
AcDbPolyline
 90
        3
 70
     0
 43
0.0
 10
1.477578991896139
 20
3.909021259422809
 10
1.480531747801651
 20
3.909021259422809
 10
1.483484503707163
 20
3.910989763359817
  0
LINE
  5
2852
330
1E
100
AcDbEntity
  8
0
100
AcDbLine
 10
1.483484503707163
 20
3.924769290918872
 30
0.0
 11
1.380138047014249
 21
3.984808660997613
 31
0.0
  0
LWPOLYLINE
  5
2853
330
1E
100
AcDbEntity
  8
0
100
AcDbPolyline
 90
        9
 70
     0
 43
0.0
 10
1.205925448589053
 20
3.949375590131471
 10
1.207893952526061
 20
3.943470078320447
 10
1.2177364722111
 20
3.935596062572416
 10
1.234468755675667
 20
3.92673779485588
 10
1.254153795045745
 20
3.917879527139345
 10
1.274823086384328
 20
3.910989763359817
 10
1.292539621817399
 20
3.906068503517298
 10
1.306319149376454
 20
3.906068503517298
 10
1.311240409218974
 20
3.908037007454305
  0
LINE
  5
285E
330
1E
100
AcDbEntity
  8
0
100
AcDbLine
 10
1.353563243864643
 20
4.142288975958242
 30
0.0
 11
1.359468755675667
 21
4.157052755485802
 31
0.0
  0
LINE
  5
285F
330
1E
100
AcDbEntity
  8
0
100
AcDbLine
 10
1.36537426748669
 20
4.158037007454305
 30
0.0
 11
1.359468755675667
 21
4.157052755485802
 31
0.0
  0
LINE
  5
2860
330
1E
100
AcDbEntity
  8
0
100
AcDbLine
 10
1.30533489740795
 20
4.17673779485588
 30
0.0
 11
1.318130172998501
 21
4.169848031076353
 31
0.0
  0
LWPOLYLINE
  5
2861
330
1E
100
AcDbEntity
  8
0
100
AcDbPolyline
 90
       14
 70
     0
 43
0.0
 10
1.36537426748669
 20
4.158037007454305
 10
1.382106550951257
 20
4.14917873973777
 10
1.393917574573305
 20
4.141304723989739
 10
1.398838834415824
 20
4.134414960210211
 10
1.395886078510312
 20
4.130477952336195
 10
1.385059306856769
 20
4.130477952336195
 10
1.368327023392202
 20
4.133430708241707
 10
1.348641984022123
 20
4.139336220052731
 10
1.327972692683541
 20
4.148194487769266
 10
1.31025615725047
 20
4.157052755485802
 10
1.297460881659919
 20
4.165911023202337
 10
1.292539621817399
 20
4.171816535013361
 10
1.295492377722911
 20
4.175753542887376
 10
1.30533489740795
 20
4.17673779485588
  0
LWPOLYLINE
  5
2871
330
1E
100
AcDbEntity
  8
0
100
AcDbPolyline
 90
       12
 70
     0
 43
0.0
 10
1.359468755675667
 20
4.157052755485802
 10
1.373248283234722
 20
4.14917873973777
 10
1.381122298982753
 20
4.143273227926746
 10
1.382106550951257
 20
4.138351968084227
 10
1.37521678717173
 20
4.137367716115723
 10
1.362421511581179
 20
4.139336220052731
 10
1.345689228116612
 20
4.14425747989525
 10
1.329941196620549
 20
4.151147243674778
 10
1.317145921029998
 20
4.159021259422809
 10
1.309271905281966
 20
4.164926771233833
 10
1.31025615725047
 20
4.168863779107849
 10
1.318130172998501
 20
4.169848031076353
  0
LINE
  5
287F
330
1E
100
AcDbEntity
  8
0
100
AcDbLine
 10
1.314193165124486
 20
4.160005511391313
 30
0.0
 11
1.318130172998501
 21
4.169848031076353
 31
0.0
  0
LINE
  5
2880
330
1E
100
AcDbEntity
  8
0
100
AcDbLine
 10
1.318130172998501
 20
4.169848031076353
 30
0.0
 11
1.332893952526061
 21
4.167879527139344
 31
0.0
  0
LINE
  5
2881
330
1E
100
AcDbEntity
  8
0
100
AcDbLine
 10
1.30533489740795
 20
4.17673779485588
 30
0.0
 11
1.321082928904013
 21
4.175753542887376
 31
0.0
  0
LINE
  5
2882
330
1E
100
AcDbEntity
  8
0
100
AcDbLine
 10
1.37521678717173
 20
4.009414960210211
 30
0.0
 11
1.369311275360706
 21
3.993666928714148
 31
0.0
  0
LINE
  5
2883
330
1E
100
AcDbEntity
  8
0
100
AcDbLine
 10
1.345689228116612
 20
3.995635432651156
 30
0.0
 11
1.369311275360706
 21
3.993666928714148
 31
0.0
  0
LWPOLYLINE
  5
2884
330
1E
100
AcDbEntity
  8
0
100
AcDbPolyline
 90
        3
 70
     0
 43
0.0
 10
1.371279779297714
 20
3.987761416903124
 10
1.369311275360706
 20
3.990714172808636
 10
1.369311275360706
 20
3.993666928714148
  0
LINE
  5
2889
330
1E
100
AcDbEntity
  8
0
100
AcDbLine
 10
1.37029552732921
 20
3.937564566509423
 30
0.0
 11
1.331909700557557
 21
3.95921810981651
 31
0.0
  0
LINE
  5
288A
330
1E
100
AcDbEntity
  8
0
100
AcDbLine
 10
1.37029552732921
 20
3.937564566509423
 30
0.0
 11
1.376201039140234
 21
3.953312598005486
 31
0.0
  0
LINE
  5
288B
330
1E
100
AcDbEntity
  8
0
100
AcDbLine
 10
1.376201039140234
 20
3.953312598005486
 30
0.0
 11
1.33781521236858
 21
3.975950393281077
 31
0.0
  0
LINE
  5
288C
330
1E
100
AcDbEntity
  8
0
100
AcDbLine
 10
1.343720724179604
 20
3.990714172808636
 30
0.0
 11
1.371279779297714
 21
3.987761416903124
 31
0.0
  0
LINE
  5
288D
330
1E
100
AcDbEntity
  8
0
100
AcDbLine
 10
1.371279779297714
 20
3.987761416903124
 30
0.0
 11
1.376201039140234
 21
3.984808660997613
 31
0.0
  0
LWPOLYLINE
  5
288E
330
1E
100
AcDbEntity
  8
0
100
AcDbPolyline
 90
        5
 70
     0
 43
0.0
 10
1.376201039140234
 20
3.953312598005486
 10
1.393917574573305
 20
3.944454330288951
 10
1.413602613943383
 20
3.93658031454092
 10
1.433287653313462
 20
3.930674802729896
 10
1.449035684809525
 20
3.927722046824384
  0
LINE
  5
2895
330
1E
100
AcDbEntity
  8
0
100
AcDbLine
 10
1.449035684809525
 20
3.927722046824384
 30
0.0
 11
1.483484503707163
 21
3.924769290918872
 31
0.0
  0
LINE
  5
2896
330
1E
100
AcDbEntity
  8
0
100
AcDbLine
 10
1.376201039140234
 20
3.984808660997613
 30
0.0
 11
1.380138047014249
 21
3.984808660997613
 31
0.0
  0
LINE
  5
2897
330
1E
100
AcDbEntity
  8
0
100
AcDbLine
 10
1.442145921029998
 20
3.911974015328321
 30
0.0
 11
1.477578991896139
 21
3.909021259422809
 31
0.0
  0
LWPOLYLINE
  5
2898
330
1E
100
AcDbEntity
  8
0
100
AcDbPolyline
 90
        5
 70
     0
 43
0.0
 10
1.442145921029998
 20
3.911974015328321
 10
1.426397889533935
 20
3.914926771233833
 10
1.40769710213236
 20
3.920832283044857
 10
1.388012062762281
 20
3.928706298792888
 10
1.37029552732921
 20
3.937564566509423
  0
LINE
  5
289F
330
1E
100
AcDbEntity
  8
0
100
AcDbLine
 10
1.449035684809525
 20
3.927722046824384
 30
0.0
 11
1.442145921029998
 21
3.911974015328321
 31
0.0
  0
LWPOLYLINE
  5
28A0
330
1E
100
AcDbEntity
  8
0
100
AcDbPolyline
 90
        6
 70
     0
 43
0.0
 10
1.195098676935509
 20
1.65902125942281
 10
1.192145921029997
 20
1.678706298792889
 10
1.181319149376454
 20
1.697407086194464
 10
1.167539621817399
 20
1.713155117690527
 10
1.151791590321336
 20
1.721029133438558
 10
1.138996314730784
 20
1.71906062950155
  0
LWPOLYLINE
  5
28A8
330
1E
100
AcDbEntity
  8
0
100
AcDbPolyline
 90
        3
 70
     0
 43
0.0
 10
0.9952955273292101
 20
1.62654094446218
 10
0.9884057635496825
 20
1.628509448399188
 10
0.9854530076441708
 20
1.627525196430684
  0
LINE
  5
28AD
330
1E
100
AcDbEntity
  8
0
100
AcDbLine
 10
0.9952955273292101
 20
1.62654094446218
 30
0.0
 11
1.001201039140233
 21
1.623588188556668
 31
0.0
  0
LINE
  5
28AE
330
1E
100
AcDbEntity
  8
0
100
AcDbLine
 10
1.007106550951257
 20
1.619651180682653
 30
0.0
 11
1.001201039140233
 21
1.623588188556668
 31
0.0
  0
LWPOLYLINE
  5
28AF
330
1E
100
AcDbEntity
  8
0
100
AcDbPolyline
 90
        3
 70
     0
 43
0.0
 10
1.007106550951257
 20
1.619651180682653
 10
1.013996314730784
 20
1.612761416903125
 10
1.020886078510312
 20
1.604887401155093
  0
LINE
  5
28B4
330
1E
100
AcDbEntity
  8
0
100
AcDbLine
 10
1.020886078510312
 20
1.604887401155093
 30
0.0
 11
1.026791590321336
 21
1.595044881470054
 31
0.0
  0
LINE
  5
28B5
330
1E
100
AcDbEntity
  8
0
100
AcDbLine
 10
1.026791590321336
 20
1.595044881470054
 30
0.0
 11
1.031712850163855
 21
1.584218109816511
 31
0.0
  0
LINE
  5
28B6
330
1E
100
AcDbEntity
  8
0
100
AcDbLine
 10
1.031712850163855
 20
1.584218109816511
 30
0.0
 11
1.033681354100863
 21
1.574375590131471
 31
0.0
  0
LINE
  5
28B7
330
1E
100
AcDbEntity
  8
0
100
AcDbLine
 10
1.033681354100863
 20
1.574375590131471
 30
0.0
 11
1.034665606069367
 21
1.565517322414936
 31
0.0
  0
LINE
  5
28B8
330
1E
100
AcDbEntity
  8
0
100
AcDbLine
 10
1.034665606069367
 20
1.565517322414936
 30
0.0
 11
1.195098676935509
 21
1.65902125942281
 31
0.0
  0
LWPOLYLINE
  5
28B9
330
1E
100
AcDbEntity
  8
0
100
AcDbPolyline
 90
        9
 70
     0
 43
0.0
 10
0.8673427714236982
 20
1.762367716115723
 10
0.871279779297714
 20
1.742682676745644
 10
0.8801380470142493
 20
1.721029133438558
 10
0.8939175745733045
 20
1.703312598005487
 10
0.9096656060693675
 20
1.690517322414936
 10
0.9254136375654306
 20
1.684611810603912
 10
0.9391931651244858
 20
1.687564566509424
 10
0.9480514328410212
 20
1.697407086194464
 10
0.951004188746533
 20
1.71413936965903
  0
LWPOLYLINE
  5
28C4
330
1E
100
AcDbEntity
  8
0
100
AcDbPolyline
 90
        6
 70
     0
 43
0.0
 10
0.8830908029197612
 20
1.771225983832259
 10
0.8870278107937769
 20
1.749572440525172
 10
0.8968703304788164
 20
1.727918897218086
 10
0.9116341100063753
 20
1.709218109816511
 10
0.9293506454394464
 20
1.697407086194464
 10
0.9460829289040134
 20
1.693470078320448
  0
LINE
  5
28CC
330
1E
100
AcDbEntity
  8
0
100
AcDbLine
 10
0.883090802919761
 20
1.771225983832259
 30
0.0
 11
0.867342771423698
 21
1.762367716115723
 31
0.0
  0
LWPOLYLINE
  5
28CD
330
1E
100
AcDbEntity
  8
0
100
AcDbPolyline
 90
       18
 70
     0
 43
0.0
 10
0.9096656060693675
 20
1.913942519265329
 10
0.8939175745733045
 20
1.925753542887377
 10
0.8811222989827534
 20
1.942485826351943
 10
0.8722640312662178
 20
1.962170865722023
 10
0.8683270233922023
 20
1.980871653123597
 10
0.8693112753607062
 20
1.998588188556668
 10
0.8762010391402338
 20
2.010399212178715
 10
0.8870278107937769
 20
2.015320472021235
 10
0.901791590321336
 20
2.013351968084228
 10
0.9175396218173991
 20
2.004493700367691
 10
0.9313191493764543
 20
1.989729920840133
 10
0.9431301729985015
 20
1.972013385407062
 10
0.950019936778029
 20
1.951344094068479
 10
0.951004188746533
 20
1.933627558635408
 10
0.9470671808725173
 20
1.918863779107849
 10
0.9372246611874778
 20
1.910005511391314
 10
0.9244293855969267
 20
1.908037007454306
 10
0.9096656060693675
 20
1.913942519265329
  0
LINE
  5
28E1
330
1E
100
AcDbEntity
  8
0
100
AcDbLine
 10
0.867342771423698
 20
1.762367716115723
 30
0.0
 11
0.867342771423698
 21
1.807643306666904
 31
0.0
  0
LWPOLYLINE
  5
28E2
330
1E
100
AcDbEntity
  8
0
100
AcDbPolyline
 90
        9
 70
     0
 43
0.0
 10
0.951004188746533
 20
1.759414960210212
 10
0.9480514328410212
 20
1.77909999958029
 10
0.9391931651244858
 20
1.799769290918873
 10
0.9254136375654306
 20
1.818470078320448
 10
0.9096656060693675
 20
1.831265353910999
 10
0.8939175745733045
 20
1.837170865722023
 10
0.8801380470142493
 20
1.834218109816511
 10
0.871279779297714
 20
1.823391338162967
 10
0.8673427714236982
 20
1.807643306666904
  0
LINE
  5
28ED
330
1E
100
AcDbEntity
  8
0
100
AcDbLine
 10
0.9510041887465332
 20
1.71413936965903
 30
0.0
 11
0.9510041887465332
 21
1.759414960210212
 31
0.0
  0
LINE
  5
28EE
330
1E
100
AcDbEntity
  8
0
100
AcDbLine
 10
0.8525789918961393
 20
1.639336220052731
 30
0.0
 11
0.8525789918961393
 21
2.084218109816511
 31
0.0
  0
LINE
  5
28EF
330
1E
100
AcDbEntity
  8
0
100
AcDbLine
 10
0.8525789918961393
 20
1.639336220052731
 30
0.0
 11
0.9667522202425962
 21
1.573391338162967
 31
0.0
  0
LINE
  5
28F0
330
1E
100
AcDbEntity
  8
0
100
AcDbLine
 10
0.9667522202425962
 20
1.573391338162967
 30
0.0
 11
0.9667522202425962
 21
2.018273227926747
 31
0.0
  0
LINE
  5
28F1
330
1E
100
AcDbEntity
  8
0
100
AcDbLine
 10
0.8525789918961393
 20
2.084218109816511
 30
0.0
 11
0.9667522202425962
 21
2.018273227926747
 31
0.0
  0
LWPOLYLINE
  5
28F2
330
1E
100
AcDbEntity
  8
0
100
AcDbPolyline
 90
        6
 70
     0
 43
0.0
 10
0.9244293855969267
 20
1.922800786981865
 10
0.9076971021323597
 20
1.93658031454092
 10
0.8939175745733045
 20
1.956265353910999
 10
0.8850593068567691
 20
1.97890314918659
 10
0.8830908029197612
 20
1.999572440525172
 10
0.8889963147307849
 20
2.015320472021235
  0
LWPOLYLINE
  5
28FA
330
1E
100
AcDbEntity
  8
0
100
AcDbPolyline
 90
        3
 70
     0
 43
0.0
 10
0.9460829289040134
 20
1.916895275170841
 10
0.9352561572504701
 20
1.917879527139345
 10
0.9244293855969267
 20
1.922800786981865
  0
LINE
  5
28FF
330
1E
100
AcDbEntity
  8
0
100
AcDbLine
 10
0.883090802919761
 20
1.771225983832259
 30
0.0
 11
0.883090802919761
 21
1.81650157438344
 31
0.0
  0
LWPOLYLINE
  5
2900
330
1E
100
AcDbEntity
  8
0
100
AcDbPolyline
 90
        3
 70
     0
 43
0.0
 10
0.8889963147307849
 20
1.837170865722023
 10
0.8840750548882652
 20
1.827328346036983
 10
0.8830908029197612
 20
1.81650157438344
  0
LINE
  5
2905
330
1E
100
AcDbEntity
  8
0
100
AcDbLine
 10
0.9825002517386591
 20
2.027131495643282
 30
0.0
 11
0.867342771423698
 21
2.093076377533046
 31
0.0
  0
LINE
  5
2906
330
1E
100
AcDbEntity
  8
0
100
AcDbLine
 10
1.001201039140233
 20
1.623588188556668
 30
0.0
 11
0.9854530076441708
 21
1.615714172808637
 31
0.0
  0
LINE
  5
2907
330
1E
100
AcDbEntity
  8
0
100
AcDbLine
 10
0.9854530076441708
 20
1.580281101942495
 30
0.0
 11
1.010059306856769
 21
1.56650157438344
 31
0.0
  0
LWPOLYLINE
  5
2908
330
1E
100
AcDbEntity
  8
0
100
AcDbPolyline
 90
        7
 70
     0
 43
0.0
 10
1.007106550951257
 20
1.619651180682653
 10
1.001201039140233
 20
1.614729920840133
 10
1.001201039140233
 20
1.607840157060605
 10
1.008090802919761
 20
1.593076377533046
 10
1.015964818667792
 20
1.578312598005487
 10
1.015964818667792
 20
1.571422834225959
 10
1.010059306856769
 20
1.56650157438344
  0
LINE
  5
2911
330
1E
100
AcDbEntity
  8
0
100
AcDbLine
 10
1.024823086384328
 20
1.547800786981865
 30
0.0
 11
1.021870330478816
 21
1.547800786981865
 31
0.0
  0
LWPOLYLINE
  5
2912
330
1E
100
AcDbEntity
  8
0
100
AcDbPolyline
 90
        3
 70
     0
 43
0.0
 10
1.026791590321336
 20
1.555674802729896
 10
1.024823086384328
 20
1.555674802729896
 10
1.0179333226048
 20
1.552722046824385
  0
LWPOLYLINE
  5
2917
330
1E
100
AcDbEntity
  8
0
100
AcDbPolyline
 90
        3
 70
     0
 43
0.0
 10
1.024823086384328
 20
1.547800786981865
 10
1.026791590321336
 20
1.549769290918873
 10
1.032697102132359
 20
1.552722046824385
  0
LWPOLYLINE
  5
291C
330
1E
100
AcDbEntity
  8
0
100
AcDbPolyline
 90
        3
 70
     0
 43
0.0
 10
1.032697102132359
 20
1.552722046824385
 10
1.033681354100863
 20
1.558627558635408
 10
1.034665606069367
 20
1.564533070446432
  0
LINE
  5
2921
330
1E
100
AcDbEntity
  8
0
100
AcDbLine
 10
1.034665606069367
 20
1.565517322414936
 30
0.0
 11
1.034665606069367
 21
1.564533070446432
 31
0.0
  0
LINE
  5
2922
330
1E
100
AcDbEntity
  8
0
100
AcDbLine
 10
1.010059306856769
 20
1.56650157438344
 30
0.0
 11
1.01301206276228
 21
1.563548818477928
 31
0.0
  0
LWPOLYLINE
  5
2923
330
1E
100
AcDbEntity
  8
0
100
AcDbPolyline
 90
        3
 70
     0
 43
0.0
 10
1.015964818667792
 20
1.560596062572416
 10
1.014980566699288
 20
1.562564566509424
 10
1.01301206276228
 20
1.563548818477928
  0
LWPOLYLINE
  5
2928
330
1E
100
AcDbEntity
  8
0
100
AcDbPolyline
 90
        3
 70
     0
 43
0.0
 10
1.0179333226048
 20
1.556659054698401
 10
1.016949070636296
 20
1.558627558635408
 10
1.015964818667792
 20
1.560596062572416
  0
LINE
  5
292D
330
1E
100
AcDbEntity
  8
0
100
AcDbLine
 10
1.0179333226048
 20
1.552722046824385
 30
0.0
 11
1.0179333226048
 21
1.556659054698401
 31
0.0
  0
LINE
  5
292E
330
1E
100
AcDbEntity
  8
0
100
AcDbLine
 10
1.014980566699288
 20
1.546816535013361
 30
0.0
 11
1.014980566699288
 21
1.546816535013361
 31
0.0
  0
LWPOLYLINE
  5
292F
330
1E
100
AcDbEntity
  8
0
100
AcDbPolyline
 90
        3
 70
     0
 43
0.0
 10
1.014980566699288
 20
1.546816535013361
 10
1.015964818667792
 20
1.546816535013361
 10
1.0179333226048
 20
1.549769290918873
  0
LINE
  5
2934
330
1E
100
AcDbEntity
  8
0
100
AcDbLine
 10
1.02285458244732
 20
1.546816535013361
 30
0.0
 11
1.024823086384328
 21
1.547800786981865
 31
0.0
  0
LINE
  5
2935
330
1E
100
AcDbEntity
  8
0
100
AcDbLine
 10
1.0179333226048
 20
1.552722046824385
 30
0.0
 11
1.0179333226048
 21
1.549769290918873
 31
0.0
  0
LWPOLYLINE
  5
2936
330
1E
100
AcDbEntity
  8
0
100
AcDbPolyline
 90
        3
 70
     0
 43
0.0
 10
1.015964818667792
 20
1.547800786981865
 10
1.016949070636296
 20
1.548785038950369
 10
1.0179333226048
 20
1.549769290918873
  0
LWPOLYLINE
  5
293B
330
1E
100
AcDbEntity
  8
0
100
AcDbPolyline
 90
        3
 70
     0
 43
0.0
 10
1.186240409218974
 20
1.637367716115723
 10
1.193130172998501
 20
1.645241731863754
 10
1.195098676935509
 20
1.65902125942281
  0
LWPOLYLINE
  5
2940
330
1E
100
AcDbEntity
  8
0
100
AcDbPolyline
 90
        4
 70
     0
 43
0.0
 10
1.034665606069367
 20
1.564533070446432
 10
1.030728598195351
 20
1.549769290918873
 10
1.020886078510312
 20
1.542879527139345
 10
1.008090802919761
 20
1.543863779107849
  0
LWPOLYLINE
  5
2946
330
1E
100
AcDbEntity
  8
0
100
AcDbPolyline
 90
        4
 70
     0
 43
0.0
 10
1.165571117880391
 20
1.715123621627534
 10
1.18033489740795
 20
1.701344094068479
 10
1.191161669061493
 20
1.681659054698401
 10
1.195098676935509
 20
1.661974015328322
  0
LWPOLYLINE
  5
294C
330
1E
100
AcDbEntity
  8
0
100
AcDbPolyline
 90
        3
 70
     0
 43
0.0
 10
0.966752220242596
 20
1.573391338162967
 10
0.9785632438646432
 20
1.571422834225959
 10
0.9854530076441708
 20
1.577328346036983
  0
LWPOLYLINE
  5
2951
330
1E
100
AcDbEntity
  8
0
100
AcDbPolyline
 90
        4
 70
     0
 43
0.0
 10
0.966752220242596
 20
2.018273227926747
 10
0.9775789918961393
 20
2.016304723989739
 10
0.9844687556756667
 20
2.021225983832259
 10
0.982500251738659
 20
2.027131495643282
  0
LWPOLYLINE
  5
2957
330
1E
100
AcDbEntity
  8
0
100
AcDbPolyline
 90
        3
 70
     0
 43
0.0
 10
0.9795474958331471
 20
1.544848031076353
 10
0.9697049761481078
 20
1.555674802729896
 10
0.966752220242596
 20
1.573391338162967
  0
LWPOLYLINE
  5
295C
330
1E
100
AcDbEntity
  8
0
100
AcDbPolyline
 90
        3
 70
     0
 43
0.0
 10
0.8643900155181864
 20
1.611777164934621
 10
0.855531747801651
 20
1.622603936588165
 10
0.8525789918961393
 20
1.639336220052731
  0
LWPOLYLINE
  5
2961
330
1E
100
AcDbEntity
  8
0
100
AcDbPolyline
 90
        3
 70
     0
 43
0.0
 10
1.014980566699288
 20
1.547800786981865
 10
1.016949070636296
 20
1.556659054698401
 10
1.010059306856769
 20
1.56650157438344
  0
LWPOLYLINE
  5
2966
330
1E
100
AcDbEntity
  8
0
100
AcDbPolyline
 90
        3
 70
     0
 43
0.0
 10
1.010059306856769
 20
1.56650157438344
 10
0.9992325352032258
 20
1.562564566509424
 10
0.9903742674866904
 20
1.564533070446432
  0
LINE
  5
296B
330
1E
100
AcDbEntity
  8
0
100
AcDbLine
 10
1.010059306856769
 20
1.56650157438344
 30
0.0
 11
0.9854530076441708
 21
1.580281101942495
 31
0.0
  0
LINE
  5
296C
330
1E
100
AcDbEntity
  8
0
100
AcDbLine
 10
1.010059306856769
 20
1.56650157438344
 30
0.0
 11
1.010059306856769
 21
1.56650157438344
 31
0.0
  0
LWPOLYLINE
  5
296D
330
1E
100
AcDbEntity
  8
0
100
AcDbPolyline
 90
        4
 70
     0
 43
0.0
 10
0.8525789918961393
 20
2.084218109816511
 10
0.8496262359906275
 20
2.090123621627534
 10
0.857500251738659
 20
2.095044881470054
 10
0.8673427714236982
 20
2.093076377533046
  0
LINE
  5
2973
330
1E
100
AcDbEntity
  8
0
100
AcDbLine
 10
0.883090802919761
 20
1.81650157438344
 30
0.0
 11
0.867342771423698
 21
1.807643306666904
 31
0.0
  0
LINE
  5
2974
330
1E
100
AcDbEntity
  8
0
100
AcDbLine
 10
0.9952955273292101
 20
1.62654094446218
 30
0.0
 11
0.9854530076441708
 21
1.623588188556668
 31
0.0
  0
LWPOLYLINE
  5
2975
330
1E
100
AcDbEntity
  8
0
100
AcDbPolyline
 90
        3
 70
     0
 43
0.0
 10
0.8525789918961393
 20
1.639336220052731
 10
0.8496262359906275
 20
1.641304723989739
 10
0.8486419840221234
 20
1.644257479895251
  0
LWPOLYLINE
  5
297A
330
1E
100
AcDbEntity
  8
0
100
AcDbPolyline
 90
        8
 70
     0
 43
0.0
 10
5.803366393470941
 20
4.400162991706273
 10
5.808287653313461
 20
4.412958267296824
 10
5.819114424967004
 20
4.417879527139344
 10
5.831909700557556
 20
4.415911023202336
 10
5.845689228116611
 20
4.407052755485801
 10
5.858484503707162
 20
4.391304723989738
 10
5.867342771423698
 20
4.373588188556666
 10
5.87029552732921
 20
4.355871653123596
  0
LINE
  5
2984
330
1E
100
AcDbEntity
  8
0
100
AcDbLine
 10
5.87029552732921
 20
4.355871653123596
 30
0.0
 11
5.984468755675667
 21
4.421816535013359
 31
0.0
  0
LINE
  5
2985
330
1E
100
AcDbEntity
  8
0
100
AcDbLine
 10
5.983484503707162
 20
4.430674802729895
 30
0.0
 11
5.984468755675667
 21
4.421816535013359
 31
0.0
  0
LINE
  5
2986
330
1E
100
AcDbEntity
  8
0
100
AcDbLine
 10
5.98053174780165
 20
4.441501574383439
 30
0.0
 11
5.983484503707162
 21
4.430674802729895
 31
0.0
  0
LINE
  5
2987
330
1E
100
AcDbEntity
  8
0
100
AcDbLine
 10
5.976594739927636
 20
4.452328346036981
 30
0.0
 11
5.98053174780165
 21
4.441501574383439
 31
0.0
  0
LINE
  5
2988
330
1E
100
AcDbEntity
  8
0
100
AcDbLine
 10
5.970689228116611
 20
4.462170865722021
 30
0.0
 11
5.976594739927636
 21
4.452328346036981
 31
0.0
  0
LWPOLYLINE
  5
2989
330
1E
100
AcDbEntity
  8
0
100
AcDbPolyline
 90
        3
 70
     0
 43
0.0
 10
5.956909700557558
 20
4.475950393281076
 10
5.963799464337084
 20
4.470044881470053
 10
5.970689228116611
 20
4.462170865722021
  0
LINE
  5
298E
330
1E
100
AcDbEntity
  8
0
100
AcDbLine
 10
5.956909700557558
 20
4.475950393281076
 30
0.0
 11
5.951004188746534
 21
4.479887401155092
 31
0.0
  0
LINE
  5
298F
330
1E
100
AcDbEntity
  8
0
100
AcDbLine
 10
5.94509867693551
 20
4.482840157060604
 30
0.0
 11
5.951004188746534
 21
4.479887401155092
 31
0.0
  0
LWPOLYLINE
  5
2990
330
1E
100
AcDbEntity
  8
0
100
AcDbPolyline
 90
        3
 70
     0
 43
0.0
 10
5.94509867693551
 20
4.482840157060604
 10
5.938208913155982
 20
4.484808660997612
 10
5.931319149376454
 20
4.483824409029107
  0
LINE
  5
2995
330
1E
100
AcDbEntity
  8
0
100
AcDbLine
 10
5.931319149376454
 20
4.483824409029107
 30
0.0
 11
5.927382141502439
 21
4.4818559050921
 31
0.0
  0
LWPOLYLINE
  5
2996
330
1E
100
AcDbEntity
  8
0
100
AcDbPolyline
 90
        3
 70
     0
 43
0.0
 10
5.951004188746534
 20
4.479887401155092
 10
5.977578991896139
 20
4.497603936588163
 10
5.999232535203226
 20
4.511383464147218
  0
LINE
  5
299B
330
1E
100
AcDbEntity
  8
0
100
AcDbLine
 10
5.999232535203226
 20
4.511383464147218
 30
0.0
 11
5.942145921029998
 21
4.544848031076352
 31
0.0
  0
LWPOLYLINE
  5
299C
330
1E
100
AcDbEntity
  8
0
100
AcDbPolyline
 90
        7
 70
     0
 43
0.0
 10
5.94509867693551
 20
4.482840157060604
 10
5.951004188746534
 20
4.489729920840131
 10
5.951004188746534
 20
4.496619684619659
 10
5.944114424967006
 20
4.513351968084226
 10
5.936240409218974
 20
4.530084251548792
 10
5.936240409218974
 20
4.537958267296824
 10
5.942145921029998
 20
4.544848031076352
  0
LWPOLYLINE
  5
29A5
330
1E
100
AcDbEntity
  8
0
100
AcDbPolyline
 90
        3
 70
     0
 43
0.0
 10
5.927382141502439
 20
4.503509448399187
 10
5.925413637565432
 20
4.51925747989525
 10
5.928366393470943
 20
4.532052755485801
  0
LINE
  5
29AA
330
1E
100
AcDbEntity
  8
0
100
AcDbLine
 10
5.942145921029998
 20
4.544848031076352
 30
0.0
 11
5.939193165124486
 21
4.545832283044855
 31
0.0
  0
LWPOLYLINE
  5
29AB
330
1E
100
AcDbEntity
  8
0
100
AcDbPolyline
 90
        3
 70
     0
 43
0.0
 10
5.939193165124486
 20
4.545832283044855
 10
5.938208913155982
 20
4.545832283044855
 10
5.936240409218974
 20
4.544848031076352
  0
LWPOLYLINE
  5
29B0
330
1E
100
AcDbEntity
  8
0
100
AcDbPolyline
 90
        4
 70
     0
 43
0.0
 10
5.87029552732921
 20
4.355871653123596
 10
5.866358519455193
 20
4.340123621627533
 10
5.856515999770154
 20
4.333233857848005
 10
5.841752220242595
 20
4.334218109816509
  0
LWPOLYLINE
  5
29B6
330
1E
100
AcDbEntity
  8
0
100
AcDbPolyline
 90
        3
 70
     0
 43
0.0
 10
5.974626235990626
 20
4.400162991706273
 10
5.981515999770154
 20
4.408037007454304
 10
5.984468755675667
 20
4.420832283044855
  0
LINE
  5
29BB
330
1E
100
AcDbEntity
  8
0
100
AcDbLine
 10
5.984468755675667
 20
4.421816535013359
 30
0.0
 11
5.984468755675667
 21
4.420832283044855
 31
0.0
  0
LWPOLYLINE
  5
29BC
330
1E
100
AcDbEntity
  8
0
100
AcDbPolyline
 90
        3
 70
     0
 43
0.0
 10
5.83289395252606
 20
4.409021259422809
 10
5.815177417092989
 20
4.41197401532832
 10
5.804350645439447
 20
4.401147243674778
  0
LWPOLYLINE
  5
29C1
330
1E
100
AcDbEntity
  8
0
100
AcDbPolyline
 90
        7
 70
     0
 43
0.0
 10
5.842736472211099
 20
4.335202361785013
 10
5.854547495833147
 20
4.336186613753516
 10
5.862421511581178
 20
4.346029133438556
 10
5.863405763549682
 20
4.36177716493462
 10
5.857500251738658
 20
4.379493700367691
 10
5.846673480085115
 20
4.397210235800761
 10
5.83289395252606
 20
4.409021259422809
  0
LWPOLYLINE
  5
29CA
330
1E
100
AcDbEntity
  8
0
100
AcDbPolyline
 90
        7
 70
     0
 43
0.0
 10
5.814193165124486
 20
4.407052755485801
 10
5.826004188746532
 20
4.408037007454304
 10
5.840767968274091
 20
4.399178739737769
 10
5.852578991896139
 20
4.38441496021021
 10
5.859468755675667
 20
4.366698424777139
 10
5.859468755675667
 20
4.349966141312572
 10
5.852578991896139
 20
4.340123621627533
  0
LINE
  5
29D3
330
1E
100
AcDbEntity
  8
0
100
AcDbLine
 10
6.105531747801652
 20
4.760399212178715
 30
0.0
 11
5.991358519455195
 21
4.826344094068478
 31
0.0
  0
LWPOLYLINE
  5
29D4
330
1E
100
AcDbEntity
  8
0
100
AcDbPolyline
 90
        8
 70
     0
 43
0.0
 10
6.012027810793778
 20
4.748588188556666
 10
6.007106550951258
 20
4.734808660997612
 10
6.008090802919761
 20
4.717092125564541
 10
6.013996314730785
 20
4.697407086194462
 10
6.024823086384328
 20
4.677722046824383
 10
6.039586865911887
 20
4.662958267296824
 10
6.054350645439447
 20
4.653115747611785
 10
6.069114424967006
 20
4.650162991706273
  0
LWPOLYLINE
  5
29DE
330
1E
100
AcDbEntity
  8
0
100
AcDbPolyline
 90
        3
 70
     0
 43
0.0
 10
5.972657732053621
 20
4.600950393281076
 10
5.973641984022124
 20
4.597997637375565
 10
5.975610487959132
 20
4.596029133438556
  0
LINE
  5
29E3
330
1E
100
AcDbEntity
  8
0
100
AcDbLine
 10
5.975610487959132
 20
4.596029133438556
 30
0.0
 11
5.975610487959132
 21
4.817485826351942
 31
0.0
  0
LWPOLYLINE
  5
29E4
330
1E
100
AcDbEntity
  8
0
100
AcDbPolyline
 90
        4
 70
     0
 43
0.0
 10
5.991358519455195
 20
4.826344094068478
 10
5.980531747801652
 20
4.828312598005485
 10
5.972657732053621
 20
4.823391338162966
 10
5.975610487959132
 20
4.817485826351942
  0
LINE
  5
29EA
330
1E
100
AcDbEntity
  8
0
100
AcDbLine
 10
6.089783716305589
 20
4.530084251548792
 30
0.0
 11
6.089783716305589
 21
4.751540944462179
 31
0.0
  0
LINE
  5
29EB
330
1E
100
AcDbEntity
  8
0
100
AcDbLine
 10
5.975610487959132
 20
4.817485826351942
 30
0.0
 11
6.089783716305589
 21
4.751540944462179
 31
0.0
  0
LINE
  5
29EC
330
1E
100
AcDbEntity
  8
0
100
AcDbLine
 10
5.975610487959132
 20
4.596029133438556
 30
0.0
 11
6.089783716305589
 21
4.530084251548792
 31
0.0
  0
LWPOLYLINE
  5
29ED
330
1E
100
AcDbEntity
  8
0
100
AcDbPolyline
 90
       18
 70
     0
 43
0.0
 10
6.03269710213236
 20
4.743666928714147
 10
6.0179333226048
 20
4.748588188556666
 10
6.00513804701425
 20
4.747603936588163
 10
5.99529552732921
 20
4.738745668871628
 10
5.991358519455195
 20
4.723981889344068
 10
5.992342771423698
 20
4.705281101942493
 10
5.999232535203226
 20
4.685596062572415
 10
6.011043558825273
 20
4.666895275170841
 10
6.024823086384328
 20
4.652131495643281
 10
6.040571117880391
 20
4.643273227926746
 10
6.05533489740795
 20
4.641304723989738
 10
6.066161669061495
 20
4.647210235800761
 10
6.073051432841021
 20
4.659021259422809
 10
6.07501993677803
 20
4.675753542887376
 10
6.07009867693551
 20
4.695438582257454
 10
6.061240409218974
 20
4.715123621627533
 10
6.048445133628423
 20
4.7318559050921
 10
6.03269710213236
 20
4.743666928714147
  0
LWPOLYLINE
  5
2A01
330
1E
100
AcDbEntity
  8
0
100
AcDbPolyline
 90
        3
 70
     0
 43
0.0
 10
5.942145921029998
 20
4.548785038950367
 10
5.94509867693551
 20
4.548785038950367
 10
5.948051432841021
 20
4.547800786981864
  0
LWPOLYLINE
  5
2A06
330
1E
100
AcDbEntity
  8
0
100
AcDbPolyline
 90
        4
 70
     0
 43
0.0
 10
5.948051432841021
 20
4.547800786981864
 10
5.961830960400076
 20
4.560596062572415
 10
5.971673480085115
 20
4.578312598005485
 10
5.975610487959132
 20
4.596029133438556
  0
LINE
  5
2A0C
330
1E
100
AcDbEntity
  8
0
100
AcDbLine
 10
5.948051432841021
 20
4.547800786981864
 30
0.0
 11
6.062224661187478
 21
4.4818559050921
 31
0.0
  0
LWPOLYLINE
  5
2A0D
330
1E
100
AcDbEntity
  8
0
100
AcDbPolyline
 90
        4
 70
     0
 43
0.0
 10
6.062224661187478
 20
4.4818559050921
 10
6.076004188746534
 20
4.494651180682652
 10
6.086830960400076
 20
4.511383464147218
 10
6.089783716305589
 20
4.530084251548792
  0
LINE
  5
2A13
330
1E
100
AcDbEntity
  8
0
100
AcDbLine
 10
5.948051432841021
 20
4.547800786981864
 30
0.0
 11
5.942145921029998
 21
4.544848031076352
 31
0.0
  0
LINE
  5
2A14
330
1E
100
AcDbEntity
  8
0
100
AcDbLine
 10
5.999232535203226
 20
4.511383464147218
 30
0.0
 11
6.056319149376454
 21
4.477918897218084
 31
0.0
  0
LINE
  5
2A15
330
1E
100
AcDbEntity
  8
0
100
AcDbLine
 10
6.062224661187478
 20
4.4818559050921
 30
0.0
 11
6.056319149376454
 21
4.477918897218084
 31
0.0
  0
LWPOLYLINE
  5
2A16
330
1E
100
AcDbEntity
  8
0
100
AcDbPolyline
 90
        4
 70
     0
 43
0.0
 10
6.105531747801652
 20
4.760399212178715
 10
6.108484503707163
 20
4.754493700367691
 10
6.100610487959132
 20
4.74957244052517
 10
6.089783716305589
 20
4.751540944462179
  0
LWPOLYLINE
  5
2A1C
330
1E
100
AcDbEntity
  8
0
100
AcDbPolyline
 90
        7
 70
     0
 43
0.0
 10
5.956909700557558
 20
4.475950393281076
 10
5.966752220242597
 20
4.479887401155092
 10
5.978563243864643
 20
4.480871653123596
 10
6.007106550951258
 20
4.47693464524958
 10
6.034665606069369
 20
4.473981889344068
 10
6.046476629691415
 20
4.474966141312572
 10
6.056319149376454
 20
4.477918897218084
  0
LWPOLYLINE
  5
2A25
330
1E
100
AcDbEntity
  8
0
100
AcDbPolyline
 90
        6
 70
     0
 43
0.0
 10
5.989390015518186
 20
4.412958267296824
 10
6.006122298982752
 20
4.424769290918872
 10
6.022854582447321
 20
4.435596062572415
 10
6.044508125754408
 20
4.451344094068478
 10
6.054350645439447
 20
4.458233857848005
 10
6.064193165124486
 20
4.465123621627533
  0
LINE
  5
2A2D
330
1E
100
AcDbEntity
  8
0
100
AcDbLine
 10
6.063208913155982
 20
4.469060629501548
 30
0.0
 11
6.064193165124486
 21
4.465123621627533
 31
0.0
  0
LWPOLYLINE
  5
2A2E
330
1E
100
AcDbEntity
  8
0
100
AcDbPolyline
 90
        3
 70
     0
 43
0.0
 10
6.062224661187478
 20
4.472997637375565
 10
6.063208913155982
 20
4.471029133438556
 10
6.063208913155982
 20
4.469060629501548
  0
LWPOLYLINE
  5
2A33
330
1E
100
AcDbEntity
  8
0
100
AcDbPolyline
 90
        3
 70
     0
 43
0.0
 10
6.059271905281967
 20
4.475950393281076
 10
6.060256157250471
 20
4.473981889344068
 10
6.062224661187478
 20
4.472997637375565
  0
LINE
  5
2A38
330
1E
100
AcDbEntity
  8
0
100
AcDbLine
 10
6.056319149376454
 20
4.477918897218084
 30
0.0
 11
6.059271905281967
 21
4.475950393281076
 31
0.0
  0
LWPOLYLINE
  5
2A39
330
1E
100
AcDbEntity
  8
0
100
AcDbPolyline
 90
        3
 70
     0
 43
0.0
 10
5.989390015518186
 20
4.412958267296824
 10
5.987421511581178
 20
4.41197401532832
 10
5.981515999770154
 20
4.409021259422809
  0
LWPOLYLINE
  5
2A3E
330
1E
100
AcDbEntity
  8
0
100
AcDbPolyline
 90
        3
 70
     0
 43
0.0
 10
6.063208913155982
 20
4.462170865722021
 10
6.063208913155982
 20
4.461186613753516
 10
6.062224661187478
 20
4.460202361785013
  0
LINE
  5
2A43
330
1E
100
AcDbEntity
  8
0
100
AcDbLine
 10
6.064193165124486
 20
4.465123621627533
 30
0.0
 11
6.063208913155982
 21
4.462170865722021
 31
0.0
  0
LINE
  5
2A44
330
1E
100
AcDbEntity
  8
0
100
AcDbLine
 10
5.991358519455193
 20
4.413942519265328
 30
0.0
 11
5.989390015518186
 21
4.412958267296824
 31
0.0
  0
LWPOLYLINE
  5
2A45
330
1E
100
AcDbEntity
  8
0
100
AcDbPolyline
 90
        3
 70
     0
 43
0.0
 10
6.108484503707163
 20
4.534021259422809
 10
6.102578991896139
 20
4.529099999580289
 10
6.089783716305589
 20
4.530084251548792
  0
LWPOLYLINE
  5
2A4A
330
1E
100
AcDbEntity
  8
0
100
AcDbPolyline
 90
        3
 70
     0
 43
0.0
 10
6.068130172998502
 20
4.463155117690525
 10
6.069114424967006
 20
4.472013385407061
 10
6.062224661187478
 20
4.4818559050921
  0
LWPOLYLINE
  5
2A4F
330
1E
100
AcDbEntity
  8
0
100
AcDbPolyline
 90
        3
 70
     0
 43
0.0
 10
0.8486419840221234
 20
1.897210235800763
 10
0.8378152123685802
 20
1.900162991706275
 10
0.8289569446520449
 20
1.897210235800763
  0
LWPOLYLINE
  5
2A54
330
1E
100
AcDbEntity
  8
0
100
AcDbPolyline
 90
        3
 70
     0
 43
0.0
 10
0.686240409218974
 20
1.804690550761392
 10
0.6793506454394464
 20
1.806659054698401
 10
0.6763978895339346
 20
1.806659054698401
  0
LINE
  5
2A59
330
1E
100
AcDbEntity
  8
0
100
AcDbLine
 10
0.686240409218974
 20
1.804690550761392
 30
0.0
 11
0.6921459210299977
 21
1.802722046824385
 31
0.0
  0
LINE
  5
2A5A
330
1E
100
AcDbEntity
  8
0
100
AcDbLine
 10
0.6980514328410213
 20
1.798785038950369
 30
0.0
 11
0.6921459210299977
 21
1.802722046824385
 31
0.0
  0
LWPOLYLINE
  5
2A5B
330
1E
100
AcDbEntity
  8
0
100
AcDbPolyline
 90
        3
 70
     0
 43
0.0
 10
0.6980514328410213
 20
1.798785038950369
 10
0.7049411966205489
 20
1.791895275170841
 10
0.7108467084315724
 20
1.78402125942281
  0
LINE
  5
2A60
330
1E
100
AcDbEntity
  8
0
100
AcDbLine
 10
0.7108467084315722
 20
1.78402125942281
 30
0.0
 11
0.7177364722111
 21
1.77417873973777
 31
0.0
  0
LINE
  5
2A61
330
1E
100
AcDbEntity
  8
0
100
AcDbLine
 10
0.7177364722111
 20
1.77417873973777
 30
0.0
 11
0.7216734800851157
 21
1.763351968084228
 31
0.0
  0
LINE
  5
2A62
330
1E
100
AcDbEntity
  8
0
100
AcDbLine
 10
0.7216734800851157
 20
1.763351968084228
 30
0.0
 11
0.7246262359906277
 21
1.752525196430684
 31
0.0
  0
LINE
  5
2A63
330
1E
100
AcDbEntity
  8
0
100
AcDbLine
 10
0.7246262359906277
 20
1.752525196430684
 30
0.0
 11
0.7256104879591315
 21
1.744651180682653
 31
0.0
  0
LINE
  5
2A64
330
1E
100
AcDbEntity
  8
0
100
AcDbLine
 10
0.7256104879591315
 20
1.744651180682653
 30
0.0
 11
0.8486419840221234
 21
1.815517322414936
 31
0.0
  0
LWPOLYLINE
  5
2A65
330
1E
100
AcDbEntity
  8
0
100
AcDbPolyline
 90
        9
 70
     0
 43
0.0
 10
0.5582876533134621
 20
1.94150157438344
 10
0.561240409218974
 20
1.920832283044857
 10
0.5700986769355094
 20
1.900162991706275
 10
0.5838782044945646
 20
1.8814622043047
 10
0.5996262359906276
 20
1.868666928714149
 10
0.6163585194551944
 20
1.863745668871628
 10
0.6291537950457455
 20
1.865714172808637
 10
0.6389963147307851
 20
1.87654094446218
 10
0.6419490706362968
 20
1.893273227926747
  0
LWPOLYLINE
  5
2A70
330
1E
100
AcDbEntity
  8
0
100
AcDbPolyline
 90
        6
 70
     0
 43
0.0
 10
0.5740356848095252
 20
1.950359842099975
 10
0.576988440715037
 20
1.928706298792889
 10
0.5878152123685803
 20
1.906068503517298
 10
0.6025789918961393
 20
1.887367716115723
 10
0.6193112753607063
 20
1.875556692493676
 10
0.6360435588252732
 20
1.872603936588165
  0
LINE
  5
2A78
330
1E
100
AcDbEntity
  8
0
100
AcDbLine
 10
0.574035684809525
 20
1.950359842099975
 30
0.0
 11
0.558287653313462
 21
1.94150157438344
 31
0.0
  0
LWPOLYLINE
  5
2A79
330
1E
100
AcDbEntity
  8
0
100
AcDbPolyline
 90
       18
 70
     0
 43
0.0
 10
0.5996262359906276
 20
2.092092125564542
 10
0.5848624564630685
 20
2.10390314918659
 10
0.5720671808725174
 20
2.120635432651156
 10
0.5622246611874778
 20
2.140320472021235
 10
0.5582876533134621
 20
2.160005511391314
 10
0.56025615725047
 20
2.17673779485588
 10
0.5671459210299976
 20
2.188548818477928
 10
0.5779726926835409
 20
2.194454330288952
 10
0.5927364722111
 20
2.192485826351943
 10
0.607500251738659
 20
2.183627558635408
 10
0.622264031266218
 20
2.168863779107849
 10
0.6330908029197613
 20
2.150162991706275
 10
0.6399805666992889
 20
2.130477952336196
 10
0.6419490706362968
 20
2.111777164934621
 10
0.6370278107937772
 20
2.097013385407062
 10
0.6281695430772416
 20
2.088155117690527
 10
0.6153742674866905
 20
2.086186613753518
 10
0.5996262359906276
 20
2.092092125564542
  0
LINE
  5
2A8D
330
1E
100
AcDbEntity
  8
0
100
AcDbLine
 10
0.558287653313462
 20
1.94150157438344
 30
0.0
 11
0.558287653313462
 21
1.985792912966117
 31
0.0
  0
LWPOLYLINE
  5
2A8E
330
1E
100
AcDbEntity
  8
0
100
AcDbPolyline
 90
        9
 70
     0
 43
0.0
 10
0.6419490706362968
 20
1.937564566509424
 10
0.6389963147307851
 20
1.958233857848007
 10
0.6291537950457455
 20
1.97890314918659
 10
0.6163585194551944
 20
1.99661968461966
 10
0.5996262359906276
 20
2.010399212178715
 10
0.5838782044945646
 20
2.015320472021235
 10
0.5700986769355094
 20
2.013351968084228
 10
0.561240409218974
 20
2.002525196430684
 10
0.5582876533134621
 20
1.985792912966117
  0
LINE
  5
2A99
330
1E
100
AcDbEntity
  8
0
100
AcDbLine
 10
0.6419490706362967
 20
1.893273227926747
 30
0.0
 11
0.6419490706362967
 21
1.937564566509424
 31
0.0
  0
LINE
  5
2A9A
330
1E
100
AcDbEntity
  8
0
100
AcDbLine
 10
0.542539621817399
 20
1.817485826351943
 30
0.0
 11
0.542539621817399
 21
2.262367716115723
 31
0.0
  0
LINE
  5
2A9B
330
1E
100
AcDbEntity
  8
0
100
AcDbLine
 10
0.542539621817399
 20
1.817485826351943
 30
0.0
 11
0.6576971021323597
 21
1.75154094446218
 31
0.0
  0
LINE
  5
2A9C
330
1E
100
AcDbEntity
  8
0
100
AcDbLine
 10
0.6576971021323597
 20
1.75154094446218
 30
0.0
 11
0.6576971021323597
 21
2.196422834225959
 31
0.0
  0
LINE
  5
2A9D
330
1E
100
AcDbEntity
  8
0
100
AcDbLine
 10
0.542539621817399
 20
2.262367716115723
 30
0.0
 11
0.6576971021323597
 21
2.196422834225959
 31
0.0
  0
LWPOLYLINE
  5
2A9E
330
1E
100
AcDbEntity
  8
0
100
AcDbPolyline
 90
        6
 70
     0
 43
0.0
 10
0.6153742674866905
 20
2.100950393281078
 10
0.5986419840221236
 20
2.114729920840133
 10
0.5848624564630685
 20
2.134414960210212
 10
0.5760041887465331
 20
2.157052755485802
 10
0.5740356848095252
 20
2.177722046824385
 10
0.5789569446520449
 20
2.194454330288952
  0
LWPOLYLINE
  5
2AA6
330
1E
100
AcDbEntity
  8
0
100
AcDbPolyline
 90
        3
 70
     0
 43
0.0
 10
0.6360435588252732
 20
2.095044881470054
 10
0.6262010391402338
 20
2.096029133438558
 10
0.6153742674866905
 20
2.100950393281078
  0
LINE
  5
2AAB
330
1E
100
AcDbEntity
  8
0
100
AcDbLine
 10
0.574035684809525
 20
1.950359842099975
 30
0.0
 11
0.574035684809525
 21
1.994651180682653
 31
0.0
  0
LWPOLYLINE
  5
2AAC
330
1E
100
AcDbEntity
  8
0
100
AcDbPolyline
 90
        3
 70
     0
 43
0.0
 10
0.5789569446520449
 20
2.015320472021235
 10
0.5750199367780291
 20
2.0064622043047
 10
0.5740356848095252
 20
1.994651180682653
  0
LINE
  5
2AB1
330
1E
100
AcDbEntity
  8
0
100
AcDbLine
 10
0.6724608816599189
 20
2.205281101942495
 30
0.0
 11
0.558287653313462
 21
2.271225983832259
 31
0.0
  0
LINE
  5
2AB2
330
1E
100
AcDbEntity
  8
0
100
AcDbLine
 10
0.6921459210299977
 20
1.802722046824385
 30
0.0
 11
0.6763978895339347
 21
1.793863779107849
 31
0.0
  0
LINE
  5
2AB3
330
1E
100
AcDbEntity
  8
0
100
AcDbLine
 10
0.6763978895339347
 20
1.759414960210212
 30
0.0
 11
0.7010041887465333
 21
1.744651180682653
 31
0.0
  0
LWPOLYLINE
  5
2AB4
330
1E
100
AcDbEntity
  8
0
100
AcDbPolyline
 90
        7
 70
     0
 43
0.0
 10
0.6980514328410213
 20
1.798785038950369
 10
0.6921459210299976
 20
1.792879527139345
 10
0.6911616690614936
 20
1.786974015328322
 10
0.6990356848095252
 20
1.771225983832259
 10
0.7069097005575566
 20
1.7564622043047
 10
0.7069097005575566
 20
1.750556692493676
 10
0.7010041887465331
 20
1.744651180682653
  0
LINE
  5
2ABD
330
1E
100
AcDbEntity
  8
0
100
AcDbLine
 10
0.7147837163055879
 20
1.726934645249581
 30
0.0
 11
0.7128152123685801
 21
1.726934645249581
 31
0.0
  0
LWPOLYLINE
  5
2ABE
330
1E
100
AcDbEntity
  8
0
100
AcDbPolyline
 90
        3
 70
     0
 43
0.0
 10
0.7177364722111
 20
1.733824409029109
 10
0.7157679682740921
 20
1.734808660997613
 10
0.7088782044945646
 20
1.731855905092102
  0
LWPOLYLINE
  5
2AC3
330
1E
100
AcDbEntity
  8
0
100
AcDbPolyline
 90
        3
 70
     0
 43
0.0
 10
0.714783716305588
 20
1.726934645249581
 10
0.7167522202425959
 20
1.727918897218086
 10
0.7226577320536196
 20
1.730871653123597
  0
LWPOLYLINE
  5
2AC8
330
1E
100
AcDbEntity
  8
0
100
AcDbPolyline
 90
        3
 70
     0
 43
0.0
 10
0.7226577320536196
 20
1.730871653123597
 10
0.7246262359906276
 20
1.736777164934621
 10
0.7256104879591315
 20
1.742682676745644
  0
LINE
  5
2ACD
330
1E
100
AcDbEntity
  8
0
100
AcDbLine
 10
0.7256104879591315
 20
1.744651180682653
 30
0.0
 11
0.7256104879591315
 21
1.742682676745644
 31
0.0
  0
LINE
  5
2ACE
330
1E
100
AcDbEntity
  8
0
100
AcDbLine
 10
0.7010041887465333
 20
1.744651180682653
 30
0.0
 11
0.7039569446520449
 21
1.742682676745644
 31
0.0
  0
LWPOLYLINE
  5
2ACF
330
1E
100
AcDbEntity
  8
0
100
AcDbPolyline
 90
        3
 70
     0
 43
0.0
 10
0.7059254485890527
 20
1.738745668871628
 10
0.7049411966205489
 20
1.740714172808637
 10
0.7039569446520449
 20
1.742682676745644
  0
LWPOLYLINE
  5
2AD4
330
1E
100
AcDbEntity
  8
0
100
AcDbPolyline
 90
        3
 70
     0
 43
0.0
 10
0.7078939525260606
 20
1.734808660997613
 10
0.7069097005575566
 20
1.736777164934621
 10
0.7059254485890527
 20
1.738745668871628
  0
LINE
  5
2AD9
330
1E
100
AcDbEntity
  8
0
100
AcDbLine
 10
0.7088782044945648
 20
1.731855905092102
 30
0.0
 11
0.7078939525260606
 21
1.734808660997613
 31
0.0
  0
LINE
  5
2ADA
330
1E
100
AcDbEntity
  8
0
100
AcDbLine
 10
0.7059254485890527
 20
1.725950393281078
 30
0.0
 11
0.7059254485890527
 21
1.725950393281078
 31
0.0
  0
LINE
  5
2ADB
330
1E
100
AcDbEntity
  8
0
100
AcDbLine
 10
0.7059254485890527
 20
1.725950393281078
 30
0.0
 11
0.7078939525260606
 21
1.727918897218086
 31
0.0
  0
LINE
  5
2ADC
330
1E
100
AcDbEntity
  8
0
100
AcDbLine
 10
0.7128152123685801
 20
1.724966141312574
 30
0.0
 11
0.7147837163055879
 21
1.726934645249581
 31
0.0
  0
LINE
  5
2ADD
330
1E
100
AcDbEntity
  8
0
100
AcDbLine
 10
0.7088782044945648
 20
1.731855905092102
 30
0.0
 11
0.7078939525260606
 21
1.72890314918659
 31
0.0
  0
LWPOLYLINE
  5
2ADE
330
1E
100
AcDbEntity
  8
0
100
AcDbPolyline
 90
        3
 70
     0
 43
0.0
 10
0.7059254485890527
 20
1.726934645249581
 10
0.7069097005575565
 20
1.726934645249581
 10
0.7078939525260605
 20
1.72890314918659
  0
LWPOLYLINE
  5
2AE3
330
1E
100
AcDbEntity
  8
0
100
AcDbPolyline
 90
        3
 70
     0
 43
0.0
 10
0.8840750548882652
 20
1.824375590131471
 10
0.8850593068567691
 20
1.827328346036983
 10
0.886043558825273
 20
1.831265353910999
  0
LWPOLYLINE
  5
2AE8
330
1E
100
AcDbEntity
  8
0
100
AcDbPolyline
 90
        4
 70
     0
 43
0.0
 10
0.7256104879591315
 20
1.742682676745644
 10
0.7216734800851157
 20
1.72890314918659
 10
0.7118309604000763
 20
1.721029133438558
 10
0.6980514328410212
 20
1.722013385407062
  0
LWPOLYLINE
  5
2AEE
330
1E
100
AcDbEntity
  8
0
100
AcDbPolyline
 90
        3
 70
     0
 43
0.0
 10
0.6576971021323598
 20
1.75154094446218
 10
0.669508125754407
 20
1.750556692493676
 10
0.6763978895339346
 20
1.7564622043047
  0
LWPOLYLINE
  5
2AF3
330
1E
100
AcDbEntity
  8
0
100
AcDbPolyline
 90
        4
 70
     0
 43
0.0
 10
0.6576971021323598
 20
2.196422834225959
 10
0.6675396218173991
 20
2.195438582257455
 10
0.6754136375654306
 20
2.199375590131471
 10
0.6724608816599189
 20
2.205281101942495
  0
LWPOLYLINE
  5
2AF9
330
1E
100
AcDbEntity
  8
0
100
AcDbPolyline
 90
        3
 70
     0
 43
0.0
 10
0.6695081257544069
 20
1.72398188934407
 10
0.6606498580378716
 20
1.734808660997613
 10
0.6576971021323598
 20
1.75154094446218
  0
LWPOLYLINE
  5
2AFE
330
1E
100
AcDbEntity
  8
0
100
AcDbPolyline
 90
        3
 70
     0
 43
0.0
 10
0.5553348974079503
 20
1.789926771233833
 10
0.5464766296914149
 20
1.800753542887377
 10
0.5425396218173991
 20
1.817485826351943
  0
LWPOLYLINE
  5
2B03
330
1E
100
AcDbEntity
  8
0
100
AcDbPolyline
 90
        3
 70
     0
 43
0.0
 10
0.7059254485890527
 20
1.725950393281078
 10
0.7078939525260606
 20
1.734808660997613
 10
0.7010041887465331
 20
1.744651180682653
  0
LWPOLYLINE
  5
2B08
330
1E
100
AcDbEntity
  8
0
100
AcDbPolyline
 90
        3
 70
     0
 43
0.0
 10
0.7010041887465331
 20
1.744651180682653
 10
0.6901774170929897
 20
1.740714172808637
 10
0.6813191493764542
 20
1.742682676745644
  0
LINE
  5
2B0D
330
1E
100
AcDbEntity
  8
0
100
AcDbLine
 10
0.7010041887465333
 20
1.744651180682653
 30
0.0
 11
0.6763978895339347
 21
1.759414960210212
 31
0.0
  0
LINE
  5
2B0E
330
1E
100
AcDbEntity
  8
0
100
AcDbLine
 10
0.7010041887465333
 20
1.744651180682653
 30
0.0
 11
0.7010041887465333
 21
1.744651180682653
 31
0.0
  0
LWPOLYLINE
  5
2B0F
330
1E
100
AcDbEntity
  8
0
100
AcDbPolyline
 90
        4
 70
     0
 43
0.0
 10
0.5425396218173991
 20
2.262367716115723
 10
0.5395868659118874
 20
2.269257479895251
 10
0.5474608816599189
 20
2.273194487769266
 10
0.5582876533134621
 20
2.271225983832259
  0
LINE
  5
2B15
330
1E
100
AcDbEntity
  8
0
100
AcDbLine
 10
0.574035684809525
 20
1.994651180682653
 30
0.0
 11
0.558287653313462
 21
1.985792912966117
 31
0.0
  0
LINE
  5
2B16
330
1E
100
AcDbEntity
  8
0
100
AcDbLine
 10
0.686240409218974
 20
1.804690550761392
 30
0.0
 11
0.6763978895339347
 21
1.802722046824385
 31
0.0
  0
LWPOLYLINE
  5
2B17
330
1E
100
AcDbEntity
  8
0
100
AcDbPolyline
 90
        3
 70
     0
 43
0.0
 10
0.5425396218173991
 20
1.817485826351943
 10
0.5405711178803913
 20
1.820438582257455
 10
0.5395868659118874
 20
1.822407086194464
  0
LWPOLYLINE
  5
2B1C
330
1E
100
AcDbEntity
  8
0
100
AcDbPolyline
 90
        8
 70
     0
 43
0.0
 10
5.494311275360706
 20
4.579296849973991
 10
5.499232535203226
 20
4.591107873596037
 10
5.509075054888265
 20
4.597013385407061
 10
5.522854582447321
 20
4.595044881470053
 10
5.536634110006376
 20
4.585202361785014
 10
5.549429385596926
 20
4.570438582257454
 10
5.557303401344958
 20
4.552722046824383
 10
5.560256157250471
 20
4.535005511391313
  0
LINE
  5
2B26
330
1E
100
AcDbEntity
  8
0
100
AcDbLine
 10
5.560256157250471
 20
4.535005511391313
 30
0.0
 11
5.675413637565432
 21
4.600950393281077
 31
0.0
  0
LINE
  5
2B27
330
1E
100
AcDbEntity
  8
0
100
AcDbLine
 10
5.674429385596926
 20
4.608824409029108
 30
0.0
 11
5.675413637565432
 21
4.600950393281077
 31
0.0
  0
LINE
  5
2B28
330
1E
100
AcDbEntity
  8
0
100
AcDbLine
 10
5.671476629691415
 20
4.619651180682652
 30
0.0
 11
5.674429385596926
 21
4.608824409029108
 31
0.0
  0
LINE
  5
2B29
330
1E
100
AcDbEntity
  8
0
100
AcDbLine
 10
5.666555369848895
 20
4.630477952336194
 30
0.0
 11
5.671476629691415
 21
4.619651180682652
 31
0.0
  0
LINE
  5
2B2A
330
1E
100
AcDbEntity
  8
0
100
AcDbLine
 10
5.660649858037873
 20
4.640320472021234
 30
0.0
 11
5.666555369848895
 21
4.630477952336194
 31
0.0
  0
LWPOLYLINE
  5
2B2B
330
1E
100
AcDbEntity
  8
0
100
AcDbPolyline
 90
        3
 70
     0
 43
0.0
 10
5.647854582447321
 20
4.655084251548793
 10
5.654744346226848
 20
4.648194487769266
 10
5.660649858037873
 20
4.640320472021234
  0
LINE
  5
2B30
330
1E
100
AcDbEntity
  8
0
100
AcDbLine
 10
5.647854582447321
 20
4.655084251548793
 30
0.0
 11
5.641949070636297
 21
4.659021259422809
 31
0.0
  0
LINE
  5
2B31
330
1E
100
AcDbEntity
  8
0
100
AcDbLine
 10
5.636043558825273
 20
4.660989763359816
 30
0.0
 11
5.641949070636297
 21
4.659021259422809
 31
0.0
  0
LWPOLYLINE
  5
2B32
330
1E
100
AcDbEntity
  8
0
100
AcDbPolyline
 90
        3
 70
     0
 43
0.0
 10
5.636043558825273
 20
4.660989763359816
 10
5.629153795045747
 20
4.662958267296825
 10
5.622264031266219
 20
4.662958267296825
  0
LINE
  5
2B37
330
1E
100
AcDbEntity
  8
0
100
AcDbLine
 10
5.622264031266219
 20
4.662958267296825
 30
0.0
 11
5.618327023392202
 21
4.660989763359816
 31
0.0
  0
LWPOLYLINE
  5
2B38
330
1E
100
AcDbEntity
  8
0
100
AcDbPolyline
 90
        3
 70
     0
 43
0.0
 10
5.641949070636297
 20
4.659021259422809
 10
5.668523873785904
 20
4.676737794855879
 10
5.690177417092989
 20
4.690517322414935
  0
LINE
  5
2B3D
330
1E
100
AcDbEntity
  8
0
100
AcDbLine
 10
5.690177417092989
 20
4.690517322414935
 30
0.0
 11
5.633090802919761
 21
4.722997637375565
 31
0.0
  0
LWPOLYLINE
  5
2B3E
330
1E
100
AcDbEntity
  8
0
100
AcDbPolyline
 90
        7
 70
     0
 43
0.0
 10
5.636043558825273
 20
4.660989763359816
 10
5.640964818667793
 20
4.667879527139344
 10
5.641949070636297
 20
4.675753542887376
 10
5.634075054888265
 20
4.692485826351942
 10
5.626201039140234
 20
4.709218109816509
 10
5.627185291108737
 20
4.717092125564541
 10
5.633090802919761
 20
4.722997637375565
  0
LWPOLYLINE
  5
2B47
330
1E
100
AcDbEntity
  8
0
100
AcDbPolyline
 90
        3
 70
     0
 43
0.0
 10
5.617342771423698
 20
4.682643306666903
 10
5.616358519455195
 20
4.698391338162966
 10
5.618327023392202
 20
4.711186613753517
  0
LINE
  5
2B4C
330
1E
100
AcDbEntity
  8
0
100
AcDbLine
 10
5.633090802919761
 20
4.722997637375565
 30
0.0
 11
5.63013804701425
 21
4.723981889344068
 31
0.0
  0
LWPOLYLINE
  5
2B4D
330
1E
100
AcDbEntity
  8
0
100
AcDbPolyline
 90
        3
 70
     0
 43
0.0
 10
5.63013804701425
 20
4.723981889344068
 10
5.628169543077241
 20
4.723981889344068
 10
5.627185291108737
 20
4.723981889344068
  0
LWPOLYLINE
  5
2B52
330
1E
100
AcDbEntity
  8
0
100
AcDbPolyline
 90
        4
 70
     0
 43
0.0
 10
5.560256157250471
 20
4.535005511391313
 10
5.557303401344958
 20
4.51925747989525
 10
5.546476629691415
 20
4.511383464147218
 10
5.53269710213236
 20
4.512367716115722
  0
LWPOLYLINE
  5
2B58
330
1E
100
AcDbEntity
  8
0
100
AcDbPolyline
 90
        3
 70
     0
 43
0.0
 10
5.665571117880391
 20
4.579296849973991
 10
5.672460881659919
 20
4.587170865722022
 10
5.675413637565432
 20
4.598981889344068
  0
LINE
  5
2B5D
330
1E
100
AcDbEntity
  8
0
100
AcDbLine
 10
5.675413637565432
 20
4.600950393281077
 30
0.0
 11
5.675413637565432
 21
4.598981889344068
 31
0.0
  0
LWPOLYLINE
  5
2B5E
330
1E
100
AcDbEntity
  8
0
100
AcDbPolyline
 90
        3
 70
     0
 43
0.0
 10
5.523838834415824
 20
4.587170865722022
 10
5.506122298982754
 20
4.591107873596037
 10
5.49529552732921
 20
4.579296849973991
  0
LWPOLYLINE
  5
2B63
330
1E
100
AcDbEntity
  8
0
100
AcDbPolyline
 90
        7
 70
     0
 43
0.0
 10
5.533681354100863
 20
4.513351968084226
 10
5.545492377722911
 20
4.515320472021234
 10
5.552382141502439
 20
4.52417873973777
 10
5.554350645439447
 20
4.539926771233833
 10
5.548445133628423
 20
4.558627558635407
 10
5.53761836197488
 20
4.575359842099974
 10
5.523838834415824
 20
4.587170865722022
  0
LWPOLYLINE
  5
2B6C
330
1E
100
AcDbEntity
  8
0
100
AcDbPolyline
 90
        7
 70
     0
 43
0.0
 10
5.50513804701425
 20
4.585202361785014
 10
5.516949070636297
 20
4.586186613753517
 10
5.530728598195352
 20
4.578312598005486
 10
5.543523873785904
 20
4.563548818477928
 10
5.550413637565432
 20
4.544848031076352
 10
5.550413637565432
 20
4.529099999580289
 10
5.543523873785904
 20
4.51925747989525
  0
LINE
  5
2B75
330
1E
100
AcDbEntity
  8
0
100
AcDbLine
 10
5.796476629691415
 20
4.939533070446431
 30
0.0
 11
5.682303401344958
 21
5.005477952336194
 31
0.0
  0
LWPOLYLINE
  5
2B76
330
1E
100
AcDbEntity
  8
0
100
AcDbPolyline
 90
        8
 70
     0
 43
0.0
 10
5.702972692683541
 20
4.927722046824383
 10
5.698051432841021
 20
4.913942519265328
 10
5.698051432841021
 20
4.895241731863753
 10
5.704941196620548
 20
4.875556692493675
 10
5.715767968274093
 20
4.8568559050921
 10
5.729547495833147
 20
4.841107873596037
 10
5.74529552732921
 20
4.831265353910998
 10
5.760059306856769
 20
4.829296849973991
  0
LWPOLYLINE
  5
2B80
330
1E
100
AcDbEntity
  8
0
100
AcDbPolyline
 90
        3
 70
     0
 43
0.0
 10
5.663602613943384
 20
4.779099999580289
 10
5.663602613943384
 20
4.777131495643281
 10
5.666555369848895
 20
4.775162991706274
  0
LINE
  5
2B85
330
1E
100
AcDbEntity
  8
0
100
AcDbLine
 10
5.666555369848895
 20
4.775162991706274
 30
0.0
 11
5.666555369848895
 21
4.996619684619659
 31
0.0
  0
LWPOLYLINE
  5
2B86
330
1E
100
AcDbEntity
  8
0
100
AcDbPolyline
 90
        4
 70
     0
 43
0.0
 10
5.682303401344958
 20
5.005477952336194
 10
5.671476629691415
 20
5.006462204304698
 10
5.663602613943384
 20
5.002525196430683
 10
5.666555369848895
 20
4.996619684619659
  0
LINE
  5
2B8C
330
1E
100
AcDbEntity
  8
0
100
AcDbLine
 10
5.780728598195352
 20
4.708233857848005
 30
0.0
 11
5.780728598195352
 21
4.929690550761391
 31
0.0
  0
LINE
  5
2B8D
330
1E
100
AcDbEntity
  8
0
100
AcDbLine
 10
5.666555369848895
 20
4.996619684619659
 30
0.0
 11
5.780728598195352
 21
4.929690550761391
 31
0.0
  0
LINE
  5
2B8E
330
1E
100
AcDbEntity
  8
0
100
AcDbLine
 10
5.666555369848895
 20
4.775162991706274
 30
0.0
 11
5.780728598195352
 21
4.708233857848005
 31
0.0
  0
LWPOLYLINE
  5
2B8F
330
1E
100
AcDbEntity
  8
0
100
AcDbPolyline
 90
       18
 70
     0
 43
0.0
 10
5.723641984022124
 20
4.92181653501336
 10
5.708878204494565
 20
4.927722046824383
 10
5.69509867693551
 20
4.925753542887376
 10
5.686240409218974
 20
4.916895275170841
 10
5.682303401344958
 20
4.902131495643281
 10
5.683287653313463
 20
4.883430708241706
 10
5.690177417092989
 20
4.863745668871628
 10
5.701988440715037
 20
4.846029133438557
 10
5.715767968274093
 20
4.831265353910998
 10
5.731515999770156
 20
4.822407086194463
 10
5.74529552732921
 20
4.820438582257454
 10
5.757106550951258
 20
4.825359842099974
 10
5.763996314730785
 20
4.837170865722021
 10
5.764980566699289
 20
4.853903149186589
 10
5.761043558825273
 20
4.873588188556666
 10
5.752185291108737
 20
4.893273227926746
 10
5.738405763549684
 20
4.910005511391313
 10
5.723641984022124
 20
4.92181653501336
  0
LWPOLYLINE
  5
2BA3
330
1E
100
AcDbEntity
  8
0
100
AcDbPolyline
 90
        3
 70
     0
 43
0.0
 10
5.633090802919761
 20
4.726934645249581
 10
5.636043558825273
 20
4.727918897218085
 10
5.638996314730785
 20
4.726934645249581
  0
LWPOLYLINE
  5
2BA8
330
1E
100
AcDbEntity
  8
0
100
AcDbPolyline
 90
        4
 70
     0
 43
0.0
 10
5.638996314730785
 20
4.726934645249581
 10
5.652775842289841
 20
4.738745668871628
 10
5.66261836197488
 20
4.756462204304699
 10
5.666555369848895
 20
4.775162991706274
  0
LINE
  5
2BAE
330
1E
100
AcDbEntity
  8
0
100
AcDbLine
 10
5.638996314730785
 20
4.726934645249581
 30
0.0
 11
5.753169543077241
 21
4.660005511391313
 31
0.0
  0
LWPOLYLINE
  5
2BAF
330
1E
100
AcDbEntity
  8
0
100
AcDbPolyline
 90
        4
 70
     0
 43
0.0
 10
5.753169543077241
 20
4.660005511391313
 10
5.766949070636297
 20
4.672800786981864
 10
5.776791590321337
 20
4.690517322414935
 10
5.780728598195352
 20
4.708233857848005
  0
LINE
  5
2BB5
330
1E
100
AcDbEntity
  8
0
100
AcDbLine
 10
5.638996314730785
 20
4.726934645249581
 30
0.0
 11
5.633090802919761
 21
4.722997637375565
 31
0.0
  0
LINE
  5
2BB6
330
1E
100
AcDbEntity
  8
0
100
AcDbLine
 10
5.690177417092989
 20
4.690517322414935
 30
0.0
 11
5.747264031266219
 21
4.657052755485802
 31
0.0
  0
LINE
  5
2BB7
330
1E
100
AcDbEntity
  8
0
100
AcDbLine
 10
5.753169543077241
 20
4.660005511391313
 30
0.0
 11
5.747264031266219
 21
4.657052755485802
 31
0.0
  0
LWPOLYLINE
  5
2BB8
330
1E
100
AcDbEntity
  8
0
100
AcDbPolyline
 90
        4
 70
     0
 43
0.0
 10
5.796476629691415
 20
4.939533070446431
 10
5.799429385596926
 20
4.932643306666903
 10
5.791555369848895
 20
4.928706298792888
 10
5.780728598195352
 20
4.929690550761391
  0
LWPOLYLINE
  5
2BBE
330
1E
100
AcDbEntity
  8
0
100
AcDbPolyline
 90
        7
 70
     0
 43
0.0
 10
5.647854582447321
 20
4.655084251548793
 10
5.65769710213236
 20
4.659021259422809
 10
5.669508125754408
 20
4.660005511391313
 10
5.697067180872517
 20
4.656068503517297
 10
5.724626235990628
 20
4.652131495643281
 10
5.737421511581178
 20
4.653115747611785
 10
5.747264031266219
 20
4.657052755485802
  0
LWPOLYLINE
  5
2BC7
330
1E
100
AcDbEntity
  8
0
100
AcDbPolyline
 90
        6
 70
     0
 43
0.0
 10
5.68033489740795
 20
4.592092125564541
 10
5.696082928904013
 20
4.602918897218085
 10
5.713799464337084
 20
4.614729920840131
 10
5.735453007644171
 20
4.629493700367691
 10
5.74529552732921
 20
4.637367716115722
 10
5.75513804701425
 20
4.643273227926746
  0
LINE
  5
2BCF
330
1E
100
AcDbEntity
  8
0
100
AcDbLine
 10
5.754153795045747
 20
4.647210235800762
 30
0.0
 11
5.75513804701425
 21
4.643273227926746
 31
0.0
  0
LWPOLYLINE
  5
2BD0
330
1E
100
AcDbEntity
  8
0
100
AcDbPolyline
 90
        3
 70
     0
 43
0.0
 10
5.752185291108737
 20
4.651147243674778
 10
5.753169543077241
 20
4.64917873973777
 10
5.754153795045747
 20
4.647210235800762
  0
LWPOLYLINE
  5
2BD5
330
1E
100
AcDbEntity
  8
0
100
AcDbPolyline
 90
        3
 70
     0
 43
0.0
 10
5.75021678717173
 20
4.655084251548793
 10
5.751201039140234
 20
4.653115747611785
 10
5.752185291108737
 20
4.651147243674778
  0
LINE
  5
2BDA
330
1E
100
AcDbEntity
  8
0
100
AcDbLine
 10
5.747264031266219
 20
4.657052755485802
 30
0.0
 11
5.75021678717173
 21
4.655084251548793
 31
0.0
  0
LWPOLYLINE
  5
2BDB
330
1E
100
AcDbEntity
  8
0
100
AcDbPolyline
 90
        3
 70
     0
 43
0.0
 10
5.68033489740795
 20
4.592092125564541
 10
5.678366393470943
 20
4.591107873596037
 10
5.672460881659919
 20
4.587170865722022
  0
LWPOLYLINE
  5
2BE0
330
1E
100
AcDbEntity
  8
0
100
AcDbPolyline
 90
        3
 70
     0
 43
0.0
 10
5.754153795045747
 20
4.640320472021234
 10
5.753169543077241
 20
4.63933622005273
 10
5.752185291108737
 20
4.638351968084226
  0
LINE
  5
2BE5
330
1E
100
AcDbEntity
  8
0
100
AcDbLine
 10
5.75513804701425
 20
4.643273227926746
 30
0.0
 11
5.754153795045747
 21
4.640320472021234
 31
0.0
  0
LINE
  5
2BE6
330
1E
100
AcDbEntity
  8
0
100
AcDbLine
 10
5.682303401344958
 20
4.593076377533045
 30
0.0
 11
5.68033489740795
 21
4.592092125564541
 31
0.0
  0
LWPOLYLINE
  5
2BE7
330
1E
100
AcDbEntity
  8
0
100
AcDbPolyline
 90
        3
 70
     0
 43
0.0
 10
5.799429385596926
 20
4.713155117690525
 10
5.7925396218174
 20
4.707249605879502
 10
5.780728598195352
 20
4.708233857848005
  0
LWPOLYLINE
  5
2BEC
330
1E
100
AcDbEntity
  8
0
100
AcDbPolyline
 90
        3
 70
     0
 43
0.0
 10
5.758090802919761
 20
4.642288975958242
 10
5.760059306856769
 20
4.651147243674778
 10
5.753169543077241
 20
4.660005511391313
  0
LWPOLYLINE
  5
2BF1
330
1E
100
AcDbEntity
  8
0
100
AcDbPolyline
 90
        8
 70
     0
 43
0.0
 10
4.807303401344958
 20
5.189533070446431
 10
4.810256157250471
 20
5.204296849973991
 10
4.819114424967006
 20
5.212170865722022
 10
4.832893952526061
 20
5.212170865722022
 10
4.847657732053621
 20
5.203312598005486
 10
4.861437259612674
 20
5.187564566509423
 10
4.87029552732921
 20
5.168863779107848
 10
4.874232535203226
 20
5.150162991706274
  0
LINE
  5
2BFB
330
1E
100
AcDbEntity
  8
0
100
AcDbLine
 10
4.874232535203226
 20
5.150162991706274
 30
0.0
 11
4.988405763549684
 21
5.217092125564541
 31
0.0
  0
LINE
  5
2BFC
330
1E
100
AcDbEntity
  8
0
100
AcDbLine
 10
4.987421511581178
 20
5.224966141312573
 30
0.0
 11
4.988405763549684
 21
5.217092125564541
 31
0.0
  0
LINE
  5
2BFD
330
1E
100
AcDbEntity
  8
0
100
AcDbLine
 10
4.984468755675667
 20
5.235792912966116
 30
0.0
 11
4.987421511581178
 21
5.224966141312573
 31
0.0
  0
LINE
  5
2BFE
330
1E
100
AcDbEntity
  8
0
100
AcDbLine
 10
4.980531747801652
 20
5.246619684619659
 30
0.0
 11
4.984468755675667
 21
5.235792912966116
 31
0.0
  0
LINE
  5
2BFF
330
1E
100
AcDbEntity
  8
0
100
AcDbLine
 10
4.974626235990628
 20
5.256462204304699
 30
0.0
 11
4.980531747801652
 21
5.246619684619659
 31
0.0
  0
LWPOLYLINE
  5
2C00
330
1E
100
AcDbEntity
  8
0
100
AcDbPolyline
 90
        3
 70
     0
 43
0.0
 10
4.960846708431573
 20
5.270241731863753
 10
4.9677364722111
 20
5.26433622005273
 10
4.974626235990628
 20
5.256462204304699
  0
LINE
  5
2C05
330
1E
100
AcDbEntity
  8
0
100
AcDbLine
 10
4.960846708431573
 20
5.270241731863753
 30
0.0
 11
4.954941196620548
 21
5.274178739737769
 31
0.0
  0
LINE
  5
2C06
330
1E
100
AcDbEntity
  8
0
100
AcDbLine
 10
4.949035684809526
 20
5.277131495643281
 30
0.0
 11
4.954941196620548
 21
5.274178739737769
 31
0.0
  0
LWPOLYLINE
  5
2C07
330
1E
100
AcDbEntity
  8
0
100
AcDbPolyline
 90
        3
 70
     0
 43
0.0
 10
4.949035684809526
 20
5.277131495643281
 10
4.942145921029998
 20
5.279099999580289
 10
4.935256157250471
 20
5.278115747611785
  0
LINE
  5
2C0C
330
1E
100
AcDbEntity
  8
0
100
AcDbLine
 10
4.935256157250471
 20
5.278115747611785
 30
0.0
 11
4.931319149376454
 21
5.276147243674778
 31
0.0
  0
LWPOLYLINE
  5
2C0D
330
1E
100
AcDbEntity
  8
0
100
AcDbPolyline
 90
        3
 70
     0
 43
0.0
 10
4.954941196620548
 20
5.274178739737769
 10
4.981515999770156
 20
5.291895275170841
 10
5.003169543077241
 20
5.305674802729896
  0
LINE
  5
2C12
330
1E
100
AcDbEntity
  8
0
100
AcDbLine
 10
5.003169543077241
 20
5.305674802729896
 30
0.0
 11
4.946082928904013
 21
5.339139369659029
 31
0.0
  0
LWPOLYLINE
  5
2C13
330
1E
100
AcDbEntity
  8
0
100
AcDbPolyline
 90
        7
 70
     0
 43
0.0
 10
4.949035684809526
 20
5.277131495643281
 10
4.954941196620548
 20
5.284021259422809
 10
4.954941196620548
 20
5.291895275170841
 10
4.948051432841021
 20
5.308627558635407
 10
4.940177417092989
 20
5.325359842099974
 10
4.940177417092989
 20
5.332249605879502
 10
4.946082928904013
 20
5.339139369659029
  0
LWPOLYLINE
  5
2C1C
330
1E
100
AcDbEntity
  8
0
100
AcDbPolyline
 90
        3
 70
     0
 43
0.0
 10
4.931319149376454
 20
5.297800786981865
 10
4.929350645439447
 20
5.313548818477928
 10
4.932303401344958
 20
5.327328346036982
  0
LINE
  5
2C21
330
1E
100
AcDbEntity
  8
0
100
AcDbLine
 10
4.946082928904013
 20
5.339139369659029
 30
0.0
 11
4.943130172998502
 21
5.340123621627533
 31
0.0
  0
LWPOLYLINE
  5
2C22
330
1E
100
AcDbEntity
  8
0
100
AcDbPolyline
 90
        3
 70
     0
 43
0.0
 10
4.943130172998502
 20
5.340123621627533
 10
4.941161669061495
 20
5.340123621627533
 10
4.940177417092989
 20
5.339139369659029
  0
LWPOLYLINE
  5
2C27
330
1E
100
AcDbEntity
  8
0
100
AcDbPolyline
 90
        4
 70
     0
 43
0.0
 10
4.874232535203226
 20
5.150162991706274
 10
4.869311275360706
 20
5.133430708241706
 10
4.85750025173866
 20
5.126540944462179
 10
4.840767968274093
 20
5.131462204304699
  0
LWPOLYLINE
  5
2C2D
330
1E
100
AcDbEntity
  8
0
100
AcDbPolyline
 90
        3
 70
     0
 43
0.0
 10
4.978563243864643
 20
5.195438582257454
 10
4.985453007644171
 20
5.202328346036982
 10
4.988405763549684
 20
5.215123621627533
  0
LINE
  5
2C32
330
1E
100
AcDbEntity
  8
0
100
AcDbLine
 10
4.988405763549684
 20
5.217092125564541
 30
0.0
 11
4.988405763549684
 21
5.215123621627533
 31
0.0
  0
LWPOLYLINE
  5
2C33
330
1E
100
AcDbEntity
  8
0
100
AcDbPolyline
 90
        4
 70
     0
 43
0.0
 10
4.836830960400076
 20
5.203312598005486
 10
4.822067180872517
 20
5.207249605879502
 10
4.810256157250471
 20
5.200359842099974
 10
4.807303401344958
 20
5.184611810603911
  0
LWPOLYLINE
  5
2C39
330
1E
100
AcDbEntity
  8
0
100
AcDbPolyline
 90
        8
 70
     0
 43
0.0
 10
4.835846708431573
 20
5.133430708241706
 10
4.849626235990628
 20
5.128509448399187
 10
4.860453007644171
 20
5.132446456273203
 10
4.866358519455195
 20
5.142288975958242
 10
4.867342771423698
 20
5.158037007454305
 10
4.861437259612674
 20
5.175753542887376
 10
4.850610487959132
 20
5.191501574383439
 10
4.836830960400076
 20
5.203312598005486
  0
LWPOLYLINE
  5
2C43
330
1E
100
AcDbEntity
  8
0
100
AcDbPolyline
 90
       10
 70
     0
 43
0.0
 10
4.810256157250471
 20
5.186580314540919
 10
4.815177417092989
 20
5.198391338162966
 10
4.82501993677803
 20
5.203312598005486
 10
4.83781521236858
 20
5.198391338162966
 10
4.850610487959132
 20
5.186580314540919
 10
4.860453007644171
 20
5.170832283044856
 10
4.864390015518187
 20
5.153115747611785
 10
4.861437259612674
 20
5.140320472021234
 10
4.852578991896139
 20
5.133430708241706
 10
4.839783716305589
 20
5.135399212178715
  0
LINE
  5
2C4F
330
1E
100
AcDbEntity
  8
0
100
AcDbLine
 10
5.109468755675667
 20
5.554690550761391
 30
0.0
 11
4.99529552732921
 21
5.620635432651155
 31
0.0
  0
LWPOLYLINE
  5
2C50
330
1E
100
AcDbEntity
  8
0
100
AcDbPolyline
 90
        8
 70
     0
 43
0.0
 10
5.015964818667793
 20
5.543863779107848
 10
5.011043558825273
 20
5.530084251548793
 10
5.012027810793778
 20
5.511383464147218
 10
5.0179333226048
 20
5.49169842477714
 10
5.028760094258345
 20
5.472013385407061
 10
5.0425396218174
 20
5.457249605879502
 10
5.058287653313463
 20
5.447407086194463
 10
5.073051432841021
 20
5.444454330288951
  0
LWPOLYLINE
  5
2C5A
330
1E
100
AcDbEntity
  8
0
100
AcDbPolyline
 90
        3
 70
     0
 43
0.0
 10
4.976594739927636
 20
5.395241731863753
 10
4.977578991896139
 20
5.392288975958242
 10
4.979547495833147
 20
5.390320472021234
  0
LINE
  5
2C5F
330
1E
100
AcDbEntity
  8
0
100
AcDbLine
 10
4.979547495833147
 20
5.390320472021234
 30
0.0
 11
4.979547495833147
 21
5.61177716493462
 31
0.0
  0
LWPOLYLINE
  5
2C60
330
1E
100
AcDbEntity
  8
0
100
AcDbPolyline
 90
        4
 70
     0
 43
0.0
 10
4.99529552732921
 20
5.620635432651155
 10
4.984468755675667
 20
5.622603936588163
 10
4.976594739927636
 20
5.618666928714148
 10
4.979547495833147
 20
5.61177716493462
  0
LINE
  5
2C66
330
1E
100
AcDbEntity
  8
0
100
AcDbLine
 10
5.093720724179604
 20
5.32437559013147
 30
0.0
 11
5.093720724179604
 21
5.545832283044856
 31
0.0
  0
LINE
  5
2C67
330
1E
100
AcDbEntity
  8
0
100
AcDbLine
 10
4.979547495833147
 20
5.61177716493462
 30
0.0
 11
5.093720724179604
 21
5.545832283044856
 31
0.0
  0
LINE
  5
2C68
330
1E
100
AcDbEntity
  8
0
100
AcDbLine
 10
4.979547495833147
 20
5.390320472021234
 30
0.0
 11
5.093720724179604
 21
5.32437559013147
 31
0.0
  0
LWPOLYLINE
  5
2C69
330
1E
100
AcDbEntity
  8
0
100
AcDbPolyline
 90
       18
 70
     0
 43
0.0
 10
5.036634110006376
 20
5.537958267296825
 10
5.021870330478817
 20
5.543863779107848
 10
5.009075054888265
 20
5.541895275170841
 10
4.999232535203226
 20
5.533037007454305
 10
4.99529552732921
 20
5.518273227926746
 10
4.996279779297715
 20
5.499572440525171
 10
5.003169543077241
 20
5.479887401155092
 10
5.014980566699289
 20
5.461186613753517
 10
5.028760094258345
 20
5.446422834225959
 10
5.044508125754408
 20
5.437564566509423
 10
5.059271905281967
 20
5.435596062572416
 10
5.07009867693551
 20
5.441501574383439
 10
5.076988440715037
 20
5.453312598005486
 10
5.078956944652045
 20
5.470044881470053
 10
5.074035684809526
 20
5.489729920840131
 10
5.065177417092989
 20
5.509414960210211
 10
5.052382141502439
 20
5.526147243674778
 10
5.036634110006376
 20
5.537958267296825
  0
LWPOLYLINE
  5
2C7D
330
1E
100
AcDbEntity
  8
0
100
AcDbPolyline
 90
        3
 70
     0
 43
0.0
 10
4.946082928904013
 20
5.343076377533045
 10
4.949035684809526
 20
5.343076377533045
 10
4.951988440715037
 20
5.342092125564541
  0
LWPOLYLINE
  5
2C82
330
1E
100
AcDbEntity
  8
0
100
AcDbPolyline
 90
        4
 70
     0
 43
0.0
 10
4.951988440715037
 20
5.342092125564541
 10
4.965767968274093
 20
5.354887401155092
 10
4.975610487959132
 20
5.372603936588163
 10
4.979547495833147
 20
5.390320472021234
  0
LINE
  5
2C88
330
1E
100
AcDbEntity
  8
0
100
AcDbLine
 10
4.951988440715037
 20
5.342092125564541
 30
0.0
 11
5.066161669061495
 21
5.276147243674778
 31
0.0
  0
LWPOLYLINE
  5
2C89
330
1E
100
AcDbEntity
  8
0
100
AcDbPolyline
 90
        4
 70
     0
 43
0.0
 10
5.066161669061495
 20
5.276147243674778
 10
5.079941196620548
 20
5.288942519265328
 10
5.090767968274093
 20
5.3066590546984
 10
5.093720724179604
 20
5.32437559013147
  0
LINE
  5
2C8F
330
1E
100
AcDbEntity
  8
0
100
AcDbLine
 10
4.951988440715037
 20
5.342092125564541
 30
0.0
 11
4.946082928904013
 21
5.339139369659029
 31
0.0
  0
LINE
  5
2C90
330
1E
100
AcDbEntity
  8
0
100
AcDbLine
 10
5.003169543077241
 20
5.305674802729896
 30
0.0
 11
5.060256157250471
 21
5.273194487769266
 31
0.0
  0
LINE
  5
2C91
330
1E
100
AcDbEntity
  8
0
100
AcDbLine
 10
5.066161669061495
 20
5.276147243674778
 30
0.0
 11
5.060256157250471
 21
5.273194487769266
 31
0.0
  0
LWPOLYLINE
  5
2C92
330
1E
100
AcDbEntity
  8
0
100
AcDbPolyline
 90
        4
 70
     0
 43
0.0
 10
5.109468755675667
 20
5.554690550761391
 10
5.112421511581178
 20
5.548785038950368
 10
5.104547495833147
 20
5.544848031076353
 10
5.093720724179604
 20
5.545832283044856
  0
LWPOLYLINE
  5
2C98
330
1E
100
AcDbEntity
  8
0
100
AcDbPolyline
 90
        7
 70
     0
 43
0.0
 10
4.960846708431573
 20
5.270241731863753
 10
4.970689228116611
 20
5.274178739737769
 10
4.98250025173866
 20
5.275162991706274
 10
5.011043558825273
 20
5.272210235800762
 10
5.038602613943384
 20
5.268273227926746
 10
5.050413637565432
 20
5.26925747989525
 10
5.060256157250471
 20
5.273194487769266
  0
LWPOLYLINE
  5
2CA1
330
1E
100
AcDbEntity
  8
0
100
AcDbPolyline
 90
        6
 70
     0
 43
0.0
 10
4.993327023392202
 20
5.208233857848005
 10
5.010059306856769
 20
5.219060629501549
 10
5.026791590321337
 20
5.229887401155092
 10
5.048445133628423
 20
5.245635432651155
 10
5.058287653313463
 20
5.252525196430683
 10
5.068130172998502
 20
5.259414960210211
  0
LINE
  5
2CA9
330
1E
100
AcDbEntity
  8
0
100
AcDbLine
 10
5.067145921029998
 20
5.263351968084226
 30
0.0
 11
5.068130172998502
 21
5.259414960210211
 31
0.0
  0
LWPOLYLINE
  5
2CAA
330
1E
100
AcDbEntity
  8
0
100
AcDbPolyline
 90
        3
 70
     0
 43
0.0
 10
5.066161669061495
 20
5.267288975958242
 10
5.067145921029998
 20
5.265320472021234
 10
5.067145921029998
 20
5.263351968084226
  0
LWPOLYLINE
  5
2CAF
330
1E
100
AcDbEntity
  8
0
100
AcDbPolyline
 90
        3
 70
     0
 43
0.0
 10
5.063208913155982
 20
5.270241731863753
 10
5.064193165124486
 20
5.26925747989525
 10
5.066161669061495
 20
5.267288975958242
  0
LINE
  5
2CB4
330
1E
100
AcDbEntity
  8
0
100
AcDbLine
 10
5.060256157250471
 20
5.273194487769266
 30
0.0
 11
5.063208913155982
 21
5.270241731863753
 31
0.0
  0
LWPOLYLINE
  5
2CB5
330
1E
100
AcDbEntity
  8
0
100
AcDbPolyline
 90
        3
 70
     0
 43
0.0
 10
4.993327023392202
 20
5.208233857848005
 10
4.991358519455195
 20
5.206265353910998
 10
4.985453007644171
 20
5.203312598005486
  0
LWPOLYLINE
  5
2CBA
330
1E
100
AcDbEntity
  8
0
100
AcDbPolyline
 90
        3
 70
     0
 43
0.0
 10
5.067145921029998
 20
5.256462204304699
 10
5.067145921029998
 20
5.255477952336194
 10
5.066161669061495
 20
5.254493700367691
  0
LINE
  5
2CBF
330
1E
100
AcDbEntity
  8
0
100
AcDbLine
 10
5.068130172998502
 20
5.259414960210211
 30
0.0
 11
5.067145921029998
 21
5.256462204304699
 31
0.0
  0
LINE
  5
2CC0
330
1E
100
AcDbEntity
  8
0
100
AcDbLine
 10
4.99529552732921
 20
5.20921810981651
 30
0.0
 11
4.993327023392202
 21
5.208233857848005
 31
0.0
  0
LWPOLYLINE
  5
2CC1
330
1E
100
AcDbEntity
  8
0
100
AcDbPolyline
 90
        3
 70
     0
 43
0.0
 10
5.112421511581178
 20
5.329296849973991
 10
5.106515999770156
 20
5.323391338162966
 10
5.093720724179604
 20
5.32437559013147
  0
LWPOLYLINE
  5
2CC6
330
1E
100
AcDbEntity
  8
0
100
AcDbPolyline
 90
        3
 70
     0
 43
0.0
 10
5.072067180872517
 20
5.257446456273203
 10
5.073051432841021
 20
5.266304723989738
 10
5.066161669061495
 20
5.276147243674778
  0
LWPOLYLINE
  5
2CCB
330
1E
100
AcDbEntity
  8
0
100
AcDbPolyline
 90
        6
 70
     0
 43
0.0
 10
2.05533489740795
 20
3.523194487769266
 10
2.052382141502438
 20
3.542879527139345
 10
2.041555369848895
 20
3.562564566509423
 10
2.02777584228984
 20
3.577328346036983
 10
2.012027810793777
 20
3.585202361785014
 10
1.998248283234722
 20
3.583233857848006
  0
LWPOLYLINE
  5
2CD3
330
1E
100
AcDbEntity
  8
0
100
AcDbPolyline
 90
        3
 70
     0
 43
0.0
 10
1.855531747801651
 20
3.490714172808636
 10
1.848641984022123
 20
3.492682676745644
 10
1.841752220242596
 20
3.492682676745644
  0
LINE
  5
2CD8
330
1E
100
AcDbEntity
  8
0
100
AcDbLine
 10
1.855531747801651
 20
3.490714172808636
 30
0.0
 11
1.861437259612674
 21
3.488745668871628
 31
0.0
  0
LINE
  5
2CD9
330
1E
100
AcDbEntity
  8
0
100
AcDbLine
 10
1.867342771423698
 20
3.484808660997613
 30
0.0
 11
1.861437259612674
 21
3.488745668871628
 31
0.0
  0
LWPOLYLINE
  5
2CDA
330
1E
100
AcDbEntity
  8
0
100
AcDbPolyline
 90
        3
 70
     0
 43
0.0
 10
1.867342771423698
 20
3.484808660997613
 10
1.874232535203226
 20
3.477918897218085
 10
1.880138047014249
 20
3.470044881470053
  0
LINE
  5
2CDF
330
1E
100
AcDbEntity
  8
0
100
AcDbLine
 10
1.880138047014249
 20
3.470044881470053
 30
0.0
 11
1.887027810793777
 21
3.460202361785014
 31
0.0
  0
LINE
  5
2CE0
330
1E
100
AcDbEntity
  8
0
100
AcDbLine
 10
1.887027810793777
 20
3.460202361785014
 30
0.0
 11
1.890964818667793
 21
3.449375590131471
 31
0.0
  0
LINE
  5
2CE1
330
1E
100
AcDbEntity
  8
0
100
AcDbLine
 10
1.890964818667793
 20
3.449375590131471
 30
0.0
 11
1.893917574573304
 21
3.438548818477928
 31
0.0
  0
LINE
  5
2CE2
330
1E
100
AcDbEntity
  8
0
100
AcDbLine
 10
1.893917574573304
 20
3.438548818477928
 30
0.0
 11
1.894901826541809
 21
3.430674802729896
 31
0.0
  0
LINE
  5
2CE3
330
1E
100
AcDbEntity
  8
0
100
AcDbLine
 10
1.894901826541809
 20
3.430674802729896
 30
0.0
 11
2.05533489740795
 21
3.523194487769266
 31
0.0
  0
LWPOLYLINE
  5
2CE4
330
1E
100
AcDbEntity
  8
0
100
AcDbPolyline
 90
        3
 70
     0
 43
0.0
 10
1.861437259612674
 20
3.488745668871628
 10
1.833878204494564
 20
3.474966141312573
 10
1.813208913155982
 20
3.46413936965903
  0
LINE
  5
2CE9
330
1E
100
AcDbEntity
  8
0
100
AcDbLine
 10
1.813208913155982
 20
3.46413936965903
 30
0.0
 11
1.87029552732921
 21
3.430674802729896
 31
0.0
  0
LWPOLYLINE
  5
2CEA
330
1E
100
AcDbEntity
  8
0
100
AcDbPolyline
 90
        7
 70
     0
 43
0.0
 10
1.867342771423698
 20
3.484808660997613
 10
1.861437259612674
 20
3.479887401155093
 10
1.860453007644171
 20
3.472997637375565
 10
1.868327023392202
 20
3.457249605879502
 10
1.876201039140234
 20
3.442485826351943
 10
1.876201039140234
 20
3.43658031454092
 10
1.87029552732921
 20
3.430674802729896
  0
LINE
  5
2CF3
330
1E
100
AcDbEntity
  8
0
100
AcDbLine
 10
1.884075054888265
 20
3.412958267296825
 30
0.0
 11
1.882106550951257
 21
3.412958267296825
 31
0.0
  0
LWPOLYLINE
  5
2CF4
330
1E
100
AcDbEntity
  8
0
100
AcDbPolyline
 90
        3
 70
     0
 43
0.0
 10
1.887027810793777
 20
3.419848031076353
 10
1.885059306856769
 20
3.420832283044857
 10
1.878169543077241
 20
3.417879527139345
  0
LWPOLYLINE
  5
2CF9
330
1E
100
AcDbEntity
  8
0
100
AcDbPolyline
 90
        3
 70
     0
 43
0.0
 10
1.884075054888265
 20
3.412958267296825
 10
1.886043558825273
 20
3.413942519265329
 10
1.891949070636297
 20
3.416895275170841
  0
LWPOLYLINE
  5
2CFE
330
1E
100
AcDbEntity
  8
0
100
AcDbPolyline
 90
        3
 70
     0
 43
0.0
 10
1.891949070636297
 20
3.416895275170841
 10
1.893917574573304
 20
3.422800786981865
 10
1.894901826541809
 20
3.428706298792888
  0
LINE
  5
2D03
330
1E
100
AcDbEntity
  8
0
100
AcDbLine
 10
1.894901826541809
 20
3.430674802729896
 30
0.0
 11
1.894901826541809
 21
3.428706298792888
 31
0.0
  0
LWPOLYLINE
  5
2D04
330
1E
100
AcDbEntity
  8
0
100
AcDbPolyline
 90
        3
 70
     0
 43
0.0
 10
1.87029552732921
 20
3.430674802729896
 10
1.876201039140234
 20
3.424769290918872
 10
1.878169543077241
 20
3.417879527139345
  0
LINE
  5
2D09
330
1E
100
AcDbEntity
  8
0
100
AcDbLine
 10
1.882106550951257
 20
3.411974015328321
 30
0.0
 11
1.884075054888265
 21
3.412958267296825
 31
0.0
  0
LINE
  5
2D0A
330
1E
100
AcDbEntity
  8
0
100
AcDbLine
 10
1.878169543077241
 20
3.417879527139345
 30
0.0
 11
1.87521678717173
 21
3.412958267296825
 31
0.0
  0
LINE
  5
2D0B
330
1E
100
AcDbEntity
  8
0
100
AcDbLine
 10
1.87521678717173
 20
3.411974015328321
 30
0.0
 11
1.87521678717173
 21
3.411974015328321
 31
0.0
  0
LINE
  5
2D0C
330
1E
100
AcDbEntity
  8
0
100
AcDbLine
 10
1.87521678717173
 20
3.411974015328321
 30
0.0
 11
1.877185291108738
 21
3.413942519265329
 31
0.0
  0
LWPOLYLINE
  5
2D0D
330
1E
100
AcDbEntity
  8
0
100
AcDbPolyline
 90
        3
 70
     0
 43
0.0
 10
2.045492377722911
 20
3.501540944462179
 10
2.053366393470942
 20
3.510399212178715
 10
2.05533489740795
 20
3.523194487769266
  0
LWPOLYLINE
  5
2D12
330
1E
100
AcDbEntity
  8
0
100
AcDbPolyline
 90
        4
 70
     0
 43
0.0
 10
1.894901826541809
 20
3.428706298792888
 10
1.890964818667793
 20
3.414926771233833
 10
1.881122298982754
 20
3.407052755485802
 10
1.868327023392202
 20
3.408037007454305
  0
LWPOLYLINE
  5
2D18
330
1E
100
AcDbEntity
  8
0
100
AcDbPolyline
 90
        4
 70
     0
 43
0.0
 10
2.024823086384328
 20
3.579296849973991
 10
2.040571117880391
 20
3.566501574383439
 10
2.051397889533935
 20
3.54681653501336
 10
2.05533489740795
 20
3.527131495643282
  0
LINE
  5
2D1E
330
1E
100
AcDbEntity
  8
0
100
AcDbLine
 10
1.686240409218974
 20
3.3066590546984
 30
0.0
 11
1.878169543077241
 21
3.417879527139345
 31
0.0
  0
LWPOLYLINE
  5
2D1F
330
1E
100
AcDbEntity
  8
0
100
AcDbPolyline
 90
        3
 70
     0
 43
0.0
 10
1.686240409218974
 20
3.3066590546984
 10
1.683287653313462
 20
3.30173779485588
 10
1.678366393470942
 20
3.302722046824384
  0
LINE
  5
2D24
330
1E
100
AcDbEntity
  8
0
100
AcDbLine
 10
1.678366393470942
 20
3.302722046824384
 30
0.0
 11
1.564193165124486
 21
3.368666928714148
 31
0.0
  0
LWPOLYLINE
  5
2D25
330
1E
100
AcDbEntity
  8
0
100
AcDbPolyline
 90
        6
 70
     0
 43
0.0
 10
1.656712850163855
 20
3.40409999958029
 10
1.677382141502438
 20
3.411974015328321
 10
1.701988440715037
 20
3.413942519265329
 10
1.725610487959131
 20
3.410989763359817
 10
1.744311275360706
 20
3.402131495643282
 10
1.755138047014249
 20
3.389336220052731
  0
LWPOLYLINE
  5
2D2D
330
1E
100
AcDbEntity
  8
0
100
AcDbPolyline
 90
        3
 70
     0
 43
0.0
 10
1.641949070636296
 20
3.389336220052731
 10
1.64785458244732
 20
3.397210235800762
 10
1.656712850163855
 20
3.40409999958029
  0
LINE
  5
2D32
330
1E
100
AcDbEntity
  8
0
100
AcDbLine
 10
1.813208913155982
 20
3.46413936965903
 30
0.0
 11
1.756122298982754
 21
3.497603936588164
 31
0.0
  0
LINE
  5
2D33
330
1E
100
AcDbEntity
  8
0
100
AcDbLine
 10
1.564193165124486
 20
3.386383464147219
 30
0.0
 11
1.756122298982754
 21
3.497603936588164
 31
0.0
  0
LINE
  5
2D34
330
1E
100
AcDbEntity
  8
0
100
AcDbLine
 10
1.564193165124486
 20
3.386383464147219
 30
0.0
 11
1.678366393470942
 21
3.320438582257455
 31
0.0
  0
LINE
  5
2D35
330
1E
100
AcDbEntity
  8
0
100
AcDbLine
 10
1.678366393470942
 20
3.320438582257455
 30
0.0
 11
1.87029552732921
 21
3.430674802729896
 31
0.0
  0
LWPOLYLINE
  5
2D36
330
1E
100
AcDbEntity
  8
0
100
AcDbPolyline
 90
       18
 70
     0
 43
0.0
 10
1.656712850163855
 20
3.42181653501336
 10
1.674429385596926
 20
3.429690550761392
 10
1.696082928904013
 20
3.4316590546984
 10
1.7177364722111
 20
3.430674802729896
 10
1.736437259612675
 20
3.423785038950368
 10
1.75021678717173
 20
3.414926771233833
 10
1.757106550951257
 20
3.403115747611786
 10
1.756122298982754
 20
3.390320472021234
 10
1.747264031266218
 20
3.378509448399187
 10
1.731515999770155
 20
3.369651180682652
 10
1.711830960400076
 20
3.364729920840132
 10
1.690177417092989
 20
3.364729920840132
 10
1.669508125754407
 20
3.368666928714148
 10
1.65277584228984
 20
3.376540944462179
 10
1.6429333226048
 20
3.387367716115723
 10
1.639980566699288
 20
3.39917873973777
 10
1.644901826541808
 20
3.411974015328321
 10
1.656712850163855
 20
3.42181653501336
  0
LWPOLYLINE
  5
2D4A
330
1E
100
AcDbEntity
  8
0
100
AcDbPolyline
 90
        3
 70
     0
 43
0.0
 10
1.678366393470942
 20
3.320438582257455
 10
1.684271905281966
 20
3.313548818477928
 10
1.686240409218974
 20
3.3066590546984
  0
LWPOLYLINE
  5
2D4F
330
1E
100
AcDbEntity
  8
0
100
AcDbPolyline
 90
        3
 70
     0
 43
0.0
 10
1.564193165124486
 20
3.386383464147219
 10
1.558287653313462
 20
3.386383464147219
 10
1.556319149376454
 20
3.382446456273203
  0
LWPOLYLINE
  5
2D54
330
1E
100
AcDbEntity
  8
0
100
AcDbPolyline
 90
        3
 70
     0
 43
0.0
 10
1.556319149376454
 20
3.382446456273203
 10
1.559271905281966
 20
3.373588188556668
 10
1.564193165124486
 20
3.368666928714148
  0
LWPOLYLINE
  5
2D59
330
1E
100
AcDbEntity
  8
0
100
AcDbPolyline
 90
        7
 70
     0
 43
0.0
 10
1.855531747801651
 20
3.490714172808636
 10
1.845689228116611
 20
3.488745668871628
 10
1.832893952526061
 20
3.488745668871628
 10
1.80533489740795
 20
3.493666928714148
 10
1.77777584228984
 20
3.499572440525172
 10
1.765964818667793
 20
3.499572440525172
 10
1.756122298982754
 20
3.497603936588164
  0
LINE
  5
2D62
330
1E
100
AcDbEntity
  8
0
100
AcDbLine
 10
1.756122298982754
 20
3.497603936588164
 30
0.0
 11
1.75021678717173
 21
3.497603936588164
 31
0.0
  0
ENDSEC
  0
SECTION
  2
OBJECTS
  0
DICTIONARY
  5
C
330
0
100
AcDbDictionary
281
     1
  3
ACAD_GROUP
350
D
  3
ACAD_LAYOUT
350
19
  3
ACAD_MLINESTYLE
350
16
  3
ACAD_PLOTSETTINGS
350
18
  3
ACAD_PLOTSTYLENAME
350
E
  0
DICTIONARY
  5
D
102
{ACAD_REACTORS
330
C
102
}
330
C
100
AcDbDictionary
281
     1
  0
DICTIONARY
  5
19
102
{ACAD_REACTORS
330
C
102
}
330
C
100
AcDbDictionary
281
     1
  3
Layout1
350
1D
  3
Model
350
21
  0
DICTIONARY
  5
16
102
{ACAD_REACTORS
330
C
102
}
330
C
100
AcDbDictionary
281
     1
  3
Standard
350
17
  0
DICTIONARY
  5
18
102
{ACAD_REACTORS
330
C
102
}
330
C
100
AcDbDictionary
281
     1
  0
ACDBDICTIONARYWDFLT
  5
E
102
{ACAD_REACTORS
330
C
102
}
330
C
100
AcDbDictionary
281
     1
  3
Normal
350
F
100
AcDbDictionaryWithDefault
340
F
  0
LAYOUT
  5
1D
102
{ACAD_REACTORS
330
19
102
}
330
19
100
AcDbPlotSettings
  1

  2
\\BRENG\OPR-Dell 5100
  4

  6

 40
0.0
 41
0.0
 42
0.0
 43
0.0
 44
0.0
 45
0.0
 46
0.0
 47
0.0
 48
0.0
 49
0.0
140
0.0
141
0.0
142
1.0
143
1.0
 70
   688
 72
     0
 73
     0
 74
     5
  7

 75
    16
147
1.0
148
0.0
149
0.0
100
AcDbLayout
  1
Layout1
 70
     1
 71
     1
 10
0.0
 20
0.0
 11
12.0
 21
9.0
 12
0.0
 22
0.0
 32
0.0
 14
1.000000000000000E+20
 24
1.000000000000000E+20
 34
1.000000000000000E+20
 15
-1.000000000000000E+20
 25
-1.000000000000000E+20
 35
-1.000000000000000E+20
146
0.0
 13
0.0
 23
0.0
 33
0.0
 16
1.0
 26
0.0
 36
0.0
 17
0.0
 27
1.0
 37
0.0
 76
     0
330
1A
  0
LAYOUT
  5
21
102
{ACAD_REACTORS
330
19
102
}
330
19
100
AcDbPlotSettings
  1

  2
\\BRENG\OPR-Dell 5100
  4

  6

 40
0.0
 41
0.0
 42
0.0
 43
0.0
 44
0.0
 45
0.0
 46
0.0
 47
0.0
 48
0.0
 49
0.0
140
0.0
141
0.0
142
1.0
143
1.0
 70
  1712
 72
     0
 73
     0
 74
     0
  7

 75
     0
147
1.0
148
0.0
149
0.0
100
AcDbLayout
  1
Model
 70
     1
 71
     0
 10
0.0
 20
0.0
 11
12.0
 21
9.0
 12
0.0
 22
0.0
 32
0.0
 14
0.0
 24
0.0
 34
0.0
 15
0.0
 25
0.0
 35
0.0
146
0.0
 13
0.0
 23
0.0
 33
0.0
 16
1.0
 26
0.0
 36
0.0
 17
0.0
 27
1.0
 37
0.0
 76
     0
330
1E
  0
MLINESTYLE
  5
17
102
{ACAD_REACTORS
330
16
102
}
330
16
100
AcDbMlineStyle
  2
STANDARD
 70
     0
  3

 62
   256
 51
90.0
 52
90.0
 71
     2
 49
0.5
 62
   256
  6
BYLAYER
 49
-0.5
 62
   256
  6
BYLAYER
  0
ACDBPLACEHOLDER
  5
F
102
{ACAD_REACTORS
330
E
102
}
330
E
  0
ENDSEC
  0
EOF
