  0
SECTION
  2
HEADER
  9
$ACADVER
  1
AC1015
  9
$ACADMAINTVER
 70
    20
  9
$DWGCODEPAGE
  3
ANSI_1252
  9
$INSBASE
 10
0.0
 20
0.0
 30
0.0
  9
$EXTMIN
 10
-57.05955123901367
 20
-1.652540206909179
 30
0.0
  9
$EXTMAX
 10
69.42403030395507
 20
61.02278327941895
 30
0.0
  9
$LIMMIN
 10
-0.5
 20
-0.5
  9
$LIMMAX
 10
5.0
 20
5.0
  9
$ORTHOMODE
 70
     0
  9
$REGENMODE
 70
     1
  9
$FILLMODE
 70
     1
  9
$QTEXTMODE
 70
     0
  9
$MIRRTEXT
 70
     1
  9
$LTSCALE
 40
1.0
  9
$ATTMODE
 70
     1
  9
$TEXTSIZE
 40
0.2
  9
$TRACEWID
 40
0.05
  9
$TEXTSTYLE
  7
Standard
  9
$CLAYER
  8
0
  9
$CELTYPE
  6
BYLAYER
  9
$CECOLOR
 62
   256
  9
$CELTSCALE
 40
1.0
  9
$DISPSILH
 70
     0
  9
$DIMSCALE
 40
1.0
  9
$DIMASZ
 40
0.18
  9
$DIMEXO
 40
0.0625
  9
$DIMDLI
 40
0.38
  9
$DIMRND
 40
0.0
  9
$DIMDLE
 40
0.0
  9
$DIMEXE
 40
0.18
  9
$DIMTP
 40
0.0
  9
$DIMTM
 40
0.0
  9
$DIMTXT
 40
0.18
  9
$DIMCEN
 40
0.09
  9
$DIMTSZ
 40
0.0
  9
$DIMTOL
 70
     0
  9
$DIMLIM
 70
     0
  9
$DIMTIH
 70
     1
  9
$DIMTOH
 70
     1
  9
$DIMSE1
 70
     0
  9
$DIMSE2
 70
     0
  9
$DIMTAD
 70
     0
  9
$DIMZIN
 70
     0
  9
$DIMBLK
  1

  9
$DIMASO
 70
     1
  9
$DIMSHO
 70
     1
  9
$DIMPOST
  1

  9
$DIMAPOST
  1

  9
$DIMALT
 70
     0
  9
$DIMALTD
 70
     2
  9
$DIMALTF
 40
25.4
  9
$DIMLFAC
 40
1.0
  9
$DIMTOFL
 70
     0
  9
$DIMTVP
 40
0.0
  9
$DIMTIX
 70
     0
  9
$DIMSOXD
 70
     0
  9
$DIMSAH
 70
     0
  9
$DIMBLK1
  1

  9
$DIMBLK2
  1

  9
$DIMSTYLE
  2
Standard
  9
$DIMCLRD
 70
     0
  9
$DIMCLRE
 70
     0
  9
$DIMCLRT
 70
     0
  9
$DIMTFAC
 40
1.0
  9
$DIMGAP
 40
0.09
  9
$DIMJUST
 70
     0
  9
$DIMSD1
 70
     0
  9
$DIMSD2
 70
     0
  9
$DIMTOLJ
 70
     1
  9
$DIMTZIN
 70
     0
  9
$DIMALTZ
 70
     0
  9
$DIMALTTZ
 70
     0
  9
$DIMUPT
 70
     0
  9
$DIMDEC
 70
     4
  9
$DIMTDEC
 70
     4
  9
$DIMALTU
 70
     2
  9
$DIMALTTD
 70
     2
  9
$DIMTXSTY
  7
Standard
  9
$DIMAUNIT
 70
     0
  9
$DIMADEC
 70
     0
  9
$DIMALTRND
 40
0.0
  9
$DIMAZIN
 70
     0
  9
$DIMDSEP
 70
    46
  9
$DIMATFIT
 70
     3
  9
$DIMFRAC
 70
     0
  9
$DIMLDRBLK
  1

  9
$DIMLUNIT
 70
     2
  9
$DIMLWD
 70
    -2
  9
$DIMLWE
 70
    -2
  9
$DIMTMOVE
 70
     0
  9
$LUNITS
 70
     2
  9
$LUPREC
 70
     4
  9
$SKETCHINC
 40
0.1
  9
$FILLETRAD
 40
0.5
  9
$AUNITS
 70
     0
  9
$AUPREC
 70
     0
  9
$MENU
  1
.
  9
$ELEVATION
 40
0.0
  9
$PELEVATION
 40
0.0
  9
$THICKNESS
 40
0.0
  9
$LIMCHECK
 70
     0
  9
$CHAMFERA
 40
0.5
  9
$CHAMFERB
 40
0.5
  9
$CHAMFERC
 40
1.0
  9
$CHAMFERD
 40
0.0
  9
$SKPOLY
 70
     0
  9
$TDCREATE
 40
2456483.396353229
  9
$TDUCREATE
 40
2456483.604686563
  9
$TDUPDATE
 40
2456483.399803055
  9
$TDUUPDATE
 40
2456483.608136389
  9
$TDINDWG
 40
0.0023517477
  9
$TDUSRTIMER
 40
0.0023517477
  9
$USRTIMER
 70
     1
  9
$ANGBASE
 50
0.0
  9
$ANGDIR
 70
     0
  9
$PDMODE
 70
     0
  9
$PDSIZE
 40
0.0
  9
$PLINEWID
 40
0.0
  9
$SPLFRAME
 70
     0
  9
$SPLINETYPE
 70
     6
  9
$SPLINESEGS
 70
     8
  9
$HANDSEED
  5
2DA
  9
$SURFTAB1
 70
     6
  9
$SURFTAB2
 70
     6
  9
$SURFTYPE
 70
     6
  9
$SURFU
 70
     6
  9
$SURFV
 70
     6
  9
$UCSBASE
  2

  9
$UCSNAME
  2

  9
$UCSORG
 10
0.0
 20
0.0
 30
0.0
  9
$UCSXDIR
 10
1.0
 20
0.0
 30
0.0
  9
$UCSYDIR
 10
0.0
 20
1.0
 30
0.0
  9
$UCSORTHOREF
  2

  9
$UCSORTHOVIEW
 70
     1
  9
$UCSORGTOP
 10
0.0
 20
0.0
 30
0.0
  9
$UCSORGBOTTOM
 10
0.0
 20
0.0
 30
0.0
  9
$UCSORGLEFT
 10
0.0
 20
0.0
 30
0.0
  9
$UCSORGRIGHT
 10
0.0
 20
0.0
 30
0.0
  9
$UCSORGFRONT
 10
0.0
 20
0.0
 30
0.0
  9
$UCSORGBACK
 10
0.0
 20
0.0
 30
0.0
  9
$PUCSBASE
  2

  9
$PUCSNAME
  2

  9
$PUCSORG
 10
0.0
 20
0.0
 30
0.0
  9
$PUCSXDIR
 10
1.0
 20
0.0
 30
0.0
  9
$PUCSYDIR
 10
0.0
 20
1.0
 30
0.0
  9
$PUCSORTHOREF
  2

  9
$PUCSORTHOVIEW
 70
     0
  9
$PUCSORGTOP
 10
0.0
 20
0.0
 30
0.0
  9
$PUCSORGBOTTOM
 10
0.0
 20
0.0
 30
0.0
  9
$PUCSORGLEFT
 10
0.0
 20
0.0
 30
0.0
  9
$PUCSORGRIGHT
 10
0.0
 20
0.0
 30
0.0
  9
$PUCSORGFRONT
 10
0.0
 20
0.0
 30
0.0
  9
$PUCSORGBACK
 10
0.0
 20
0.0
 30
0.0
  9
$USERI1
 70
     0
  9
$USERI2
 70
     0
  9
$USERI3
 70
     0
  9
$USERI4
 70
     0
  9
$USERI5
 70
     0
  9
$USERR1
 40
0.0
  9
$USERR2
 40
0.0
  9
$USERR3
 40
0.0
  9
$USERR4
 40
0.0
  9
$USERR5
 40
0.0
  9
$WORLDVIEW
 70
     1
  9
$SHADEDGE
 70
     3
  9
$SHADEDIF
 70
    70
  9
$TILEMODE
 70
     1
  9
$MAXACTVP
 70
    64
  9
$PINSBASE
 10
0.0
 20
0.0
 30
0.0
  9
$PLIMCHECK
 70
     0
  9
$PEXTMIN
 10
-0.5
 20
-0.5
 30
-0.5
  9
$PEXTMAX
 10
5.0
 20
5.0
 30
5.0
  9
$PLIMMIN
 10
-0.5
 20
-0.5
  9
$PLIMMAX
 10
5.0
 20
5.0
  9
$UNITMODE
 70
     0
  9
$VISRETAIN
 70
     1
  9
$PLINEGEN
 70
     0
  9
$PSLTSCALE
 70
     1
  9
$TREEDEPTH
 70
  3020
  9
$CMLSTYLE
  2
Standard
  9
$CMLJUST
 70
     0
  9
$CMLSCALE
 40
1.0
  9
$PROXYGRAPHICS
 70
     1
  9
$MEASUREMENT
 70
     0
  9
$CELWEIGHT
370
    -1
  9
$ENDCAPS
280
     0
  9
$JOINSTYLE
280
     0
  9
$LWDISPLAY
290
     0
  9
$INSUNITS
 70
     1
  9
$HYPERLINKBASE
  1

  9
$STYLESHEET
  1

  9
$XEDIT
290
     1
  9
$CEPSNTYPE
380
     0
  9
$PSTYLEMODE
290
     1
  9
$FINGERPRINTGUID
  2
{882D6B2D-896D-46AC-837E-9577E36C6A61}
  9
$VERSIONGUID
  2
{90072BFD-FD3A-4B29-B950-33F882375C7A}
  9
$EXTNAMES
290
     1
  9
$PSVPSCALE
 40
0.0
  9
$OLESTARTUP
290
     0
  0
ENDSEC
  0
SECTION
  2
CLASSES
  0
CLASS
  1
ACDBDICTIONARYWDFLT
  2
AcDbDictionaryWithDefault
  3
ObjectDBX Classes
 90
        0
280
     0
281
     0
  0
CLASS
  1
VISUALSTYLE
  2
AcDbVisualStyle
  3
ObjectDBX Classes
 90
     4095
280
     0
281
     0
  0
CLASS
  1
MATERIAL
  2
AcDbMaterial
  3
ObjectDBX Classes
 90
     1153
280
     0
281
     0
  0
CLASS
  1
TABLESTYLE
  2
AcDbTableStyle
  3
ObjectDBX Classes
 90
     4095
280
     0
281
     0
  0
CLASS
  1
SCALE
  2
AcDbScale
  3
ObjectDBX Classes
 90
     1153
280
     0
281
     0
  0
CLASS
  1
MLEADERSTYLE
  2
AcDbMLeaderStyle
  3
ACDB_MLEADERSTYLE_CLASS
 90
     4095
280
     0
281
     0
  0
CLASS
  1
CELLSTYLEMAP
  2
AcDbCellStyleMap
  3
ObjectDBX Classes
 90
     1152
280
     0
281
     0
  0
CLASS
  1
DICTIONARYVAR
  2
AcDbDictionaryVar
  3
ObjectDBX Classes
 90
        0
280
     0
281
     0
  0
CLASS
  1
ACDBPLACEHOLDER
  2
AcDbPlaceHolder
  3
ObjectDBX Classes
 90
        0
280
     0
281
     0
  0
CLASS
  1
LAYOUT
  2
AcDbLayout
  3
ObjectDBX Classes
 90
        0
280
     0
281
     0
  0
ENDSEC
  0
SECTION
  2
TABLES
  0
TABLE
  2
VPORT
  5
8
330
0
100
AcDbSymbolTable
 70
    17
  0
VPORT
  5
29
330
8
100
AcDbSymbolTableRecord
100
AcDbViewportTableRecord
  2
DUMMY
 70
     0
 10
0.0
 20
0.0
 11
1.0
 21
1.0
 12
10.42990654205607
 22
4.5
 13
0.0
 23
0.0
 14
0.5
 24
0.5
 15
0.5
 25
0.5
 16
0.0
 26
0.0
 36
1.0
 17
0.0
 27
0.0
 37
0.0
 40
9.0
 41
1.972972972850328
 42
50.0
 43
0.0
 44
0.0
 50
0.0
 51
0.0
 71
     0
 72
   100
 73
     1
 74
     3
 75
     0
 76
     0
 77
     0
 78
     0
281
     0
 65
     1
110
0.0
120
0.0
130
0.0
111
1.0
121
0.0
131
0.0
112
0.0
122
1.0
132
0.0
 79
     0
146
0.0
  0
VPORT
  5
174
330
8
100
AcDbSymbolTableRecord
100
AcDbViewportTableRecord
  2
*ACTIVE
 70
     0
 10
0.0
 20
0.0
 11
1.0
 21
1.0
 12
6.182239532470703
 22
29.68512153625488
 13
0.0
 23
0.0
 14
0.5
 24
0.5
 15
0.5
 25
0.5
 16
0.0
 26
0.0
 36
1.0
 17
0.0
 27
0.0
 37
0.0
 40
63.36133605061768
 41
2.003811944091486
 42
50.0
 43
28.55714479099367
 44
-28.55714479099367
 50
0.0
 51
0.0
 71
     0
 72
   100
 73
     1
 74
     3
 75
     0
 76
     0
 77
     0
 78
     0
281
     0
 65
     1
110
0.0
120
0.0
130
0.0
111
1.0
121
0.0
131
0.0
112
0.0
122
1.0
132
0.0
 79
     0
146
0.0
1001
ACAD_NAV_VCDISPLAY
1070
     3
  0
VPORT
  5
175
330
8
100
AcDbSymbolTableRecord
100
AcDbViewportTableRecord
  2
L1
 70
     0
 10
0.0
 20
0.0
 11
1.0
 21
1.0
 12
23.5801010131836
 22
21.13786315917969
 13
0.0
 23
0.0
 14
0.5
 24
0.5
 15
0.5
 25
0.5
 16
0.7188730927569435
 26
-0.5850486126764432
 36
0.3754192287502549
 17
0.0
 27
0.0
 37
0.0
 40
31.65737478222011
 41
0.5609042720000199
 42
50.0
 43
28.55714479099367
 44
-28.55714479099367
 50
0.0
 51
0.0
 71
     0
 72
   100
 73
     1
 74
     3
 75
     0
 76
     0
 77
     0
 78
     0
281
     0
 65
     1
110
0.0
120
0.0
130
0.0
111
1.0
121
0.0
131
0.0
112
0.0
122
1.0
132
0.0
 79
     0
146
0.0
  0
VPORT
  5
176
330
8
100
AcDbSymbolTableRecord
100
AcDbViewportTableRecord
  2
L2
 70
     0
 10
0.0
 20
0.0
 11
0.5
 21
1.0
 12
0.0
 22
0.0
 13
0.0
 23
0.0
 14
0.5
 24
0.5
 15
0.5
 25
0.5
 16
0.0
 26
-1.0
 36
0.0
 17
0.0
 27
0.0
 37
0.0
 40
30.49981439122291
 41
0.5821922890377627
 42
50.0
 43
15.77927271104933
 44
-15.77927271104933
 50
0.0
 51
0.0
 71
     0
 72
   100
 73
     1
 74
     3
 75
     0
 76
     0
 77
     0
 78
     0
281
     0
 65
     1
110
0.0
120
0.0
130
0.0
111
1.0
121
0.0
131
0.0
112
0.0
122
1.0
132
0.0
 79
     0
146
0.0
  0
VPORT
  5
177
330
8
100
AcDbSymbolTableRecord
100
AcDbViewportTableRecord
  2
L2
 70
     0
 10
0.5
 20
0.0
 11
1.0
 21
1.0
 12
0.0
 22
0.0
 13
0.0
 23
0.0
 14
0.5
 24
0.5
 15
0.5
 25
0.5
 16
1.0
 26
0.0
 36
0.0
 17
0.0
 27
0.0
 37
0.0
 40
30.49981439122291
 41
0.5821922890377627
 42
50.0
 43
15.40346591533207
 44
-15.40346591533207
 50
0.0
 51
0.0
 71
     0
 72
   100
 73
     1
 74
     3
 75
     0
 76
     0
 77
     0
 78
     0
281
     0
 65
     1
110
0.0
120
0.0
130
0.0
111
1.0
121
0.0
131
0.0
112
0.0
122
1.0
132
0.0
 79
     0
146
0.0
  0
VPORT
  5
178
330
8
100
AcDbSymbolTableRecord
100
AcDbViewportTableRecord
  2
L3
 70
     0
 10
0.0
 20
0.5
 11
1.0
 21
1.0
 12
0.0
 22
0.0
 13
0.0
 23
0.0
 14
0.5
 24
0.5
 15
0.5
 25
0.5
 16
0.0
 26
0.0
 36
1.0
 17
0.0
 27
0.0
 37
0.0
 40
4.339167076771653
 41
4.092203974054856
 42
50.0
 43
15.24990719561145
 44
-15.24990719561145
 50
0.0
 51
0.0
 71
     0
 72
   100
 73
     1
 74
     3
 75
     0
 76
     0
 77
     0
 78
     0
281
     0
 65
     1
110
0.0
120
0.0
130
0.0
111
1.0
121
0.0
131
0.0
112
0.0
122
1.0
132
0.0
 79
     0
146
0.0
  0
VPORT
  5
179
330
8
100
AcDbSymbolTableRecord
100
AcDbViewportTableRecord
  2
L3
 70
     0
 10
0.0
 20
0.0
 11
1.0
 21
0.5
 12
0.0
 22
0.0
 13
0.0
 23
0.0
 14
0.5
 24
0.5
 15
0.5
 25
0.5
 16
0.0
 26
-1.0
 36
0.0
 17
0.0
 27
0.0
 37
0.0
 40
30.49981439122291
 41
0.5821922890377627
 42
50.0
 43
15.77927271104933
 44
-15.77927271104933
 50
0.0
 51
0.0
 71
     0
 72
   100
 73
     1
 74
     3
 75
     0
 76
     0
 77
     0
 78
     0
281
     0
 65
     1
110
0.0
120
0.0
130
0.0
111
1.0
121
0.0
131
0.0
112
0.0
122
1.0
132
0.0
 79
     0
146
0.0
  0
VPORT
  5
17A
330
8
100
AcDbSymbolTableRecord
100
AcDbViewportTableRecord
  2
L4
 70
     0
 10
0.0
 20
0.5
 11
0.5
 21
1.0
 12
0.0
 22
0.0
 13
0.0
 23
0.0
 14
0.5
 24
0.5
 15
0.5
 25
0.5
 16
0.0
 26
0.0
 36
1.0
 17
0.0
 27
0.0
 37
0.0
 40
4.339167076771653
 41
4.092203974054856
 42
50.0
 43
15.24990719561145
 44
-15.24990719561145
 50
0.0
 51
0.0
 71
     0
 72
   100
 73
     1
 74
     3
 75
     0
 76
     0
 77
     0
 78
     0
281
     0
 65
     1
110
0.0
120
0.0
130
0.0
111
1.0
121
0.0
131
0.0
112
0.0
122
1.0
132
0.0
 79
     0
146
0.0
  0
VPORT
  5
17B
330
8
100
AcDbSymbolTableRecord
100
AcDbViewportTableRecord
  2
L4
 70
     0
 10
0.0
 20
0.0
 11
0.5
 21
0.5
 12
0.0
 22
0.0
 13
0.0
 23
0.0
 14
0.5
 24
0.5
 15
0.5
 25
0.5
 16
0.0
 26
-1.0
 36
0.0
 17
0.0
 27
0.0
 37
0.0
 40
30.49981439122291
 41
0.5821922890377627
 42
50.0
 43
15.77927271104933
 44
-15.77927271104933
 50
0.0
 51
0.0
 71
     0
 72
   100
 73
     1
 74
     3
 75
     0
 76
     0
 77
     0
 78
     0
281
     0
 65
     1
110
0.0
120
0.0
130
0.0
111
1.0
121
0.0
131
0.0
112
0.0
122
1.0
132
0.0
 79
     0
146
0.0
  0
VPORT
  5
17C
330
8
100
AcDbSymbolTableRecord
100
AcDbViewportTableRecord
  2
L4
 70
     0
 10
0.5
 20
0.0
 11
1.0
 21
0.5
 12
0.0
 22
0.0
 13
0.0
 23
0.0
 14
0.5
 24
0.5
 15
0.5
 25
0.5
 16
1.0
 26
0.0
 36
0.0
 17
0.0
 27
0.0
 37
0.0
 40
30.49981439122291
 41
0.5821922890377627
 42
50.0
 43
15.40346591533207
 44
-15.40346591533207
 50
0.0
 51
0.0
 71
     0
 72
   100
 73
     1
 74
     3
 75
     0
 76
     0
 77
     0
 78
     0
281
     0
 65
     1
110
0.0
120
0.0
130
0.0
111
1.0
121
0.0
131
0.0
112
0.0
122
1.0
132
0.0
 79
     0
146
0.0
  0
VPORT
  5
17D
330
8
100
AcDbSymbolTableRecord
100
AcDbViewportTableRecord
  2
L4
 70
     0
 10
0.5
 20
0.5
 11
1.0
 21
1.0
 12
0.0
 22
0.0
 13
0.0
 23
0.0
 14
0.5
 24
0.5
 15
0.5
 25
0.5
 16
0.5773502691896259
 26
-0.5773502691896259
 36
0.5773502691896259
 17
0.0
 27
0.0
 37
0.0
 40
29.98360848273399
 41
0.5922154688578648
 42
50.0
 43
15.62413760059691
 44
-15.62413760059691
 50
0.0
 51
0.0
 71
     0
 72
   100
 73
     1
 74
     3
 75
     0
 76
     0
 77
     0
 78
     0
281
     0
 65
     1
110
0.0
120
0.0
130
0.0
111
1.0
121
0.0
131
0.0
112
0.0
122
1.0
132
0.0
 79
     0
146
0.0
  0
VPORT
  5
17E
330
8
100
AcDbSymbolTableRecord
100
AcDbViewportTableRecord
  2
L6
 70
     0
 10
0.0
 20
0.5
 11
0.3333333333333334
 21
1.0
 12
23.5801010131836
 22
21.13786315917969
 13
0.0
 23
0.0
 14
0.5
 24
0.5
 15
0.5
 25
0.5
 16
0.7188730927569435
 26
-0.5850486126764432
 36
0.3754192287502549
 17
0.0
 27
0.0
 37
0.0
 40
31.65737478222011
 41
0.5609042720000199
 42
50.0
 43
28.55714479099367
 44
-28.55714479099367
 50
0.0
 51
0.0
 71
     0
 72
   100
 73
     1
 74
     3
 75
     0
 76
     0
 77
     0
 78
     0
281
     0
 65
     1
110
0.0
120
0.0
130
0.0
111
1.0
121
0.0
131
0.0
112
0.0
122
1.0
132
0.0
 79
     0
146
0.0
  0
VPORT
  5
17F
330
8
100
AcDbSymbolTableRecord
100
AcDbViewportTableRecord
  2
L6
 70
     0
 10
0.0
 20
0.0
 11
0.3333333333333334
 21
0.5
 12
0.0
 22
0.0
 13
0.0
 23
0.0
 14
0.5
 24
0.5
 15
0.5
 25
0.5
 16
-1.0
 26
0.0
 36
0.0
 17
0.0
 27
0.0
 37
0.0
 40
30.49981439122291
 41
0.5821922890377627
 42
50.0
 43
15.40346591533207
 44
-15.40346591533207
 50
0.0
 51
0.0
 71
     0
 72
   100
 73
     1
 74
     3
 75
     0
 76
     0
 77
     0
 78
     0
281
     0
 65
     1
110
0.0
120
0.0
130
0.0
111
1.0
121
0.0
131
0.0
112
0.0
122
1.0
132
0.0
 79
     0
146
0.0
  0
VPORT
  5
180
330
8
100
AcDbSymbolTableRecord
100
AcDbViewportTableRecord
  2
L6
 70
     0
 10
0.3333333333333334
 20
0.5
 11
0.6666666666666666
 21
1.0
 12
0.0
 22
0.0
 13
0.0
 23
0.0
 14
0.5
 24
0.5
 15
0.5
 25
0.5
 16
0.0
 26
0.0
 36
1.0
 17
0.0
 27
0.0
 37
0.0
 40
4.339167076771653
 41
4.092203974054856
 42
50.0
 43
15.24990719561145
 44
-15.24990719561145
 50
0.0
 51
0.0
 71
     0
 72
   100
 73
     1
 74
     3
 75
     0
 76
     0
 77
     0
 78
     0
281
     0
 65
     1
110
0.0
120
0.0
130
0.0
111
1.0
121
0.0
131
0.0
112
0.0
122
1.0
132
0.0
 79
     0
146
0.0
  0
VPORT
  5
181
330
8
100
AcDbSymbolTableRecord
100
AcDbViewportTableRecord
  2
L6
 70
     0
 10
0.3333333333333334
 20
0.0
 11
0.6666666666666666
 21
0.5
 12
0.0
 22
0.0
 13
0.0
 23
0.0
 14
0.5
 24
0.5
 15
0.5
 25
0.5
 16
0.0
 26
-1.0
 36
0.0
 17
0.0
 27
0.0
 37
0.0
 40
30.49981439122291
 41
0.5821922890377627
 42
50.0
 43
15.77927271104933
 44
-15.77927271104933
 50
0.0
 51
0.0
 71
     0
 72
   100
 73
     1
 74
     3
 75
     0
 76
     0
 77
     0
 78
     0
281
     0
 65
     1
110
0.0
120
0.0
130
0.0
111
1.0
121
0.0
131
0.0
112
0.0
122
1.0
132
0.0
 79
     0
146
0.0
  0
VPORT
  5
182
330
8
100
AcDbSymbolTableRecord
100
AcDbViewportTableRecord
  2
L6
 70
     0
 10
0.6666666666666666
 20
0.5
 11
1.0
 21
1.0
 12
0.0
 22
0.0
 13
0.0
 23
0.0
 14
0.5
 24
0.5
 15
0.5
 25
0.5
 16
0.5773502691896259
 26
-0.5773502691896259
 36
0.5773502691896259
 17
0.0
 27
0.0
 37
0.0
 40
29.98360848273399
 41
0.5922154688578648
 42
50.0
 43
15.62413760059691
 44
-15.62413760059691
 50
0.0
 51
0.0
 71
     0
 72
   100
 73
     1
 74
     3
 75
     0
 76
     0
 77
     0
 78
     0
281
     0
 65
     1
110
0.0
120
0.0
130
0.0
111
1.0
121
0.0
131
0.0
112
0.0
122
1.0
132
0.0
 79
     0
146
0.0
  0
VPORT
  5
183
330
8
100
AcDbSymbolTableRecord
100
AcDbViewportTableRecord
  2
L6
 70
     0
 10
0.6666666666666666
 20
0.0
 11
1.0
 21
0.5
 12
0.0
 22
0.0
 13
0.0
 23
0.0
 14
0.5
 24
0.5
 15
0.5
 25
0.5
 16
1.0
 26
0.0
 36
0.0
 17
0.0
 27
0.0
 37
0.0
 40
30.49981439122291
 41
0.5821922890377627
 42
50.0
 43
15.40346591533207
 44
-15.40346591533207
 50
0.0
 51
0.0
 71
     0
 72
   100
 73
     1
 74
     3
 75
     0
 76
     0
 77
     0
 78
     0
281
     0
 65
     1
110
0.0
120
0.0
130
0.0
111
1.0
121
0.0
131
0.0
112
0.0
122
1.0
132
0.0
 79
     0
146
0.0
  0
ENDTAB
  0
TABLE
  2
LTYPE
  5
5
330
0
100
AcDbSymbolTable
 70
     7
  0
LTYPE
  5
14
330
5
100
AcDbSymbolTableRecord
100
AcDbLinetypeTableRecord
  2
BYBLOCK
 70
     0
  3

 72
    65
 73
     0
 40
0.0
  0
LTYPE
  5
15
330
5
100
AcDbSymbolTableRecord
100
AcDbLinetypeTableRecord
  2
BYLAYER
 70
     0
  3

 72
    65
 73
     0
 40
0.0
  0
LTYPE
  5
16
330
5
100
AcDbSymbolTableRecord
100
AcDbLinetypeTableRecord
  2
CONTINUOUS
 70
     0
  3
Solid line
 72
    65
 73
     0
 40
0.0
  0
LTYPE
  5
3F
330
5
100
AcDbSymbolTableRecord
100
AcDbLinetypeTableRecord
  2
DASHED
 70
     0
  3
__ __ __ __ __ __ __ __ __
 72
    65
 73
     2
 40
25.72
 49
12.86
 74
     4
 75
     0
340
0
 46
0.0
 50
0.0
 44
0.0
 45
0.0
 49
-12.86
 74
     4
 75
     0
340
0
 46
0.0
 50
0.0
 44
0.0
 45
0.0
  0
LTYPE
  5
40
330
5
100
AcDbSymbolTableRecord
100
AcDbLinetypeTableRecord
  2
HIDDEN
 70
     0
  3
_ _ _ _ _ _ _ _ _ _ _ _ _ _ _
 72
    65
 73
     2
 40
0.5
 49
0.25
 74
     4
 75
     0
340
0
 46
0.0
 50
0.0
 44
0.0
 45
0.0
 49
-0.25
 74
     4
 75
     0
340
0
 46
0.0
 50
0.0
 44
0.0
 45
0.0
  0
LTYPE
  5
41
330
5
100
AcDbSymbolTableRecord
100
AcDbLinetypeTableRecord
  2
PHANTOM
 70
     0
  3
____ _ _ ____ _ _ _____ _ _ ____
 72
    65
 73
     6
 40
50.5
 49
18.0
 74
     4
 75
     0
340
0
 46
0.0
 50
0.0
 44
0.0
 45
0.0
 49
-6.5
 74
     4
 75
     0
340
0
 46
0.0
 50
0.0
 44
0.0
 45
0.0
 49
6.5
 74
     4
 75
     0
340
0
 46
0.0
 50
0.0
 44
0.0
 45
0.0
 49
-6.5
 74
     4
 75
     0
340
0
 46
0.0
 50
0.0
 44
0.0
 45
0.0
 49
6.5
 74
     4
 75
     0
340
0
 46
0.0
 50
0.0
 44
0.0
 45
0.0
 49
-6.5
 74
     4
 75
     0
340
0
 46
0.0
 50
0.0
 44
0.0
 45
0.0
  0
LTYPE
  5
42
330
5
100
AcDbSymbolTableRecord
100
AcDbLinetypeTableRecord
  2
CENTER
 70
     0
  3
____ _ ____ _ ____ _ ____
 72
    65
 73
     4
 40
47.4
 49
22.0
 74
     4
 75
     0
340
0
 46
0.0
 50
0.0
 44
0.0
 45
0.0
 49
-8.5
 74
     4
 75
     0
340
0
 46
0.0
 50
0.0
 44
0.0
 45
0.0
 49
8.5
 74
     4
 75
     0
340
0
 46
0.0
 50
0.0
 44
0.0
 45
0.0
 49
-8.5
 74
     4
 75
     0
340
0
 46
0.0
 50
0.0
 44
0.0
 45
0.0
  0
LTYPE
  5
43
330
5
100
AcDbSymbolTableRecord
100
AcDbLinetypeTableRecord
  2
DOT
 70
     0
  3
.........................
 72
    65
 73
     2
 40
10.0
 49
0.0
 74
     4
 75
     0
340
0
 46
0.0
 50
0.0
 44
0.0
 45
0.0
 49
-10.0
 74
     4
 75
     0
340
0
 46
0.0
 50
0.0
 44
0.0
 45
0.0
  0
LTYPE
  5
44
330
5
100
AcDbSymbolTableRecord
100
AcDbLinetypeTableRecord
  2
DASHDOT
 70
     0
  3
_._._._._._._._._._._._._._._._.
 72
    65
 73
     4
 40
70.0
 49
31.0
 74
     4
 75
     0
340
0
 46
0.0
 50
0.0
 44
0.0
 45
0.0
 49
-13.0
 74
     4
 75
     0
340
0
 46
0.0
 50
0.0
 44
0.0
 45
0.0
 49
13.0
 74
     4
 75
     0
340
0
 46
0.0
 50
0.0
 44
0.0
 45
0.0
 49
-13.0
 74
     4
 75
     0
340
0
 46
0.0
 50
0.0
 44
0.0
 45
0.0
  0
ENDTAB
  0
TABLE
  2
LAYER
  5
2
330
0
100
AcDbSymbolTable
 70
     2
  0
LAYER
  5
10
102
{ACAD_XDICTIONARY
360
1D0
102
}
330
2
100
AcDbSymbolTableRecord
100
AcDbLayerTableRecord
  2
0
 70
     0
 62
     7
  6
CONTINUOUS
370
    -3
390
F
  0
LAYER
  5
46
102
{ACAD_XDICTIONARY
360
1D2
102
}
330
2
100
AcDbSymbolTableRecord
100
AcDbLayerTableRecord
  2
TFR-TRI
 70
     0
 62
     7
  6
CONTINUOUS
370
    -3
390
F
  0
ENDTAB
  0
TABLE
  2
STYLE
  5
3
330
0
100
AcDbSymbolTable
 70
     1
  0
STYLE
  5
11
330
3
100
AcDbSymbolTableRecord
100
AcDbTextStyleTableRecord
  2
Standard
 70
     0
 40
0.0
 41
1.0
 50
0.0
 71
     0
 42
0.2
  3
txt
  4

  0
ENDTAB
  0
TABLE
  2
VIEW
  5
6
330
0
100
AcDbSymbolTable
 70
     0
  0
ENDTAB
  0
TABLE
  2
UCS
  5
7
330
0
100
AcDbSymbolTable
 70
     0
  0
ENDTAB
  0
TABLE
  2
APPID
  5
9
330
0
100
AcDbSymbolTable
 70
     3
  0
APPID
  5
12
330
9
100
AcDbSymbolTableRecord
100
AcDbRegAppTableRecord
  2
ACAD
 70
     0
  0
APPID
  5
1D4
330
9
100
AcDbSymbolTableRecord
100
AcDbRegAppTableRecord
  2
ACAD_NAV_VCDISPLAY
 70
     0
  0
APPID
  5
2D9
330
9
100
AcDbSymbolTableRecord
100
AcDbRegAppTableRecord
  2
ACAD_MLEADERVER
 70
     0
  0
ENDTAB
  0
TABLE
  2
DIMSTYLE
  5
A
330
0
100
AcDbSymbolTable
 70
     1
100
AcDbDimStyleTable
 71
     0
  0
DIMSTYLE
105
27
330
A
100
AcDbSymbolTableRecord
100
AcDbDimStyleTableRecord
  2
Standard
 70
     0
340
11
  0
ENDTAB
  0
TABLE
  2
BLOCK_RECORD
  5
1
330
0
100
AcDbSymbolTable
 70
     1
  0
BLOCK_RECORD
  5
1F
330
1
100
AcDbSymbolTableRecord
100
AcDbBlockTableRecord
  2
*Model_Space
340
22
  0
BLOCK_RECORD
  5
1B
330
1
100
AcDbSymbolTableRecord
100
AcDbBlockTableRecord
  2
*Paper_Space
340
1E
  0
BLOCK_RECORD
  5
23
330
1
100
AcDbSymbolTableRecord
100
AcDbBlockTableRecord
  2
*Paper_Space0
340
26
  0
ENDTAB
  0
ENDSEC
  0
SECTION
  2
BLOCKS
  0
BLOCK
  5
20
330
1F
100
AcDbEntity
  8
0
100
AcDbBlockBegin
  2
*Model_Space
 70
     0
 10
0.0
 20
0.0
 30
0.0
  3
*Model_Space
  1

  0
ENDBLK
  5
21
330
1F
100
AcDbEntity
  8
0
100
AcDbBlockEnd
  0
BLOCK
  5
1C
330
1B
100
AcDbEntity
 67
     1
  8
0
100
AcDbBlockBegin
  2
*Paper_Space
 70
     0
 10
0.0
 20
0.0
 30
0.0
  3
*Paper_Space
  1

  0
ENDBLK
  5
1D
330
1B
100
AcDbEntity
 67
     1
  8
0
100
AcDbBlockEnd
  0
BLOCK
  5
24
330
23
100
AcDbEntity
 67
     1
  8
0
100
AcDbBlockBegin
  2
*Paper_Space0
 70
     0
 10
0.0
 20
0.0
 30
0.0
  3
*Paper_Space0
  1

  0
ENDBLK
  5
25
330
23
100
AcDbEntity
 67
     1
  8
0
100
AcDbBlockEnd
  0
ENDSEC
  0
SECTION
  2
ENTITIES
  0
LINE
  5
45
330
1F
100
AcDbEntity
  8
TFR-TRI
  6
Continuous
 62
   252
100
AcDbLine
 10
-20.5505485534668
 20
20.78149604797363
 30
0.0
 11
-20.5505485534668
 21
38.17715644836426
 31
0.0
  0
LINE
  5
47
330
1F
100
AcDbEntity
  8
TFR-TRI
  6
Continuous
 62
   252
100
AcDbLine
 10
-20.5505485534668
 20
38.17715644836426
 30
0.0
 11
-20.5505485534668
 21
38.21891975402832
 31
0.0
  0
LINE
  5
48
330
1F
100
AcDbEntity
  8
TFR-TRI
  6
Continuous
 62
   252
100
AcDbLine
 10
-20.5505485534668
 20
38.21891975402832
 30
0.0
 11
-20.5505485534668
 21
38.2362232208252
 31
0.0
  0
LINE
  5
49
330
1F
100
AcDbEntity
  8
TFR-TRI
  6
Continuous
 62
   252
100
AcDbLine
 10
-20.5505485534668
 20
38.35432624816895
 30
0.0
 11
-20.5505485534668
 21
38.32480049133301
 31
0.0
  0
LINE
  5
4A
330
1F
100
AcDbEntity
  8
TFR-TRI
  6
Continuous
 62
   252
100
AcDbLine
 10
-20.5505485534668
 20
38.32480049133301
 30
0.0
 11
-20.5505485534668
 21
38.26574897766113
 31
0.0
  0
LINE
  5
4B
330
1F
100
AcDbEntity
  8
TFR-TRI
  6
Continuous
 62
   252
100
AcDbLine
 10
-20.5505485534668
 20
38.26574897766113
 30
0.0
 11
-20.5505485534668
 21
38.2362232208252
 31
0.0
  0
LINE
  5
4C
330
1F
100
AcDbEntity
  8
TFR-TRI
  6
Continuous
 62
   252
100
AcDbLine
 10
-20.5505485534668
 20
38.35432624816895
 30
0.0
 11
-20.5505485534668
 21
39.04182624816895
 31
0.0
  0
LINE
  5
4D
330
1F
100
AcDbEntity
  8
TFR-TRI
  6
Continuous
 62
   252
100
AcDbLine
 10
-20.5505485534668
 20
19.91682624816894
 30
0.0
 11
-20.5505485534668
 21
20.60432624816895
 31
0.0
  0
LINE
  5
4E
330
1F
100
AcDbEntity
  8
TFR-TRI
  6
Continuous
 62
   252
100
AcDbLine
 10
-20.5505485534668
 20
20.60432624816895
 30
0.0
 11
-20.5505485534668
 21
20.63385200500488
 31
0.0
  0
LINE
  5
4F
330
1F
100
AcDbEntity
  8
TFR-TRI
  6
Continuous
 62
   252
100
AcDbLine
 10
-20.5505485534668
 20
20.63385200500488
 30
0.0
 11
-20.5505485534668
 21
20.69290351867676
 31
0.0
  0
LINE
  5
50
330
1F
100
AcDbEntity
  8
TFR-TRI
  6
Continuous
 62
   252
100
AcDbLine
 10
-20.5505485534668
 20
20.69290351867676
 30
0.0
 11
-20.5505485534668
 21
20.72244453430176
 31
0.0
  0
LINE
  5
51
330
1F
100
AcDbEntity
  8
TFR-TRI
  6
Continuous
 62
   252
100
AcDbLine
 10
-20.5505485534668
 20
20.72244453430176
 30
0.0
 11
-20.5505485534668
 21
20.73973274230957
 31
0.0
  0
LINE
  5
52
330
1F
100
AcDbEntity
  8
TFR-TRI
  6
Continuous
 62
   252
100
AcDbLine
 10
-20.5505485534668
 20
20.73973274230957
 30
0.0
 11
-20.5505485534668
 21
20.78149604797363
 31
0.0
  0
LINE
  5
53
330
1F
100
AcDbEntity
  8
TFR-TRI
  6
Continuous
 62
   252
100
AcDbLine
 10
-20.4272575378418
 20
38.2362232208252
 30
0.0
 11
-20.4272575378418
 21
38.21891975402832
 31
0.0
  0
LINE
  5
54
330
1F
100
AcDbEntity
  8
TFR-TRI
  6
Continuous
 62
   252
100
AcDbLine
 10
-20.4272575378418
 20
38.21891975402832
 30
0.0
 11
-20.4272575378418
 21
38.17715644836426
 31
0.0
  0
LINE
  5
55
330
1F
100
AcDbEntity
  8
TFR-TRI
  6
Continuous
 62
   252
100
AcDbLine
 10
-20.4272575378418
 20
20.78149604797363
 30
0.0
 11
-20.4272575378418
 21
38.17715644836426
 31
0.0
  0
LINE
  5
56
330
1F
100
AcDbEntity
  8
TFR-TRI
  6
Continuous
 62
   252
100
AcDbLine
 10
-20.4272575378418
 20
20.78149604797363
 30
0.0
 11
-20.4272575378418
 21
20.73973274230957
 31
0.0
  0
LINE
  5
57
330
1F
100
AcDbEntity
  8
TFR-TRI
  6
Continuous
 62
   252
100
AcDbLine
 10
-20.4272575378418
 20
20.73973274230957
 30
0.0
 11
-20.4272575378418
 21
20.72244453430176
 31
0.0
  0
LINE
  5
58
330
1F
100
AcDbEntity
  8
TFR-TRI
  6
Continuous
 62
   252
100
AcDbLine
 10
-20.4272575378418
 20
20.60432624816895
 30
0.0
 11
-20.4272575378418
 21
20.63385200500488
 31
0.0
  0
LINE
  5
59
330
1F
100
AcDbEntity
  8
TFR-TRI
  6
Continuous
 62
   252
100
AcDbLine
 10
-20.4272575378418
 20
20.63385200500488
 30
0.0
 11
-20.4272575378418
 21
20.69290351867676
 31
0.0
  0
LINE
  5
5A
330
1F
100
AcDbEntity
  8
TFR-TRI
  6
Continuous
 62
   252
100
AcDbLine
 10
-20.4272575378418
 20
20.69290351867676
 30
0.0
 11
-20.4272575378418
 21
20.72244453430176
 31
0.0
  0
LINE
  5
5B
330
1F
100
AcDbEntity
  8
TFR-TRI
  6
Continuous
 62
   252
100
AcDbLine
 10
-20.4272575378418
 20
38.35432624816895
 30
0.0
 11
-20.4272575378418
 21
38.32480049133301
 31
0.0
  0
LINE
  5
5C
330
1F
100
AcDbEntity
  8
TFR-TRI
  6
Continuous
 62
   252
100
AcDbLine
 10
-20.4272575378418
 20
38.32480049133301
 30
0.0
 11
-20.4272575378418
 21
38.26574897766113
 31
0.0
  0
LINE
  5
5D
330
1F
100
AcDbEntity
  8
TFR-TRI
  6
Continuous
 62
   252
100
AcDbLine
 10
-20.4272575378418
 20
38.26574897766113
 30
0.0
 11
-20.4272575378418
 21
38.2362232208252
 31
0.0
  0
LINE
  5
5E
330
1F
100
AcDbEntity
  8
TFR-TRI
  6
Continuous
 62
   252
100
AcDbLine
 10
-18.82743453979492
 20
19.91682624816894
 30
0.0
 11
-20.36819076538086
 21
19.91682624816894
 31
0.0
  0
LINE
  5
5F
330
1F
100
AcDbEntity
  8
TFR-TRI
  6
Continuous
 62
   252
100
AcDbLine
 10
-20.5505485534668
 20
19.91682624816894
 30
0.0
 11
-20.49714279174805
 21
19.91682624816894
 31
0.0
  0
LINE
  5
60
330
1F
100
AcDbEntity
  8
TFR-TRI
  6
Continuous
 62
   252
100
AcDbLine
 10
-20.49714279174805
 20
19.91682624816894
 30
0.0
 11
-20.36819076538086
 21
19.91682624816894
 31
0.0
  0
LINE
  5
61
330
1F
100
AcDbEntity
  8
TFR-TRI
  6
Continuous
 62
   252
100
AcDbLine
 10
-20.36819076538086
 20
20.60432624816895
 30
0.0
 11
-18.82743453979492
 21
20.60432624816895
 31
0.0
  0
LINE
  5
62
330
1F
100
AcDbEntity
  8
TFR-TRI
  6
Continuous
 62
   252
100
AcDbLine
 10
-20.36819076538086
 20
20.60432624816895
 30
0.0
 11
-20.49714279174805
 21
20.60432624816895
 31
0.0
  0
LINE
  5
63
330
1F
100
AcDbEntity
  8
TFR-TRI
  6
Continuous
 62
   252
100
AcDbLine
 10
-20.49714279174805
 20
20.60432624816895
 30
0.0
 11
-20.5505485534668
 21
20.60432624816895
 31
0.0
  0
LINE
  5
64
330
1F
100
AcDbEntity
  8
TFR-TRI
  6
Continuous
 62
   252
100
AcDbLine
 10
-20.4272575378418
 20
38.17715644836426
 30
0.0
 11
-20.5505485534668
 21
38.17715644836426
 31
0.0
  0
LINE
  5
65
330
1F
100
AcDbEntity
  8
TFR-TRI
  6
Continuous
 62
   252
100
AcDbLine
 10
-20.5505485534668
 20
20.78149604797363
 30
0.0
 11
-20.4272575378418
 21
20.78149604797363
 31
0.0
  0
LINE
  5
66
330
1F
100
AcDbEntity
  8
TFR-TRI
  6
Continuous
 62
   252
100
AcDbLine
 10
-20.36819076538086
 20
39.04182624816895
 30
0.0
 11
-20.49714279174805
 21
39.04182624816895
 31
0.0
  0
LINE
  5
67
330
1F
100
AcDbEntity
  8
TFR-TRI
  6
Continuous
 62
   252
100
AcDbLine
 10
-20.49714279174805
 20
39.04182624816895
 30
0.0
 11
-20.5505485534668
 21
39.04182624816895
 31
0.0
  0
LINE
  5
68
330
1F
100
AcDbEntity
  8
TFR-TRI
  6
Continuous
 62
   252
100
AcDbLine
 10
-20.36819076538086
 20
39.04182624816895
 30
0.0
 11
-18.82743453979492
 21
39.04182624816895
 31
0.0
  0
LINE
  5
69
330
1F
100
AcDbEntity
  8
TFR-TRI
  6
Continuous
 62
   252
100
AcDbLine
 10
-18.82743453979492
 20
38.35432624816895
 30
0.0
 11
-20.36819076538086
 21
38.35432624816895
 31
0.0
  0
LINE
  5
6A
330
1F
100
AcDbEntity
  8
TFR-TRI
  6
Continuous
 62
   252
100
AcDbLine
 10
-20.36819076538086
 20
38.35432624816895
 30
0.0
 11
-20.49714279174805
 21
38.35432624816895
 31
0.0
  0
LINE
  5
6B
330
1F
100
AcDbEntity
  8
TFR-TRI
  6
Continuous
 62
   252
100
AcDbLine
 10
-20.49714279174805
 20
38.35432624816895
 30
0.0
 11
-20.5505485534668
 21
38.35432624816895
 31
0.0
  0
LINE
  5
6C
330
1F
100
AcDbEntity
  8
TFR-TRI
  6
Continuous
 62
   252
100
AcDbLine
 10
-20.5505485534668
 20
38.2362232208252
 30
0.0
 11
-20.4272575378418
 21
38.2362232208252
 31
0.0
  0
LINE
  5
6D
330
1F
100
AcDbEntity
  8
TFR-TRI
  6
Continuous
 62
   252
100
AcDbLine
 10
-18.57743453979492
 20
38.79182624816895
 30
0.0
 11
-18.57743453979492
 21
38.60432624816894
 31
0.0
  0
LINE
  5
6E
330
1F
100
AcDbEntity
  8
TFR-TRI
  6
Continuous
 62
   252
100
AcDbLine
 10
-20.36819076538086
 20
39.04182624816895
 30
0.0
 11
-20.36819076538086
 21
38.35432624816895
 31
0.0
  0
LINE
  5
6F
330
1F
100
AcDbEntity
  8
TFR-TRI
  6
Continuous
 62
   252
100
AcDbLine
 10
-20.4272575378418
 20
20.72244453430176
 30
0.0
 11
-20.5505485534668
 21
20.72244453430176
 31
0.0
  0
LINE
  5
70
330
1F
100
AcDbEntity
  8
TFR-TRI
  6
Continuous
 62
   252
100
AcDbLine
 10
-18.57743453979492
 20
20.35432624816895
 30
0.0
 11
-18.57743453979492
 21
20.16682624816894
 31
0.0
  0
LINE
  5
71
330
1F
100
AcDbEntity
  8
TFR-TRI
  6
Continuous
 62
   252
100
AcDbLine
 10
-20.36819076538086
 20
20.60432624816895
 30
0.0
 11
-20.36819076538086
 21
19.91682624816894
 31
0.0
  0
LINE
  5
72
330
1F
100
AcDbEntity
  8
TFR-TRI
  6
Continuous
 62
   252
100
AcDbLine
 10
26.3972053527832
 20
26.10432624816894
 30
0.0
 11
26.58470535278321
 21
26.10432624816894
 31
0.0
  0
LINE
  5
73
330
1F
100
AcDbEntity
  8
TFR-TRI
  6
Continuous
 62
   252
100
AcDbLine
 10
26.58470535278321
 20
25.85432624816895
 30
0.0
 11
26.3972053527832
 21
25.85432624816895
 31
0.0
  0
LINE
  5
74
330
1F
100
AcDbEntity
  8
TFR-TRI
  6
Continuous
 62
   252
100
AcDbLine
 10
26.3972053527832
 20
34.85432624816894
 30
0.0
 11
26.58470535278321
 21
34.85432624816894
 31
0.0
  0
LINE
  5
75
330
1F
100
AcDbEntity
  8
TFR-TRI
  6
Continuous
 62
   252
100
AcDbLine
 10
26.58470535278321
 20
34.60432624816895
 30
0.0
 11
26.3972053527832
 21
34.60432624816895
 31
0.0
  0
LINE
  5
76
330
1F
100
AcDbEntity
  8
TFR-TRI
  6
Continuous
 62
   252
100
AcDbLine
 10
26.3972053527832
 20
33.10432624816895
 30
0.0
 11
26.58470535278321
 21
33.10432624816895
 31
0.0
  0
LINE
  5
77
330
1F
100
AcDbEntity
  8
TFR-TRI
  6
Continuous
 62
   252
100
AcDbLine
 10
26.58470535278321
 20
32.85432624816895
 30
0.0
 11
26.3972053527832
 21
32.85432624816895
 31
0.0
  0
LINE
  5
78
330
1F
100
AcDbEntity
  8
TFR-TRI
  6
Continuous
 62
   252
100
AcDbLine
 10
26.3972053527832
 20
24.35432624816895
 30
0.0
 11
26.58470535278321
 21
24.35432624816895
 31
0.0
  0
LINE
  5
79
330
1F
100
AcDbEntity
  8
TFR-TRI
  6
Continuous
 62
   252
100
AcDbLine
 10
26.58470535278321
 20
24.10432624816895
 30
0.0
 11
26.3972053527832
 21
24.10432624816895
 31
0.0
  0
LINE
  5
7A
330
1F
100
AcDbEntity
  8
TFR-TRI
  6
Continuous
 62
   252
100
AcDbLine
 10
26.36598587036133
 20
38.2362232208252
 30
0.0
 11
26.12456130981446
 21
38.2362232208252
 31
0.0
  0
LINE
  5
7B
330
1F
100
AcDbEntity
  8
TFR-TRI
  6
Continuous
 62
   252
100
AcDbLine
 10
26.06550979614258
 20
20.78149604797363
 30
0.0
 11
26.06550979614258
 21
38.17715644836426
 31
0.0
  0
LINE
  5
7C
330
1F
100
AcDbEntity
  8
TFR-TRI
  6
Continuous
 62
   252
100
AcDbLine
 10
26.36598587036133
 20
20.72244453430176
 30
0.0
 11
26.12456130981446
 21
20.72244453430176
 31
0.0
  0
LINE
  5
7D
330
1F
100
AcDbEntity
  8
TFR-TRI
  6
Continuous
 62
   252
100
AcDbLine
 10
26.24786758422852
 20
20.60432624816895
 30
0.0
 11
26.36598587036133
 21
20.60432624816895
 31
0.0
  0
LINE
  5
7E
330
1F
100
AcDbEntity
  8
TFR-TRI
  6
Continuous
 62
   252
100
AcDbLine
 10
26.24786758422852
 20
19.91682624816894
 30
0.0
 11
26.24786758422852
 21
20.60432624816895
 31
0.0
  0
LINE
  5
7F
330
1F
100
AcDbEntity
  8
TFR-TRI
  6
Continuous
 62
   252
100
AcDbLine
 10
26.69874954223633
 20
19.91682624816894
 30
0.0
 11
26.24786758422852
 21
19.91682624816894
 31
0.0
  0
LINE
  5
80
330
1F
100
AcDbEntity
  8
TFR-TRI
  6
Continuous
 62
   252
100
AcDbLine
 10
26.94874954223633
 20
38.79182624816895
 30
0.0
 11
26.94874954223633
 21
20.16682624816894
 31
0.0
  0
LINE
  5
81
330
1F
100
AcDbEntity
  8
TFR-TRI
  6
Continuous
 62
   252
100
AcDbLine
 10
26.24786758422852
 20
39.04182624816895
 30
0.0
 11
26.69874954223633
 21
39.04182624816895
 31
0.0
  0
LINE
  5
82
330
1F
100
AcDbEntity
  8
TFR-TRI
  6
Continuous
 62
   252
100
AcDbLine
 10
26.24786758422852
 20
38.35432624816895
 30
0.0
 11
26.24786758422852
 21
39.04182624816895
 31
0.0
  0
LINE
  5
83
330
1F
100
AcDbEntity
  8
TFR-TRI
  6
Continuous
 62
   252
100
AcDbLine
 10
26.24786758422852
 20
38.35432624816895
 30
0.0
 11
26.36598587036133
 21
38.35432624816895
 31
0.0
  0
LINE
  5
84
330
1F
100
AcDbEntity
  8
TFR-TRI
  6
Continuous
 62
   252
100
AcDbLine
 10
26.3972053527832
 20
27.85432624816895
 30
0.0
 11
26.58470535278321
 21
27.85432624816895
 31
0.0
  0
LINE
  5
85
330
1F
100
AcDbEntity
  8
TFR-TRI
  6
Continuous
 62
   252
100
AcDbLine
 10
26.58470535278321
 20
27.60432624816895
 30
0.0
 11
26.3972053527832
 21
27.60432624816895
 31
0.0
  0
LINE
  5
86
330
1F
100
AcDbEntity
  8
TFR-TRI
  6
Continuous
 62
   252
100
AcDbLine
 10
26.3972053527832
 20
36.60432624816895
 30
0.0
 11
26.58470535278321
 21
36.60432624816895
 31
0.0
  0
LINE
  5
87
330
1F
100
AcDbEntity
  8
TFR-TRI
  6
Continuous
 62
   252
100
AcDbLine
 10
26.58470535278321
 20
36.35432624816895
 30
0.0
 11
26.3972053527832
 21
36.35432624816895
 31
0.0
  0
LINE
  5
88
330
1F
100
AcDbEntity
  8
TFR-TRI
  6
Continuous
 62
   252
100
AcDbLine
 10
26.3972053527832
 20
31.35432624816895
 30
0.0
 11
26.58470535278321
 21
31.35432624816895
 31
0.0
  0
LINE
  5
89
330
1F
100
AcDbEntity
  8
TFR-TRI
  6
Continuous
 62
   252
100
AcDbLine
 10
26.58470535278321
 20
31.10432624816894
 30
0.0
 11
26.3972053527832
 21
31.10432624816894
 31
0.0
  0
LINE
  5
8A
330
1F
100
AcDbEntity
  8
TFR-TRI
  6
Continuous
 62
   252
100
AcDbLine
 10
26.58470535278321
 20
22.35432624816894
 30
0.0
 11
26.3972053527832
 21
22.35432624816894
 31
0.0
  0
LINE
  5
8B
330
1F
100
AcDbEntity
  8
TFR-TRI
  6
Continuous
 62
   252
100
AcDbLine
 10
26.3972053527832
 20
22.60432624816894
 30
0.0
 11
26.58470535278321
 21
22.60432624816894
 31
0.0
  0
LINE
  5
8C
330
1F
100
AcDbEntity
  8
TFR-TRI
  6
Continuous
 62
   252
100
AcDbLine
 10
26.24786758422852
 20
19.91682624816894
 30
0.0
 11
26.20610427856445
 21
19.91682624816894
 31
0.0
  0
LINE
  5
8D
330
1F
100
AcDbEntity
  8
TFR-TRI
  6
Continuous
 62
   252
100
AcDbLine
 10
26.20610427856445
 20
19.91682624816894
 30
0.0
 11
26.18881607055664
 21
19.91682624816894
 31
0.0
  0
LINE
  5
8E
330
1F
100
AcDbEntity
  8
TFR-TRI
  6
Continuous
 62
   252
100
AcDbLine
 10
26.18881607055664
 20
19.91682624816894
 30
0.0
 11
26.06550979614258
 21
19.91682624816894
 31
0.0
  0
LINE
  5
8F
330
1F
100
AcDbEntity
  8
TFR-TRI
  6
Continuous
 62
   252
100
AcDbLine
 10
26.06550979614258
 20
20.60432624816895
 30
0.0
 11
26.18881607055664
 21
20.60432624816895
 31
0.0
  0
LINE
  5
90
330
1F
100
AcDbEntity
  8
TFR-TRI
  6
Continuous
 62
   252
100
AcDbLine
 10
26.18881607055664
 20
20.60432624816895
 30
0.0
 11
26.20610427856445
 21
20.60432624816895
 31
0.0
  0
LINE
  5
91
330
1F
100
AcDbEntity
  8
TFR-TRI
  6
Continuous
 62
   252
100
AcDbLine
 10
26.20610427856445
 20
20.60432624816895
 30
0.0
 11
26.24786758422852
 21
20.60432624816895
 31
0.0
  0
LINE
  5
92
330
1F
100
AcDbEntity
  8
TFR-TRI
  6
Continuous
 62
   252
100
AcDbLine
 10
26.06550979614258
 20
39.04182624816895
 30
0.0
 11
26.18881607055664
 21
39.04182624816895
 31
0.0
  0
LINE
  5
93
330
1F
100
AcDbEntity
  8
TFR-TRI
  6
Continuous
 62
   252
100
AcDbLine
 10
26.18881607055664
 20
39.04182624816895
 30
0.0
 11
26.20610427856445
 21
39.04182624816895
 31
0.0
  0
LINE
  5
94
330
1F
100
AcDbEntity
  8
TFR-TRI
  6
Continuous
 62
   252
100
AcDbLine
 10
26.20610427856445
 20
39.04182624816895
 30
0.0
 11
26.24786758422852
 21
39.04182624816895
 31
0.0
  0
LINE
  5
95
330
1F
100
AcDbEntity
  8
TFR-TRI
  6
Continuous
 62
   252
100
AcDbLine
 10
26.18881607055664
 20
38.35432624816895
 30
0.0
 11
26.06550979614258
 21
38.35432624816895
 31
0.0
  0
LINE
  5
96
330
1F
100
AcDbEntity
  8
TFR-TRI
  6
Continuous
 62
   252
100
AcDbLine
 10
26.18881607055664
 20
38.35432624816895
 30
0.0
 11
26.20610427856445
 21
38.35432624816895
 31
0.0
  0
LINE
  5
97
330
1F
100
AcDbEntity
  8
TFR-TRI
  6
Continuous
 62
   252
100
AcDbLine
 10
26.20610427856445
 20
38.35432624816895
 30
0.0
 11
26.24786758422852
 21
38.35432624816895
 31
0.0
  0
LINE
  5
98
330
1F
100
AcDbEntity
  8
TFR-TRI
  6
Continuous
 62
   252
100
AcDbLine
 10
26.06550979614258
 20
38.79182624816895
 30
0.0
 11
26.06550979614258
 21
38.60432624816894
 31
0.0
  0
LINE
  5
99
330
1F
100
AcDbEntity
  8
TFR-TRI
  6
Continuous
 62
   252
100
AcDbLine
 10
26.06550979614258
 20
38.79182624816895
 30
0.0
 11
26.06550979614258
 21
38.91682624816894
 31
0.0
  0
LINE
  5
9A
330
1F
100
AcDbEntity
  8
TFR-TRI
  6
Continuous
 62
   252
100
AcDbLine
 10
26.06550979614258
 20
38.91682624816894
 30
0.0
 11
26.06550979614258
 21
39.00833320617676
 31
0.0
  0
LINE
  5
9B
330
1F
100
AcDbEntity
  8
TFR-TRI
  6
Continuous
 62
   252
100
AcDbLine
 10
26.06550979614258
 20
39.00833320617676
 30
0.0
 11
26.06550979614258
 21
39.04182624816895
 31
0.0
  0
LINE
  5
9C
330
1F
100
AcDbEntity
  8
TFR-TRI
  6
Continuous
 62
   252
100
AcDbLine
 10
26.06550979614258
 20
38.35432624816895
 30
0.0
 11
26.06550979614258
 21
38.38781929016113
 31
0.0
  0
LINE
  5
9D
330
1F
100
AcDbEntity
  8
TFR-TRI
  6
Continuous
 62
   252
100
AcDbLine
 10
26.06550979614258
 20
38.38781929016113
 30
0.0
 11
26.06550979614258
 21
38.47932624816895
 31
0.0
  0
LINE
  5
9E
330
1F
100
AcDbEntity
  8
TFR-TRI
  6
Continuous
 62
   252
100
AcDbLine
 10
26.06550979614258
 20
38.47932624816895
 30
0.0
 11
26.06550979614258
 21
38.60432624816894
 31
0.0
  0
LINE
  5
9F
330
1F
100
AcDbEntity
  8
TFR-TRI
  6
Continuous
 62
   252
100
AcDbLine
 10
26.18881607055664
 20
39.04182624816895
 30
0.0
 11
26.18881607055664
 21
39.00833320617676
 31
0.0
  0
LINE
  5
A0
330
1F
100
AcDbEntity
  8
TFR-TRI
  6
Continuous
 62
   252
100
AcDbLine
 10
26.18881607055664
 20
39.00833320617676
 30
0.0
 11
26.18881607055664
 21
38.91682624816894
 31
0.0
  0
LINE
  5
A1
330
1F
100
AcDbEntity
  8
TFR-TRI
  6
Continuous
 62
   252
100
AcDbLine
 10
26.18881607055664
 20
38.91682624816894
 30
0.0
 11
26.18881607055664
 21
38.79182624816895
 31
0.0
  0
LINE
  5
A2
330
1F
100
AcDbEntity
  8
TFR-TRI
  6
Continuous
 62
   252
100
AcDbLine
 10
26.18881607055664
 20
38.79182624816895
 30
0.0
 11
26.18881607055664
 21
38.60432624816894
 31
0.0
  0
LINE
  5
A3
330
1F
100
AcDbEntity
  8
TFR-TRI
  6
Continuous
 62
   252
100
AcDbLine
 10
26.18881607055664
 20
38.60432624816894
 30
0.0
 11
26.18881607055664
 21
38.47932624816895
 31
0.0
  0
LINE
  5
A4
330
1F
100
AcDbEntity
  8
TFR-TRI
  6
Continuous
 62
   252
100
AcDbLine
 10
26.18881607055664
 20
38.47932624816895
 30
0.0
 11
26.18881607055664
 21
38.38781929016113
 31
0.0
  0
LINE
  5
A5
330
1F
100
AcDbEntity
  8
TFR-TRI
  6
Continuous
 62
   252
100
AcDbLine
 10
26.18881607055664
 20
38.38781929016113
 30
0.0
 11
26.18881607055664
 21
38.35432624816895
 31
0.0
  0
LINE
  5
A6
330
1F
100
AcDbEntity
  8
TFR-TRI
  6
Continuous
 62
   252
100
AcDbLine
 10
26.18881607055664
 20
38.79182624816895
 30
0.0
 11
26.06550979614258
 21
38.79182624816895
 31
0.0
  0
LINE
  5
A7
330
1F
100
AcDbEntity
  8
TFR-TRI
  6
Continuous
 62
   252
100
AcDbLine
 10
26.06550979614258
 20
38.60432624816894
 30
0.0
 11
26.18881607055664
 21
38.60432624816894
 31
0.0
  0
LINE
  5
A8
330
1F
100
AcDbEntity
  8
TFR-TRI
  6
Continuous
 62
   252
100
AcDbLine
 10
26.06550979614258
 20
20.35432624816895
 30
0.0
 11
26.06550979614258
 21
20.16682624816894
 31
0.0
  0
LINE
  5
A9
330
1F
100
AcDbEntity
  8
TFR-TRI
  6
Continuous
 62
   252
100
AcDbLine
 10
26.06550979614258
 20
20.35432624816895
 30
0.0
 11
26.06550979614258
 21
20.47932624816894
 31
0.0
  0
LINE
  5
AA
330
1F
100
AcDbEntity
  8
TFR-TRI
  6
Continuous
 62
   252
100
AcDbLine
 10
26.06550979614258
 20
20.47932624816894
 30
0.0
 11
26.06550979614258
 21
20.57083320617676
 31
0.0
  0
LINE
  5
AB
330
1F
100
AcDbEntity
  8
TFR-TRI
  6
Continuous
 62
   252
100
AcDbLine
 10
26.06550979614258
 20
20.57083320617676
 30
0.0
 11
26.06550979614258
 21
20.60432624816895
 31
0.0
  0
LINE
  5
AC
330
1F
100
AcDbEntity
  8
TFR-TRI
  6
Continuous
 62
   252
100
AcDbLine
 10
26.06550979614258
 20
19.91682624816894
 30
0.0
 11
26.06550979614258
 21
19.95031929016113
 31
0.0
  0
LINE
  5
AD
330
1F
100
AcDbEntity
  8
TFR-TRI
  6
Continuous
 62
   252
100
AcDbLine
 10
26.06550979614258
 20
19.95031929016113
 30
0.0
 11
26.06550979614258
 21
20.04182624816895
 31
0.0
  0
LINE
  5
AE
330
1F
100
AcDbEntity
  8
TFR-TRI
  6
Continuous
 62
   252
100
AcDbLine
 10
26.06550979614258
 20
20.04182624816895
 30
0.0
 11
26.06550979614258
 21
20.16682624816894
 31
0.0
  0
LINE
  5
AF
330
1F
100
AcDbEntity
  8
TFR-TRI
  6
Continuous
 62
   252
100
AcDbLine
 10
26.18881607055664
 20
20.60432624816895
 30
0.0
 11
26.18881607055664
 21
20.57083320617676
 31
0.0
  0
LINE
  5
B0
330
1F
100
AcDbEntity
  8
TFR-TRI
  6
Continuous
 62
   252
100
AcDbLine
 10
26.18881607055664
 20
20.57083320617676
 30
0.0
 11
26.18881607055664
 21
20.47932624816894
 31
0.0
  0
LINE
  5
B1
330
1F
100
AcDbEntity
  8
TFR-TRI
  6
Continuous
 62
   252
100
AcDbLine
 10
26.18881607055664
 20
20.47932624816894
 30
0.0
 11
26.18881607055664
 21
20.35432624816895
 31
0.0
  0
LINE
  5
B2
330
1F
100
AcDbEntity
  8
TFR-TRI
  6
Continuous
 62
   252
100
AcDbLine
 10
26.18881607055664
 20
20.35432624816895
 30
0.0
 11
26.18881607055664
 21
20.16682624816894
 31
0.0
  0
LINE
  5
B3
330
1F
100
AcDbEntity
  8
TFR-TRI
  6
Continuous
 62
   252
100
AcDbLine
 10
26.18881607055664
 20
20.16682624816894
 30
0.0
 11
26.18881607055664
 21
20.04182624816895
 31
0.0
  0
LINE
  5
B4
330
1F
100
AcDbEntity
  8
TFR-TRI
  6
Continuous
 62
   252
100
AcDbLine
 10
26.18881607055664
 20
20.04182624816895
 30
0.0
 11
26.18881607055664
 21
19.95031929016113
 31
0.0
  0
LINE
  5
B5
330
1F
100
AcDbEntity
  8
TFR-TRI
  6
Continuous
 62
   252
100
AcDbLine
 10
26.18881607055664
 20
19.95031929016113
 30
0.0
 11
26.18881607055664
 21
19.91682624816894
 31
0.0
  0
LINE
  5
B6
330
1F
100
AcDbEntity
  8
TFR-TRI
  6
Continuous
 62
   252
100
AcDbLine
 10
26.18881607055664
 20
20.35432624816895
 30
0.0
 11
26.06550979614258
 21
20.35432624816895
 31
0.0
  0
LINE
  5
B7
330
1F
100
AcDbEntity
  8
TFR-TRI
  6
Continuous
 62
   252
100
AcDbLine
 10
26.06550979614258
 20
20.16682624816894
 30
0.0
 11
26.18881607055664
 21
20.16682624816894
 31
0.0
  0
LINE
  5
B8
330
1F
100
AcDbEntity
  8
TFR-TRI
  6
Continuous
 62
   252
100
AcDbLine
 10
-56.69550704956055
 20
26.10432624816894
 30
0.0
 11
-56.50800704956054
 21
26.10432624816894
 31
0.0
  0
LINE
  5
B9
330
1F
100
AcDbEntity
  8
TFR-TRI
  6
Continuous
 62
   252
100
AcDbLine
 10
-56.50800704956054
 20
25.85432624816895
 30
0.0
 11
-56.69550704956055
 21
25.85432624816895
 31
0.0
  0
LINE
  5
BA
330
1F
100
AcDbEntity
  8
TFR-TRI
  6
Continuous
 62
   252
100
AcDbLine
 10
-56.69550704956055
 20
34.85432624816894
 30
0.0
 11
-56.50800704956054
 21
34.85432624816894
 31
0.0
  0
LINE
  5
BB
330
1F
100
AcDbEntity
  8
TFR-TRI
  6
Continuous
 62
   252
100
AcDbLine
 10
-56.50800704956054
 20
34.60432624816895
 30
0.0
 11
-56.69550704956055
 21
34.60432624816895
 31
0.0
  0
LINE
  5
BC
330
1F
100
AcDbEntity
  8
TFR-TRI
  6
Continuous
 62
   252
100
AcDbLine
 10
-56.69550704956055
 20
33.10432624816895
 30
0.0
 11
-56.50800704956054
 21
33.10432624816895
 31
0.0
  0
LINE
  5
BD
330
1F
100
AcDbEntity
  8
TFR-TRI
  6
Continuous
 62
   252
100
AcDbLine
 10
-56.50800704956054
 20
32.85432624816895
 30
0.0
 11
-56.69550704956055
 21
32.85432624816895
 31
0.0
  0
LINE
  5
BE
330
1F
100
AcDbEntity
  8
TFR-TRI
  6
Continuous
 62
   252
100
AcDbLine
 10
-56.69550704956055
 20
24.35432624816895
 30
0.0
 11
-56.50800704956054
 21
24.35432624816895
 31
0.0
  0
LINE
  5
BF
330
1F
100
AcDbEntity
  8
TFR-TRI
  6
Continuous
 62
   252
100
AcDbLine
 10
-56.50800704956054
 20
24.10432624816895
 30
0.0
 11
-56.69550704956055
 21
24.10432624816895
 31
0.0
  0
LINE
  5
C0
330
1F
100
AcDbEntity
  8
TFR-TRI
  6
Continuous
 62
   252
100
AcDbLine
 10
-56.17631912231445
 20
20.78149604797363
 30
0.0
 11
-56.17631912231445
 21
38.17715644836426
 31
0.0
  0
LINE
  5
C1
330
1F
100
AcDbEntity
  8
TFR-TRI
  6
Continuous
 62
   252
100
AcDbLine
 10
-56.47677993774414
 20
38.2362232208252
 30
0.0
 11
-56.23537063598632
 21
38.2362232208252
 31
0.0
  0
LINE
  5
C2
330
1F
100
AcDbEntity
  8
TFR-TRI
  6
Continuous
 62
   252
100
AcDbLine
 10
-56.35866928100586
 20
38.35432624816895
 30
0.0
 11
-56.47677993774414
 21
38.35432624816895
 31
0.0
  0
LINE
  5
C3
330
1F
100
AcDbEntity
  8
TFR-TRI
  6
Continuous
 62
   252
100
AcDbLine
 10
-56.35866928100586
 20
38.35432624816895
 30
0.0
 11
-56.35866928100586
 21
39.04182624816895
 31
0.0
  0
LINE
  5
C4
330
1F
100
AcDbEntity
  8
TFR-TRI
  6
Continuous
 62
   252
100
AcDbLine
 10
-56.35866928100586
 20
39.04182624816895
 30
0.0
 11
-56.80955123901367
 21
39.04182624816895
 31
0.0
  0
LINE
  5
C5
330
1F
100
AcDbEntity
  8
TFR-TRI
  6
Continuous
 62
   252
100
AcDbLine
 10
-57.05955123901367
 20
38.79182624816895
 30
0.0
 11
-57.05955123901367
 21
20.16682624816894
 31
0.0
  0
LINE
  5
C6
330
1F
100
AcDbEntity
  8
TFR-TRI
  6
Continuous
 62
   252
100
AcDbLine
 10
-56.80955123901367
 20
19.91682624816894
 30
0.0
 11
-56.35866928100586
 21
19.91682624816894
 31
0.0
  0
LINE
  5
C7
330
1F
100
AcDbEntity
  8
TFR-TRI
  6
Continuous
 62
   252
100
AcDbLine
 10
-56.35866928100586
 20
19.91682624816894
 30
0.0
 11
-56.35866928100586
 21
20.60432624816895
 31
0.0
  0
LINE
  5
C8
330
1F
100
AcDbEntity
  8
TFR-TRI
  6
Continuous
 62
   252
100
AcDbLine
 10
-56.35866928100586
 20
20.60432624816895
 30
0.0
 11
-56.47677993774414
 21
20.60432624816895
 31
0.0
  0
LINE
  5
C9
330
1F
100
AcDbEntity
  8
TFR-TRI
  6
Continuous
 62
   252
100
AcDbLine
 10
-56.47677993774414
 20
20.72244453430176
 30
0.0
 11
-56.23537063598632
 21
20.72244453430176
 31
0.0
  0
LINE
  5
CA
330
1F
100
AcDbEntity
  8
TFR-TRI
  6
Continuous
 62
   252
100
AcDbLine
 10
-56.69550704956055
 20
27.85432624816895
 30
0.0
 11
-56.50800704956054
 21
27.85432624816895
 31
0.0
  0
LINE
  5
CB
330
1F
100
AcDbEntity
  8
TFR-TRI
  6
Continuous
 62
   252
100
AcDbLine
 10
-56.50800704956054
 20
27.60432624816895
 30
0.0
 11
-56.69550704956055
 21
27.60432624816895
 31
0.0
  0
LINE
  5
CC
330
1F
100
AcDbEntity
  8
TFR-TRI
  6
Continuous
 62
   252
100
AcDbLine
 10
-56.69550704956055
 20
36.60432624816895
 30
0.0
 11
-56.50800704956054
 21
36.60432624816895
 31
0.0
  0
LINE
  5
CD
330
1F
100
AcDbEntity
  8
TFR-TRI
  6
Continuous
 62
   252
100
AcDbLine
 10
-56.50800704956054
 20
36.35432624816895
 30
0.0
 11
-56.69550704956055
 21
36.35432624816895
 31
0.0
  0
LINE
  5
CE
330
1F
100
AcDbEntity
  8
TFR-TRI
  6
Continuous
 62
   252
100
AcDbLine
 10
-56.69550704956055
 20
31.35432624816895
 30
0.0
 11
-56.50800704956054
 21
31.35432624816895
 31
0.0
  0
LINE
  5
CF
330
1F
100
AcDbEntity
  8
TFR-TRI
  6
Continuous
 62
   252
100
AcDbLine
 10
-56.50800704956054
 20
31.10432624816894
 30
0.0
 11
-56.69550704956055
 21
31.10432624816894
 31
0.0
  0
LINE
  5
D0
330
1F
100
AcDbEntity
  8
TFR-TRI
  6
Continuous
 62
   252
100
AcDbLine
 10
-56.50800704956054
 20
22.35432624816894
 30
0.0
 11
-56.69550704956055
 21
22.35432624816894
 31
0.0
  0
LINE
  5
D1
330
1F
100
AcDbEntity
  8
TFR-TRI
  6
Continuous
 62
   252
100
AcDbLine
 10
-56.69550704956055
 20
22.60432624816894
 30
0.0
 11
-56.50800704956054
 21
22.60432624816894
 31
0.0
  0
LINE
  5
D2
330
1F
100
AcDbEntity
  8
TFR-TRI
  6
Continuous
 62
   252
100
AcDbLine
 10
-56.35866928100586
 20
19.91682624816894
 30
0.0
 11
-56.2297248840332
 21
19.91682624816894
 31
0.0
  0
LINE
  5
D3
330
1F
100
AcDbEntity
  8
TFR-TRI
  6
Continuous
 62
   252
100
AcDbLine
 10
-56.2297248840332
 20
19.91682624816894
 30
0.0
 11
-56.17631912231445
 21
19.91682624816894
 31
0.0
  0
LINE
  5
D4
330
1F
100
AcDbEntity
  8
TFR-TRI
  6
Continuous
 62
   252
100
AcDbLine
 10
-56.17631912231445
 20
20.60432624816895
 30
0.0
 11
-56.2297248840332
 21
20.60432624816895
 31
0.0
  0
LINE
  5
D5
330
1F
100
AcDbEntity
  8
TFR-TRI
  6
Continuous
 62
   252
100
AcDbLine
 10
-56.2297248840332
 20
20.60432624816895
 30
0.0
 11
-56.35866928100586
 21
20.60432624816895
 31
0.0
  0
LINE
  5
D6
330
1F
100
AcDbEntity
  8
TFR-TRI
  6
Continuous
 62
   252
100
AcDbLine
 10
-56.17631912231445
 20
39.04182624816895
 30
0.0
 11
-56.2297248840332
 21
39.04182624816895
 31
0.0
  0
LINE
  5
D7
330
1F
100
AcDbEntity
  8
TFR-TRI
  6
Continuous
 62
   252
100
AcDbLine
 10
-56.2297248840332
 20
39.04182624816895
 30
0.0
 11
-56.35866928100586
 21
39.04182624816895
 31
0.0
  0
LINE
  5
D8
330
1F
100
AcDbEntity
  8
TFR-TRI
  6
Continuous
 62
   252
100
AcDbLine
 10
-56.17631912231445
 20
38.35432624816895
 30
0.0
 11
-56.2297248840332
 21
38.35432624816895
 31
0.0
  0
LINE
  5
D9
330
1F
100
AcDbEntity
  8
TFR-TRI
  6
Continuous
 62
   252
100
AcDbLine
 10
-56.2297248840332
 20
38.35432624816895
 30
0.0
 11
-56.35866928100586
 21
38.35432624816895
 31
0.0
  0
LINE
  5
DA
330
1F
100
AcDbEntity
  8
TFR-TRI
  6
Continuous
 62
   252
100
AcDbLine
 10
-56.17631912231445
 20
39.04182624816895
 30
0.0
 11
-56.17631912231445
 21
38.35432624816895
 31
0.0
  0
LINE
  5
DB
330
1F
100
AcDbEntity
  8
TFR-TRI
  6
Continuous
 62
   252
100
AcDbLine
 10
-56.17631912231445
 20
20.60432624816895
 30
0.0
 11
-56.17631912231445
 21
19.91682624816894
 31
0.0
  0
LINE
  5
DC
330
1F
100
AcDbEntity
  8
TFR-TRI
  6
Continuous
 62
   252
100
AcDbLine
 10
-20.5505485534668
 20
-1.652540206909179
 30
0.0
 11
-20.5505485534668
 21
-1.619047164916992
 31
0.0
  0
LINE
  5
DD
330
1F
100
AcDbEntity
  8
TFR-TRI
  6
Continuous
 62
   252
100
AcDbLine
 10
-20.5505485534668
 20
-1.619047164916992
 30
0.0
 11
-20.5505485534668
 21
-1.527540206909179
 31
0.0
  0
LINE
  5
DE
330
1F
100
AcDbEntity
  8
TFR-TRI
  6
Continuous
 62
   252
100
AcDbLine
 10
-20.5505485534668
 20
-1.527540206909179
 30
0.0
 11
-20.5505485534668
 21
-1.402540206909179
 31
0.0
  0
LINE
  5
DF
330
1F
100
AcDbEntity
  8
TFR-TRI
  6
Continuous
 62
   252
100
AcDbLine
 10
-20.5505485534668
 20
-1.402540206909179
 30
0.0
 11
-20.5505485534668
 21
-0.9516582489013671
 31
0.0
  0
LINE
  5
E0
330
1F
100
AcDbEntity
  8
TFR-TRI
  6
Continuous
 62
   252
100
AcDbLine
 10
-20.5505485534668
 20
-0.9516582489013671
 30
0.0
 11
-20.5505485534668
 21
-0.8283672332763671
 31
0.0
  0
LINE
  5
E1
330
1F
100
AcDbEntity
  8
TFR-TRI
  6
Continuous
 62
   252
100
AcDbLine
 10
-20.5505485534668
 20
-0.8283672332763671
 30
0.0
 11
-20.5505485534668
 21
-0.7866039276123047
 31
0.0
  0
LINE
  5
E2
330
1F
100
AcDbEntity
  8
TFR-TRI
  6
Continuous
 62
   252
100
AcDbLine
 10
-20.5505485534668
 20
-0.7866039276123047
 30
0.0
 11
-20.5505485534668
 21
-0.7693004608154297
 31
0.0
  0
LINE
  5
E3
330
1F
100
AcDbEntity
  8
TFR-TRI
  6
Continuous
 62
   252
100
AcDbLine
 10
-20.4272575378418
 20
-0.7693004608154297
 30
0.0
 11
-20.4272575378418
 21
-0.7718181610107422
 31
0.0
  0
LINE
  5
E4
330
1F
100
AcDbEntity
  8
TFR-TRI
  6
Continuous
 62
   252
100
AcDbLine
 10
-20.4272575378418
 20
-0.7718181610107422
 30
0.0
 11
-20.4272575378418
 21
-0.7791271209716797
 31
0.0
  0
LINE
  5
E5
330
1F
100
AcDbEntity
  8
TFR-TRI
  6
Continuous
 62
   252
100
AcDbLine
 10
-20.4272575378418
 20
-1.402540206909179
 30
0.0
 11
-20.4272575378418
 21
-0.9516582489013671
 31
0.0
  0
LINE
  5
E6
330
1F
100
AcDbEntity
  8
TFR-TRI
  6
Continuous
 62
   252
100
AcDbLine
 10
-20.4272575378418
 20
-1.402540206909179
 30
0.0
 11
-20.4272575378418
 21
-1.527540206909179
 31
0.0
  0
LINE
  5
E7
330
1F
100
AcDbEntity
  8
TFR-TRI
  6
Continuous
 62
   252
100
AcDbLine
 10
-20.4272575378418
 20
-1.527540206909179
 30
0.0
 11
-20.4272575378418
 21
-1.619047164916992
 31
0.0
  0
LINE
  5
E8
330
1F
100
AcDbEntity
  8
TFR-TRI
  6
Continuous
 62
   252
100
AcDbLine
 10
-20.4272575378418
 20
-1.619047164916992
 30
0.0
 11
-20.4272575378418
 21
-1.652540206909179
 31
0.0
  0
LINE
  5
E9
330
1F
100
AcDbEntity
  8
TFR-TRI
  6
Continuous
 62
   252
100
AcDbLine
 10
-20.5505485534668
 20
-1.402540206909179
 30
0.0
 11
-20.4272575378418
 21
-1.402540206909179
 31
0.0
  0
LINE
  5
EA
330
1F
100
AcDbEntity
  8
TFR-TRI
  6
Continuous
 62
   252
100
AcDbLine
 10
-18.82743453979492
 20
-0.8926067352294921
 30
0.0
 11
-20.36819076538086
 21
-0.8926067352294921
 31
0.0
  0
LINE
  5
EB
330
1F
100
AcDbEntity
  8
TFR-TRI
  6
Continuous
 62
   252
100
AcDbLine
 10
-18.82743453979492
 20
-0.8926067352294921
 30
0.0
 11
-18.82743453979492
 21
-0.7693004608154297
 31
0.0
  0
LINE
  5
EC
330
1F
100
AcDbEntity
  8
TFR-TRI
  6
Continuous
 62
   252
100
AcDbLine
 10
-18.82743453979492
 20
-0.7693004608154297
 30
0.0
 11
-20.36819076538086
 21
-0.7693004608154297
 31
0.0
  0
LINE
  5
ED
330
1F
100
AcDbEntity
  8
TFR-TRI
  6
Continuous
 62
   252
100
AcDbLine
 10
-20.5505485534668
 20
-0.7693004608154297
 30
0.0
 11
-20.4272575378418
 21
-0.7693004608154297
 31
0.0
  0
LINE
  5
EE
330
1F
100
AcDbEntity
  8
TFR-TRI
  6
Continuous
 62
   252
100
AcDbLine
 10
-20.4272575378418
 20
-1.652540206909179
 30
0.0
 11
-20.5505485534668
 21
-1.652540206909179
 31
0.0
  0
LINE
  5
EF
330
1F
100
AcDbEntity
  8
TFR-TRI
  6
Continuous
 62
   252
100
AcDbLine
 10
-20.50254440307617
 20
-0.8283672332763671
 30
0.0
 11
-20.5505485534668
 21
-0.8283672332763671
 31
0.0
  0
LINE
  5
F0
330
1F
100
AcDbEntity
  8
TFR-TRI
  6
Continuous
 62
   252
100
AcDbLine
 10
-18.82743453979492
 20
-0.7693004608154297
 30
0.0
 11
-18.70243453979492
 21
-0.7693004608154297
 31
0.0
  0
LINE
  5
F1
330
1F
100
AcDbEntity
  8
TFR-TRI
  6
Continuous
 62
   252
100
AcDbLine
 10
-18.70243453979492
 20
-0.7693004608154297
 30
0.0
 11
-18.61092758178711
 21
-0.7693004608154297
 31
0.0
  0
LINE
  5
F2
330
1F
100
AcDbEntity
  8
TFR-TRI
  6
Continuous
 62
   252
100
AcDbLine
 10
-18.61092758178711
 20
-0.7693004608154297
 30
0.0
 11
-18.57743453979492
 21
-0.7693004608154297
 31
0.0
  0
LINE
  5
F3
330
1F
100
AcDbEntity
  8
TFR-TRI
  6
Continuous
 62
   252
100
AcDbLine
 10
-18.57743453979492
 20
-0.8926067352294921
 30
0.0
 11
-18.61092758178711
 21
-0.8926067352294921
 31
0.0
  0
LINE
  5
F4
330
1F
100
AcDbEntity
  8
TFR-TRI
  6
Continuous
 62
   252
100
AcDbLine
 10
-18.61092758178711
 20
-0.8926067352294921
 30
0.0
 11
-18.70243453979492
 21
-0.8926067352294921
 31
0.0
  0
LINE
  5
F5
330
1F
100
AcDbEntity
  8
TFR-TRI
  6
Continuous
 62
   252
100
AcDbLine
 10
-18.70243453979492
 20
-0.8926067352294921
 30
0.0
 11
-18.82743453979492
 21
-0.8926067352294921
 31
0.0
  0
LINE
  5
F6
330
1F
100
AcDbEntity
  8
TFR-TRI
  6
Continuous
 62
   252
100
AcDbLine
 10
-18.57743453979492
 20
-0.7693004608154297
 30
0.0
 11
-18.57743453979492
 21
-0.8926067352294921
 31
0.0
  0
LINE
  5
F7
330
1F
100
AcDbEntity
  8
TFR-TRI
  6
Continuous
 62
   252
100
AcDbLine
 10
-20.5505485534668
 20
60.13954353332519
 30
0.0
 11
-20.5505485534668
 21
60.15684700012207
 31
0.0
  0
LINE
  5
F8
330
1F
100
AcDbEntity
  8
TFR-TRI
  6
Continuous
 62
   252
100
AcDbLine
 10
-20.5505485534668
 20
60.15684700012207
 30
0.0
 11
-20.5505485534668
 21
60.19859504699707
 31
0.0
  0
LINE
  5
F9
330
1F
100
AcDbEntity
  8
TFR-TRI
  6
Continuous
 62
   252
100
AcDbLine
 10
-20.5505485534668
 20
60.32190132141113
 30
0.0
 11
-20.5505485534668
 21
60.19859504699707
 31
0.0
  0
LINE
  5
FA
330
1F
100
AcDbEntity
  8
TFR-TRI
  6
Continuous
 62
   252
100
AcDbLine
 10
-20.5505485534668
 20
60.32190132141113
 30
0.0
 11
-20.5505485534668
 21
60.77278327941894
 31
0.0
  0
LINE
  5
FB
330
1F
100
AcDbEntity
  8
TFR-TRI
  6
Continuous
 62
   252
100
AcDbLine
 10
-20.5505485534668
 20
60.77278327941894
 30
0.0
 11
-20.5505485534668
 21
60.89778327941894
 31
0.0
  0
LINE
  5
FC
330
1F
100
AcDbEntity
  8
TFR-TRI
  6
Continuous
 62
   252
100
AcDbLine
 10
-20.5505485534668
 20
60.89778327941894
 30
0.0
 11
-20.5505485534668
 21
60.98929023742676
 31
0.0
  0
LINE
  5
FD
330
1F
100
AcDbEntity
  8
TFR-TRI
  6
Continuous
 62
   252
100
AcDbLine
 10
-20.5505485534668
 20
60.98929023742676
 30
0.0
 11
-20.5505485534668
 21
61.02278327941895
 31
0.0
  0
LINE
  5
FE
330
1F
100
AcDbEntity
  8
TFR-TRI
  6
Continuous
 62
   252
100
AcDbLine
 10
-20.4272575378418
 20
60.14937019348145
 30
0.0
 11
-20.4272575378418
 21
60.14204597473145
 31
0.0
  0
LINE
  5
FF
330
1F
100
AcDbEntity
  8
TFR-TRI
  6
Continuous
 62
   252
100
AcDbLine
 10
-20.4272575378418
 20
60.14204597473145
 30
0.0
 11
-20.4272575378418
 21
60.13954353332519
 31
0.0
  0
LINE
  5
100
330
1F
100
AcDbEntity
  8
TFR-TRI
  6
Continuous
 62
   252
100
AcDbLine
 10
-20.4272575378418
 20
61.02278327941895
 30
0.0
 11
-20.4272575378418
 21
60.98929023742676
 31
0.0
  0
LINE
  5
101
330
1F
100
AcDbEntity
  8
TFR-TRI
  6
Continuous
 62
   252
100
AcDbLine
 10
-20.4272575378418
 20
60.98929023742676
 30
0.0
 11
-20.4272575378418
 21
60.89778327941894
 31
0.0
  0
LINE
  5
102
330
1F
100
AcDbEntity
  8
TFR-TRI
  6
Continuous
 62
   252
100
AcDbLine
 10
-20.4272575378418
 20
60.89778327941894
 30
0.0
 11
-20.4272575378418
 21
60.77278327941894
 31
0.0
  0
LINE
  5
103
330
1F
100
AcDbEntity
  8
TFR-TRI
  6
Continuous
 62
   252
100
AcDbLine
 10
-20.4272575378418
 20
60.32190132141113
 30
0.0
 11
-20.4272575378418
 21
60.77278327941894
 31
0.0
  0
LINE
  5
104
330
1F
100
AcDbEntity
  8
TFR-TRI
  6
Continuous
 62
   252
100
AcDbLine
 10
-20.4272575378418
 20
60.13954353332519
 30
0.0
 11
-20.5505485534668
 21
60.13954353332519
 31
0.0
  0
LINE
  5
105
330
1F
100
AcDbEntity
  8
TFR-TRI
  6
Continuous
 62
   252
100
AcDbLine
 10
-20.4272575378418
 20
60.77278327941894
 30
0.0
 11
-20.5505485534668
 21
60.77278327941894
 31
0.0
  0
LINE
  5
106
330
1F
100
AcDbEntity
  8
TFR-TRI
  6
Continuous
 62
   252
100
AcDbLine
 10
-20.36819076538086
 20
60.13954353332519
 30
0.0
 11
-18.82743453979492
 21
60.13954353332519
 31
0.0
  0
LINE
  5
107
330
1F
100
AcDbEntity
  8
TFR-TRI
  6
Continuous
 62
   252
100
AcDbLine
 10
-18.82743453979492
 20
60.13954353332519
 30
0.0
 11
-18.82743453979492
 21
60.26284980773926
 31
0.0
  0
LINE
  5
108
330
1F
100
AcDbEntity
  8
TFR-TRI
  6
Continuous
 62
   252
100
AcDbLine
 10
-20.36819076538086
 20
60.26284980773926
 30
0.0
 11
-18.82743453979492
 21
60.26284980773926
 31
0.0
  0
LINE
  5
109
330
1F
100
AcDbEntity
  8
TFR-TRI
  6
Continuous
 62
   252
100
AcDbLine
 10
-20.5505485534668
 20
61.02278327941895
 30
0.0
 11
-20.4272575378418
 21
61.02278327941895
 31
0.0
  0
LINE
  5
10A
330
1F
100
AcDbEntity
  8
TFR-TRI
  6
Continuous
 62
   252
100
AcDbLine
 10
-20.5505485534668
 20
60.19859504699707
 30
0.0
 11
-20.50254440307617
 21
60.19859504699707
 31
0.0
  0
LINE
  5
10B
330
1F
100
AcDbEntity
  8
TFR-TRI
  6
Continuous
 62
   252
100
AcDbLine
 10
-18.57743453979492
 20
60.13954353332519
 30
0.0
 11
-18.61092758178711
 21
60.13954353332519
 31
0.0
  0
LINE
  5
10C
330
1F
100
AcDbEntity
  8
TFR-TRI
  6
Continuous
 62
   252
100
AcDbLine
 10
-18.61092758178711
 20
60.13954353332519
 30
0.0
 11
-18.70243453979492
 21
60.13954353332519
 31
0.0
  0
LINE
  5
10D
330
1F
100
AcDbEntity
  8
TFR-TRI
  6
Continuous
 62
   252
100
AcDbLine
 10
-18.70243453979492
 20
60.13954353332519
 30
0.0
 11
-18.82743453979492
 21
60.13954353332519
 31
0.0
  0
LINE
  5
10E
330
1F
100
AcDbEntity
  8
TFR-TRI
  6
Continuous
 62
   252
100
AcDbLine
 10
-18.82743453979492
 20
60.26284980773926
 30
0.0
 11
-18.70243453979492
 21
60.26284980773926
 31
0.0
  0
LINE
  5
10F
330
1F
100
AcDbEntity
  8
TFR-TRI
  6
Continuous
 62
   252
100
AcDbLine
 10
-18.70243453979492
 20
60.26284980773926
 30
0.0
 11
-18.61092758178711
 21
60.26284980773926
 31
0.0
  0
LINE
  5
110
330
1F
100
AcDbEntity
  8
TFR-TRI
  6
Continuous
 62
   252
100
AcDbLine
 10
-18.61092758178711
 20
60.26284980773926
 30
0.0
 11
-18.57743453979492
 21
60.26284980773926
 31
0.0
  0
LINE
  5
111
330
1F
100
AcDbEntity
  8
TFR-TRI
  6
Continuous
 62
   252
100
AcDbLine
 10
-18.57743453979492
 20
60.26284980773926
 30
0.0
 11
-18.57743453979492
 21
60.13954353332519
 31
0.0
  0
LINE
  5
112
330
1F
100
AcDbEntity
  8
TFR-TRI
  6
Continuous
 62
   252
100
AcDbLine
 10
69.42403030395507
 20
39.04182624816895
 30
0.0
 11
69.42403030395507
 21
39.00833320617676
 31
0.0
  0
LINE
  5
113
330
1F
100
AcDbEntity
  8
TFR-TRI
  6
Continuous
 62
   252
100
AcDbLine
 10
69.42403030395507
 20
39.00833320617676
 30
0.0
 11
69.42403030395507
 21
38.91682624816894
 31
0.0
  0
LINE
  5
114
330
1F
100
AcDbEntity
  8
TFR-TRI
  6
Continuous
 62
   252
100
AcDbLine
 10
69.42403030395507
 20
38.91682624816894
 30
0.0
 11
69.42403030395507
 21
38.79182624816895
 31
0.0
  0
LINE
  5
115
330
1F
100
AcDbEntity
  8
TFR-TRI
  6
Continuous
 62
   252
100
AcDbLine
 10
69.42403030395507
 20
38.79182624816895
 30
0.0
 11
69.42403030395507
 21
20.16682624816894
 31
0.0
  0
LINE
  5
116
330
1F
100
AcDbEntity
  8
TFR-TRI
  6
Continuous
 62
   252
100
AcDbLine
 10
69.42403030395507
 20
20.16682624816894
 30
0.0
 11
69.42403030395507
 21
20.04182624816895
 31
0.0
  0
LINE
  5
117
330
1F
100
AcDbEntity
  8
TFR-TRI
  6
Continuous
 62
   252
100
AcDbLine
 10
69.42403030395507
 20
20.04182624816895
 30
0.0
 11
69.42403030395507
 21
19.95031929016113
 31
0.0
  0
LINE
  5
118
330
1F
100
AcDbEntity
  8
TFR-TRI
  6
Continuous
 62
   252
100
AcDbLine
 10
69.42403030395507
 20
19.95031929016113
 30
0.0
 11
69.42403030395507
 21
19.91682624816894
 31
0.0
  0
LINE
  5
119
330
1F
100
AcDbEntity
  8
TFR-TRI
  6
Continuous
 62
   252
100
AcDbLine
 10
69.30073928833007
 20
19.91682624816894
 30
0.0
 11
69.30073928833007
 21
19.95031929016113
 31
0.0
  0
LINE
  5
11A
330
1F
100
AcDbEntity
  8
TFR-TRI
  6
Continuous
 62
   252
100
AcDbLine
 10
69.30073928833007
 20
19.95031929016113
 30
0.0
 11
69.30073928833007
 21
20.04182624816895
 31
0.0
  0
LINE
  5
11B
330
1F
100
AcDbEntity
  8
TFR-TRI
  6
Continuous
 62
   252
100
AcDbLine
 10
69.30073928833007
 20
20.04182624816895
 30
0.0
 11
69.30073928833007
 21
20.16682624816894
 31
0.0
  0
LINE
  5
11C
330
1F
100
AcDbEntity
  8
TFR-TRI
  6
Continuous
 62
   252
100
AcDbLine
 10
69.30073928833007
 20
38.79182624816895
 30
0.0
 11
69.30073928833007
 21
20.16682624816894
 31
0.0
  0
LINE
  5
11D
330
1F
100
AcDbEntity
  8
TFR-TRI
  6
Continuous
 62
   252
100
AcDbLine
 10
69.30073928833007
 20
38.79182624816895
 30
0.0
 11
69.30073928833007
 21
38.91682624816894
 31
0.0
  0
LINE
  5
11E
330
1F
100
AcDbEntity
  8
TFR-TRI
  6
Continuous
 62
   252
100
AcDbLine
 10
69.30073928833007
 20
38.91682624816894
 30
0.0
 11
69.30073928833007
 21
39.00833320617676
 31
0.0
  0
LINE
  5
11F
330
1F
100
AcDbEntity
  8
TFR-TRI
  6
Continuous
 62
   252
100
AcDbLine
 10
69.30073928833007
 20
39.00833320617676
 30
0.0
 11
69.30073928833007
 21
39.04182624816895
 31
0.0
  0
LINE
  5
120
330
1F
100
AcDbEntity
  8
TFR-TRI
  6
Continuous
 62
   252
100
AcDbLine
 10
69.42403030395507
 20
19.91682624816894
 30
0.0
 11
69.30073928833007
 21
19.91682624816894
 31
0.0
  0
LINE
  5
121
330
1F
100
AcDbEntity
  8
TFR-TRI
  6
Continuous
 62
   252
100
AcDbLine
 10
69.30073928833007
 20
19.91682624816894
 30
0.0
 11
69.28343582153321
 21
19.91682624816894
 31
0.0
  0
LINE
  5
122
330
1F
100
AcDbEntity
  8
TFR-TRI
  6
Continuous
 62
   252
100
AcDbLine
 10
69.28343582153321
 20
19.91682624816894
 30
0.0
 11
69.24167251586914
 21
19.91682624816894
 31
0.0
  0
LINE
  5
123
330
1F
100
AcDbEntity
  8
TFR-TRI
  6
Continuous
 62
   252
100
AcDbLine
 10
67.7009162902832
 20
19.91682624816894
 30
0.0
 11
69.24167251586914
 21
19.91682624816894
 31
0.0
  0
LINE
  5
124
330
1F
100
AcDbEntity
  8
TFR-TRI
  6
Continuous
 62
   252
100
AcDbLine
 10
69.24167251586914
 20
20.60432624816895
 30
0.0
 11
67.7009162902832
 21
20.60432624816895
 31
0.0
  0
LINE
  5
125
330
1F
100
AcDbEntity
  8
TFR-TRI
  6
Continuous
 62
   252
100
AcDbLine
 10
69.24167251586914
 20
20.60432624816895
 30
0.0
 11
69.28343582153321
 21
20.60432624816895
 31
0.0
  0
LINE
  5
126
330
1F
100
AcDbEntity
  8
TFR-TRI
  6
Continuous
 62
   252
100
AcDbLine
 10
69.28343582153321
 20
20.60432624816895
 30
0.0
 11
69.30073928833007
 21
20.60432624816895
 31
0.0
  0
LINE
  5
127
330
1F
100
AcDbEntity
  8
TFR-TRI
  6
Continuous
 62
   252
100
AcDbLine
 10
69.30073928833007
 20
39.04182624816895
 30
0.0
 11
69.42403030395507
 21
39.04182624816895
 31
0.0
  0
LINE
  5
128
330
1F
100
AcDbEntity
  8
TFR-TRI
  6
Continuous
 62
   252
100
AcDbLine
 10
69.24167251586914
 20
39.04182624816895
 30
0.0
 11
67.7009162902832
 21
39.04182624816895
 31
0.0
  0
LINE
  5
129
330
1F
100
AcDbEntity
  8
TFR-TRI
  6
Continuous
 62
   252
100
AcDbLine
 10
69.24167251586914
 20
39.04182624816895
 30
0.0
 11
69.28343582153321
 21
39.04182624816895
 31
0.0
  0
LINE
  5
12A
330
1F
100
AcDbEntity
  8
TFR-TRI
  6
Continuous
 62
   252
100
AcDbLine
 10
69.28343582153321
 20
39.04182624816895
 30
0.0
 11
69.30073928833007
 21
39.04182624816895
 31
0.0
  0
LINE
  5
12B
330
1F
100
AcDbEntity
  8
TFR-TRI
  6
Continuous
 62
   252
100
AcDbLine
 10
67.7009162902832
 20
38.35432624816895
 30
0.0
 11
69.24167251586914
 21
38.35432624816895
 31
0.0
  0
LINE
  5
12C
330
1F
100
AcDbEntity
  8
TFR-TRI
  6
Continuous
 62
   252
100
AcDbLine
 10
69.24167251586914
 20
38.35432624816895
 30
0.0
 11
69.28343582153321
 21
38.35432624816895
 31
0.0
  0
LINE
  5
12D
330
1F
100
AcDbEntity
  8
TFR-TRI
  6
Continuous
 62
   252
100
AcDbLine
 10
69.28343582153321
 20
38.35432624816895
 30
0.0
 11
69.30073928833007
 21
38.35432624816895
 31
0.0
  0
LINE
  5
12E
330
1F
100
AcDbEntity
  8
TFR-TRI
  6
Continuous
 62
   252
100
AcDbLine
 10
69.30073928833007
 20
20.16682624816894
 30
0.0
 11
69.42403030395507
 21
20.16682624816894
 31
0.0
  0
LINE
  5
12F
330
1F
100
AcDbEntity
  8
TFR-TRI
  6
Continuous
 62
   252
100
AcDbLine
 10
69.42403030395507
 20
38.79182624816895
 30
0.0
 11
69.30073928833007
 21
38.79182624816895
 31
0.0
  0
LINE
  5
130
330
1F
100
AcDbEntity
  8
TFR-TRI
  6
Continuous
 62
   252
100
AcDbLine
 10
67.4509162902832
 20
38.79182624816895
 30
0.0
 11
67.4509162902832
 21
38.60432624816894
 31
0.0
  0
LINE
  5
131
330
1F
100
AcDbEntity
  8
TFR-TRI
  6
Continuous
 62
   252
100
AcDbLine
 10
69.24167251586914
 20
39.04182624816895
 30
0.0
 11
69.24167251586914
 21
38.35432624816895
 31
0.0
  0
LINE
  5
132
330
1F
100
AcDbEntity
  8
TFR-TRI
  6
Continuous
 62
   252
100
AcDbLine
 10
67.4509162902832
 20
20.35432624816895
 30
0.0
 11
67.4509162902832
 21
20.16682624816894
 31
0.0
  0
LINE
  5
133
330
1F
100
AcDbEntity
  8
TFR-TRI
  6
Continuous
 62
   252
100
AcDbLine
 10
69.24167251586914
 20
20.60432624816895
 30
0.0
 11
69.24167251586914
 21
19.91682624816894
 31
0.0
  0
CIRCLE
  5
134
330
1F
100
AcDbEntity
  8
TFR-TRI
  6
Continuous
 62
   252
100
AcDbCircle
 10
-20.08176803588867
 20
38.63432502746582
 30
0.0
 40
0.0885000005364418
  0
CIRCLE
  5
135
330
1F
100
AcDbEntity
  8
TFR-TRI
  6
Continuous
 62
   252
100
AcDbCircle
 10
-18.83176803588867
 20
38.63432502746582
 30
0.0
 40
0.0885000005364418
  0
ARC
  5
136
330
1F
100
AcDbEntity
  8
TFR-TRI
  6
Continuous
 62
   252
100
AcDbCircle
 10
-18.82743453979492
 20
38.79182624816895
 30
0.0
 40
0.25
100
AcDbArc
 50
0.0
 51
90.0
  0
ARC
  5
137
330
1F
100
AcDbEntity
  8
TFR-TRI
  6
Continuous
 62
   252
100
AcDbCircle
 10
-18.82743453979492
 20
38.60432624816894
 30
0.0
 40
0.25
100
AcDbArc
 50
270.0
 51
0.0
  0
CIRCLE
  5
138
330
1F
100
AcDbEntity
  8
TFR-TRI
  6
Continuous
 62
   252
100
AcDbCircle
 10
-20.08176803588867
 20
20.32432746887207
 30
0.0
 40
0.0885000005364418
  0
CIRCLE
  5
139
330
1F
100
AcDbEntity
  8
TFR-TRI
  6
Continuous
 62
   252
100
AcDbCircle
 10
-18.83176803588867
 20
20.32432746887207
 30
0.0
 40
0.0885000005364418
  0
ARC
  5
13A
330
1F
100
AcDbEntity
  8
TFR-TRI
  6
Continuous
 62
   252
100
AcDbCircle
 10
-18.82743453979492
 20
20.35432624816895
 30
0.0
 40
0.25
100
AcDbArc
 50
0.0
 51
90.0
  0
ARC
  5
13B
330
1F
100
AcDbEntity
  8
TFR-TRI
  6
Continuous
 62
   252
100
AcDbCircle
 10
-18.82743453979492
 20
20.16682624816894
 30
0.0
 40
0.25
100
AcDbArc
 50
270.0
 51
0.0
  0
ARC
  5
13C
330
1F
100
AcDbEntity
  8
TFR-TRI
  6
Continuous
 62
   252
100
AcDbCircle
 10
26.3972053527832
 20
25.97932624816895
 30
0.0
 40
0.125
100
AcDbArc
 50
90.0
 51
270.0
  0
ARC
  5
13D
330
1F
100
AcDbEntity
  8
TFR-TRI
  6
Continuous
 62
   252
100
AcDbCircle
 10
26.58470535278321
 20
25.97932624816895
 30
0.0
 40
0.125
100
AcDbArc
 50
270.0
 51
90.0
  0
ARC
  5
13E
330
1F
100
AcDbEntity
  8
TFR-TRI
  6
Continuous
 62
   252
100
AcDbCircle
 10
26.3972053527832
 20
34.72932624816895
 30
0.0
 40
0.125
100
AcDbArc
 50
90.0
 51
270.0
  0
ARC
  5
13F
330
1F
100
AcDbEntity
  8
TFR-TRI
  6
Continuous
 62
   252
100
AcDbCircle
 10
26.58470535278321
 20
34.72932624816895
 30
0.0
 40
0.125
100
AcDbArc
 50
270.0
 51
90.0
  0
ARC
  5
140
330
1F
100
AcDbEntity
  8
TFR-TRI
  6
Continuous
 62
   252
100
AcDbCircle
 10
26.3972053527832
 20
32.97932624816894
 30
0.0
 40
0.125
100
AcDbArc
 50
90.0
 51
270.0
  0
ARC
  5
141
330
1F
100
AcDbEntity
  8
TFR-TRI
  6
Continuous
 62
   252
100
AcDbCircle
 10
26.58470535278321
 20
32.97932624816894
 30
0.0
 40
0.125
100
AcDbArc
 50
270.0
 51
90.0
  0
ARC
  5
142
330
1F
100
AcDbEntity
  8
TFR-TRI
  6
Continuous
 62
   252
100
AcDbCircle
 10
26.3972053527832
 20
24.22932624816894
 30
0.0
 40
0.125
100
AcDbArc
 50
90.0
 51
270.0
  0
ARC
  5
143
330
1F
100
AcDbEntity
  8
TFR-TRI
  6
Continuous
 62
   252
100
AcDbCircle
 10
26.58470535278321
 20
24.22932624816894
 30
0.0
 40
0.125
100
AcDbArc
 50
270.0
 51
90.0
  0
ARC
  5
144
330
1F
100
AcDbEntity
  8
TFR-TRI
  6
Continuous
 62
   252
100
AcDbCircle
 10
26.12456130981446
 20
38.17715644836426
 30
0.0
 40
0.0590551197528839
100
AcDbArc
 50
90.0
 51
180.0
  0
ARC
  5
145
330
1F
100
AcDbEntity
  8
TFR-TRI
  6
Continuous
 62
   252
100
AcDbCircle
 10
26.12456130981446
 20
20.78149604797363
 30
0.0
 40
0.0590551197528839
100
AcDbArc
 50
180.0
 51
270.0
  0
ARC
  5
146
330
1F
100
AcDbEntity
  8
TFR-TRI
  6
Continuous
 62
   252
100
AcDbCircle
 10
26.36598587036133
 20
20.66337776184082
 30
0.0
 40
0.0590551197528839
100
AcDbArc
 50
270.0
 51
90.0
  0
ARC
  5
147
330
1F
100
AcDbEntity
  8
TFR-TRI
  6
Continuous
 62
   252
100
AcDbCircle
 10
26.69874954223633
 20
20.16682624816894
 30
0.0
 40
0.25
100
AcDbArc
 50
270.0
 51
0.0
  0
ARC
  5
148
330
1F
100
AcDbEntity
  8
TFR-TRI
  6
Continuous
 62
   252
100
AcDbCircle
 10
26.69874954223633
 20
38.79182624816895
 30
0.0
 40
0.25
100
AcDbArc
 50
0.0
 51
90.0
  0
ARC
  5
149
330
1F
100
AcDbEntity
  8
TFR-TRI
  6
Continuous
 62
   252
100
AcDbCircle
 10
26.36598587036133
 20
38.29527473449707
 30
0.0
 40
0.0590551197528839
100
AcDbArc
 50
270.0
 51
90.0
  0
ARC
  5
14A
330
1F
100
AcDbEntity
  8
TFR-TRI
  6
Continuous
 62
   252
100
AcDbCircle
 10
26.3972053527832
 20
27.72932624816895
 30
0.0
 40
0.125
100
AcDbArc
 50
90.0
 51
270.0
  0
ARC
  5
14B
330
1F
100
AcDbEntity
  8
TFR-TRI
  6
Continuous
 62
   252
100
AcDbCircle
 10
26.58470535278321
 20
27.72932624816895
 30
0.0
 40
0.125
100
AcDbArc
 50
270.0
 51
90.0
  0
ARC
  5
14C
330
1F
100
AcDbEntity
  8
TFR-TRI
  6
Continuous
 62
   252
100
AcDbCircle
 10
26.3972053527832
 20
36.47932624816895
 30
0.0
 40
0.125
100
AcDbArc
 50
90.0
 51
270.0
  0
ARC
  5
14D
330
1F
100
AcDbEntity
  8
TFR-TRI
  6
Continuous
 62
   252
100
AcDbCircle
 10
26.58470535278321
 20
36.47932624816895
 30
0.0
 40
0.125
100
AcDbArc
 50
270.0
 51
90.0
  0
ARC
  5
14E
330
1F
100
AcDbEntity
  8
TFR-TRI
  6
Continuous
 62
   252
100
AcDbCircle
 10
26.3972053527832
 20
31.22932624816895
 30
0.0
 40
0.125
100
AcDbArc
 50
90.0
 51
270.0
  0
ARC
  5
14F
330
1F
100
AcDbEntity
  8
TFR-TRI
  6
Continuous
 62
   252
100
AcDbCircle
 10
26.58470535278321
 20
31.22932624816895
 30
0.0
 40
0.125
100
AcDbArc
 50
270.0
 51
90.0
  0
ARC
  5
150
330
1F
100
AcDbEntity
  8
TFR-TRI
  6
Continuous
 62
   252
100
AcDbCircle
 10
26.58470535278321
 20
22.47932624816895
 30
0.0
 40
0.125
100
AcDbArc
 50
270.0
 51
90.0
  0
ARC
  5
151
330
1F
100
AcDbEntity
  8
TFR-TRI
  6
Continuous
 62
   252
100
AcDbCircle
 10
26.3972053527832
 20
22.47932624816895
 30
0.0
 40
0.125
100
AcDbArc
 50
90.0
 51
270.0
  0
ARC
  5
152
330
1F
100
AcDbEntity
  8
TFR-TRI
  6
Continuous
 62
   252
100
AcDbCircle
 10
-56.50800704956054
 20
25.97932624816895
 30
0.0
 40
0.125
100
AcDbArc
 50
270.0
 51
90.0
  0
ARC
  5
153
330
1F
100
AcDbEntity
  8
TFR-TRI
  6
Continuous
 62
   252
100
AcDbCircle
 10
-56.69550704956055
 20
25.97932624816895
 30
0.0
 40
0.125
100
AcDbArc
 50
90.0
 51
270.0
  0
ARC
  5
154
330
1F
100
AcDbEntity
  8
TFR-TRI
  6
Continuous
 62
   252
100
AcDbCircle
 10
-56.50800704956054
 20
34.72932624816895
 30
0.0
 40
0.125
100
AcDbArc
 50
270.0
 51
90.0
  0
ARC
  5
155
330
1F
100
AcDbEntity
  8
TFR-TRI
  6
Continuous
 62
   252
100
AcDbCircle
 10
-56.69550704956055
 20
34.72932624816895
 30
0.0
 40
0.125
100
AcDbArc
 50
90.0
 51
270.0
  0
ARC
  5
156
330
1F
100
AcDbEntity
  8
TFR-TRI
  6
Continuous
 62
   252
100
AcDbCircle
 10
-56.50800704956054
 20
32.97932624816894
 30
0.0
 40
0.125
100
AcDbArc
 50
270.0
 51
90.0
  0
ARC
  5
157
330
1F
100
AcDbEntity
  8
TFR-TRI
  6
Continuous
 62
   252
100
AcDbCircle
 10
-56.69550704956055
 20
32.97932624816894
 30
0.0
 40
0.125
100
AcDbArc
 50
90.0
 51
270.0
  0
ARC
  5
158
330
1F
100
AcDbEntity
  8
TFR-TRI
  6
Continuous
 62
   252
100
AcDbCircle
 10
-56.50800704956054
 20
24.22932624816894
 30
0.0
 40
0.125
100
AcDbArc
 50
270.0
 51
90.0
  0
ARC
  5
159
330
1F
100
AcDbEntity
  8
TFR-TRI
  6
Continuous
 62
   252
100
AcDbCircle
 10
-56.69550704956055
 20
24.22932624816894
 30
0.0
 40
0.125
100
AcDbArc
 50
90.0
 51
270.0
  0
ARC
  5
15A
330
1F
100
AcDbEntity
  8
TFR-TRI
  6
Continuous
 62
   252
100
AcDbCircle
 10
-56.23537063598632
 20
38.17715644836426
 30
0.0
 40
0.0590551197528839
100
AcDbArc
 50
0.0
 51
90.0
  0
ARC
  5
15B
330
1F
100
AcDbEntity
  8
TFR-TRI
  6
Continuous
 62
   252
100
AcDbCircle
 10
-56.47677993774414
 20
38.29527473449707
 30
0.0
 40
0.0590551197528839
100
AcDbArc
 50
90.0
 51
270.0
  0
ARC
  5
15C
330
1F
100
AcDbEntity
  8
TFR-TRI
  6
Continuous
 62
   252
100
AcDbCircle
 10
-56.80955123901367
 20
38.79182624816895
 30
0.0
 40
0.25
100
AcDbArc
 50
90.0
 51
180.0
  0
ARC
  5
15D
330
1F
100
AcDbEntity
  8
TFR-TRI
  6
Continuous
 62
   252
100
AcDbCircle
 10
-56.80955123901367
 20
20.16682624816894
 30
0.0
 40
0.25
100
AcDbArc
 50
180.0
 51
270.0
  0
ARC
  5
15E
330
1F
100
AcDbEntity
  8
TFR-TRI
  6
Continuous
 62
   252
100
AcDbCircle
 10
-56.47677993774414
 20
20.66337776184082
 30
0.0
 40
0.0590551197528839
100
AcDbArc
 50
90.0
 51
270.0
  0
ARC
  5
15F
330
1F
100
AcDbEntity
  8
TFR-TRI
  6
Continuous
 62
   252
100
AcDbCircle
 10
-56.23537063598632
 20
20.78149604797363
 30
0.0
 40
0.0590551197528839
100
AcDbArc
 50
270.0
 51
0.0
  0
ARC
  5
160
330
1F
100
AcDbEntity
  8
TFR-TRI
  6
Continuous
 62
   252
100
AcDbCircle
 10
-56.50800704956054
 20
27.72932624816895
 30
0.0
 40
0.125
100
AcDbArc
 50
270.0
 51
90.0
  0
ARC
  5
161
330
1F
100
AcDbEntity
  8
TFR-TRI
  6
Continuous
 62
   252
100
AcDbCircle
 10
-56.69550704956055
 20
27.72932624816895
 30
0.0
 40
0.125
100
AcDbArc
 50
90.0
 51
270.0
  0
ARC
  5
162
330
1F
100
AcDbEntity
  8
TFR-TRI
  6
Continuous
 62
   252
100
AcDbCircle
 10
-56.50800704956054
 20
36.47932624816895
 30
0.0
 40
0.125
100
AcDbArc
 50
270.0
 51
90.0
  0
ARC
  5
163
330
1F
100
AcDbEntity
  8
TFR-TRI
  6
Continuous
 62
   252
100
AcDbCircle
 10
-56.69550704956055
 20
36.47932624816895
 30
0.0
 40
0.125
100
AcDbArc
 50
90.0
 51
270.0
  0
ARC
  5
164
330
1F
100
AcDbEntity
  8
TFR-TRI
  6
Continuous
 62
   252
100
AcDbCircle
 10
-56.50800704956054
 20
31.22932624816895
 30
0.0
 40
0.125
100
AcDbArc
 50
270.0
 51
90.0
  0
ARC
  5
165
330
1F
100
AcDbEntity
  8
TFR-TRI
  6
Continuous
 62
   252
100
AcDbCircle
 10
-56.69550704956055
 20
31.22932624816895
 30
0.0
 40
0.125
100
AcDbArc
 50
90.0
 51
270.0
  0
ARC
  5
166
330
1F
100
AcDbEntity
  8
TFR-TRI
  6
Continuous
 62
   252
100
AcDbCircle
 10
-56.69550704956055
 20
22.47932624816895
 30
0.0
 40
0.125
100
AcDbArc
 50
90.0
 51
270.0
  0
ARC
  5
167
330
1F
100
AcDbEntity
  8
TFR-TRI
  6
Continuous
 62
   252
100
AcDbCircle
 10
-56.50800704956054
 20
22.47932624816895
 30
0.0
 40
0.125
100
AcDbArc
 50
270.0
 51
90.0
  0
ARC
  5
168
330
1F
100
AcDbEntity
  8
TFR-TRI
  6
Continuous
 62
   252
100
AcDbCircle
 10
-20.36819076538086
 20
-0.9516582489013671
 30
0.0
 40
0.0590551197528839
100
AcDbArc
 50
90.0
 51
180.0
  0
ARC
  5
169
330
1F
100
AcDbEntity
  8
TFR-TRI
  6
Continuous
 62
   252
100
AcDbCircle
 10
-20.36819076538086
 20
-0.9516582489013671
 30
0.0
 40
0.1823551207780838
100
AcDbArc
 50
90.0
 51
180.0
  0
ARC
  5
16A
330
1F
100
AcDbEntity
  8
TFR-TRI
  6
Continuous
 62
   252
100
AcDbCircle
 10
-20.36819076538086
 20
60.32190132141113
 30
0.0
 40
0.1823551207780838
100
AcDbArc
 50
180.0
 51
270.0
  0
ARC
  5
16B
330
1F
100
AcDbEntity
  8
TFR-TRI
  6
Continuous
 62
   252
100
AcDbCircle
 10
-20.36819076538086
 20
60.32190132141113
 30
0.0
 40
0.0590551197528839
100
AcDbArc
 50
180.0
 51
270.0
  0
CIRCLE
  5
16C
330
1F
100
AcDbEntity
  8
TFR-TRI
  6
Continuous
 62
   252
100
AcDbCircle
 10
68.95524978637695
 20
38.63432502746582
 30
0.0
 40
0.0885000005364418
  0
CIRCLE
  5
16D
330
1F
100
AcDbEntity
  8
TFR-TRI
  6
Continuous
 62
   252
100
AcDbCircle
 10
67.70524978637695
 20
38.63432502746582
 30
0.0
 40
0.0885000005364418
  0
ARC
  5
16E
330
1F
100
AcDbEntity
  8
TFR-TRI
  6
Continuous
 62
   252
100
AcDbCircle
 10
67.7009162902832
 20
38.79182624816895
 30
0.0
 40
0.25
100
AcDbArc
 50
90.0
 51
180.0
  0
ARC
  5
16F
330
1F
100
AcDbEntity
  8
TFR-TRI
  6
Continuous
 62
   252
100
AcDbCircle
 10
67.7009162902832
 20
38.60432624816894
 30
0.0
 40
0.25
100
AcDbArc
 50
180.0
 51
270.0
  0
CIRCLE
  5
170
330
1F
100
AcDbEntity
  8
TFR-TRI
  6
Continuous
 62
   252
100
AcDbCircle
 10
68.95524978637695
 20
20.32432746887207
 30
0.0
 40
0.0885000005364418
  0
CIRCLE
  5
171
330
1F
100
AcDbEntity
  8
TFR-TRI
  6
Continuous
 62
   252
100
AcDbCircle
 10
67.70524978637695
 20
20.32432746887207
 30
0.0
 40
0.0885000005364418
  0
ARC
  5
172
330
1F
100
AcDbEntity
  8
TFR-TRI
  6
Continuous
 62
   252
100
AcDbCircle
 10
67.7009162902832
 20
20.35432624816895
 30
0.0
 40
0.25
100
AcDbArc
 50
90.0
 51
180.0
  0
ARC
  5
173
330
1F
100
AcDbEntity
  8
TFR-TRI
  6
Continuous
 62
   252
100
AcDbCircle
 10
67.7009162902832
 20
20.16682624816894
 30
0.0
 40
0.25
100
AcDbArc
 50
180.0
 51
270.0
  0
ENDSEC
  0
SECTION
  2
OBJECTS
  0
DICTIONARY
  5
C
330
0
100
AcDbDictionary
281
     1
  3
ACAD_CIP_PREVIOUS_PRODUCT_INFO
350
1CF
  3
ACAD_COLOR
350
1B7
  3
ACAD_GROUP
350
D
  3
ACAD_LAYOUT
350
1A
  3
ACAD_MATERIAL
350
3B
  3
ACAD_MLEADERSTYLE
350
1AB
  3
ACAD_MLINESTYLE
350
17
  3
ACAD_PLOTSETTINGS
350
19
  3
ACAD_PLOTSTYLENAME
350
E
  3
ACAD_SCALELIST
350
1B9
  3
ACAD_TABLESTYLE
350
1AA
  3
ACAD_VISUALSTYLE
350
2A
  3
ACDB_RECOMPOSE_DATA
350
296
  3
AcDbVariableDictionary
350
289
  3
DWGPROPS
350
297
  0
DICTIONARY
  5
1D0
330
10
100
AcDbDictionary
280
     1
281
     1
  3
ADSK_XREC_LAYER_RECONCILED
360
1D1
  0
DICTIONARY
  5
1D2
330
46
100
AcDbDictionary
280
     1
281
     1
  3
ADSK_XREC_LAYER_RECONCILED
360
1D3
  0
XRECORD
  5
1CF
102
{ACAD_REACTORS
330
C
102
}
330
C
100
AcDbXrecord
280
     1
300
ACD
300
2012
300
85730ACD_2012_0F
  0
DICTIONARY
  5
1B7
102
{ACAD_REACTORS
330
C
102
}
330
C
100
AcDbDictionary
281
     1
  0
DICTIONARY
  5
D
102
{ACAD_REACTORS
330
C
102
}
330
C
100
AcDbDictionary
281
     1
  0
DICTIONARY
  5
1A
102
{ACAD_REACTORS
330
C
102
}
330
C
100
AcDbDictionary
281
     1
  3
Layout1
350
1E
  3
Layout2
350
26
  3
Model
350
22
  0
DICTIONARY
  5
3B
102
{ACAD_REACTORS
330
C
102
}
330
C
100
AcDbDictionary
281
     1
  3
BYBLOCK
350
3D
  3
BYLAYER
350
3C
  3
Global
350
3E
  0
DICTIONARY
  5
1AB
102
{ACAD_REACTORS
330
C
102
}
330
C
100
AcDbDictionary
281
     1
  3
Standard
350
1CB
  0
DICTIONARY
  5
17
102
{ACAD_REACTORS
330
C
102
}
330
C
100
AcDbDictionary
281
     1
  3
Standard
350
18
  0
DICTIONARY
  5
19
102
{ACAD_REACTORS
330
C
102
}
330
C
100
AcDbDictionary
281
     1
  0
ACDBDICTIONARYWDFLT
  5
E
102
{ACAD_REACTORS
330
C
102
}
330
C
100
AcDbDictionary
281
     1
  3
Normal
350
F
100
AcDbDictionaryWithDefault
340
F
  0
DICTIONARY
  5
1B9
102
{ACAD_REACTORS
330
C
102
}
330
C
100
AcDbDictionary
281
     1
  3
A0
350
1BA
  3
A1
350
1BB
  3
A2
350
1BC
  3
A3
350
1BD
  3
A4
350
1BE
  3
A5
350
1BF
  3
A6
350
1C0
  3
A7
350
1C1
  3
A8
350
1C2
  3
A9
350
1C3
  3
B0
350
1C4
  3
B1
350
1C5
  3
B2
350
1C6
  3
B3
350
1C7
  3
B4
350
1C8
  3
B5
350
1C9
  3
B6
350
1CA
  0
DICTIONARY
  5
1AA
102
{ACAD_REACTORS
330
C
102
}
330
C
100
AcDbDictionary
281
     1
  3
Standard
350
1B8
  0
DICTIONARY
  5
2A
102
{ACAD_REACTORS
330
C
102
}
330
C
100
AcDbDictionary
281
     1
  3
2dWireframe
350
2F
  3
3D Hidden
350
31
  3
3dWireframe
350
30
  3
Basic
350
32
  3
Brighten
350
36
  3
ColorChange
350
3A
  3
Conceptual
350
34
  3
Dim
350
35
  3
EdgeColorOff
350
1B6
  3
Facepattern
350
39
  3
Flat
350
2B
  3
FlatWithEdges
350
2C
  3
Gouraud
350
2D
  3
GouraudWithEdges
350
2E
  3
Hidden
350
1AE
  3
JitterOff
350
1B4
  3
Linepattern
350
38
  3
OverhangOff
350
1B5
  3
Realistic
350
33
  3
Shaded
350
1B3
  3
Shaded with edges
350
1B2
  3
Shades of Gray
350
1AF
  3
Sketchy
350
1B0
  3
Thicken
350
37
  3
Wireframe
350
1AD
  3
X-Ray
350
1B1
  0
XRECORD
  5
296
102
{ACAD_REACTORS
330
C
102
}
330
C
100
AcDbXrecord
280
     1
 90
        1
330
1B8
  0
DICTIONARY
  5
289
102
{ACAD_REACTORS
330
C
102
}
330
C
100
AcDbDictionary
281
     1
  3
CANNOSCALE
350
28C
  3
CMLEADERSTYLE
350
28B
  3
CTABLESTYLE
350
28A
  3
DIMASSOC
350
291
  3
HIDETEXT
350
28F
  3
INDEXCTL
350
28E
  3
SORTENTS
350
28D
  3
XCLIPFRAME
350
290
  0
XRECORD
  5
297
102
{ACAD_REACTORS
330
C
102
}
330
C
100
AcDbXrecord
280
     1
  1
DWGPROPS COOKIE
  2

  3

  4

  6

  7

  8
mdca
  9

300
=
301
=
302
=
303
=
304
=
305
=
306
=
307
=
308
=
309
=
 40
0.0023513078703704
 41
2456483.396353229
 42
2456483.399803055
  1

 90
        0
  0
XRECORD
  5
1D1
102
{ACAD_REACTORS
330
1D0
102
}
330
1D0
100
AcDbXrecord
280
     1
290
     1
  0
XRECORD
  5
1D3
102
{ACAD_REACTORS
330
1D2
102
}
330
1D2
100
AcDbXrecord
280
     1
290
     1
  0
LAYOUT
  5
1E
102
{ACAD_XDICTIONARY
360
298
102
}
102
{ACAD_REACTORS
330
1A
102
}
330
1A
100
AcDbPlotSettings
  1

  2
none_device
  4

  6

 40
0.0
 41
0.0
 42
0.0
 43
0.0
 44
0.0
 45
0.0
 46
0.0
 47
0.0
 48
0.0
 49
0.0
140
0.0
141
0.0
142
1.0
143
1.0
 70
   688
 72
     0
 73
     0
 74
     5
  7

 75
    16
147
1.0
148
0.0
149
0.0
100
AcDbLayout
  1
Layout1
 70
     1
 71
     1
 10
-0.5
 20
-0.5
 11
5.0
 21
5.0
 12
0.0
 22
0.0
 32
0.0
 14
-0.5
 24
-0.5
 34
-0.5
 15
5.0
 25
5.0
 35
5.0
146
0.0
 13
0.0
 23
0.0
 33
0.0
 16
1.0
 26
0.0
 36
0.0
 17
0.0
 27
1.0
 37
0.0
 76
     0
330
1B
  0
LAYOUT
  5
26
102
{ACAD_XDICTIONARY
360
29C
102
}
102
{ACAD_REACTORS
330
1A
102
}
330
1A
100
AcDbPlotSettings
  1

  2
none_device
  4

  6

 40
0.0
 41
0.0
 42
0.0
 43
0.0
 44
0.0
 45
0.0
 46
0.0
 47
0.0
 48
0.0
 49
0.0
140
0.0
141
0.0
142
1.0
143
1.0
 70
   688
 72
     0
 73
     0
 74
     5
  7

 75
    16
147
1.0
148
0.0
149
0.0
100
AcDbLayout
  1
Layout2
 70
     1
 71
     2
 10
0.0
 20
0.0
 11
0.0
 21
0.0
 12
0.0
 22
0.0
 32
0.0
 14
0.0
 24
0.0
 34
0.0
 15
0.0
 25
0.0
 35
0.0
146
0.0
 13
0.0
 23
0.0
 33
0.0
 16
1.0
 26
0.0
 36
0.0
 17
0.0
 27
1.0
 37
0.0
 76
     0
330
23
  0
LAYOUT
  5
22
102
{ACAD_XDICTIONARY
360
29A
102
}
102
{ACAD_REACTORS
330
1A
102
}
330
1A
100
AcDbPlotSettings
  1

  2
none_device
  4

  6

 40
0.0
 41
0.0
 42
0.0
 43
0.0
 44
0.0
 45
0.0
 46
0.0
 47
0.0
 48
0.0
 49
0.0
140
0.0
141
0.0
142
1.0
143
1.0
 70
  1712
 72
     0
 73
     0
 74
     0
  7

 75
     0
147
1.0
148
0.0
149
0.0
100
AcDbLayout
  1
Model
 70
     1
 71
     0
 10
-0.5
 20
-0.5
 11
5.0
 21
5.0
 12
0.0
 22
0.0
 32
0.0
 14
-0.5
 24
-0.5
 34
-0.5
 15
5.0
 25
5.0
 35
5.0
146
0.0
 13
0.0
 23
0.0
 33
0.0
 16
1.0
 26
0.0
 36
0.0
 17
0.0
 27
1.0
 37
0.0
 76
     0
330
1F
331
174
  0
MATERIAL
  5
3D
102
{ACAD_XDICTIONARY
360
2C0
102
}
102
{ACAD_REACTORS
330
3B
102
}
330
3B
100
AcDbMaterial
  1
BYBLOCK
 73
     1
 78
     1
172
     1
176
     1
270
     1
274
     1
  0
MATERIAL
  5
3C
102
{ACAD_XDICTIONARY
360
2BE
102
}
102
{ACAD_REACTORS
330
3B
102
}
330
3B
100
AcDbMaterial
  1
BYLAYER
 73
     1
 78
     1
172
     1
176
     1
270
     1
274
     1
  0
MATERIAL
  5
3E
102
{ACAD_XDICTIONARY
360
2C2
102
}
102
{ACAD_REACTORS
330
3B
102
}
330
3B
100
AcDbMaterial
  1
Global
 73
     1
 78
     1
172
     1
176
     1
270
     1
274
     1
  0
MLEADERSTYLE
  5
1CB
102
{ACAD_XDICTIONARY
360
294
102
}
102
{ACAD_REACTORS
330
1AB
102
}
330
1AB
100
AcDbMLeaderStyle
170
     2
171
     1
172
     0
 90
        2
 40
0.0
 41
0.0
173
     1
 91
-1056964608
340
14
 92
       -2
290
     1
 42
0.09
291
     1
 43
0.36
  3
Standard
 44
0.18
300

342
11
174
     1
178
     6
175
     1
176
     0
 93
-1056964608
 45
0.18
292
     0
297
     0
 46
0.18
 94
-1056964608
 47
1.0
 49
1.0
140
1.0
293
     1
141
0.0
294
     1
177
     0
142
1.0
295
     0
296
     0
143
0.125
1001
ACAD_MLEADERVER
1070
     2
  0
MLINESTYLE
  5
18
102
{ACAD_REACTORS
330
17
102
}
330
17
100
AcDbMlineStyle
  2
STANDARD
 70
     0
  3

 62
   256
 51
90.0
 52
90.0
 71
     2
 49
0.5
 62
   256
  6
BYLAYER
 49
-0.5
 62
   256
  6
BYLAYER
  0
ACDBPLACEHOLDER
  5
F
102
{ACAD_REACTORS
330
E
102
}
330
E
  0
SCALE
  5
1BA
102
{ACAD_REACTORS
330
1B9
102
}
330
1B9
100
AcDbScale
 70
     0
300
1:1
140
1.0
141
1.0
290
     1
  0
SCALE
  5
1BB
102
{ACAD_REACTORS
330
1B9
102
}
330
1B9
100
AcDbScale
 70
     0
300
1/128" = 1'-0"
140
0.0078125
141
12.0
290
     0
  0
SCALE
  5
1BC
102
{ACAD_REACTORS
330
1B9
102
}
330
1B9
100
AcDbScale
 70
     0
300
1/64" = 1'-0"
140
0.015625
141
12.0
290
     0
  0
SCALE
  5
1BD
102
{ACAD_REACTORS
330
1B9
102
}
330
1B9
100
AcDbScale
 70
     0
300
1/32" = 1'-0"
140
0.03125
141
12.0
290
     0
  0
SCALE
  5
1BE
102
{ACAD_REACTORS
330
1B9
102
}
330
1B9
100
AcDbScale
 70
     0
300
1/16" = 1'-0"
140
0.0625
141
12.0
290
     0
  0
SCALE
  5
1BF
102
{ACAD_REACTORS
330
1B9
102
}
330
1B9
100
AcDbScale
 70
     0
300
3/32" = 1'-0"
140
0.09375
141
12.0
290
     0
  0
SCALE
  5
1C0
102
{ACAD_REACTORS
330
1B9
102
}
330
1B9
100
AcDbScale
 70
     0
300
1/8" = 1'-0"
140
0.125
141
12.0
290
     0
  0
SCALE
  5
1C1
102
{ACAD_REACTORS
330
1B9
102
}
330
1B9
100
AcDbScale
 70
     0
300
3/16" = 1'-0"
140
0.1875
141
12.0
290
     0
  0
SCALE
  5
1C2
102
{ACAD_REACTORS
330
1B9
102
}
330
1B9
100
AcDbScale
 70
     0
300
1/4" = 1'-0"
140
0.25
141
12.0
290
     0
  0
SCALE
  5
1C3
102
{ACAD_REACTORS
330
1B9
102
}
330
1B9
100
AcDbScale
 70
     0
300
3/8" = 1'-0"
140
0.375
141
12.0
290
     0
  0
SCALE
  5
1C4
102
{ACAD_REACTORS
330
1B9
102
}
330
1B9
100
AcDbScale
 70
     0
300
1/2" = 1'-0"
140
0.5
141
12.0
290
     0
  0
SCALE
  5
1C5
102
{ACAD_REACTORS
330
1B9
102
}
330
1B9
100
AcDbScale
 70
     0
300
3/4" = 1'-0"
140
0.75
141
12.0
290
     0
  0
SCALE
  5
1C6
102
{ACAD_REACTORS
330
1B9
102
}
330
1B9
100
AcDbScale
 70
     0
300
1" = 1'-0"
140
1.0
141
12.0
290
     0
  0
SCALE
  5
1C7
102
{ACAD_REACTORS
330
1B9
102
}
330
1B9
100
AcDbScale
 70
     0
300
1-1/2" = 1'-0"
140
1.5
141
12.0
290
     0
  0
SCALE
  5
1C8
102
{ACAD_REACTORS
330
1B9
102
}
330
1B9
100
AcDbScale
 70
     0
300
3" = 1'-0"
140
3.0
141
12.0
290
     0
  0
SCALE
  5
1C9
102
{ACAD_REACTORS
330
1B9
102
}
330
1B9
100
AcDbScale
 70
     0
300
6" = 1'-0"
140
6.0
141
12.0
290
     0
  0
SCALE
  5
1CA
102
{ACAD_REACTORS
330
1B9
102
}
330
1B9
100
AcDbScale
 70
     0
300
1'-0" = 1'-0"
140
12.0
141
12.0
290
     0
  0
TABLESTYLE
  5
1B8
102
{ACAD_XDICTIONARY
360
292
102
}
102
{ACAD_REACTORS
330
1AA
102
}
330
1AA
100
AcDbTableStyle
  3
Standard
 70
     0
 71
     0
 40
0.06
 41
0.06
280
     0
281
     0
  7
Standard
140
0.18
170
     2
 62
     0
 63
     7
283
     0
274
    -2
284
     1
 64
     0
275
    -2
285
     1
 65
     0
276
    -2
286
     1
 66
     0
277
    -2
287
     1
 67
     0
278
    -2
288
     1
 68
     0
279
    -2
289
     1
 69
     0
  7
Standard
140
0.25
170
     5
 62
     0
 63
     7
283
     0
274
    -2
284
     1
 64
     0
275
    -2
285
     1
 65
     0
276
    -2
286
     1
 66
     0
277
    -2
287
     1
 67
     0
278
    -2
288
     1
 68
     0
279
    -2
289
     1
 69
     0
  7
Standard
140
0.18
170
     5
 62
     0
 63
     7
283
     0
274
    -2
284
     1
 64
     0
275
    -2
285
     1
 65
     0
276
    -2
286
     1
 66
     0
277
    -2
287
     1
 67
     0
278
    -2
288
     1
 68
     0
279
    -2
289
     1
 69
     0
  0
VISUALSTYLE
  5
2F
102
{ACAD_XDICTIONARY
360
2A6
102
}
102
{ACAD_REACTORS
330
2A
102
}
330
2A
100
AcDbVisualStyle
  2
2dWireframe
 70
     4
 71
     0
 72
     2
 73
     0
 90
        0
 40
-0.6
 41
-30.0
 62
     5
 63
     7
 74
     1
 91
        4
 64
     7
 65
   257
 75
     1
175
     1
 42
1.0
 92
        0
 66
   257
 43
1.0
 76
     1
 77
     6
 78
     2
 67
     7
 79
     5
170
     0
171
     0
290
     0
174
     0
 93
        1
 44
0.0
173
     0
291
     0
 45
0.0
1001
ACAD
1000
AcDbSavedByObjectVersion
1070
     0
  0
VISUALSTYLE
  5
31
102
{ACAD_XDICTIONARY
360
2AA
102
}
102
{ACAD_REACTORS
330
2A
102
}
330
2A
100
AcDbVisualStyle
  2
3D Hidden
 70
     6
 71
     1
 72
     2
 73
     2
 90
        0
 40
-0.6
 41
-30.0
 62
     5
 63
     7
 74
     2
 91
        2
 64
     7
 65
   257
 75
     2
175
     1
 42
40.0
 92
        0
 66
   257
 43
1.0
 76
     1
 77
     6
 78
     2
 67
     7
 79
     3
170
     0
171
     0
290
     0
174
     0
 93
        1
 44
0.0
173
     0
291
     0
 45
0.0
1001
ACAD
1000
AcDbSavedByObjectVersion
1070
     0
  0
VISUALSTYLE
  5
30
102
{ACAD_XDICTIONARY
360
2A8
102
}
102
{ACAD_REACTORS
330
2A
102
}
330
2A
100
AcDbVisualStyle
  2
3dWireframe
 70
     5
 71
     0
 72
     2
 73
     0
 90
        0
 40
-0.6
 41
-30.0
 62
     5
 63
     7
 74
     1
 91
        4
 64
     7
 65
   257
 75
     1
175
     1
 42
1.0
 92
        0
 66
   257
 43
1.0
 76
     1
 77
     6
 78
     2
 67
     7
 79
     5
170
     0
171
     0
290
     0
174
     0
 93
        1
 44
0.0
173
     0
291
     0
 45
0.0
1001
ACAD
1000
AcDbSavedByObjectVersion
1070
     0
  0
VISUALSTYLE
  5
32
102
{ACAD_XDICTIONARY
360
2AC
102
}
102
{ACAD_REACTORS
330
2A
102
}
330
2A
100
AcDbVisualStyle
  2
Basic
 70
     7
 71
     1
 72
     0
 73
     1
 90
        0
 40
-0.6
 41
-30.0
 62
     5
 63
     7
 74
     0
 91
        4
 64
     7
 65
   257
 75
     1
175
     1
 42
1.0
 92
        8
 66
     7
 43
1.0
 76
     1
 77
     6
 78
     2
 67
     7
 79
     5
170
     0
171
     0
290
     0
174
     0
 93
        1
 44
0.0
173
     0
291
     1
 45
0.0
1001
ACAD
1000
AcDbSavedByObjectVersion
1070
     0
  0
VISUALSTYLE
  5
36
102
{ACAD_XDICTIONARY
360
2B4
102
}
102
{ACAD_REACTORS
330
2A
102
}
330
2A
100
AcDbVisualStyle
  2
Brighten
 70
    12
 71
     2
 72
     2
 73
     0
 90
        0
 40
-0.6
 41
-30.0
 62
     5
 63
     7
 74
     1
 91
        4
 64
     7
 65
   257
 75
     1
175
     1
 42
1.0
 92
        8
 66
     7
 43
1.0
 76
     1
 77
     6
 78
     2
 67
     7
 79
     5
170
     0
171
     0
290
     0
174
     0
 93
        1
 44
50.0
173
     0
291
     1
 45
0.0
1001
ACAD
1000
AcDbSavedByObjectVersion
1070
     0
  0
VISUALSTYLE
  5
3A
102
{ACAD_XDICTIONARY
360
2BC
102
}
102
{ACAD_REACTORS
330
2A
102
}
330
2A
100
AcDbVisualStyle
  2
ColorChange
 70
    16
 71
     2
 72
     2
 73
     3
 90
        0
 40
-0.6
 41
-30.0
 62
     5
 63
     8
 74
     1
 91
        4
 64
     7
 65
   257
 75
     1
175
     1
 42
1.0
 92
        8
 66
     8
 43
1.0
 76
     1
 77
     6
 78
     2
 67
     7
 79
     5
170
     0
171
     0
290
     0
174
     0
 93
        1
 44
0.0
173
     0
291
     1
 45
0.0
1001
ACAD
1000
AcDbSavedByObjectVersion
1070
     0
  0
VISUALSTYLE
  5
34
102
{ACAD_XDICTIONARY
360
2B0
102
}
102
{ACAD_REACTORS
330
2A
102
}
330
2A
100
AcDbVisualStyle
  2
Conceptual
 70
     9
 71
     3
 72
     2
 73
     0
 90
        0
 40
-0.6
 41
-30.0
 62
     5
 63
     7
 74
     2
 91
        2
 64
     7
 65
   257
 75
     1
175
     1
 42
40.0
 92
        8
 66
     7
 43
1.0
 76
     1
 77
     6
 78
     2
 67
     7
 79
     3
170
     0
171
     0
290
     0
174
     0
 93
        1
 44
0.0
173
     0
291
     0
 45
0.0
1001
ACAD
1000
AcDbSavedByObjectVersion
1070
     0
  0
VISUALSTYLE
  5
35
102
{ACAD_XDICTIONARY
360
2B2
102
}
102
{ACAD_REACTORS
330
2A
102
}
330
2A
100
AcDbVisualStyle
  2
Dim
 70
    11
 71
     2
 72
     2
 73
     0
 90
        0
 40
-0.6
 41
-30.0
 62
     5
 63
     7
 74
     1
 91
        4
 64
     7
 65
   257
 75
     1
175
     1
 42
1.0
 92
        8
 66
     7
 43
1.0
 76
     1
 77
     6
 78
     2
 67
     7
 79
     5
170
     0
171
     0
290
     0
174
     0
 93
        1
 44
-50.0
173
     0
291
     1
 45
0.0
1001
ACAD
1000
AcDbSavedByObjectVersion
1070
     0
  0
VISUALSTYLE
  5
1B6
102
{ACAD_XDICTIONARY
360
2D6
102
}
102
{ACAD_REACTORS
330
2A
102
}
330
2A
100
AcDbVisualStyle
  2
EdgeColorOff
 70
    22
 71
     2
 72
     2
 73
     0
 90
        0
 40
-0.6
 41
-30.0
 62
     5
 63
     7
 74
     1
 91
        4
 64
     7
 65
   257
 75
     1
175
     1
 42
1.0
 92
        8
 66
     7
 43
1.0
 76
     1
 77
     6
 78
     2
 67
     7
 79
     5
170
     0
171
     0
290
     0
174
     0
 93
        1
 44
0.0
173
     0
291
     1
 45
0.0
1001
ACAD
1000
AcDbSavedByObjectVersion
1070
     0
  0
VISUALSTYLE
  5
39
102
{ACAD_XDICTIONARY
360
2BA
102
}
102
{ACAD_REACTORS
330
2A
102
}
330
2A
100
AcDbVisualStyle
  2
Facepattern
 70
    15
 71
     2
 72
     2
 73
     0
 90
        0
 40
-0.6
 41
-30.0
 62
     5
 63
     7
 74
     1
 91
        4
 64
     7
 65
   257
 75
     1
175
     1
 42
1.0
 92
        8
 66
     7
 43
1.0
 76
     1
 77
     6
 78
     2
 67
     7
 79
     5
170
     0
171
     0
290
     0
174
     0
 93
        1
 44
0.0
173
     0
291
     1
 45
0.0
1001
ACAD
1000
AcDbSavedByObjectVersion
1070
     0
  0
VISUALSTYLE
  5
2B
102
{ACAD_XDICTIONARY
360
29E
102
}
102
{ACAD_REACTORS
330
2A
102
}
330
2A
100
AcDbVisualStyle
  2
Flat
 70
     0
 71
     2
 72
     1
 73
     1
 90
        2
 40
-0.6
 41
30.0
 62
     5
 63
     7
 74
     0
 91
        4
 64
     7
 65
   257
 75
     1
175
     1
 42
1.0
 92
        8
 66
     7
 43
1.0
 76
     1
 77
     6
 78
     2
 67
     7
 79
     5
170
     0
171
     0
290
     0
174
     0
 93
       13
 44
0.0
173
     0
291
     1
 45
0.0
1001
ACAD
1000
AcDbSavedByObjectVersion
1070
     0
  0
VISUALSTYLE
  5
2C
102
{ACAD_XDICTIONARY
360
2A0
102
}
102
{ACAD_REACTORS
330
2A
102
}
330
2A
100
AcDbVisualStyle
  2
FlatWithEdges
 70
     1
 71
     2
 72
     1
 73
     1
 90
        2
 40
-0.6
 41
30.0
 62
     5
 63
     7
 74
     1
 91
        4
 64
     7
 65
   257
 75
     1
175
     1
 42
1.0
 92
        0
 66
   257
 43
1.0
 76
     1
 77
     6
 78
     2
 67
     7
 79
     5
170
     0
171
     0
290
     0
174
     0
 93
       13
 44
0.0
173
     0
291
     1
 45
0.0
1001
ACAD
1000
AcDbSavedByObjectVersion
1070
     0
  0
VISUALSTYLE
  5
2D
102
{ACAD_XDICTIONARY
360
2A2
102
}
102
{ACAD_REACTORS
330
2A
102
}
330
2A
100
AcDbVisualStyle
  2
Gouraud
 70
     2
 71
     2
 72
     2
 73
     1
 90
        2
 40
-0.6
 41
30.0
 62
     5
 63
     7
 74
     0
 91
        4
 64
     7
 65
   257
 75
     1
175
     1
 42
1.0
 92
        0
 66
     7
 43
1.0
 76
     1
 77
     6
 78
     2
 67
     7
 79
     5
170
     0
171
     0
290
     0
174
     0
 93
       13
 44
0.0
173
     0
291
     1
 45
0.0
1001
ACAD
1000
AcDbSavedByObjectVersion
1070
     0
  0
VISUALSTYLE
  5
2E
102
{ACAD_XDICTIONARY
360
2A4
102
}
102
{ACAD_REACTORS
330
2A
102
}
330
2A
100
AcDbVisualStyle
  2
GouraudWithEdges
 70
     3
 71
     2
 72
     2
 73
     1
 90
        2
 40
-0.6
 41
30.0
 62
     5
 63
     7
 74
     1
 91
        4
 64
     7
 65
   257
 75
     1
175
     1
 42
1.0
 92
        0
 66
   257
 43
1.0
 76
     1
 77
     6
 78
     2
 67
     7
 79
     5
170
     0
171
     0
290
     0
174
     0
 93
       13
 44
0.0
173
     0
291
     1
 45
0.0
1001
ACAD
1000
AcDbSavedByObjectVersion
1070
     0
  0
VISUALSTYLE
  5
1AE
102
{ACAD_XDICTIONARY
360
2C6
102
}
102
{ACAD_REACTORS
330
2A
102
}
330
2A
100
AcDbVisualStyle
  2
Hidden
 70
     6
 71
     1
 72
     2
 73
     2
 90
        0
 40
-0.6
 41
-30.0
 62
     5
 63
     7
 74
     2
 91
        2
 64
     7
 65
   257
 75
     2
175
     1
 42
40.0
 92
        0
 66
   257
 43
1.0
 76
     1
 77
     6
 78
     2
 67
     7
 79
     3
170
     0
171
     0
290
     0
174
     0
 93
        1
 44
0.0
173
     0
291
     0
 45
0.0
1001
ACAD
1000
AcDbSavedByObjectVersion
1070
     0
  0
VISUALSTYLE
  5
1B4
102
{ACAD_XDICTIONARY
360
2D2
102
}
102
{ACAD_REACTORS
330
2A
102
}
330
2A
100
AcDbVisualStyle
  2
JitterOff
 70
    20
 71
     2
 72
     2
 73
     0
 90
        0
 40
-0.6
 41
-30.0
 62
     5
 63
     7
 74
     1
 91
        4
 64
     7
 65
   257
 75
     1
175
     1
 42
1.0
 92
       10
 66
     7
 43
1.0
 76
     1
 77
     6
 78
     2
 67
     7
 79
     5
170
     0
171
     0
290
     0
174
     0
 93
        1
 44
0.0
173
     0
291
     1
 45
0.0
1001
ACAD
1000
AcDbSavedByObjectVersion
1070
     0
  0
VISUALSTYLE
  5
38
102
{ACAD_XDICTIONARY
360
2B8
102
}
102
{ACAD_REACTORS
330
2A
102
}
330
2A
100
AcDbVisualStyle
  2
Linepattern
 70
    14
 71
     2
 72
     2
 73
     0
 90
        0
 40
-0.6
 41
-30.0
 62
     5
 63
     7
 74
     1
 91
        4
 64
     7
 65
   257
 75
     7
175
     7
 42
1.0
 92
        8
 66
     7
 43
1.0
 76
     1
 77
     6
 78
     2
 67
     7
 79
     5
170
     0
171
     0
290
     0
174
     0
 93
        1
 44
0.0
173
     0
291
     1
 45
0.0
1001
ACAD
1000
AcDbSavedByObjectVersion
1070
     0
  0
VISUALSTYLE
  5
1B5
102
{ACAD_XDICTIONARY
360
2D4
102
}
102
{ACAD_REACTORS
330
2A
102
}
330
2A
100
AcDbVisualStyle
  2
OverhangOff
 70
    21
 71
     2
 72
     2
 73
     0
 90
        0
 40
-0.6
 41
-30.0
 62
     5
 63
     7
 74
     1
 91
        4
 64
     7
 65
   257
 75
     1
175
     1
 42
1.0
 92
        9
 66
     7
 43
1.0
 76
     1
 77
     6
 78
     2
 67
     7
 79
     5
170
     0
171
     0
290
     0
174
     0
 93
        1
 44
0.0
173
     0
291
     1
 45
0.0
1001
ACAD
1000
AcDbSavedByObjectVersion
1070
     0
  0
VISUALSTYLE
  5
33
102
{ACAD_XDICTIONARY
360
2AE
102
}
102
{ACAD_REACTORS
330
2A
102
}
330
2A
100
AcDbVisualStyle
  2
Realistic
 70
     8
 71
     2
 72
     2
 73
     0
 90
        0
 40
-0.6
 41
-30.0
 62
     5
 63
     7
 74
     1
 91
        0
 64
     7
 65
   257
 75
     1
175
     1
 42
1.0
 92
        8
 66
     8
 43
1.0
 76
     1
 77
     6
 78
     2
 67
     7
 79
     5
170
     0
171
     0
290
     0
174
     0
 93
       13
 44
0.0
173
     0
291
     0
 45
0.0
1001
ACAD
1000
AcDbSavedByObjectVersion
1070
     0
  0
VISUALSTYLE
  5
1B3
102
{ACAD_XDICTIONARY
360
2D0
102
}
102
{ACAD_REACTORS
330
2A
102
}
330
2A
100
AcDbVisualStyle
  2
Shaded
 70
    27
 71
     2
 72
     2
 73
     1
 90
        2
 40
-0.6
 41
30.0
 62
     5
 63
     7
 74
     0
 91
        4
 64
     7
 65
   257
 75
     1
175
     1
 42
1.0
 92
        8
 66
   257
 43
1.0
 76
     1
 77
     6
 78
     2
 67
     8
 79
     3
170
     0
171
     0
290
     0
174
     0
 93
        5
 44
0.0
173
     0
291
     0
 45
0.0
1001
ACAD
1000
AcDbSavedByObjectVersion
1070
     0
  0
VISUALSTYLE
  5
1B2
102
{ACAD_XDICTIONARY
360
2CE
102
}
102
{ACAD_REACTORS
330
2A
102
}
330
2A
100
AcDbVisualStyle
  2
Shaded with edges
 70
    26
 71
     2
 72
     2
 73
     1
 90
        2
 40
-0.6
 41
30.0
 62
     5
 63
     7
 74
     1
 91
       10
 64
     7
 65
   257
 75
     2
175
     1
 42
1.0
 92
        8
 66
   257
 43
1.0
 76
     1
 77
     6
 78
     2
 67
     7
 79
     3
170
     0
171
     0
290
     0
174
     0
 93
        5
 44
0.0
173
     0
291
     0
 45
0.0
1001
ACAD
1000
AcDbSavedByObjectVersion
1070
     0
  0
VISUALSTYLE
  5
1AF
102
{ACAD_XDICTIONARY
360
2C8
102
}
102
{ACAD_REACTORS
330
2A
102
}
330
2A
100
AcDbVisualStyle
  2
Shades of Gray
 70
    23
 71
     2
 72
     2
 73
     3
 90
        0
 40
-0.6
 41
-30.0
 62
     5
 63
     7
 74
     2
 91
        2
 64
     7
 65
     7
 75
     1
175
     1
 42
40.0
 92
        8
 66
     7
 43
1.0
 76
     1
 77
     6
 78
     2
 67
     7
 79
     3
170
     0
171
     0
290
     0
174
     0
 93
        1
 44
0.0
173
     0
291
     0
 45
0.0
1001
ACAD
1000
AcDbSavedByObjectVersion
1070
     0
  0
VISUALSTYLE
  5
1B0
102
{ACAD_XDICTIONARY
360
2CA
102
}
102
{ACAD_REACTORS
330
2A
102
}
330
2A
100
AcDbVisualStyle
  2
Sketchy
 70
    24
 71
     1
 72
     2
 73
     2
 90
        0
 40
-0.6
 41
-30.0
 62
     5
 63
     7
 74
     2
 91
        2
 64
     7
 65
     7
 75
     1
175
     1
 42
40.0
 92
       11
 66
     7
 43
1.0
 76
     1
 77
     6
 78
     2
 67
     7
 79
     6
170
     0
171
     0
290
     0
174
     0
 93
        1
 44
0.0
173
     0
291
     0
 45
0.0
1001
ACAD
1000
AcDbSavedByObjectVersion
1070
     0
  0
VISUALSTYLE
  5
37
102
{ACAD_XDICTIONARY
360
2B6
102
}
102
{ACAD_REACTORS
330
2A
102
}
330
2A
100
AcDbVisualStyle
  2
Thicken
 70
    13
 71
     2
 72
     2
 73
     0
 90
        0
 40
-0.6
 41
-30.0
 62
     5
 63
     7
 74
     1
 91
        4
 64
     7
 65
   257
 75
     1
175
     1
 42
1.0
 92
       12
 66
     7
 43
1.0
 76
     1
 77
     6
 78
     2
 67
     7
 79
     5
170
     0
171
     0
290
     0
174
     0
 93
        1
 44
0.0
173
     0
291
     1
 45
0.0
1001
ACAD
1000
AcDbSavedByObjectVersion
1070
     0
  0
VISUALSTYLE
  5
1AD
102
{ACAD_XDICTIONARY
360
2C4
102
}
102
{ACAD_REACTORS
330
2A
102
}
330
2A
100
AcDbVisualStyle
  2
Wireframe
 70
     5
 71
     0
 72
     2
 73
     0
 90
        0
 40
-0.6
 41
-30.0
 62
     5
 63
     7
 74
     1
 91
        4
 64
     7
 65
   257
 75
     1
175
     1
 42
1.0
 92
        0
 66
   257
 43
1.0
 76
     1
 77
     6
 78
     2
 67
     7
 79
     3
170
     0
171
     0
290
     0
174
     0
 93
        1
 44
0.0
173
     0
291
     0
 45
0.0
1001
ACAD
1000
AcDbSavedByObjectVersion
1070
     0
  0
VISUALSTYLE
  5
1B1
102
{ACAD_XDICTIONARY
360
2CC
102
}
102
{ACAD_REACTORS
330
2A
102
}
330
2A
100
AcDbVisualStyle
  2
X-Ray
 70
    25
 71
     2
 72
     2
 73
     1
 90
        1
 40
0.5
 41
-30.0
 62
     5
 63
     7
 74
     1
 91
        0
 64
     7
 65
   257
 75
     1
175
     1
 42
1.0
 92
        8
 66
     7
 43
1.0
 76
     1
 77
     6
 78
     2
 67
     7
 79
     3
170
     0
171
     0
290
     0
174
     0
 93
       13
 44
0.0
173
     0
291
     0
 45
0.0
1001
ACAD
1000
AcDbSavedByObjectVersion
1070
     0
  0
DICTIONARYVAR
  5
28C
102
{ACAD_REACTORS
330
289
102
}
330
289
100
DictionaryVariables
280
     0
  1
1:1
  0
DICTIONARYVAR
  5
28B
102
{ACAD_REACTORS
330
289
102
}
330
289
100
DictionaryVariables
280
     0
  1
STANDARD
  0
DICTIONARYVAR
  5
28A
102
{ACAD_REACTORS
330
289
102
}
330
289
100
DictionaryVariables
280
     0
  1
STANDARD
  0
DICTIONARYVAR
  5
291
102
{ACAD_REACTORS
330
289
102
}
330
289
100
DictionaryVariables
280
     0
  1
2
  0
DICTIONARYVAR
  5
28F
102
{ACAD_REACTORS
330
289
102
}
330
289
100
DictionaryVariables
280
     0
  1
1
  0
DICTIONARYVAR
  5
28E
102
{ACAD_REACTORS
330
289
102
}
330
289
100
DictionaryVariables
280
     0
  1
0
  0
DICTIONARYVAR
  5
28D
102
{ACAD_REACTORS
330
289
102
}
330
289
100
DictionaryVariables
280
     0
  1
127
  0
DICTIONARYVAR
  5
290
102
{ACAD_REACTORS
330
289
102
}
330
289
100
DictionaryVariables
280
     0
  1
0
  0
DICTIONARY
  5
298
330
1E
100
AcDbDictionary
280
     1
281
     1
  3
ACAD_XREC_ROUNDTRIP
360
299
  0
DICTIONARY
  5
29C
330
26
100
AcDbDictionary
280
     1
281
     1
  3
ACAD_XREC_ROUNDTRIP
360
29D
  0
DICTIONARY
  5
29A
330
22
100
AcDbDictionary
280
     1
281
     1
  3
ACAD_XREC_ROUNDTRIP
360
29B
  0
DICTIONARY
  5
2C0
330
3D
100
AcDbDictionary
280
     1
281
     1
  3
ACAD_XREC_ROUNDTRIP
360
2C1
  0
DICTIONARY
  5
2BE
330
3C
100
AcDbDictionary
280
     1
281
     1
  3
ACAD_XREC_ROUNDTRIP
360
2BF
  0
DICTIONARY
  5
2C2
330
3E
100
AcDbDictionary
280
     1
281
     1
  3
ACAD_XREC_ROUNDTRIP
360
2C3
  0
DICTIONARY
  5
294
330
1CB
100
AcDbDictionary
280
     1
281
     1
  3
ACAD_XREC_ROUNDTRIP
360
295
  0
DICTIONARY
  5
292
330
1B8
100
AcDbDictionary
280
     1
281
     1
  3
ACAD_ROUNDTRIP_2008_TABLESTYLE_CELLSTYLEMAP
360
293
  3
ACAD_XREC_ROUNDTRIP
360
2D8
  0
DICTIONARY
  5
2A6
330
2F
100
AcDbDictionary
280
     1
281
     1
  3
ACAD_XREC_ROUNDTRIP
360
2A7
  0
DICTIONARY
  5
2AA
330
31
100
AcDbDictionary
280
     1
281
     1
  3
ACAD_XREC_ROUNDTRIP
360
2AB
  0
DICTIONARY
  5
2A8
330
30
100
AcDbDictionary
280
     1
281
     1
  3
ACAD_XREC_ROUNDTRIP
360
2A9
  0
DICTIONARY
  5
2AC
330
32
100
AcDbDictionary
280
     1
281
     1
  3
ACAD_XREC_ROUNDTRIP
360
2AD
  0
DICTIONARY
  5
2B4
330
36
100
AcDbDictionary
280
     1
281
     1
  3
ACAD_XREC_ROUNDTRIP
360
2B5
  0
DICTIONARY
  5
2BC
330
3A
100
AcDbDictionary
280
     1
281
     1
  3
ACAD_XREC_ROUNDTRIP
360
2BD
  0
DICTIONARY
  5
2B0
330
34
100
AcDbDictionary
280
     1
281
     1
  3
ACAD_XREC_ROUNDTRIP
360
2B1
  0
DICTIONARY
  5
2B2
330
35
100
AcDbDictionary
280
     1
281
     1
  3
ACAD_XREC_ROUNDTRIP
360
2B3
  0
DICTIONARY
  5
2D6
330
1B6
100
AcDbDictionary
280
     1
281
     1
  3
ACAD_XREC_ROUNDTRIP
360
2D7
  0
DICTIONARY
  5
2BA
330
39
100
AcDbDictionary
280
     1
281
     1
  3
ACAD_XREC_ROUNDTRIP
360
2BB
  0
DICTIONARY
  5
29E
330
2B
100
AcDbDictionary
280
     1
281
     1
  3
ACAD_XREC_ROUNDTRIP
360
29F
  0
DICTIONARY
  5
2A0
330
2C
100
AcDbDictionary
280
     1
281
     1
  3
ACAD_XREC_ROUNDTRIP
360
2A1
  0
DICTIONARY
  5
2A2
330
2D
100
AcDbDictionary
280
     1
281
     1
  3
ACAD_XREC_ROUNDTRIP
360
2A3
  0
DICTIONARY
  5
2A4
330
2E
100
AcDbDictionary
280
     1
281
     1
  3
ACAD_XREC_ROUNDTRIP
360
2A5
  0
DICTIONARY
  5
2C6
330
1AE
100
AcDbDictionary
280
     1
281
     1
  3
ACAD_XREC_ROUNDTRIP
360
2C7
  0
DICTIONARY
  5
2D2
330
1B4
100
AcDbDictionary
280
     1
281
     1
  3
ACAD_XREC_ROUNDTRIP
360
2D3
  0
DICTIONARY
  5
2B8
330
38
100
AcDbDictionary
280
     1
281
     1
  3
ACAD_XREC_ROUNDTRIP
360
2B9
  0
DICTIONARY
  5
2D4
330
1B5
100
AcDbDictionary
280
     1
281
     1
  3
ACAD_XREC_ROUNDTRIP
360
2D5
  0
DICTIONARY
  5
2AE
330
33
100
AcDbDictionary
280
     1
281
     1
  3
ACAD_XREC_ROUNDTRIP
360
2AF
  0
DICTIONARY
  5
2D0
330
1B3
100
AcDbDictionary
280
     1
281
     1
  3
ACAD_XREC_ROUNDTRIP
360
2D1
  0
DICTIONARY
  5
2CE
330
1B2
100
AcDbDictionary
280
     1
281
     1
  3
ACAD_XREC_ROUNDTRIP
360
2CF
  0
DICTIONARY
  5
2C8
330
1AF
100
AcDbDictionary
280
     1
281
     1
  3
ACAD_XREC_ROUNDTRIP
360
2C9
  0
DICTIONARY
  5
2CA
330
1B0
100
AcDbDictionary
280
     1
281
     1
  3
ACAD_XREC_ROUNDTRIP
360
2CB
  0
DICTIONARY
  5
2B6
330
37
100
AcDbDictionary
280
     1
281
     1
  3
ACAD_XREC_ROUNDTRIP
360
2B7
  0
DICTIONARY
  5
2C4
330
1AD
100
AcDbDictionary
280
     1
281
     1
  3
ACAD_XREC_ROUNDTRIP
360
2C5
  0
DICTIONARY
  5
2CC
330
1B1
100
AcDbDictionary
280
     1
281
     1
  3
ACAD_XREC_ROUNDTRIP
360
2CD
  0
XRECORD
  5
299
102
{ACAD_REACTORS
330
298
102
}
330
298
100
AcDbXrecord
280
     1
102
SHADEPLOT
 70
     0
102
SHADEPLOTRESLEVEL
 70
     2
102
SHADEPLOTCUSTOMDPI
 70
   300
  0
XRECORD
  5
29D
102
{ACAD_REACTORS
330
29C
102
}
330
29C
100
AcDbXrecord
280
     1
102
SHADEPLOT
 70
     0
102
SHADEPLOTRESLEVEL
 70
     2
102
SHADEPLOTCUSTOMDPI
 70
   300
  0
XRECORD
  5
29B
102
{ACAD_REACTORS
330
29A
102
}
330
29A
100
AcDbXrecord
280
     1
102
SHADEPLOT
 70
     0
102
SHADEPLOTRESLEVEL
 70
     2
102
SHADEPLOTCUSTOMDPI
 70
   300
  0
XRECORD
  5
2C1
102
{ACAD_REACTORS
330
2C0
102
}
330
2C0
100
AcDbXrecord
280
     1
102
MATERIAL
148
0.0
149
0.0
149
0.0
 93
        0
 94
      127
282
     0
 72
     1
 77
     1
171
     1
175
     1
179
     1
273
     0
  0
XRECORD
  5
2BF
102
{ACAD_REACTORS
330
2BE
102
}
330
2BE
100
AcDbXrecord
280
     1
102
MATERIAL
148
0.0
149
0.0
149
0.0
 93
        0
 94
      127
282
     0
 72
     1
 77
     1
171
     1
175
     1
179
     1
273
     0
  0
XRECORD
  5
2C3
102
{ACAD_REACTORS
330
2C2
102
}
330
2C2
100
AcDbXrecord
280
     1
102
MATERIAL
148
0.0
149
0.0
149
0.0
 93
        0
 94
      127
282
     0
 72
     1
 77
     1
171
     1
175
     1
179
     1
273
     0
  0
XRECORD
  5
295
102
{ACAD_REACTORS
330
294
102
}
330
294
100
AcDbXrecord
280
     1
102
ACAD_ROUNDTRIP_2012_MLEADER_STYLE
298
     1
  0
CELLSTYLEMAP
  5
293
102
{ACAD_REACTORS
330
292
102
}
330
292
100
AcDbCellStyleMap
 90
        3
300
CELLSTYLE
  1
TABLEFORMAT_BEGIN
 90
        5
170
     1
 91
        0
 92
    32768
 62
   257
 93
        1
300
CONTENTFORMAT
  1
CONTENTFORMAT_BEGIN
 90
        0
 91
        0
 92
      512
 93
        0
300

 40
0.0
140
1.0
 94
        5
 62
     0
340
11
144
0.25
309
CONTENTFORMAT_END
171
     0
 94
        0
309
TABLEFORMAT_END
  1
CELLSTYLE_BEGIN
 90
        1
 91
        1
300
_TITLE
309
CELLSTYLE_END
300
CELLSTYLE
  1
TABLEFORMAT_BEGIN
 90
        5
170
     1
 91
        0
 92
        0
 62
   257
 93
        1
300
CONTENTFORMAT
  1
CONTENTFORMAT_BEGIN
 90
        0
 91
        0
 92
      512
 93
        0
300

 40
0.0
140
1.0
 94
        5
 62
     0
340
11
144
0.18
309
CONTENTFORMAT_END
171
     0
 94
        0
309
TABLEFORMAT_END
  1
CELLSTYLE_BEGIN
 90
        2
 91
        1
300
_HEADER
309
CELLSTYLE_END
300
CELLSTYLE
  1
TABLEFORMAT_BEGIN
 90
        5
170
     1
 91
        0
 92
        0
 62
   257
 93
        1
300
CONTENTFORMAT
  1
CONTENTFORMAT_BEGIN
 90
        0
 91
        0
 92
      512
 93
        0
300

 40
0.0
140
1.0
 94
        2
 62
     0
340
11
144
0.18
309
CONTENTFORMAT_END
171
     0
 94
        0
309
TABLEFORMAT_END
  1
CELLSTYLE_BEGIN
 90
        3
 91
        2
300
_DATA
309
CELLSTYLE_END
  0
XRECORD
  5
2D8
102
{ACAD_REACTORS
330
292
102
}
330
292
100
AcDbXrecord
280
     1
102
ACAD_ROUNDTRIP_PRE2007_TABLESTYLE
 90
      512
 91
        0
  1

 92
      512
 93
        0
  2

 94
      512
 95
        0
  3

  0
XRECORD
  5
2A7
102
{ACAD_REACTORS
330
2A6
102
}
330
2A6
100
AcDbXrecord
280
     1
102
RTVSPropertyOp0
 70
     1
102
RTVSPropertyOp1
 70
     1
102
RTVSPropertyOp2
 70
     1
102
RTVSPropertyOp3
 70
     1
102
RTVSPropertyOp4
 70
     1
102
RTVSPropertyOp5
 70
     1
102
RTVSPropertyOp6
 70
     1
102
RTVSPropertyOp7
 70
     1
102
RTVSPropertyOp8
 70
     1
102
RTVSPropertyOp9
 70
     1
102
RTVSPropertyOp10
 70
     1
102
RTVSPropertyOp11
 70
     1
102
RTVSPropertyOp12
 70
     1
102
RTVSPropertyOp13
 70
     1
102
RTVSPropertyOp14
 70
     1
102
RTVSPropertyOp15
 70
     1
102
RTVSPropertyOp16
 70
     1
102
RTVSPropertyOp17
 70
     1
102
RTVSPropertyOp18
 70
     1
102
RTVSPropertyOp19
 70
     1
102
RTVSPropertyOp20
 70
     1
102
RTVSPropertyOp21
 70
     1
102
RTVSPropertyOp22
 70
     1
102
RTVSPropertyOp23
 70
     1
102
RTVSPropertyOp24
 70
     1
102
RTVSPropertyOp25
 70
     1
102
RTVSPropertyOp26
 70
     1
102
RTVSPropertyOp27
 70
     1
102
RTVSPropertyOp28
 70
     1
102
RTVSPropertyOp29
 70
     1
102
RTVSPropertyOp30
 70
     1
102
RTVSPropertyOp31
 70
     1
102
RTVSPropertyOp32
 70
     1
  0
XRECORD
  5
2AB
102
{ACAD_REACTORS
330
2AA
102
}
330
2AA
100
AcDbXrecord
280
     1
102
RTVSPropertyOp0
 70
     1
102
RTVSPropertyOp1
 70
     1
102
RTVSPropertyOp2
 70
     1
102
RTVSPropertyOp3
 70
     1
102
RTVSPropertyOp4
 70
     1
102
RTVSPropertyOp5
 70
     1
102
RTVSPropertyOp6
 70
     1
102
RTVSPropertyOp7
 70
     1
102
RTVSPropertyOp8
 70
     1
102
RTVSPropertyOp9
 70
     1
102
RTVSPropertyOp10
 70
     1
102
RTVSPropertyOp11
 70
     1
102
RTVSPropertyOp12
 70
     1
102
RTVSPropertyOp13
 70
     1
102
RTVSPropertyOp14
 70
     1
102
RTVSPropertyOp15
 70
     1
102
RTVSPropertyOp16
 70
     1
102
RTVSPropertyOp17
 70
     1
102
RTVSPropertyOp18
 70
     1
102
RTVSPropertyOp19
 70
     1
102
RTVSPropertyOp20
 70
     1
102
RTVSPropertyOp21
 70
     1
102
RTVSPropertyOp22
 70
     1
102
RTVSPropertyOp23
 70
     1
102
RTVSPropertyOp24
 70
     1
102
RTVSPropertyOp25
 70
     1
102
RTVSPropertyOp26
 70
     1
102
RTVSPropertyOp27
 70
     1
102
RTVSPropertyOp28
 70
     1
102
RTVSPropertyOp29
 70
     1
102
RTVSPropertyOp30
 70
     1
102
RTVSPropertyOp31
 70
     1
102
RTVSPropertyOp32
 70
     1
  0
XRECORD
  5
2A9
102
{ACAD_REACTORS
330
2A8
102
}
330
2A8
100
AcDbXrecord
280
     1
102
RTVSPropertyOp0
 70
     1
102
RTVSPropertyOp1
 70
     1
102
RTVSPropertyOp2
 70
     1
102
RTVSPropertyOp3
 70
     1
102
RTVSPropertyOp4
 70
     1
102
RTVSPropertyOp5
 70
     1
102
RTVSPropertyOp6
 70
     1
102
RTVSPropertyOp7
 70
     1
102
RTVSPropertyOp8
 70
     1
102
RTVSPropertyOp9
 70
     1
102
RTVSPropertyOp10
 70
     1
102
RTVSPropertyOp11
 70
     1
102
RTVSPropertyOp12
 70
     1
102
RTVSPropertyOp13
 70
     1
102
RTVSPropertyOp14
 70
     1
102
RTVSPropertyOp15
 70
     1
102
RTVSPropertyOp16
 70
     1
102
RTVSPropertyOp17
 70
     1
102
RTVSPropertyOp18
 70
     1
102
RTVSPropertyOp19
 70
     1
102
RTVSPropertyOp20
 70
     1
102
RTVSPropertyOp21
 70
     1
102
RTVSPropertyOp22
 70
     1
102
RTVSPropertyOp23
 70
     1
102
RTVSPropertyOp24
 70
     1
102
RTVSPropertyOp25
 70
     1
102
RTVSPropertyOp26
 70
     1
102
RTVSPropertyOp27
 70
     1
102
RTVSPropertyOp28
 70
     1
102
RTVSPropertyOp29
 70
     1
102
RTVSPropertyOp30
 70
     1
102
RTVSPropertyOp31
 70
     1
102
RTVSPropertyOp32
 70
     1
  0
XRECORD
  5
2AD
102
{ACAD_REACTORS
330
2AC
102
}
330
2AC
100
AcDbXrecord
280
     1
102
RTVSPropertyOp0
 70
     1
102
RTVSPropertyOp1
 70
     1
102
RTVSPropertyOp2
 70
     1
102
RTVSPropertyOp3
 70
     1
102
RTVSPropertyOp4
 70
     1
102
RTVSPropertyOp5
 70
     1
102
RTVSPropertyOp6
 70
     1
102
RTVSPropertyOp7
 70
     1
102
RTVSPropertyOp8
 70
     1
102
RTVSPropertyOp9
 70
     1
102
RTVSPropertyOp10
 70
     1
102
RTVSPropertyOp11
 70
     1
102
RTVSPropertyOp12
 70
     1
102
RTVSPropertyOp13
 70
     1
102
RTVSPropertyOp14
 70
     1
102
RTVSPropertyOp15
 70
     1
102
RTVSPropertyOp16
 70
     1
102
RTVSPropertyOp17
 70
     1
102
RTVSPropertyOp18
 70
     1
102
RTVSPropertyOp19
 70
     1
102
RTVSPropertyOp20
 70
     1
102
RTVSPropertyOp21
 70
     1
102
RTVSPropertyOp22
 70
     1
102
RTVSPropertyOp23
 70
     1
102
RTVSPropertyOp24
 70
     1
102
RTVSPropertyOp25
 70
     1
102
RTVSPropertyOp26
 70
     1
102
RTVSPropertyOp27
 70
     1
102
RTVSPropertyOp28
 70
     1
102
RTVSPropertyOp29
 70
     1
102
RTVSPropertyOp30
 70
     1
102
RTVSPropertyOp31
 70
     1
102
RTVSPropertyOp32
 70
     1
  0
XRECORD
  5
2B5
102
{ACAD_REACTORS
330
2B4
102
}
330
2B4
100
AcDbXrecord
280
     1
102
RTVSPropertyOp0
 70
     1
102
RTVSPropertyOp1
 70
     1
102
RTVSPropertyOp2
 70
     1
102
RTVSPropertyOp3
 70
     1
102
RTVSPropertyOp4
 70
     1
102
RTVSPropertyOp5
 70
     1
102
RTVSPropertyOp6
 70
     1
102
RTVSPropertyOp7
 70
     1
102
RTVSPropertyOp8
 70
     1
102
RTVSPropertyOp9
 70
     1
102
RTVSPropertyOp10
 70
     1
102
RTVSPropertyOp11
 70
     1
102
RTVSPropertyOp12
 70
     1
102
RTVSPropertyOp13
 70
     1
102
RTVSPropertyOp14
 70
     1
102
RTVSPropertyOp15
 70
     1
102
RTVSPropertyOp16
 70
     1
102
RTVSPropertyOp17
 70
     1
102
RTVSPropertyOp18
 70
     1
102
RTVSPropertyOp19
 70
     1
102
RTVSPropertyOp20
 70
     1
102
RTVSPropertyOp21
 70
     1
102
RTVSPropertyOp22
 70
     1
102
RTVSPropertyOp23
 70
     1
102
RTVSPropertyOp24
 70
     1
102
RTVSPropertyOp25
 70
     1
102
RTVSPropertyOp26
 70
     1
102
RTVSPropertyOp27
 70
     1
102
RTVSPropertyOp28
 70
     1
102
RTVSPropertyOp29
 70
     1
102
RTVSPropertyOp30
 70
     1
102
RTVSPropertyOp31
 70
     1
102
RTVSPropertyOp32
 70
     1
  0
XRECORD
  5
2BD
102
{ACAD_REACTORS
330
2BC
102
}
330
2BC
100
AcDbXrecord
280
     1
102
RTVSPropertyOp0
 70
     1
102
RTVSPropertyOp1
 70
     1
102
RTVSPropertyOp2
 70
     1
102
RTVSPropertyOp3
 70
     1
102
RTVSPropertyOp4
 70
     1
102
RTVSPropertyOp5
 70
     1
102
RTVSPropertyOp6
 70
     1
102
RTVSPropertyOp7
 70
     1
102
RTVSPropertyOp8
 70
     1
102
RTVSPropertyOp9
 70
     1
102
RTVSPropertyOp10
 70
     1
102
RTVSPropertyOp11
 70
     1
102
RTVSPropertyOp12
 70
     1
102
RTVSPropertyOp13
 70
     1
102
RTVSPropertyOp14
 70
     1
102
RTVSPropertyOp15
 70
     1
102
RTVSPropertyOp16
 70
     1
102
RTVSPropertyOp17
 70
     1
102
RTVSPropertyOp18
 70
     1
102
RTVSPropertyOp19
 70
     1
102
RTVSPropertyOp20
 70
     1
102
RTVSPropertyOp21
 70
     1
102
RTVSPropertyOp22
 70
     1
102
RTVSPropertyOp23
 70
     1
102
RTVSPropertyOp24
 70
     1
102
RTVSPropertyOp25
 70
     1
102
RTVSPropertyOp26
 70
     1
102
RTVSPropertyOp27
 70
     1
102
RTVSPropertyOp28
 70
     1
102
RTVSPropertyOp29
 70
     1
102
RTVSPropertyOp30
 70
     1
102
RTVSPropertyOp31
 70
     1
102
RTVSPropertyOp32
 70
     1
  0
XRECORD
  5
2B1
102
{ACAD_REACTORS
330
2B0
102
}
330
2B0
100
AcDbXrecord
280
     1
102
RTVSPropertyOp0
 70
     1
102
RTVSPropertyOp1
 70
     1
102
RTVSPropertyOp2
 70
     1
102
RTVSPropertyOp3
 70
     1
102
RTVSPropertyOp4
 70
     1
102
RTVSPropertyOp5
 70
     1
102
RTVSPropertyOp6
 70
     1
102
RTVSPropertyOp7
 70
     1
102
RTVSPropertyOp8
 70
     1
102
RTVSPropertyOp9
 70
     1
102
RTVSPropertyOp10
 70
     1
102
RTVSPropertyOp11
 70
     1
102
RTVSPropertyOp12
 70
     1
102
RTVSPropertyOp13
 70
     1
102
RTVSPropertyOp14
 70
     1
102
RTVSPropertyOp15
 70
     1
102
RTVSPropertyOp16
 70
     1
102
RTVSPropertyOp17
 70
     1
102
RTVSPropertyOp18
 70
     1
102
RTVSPropertyOp19
 70
     1
102
RTVSPropertyOp20
 70
     1
102
RTVSPropertyOp21
 70
     1
102
RTVSPropertyOp22
 70
     1
102
RTVSPropertyOp23
 70
     1
102
RTVSPropertyOp24
 70
     1
102
RTVSPropertyOp25
 70
     1
102
RTVSPropertyOp26
 70
     1
102
RTVSPropertyOp27
 70
     1
102
RTVSPropertyOp28
 70
     1
102
RTVSPropertyOp29
 70
     1
102
RTVSPropertyOp30
 70
     1
102
RTVSPropertyOp31
 70
     1
102
RTVSPropertyOp32
 70
     1
  0
XRECORD
  5
2B3
102
{ACAD_REACTORS
330
2B2
102
}
330
2B2
100
AcDbXrecord
280
     1
102
RTVSPropertyOp0
 70
     1
102
RTVSPropertyOp1
 70
     1
102
RTVSPropertyOp2
 70
     1
102
RTVSPropertyOp3
 70
     1
102
RTVSPropertyOp4
 70
     1
102
RTVSPropertyOp5
 70
     1
102
RTVSPropertyOp6
 70
     1
102
RTVSPropertyOp7
 70
     1
102
RTVSPropertyOp8
 70
     1
102
RTVSPropertyOp9
 70
     1
102
RTVSPropertyOp10
 70
     1
102
RTVSPropertyOp11
 70
     1
102
RTVSPropertyOp12
 70
     1
102
RTVSPropertyOp13
 70
     1
102
RTVSPropertyOp14
 70
     1
102
RTVSPropertyOp15
 70
     1
102
RTVSPropertyOp16
 70
     1
102
RTVSPropertyOp17
 70
     1
102
RTVSPropertyOp18
 70
     1
102
RTVSPropertyOp19
 70
     1
102
RTVSPropertyOp20
 70
     1
102
RTVSPropertyOp21
 70
     1
102
RTVSPropertyOp22
 70
     1
102
RTVSPropertyOp23
 70
     1
102
RTVSPropertyOp24
 70
     1
102
RTVSPropertyOp25
 70
     1
102
RTVSPropertyOp26
 70
     1
102
RTVSPropertyOp27
 70
     1
102
RTVSPropertyOp28
 70
     1
102
RTVSPropertyOp29
 70
     1
102
RTVSPropertyOp30
 70
     1
102
RTVSPropertyOp31
 70
     1
102
RTVSPropertyOp32
 70
     1
  0
XRECORD
  5
2D7
102
{ACAD_REACTORS
330
2D6
102
}
330
2D6
100
AcDbXrecord
280
     1
102
RTVSPropertyOp0
 70
     0
102
RTVSPropertyOp1
 70
     0
102
RTVSPropertyOp2
 70
     0
102
RTVSPropertyOp3
 70
     0
102
RTVSPropertyOp4
 70
     0
102
RTVSPropertyOp5
 70
     0
102
RTVSPropertyOp6
 70
     0
102
RTVSPropertyOp7
 70
     0
102
RTVSPropertyOp8
 70
     0
102
RTVSPropertyOp9
 70
     0
102
RTVSPropertyOp10
 70
     0
102
RTVSPropertyOp11
 70
     0
102
RTVSPropertyOp12
 70
     0
102
RTVSPropertyOp13
 70
     0
102
RTVSPropertyOp14
 70
     2
102
RTVSPropertyOp15
 70
     0
102
RTVSPropertyOp16
 70
     0
102
RTVSPropertyOp17
 70
     0
102
RTVSPropertyOp18
 70
     0
102
RTVSPropertyOp19
 70
     0
102
RTVSPropertyOp20
 70
     0
102
RTVSPropertyOp21
 70
     0
102
RTVSPropertyOp22
 70
     0
102
RTVSPropertyOp23
 70
     0
102
RTVSPropertyOp24
 70
     0
102
RTVSPropertyOp25
 70
     0
102
RTVSPropertyOp26
 70
     0
102
RTVSPropertyOp27
 70
     0
102
RTVSPropertyOp28
 70
     0
102
RTVSPropertyOp29
 70
     0
102
RTVSPropertyOp30
 70
     0
102
RTVSPropertyOp31
 70
     0
102
RTVSPropertyOp32
 70
     0
  0
XRECORD
  5
2BB
102
{ACAD_REACTORS
330
2BA
102
}
330
2BA
100
AcDbXrecord
280
     1
102
RTVSPropertyOp0
 70
     1
102
RTVSPropertyOp1
 70
     1
102
RTVSPropertyOp2
 70
     1
102
RTVSPropertyOp3
 70
     1
102
RTVSPropertyOp4
 70
     1
102
RTVSPropertyOp5
 70
     1
102
RTVSPropertyOp6
 70
     1
102
RTVSPropertyOp7
 70
     1
102
RTVSPropertyOp8
 70
     1
102
RTVSPropertyOp9
 70
     1
102
RTVSPropertyOp10
 70
     1
102
RTVSPropertyOp11
 70
     1
102
RTVSPropertyOp12
 70
     1
102
RTVSPropertyOp13
 70
     1
102
RTVSPropertyOp14
 70
     1
102
RTVSPropertyOp15
 70
     1
102
RTVSPropertyOp16
 70
     1
102
RTVSPropertyOp17
 70
     1
102
RTVSPropertyOp18
 70
     1
102
RTVSPropertyOp19
 70
     1
102
RTVSPropertyOp20
 70
     1
102
RTVSPropertyOp21
 70
     1
102
RTVSPropertyOp22
 70
     1
102
RTVSPropertyOp23
 70
     1
102
RTVSPropertyOp24
 70
     1
102
RTVSPropertyOp25
 70
     1
102
RTVSPropertyOp26
 70
     1
102
RTVSPropertyOp27
 70
     1
102
RTVSPropertyOp28
 70
     1
102
RTVSPropertyOp29
 70
     1
102
RTVSPropertyOp30
 70
     1
102
RTVSPropertyOp31
 70
     1
102
RTVSPropertyOp32
 70
     1
  0
XRECORD
  5
29F
102
{ACAD_REACTORS
330
29E
102
}
330
29E
100
AcDbXrecord
280
     1
102
RTVSPropertyOp0
 70
     1
102
RTVSPropertyOp1
 70
     1
102
RTVSPropertyOp2
 70
     1
102
RTVSPropertyOp3
 70
     1
102
RTVSPropertyOp4
 70
     1
102
RTVSPropertyOp5
 70
     1
102
RTVSPropertyOp6
 70
     1
102
RTVSPropertyOp7
 70
     1
102
RTVSPropertyOp8
 70
     1
102
RTVSPropertyOp9
 70
     1
102
RTVSPropertyOp10
 70
     1
102
RTVSPropertyOp11
 70
     1
102
RTVSPropertyOp12
 70
     1
102
RTVSPropertyOp13
 70
     1
102
RTVSPropertyOp14
 70
     1
102
RTVSPropertyOp15
 70
     1
102
RTVSPropertyOp16
 70
     1
102
RTVSPropertyOp17
 70
     1
102
RTVSPropertyOp18
 70
     1
102
RTVSPropertyOp19
 70
     1
102
RTVSPropertyOp20
 70
     1
102
RTVSPropertyOp21
 70
     1
102
RTVSPropertyOp22
 70
     1
102
RTVSPropertyOp23
 70
     1
102
RTVSPropertyOp24
 70
     1
102
RTVSPropertyOp25
 70
     1
102
RTVSPropertyOp26
 70
     1
102
RTVSPropertyOp27
 70
     1
102
RTVSPropertyOp28
 70
     1
102
RTVSPropertyOp29
 70
     1
102
RTVSPropertyOp30
 70
     1
102
RTVSPropertyOp31
 70
     1
102
RTVSPropertyOp32
 70
     1
  0
XRECORD
  5
2A1
102
{ACAD_REACTORS
330
2A0
102
}
330
2A0
100
AcDbXrecord
280
     1
102
RTVSPropertyOp0
 70
     1
102
RTVSPropertyOp1
 70
     1
102
RTVSPropertyOp2
 70
     1
102
RTVSPropertyOp3
 70
     1
102
RTVSPropertyOp4
 70
     1
102
RTVSPropertyOp5
 70
     1
102
RTVSPropertyOp6
 70
     1
102
RTVSPropertyOp7
 70
     1
102
RTVSPropertyOp8
 70
     1
102
RTVSPropertyOp9
 70
     1
102
RTVSPropertyOp10
 70
     1
102
RTVSPropertyOp11
 70
     1
102
RTVSPropertyOp12
 70
     1
102
RTVSPropertyOp13
 70
     1
102
RTVSPropertyOp14
 70
     1
102
RTVSPropertyOp15
 70
     1
102
RTVSPropertyOp16
 70
     1
102
RTVSPropertyOp17
 70
     1
102
RTVSPropertyOp18
 70
     1
102
RTVSPropertyOp19
 70
     1
102
RTVSPropertyOp20
 70
     1
102
RTVSPropertyOp21
 70
     1
102
RTVSPropertyOp22
 70
     1
102
RTVSPropertyOp23
 70
     1
102
RTVSPropertyOp24
 70
     1
102
RTVSPropertyOp25
 70
     1
102
RTVSPropertyOp26
 70
     1
102
RTVSPropertyOp27
 70
     1
102
RTVSPropertyOp28
 70
     1
102
RTVSPropertyOp29
 70
     1
102
RTVSPropertyOp30
 70
     1
102
RTVSPropertyOp31
 70
     1
102
RTVSPropertyOp32
 70
     1
  0
XRECORD
  5
2A3
102
{ACAD_REACTORS
330
2A2
102
}
330
2A2
100
AcDbXrecord
280
     1
102
RTVSPropertyOp0
 70
     1
102
RTVSPropertyOp1
 70
     1
102
RTVSPropertyOp2
 70
     1
102
RTVSPropertyOp3
 70
     1
102
RTVSPropertyOp4
 70
     1
102
RTVSPropertyOp5
 70
     1
102
RTVSPropertyOp6
 70
     1
102
RTVSPropertyOp7
 70
     1
102
RTVSPropertyOp8
 70
     1
102
RTVSPropertyOp9
 70
     1
102
RTVSPropertyOp10
 70
     1
102
RTVSPropertyOp11
 70
     1
102
RTVSPropertyOp12
 70
     1
102
RTVSPropertyOp13
 70
     1
102
RTVSPropertyOp14
 70
     1
102
RTVSPropertyOp15
 70
     1
102
RTVSPropertyOp16
 70
     1
102
RTVSPropertyOp17
 70
     1
102
RTVSPropertyOp18
 70
     1
102
RTVSPropertyOp19
 70
     1
102
RTVSPropertyOp20
 70
     1
102
RTVSPropertyOp21
 70
     1
102
RTVSPropertyOp22
 70
     1
102
RTVSPropertyOp23
 70
     1
102
RTVSPropertyOp24
 70
     1
102
RTVSPropertyOp25
 70
     1
102
RTVSPropertyOp26
 70
     1
102
RTVSPropertyOp27
 70
     1
102
RTVSPropertyOp28
 70
     1
102
RTVSPropertyOp29
 70
     1
102
RTVSPropertyOp30
 70
     1
102
RTVSPropertyOp31
 70
     1
102
RTVSPropertyOp32
 70
     1
  0
XRECORD
  5
2A5
102
{ACAD_REACTORS
330
2A4
102
}
330
2A4
100
AcDbXrecord
280
     1
102
RTVSPropertyOp0
 70
     1
102
RTVSPropertyOp1
 70
     1
102
RTVSPropertyOp2
 70
     1
102
RTVSPropertyOp3
 70
     1
102
RTVSPropertyOp4
 70
     1
102
RTVSPropertyOp5
 70
     1
102
RTVSPropertyOp6
 70
     1
102
RTVSPropertyOp7
 70
     1
102
RTVSPropertyOp8
 70
     1
102
RTVSPropertyOp9
 70
     1
102
RTVSPropertyOp10
 70
     1
102
RTVSPropertyOp11
 70
     1
102
RTVSPropertyOp12
 70
     1
102
RTVSPropertyOp13
 70
     1
102
RTVSPropertyOp14
 70
     1
102
RTVSPropertyOp15
 70
     1
102
RTVSPropertyOp16
 70
     1
102
RTVSPropertyOp17
 70
     1
102
RTVSPropertyOp18
 70
     1
102
RTVSPropertyOp19
 70
     1
102
RTVSPropertyOp20
 70
     1
102
RTVSPropertyOp21
 70
     1
102
RTVSPropertyOp22
 70
     1
102
RTVSPropertyOp23
 70
     1
102
RTVSPropertyOp24
 70
     1
102
RTVSPropertyOp25
 70
     1
102
RTVSPropertyOp26
 70
     1
102
RTVSPropertyOp27
 70
     1
102
RTVSPropertyOp28
 70
     1
102
RTVSPropertyOp29
 70
     1
102
RTVSPropertyOp30
 70
     1
102
RTVSPropertyOp31
 70
     1
102
RTVSPropertyOp32
 70
     1
  0
XRECORD
  5
2C7
102
{ACAD_REACTORS
330
2C6
102
}
330
2C6
100
AcDbXrecord
280
     1
102
RTVSPropertyOp0
 70
     1
102
RTVSPropertyOp1
 70
     1
102
RTVSPropertyOp2
 70
     1
102
RTVSPropertyOp3
 70
     1
102
RTVSPropertyOp4
 70
     1
102
RTVSPropertyOp5
 70
     1
102
RTVSPropertyOp6
 70
     1
102
RTVSPropertyOp7
 70
     1
102
RTVSPropertyOp8
 70
     1
102
RTVSPropertyOp9
 70
     1
102
RTVSPropertyOp10
 70
     1
102
RTVSPropertyOp11
 70
     1
102
RTVSPropertyOp12
 70
     1
102
RTVSPropertyOp13
 70
     1
102
RTVSPropertyOp14
 70
     1
102
RTVSPropertyOp15
 70
     1
102
RTVSPropertyOp16
 70
     1
102
RTVSPropertyOp17
 70
     1
102
RTVSPropertyOp18
 70
     1
102
RTVSPropertyOp19
 70
     1
102
RTVSPropertyOp20
 70
     1
102
RTVSPropertyOp21
 70
     1
102
RTVSPropertyOp22
 70
     1
102
RTVSPropertyOp23
 70
     1
102
RTVSPropertyOp24
 70
     1
102
RTVSPropertyOp25
 70
     1
102
RTVSPropertyOp26
 70
     1
102
RTVSPropertyOp27
 70
     1
102
RTVSPropertyOp28
 70
     1
102
RTVSPropertyOp29
 70
     1
102
RTVSPropertyOp30
 70
     1
102
RTVSPropertyOp31
 70
     1
102
RTVSPropertyOp32
 70
     1
  0
XRECORD
  5
2D3
102
{ACAD_REACTORS
330
2D2
102
}
330
2D2
100
AcDbXrecord
280
     1
102
RTVSPropertyOp0
 70
     0
102
RTVSPropertyOp1
 70
     0
102
RTVSPropertyOp2
 70
     0
102
RTVSPropertyOp3
 70
     0
102
RTVSPropertyOp4
 70
     0
102
RTVSPropertyOp5
 70
     0
102
RTVSPropertyOp6
 70
     0
102
RTVSPropertyOp7
 70
     0
102
RTVSPropertyOp8
 70
     0
102
RTVSPropertyOp9
 70
     0
102
RTVSPropertyOp10
 70
     0
102
RTVSPropertyOp11
 70
     0
102
RTVSPropertyOp12
 70
     0
102
RTVSPropertyOp13
 70
     0
102
RTVSPropertyOp14
 70
     2
102
RTVSPropertyOp15
 70
     0
102
RTVSPropertyOp16
 70
     0
102
RTVSPropertyOp17
 70
     0
102
RTVSPropertyOp18
 70
     0
102
RTVSPropertyOp19
 70
     0
102
RTVSPropertyOp20
 70
     0
102
RTVSPropertyOp21
 70
     0
102
RTVSPropertyOp22
 70
     0
102
RTVSPropertyOp23
 70
     0
102
RTVSPropertyOp24
 70
     0
102
RTVSPropertyOp25
 70
     0
102
RTVSPropertyOp26
 70
     0
102
RTVSPropertyOp27
 70
     0
102
RTVSPropertyOp28
 70
     0
102
RTVSPropertyOp29
 70
     0
102
RTVSPropertyOp30
 70
     0
102
RTVSPropertyOp31
 70
     0
102
RTVSPropertyOp32
 70
     0
  0
XRECORD
  5
2B9
102
{ACAD_REACTORS
330
2B8
102
}
330
2B8
100
AcDbXrecord
280
     1
102
RTVSPropertyOp0
 70
     1
102
RTVSPropertyOp1
 70
     1
102
RTVSPropertyOp2
 70
     1
102
RTVSPropertyOp3
 70
     1
102
RTVSPropertyOp4
 70
     1
102
RTVSPropertyOp5
 70
     1
102
RTVSPropertyOp6
 70
     1
102
RTVSPropertyOp7
 70
     1
102
RTVSPropertyOp8
 70
     1
102
RTVSPropertyOp9
 70
     1
102
RTVSPropertyOp10
 70
     1
102
RTVSPropertyOp11
 70
     1
102
RTVSPropertyOp12
 70
     1
102
RTVSPropertyOp13
 70
     1
102
RTVSPropertyOp14
 70
     1
102
RTVSPropertyOp15
 70
     1
102
RTVSPropertyOp16
 70
     1
102
RTVSPropertyOp17
 70
     1
102
RTVSPropertyOp18
 70
     1
102
RTVSPropertyOp19
 70
     1
102
RTVSPropertyOp20
 70
     1
102
RTVSPropertyOp21
 70
     1
102
RTVSPropertyOp22
 70
     1
102
RTVSPropertyOp23
 70
     1
102
RTVSPropertyOp24
 70
     1
102
RTVSPropertyOp25
 70
     1
102
RTVSPropertyOp26
 70
     1
102
RTVSPropertyOp27
 70
     1
102
RTVSPropertyOp28
 70
     1
102
RTVSPropertyOp29
 70
     1
102
RTVSPropertyOp30
 70
     1
102
RTVSPropertyOp31
 70
     1
102
RTVSPropertyOp32
 70
     1
  0
XRECORD
  5
2D5
102
{ACAD_REACTORS
330
2D4
102
}
330
2D4
100
AcDbXrecord
280
     1
102
RTVSPropertyOp0
 70
     0
102
RTVSPropertyOp1
 70
     0
102
RTVSPropertyOp2
 70
     0
102
RTVSPropertyOp3
 70
     0
102
RTVSPropertyOp4
 70
     0
102
RTVSPropertyOp5
 70
     0
102
RTVSPropertyOp6
 70
     0
102
RTVSPropertyOp7
 70
     0
102
RTVSPropertyOp8
 70
     0
102
RTVSPropertyOp9
 70
     0
102
RTVSPropertyOp10
 70
     0
102
RTVSPropertyOp11
 70
     0
102
RTVSPropertyOp12
 70
     0
102
RTVSPropertyOp13
 70
     0
102
RTVSPropertyOp14
 70
     2
102
RTVSPropertyOp15
 70
     0
102
RTVSPropertyOp16
 70
     0
102
RTVSPropertyOp17
 70
     0
102
RTVSPropertyOp18
 70
     0
102
RTVSPropertyOp19
 70
     0
102
RTVSPropertyOp20
 70
     0
102
RTVSPropertyOp21
 70
     0
102
RTVSPropertyOp22
 70
     0
102
RTVSPropertyOp23
 70
     0
102
RTVSPropertyOp24
 70
     0
102
RTVSPropertyOp25
 70
     0
102
RTVSPropertyOp26
 70
     0
102
RTVSPropertyOp27
 70
     0
102
RTVSPropertyOp28
 70
     0
102
RTVSPropertyOp29
 70
     0
102
RTVSPropertyOp30
 70
     0
102
RTVSPropertyOp31
 70
     0
102
RTVSPropertyOp32
 70
     0
  0
XRECORD
  5
2AF
102
{ACAD_REACTORS
330
2AE
102
}
330
2AE
100
AcDbXrecord
280
     1
102
RTVSPropertyOp0
 70
     1
102
RTVSPropertyOp1
 70
     1
102
RTVSPropertyOp2
 70
     1
102
RTVSPropertyOp3
 70
     1
102
RTVSPropertyOp4
 70
     1
102
RTVSPropertyOp5
 70
     1
102
RTVSPropertyOp6
 70
     1
102
RTVSPropertyOp7
 70
     1
102
RTVSPropertyOp8
 70
     1
102
RTVSPropertyOp9
 70
     1
102
RTVSPropertyOp10
 70
     1
102
RTVSPropertyOp11
 70
     1
102
RTVSPropertyOp12
 70
     1
102
RTVSPropertyOp13
 70
     1
102
RTVSPropertyOp14
 70
     1
102
RTVSPropertyOp15
 70
     1
102
RTVSPropertyOp16
 70
     1
102
RTVSPropertyOp17
 70
     1
102
RTVSPropertyOp18
 70
     1
102
RTVSPropertyOp19
 70
     1
102
RTVSPropertyOp20
 70
     1
102
RTVSPropertyOp21
 70
     1
102
RTVSPropertyOp22
 70
     1
102
RTVSPropertyOp23
 70
     1
102
RTVSPropertyOp24
 70
     1
102
RTVSPropertyOp25
 70
     1
102
RTVSPropertyOp26
 70
     1
102
RTVSPropertyOp27
 70
     1
102
RTVSPropertyOp28
 70
     1
102
RTVSPropertyOp29
 70
     1
102
RTVSPropertyOp30
 70
     1
102
RTVSPropertyOp31
 70
     1
102
RTVSPropertyOp32
 70
     1
  0
XRECORD
  5
2D1
102
{ACAD_REACTORS
330
2D0
102
}
330
2D0
100
AcDbXrecord
280
     1
102
RTVSPropertyOp0
 70
     1
102
RTVSPropertyOp1
 70
     1
102
RTVSPropertyOp2
 70
     1
102
RTVSPropertyOp3
 70
     1
102
RTVSPropertyOp4
 70
     1
102
RTVSPropertyOp5
 70
     1
102
RTVSPropertyOp6
 70
     1
102
RTVSPropertyOp7
 70
     1
102
RTVSPropertyOp8
 70
     1
102
RTVSPropertyOp9
 70
     1
102
RTVSPropertyOp10
 70
     1
102
RTVSPropertyOp11
 70
     1
102
RTVSPropertyOp12
 70
     1
102
RTVSPropertyOp13
 70
     1
102
RTVSPropertyOp14
 70
     1
102
RTVSPropertyOp15
 70
     1
102
RTVSPropertyOp16
 70
     1
102
RTVSPropertyOp17
 70
     1
102
RTVSPropertyOp18
 70
     1
102
RTVSPropertyOp19
 70
     1
102
RTVSPropertyOp20
 70
     1
102
RTVSPropertyOp21
 70
     1
102
RTVSPropertyOp22
 70
     1
102
RTVSPropertyOp23
 70
     1
102
RTVSPropertyOp24
 70
     1
102
RTVSPropertyOp25
 70
     1
102
RTVSPropertyOp26
 70
     1
102
RTVSPropertyOp27
 70
     1
102
RTVSPropertyOp28
 70
     1
102
RTVSPropertyOp29
 70
     1
102
RTVSPropertyOp30
 70
     1
102
RTVSPropertyOp31
 70
     1
102
RTVSPropertyOp32
 70
     1
  0
XRECORD
  5
2CF
102
{ACAD_REACTORS
330
2CE
102
}
330
2CE
100
AcDbXrecord
280
     1
102
RTVSPropertyOp0
 70
     1
102
RTVSPropertyOp1
 70
     1
102
RTVSPropertyOp2
 70
     1
102
RTVSPropertyOp3
 70
     1
102
RTVSPropertyOp4
 70
     1
102
RTVSPropertyOp5
 70
     1
102
RTVSPropertyOp6
 70
     1
102
RTVSPropertyOp7
 70
     1
102
RTVSPropertyOp8
 70
     1
102
RTVSPropertyOp9
 70
     1
102
RTVSPropertyOp10
 70
     1
102
RTVSPropertyOp11
 70
     1
102
RTVSPropertyOp12
 70
     1
102
RTVSPropertyOp13
 70
     1
102
RTVSPropertyOp14
 70
     1
102
RTVSPropertyOp15
 70
     1
102
RTVSPropertyOp16
 70
     1
102
RTVSPropertyOp17
 70
     1
102
RTVSPropertyOp18
 70
     1
102
RTVSPropertyOp19
 70
     1
102
RTVSPropertyOp20
 70
     1
102
RTVSPropertyOp21
 70
     1
102
RTVSPropertyOp22
 70
     1
102
RTVSPropertyOp23
 70
     1
102
RTVSPropertyOp24
 70
     1
102
RTVSPropertyOp25
 70
     1
102
RTVSPropertyOp26
 70
     1
102
RTVSPropertyOp27
 70
     1
102
RTVSPropertyOp28
 70
     1
102
RTVSPropertyOp29
 70
     1
102
RTVSPropertyOp30
 70
     1
102
RTVSPropertyOp31
 70
     1
102
RTVSPropertyOp32
 70
     1
  0
XRECORD
  5
2C9
102
{ACAD_REACTORS
330
2C8
102
}
330
2C8
100
AcDbXrecord
280
     1
102
RTVSPropertyOp0
 70
     1
102
RTVSPropertyOp1
 70
     1
102
RTVSPropertyOp2
 70
     1
102
RTVSPropertyOp3
 70
     1
102
RTVSPropertyOp4
 70
     1
102
RTVSPropertyOp5
 70
     1
102
RTVSPropertyOp6
 70
     1
102
RTVSPropertyOp7
 70
     1
102
RTVSPropertyOp8
 70
     1
102
RTVSPropertyOp9
 70
     1
102
RTVSPropertyOp10
 70
     1
102
RTVSPropertyOp11
 70
     1
102
RTVSPropertyOp12
 70
     1
102
RTVSPropertyOp13
 70
     1
102
RTVSPropertyOp14
 70
     1
102
RTVSPropertyOp15
 70
     1
102
RTVSPropertyOp16
 70
     1
102
RTVSPropertyOp17
 70
     1
102
RTVSPropertyOp18
 70
     1
102
RTVSPropertyOp19
 70
     1
102
RTVSPropertyOp20
 70
     1
102
RTVSPropertyOp21
 70
     1
102
RTVSPropertyOp22
 70
     1
102
RTVSPropertyOp23
 70
     1
102
RTVSPropertyOp24
 70
     1
102
RTVSPropertyOp25
 70
     1
102
RTVSPropertyOp26
 70
     1
102
RTVSPropertyOp27
 70
     1
102
RTVSPropertyOp28
 70
     1
102
RTVSPropertyOp29
 70
     1
102
RTVSPropertyOp30
 70
     1
102
RTVSPropertyOp31
 70
     1
102
RTVSPropertyOp32
 70
     1
  0
XRECORD
  5
2CB
102
{ACAD_REACTORS
330
2CA
102
}
330
2CA
100
AcDbXrecord
280
     1
102
RTVSPropertyOp0
 70
     1
102
RTVSPropertyOp1
 70
     1
102
RTVSPropertyOp2
 70
     1
102
RTVSPropertyOp3
 70
     1
102
RTVSPropertyOp4
 70
     1
102
RTVSPropertyOp5
 70
     1
102
RTVSPropertyOp6
 70
     1
102
RTVSPropertyOp7
 70
     1
102
RTVSPropertyOp8
 70
     1
102
RTVSPropertyOp9
 70
     1
102
RTVSPropertyOp10
 70
     1
102
RTVSPropertyOp11
 70
     1
102
RTVSPropertyOp12
 70
     1
102
RTVSPropertyOp13
 70
     1
102
RTVSPropertyOp14
 70
     1
102
RTVSPropertyOp15
 70
     1
102
RTVSPropertyOp16
 70
     1
102
RTVSPropertyOp17
 70
     1
102
RTVSPropertyOp18
 70
     1
102
RTVSPropertyOp19
 70
     1
102
RTVSPropertyOp20
 70
     1
102
RTVSPropertyOp21
 70
     1
102
RTVSPropertyOp22
 70
     1
102
RTVSPropertyOp23
 70
     1
102
RTVSPropertyOp24
 70
     1
102
RTVSPropertyOp25
 70
     1
102
RTVSPropertyOp26
 70
     1
102
RTVSPropertyOp27
 70
     1
102
RTVSPropertyOp28
 70
     1
102
RTVSPropertyOp29
 70
     1
102
RTVSPropertyOp30
 70
     1
102
RTVSPropertyOp31
 70
     1
102
RTVSPropertyOp32
 70
     1
  0
XRECORD
  5
2B7
102
{ACAD_REACTORS
330
2B6
102
}
330
2B6
100
AcDbXrecord
280
     1
102
RTVSPropertyOp0
 70
     1
102
RTVSPropertyOp1
 70
     1
102
RTVSPropertyOp2
 70
     1
102
RTVSPropertyOp3
 70
     1
102
RTVSPropertyOp4
 70
     1
102
RTVSPropertyOp5
 70
     1
102
RTVSPropertyOp6
 70
     1
102
RTVSPropertyOp7
 70
     1
102
RTVSPropertyOp8
 70
     1
102
RTVSPropertyOp9
 70
     1
102
RTVSPropertyOp10
 70
     1
102
RTVSPropertyOp11
 70
     1
102
RTVSPropertyOp12
 70
     1
102
RTVSPropertyOp13
 70
     1
102
RTVSPropertyOp14
 70
     1
102
RTVSPropertyOp15
 70
     1
102
RTVSPropertyOp16
 70
     1
102
RTVSPropertyOp17
 70
     1
102
RTVSPropertyOp18
 70
     1
102
RTVSPropertyOp19
 70
     1
102
RTVSPropertyOp20
 70
     1
102
RTVSPropertyOp21
 70
     1
102
RTVSPropertyOp22
 70
     1
102
RTVSPropertyOp23
 70
     1
102
RTVSPropertyOp24
 70
     1
102
RTVSPropertyOp25
 70
     1
102
RTVSPropertyOp26
 70
     1
102
RTVSPropertyOp27
 70
     1
102
RTVSPropertyOp28
 70
     1
102
RTVSPropertyOp29
 70
     1
102
RTVSPropertyOp30
 70
     1
102
RTVSPropertyOp31
 70
     1
102
RTVSPropertyOp32
 70
     1
  0
XRECORD
  5
2C5
102
{ACAD_REACTORS
330
2C4
102
}
330
2C4
100
AcDbXrecord
280
     1
102
RTVSPropertyOp0
 70
     1
102
RTVSPropertyOp1
 70
     1
102
RTVSPropertyOp2
 70
     1
102
RTVSPropertyOp3
 70
     1
102
RTVSPropertyOp4
 70
     1
102
RTVSPropertyOp5
 70
     1
102
RTVSPropertyOp6
 70
     1
102
RTVSPropertyOp7
 70
     1
102
RTVSPropertyOp8
 70
     1
102
RTVSPropertyOp9
 70
     1
102
RTVSPropertyOp10
 70
     1
102
RTVSPropertyOp11
 70
     1
102
RTVSPropertyOp12
 70
     1
102
RTVSPropertyOp13
 70
     1
102
RTVSPropertyOp14
 70
     1
102
RTVSPropertyOp15
 70
     1
102
RTVSPropertyOp16
 70
     1
102
RTVSPropertyOp17
 70
     1
102
RTVSPropertyOp18
 70
     1
102
RTVSPropertyOp19
 70
     1
102
RTVSPropertyOp20
 70
     1
102
RTVSPropertyOp21
 70
     1
102
RTVSPropertyOp22
 70
     1
102
RTVSPropertyOp23
 70
     1
102
RTVSPropertyOp24
 70
     1
102
RTVSPropertyOp25
 70
     1
102
RTVSPropertyOp26
 70
     1
102
RTVSPropertyOp27
 70
     1
102
RTVSPropertyOp28
 70
     1
102
RTVSPropertyOp29
 70
     1
102
RTVSPropertyOp30
 70
     1
102
RTVSPropertyOp31
 70
     1
102
RTVSPropertyOp32
 70
     1
  0
XRECORD
  5
2CD
102
{ACAD_REACTORS
330
2CC
102
}
330
2CC
100
AcDbXrecord
280
     1
102
RTVSPropertyOp0
 70
     1
102
RTVSPropertyOp1
 70
     1
102
RTVSPropertyOp2
 70
     1
102
RTVSPropertyOp3
 70
     1
102
RTVSPropertyOp4
 70
     1
102
RTVSPropertyOp5
 70
     1
102
RTVSPropertyOp6
 70
     1
102
RTVSPropertyOp7
 70
     1
102
RTVSPropertyOp8
 70
     1
102
RTVSPropertyOp9
 70
     1
102
RTVSPropertyOp10
 70
     1
102
RTVSPropertyOp11
 70
     1
102
RTVSPropertyOp12
 70
     1
102
RTVSPropertyOp13
 70
     1
102
RTVSPropertyOp14
 70
     1
102
RTVSPropertyOp15
 70
     1
102
RTVSPropertyOp16
 70
     1
102
RTVSPropertyOp17
 70
     1
102
RTVSPropertyOp18
 70
     1
102
RTVSPropertyOp19
 70
     1
102
RTVSPropertyOp20
 70
     1
102
RTVSPropertyOp21
 70
     1
102
RTVSPropertyOp22
 70
     1
102
RTVSPropertyOp23
 70
     1
102
RTVSPropertyOp24
 70
     1
102
RTVSPropertyOp25
 70
     1
102
RTVSPropertyOp26
 70
     1
102
RTVSPropertyOp27
 70
     1
102
RTVSPropertyOp28
 70
     1
102
RTVSPropertyOp29
 70
     1
102
RTVSPropertyOp30
 70
     1
102
RTVSPropertyOp31
 70
     1
102
RTVSPropertyOp32
 70
     1
  0
ENDSEC
  0
EOF
