  0
SECTION
  2
HEADER
  9
$ACADVER
  1
AC1012
  9
$DWGCODEPAGE
  3
ANSI_1252
  9
$INSBASE
 10
0.0
 20
0.0
 30
0.0
  9
$EXTMIN
 10
-6.794291338582675
 20
7.401574803149606
 30
0.0
  9
$EXTMAX
 10
12.20570866141732
 20
14.12992125984252
 30
0.0
  9
$LIMMIN
 10
0.0
 20
0.0
  9
$LIMMAX
 10
12.0
 20
9.0
  9
$ORTHOMODE
 70
     0
  9
$REGENMODE
 70
     1
  9
$FILLMODE
 70
     1
  9
$QTEXTMODE
 70
     0
  9
$MIRRTEXT
 70
     1
  9
$DRAGMODE
 70
     2
  9
$LTSCALE
 40
1.0
  9
$OSMODE
 70
   547
  9
$ATTMODE
 70
     1
  9
$TEXTSIZE
 40
0.2
  9
$TRACEWID
 40
0.05
  9
$TEXTSTYLE
  7
STANDARD
  9
$CLAYER
  8
0
  9
$CELTYPE
  6
BYLAYER
  9
$CECOLOR
 62
   256
  9
$CELTSCALE
 40
1.0
  9
$DELOBJ
 70
     1
  9
$DISPSILH
 70
     0
  9
$DIMSCALE
 40
1.0
  9
$DIMASZ
 40
0.18
  9
$DIMEXO
 40
0.0625
  9
$DIMDLI
 40
0.38
  9
$DIMRND
 40
0.0
  9
$DIMDLE
 40
0.0
  9
$DIMEXE
 40
0.18
  9
$DIMTP
 40
0.0
  9
$DIMTM
 40
0.0
  9
$DIMTXT
 40
0.18
  9
$DIMCEN
 40
0.09
  9
$DIMTSZ
 40
0.0
  9
$DIMTOL
 70
     0
  9
$DIMLIM
 70
     0
  9
$DIMTIH
 70
     1
  9
$DIMTOH
 70
     1
  9
$DIMSE1
 70
     0
  9
$DIMSE2
 70
     0
  9
$DIMTAD
 70
     0
  9
$DIMZIN
 70
     0
  9
$DIMBLK
  1

  9
$DIMASO
 70
     1
  9
$DIMSHO
 70
     1
  9
$DIMPOST
  1

  9
$DIMAPOST
  1

  9
$DIMALT
 70
     0
  9
$DIMALTD
 70
     2
  9
$DIMALTF
 40
25.4
  9
$DIMLFAC
 40
1.0
  9
$DIMTOFL
 70
     0
  9
$DIMTVP
 40
0.0
  9
$DIMTIX
 70
     0
  9
$DIMSOXD
 70
     0
  9
$DIMSAH
 70
     0
  9
$DIMBLK1
  1

  9
$DIMBLK2
  1

  9
$DIMSTYLE
  2
STANDARD
  9
$DIMCLRD
 70
     0
  9
$DIMCLRE
 70
     0
  9
$DIMCLRT
 70
     0
  9
$DIMTFAC
 40
1.0
  9
$DIMGAP
 40
0.09
  9
$DIMJUST
 70
     0
  9
$DIMSD1
 70
     0
  9
$DIMSD2
 70
     0
  9
$DIMTOLJ
 70
     1
  9
$DIMTZIN
 70
     0
  9
$DIMALTZ
 70
     0
  9
$DIMALTTZ
 70
     0
  9
$DIMFIT
 70
     5
  9
$DIMUPT
 70
     0
  9
$DIMUNIT
 70
     2
  9
$DIMDEC
 70
     4
  9
$DIMTDEC
 70
     4
  9
$DIMALTU
 70
     2
  9
$DIMALTTD
 70
     2
  9
$DIMTXSTY
  7
STANDARD
  9
$DIMAUNIT
 70
     0
  9
$LUNITS
 70
     2
  9
$LUPREC
 70
     4
  9
$SKETCHINC
 40
0.1
  9
$FILLETRAD
 40
0.0
  9
$AUNITS
 70
     0
  9
$AUPREC
 70
     0
  9
$MENU
  1
acad
  9
$ELEVATION
 40
0.0
  9
$PELEVATION
 40
0.0
  9
$THICKNESS
 40
0.0
  9
$LIMCHECK
 70
     0
  9
$BLIPMODE
 70
     0
  9
$CHAMFERA
 40
0.0
  9
$CHAMFERB
 40
0.0
  9
$CHAMFERC
 40
0.0
  9
$CHAMFERD
 40
0.0
  9
$SKPOLY
 70
     0
  9
$TDCREATE
 40
2452863.433344907
  9
$TDUPDATE
 40
2453946.341471724
  9
$TDINDWG
 40
0.0038657292
  9
$TDUSRTIMER
 40
0.0038657292
  9
$USRTIMER
 70
     1
  9
$ANGBASE
 50
0.0
  9
$ANGDIR
 70
     0
  9
$PDMODE
 70
     0
  9
$PDSIZE
 40
0.0
  9
$PLINEWID
 40
0.0
  9
$COORDS
 70
     1
  9
$SPLFRAME
 70
     0
  9
$SPLINETYPE
 70
     6
  9
$SPLINESEGS
 70
     8
  9
$ATTDIA
 70
     0
  9
$ATTREQ
 70
     1
  9
$HANDLING
 70
  4097
  9
$HANDSEED
  5
4CA6
  9
$SURFTAB1
 70
     6
  9
$SURFTAB2
 70
     6
  9
$SURFTYPE
 70
     6
  9
$SURFU
 70
     6
  9
$SURFV
 70
     6
  9
$UCSNAME
  2

  9
$UCSORG
 10
0.0
 20
0.0
 30
0.0
  9
$UCSXDIR
 10
1.0
 20
0.0
 30
0.0
  9
$UCSYDIR
 10
0.0
 20
1.0
 30
0.0
  9
$PUCSNAME
  2

  9
$PUCSORG
 10
0.0
 20
0.0
 30
0.0
  9
$PUCSXDIR
 10
1.0
 20
0.0
 30
0.0
  9
$PUCSYDIR
 10
0.0
 20
1.0
 30
0.0
  9
$USERI1
 70
     0
  9
$USERI2
 70
     0
  9
$USERI3
 70
     0
  9
$USERI4
 70
     0
  9
$USERI5
 70
     0
  9
$USERR1
 40
0.0
  9
$USERR2
 40
0.0
  9
$USERR3
 40
0.0
  9
$USERR4
 40
0.0
  9
$USERR5
 40
0.0
  9
$WORLDVIEW
 70
     1
  9
$SHADEDGE
 70
     3
  9
$SHADEDIF
 70
    70
  9
$TILEMODE
 70
     1
  9
$MAXACTVP
 70
    16
  9
$PINSBASE
 10
0.0
 20
0.0
 30
0.0
  9
$PLIMCHECK
 70
     0
  9
$PEXTMIN
 10
1.000000000000000E+20
 20
1.000000000000000E+20
 30
1.000000000000000E+20
  9
$PEXTMAX
 10
-1.000000000000000E+20
 20
-1.000000000000000E+20
 30
-1.000000000000000E+20
  9
$PLIMMIN
 10
0.0
 20
0.0
  9
$PLIMMAX
 10
12.0
 20
9.0
  9
$UNITMODE
 70
     0
  9
$VISRETAIN
 70
     0
  9
$PLINEGEN
 70
     0
  9
$PSLTSCALE
 70
     1
  9
$TREEDEPTH
 70
  3020
  9
$PICKSTYLE
 70
     1
  9
$CMLSTYLE
  2
STANDARD
  9
$CMLJUST
 70
     0
  9
$CMLSCALE
 40
1.0
  9
$SAVEIMAGES
 70
     1
  0
ENDSEC
  0
SECTION
  2
CLASSES
  0
CLASS
  1
ACDBDICTIONARYWDFLT
  2
AcDbDictionaryWithDefault
  3
AutoCAD 2000
 90
    32768
280
     0
281
     0
  0
CLASS
  1
ACDBPLACEHOLDER
  2
AcDbPlaceHolder
  3
AutoCAD 2000
 90
    32768
280
     0
281
     0
  0
CLASS
  1
LAYOUT
  2
AcDbLayout
  3
AutoCAD 2000
 90
    32768
280
     0
281
     0
  0
CLASS
  1
LONG_TRANSACTION
  2
AcDbLongTransaction
  3
AutoCAD 2000
 90
    32768
280
     0
281
     0
  0
CLASS
  1
LWPOLYLINE
  2
AcDbPolyline
  3
AutoCAD 2000
 90
    32768
280
     0
281
     1
  0
CLASS
  1
HATCH
  2
AcDbHatch
  3
AutoCAD 2000
 90
    32768
280
     0
281
     1
  0
CLASS
  1
XRECORD
  2
AcDbXrecord
  3
AutoCAD 2000
 90
    32768
280
     0
281
     0
  0
CLASS
  1
LONG_TRANSACTION
  2
AcDbLongTransaction
  3
AutoCAD 2000
 90
    32768
280
     0
281
     0
  0
CLASS
  1
LWPOLYLINE
  2
AcDbPolyline
  3
AutoCAD 2000
 90
    32768
280
     0
281
     1
  0
CLASS
  1
HATCH
  2
AcDbHatch
  3
AutoCAD 2000
 90
    32768
280
     0
281
     1
  0
CLASS
  1
XRECORD
  2
AcDbXrecord
  3
AutoCAD 2000
 90
    32768
280
     0
281
     0
  0
ENDSEC
  0
SECTION
  2
TABLES
  0
TABLE
  2
VPORT
  5
8
330
0
100
AcDbSymbolTable
 70
     3
  0
VPORT
  5
4CA3
330
8
100
AcDbSymbolTableRecord
100
AcDbViewportTableRecord
  2
*ACTIVE
 70
     0
 10
0.0
 20
0.0
 11
1.0
 21
1.0
 12
2.7055372726361
 22
10.98745022725897
 13
0.0
 23
0.0
 14
1.0
 24
1.0
 15
0.0
 25
0.0
 16
0.0
 26
0.0
 36
1.0
 17
0.0
 27
0.0
 37
0.0
 40
11.58919206316606
 41
1.647569444444444
 42
50.0
 43
0.0
 44
0.0
 50
0.0
 51
0.0
 71
     0
 72
   100
 73
     1
 74
     1
 75
     0
 76
     0
 77
     0
 78
     0
  0
ENDTAB
  0
TABLE
  2
LTYPE
  5
5
330
0
100
AcDbSymbolTable
 70
    25
  0
LTYPE
  5
13
330
5
100
AcDbSymbolTableRecord
100
AcDbLinetypeTableRecord
  2
BYBLOCK
 70
     0
  3

 72
    65
 73
     0
 40
0.0
  0
LTYPE
  5
14
330
5
100
AcDbSymbolTableRecord
100
AcDbLinetypeTableRecord
  2
BYLAYER
 70
     0
  3

 72
    65
 73
     0
 40
0.0
  0
LTYPE
  5
15
330
5
100
AcDbSymbolTableRecord
100
AcDbLinetypeTableRecord
  2
CONTINUOUS
 70
     0
  3
Solid line
 72
    65
 73
     0
 40
0.0
  0
LTYPE
  5
22
330
5
100
AcDbSymbolTableRecord
100
AcDbLinetypeTableRecord
  2
BORDER
 70
     0
  3
__ __ . __ __ . __ __ . __ __ . __ __ . __ __ .
 72
    65
 73
     6
 40
1.75
 49
0.5
 74
     0
 49
-0.25
 74
     0
 49
0.5
 74
     0
 49
-0.25
 74
     0
 49
0.5
 74
     0
 49
-0.25
 74
     0
  0
LTYPE
  5
23
330
5
100
AcDbSymbolTableRecord
100
AcDbLinetypeTableRecord
  2
BORDER2
 70
     0
  3
__.__.__.__.__.__.__.__.__.__.__.__.__.__.__.__
 72
    65
 73
     6
 40
0.875
 49
0.25
 74
     0
 49
-0.125
 74
     0
 49
0.25
 74
     0
 49
-0.125
 74
     0
 49
0.25
 74
     0
 49
-0.125
 74
     0
  0
LTYPE
  5
24
330
5
100
AcDbSymbolTableRecord
100
AcDbLinetypeTableRecord
  2
BORDERX2
 70
     0
  3
____  ____  .  ____  ____  .  
 72
    65
 73
     6
 40
3.5
 49
1.0
 74
     0
 49
-0.5
 74
     0
 49
1.0
 74
     0
 49
-0.5
 74
     0
 49
1.0
 74
     0
 49
-0.5
 74
     0
  0
LTYPE
  5
25
330
5
100
AcDbSymbolTableRecord
100
AcDbLinetypeTableRecord
  2
CENTER
 70
     0
  3
____ _ ____ _ ____ _ ____ _ ____ _ ____ _ ____
 72
    65
 73
     4
 40
2.0
 49
1.25
 74
     0
 49
-0.25
 74
     0
 49
0.25
 74
     0
 49
-0.25
 74
     0
  0
LTYPE
  5
26
330
5
100
AcDbSymbolTableRecord
100
AcDbLinetypeTableRecord
  2
CENTER2
 70
     0
  3
____ _ ____ _ ____ _ ____ _ ____ _ ____ _ ____
 72
    65
 73
     4
 40
1.125
 49
0.75
 74
     0
 49
-0.125
 74
     0
 49
0.125
 74
     0
 49
-0.125
 74
     0
  0
LTYPE
  5
27
330
5
100
AcDbSymbolTableRecord
100
AcDbLinetypeTableRecord
  2
CENTERX2
 70
     0
  3
________  __  ________  __  ________  __  
 72
    65
 73
     4
 40
4.0
 49
2.5
 74
     0
 49
-0.5
 74
     0
 49
0.5
 74
     0
 49
-0.5
 74
     0
  0
LTYPE
  5
28
330
5
100
AcDbSymbolTableRecord
100
AcDbLinetypeTableRecord
  2
DASHDOT
 70
     0
  3
__ . __ . __ . __ . __ . __ . __ . 
 72
    65
 73
     4
 40
1.0
 49
0.5
 74
     0
 49
-0.25
 74
     0
 49
0.0
 74
     0
 49
-0.25
 74
     0
  0
LTYPE
  5
29
330
5
100
AcDbSymbolTableRecord
100
AcDbLinetypeTableRecord
  2
DASHDOT2
 70
     0
  3
_._._._._._._._._._._._._._._._.
 72
    65
 73
     4
 40
0.5
 49
0.25
 74
     0
 49
-0.125
 74
     0
 49
0.0
 74
     0
 49
-0.125
 74
     0
  0
LTYPE
  5
2A
330
5
100
AcDbSymbolTableRecord
100
AcDbLinetypeTableRecord
  2
DASHDOTX2
 70
     0
  3
____  .  ____  .  ____  .  ____  .  
 72
    65
 73
     4
 40
2.0
 49
1.0
 74
     0
 49
-0.5
 74
     0
 49
0.0
 74
     0
 49
-0.5
 74
     0
  0
LTYPE
  5
2B
330
5
100
AcDbSymbolTableRecord
100
AcDbLinetypeTableRecord
  2
DASHED
 70
     0
  3
__ __ __ __ __ __ __ __ __ __ __ __ 
 72
    65
 73
     2
 40
0.75
 49
0.5
 74
     0
 49
-0.25
 74
     0
  0
LTYPE
  5
2C
330
5
100
AcDbSymbolTableRecord
100
AcDbLinetypeTableRecord
  2
DASHED2
 70
     0
  3
_ _ _ _ _ _ _ _ _ _ _ _ _ _ _ _ _ _ 
 72
    65
 73
     2
 40
0.375
 49
0.25
 74
     0
 49
-0.125
 74
     0
  0
LTYPE
  5
2D
330
5
100
AcDbSymbolTableRecord
100
AcDbLinetypeTableRecord
  2
DASHEDX2
 70
     0
  3
____  ____  ____  ____  ____  ____  
 72
    65
 73
     2
 40
1.5
 49
1.0
 74
     0
 49
-0.5
 74
     0
  0
LTYPE
  5
2E
330
5
100
AcDbSymbolTableRecord
100
AcDbLinetypeTableRecord
  2
DIVIDE
 70
     0
  3
____ . . ____ . . ____ . . ____ . . 
 72
    65
 73
     6
 40
1.25
 49
0.5
 74
     0
 49
-0.25
 74
     0
 49
0.0
 74
     0
 49
-0.25
 74
     0
 49
0.0
 74
     0
 49
-0.25
 74
     0
  0
LTYPE
  5
2F
330
5
100
AcDbSymbolTableRecord
100
AcDbLinetypeTableRecord
  2
DIVIDE2
 70
     0
  3
__..__..__..__..__..__..__..__..__..
 72
    65
 73
     6
 40
0.625
 49
0.25
 74
     0
 49
-0.125
 74
     0
 49
0.0
 74
     0
 49
-0.125
 74
     0
 49
0.0
 74
     0
 49
-0.125
 74
     0
  0
LTYPE
  5
30
330
5
100
AcDbSymbolTableRecord
100
AcDbLinetypeTableRecord
  2
DIVIDEX2
 70
     0
  3
________  .  .  ________  .  .  ________  .  . 
 72
    65
 73
     6
 40
2.5
 49
1.0
 74
     0
 49
-0.5
 74
     0
 49
0.0
 74
     0
 49
-0.5
 74
     0
 49
0.0
 74
     0
 49
-0.5
 74
     0
  0
LTYPE
  5
31
330
5
100
AcDbSymbolTableRecord
100
AcDbLinetypeTableRecord
  2
DOT
 70
     0
  3
. . . . . . . . . . . . . . . . . . 
 72
    65
 73
     2
 40
0.25
 49
0.0
 74
     0
 49
-0.25
 74
     0
  0
LTYPE
  5
32
330
5
100
AcDbSymbolTableRecord
100
AcDbLinetypeTableRecord
  2
DOT2
 70
     0
  3
....................................
 72
    65
 73
     2
 40
0.125
 49
0.0
 74
     0
 49
-0.125
 74
     0
  0
LTYPE
  5
33
330
5
100
AcDbSymbolTableRecord
100
AcDbLinetypeTableRecord
  2
DOTX2
 70
     0
  3
.  .  .  .  .  .  .  .  .  .  .  .  .  
 72
    65
 73
     2
 40
0.5
 49
0.0
 74
     0
 49
-0.5
 74
     0
  0
LTYPE
  5
34
330
5
100
AcDbSymbolTableRecord
100
AcDbLinetypeTableRecord
  2
HIDDEN
 70
     0
  3
__ __ __ __ __ __ __ __ __ __ __ __ 
 72
    65
 73
     2
 40
0.375
 49
0.25
 74
     0
 49
-0.125
 74
     0
  0
LTYPE
  5
35
330
5
100
AcDbSymbolTableRecord
100
AcDbLinetypeTableRecord
  2
HIDDEN2
 70
     0
  3
_ _ _ _ _ _ _ _ _ _ _ _ _ _ _ _ _ _ 
 72
    65
 73
     2
 40
0.1875
 49
0.125
 74
     0
 49
-0.0625
 74
     0
  0
LTYPE
  5
36
330
5
100
AcDbSymbolTableRecord
100
AcDbLinetypeTableRecord
  2
HIDDENX2
 70
     0
  3
____ ____ ____ ____ ____ ____ ____ 
 72
    65
 73
     2
 40
0.75
 49
0.5
 74
     0
 49
-0.25
 74
     0
  0
LTYPE
  5
37
330
5
100
AcDbSymbolTableRecord
100
AcDbLinetypeTableRecord
  2
PHANTOM
 70
     0
  3
______  __  __  ______  __  __  
 72
    65
 73
     6
 40
2.5
 49
1.25
 74
     0
 49
-0.25
 74
     0
 49
0.25
 74
     0
 49
-0.25
 74
     0
 49
0.25
 74
     0
 49
-0.25
 74
     0
  0
LTYPE
  5
38
330
5
100
AcDbSymbolTableRecord
100
AcDbLinetypeTableRecord
  2
PHANTOM2
 70
     0
  3
___ _ _ ___ _ _ ___ _ _ ___ _ _ 
 72
    65
 73
     6
 40
1.25
 49
0.625
 74
     0
 49
-0.125
 74
     0
 49
0.125
 74
     0
 49
-0.125
 74
     0
 49
0.125
 74
     0
 49
-0.125
 74
     0
  0
LTYPE
  5
39
330
5
100
AcDbSymbolTableRecord
100
AcDbLinetypeTableRecord
  2
PHANTOMX2
 70
     0
  3
___ _ _ ___ _ _ ___ _ _ ___ _ _ 
 72
    65
 73
     6
 40
5.0
 49
2.5
 74
     0
 49
-0.5
 74
     0
 49
0.5
 74
     0
 49
-0.5
 74
     0
 49
0.5
 74
     0
 49
-0.5
 74
     0
  0
ENDTAB
  0
TABLE
  2
LAYER
  5
2
330
0
100
AcDbSymbolTable
 70
   256
  0
LAYER
  5
10
330
2
100
AcDbSymbolTableRecord
100
AcDbLayerTableRecord
  2
0
 70
     0
 62
     7
  6
CONTINUOUS
  0
LAYER
  5
3A
330
2
100
AcDbSymbolTableRecord
100
AcDbLayerTableRecord
  2
1
 70
     0
 62
     1
  6
CONTINUOUS
  0
LAYER
  5
3B
330
2
100
AcDbSymbolTableRecord
100
AcDbLayerTableRecord
  2
2
 70
     0
 62
     2
  6
CONTINUOUS
  0
LAYER
  5
3C
330
2
100
AcDbSymbolTableRecord
100
AcDbLayerTableRecord
  2
3
 70
     0
 62
     3
  6
CONTINUOUS
  0
LAYER
  5
3D
330
2
100
AcDbSymbolTableRecord
100
AcDbLayerTableRecord
  2
4
 70
     0
 62
     4
  6
CONTINUOUS
  0
LAYER
  5
3E
330
2
100
AcDbSymbolTableRecord
100
AcDbLayerTableRecord
  2
5
 70
     0
 62
     5
  6
CONTINUOUS
  0
LAYER
  5
3F
330
2
100
AcDbSymbolTableRecord
100
AcDbLayerTableRecord
  2
6
 70
     0
 62
     6
  6
CONTINUOUS
  0
LAYER
  5
40
330
2
100
AcDbSymbolTableRecord
100
AcDbLayerTableRecord
  2
7
 70
     0
 62
     7
  6
CONTINUOUS
  0
LAYER
  5
41
330
2
100
AcDbSymbolTableRecord
100
AcDbLayerTableRecord
  2
8
 70
     0
 62
     8
  6
CONTINUOUS
  0
LAYER
  5
42
330
2
100
AcDbSymbolTableRecord
100
AcDbLayerTableRecord
  2
9
 70
     0
 62
     9
  6
CONTINUOUS
  0
LAYER
  5
43
330
2
100
AcDbSymbolTableRecord
100
AcDbLayerTableRecord
  2
10
 70
     0
 62
    10
  6
CONTINUOUS
  0
LAYER
  5
44
330
2
100
AcDbSymbolTableRecord
100
AcDbLayerTableRecord
  2
11
 70
     0
 62
    11
  6
CONTINUOUS
  0
LAYER
  5
45
330
2
100
AcDbSymbolTableRecord
100
AcDbLayerTableRecord
  2
12
 70
     0
 62
    12
  6
CONTINUOUS
  0
LAYER
  5
46
330
2
100
AcDbSymbolTableRecord
100
AcDbLayerTableRecord
  2
13
 70
     0
 62
    13
  6
CONTINUOUS
  0
LAYER
  5
47
330
2
100
AcDbSymbolTableRecord
100
AcDbLayerTableRecord
  2
14
 70
     0
 62
    14
  6
CONTINUOUS
  0
LAYER
  5
48
330
2
100
AcDbSymbolTableRecord
100
AcDbLayerTableRecord
  2
15
 70
     0
 62
    15
  6
CONTINUOUS
  0
LAYER
  5
49
330
2
100
AcDbSymbolTableRecord
100
AcDbLayerTableRecord
  2
16
 70
     0
 62
    16
  6
CONTINUOUS
  0
LAYER
  5
4A
330
2
100
AcDbSymbolTableRecord
100
AcDbLayerTableRecord
  2
17
 70
     0
 62
    17
  6
CONTINUOUS
  0
LAYER
  5
4B
330
2
100
AcDbSymbolTableRecord
100
AcDbLayerTableRecord
  2
18
 70
     0
 62
    18
  6
CONTINUOUS
  0
LAYER
  5
4C
330
2
100
AcDbSymbolTableRecord
100
AcDbLayerTableRecord
  2
19
 70
     0
 62
    19
  6
CONTINUOUS
  0
LAYER
  5
4D
330
2
100
AcDbSymbolTableRecord
100
AcDbLayerTableRecord
  2
20
 70
     0
 62
    20
  6
CONTINUOUS
  0
LAYER
  5
4E
330
2
100
AcDbSymbolTableRecord
100
AcDbLayerTableRecord
  2
21
 70
     0
 62
    21
  6
CONTINUOUS
  0
LAYER
  5
4F
330
2
100
AcDbSymbolTableRecord
100
AcDbLayerTableRecord
  2
22
 70
     0
 62
    22
  6
CONTINUOUS
  0
LAYER
  5
50
330
2
100
AcDbSymbolTableRecord
100
AcDbLayerTableRecord
  2
23
 70
     0
 62
    23
  6
CONTINUOUS
  0
LAYER
  5
51
330
2
100
AcDbSymbolTableRecord
100
AcDbLayerTableRecord
  2
24
 70
     0
 62
    24
  6
CONTINUOUS
  0
LAYER
  5
52
330
2
100
AcDbSymbolTableRecord
100
AcDbLayerTableRecord
  2
25
 70
     0
 62
    25
  6
CONTINUOUS
  0
LAYER
  5
53
330
2
100
AcDbSymbolTableRecord
100
AcDbLayerTableRecord
  2
26
 70
     0
 62
    26
  6
CONTINUOUS
  0
LAYER
  5
54
330
2
100
AcDbSymbolTableRecord
100
AcDbLayerTableRecord
  2
27
 70
     0
 62
    27
  6
CONTINUOUS
  0
LAYER
  5
55
330
2
100
AcDbSymbolTableRecord
100
AcDbLayerTableRecord
  2
28
 70
     0
 62
    28
  6
CONTINUOUS
  0
LAYER
  5
56
330
2
100
AcDbSymbolTableRecord
100
AcDbLayerTableRecord
  2
29
 70
     0
 62
    29
  6
CONTINUOUS
  0
LAYER
  5
57
330
2
100
AcDbSymbolTableRecord
100
AcDbLayerTableRecord
  2
30
 70
     0
 62
    30
  6
CONTINUOUS
  0
LAYER
  5
58
330
2
100
AcDbSymbolTableRecord
100
AcDbLayerTableRecord
  2
31
 70
     0
 62
    31
  6
CONTINUOUS
  0
LAYER
  5
59
330
2
100
AcDbSymbolTableRecord
100
AcDbLayerTableRecord
  2
32
 70
     0
 62
    32
  6
CONTINUOUS
  0
LAYER
  5
5A
330
2
100
AcDbSymbolTableRecord
100
AcDbLayerTableRecord
  2
33
 70
     0
 62
    33
  6
CONTINUOUS
  0
LAYER
  5
5B
330
2
100
AcDbSymbolTableRecord
100
AcDbLayerTableRecord
  2
34
 70
     0
 62
    34
  6
CONTINUOUS
  0
LAYER
  5
5C
330
2
100
AcDbSymbolTableRecord
100
AcDbLayerTableRecord
  2
35
 70
     0
 62
    35
  6
CONTINUOUS
  0
LAYER
  5
5D
330
2
100
AcDbSymbolTableRecord
100
AcDbLayerTableRecord
  2
36
 70
     0
 62
    36
  6
CONTINUOUS
  0
LAYER
  5
5E
330
2
100
AcDbSymbolTableRecord
100
AcDbLayerTableRecord
  2
37
 70
     0
 62
    37
  6
CONTINUOUS
  0
LAYER
  5
5F
330
2
100
AcDbSymbolTableRecord
100
AcDbLayerTableRecord
  2
38
 70
     0
 62
    38
  6
CONTINUOUS
  0
LAYER
  5
60
330
2
100
AcDbSymbolTableRecord
100
AcDbLayerTableRecord
  2
39
 70
     0
 62
    39
  6
CONTINUOUS
  0
LAYER
  5
61
330
2
100
AcDbSymbolTableRecord
100
AcDbLayerTableRecord
  2
40
 70
     0
 62
    40
  6
CONTINUOUS
  0
LAYER
  5
62
330
2
100
AcDbSymbolTableRecord
100
AcDbLayerTableRecord
  2
41
 70
     0
 62
    41
  6
CONTINUOUS
  0
LAYER
  5
63
330
2
100
AcDbSymbolTableRecord
100
AcDbLayerTableRecord
  2
42
 70
     0
 62
    42
  6
CONTINUOUS
  0
LAYER
  5
64
330
2
100
AcDbSymbolTableRecord
100
AcDbLayerTableRecord
  2
43
 70
     0
 62
    43
  6
CONTINUOUS
  0
LAYER
  5
65
330
2
100
AcDbSymbolTableRecord
100
AcDbLayerTableRecord
  2
44
 70
     0
 62
    44
  6
CONTINUOUS
  0
LAYER
  5
66
330
2
100
AcDbSymbolTableRecord
100
AcDbLayerTableRecord
  2
45
 70
     0
 62
    45
  6
CONTINUOUS
  0
LAYER
  5
67
330
2
100
AcDbSymbolTableRecord
100
AcDbLayerTableRecord
  2
46
 70
     0
 62
    46
  6
CONTINUOUS
  0
LAYER
  5
68
330
2
100
AcDbSymbolTableRecord
100
AcDbLayerTableRecord
  2
47
 70
     0
 62
    47
  6
CONTINUOUS
  0
LAYER
  5
69
330
2
100
AcDbSymbolTableRecord
100
AcDbLayerTableRecord
  2
48
 70
     0
 62
    48
  6
CONTINUOUS
  0
LAYER
  5
6A
330
2
100
AcDbSymbolTableRecord
100
AcDbLayerTableRecord
  2
49
 70
     0
 62
    49
  6
CONTINUOUS
  0
LAYER
  5
6B
330
2
100
AcDbSymbolTableRecord
100
AcDbLayerTableRecord
  2
50
 70
     0
 62
    50
  6
CONTINUOUS
  0
LAYER
  5
6C
330
2
100
AcDbSymbolTableRecord
100
AcDbLayerTableRecord
  2
51
 70
     0
 62
    51
  6
CONTINUOUS
  0
LAYER
  5
6D
330
2
100
AcDbSymbolTableRecord
100
AcDbLayerTableRecord
  2
52
 70
     0
 62
    52
  6
CONTINUOUS
  0
LAYER
  5
6E
330
2
100
AcDbSymbolTableRecord
100
AcDbLayerTableRecord
  2
53
 70
     0
 62
    53
  6
CONTINUOUS
  0
LAYER
  5
6F
330
2
100
AcDbSymbolTableRecord
100
AcDbLayerTableRecord
  2
54
 70
     0
 62
    54
  6
CONTINUOUS
  0
LAYER
  5
70
330
2
100
AcDbSymbolTableRecord
100
AcDbLayerTableRecord
  2
55
 70
     0
 62
    55
  6
CONTINUOUS
  0
LAYER
  5
71
330
2
100
AcDbSymbolTableRecord
100
AcDbLayerTableRecord
  2
56
 70
     0
 62
    56
  6
CONTINUOUS
  0
LAYER
  5
72
330
2
100
AcDbSymbolTableRecord
100
AcDbLayerTableRecord
  2
57
 70
     0
 62
    57
  6
CONTINUOUS
  0
LAYER
  5
73
330
2
100
AcDbSymbolTableRecord
100
AcDbLayerTableRecord
  2
58
 70
     0
 62
    58
  6
CONTINUOUS
  0
LAYER
  5
74
330
2
100
AcDbSymbolTableRecord
100
AcDbLayerTableRecord
  2
59
 70
     0
 62
    59
  6
CONTINUOUS
  0
LAYER
  5
75
330
2
100
AcDbSymbolTableRecord
100
AcDbLayerTableRecord
  2
60
 70
     0
 62
    60
  6
CONTINUOUS
  0
LAYER
  5
76
330
2
100
AcDbSymbolTableRecord
100
AcDbLayerTableRecord
  2
61
 70
     0
 62
    61
  6
CONTINUOUS
  0
LAYER
  5
77
330
2
100
AcDbSymbolTableRecord
100
AcDbLayerTableRecord
  2
62
 70
     0
 62
    62
  6
CONTINUOUS
  0
LAYER
  5
78
330
2
100
AcDbSymbolTableRecord
100
AcDbLayerTableRecord
  2
63
 70
     0
 62
    63
  6
CONTINUOUS
  0
LAYER
  5
79
330
2
100
AcDbSymbolTableRecord
100
AcDbLayerTableRecord
  2
64
 70
     0
 62
    64
  6
CONTINUOUS
  0
LAYER
  5
7A
330
2
100
AcDbSymbolTableRecord
100
AcDbLayerTableRecord
  2
65
 70
     0
 62
    65
  6
CONTINUOUS
  0
LAYER
  5
7B
330
2
100
AcDbSymbolTableRecord
100
AcDbLayerTableRecord
  2
66
 70
     0
 62
    66
  6
CONTINUOUS
  0
LAYER
  5
7C
330
2
100
AcDbSymbolTableRecord
100
AcDbLayerTableRecord
  2
67
 70
     0
 62
    67
  6
CONTINUOUS
  0
LAYER
  5
7D
330
2
100
AcDbSymbolTableRecord
100
AcDbLayerTableRecord
  2
68
 70
     0
 62
    68
  6
CONTINUOUS
  0
LAYER
  5
7E
330
2
100
AcDbSymbolTableRecord
100
AcDbLayerTableRecord
  2
69
 70
     0
 62
    69
  6
CONTINUOUS
  0
LAYER
  5
7F
330
2
100
AcDbSymbolTableRecord
100
AcDbLayerTableRecord
  2
70
 70
     0
 62
    70
  6
CONTINUOUS
  0
LAYER
  5
80
330
2
100
AcDbSymbolTableRecord
100
AcDbLayerTableRecord
  2
71
 70
     0
 62
    71
  6
CONTINUOUS
  0
LAYER
  5
81
330
2
100
AcDbSymbolTableRecord
100
AcDbLayerTableRecord
  2
72
 70
     0
 62
    72
  6
CONTINUOUS
  0
LAYER
  5
82
330
2
100
AcDbSymbolTableRecord
100
AcDbLayerTableRecord
  2
73
 70
     0
 62
    73
  6
CONTINUOUS
  0
LAYER
  5
83
330
2
100
AcDbSymbolTableRecord
100
AcDbLayerTableRecord
  2
74
 70
     0
 62
    74
  6
CONTINUOUS
  0
LAYER
  5
84
330
2
100
AcDbSymbolTableRecord
100
AcDbLayerTableRecord
  2
75
 70
     0
 62
    75
  6
CONTINUOUS
  0
LAYER
  5
85
330
2
100
AcDbSymbolTableRecord
100
AcDbLayerTableRecord
  2
76
 70
     0
 62
    76
  6
CONTINUOUS
  0
LAYER
  5
86
330
2
100
AcDbSymbolTableRecord
100
AcDbLayerTableRecord
  2
77
 70
     0
 62
    77
  6
CONTINUOUS
  0
LAYER
  5
87
330
2
100
AcDbSymbolTableRecord
100
AcDbLayerTableRecord
  2
78
 70
     0
 62
    78
  6
CONTINUOUS
  0
LAYER
  5
88
330
2
100
AcDbSymbolTableRecord
100
AcDbLayerTableRecord
  2
79
 70
     0
 62
    79
  6
CONTINUOUS
  0
LAYER
  5
89
330
2
100
AcDbSymbolTableRecord
100
AcDbLayerTableRecord
  2
80
 70
     0
 62
    80
  6
CONTINUOUS
  0
LAYER
  5
8A
330
2
100
AcDbSymbolTableRecord
100
AcDbLayerTableRecord
  2
81
 70
     0
 62
    81
  6
CONTINUOUS
  0
LAYER
  5
8B
330
2
100
AcDbSymbolTableRecord
100
AcDbLayerTableRecord
  2
82
 70
     0
 62
    82
  6
CONTINUOUS
  0
LAYER
  5
8C
330
2
100
AcDbSymbolTableRecord
100
AcDbLayerTableRecord
  2
83
 70
     0
 62
    83
  6
CONTINUOUS
  0
LAYER
  5
8D
330
2
100
AcDbSymbolTableRecord
100
AcDbLayerTableRecord
  2
84
 70
     0
 62
    84
  6
CONTINUOUS
  0
LAYER
  5
8E
330
2
100
AcDbSymbolTableRecord
100
AcDbLayerTableRecord
  2
85
 70
     0
 62
    85
  6
CONTINUOUS
  0
LAYER
  5
8F
330
2
100
AcDbSymbolTableRecord
100
AcDbLayerTableRecord
  2
86
 70
     0
 62
    86
  6
CONTINUOUS
  0
LAYER
  5
90
330
2
100
AcDbSymbolTableRecord
100
AcDbLayerTableRecord
  2
87
 70
     0
 62
    87
  6
CONTINUOUS
  0
LAYER
  5
91
330
2
100
AcDbSymbolTableRecord
100
AcDbLayerTableRecord
  2
88
 70
     0
 62
    88
  6
CONTINUOUS
  0
LAYER
  5
92
330
2
100
AcDbSymbolTableRecord
100
AcDbLayerTableRecord
  2
89
 70
     0
 62
    89
  6
CONTINUOUS
  0
LAYER
  5
93
330
2
100
AcDbSymbolTableRecord
100
AcDbLayerTableRecord
  2
90
 70
     0
 62
    90
  6
CONTINUOUS
  0
LAYER
  5
94
330
2
100
AcDbSymbolTableRecord
100
AcDbLayerTableRecord
  2
91
 70
     0
 62
    91
  6
CONTINUOUS
  0
LAYER
  5
95
330
2
100
AcDbSymbolTableRecord
100
AcDbLayerTableRecord
  2
92
 70
     0
 62
    92
  6
CONTINUOUS
  0
LAYER
  5
96
330
2
100
AcDbSymbolTableRecord
100
AcDbLayerTableRecord
  2
93
 70
     0
 62
    93
  6
CONTINUOUS
  0
LAYER
  5
97
330
2
100
AcDbSymbolTableRecord
100
AcDbLayerTableRecord
  2
94
 70
     0
 62
    94
  6
CONTINUOUS
  0
LAYER
  5
98
330
2
100
AcDbSymbolTableRecord
100
AcDbLayerTableRecord
  2
95
 70
     0
 62
    95
  6
CONTINUOUS
  0
LAYER
  5
99
330
2
100
AcDbSymbolTableRecord
100
AcDbLayerTableRecord
  2
96
 70
     0
 62
    96
  6
CONTINUOUS
  0
LAYER
  5
9A
330
2
100
AcDbSymbolTableRecord
100
AcDbLayerTableRecord
  2
97
 70
     0
 62
    97
  6
CONTINUOUS
  0
LAYER
  5
9B
330
2
100
AcDbSymbolTableRecord
100
AcDbLayerTableRecord
  2
98
 70
     0
 62
    98
  6
CONTINUOUS
  0
LAYER
  5
9C
330
2
100
AcDbSymbolTableRecord
100
AcDbLayerTableRecord
  2
99
 70
     0
 62
    99
  6
CONTINUOUS
  0
LAYER
  5
9D
330
2
100
AcDbSymbolTableRecord
100
AcDbLayerTableRecord
  2
100
 70
     0
 62
   100
  6
CONTINUOUS
  0
LAYER
  5
9E
330
2
100
AcDbSymbolTableRecord
100
AcDbLayerTableRecord
  2
101
 70
     0
 62
   101
  6
CONTINUOUS
  0
LAYER
  5
9F
330
2
100
AcDbSymbolTableRecord
100
AcDbLayerTableRecord
  2
102
 70
     0
 62
   102
  6
CONTINUOUS
  0
LAYER
  5
A0
330
2
100
AcDbSymbolTableRecord
100
AcDbLayerTableRecord
  2
103
 70
     0
 62
   103
  6
CONTINUOUS
  0
LAYER
  5
A1
330
2
100
AcDbSymbolTableRecord
100
AcDbLayerTableRecord
  2
104
 70
     0
 62
   104
  6
CONTINUOUS
  0
LAYER
  5
A2
330
2
100
AcDbSymbolTableRecord
100
AcDbLayerTableRecord
  2
105
 70
     0
 62
   105
  6
CONTINUOUS
  0
LAYER
  5
A3
330
2
100
AcDbSymbolTableRecord
100
AcDbLayerTableRecord
  2
106
 70
     0
 62
   106
  6
CONTINUOUS
  0
LAYER
  5
A4
330
2
100
AcDbSymbolTableRecord
100
AcDbLayerTableRecord
  2
107
 70
     0
 62
   107
  6
CONTINUOUS
  0
LAYER
  5
A5
330
2
100
AcDbSymbolTableRecord
100
AcDbLayerTableRecord
  2
108
 70
     0
 62
   108
  6
CONTINUOUS
  0
LAYER
  5
A6
330
2
100
AcDbSymbolTableRecord
100
AcDbLayerTableRecord
  2
109
 70
     0
 62
   109
  6
CONTINUOUS
  0
LAYER
  5
A7
330
2
100
AcDbSymbolTableRecord
100
AcDbLayerTableRecord
  2
110
 70
     0
 62
   110
  6
CONTINUOUS
  0
LAYER
  5
A8
330
2
100
AcDbSymbolTableRecord
100
AcDbLayerTableRecord
  2
111
 70
     0
 62
   111
  6
CONTINUOUS
  0
LAYER
  5
A9
330
2
100
AcDbSymbolTableRecord
100
AcDbLayerTableRecord
  2
112
 70
     0
 62
   112
  6
CONTINUOUS
  0
LAYER
  5
AA
330
2
100
AcDbSymbolTableRecord
100
AcDbLayerTableRecord
  2
113
 70
     0
 62
   113
  6
CONTINUOUS
  0
LAYER
  5
AB
330
2
100
AcDbSymbolTableRecord
100
AcDbLayerTableRecord
  2
114
 70
     0
 62
   114
  6
CONTINUOUS
  0
LAYER
  5
AC
330
2
100
AcDbSymbolTableRecord
100
AcDbLayerTableRecord
  2
115
 70
     0
 62
   115
  6
CONTINUOUS
  0
LAYER
  5
AD
330
2
100
AcDbSymbolTableRecord
100
AcDbLayerTableRecord
  2
116
 70
     0
 62
   116
  6
CONTINUOUS
  0
LAYER
  5
AE
330
2
100
AcDbSymbolTableRecord
100
AcDbLayerTableRecord
  2
117
 70
     0
 62
   117
  6
CONTINUOUS
  0
LAYER
  5
AF
330
2
100
AcDbSymbolTableRecord
100
AcDbLayerTableRecord
  2
118
 70
     0
 62
   118
  6
CONTINUOUS
  0
LAYER
  5
B0
330
2
100
AcDbSymbolTableRecord
100
AcDbLayerTableRecord
  2
119
 70
     0
 62
   119
  6
CONTINUOUS
  0
LAYER
  5
B1
330
2
100
AcDbSymbolTableRecord
100
AcDbLayerTableRecord
  2
120
 70
     0
 62
   120
  6
CONTINUOUS
  0
LAYER
  5
B2
330
2
100
AcDbSymbolTableRecord
100
AcDbLayerTableRecord
  2
121
 70
     0
 62
   121
  6
CONTINUOUS
  0
LAYER
  5
B3
330
2
100
AcDbSymbolTableRecord
100
AcDbLayerTableRecord
  2
122
 70
     0
 62
   122
  6
CONTINUOUS
  0
LAYER
  5
B4
330
2
100
AcDbSymbolTableRecord
100
AcDbLayerTableRecord
  2
123
 70
     0
 62
   123
  6
CONTINUOUS
  0
LAYER
  5
B5
330
2
100
AcDbSymbolTableRecord
100
AcDbLayerTableRecord
  2
124
 70
     0
 62
   124
  6
CONTINUOUS
  0
LAYER
  5
B6
330
2
100
AcDbSymbolTableRecord
100
AcDbLayerTableRecord
  2
125
 70
     0
 62
   125
  6
CONTINUOUS
  0
LAYER
  5
B7
330
2
100
AcDbSymbolTableRecord
100
AcDbLayerTableRecord
  2
126
 70
     0
 62
   126
  6
CONTINUOUS
  0
LAYER
  5
B8
330
2
100
AcDbSymbolTableRecord
100
AcDbLayerTableRecord
  2
127
 70
     0
 62
   127
  6
CONTINUOUS
  0
LAYER
  5
B9
330
2
100
AcDbSymbolTableRecord
100
AcDbLayerTableRecord
  2
128
 70
     0
 62
   128
  6
CONTINUOUS
  0
LAYER
  5
BA
330
2
100
AcDbSymbolTableRecord
100
AcDbLayerTableRecord
  2
129
 70
     0
 62
   129
  6
CONTINUOUS
  0
LAYER
  5
BB
330
2
100
AcDbSymbolTableRecord
100
AcDbLayerTableRecord
  2
130
 70
     0
 62
   130
  6
CONTINUOUS
  0
LAYER
  5
BC
330
2
100
AcDbSymbolTableRecord
100
AcDbLayerTableRecord
  2
131
 70
     0
 62
   131
  6
CONTINUOUS
  0
LAYER
  5
BD
330
2
100
AcDbSymbolTableRecord
100
AcDbLayerTableRecord
  2
132
 70
     0
 62
   132
  6
CONTINUOUS
  0
LAYER
  5
BE
330
2
100
AcDbSymbolTableRecord
100
AcDbLayerTableRecord
  2
133
 70
     0
 62
   133
  6
CONTINUOUS
  0
LAYER
  5
BF
330
2
100
AcDbSymbolTableRecord
100
AcDbLayerTableRecord
  2
134
 70
     0
 62
   134
  6
CONTINUOUS
  0
LAYER
  5
C0
330
2
100
AcDbSymbolTableRecord
100
AcDbLayerTableRecord
  2
135
 70
     0
 62
   135
  6
CONTINUOUS
  0
LAYER
  5
C1
330
2
100
AcDbSymbolTableRecord
100
AcDbLayerTableRecord
  2
136
 70
     0
 62
   136
  6
CONTINUOUS
  0
LAYER
  5
C2
330
2
100
AcDbSymbolTableRecord
100
AcDbLayerTableRecord
  2
137
 70
     0
 62
   137
  6
CONTINUOUS
  0
LAYER
  5
C3
330
2
100
AcDbSymbolTableRecord
100
AcDbLayerTableRecord
  2
138
 70
     0
 62
   138
  6
CONTINUOUS
  0
LAYER
  5
C4
330
2
100
AcDbSymbolTableRecord
100
AcDbLayerTableRecord
  2
139
 70
     0
 62
   139
  6
CONTINUOUS
  0
LAYER
  5
C5
330
2
100
AcDbSymbolTableRecord
100
AcDbLayerTableRecord
  2
140
 70
     0
 62
   140
  6
CONTINUOUS
  0
LAYER
  5
C6
330
2
100
AcDbSymbolTableRecord
100
AcDbLayerTableRecord
  2
141
 70
     0
 62
   141
  6
CONTINUOUS
  0
LAYER
  5
C7
330
2
100
AcDbSymbolTableRecord
100
AcDbLayerTableRecord
  2
142
 70
     0
 62
   142
  6
CONTINUOUS
  0
LAYER
  5
C8
330
2
100
AcDbSymbolTableRecord
100
AcDbLayerTableRecord
  2
143
 70
     0
 62
   143
  6
CONTINUOUS
  0
LAYER
  5
C9
330
2
100
AcDbSymbolTableRecord
100
AcDbLayerTableRecord
  2
144
 70
     0
 62
   144
  6
CONTINUOUS
  0
LAYER
  5
CA
330
2
100
AcDbSymbolTableRecord
100
AcDbLayerTableRecord
  2
145
 70
     0
 62
   145
  6
CONTINUOUS
  0
LAYER
  5
CB
330
2
100
AcDbSymbolTableRecord
100
AcDbLayerTableRecord
  2
146
 70
     0
 62
   146
  6
CONTINUOUS
  0
LAYER
  5
CC
330
2
100
AcDbSymbolTableRecord
100
AcDbLayerTableRecord
  2
147
 70
     0
 62
   147
  6
CONTINUOUS
  0
LAYER
  5
CD
330
2
100
AcDbSymbolTableRecord
100
AcDbLayerTableRecord
  2
148
 70
     0
 62
   148
  6
CONTINUOUS
  0
LAYER
  5
CE
330
2
100
AcDbSymbolTableRecord
100
AcDbLayerTableRecord
  2
149
 70
     0
 62
   149
  6
CONTINUOUS
  0
LAYER
  5
CF
330
2
100
AcDbSymbolTableRecord
100
AcDbLayerTableRecord
  2
150
 70
     0
 62
   150
  6
CONTINUOUS
  0
LAYER
  5
D0
330
2
100
AcDbSymbolTableRecord
100
AcDbLayerTableRecord
  2
151
 70
     0
 62
   151
  6
CONTINUOUS
  0
LAYER
  5
D1
330
2
100
AcDbSymbolTableRecord
100
AcDbLayerTableRecord
  2
152
 70
     0
 62
   152
  6
CONTINUOUS
  0
LAYER
  5
D2
330
2
100
AcDbSymbolTableRecord
100
AcDbLayerTableRecord
  2
153
 70
     0
 62
   153
  6
CONTINUOUS
  0
LAYER
  5
D3
330
2
100
AcDbSymbolTableRecord
100
AcDbLayerTableRecord
  2
154
 70
     0
 62
   154
  6
CONTINUOUS
  0
LAYER
  5
D4
330
2
100
AcDbSymbolTableRecord
100
AcDbLayerTableRecord
  2
155
 70
     0
 62
   155
  6
CONTINUOUS
  0
LAYER
  5
D5
330
2
100
AcDbSymbolTableRecord
100
AcDbLayerTableRecord
  2
156
 70
     0
 62
   156
  6
CONTINUOUS
  0
LAYER
  5
D6
330
2
100
AcDbSymbolTableRecord
100
AcDbLayerTableRecord
  2
157
 70
     0
 62
   157
  6
CONTINUOUS
  0
LAYER
  5
D7
330
2
100
AcDbSymbolTableRecord
100
AcDbLayerTableRecord
  2
158
 70
     0
 62
   158
  6
CONTINUOUS
  0
LAYER
  5
D8
330
2
100
AcDbSymbolTableRecord
100
AcDbLayerTableRecord
  2
159
 70
     0
 62
   159
  6
CONTINUOUS
  0
LAYER
  5
D9
330
2
100
AcDbSymbolTableRecord
100
AcDbLayerTableRecord
  2
160
 70
     0
 62
   160
  6
CONTINUOUS
  0
LAYER
  5
DA
330
2
100
AcDbSymbolTableRecord
100
AcDbLayerTableRecord
  2
161
 70
     0
 62
   161
  6
CONTINUOUS
  0
LAYER
  5
DB
330
2
100
AcDbSymbolTableRecord
100
AcDbLayerTableRecord
  2
162
 70
     0
 62
   162
  6
CONTINUOUS
  0
LAYER
  5
DC
330
2
100
AcDbSymbolTableRecord
100
AcDbLayerTableRecord
  2
163
 70
     0
 62
   163
  6
CONTINUOUS
  0
LAYER
  5
DD
330
2
100
AcDbSymbolTableRecord
100
AcDbLayerTableRecord
  2
164
 70
     0
 62
   164
  6
CONTINUOUS
  0
LAYER
  5
DE
330
2
100
AcDbSymbolTableRecord
100
AcDbLayerTableRecord
  2
165
 70
     0
 62
   165
  6
CONTINUOUS
  0
LAYER
  5
DF
330
2
100
AcDbSymbolTableRecord
100
AcDbLayerTableRecord
  2
166
 70
     0
 62
   166
  6
CONTINUOUS
  0
LAYER
  5
E0
330
2
100
AcDbSymbolTableRecord
100
AcDbLayerTableRecord
  2
167
 70
     0
 62
   167
  6
CONTINUOUS
  0
LAYER
  5
E1
330
2
100
AcDbSymbolTableRecord
100
AcDbLayerTableRecord
  2
168
 70
     0
 62
   168
  6
CONTINUOUS
  0
LAYER
  5
E2
330
2
100
AcDbSymbolTableRecord
100
AcDbLayerTableRecord
  2
169
 70
     0
 62
   169
  6
CONTINUOUS
  0
LAYER
  5
E3
330
2
100
AcDbSymbolTableRecord
100
AcDbLayerTableRecord
  2
170
 70
     0
 62
   170
  6
CONTINUOUS
  0
LAYER
  5
E4
330
2
100
AcDbSymbolTableRecord
100
AcDbLayerTableRecord
  2
171
 70
     0
 62
   171
  6
CONTINUOUS
  0
LAYER
  5
E5
330
2
100
AcDbSymbolTableRecord
100
AcDbLayerTableRecord
  2
172
 70
     0
 62
   172
  6
CONTINUOUS
  0
LAYER
  5
E6
330
2
100
AcDbSymbolTableRecord
100
AcDbLayerTableRecord
  2
173
 70
     0
 62
   173
  6
CONTINUOUS
  0
LAYER
  5
E7
330
2
100
AcDbSymbolTableRecord
100
AcDbLayerTableRecord
  2
174
 70
     0
 62
   174
  6
CONTINUOUS
  0
LAYER
  5
E8
330
2
100
AcDbSymbolTableRecord
100
AcDbLayerTableRecord
  2
175
 70
     0
 62
   175
  6
CONTINUOUS
  0
LAYER
  5
E9
330
2
100
AcDbSymbolTableRecord
100
AcDbLayerTableRecord
  2
176
 70
     0
 62
   176
  6
CONTINUOUS
  0
LAYER
  5
EA
330
2
100
AcDbSymbolTableRecord
100
AcDbLayerTableRecord
  2
177
 70
     0
 62
   177
  6
CONTINUOUS
  0
LAYER
  5
EB
330
2
100
AcDbSymbolTableRecord
100
AcDbLayerTableRecord
  2
178
 70
     0
 62
   178
  6
CONTINUOUS
  0
LAYER
  5
EC
330
2
100
AcDbSymbolTableRecord
100
AcDbLayerTableRecord
  2
179
 70
     0
 62
   179
  6
CONTINUOUS
  0
LAYER
  5
ED
330
2
100
AcDbSymbolTableRecord
100
AcDbLayerTableRecord
  2
180
 70
     0
 62
   180
  6
CONTINUOUS
  0
LAYER
  5
EE
330
2
100
AcDbSymbolTableRecord
100
AcDbLayerTableRecord
  2
181
 70
     0
 62
   181
  6
CONTINUOUS
  0
LAYER
  5
EF
330
2
100
AcDbSymbolTableRecord
100
AcDbLayerTableRecord
  2
182
 70
     0
 62
   182
  6
CONTINUOUS
  0
LAYER
  5
F0
330
2
100
AcDbSymbolTableRecord
100
AcDbLayerTableRecord
  2
183
 70
     0
 62
   183
  6
CONTINUOUS
  0
LAYER
  5
F1
330
2
100
AcDbSymbolTableRecord
100
AcDbLayerTableRecord
  2
184
 70
     0
 62
   184
  6
CONTINUOUS
  0
LAYER
  5
F2
330
2
100
AcDbSymbolTableRecord
100
AcDbLayerTableRecord
  2
185
 70
     0
 62
   185
  6
CONTINUOUS
  0
LAYER
  5
F3
330
2
100
AcDbSymbolTableRecord
100
AcDbLayerTableRecord
  2
186
 70
     0
 62
   186
  6
CONTINUOUS
  0
LAYER
  5
F4
330
2
100
AcDbSymbolTableRecord
100
AcDbLayerTableRecord
  2
187
 70
     0
 62
   187
  6
CONTINUOUS
  0
LAYER
  5
F5
330
2
100
AcDbSymbolTableRecord
100
AcDbLayerTableRecord
  2
188
 70
     0
 62
   188
  6
CONTINUOUS
  0
LAYER
  5
F6
330
2
100
AcDbSymbolTableRecord
100
AcDbLayerTableRecord
  2
189
 70
     0
 62
   189
  6
CONTINUOUS
  0
LAYER
  5
F7
330
2
100
AcDbSymbolTableRecord
100
AcDbLayerTableRecord
  2
190
 70
     0
 62
   190
  6
CONTINUOUS
  0
LAYER
  5
F8
330
2
100
AcDbSymbolTableRecord
100
AcDbLayerTableRecord
  2
191
 70
     0
 62
   191
  6
CONTINUOUS
  0
LAYER
  5
F9
330
2
100
AcDbSymbolTableRecord
100
AcDbLayerTableRecord
  2
192
 70
     0
 62
   192
  6
CONTINUOUS
  0
LAYER
  5
FA
330
2
100
AcDbSymbolTableRecord
100
AcDbLayerTableRecord
  2
193
 70
     0
 62
   193
  6
CONTINUOUS
  0
LAYER
  5
FB
330
2
100
AcDbSymbolTableRecord
100
AcDbLayerTableRecord
  2
194
 70
     0
 62
   194
  6
CONTINUOUS
  0
LAYER
  5
FC
330
2
100
AcDbSymbolTableRecord
100
AcDbLayerTableRecord
  2
195
 70
     0
 62
   195
  6
CONTINUOUS
  0
LAYER
  5
FD
330
2
100
AcDbSymbolTableRecord
100
AcDbLayerTableRecord
  2
196
 70
     0
 62
   196
  6
CONTINUOUS
  0
LAYER
  5
FE
330
2
100
AcDbSymbolTableRecord
100
AcDbLayerTableRecord
  2
197
 70
     0
 62
   197
  6
CONTINUOUS
  0
LAYER
  5
FF
330
2
100
AcDbSymbolTableRecord
100
AcDbLayerTableRecord
  2
198
 70
     0
 62
   198
  6
CONTINUOUS
  0
LAYER
  5
100
330
2
100
AcDbSymbolTableRecord
100
AcDbLayerTableRecord
  2
199
 70
     0
 62
   199
  6
CONTINUOUS
  0
LAYER
  5
101
330
2
100
AcDbSymbolTableRecord
100
AcDbLayerTableRecord
  2
200
 70
     0
 62
   200
  6
CONTINUOUS
  0
LAYER
  5
102
330
2
100
AcDbSymbolTableRecord
100
AcDbLayerTableRecord
  2
201
 70
     0
 62
   201
  6
CONTINUOUS
  0
LAYER
  5
103
330
2
100
AcDbSymbolTableRecord
100
AcDbLayerTableRecord
  2
202
 70
     0
 62
   202
  6
CONTINUOUS
  0
LAYER
  5
104
330
2
100
AcDbSymbolTableRecord
100
AcDbLayerTableRecord
  2
203
 70
     0
 62
   203
  6
CONTINUOUS
  0
LAYER
  5
105
330
2
100
AcDbSymbolTableRecord
100
AcDbLayerTableRecord
  2
204
 70
     0
 62
   204
  6
CONTINUOUS
  0
LAYER
  5
106
330
2
100
AcDbSymbolTableRecord
100
AcDbLayerTableRecord
  2
205
 70
     0
 62
   205
  6
CONTINUOUS
  0
LAYER
  5
107
330
2
100
AcDbSymbolTableRecord
100
AcDbLayerTableRecord
  2
206
 70
     0
 62
   206
  6
CONTINUOUS
  0
LAYER
  5
108
330
2
100
AcDbSymbolTableRecord
100
AcDbLayerTableRecord
  2
207
 70
     0
 62
   207
  6
CONTINUOUS
  0
LAYER
  5
109
330
2
100
AcDbSymbolTableRecord
100
AcDbLayerTableRecord
  2
208
 70
     0
 62
   208
  6
CONTINUOUS
  0
LAYER
  5
10A
330
2
100
AcDbSymbolTableRecord
100
AcDbLayerTableRecord
  2
209
 70
     0
 62
   209
  6
CONTINUOUS
  0
LAYER
  5
10B
330
2
100
AcDbSymbolTableRecord
100
AcDbLayerTableRecord
  2
210
 70
     0
 62
   210
  6
CONTINUOUS
  0
LAYER
  5
10C
330
2
100
AcDbSymbolTableRecord
100
AcDbLayerTableRecord
  2
211
 70
     0
 62
   211
  6
CONTINUOUS
  0
LAYER
  5
10D
330
2
100
AcDbSymbolTableRecord
100
AcDbLayerTableRecord
  2
212
 70
     0
 62
   212
  6
CONTINUOUS
  0
LAYER
  5
10E
330
2
100
AcDbSymbolTableRecord
100
AcDbLayerTableRecord
  2
213
 70
     0
 62
   213
  6
CONTINUOUS
  0
LAYER
  5
10F
330
2
100
AcDbSymbolTableRecord
100
AcDbLayerTableRecord
  2
214
 70
     0
 62
   214
  6
CONTINUOUS
  0
LAYER
  5
110
330
2
100
AcDbSymbolTableRecord
100
AcDbLayerTableRecord
  2
215
 70
     0
 62
   215
  6
CONTINUOUS
  0
LAYER
  5
111
330
2
100
AcDbSymbolTableRecord
100
AcDbLayerTableRecord
  2
216
 70
     0
 62
   216
  6
CONTINUOUS
  0
LAYER
  5
112
330
2
100
AcDbSymbolTableRecord
100
AcDbLayerTableRecord
  2
217
 70
     0
 62
   217
  6
CONTINUOUS
  0
LAYER
  5
113
330
2
100
AcDbSymbolTableRecord
100
AcDbLayerTableRecord
  2
218
 70
     0
 62
   218
  6
CONTINUOUS
  0
LAYER
  5
114
330
2
100
AcDbSymbolTableRecord
100
AcDbLayerTableRecord
  2
219
 70
     0
 62
   219
  6
CONTINUOUS
  0
LAYER
  5
115
330
2
100
AcDbSymbolTableRecord
100
AcDbLayerTableRecord
  2
220
 70
     0
 62
   220
  6
CONTINUOUS
  0
LAYER
  5
116
330
2
100
AcDbSymbolTableRecord
100
AcDbLayerTableRecord
  2
221
 70
     0
 62
   221
  6
CONTINUOUS
  0
LAYER
  5
117
330
2
100
AcDbSymbolTableRecord
100
AcDbLayerTableRecord
  2
222
 70
     0
 62
   222
  6
CONTINUOUS
  0
LAYER
  5
118
330
2
100
AcDbSymbolTableRecord
100
AcDbLayerTableRecord
  2
223
 70
     0
 62
   223
  6
CONTINUOUS
  0
LAYER
  5
119
330
2
100
AcDbSymbolTableRecord
100
AcDbLayerTableRecord
  2
224
 70
     0
 62
   224
  6
CONTINUOUS
  0
LAYER
  5
11A
330
2
100
AcDbSymbolTableRecord
100
AcDbLayerTableRecord
  2
225
 70
     0
 62
   225
  6
CONTINUOUS
  0
LAYER
  5
11B
330
2
100
AcDbSymbolTableRecord
100
AcDbLayerTableRecord
  2
226
 70
     0
 62
   226
  6
CONTINUOUS
  0
LAYER
  5
11C
330
2
100
AcDbSymbolTableRecord
100
AcDbLayerTableRecord
  2
227
 70
     0
 62
   227
  6
CONTINUOUS
  0
LAYER
  5
11D
330
2
100
AcDbSymbolTableRecord
100
AcDbLayerTableRecord
  2
228
 70
     0
 62
   228
  6
CONTINUOUS
  0
LAYER
  5
11E
330
2
100
AcDbSymbolTableRecord
100
AcDbLayerTableRecord
  2
229
 70
     0
 62
   229
  6
CONTINUOUS
  0
LAYER
  5
11F
330
2
100
AcDbSymbolTableRecord
100
AcDbLayerTableRecord
  2
230
 70
     0
 62
   230
  6
CONTINUOUS
  0
LAYER
  5
120
330
2
100
AcDbSymbolTableRecord
100
AcDbLayerTableRecord
  2
231
 70
     0
 62
   231
  6
CONTINUOUS
  0
LAYER
  5
121
330
2
100
AcDbSymbolTableRecord
100
AcDbLayerTableRecord
  2
232
 70
     0
 62
   232
  6
CONTINUOUS
  0
LAYER
  5
122
330
2
100
AcDbSymbolTableRecord
100
AcDbLayerTableRecord
  2
233
 70
     0
 62
   233
  6
CONTINUOUS
  0
LAYER
  5
123
330
2
100
AcDbSymbolTableRecord
100
AcDbLayerTableRecord
  2
234
 70
     0
 62
   234
  6
CONTINUOUS
  0
LAYER
  5
124
330
2
100
AcDbSymbolTableRecord
100
AcDbLayerTableRecord
  2
235
 70
     0
 62
   235
  6
CONTINUOUS
  0
LAYER
  5
125
330
2
100
AcDbSymbolTableRecord
100
AcDbLayerTableRecord
  2
236
 70
     0
 62
   236
  6
CONTINUOUS
  0
LAYER
  5
126
330
2
100
AcDbSymbolTableRecord
100
AcDbLayerTableRecord
  2
237
 70
     0
 62
   237
  6
CONTINUOUS
  0
LAYER
  5
127
330
2
100
AcDbSymbolTableRecord
100
AcDbLayerTableRecord
  2
238
 70
     0
 62
   238
  6
CONTINUOUS
  0
LAYER
  5
128
330
2
100
AcDbSymbolTableRecord
100
AcDbLayerTableRecord
  2
239
 70
     0
 62
   239
  6
CONTINUOUS
  0
LAYER
  5
129
330
2
100
AcDbSymbolTableRecord
100
AcDbLayerTableRecord
  2
240
 70
     0
 62
   240
  6
CONTINUOUS
  0
LAYER
  5
12A
330
2
100
AcDbSymbolTableRecord
100
AcDbLayerTableRecord
  2
241
 70
     0
 62
   241
  6
CONTINUOUS
  0
LAYER
  5
12B
330
2
100
AcDbSymbolTableRecord
100
AcDbLayerTableRecord
  2
242
 70
     0
 62
   242
  6
CONTINUOUS
  0
LAYER
  5
12C
330
2
100
AcDbSymbolTableRecord
100
AcDbLayerTableRecord
  2
243
 70
     0
 62
   243
  6
CONTINUOUS
  0
LAYER
  5
12D
330
2
100
AcDbSymbolTableRecord
100
AcDbLayerTableRecord
  2
244
 70
     0
 62
   244
  6
CONTINUOUS
  0
LAYER
  5
12E
330
2
100
AcDbSymbolTableRecord
100
AcDbLayerTableRecord
  2
245
 70
     0
 62
   245
  6
CONTINUOUS
  0
LAYER
  5
12F
330
2
100
AcDbSymbolTableRecord
100
AcDbLayerTableRecord
  2
246
 70
     0
 62
   246
  6
CONTINUOUS
  0
LAYER
  5
130
330
2
100
AcDbSymbolTableRecord
100
AcDbLayerTableRecord
  2
247
 70
     0
 62
   247
  6
CONTINUOUS
  0
LAYER
  5
131
330
2
100
AcDbSymbolTableRecord
100
AcDbLayerTableRecord
  2
248
 70
     0
 62
   248
  6
CONTINUOUS
  0
LAYER
  5
132
330
2
100
AcDbSymbolTableRecord
100
AcDbLayerTableRecord
  2
249
 70
     0
 62
   249
  6
CONTINUOUS
  0
LAYER
  5
133
330
2
100
AcDbSymbolTableRecord
100
AcDbLayerTableRecord
  2
250
 70
     0
 62
   250
  6
CONTINUOUS
  0
LAYER
  5
134
330
2
100
AcDbSymbolTableRecord
100
AcDbLayerTableRecord
  2
251
 70
     0
 62
   251
  6
CONTINUOUS
  0
LAYER
  5
135
330
2
100
AcDbSymbolTableRecord
100
AcDbLayerTableRecord
  2
252
 70
     0
 62
   252
  6
CONTINUOUS
  0
LAYER
  5
136
330
2
100
AcDbSymbolTableRecord
100
AcDbLayerTableRecord
  2
253
 70
     0
 62
   253
  6
CONTINUOUS
  0
LAYER
  5
137
330
2
100
AcDbSymbolTableRecord
100
AcDbLayerTableRecord
  2
254
 70
     0
 62
   254
  6
CONTINUOUS
  0
LAYER
  5
138
330
2
100
AcDbSymbolTableRecord
100
AcDbLayerTableRecord
  2
255
 70
     0
 62
   255
  6
CONTINUOUS
  0
ENDTAB
  0
TABLE
  2
STYLE
  5
3
330
0
100
AcDbSymbolTable
 70
     1
  0
STYLE
  5
11
330
3
100
AcDbSymbolTableRecord
100
AcDbTextStyleTableRecord
  2
STANDARD
 70
     0
 40
0.0
 41
1.0
 50
0.0
 71
     0
 42
0.2
  3
monotxt
  4

  0
ENDTAB
  0
TABLE
  2
VIEW
  5
6
330
0
100
AcDbSymbolTable
 70
     0
  0
ENDTAB
  0
TABLE
  2
UCS
  5
7
330
0
100
AcDbSymbolTable
 70
     0
  0
ENDTAB
  0
TABLE
  2
APPID
  5
9
330
0
100
AcDbSymbolTable
 70
     1
  0
APPID
  5
12
330
9
100
AcDbSymbolTableRecord
100
AcDbRegAppTableRecord
  2
ACAD
 70
     0
  0
ENDTAB
  0
TABLE
  2
DIMSTYLE
  5
A
330
0
100
AcDbSymbolTable
 70
     1
  0
DIMSTYLE
105
37A5
330
A
100
AcDbSymbolTableRecord
100
AcDbDimStyleTableRecord
  2
STANDARD
 70
     0
  3

  4

  5

  6

  7

 40
1.0
 41
0.18
 42
0.0625
 43
0.38
 44
0.18
 45
0.0
 46
0.0
 47
0.0
 48
0.0
140
0.18
141
0.09
142
0.0
143
25.4
144
1.0
145
0.0
146
1.0
147
0.09
 71
     0
 72
     0
 73
     1
 74
     1
 75
     0
 76
     0
 77
     0
 78
     0
170
     0
171
     2
172
     0
173
     0
174
     0
175
     0
176
     0
177
     0
178
     0
270
     2
271
     4
272
     4
273
     2
274
     2
340
11
275
     0
280
     0
281
     0
282
     0
283
     1
284
     0
285
     0
286
     0
287
     3
288
     0
  0
ENDTAB
  0
TABLE
  2
BLOCK_RECORD
  5
1
330
0
100
AcDbSymbolTable
 70
     0
  0
BLOCK_RECORD
  5
1E
102
{ACAD_XDICTIONARY
360
4C6C
102
}
330
1
100
AcDbSymbolTableRecord
100
AcDbBlockTableRecord
  2
*MODEL_SPACE
  0
BLOCK_RECORD
  5
1A
102
{ACAD_XDICTIONARY
360
4C6E
102
}
330
1
100
AcDbSymbolTableRecord
100
AcDbBlockTableRecord
  2
*PAPER_SPACE
  0
ENDTAB
  0
ENDSEC
  0
SECTION
  2
BLOCKS
  0
BLOCK
  5
13B
330
1E
100
AcDbEntity
  8
0
100
AcDbBlockBegin
  2
*MODEL_SPACE
 70
     0
 10
0.0
 20
0.0
 30
0.0
  3
*MODEL_SPACE
  1

  0
ENDBLK
  5
13C
330
1E
100
AcDbEntity
  8
0
100
AcDbBlockEnd
  0
BLOCK
  5
139
330
1A
100
AcDbEntity
 67
     1
  8
0
100
AcDbBlockBegin
  2
*PAPER_SPACE
 70
     0
 10
0.0
 20
0.0
 30
0.0
  3
*PAPER_SPACE
  1

  0
ENDBLK
  5
13A
330
1A
100
AcDbEntity
 67
     1
  8
0
100
AcDbBlockEnd
  0
ENDSEC
  0
SECTION
  2
ENTITIES
  0
LINE
  5
2735
330
1E
100
AcDbEntity
  8
3
100
AcDbLine
 10
11.80413385826771
 20
8.511811023622048
 30
0.0
 11
11.80413385826771
 21
8.633858267716536
 31
0.0
  0
LINE
  5
2AB6
330
1E
100
AcDbEntity
  8
7
100
AcDbLine
 10
6.01673228346457
 20
13.08661417322834
 30
0.0
 11
6.048228346456696
 21
13.08661417322834
 31
0.0
  0
LINE
  5
2AB7
330
1E
100
AcDbEntity
  8
7
100
AcDbLine
 10
8.079724409448822
 20
13.08661417322834
 30
0.0
 11
8.052165354330711
 21
13.08661417322834
 31
0.0
  0
LINE
  5
2AB8
330
1E
100
AcDbEntity
  8
7
100
AcDbLine
 10
10.81594488188976
 20
13.08661417322834
 30
0.0
 11
10.91437007874015
 21
13.08661417322834
 31
0.0
  0
LINE
  5
2AB9
330
1E
100
AcDbEntity
  8
7
100
AcDbLine
 10
10.06791338582677
 20
13.08661417322834
 30
0.0
 11
10.52854330708661
 21
13.08661417322834
 31
0.0
  0
LINE
  5
2ABA
330
1E
100
AcDbEntity
  8
7
100
AcDbLine
 10
5.115157480314962
 20
13.08661417322834
 30
0.0
 11
5.138779527559055
 21
13.08661417322834
 31
0.0
  0
LINE
  5
2ABB
330
1E
100
AcDbEntity
  8
7
100
AcDbLine
 10
10.41830708661417
 20
13.08661417322834
 30
0.0
 11
10.39074803149606
 21
13.08661417322834
 31
0.0
  0
LINE
  5
2ABC
330
1E
100
AcDbEntity
  8
7
100
AcDbLine
 10
5.189960629921262
 20
13.08661417322834
 30
0.0
 11
5.213582677165355
 21
13.08661417322834
 31
0.0
  0
LINE
  5
2ABD
330
1E
100
AcDbEntity
  8
7
100
AcDbLine
 10
7.902559055118111
 20
13.08661417322834
 30
0.0
 11
7.906496062992129
 21
13.08661417322834
 31
0.0
  0
LINE
  5
2ABE
330
1E
100
AcDbEntity
  8
7
100
AcDbLine
 10
10.33956692913385
 20
13.08661417322834
 30
0.0
 11
10.31594488188976
 21
13.08661417322834
 31
0.0
  0
LINE
  5
2ABF
330
1E
100
AcDbEntity
  8
7
100
AcDbLine
 10
7.906496062992129
 20
13.08661417322834
 30
0.0
 11
7.930118110236222
 21
13.08661417322834
 31
0.0
  0
LINE
  5
2AC0
330
1E
100
AcDbEntity
  8
7
100
AcDbLine
 10
10.20570866141732
 20
13.08661417322834
 30
0.0
 11
10.25688976377953
 21
13.08661417322834
 31
0.0
  0
LINE
  5
2AC1
330
1E
100
AcDbEntity
  8
7
100
AcDbLine
 10
5.01673228346457
 20
13.08661417322834
 30
0.0
 11
5.028543307086614
 21
13.08661417322834
 31
0.0
  0
LINE
  5
2AC2
330
1E
100
AcDbEntity
  8
7
100
AcDbLine
 10
7.465551181102362
 20
13.08661417322834
 30
0.0
 11
7.489173228346459
 21
13.08661417322834
 31
0.0
  0
LINE
  5
2AC3
330
1E
100
AcDbEntity
  8
7
100
AcDbLine
 10
6.827755905511814
 20
13.08661417322834
 30
0.0
 11
6.855314960629922
 21
13.08661417322834
 31
0.0
  0
LINE
  5
2AC4
330
1E
100
AcDbEntity
  8
7
100
AcDbLine
 10
9.544291338582677
 20
13.08661417322834
 30
0.0
 11
9.548228346456696
 21
13.08661417322834
 31
0.0
  0
LINE
  5
2AC5
330
1E
100
AcDbEntity
  8
7
100
AcDbLine
 10
4.375000000000003
 20
13.08661417322834
 30
0.0
 11
4.406496062992129
 21
13.08661417322834
 31
0.0
  0
LINE
  5
2AC6
330
1E
100
AcDbEntity
  8
7
100
AcDbLine
 10
11.48523622047244
 20
13.08661417322834
 30
0.0
 11
11.54035433070866
 21
13.08661417322834
 31
0.0
  0
LINE
  5
2AC7
330
1E
100
AcDbEntity
  8
7
100
AcDbLine
 10
12.1505905511811
 20
13.08661417322834
 30
0.0
 11
12.07972440944882
 21
13.08661417322834
 31
0.0
  0
LINE
  5
2AC8
330
1E
100
AcDbEntity
  8
7
100
AcDbLine
 10
6.855314960629922
 20
13.08661417322834
 30
0.0
 11
6.827755905511814
 21
13.08661417322834
 31
0.0
  0
LINE
  5
2AC9
330
1E
100
AcDbEntity
  8
7
100
AcDbLine
 10
-1.750984251968503
 20
13.08661417322834
 30
0.0
 11
-2.211614173228345
 21
13.08661417322834
 31
0.0
  0
LINE
  5
2ACA
330
1E
100
AcDbEntity
  8
7
100
AcDbLine
 10
0.9694881889763781
 20
13.08661417322834
 30
0.0
 11
0.9931102362204725
 21
13.08661417322834
 31
0.0
  0
LINE
  5
2ACB
330
1E
100
AcDbEntity
  8
7
100
AcDbLine
 10
10.41830708661417
 20
13.08661417322834
 30
0.0
 11
10.39074803149606
 21
13.08661417322834
 31
0.0
  0
LINE
  5
2ACC
330
1E
100
AcDbEntity
  8
7
100
AcDbLine
 10
1.03248031496063
 20
13.08661417322834
 30
0.0
 11
1.020669291338583
 21
13.08661417322834
 31
0.0
  0
LINE
  5
2ACD
330
1E
100
AcDbEntity
  8
7
100
AcDbLine
 10
1.335629921259843
 20
13.08661417322834
 30
0.0
 11
1.796259842519685
 21
13.08661417322834
 31
0.0
  0
LINE
  5
2ACE
330
1E
100
AcDbEntity
  8
7
100
AcDbLine
 10
3.284448818897639
 20
13.08661417322834
 30
0.0
 11
3.308070866141733
 21
13.08661417322834
 31
0.0
  0
LINE
  5
2ACF
330
1E
100
AcDbEntity
  8
7
100
AcDbLine
 10
2.099409448818898
 20
13.08661417322834
 30
0.0
 11
2.130905511811024
 21
13.08661417322834
 31
0.0
  0
LINE
  5
2AD0
330
1E
100
AcDbEntity
  8
7
100
AcDbLine
 10
3.74507874015748
 20
13.08661417322834
 30
0.0
 11
3.756889763779528
 21
13.08661417322834
 31
0.0
  0
LINE
  5
2AD1
330
1E
100
AcDbEntity
  8
7
100
AcDbLine
 10
-0.6840551181102348
 20
13.08661417322834
 30
0.0
 11
-0.6604330708661404
 21
13.08661417322834
 31
0.0
  0
LINE
  5
2AD2
330
1E
100
AcDbEntity
  8
7
100
AcDbLine
 10
0.2726377952755912
 20
13.08661417322834
 30
0.0
 11
0.3198818897637801
 21
13.08661417322834
 31
0.0
  0
LINE
  5
2AD3
330
1E
100
AcDbEntity
  8
7
100
AcDbLine
 10
-5.121062992125983
 20
13.08661417322834
 30
0.0
 11
-4.66043307086614
 21
13.08661417322834
 31
0.0
  0
LINE
  5
2AD9
330
1E
100
AcDbEntity
  8
7
100
AcDbLine
 10
-4.231299212598424
 20
13.08661417322834
 30
0.0
 11
-4.266732283464564
 21
13.08661417322834
 31
0.0
  0
LINE
  5
2ADA
330
1E
100
AcDbEntity
  8
7
100
AcDbLine
 10
2.225393700787402
 20
13.08661417322834
 30
0.0
 11
2.276574803149607
 21
13.08661417322834
 31
0.0
  0
LINE
  5
2ADB
330
1E
100
AcDbEntity
  8
7
100
AcDbLine
 10
-4.487204724409446
 20
13.08661417322834
 30
0.0
 11
-4.026574803149603
 21
13.08661417322834
 31
0.0
  0
LINE
  5
2ADC
330
1E
100
AcDbEntity
  8
7
100
AcDbLine
 10
3.843503937007876
 20
13.08661417322834
 30
0.0
 11
3.918307086614172
 21
13.08661417322834
 31
0.0
  0
LINE
  5
2ADD
330
1E
100
AcDbEntity
  8
7
100
AcDbLine
 10
-3.672244094488188
 20
13.08661417322834
 30
0.0
 11
-3.597440944881888
 21
13.08661417322834
 31
0.0
  0
LINE
  5
2ADE
330
1E
100
AcDbEntity
  8
7
100
AcDbLine
 10
7.930118110236222
 20
13.08661417322834
 30
0.0
 11
7.981299212598425
 21
13.08661417322834
 31
0.0
  0
LINE
  5
2ADF
330
1E
100
AcDbEntity
  8
7
100
AcDbLine
 10
10.39074803149606
 20
13.08661417322834
 30
0.0
 11
10.41830708661417
 21
13.08661417322834
 31
0.0
  0
LINE
  5
2AE0
330
1E
100
AcDbEntity
  8
7
100
AcDbLine
 10
4.500984251968507
 20
13.08661417322834
 30
0.0
 11
4.552165354330711
 21
13.08661417322834
 31
0.0
  0
LINE
  5
2AE1
330
1E
100
AcDbEntity
  8
7
100
AcDbLine
 10
10.28051181102362
 20
13.08661417322834
 30
0.0
 11
10.18208661417322
 21
13.08661417322834
 31
0.0
  0
LINE
  5
2AE2
330
1E
100
AcDbEntity
  8
7
100
AcDbLine
 10
7.158464566929136
 20
13.08661417322834
 30
0.0
 11
7.619094488188977
 21
13.08661417322834
 31
0.0
  0
LINE
  5
2AE3
330
1E
100
AcDbEntity
  8
7
100
AcDbLine
 10
7.465551181102362
 20
13.08661417322834
 30
0.0
 11
7.414370078740159
 21
13.08661417322834
 31
0.0
  0
LINE
  5
2AE4
330
1E
100
AcDbEntity
  8
7
100
AcDbLine
 10
10.18208661417322
 20
13.08661417322834
 30
0.0
 11
10.28051181102362
 21
13.08661417322834
 31
0.0
  0
LINE
  5
2AE5
330
1E
100
AcDbEntity
  8
7
100
AcDbLine
 10
6.981299212598425
 20
13.08661417322834
 30
0.0
 11
6.524606299212599
 21
13.08661417322834
 31
0.0
  0
LINE
  5
2AE6
330
1E
100
AcDbEntity
  8
7
100
AcDbLine
 10
11.87893700787401
 20
13.08661417322834
 30
0.0
 11
11.89862204724409
 21
13.08661417322834
 31
0.0
  0
LINE
  5
2AE7
330
1E
100
AcDbEntity
  8
7
100
AcDbLine
 10
7.390748031496066
 20
13.08661417322834
 30
0.0
 11
7.386811023622048
 21
13.08661417322834
 31
0.0
  0
LINE
  5
2AE8
330
1E
100
AcDbEntity
  8
7
100
AcDbLine
 10
9.705708661417325
 20
13.08661417322834
 30
0.0
 11
9.756889763779529
 21
13.08661417322834
 31
0.0
  0
LINE
  5
2AE9
330
1E
100
AcDbEntity
  8
7
100
AcDbLine
 10
6.524606299212599
 20
13.08661417322834
 30
0.0
 11
6.981299212598425
 21
13.08661417322834
 31
0.0
  0
LINE
  5
2AEA
330
1E
100
AcDbEntity
  8
7
100
AcDbLine
 10
11.85531496062992
 20
13.08661417322834
 30
0.0
 11
11.83562992125984
 21
13.08661417322834
 31
0.0
  0
LINE
  5
2AEB
330
1E
100
AcDbEntity
  8
7
100
AcDbLine
 10
7.414370078740159
 20
13.08661417322834
 30
0.0
 11
7.465551181102362
 21
13.08661417322834
 31
0.0
  0
LINE
  5
2AEC
330
1E
100
AcDbEntity
  8
7
100
AcDbLine
 10
6.347440944881892
 20
13.08661417322834
 30
0.0
 11
5.886811023622048
 21
13.08661417322834
 31
0.0
  0
LINE
  5
2AED
330
1E
100
AcDbEntity
  8
7
100
AcDbLine
 10
6.776574803149607
 20
13.08661417322834
 30
0.0
 11
6.827755905511814
 21
13.08661417322834
 31
0.0
  0
LINE
  5
2AEE
330
1E
100
AcDbEntity
  8
7
100
AcDbLine
 10
9.000984251968507
 20
13.08661417322834
 30
0.0
 11
9.028543307086614
 21
13.08661417322834
 31
0.0
  0
LINE
  5
2AEF
330
1E
100
AcDbEntity
  8
7
100
AcDbLine
 10
3.437992125984252
 20
13.08661417322834
 30
0.0
 11
2.977362204724409
 21
13.08661417322834
 31
0.0
  0
LINE
  5
2AF0
330
1E
100
AcDbEntity
  8
7
100
AcDbLine
 10
9.028543307086614
 20
13.08661417322834
 30
0.0
 11
8.926181102362207
 21
13.08661417322834
 31
0.0
  0
LINE
  5
2AF1
330
1E
100
AcDbEntity
  8
7
100
AcDbLine
 10
11.58366141732283
 20
13.08661417322834
 30
0.0
 11
11.61909448818897
 21
13.08661417322834
 31
0.0
  0
LINE
  5
2AF2
330
1E
100
AcDbEntity
  8
7
100
AcDbLine
 10
-2.589566929133856
 20
13.08661417322834
 30
0.0
 11
-2.565944881889762
 21
13.08661417322834
 31
0.0
  0
LINE
  5
2AF3
330
1E
100
AcDbEntity
  8
7
100
AcDbLine
 10
0.2726377952755912
 20
13.08661417322834
 30
0.0
 11
0.2490157480314967
 21
13.08661417322834
 31
0.0
  0
LINE
  5
2AF4
330
1E
100
AcDbEntity
  8
7
100
AcDbLine
 10
-4.282480314960627
 20
13.08661417322834
 30
0.0
 11
-4.306102362204724
 21
13.08661417322834
 31
0.0
  0
LINE
  5
2AF5
330
1E
100
AcDbEntity
  8
7
100
AcDbLine
 10
0.2450787401574819
 20
13.08661417322834
 30
0.0
 11
0.2726377952755912
 21
13.08661417322834
 31
0.0
  0
LINE
  5
2AF6
330
1E
100
AcDbEntity
  8
7
100
AcDbLine
 10
-3.392716535433069
 20
13.08661417322834
 30
0.0
 11
-3.849409448818896
 21
13.08661417322834
 31
0.0
  0
LINE
  5
2AF7
330
1E
100
AcDbEntity
  8
7
100
AcDbLine
 10
-0.6840551181102348
 20
13.08661417322834
 30
0.0
 11
-0.7352362204724403
 21
13.08661417322834
 31
0.0
  0
LINE
  5
2AF8
330
1E
100
AcDbEntity
  8
7
100
AcDbLine
 10
3.284448818897639
 20
13.08661417322834
 30
0.0
 11
3.308070866141733
 21
13.08661417322834
 31
0.0
  0
LINE
  5
2AF9
330
1E
100
AcDbEntity
  8
7
100
AcDbLine
 10
-2.845472440944881
 20
13.08661417322834
 30
0.0
 11
-2.384842519685038
 21
13.08661417322834
 31
0.0
  0
LINE
  5
2AFA
330
1E
100
AcDbEntity
  8
7
100
AcDbLine
 10
5.886811023622048
 20
13.08661417322834
 30
0.0
 11
6.347440944881892
 21
13.08661417322834
 31
0.0
  0
LINE
  5
2AFB
330
1E
100
AcDbEntity
  8
7
100
AcDbLine
 10
-5.534448818897635
 20
13.08661417322834
 30
0.0
 11
-5.526574803149605
 21
13.08661417322834
 31
0.0
  0
LINE
  5
2AFC
330
1E
100
AcDbEntity
  8
7
100
AcDbLine
 10
-2.006889763779527
 20
13.08661417322834
 30
0.0
 11
-1.955708661417321
 21
13.08661417322834
 31
0.0
  0
LINE
  5
2AFD
330
1E
100
AcDbEntity
  8
7
100
AcDbLine
 10
3.308070866141733
 20
13.08661417322834
 30
0.0
 11
3.284448818897639
 21
13.08661417322834
 31
0.0
  0
LINE
  5
2AFE
330
1E
100
AcDbEntity
  8
7
100
AcDbLine
 10
2.977362204724409
 20
13.08661417322834
 30
0.0
 11
3.437992125984252
 21
13.08661417322834
 31
0.0
  0
LINE
  5
2AFF
330
1E
100
AcDbEntity
  8
7
100
AcDbLine
 10
-2.565944881889762
 20
13.08661417322834
 30
0.0
 11
-2.589566929133856
 21
13.08661417322834
 31
0.0
  0
LINE
  5
2B00
330
1E
100
AcDbEntity
  8
7
100
AcDbLine
 10
0.2490157480314967
 20
13.08661417322834
 30
0.0
 11
0.2450787401574819
 21
13.08661417322834
 31
0.0
  0
LINE
  5
2B01
330
1E
100
AcDbEntity
  8
7
100
AcDbLine
 10
-4.865157480314959
 20
13.08661417322834
 30
0.0
 11
-4.841535433070864
 21
13.08661417322834
 31
0.0
  0
LINE
  5
2B02
330
1E
100
AcDbEntity
  8
7
100
AcDbLine
 10
1.969488188976378
 20
13.08661417322834
 30
0.0
 11
2.43011811023622
 21
13.08661417322834
 31
0.0
  0
LINE
  5
2B03
330
1E
100
AcDbEntity
  8
7
100
AcDbLine
 10
2.276574803149607
 20
13.08661417322834
 30
0.0
 11
2.300196850393702
 21
13.08661417322834
 31
0.0
  0
LINE
  5
2B04
330
1E
100
AcDbEntity
  8
7
100
AcDbLine
 10
8.12696850393701
 20
13.08661417322834
 30
0.0
 11
8.103346456692914
 21
13.08661417322834
 31
0.0
  0
LINE
  5
2B05
330
1E
100
AcDbEntity
  8
7
100
AcDbLine
 10
3.284448818897639
 20
13.08661417322834
 30
0.0
 11
3.24507874015748
 21
13.08661417322834
 31
0.0
  0
LINE
  5
2B06
330
1E
100
AcDbEntity
  8
7
100
AcDbLine
 10
-4.231299212598424
 20
13.08661417322834
 30
0.0
 11
-4.203740157480313
 21
13.08661417322834
 31
0.0
  0
LINE
  5
2B07
330
1E
100
AcDbEntity
  8
7
100
AcDbLine
 10
-0.7352362204724403
 20
13.08661417322834
 30
0.0
 11
-0.7588582677165348
 21
13.08661417322834
 31
0.0
  0
LINE
  5
2B08
330
1E
100
AcDbEntity
  8
7
100
AcDbLine
 10
4.477362204724411
 20
13.08661417322834
 30
0.0
 11
4.579724409448822
 21
13.08661417322834
 31
0.0
  0
LINE
  5
2B09
330
1E
100
AcDbEntity
  8
7
100
AcDbLine
 10
7.414370078740159
 20
13.08661417322834
 30
0.0
 11
7.465551181102362
 21
13.08661417322834
 31
0.0
  0
LINE
  5
2B0A
330
1E
100
AcDbEntity
  8
7
100
AcDbLine
 10
10.25688976377953
 20
13.08661417322834
 30
0.0
 11
10.28051181102362
 21
13.08661417322834
 31
0.0
  0
LINE
  5
2B0B
330
1E
100
AcDbEntity
  8
7
100
AcDbLine
 10
7.619094488188977
 20
13.08661417322834
 30
0.0
 11
7.158464566929136
 21
13.08661417322834
 31
0.0
  0
LINE
  5
2B0C
330
1E
100
AcDbEntity
  8
7
100
AcDbLine
 10
11.54035433070866
 20
13.08661417322834
 30
0.0
 11
11.48523622047244
 21
13.08661417322834
 31
0.0
  0
LINE
  5
2B0D
330
1E
100
AcDbEntity
  8
7
100
AcDbLine
 10
7.465551181102362
 20
13.08661417322834
 30
0.0
 11
7.489173228346459
 21
13.08661417322834
 31
0.0
  0
LINE
  5
2B0E
330
1E
100
AcDbEntity
  8
7
100
AcDbLine
 10
9.780511811023622
 20
13.08661417322834
 30
0.0
 11
9.682086614173229
 21
13.08661417322834
 31
0.0
  0
LINE
  5
2B0F
330
1E
100
AcDbEntity
  8
7
100
AcDbLine
 10
11.68208661417323
 20
13.08661417322834
 30
0.0
 11
11.75295275590551
 21
13.08661417322834
 31
0.0
  0
LINE
  5
2B10
330
1E
100
AcDbEntity
  8
7
100
AcDbLine
 10
9.682086614173229
 20
13.08661417322834
 30
0.0
 11
9.780511811023622
 21
13.08661417322834
 31
0.0
  0
LINE
  5
2B11
330
1E
100
AcDbEntity
  8
7
100
AcDbLine
 10
11.89862204724409
 20
13.08661417322834
 30
0.0
 11
11.93405511811023
 21
13.08661417322834
 31
0.0
  0
LINE
  5
2B12
330
1E
100
AcDbEntity
  8
7
100
AcDbLine
 10
7.29232283464567
 20
13.08661417322834
 30
0.0
 11
7.304133858267718
 21
13.08661417322834
 31
0.0
  0
LINE
  5
2B13
330
1E
100
AcDbEntity
  8
7
100
AcDbLine
 10
9.571850393700788
 20
13.08661417322834
 30
0.0
 11
9.619094488188977
 21
13.08661417322834
 31
0.0
  0
LINE
  5
2B14
330
1E
100
AcDbEntity
  8
7
100
AcDbLine
 10
6.752952755905514
 20
13.08661417322834
 30
0.0
 11
6.776574803149607
 21
13.08661417322834
 31
0.0
  0
LINE
  5
2B15
330
1E
100
AcDbEntity
  8
7
100
AcDbLine
 10
6.658464566929136
 20
13.08661417322834
 30
0.0
 11
6.666338582677166
 21
13.08661417322834
 31
0.0
  0
LINE
  5
2B16
330
1E
100
AcDbEntity
  8
7
100
AcDbLine
 10
10.89074803149606
 20
13.08661417322834
 30
0.0
 11
10.91437007874015
 21
13.08661417322834
 31
0.0
  0
LINE
  5
2B17
330
1E
100
AcDbEntity
  8
7
100
AcDbLine
 10
10.70570866141732
 20
13.08661417322834
 30
0.0
 11
11.16240157480315
 21
13.08661417322834
 31
0.0
  0
LINE
  5
2B18
330
1E
100
AcDbEntity
  8
7
100
AcDbLine
 10
11.54035433070866
 20
13.08661417322834
 30
0.0
 11
11.55610236220472
 21
13.08661417322834
 31
0.0
  0
LINE
  5
2B19
330
1E
100
AcDbEntity
  8
7
100
AcDbLine
 10
6.154527559055118
 20
13.08661417322834
 30
0.0
 11
6.21751968503937
 21
13.08661417322834
 31
0.0
  0
LINE
  5
2B1A
330
1E
100
AcDbEntity
  8
7
100
AcDbLine
 10
10.31594488188976
 20
13.08661417322834
 30
0.0
 11
10.33956692913385
 21
13.08661417322834
 31
0.0
  0
LINE
  5
2B1B
330
1E
100
AcDbEntity
  8
7
100
AcDbLine
 10
0.9458661417322836
 20
13.08661417322834
 30
0.0
 11
0.9694881889763781
 21
13.08661417322834
 31
0.0
  0
LINE
  5
2B1C
330
1E
100
AcDbEntity
  8
7
100
AcDbLine
 10
-2.664370078740156
 20
13.08661417322834
 30
0.0
 11
-2.565944881889762
 21
13.08661417322834
 31
0.0
  0
LINE
  5
2B1D
330
1E
100
AcDbEntity
  8
7
100
AcDbLine
 10
0.7017716535433079
 20
13.08661417322834
 30
0.0
 11
1.16240157480315
 21
13.08661417322834
 31
0.0
  0
LINE
  5
2B1E
330
1E
100
AcDbEntity
  8
7
100
AcDbLine
 10
-4.939960629921257
 20
13.08661417322834
 30
0.0
 11
-4.841535433070864
 21
13.08661417322834
 31
0.0
  0
LINE
  5
2B1F
330
1E
100
AcDbEntity
  8
7
100
AcDbLine
 10
-5.754921259842518
 20
13.08661417322834
 30
0.0
 11
-5.294291338582675
 21
13.08661417322834
 31
0.0
  0
LINE
  5
2B20
330
1E
100
AcDbEntity
  8
7
100
AcDbLine
 10
1.619094488188976
 20
13.08661417322834
 30
0.0
 11
1.650590551181102
 21
13.08661417322834
 31
0.0
  0
LINE
  5
2B21
330
1E
100
AcDbEntity
  8
7
100
AcDbLine
 10
3.111220472440944
 20
13.08661417322834
 30
0.0
 11
3.123031496062993
 21
13.08661417322834
 31
0.0
  0
LINE
  5
2B22
330
1E
100
AcDbEntity
  8
7
100
AcDbLine
 10
0.831692913385828
 20
13.08661417322834
 30
0.0
 11
0.863188976377954
 21
13.08661417322834
 31
0.0
  0
LINE
  5
2B23
330
1E
100
AcDbEntity
  8
7
100
AcDbLine
 10
-4.916338582677164
 20
13.08661417322834
 30
0.0
 11
-4.865157480314959
 21
13.08661417322834
 31
0.0
  0
LINE
  5
2B24
330
1E
100
AcDbEntity
  8
7
100
AcDbLine
 10
-2.006889763779527
 20
13.08661417322834
 30
0.0
 11
-1.955708661417321
 21
13.08661417322834
 31
0.0
  0
LINE
  5
2B25
330
1E
100
AcDbEntity
  8
7
100
AcDbLine
 10
-2.640748031496062
 20
13.08661417322834
 30
0.0
 11
-2.664370078740156
 21
13.08661417322834
 31
0.0
  0
LINE
  5
2B26
330
1E
100
AcDbEntity
  8
7
100
AcDbLine
 10
0.2490157480314967
 20
13.08661417322834
 30
0.0
 11
0.2726377952755912
 21
13.08661417322834
 31
0.0
  0
LINE
  5
2B27
330
1E
100
AcDbEntity
  8
7
100
AcDbLine
 10
-6.719488188976376
 20
13.08661417322834
 30
0.0
 11
-6.231299212598424
 21
13.08661417322834
 31
0.0
  0
LINE
  5
2B28
330
1E
100
AcDbEntity
  8
7
100
AcDbLine
 10
-4.026574803149603
 20
13.08661417322834
 30
0.0
 11
-4.487204724409446
 21
13.08661417322834
 31
0.0
  0
LINE
  5
2B29
330
1E
100
AcDbEntity
  8
7
100
AcDbLine
 10
3.10728346456693
 20
13.08661417322834
 30
0.0
 11
3.138779527559055
 21
13.08661417322834
 31
0.0
  0
LINE
  5
2B2A
330
1E
100
AcDbEntity
  8
7
100
AcDbLine
 10
-1.955708661417321
 20
13.08661417322834
 30
0.0
 11
-2.006889763779527
 21
13.08661417322834
 31
0.0
  0
LINE
  5
2B2B
330
1E
100
AcDbEntity
  8
7
100
AcDbLine
 10
-0.7352362204724403
 20
13.08661417322834
 30
0.0
 11
-0.7588582677165348
 21
13.08661417322834
 31
0.0
  0
LINE
  5
2B2C
330
1E
100
AcDbEntity
  8
7
100
AcDbLine
 10
7.386811023622048
 20
13.08661417322834
 30
0.0
 11
7.414370078740159
 21
13.08661417322834
 31
0.0
  0
LINE
  5
2B2D
330
1E
100
AcDbEntity
  8
7
100
AcDbLine
 10
9.756889763779529
 20
13.08661417322834
 30
0.0
 11
9.780511811023622
 21
13.08661417322834
 31
0.0
  0
LINE
  5
2B2E
330
1E
100
AcDbEntity
  8
7
100
AcDbLine
 10
11.61909448818897
 20
13.08661417322834
 30
0.0
 11
11.65452755905511
 21
13.08661417322834
 31
0.0
  0
LINE
  5
2B2F
330
1E
100
AcDbEntity
  8
7
100
AcDbLine
 10
6.776574803149607
 20
13.08661417322834
 30
0.0
 11
6.827755905511814
 21
13.08661417322834
 31
0.0
  0
LINE
  5
2B30
330
1E
100
AcDbEntity
  8
7
100
AcDbLine
 10
9.646653543307088
 20
13.08661417322834
 30
0.0
 11
9.544291338582677
 21
13.08661417322834
 31
0.0
  0
LINE
  5
2B31
330
1E
100
AcDbEntity
  8
7
100
AcDbLine
 10
4.705708661417325
 20
13.08661417322834
 30
0.0
 11
4.249015748031496
 21
13.08661417322834
 31
0.0
  0
LINE
  5
2B32
330
1E
100
AcDbEntity
  8
7
100
AcDbLine
 10
11.83562992125984
 20
13.08661417322834
 30
0.0
 11
11.85531496062992
 21
13.08661417322834
 31
0.0
  0
LINE
  5
2B33
330
1E
100
AcDbEntity
  8
7
100
AcDbLine
 10
9.548228346456696
 20
13.08661417322834
 30
0.0
 11
9.646653543307088
 21
13.08661417322834
 31
0.0
  0
LINE
  5
2B34
330
1E
100
AcDbEntity
  8
7
100
AcDbLine
 10
4.249015748031496
 20
13.08661417322834
 30
0.0
 11
4.705708661417325
 21
13.08661417322834
 31
0.0
  0
LINE
  5
2B35
330
1E
100
AcDbEntity
  8
7
100
AcDbLine
 10
11.55610236220472
 20
13.08661417322834
 30
0.0
 11
11.54035433070866
 21
13.08661417322834
 31
0.0
  0
LINE
  5
2B36
330
1E
100
AcDbEntity
  8
7
100
AcDbLine
 10
6.827755905511814
 20
13.08661417322834
 30
0.0
 11
6.776574803149607
 21
13.08661417322834
 31
0.0
  0
LINE
  5
2B37
330
1E
100
AcDbEntity
  8
7
100
AcDbLine
 10
4.071850393700787
 20
13.08661417322834
 30
0.0
 11
3.611220472440944
 21
13.08661417322834
 31
0.0
  0
LINE
  5
2B38
330
1E
100
AcDbEntity
  8
7
100
AcDbLine
 10
11.83562992125984
 20
13.08661417322834
 30
0.0
 11
11.78051181102362
 21
13.08661417322834
 31
0.0
  0
LINE
  5
2B39
330
1E
100
AcDbEntity
  8
7
100
AcDbLine
 10
9.103346456692914
 20
13.08661417322834
 30
0.0
 11
9.115157480314962
 21
13.08661417322834
 31
0.0
  0
LINE
  5
2B3A
330
1E
100
AcDbEntity
  8
7
100
AcDbLine
 10
3.611220472440944
 20
13.08661417322834
 30
0.0
 11
4.071850393700787
 21
13.08661417322834
 31
0.0
  0
LINE
  5
2B3B
330
1E
100
AcDbEntity
  8
7
100
AcDbLine
 10
5.189960629921262
 20
13.08661417322834
 30
0.0
 11
5.213582677165355
 21
13.08661417322834
 31
0.0
  0
LINE
  5
2B3C
330
1E
100
AcDbEntity
  8
7
100
AcDbLine
 10
8.040354330708662
 20
13.08661417322834
 30
0.0
 11
8.052165354330711
 21
13.08661417322834
 31
0.0
  0
LINE
  5
2B3D
330
1E
100
AcDbEntity
  8
7
100
AcDbLine
 10
5.012795275590551
 20
13.08661417322834
 30
0.0
 11
5.044291338582677
 21
13.08661417322834
 31
0.0
  0
LINE
  5
2B3E
330
1E
100
AcDbEntity
  8
7
100
AcDbLine
 10
10.39074803149606
 20
13.08661417322834
 30
0.0
 11
10.41830708661417
 21
13.08661417322834
 31
0.0
  0
LINE
  5
2B3F
330
1E
100
AcDbEntity
  8
7
100
AcDbLine
 10
10.52854330708661
 20
13.08661417322834
 30
0.0
 11
10.06791338582677
 21
13.08661417322834
 31
0.0
  0
LINE
  5
2B40
330
1E
100
AcDbEntity
  8
7
100
AcDbLine
 10
5.138779527559055
 20
13.08661417322834
 30
0.0
 11
5.115157480314962
 21
13.08661417322834
 31
0.0
  0
LINE
  5
2B41
330
1E
100
AcDbEntity
  8
7
100
AcDbLine
 10
5.213582677165355
 20
13.08661417322834
 30
0.0
 11
5.189960629921262
 21
13.08661417322834
 31
0.0
  0
LINE
  5
2B42
330
1E
100
AcDbEntity
  8
7
100
AcDbLine
 10
-1.955708661417321
 20
13.08661417322834
 30
0.0
 11
-1.928149606299212
 21
13.08661417322834
 31
0.0
  0
LINE
  5
2B43
330
1E
100
AcDbEntity
  8
7
100
AcDbLine
 10
-2.030511811023621
 20
13.08661417322834
 30
0.0
 11
-2.006889763779527
 21
13.08661417322834
 31
0.0
  0
LINE
  5
2B44
330
1E
100
AcDbEntity
  8
7
100
AcDbLine
 10
1.16240157480315
 20
13.08661417322834
 30
0.0
 11
0.7017716535433079
 21
13.08661417322834
 31
0.0
  0
LINE
  5
2B45
330
1E
100
AcDbEntity
  8
7
100
AcDbLine
 10
-2.384842519685038
 20
13.08661417322834
 30
0.0
 11
-2.845472440944881
 21
13.08661417322834
 31
0.0
  0
LINE
  5
2B46
330
1E
100
AcDbEntity
  8
7
100
AcDbLine
 10
-1.294291338582677
 20
13.08661417322834
 30
0.0
 11
-1.392716535433069
 21
13.08661417322834
 31
0.0
  0
LINE
  5
2B47
330
1E
100
AcDbEntity
  8
7
100
AcDbLine
 10
-5.542322834645668
 20
13.08661417322834
 30
0.0
 11
-5.510826771653542
 21
13.08661417322834
 31
0.0
  0
LINE
  5
2B48
330
1E
100
AcDbEntity
  8
7
100
AcDbLine
 10
1.481299212598426
 20
13.08661417322834
 30
0.0
 11
1.512795275590552
 21
13.08661417322834
 31
0.0
  0
LINE
  5
2B49
330
1E
100
AcDbEntity
  8
7
100
AcDbLine
 10
10.91437007874015
 20
13.08661417322834
 30
0.0
 11
10.81594488188976
 21
13.08661417322834
 31
0.0
  0
LINE
  5
2B4A
330
1E
100
AcDbEntity
  8
7
100
AcDbLine
 10
-2.589566929133856
 20
13.08661417322834
 30
0.0
 11
-2.640748031496062
 21
13.08661417322834
 31
0.0
  0
LINE
  5
2B4B
330
1E
100
AcDbEntity
  8
7
100
AcDbLine
 10
0.9301181102362207
 20
13.08661417322834
 30
0.0
 11
0.9340551181102373
 21
13.08661417322834
 31
0.0
  0
LINE
  5
2B4C
330
1E
100
AcDbEntity
  8
7
100
AcDbLine
 10
2.43011811023622
 20
13.08661417322834
 30
0.0
 11
1.969488188976378
 21
13.08661417322834
 31
0.0
  0
LINE
  5
2B4D
330
1E
100
AcDbEntity
  8
7
100
AcDbLine
 10
-0.9399606299212589
 20
13.08661417322834
 30
0.0
 11
-0.4793307086614163
 21
13.08661417322834
 31
0.0
  0
LINE
  5
2B4E
330
1E
100
AcDbEntity
  8
7
100
AcDbLine
 10
3.941929133858268
 20
13.08661417322834
 30
0.0
 11
3.843503937007876
 21
13.08661417322834
 31
0.0
  0
LINE
  5
2B4F
330
1E
100
AcDbEntity
  8
7
100
AcDbLine
 10
-4.282480314960627
 20
13.08661417322834
 30
0.0
 11
-4.231299212598424
 21
13.08661417322834
 31
0.0
  0
LINE
  5
2B50
330
1E
100
AcDbEntity
  8
7
100
AcDbLine
 10
-1.955708661417321
 20
13.08661417322834
 30
0.0
 11
-1.928149606299212
 21
13.08661417322834
 31
0.0
  0
LINE
  5
2B51
330
1E
100
AcDbEntity
  8
7
100
AcDbLine
 10
-4.203740157480313
 20
13.08661417322834
 30
0.0
 11
-4.231299212598424
 21
13.08661417322834
 31
0.0
  0
LINE
  5
2B52
330
1E
100
AcDbEntity
  8
7
100
AcDbLine
 10
-4.66043307086614
 20
13.08661417322834
 30
0.0
 11
-5.121062992125983
 21
13.08661417322834
 31
0.0
  0
LINE
  5
2B53
330
1E
100
AcDbEntity
  8
7
100
AcDbLine
 10
-1.357283464566929
 20
13.08661417322834
 30
0.0
 11
-1.294291338582677
 21
13.08661417322834
 31
0.0
  0
LINE
  5
2B54
330
1E
100
AcDbEntity
  8
7
100
AcDbLine
 10
9.619094488188977
 20
13.08661417322834
 30
0.0
 11
9.646653543307088
 21
13.08661417322834
 31
0.0
  0
LINE
  5
2B55
330
1E
100
AcDbEntity
  8
7
100
AcDbLine
 10
4.882874015748033
 20
13.08661417322834
 30
0.0
 11
5.343503937007877
 21
13.08661417322834
 31
0.0
  0
LINE
  5
2B56
330
1E
100
AcDbEntity
  8
7
100
AcDbLine
 10
12.00492125984252
 20
13.08661417322834
 30
0.0
 11
12.0246062992126
 21
13.08661417322834
 31
0.0
  0
LINE
  5
2B57
330
1E
100
AcDbEntity
  8
7
100
AcDbLine
 10
6.752952755905514
 20
13.08661417322834
 30
0.0
 11
6.776574803149607
 21
13.08661417322834
 31
0.0
  0
LINE
  5
2B58
330
1E
100
AcDbEntity
  8
7
100
AcDbLine
 10
8.953740157480318
 20
13.08661417322834
 30
0.0
 11
9.000984251968507
 21
13.08661417322834
 31
0.0
  0
LINE
  5
2B59
330
1E
100
AcDbEntity
  8
7
100
AcDbLine
 10
6.827755905511814
 20
13.08661417322834
 30
0.0
 11
6.855314960629922
 21
13.08661417322834
 31
0.0
  0
LINE
  5
2B5A
330
1E
100
AcDbEntity
  8
7
100
AcDbLine
 10
12.00492125984252
 20
13.08661417322834
 30
0.0
 11
12.0246062992126
 21
13.08661417322834
 31
0.0
  0
LINE
  5
2B5B
330
1E
100
AcDbEntity
  8
7
100
AcDbLine
 10
6.855314960629922
 20
13.08661417322834
 30
0.0
 11
6.827755905511814
 21
13.08661417322834
 31
0.0
  0
LINE
  5
2B5C
330
1E
100
AcDbEntity
  8
7
100
AcDbLine
 10
8.926181102362207
 20
13.08661417322834
 30
0.0
 11
8.930118110236222
 21
13.08661417322834
 31
0.0
  0
LINE
  5
2B5D
330
1E
100
AcDbEntity
  8
7
100
AcDbLine
 10
10.95374015748031
 20
13.08661417322834
 30
0.0
 11
11.02854330708661
 21
13.08661417322834
 31
0.0
  0
LINE
  5
2B5E
330
1E
100
AcDbEntity
  8
7
100
AcDbLine
 10
11.60334645669291
 20
13.08661417322834
 30
0.0
 11
11.63877952755905
 21
13.08661417322834
 31
0.0
  0
LINE
  5
2B5F
330
1E
100
AcDbEntity
  8
7
100
AcDbLine
 10
8.930118110236222
 20
13.08661417322834
 30
0.0
 11
8.953740157480318
 21
13.08661417322834
 31
0.0
  0
LINE
  5
2B60
330
1E
100
AcDbEntity
  8
7
100
AcDbLine
 10
11.05216535433071
 20
13.08661417322834
 30
0.0
 11
10.95374015748031
 21
13.08661417322834
 31
0.0
  0
LINE
  5
2B61
330
1E
100
AcDbEntity
  8
7
100
AcDbLine
 10
11.16240157480315
 20
13.08661417322834
 30
0.0
 11
10.70570866141732
 21
13.08661417322834
 31
0.0
  0
LINE
  5
2B62
330
1E
100
AcDbEntity
  8
7
100
AcDbLine
 10
5.138779527559055
 20
13.08661417322834
 30
0.0
 11
5.189960629921262
 21
13.08661417322834
 31
0.0
  0
LINE
  5
2B63
330
1E
100
AcDbEntity
  8
7
100
AcDbLine
 10
8.004921259842522
 20
13.08661417322834
 30
0.0
 11
7.902559055118111
 21
13.08661417322834
 31
0.0
  0
LINE
  5
2B64
330
1E
100
AcDbEntity
  8
7
100
AcDbLine
 10
10.39074803149606
 20
13.08661417322834
 30
0.0
 11
10.33956692913385
 21
13.08661417322834
 31
0.0
  0
LINE
  5
2B65
330
1E
100
AcDbEntity
  8
7
100
AcDbLine
 10
8.252952755905514
 20
13.08661417322834
 30
0.0
 11
7.79232283464567
 21
13.08661417322834
 31
0.0
  0
LINE
  5
2B66
330
1E
100
AcDbEntity
  8
7
100
AcDbLine
 10
8.079724409448822
 20
13.08661417322834
 30
0.0
 11
8.103346456692914
 21
13.08661417322834
 31
0.0
  0
LINE
  5
2B67
330
1E
100
AcDbEntity
  8
7
100
AcDbLine
 10
5.115157480314962
 20
13.08661417322834
 30
0.0
 11
5.138779527559055
 21
13.08661417322834
 31
0.0
  0
LINE
  5
2B68
330
1E
100
AcDbEntity
  8
7
100
AcDbLine
 10
10.18208661417322
 20
13.08661417322834
 30
0.0
 11
10.20570866141732
 21
13.08661417322834
 31
0.0
  0
LINE
  5
2B69
330
1E
100
AcDbEntity
  8
7
100
AcDbLine
 10
2.201771653543307
 20
13.08661417322834
 30
0.0
 11
2.225393700787402
 21
13.08661417322834
 31
0.0
  0
LINE
  5
2B6A
330
1E
100
AcDbEntity
  8
7
100
AcDbLine
 10
3.308070866141733
 20
13.08661417322834
 30
0.0
 11
3.284448818897639
 21
13.08661417322834
 31
0.0
  0
LINE
  5
2B6B
330
1E
100
AcDbEntity
  8
7
100
AcDbLine
 10
3.209645669291339
 20
13.08661417322834
 30
0.0
 11
3.233267716535433
 21
13.08661417322834
 31
0.0
  0
LINE
  5
2B6C
330
1E
100
AcDbEntity
  8
7
100
AcDbLine
 10
4.552165354330711
 20
13.08661417322834
 30
0.0
 11
4.500984251968507
 21
13.08661417322834
 31
0.0
  0
LINE
  5
2B6D
330
1E
100
AcDbEntity
  8
7
100
AcDbLine
 10
-1.113188976377951
 20
13.08661417322834
 30
0.0
 11
-1.573818897637794
 21
13.08661417322834
 31
0.0
  0
LINE
  5
2B6E
330
1E
100
AcDbEntity
  8
7
100
AcDbLine
 10
0.9458661417322836
 20
13.08661417322834
 30
0.0
 11
0.9301181102362207
 21
13.08661417322834
 31
0.0
  0
LINE
  5
2B6F
330
1E
100
AcDbEntity
  8
7
100
AcDbLine
 10
2.10728346456693
 20
13.08661417322834
 30
0.0
 11
2.115157480314961
 21
13.08661417322834
 31
0.0
  0
LINE
  5
2B70
330
1E
100
AcDbEntity
  8
7
100
AcDbLine
 10
-4.231299212598424
 20
13.08661417322834
 30
0.0
 11
-4.282480314960627
 21
13.08661417322834
 31
0.0
  0
LINE
  5
2B71
330
1E
100
AcDbEntity
  8
7
100
AcDbLine
 10
-3.569881889763779
 20
13.08661417322834
 30
0.0
 11
-3.672244094488188
 21
13.08661417322834
 31
0.0
  0
LINE
  5
2B72
330
1E
100
AcDbEntity
  8
7
100
AcDbLine
 10
2.201771653543307
 20
13.08661417322834
 30
0.0
 11
2.300196850393702
 21
13.08661417322834
 31
0.0
  0
LINE
  5
2B73
330
1E
100
AcDbEntity
  8
7
100
AcDbLine
 10
0.3474409448818911
 20
13.08661417322834
 30
0.0
 11
0.3198818897637801
 21
13.08661417322834
 31
0.0
  0
LINE
  5
2B74
330
1E
100
AcDbEntity
  8
7
100
AcDbLine
 10
-5.294291338582675
 20
13.08661417322834
 30
0.0
 11
-5.754921259842518
 21
13.08661417322834
 31
0.0
  0
LINE
  5
2B75
330
1E
100
AcDbEntity
  8
7
100
AcDbLine
 10
-4.203740157480313
 20
13.08661417322834
 30
0.0
 11
-4.231299212598424
 21
13.08661417322834
 31
0.0
  0
LINE
  5
2B76
330
1E
100
AcDbEntity
  8
7
100
AcDbLine
 10
0.8356299212598429
 20
13.08661417322834
 30
0.0
 11
0.847440944881891
 21
13.08661417322834
 31
0.0
  0
LINE
  5
2B77
330
1E
100
AcDbEntity
  8
7
100
AcDbLine
 10
-6.231299212598424
 20
13.08661417322834
 30
0.0
 11
-6.719488188976376
 21
13.08661417322834
 31
0.0
  0
LINE
  5
2B78
330
1E
100
AcDbEntity
  8
7
100
AcDbLine
 10
1.623031496062993
 20
13.08661417322834
 30
0.0
 11
1.634842519685039
 21
13.08661417322834
 31
0.0
  0
LINE
  5
2B79
330
1E
100
AcDbEntity
  8
7
100
AcDbLine
 10
0.3198818897637801
 20
13.08661417322834
 30
0.0
 11
0.3474409448818911
 21
13.08661417322834
 31
0.0
  0
LINE
  5
2B7A
330
1E
100
AcDbEntity
  8
7
100
AcDbLine
 10
-4.306102362204724
 20
13.08661417322834
 30
0.0
 11
-4.282480314960627
 21
13.08661417322834
 31
0.0
  0
LINE
  5
2B7B
330
1E
100
AcDbEntity
  8
7
100
AcDbLine
 10
5.343503937007877
 20
13.08661417322834
 30
0.0
 11
4.882874015748033
 21
13.08661417322834
 31
0.0
  0
LINE
  5
2B7C
330
1E
100
AcDbEntity
  8
7
100
AcDbLine
 10
0.9694881889763781
 20
13.08661417322834
 30
0.0
 11
0.9458661417322836
 21
13.08661417322834
 31
0.0
  0
LINE
  5
2B7D
330
1E
100
AcDbEntity
  8
7
100
AcDbLine
 10
6.776574803149607
 20
13.08661417322834
 30
0.0
 11
6.752952755905514
 21
13.08661417322834
 31
0.0
  0
LINE
  5
2B7E
330
1E
100
AcDbEntity
  8
7
100
AcDbLine
 10
9.099409448818899
 20
13.08661417322834
 30
0.0
 11
9.130905511811025
 21
13.08661417322834
 31
0.0
  0
LINE
  5
2B7F
330
1E
100
AcDbEntity
  8
7
100
AcDbLine
 10
6.650590551181103
 20
13.08661417322834
 30
0.0
 11
6.682086614173229
 21
13.08661417322834
 31
0.0
  0
LINE
  5
2B80
330
1E
100
AcDbEntity
  8
7
100
AcDbLine
 10
8.12696850393701
 20
13.08661417322834
 30
0.0
 11
8.142716535433073
 21
13.08661417322834
 31
0.0
  0
LINE
  5
2B81
330
1E
100
AcDbEntity
  8
7
100
AcDbLine
 10
10.83956692913385
 20
13.08661417322834
 30
0.0
 11
10.89074803149606
 21
13.08661417322834
 31
0.0
  0
LINE
  5
2B82
330
1E
100
AcDbEntity
  8
7
100
AcDbLine
 10
6.21751968503937
 20
13.08661417322834
 30
0.0
 11
6.119094488188977
 21
13.08661417322834
 31
0.0
  0
LINE
  5
2B83
330
1E
100
AcDbEntity
  8
7
100
AcDbLine
 10
8.142716535433073
 20
13.08661417322834
 30
0.0
 11
8.12696850393701
 21
13.08661417322834
 31
0.0
  0
LINE
  5
2B84
330
1E
100
AcDbEntity
  8
7
100
AcDbLine
 10
8.103346456692914
 20
13.08661417322834
 30
0.0
 11
8.079724409448822
 21
13.08661417322834
 31
0.0
  0
LINE
  5
2B85
330
1E
100
AcDbEntity
  8
7
100
AcDbLine
 10
6.024606299212599
 20
13.08661417322834
 30
0.0
 11
6.032480314960633
 21
13.08661417322834
 31
0.0
  0
LINE
  5
2B86
330
1E
100
AcDbEntity
  8
7
100
AcDbLine
 10
8.052165354330711
 20
13.08661417322834
 30
0.0
 11
8.040354330708662
 21
13.08661417322834
 31
0.0
  0
LINE
  5
2B87
330
1E
100
AcDbEntity
  8
7
100
AcDbLine
 10
10.81594488188976
 20
13.08661417322834
 30
0.0
 11
10.83956692913385
 21
13.08661417322834
 31
0.0
  0
LINE
  5
2B88
330
1E
100
AcDbEntity
  8
7
100
AcDbLine
 10
4.552165354330711
 20
13.08661417322834
 30
0.0
 11
4.579724409448822
 21
13.08661417322834
 31
0.0
  0
LINE
  5
2B89
330
1E
100
AcDbEntity
  8
7
100
AcDbLine
 10
7.489173228346459
 20
13.08661417322834
 30
0.0
 11
7.465551181102362
 21
13.08661417322834
 31
0.0
  0
LINE
  5
2B8A
330
1E
100
AcDbEntity
  8
7
100
AcDbLine
 10
7.79232283464567
 20
13.08661417322834
 30
0.0
 11
8.252952755905514
 21
13.08661417322834
 31
0.0
  0
LINE
  5
2B8B
330
1E
100
AcDbEntity
  8
7
100
AcDbLine
 10
9.682086614173229
 20
13.08661417322834
 30
0.0
 11
9.705708661417325
 21
13.08661417322834
 31
0.0
  0
LINE
  5
2B8C
330
1E
100
AcDbEntity
  8
7
100
AcDbLine
 10
11.78051181102362
 20
13.08661417322834
 30
0.0
 11
11.83562992125984
 21
13.08661417322834
 31
0.0
  0
LINE
  5
2B8D
330
1E
100
AcDbEntity
  8
7
100
AcDbLine
 10
7.288385826771655
 20
13.08661417322834
 30
0.0
 11
7.319881889763781
 21
13.08661417322834
 31
0.0
  0
LINE
  5
2B8E
330
1E
100
AcDbEntity
  8
7
100
AcDbLine
 10
3.233267716535433
 20
13.08661417322834
 30
0.0
 11
3.205708661417322
 21
13.08661417322834
 31
0.0
  0
LINE
  5
2B8F
330
1E
100
AcDbEntity
  8
7
100
AcDbLine
 10
1.020669291338583
 20
13.08661417322834
 30
0.0
 11
1.03248031496063
 21
13.08661417322834
 31
0.0
  0
LINE
  5
2B90
330
1E
100
AcDbEntity
  8
7
100
AcDbLine
 10
3.284448818897639
 20
13.08661417322834
 30
0.0
 11
3.233267716535433
 21
13.08661417322834
 31
0.0
  0
LINE
  5
2B91
330
1E
100
AcDbEntity
  8
7
100
AcDbLine
 10
0.9340551181102373
 20
13.08661417322834
 30
0.0
 11
0.9458661417322836
 21
13.08661417322834
 31
0.0
  0
LINE
  5
2B92
330
1E
100
AcDbEntity
  8
7
100
AcDbLine
 10
1.796259842519685
 20
13.08661417322834
 30
0.0
 11
1.335629921259843
 21
13.08661417322834
 31
0.0
  0
LINE
  5
2B93
330
1E
100
AcDbEntity
  8
7
100
AcDbLine
 10
-1.928149606299212
 20
13.08661417322834
 30
0.0
 11
-1.955708661417321
 21
13.08661417322834
 31
0.0
  0
LINE
  5
2B94
330
1E
100
AcDbEntity
  8
7
100
AcDbLine
 10
-4.939960629921257
 20
13.08661417322834
 30
0.0
 11
-4.916338582677164
 21
13.08661417322834
 31
0.0
  0
LINE
  5
2B95
330
1E
100
AcDbEntity
  8
7
100
AcDbLine
 10
-4.841535433070864
 20
13.08661417322834
 30
0.0
 11
-4.939960629921257
 21
13.08661417322834
 31
0.0
  0
LINE
  5
2B96
330
1E
100
AcDbEntity
  8
7
100
AcDbLine
 10
-0.7352362204724403
 20
13.08661417322834
 30
0.0
 11
-0.6840551181102348
 21
13.08661417322834
 31
0.0
  0
LINE
  5
2B97
330
1E
100
AcDbEntity
  8
7
100
AcDbLine
 10
1.489173228346457
 20
13.08661417322834
 30
0.0
 11
1.497047244094489
 21
13.08661417322834
 31
0.0
  0
LINE
  5
2B98
330
1E
100
AcDbEntity
  8
7
100
AcDbLine
 10
4.500984251968507
 20
13.08661417322834
 30
0.0
 11
4.477362204724411
 21
13.08661417322834
 31
0.0
  0
LINE
  5
2B99
330
1E
100
AcDbEntity
  8
7
100
AcDbLine
 10
-0.6604330708661404
 20
13.08661417322834
 30
0.0
 11
-0.6840551181102348
 21
13.08661417322834
 31
0.0
  0
LINE
  5
2B9A
330
1E
100
AcDbEntity
  8
7
100
AcDbLine
 10
-2.664370078740156
 20
13.08661417322834
 30
0.0
 11
-2.640748031496062
 21
13.08661417322834
 31
0.0
  0
LINE
  5
2B9B
330
1E
100
AcDbEntity
  8
7
100
AcDbLine
 10
-0.7588582677165348
 20
13.08661417322834
 30
0.0
 11
-0.7352362204724403
 21
13.08661417322834
 31
0.0
  0
LINE
  5
2B9C
330
1E
100
AcDbEntity
  8
7
100
AcDbLine
 10
3.741141732283465
 20
13.08661417322834
 30
0.0
 11
3.772637795275591
 21
13.08661417322834
 31
0.0
  0
LINE
  5
2B9D
330
1E
100
AcDbEntity
  8
7
100
AcDbLine
 10
-2.640748031496062
 20
13.08661417322834
 30
0.0
 11
-2.589566929133856
 21
13.08661417322834
 31
0.0
  0
LINE
  5
2B9E
330
1E
100
AcDbEntity
  8
7
100
AcDbLine
 10
-2.211614173228345
 20
13.08661417322834
 30
0.0
 11
-1.750984251968503
 21
13.08661417322834
 31
0.0
  0
LINE
  5
2B9F
330
1E
100
AcDbEntity
  8
7
100
AcDbLine
 10
-2.006889763779527
 20
13.08661417322834
 30
0.0
 11
-2.030511811023621
 21
13.08661417322834
 31
0.0
  0
LINE
  5
2BA0
330
1E
100
AcDbEntity
  8
7
100
AcDbLine
 10
6.776574803149607
 20
13.08661417322834
 30
0.0
 11
6.752952755905514
 21
13.08661417322834
 31
0.0
  0
LINE
  5
2BA1
330
1E
100
AcDbEntity
  8
7
100
AcDbLine
 10
8.930118110236222
 20
13.08661417322834
 30
0.0
 11
9.028543307086614
 21
13.08661417322834
 31
0.0
  0
LINE
  5
2BA2
330
1E
100
AcDbEntity
  8
7
100
AcDbLine
 10
5.138779527559055
 20
13.08661417322834
 30
0.0
 11
5.189960629921262
 21
13.08661417322834
 31
0.0
  0
LINE
  5
2BA3
330
1E
100
AcDbEntity
  8
7
100
AcDbLine
 10
0.0679133858267727
 20
13.08661417322834
 30
0.0
 11
0.5246062992125986
 21
13.08661417322834
 31
0.0
  0
LINE
  5
2BA4
330
1E
100
AcDbEntity
  8
7
100
AcDbLine
 10
10.33956692913385
 20
13.08661417322834
 30
0.0
 11
10.39074803149606
 21
13.08661417322834
 31
0.0
  0
LINE
  5
2BA5
330
1E
100
AcDbEntity
  8
7
100
AcDbLine
 10
9.894685039370081
 20
13.08661417322834
 30
0.0
 11
9.434055118110237
 21
13.08661417322834
 31
0.0
  0
LINE
  5
2BA6
330
1E
100
AcDbEntity
  8
7
100
AcDbLine
 10
8.052165354330711
 20
13.08661417322834
 30
0.0
 11
8.079724409448822
 21
13.08661417322834
 31
0.0
  0
LINE
  5
2BA7
330
1E
100
AcDbEntity
  8
7
100
AcDbLine
 10
9.434055118110237
 20
13.08661417322834
 30
0.0
 11
9.894685039370081
 21
13.08661417322834
 31
0.0
  0
LINE
  5
2BA8
330
1E
100
AcDbEntity
  8
7
100
AcDbLine
 10
5.189960629921262
 20
13.08661417322834
 30
0.0
 11
5.138779527559055
 21
13.08661417322834
 31
0.0
  0
LINE
  5
2BA9
330
1E
100
AcDbEntity
  8
7
100
AcDbLine
 10
8.103346456692914
 20
13.08661417322834
 30
0.0
 11
8.12696850393701
 21
13.08661417322834
 31
0.0
  0
LINE
  5
2BAA
330
1E
100
AcDbEntity
  8
7
100
AcDbLine
 10
10.39074803149606
 20
13.08661417322834
 30
0.0
 11
10.35531496062992
 21
13.08661417322834
 31
0.0
  0
LINE
  5
2BAB
330
1E
100
AcDbEntity
  8
7
100
AcDbLine
 10
9.260826771653544
 20
13.08661417322834
 30
0.0
 11
8.800196850393703
 21
13.08661417322834
 31
0.0
  0
LINE
  5
2BAC
330
1E
100
AcDbEntity
  8
7
100
AcDbLine
 10
7.981299212598425
 20
13.08661417322834
 30
0.0
 11
8.004921259842522
 21
13.08661417322834
 31
0.0
  0
LINE
  5
2BAD
330
1E
100
AcDbEntity
  8
7
100
AcDbLine
 10
8.800196850393703
 20
13.08661417322834
 30
0.0
 11
9.260826771653544
 21
13.08661417322834
 31
0.0
  0
LINE
  5
2BAE
330
1E
100
AcDbEntity
  8
7
100
AcDbLine
 10
4.477362204724411
 20
13.08661417322834
 30
0.0
 11
4.500984251968507
 21
13.08661417322834
 31
0.0
  0
LINE
  5
2BAF
330
1E
100
AcDbEntity
  8
7
100
AcDbLine
 10
7.390748031496066
 20
13.08661417322834
 30
0.0
 11
7.414370078740159
 21
13.08661417322834
 31
0.0
  0
LINE
  5
2BB0
330
1E
100
AcDbEntity
  8
7
100
AcDbLine
 10
7.906496062992129
 20
13.08661417322834
 30
0.0
 11
8.004921259842522
 21
13.08661417322834
 31
0.0
  0
LINE
  5
2BB1
330
1E
100
AcDbEntity
  8
7
100
AcDbLine
 10
9.548228346456696
 20
13.08661417322834
 30
0.0
 11
9.571850393700788
 21
13.08661417322834
 31
0.0
  0
LINE
  5
2BB2
330
1E
100
AcDbEntity
  8
7
100
AcDbLine
 10
11.93405511811023
 20
13.08661417322834
 30
0.0
 11
11.95374015748031
 21
13.08661417322834
 31
0.0
  0
LINE
  5
2BB3
330
1E
100
AcDbEntity
  8
7
100
AcDbLine
 10
7.414370078740159
 20
13.08661417322834
 30
0.0
 11
7.390748031496066
 21
13.08661417322834
 31
0.0
  0
LINE
  5
2BB4
330
1E
100
AcDbEntity
  8
7
100
AcDbLine
 10
-3.849409448818896
 20
13.08661417322834
 30
0.0
 11
-3.392716535433069
 21
13.08661417322834
 31
0.0
  0
LINE
  5
2BB5
330
1E
100
AcDbEntity
  8
7
100
AcDbLine
 10
-2.030511811023621
 20
13.08661417322834
 30
0.0
 11
-2.006889763779527
 21
13.08661417322834
 31
0.0
  0
LINE
  5
2BB6
330
1E
100
AcDbEntity
  8
7
100
AcDbLine
 10
4.382874015748033
 20
13.08661417322834
 30
0.0
 11
4.390748031496066
 21
13.08661417322834
 31
0.0
  0
LINE
  5
2BB7
330
1E
100
AcDbEntity
  8
7
100
AcDbLine
 10
4.579724409448822
 20
13.08661417322834
 30
0.0
 11
4.552165354330711
 21
13.08661417322834
 31
0.0
  0
LINE
  5
2BB8
330
1E
100
AcDbEntity
  8
7
100
AcDbLine
 10
-0.7588582677165348
 20
13.08661417322834
 30
0.0
 11
-0.7352362204724403
 21
13.08661417322834
 31
0.0
  0
LINE
  5
2BB9
330
1E
100
AcDbEntity
  8
7
100
AcDbLine
 10
0.3198818897637801
 20
13.08661417322834
 30
0.0
 11
0.3474409448818911
 21
13.08661417322834
 31
0.0
  0
LINE
  5
2BBA
330
1E
100
AcDbEntity
  8
7
100
AcDbLine
 10
-4.231299212598424
 20
13.08661417322834
 30
0.0
 11
-4.203740157480313
 21
13.08661417322834
 31
0.0
  0
LINE
  5
2BBB
330
1E
100
AcDbEntity
  8
7
100
AcDbLine
 10
-1.573818897637794
 20
13.08661417322834
 30
0.0
 11
-1.113188976377951
 21
13.08661417322834
 31
0.0
  0
LINE
  5
2BBC
330
1E
100
AcDbEntity
  8
7
100
AcDbLine
 10
-0.6604330708661404
 20
13.08661417322834
 30
0.0
 11
-0.6840551181102348
 21
13.08661417322834
 31
0.0
  0
LINE
  5
2BBD
330
1E
100
AcDbEntity
  8
7
100
AcDbLine
 10
-0.4793307086614163
 20
13.08661417322834
 30
0.0
 11
-0.9399606299212589
 21
13.08661417322834
 31
0.0
  0
LINE
  5
2BBE
330
1E
100
AcDbEntity
  8
7
100
AcDbLine
 10
0.2726377952755912
 20
13.08661417322834
 30
0.0
 11
0.3198818897637801
 21
13.08661417322834
 31
0.0
  0
LINE
  5
2BBF
330
1E
100
AcDbEntity
  8
7
100
AcDbLine
 10
-0.6840551181102348
 20
13.08661417322834
 30
0.0
 11
-0.6604330708661404
 21
13.08661417322834
 31
0.0
  0
LINE
  5
2BC0
330
1E
100
AcDbEntity
  8
7
100
AcDbLine
 10
-0.7352362204724403
 20
13.08661417322834
 30
0.0
 11
-0.6840551181102348
 21
13.08661417322834
 31
0.0
  0
LINE
  5
2BC1
330
1E
100
AcDbEntity
  8
7
100
AcDbLine
 10
0.9931102362204725
 20
13.08661417322834
 30
0.0
 11
1.020669291338583
 21
13.08661417322834
 31
0.0
  0
LINE
  5
2BC2
330
1E
100
AcDbEntity
  8
7
100
AcDbLine
 10
2.300196850393702
 20
13.08661417322834
 30
0.0
 11
2.201771653543307
 21
13.08661417322834
 31
0.0
  0
LINE
  5
2BC3
330
1E
100
AcDbEntity
  8
7
100
AcDbLine
 10
3.233267716535433
 20
13.08661417322834
 30
0.0
 11
3.284448818897639
 21
13.08661417322834
 31
0.0
  0
LINE
  5
2BC4
330
1E
100
AcDbEntity
  8
7
100
AcDbLine
 10
0.5246062992125986
 20
13.08661417322834
 30
0.0
 11
0.0679133858267727
 21
13.08661417322834
 31
0.0
  0
LINE
  5
2BC5
330
1E
100
AcDbEntity
  8
7
100
AcDbLine
 10
0.3198818897637801
 20
13.08661417322834
 30
0.0
 11
0.2726377952755912
 21
13.08661417322834
 31
0.0
  0
LINE
  5
2BC6
330
1E
100
AcDbEntity
  8
7
100
AcDbLine
 10
-5.754921259842518
 20
13.4763779527559
 30
0.0
 11
-5.943897637795274
 21
13.4763779527559
 31
0.0
  0
LINE
  5
2BCC
330
1E
100
AcDbEntity
  8
7
100
AcDbLine
 10
11.59547244094488
 20
13.08661417322834
 30
0.0
 11
12.14271653543307
 21
13.08661417322834
 31
0.0
  0
LINE
  5
2BD8
330
1E
100
AcDbEntity
  8
7
100
AcDbLine
 10
11.51673228346457
 20
13.08661417322834
 30
0.0
 11
11.53248031496063
 21
13.08661417322834
 31
0.0
  0
LINE
  5
2BE3
330
1E
100
AcDbEntity
  8
7
100
AcDbLine
 10
-6.735236220472438
 20
13.08661417322834
 30
0.0
 11
-6.184055118110235
 21
13.08661417322834
 31
0.0
  0
LINE
  5
2BEE
330
1E
100
AcDbEntity
  8
7
100
AcDbLine
 10
-6.184055118110235
 20
13.12992125984252
 30
0.0
 11
-6.735236220472438
 21
13.12992125984252
 31
0.0
  0
LINE
  5
2BFE
330
1E
100
AcDbEntity
  8
7
100
AcDbLine
 10
11.43011811023622
 20
13.12992125984252
 30
0.0
 11
11.41437007874015
 21
13.12992125984252
 31
0.0
  0
LINE
  5
2C04
330
1E
100
AcDbEntity
  8
7
100
AcDbLine
 10
12.14271653543307
 20
13.12992125984252
 30
0.0
 11
11.59547244094488
 21
13.12992125984252
 31
0.0
  0
LINE
  5
2C0A
330
1E
100
AcDbEntity
  8
7
100
AcDbLine
 10
-6.794291338582675
 20
13.08661417322834
 30
0.0
 11
-6.794291338582675
 21
13.12992125984252
 31
0.0
  0
LINE
  5
2C0B
330
1E
100
AcDbEntity
  8
7
100
AcDbLine
 10
-6.124999999999998
 20
13.12992125984252
 30
0.0
 11
-6.124999999999998
 21
13.08661417322834
 31
0.0
  0
LINE
  5
2C0C
330
1E
100
AcDbEntity
  8
7
100
AcDbLine
 10
-6.184055118110235
 20
13.08661417322834
 30
0.0
 11
-6.184055118110235
 21
13.12992125984252
 31
0.0
  0
LINE
  5
2C0D
330
1E
100
AcDbEntity
  8
7
100
AcDbLine
 10
-6.735236220472438
 20
13.12992125984252
 30
0.0
 11
-6.735236220472438
 21
13.08661417322834
 31
0.0
  0
LINE
  5
2C14
330
1E
100
AcDbEntity
  8
7
100
AcDbLine
 10
11.35531496062992
 20
13.4763779527559
 30
0.0
 11
11.16240157480315
 21
13.4763779527559
 31
0.0
  0
LINE
  5
2C28
330
1E
100
AcDbEntity
  8
7
100
AcDbLine
 10
-5.754921259842518
 20
13.4763779527559
 30
0.0
 11
-5.754921259842518
 21
13.90944881889764
 31
0.0
  0
LINE
  5
2C7A
330
1E
100
AcDbEntity
  8
7
100
AcDbLine
 10
-3.774606299212596
 20
13.86220472440945
 30
0.0
 11
-3.774606299212596
 21
13.64173228346456
 31
0.0
  0
LINE
  5
2C82
330
1E
100
AcDbEntity
  8
7
100
AcDbLine
 10
12.14271653543307
 20
13.08661417322834
 30
0.0
 11
12.14271653543307
 21
13.12992125984252
 31
0.0
  0
LINE
  5
2C83
330
1E
100
AcDbEntity
  8
7
100
AcDbLine
 10
11.59547244094488
 20
13.12992125984252
 30
0.0
 11
11.59547244094488
 21
13.08661417322834
 31
0.0
  0
LINE
  5
2C84
330
1E
100
AcDbEntity
  8
7
100
AcDbLine
 10
11.41437007874015
 20
13.16141732283464
 30
0.0
 11
11.41437007874015
 21
13.11023622047244
 31
0.0
  0
LINE
  5
2C85
330
1E
100
AcDbEntity
  8
7
100
AcDbLine
 10
11.41437007874015
 20
13.11023622047244
 30
0.0
 11
11.41437007874015
 21
13.08661417322834
 31
0.0
  0
LINE
  5
2C86
330
1E
100
AcDbEntity
  8
7
100
AcDbLine
 10
11.53248031496063
 20
13.08661417322834
 30
0.0
 11
11.53248031496063
 21
13.12992125984252
 31
0.0
  0
LINE
  5
2C87
330
1E
100
AcDbEntity
  8
7
100
AcDbLine
 10
12.20570866141732
 20
13.12992125984252
 30
0.0
 11
12.20570866141732
 21
13.08661417322834
 31
0.0
  0
LINE
  5
2C8D
330
1E
100
AcDbEntity
  8
7
100
AcDbLine
 10
-5.148622047244094
 20
14.08661417322834
 30
0.0
 11
-3.999015748031494
 21
14.08661417322834
 31
0.0
  0
LINE
  5
2C8E
330
1E
100
AcDbEntity
  8
7
100
AcDbLine
 10
-3.719488188976377
 20
14.08661417322834
 30
0.0
 11
-3.191929133858266
 21
14.08661417322834
 31
0.0
  0
LINE
  5
2C8F
330
1E
100
AcDbEntity
  8
7
100
AcDbLine
 10
-3.124999999999999
 20
14.08661417322834
 30
0.0
 11
-3.191929133858266
 21
14.08661417322834
 31
0.0
  0
LINE
  5
2C90
330
1E
100
AcDbEntity
  8
7
100
AcDbLine
 10
-6.022637795275588
 20
14.08661417322834
 30
0.0
 11
-5.951771653543305
 21
14.08661417322834
 31
0.0
  0
LINE
  5
2C96
330
1E
100
AcDbEntity
  8
7
100
AcDbLine
 10
-5.361220472440942
 20
13.82283464566929
 30
0.0
 11
-5.365157480314959
 21
13.85433070866141
 31
0.0
  0
LINE
  5
2C97
330
1E
100
AcDbEntity
  8
7
100
AcDbLine
 10
-5.361220472440942
 20
13.82283464566929
 30
0.0
 11
-5.215551181102361
 21
13.82283464566929
 31
0.0
  0
LINE
  5
2C98
330
1E
100
AcDbEntity
  8
7
100
AcDbLine
 10
-5.211614173228346
 20
13.85433070866141
 30
0.0
 11
-5.215551181102361
 21
13.82283464566929
 31
0.0
  0
LINE
  5
2C99
330
1E
100
AcDbEntity
  8
7
100
AcDbLine
 10
-5.365157480314959
 20
13.85433070866141
 30
0.0
 11
-5.211614173228346
 21
13.85433070866141
 31
0.0
  0
LINE
  5
2C9A
330
1E
100
AcDbEntity
  8
7
100
AcDbLine
 10
-5.365157480314959
 20
13.85433070866141
 30
0.0
 11
-5.211614173228346
 21
13.85433070866141
 31
0.0
  0
LINE
  5
2C9B
330
1E
100
AcDbEntity
  8
7
100
AcDbLine
 10
-5.215551181102361
 20
13.82283464566929
 30
0.0
 11
-5.215551181102361
 21
13.64173228346456
 31
0.0
  0
LINE
  5
2C9C
330
1E
100
AcDbEntity
  8
7
100
AcDbLine
 10
-5.361220472440942
 20
13.64173228346456
 30
0.0
 11
-5.361220472440942
 21
13.82283464566929
 31
0.0
  0
LINE
  5
2C9D
330
1E
100
AcDbEntity
  8
7
100
AcDbLine
 10
-5.37303149606299
 20
13.85433070866141
 30
0.0
 11
-5.365157480314959
 21
13.85433070866141
 31
0.0
  0
LINE
  5
2C9E
330
1E
100
AcDbEntity
  8
7
100
AcDbLine
 10
-5.211614173228346
 20
13.85433070866141
 30
0.0
 11
-5.203740157480313
 21
13.85433070866141
 31
0.0
  0
LINE
  5
2C9F
330
1E
100
AcDbEntity
  8
7
100
AcDbLine
 10
-5.144685039370077
 20
14.07086614173228
 30
0.0
 11
-5.140748031496061
 21
13.96850393700787
 31
0.0
  0
LINE
  5
2CA5
330
1E
100
AcDbEntity
  8
7
100
AcDbLine
 10
-5.37303149606299
 20
14.12992125984252
 30
0.0
 11
-5.203740157480313
 21
14.12992125984252
 31
0.0
  0
LINE
  5
2CAB
330
1E
100
AcDbEntity
  8
7
100
AcDbLine
 10
-5.436023622047242
 20
13.96850393700787
 30
0.0
 11
-5.432086614173227
 21
14.07086614173228
 31
0.0
  0
LINE
  5
2CAC
330
1E
100
AcDbEntity
  8
7
100
AcDbLine
 10
-3.774606299212596
 20
13.85433070866141
 30
0.0
 11
-3.782480314960628
 21
13.85433070866141
 31
0.0
  0
LINE
  5
2CAD
330
1E
100
AcDbEntity
  8
7
100
AcDbLine
 10
-3.932086614173226
 20
13.85433070866141
 30
0.0
 11
-3.943897637795274
 21
13.85433070866141
 31
0.0
  0
LINE
  5
2CAE
330
1E
100
AcDbEntity
  8
7
100
AcDbLine
 10
-6.018700787401572
 20
13.94881889763779
 30
0.0
 11
-5.739173228346455
 21
13.94881889763779
 31
0.0
  0
LINE
  5
2CAF
330
1E
100
AcDbEntity
  8
7
100
AcDbLine
 10
-5.94783464566929
 20
13.96456692913385
 30
0.0
 11
-5.719488188976376
 21
13.96456692913385
 31
0.0
  0
LINE
  5
2CB0
330
1E
100
AcDbEntity
  8
7
100
AcDbLine
 10
-3.195866141732282
 20
13.96850393700787
 30
0.0
 11
-3.191929133858266
 21
14.08661417322834
 31
0.0
  0
LINE
  5
2CB1
330
1E
100
AcDbEntity
  8
7
100
AcDbLine
 10
-3.128937007874014
 20
13.96850393700787
 30
0.0
 11
-3.124999999999999
 21
14.08661417322834
 31
0.0
  0
LINE
  5
2CB8
330
1E
100
AcDbEntity
  8
7
100
AcDbLine
 10
-3.782480314960628
 20
13.82283464566929
 30
0.0
 11
-3.932086614173226
 21
13.82283464566929
 31
0.0
  0
LINE
  5
2CB9
330
1E
100
AcDbEntity
  8
7
100
AcDbLine
 10
-3.782480314960628
 20
13.85433070866141
 30
0.0
 11
-3.932086614173226
 21
13.85433070866141
 31
0.0
  0
LINE
  5
2CBA
330
1E
100
AcDbEntity
  8
7
100
AcDbLine
 10
-3.932086614173226
 20
13.82283464566929
 30
0.0
 11
-3.928149606299211
 21
13.64173228346456
 31
0.0
  0
LINE
  5
2CBB
330
1E
100
AcDbEntity
  8
7
100
AcDbLine
 10
-3.786417322834643
 20
13.64173228346456
 30
0.0
 11
-3.782480314960628
 21
13.82283464566929
 31
0.0
  0
LINE
  5
2CBC
330
1E
100
AcDbEntity
  8
7
100
AcDbLine
 10
-3.707677165354329
 20
13.96850393700787
 30
0.0
 11
-3.71555118110236
 21
14.07086614173228
 31
0.0
  0
LINE
  5
2CC2
330
1E
100
AcDbEntity
  8
7
100
AcDbLine
 10
-3.774606299212596
 20
14.12992125984252
 30
0.0
 11
-3.943897637795274
 21
14.12992125984252
 31
0.0
  0
LINE
  5
2CC8
330
1E
100
AcDbEntity
  8
7
100
AcDbLine
 10
-4.002952755905509
 20
14.07086614173228
 30
0.0
 11
-4.006889763779525
 21
13.96850393700787
 31
0.0
  0
LINE
  5
2CCE
330
1E
100
AcDbEntity
  8
7
100
AcDbLine
 10
-2.23523622047244
 20
14.08661417322834
 30
0.0
 11
-1.089566929133856
 21
14.08661417322834
 31
0.0
  0
LINE
  5
2CCF
330
1E
100
AcDbEntity
  8
7
100
AcDbLine
 10
-0.8061023622047237
 20
14.08661417322834
 30
0.0
 11
-0.2824803149606292
 21
14.08661417322834
 31
0.0
  0
LINE
  5
2CD0
330
1E
100
AcDbEntity
  8
7
100
AcDbLine
 10
-0.2116141732283459
 20
14.08661417322834
 30
0.0
 11
-0.2824803149606292
 21
14.08661417322834
 31
0.0
  0
LINE
  5
2CD1
330
1E
100
AcDbEntity
  8
7
100
AcDbLine
 10
-3.113188976377951
 20
14.08661417322834
 30
0.0
 11
-3.042322834645668
 21
14.08661417322834
 31
0.0
  0
LINE
  5
2CD2
330
1E
100
AcDbEntity
  8
7
100
AcDbLine
 10
-3.109251968503936
 20
13.96850393700787
 30
0.0
 11
-3.113188976377951
 21
14.08661417322834
 31
0.0
  0
LINE
  5
2CD3
330
1E
100
AcDbEntity
  8
7
100
AcDbLine
 10
-2.451771653543306
 20
13.82283464566929
 30
0.0
 11
-2.451771653543306
 21
13.85433070866141
 31
0.0
  0
LINE
  5
2CD4
330
1E
100
AcDbEntity
  8
7
100
AcDbLine
 10
-2.451771653543306
 20
13.82283464566929
 30
0.0
 11
-2.302165354330708
 21
13.82283464566929
 31
0.0
  0
LINE
  5
2CD5
330
1E
100
AcDbEntity
  8
7
100
AcDbLine
 10
-2.302165354330708
 20
13.85433070866141
 30
0.0
 11
-2.302165354330708
 21
13.82283464566929
 31
0.0
  0
LINE
  5
2CD6
330
1E
100
AcDbEntity
  8
7
100
AcDbLine
 10
-2.451771653543306
 20
13.85433070866141
 30
0.0
 11
-2.302165354330708
 21
13.85433070866141
 31
0.0
  0
LINE
  5
2CD7
330
1E
100
AcDbEntity
  8
7
100
AcDbLine
 10
-2.451771653543306
 20
13.85433070866141
 30
0.0
 11
-2.302165354330708
 21
13.85433070866141
 31
0.0
  0
LINE
  5
2CD8
330
1E
100
AcDbEntity
  8
7
100
AcDbLine
 10
-2.302165354330708
 20
13.82283464566929
 30
0.0
 11
-2.306102362204723
 21
13.64173228346456
 31
0.0
  0
LINE
  5
2CD9
330
1E
100
AcDbEntity
  8
7
100
AcDbLine
 10
-2.44783464566929
 20
13.64173228346456
 30
0.0
 11
-2.451771653543306
 21
13.82283464566929
 31
0.0
  0
LINE
  5
2CDA
330
1E
100
AcDbEntity
  8
7
100
AcDbLine
 10
-2.463582677165353
 20
13.85433070866141
 30
0.0
 11
-2.451771653543306
 21
13.85433070866141
 31
0.0
  0
LINE
  5
2CDB
330
1E
100
AcDbEntity
  8
7
100
AcDbLine
 10
-2.302165354330708
 20
13.85433070866141
 30
0.0
 11
-2.29035433070866
 21
13.85433070866141
 31
0.0
  0
LINE
  5
2CDC
330
1E
100
AcDbEntity
  8
7
100
AcDbLine
 10
-2.23523622047244
 20
14.07086614173228
 30
0.0
 11
-2.227362204724408
 21
13.96850393700787
 31
0.0
  0
LINE
  5
2CDD
330
1E
100
AcDbEntity
  8
7
100
AcDbLine
 10
-2.23523622047244
 20
14.07086614173228
 30
0.0
 11
-2.250984251968503
 21
14.11023622047244
 31
0.0
  0
LINE
  5
2CDE
330
1E
100
AcDbEntity
  8
7
100
AcDbLine
 10
-2.250984251968503
 20
14.11023622047244
 30
0.0
 11
-2.294291338582677
 21
14.12992125984252
 31
0.0
  0
LINE
  5
2CDF
330
1E
100
AcDbEntity
  8
7
100
AcDbLine
 10
-2.459645669291338
 20
14.12992125984252
 30
0.0
 11
-2.294291338582677
 21
14.12992125984252
 31
0.0
  0
LINE
  5
2CE5
330
1E
100
AcDbEntity
  8
7
100
AcDbLine
 10
-2.526574803149605
 20
13.96850393700787
 30
0.0
 11
-2.52263779527559
 21
14.07086614173228
 31
0.0
  0
LINE
  5
2CE6
330
1E
100
AcDbEntity
  8
7
100
AcDbLine
 10
-0.8612204724409441
 20
13.85433070866141
 30
0.0
 11
-0.8730314960629922
 21
13.85433070866141
 31
0.0
  0
LINE
  5
2CE7
330
1E
100
AcDbEntity
  8
7
100
AcDbLine
 10
-1.02263779527559
 20
13.85433070866141
 30
0.0
 11
-1.030511811023621
 21
13.85433070866141
 31
0.0
  0
LINE
  5
2CE8
330
1E
100
AcDbEntity
  8
7
100
AcDbLine
 10
-0.2864173228346458
 20
13.96850393700787
 30
0.0
 11
-0.2824803149606292
 21
14.08661417322834
 31
0.0
  0
LINE
  5
2CE9
330
1E
100
AcDbEntity
  8
7
100
AcDbLine
 10
-0.2155511811023607
 20
13.96850393700787
 30
0.0
 11
-0.2116141732283459
 21
14.08661417322834
 31
0.0
  0
LINE
  5
2CF0
330
1E
100
AcDbEntity
  8
7
100
AcDbLine
 10
-0.8730314960629922
 20
13.82283464566929
 30
0.0
 11
-1.02263779527559
 21
13.82283464566929
 31
0.0
  0
LINE
  5
2CF1
330
1E
100
AcDbEntity
  8
7
100
AcDbLine
 10
-0.8730314960629922
 20
13.85433070866141
 30
0.0
 11
-1.02263779527559
 21
13.85433070866141
 31
0.0
  0
LINE
  5
2CF2
330
1E
100
AcDbEntity
  8
7
100
AcDbLine
 10
-1.02263779527559
 20
13.82283464566929
 30
0.0
 11
-1.018700787401573
 21
13.64173228346456
 31
0.0
  0
LINE
  5
2CF3
330
1E
100
AcDbEntity
  8
7
100
AcDbLine
 10
-0.876968503937007
 20
13.64173228346456
 30
0.0
 11
-0.8730314960629922
 21
13.82283464566929
 31
0.0
  0
LINE
  5
2CF4
330
1E
100
AcDbEntity
  8
7
100
AcDbLine
 10
-0.7982283464566922
 20
13.96850393700787
 30
0.0
 11
-0.8021653543307088
 21
14.07086614173228
 31
0.0
  0
LINE
  5
2CFA
330
1E
100
AcDbEntity
  8
7
100
AcDbLine
 10
-0.8651574803149607
 20
14.12992125984252
 30
0.0
 11
-1.030511811023621
 21
14.12992125984252
 31
0.0
  0
LINE
  5
2D00
330
1E
100
AcDbEntity
  8
7
100
AcDbLine
 10
-1.089566929133856
 20
14.07086614173228
 30
0.0
 11
-1.097440944881888
 21
13.96850393700787
 31
0.0
  0
LINE
  5
2D06
330
1E
100
AcDbEntity
  8
7
100
AcDbLine
 10
0.6742125984251968
 20
14.08661417322834
 30
0.0
 11
1.823818897637796
 21
14.08661417322834
 31
0.0
  0
LINE
  5
2D07
330
1E
100
AcDbEntity
  8
7
100
AcDbLine
 10
2.103346456692913
 20
14.08661417322834
 30
0.0
 11
2.626968503937007
 21
14.08661417322834
 31
0.0
  0
LINE
  5
2D08
330
1E
100
AcDbEntity
  8
7
100
AcDbLine
 10
2.697834645669291
 20
14.08661417322834
 30
0.0
 11
2.626968503937007
 21
14.08661417322834
 31
0.0
  0
LINE
  5
2D09
330
1E
100
AcDbEntity
  8
7
100
AcDbLine
 10
-0.1998031496062978
 20
14.08661417322834
 30
0.0
 11
-0.132874015748031
 21
14.08661417322834
 31
0.0
  0
LINE
  5
2D0A
330
1E
100
AcDbEntity
  8
7
100
AcDbLine
 10
-0.1958661417322829
 20
13.96850393700787
 30
0.0
 11
-0.1998031496062978
 21
14.08661417322834
 31
0.0
  0
LINE
  5
2D0B
330
1E
100
AcDbEntity
  8
7
100
AcDbLine
 10
0.4576771653543319
 20
13.82283464566929
 30
0.0
 11
0.4576771653543319
 21
13.85433070866141
 31
0.0
  0
LINE
  5
2D0C
330
1E
100
AcDbEntity
  8
7
100
AcDbLine
 10
0.4576771653543319
 20
13.82283464566929
 30
0.0
 11
0.6072834645669301
 21
13.82283464566929
 31
0.0
  0
LINE
  5
2D0D
330
1E
100
AcDbEntity
  8
7
100
AcDbLine
 10
0.6072834645669301
 20
13.85433070866141
 30
0.0
 11
0.6072834645669301
 21
13.82283464566929
 31
0.0
  0
LINE
  5
2D0E
330
1E
100
AcDbEntity
  8
7
100
AcDbLine
 10
0.4576771653543319
 20
13.85433070866141
 30
0.0
 11
0.6072834645669301
 21
13.85433070866141
 31
0.0
  0
LINE
  5
2D0F
330
1E
100
AcDbEntity
  8
7
100
AcDbLine
 10
0.4576771653543319
 20
13.85433070866141
 30
0.0
 11
0.6072834645669301
 21
13.85433070866141
 31
0.0
  0
LINE
  5
2D10
330
1E
100
AcDbEntity
  8
7
100
AcDbLine
 10
0.6072834645669301
 20
13.82283464566929
 30
0.0
 11
0.6033464566929135
 21
13.64173228346456
 31
0.0
  0
LINE
  5
2D11
330
1E
100
AcDbEntity
  8
7
100
AcDbLine
 10
0.4616141732283468
 20
13.64173228346456
 30
0.0
 11
0.4576771653543319
 21
13.82283464566929
 31
0.0
  0
LINE
  5
2D12
330
1E
100
AcDbEntity
  8
7
100
AcDbLine
 10
0.4498031496063005
 20
13.85433070866141
 30
0.0
 11
0.4576771653543319
 21
13.85433070866141
 31
0.0
  0
LINE
  5
2D13
330
1E
100
AcDbEntity
  8
7
100
AcDbLine
 10
0.6072834645669301
 20
13.85433070866141
 30
0.0
 11
0.6190944881889764
 21
13.85433070866141
 31
0.0
  0
LINE
  5
2D14
330
1E
100
AcDbEntity
  8
7
100
AcDbLine
 10
0.6781496062992134
 20
14.07086614173228
 30
0.0
 11
0.6820866141732283
 21
13.96850393700787
 31
0.0
  0
LINE
  5
2D1A
330
1E
100
AcDbEntity
  8
7
100
AcDbLine
 10
0.4498031496063005
 20
14.12992125984252
 30
0.0
 11
0.6190944881889764
 21
14.12992125984252
 31
0.0
  0
LINE
  5
2D20
330
1E
100
AcDbEntity
  8
7
100
AcDbLine
 10
0.3828740157480319
 20
13.96850393700787
 30
0.0
 11
0.3907480314960634
 21
14.07086614173228
 31
0.0
  0
LINE
  5
2D21
330
1E
100
AcDbEntity
  8
7
100
AcDbLine
 10
2.048228346456693
 20
13.85433070866141
 30
0.0
 11
2.040354330708661
 21
13.85433070866141
 31
0.0
  0
LINE
  5
2D22
330
1E
100
AcDbEntity
  8
7
100
AcDbLine
 10
1.886811023622048
 20
13.85433070866141
 30
0.0
 11
1.878937007874016
 21
13.85433070866141
 31
0.0
  0
LINE
  5
2D23
330
1E
100
AcDbEntity
  8
7
100
AcDbLine
 10
2.623031496062993
 20
13.96850393700787
 30
0.0
 11
2.626968503937007
 21
14.08661417322834
 31
0.0
  0
LINE
  5
2D24
330
1E
100
AcDbEntity
  8
7
100
AcDbLine
 10
2.693897637795276
 20
13.96850393700787
 30
0.0
 11
2.697834645669291
 21
14.08661417322834
 31
0.0
  0
LINE
  5
2D2B
330
1E
100
AcDbEntity
  8
7
100
AcDbLine
 10
2.036417322834646
 20
13.82283464566929
 30
0.0
 11
1.890748031496063
 21
13.82283464566929
 31
0.0
  0
LINE
  5
2D2C
330
1E
100
AcDbEntity
  8
7
100
AcDbLine
 10
2.040354330708661
 20
13.85433070866141
 30
0.0
 11
1.886811023622048
 21
13.85433070866141
 31
0.0
  0
LINE
  5
2D2D
330
1E
100
AcDbEntity
  8
7
100
AcDbLine
 10
1.890748031496063
 20
13.82283464566929
 30
0.0
 11
1.890748031496063
 21
13.64173228346456
 31
0.0
  0
LINE
  5
2D2E
330
1E
100
AcDbEntity
  8
7
100
AcDbLine
 10
2.036417322834646
 20
13.64173228346456
 30
0.0
 11
2.036417322834646
 21
13.82283464566929
 31
0.0
  0
LINE
  5
2D2F
330
1E
100
AcDbEntity
  8
7
100
AcDbLine
 10
2.111220472440944
 20
13.96850393700787
 30
0.0
 11
2.10728346456693
 21
14.07086614173228
 31
0.0
  0
LINE
  5
2D35
330
1E
100
AcDbEntity
  8
7
100
AcDbLine
 10
2.048228346456693
 20
14.12992125984252
 30
0.0
 11
1.878937007874016
 21
14.12992125984252
 31
0.0
  0
LINE
  5
2D3B
330
1E
100
AcDbEntity
  8
7
100
AcDbLine
 10
1.819881889763779
 20
14.07086614173228
 30
0.0
 11
1.815944881889765
 21
13.96850393700787
 31
0.0
  0
LINE
  5
2D41
330
1E
100
AcDbEntity
  8
7
100
AcDbLine
 10
3.583661417322835
 20
14.08661417322834
 30
0.0
 11
4.733267716535433
 21
14.08661417322834
 31
0.0
  0
LINE
  5
2D42
330
1E
100
AcDbEntity
  8
7
100
AcDbLine
 10
5.01673228346457
 20
14.08661417322834
 30
0.0
 11
5.540354330708662
 21
14.08661417322834
 31
0.0
  0
LINE
  5
2D43
330
1E
100
AcDbEntity
  8
7
100
AcDbLine
 10
5.611220472440948
 20
14.08661417322834
 30
0.0
 11
5.540354330708662
 21
14.08661417322834
 31
0.0
  0
LINE
  5
2D44
330
1E
100
AcDbEntity
  8
7
100
AcDbLine
 10
2.709645669291339
 20
14.08661417322834
 30
0.0
 11
2.780511811023622
 21
14.08661417322834
 31
0.0
  0
LINE
  5
2D45
330
1E
100
AcDbEntity
  8
7
100
AcDbLine
 10
2.713582677165354
 20
13.96850393700787
 30
0.0
 11
2.709645669291339
 21
14.08661417322834
 31
0.0
  0
LINE
  5
2D46
330
1E
100
AcDbEntity
  8
7
100
AcDbLine
 10
3.371062992125985
 20
13.82283464566929
 30
0.0
 11
3.371062992125985
 21
13.85433070866141
 31
0.0
  0
LINE
  5
2D47
330
1E
100
AcDbEntity
  8
7
100
AcDbLine
 10
3.371062992125985
 20
13.82283464566929
 30
0.0
 11
3.520669291338583
 21
13.82283464566929
 31
0.0
  0
LINE
  5
2D48
330
1E
100
AcDbEntity
  8
7
100
AcDbLine
 10
3.520669291338583
 20
13.85433070866141
 30
0.0
 11
3.520669291338583
 21
13.82283464566929
 31
0.0
  0
LINE
  5
2D49
330
1E
100
AcDbEntity
  8
7
100
AcDbLine
 10
3.371062992125985
 20
13.85433070866141
 30
0.0
 11
3.520669291338583
 21
13.85433070866141
 31
0.0
  0
LINE
  5
2D4A
330
1E
100
AcDbEntity
  8
7
100
AcDbLine
 10
3.371062992125985
 20
13.85433070866141
 30
0.0
 11
3.520669291338583
 21
13.85433070866141
 31
0.0
  0
LINE
  5
2D4B
330
1E
100
AcDbEntity
  8
7
100
AcDbLine
 10
3.520669291338583
 20
13.82283464566929
 30
0.0
 11
3.516732283464567
 21
13.64173228346456
 31
0.0
  0
LINE
  5
2D4C
330
1E
100
AcDbEntity
  8
7
100
AcDbLine
 10
3.375
 20
13.64173228346456
 30
0.0
 11
3.371062992125985
 21
13.82283464566929
 31
0.0
  0
LINE
  5
2D4D
330
1E
100
AcDbEntity
  8
7
100
AcDbLine
 10
3.359251968503937
 20
13.85433070866141
 30
0.0
 11
3.371062992125985
 21
13.85433070866141
 31
0.0
  0
LINE
  5
2D4E
330
1E
100
AcDbEntity
  8
7
100
AcDbLine
 10
3.520669291338583
 20
13.85433070866141
 30
0.0
 11
3.528543307086615
 21
13.85433070866141
 31
0.0
  0
LINE
  5
2D4F
330
1E
100
AcDbEntity
  8
7
100
AcDbLine
 10
3.58759842519685
 20
14.07086614173228
 30
0.0
 11
3.595472440944881
 21
13.96850393700787
 31
0.0
  0
LINE
  5
2D55
330
1E
100
AcDbEntity
  8
7
100
AcDbLine
 10
3.359251968503937
 20
14.12992125984252
 30
0.0
 11
3.528543307086615
 21
14.12992125984252
 31
0.0
  0
LINE
  5
2D5B
330
1E
100
AcDbEntity
  8
7
100
AcDbLine
 10
3.296259842519685
 20
13.96850393700787
 30
0.0
 11
3.300196850393702
 21
14.07086614173228
 31
0.0
  0
LINE
  5
2D5C
330
1E
100
AcDbEntity
  8
7
100
AcDbLine
 10
4.961614173228348
 20
13.85433070866141
 30
0.0
 11
4.949803149606299
 21
13.85433070866141
 31
0.0
  0
LINE
  5
2D5D
330
1E
100
AcDbEntity
  8
7
100
AcDbLine
 10
4.800196850393703
 20
13.85433070866141
 30
0.0
 11
4.788385826771655
 21
13.85433070866141
 31
0.0
  0
LINE
  5
2D5E
330
1E
100
AcDbEntity
  8
7
100
AcDbLine
 10
5.536417322834648
 20
13.96850393700787
 30
0.0
 11
5.540354330708662
 21
14.08661417322834
 31
0.0
  0
LINE
  5
2D5F
330
1E
100
AcDbEntity
  8
7
100
AcDbLine
 10
5.607283464566929
 20
13.96850393700787
 30
0.0
 11
5.611220472440948
 21
14.08661417322834
 31
0.0
  0
LINE
  5
2D65
330
1E
100
AcDbEntity
  8
7
100
AcDbLine
 10
4.800196850393703
 20
13.85433070866141
 30
0.0
 11
4.800196850393703
 21
13.82283464566929
 31
0.0
  0
LINE
  5
2D66
330
1E
100
AcDbEntity
  8
7
100
AcDbLine
 10
4.949803149606299
 20
13.82283464566929
 30
0.0
 11
4.800196850393703
 21
13.82283464566929
 31
0.0
  0
LINE
  5
2D67
330
1E
100
AcDbEntity
  8
7
100
AcDbLine
 10
4.949803149606299
 20
13.85433070866141
 30
0.0
 11
4.800196850393703
 21
13.85433070866141
 31
0.0
  0
LINE
  5
2D68
330
1E
100
AcDbEntity
  8
7
100
AcDbLine
 10
4.800196850393703
 20
13.82283464566929
 30
0.0
 11
4.804133858267718
 21
13.64173228346456
 31
0.0
  0
LINE
  5
2D69
330
1E
100
AcDbEntity
  8
7
100
AcDbLine
 10
4.945866141732285
 20
13.64173228346456
 30
0.0
 11
4.949803149606299
 21
13.82283464566929
 31
0.0
  0
LINE
  5
2D6A
330
1E
100
AcDbEntity
  8
7
100
AcDbLine
 10
5.024606299212599
 20
13.96850393700787
 30
0.0
 11
5.01673228346457
 21
14.07086614173228
 31
0.0
  0
LINE
  5
2D70
330
1E
100
AcDbEntity
  8
7
100
AcDbLine
 10
4.957677165354333
 20
14.12992125984252
 30
0.0
 11
4.79232283464567
 21
14.12992125984252
 31
0.0
  0
LINE
  5
2D76
330
1E
100
AcDbEntity
  8
7
100
AcDbLine
 10
4.729330708661418
 20
14.07086614173228
 30
0.0
 11
4.725393700787403
 21
13.96850393700787
 31
0.0
  0
LINE
  5
2D7C
330
1E
100
AcDbEntity
  8
7
100
AcDbLine
 10
6.497047244094488
 20
14.08661417322834
 30
0.0
 11
7.646653543307088
 21
14.08661417322834
 31
0.0
  0
LINE
  5
2D7D
330
1E
100
AcDbEntity
  8
7
100
AcDbLine
 10
7.926181102362207
 20
14.08661417322834
 30
0.0
 11
8.449803149606299
 21
14.08661417322834
 31
0.0
  0
LINE
  5
2D7E
330
1E
100
AcDbEntity
  8
7
100
AcDbLine
 10
8.520669291338585
 20
14.08661417322834
 30
0.0
 11
8.449803149606299
 21
14.08661417322834
 31
0.0
  0
LINE
  5
2D7F
330
1E
100
AcDbEntity
  8
7
100
AcDbLine
 10
5.619094488188977
 20
14.08661417322834
 30
0.0
 11
5.689960629921262
 21
14.08661417322834
 31
0.0
  0
LINE
  5
2D80
330
1E
100
AcDbEntity
  8
7
100
AcDbLine
 10
5.623031496062992
 20
13.96850393700787
 30
0.0
 11
5.619094488188977
 21
14.08661417322834
 31
0.0
  0
LINE
  5
2D81
330
1E
100
AcDbEntity
  8
7
100
AcDbLine
 10
6.280511811023625
 20
13.82283464566929
 30
0.0
 11
6.280511811023625
 21
13.85433070866141
 31
0.0
  0
LINE
  5
2D82
330
1E
100
AcDbEntity
  8
7
100
AcDbLine
 10
6.280511811023625
 20
13.82283464566929
 30
0.0
 11
6.430118110236222
 21
13.82283464566929
 31
0.0
  0
LINE
  5
2D83
330
1E
100
AcDbEntity
  8
7
100
AcDbLine
 10
6.430118110236222
 20
13.85433070866141
 30
0.0
 11
6.430118110236222
 21
13.82283464566929
 31
0.0
  0
LINE
  5
2D84
330
1E
100
AcDbEntity
  8
7
100
AcDbLine
 10
6.280511811023625
 20
13.85433070866141
 30
0.0
 11
6.430118110236222
 21
13.85433070866141
 31
0.0
  0
LINE
  5
2D85
330
1E
100
AcDbEntity
  8
7
100
AcDbLine
 10
6.280511811023625
 20
13.85433070866141
 30
0.0
 11
6.430118110236222
 21
13.85433070866141
 31
0.0
  0
LINE
  5
2D86
330
1E
100
AcDbEntity
  8
7
100
AcDbLine
 10
6.430118110236222
 20
13.82283464566929
 30
0.0
 11
6.426181102362207
 21
13.64173228346456
 31
0.0
  0
LINE
  5
2D87
330
1E
100
AcDbEntity
  8
7
100
AcDbLine
 10
6.28444881889764
 20
13.64173228346456
 30
0.0
 11
6.280511811023625
 21
13.82283464566929
 31
0.0
  0
LINE
  5
2D88
330
1E
100
AcDbEntity
  8
7
100
AcDbLine
 10
6.272637795275592
 20
13.85433070866141
 30
0.0
 11
6.280511811023625
 21
13.85433070866141
 31
0.0
  0
LINE
  5
2D89
330
1E
100
AcDbEntity
  8
7
100
AcDbLine
 10
6.430118110236222
 20
13.85433070866141
 30
0.0
 11
6.44192913385827
 21
13.85433070866141
 31
0.0
  0
LINE
  5
2D8A
330
1E
100
AcDbEntity
  8
7
100
AcDbLine
 10
6.500984251968507
 20
14.07086614173228
 30
0.0
 11
6.504921259842522
 21
13.96850393700787
 31
0.0
  0
LINE
  5
2D90
330
1E
100
AcDbEntity
  8
7
100
AcDbLine
 10
6.272637795275592
 20
14.12992125984252
 30
0.0
 11
6.437992125984255
 21
14.12992125984252
 31
0.0
  0
LINE
  5
2D91
330
1E
100
AcDbEntity
  8
7
100
AcDbLine
 10
6.272637795275592
 20
14.12992125984252
 30
0.0
 11
6.229330708661418
 21
14.11023622047244
 31
0.0
  0
LINE
  5
2D92
330
1E
100
AcDbEntity
  8
7
100
AcDbLine
 10
6.229330708661418
 20
14.11023622047244
 30
0.0
 11
6.213582677165355
 21
14.07086614173228
 31
0.0
  0
LINE
  5
2D93
330
1E
100
AcDbEntity
  8
7
100
AcDbLine
 10
6.205708661417325
 20
13.96850393700787
 30
0.0
 11
6.213582677165355
 21
14.07086614173228
 31
0.0
  0
LINE
  5
2D94
330
1E
100
AcDbEntity
  8
7
100
AcDbLine
 10
7.871062992125985
 20
13.85433070866141
 30
0.0
 11
7.85925196850394
 21
13.85433070866141
 31
0.0
  0
LINE
  5
2D95
330
1E
100
AcDbEntity
  8
7
100
AcDbLine
 10
7.70964566929134
 20
13.85433070866141
 30
0.0
 11
7.701771653543307
 21
13.85433070866141
 31
0.0
  0
LINE
  5
2D96
330
1E
100
AcDbEntity
  8
7
100
AcDbLine
 10
8.445866141732285
 20
13.96850393700787
 30
0.0
 11
8.449803149606299
 21
14.08661417322834
 31
0.0
  0
LINE
  5
2D97
330
1E
100
AcDbEntity
  8
7
100
AcDbLine
 10
8.51673228346457
 20
13.96850393700787
 30
0.0
 11
8.520669291338585
 21
14.08661417322834
 31
0.0
  0
LINE
  5
2D9E
330
1E
100
AcDbEntity
  8
7
100
AcDbLine
 10
7.85925196850394
 20
13.82283464566929
 30
0.0
 11
7.70964566929134
 21
13.82283464566929
 31
0.0
  0
LINE
  5
2D9F
330
1E
100
AcDbEntity
  8
7
100
AcDbLine
 10
7.85925196850394
 20
13.85433070866141
 30
0.0
 11
7.70964566929134
 21
13.85433070866141
 31
0.0
  0
LINE
  5
2DA0
330
1E
100
AcDbEntity
  8
7
100
AcDbLine
 10
7.70964566929134
 20
13.82283464566929
 30
0.0
 11
7.713582677165355
 21
13.64173228346456
 31
0.0
  0
LINE
  5
2DA1
330
1E
100
AcDbEntity
  8
7
100
AcDbLine
 10
7.855314960629922
 20
13.64173228346456
 30
0.0
 11
7.85925196850394
 21
13.82283464566929
 31
0.0
  0
LINE
  5
2DA2
330
1E
100
AcDbEntity
  8
7
100
AcDbLine
 10
7.934055118110237
 20
13.96850393700787
 30
0.0
 11
7.930118110236222
 21
14.07086614173228
 31
0.0
  0
LINE
  5
2DA8
330
1E
100
AcDbEntity
  8
7
100
AcDbLine
 10
7.871062992125985
 20
14.12992125984252
 30
0.0
 11
7.701771653543307
 21
14.12992125984252
 31
0.0
  0
LINE
  5
2DAE
330
1E
100
AcDbEntity
  8
7
100
AcDbLine
 10
7.642716535433073
 20
14.07086614173228
 30
0.0
 11
7.63484251968504
 21
13.96850393700787
 31
0.0
  0
LINE
  5
2DB4
330
1E
100
AcDbEntity
  8
7
100
AcDbLine
 10
9.406496062992129
 20
14.08661417322834
 30
0.0
 11
10.55610236220472
 21
14.08661417322834
 31
0.0
  0
LINE
  5
2DB5
330
1E
100
AcDbEntity
  8
7
100
AcDbLine
 10
10.83562992125984
 20
14.08661417322834
 30
0.0
 11
11.36318897637795
 21
14.08661417322834
 31
0.0
  0
LINE
  5
2DB6
330
1E
100
AcDbEntity
  8
7
100
AcDbLine
 10
11.43011811023622
 20
14.08661417322834
 30
0.0
 11
11.36318897637795
 21
14.08661417322834
 31
0.0
  0
LINE
  5
2DB7
330
1E
100
AcDbEntity
  8
7
100
AcDbLine
 10
8.532480314960633
 20
14.08661417322834
 30
0.0
 11
8.603346456692914
 21
14.08661417322834
 31
0.0
  0
LINE
  5
2DB8
330
1E
100
AcDbEntity
  8
7
100
AcDbLine
 10
8.536417322834648
 20
13.96850393700787
 30
0.0
 11
8.532480314960633
 21
14.08661417322834
 31
0.0
  0
LINE
  5
2DB9
330
1E
100
AcDbEntity
  8
7
100
AcDbLine
 10
9.193897637795277
 20
13.82283464566929
 30
0.0
 11
9.189960629921262
 21
13.85433070866141
 31
0.0
  0
LINE
  5
2DBA
330
1E
100
AcDbEntity
  8
7
100
AcDbLine
 10
9.193897637795277
 20
13.82283464566929
 30
0.0
 11
9.339566929133859
 21
13.82283464566929
 31
0.0
  0
LINE
  5
2DBB
330
1E
100
AcDbEntity
  8
7
100
AcDbLine
 10
9.343503937007877
 20
13.85433070866141
 30
0.0
 11
9.339566929133859
 21
13.82283464566929
 31
0.0
  0
LINE
  5
2DBC
330
1E
100
AcDbEntity
  8
7
100
AcDbLine
 10
9.189960629921262
 20
13.85433070866141
 30
0.0
 11
9.343503937007877
 21
13.85433070866141
 31
0.0
  0
LINE
  5
2DBD
330
1E
100
AcDbEntity
  8
7
100
AcDbLine
 10
9.189960629921262
 20
13.85433070866141
 30
0.0
 11
9.343503937007877
 21
13.85433070866141
 31
0.0
  0
LINE
  5
2DBE
330
1E
100
AcDbEntity
  8
7
100
AcDbLine
 10
9.339566929133859
 20
13.82283464566929
 30
0.0
 11
9.339566929133859
 21
13.64173228346456
 31
0.0
  0
LINE
  5
2DBF
330
1E
100
AcDbEntity
  8
7
100
AcDbLine
 10
9.193897637795277
 20
13.64173228346456
 30
0.0
 11
9.193897637795277
 21
13.82283464566929
 31
0.0
  0
LINE
  5
2DC0
330
1E
100
AcDbEntity
  8
7
100
AcDbLine
 10
9.182086614173229
 20
13.85433070866141
 30
0.0
 11
9.189960629921262
 21
13.85433070866141
 31
0.0
  0
LINE
  5
2DC1
330
1E
100
AcDbEntity
  8
7
100
AcDbLine
 10
9.343503937007877
 20
13.85433070866141
 30
0.0
 11
9.351377952755907
 21
13.85433070866141
 31
0.0
  0
LINE
  5
2DC2
330
1E
100
AcDbEntity
  8
7
100
AcDbLine
 10
9.410433070866144
 20
14.07086614173228
 30
0.0
 11
9.414370078740159
 21
13.96850393700787
 31
0.0
  0
LINE
  5
2DC8
330
1E
100
AcDbEntity
  8
7
100
AcDbLine
 10
9.182086614173229
 20
14.12992125984252
 30
0.0
 11
9.351377952755907
 21
14.12992125984252
 31
0.0
  0
LINE
  5
2DCE
330
1E
100
AcDbEntity
  8
7
100
AcDbLine
 10
9.119094488188977
 20
13.96850393700787
 30
0.0
 11
9.123031496062992
 21
14.07086614173228
 31
0.0
  0
LINE
  5
2DD4
330
1E
100
AcDbEntity
  8
7
100
AcDbLine
 10
10.78051181102362
 20
13.85433070866141
 30
0.0
 11
10.77263779527559
 21
13.85433070866141
 31
0.0
  0
LINE
  5
2DD5
330
1E
100
AcDbEntity
  8
7
100
AcDbLine
 10
10.62303149606299
 20
13.85433070866141
 30
0.0
 11
10.61122047244094
 21
13.85433070866141
 31
0.0
  0
LINE
  5
2DD6
330
1E
100
AcDbEntity
  8
7
100
AcDbLine
 10
11.35925196850394
 20
13.96456692913385
 30
0.0
 11
11.12696850393701
 21
13.96456692913385
 31
0.0
  0
LINE
  5
2DD7
330
1E
100
AcDbEntity
  8
7
100
AcDbLine
 10
11.35925196850394
 20
13.96456692913385
 30
0.0
 11
11.36318897637795
 21
14.08661417322834
 31
0.0
  0
LINE
  5
2DD8
330
1E
100
AcDbEntity
  8
7
100
AcDbLine
 10
11.4261811023622
 20
13.94881889763779
 30
0.0
 11
11.43011811023622
 21
14.08661417322834
 31
0.0
  0
LINE
  5
2DDF
330
1E
100
AcDbEntity
  8
7
100
AcDbLine
 10
10.77263779527559
 20
13.82283464566929
 30
0.0
 11
10.62303149606299
 21
13.82283464566929
 31
0.0
  0
LINE
  5
2DE0
330
1E
100
AcDbEntity
  8
7
100
AcDbLine
 10
10.77263779527559
 20
13.85433070866141
 30
0.0
 11
10.62303149606299
 21
13.85433070866141
 31
0.0
  0
LINE
  5
2DE1
330
1E
100
AcDbEntity
  8
7
100
AcDbLine
 10
10.62303149606299
 20
13.82283464566929
 30
0.0
 11
10.62696850393701
 21
13.64173228346456
 31
0.0
  0
LINE
  5
2DE2
330
1E
100
AcDbEntity
  8
7
100
AcDbLine
 10
10.76870078740157
 20
13.64173228346456
 30
0.0
 11
10.77263779527559
 21
13.82283464566929
 31
0.0
  0
LINE
  5
2DE3
330
1E
100
AcDbEntity
  8
7
100
AcDbLine
 10
10.84744094488189
 20
13.96850393700787
 30
0.0
 11
10.83956692913385
 21
14.07086614173228
 31
0.0
  0
LINE
  5
2DE9
330
1E
100
AcDbEntity
  8
7
100
AcDbLine
 10
10.78051181102362
 20
14.12992125984252
 30
0.0
 11
10.61122047244094
 21
14.12992125984252
 31
0.0
  0
LINE
  5
2DEF
330
1E
100
AcDbEntity
  8
7
100
AcDbLine
 10
10.55216535433071
 20
14.07086614173228
 30
0.0
 11
10.54822834645669
 21
13.96850393700787
 31
0.0
  0
LINE
  5
2DF0
330
1E
100
AcDbEntity
  8
7
100
AcDbLine
 10
-6.006889763779525
 20
7.401574803149606
 30
0.0
 11
11.41437007874015
 21
7.401574803149606
 31
0.0
  0
LINE
  5
2DF1
330
1E
100
AcDbEntity
  8
7
100
AcDbLine
 10
11.41437007874015
 20
9.118110236220474
 30
0.0
 11
-6.006889763779525
 21
9.118110236220474
 31
0.0
  0
LINE
  5
2DF2
330
1E
100
AcDbEntity
  8
7
100
AcDbLine
 10
6.01673228346457
 20
8.799212598425199
 30
0.0
 11
6.048228346456696
 21
8.799212598425199
 31
0.0
  0
LINE
  5
2DF3
330
1E
100
AcDbEntity
  8
7
100
AcDbLine
 10
8.079724409448822
 20
8.921259842519685
 30
0.0
 11
8.052165354330711
 21
8.90944881889764
 31
0.0
  0
LINE
  5
2DF4
330
1E
100
AcDbEntity
  8
7
100
AcDbLine
 10
10.81594488188976
 20
8.799212598425199
 30
0.0
 11
10.91437007874015
 21
8.799212598425199
 31
0.0
  0
LINE
  5
2DF5
330
1E
100
AcDbEntity
  8
7
100
AcDbLine
 10
10.06791338582677
 20
7.539370078740158
 30
0.0
 11
10.52854330708661
 21
7.539370078740158
 31
0.0
  0
LINE
  5
2DF6
330
1E
100
AcDbEntity
  8
7
100
AcDbLine
 10
5.115157480314962
 20
8.897637795275592
 30
0.0
 11
5.138779527559055
 21
8.921259842519685
 31
0.0
  0
LINE
  5
2DF7
330
1E
100
AcDbEntity
  8
7
100
AcDbLine
 10
8.004921259842522
 20
8.90944881889764
 30
0.0
 11
8.004921259842522
 21
8.885826771653544
 31
0.0
  0
LINE
  5
2DF8
330
1E
100
AcDbEntity
  8
7
100
AcDbLine
 10
10.41830708661417
 20
8.90944881889764
 30
0.0
 11
10.39074803149606
 21
8.921259842519685
 31
0.0
  0
LINE
  5
2DF9
330
1E
100
AcDbEntity
  8
7
100
AcDbLine
 10
7.79232283464567
 20
7.759842519685039
 30
0.0
 11
7.79232283464567
 21
7.539370078740158
 31
0.0
  0
LINE
  5
2DFA
330
1E
100
AcDbEntity
  8
7
100
AcDbLine
 10
5.189960629921262
 20
8.921259842519685
 30
0.0
 11
5.213582677165355
 21
8.897637795275592
 31
0.0
  0
LINE
  5
2DFB
330
1E
100
AcDbEntity
  8
7
100
AcDbLine
 10
7.902559055118111
 20
8.822834645669292
 30
0.0
 11
7.906496062992129
 21
8.799212598425199
 31
0.0
  0
LINE
  5
2DFC
330
1E
100
AcDbEntity
  8
7
100
AcDbLine
 10
10.33956692913385
 20
8.921259842519685
 30
0.0
 11
10.31594488188976
 21
8.90944881889764
 31
0.0
  0
LINE
  5
2DFD
330
1E
100
AcDbEntity
  8
7
100
AcDbLine
 10
8.252952755905514
 20
7.539370078740158
 30
0.0
 11
8.252952755905514
 21
7.759842519685039
 31
0.0
  0
LINE
  5
2DFE
330
1E
100
AcDbEntity
  8
7
100
AcDbLine
 10
5.028543307086614
 20
8.921259842519685
 30
0.0
 11
5.028543307086614
 21
8.799212598425199
 31
0.0
  0
LINE
  5
2DFF
330
1E
100
AcDbEntity
  8
7
100
AcDbLine
 10
7.906496062992129
 20
8.90944881889764
 30
0.0
 11
7.930118110236222
 21
8.921259842519685
 31
0.0
  0
LINE
  5
2E00
330
1E
100
AcDbEntity
  8
7
100
AcDbLine
 10
10.20570866141732
 20
8.921259842519685
 30
0.0
 11
10.25688976377953
 21
8.921259842519685
 31
0.0
  0
LINE
  5
2E01
330
1E
100
AcDbEntity
  8
7
100
AcDbLine
 10
7.158464566929136
 20
7.759842519685039
 30
0.0
 11
7.158464566929136
 21
7.539370078740158
 31
0.0
  0
LINE
  5
2E02
330
1E
100
AcDbEntity
  8
7
100
AcDbLine
 10
5.01673228346457
 20
8.913385826771655
 30
0.0
 11
5.028543307086614
 21
8.921259842519685
 31
0.0
  0
LINE
  5
2E03
330
1E
100
AcDbEntity
  8
7
100
AcDbLine
 10
7.465551181102362
 20
8.799212598425199
 30
0.0
 11
7.489173228346459
 21
8.822834645669292
 31
0.0
  0
LINE
  5
2E04
330
1E
100
AcDbEntity
  8
7
100
AcDbLine
 10
10.28051181102362
 20
8.90944881889764
 30
0.0
 11
10.28051181102362
 21
8.885826771653544
 31
0.0
  0
LINE
  5
2E05
330
1E
100
AcDbEntity
  8
7
100
AcDbLine
 10
7.619094488188977
 20
7.539370078740158
 30
0.0
 11
7.619094488188977
 21
7.759842519685039
 31
0.0
  0
LINE
  5
2E06
330
1E
100
AcDbEntity
  8
7
100
AcDbLine
 10
11.68208661417323
 20
8.511811023622048
 30
0.0
 11
11.68208661417323
 21
8.602362204724411
 31
0.0
  0
LINE
  5
2E07
330
1E
100
AcDbEntity
  8
7
100
AcDbLine
 10
6.827755905511814
 20
8.921259842519685
 30
0.0
 11
6.855314960629922
 21
8.90944881889764
 31
0.0
  0
LINE
  5
2E08
330
1E
100
AcDbEntity
  8
7
100
AcDbLine
 10
9.544291338582677
 20
8.822834645669292
 30
0.0
 11
9.548228346456696
 21
8.799212598425199
 31
0.0
  0
LINE
  5
2E09
330
1E
100
AcDbEntity
  8
7
100
AcDbLine
 10
4.705708661417325
 20
7.539370078740158
 30
0.0
 11
4.705708661417325
 21
7.759842519685039
 31
0.0
  0
LINE
  5
2E0A
330
1E
100
AcDbEntity
  8
7
100
AcDbLine
 10
4.375000000000003
 20
8.799212598425199
 30
0.0
 11
4.406496062992129
 21
8.799212598425199
 31
0.0
  0
LINE
  5
2E0B
330
1E
100
AcDbEntity
  8
7
100
AcDbLine
 10
11.48523622047244
 20
8.602362204724411
 30
0.0
 11
11.54035433070866
 21
8.602362204724411
 31
0.0
  0
LINE
  5
2E0C
330
1E
100
AcDbEntity
  8
7
100
AcDbLine
 10
12.1505905511811
 20
8.602362204724411
 30
0.0
 11
12.07972440944882
 21
8.602362204724411
 31
0.0
  0
LINE
  5
2E0D
330
1E
100
AcDbEntity
  8
7
100
AcDbLine
 10
6.855314960629922
 20
8.874015748031496
 30
0.0
 11
6.827755905511814
 21
8.862204724409451
 31
0.0
  0
LINE
  5
2E0E
330
1E
100
AcDbEntity
  8
7
100
AcDbLine
 10
-0.7588582677165348
 20
8.874015748031496
 30
0.0
 11
-0.7588582677165348
 21
8.90944881889764
 31
0.0
  0
LINE
  5
2E0F
330
1E
100
AcDbEntity
  8
7
100
AcDbLine
 10
-1.750984251968503
 20
7.759842519685039
 30
0.0
 11
-2.211614173228345
 21
7.759842519685039
 31
0.0
  0
LINE
  5
2E10
330
1E
100
AcDbEntity
  8
7
100
AcDbLine
 10
0.847440944881891
 20
8.921259842519685
 30
0.0
 11
0.847440944881891
 21
8.799212598425199
 31
0.0
  0
LINE
  5
2E11
330
1E
100
AcDbEntity
  8
7
100
AcDbLine
 10
0.9694881889763781
 20
8.799212598425199
 30
0.0
 11
0.9931102362204725
 21
8.799212598425199
 31
0.0
  0
LINE
  5
2E12
330
1E
100
AcDbEntity
  8
7
100
AcDbLine
 10
10.41830708661417
 20
8.846456692913388
 30
0.0
 11
10.39074803149606
 21
8.862204724409451
 31
0.0
  0
LINE
  5
2E13
330
1E
100
AcDbEntity
  8
7
100
AcDbLine
 10
2.300196850393702
 20
8.90944881889764
 30
0.0
 11
2.300196850393702
 21
8.885826771653544
 31
0.0
  0
LINE
  5
2E14
330
1E
100
AcDbEntity
  8
7
100
AcDbLine
 10
1.03248031496063
 20
8.874015748031496
 30
0.0
 11
1.020669291338583
 21
8.90944881889764
 31
0.0
  0
LINE
  5
2E15
330
1E
100
AcDbEntity
  8
7
100
AcDbLine
 10
1.335629921259843
 20
7.539370078740158
 30
0.0
 11
1.796259842519685
 21
7.539370078740158
 31
0.0
  0
LINE
  5
2E16
330
1E
100
AcDbEntity
  8
7
100
AcDbLine
 10
-3.597440944881888
 20
8.921259842519685
 30
0.0
 11
-3.597440944881888
 21
8.799212598425199
 31
0.0
  0
LINE
  5
2E17
330
1E
100
AcDbEntity
  8
7
100
AcDbLine
 10
3.284448818897639
 20
8.862204724409451
 30
0.0
 11
3.308070866141733
 21
8.874015748031496
 31
0.0
  0
LINE
  5
2E18
330
1E
100
AcDbEntity
  8
7
100
AcDbLine
 10
2.099409448818898
 20
8.799212598425199
 30
0.0
 11
2.130905511811024
 21
8.799212598425199
 31
0.0
  0
LINE
  5
2E19
330
1E
100
AcDbEntity
  8
7
100
AcDbLine
 10
3.74507874015748
 20
8.913385826771655
 30
0.0
 11
3.756889763779528
 21
8.921259842519685
 31
0.0
  0
LINE
  5
2E1A
330
1E
100
AcDbEntity
  8
7
100
AcDbLine
 10
3.308070866141733
 20
8.874015748031496
 30
0.0
 11
3.308070866141733
 21
8.90944881889764
 31
0.0
  0
LINE
  5
2E1B
330
1E
100
AcDbEntity
  8
7
100
AcDbLine
 10
-0.6840551181102348
 20
8.799212598425199
 30
0.0
 11
-0.6604330708661404
 21
8.811023622047244
 31
0.0
  0
LINE
  5
2E1C
330
1E
100
AcDbEntity
  8
7
100
AcDbLine
 10
1.634842519685039
 20
8.921259842519685
 30
0.0
 11
1.634842519685039
 21
8.799212598425199
 31
0.0
  0
LINE
  5
2E1D
330
1E
100
AcDbEntity
  8
7
100
AcDbLine
 10
-5.526574803149605
 20
8.921259842519685
 30
0.0
 11
-5.526574803149605
 21
8.799212598425199
 31
0.0
  0
LINE
  5
2E1E
330
1E
100
AcDbEntity
  8
7
100
AcDbLine
 10
0.2726377952755912
 20
8.799212598425199
 30
0.0
 11
0.3198818897637801
 21
8.799212598425199
 31
0.0
  0
LINE
  5
2E1F
330
1E
100
AcDbEntity
  8
7
100
AcDbLine
 10
-5.121062992125983
 20
7.539370078740158
 30
0.0
 11
-4.66043307086614
 21
7.539370078740158
 31
0.0
  0
LINE
  5
2E25
330
1E
100
AcDbEntity
  8
7
100
AcDbLine
 10
2.43011811023622
 20
7.539370078740158
 30
0.0
 11
2.43011811023622
 21
7.759842519685039
 31
0.0
  0
LINE
  5
2E26
330
1E
100
AcDbEntity
  8
7
100
AcDbLine
 10
-4.231299212598424
 20
8.862204724409451
 30
0.0
 11
-4.266732283464564
 21
8.862204724409451
 31
0.0
  0
LINE
  5
2E27
330
1E
100
AcDbEntity
  8
7
100
AcDbLine
 10
2.225393700787402
 20
8.921259842519685
 30
0.0
 11
2.276574803149607
 21
8.921259842519685
 31
0.0
  0
LINE
  5
2E28
330
1E
100
AcDbEntity
  8
7
100
AcDbLine
 10
-4.487204724409446
 20
7.539370078740158
 30
0.0
 11
-4.026574803149603
 21
7.539370078740158
 31
0.0
  0
LINE
  5
2E29
330
1E
100
AcDbEntity
  8
7
100
AcDbLine
 10
3.843503937007876
 20
8.846456692913388
 30
0.0
 11
3.918307086614172
 21
8.921259842519685
 31
0.0
  0
LINE
  5
2E2A
330
1E
100
AcDbEntity
  8
7
100
AcDbLine
 10
-3.672244094488188
 20
8.846456692913388
 30
0.0
 11
-3.597440944881888
 21
8.921259842519685
 31
0.0
  0
LINE
  5
2E2B
330
1E
100
AcDbEntity
  8
7
100
AcDbLine
 10
0.7017716535433079
 20
7.759842519685039
 30
0.0
 11
0.7017716535433079
 21
7.539370078740158
 31
0.0
  0
LINE
  5
2E2C
330
1E
100
AcDbEntity
  8
7
100
AcDbLine
 10
1.796259842519685
 20
7.539370078740158
 30
0.0
 11
1.796259842519685
 21
7.759842519685039
 31
0.0
  0
LINE
  5
2E2D
330
1E
100
AcDbEntity
  8
7
100
AcDbLine
 10
7.930118110236222
 20
8.921259842519685
 30
0.0
 11
7.981299212598425
 21
8.921259842519685
 31
0.0
  0
LINE
  5
2E2E
330
1E
100
AcDbEntity
  8
7
100
AcDbLine
 10
10.39074803149606
 20
8.862204724409451
 30
0.0
 11
10.41830708661417
 21
8.874015748031496
 31
0.0
  0
LINE
  5
2E2F
330
1E
100
AcDbEntity
  8
7
100
AcDbLine
 10
9.260826771653544
 20
7.539370078740158
 30
0.0
 11
9.260826771653544
 21
7.759842519685039
 31
0.0
  0
LINE
  5
2E30
330
1E
100
AcDbEntity
  8
7
100
AcDbLine
 10
4.500984251968507
 20
8.799212598425199
 30
0.0
 11
4.552165354330711
 21
8.799212598425199
 31
0.0
  0
LINE
  5
2E31
330
1E
100
AcDbEntity
  8
7
100
AcDbLine
 10
7.489173228346459
 20
8.822834645669292
 30
0.0
 11
7.489173228346459
 21
8.897637795275592
 31
0.0
  0
LINE
  5
2E32
330
1E
100
AcDbEntity
  8
7
100
AcDbLine
 10
10.28051181102362
 20
8.885826771653544
 30
0.0
 11
10.18208661417322
 21
8.822834645669292
 31
0.0
  0
LINE
  5
2E33
330
1E
100
AcDbEntity
  8
7
100
AcDbLine
 10
7.158464566929136
 20
7.539370078740158
 30
0.0
 11
7.619094488188977
 21
7.539370078740158
 31
0.0
  0
LINE
  5
2E34
330
1E
100
AcDbEntity
  8
7
100
AcDbLine
 10
11.95374015748031
 20
8.531496062992125
 30
0.0
 11
11.95374015748031
 21
8.602362204724411
 31
0.0
  0
LINE
  5
2E35
330
1E
100
AcDbEntity
  8
7
100
AcDbLine
 10
7.465551181102362
 20
8.921259842519685
 30
0.0
 11
7.414370078740159
 21
8.921259842519685
 31
0.0
  0
LINE
  5
2E36
330
1E
100
AcDbEntity
  8
7
100
AcDbLine
 10
10.18208661417322
 20
8.799212598425199
 30
0.0
 11
10.28051181102362
 21
8.799212598425199
 31
0.0
  0
LINE
  5
2E37
330
1E
100
AcDbEntity
  8
7
100
AcDbLine
 10
6.981299212598425
 20
7.759842519685039
 30
0.0
 11
6.524606299212599
 21
7.759842519685039
 31
0.0
  0
LINE
  5
2E38
330
1E
100
AcDbEntity
  8
7
100
AcDbLine
 10
11.87893700787401
 20
8.531496062992125
 30
0.0
 11
11.89862204724409
 21
8.511811023622048
 31
0.0
  0
LINE
  5
2E39
330
1E
100
AcDbEntity
  8
7
100
AcDbLine
 10
7.390748031496066
 20
8.897637795275592
 30
0.0
 11
7.386811023622048
 21
8.874015748031496
 31
0.0
  0
LINE
  5
2E3A
330
1E
100
AcDbEntity
  8
7
100
AcDbLine
 10
9.705708661417325
 20
8.921259842519685
 30
0.0
 11
9.756889763779529
 21
8.921259842519685
 31
0.0
  0
LINE
  5
2E3B
330
1E
100
AcDbEntity
  8
7
100
AcDbLine
 10
6.524606299212599
 20
7.539370078740158
 30
0.0
 11
6.981299212598425
 21
7.539370078740158
 31
0.0
  0
LINE
  5
2E3C
330
1E
100
AcDbEntity
  8
7
100
AcDbLine
 10
11.85531496062992
 20
8.586614173228348
 30
0.0
 11
11.83562992125984
 21
8.602362204724411
 31
0.0
  0
LINE
  5
2E3D
330
1E
100
AcDbEntity
  8
7
100
AcDbLine
 10
7.414370078740159
 20
8.846456692913388
 30
0.0
 11
7.465551181102362
 21
8.846456692913388
 31
0.0
  0
LINE
  5
2E3E
330
1E
100
AcDbEntity
  8
7
100
AcDbLine
 10
9.780511811023622
 20
8.90944881889764
 30
0.0
 11
9.780511811023622
 21
8.885826771653544
 31
0.0
  0
LINE
  5
2E3F
330
1E
100
AcDbEntity
  8
7
100
AcDbLine
 10
6.347440944881892
 20
7.759842519685039
 30
0.0
 11
5.886811023622048
 21
7.759842519685039
 31
0.0
  0
LINE
  5
2E40
330
1E
100
AcDbEntity
  8
7
100
AcDbLine
 10
11.48523622047244
 20
8.511811023622048
 30
0.0
 11
11.48523622047244
 21
8.602362204724411
 31
0.0
  0
LINE
  5
2E41
330
1E
100
AcDbEntity
  8
7
100
AcDbLine
 10
6.776574803149607
 20
8.799212598425199
 30
0.0
 11
6.827755905511814
 21
8.799212598425199
 31
0.0
  0
LINE
  5
2E42
330
1E
100
AcDbEntity
  8
7
100
AcDbLine
 10
9.000984251968507
 20
8.921259842519685
 30
0.0
 11
9.028543307086614
 21
8.90944881889764
 31
0.0
  0
LINE
  5
2E43
330
1E
100
AcDbEntity
  8
7
100
AcDbLine
 10
3.437992125984252
 20
7.759842519685039
 30
0.0
 11
2.977362204724409
 21
7.759842519685039
 31
0.0
  0
LINE
  5
2E44
330
1E
100
AcDbEntity
  8
7
100
AcDbLine
 10
9.028543307086614
 20
8.885826771653544
 30
0.0
 11
8.926181102362207
 21
8.822834645669292
 31
0.0
  0
LINE
  5
2E45
330
1E
100
AcDbEntity
  8
7
100
AcDbLine
 10
11.75295275590551
 20
8.511811023622048
 30
0.0
 11
11.75295275590551
 21
8.602362204724411
 31
0.0
  0
LINE
  5
2E46
330
1E
100
AcDbEntity
  8
7
100
AcDbLine
 10
11.58366141732283
 20
8.511811023622048
 30
0.0
 11
11.61909448818897
 21
8.602362204724411
 31
0.0
  0
LINE
  5
2E47
330
1E
100
AcDbEntity
  8
7
100
AcDbLine
 10
6.855314960629922
 20
8.811023622047244
 30
0.0
 11
6.855314960629922
 21
8.846456692913388
 31
0.0
  0
LINE
  5
2E48
330
1E
100
AcDbEntity
  8
7
100
AcDbLine
 10
-2.589566929133856
 20
8.799212598425199
 30
0.0
 11
-2.565944881889762
 21
8.811023622047244
 31
0.0
  0
LINE
  5
2E49
330
1E
100
AcDbEntity
  8
7
100
AcDbLine
 10
0.2726377952755912
 20
8.921259842519685
 30
0.0
 11
0.2490157480314967
 21
8.897637795275592
 31
0.0
  0
LINE
  5
2E4A
330
1E
100
AcDbEntity
  8
7
100
AcDbLine
 10
-4.282480314960627
 20
8.921259842519685
 30
0.0
 11
-4.306102362204724
 21
8.90944881889764
 31
0.0
  0
LINE
  5
2E4B
330
1E
100
AcDbEntity
  8
7
100
AcDbLine
 10
0.2450787401574819
 20
8.874015748031496
 30
0.0
 11
0.2726377952755912
 21
8.846456692913388
 31
0.0
  0
LINE
  5
2E4C
330
1E
100
AcDbEntity
  8
7
100
AcDbLine
 10
-3.392716535433069
 20
7.759842519685039
 30
0.0
 11
-3.849409448818896
 21
7.759842519685039
 31
0.0
  0
LINE
  5
2E4D
330
1E
100
AcDbEntity
  8
7
100
AcDbLine
 10
1.03248031496063
 20
8.846456692913388
 30
0.0
 11
1.03248031496063
 21
8.874015748031496
 31
0.0
  0
LINE
  5
2E4E
330
1E
100
AcDbEntity
  8
7
100
AcDbLine
 10
-0.6840551181102348
 20
8.862204724409451
 30
0.0
 11
-0.7352362204724403
 21
8.862204724409451
 31
0.0
  0
LINE
  5
2E4F
330
1E
100
AcDbEntity
  8
7
100
AcDbLine
 10
3.284448818897639
 20
8.799212598425199
 30
0.0
 11
3.308070866141733
 21
8.811023622047244
 31
0.0
  0
LINE
  5
2E50
330
1E
100
AcDbEntity
  8
7
100
AcDbLine
 10
-4.203740157480313
 20
8.811023622047244
 30
0.0
 11
-4.203740157480313
 21
8.846456692913388
 31
0.0
  0
LINE
  5
2E51
330
1E
100
AcDbEntity
  8
7
100
AcDbLine
 10
-2.845472440944881
 20
7.539370078740158
 30
0.0
 11
-2.384842519685038
 21
7.539370078740158
 31
0.0
  0
LINE
  5
2E52
330
1E
100
AcDbEntity
  8
7
100
AcDbLine
 10
5.886811023622048
 20
7.539370078740158
 30
0.0
 11
6.347440944881892
 21
7.539370078740158
 31
0.0
  0
LINE
  5
2E53
330
1E
100
AcDbEntity
  8
7
100
AcDbLine
 10
-4.026574803149603
 20
7.539370078740158
 30
0.0
 11
-4.026574803149603
 21
7.759842519685039
 31
0.0
  0
LINE
  5
2E54
330
1E
100
AcDbEntity
  8
7
100
AcDbLine
 10
-5.534448818897635
 20
8.913385826771655
 30
0.0
 11
-5.526574803149605
 21
8.921259842519685
 31
0.0
  0
LINE
  5
2E55
330
1E
100
AcDbEntity
  8
7
100
AcDbLine
 10
-2.006889763779527
 20
8.874015748031496
 30
0.0
 11
-1.955708661417321
 21
8.874015748031496
 31
0.0
  0
LINE
  5
2E56
330
1E
100
AcDbEntity
  8
7
100
AcDbLine
 10
-4.203740157480313
 20
8.874015748031496
 30
0.0
 11
-4.203740157480313
 21
8.90944881889764
 31
0.0
  0
LINE
  5
2E57
330
1E
100
AcDbEntity
  8
7
100
AcDbLine
 10
3.308070866141733
 20
8.90944881889764
 30
0.0
 11
3.284448818897639
 21
8.921259842519685
 31
0.0
  0
LINE
  5
2E58
330
1E
100
AcDbEntity
  8
7
100
AcDbLine
 10
2.201771653543307
 20
8.822834645669292
 30
0.0
 11
2.201771653543307
 21
8.799212598425199
 31
0.0
  0
LINE
  5
2E59
330
1E
100
AcDbEntity
  8
7
100
AcDbLine
 10
-0.6604330708661404
 20
8.90944881889764
 30
0.0
 11
-0.6604330708661404
 21
8.874015748031496
 31
0.0
  0
LINE
  5
2E5A
330
1E
100
AcDbEntity
  8
7
100
AcDbLine
 10
2.977362204724409
 20
7.539370078740158
 30
0.0
 11
3.437992125984252
 21
7.539370078740158
 31
0.0
  0
LINE
  5
2E5B
330
1E
100
AcDbEntity
  8
7
100
AcDbLine
 10
-2.565944881889762
 20
8.858267716535433
 30
0.0
 11
-2.589566929133856
 21
8.874015748031496
 31
0.0
  0
LINE
  5
2E5C
330
1E
100
AcDbEntity
  8
7
100
AcDbLine
 10
0.2490157480314967
 20
8.897637795275592
 30
0.0
 11
0.2450787401574819
 21
8.874015748031496
 31
0.0
  0
LINE
  5
2E5D
330
1E
100
AcDbEntity
  8
7
100
AcDbLine
 10
-4.865157480314959
 20
8.921259842519685
 30
0.0
 11
-4.841535433070864
 21
8.90944881889764
 31
0.0
  0
LINE
  5
2E5E
330
1E
100
AcDbEntity
  8
7
100
AcDbLine
 10
1.969488188976378
 20
7.539370078740158
 30
0.0
 11
2.43011811023622
 21
7.539370078740158
 31
0.0
  0
LINE
  5
2E5F
330
1E
100
AcDbEntity
  8
7
100
AcDbLine
 10
-2.384842519685038
 20
7.539370078740158
 30
0.0
 11
-2.384842519685038
 21
7.759842519685039
 31
0.0
  0
LINE
  5
2E60
330
1E
100
AcDbEntity
  8
7
100
AcDbLine
 10
-0.6604330708661404
 20
8.811023622047244
 30
0.0
 11
-0.6604330708661404
 21
8.846456692913388
 31
0.0
  0
LINE
  5
2E61
330
1E
100
AcDbEntity
  8
7
100
AcDbLine
 10
2.276574803149607
 20
8.921259842519685
 30
0.0
 11
2.300196850393702
 21
8.90944881889764
 31
0.0
  0
LINE
  5
2E62
330
1E
100
AcDbEntity
  8
7
100
AcDbLine
 10
-5.754921259842518
 20
7.759842519685039
 30
0.0
 11
-5.754921259842518
 21
7.539370078740158
 31
0.0
  0
LINE
  5
2E63
330
1E
100
AcDbEntity
  8
7
100
AcDbLine
 10
4.477362204724411
 20
8.862204724409451
 30
0.0
 11
4.477362204724411
 21
8.921259842519685
 31
0.0
  0
LINE
  5
2E64
330
1E
100
AcDbEntity
  8
7
100
AcDbLine
 10
8.12696850393701
 20
8.90944881889764
 30
0.0
 11
8.103346456692914
 21
8.921259842519685
 31
0.0
  0
LINE
  5
2E65
330
1E
100
AcDbEntity
  8
7
100
AcDbLine
 10
3.284448818897639
 20
8.862204724409451
 30
0.0
 11
3.24507874015748
 21
8.862204724409451
 31
0.0
  0
LINE
  5
2E66
330
1E
100
AcDbEntity
  8
7
100
AcDbLine
 10
-4.231299212598424
 20
8.862204724409451
 30
0.0
 11
-4.203740157480313
 21
8.874015748031496
 31
0.0
  0
LINE
  5
2E67
330
1E
100
AcDbEntity
  8
7
100
AcDbLine
 10
-0.7352362204724403
 20
8.862204724409451
 30
0.0
 11
-0.7588582677165348
 21
8.846456692913388
 31
0.0
  0
LINE
  5
2E68
330
1E
100
AcDbEntity
  8
7
100
AcDbLine
 10
4.477362204724411
 20
8.921259842519685
 30
0.0
 11
4.579724409448822
 21
8.921259842519685
 31
0.0
  0
LINE
  5
2E69
330
1E
100
AcDbEntity
  8
7
100
AcDbLine
 10
7.414370078740159
 20
8.799212598425199
 30
0.0
 11
7.465551181102362
 21
8.799212598425199
 31
0.0
  0
LINE
  5
2E6A
330
1E
100
AcDbEntity
  8
7
100
AcDbLine
 10
10.25688976377953
 20
8.921259842519685
 30
0.0
 11
10.28051181102362
 21
8.90944881889764
 31
0.0
  0
LINE
  5
2E6B
330
1E
100
AcDbEntity
  8
7
100
AcDbLine
 10
7.619094488188977
 20
7.759842519685039
 30
0.0
 11
7.158464566929136
 21
7.759842519685039
 31
0.0
  0
LINE
  5
2E6C
330
1E
100
AcDbEntity
  8
7
100
AcDbLine
 10
11.54035433070866
 20
8.559055118110237
 30
0.0
 11
11.48523622047244
 21
8.559055118110237
 31
0.0
  0
LINE
  5
2E6D
330
1E
100
AcDbEntity
  8
7
100
AcDbLine
 10
7.465551181102362
 20
8.846456692913388
 30
0.0
 11
7.489173228346459
 21
8.874015748031496
 31
0.0
  0
LINE
  5
2E6E
330
1E
100
AcDbEntity
  8
7
100
AcDbLine
 10
9.780511811023622
 20
8.885826771653544
 30
0.0
 11
9.682086614173229
 21
8.822834645669292
 31
0.0
  0
LINE
  5
2E6F
330
1E
100
AcDbEntity
  8
7
100
AcDbLine
 10
6.347440944881892
 20
7.539370078740158
 30
0.0
 11
6.347440944881892
 21
7.759842519685039
 31
0.0
  0
LINE
  5
2E70
330
1E
100
AcDbEntity
  8
7
100
AcDbLine
 10
11.68208661417323
 20
8.602362204724411
 30
0.0
 11
11.75295275590551
 21
8.511811023622048
 31
0.0
  0
LINE
  5
2E71
330
1E
100
AcDbEntity
  8
7
100
AcDbLine
 10
7.304133858267718
 20
8.921259842519685
 30
0.0
 11
7.304133858267718
 21
8.799212598425199
 31
0.0
  0
LINE
  5
2E72
330
1E
100
AcDbEntity
  8
7
100
AcDbLine
 10
9.682086614173229
 20
8.799212598425199
 30
0.0
 11
9.780511811023622
 21
8.799212598425199
 31
0.0
  0
LINE
  5
2E73
330
1E
100
AcDbEntity
  8
7
100
AcDbLine
 10
4.882874015748033
 20
7.759842519685039
 30
0.0
 11
4.882874015748033
 21
7.539370078740158
 31
0.0
  0
LINE
  5
2E74
330
1E
100
AcDbEntity
  8
7
100
AcDbLine
 10
11.89862204724409
 20
8.511811023622048
 30
0.0
 11
11.93405511811023
 21
8.511811023622048
 31
0.0
  0
LINE
  5
2E75
330
1E
100
AcDbEntity
  8
7
100
AcDbLine
 10
7.29232283464567
 20
8.913385826771655
 30
0.0
 11
7.304133858267718
 21
8.921259842519685
 31
0.0
  0
LINE
  5
2E76
330
1E
100
AcDbEntity
  8
7
100
AcDbLine
 10
9.571850393700788
 20
8.921259842519685
 30
0.0
 11
9.619094488188977
 21
8.921259842519685
 31
0.0
  0
LINE
  5
2E77
330
1E
100
AcDbEntity
  8
7
100
AcDbLine
 10
5.343503937007877
 20
7.539370078740158
 30
0.0
 11
5.343503937007877
 21
7.759842519685039
 31
0.0
  0
LINE
  5
2E78
330
1E
100
AcDbEntity
  8
7
100
AcDbLine
 10
11.85531496062992
 20
8.531496062992125
 30
0.0
 11
11.85531496062992
 21
8.586614173228348
 31
0.0
  0
LINE
  5
2E79
330
1E
100
AcDbEntity
  8
7
100
AcDbLine
 10
6.752952755905514
 20
8.90944881889764
 30
0.0
 11
6.776574803149607
 21
8.921259842519685
 31
0.0
  0
LINE
  5
2E7A
330
1E
100
AcDbEntity
  8
7
100
AcDbLine
 10
9.646653543307088
 20
8.90944881889764
 30
0.0
 11
9.646653543307088
 21
8.885826771653544
 31
0.0
  0
LINE
  5
2E7B
330
1E
100
AcDbEntity
  8
7
100
AcDbLine
 10
4.249015748031496
 20
7.759842519685039
 30
0.0
 11
4.249015748031496
 21
7.539370078740158
 31
0.0
  0
LINE
  5
2E7C
330
1E
100
AcDbEntity
  8
7
100
AcDbLine
 10
11.55610236220472
 20
8.594488188976377
 30
0.0
 11
11.55610236220472
 21
8.56692913385827
 31
0.0
  0
LINE
  5
2E7D
330
1E
100
AcDbEntity
  8
7
100
AcDbLine
 10
6.658464566929136
 20
8.913385826771655
 30
0.0
 11
6.666338582677166
 21
8.921259842519685
 31
0.0
  0
LINE
  5
2E7E
330
1E
100
AcDbEntity
  8
7
100
AcDbLine
 10
0.5246062992125986
 20
7.539370078740158
 30
0.0
 11
0.5246062992125986
 21
7.759842519685039
 31
0.0
  0
LINE
  5
2E7F
330
1E
100
AcDbEntity
  8
7
100
AcDbLine
 10
10.89074803149606
 20
8.921259842519685
 30
0.0
 11
10.91437007874015
 21
8.90944881889764
 31
0.0
  0
LINE
  5
2E80
330
1E
100
AcDbEntity
  8
7
100
AcDbLine
 10
10.70570866141732
 20
7.539370078740158
 30
0.0
 11
11.16240157480315
 21
7.539370078740158
 31
0.0
  0
LINE
  5
2E81
330
1E
100
AcDbEntity
  8
7
100
AcDbLine
 10
11.54035433070866
 20
8.602362204724411
 30
0.0
 11
11.55610236220472
 21
8.594488188976377
 31
0.0
  0
LINE
  5
2E82
330
1E
100
AcDbEntity
  8
7
100
AcDbLine
 10
1.335629921259843
 20
7.759842519685039
 30
0.0
 11
1.335629921259843
 21
7.539370078740158
 31
0.0
  0
LINE
  5
2E83
330
1E
100
AcDbEntity
  8
7
100
AcDbLine
 10
6.154527559055118
 20
8.799212598425199
 30
0.0
 11
6.21751968503937
 21
8.921259842519685
 31
0.0
  0
LINE
  5
2E84
330
1E
100
AcDbEntity
  8
7
100
AcDbLine
 10
3.123031496062993
 20
8.921259842519685
 30
0.0
 11
3.123031496062993
 21
8.799212598425199
 31
0.0
  0
LINE
  5
2E85
330
1E
100
AcDbEntity
  8
7
100
AcDbLine
 10
10.31594488188976
 20
8.811023622047244
 30
0.0
 11
10.33956692913385
 21
8.799212598425199
 31
0.0
  0
LINE
  5
2E86
330
1E
100
AcDbEntity
  8
7
100
AcDbLine
 10
-1.113188976377951
 20
7.539370078740158
 30
0.0
 11
-1.113188976377951
 21
7.759842519685039
 31
0.0
  0
LINE
  5
2E87
330
1E
100
AcDbEntity
  8
7
100
AcDbLine
 10
0.9458661417322836
 20
8.811023622047244
 30
0.0
 11
0.9694881889763781
 21
8.799212598425199
 31
0.0
  0
LINE
  5
2E88
330
1E
100
AcDbEntity
  8
7
100
AcDbLine
 10
-2.664370078740156
 20
8.921259842519685
 30
0.0
 11
-2.565944881889762
 21
8.921259842519685
 31
0.0
  0
LINE
  5
2E89
330
1E
100
AcDbEntity
  8
7
100
AcDbLine
 10
0.7017716535433079
 20
7.539370078740158
 30
0.0
 11
1.16240157480315
 21
7.539370078740158
 31
0.0
  0
LINE
  5
2E8A
330
1E
100
AcDbEntity
  8
7
100
AcDbLine
 10
-4.939960629921257
 20
8.799212598425199
 30
0.0
 11
-4.841535433070864
 21
8.799212598425199
 31
0.0
  0
LINE
  5
2E8B
330
1E
100
AcDbEntity
  8
7
100
AcDbLine
 10
-5.754921259842518
 20
7.539370078740158
 30
0.0
 11
-5.294291338582675
 21
7.539370078740158
 31
0.0
  0
LINE
  5
2E8C
330
1E
100
AcDbEntity
  8
7
100
AcDbLine
 10
1.619094488188976
 20
8.799212598425199
 30
0.0
 11
1.650590551181102
 21
8.799212598425199
 31
0.0
  0
LINE
  5
2E8D
330
1E
100
AcDbEntity
  8
7
100
AcDbLine
 10
3.111220472440944
 20
8.913385826771655
 30
0.0
 11
3.123031496062993
 21
8.921259842519685
 31
0.0
  0
LINE
  5
2E8E
330
1E
100
AcDbEntity
  8
7
100
AcDbLine
 10
0.831692913385828
 20
8.799212598425199
 30
0.0
 11
0.863188976377954
 21
8.799212598425199
 31
0.0
  0
LINE
  5
2E8F
330
1E
100
AcDbEntity
  8
7
100
AcDbLine
 10
-4.916338582677164
 20
8.921259842519685
 30
0.0
 11
-4.865157480314959
 21
8.921259842519685
 31
0.0
  0
LINE
  5
2E90
330
1E
100
AcDbEntity
  8
7
100
AcDbLine
 10
-6.719488188976376
 20
8.641732283464566
 30
0.0
 11
-6.719488188976376
 21
8.5
 31
0.0
  0
LINE
  5
2E91
330
1E
100
AcDbEntity
  8
7
100
AcDbLine
 10
-2.006889763779527
 20
8.921259842519685
 30
0.0
 11
-1.955708661417321
 21
8.921259842519685
 31
0.0
  0
LINE
  5
2E92
330
1E
100
AcDbEntity
  8
7
100
AcDbLine
 10
9.682086614173229
 20
8.822834645669292
 30
0.0
 11
9.682086614173229
 21
8.799212598425199
 31
0.0
  0
LINE
  5
2E93
330
1E
100
AcDbEntity
  8
7
100
AcDbLine
 10
-2.640748031496062
 20
8.874015748031496
 30
0.0
 11
-2.664370078740156
 21
8.862204724409451
 31
0.0
  0
LINE
  5
2E94
330
1E
100
AcDbEntity
  8
7
100
AcDbLine
 10
0.2490157480314967
 20
8.822834645669292
 30
0.0
 11
0.2726377952755912
 21
8.799212598425199
 31
0.0
  0
LINE
  5
2E95
330
1E
100
AcDbEntity
  8
7
100
AcDbLine
 10
-6.719488188976376
 20
8.5
 30
0.0
 11
-6.231299212598424
 21
8.5
 31
0.0
  0
LINE
  5
2E96
330
1E
100
AcDbEntity
  8
7
100
AcDbLine
 10
9.894685039370081
 20
7.539370078740158
 30
0.0
 11
9.894685039370081
 21
7.759842519685039
 31
0.0
  0
LINE
  5
2E97
330
1E
100
AcDbEntity
  8
7
100
AcDbLine
 10
-4.026574803149603
 20
7.759842519685039
 30
0.0
 11
-4.487204724409446
 21
7.759842519685039
 31
0.0
  0
LINE
  5
2E98
330
1E
100
AcDbEntity
  8
7
100
AcDbLine
 10
3.308070866141733
 20
8.811023622047244
 30
0.0
 11
3.308070866141733
 21
8.846456692913388
 31
0.0
  0
LINE
  5
2E99
330
1E
100
AcDbEntity
  8
7
100
AcDbLine
 10
-0.4793307086614163
 20
7.539370078740158
 30
0.0
 11
-0.4793307086614163
 21
7.759842519685039
 31
0.0
  0
LINE
  5
2E9A
330
1E
100
AcDbEntity
  8
7
100
AcDbLine
 10
3.10728346456693
 20
8.799212598425199
 30
0.0
 11
3.138779527559055
 21
8.799212598425199
 31
0.0
  0
LINE
  5
2E9B
330
1E
100
AcDbEntity
  8
7
100
AcDbLine
 10
-1.955708661417321
 20
8.799212598425199
 30
0.0
 11
-2.006889763779527
 21
8.799212598425199
 31
0.0
  0
LINE
  5
2E9C
330
1E
100
AcDbEntity
  8
7
100
AcDbLine
 10
-0.7352362204724403
 20
8.862204724409451
 30
0.0
 11
-0.7588582677165348
 21
8.874015748031496
 31
0.0
  0
LINE
  5
2E9D
330
1E
100
AcDbEntity
  8
7
100
AcDbLine
 10
8.040354330708662
 20
8.874015748031496
 30
0.0
 11
8.040354330708662
 21
8.846456692913388
 31
0.0
  0
LINE
  5
2E9E
330
1E
100
AcDbEntity
  8
7
100
AcDbLine
 10
7.386811023622048
 20
8.874015748031496
 30
0.0
 11
7.414370078740159
 21
8.846456692913388
 31
0.0
  0
LINE
  5
2E9F
330
1E
100
AcDbEntity
  8
7
100
AcDbLine
 10
9.756889763779529
 20
8.921259842519685
 30
0.0
 11
9.780511811023622
 21
8.90944881889764
 31
0.0
  0
LINE
  5
2EA0
330
1E
100
AcDbEntity
  8
7
100
AcDbLine
 10
5.886811023622048
 20
7.759842519685039
 30
0.0
 11
5.886811023622048
 21
7.539370078740158
 31
0.0
  0
LINE
  5
2EA1
330
1E
100
AcDbEntity
  8
7
100
AcDbLine
 10
11.61909448818897
 20
8.602362204724411
 30
0.0
 11
11.65452755905511
 21
8.511811023622048
 31
0.0
  0
LINE
  5
2EA2
330
1E
100
AcDbEntity
  8
7
100
AcDbLine
 10
6.776574803149607
 20
8.921259842519685
 30
0.0
 11
6.827755905511814
 21
8.921259842519685
 31
0.0
  0
LINE
  5
2EA3
330
1E
100
AcDbEntity
  8
7
100
AcDbLine
 10
9.646653543307088
 20
8.885826771653544
 30
0.0
 11
9.544291338582677
 21
8.822834645669292
 31
0.0
  0
LINE
  5
2EA4
330
1E
100
AcDbEntity
  8
7
100
AcDbLine
 10
4.705708661417325
 20
7.759842519685039
 30
0.0
 11
4.249015748031496
 21
7.759842519685039
 31
0.0
  0
LINE
  5
2EA5
330
1E
100
AcDbEntity
  8
7
100
AcDbLine
 10
11.83562992125984
 20
8.511811023622048
 30
0.0
 11
11.85531496062992
 21
8.531496062992125
 31
0.0
  0
LINE
  5
2EA6
330
1E
100
AcDbEntity
  8
7
100
AcDbLine
 10
6.855314960629922
 20
8.90944881889764
 30
0.0
 11
6.855314960629922
 21
8.874015748031496
 31
0.0
  0
LINE
  5
2EA7
330
1E
100
AcDbEntity
  8
7
100
AcDbLine
 10
9.548228346456696
 20
8.799212598425199
 30
0.0
 11
9.646653543307088
 21
8.799212598425199
 31
0.0
  0
LINE
  5
2EA8
330
1E
100
AcDbEntity
  8
7
100
AcDbLine
 10
4.249015748031496
 20
7.539370078740158
 30
0.0
 11
4.705708661417325
 21
7.539370078740158
 31
0.0
  0
LINE
  5
2EA9
330
1E
100
AcDbEntity
  8
7
100
AcDbLine
 10
11.55610236220472
 20
8.56692913385827
 30
0.0
 11
11.54035433070866
 21
8.559055118110237
 31
0.0
  0
LINE
  5
2EAA
330
1E
100
AcDbEntity
  8
7
100
AcDbLine
 10
6.827755905511814
 20
8.862204724409451
 30
0.0
 11
6.776574803149607
 21
8.862204724409451
 31
0.0
  0
LINE
  5
2EAB
330
1E
100
AcDbEntity
  8
7
100
AcDbLine
 10
9.115157480314962
 20
8.921259842519685
 30
0.0
 11
9.115157480314962
 21
8.799212598425199
 31
0.0
  0
LINE
  5
2EAC
330
1E
100
AcDbEntity
  8
7
100
AcDbLine
 10
4.071850393700787
 20
7.759842519685039
 30
0.0
 11
3.611220472440944
 21
7.759842519685039
 31
0.0
  0
LINE
  5
2EAD
330
1E
100
AcDbEntity
  8
7
100
AcDbLine
 10
11.83562992125984
 20
8.602362204724411
 30
0.0
 11
11.78051181102362
 21
8.602362204724411
 31
0.0
  0
LINE
  5
2EAE
330
1E
100
AcDbEntity
  8
7
100
AcDbLine
 10
6.752952755905514
 20
8.846456692913388
 30
0.0
 11
6.752952755905514
 21
8.811023622047244
 31
0.0
  0
LINE
  5
2EAF
330
1E
100
AcDbEntity
  8
7
100
AcDbLine
 10
9.103346456692914
 20
8.913385826771655
 30
0.0
 11
9.115157480314962
 21
8.921259842519685
 31
0.0
  0
LINE
  5
2EB0
330
1E
100
AcDbEntity
  8
7
100
AcDbLine
 10
3.611220472440944
 20
7.539370078740158
 30
0.0
 11
4.071850393700787
 21
7.539370078740158
 31
0.0
  0
LINE
  5
2EB1
330
1E
100
AcDbEntity
  8
7
100
AcDbLine
 10
11.78051181102362
 20
8.602362204724411
 30
0.0
 11
11.78051181102362
 21
8.511811023622048
 31
0.0
  0
LINE
  5
2EB2
330
1E
100
AcDbEntity
  8
7
100
AcDbLine
 10
5.189960629921262
 20
8.874015748031496
 30
0.0
 11
5.213582677165355
 21
8.846456692913388
 31
0.0
  0
LINE
  5
2EB3
330
1E
100
AcDbEntity
  8
7
100
AcDbLine
 10
8.040354330708662
 20
8.846456692913388
 30
0.0
 11
8.052165354330711
 21
8.811023622047244
 31
0.0
  0
LINE
  5
2EB4
330
1E
100
AcDbEntity
  8
7
100
AcDbLine
 10
5.012795275590551
 20
8.799212598425199
 30
0.0
 11
5.044291338582677
 21
8.799212598425199
 31
0.0
  0
LINE
  5
2EB5
330
1E
100
AcDbEntity
  8
7
100
AcDbLine
 10
10.39074803149606
 20
8.799212598425199
 30
0.0
 11
10.41830708661417
 21
8.811023622047244
 31
0.0
  0
LINE
  5
2EB6
330
1E
100
AcDbEntity
  8
7
100
AcDbLine
 10
10.52854330708661
 20
7.759842519685039
 30
0.0
 11
10.06791338582677
 21
7.759842519685039
 31
0.0
  0
LINE
  5
2EB7
330
1E
100
AcDbEntity
  8
7
100
AcDbLine
 10
5.138779527559055
 20
8.799212598425199
 30
0.0
 11
5.115157480314962
 21
8.822834645669292
 31
0.0
  0
LINE
  5
2EB8
330
1E
100
AcDbEntity
  8
7
100
AcDbLine
 10
5.213582677165355
 20
8.822834645669292
 30
0.0
 11
5.189960629921262
 21
8.799212598425199
 31
0.0
  0
LINE
  5
2EB9
330
1E
100
AcDbEntity
  8
7
100
AcDbLine
 10
-1.928149606299212
 20
8.846456692913388
 30
0.0
 11
-1.928149606299212
 21
8.822834645669292
 31
0.0
  0
LINE
  5
2EBA
330
1E
100
AcDbEntity
  8
7
100
AcDbLine
 10
-1.750984251968503
 20
7.539370078740158
 30
0.0
 11
-1.750984251968503
 21
7.759842519685039
 31
0.0
  0
LINE
  5
2EBB
330
1E
100
AcDbEntity
  8
7
100
AcDbLine
 10
-1.955708661417321
 20
8.874015748031496
 30
0.0
 11
-1.928149606299212
 21
8.846456692913388
 31
0.0
  0
LINE
  5
2EBC
330
1E
100
AcDbEntity
  8
7
100
AcDbLine
 10
-2.030511811023621
 20
8.846456692913388
 30
0.0
 11
-2.006889763779527
 21
8.874015748031496
 31
0.0
  0
LINE
  5
2EBD
330
1E
100
AcDbEntity
  8
7
100
AcDbLine
 10
1.16240157480315
 20
7.759842519685039
 30
0.0
 11
0.7017716535433079
 21
7.759842519685039
 31
0.0
  0
LINE
  5
2EBE
330
1E
100
AcDbEntity
  8
7
100
AcDbLine
 10
-2.384842519685038
 20
7.759842519685039
 30
0.0
 11
-2.845472440944881
 21
7.759842519685039
 31
0.0
  0
LINE
  5
2EBF
330
1E
100
AcDbEntity
  8
7
100
AcDbLine
 10
-1.294291338582677
 20
8.921259842519685
 30
0.0
 11
-1.392716535433069
 21
8.921259842519685
 31
0.0
  0
LINE
  5
2EC0
330
1E
100
AcDbEntity
  8
7
100
AcDbLine
 10
-5.542322834645668
 20
8.799212598425199
 30
0.0
 11
-5.510826771653542
 21
8.799212598425199
 31
0.0
  0
LINE
  5
2EC1
330
1E
100
AcDbEntity
  8
7
100
AcDbLine
 10
1.481299212598426
 20
8.799212598425199
 30
0.0
 11
1.512795275590552
 21
8.799212598425199
 31
0.0
  0
LINE
  5
2EC2
330
1E
100
AcDbEntity
  8
7
100
AcDbLine
 10
10.91437007874015
 20
8.885826771653544
 30
0.0
 11
10.81594488188976
 21
8.822834645669292
 31
0.0
  0
LINE
  5
2EC3
330
1E
100
AcDbEntity
  8
7
100
AcDbLine
 10
-2.589566929133856
 20
8.874015748031496
 30
0.0
 11
-2.640748031496062
 21
8.874015748031496
 31
0.0
  0
LINE
  5
2EC4
330
1E
100
AcDbEntity
  8
7
100
AcDbLine
 10
0.9301181102362207
 20
8.874015748031496
 30
0.0
 11
0.9340551181102373
 21
8.846456692913388
 31
0.0
  0
LINE
  5
2EC5
330
1E
100
AcDbEntity
  8
7
100
AcDbLine
 10
2.43011811023622
 20
7.759842519685039
 30
0.0
 11
1.969488188976378
 21
7.759842519685039
 31
0.0
  0
LINE
  5
2EC6
330
1E
100
AcDbEntity
  8
7
100
AcDbLine
 10
-0.9399606299212589
 20
7.539370078740158
 30
0.0
 11
-0.4793307086614163
 21
7.539370078740158
 31
0.0
  0
LINE
  5
2EC7
330
1E
100
AcDbEntity
  8
7
100
AcDbLine
 10
3.941929133858268
 20
8.846456692913388
 30
0.0
 11
3.843503937007876
 21
8.846456692913388
 31
0.0
  0
LINE
  5
2EC8
330
1E
100
AcDbEntity
  8
7
100
AcDbLine
 10
-4.282480314960627
 20
8.799212598425199
 30
0.0
 11
-4.231299212598424
 21
8.799212598425199
 31
0.0
  0
LINE
  5
2EC9
330
1E
100
AcDbEntity
  8
7
100
AcDbLine
 10
-1.955708661417321
 20
8.921259842519685
 30
0.0
 11
-1.928149606299212
 21
8.897637795275592
 31
0.0
  0
LINE
  5
2ECA
330
1E
100
AcDbEntity
  8
7
100
AcDbLine
 10
-4.66043307086614
 20
7.539370078740158
 30
0.0
 11
-4.66043307086614
 21
7.759842519685039
 31
0.0
  0
LINE
  5
2ECB
330
1E
100
AcDbEntity
  8
7
100
AcDbLine
 10
2.115157480314961
 20
8.921259842519685
 30
0.0
 11
2.115157480314961
 21
8.799212598425199
 31
0.0
  0
LINE
  5
2ECC
330
1E
100
AcDbEntity
  8
7
100
AcDbLine
 10
1.969488188976378
 20
7.759842519685039
 30
0.0
 11
1.969488188976378
 21
7.539370078740158
 31
0.0
  0
LINE
  5
2ECD
330
1E
100
AcDbEntity
  8
7
100
AcDbLine
 10
4.390748031496066
 20
8.921259842519685
 30
0.0
 11
4.390748031496066
 21
8.799212598425199
 31
0.0
  0
LINE
  5
2ECE
330
1E
100
AcDbEntity
  8
7
100
AcDbLine
 10
-4.203740157480313
 20
8.846456692913388
 30
0.0
 11
-4.231299212598424
 21
8.862204724409451
 31
0.0
  0
LINE
  5
2ECF
330
1E
100
AcDbEntity
  8
7
100
AcDbLine
 10
-4.66043307086614
 20
7.759842519685039
 30
0.0
 11
-5.121062992125983
 21
7.759842519685039
 31
0.0
  0
LINE
  5
2ED0
330
1E
100
AcDbEntity
  8
7
100
AcDbLine
 10
-1.357283464566929
 20
8.799212598425199
 30
0.0
 11
-1.294291338582677
 21
8.921259842519685
 31
0.0
  0
LINE
  5
2ED1
330
1E
100
AcDbEntity
  8
7
100
AcDbLine
 10
-2.845472440944881
 20
7.759842519685039
 30
0.0
 11
-2.845472440944881
 21
7.539370078740158
 31
0.0
  0
LINE
  5
2ED2
330
1E
100
AcDbEntity
  8
7
100
AcDbLine
 10
6.752952755905514
 20
8.874015748031496
 30
0.0
 11
6.752952755905514
 21
8.90944881889764
 31
0.0
  0
LINE
  5
2ED3
330
1E
100
AcDbEntity
  8
7
100
AcDbLine
 10
9.619094488188977
 20
8.921259842519685
 30
0.0
 11
9.646653543307088
 21
8.90944881889764
 31
0.0
  0
LINE
  5
2ED4
330
1E
100
AcDbEntity
  8
7
100
AcDbLine
 10
4.882874015748033
 20
7.539370078740158
 30
0.0
 11
5.343503937007877
 21
7.539370078740158
 31
0.0
  0
LINE
  5
2ED5
330
1E
100
AcDbEntity
  8
7
100
AcDbLine
 10
12.00492125984252
 20
8.602362204724411
 30
0.0
 11
12.0246062992126
 21
8.602362204724411
 31
0.0
  0
LINE
  5
2ED6
330
1E
100
AcDbEntity
  8
7
100
AcDbLine
 10
6.752952755905514
 20
8.811023622047244
 30
0.0
 11
6.776574803149607
 21
8.799212598425199
 31
0.0
  0
LINE
  5
2ED7
330
1E
100
AcDbEntity
  8
7
100
AcDbLine
 10
8.953740157480318
 20
8.921259842519685
 30
0.0
 11
9.000984251968507
 21
8.921259842519685
 31
0.0
  0
LINE
  5
2ED8
330
1E
100
AcDbEntity
  8
7
100
AcDbLine
 10
2.977362204724409
 20
7.759842519685039
 30
0.0
 11
2.977362204724409
 21
7.539370078740158
 31
0.0
  0
LINE
  5
2ED9
330
1E
100
AcDbEntity
  8
7
100
AcDbLine
 10
11.87893700787401
 20
8.602362204724411
 30
0.0
 11
11.87893700787401
 21
8.531496062992125
 31
0.0
  0
LINE
  5
2EDA
330
1E
100
AcDbEntity
  8
7
100
AcDbLine
 10
6.827755905511814
 20
8.799212598425199
 30
0.0
 11
6.855314960629922
 21
8.811023622047244
 31
0.0
  0
LINE
  5
2EDB
330
1E
100
AcDbEntity
  8
7
100
AcDbLine
 10
9.028543307086614
 20
8.90944881889764
 30
0.0
 11
9.028543307086614
 21
8.885826771653544
 31
0.0
  0
LINE
  5
2EDC
330
1E
100
AcDbEntity
  8
7
100
AcDbLine
 10
3.437992125984252
 20
7.539370078740158
 30
0.0
 11
3.437992125984252
 21
7.759842519685039
 31
0.0
  0
LINE
  5
2EDD
330
1E
100
AcDbEntity
  8
7
100
AcDbLine
 10
12.00492125984252
 20
8.511811023622048
 30
0.0
 11
12.0246062992126
 21
8.511811023622048
 31
0.0
  0
LINE
  5
2EDE
330
1E
100
AcDbEntity
  8
7
100
AcDbLine
 10
6.855314960629922
 20
8.846456692913388
 30
0.0
 11
6.827755905511814
 21
8.862204724409451
 31
0.0
  0
LINE
  5
2EDF
330
1E
100
AcDbEntity
  8
7
100
AcDbLine
 10
8.926181102362207
 20
8.822834645669292
 30
0.0
 11
8.930118110236222
 21
8.799212598425199
 31
0.0
  0
LINE
  5
2EE0
330
1E
100
AcDbEntity
  8
7
100
AcDbLine
 10
10.95374015748031
 20
8.846456692913388
 30
0.0
 11
11.02854330708661
 21
8.921259842519685
 31
0.0
  0
LINE
  5
2EE1
330
1E
100
AcDbEntity
  8
7
100
AcDbLine
 10
11.60334645669291
 20
8.559055118110237
 30
0.0
 11
11.63877952755905
 21
8.559055118110237
 31
0.0
  0
LINE
  5
2EE2
330
1E
100
AcDbEntity
  8
7
100
AcDbLine
 10
6.666338582677166
 20
8.921259842519685
 30
0.0
 11
6.666338582677166
 21
8.799212598425199
 31
0.0
  0
LINE
  5
2EE3
330
1E
100
AcDbEntity
  8
7
100
AcDbLine
 10
8.930118110236222
 20
8.90944881889764
 30
0.0
 11
8.953740157480318
 21
8.921259842519685
 31
0.0
  0
LINE
  5
2EE4
330
1E
100
AcDbEntity
  8
7
100
AcDbLine
 10
11.05216535433071
 20
8.846456692913388
 30
0.0
 11
10.95374015748031
 21
8.846456692913388
 31
0.0
  0
LINE
  5
2EE5
330
1E
100
AcDbEntity
  8
7
100
AcDbLine
 10
11.16240157480315
 20
7.759842519685039
 30
0.0
 11
10.70570866141732
 21
7.759842519685039
 31
0.0
  0
LINE
  5
2EE6
330
1E
100
AcDbEntity
  8
7
100
AcDbLine
 10
5.138779527559055
 20
8.921259842519685
 30
0.0
 11
5.189960629921262
 21
8.921259842519685
 31
0.0
  0
LINE
  5
2EE7
330
1E
100
AcDbEntity
  8
7
100
AcDbLine
 10
8.004921259842522
 20
8.885826771653544
 30
0.0
 11
7.902559055118111
 21
8.822834645669292
 31
0.0
  0
LINE
  5
2EE8
330
1E
100
AcDbEntity
  8
7
100
AcDbLine
 10
10.39074803149606
 20
8.921259842519685
 30
0.0
 11
10.33956692913385
 21
8.921259842519685
 31
0.0
  0
LINE
  5
2EE9
330
1E
100
AcDbEntity
  8
7
100
AcDbLine
 10
8.252952755905514
 20
7.759842519685039
 30
0.0
 11
7.79232283464567
 21
7.759842519685039
 31
0.0
  0
LINE
  5
2EEA
330
1E
100
AcDbEntity
  8
7
100
AcDbLine
 10
8.800196850393703
 20
7.759842519685039
 30
0.0
 11
8.800196850393703
 21
7.539370078740158
 31
0.0
  0
LINE
  5
2EEB
330
1E
100
AcDbEntity
  8
7
100
AcDbLine
 10
8.079724409448822
 20
8.799212598425199
 30
0.0
 11
8.103346456692914
 21
8.799212598425199
 31
0.0
  0
LINE
  5
2EEC
330
1E
100
AcDbEntity
  8
7
100
AcDbLine
 10
5.115157480314962
 20
8.846456692913388
 30
0.0
 11
5.138779527559055
 21
8.874015748031496
 31
0.0
  0
LINE
  5
2EED
330
1E
100
AcDbEntity
  8
7
100
AcDbLine
 10
10.18208661417322
 20
8.90944881889764
 30
0.0
 11
10.20570866141732
 21
8.921259842519685
 31
0.0
  0
LINE
  5
2EEE
330
1E
100
AcDbEntity
  8
7
100
AcDbLine
 10
2.201771653543307
 20
8.90944881889764
 30
0.0
 11
2.225393700787402
 21
8.921259842519685
 31
0.0
  0
LINE
  5
2EEF
330
1E
100
AcDbEntity
  8
7
100
AcDbLine
 10
-3.392716535433069
 20
7.539370078740158
 30
0.0
 11
-3.392716535433069
 21
7.759842519685039
 31
0.0
  0
LINE
  5
2EF0
330
1E
100
AcDbEntity
  8
7
100
AcDbLine
 10
3.308070866141733
 20
8.846456692913388
 30
0.0
 11
3.284448818897639
 21
8.862204724409451
 31
0.0
  0
LINE
  5
2EF1
330
1E
100
AcDbEntity
  8
7
100
AcDbLine
 10
-2.664370078740156
 20
8.862204724409451
 30
0.0
 11
-2.664370078740156
 21
8.921259842519685
 31
0.0
  0
LINE
  5
2EF2
330
1E
100
AcDbEntity
  8
7
100
AcDbLine
 10
3.209645669291339
 20
8.811023622047244
 30
0.0
 11
3.233267716535433
 21
8.799212598425199
 31
0.0
  0
LINE
  5
2EF3
330
1E
100
AcDbEntity
  8
7
100
AcDbLine
 10
-4.841535433070864
 20
8.90944881889764
 30
0.0
 11
-4.841535433070864
 21
8.885826771653544
 31
0.0
  0
LINE
  5
2EF4
330
1E
100
AcDbEntity
  8
7
100
AcDbLine
 10
-5.294291338582675
 20
7.539370078740158
 30
0.0
 11
-5.294291338582675
 21
7.759842519685039
 31
0.0
  0
LINE
  5
2EF5
330
1E
100
AcDbEntity
  8
7
100
AcDbLine
 10
4.552165354330711
 20
8.874015748031496
 30
0.0
 11
4.500984251968507
 21
8.874015748031496
 31
0.0
  0
LINE
  5
2EF6
330
1E
100
AcDbEntity
  8
7
100
AcDbLine
 10
-1.113188976377951
 20
7.759842519685039
 30
0.0
 11
-1.573818897637794
 21
7.759842519685039
 31
0.0
  0
LINE
  5
2EF7
330
1E
100
AcDbEntity
  8
7
100
AcDbLine
 10
0.9458661417322836
 20
8.90944881889764
 30
0.0
 11
0.9301181102362207
 21
8.874015748031496
 31
0.0
  0
LINE
  5
2EF8
330
1E
100
AcDbEntity
  8
7
100
AcDbLine
 10
2.10728346456693
 20
8.913385826771655
 30
0.0
 11
2.115157480314961
 21
8.921259842519685
 31
0.0
  0
LINE
  5
2EF9
330
1E
100
AcDbEntity
  8
7
100
AcDbLine
 10
-4.231299212598424
 20
8.921259842519685
 30
0.0
 11
-4.282480314960627
 21
8.921259842519685
 31
0.0
  0
LINE
  5
2EFA
330
1E
100
AcDbEntity
  8
7
100
AcDbLine
 10
-3.569881889763779
 20
8.846456692913388
 30
0.0
 11
-3.672244094488188
 21
8.846456692913388
 31
0.0
  0
LINE
  5
2EFB
330
1E
100
AcDbEntity
  8
7
100
AcDbLine
 10
2.201771653543307
 20
8.799212598425199
 30
0.0
 11
2.300196850393702
 21
8.799212598425199
 31
0.0
  0
LINE
  5
2EFC
330
1E
100
AcDbEntity
  8
7
100
AcDbLine
 10
0.3474409448818911
 20
8.897637795275592
 30
0.0
 11
0.3198818897637801
 21
8.921259842519685
 31
0.0
  0
LINE
  5
2EFD
330
1E
100
AcDbEntity
  8
7
100
AcDbLine
 10
-5.294291338582675
 20
7.759842519685039
 30
0.0
 11
-5.754921259842518
 21
7.759842519685039
 31
0.0
  0
LINE
  5
2EFE
330
1E
100
AcDbEntity
  8
7
100
AcDbLine
 10
-4.203740157480313
 20
8.90944881889764
 30
0.0
 11
-4.231299212598424
 21
8.921259842519685
 31
0.0
  0
LINE
  5
2EFF
330
1E
100
AcDbEntity
  8
7
100
AcDbLine
 10
0.8356299212598429
 20
8.913385826771655
 30
0.0
 11
0.847440944881891
 21
8.921259842519685
 31
0.0
  0
LINE
  5
2F00
330
1E
100
AcDbEntity
  8
7
100
AcDbLine
 10
-2.211614173228345
 20
7.759842519685039
 30
0.0
 11
-2.211614173228345
 21
7.539370078740158
 31
0.0
  0
LINE
  5
2F01
330
1E
100
AcDbEntity
  8
7
100
AcDbLine
 10
-6.231299212598424
 20
8.641732283464566
 30
0.0
 11
-6.719488188976376
 21
8.641732283464566
 31
0.0
  0
LINE
  5
2F02
330
1E
100
AcDbEntity
  8
7
100
AcDbLine
 10
1.623031496062993
 20
8.913385826771655
 30
0.0
 11
1.634842519685039
 21
8.921259842519685
 31
0.0
  0
LINE
  5
2F03
330
1E
100
AcDbEntity
  8
7
100
AcDbLine
 10
0.3198818897637801
 20
8.846456692913388
 30
0.0
 11
0.3474409448818911
 21
8.874015748031496
 31
0.0
  0
LINE
  5
2F04
330
1E
100
AcDbEntity
  8
7
100
AcDbLine
 10
-4.939960629921257
 20
8.822834645669292
 30
0.0
 11
-4.939960629921257
 21
8.799212598425199
 31
0.0
  0
LINE
  5
2F05
330
1E
100
AcDbEntity
  8
7
100
AcDbLine
 10
-2.030511811023621
 20
8.822834645669292
 30
0.0
 11
-2.030511811023621
 21
8.897637795275592
 31
0.0
  0
LINE
  5
2F06
330
1E
100
AcDbEntity
  8
7
100
AcDbLine
 10
-3.849409448818896
 20
7.759842519685039
 30
0.0
 11
-3.849409448818896
 21
7.539370078740158
 31
0.0
  0
LINE
  5
2F07
330
1E
100
AcDbEntity
  8
7
100
AcDbLine
 10
-4.306102362204724
 20
8.811023622047244
 30
0.0
 11
-4.282480314960627
 21
8.799212598425199
 31
0.0
  0
LINE
  5
2F08
330
1E
100
AcDbEntity
  8
7
100
AcDbLine
 10
5.343503937007877
 20
7.759842519685039
 30
0.0
 11
4.882874015748033
 21
7.759842519685039
 31
0.0
  0
LINE
  5
2F09
330
1E
100
AcDbEntity
  8
7
100
AcDbLine
 10
-2.565944881889762
 20
8.811023622047244
 30
0.0
 11
-2.565944881889762
 21
8.858267716535433
 31
0.0
  0
LINE
  5
2F0A
330
1E
100
AcDbEntity
  8
7
100
AcDbLine
 10
0.9694881889763781
 20
8.921259842519685
 30
0.0
 11
0.9458661417322836
 21
8.90944881889764
 31
0.0
  0
LINE
  5
2F0B
330
1E
100
AcDbEntity
  8
7
100
AcDbLine
 10
6.776574803149607
 20
8.862204724409451
 30
0.0
 11
6.752952755905514
 21
8.846456692913388
 31
0.0
  0
LINE
  5
2F0C
330
1E
100
AcDbEntity
  8
7
100
AcDbLine
 10
9.099409448818899
 20
8.799212598425199
 30
0.0
 11
9.130905511811025
 21
8.799212598425199
 31
0.0
  0
LINE
  5
2F0D
330
1E
100
AcDbEntity
  8
7
100
AcDbLine
 10
4.071850393700787
 20
7.539370078740158
 30
0.0
 11
4.071850393700787
 21
7.759842519685039
 31
0.0
  0
LINE
  5
2F0E
330
1E
100
AcDbEntity
  8
7
100
AcDbLine
 10
12.11515748031496
 20
8.602362204724411
 30
0.0
 11
12.11515748031496
 21
8.511811023622048
 31
0.0
  0
LINE
  5
2F0F
330
1E
100
AcDbEntity
  8
7
100
AcDbLine
 10
6.650590551181103
 20
8.799212598425199
 30
0.0
 11
6.682086614173229
 21
8.799212598425199
 31
0.0
  0
LINE
  5
2F10
330
1E
100
AcDbEntity
  8
7
100
AcDbLine
 10
8.12696850393701
 20
8.811023622047244
 30
0.0
 11
8.142716535433073
 21
8.846456692913388
 31
0.0
  0
LINE
  5
2F11
330
1E
100
AcDbEntity
  8
7
100
AcDbLine
 10
10.83956692913385
 20
8.921259842519685
 30
0.0
 11
10.89074803149606
 21
8.921259842519685
 31
0.0
  0
LINE
  5
2F12
330
1E
100
AcDbEntity
  8
7
100
AcDbLine
 10
11.16240157480315
 20
7.539370078740158
 30
0.0
 11
11.16240157480315
 21
7.759842519685039
 31
0.0
  0
LINE
  5
2F13
330
1E
100
AcDbEntity
  8
7
100
AcDbLine
 10
6.21751968503937
 20
8.921259842519685
 30
0.0
 11
6.119094488188977
 21
8.921259842519685
 31
0.0
  0
LINE
  5
2F14
330
1E
100
AcDbEntity
  8
7
100
AcDbLine
 10
8.142716535433073
 20
8.874015748031496
 30
0.0
 11
8.12696850393701
 21
8.90944881889764
 31
0.0
  0
LINE
  5
2F15
330
1E
100
AcDbEntity
  8
7
100
AcDbLine
 10
10.91437007874015
 20
8.90944881889764
 30
0.0
 11
10.91437007874015
 21
8.885826771653544
 31
0.0
  0
LINE
  5
2F16
330
1E
100
AcDbEntity
  8
7
100
AcDbLine
 10
10.06791338582677
 20
7.759842519685039
 30
0.0
 11
10.06791338582677
 21
7.539370078740158
 31
0.0
  0
LINE
  5
2F17
330
1E
100
AcDbEntity
  8
7
100
AcDbLine
 10
6.032480314960633
 20
8.921259842519685
 30
0.0
 11
6.032480314960633
 21
8.799212598425199
 31
0.0
  0
LINE
  5
2F18
330
1E
100
AcDbEntity
  8
7
100
AcDbLine
 10
8.103346456692914
 20
8.921259842519685
 30
0.0
 11
8.079724409448822
 21
8.921259842519685
 31
0.0
  0
LINE
  5
2F19
330
1E
100
AcDbEntity
  8
7
100
AcDbLine
 10
10.81594488188976
 20
8.822834645669292
 30
0.0
 11
10.81594488188976
 21
8.799212598425199
 31
0.0
  0
LINE
  5
2F1A
330
1E
100
AcDbEntity
  8
7
100
AcDbLine
 10
10.52854330708661
 20
7.539370078740158
 30
0.0
 11
10.52854330708661
 21
7.759842519685039
 31
0.0
  0
LINE
  5
2F1B
330
1E
100
AcDbEntity
  8
7
100
AcDbLine
 10
6.024606299212599
 20
8.913385826771655
 30
0.0
 11
6.032480314960633
 21
8.921259842519685
 31
0.0
  0
LINE
  5
2F1C
330
1E
100
AcDbEntity
  8
7
100
AcDbLine
 10
8.052165354330711
 20
8.90944881889764
 30
0.0
 11
8.040354330708662
 21
8.874015748031496
 31
0.0
  0
LINE
  5
2F1D
330
1E
100
AcDbEntity
  8
7
100
AcDbLine
 10
10.81594488188976
 20
8.90944881889764
 30
0.0
 11
10.83956692913385
 21
8.921259842519685
 31
0.0
  0
LINE
  5
2F1E
330
1E
100
AcDbEntity
  8
7
100
AcDbLine
 10
9.434055118110237
 20
7.759842519685039
 30
0.0
 11
9.434055118110237
 21
7.539370078740158
 31
0.0
  0
LINE
  5
2F1F
330
1E
100
AcDbEntity
  8
7
100
AcDbLine
 10
4.552165354330711
 20
8.799212598425199
 30
0.0
 11
4.579724409448822
 21
8.811023622047244
 31
0.0
  0
LINE
  5
2F20
330
1E
100
AcDbEntity
  8
7
100
AcDbLine
 10
7.489173228346459
 20
8.897637795275592
 30
0.0
 11
7.465551181102362
 21
8.921259842519685
 31
0.0
  0
LINE
  5
2F21
330
1E
100
AcDbEntity
  8
7
100
AcDbLine
 10
10.18208661417322
 20
8.822834645669292
 30
0.0
 11
10.18208661417322
 21
8.799212598425199
 31
0.0
  0
LINE
  5
2F22
330
1E
100
AcDbEntity
  8
7
100
AcDbLine
 10
6.524606299212599
 20
7.759842519685039
 30
0.0
 11
6.524606299212599
 21
7.539370078740158
 31
0.0
  0
LINE
  5
2F23
330
1E
100
AcDbEntity
  8
7
100
AcDbLine
 10
7.79232283464567
 20
7.539370078740158
 30
0.0
 11
8.252952755905514
 21
7.539370078740158
 31
0.0
  0
LINE
  5
2F24
330
1E
100
AcDbEntity
  8
7
100
AcDbLine
 10
9.682086614173229
 20
8.90944881889764
 30
0.0
 11
9.705708661417325
 21
8.921259842519685
 31
0.0
  0
LINE
  5
2F25
330
1E
100
AcDbEntity
  8
7
100
AcDbLine
 10
11.78051181102362
 20
8.511811023622048
 30
0.0
 11
11.83562992125984
 21
8.511811023622048
 31
0.0
  0
LINE
  5
2F26
330
1E
100
AcDbEntity
  8
7
100
AcDbLine
 10
7.288385826771655
 20
8.799212598425199
 30
0.0
 11
7.319881889763781
 21
8.799212598425199
 31
0.0
  0
LINE
  5
2F27
330
1E
100
AcDbEntity
  8
7
100
AcDbLine
 10
4.579724409448822
 20
8.811023622047244
 30
0.0
 11
4.579724409448822
 21
8.858267716535433
 31
0.0
  0
LINE
  5
2F28
330
1E
100
AcDbEntity
  8
7
100
AcDbLine
 10
-5.121062992125983
 20
7.759842519685039
 30
0.0
 11
-5.121062992125983
 21
7.539370078740158
 31
0.0
  0
LINE
  5
2F29
330
1E
100
AcDbEntity
  8
7
100
AcDbLine
 10
3.233267716535433
 20
8.921259842519685
 30
0.0
 11
3.205708661417322
 21
8.90944881889764
 31
0.0
  0
LINE
  5
2F2A
330
1E
100
AcDbEntity
  8
7
100
AcDbLine
 10
1.497047244094489
 20
8.921259842519685
 30
0.0
 11
1.497047244094489
 21
8.799212598425199
 31
0.0
  0
LINE
  5
2F2B
330
1E
100
AcDbEntity
  8
7
100
AcDbLine
 10
1.020669291338583
 20
8.811023622047244
 30
0.0
 11
1.03248031496063
 21
8.846456692913388
 31
0.0
  0
LINE
  5
2F2C
330
1E
100
AcDbEntity
  8
7
100
AcDbLine
 10
3.284448818897639
 20
8.921259842519685
 30
0.0
 11
3.233267716535433
 21
8.921259842519685
 31
0.0
  0
LINE
  5
2F2D
330
1E
100
AcDbEntity
  8
7
100
AcDbLine
 10
0.9340551181102373
 20
8.846456692913388
 30
0.0
 11
0.9458661417322836
 21
8.811023622047244
 31
0.0
  0
LINE
  5
2F2E
330
1E
100
AcDbEntity
  8
7
100
AcDbLine
 10
1.796259842519685
 20
7.759842519685039
 30
0.0
 11
1.335629921259843
 21
7.759842519685039
 31
0.0
  0
LINE
  5
2F2F
330
1E
100
AcDbEntity
  8
7
100
AcDbLine
 10
-1.928149606299212
 20
8.822834645669292
 30
0.0
 11
-1.955708661417321
 21
8.799212598425199
 31
0.0
  0
LINE
  5
2F30
330
1E
100
AcDbEntity
  8
7
100
AcDbLine
 10
-4.939960629921257
 20
8.90944881889764
 30
0.0
 11
-4.916338582677164
 21
8.921259842519685
 31
0.0
  0
LINE
  5
2F31
330
1E
100
AcDbEntity
  8
7
100
AcDbLine
 10
-4.841535433070864
 20
8.885826771653544
 30
0.0
 11
-4.939960629921257
 21
8.822834645669292
 31
0.0
  0
LINE
  5
2F32
330
1E
100
AcDbEntity
  8
7
100
AcDbLine
 10
-0.7352362204724403
 20
8.799212598425199
 30
0.0
 11
-0.6840551181102348
 21
8.799212598425199
 31
0.0
  0
LINE
  5
2F33
330
1E
100
AcDbEntity
  8
7
100
AcDbLine
 10
3.918307086614172
 20
8.921259842519685
 30
0.0
 11
3.918307086614172
 21
8.799212598425199
 31
0.0
  0
LINE
  5
2F34
330
1E
100
AcDbEntity
  8
7
100
AcDbLine
 10
1.489173228346457
 20
8.913385826771655
 30
0.0
 11
1.497047244094489
 21
8.921259842519685
 31
0.0
  0
LINE
  5
2F35
330
1E
100
AcDbEntity
  8
7
100
AcDbLine
 10
4.500984251968507
 20
8.874015748031496
 30
0.0
 11
4.477362204724411
 21
8.862204724409451
 31
0.0
  0
LINE
  5
2F36
330
1E
100
AcDbEntity
  8
7
100
AcDbLine
 10
-4.487204724409446
 20
7.759842519685039
 30
0.0
 11
-4.487204724409446
 21
7.539370078740158
 31
0.0
  0
LINE
  5
2F37
330
1E
100
AcDbEntity
  8
7
100
AcDbLine
 10
-0.6604330708661404
 20
8.874015748031496
 30
0.0
 11
-0.6840551181102348
 21
8.862204724409451
 31
0.0
  0
LINE
  5
2F38
330
1E
100
AcDbEntity
  8
7
100
AcDbLine
 10
-2.664370078740156
 20
8.811023622047244
 30
0.0
 11
-2.640748031496062
 21
8.799212598425199
 31
0.0
  0
LINE
  5
2F39
330
1E
100
AcDbEntity
  8
7
100
AcDbLine
 10
-0.9399606299212589
 20
7.759842519685039
 30
0.0
 11
-0.9399606299212589
 21
7.539370078740158
 31
0.0
  0
LINE
  5
2F3A
330
1E
100
AcDbEntity
  8
7
100
AcDbLine
 10
-0.7588582677165348
 20
8.811023622047244
 30
0.0
 11
-0.7352362204724403
 21
8.799212598425199
 31
0.0
  0
LINE
  5
2F3B
330
1E
100
AcDbEntity
  8
7
100
AcDbLine
 10
3.741141732283465
 20
8.799212598425199
 30
0.0
 11
3.772637795275591
 21
8.799212598425199
 31
0.0
  0
LINE
  5
2F3C
330
1E
100
AcDbEntity
  8
7
100
AcDbLine
 10
3.756889763779528
 20
8.921259842519685
 30
0.0
 11
3.756889763779528
 21
8.799212598425199
 31
0.0
  0
LINE
  5
2F3D
330
1E
100
AcDbEntity
  8
7
100
AcDbLine
 10
-2.640748031496062
 20
8.799212598425199
 30
0.0
 11
-2.589566929133856
 21
8.799212598425199
 31
0.0
  0
LINE
  5
2F3E
330
1E
100
AcDbEntity
  8
7
100
AcDbLine
 10
-2.211614173228345
 20
7.539370078740158
 30
0.0
 11
-1.750984251968503
 21
7.539370078740158
 31
0.0
  0
LINE
  5
2F3F
330
1E
100
AcDbEntity
  8
7
100
AcDbLine
 10
-2.006889763779527
 20
8.799212598425199
 30
0.0
 11
-2.030511811023621
 21
8.822834645669292
 31
0.0
  0
LINE
  5
2F40
330
1E
100
AcDbEntity
  8
7
100
AcDbLine
 10
6.776574803149607
 20
8.862204724409451
 30
0.0
 11
6.752952755905514
 21
8.874015748031496
 31
0.0
  0
LINE
  5
2F41
330
1E
100
AcDbEntity
  8
7
100
AcDbLine
 10
8.930118110236222
 20
8.799212598425199
 30
0.0
 11
9.028543307086614
 21
8.799212598425199
 31
0.0
  0
LINE
  5
2F42
330
1E
100
AcDbEntity
  8
7
100
AcDbLine
 10
11.02854330708661
 20
8.921259842519685
 30
0.0
 11
11.02854330708661
 21
8.799212598425199
 31
0.0
  0
LINE
  5
2F43
330
1E
100
AcDbEntity
  8
7
100
AcDbLine
 10
10.70570866141732
 20
7.759842519685039
 30
0.0
 11
10.70570866141732
 21
7.539370078740158
 31
0.0
  0
LINE
  5
2F44
330
1E
100
AcDbEntity
  8
7
100
AcDbLine
 10
5.138779527559055
 20
8.874015748031496
 30
0.0
 11
5.189960629921262
 21
8.874015748031496
 31
0.0
  0
LINE
  5
2F45
330
1E
100
AcDbEntity
  8
7
100
AcDbLine
 10
0.0679133858267727
 20
7.539370078740158
 30
0.0
 11
0.5246062992125986
 21
7.539370078740158
 31
0.0
  0
LINE
  5
2F46
330
1E
100
AcDbEntity
  8
7
100
AcDbLine
 10
10.33956692913385
 20
8.799212598425199
 30
0.0
 11
10.39074803149606
 21
8.799212598425199
 31
0.0
  0
LINE
  5
2F47
330
1E
100
AcDbEntity
  8
7
100
AcDbLine
 10
9.894685039370081
 20
7.759842519685039
 30
0.0
 11
9.434055118110237
 21
7.759842519685039
 31
0.0
  0
LINE
  5
2F48
330
1E
100
AcDbEntity
  8
7
100
AcDbLine
 10
5.213582677165355
 20
8.846456692913388
 30
0.0
 11
5.213582677165355
 21
8.822834645669292
 31
0.0
  0
LINE
  5
2F49
330
1E
100
AcDbEntity
  8
7
100
AcDbLine
 10
8.052165354330711
 20
8.811023622047244
 30
0.0
 11
8.079724409448822
 21
8.799212598425199
 31
0.0
  0
LINE
  5
2F4A
330
1E
100
AcDbEntity
  8
7
100
AcDbLine
 10
10.41830708661417
 20
8.811023622047244
 30
0.0
 11
10.41830708661417
 21
8.846456692913388
 31
0.0
  0
LINE
  5
2F4B
330
1E
100
AcDbEntity
  8
7
100
AcDbLine
 10
9.434055118110237
 20
7.539370078740158
 30
0.0
 11
9.894685039370081
 21
7.539370078740158
 31
0.0
  0
LINE
  5
2F4C
330
1E
100
AcDbEntity
  8
7
100
AcDbLine
 10
5.189960629921262
 20
8.799212598425199
 30
0.0
 11
5.138779527559055
 21
8.799212598425199
 31
0.0
  0
LINE
  5
2F4D
330
1E
100
AcDbEntity
  8
7
100
AcDbLine
 10
8.103346456692914
 20
8.799212598425199
 30
0.0
 11
8.12696850393701
 21
8.811023622047244
 31
0.0
  0
LINE
  5
2F4E
330
1E
100
AcDbEntity
  8
7
100
AcDbLine
 10
10.39074803149606
 20
8.862204724409451
 30
0.0
 11
10.35531496062992
 21
8.862204724409451
 31
0.0
  0
LINE
  5
2F4F
330
1E
100
AcDbEntity
  8
7
100
AcDbLine
 10
9.260826771653544
 20
7.759842519685039
 30
0.0
 11
8.800196850393703
 21
7.759842519685039
 31
0.0
  0
LINE
  5
2F50
330
1E
100
AcDbEntity
  8
7
100
AcDbLine
 10
5.115157480314962
 20
8.822834645669292
 30
0.0
 11
5.115157480314962
 21
8.897637795275592
 31
0.0
  0
LINE
  5
2F51
330
1E
100
AcDbEntity
  8
7
100
AcDbLine
 10
7.981299212598425
 20
8.921259842519685
 30
0.0
 11
8.004921259842522
 21
8.90944881889764
 31
0.0
  0
LINE
  5
2F52
330
1E
100
AcDbEntity
  8
7
100
AcDbLine
 10
10.41830708661417
 20
8.874015748031496
 30
0.0
 11
10.41830708661417
 21
8.90944881889764
 31
0.0
  0
LINE
  5
2F53
330
1E
100
AcDbEntity
  8
7
100
AcDbLine
 10
8.800196850393703
 20
7.539370078740158
 30
0.0
 11
9.260826771653544
 21
7.539370078740158
 31
0.0
  0
LINE
  5
2F54
330
1E
100
AcDbEntity
  8
7
100
AcDbLine
 10
4.477362204724411
 20
8.811023622047244
 30
0.0
 11
4.500984251968507
 21
8.799212598425199
 31
0.0
  0
LINE
  5
2F55
330
1E
100
AcDbEntity
  8
7
100
AcDbLine
 10
7.390748031496066
 20
8.822834645669292
 30
0.0
 11
7.414370078740159
 21
8.799212598425199
 31
0.0
  0
LINE
  5
2F56
330
1E
100
AcDbEntity
  8
7
100
AcDbLine
 10
7.906496062992129
 20
8.799212598425199
 30
0.0
 11
8.004921259842522
 21
8.799212598425199
 31
0.0
  0
LINE
  5
2F57
330
1E
100
AcDbEntity
  8
7
100
AcDbLine
 10
9.548228346456696
 20
8.90944881889764
 30
0.0
 11
9.571850393700788
 21
8.921259842519685
 31
0.0
  0
LINE
  5
2F58
330
1E
100
AcDbEntity
  8
7
100
AcDbLine
 10
6.981299212598425
 20
7.539370078740158
 30
0.0
 11
6.981299212598425
 21
7.759842519685039
 31
0.0
  0
LINE
  5
2F59
330
1E
100
AcDbEntity
  8
7
100
AcDbLine
 10
12.01673228346457
 20
8.602362204724411
 30
0.0
 11
12.01673228346457
 21
8.511811023622048
 31
0.0
  0
LINE
  5
2F5A
330
1E
100
AcDbEntity
  8
7
100
AcDbLine
 10
11.93405511811023
 20
8.511811023622048
 30
0.0
 11
11.95374015748031
 21
8.531496062992125
 31
0.0
  0
LINE
  5
2F5B
330
1E
100
AcDbEntity
  8
7
100
AcDbLine
 10
7.414370078740159
 20
8.921259842519685
 30
0.0
 11
7.390748031496066
 21
8.897637795275592
 31
0.0
  0
LINE
  5
2F5C
330
1E
100
AcDbEntity
  8
7
100
AcDbLine
 10
-3.849409448818896
 20
7.539370078740158
 30
0.0
 11
-3.392716535433069
 21
7.539370078740158
 31
0.0
  0
LINE
  5
2F5D
330
1E
100
AcDbEntity
  8
7
100
AcDbLine
 10
-0.7588582677165348
 20
8.846456692913388
 30
0.0
 11
-0.7588582677165348
 21
8.811023622047244
 31
0.0
  0
LINE
  5
2F5E
330
1E
100
AcDbEntity
  8
7
100
AcDbLine
 10
-2.030511811023621
 20
8.897637795275592
 30
0.0
 11
-2.006889763779527
 21
8.921259842519685
 31
0.0
  0
LINE
  5
2F5F
330
1E
100
AcDbEntity
  8
7
100
AcDbLine
 10
4.382874015748033
 20
8.913385826771655
 30
0.0
 11
4.390748031496066
 21
8.921259842519685
 31
0.0
  0
LINE
  5
2F60
330
1E
100
AcDbEntity
  8
7
100
AcDbLine
 10
4.579724409448822
 20
8.858267716535433
 30
0.0
 11
4.552165354330711
 21
8.874015748031496
 31
0.0
  0
LINE
  5
2F61
330
1E
100
AcDbEntity
  8
7
100
AcDbLine
 10
-0.7588582677165348
 20
8.90944881889764
 30
0.0
 11
-0.7352362204724403
 21
8.921259842519685
 31
0.0
  0
LINE
  5
2F62
330
1E
100
AcDbEntity
  8
7
100
AcDbLine
 10
0.3198818897637801
 20
8.799212598425199
 30
0.0
 11
0.3474409448818911
 21
8.822834645669292
 31
0.0
  0
LINE
  5
2F63
330
1E
100
AcDbEntity
  8
7
100
AcDbLine
 10
0.0679133858267727
 20
7.759842519685039
 30
0.0
 11
0.0679133858267727
 21
7.539370078740158
 31
0.0
  0
LINE
  5
2F64
330
1E
100
AcDbEntity
  8
7
100
AcDbLine
 10
-4.231299212598424
 20
8.799212598425199
 30
0.0
 11
-4.203740157480313
 21
8.811023622047244
 31
0.0
  0
LINE
  5
2F65
330
1E
100
AcDbEntity
  8
7
100
AcDbLine
 10
-1.573818897637794
 20
7.539370078740158
 30
0.0
 11
-1.113188976377951
 21
7.539370078740158
 31
0.0
  0
LINE
  5
2F66
330
1E
100
AcDbEntity
  8
7
100
AcDbLine
 10
-0.6604330708661404
 20
8.846456692913388
 30
0.0
 11
-0.6840551181102348
 21
8.862204724409451
 31
0.0
  0
LINE
  5
2F67
330
1E
100
AcDbEntity
  8
7
100
AcDbLine
 10
-0.4793307086614163
 20
7.759842519685039
 30
0.0
 11
-0.9399606299212589
 21
7.759842519685039
 31
0.0
  0
LINE
  5
2F68
330
1E
100
AcDbEntity
  8
7
100
AcDbLine
 10
0.2726377952755912
 20
8.846456692913388
 30
0.0
 11
0.3198818897637801
 21
8.846456692913388
 31
0.0
  0
LINE
  5
2F69
330
1E
100
AcDbEntity
  8
7
100
AcDbLine
 10
8.142716535433073
 20
8.846456692913388
 30
0.0
 11
8.142716535433073
 21
8.874015748031496
 31
0.0
  0
LINE
  5
2F6A
330
1E
100
AcDbEntity
  8
7
100
AcDbLine
 10
-0.6840551181102348
 20
8.921259842519685
 30
0.0
 11
-0.6604330708661404
 21
8.90944881889764
 31
0.0
  0
LINE
  5
2F6B
330
1E
100
AcDbEntity
  8
7
100
AcDbLine
 10
-0.7352362204724403
 20
8.921259842519685
 30
0.0
 11
-0.6840551181102348
 21
8.921259842519685
 31
0.0
  0
LINE
  5
2F6C
330
1E
100
AcDbEntity
  8
7
100
AcDbLine
 10
3.611220472440944
 20
7.759842519685039
 30
0.0
 11
3.611220472440944
 21
7.539370078740158
 31
0.0
  0
LINE
  5
2F6D
330
1E
100
AcDbEntity
  8
7
100
AcDbLine
 10
0.9931102362204725
 20
8.799212598425199
 30
0.0
 11
1.020669291338583
 21
8.811023622047244
 31
0.0
  0
LINE
  5
2F6E
330
1E
100
AcDbEntity
  8
7
100
AcDbLine
 10
0.3474409448818911
 20
8.822834645669292
 30
0.0
 11
0.3474409448818911
 21
8.897637795275592
 31
0.0
  0
LINE
  5
2F6F
330
1E
100
AcDbEntity
  8
7
100
AcDbLine
 10
2.300196850393702
 20
8.885826771653544
 30
0.0
 11
2.201771653543307
 21
8.822834645669292
 31
0.0
  0
LINE
  5
2F70
330
1E
100
AcDbEntity
  8
7
100
AcDbLine
 10
3.233267716535433
 20
8.799212598425199
 30
0.0
 11
3.284448818897639
 21
8.799212598425199
 31
0.0
  0
LINE
  5
2F71
330
1E
100
AcDbEntity
  8
7
100
AcDbLine
 10
0.5246062992125986
 20
7.759842519685039
 30
0.0
 11
0.0679133858267727
 21
7.759842519685039
 31
0.0
  0
LINE
  5
2F72
330
1E
100
AcDbEntity
  8
7
100
AcDbLine
 10
-6.231299212598424
 20
8.641732283464566
 30
0.0
 11
-6.231299212598424
 21
8.5
 31
0.0
  0
LINE
  5
2F73
330
1E
100
AcDbEntity
  8
7
100
AcDbLine
 10
1.16240157480315
 20
7.539370078740158
 30
0.0
 11
1.16240157480315
 21
7.759842519685039
 31
0.0
  0
LINE
  5
2F74
330
1E
100
AcDbEntity
  8
7
100
AcDbLine
 10
-1.573818897637794
 20
7.759842519685039
 30
0.0
 11
-1.573818897637794
 21
7.539370078740158
 31
0.0
  0
LINE
  5
2F75
330
1E
100
AcDbEntity
  8
7
100
AcDbLine
 10
0.3198818897637801
 20
8.921259842519685
 30
0.0
 11
0.2726377952755912
 21
8.921259842519685
 31
0.0
  0
LINE
  5
2F76
330
1E
100
AcDbEntity
  8
7
100
AcDbLine
 10
-6.124999999999998
 20
7.460629921259843
 30
0.0
 11
-6.124999999999998
 21
7.539370078740158
 31
0.0
  0
LINE
  5
2F7C
330
1E
100
AcDbEntity
  8
7
100
AcDbLine
 10
-6.184055118110235
 20
7.401574803149606
 30
0.0
 11
-6.735236220472438
 21
7.401574803149606
 31
0.0
  0
LINE
  5
2F82
330
1E
100
AcDbEntity
  8
7
100
AcDbLine
 10
-6.794291338582675
 20
7.460629921259843
 30
0.0
 11
-6.794291338582675
 21
8.122047244094488
 31
0.0
  0
LINE
  5
2F8C
330
1E
100
AcDbEntity
  8
7
100
AcDbLine
 10
-6.514763779527557
 20
7.496062992125984
 30
0.0
 11
-6.396653543307085
 21
7.496062992125984
 31
0.0
  0
LINE
  5
2F8D
330
1E
100
AcDbEntity
  8
7
100
AcDbLine
 10
-6.396653543307085
 20
7.496062992125984
 30
0.0
 11
-6.329724409448816
 21
7.515748031496062
 31
0.0
  0
LINE
  5
2F9C
330
1E
100
AcDbEntity
  8
7
100
AcDbLine
 10
11.30413385826771
 20
8.673228346456692
 30
0.0
 11
8.658464566929136
 21
8.673228346456692
 31
0.0
  0
LINE
  5
2F9D
330
1E
100
AcDbEntity
  8
7
100
AcDbLine
 10
11.30413385826771
 20
7.826771653543306
 30
0.0
 11
11.30413385826771
 21
8.673228346456692
 31
0.0
  0
LINE
  5
2F9E
330
1E
100
AcDbEntity
  8
7
100
AcDbLine
 10
8.658464566929136
 20
7.826771653543306
 30
0.0
 11
11.30413385826771
 21
7.826771653543306
 31
0.0
  0
LINE
  5
2F9F
330
1E
100
AcDbEntity
  8
7
100
AcDbLine
 10
8.658464566929136
 20
7.826771653543306
 30
0.0
 11
8.658464566929136
 21
8.673228346456692
 31
0.0
  0
LINE
  5
2FA0
330
1E
100
AcDbEntity
  8
7
100
AcDbLine
 10
8.394685039370081
 20
8.673228346456692
 30
0.0
 11
5.749015748031496
 21
8.673228346456692
 31
0.0
  0
LINE
  5
2FA1
330
1E
100
AcDbEntity
  8
7
100
AcDbLine
 10
8.394685039370081
 20
7.826771653543306
 30
0.0
 11
8.394685039370081
 21
8.673228346456692
 31
0.0
  0
LINE
  5
2FA2
330
1E
100
AcDbEntity
  8
7
100
AcDbLine
 10
5.749015748031496
 20
7.826771653543306
 30
0.0
 11
8.394685039370081
 21
7.826771653543306
 31
0.0
  0
LINE
  5
2FA3
330
1E
100
AcDbEntity
  8
7
100
AcDbLine
 10
5.749015748031496
 20
7.826771653543306
 30
0.0
 11
5.749015748031496
 21
8.673228346456692
 31
0.0
  0
LINE
  5
2FA4
330
1E
100
AcDbEntity
  8
7
100
AcDbLine
 10
5.481299212598425
 20
8.673228346456692
 30
0.0
 11
2.835629921259842
 21
8.673228346456692
 31
0.0
  0
LINE
  5
2FA5
330
1E
100
AcDbEntity
  8
7
100
AcDbLine
 10
5.481299212598425
 20
7.826771653543306
 30
0.0
 11
5.481299212598425
 21
8.673228346456692
 31
0.0
  0
LINE
  5
2FA6
330
1E
100
AcDbEntity
  8
7
100
AcDbLine
 10
2.835629921259842
 20
7.826771653543306
 30
0.0
 11
5.481299212598425
 21
7.826771653543306
 31
0.0
  0
LINE
  5
2FA7
330
1E
100
AcDbEntity
  8
7
100
AcDbLine
 10
2.835629921259842
 20
7.826771653543306
 30
0.0
 11
2.835629921259842
 21
8.673228346456692
 31
0.0
  0
LINE
  5
2FA8
330
1E
100
AcDbEntity
  8
7
100
AcDbLine
 10
2.571850393700787
 20
8.673228346456692
 30
0.0
 11
-0.073818897637794
 21
8.673228346456692
 31
0.0
  0
LINE
  5
2FA9
330
1E
100
AcDbEntity
  8
7
100
AcDbLine
 10
2.571850393700787
 20
7.826771653543306
 30
0.0
 11
2.571850393700787
 21
8.673228346456692
 31
0.0
  0
LINE
  5
2FAA
330
1E
100
AcDbEntity
  8
7
100
AcDbLine
 10
-0.073818897637794
 20
7.826771653543306
 30
0.0
 11
2.571850393700787
 21
7.826771653543306
 31
0.0
  0
LINE
  5
2FAB
330
1E
100
AcDbEntity
  8
7
100
AcDbLine
 10
-0.073818897637794
 20
7.826771653543306
 30
0.0
 11
-0.073818897637794
 21
8.673228346456692
 31
0.0
  0
LINE
  5
2FAC
330
1E
100
AcDbEntity
  8
7
100
AcDbLine
 10
-0.3375984251968496
 20
8.673228346456692
 30
0.0
 11
-2.987204724409447
 21
8.673228346456692
 31
0.0
  0
LINE
  5
2FAD
330
1E
100
AcDbEntity
  8
7
100
AcDbLine
 10
-0.3375984251968496
 20
7.826771653543306
 30
0.0
 11
-0.3375984251968496
 21
8.673228346456692
 31
0.0
  0
LINE
  5
2FAE
330
1E
100
AcDbEntity
  8
7
100
AcDbLine
 10
-2.987204724409447
 20
7.826771653543306
 30
0.0
 11
-0.3375984251968496
 21
7.826771653543306
 31
0.0
  0
LINE
  5
2FAF
330
1E
100
AcDbEntity
  8
7
100
AcDbLine
 10
-2.987204724409447
 20
7.826771653543306
 30
0.0
 11
-2.987204724409447
 21
8.673228346456692
 31
0.0
  0
LINE
  5
2FB0
330
1E
100
AcDbEntity
  8
7
100
AcDbLine
 10
-3.250984251968503
 20
8.673228346456692
 30
0.0
 11
-5.896653543307085
 21
8.673228346456692
 31
0.0
  0
LINE
  5
2FB1
330
1E
100
AcDbEntity
  8
7
100
AcDbLine
 10
-3.250984251968503
 20
7.826771653543306
 30
0.0
 11
-3.250984251968503
 21
8.673228346456692
 31
0.0
  0
LINE
  5
2FB2
330
1E
100
AcDbEntity
  8
7
100
AcDbLine
 10
-5.896653543307085
 20
7.826771653543306
 30
0.0
 11
-3.250984251968503
 21
7.826771653543306
 31
0.0
  0
LINE
  5
2FB3
330
1E
100
AcDbEntity
  8
7
100
AcDbLine
 10
-5.896653543307085
 20
7.826771653543306
 30
0.0
 11
-5.896653543307085
 21
8.673228346456692
 31
0.0
  0
LINE
  5
2FB4
330
1E
100
AcDbEntity
  8
7
100
AcDbLine
 10
12.20570866141732
 20
7.996062992125984
 30
0.0
 11
12.20570866141732
 21
7.460629921259843
 31
0.0
  0
LINE
  5
2FB5
330
1E
100
AcDbEntity
  8
7
100
AcDbLine
 10
12.20570866141732
 20
7.996062992125984
 30
0.0
 11
12.07972440944882
 21
8.122047244094488
 31
0.0
  0
LINE
  5
2FB6
330
1E
100
AcDbEntity
  8
7
100
AcDbLine
 10
11.76476377952756
 20
8.122047244094488
 30
0.0
 11
12.07972440944882
 21
8.122047244094488
 31
0.0
  0
LINE
  5
2FC0
330
1E
100
AcDbEntity
  8
7
100
AcDbLine
 10
11.76476377952756
 20
8.401574803149607
 30
0.0
 11
12.20570866141732
 21
8.401574803149607
 31
0.0
  0
LINE
  5
2FC1
330
1E
100
AcDbEntity
  8
7
100
AcDbLine
 10
12.20570866141732
 20
9.059055118110237
 30
0.0
 11
12.20570866141732
 21
8.401574803149607
 31
0.0
  0
LINE
  5
2FC7
330
1E
100
AcDbEntity
  8
7
100
AcDbLine
 10
11.59547244094488
 20
9.122047244094488
 30
0.0
 11
12.14271653543307
 21
9.122047244094488
 31
0.0
  0
LINE
  5
2FCD
330
1E
100
AcDbEntity
  8
7
100
AcDbLine
 10
11.53248031496063
 20
8.980314960629922
 30
0.0
 11
11.53248031496063
 21
9.059055118110237
 31
0.0
  0
LINE
  5
2FDB
330
1E
100
AcDbEntity
  8
7
100
AcDbLine
 10
-6.124999999999998
 20
8.980314960629922
 30
0.0
 11
-6.109251968503935
 21
8.937007874015748
 31
0.0
  0
LINE
  5
2FE2
330
1E
100
AcDbEntity
  8
7
100
AcDbLine
 10
-6.124999999999998
 20
8.980314960629922
 30
0.0
 11
-6.124999999999998
 21
9.059055118110237
 31
0.0
  0
LINE
  5
2FE8
330
1E
100
AcDbEntity
  8
7
100
AcDbLine
 10
-6.735236220472438
 20
9.122047244094488
 30
0.0
 11
-6.184055118110235
 21
9.122047244094488
 31
0.0
  0
LINE
  5
2FEE
330
1E
100
AcDbEntity
  8
7
100
AcDbLine
 10
-6.794291338582675
 20
8.401574803149607
 30
0.0
 11
-6.794291338582675
 21
9.059055118110237
 31
0.0
  0
LINE
  5
2FEF
330
1E
100
AcDbEntity
  8
7
100
AcDbLine
 10
-6.794291338582675
 20
8.401574803149607
 30
0.0
 11
-6.357283464566927
 21
8.401574803149607
 31
0.0
  0
LINE
  5
2FFC
330
1E
100
AcDbEntity
  8
7
100
AcDbLine
 10
-6.794291338582675
 20
8.122047244094488
 30
0.0
 11
-6.357283464566927
 21
8.122047244094488
 31
0.0
  0
LINE
  5
3010
330
1E
100
AcDbEntity
  8
7
100
AcDbLine
 10
11.53248031496063
 20
7.460629921259843
 30
0.0
 11
11.53248031496063
 21
7.539370078740158
 31
0.0
  0
LINE
  5
3016
330
1E
100
AcDbEntity
  8
7
100
AcDbLine
 10
12.14271653543307
 20
7.401574803149606
 30
0.0
 11
11.59547244094488
 21
7.401574803149606
 31
0.0
  0
LINE
  5
3025
330
1E
100
AcDbEntity
  8
7
100
AcDbLine
 10
11.80413385826771
 20
7.775590551181102
 30
0.0
 11
11.92224409448819
 21
7.775590551181102
 31
0.0
  0
LINE
  5
3032
330
1E
100
AcDbEntity
  8
7
100
AcDbLine
 10
11.80413385826771
 20
7.496062992125984
 30
0.0
 11
11.92224409448819
 21
7.496062992125984
 31
0.0
  0
LINE
  5
303B
330
1E
100
AcDbEntity
  8
7
100
AcDbLine
 10
11.73326771653543
 20
8.767716535433073
 30
0.0
 11
11.80413385826771
 21
8.748031496062992
 31
0.0
  0
LINE
  5
303C
330
1E
100
AcDbEntity
  8
7
100
AcDbLine
 10
11.80413385826771
 20
9.023622047244096
 30
0.0
 11
11.92224409448819
 21
9.023622047244096
 31
0.0
  0
LINE
  5
3046
330
1E
100
AcDbEntity
  8
7
100
AcDbLine
 10
11.80413385826771
 20
8.744094488188977
 30
0.0
 11
11.92224409448819
 21
8.744094488188977
 31
0.0
  0
LINE
  5
3050
330
1E
100
AcDbEntity
  8
7
100
AcDbLine
 10
-6.514763779527557
 20
9.023622047244096
 30
0.0
 11
-6.396653543307085
 21
9.023622047244096
 31
0.0
  0
LINE
  5
305A
330
1E
100
AcDbEntity
  8
7
100
AcDbLine
 10
-6.514763779527557
 20
8.744094488188977
 30
0.0
 11
-6.396653543307085
 21
8.744094488188977
 31
0.0
  0
LINE
  5
305B
330
1E
100
AcDbEntity
  8
7
100
AcDbLine
 10
-6.514763779527557
 20
7.775590551181102
 30
0.0
 11
-6.396653543307085
 21
7.775590551181102
 31
0.0
  0
LINE
  5
306B
330
1E
100
AcDbEntity
  8
7
100
AcDbLine
 10
-5.18799212598425
 20
7.925196850393702
 30
0.0
 11
-4.609251968503935
 21
7.925196850393702
 31
0.0
  0
LINE
  5
306C
330
1E
100
AcDbEntity
  8
7
100
AcDbLine
 10
-3.258858267716534
 20
7.834645669291339
 30
0.0
 11
-5.888779527559053
 21
7.834645669291339
 31
0.0
  0
LINE
  5
3072
330
1E
100
AcDbEntity
  8
7
100
AcDbLine
 10
-5.83759842519685
 20
7.925196850393702
 30
0.0
 11
-5.258858267716535
 21
7.925196850393702
 31
0.0
  0
LINE
  5
3073
330
1E
100
AcDbEntity
  8
7
100
AcDbLine
 10
-6.022637795275588
 20
7.44488188976378
 30
0.0
 11
-6.006889763779525
 21
7.460629921259843
 31
0.0
  0
LINE
  5
3074
330
1E
100
AcDbEntity
  8
7
100
AcDbLine
 10
-6.022637795275588
 20
7.44488188976378
 30
0.0
 11
-6.006889763779525
 21
7.44488188976378
 31
0.0
  0
LINE
  5
3075
330
1E
100
AcDbEntity
  8
7
100
AcDbLine
 10
-5.83759842519685
 20
7.925196850393702
 30
0.0
 11
-5.83759842519685
 21
8.570866141732285
 31
0.0
  0
LINE
  5
3076
330
1E
100
AcDbEntity
  8
7
100
AcDbLine
 10
-5.888779527559053
 20
8.665354330708662
 30
0.0
 11
-5.888779527559053
 21
7.834645669291339
 31
0.0
  0
LINE
  5
3077
330
1E
100
AcDbEntity
  8
7
100
AcDbLine
 10
-5.888779527559053
 20
8.665354330708662
 30
0.0
 11
-5.888779527559053
 21
7.834645669291339
 31
0.0
  0
LINE
  5
3078
330
1E
100
AcDbEntity
  8
7
100
AcDbLine
 10
-6.022637795275588
 20
7.582677165354332
 30
0.0
 11
-6.022637795275588
 21
7.44488188976378
 31
0.0
  0
LINE
  5
3083
330
1E
100
AcDbEntity
  8
7
100
AcDbLine
 10
-3.258858267716534
 20
8.665354330708662
 30
0.0
 11
-5.888779527559053
 21
8.665354330708662
 31
0.0
  0
LINE
  5
3084
330
1E
100
AcDbEntity
  8
7
100
AcDbLine
 10
-3.258858267716534
 20
8.665354330708662
 30
0.0
 11
-3.258858267716534
 21
7.834645669291339
 31
0.0
  0
LINE
  5
3085
330
1E
100
AcDbEntity
  8
7
100
AcDbLine
 10
-5.258858267716535
 20
7.925196850393702
 30
0.0
 11
-5.258858267716535
 21
8.570866141732285
 31
0.0
  0
LINE
  5
3086
330
1E
100
AcDbEntity
  8
7
100
AcDbLine
 10
-5.83759842519685
 20
8.570866141732285
 30
0.0
 11
-5.258858267716535
 21
8.570866141732285
 31
0.0
  0
LINE
  5
3087
330
1E
100
AcDbEntity
  8
7
100
AcDbLine
 10
-4.609251968503935
 20
7.925196850393702
 30
0.0
 11
-4.609251968503935
 21
8.570866141732285
 31
0.0
  0
LINE
  5
308D
330
1E
100
AcDbEntity
  8
7
100
AcDbLine
 10
-3.888779527559054
 20
7.925196850393702
 30
0.0
 11
-3.888779527559054
 21
8.570866141732285
 31
0.0
  0
LINE
  5
308E
330
1E
100
AcDbEntity
  8
7
100
AcDbLine
 10
-3.31003937007874
 20
8.570866141732285
 30
0.0
 11
-3.888779527559054
 21
8.570866141732285
 31
0.0
  0
LINE
  5
308F
330
1E
100
AcDbEntity
  8
7
100
AcDbLine
 10
-3.31003937007874
 20
7.925196850393702
 30
0.0
 11
-3.31003937007874
 21
8.570866141732285
 31
0.0
  0
LINE
  5
3090
330
1E
100
AcDbEntity
  8
7
100
AcDbLine
 10
-3.31003937007874
 20
7.925196850393702
 30
0.0
 11
-3.888779527559054
 21
7.925196850393702
 31
0.0
  0
LINE
  5
3091
330
1E
100
AcDbEntity
  8
7
100
AcDbLine
 10
-4.538385826771651
 20
7.925196850393702
 30
0.0
 11
-4.538385826771651
 21
8.570866141732285
 31
0.0
  0
LINE
  5
3092
330
1E
100
AcDbEntity
  8
7
100
AcDbLine
 10
-3.959645669291337
 20
8.570866141732285
 30
0.0
 11
-4.538385826771651
 21
8.570866141732285
 31
0.0
  0
LINE
  5
3093
330
1E
100
AcDbEntity
  8
7
100
AcDbLine
 10
-3.959645669291337
 20
7.925196850393702
 30
0.0
 11
-3.959645669291337
 21
8.570866141732285
 31
0.0
  0
LINE
  5
3094
330
1E
100
AcDbEntity
  8
7
100
AcDbLine
 10
-3.959645669291337
 20
7.925196850393702
 30
0.0
 11
-4.538385826771651
 21
7.925196850393702
 31
0.0
  0
LINE
  5
3095
330
1E
100
AcDbEntity
  8
7
100
AcDbLine
 10
-6.018700787401572
 20
9.070866141732285
 30
0.0
 11
-6.006889763779525
 21
9.070866141732285
 31
0.0
  0
LINE
  5
3096
330
1E
100
AcDbEntity
  8
7
100
AcDbLine
 10
-3.254921259842518
 20
8.665354330708662
 30
0.0
 11
-3.258858267716534
 21
8.665354330708662
 31
0.0
  0
LINE
  5
3097
330
1E
100
AcDbEntity
  8
7
100
AcDbLine
 10
-2.278543307086612
 20
7.925196850393702
 30
0.0
 11
-1.695866141732282
 21
7.925196850393702
 31
0.0
  0
LINE
  5
309D
330
1E
100
AcDbEntity
  8
7
100
AcDbLine
 10
-2.928149606299212
 20
7.925196850393702
 30
0.0
 11
-2.345472440944881
 21
7.925196850393702
 31
0.0
  0
LINE
  5
309E
330
1E
100
AcDbEntity
  8
7
100
AcDbLine
 10
-2.928149606299212
 20
7.925196850393702
 30
0.0
 11
-2.928149606299212
 21
8.570866141732285
 31
0.0
  0
LINE
  5
309F
330
1E
100
AcDbEntity
  8
7
100
AcDbLine
 10
-2.979330708661416
 20
8.665354330708662
 30
0.0
 11
-2.979330708661416
 21
7.834645669291339
 31
0.0
  0
LINE
  5
30A0
330
1E
100
AcDbEntity
  8
7
100
AcDbLine
 10
-2.979330708661416
 20
8.665354330708662
 30
0.0
 11
-2.979330708661416
 21
7.834645669291339
 31
0.0
  0
LINE
  5
30A6
330
1E
100
AcDbEntity
  8
7
100
AcDbLine
 10
-0.345472440944881
 20
8.665354330708662
 30
0.0
 11
-2.979330708661416
 21
8.665354330708662
 31
0.0
  0
LINE
  5
30A7
330
1E
100
AcDbEntity
  8
7
100
AcDbLine
 10
-0.345472440944881
 20
8.665354330708662
 30
0.0
 11
-0.345472440944881
 21
7.834645669291339
 31
0.0
  0
LINE
  5
30A8
330
1E
100
AcDbEntity
  8
7
100
AcDbLine
 10
-2.345472440944881
 20
7.925196850393702
 30
0.0
 11
-2.345472440944881
 21
8.570866141732285
 31
0.0
  0
LINE
  5
30A9
330
1E
100
AcDbEntity
  8
7
100
AcDbLine
 10
-2.928149606299212
 20
8.570866141732285
 30
0.0
 11
-2.345472440944881
 21
8.570866141732285
 31
0.0
  0
LINE
  5
30AA
330
1E
100
AcDbEntity
  8
7
100
AcDbLine
 10
-1.695866141732282
 20
7.925196850393702
 30
0.0
 11
-1.695866141732282
 21
8.570866141732285
 31
0.0
  0
LINE
  5
30B0
330
1E
100
AcDbEntity
  8
7
100
AcDbLine
 10
-0.9753937007874014
 20
7.925196850393702
 30
0.0
 11
-0.9753937007874014
 21
8.570866141732285
 31
0.0
  0
LINE
  5
30B1
330
1E
100
AcDbEntity
  8
7
100
AcDbLine
 10
-0.3966535433070866
 20
8.570866141732285
 30
0.0
 11
-0.9753937007874014
 21
8.570866141732285
 31
0.0
  0
LINE
  5
30B2
330
1E
100
AcDbEntity
  8
7
100
AcDbLine
 10
-0.3966535433070866
 20
7.925196850393702
 30
0.0
 11
-0.3966535433070866
 21
8.570866141732285
 31
0.0
  0
LINE
  5
30B3
330
1E
100
AcDbEntity
  8
7
100
AcDbLine
 10
-0.3966535433070866
 20
7.925196850393702
 30
0.0
 11
-0.9753937007874014
 21
7.925196850393702
 31
0.0
  0
LINE
  5
30B4
330
1E
100
AcDbEntity
  8
7
100
AcDbLine
 10
-1.628937007874014
 20
7.925196850393702
 30
0.0
 11
-1.628937007874014
 21
8.570866141732285
 31
0.0
  0
LINE
  5
30B5
330
1E
100
AcDbEntity
  8
7
100
AcDbLine
 10
-1.046259842519684
 20
8.570866141732285
 30
0.0
 11
-1.628937007874014
 21
8.570866141732285
 31
0.0
  0
LINE
  5
30B6
330
1E
100
AcDbEntity
  8
7
100
AcDbLine
 10
-1.046259842519684
 20
7.925196850393702
 30
0.0
 11
-1.046259842519684
 21
8.570866141732285
 31
0.0
  0
LINE
  5
30B7
330
1E
100
AcDbEntity
  8
7
100
AcDbLine
 10
-1.046259842519684
 20
7.925196850393702
 30
0.0
 11
-1.628937007874014
 21
7.925196850393702
 31
0.0
  0
LINE
  5
30B8
330
1E
100
AcDbEntity
  8
7
100
AcDbLine
 10
0.6348425196850394
 20
7.925196850393702
 30
0.0
 11
1.213582677165354
 21
7.925196850393702
 31
0.0
  0
LINE
  5
30B9
330
1E
100
AcDbEntity
  8
7
100
AcDbLine
 10
2.563976377952756
 20
7.834645669291339
 30
0.0
 11
-0.0659448818897626
 21
7.834645669291339
 31
0.0
  0
LINE
  5
30BA
330
1E
100
AcDbEntity
  8
7
100
AcDbLine
 10
-0.0698818897637792
 20
7.834645669291339
 30
0.0
 11
-0.0659448818897626
 21
7.834645669291339
 31
0.0
  0
LINE
  5
30BB
330
1E
100
AcDbEntity
  8
7
100
AcDbLine
 10
-0.0698818897637792
 20
7.834645669291339
 30
0.0
 11
2.563976377952756
 21
7.834645669291339
 31
0.0
  0
LINE
  5
30BC
330
1E
100
AcDbEntity
  8
7
100
AcDbLine
 10
-0.0147637795275588
 20
7.925196850393702
 30
0.0
 11
0.5639763779527561
 21
7.925196850393702
 31
0.0
  0
LINE
  5
30BD
330
1E
100
AcDbEntity
  8
7
100
AcDbLine
 10
-0.0147637795275588
 20
7.925196850393702
 30
0.0
 11
-0.0147637795275588
 21
8.570866141732285
 31
0.0
  0
LINE
  5
30BE
330
1E
100
AcDbEntity
  8
7
100
AcDbLine
 10
-0.0698818897637792
 20
8.665354330708662
 30
0.0
 11
-0.0698818897637792
 21
7.834645669291339
 31
0.0
  0
LINE
  5
30BF
330
1E
100
AcDbEntity
  8
7
100
AcDbLine
 10
-0.0659448818897626
 20
8.665354330708662
 30
0.0
 11
-0.0659448818897626
 21
7.834645669291339
 31
0.0
  0
LINE
  5
30C0
330
1E
100
AcDbEntity
  8
7
100
AcDbLine
 10
-0.0698818897637792
 20
8.665354330708662
 30
0.0
 11
-0.0659448818897626
 21
8.665354330708662
 31
0.0
  0
LINE
  5
30C6
330
1E
100
AcDbEntity
  8
7
100
AcDbLine
 10
2.563976377952756
 20
8.665354330708662
 30
0.0
 11
-0.0659448818897626
 21
8.665354330708662
 31
0.0
  0
LINE
  5
30C7
330
1E
100
AcDbEntity
  8
7
100
AcDbLine
 10
2.563976377952756
 20
8.665354330708662
 30
0.0
 11
2.563976377952756
 21
7.834645669291339
 31
0.0
  0
LINE
  5
30C8
330
1E
100
AcDbEntity
  8
7
100
AcDbLine
 10
0.5639763779527561
 20
7.925196850393702
 30
0.0
 11
0.5639763779527561
 21
8.570866141732285
 31
0.0
  0
LINE
  5
30C9
330
1E
100
AcDbEntity
  8
7
100
AcDbLine
 10
-0.0147637795275588
 20
8.570866141732285
 30
0.0
 11
0.5639763779527561
 21
8.570866141732285
 31
0.0
  0
LINE
  5
30CA
330
1E
100
AcDbEntity
  8
7
100
AcDbLine
 10
1.213582677165354
 20
7.925196850393702
 30
0.0
 11
1.213582677165354
 21
8.570866141732285
 31
0.0
  0
LINE
  5
30D0
330
1E
100
AcDbEntity
  8
7
100
AcDbLine
 10
1.934055118110237
 20
7.925196850393702
 30
0.0
 11
1.934055118110237
 21
8.570866141732285
 31
0.0
  0
LINE
  5
30D1
330
1E
100
AcDbEntity
  8
7
100
AcDbLine
 10
2.512795275590552
 20
8.570866141732285
 30
0.0
 11
1.934055118110237
 21
8.570866141732285
 31
0.0
  0
LINE
  5
30D2
330
1E
100
AcDbEntity
  8
7
100
AcDbLine
 10
2.512795275590552
 20
7.925196850393702
 30
0.0
 11
2.512795275590552
 21
8.570866141732285
 31
0.0
  0
LINE
  5
30D3
330
1E
100
AcDbEntity
  8
7
100
AcDbLine
 10
2.512795275590552
 20
7.925196850393702
 30
0.0
 11
1.934055118110237
 21
7.925196850393702
 31
0.0
  0
LINE
  5
30D4
330
1E
100
AcDbEntity
  8
7
100
AcDbLine
 10
1.284448818897639
 20
7.925196850393702
 30
0.0
 11
1.284448818897639
 21
8.570866141732285
 31
0.0
  0
LINE
  5
30D5
330
1E
100
AcDbEntity
  8
7
100
AcDbLine
 10
1.863188976377954
 20
8.570866141732285
 30
0.0
 11
1.284448818897639
 21
8.570866141732285
 31
0.0
  0
LINE
  5
30D6
330
1E
100
AcDbEntity
  8
7
100
AcDbLine
 10
1.863188976377954
 20
7.925196850393702
 30
0.0
 11
1.863188976377954
 21
8.570866141732285
 31
0.0
  0
LINE
  5
30D7
330
1E
100
AcDbEntity
  8
7
100
AcDbLine
 10
1.863188976377954
 20
7.925196850393702
 30
0.0
 11
1.284448818897639
 21
7.925196850393702
 31
0.0
  0
LINE
  5
30D8
330
1E
100
AcDbEntity
  8
7
100
AcDbLine
 10
3.544291338582678
 20
7.925196850393702
 30
0.0
 11
4.12303149606299
 21
7.925196850393702
 31
0.0
  0
LINE
  5
30DE
330
1E
100
AcDbEntity
  8
7
100
AcDbLine
 10
2.894685039370079
 20
7.925196850393702
 30
0.0
 11
3.473425196850394
 21
7.925196850393702
 31
0.0
  0
LINE
  5
30DF
330
1E
100
AcDbEntity
  8
7
100
AcDbLine
 10
2.894685039370079
 20
7.925196850393702
 30
0.0
 11
2.894685039370079
 21
8.570866141732285
 31
0.0
  0
LINE
  5
30E0
330
1E
100
AcDbEntity
  8
7
100
AcDbLine
 10
2.843503937007874
 20
8.665354330708662
 30
0.0
 11
2.843503937007874
 21
7.834645669291339
 31
0.0
  0
LINE
  5
30E1
330
1E
100
AcDbEntity
  8
7
100
AcDbLine
 10
2.843503937007874
 20
8.665354330708662
 30
0.0
 11
2.843503937007874
 21
7.834645669291339
 31
0.0
  0
LINE
  5
30E7
330
1E
100
AcDbEntity
  8
7
100
AcDbLine
 10
5.477362204724411
 20
8.665354330708662
 30
0.0
 11
2.843503937007874
 21
8.665354330708662
 31
0.0
  0
LINE
  5
30E8
330
1E
100
AcDbEntity
  8
7
100
AcDbLine
 10
5.477362204724411
 20
8.665354330708662
 30
0.0
 11
5.477362204724411
 21
7.834645669291339
 31
0.0
  0
LINE
  5
30E9
330
1E
100
AcDbEntity
  8
7
100
AcDbLine
 10
3.473425196850394
 20
7.925196850393702
 30
0.0
 11
3.473425196850394
 21
8.570866141732285
 31
0.0
  0
LINE
  5
30EA
330
1E
100
AcDbEntity
  8
7
100
AcDbLine
 10
2.894685039370079
 20
8.570866141732285
 30
0.0
 11
3.473425196850394
 21
8.570866141732285
 31
0.0
  0
LINE
  5
30EB
330
1E
100
AcDbEntity
  8
7
100
AcDbLine
 10
4.12303149606299
 20
7.925196850393702
 30
0.0
 11
4.12303149606299
 21
8.570866141732285
 31
0.0
  0
LINE
  5
30F1
330
1E
100
AcDbEntity
  8
7
100
AcDbLine
 10
4.843503937007877
 20
7.925196850393702
 30
0.0
 11
4.843503937007877
 21
8.570866141732285
 31
0.0
  0
LINE
  5
30F2
330
1E
100
AcDbEntity
  8
7
100
AcDbLine
 10
5.426181102362207
 20
8.570866141732285
 30
0.0
 11
4.843503937007877
 21
8.570866141732285
 31
0.0
  0
LINE
  5
30F3
330
1E
100
AcDbEntity
  8
7
100
AcDbLine
 10
5.426181102362207
 20
7.925196850393702
 30
0.0
 11
5.426181102362207
 21
8.570866141732285
 31
0.0
  0
LINE
  5
30F4
330
1E
100
AcDbEntity
  8
7
100
AcDbLine
 10
5.426181102362207
 20
7.925196850393702
 30
0.0
 11
4.843503937007877
 21
7.925196850393702
 31
0.0
  0
LINE
  5
30F5
330
1E
100
AcDbEntity
  8
7
100
AcDbLine
 10
4.193897637795275
 20
7.925196850393702
 30
0.0
 11
4.193897637795275
 21
8.570866141732285
 31
0.0
  0
LINE
  5
30F6
330
1E
100
AcDbEntity
  8
7
100
AcDbLine
 10
4.776574803149607
 20
8.570866141732285
 30
0.0
 11
4.193897637795275
 21
8.570866141732285
 31
0.0
  0
LINE
  5
30F7
330
1E
100
AcDbEntity
  8
7
100
AcDbLine
 10
4.776574803149607
 20
7.925196850393702
 30
0.0
 11
4.776574803149607
 21
8.570866141732285
 31
0.0
  0
LINE
  5
30F8
330
1E
100
AcDbEntity
  8
7
100
AcDbLine
 10
4.776574803149607
 20
7.925196850393702
 30
0.0
 11
4.193897637795275
 21
7.925196850393702
 31
0.0
  0
LINE
  5
30F9
330
1E
100
AcDbEntity
  8
7
100
AcDbLine
 10
6.453740157480318
 20
7.925196850393702
 30
0.0
 11
7.036417322834648
 21
7.925196850393702
 31
0.0
  0
LINE
  5
30FF
330
1E
100
AcDbEntity
  8
7
100
AcDbLine
 10
5.804133858267718
 20
7.925196850393702
 30
0.0
 11
6.386811023622048
 21
7.925196850393702
 31
0.0
  0
LINE
  5
3100
330
1E
100
AcDbEntity
  8
7
100
AcDbLine
 10
5.804133858267718
 20
7.925196850393702
 30
0.0
 11
5.804133858267718
 21
8.570866141732285
 31
0.0
  0
LINE
  5
3101
330
1E
100
AcDbEntity
  8
7
100
AcDbLine
 10
5.752952755905514
 20
8.665354330708662
 30
0.0
 11
5.752952755905514
 21
7.834645669291339
 31
0.0
  0
LINE
  5
3102
330
1E
100
AcDbEntity
  8
7
100
AcDbLine
 10
5.752952755905514
 20
8.665354330708662
 30
0.0
 11
5.752952755905514
 21
7.834645669291339
 31
0.0
  0
LINE
  5
3108
330
1E
100
AcDbEntity
  8
7
100
AcDbLine
 10
8.386811023622048
 20
8.665354330708662
 30
0.0
 11
5.752952755905514
 21
8.665354330708662
 31
0.0
  0
LINE
  5
3109
330
1E
100
AcDbEntity
  8
7
100
AcDbLine
 10
8.386811023622048
 20
8.665354330708662
 30
0.0
 11
8.386811023622048
 21
7.834645669291339
 31
0.0
  0
LINE
  5
310A
330
1E
100
AcDbEntity
  8
7
100
AcDbLine
 10
6.386811023622048
 20
7.925196850393702
 30
0.0
 11
6.386811023622048
 21
8.570866141732285
 31
0.0
  0
LINE
  5
310B
330
1E
100
AcDbEntity
  8
7
100
AcDbLine
 10
5.804133858267718
 20
8.570866141732285
 30
0.0
 11
6.386811023622048
 21
8.570866141732285
 31
0.0
  0
LINE
  5
310C
330
1E
100
AcDbEntity
  8
7
100
AcDbLine
 10
7.036417322834648
 20
7.925196850393702
 30
0.0
 11
7.036417322834648
 21
8.570866141732285
 31
0.0
  0
LINE
  5
3112
330
1E
100
AcDbEntity
  8
7
100
AcDbLine
 10
7.756889763779529
 20
7.925196850393702
 30
0.0
 11
7.756889763779529
 21
8.570866141732285
 31
0.0
  0
LINE
  5
3113
330
1E
100
AcDbEntity
  8
7
100
AcDbLine
 10
8.335629921259844
 20
8.570866141732285
 30
0.0
 11
7.756889763779529
 21
8.570866141732285
 31
0.0
  0
LINE
  5
3114
330
1E
100
AcDbEntity
  8
7
100
AcDbLine
 10
8.335629921259844
 20
7.925196850393702
 30
0.0
 11
8.335629921259844
 21
8.570866141732285
 31
0.0
  0
LINE
  5
3115
330
1E
100
AcDbEntity
  8
7
100
AcDbLine
 10
8.335629921259844
 20
7.925196850393702
 30
0.0
 11
7.756889763779529
 21
7.925196850393702
 31
0.0
  0
LINE
  5
3116
330
1E
100
AcDbEntity
  8
7
100
AcDbLine
 10
7.107283464566929
 20
7.925196850393702
 30
0.0
 11
7.107283464566929
 21
8.570866141732285
 31
0.0
  0
LINE
  5
3117
330
1E
100
AcDbEntity
  8
7
100
AcDbLine
 10
7.686023622047244
 20
8.570866141732285
 30
0.0
 11
7.107283464566929
 21
8.570866141732285
 31
0.0
  0
LINE
  5
3118
330
1E
100
AcDbEntity
  8
7
100
AcDbLine
 10
7.686023622047244
 20
7.925196850393702
 30
0.0
 11
7.686023622047244
 21
8.570866141732285
 31
0.0
  0
LINE
  5
3119
330
1E
100
AcDbEntity
  8
7
100
AcDbLine
 10
7.686023622047244
 20
7.925196850393702
 30
0.0
 11
7.107283464566929
 21
7.925196850393702
 31
0.0
  0
LINE
  5
311A
330
1E
100
AcDbEntity
  8
7
100
AcDbLine
 10
9.36712598425197
 20
7.925196850393702
 30
0.0
 11
9.945866141732285
 21
7.925196850393702
 31
0.0
  0
LINE
  5
3121
330
1E
100
AcDbEntity
  8
7
100
AcDbLine
 10
8.71751968503937
 20
7.925196850393702
 30
0.0
 11
9.296259842519685
 21
7.925196850393702
 31
0.0
  0
LINE
  5
3122
330
1E
100
AcDbEntity
  8
7
100
AcDbLine
 10
11.43011811023622
 20
7.44488188976378
 30
0.0
 11
11.41437007874015
 21
7.44488188976378
 31
0.0
  0
LINE
  5
3123
330
1E
100
AcDbEntity
  8
7
100
AcDbLine
 10
11.43011811023622
 20
7.44488188976378
 30
0.0
 11
11.41437007874015
 21
7.460629921259843
 31
0.0
  0
LINE
  5
3124
330
1E
100
AcDbEntity
  8
7
100
AcDbLine
 10
8.71751968503937
 20
7.925196850393702
 30
0.0
 11
8.71751968503937
 21
8.570866141732285
 31
0.0
  0
LINE
  5
3125
330
1E
100
AcDbEntity
  8
7
100
AcDbLine
 10
8.666338582677166
 20
8.665354330708662
 30
0.0
 11
8.666338582677166
 21
7.834645669291339
 31
0.0
  0
LINE
  5
3126
330
1E
100
AcDbEntity
  8
7
100
AcDbLine
 10
8.666338582677166
 20
8.665354330708662
 30
0.0
 11
8.666338582677166
 21
7.834645669291339
 31
0.0
  0
LINE
  5
3127
330
1E
100
AcDbEntity
  8
7
100
AcDbLine
 10
11.43011811023622
 20
7.582677165354332
 30
0.0
 11
11.43011811023622
 21
7.44488188976378
 31
0.0
  0
LINE
  5
312D
330
1E
100
AcDbEntity
  8
7
100
AcDbLine
 10
11.29625984251968
 20
8.665354330708662
 30
0.0
 11
8.666338582677166
 21
8.665354330708662
 31
0.0
  0
LINE
  5
312E
330
1E
100
AcDbEntity
  8
7
100
AcDbLine
 10
11.29625984251968
 20
8.665354330708662
 30
0.0
 11
11.29625984251968
 21
7.834645669291339
 31
0.0
  0
LINE
  5
312F
330
1E
100
AcDbEntity
  8
7
100
AcDbLine
 10
9.296259842519685
 20
7.925196850393702
 30
0.0
 11
9.296259842519685
 21
8.570866141732285
 31
0.0
  0
LINE
  5
3130
330
1E
100
AcDbEntity
  8
7
100
AcDbLine
 10
8.71751968503937
 20
8.570866141732285
 30
0.0
 11
9.296259842519685
 21
8.570866141732285
 31
0.0
  0
LINE
  5
3131
330
1E
100
AcDbEntity
  8
7
100
AcDbLine
 10
9.945866141732285
 20
7.925196850393702
 30
0.0
 11
9.945866141732285
 21
8.570866141732285
 31
0.0
  0
LINE
  5
3137
330
1E
100
AcDbEntity
  8
7
100
AcDbLine
 10
10.66633858267716
 20
7.925196850393702
 30
0.0
 11
10.66633858267716
 21
8.570866141732285
 31
0.0
  0
LINE
  5
3138
330
1E
100
AcDbEntity
  8
7
100
AcDbLine
 10
11.24507874015748
 20
8.570866141732285
 30
0.0
 11
10.66633858267716
 21
8.570866141732285
 31
0.0
  0
LINE
  5
3139
330
1E
100
AcDbEntity
  8
7
100
AcDbLine
 10
11.24507874015748
 20
7.925196850393702
 30
0.0
 11
11.24507874015748
 21
8.570866141732285
 31
0.0
  0
LINE
  5
313A
330
1E
100
AcDbEntity
  8
7
100
AcDbLine
 10
11.24507874015748
 20
7.925196850393702
 30
0.0
 11
10.66633858267716
 21
7.925196850393702
 31
0.0
  0
LINE
  5
313B
330
1E
100
AcDbEntity
  8
7
100
AcDbLine
 10
10.01673228346457
 20
7.925196850393702
 30
0.0
 11
10.01673228346457
 21
8.570866141732285
 31
0.0
  0
LINE
  5
313C
330
1E
100
AcDbEntity
  8
7
100
AcDbLine
 10
10.59547244094488
 20
8.570866141732285
 30
0.0
 11
10.01673228346457
 21
8.570866141732285
 31
0.0
  0
LINE
  5
313D
330
1E
100
AcDbEntity
  8
7
100
AcDbLine
 10
10.59547244094488
 20
7.925196850393702
 30
0.0
 11
10.59547244094488
 21
8.570866141732285
 31
0.0
  0
LINE
  5
313E
330
1E
100
AcDbEntity
  8
7
100
AcDbLine
 10
10.59547244094488
 20
7.925196850393702
 30
0.0
 11
10.01673228346457
 21
7.925196850393702
 31
0.0
  0
LINE
  5
3144
330
1E
100
AcDbEntity
  8
7
100
AcDbLine
 10
11.3001968503937
 20
8.665354330708662
 30
0.0
 11
11.29625984251968
 21
8.665354330708662
 31
0.0
  0
LINE
  5
3145
330
1E
100
AcDbEntity
  8
7
100
AcDbLine
 10
11.4261811023622
 20
9.070866141732285
 30
0.0
 11
11.4261811023622
 21
8.940944881889766
 31
0.0
  0
LINE
  5
3874
330
1E
100
AcDbEntity
  8
7
100
AcDbLine
 10
11.41437007874015
 20
9.059055118110237
 30
0.0
 11
11.4261811023622
 21
9.070866141732285
 31
0.0
  0
LINE
  5
3875
330
1E
100
AcDbEntity
  8
7
100
AcDbLine
 10
11.4261811023622
 20
9.070866141732285
 30
0.0
 11
11.41437007874015
 21
9.070866141732285
 31
0.0
  0
LINE
  5
3876
330
1E
100
AcDbEntity
  8
7
100
AcDbLine
 10
9.36712598425197
 20
7.925196850393702
 30
0.0
 11
9.36712598425197
 21
8.570866141732285
 31
0.0
  0
LINE
  5
3877
330
1E
100
AcDbEntity
  8
7
100
AcDbLine
 10
9.36712598425197
 20
8.570866141732285
 30
0.0
 11
9.945866141732285
 21
8.570866141732285
 31
0.0
  0
LINE
  5
3878
330
1E
100
AcDbEntity
  8
7
100
AcDbLine
 10
8.666338582677166
 20
8.665354330708662
 30
0.0
 11
11.3001968503937
 21
8.665354330708662
 31
0.0
  0
LINE
  5
3879
330
1E
100
AcDbEntity
  8
7
100
AcDbLine
 10
11.3001968503937
 20
8.665354330708662
 30
0.0
 11
11.3001968503937
 21
7.834645669291339
 31
0.0
  0
LINE
  5
387A
330
1E
100
AcDbEntity
  8
7
100
AcDbLine
 10
11.29625984251968
 20
7.834645669291339
 30
0.0
 11
8.666338582677166
 21
7.834645669291339
 31
0.0
  0
LINE
  5
387B
330
1E
100
AcDbEntity
  8
7
100
AcDbLine
 10
8.666338582677166
 20
7.834645669291339
 30
0.0
 11
11.3001968503937
 21
7.834645669291339
 31
0.0
  0
LINE
  5
387C
330
1E
100
AcDbEntity
  8
7
100
AcDbLine
 10
11.3001968503937
 20
7.834645669291339
 30
0.0
 11
11.29625984251968
 21
7.834645669291339
 31
0.0
  0
LINE
  5
387D
330
1E
100
AcDbEntity
  8
7
100
AcDbLine
 10
6.453740157480318
 20
7.925196850393702
 30
0.0
 11
6.453740157480318
 21
8.570866141732285
 31
0.0
  0
LINE
  5
387E
330
1E
100
AcDbEntity
  8
7
100
AcDbLine
 10
6.453740157480318
 20
8.570866141732285
 30
0.0
 11
7.036417322834648
 21
8.570866141732285
 31
0.0
  0
LINE
  5
387F
330
1E
100
AcDbEntity
  8
7
100
AcDbLine
 10
5.752952755905514
 20
8.665354330708662
 30
0.0
 11
8.386811023622048
 21
8.665354330708662
 31
0.0
  0
LINE
  5
3880
330
1E
100
AcDbEntity
  8
7
100
AcDbLine
 10
8.386811023622048
 20
8.665354330708662
 30
0.0
 11
8.386811023622048
 21
7.834645669291339
 31
0.0
  0
LINE
  5
3881
330
1E
100
AcDbEntity
  8
7
100
AcDbLine
 10
8.386811023622048
 20
7.834645669291339
 30
0.0
 11
5.752952755905514
 21
7.834645669291339
 31
0.0
  0
LINE
  5
3882
330
1E
100
AcDbEntity
  8
7
100
AcDbLine
 10
5.752952755905514
 20
7.834645669291339
 30
0.0
 11
8.386811023622048
 21
7.834645669291339
 31
0.0
  0
LINE
  5
3883
330
1E
100
AcDbEntity
  8
7
100
AcDbLine
 10
3.544291338582678
 20
7.925196850393702
 30
0.0
 11
3.544291338582678
 21
8.570866141732285
 31
0.0
  0
LINE
  5
3884
330
1E
100
AcDbEntity
  8
7
100
AcDbLine
 10
3.544291338582678
 20
8.570866141732285
 30
0.0
 11
4.12303149606299
 21
8.570866141732285
 31
0.0
  0
LINE
  5
3885
330
1E
100
AcDbEntity
  8
7
100
AcDbLine
 10
2.843503937007874
 20
8.665354330708662
 30
0.0
 11
5.477362204724411
 21
8.665354330708662
 31
0.0
  0
LINE
  5
3886
330
1E
100
AcDbEntity
  8
7
100
AcDbLine
 10
5.477362204724411
 20
8.665354330708662
 30
0.0
 11
5.477362204724411
 21
7.834645669291339
 31
0.0
  0
LINE
  5
3887
330
1E
100
AcDbEntity
  8
7
100
AcDbLine
 10
5.477362204724411
 20
7.834645669291339
 30
0.0
 11
2.843503937007874
 21
7.834645669291339
 31
0.0
  0
LINE
  5
3888
330
1E
100
AcDbEntity
  8
7
100
AcDbLine
 10
2.843503937007874
 20
7.834645669291339
 30
0.0
 11
5.477362204724411
 21
7.834645669291339
 31
0.0
  0
LINE
  5
3889
330
1E
100
AcDbEntity
  8
7
100
AcDbLine
 10
0.6348425196850394
 20
7.925196850393702
 30
0.0
 11
0.6348425196850394
 21
8.570866141732285
 31
0.0
  0
LINE
  5
388A
330
1E
100
AcDbEntity
  8
7
100
AcDbLine
 10
0.6348425196850394
 20
8.570866141732285
 30
0.0
 11
1.213582677165354
 21
8.570866141732285
 31
0.0
  0
LINE
  5
388B
330
1E
100
AcDbEntity
  8
7
100
AcDbLine
 10
-0.0698818897637792
 20
8.665354330708662
 30
0.0
 11
2.563976377952756
 21
8.665354330708662
 31
0.0
  0
LINE
  5
388C
330
1E
100
AcDbEntity
  8
7
100
AcDbLine
 10
2.563976377952756
 20
8.665354330708662
 30
0.0
 11
2.563976377952756
 21
7.834645669291339
 31
0.0
  0
LINE
  5
388D
330
1E
100
AcDbEntity
  8
7
100
AcDbLine
 10
-2.278543307086612
 20
7.925196850393702
 30
0.0
 11
-2.278543307086612
 21
8.570866141732285
 31
0.0
  0
LINE
  5
388E
330
1E
100
AcDbEntity
  8
7
100
AcDbLine
 10
-2.278543307086612
 20
8.570866141732285
 30
0.0
 11
-1.695866141732282
 21
8.570866141732285
 31
0.0
  0
LINE
  5
388F
330
1E
100
AcDbEntity
  8
7
100
AcDbLine
 10
-2.979330708661416
 20
8.665354330708662
 30
0.0
 11
-0.345472440944881
 21
8.665354330708662
 31
0.0
  0
LINE
  5
3890
330
1E
100
AcDbEntity
  8
7
100
AcDbLine
 10
-0.345472440944881
 20
8.665354330708662
 30
0.0
 11
-0.345472440944881
 21
7.834645669291339
 31
0.0
  0
LINE
  5
3891
330
1E
100
AcDbEntity
  8
7
100
AcDbLine
 10
-0.345472440944881
 20
7.834645669291339
 30
0.0
 11
-2.979330708661416
 21
7.834645669291339
 31
0.0
  0
LINE
  5
3892
330
1E
100
AcDbEntity
  8
7
100
AcDbLine
 10
-2.979330708661416
 20
7.834645669291339
 30
0.0
 11
-0.345472440944881
 21
7.834645669291339
 31
0.0
  0
LINE
  5
3893
330
1E
100
AcDbEntity
  8
7
100
AcDbLine
 10
-5.18799212598425
 20
7.925196850393702
 30
0.0
 11
-5.18799212598425
 21
8.570866141732285
 31
0.0
  0
LINE
  5
3894
330
1E
100
AcDbEntity
  8
7
100
AcDbLine
 10
-5.18799212598425
 20
8.570866141732285
 30
0.0
 11
-4.609251968503935
 21
8.570866141732285
 31
0.0
  0
LINE
  5
3895
330
1E
100
AcDbEntity
  8
7
100
AcDbLine
 10
-5.888779527559053
 20
8.665354330708662
 30
0.0
 11
-3.254921259842518
 21
8.665354330708662
 31
0.0
  0
LINE
  5
3896
330
1E
100
AcDbEntity
  8
7
100
AcDbLine
 10
-3.254921259842518
 20
8.665354330708662
 30
0.0
 11
-3.254921259842518
 21
7.834645669291339
 31
0.0
  0
LINE
  5
3897
330
1E
100
AcDbEntity
  8
7
100
AcDbLine
 10
-6.006889763779525
 20
9.059055118110237
 30
0.0
 11
-6.018700787401572
 21
9.070866141732285
 31
0.0
  0
LINE
  5
3898
330
1E
100
AcDbEntity
  8
7
100
AcDbLine
 10
-6.018700787401572
 20
9.070866141732285
 30
0.0
 11
-6.018700787401572
 21
8.940944881889766
 31
0.0
  0
LINE
  5
3899
330
1E
100
AcDbEntity
  8
7
100
AcDbLine
 10
-5.888779527559053
 20
7.834645669291339
 30
0.0
 11
-3.254921259842518
 21
7.834645669291339
 31
0.0
  0
LINE
  5
389A
330
1E
100
AcDbEntity
  8
7
100
AcDbLine
 10
-3.254921259842518
 20
7.834645669291339
 30
0.0
 11
-3.258858267716534
 21
7.834645669291339
 31
0.0
  0
LINE
  5
389B
330
1E
100
AcDbEntity
  8
7
100
AcDbLine
 10
11.41437007874015
 20
7.472440944881891
 30
0.0
 11
11.41437007874015
 21
7.421259842519684
 31
0.0
  0
LINE
  5
389C
330
1E
100
AcDbEntity
  8
7
100
AcDbLine
 10
11.41437007874015
 20
7.421259842519684
 30
0.0
 11
11.41437007874015
 21
7.401574803149606
 31
0.0
  0
LINE
  5
389D
330
1E
100
AcDbEntity
  8
7
100
AcDbLine
 10
11.41437007874015
 20
9.118110236220474
 30
0.0
 11
11.41437007874015
 21
9.098425196850396
 31
0.0
  0
LINE
  5
389E
330
1E
100
AcDbEntity
  8
7
100
AcDbLine
 10
11.41437007874015
 20
9.098425196850396
 30
0.0
 11
11.41437007874015
 21
9.051181102362207
 31
0.0
  0
LINE
  5
389F
330
1E
100
AcDbEntity
  8
7
100
AcDbLine
 10
-6.006889763779525
 20
9.051181102362207
 30
0.0
 11
-6.006889763779525
 21
9.098425196850396
 31
0.0
  0
LINE
  5
38A0
330
1E
100
AcDbEntity
  8
7
100
AcDbLine
 10
-6.006889763779525
 20
9.098425196850396
 30
0.0
 11
-6.006889763779525
 21
9.118110236220474
 31
0.0
  0
LINE
  5
38A1
330
1E
100
AcDbEntity
  8
7
100
AcDbLine
 10
-6.396653543307085
 20
8.748031496062992
 30
0.0
 11
-6.329724409448816
 21
8.767716535433073
 31
0.0
  0
LINE
  5
38A2
330
1E
100
AcDbEntity
  8
7
100
AcDbLine
 10
-6.329724409448816
 20
8.767716535433073
 30
0.0
 11
-6.278543307086613
 21
8.814960629921262
 31
0.0
  0
LINE
  5
38A3
330
1E
100
AcDbEntity
  8
7
100
AcDbLine
 10
-6.278543307086613
 20
8.814960629921262
 30
0.0
 11
-6.258858267716535
 21
8.885826771653544
 31
0.0
  0
LINE
  5
38A4
330
1E
100
AcDbEntity
  8
7
100
AcDbLine
 10
-6.258858267716535
 20
8.885826771653544
 30
0.0
 11
-6.278543307086613
 21
8.952755905511811
 31
0.0
  0
LINE
  5
38A5
330
1E
100
AcDbEntity
  8
7
100
AcDbLine
 10
-6.278543307086613
 20
8.952755905511811
 30
0.0
 11
-6.325787401574801
 21
9.003937007874018
 31
0.0
  0
LINE
  5
38A6
330
1E
100
AcDbEntity
  8
7
100
AcDbLine
 10
-6.325787401574801
 20
9.003937007874018
 30
0.0
 11
-6.396653543307085
 21
9.023622047244096
 31
0.0
  0
LINE
  5
38A7
330
1E
100
AcDbEntity
  8
7
100
AcDbLine
 10
-6.514763779527557
 20
9.023622047244096
 30
0.0
 11
-6.581692913385825
 21
9.003937007874018
 31
0.0
  0
LINE
  5
38A8
330
1E
100
AcDbEntity
  8
7
100
AcDbLine
 10
-6.581692913385825
 20
9.003937007874018
 30
0.0
 11
-6.632874015748031
 21
8.956692913385829
 31
0.0
  0
LINE
  5
38A9
330
1E
100
AcDbEntity
  8
7
100
AcDbLine
 10
-6.632874015748031
 20
8.956692913385829
 30
0.0
 11
-6.652559055118109
 21
8.885826771653544
 31
0.0
  0
LINE
  5
38AA
330
1E
100
AcDbEntity
  8
7
100
AcDbLine
 10
-6.652559055118109
 20
8.885826771653544
 30
0.0
 11
-6.632874015748031
 21
8.818897637795277
 31
0.0
  0
LINE
  5
38AB
330
1E
100
AcDbEntity
  8
7
100
AcDbLine
 10
-6.632874015748031
 20
8.818897637795277
 30
0.0
 11
-6.585629921259842
 21
8.767716535433073
 31
0.0
  0
LINE
  5
38AC
330
1E
100
AcDbEntity
  8
7
100
AcDbLine
 10
-6.585629921259842
 20
8.767716535433073
 30
0.0
 11
-6.514763779527557
 21
8.748031496062992
 31
0.0
  0
LINE
  5
38AD
330
1E
100
AcDbEntity
  8
7
100
AcDbLine
 10
11.92224409448819
 20
8.748031496062992
 30
0.0
 11
11.98917322834645
 21
8.767716535433073
 31
0.0
  0
LINE
  5
38AE
330
1E
100
AcDbEntity
  8
7
100
AcDbLine
 10
11.98917322834645
 20
8.767716535433073
 30
0.0
 11
12.04035433070866
 21
8.814960629921262
 31
0.0
  0
LINE
  5
38AF
330
1E
100
AcDbEntity
  8
7
100
AcDbLine
 10
12.04035433070866
 20
8.814960629921262
 30
0.0
 11
12.06003937007874
 21
8.885826771653544
 31
0.0
  0
LINE
  5
38B0
330
1E
100
AcDbEntity
  8
7
100
AcDbLine
 10
12.06003937007874
 20
8.885826771653544
 30
0.0
 11
12.04035433070866
 21
8.952755905511811
 31
0.0
  0
LINE
  5
38B1
330
1E
100
AcDbEntity
  8
7
100
AcDbLine
 10
12.04035433070866
 20
8.952755905511811
 30
0.0
 11
11.99311023622047
 21
9.003937007874018
 31
0.0
  0
LINE
  5
38B2
330
1E
100
AcDbEntity
  8
7
100
AcDbLine
 10
11.99311023622047
 20
9.003937007874018
 30
0.0
 11
11.92224409448819
 21
9.023622047244096
 31
0.0
  0
LINE
  5
38B3
330
1E
100
AcDbEntity
  8
7
100
AcDbLine
 10
11.80413385826771
 20
9.023622047244096
 30
0.0
 11
11.73720472440945
 21
9.003937007874018
 31
0.0
  0
LINE
  5
38B4
330
1E
100
AcDbEntity
  8
7
100
AcDbLine
 10
11.73720472440945
 20
9.003937007874018
 30
0.0
 11
11.68602362204724
 21
8.956692913385829
 31
0.0
  0
LINE
  5
38B5
330
1E
100
AcDbEntity
  8
7
100
AcDbLine
 10
11.68602362204724
 20
8.956692913385829
 30
0.0
 11
11.66633858267716
 21
8.885826771653544
 31
0.0
  0
LINE
  5
38B6
330
1E
100
AcDbEntity
  8
7
100
AcDbLine
 10
11.66633858267716
 20
8.885826771653544
 30
0.0
 11
11.68602362204724
 21
8.818897637795277
 31
0.0
  0
LINE
  5
38B7
330
1E
100
AcDbEntity
  8
7
100
AcDbLine
 10
11.68602362204724
 20
8.818897637795277
 30
0.0
 11
11.73326771653543
 21
8.767716535433073
 31
0.0
  0
LINE
  5
38B8
330
1E
100
AcDbEntity
  8
7
100
AcDbLine
 10
12.06003937007874
 20
7.633858267716536
 30
0.0
 11
12.04035433070866
 21
7.700787401574802
 31
0.0
  0
LINE
  5
38B9
330
1E
100
AcDbEntity
  8
7
100
AcDbLine
 10
12.04035433070866
 20
7.700787401574802
 30
0.0
 11
11.99311023622047
 21
7.75196850393701
 31
0.0
  0
LINE
  5
38BA
330
1E
100
AcDbEntity
  8
7
100
AcDbLine
 10
11.99311023622047
 20
7.75196850393701
 30
0.0
 11
11.92224409448819
 21
7.771653543307087
 31
0.0
  0
LINE
  5
38BB
330
1E
100
AcDbEntity
  8
7
100
AcDbLine
 10
11.92224409448819
 20
7.496062992125984
 30
0.0
 11
11.98917322834645
 21
7.515748031496062
 31
0.0
  0
LINE
  5
38BC
330
1E
100
AcDbEntity
  8
7
100
AcDbLine
 10
11.98917322834645
 20
7.515748031496062
 30
0.0
 11
12.04035433070866
 21
7.56299212598425
 31
0.0
  0
LINE
  5
38BD
330
1E
100
AcDbEntity
  8
7
100
AcDbLine
 10
12.04035433070866
 20
7.56299212598425
 30
0.0
 11
12.06003937007874
 21
7.633858267716536
 31
0.0
  0
LINE
  5
38BE
330
1E
100
AcDbEntity
  8
7
100
AcDbLine
 10
11.80413385826771
 20
7.771653543307087
 30
0.0
 11
11.73720472440945
 21
7.75196850393701
 31
0.0
  0
LINE
  5
38BF
330
1E
100
AcDbEntity
  8
7
100
AcDbLine
 10
11.73720472440945
 20
7.75196850393701
 30
0.0
 11
11.68602362204724
 21
7.704724409448821
 31
0.0
  0
LINE
  5
38C0
330
1E
100
AcDbEntity
  8
7
100
AcDbLine
 10
11.68602362204724
 20
7.704724409448821
 30
0.0
 11
11.66633858267716
 21
7.633858267716536
 31
0.0
  0
LINE
  5
38C1
330
1E
100
AcDbEntity
  8
7
100
AcDbLine
 10
11.66633858267716
 20
7.633858267716536
 30
0.0
 11
11.68602362204724
 21
7.566929133858269
 31
0.0
  0
LINE
  5
38C2
330
1E
100
AcDbEntity
  8
7
100
AcDbLine
 10
11.68602362204724
 20
7.566929133858269
 30
0.0
 11
11.73326771653543
 21
7.515748031496062
 31
0.0
  0
LINE
  5
38C3
330
1E
100
AcDbEntity
  8
7
100
AcDbLine
 10
11.73326771653543
 20
7.515748031496062
 30
0.0
 11
11.80413385826771
 21
7.496062992125984
 31
0.0
  0
LINE
  5
38C4
330
1E
100
AcDbEntity
  8
7
100
AcDbLine
 10
12.14271653543307
 20
7.401574803149606
 30
0.0
 11
12.18602362204724
 21
7.417322834645669
 31
0.0
  0
LINE
  5
38C5
330
1E
100
AcDbEntity
  8
7
100
AcDbLine
 10
12.18602362204724
 20
7.417322834645669
 30
0.0
 11
12.2017716535433
 21
7.460629921259843
 31
0.0
  0
LINE
  5
38C6
330
1E
100
AcDbEntity
  8
7
100
AcDbLine
 10
11.53641732283464
 20
7.460629921259843
 30
0.0
 11
11.55216535433071
 21
7.417322834645669
 31
0.0
  0
LINE
  5
38C7
330
1E
100
AcDbEntity
  8
7
100
AcDbLine
 10
11.55216535433071
 20
7.417322834645669
 30
0.0
 11
11.59547244094488
 21
7.401574803149606
 31
0.0
  0
LINE
  5
38C8
330
1E
100
AcDbEntity
  8
7
100
AcDbLine
 10
11.53248031496063
 20
7.539370078740158
 30
0.0
 11
11.51673228346457
 21
7.582677165354332
 31
0.0
  0
LINE
  5
38C9
330
1E
100
AcDbEntity
  8
7
100
AcDbLine
 10
11.51673228346457
 20
7.582677165354332
 30
0.0
 11
11.47342519685039
 21
7.598425196850395
 31
0.0
  0
LINE
  5
38CA
330
1E
100
AcDbEntity
  8
7
100
AcDbLine
 10
11.47342519685039
 20
7.598425196850395
 30
0.0
 11
11.43011811023622
 21
7.582677165354332
 31
0.0
  0
LINE
  5
38CB
330
1E
100
AcDbEntity
  8
7
100
AcDbLine
 10
11.43011811023622
 20
7.582677165354332
 30
0.0
 11
11.41437007874015
 21
7.539370078740158
 31
0.0
  0
LINE
  5
38CC
330
1E
100
AcDbEntity
  8
7
100
AcDbLine
 10
-6.006889763779525
 20
7.472440944881891
 30
0.0
 11
11.41437007874015
 21
7.472440944881891
 31
0.0
  0
LINE
  5
38CD
330
1E
100
AcDbEntity
  8
7
100
AcDbLine
 10
11.41437007874015
 20
7.472440944881891
 30
0.0
 11
11.41437007874015
 21
7.539370078740158
 31
0.0
  0
LINE
  5
38CE
330
1E
100
AcDbEntity
  8
7
100
AcDbLine
 10
-6.006889763779525
 20
7.539370078740158
 30
0.0
 11
-6.022637795275588
 21
7.582677165354332
 31
0.0
  0
LINE
  5
38CF
330
1E
100
AcDbEntity
  8
7
100
AcDbLine
 10
-6.022637795275588
 20
7.582677165354332
 30
0.0
 11
-6.065944881889761
 21
7.598425196850395
 31
0.0
  0
LINE
  5
38D0
330
1E
100
AcDbEntity
  8
7
100
AcDbLine
 10
-6.065944881889761
 20
7.598425196850395
 30
0.0
 11
-6.109251968503935
 21
7.582677165354332
 31
0.0
  0
LINE
  5
38D1
330
1E
100
AcDbEntity
  8
7
100
AcDbLine
 10
-6.109251968503935
 20
7.582677165354332
 30
0.0
 11
-6.124999999999998
 21
7.539370078740158
 31
0.0
  0
LINE
  5
38D2
330
1E
100
AcDbEntity
  8
7
100
AcDbLine
 10
-6.239173228346455
 20
8.188976377952755
 30
0.0
 11
-6.219488188976376
 21
8.25984251968504
 31
0.0
  0
LINE
  5
38D3
330
1E
100
AcDbEntity
  8
7
100
AcDbLine
 10
-6.219488188976376
 20
8.25984251968504
 30
0.0
 11
-6.239173228346455
 21
8.326771653543307
 31
0.0
  0
LINE
  5
38D4
330
1E
100
AcDbEntity
  8
7
100
AcDbLine
 10
-6.239173228346455
 20
8.326771653543307
 30
0.0
 11
-6.286417322834644
 21
8.377952755905514
 31
0.0
  0
LINE
  5
38D5
330
1E
100
AcDbEntity
  8
7
100
AcDbLine
 10
-6.286417322834644
 20
8.377952755905514
 30
0.0
 11
-6.357283464566927
 21
8.397637795275592
 31
0.0
  0
LINE
  5
38D6
330
1E
100
AcDbEntity
  8
7
100
AcDbLine
 10
-6.357283464566927
 20
8.122047244094488
 30
0.0
 11
-6.290354330708661
 21
8.141732283464566
 31
0.0
  0
LINE
  5
38D7
330
1E
100
AcDbEntity
  8
7
100
AcDbLine
 10
-6.290354330708661
 20
8.141732283464566
 30
0.0
 11
-6.239173228346455
 21
8.188976377952755
 31
0.0
  0
LINE
  5
38D8
330
1E
100
AcDbEntity
  8
7
100
AcDbLine
 10
-6.735236220472438
 20
9.118110236220474
 30
0.0
 11
-6.778543307086613
 21
9.102362204724411
 31
0.0
  0
LINE
  5
38D9
330
1E
100
AcDbEntity
  8
7
100
AcDbLine
 10
-6.778543307086613
 20
9.102362204724411
 30
0.0
 11
-6.794291338582675
 21
9.059055118110237
 31
0.0
  0
LINE
  5
38DA
330
1E
100
AcDbEntity
  8
7
100
AcDbLine
 10
-6.124999999999998
 20
9.059055118110237
 30
0.0
 11
-6.140748031496061
 21
9.102362204724411
 31
0.0
  0
LINE
  5
38DB
330
1E
100
AcDbEntity
  8
7
100
AcDbLine
 10
-6.140748031496061
 20
9.102362204724411
 30
0.0
 11
-6.184055118110235
 21
9.118110236220474
 31
0.0
  0
LINE
  5
38DC
330
1E
100
AcDbEntity
  8
7
100
AcDbLine
 10
-6.109251968503935
 20
8.937007874015748
 30
0.0
 11
-6.065944881889761
 21
8.921259842519685
 31
0.0
  0
LINE
  5
38DD
330
1E
100
AcDbEntity
  8
7
100
AcDbLine
 10
-6.065944881889761
 20
8.921259842519685
 30
0.0
 11
-6.022637795275588
 21
8.937007874015748
 31
0.0
  0
LINE
  5
38DE
330
1E
100
AcDbEntity
  8
7
100
AcDbLine
 10
-6.022637795275588
 20
8.937007874015748
 30
0.0
 11
-6.006889763779525
 21
8.980314960629922
 31
0.0
  0
LINE
  5
38DF
330
1E
100
AcDbEntity
  8
7
100
AcDbLine
 10
11.41437007874015
 20
8.980314960629922
 30
0.0
 11
11.41437007874015
 21
9.051181102362207
 31
0.0
  0
LINE
  5
38E0
330
1E
100
AcDbEntity
  8
7
100
AcDbLine
 10
11.41437007874015
 20
9.051181102362207
 30
0.0
 11
-6.006889763779525
 21
9.051181102362207
 31
0.0
  0
LINE
  5
38E1
330
1E
100
AcDbEntity
  8
7
100
AcDbLine
 10
-6.006889763779525
 20
9.051181102362207
 30
0.0
 11
-6.006889763779525
 21
8.980314960629922
 31
0.0
  0
LINE
  5
38E2
330
1E
100
AcDbEntity
  8
7
100
AcDbLine
 10
11.41437007874015
 20
8.980314960629922
 30
0.0
 11
11.43011811023622
 21
8.937007874015748
 31
0.0
  0
LINE
  5
38E3
330
1E
100
AcDbEntity
  8
7
100
AcDbLine
 10
11.43011811023622
 20
8.937007874015748
 30
0.0
 11
11.47342519685039
 21
8.921259842519685
 31
0.0
  0
LINE
  5
38E4
330
1E
100
AcDbEntity
  8
7
100
AcDbLine
 10
11.47342519685039
 20
8.921259842519685
 30
0.0
 11
11.51673228346457
 21
8.937007874015748
 31
0.0
  0
LINE
  5
38E5
330
1E
100
AcDbEntity
  8
7
100
AcDbLine
 10
11.51673228346457
 20
8.937007874015748
 30
0.0
 11
11.53248031496063
 21
8.980314960629922
 31
0.0
  0
LINE
  5
38E6
330
1E
100
AcDbEntity
  8
7
100
AcDbLine
 10
11.59547244094488
 20
9.118110236220474
 30
0.0
 11
11.55216535433071
 21
9.102362204724411
 31
0.0
  0
LINE
  5
38E7
330
1E
100
AcDbEntity
  8
7
100
AcDbLine
 10
11.55216535433071
 20
9.102362204724411
 30
0.0
 11
11.53641732283464
 21
9.059055118110237
 31
0.0
  0
LINE
  5
38E8
330
1E
100
AcDbEntity
  8
7
100
AcDbLine
 10
12.2017716535433
 20
9.059055118110237
 30
0.0
 11
12.18602362204724
 21
9.102362204724411
 31
0.0
  0
LINE
  5
38E9
330
1E
100
AcDbEntity
  8
7
100
AcDbLine
 10
12.18602362204724
 20
9.102362204724411
 30
0.0
 11
12.14271653543307
 21
9.118110236220474
 31
0.0
  0
LINE
  5
38EA
330
1E
100
AcDbEntity
  8
7
100
AcDbLine
 10
11.76476377952756
 20
8.397637795275592
 30
0.0
 11
11.69783464566929
 21
8.377952755905514
 31
0.0
  0
LINE
  5
38EB
330
1E
100
AcDbEntity
  8
7
100
AcDbLine
 10
11.69783464566929
 20
8.377952755905514
 30
0.0
 11
11.64665354330708
 21
8.330708661417325
 31
0.0
  0
LINE
  5
38EC
330
1E
100
AcDbEntity
  8
7
100
AcDbLine
 10
11.64665354330708
 20
8.330708661417325
 30
0.0
 11
11.62696850393701
 21
8.25984251968504
 31
0.0
  0
LINE
  5
38ED
330
1E
100
AcDbEntity
  8
7
100
AcDbLine
 10
11.62696850393701
 20
8.25984251968504
 30
0.0
 11
11.64665354330708
 21
8.192913385826773
 31
0.0
  0
LINE
  5
38EE
330
1E
100
AcDbEntity
  8
7
100
AcDbLine
 10
11.64665354330708
 20
8.192913385826773
 30
0.0
 11
11.69389763779527
 21
8.141732283464566
 31
0.0
  0
LINE
  5
38EF
330
1E
100
AcDbEntity
  8
7
100
AcDbLine
 10
11.69389763779527
 20
8.141732283464566
 30
0.0
 11
11.76476377952756
 21
8.122047244094488
 31
0.0
  0
LINE
  5
38F0
330
1E
100
AcDbEntity
  8
7
100
AcDbLine
 10
-6.006889763779525
 20
7.401574803149606
 30
0.0
 11
-6.006889763779525
 21
7.421259842519684
 31
0.0
  0
LINE
  5
38F1
330
1E
100
AcDbEntity
  8
7
100
AcDbLine
 10
-6.006889763779525
 20
7.421259842519684
 30
0.0
 11
-6.006889763779525
 21
7.472440944881891
 31
0.0
  0
LINE
  5
38F2
330
1E
100
AcDbEntity
  8
7
100
AcDbLine
 10
-6.006889763779525
 20
7.472440944881891
 30
0.0
 11
-6.006889763779525
 21
7.539370078740158
 31
0.0
  0
LINE
  5
38F3
330
1E
100
AcDbEntity
  8
7
100
AcDbLine
 10
-6.329724409448816
 20
7.515748031496062
 30
0.0
 11
-6.278543307086613
 21
7.56299212598425
 31
0.0
  0
LINE
  5
38F4
330
1E
100
AcDbEntity
  8
7
100
AcDbLine
 10
-6.278543307086613
 20
7.56299212598425
 30
0.0
 11
-6.258858267716535
 21
7.633858267716536
 31
0.0
  0
LINE
  5
38F5
330
1E
100
AcDbEntity
  8
7
100
AcDbLine
 10
-6.258858267716535
 20
7.633858267716536
 30
0.0
 11
-6.278543307086613
 21
7.700787401574802
 31
0.0
  0
LINE
  5
38F6
330
1E
100
AcDbEntity
  8
7
100
AcDbLine
 10
-6.278543307086613
 20
7.700787401574802
 30
0.0
 11
-6.325787401574801
 21
7.75196850393701
 31
0.0
  0
LINE
  5
38F7
330
1E
100
AcDbEntity
  8
7
100
AcDbLine
 10
-6.325787401574801
 20
7.75196850393701
 30
0.0
 11
-6.396653543307085
 21
7.771653543307087
 31
0.0
  0
LINE
  5
38F8
330
1E
100
AcDbEntity
  8
7
100
AcDbLine
 10
-6.514763779527557
 20
7.771653543307087
 30
0.0
 11
-6.581692913385825
 21
7.75196850393701
 31
0.0
  0
LINE
  5
38F9
330
1E
100
AcDbEntity
  8
7
100
AcDbLine
 10
-6.581692913385825
 20
7.75196850393701
 30
0.0
 11
-6.632874015748031
 21
7.704724409448821
 31
0.0
  0
LINE
  5
38FA
330
1E
100
AcDbEntity
  8
7
100
AcDbLine
 10
-6.632874015748031
 20
7.704724409448821
 30
0.0
 11
-6.652559055118109
 21
7.633858267716536
 31
0.0
  0
LINE
  5
38FB
330
1E
100
AcDbEntity
  8
7
100
AcDbLine
 10
-6.652559055118109
 20
7.633858267716536
 30
0.0
 11
-6.632874015748031
 21
7.566929133858269
 31
0.0
  0
LINE
  5
38FC
330
1E
100
AcDbEntity
  8
7
100
AcDbLine
 10
-6.632874015748031
 20
7.566929133858269
 30
0.0
 11
-6.585629921259842
 21
7.515748031496062
 31
0.0
  0
LINE
  5
38FD
330
1E
100
AcDbEntity
  8
7
100
AcDbLine
 10
-6.585629921259842
 20
7.515748031496062
 30
0.0
 11
-6.514763779527557
 21
7.496062992125984
 31
0.0
  0
LINE
  5
38FE
330
1E
100
AcDbEntity
  8
7
100
AcDbLine
 10
-6.794291338582675
 20
7.460629921259843
 30
0.0
 11
-6.778543307086613
 21
7.417322834645669
 31
0.0
  0
LINE
  5
38FF
330
1E
100
AcDbEntity
  8
7
100
AcDbLine
 10
-6.778543307086613
 20
7.417322834645669
 30
0.0
 11
-6.735236220472438
 21
7.401574803149606
 31
0.0
  0
LINE
  5
3900
330
1E
100
AcDbEntity
  8
7
100
AcDbLine
 10
-6.184055118110235
 20
7.401574803149606
 30
0.0
 11
-6.140748031496061
 21
7.417322834645669
 31
0.0
  0
LINE
  5
3901
330
1E
100
AcDbEntity
  8
7
100
AcDbLine
 10
-6.140748031496061
 20
7.417322834645669
 30
0.0
 11
-6.124999999999998
 21
7.460629921259843
 31
0.0
  0
LINE
  5
3902
330
1E
100
AcDbEntity
  8
7
100
AcDbLine
 10
1.020669291338583
 20
8.90944881889764
 30
0.0
 11
0.9931102362204725
 21
8.921259842519685
 31
0.0
  0
LINE
  5
3903
330
1E
100
AcDbEntity
  8
7
100
AcDbLine
 10
0.9931102362204725
 20
8.921259842519685
 30
0.0
 11
0.9694881889763781
 21
8.921259842519685
 31
0.0
  0
LINE
  5
3904
330
1E
100
AcDbEntity
  8
7
100
AcDbLine
 10
10.55216535433071
 20
14.07086614173228
 30
0.0
 11
10.57185039370079
 21
14.11023622047244
 31
0.0
  0
LINE
  5
3905
330
1E
100
AcDbEntity
  8
7
100
AcDbLine
 10
10.57185039370079
 20
14.11023622047244
 30
0.0
 11
10.61122047244094
 21
14.12992125984252
 31
0.0
  0
LINE
  5
3906
330
1E
100
AcDbEntity
  8
7
100
AcDbLine
 10
10.78051181102362
 20
14.12992125984252
 30
0.0
 11
10.82381889763779
 21
14.11023622047244
 31
0.0
  0
LINE
  5
3907
330
1E
100
AcDbEntity
  8
7
100
AcDbLine
 10
10.82381889763779
 20
14.11023622047244
 30
0.0
 11
10.83956692913385
 21
14.07086614173228
 31
0.0
  0
LINE
  5
3908
330
1E
100
AcDbEntity
  8
7
100
AcDbLine
 10
10.77263779527559
 20
13.82283464566929
 30
0.0
 11
10.77263779527559
 21
13.85433070866141
 31
0.0
  0
LINE
  5
3909
330
1E
100
AcDbEntity
  8
7
100
AcDbLine
 10
10.77263779527559
 20
13.85433070866141
 30
0.0
 11
10.62303149606299
 21
13.85433070866141
 31
0.0
  0
LINE
  5
390A
330
1E
100
AcDbEntity
  8
7
100
AcDbLine
 10
10.62303149606299
 20
13.85433070866141
 30
0.0
 11
10.62303149606299
 21
13.82283464566929
 31
0.0
  0
LINE
  5
390B
330
1E
100
AcDbEntity
  8
7
100
AcDbLine
 10
11.41043307086614
 20
13.44094488188976
 30
0.0
 11
11.4261811023622
 21
13.94881889763779
 31
0.0
  0
LINE
  5
390C
330
1E
100
AcDbEntity
  8
7
100
AcDbLine
 10
11.4261811023622
 20
13.94881889763779
 30
0.0
 11
11.14665354330709
 21
13.94881889763779
 31
0.0
  0
LINE
  5
390D
330
1E
100
AcDbEntity
  8
7
100
AcDbLine
 10
9.182086614173229
 20
14.12992125984252
 30
0.0
 11
9.142716535433073
 21
14.11023622047244
 31
0.0
  0
LINE
  5
390E
330
1E
100
AcDbEntity
  8
7
100
AcDbLine
 10
9.142716535433073
 20
14.11023622047244
 30
0.0
 11
9.123031496062992
 21
14.07086614173228
 31
0.0
  0
LINE
  5
390F
330
1E
100
AcDbEntity
  8
7
100
AcDbLine
 10
9.410433070866144
 20
14.07086614173228
 30
0.0
 11
9.390748031496066
 21
14.11023622047244
 31
0.0
  0
LINE
  5
3910
330
1E
100
AcDbEntity
  8
7
100
AcDbLine
 10
9.390748031496066
 20
14.11023622047244
 30
0.0
 11
9.351377952755907
 21
14.12992125984252
 31
0.0
  0
LINE
  5
3911
330
1E
100
AcDbEntity
  8
7
100
AcDbLine
 10
8.607283464566929
 20
13.96850393700787
 30
0.0
 11
8.603346456692914
 21
14.08661417322834
 31
0.0
  0
LINE
  5
3912
330
1E
100
AcDbEntity
  8
7
100
AcDbLine
 10
8.603346456692914
 20
14.08661417322834
 30
0.0
 11
9.12696850393701
 21
14.08661417322834
 31
0.0
  0
LINE
  5
3913
330
1E
100
AcDbEntity
  8
7
100
AcDbLine
 10
7.642716535433073
 20
14.07086614173228
 30
0.0
 11
7.658464566929136
 21
14.11023622047244
 31
0.0
  0
LINE
  5
3914
330
1E
100
AcDbEntity
  8
7
100
AcDbLine
 10
7.658464566929136
 20
14.11023622047244
 30
0.0
 11
7.701771653543307
 21
14.12992125984252
 31
0.0
  0
LINE
  5
3915
330
1E
100
AcDbEntity
  8
7
100
AcDbLine
 10
7.871062992125985
 20
14.12992125984252
 30
0.0
 11
7.910433070866144
 21
14.11023622047244
 31
0.0
  0
LINE
  5
3916
330
1E
100
AcDbEntity
  8
7
100
AcDbLine
 10
7.910433070866144
 20
14.11023622047244
 30
0.0
 11
7.930118110236222
 21
14.07086614173228
 31
0.0
  0
LINE
  5
3917
330
1E
100
AcDbEntity
  8
7
100
AcDbLine
 10
7.85925196850394
 20
13.82283464566929
 30
0.0
 11
7.85925196850394
 21
13.85433070866141
 31
0.0
  0
LINE
  5
3918
330
1E
100
AcDbEntity
  8
7
100
AcDbLine
 10
7.85925196850394
 20
13.85433070866141
 30
0.0
 11
7.70964566929134
 21
13.85433070866141
 31
0.0
  0
LINE
  5
3919
330
1E
100
AcDbEntity
  8
7
100
AcDbLine
 10
7.70964566929134
 20
13.85433070866141
 30
0.0
 11
7.70964566929134
 21
13.82283464566929
 31
0.0
  0
LINE
  5
391A
330
1E
100
AcDbEntity
  8
7
100
AcDbLine
 10
6.500984251968507
 20
14.07086614173228
 30
0.0
 11
6.481299212598425
 21
14.11023622047244
 31
0.0
  0
LINE
  5
391B
330
1E
100
AcDbEntity
  8
7
100
AcDbLine
 10
6.481299212598425
 20
14.11023622047244
 30
0.0
 11
6.437992125984255
 21
14.12992125984252
 31
0.0
  0
LINE
  5
391C
330
1E
100
AcDbEntity
  8
7
100
AcDbLine
 10
5.693897637795277
 20
13.96850393700787
 30
0.0
 11
5.689960629921262
 21
14.08661417322834
 31
0.0
  0
LINE
  5
391D
330
1E
100
AcDbEntity
  8
7
100
AcDbLine
 10
5.689960629921262
 20
14.08661417322834
 30
0.0
 11
6.213582677165355
 21
14.08661417322834
 31
0.0
  0
LINE
  5
391E
330
1E
100
AcDbEntity
  8
7
100
AcDbLine
 10
4.729330708661418
 20
14.07086614173228
 30
0.0
 11
4.749015748031496
 21
14.11023622047244
 31
0.0
  0
LINE
  5
391F
330
1E
100
AcDbEntity
  8
7
100
AcDbLine
 10
4.749015748031496
 20
14.11023622047244
 30
0.0
 11
4.79232283464567
 21
14.12992125984252
 31
0.0
  0
LINE
  5
3920
330
1E
100
AcDbEntity
  8
7
100
AcDbLine
 10
4.957677165354333
 20
14.12992125984252
 30
0.0
 11
5.000984251968507
 21
14.11023622047244
 31
0.0
  0
LINE
  5
3921
330
1E
100
AcDbEntity
  8
7
100
AcDbLine
 10
5.000984251968507
 20
14.11023622047244
 30
0.0
 11
5.01673228346457
 21
14.07086614173228
 31
0.0
  0
LINE
  5
3922
330
1E
100
AcDbEntity
  8
7
100
AcDbLine
 10
4.949803149606299
 20
13.82283464566929
 30
0.0
 11
4.949803149606299
 21
13.85433070866141
 31
0.0
  0
LINE
  5
3923
330
1E
100
AcDbEntity
  8
7
100
AcDbLine
 10
4.949803149606299
 20
13.85433070866141
 30
0.0
 11
4.800196850393703
 21
13.85433070866141
 31
0.0
  0
LINE
  5
3924
330
1E
100
AcDbEntity
  8
7
100
AcDbLine
 10
3.359251968503937
 20
14.12992125984252
 30
0.0
 11
3.31988188976378
 21
14.11023622047244
 31
0.0
  0
LINE
  5
3925
330
1E
100
AcDbEntity
  8
7
100
AcDbLine
 10
3.31988188976378
 20
14.11023622047244
 30
0.0
 11
3.300196850393702
 21
14.07086614173228
 31
0.0
  0
LINE
  5
3926
330
1E
100
AcDbEntity
  8
7
100
AcDbLine
 10
3.58759842519685
 20
14.07086614173228
 30
0.0
 11
3.571850393700787
 21
14.11023622047244
 31
0.0
  0
LINE
  5
3927
330
1E
100
AcDbEntity
  8
7
100
AcDbLine
 10
3.571850393700787
 20
14.11023622047244
 30
0.0
 11
3.528543307086615
 21
14.12992125984252
 31
0.0
  0
LINE
  5
3928
330
1E
100
AcDbEntity
  8
7
100
AcDbLine
 10
2.784448818897639
 20
13.96850393700787
 30
0.0
 11
2.780511811023622
 21
14.08661417322834
 31
0.0
  0
LINE
  5
3929
330
1E
100
AcDbEntity
  8
7
100
AcDbLine
 10
2.780511811023622
 20
14.08661417322834
 30
0.0
 11
3.304133858267717
 21
14.08661417322834
 31
0.0
  0
LINE
  5
392A
330
1E
100
AcDbEntity
  8
7
100
AcDbLine
 10
1.819881889763779
 20
14.07086614173228
 30
0.0
 11
1.839566929133859
 21
14.11023622047244
 31
0.0
  0
LINE
  5
392B
330
1E
100
AcDbEntity
  8
7
100
AcDbLine
 10
1.839566929133859
 20
14.11023622047244
 30
0.0
 11
1.878937007874016
 21
14.12992125984252
 31
0.0
  0
LINE
  5
392C
330
1E
100
AcDbEntity
  8
7
100
AcDbLine
 10
2.048228346456693
 20
14.12992125984252
 30
0.0
 11
2.08759842519685
 21
14.11023622047244
 31
0.0
  0
LINE
  5
392D
330
1E
100
AcDbEntity
  8
7
100
AcDbLine
 10
2.08759842519685
 20
14.11023622047244
 30
0.0
 11
2.10728346456693
 21
14.07086614173228
 31
0.0
  0
LINE
  5
392E
330
1E
100
AcDbEntity
  8
7
100
AcDbLine
 10
2.036417322834646
 20
13.82283464566929
 30
0.0
 11
2.040354330708661
 21
13.85433070866141
 31
0.0
  0
LINE
  5
392F
330
1E
100
AcDbEntity
  8
7
100
AcDbLine
 10
2.040354330708661
 20
13.85433070866141
 30
0.0
 11
1.886811023622048
 21
13.85433070866141
 31
0.0
  0
LINE
  5
3930
330
1E
100
AcDbEntity
  8
7
100
AcDbLine
 10
1.886811023622048
 20
13.85433070866141
 30
0.0
 11
1.890748031496063
 21
13.82283464566929
 31
0.0
  0
LINE
  5
3931
330
1E
100
AcDbEntity
  8
7
100
AcDbLine
 10
0.4498031496063005
 20
14.12992125984252
 30
0.0
 11
0.4064960629921264
 21
14.11023622047244
 31
0.0
  0
LINE
  5
3932
330
1E
100
AcDbEntity
  8
7
100
AcDbLine
 10
0.4064960629921264
 20
14.11023622047244
 30
0.0
 11
0.3907480314960634
 21
14.07086614173228
 31
0.0
  0
LINE
  5
3933
330
1E
100
AcDbEntity
  8
7
100
AcDbLine
 10
0.6781496062992134
 20
14.07086614173228
 30
0.0
 11
0.6584645669291338
 21
14.11023622047244
 31
0.0
  0
LINE
  5
3934
330
1E
100
AcDbEntity
  8
7
100
AcDbLine
 10
0.6584645669291338
 20
14.11023622047244
 30
0.0
 11
0.6190944881889764
 21
14.12992125984252
 31
0.0
  0
LINE
  5
3935
330
1E
100
AcDbEntity
  8
7
100
AcDbLine
 10
-0.1289370078740144
 20
13.96850393700787
 30
0.0
 11
-0.132874015748031
 21
14.08661417322834
 31
0.0
  0
LINE
  5
3936
330
1E
100
AcDbEntity
  8
7
100
AcDbLine
 10
-0.132874015748031
 20
14.08661417322834
 30
0.0
 11
0.39468503937008
 21
14.08661417322834
 31
0.0
  0
LINE
  5
3937
330
1E
100
AcDbEntity
  8
7
100
AcDbLine
 10
-1.089566929133856
 20
14.07086614173228
 30
0.0
 11
-1.073818897637794
 21
14.11023622047244
 31
0.0
  0
LINE
  5
3938
330
1E
100
AcDbEntity
  8
7
100
AcDbLine
 10
-1.073818897637794
 20
14.11023622047244
 30
0.0
 11
-1.030511811023621
 21
14.12992125984252
 31
0.0
  0
LINE
  5
3939
330
1E
100
AcDbEntity
  8
7
100
AcDbLine
 10
-0.8651574803149607
 20
14.12992125984252
 30
0.0
 11
-0.8218503937007866
 21
14.11023622047244
 31
0.0
  0
LINE
  5
393A
330
1E
100
AcDbEntity
  8
7
100
AcDbLine
 10
-0.8218503937007866
 20
14.11023622047244
 30
0.0
 11
-0.8021653543307088
 21
14.07086614173228
 31
0.0
  0
LINE
  5
393B
330
1E
100
AcDbEntity
  8
7
100
AcDbLine
 10
-0.8730314960629922
 20
13.82283464566929
 30
0.0
 11
-0.8730314960629922
 21
13.85433070866141
 31
0.0
  0
LINE
  5
393C
330
1E
100
AcDbEntity
  8
7
100
AcDbLine
 10
-0.8730314960629922
 20
13.85433070866141
 30
0.0
 11
-1.02263779527559
 21
13.85433070866141
 31
0.0
  0
LINE
  5
393D
330
1E
100
AcDbEntity
  8
7
100
AcDbLine
 10
-1.02263779527559
 20
13.85433070866141
 30
0.0
 11
-1.02263779527559
 21
13.82283464566929
 31
0.0
  0
LINE
  5
393E
330
1E
100
AcDbEntity
  8
7
100
AcDbLine
 10
-2.459645669291338
 20
14.12992125984252
 30
0.0
 11
-2.50295275590551
 21
14.11023622047244
 31
0.0
  0
LINE
  5
393F
330
1E
100
AcDbEntity
  8
7
100
AcDbLine
 10
-2.50295275590551
 20
14.11023622047244
 30
0.0
 11
-2.52263779527559
 21
14.07086614173228
 31
0.0
  0
LINE
  5
3940
330
1E
100
AcDbEntity
  8
7
100
AcDbLine
 10
-3.038385826771653
 20
13.96850393700787
 30
0.0
 11
-3.042322834645668
 21
14.08661417322834
 31
0.0
  0
LINE
  5
3941
330
1E
100
AcDbEntity
  8
7
100
AcDbLine
 10
-3.042322834645668
 20
14.08661417322834
 30
0.0
 11
-2.518700787401573
 21
14.08661417322834
 31
0.0
  0
LINE
  5
3942
330
1E
100
AcDbEntity
  8
7
100
AcDbLine
 10
-4.002952755905509
 20
14.07086614173228
 30
0.0
 11
-3.983267716535431
 21
14.11023622047244
 31
0.0
  0
LINE
  5
3943
330
1E
100
AcDbEntity
  8
7
100
AcDbLine
 10
-3.983267716535431
 20
14.11023622047244
 30
0.0
 11
-3.943897637795274
 21
14.12992125984252
 31
0.0
  0
LINE
  5
3944
330
1E
100
AcDbEntity
  8
7
100
AcDbLine
 10
-3.774606299212596
 20
14.12992125984252
 30
0.0
 11
-3.731299212598423
 21
14.11023622047244
 31
0.0
  0
LINE
  5
3945
330
1E
100
AcDbEntity
  8
7
100
AcDbLine
 10
-3.731299212598423
 20
14.11023622047244
 30
0.0
 11
-3.71555118110236
 21
14.07086614173228
 31
0.0
  0
LINE
  5
3946
330
1E
100
AcDbEntity
  8
7
100
AcDbLine
 10
-3.782480314960628
 20
13.82283464566929
 30
0.0
 11
-3.782480314960628
 21
13.85433070866141
 31
0.0
  0
LINE
  5
3947
330
1E
100
AcDbEntity
  8
7
100
AcDbLine
 10
-3.782480314960628
 20
13.85433070866141
 30
0.0
 11
-3.932086614173226
 21
13.85433070866141
 31
0.0
  0
LINE
  5
3948
330
1E
100
AcDbEntity
  8
7
100
AcDbLine
 10
-3.932086614173226
 20
13.85433070866141
 30
0.0
 11
-3.932086614173226
 21
13.82283464566929
 31
0.0
  0
LINE
  5
3949
330
1E
100
AcDbEntity
  8
7
100
AcDbLine
 10
-5.37303149606299
 20
14.12992125984252
 30
0.0
 11
-5.412401574803148
 21
14.11023622047244
 31
0.0
  0
LINE
  5
394A
330
1E
100
AcDbEntity
  8
7
100
AcDbLine
 10
-5.412401574803148
 20
14.11023622047244
 30
0.0
 11
-5.432086614173227
 21
14.07086614173228
 31
0.0
  0
LINE
  5
394B
330
1E
100
AcDbEntity
  8
7
100
AcDbLine
 10
-5.144685039370077
 20
14.07086614173228
 30
0.0
 11
-5.164370078740157
 21
14.11023622047244
 31
0.0
  0
LINE
  5
394C
330
1E
100
AcDbEntity
  8
7
100
AcDbLine
 10
-5.164370078740157
 20
14.11023622047244
 30
0.0
 11
-5.203740157480313
 21
14.12992125984252
 31
0.0
  0
LINE
  5
394D
330
1E
100
AcDbEntity
  8
7
100
AcDbLine
 10
-5.999015748031494
 20
13.44094488188976
 30
0.0
 11
-6.018700787401572
 21
13.94881889763779
 31
0.0
  0
LINE
  5
394E
330
1E
100
AcDbEntity
  8
7
100
AcDbLine
 10
-6.018700787401572
 20
13.94881889763779
 30
0.0
 11
-6.022637795275588
 21
14.08661417322834
 31
0.0
  0
LINE
  5
394F
330
1E
100
AcDbEntity
  8
7
100
AcDbLine
 10
-5.94783464566929
 20
13.96456692913385
 30
0.0
 11
-5.951771653543305
 21
14.08661417322834
 31
0.0
  0
LINE
  5
3950
330
1E
100
AcDbEntity
  8
7
100
AcDbLine
 10
-5.951771653543305
 20
14.08661417322834
 30
0.0
 11
-5.428149606299211
 21
14.08661417322834
 31
0.0
  0
LINE
  5
3951
330
1E
100
AcDbEntity
  8
7
100
AcDbLine
 10
-5.203740157480313
 20
13.64173228346456
 30
0.0
 11
-5.37303149606299
 21
13.64173228346456
 31
0.0
  0
LINE
  5
3952
330
1E
100
AcDbEntity
  8
7
100
AcDbLine
 10
-5.37303149606299
 20
13.64173228346456
 30
0.0
 11
-5.37303149606299
 21
13.86220472440945
 31
0.0
  0
LINE
  5
3953
330
1E
100
AcDbEntity
  8
7
100
AcDbLine
 10
-5.37303149606299
 20
13.86220472440945
 30
0.0
 11
-5.203740157480313
 21
13.86220472440945
 31
0.0
  0
LINE
  5
3954
330
1E
100
AcDbEntity
  8
7
100
AcDbLine
 10
-5.203740157480313
 20
13.86220472440945
 30
0.0
 11
-5.203740157480313
 21
13.64173228346456
 31
0.0
  0
LINE
  5
3955
330
1E
100
AcDbEntity
  8
7
100
AcDbLine
 10
-3.774606299212596
 20
13.64173228346456
 30
0.0
 11
-3.943897637795274
 21
13.64173228346456
 31
0.0
  0
LINE
  5
3956
330
1E
100
AcDbEntity
  8
7
100
AcDbLine
 10
-3.943897637795274
 20
13.64173228346456
 30
0.0
 11
-3.943897637795274
 21
13.86220472440945
 31
0.0
  0
LINE
  5
3957
330
1E
100
AcDbEntity
  8
7
100
AcDbLine
 10
-3.943897637795274
 20
13.86220472440945
 30
0.0
 11
-3.774606299212596
 21
13.86220472440945
 31
0.0
  0
LINE
  5
3958
330
1E
100
AcDbEntity
  8
7
100
AcDbLine
 10
-2.29035433070866
 20
13.64173228346456
 30
0.0
 11
-2.463582677165353
 21
13.64173228346456
 31
0.0
  0
LINE
  5
3959
330
1E
100
AcDbEntity
  8
7
100
AcDbLine
 10
-2.463582677165353
 20
13.64173228346456
 30
0.0
 11
-2.463582677165353
 21
13.86220472440945
 31
0.0
  0
LINE
  5
395A
330
1E
100
AcDbEntity
  8
7
100
AcDbLine
 10
-2.463582677165353
 20
13.86220472440945
 30
0.0
 11
-2.29035433070866
 21
13.86220472440945
 31
0.0
  0
LINE
  5
395B
330
1E
100
AcDbEntity
  8
7
100
AcDbLine
 10
-2.29035433070866
 20
13.86220472440945
 30
0.0
 11
-2.29035433070866
 21
13.64173228346456
 31
0.0
  0
LINE
  5
395C
330
1E
100
AcDbEntity
  8
7
100
AcDbLine
 10
-0.8612204724409441
 20
13.64173228346456
 30
0.0
 11
-1.030511811023621
 21
13.64173228346456
 31
0.0
  0
LINE
  5
395D
330
1E
100
AcDbEntity
  8
7
100
AcDbLine
 10
-1.030511811023621
 20
13.64173228346456
 30
0.0
 11
-1.030511811023621
 21
13.86220472440945
 31
0.0
  0
LINE
  5
395E
330
1E
100
AcDbEntity
  8
7
100
AcDbLine
 10
-1.030511811023621
 20
13.86220472440945
 30
0.0
 11
-0.8612204724409441
 21
13.86220472440945
 31
0.0
  0
LINE
  5
395F
330
1E
100
AcDbEntity
  8
7
100
AcDbLine
 10
-0.8612204724409441
 20
13.86220472440945
 30
0.0
 11
-0.8612204724409441
 21
13.64173228346456
 31
0.0
  0
LINE
  5
3960
330
1E
100
AcDbEntity
  8
7
100
AcDbLine
 10
0.6190944881889764
 20
13.64173228346456
 30
0.0
 11
0.4498031496063005
 21
13.64173228346456
 31
0.0
  0
LINE
  5
3961
330
1E
100
AcDbEntity
  8
7
100
AcDbLine
 10
0.4498031496063005
 20
13.64173228346456
 30
0.0
 11
0.4498031496063005
 21
13.86220472440945
 31
0.0
  0
LINE
  5
3962
330
1E
100
AcDbEntity
  8
7
100
AcDbLine
 10
0.4498031496063005
 20
13.86220472440945
 30
0.0
 11
0.6190944881889764
 21
13.86220472440945
 31
0.0
  0
LINE
  5
3963
330
1E
100
AcDbEntity
  8
7
100
AcDbLine
 10
0.6190944881889764
 20
13.86220472440945
 30
0.0
 11
0.6190944881889764
 21
13.64173228346456
 31
0.0
  0
LINE
  5
3964
330
1E
100
AcDbEntity
  8
7
100
AcDbLine
 10
2.048228346456693
 20
13.64173228346456
 30
0.0
 11
1.878937007874016
 21
13.64173228346456
 31
0.0
  0
LINE
  5
3965
330
1E
100
AcDbEntity
  8
7
100
AcDbLine
 10
1.878937007874016
 20
13.64173228346456
 30
0.0
 11
1.878937007874016
 21
13.86220472440945
 31
0.0
  0
LINE
  5
3966
330
1E
100
AcDbEntity
  8
7
100
AcDbLine
 10
1.878937007874016
 20
13.86220472440945
 30
0.0
 11
2.048228346456693
 21
13.86220472440945
 31
0.0
  0
LINE
  5
3967
330
1E
100
AcDbEntity
  8
7
100
AcDbLine
 10
2.048228346456693
 20
13.86220472440945
 30
0.0
 11
2.048228346456693
 21
13.64173228346456
 31
0.0
  0
LINE
  5
3968
330
1E
100
AcDbEntity
  8
7
100
AcDbLine
 10
3.528543307086615
 20
13.64173228346456
 30
0.0
 11
3.359251968503937
 21
13.64173228346456
 31
0.0
  0
LINE
  5
3969
330
1E
100
AcDbEntity
  8
7
100
AcDbLine
 10
3.359251968503937
 20
13.64173228346456
 30
0.0
 11
3.359251968503937
 21
13.86220472440945
 31
0.0
  0
LINE
  5
396A
330
1E
100
AcDbEntity
  8
7
100
AcDbLine
 10
3.359251968503937
 20
13.86220472440945
 30
0.0
 11
3.528543307086615
 21
13.86220472440945
 31
0.0
  0
LINE
  5
396B
330
1E
100
AcDbEntity
  8
7
100
AcDbLine
 10
3.528543307086615
 20
13.86220472440945
 30
0.0
 11
3.528543307086615
 21
13.64173228346456
 31
0.0
  0
LINE
  5
396C
330
1E
100
AcDbEntity
  8
7
100
AcDbLine
 10
4.961614173228348
 20
13.64173228346456
 30
0.0
 11
4.788385826771655
 21
13.64173228346456
 31
0.0
  0
LINE
  5
396D
330
1E
100
AcDbEntity
  8
7
100
AcDbLine
 10
4.788385826771655
 20
13.64173228346456
 30
0.0
 11
4.788385826771655
 21
13.86220472440945
 31
0.0
  0
LINE
  5
396E
330
1E
100
AcDbEntity
  8
7
100
AcDbLine
 10
4.788385826771655
 20
13.86220472440945
 30
0.0
 11
4.961614173228348
 21
13.86220472440945
 31
0.0
  0
LINE
  5
396F
330
1E
100
AcDbEntity
  8
7
100
AcDbLine
 10
4.961614173228348
 20
13.86220472440945
 30
0.0
 11
4.961614173228348
 21
13.64173228346456
 31
0.0
  0
LINE
  5
3970
330
1E
100
AcDbEntity
  8
7
100
AcDbLine
 10
6.44192913385827
 20
13.64173228346456
 30
0.0
 11
6.272637795275592
 21
13.64173228346456
 31
0.0
  0
LINE
  5
3971
330
1E
100
AcDbEntity
  8
7
100
AcDbLine
 10
6.272637795275592
 20
13.64173228346456
 30
0.0
 11
6.272637795275592
 21
13.86220472440945
 31
0.0
  0
LINE
  5
3972
330
1E
100
AcDbEntity
  8
7
100
AcDbLine
 10
6.272637795275592
 20
13.86220472440945
 30
0.0
 11
6.44192913385827
 21
13.86220472440945
 31
0.0
  0
LINE
  5
3973
330
1E
100
AcDbEntity
  8
7
100
AcDbLine
 10
6.44192913385827
 20
13.86220472440945
 30
0.0
 11
6.44192913385827
 21
13.64173228346456
 31
0.0
  0
LINE
  5
3974
330
1E
100
AcDbEntity
  8
7
100
AcDbLine
 10
7.871062992125985
 20
13.64173228346456
 30
0.0
 11
7.701771653543307
 21
13.64173228346456
 31
0.0
  0
LINE
  5
3975
330
1E
100
AcDbEntity
  8
7
100
AcDbLine
 10
7.701771653543307
 20
13.64173228346456
 30
0.0
 11
7.701771653543307
 21
13.86220472440945
 31
0.0
  0
LINE
  5
3976
330
1E
100
AcDbEntity
  8
7
100
AcDbLine
 10
7.701771653543307
 20
13.86220472440945
 30
0.0
 11
7.871062992125985
 21
13.86220472440945
 31
0.0
  0
LINE
  5
3977
330
1E
100
AcDbEntity
  8
7
100
AcDbLine
 10
7.871062992125985
 20
13.86220472440945
 30
0.0
 11
7.871062992125985
 21
13.64173228346456
 31
0.0
  0
LINE
  5
3978
330
1E
100
AcDbEntity
  8
7
100
AcDbLine
 10
9.351377952755907
 20
13.64173228346456
 30
0.0
 11
9.182086614173229
 21
13.64173228346456
 31
0.0
  0
LINE
  5
3979
330
1E
100
AcDbEntity
  8
7
100
AcDbLine
 10
9.182086614173229
 20
13.64173228346456
 30
0.0
 11
9.182086614173229
 21
13.86220472440945
 31
0.0
  0
LINE
  5
397A
330
1E
100
AcDbEntity
  8
7
100
AcDbLine
 10
9.182086614173229
 20
13.86220472440945
 30
0.0
 11
9.351377952755907
 21
13.86220472440945
 31
0.0
  0
LINE
  5
397B
330
1E
100
AcDbEntity
  8
7
100
AcDbLine
 10
9.351377952755907
 20
13.86220472440945
 30
0.0
 11
9.351377952755907
 21
13.64173228346456
 31
0.0
  0
LINE
  5
397C
330
1E
100
AcDbEntity
  8
7
100
AcDbLine
 10
10.78051181102362
 20
13.64173228346456
 30
0.0
 11
10.61122047244094
 21
13.64173228346456
 31
0.0
  0
LINE
  5
397D
330
1E
100
AcDbEntity
  8
7
100
AcDbLine
 10
10.61122047244094
 20
13.64173228346456
 30
0.0
 11
10.61122047244094
 21
13.86220472440945
 31
0.0
  0
LINE
  5
397E
330
1E
100
AcDbEntity
  8
7
100
AcDbLine
 10
10.61122047244094
 20
13.86220472440945
 30
0.0
 11
10.78051181102362
 21
13.86220472440945
 31
0.0
  0
LINE
  5
397F
330
1E
100
AcDbEntity
  8
7
100
AcDbLine
 10
10.78051181102362
 20
13.86220472440945
 30
0.0
 11
10.78051181102362
 21
13.64173228346456
 31
0.0
  0
LINE
  5
3980
330
1E
100
AcDbEntity
  8
7
100
AcDbLine
 10
-5.943897637795274
 20
13.4763779527559
 30
0.0
 11
-5.987204724409446
 21
13.46062992125984
 31
0.0
  0
LINE
  5
3981
330
1E
100
AcDbEntity
  8
7
100
AcDbLine
 10
-5.987204724409446
 20
13.46062992125984
 30
0.0
 11
-6.006889763779525
 21
13.41732283464567
 31
0.0
  0
LINE
  5
3982
330
1E
100
AcDbEntity
  8
7
100
AcDbLine
 10
11.16240157480315
 20
13.4763779527559
 30
0.0
 11
11.16240157480315
 21
13.90944881889764
 31
0.0
  0
LINE
  5
3983
330
1E
100
AcDbEntity
  8
7
100
AcDbLine
 10
11.16240157480315
 20
13.90944881889764
 30
0.0
 11
11.14665354330709
 21
13.95275590551181
 31
0.0
  0
LINE
  5
3984
330
1E
100
AcDbEntity
  8
7
100
AcDbLine
 10
11.14665354330709
 20
13.95275590551181
 30
0.0
 11
11.10334645669291
 21
13.96850393700787
 31
0.0
  0
LINE
  5
3985
330
1E
100
AcDbEntity
  8
7
100
AcDbLine
 10
11.10334645669291
 20
13.96850393700787
 30
0.0
 11
-5.695866141732283
 21
13.96850393700787
 31
0.0
  0
LINE
  5
3986
330
1E
100
AcDbEntity
  8
7
100
AcDbLine
 10
-5.695866141732283
 20
13.96850393700787
 30
0.0
 11
-5.739173228346455
 21
13.95275590551181
 31
0.0
  0
LINE
  5
3987
330
1E
100
AcDbEntity
  8
7
100
AcDbLine
 10
-5.739173228346455
 20
13.95275590551181
 30
0.0
 11
-5.754921259842518
 21
13.90944881889764
 31
0.0
  0
LINE
  5
3988
330
1E
100
AcDbEntity
  8
7
100
AcDbLine
 10
11.41437007874015
 20
13.41732283464567
 30
0.0
 11
11.39468503937008
 21
13.46062992125984
 31
0.0
  0
LINE
  5
3989
330
1E
100
AcDbEntity
  8
7
100
AcDbLine
 10
11.39468503937008
 20
13.46062992125984
 30
0.0
 11
11.35531496062992
 21
13.4763779527559
 31
0.0
  0
LINE
  5
398A
330
1E
100
AcDbEntity
  8
7
100
AcDbLine
 10
-6.006889763779525
 20
13.16141732283464
 30
0.0
 11
11.41437007874015
 21
13.16141732283464
 31
0.0
  0
LINE
  5
398B
330
1E
100
AcDbEntity
  8
7
100
AcDbLine
 10
11.41437007874015
 20
13.16141732283464
 30
0.0
 11
11.41437007874015
 21
13.41732283464567
 31
0.0
  0
LINE
  5
398C
330
1E
100
AcDbEntity
  8
7
100
AcDbLine
 10
-6.006889763779525
 20
13.08661417322834
 30
0.0
 11
-6.006889763779525
 21
13.11023622047244
 31
0.0
  0
LINE
  5
398D
330
1E
100
AcDbEntity
  8
7
100
AcDbLine
 10
-6.006889763779525
 20
13.11023622047244
 30
0.0
 11
-6.006889763779525
 21
13.16141732283464
 31
0.0
  0
LINE
  5
398E
330
1E
100
AcDbEntity
  8
7
100
AcDbLine
 10
-6.006889763779525
 20
13.16141732283464
 30
0.0
 11
-6.006889763779525
 21
13.41732283464567
 31
0.0
  0
LINE
  5
398F
330
1E
100
AcDbEntity
  8
7
100
AcDbLine
 10
12.14271653543307
 20
13.12992125984252
 30
0.0
 11
12.18602362204724
 21
13.12992125984252
 31
0.0
  0
LINE
  5
3990
330
1E
100
AcDbEntity
  8
7
100
AcDbLine
 10
12.18602362204724
 20
13.12992125984252
 30
0.0
 11
12.20570866141732
 21
13.12992125984252
 31
0.0
  0
LINE
  5
3991
330
1E
100
AcDbEntity
  8
7
100
AcDbLine
 10
11.53248031496063
 20
13.12992125984252
 30
0.0
 11
11.55216535433071
 21
13.12992125984252
 31
0.0
  0
LINE
  5
3992
330
1E
100
AcDbEntity
  8
7
100
AcDbLine
 10
11.55216535433071
 20
13.12992125984252
 30
0.0
 11
11.59547244094488
 21
13.12992125984252
 31
0.0
  0
LINE
  5
3993
330
1E
100
AcDbEntity
  8
7
100
AcDbLine
 10
11.53248031496063
 20
13.12992125984252
 30
0.0
 11
11.51673228346457
 21
13.12992125984252
 31
0.0
  0
LINE
  5
3994
330
1E
100
AcDbEntity
  8
7
100
AcDbLine
 10
11.51673228346457
 20
13.12992125984252
 30
0.0
 11
11.47342519685039
 21
13.12992125984252
 31
0.0
  0
LINE
  5
3995
330
1E
100
AcDbEntity
  8
7
100
AcDbLine
 10
11.47342519685039
 20
13.12992125984252
 30
0.0
 11
11.43011811023622
 21
13.12992125984252
 31
0.0
  0
LINE
  5
3996
330
1E
100
AcDbEntity
  8
7
100
AcDbLine
 10
-6.184055118110235
 20
13.12992125984252
 30
0.0
 11
-6.144685039370077
 21
13.12992125984252
 31
0.0
  0
LINE
  5
3997
330
1E
100
AcDbEntity
  8
7
100
AcDbLine
 10
-6.144685039370077
 20
13.12992125984252
 30
0.0
 11
-6.124999999999998
 21
13.12992125984252
 31
0.0
  0
LINE
  5
3998
330
1E
100
AcDbEntity
  8
7
100
AcDbLine
 10
-6.124999999999998
 20
13.12992125984252
 30
0.0
 11
-6.109251968503935
 21
13.12992125984252
 31
0.0
  0
LINE
  5
3999
330
1E
100
AcDbEntity
  8
7
100
AcDbLine
 10
-6.109251968503935
 20
13.12992125984252
 30
0.0
 11
-6.065944881889761
 21
13.12992125984252
 31
0.0
  0
LINE
  5
399A
330
1E
100
AcDbEntity
  8
7
100
AcDbLine
 10
-6.065944881889761
 20
13.12992125984252
 30
0.0
 11
-6.022637795275588
 21
13.12992125984252
 31
0.0
  0
LINE
  5
399B
330
1E
100
AcDbEntity
  8
7
100
AcDbLine
 10
-6.022637795275588
 20
13.12992125984252
 30
0.0
 11
-6.006889763779525
 21
13.12992125984252
 31
0.0
  0
LINE
  5
399C
330
1E
100
AcDbEntity
  8
7
100
AcDbLine
 10
-6.794291338582675
 20
13.12992125984252
 30
0.0
 11
-6.778543307086613
 21
13.12992125984252
 31
0.0
  0
LINE
  5
399D
330
1E
100
AcDbEntity
  8
7
100
AcDbLine
 10
-6.778543307086613
 20
13.12992125984252
 30
0.0
 11
-6.735236220472438
 21
13.12992125984252
 31
0.0
  0
LINE
  5
399E
330
1E
100
AcDbEntity
  8
7
100
AcDbLine
 10
-6.735236220472438
 20
13.08661417322834
 30
0.0
 11
-6.778543307086613
 21
13.08661417322834
 31
0.0
  0
LINE
  5
399F
330
1E
100
AcDbEntity
  8
7
100
AcDbLine
 10
-6.778543307086613
 20
13.08661417322834
 30
0.0
 11
-6.794291338582675
 21
13.08661417322834
 31
0.0
  0
LINE
  5
39A0
330
1E
100
AcDbEntity
  8
7
100
AcDbLine
 10
11.41437007874015
 20
13.08661417322834
 30
0.0
 11
-6.006889763779525
 21
13.08661417322834
 31
0.0
  0
LINE
  5
39A1
330
1E
100
AcDbEntity
  8
7
100
AcDbLine
 10
-6.006889763779525
 20
13.08661417322834
 30
0.0
 11
-6.022637795275588
 21
13.08661417322834
 31
0.0
  0
LINE
  5
39A2
330
1E
100
AcDbEntity
  8
7
100
AcDbLine
 10
-6.022637795275588
 20
13.08661417322834
 30
0.0
 11
-6.065944881889761
 21
13.08661417322834
 31
0.0
  0
LINE
  5
39A3
330
1E
100
AcDbEntity
  8
7
100
AcDbLine
 10
-6.065944881889761
 20
13.08661417322834
 30
0.0
 11
-6.109251968503935
 21
13.08661417322834
 31
0.0
  0
LINE
  5
39A4
330
1E
100
AcDbEntity
  8
7
100
AcDbLine
 10
-6.109251968503935
 20
13.08661417322834
 30
0.0
 11
-6.124999999999998
 21
13.08661417322834
 31
0.0
  0
LINE
  5
39A5
330
1E
100
AcDbEntity
  8
7
100
AcDbLine
 10
-6.124999999999998
 20
13.08661417322834
 30
0.0
 11
-6.144685039370077
 21
13.08661417322834
 31
0.0
  0
LINE
  5
39A6
330
1E
100
AcDbEntity
  8
7
100
AcDbLine
 10
-6.144685039370077
 20
13.08661417322834
 30
0.0
 11
-6.184055118110235
 21
13.08661417322834
 31
0.0
  0
LINE
  5
39A7
330
1E
100
AcDbEntity
  8
7
100
AcDbLine
 10
11.41437007874015
 20
13.08661417322834
 30
0.0
 11
11.43011811023622
 21
13.08661417322834
 31
0.0
  0
LINE
  5
39A8
330
1E
100
AcDbEntity
  8
7
100
AcDbLine
 10
11.43011811023622
 20
13.08661417322834
 30
0.0
 11
11.47342519685039
 21
13.08661417322834
 31
0.0
  0
LINE
  5
39A9
330
1E
100
AcDbEntity
  8
7
100
AcDbLine
 10
11.47342519685039
 20
13.08661417322834
 30
0.0
 11
11.51673228346457
 21
13.08661417322834
 31
0.0
  0
LINE
  5
39AA
330
1E
100
AcDbEntity
  8
7
100
AcDbLine
 10
11.59547244094488
 20
13.08661417322834
 30
0.0
 11
11.55216535433071
 21
13.08661417322834
 31
0.0
  0
LINE
  5
39AB
330
1E
100
AcDbEntity
  8
7
100
AcDbLine
 10
11.55216535433071
 20
13.08661417322834
 30
0.0
 11
11.53248031496063
 21
13.08661417322834
 31
0.0
  0
LINE
  5
39AC
330
1E
100
AcDbEntity
  8
7
100
AcDbLine
 10
12.20570866141732
 20
13.08661417322834
 30
0.0
 11
12.18602362204724
 21
13.08661417322834
 31
0.0
  0
LINE
  5
39AD
330
1E
100
AcDbEntity
  8
7
100
AcDbLine
 10
12.18602362204724
 20
13.08661417322834
 30
0.0
 11
12.14271653543307
 21
13.08661417322834
 31
0.0
  0
LINE
  5
39AE
330
1E
100
AcDbEntity
  8
7
100
AcDbLine
 10
1.020669291338583
 20
13.08661417322834
 30
0.0
 11
0.9931102362204725
 21
13.08661417322834
 31
0.0
  0
LINE
  5
39AF
330
1E
100
AcDbEntity
  8
7
100
AcDbLine
 10
0.9931102362204725
 20
13.08661417322834
 30
0.0
 11
0.9694881889763781
 21
13.08661417322834
 31
0.0
  0
ENDSEC
  0
SECTION
  2
OBJECTS
  0
DICTIONARY
  5
C
330
0
100
AcDbDictionary
  3
ACAD_GROUP
350
D
  3
ACAD_LAYOUT
350
19
  3
ACAD_MLINESTYLE
350
16
  3
ACAD_PLOTSETTINGS
350
18
1001
ACAD
1000
TREAT_AS_HARD
1070
     0
  0
DICTIONARY
  5
4C6C
330
1E
100
AcDbDictionary
  3
ACAD_LAYOUTSELFREF
350
4CA5
1001
ACAD
1000
TREAT_AS_HARD
1070
     1
  0
DICTIONARY
  5
4C6E
330
1A
100
AcDbDictionary
  3
ACAD_LAYOUTSELFREF
350
4CA4
1001
ACAD
1000
TREAT_AS_HARD
1070
     1
  0
DICTIONARY
  5
D
102
{ACAD_REACTORS
330
C
102
}
330
C
100
AcDbDictionary
1001
ACAD
1000
TREAT_AS_HARD
1070
     0
  0
DICTIONARY
  5
19
102
{ACAD_REACTORS
330
C
102
}
330
C
100
AcDbDictionary
1001
ACAD
1000
TREAT_AS_HARD
1070
     0
  0
DICTIONARY
  5
16
102
{ACAD_REACTORS
330
C
102
}
330
C
100
AcDbDictionary
  3
STANDARD
350
17
1001
ACAD
1000
TREAT_AS_HARD
1070
     0
  0
DICTIONARY
  5
18
102
{ACAD_REACTORS
330
C
102
}
330
C
100
AcDbDictionary
1001
ACAD
1000
TREAT_AS_HARD
1070
     0
  0
XRECORD
  5
4CA5
102
{ACAD_REACTORS
330
4C6C
102
}
330
4C6C
100
AcDbXrecord
340
1E
  0
XRECORD
  5
4CA4
102
{ACAD_REACTORS
330
4C6E
102
}
330
4C6E
100
AcDbXrecord
340
1A
  0
MLINESTYLE
  5
17
102
{ACAD_REACTORS
330
16
102
}
330
16
100
AcDbMlineStyle
  2
STANDARD
 70
     0
  3

 62
   256
 51
90.0
 52
90.0
 71
     2
 49
0.5
 62
   256
  6
BYLAYER
 49
-0.5
 62
   256
  6
BYLAYER
  0
ENDSEC
  0
EOF
