  0
SECTION
  2
HEADER
  9
$ACADVER
  1
AC1012
  9
$DWGCODEPAGE
  3
ANSI_1252
  9
$INSBASE
 10
0.0
 20
0.0
 30
0.0
  9
$EXTMIN
 10
33.33674592228794
 20
25.14081829772353
 30
-0.0015258207003583
  9
$EXTMAX
 10
39.21715495305544
 20
29.64247117300583
 30
0.0000000349246037
  9
$LIMMIN
 10
0.0
 20
0.0
  9
$LIMMAX
 10
12.0
 20
9.0
  9
$ORTHOMODE
 70
     0
  9
$REGENMODE
 70
     1
  9
$FILLMODE
 70
     1
  9
$QTEXTMODE
 70
     0
  9
$MIRRTEXT
 70
     1
  9
$DRAGMODE
 70
     2
  9
$LTSCALE
 40
1.0
  9
$OSMODE
 70
   547
  9
$ATTMODE
 70
     1
  9
$TEXTSIZE
 40
0.2
  9
$TRACEWID
 40
0.05
  9
$TEXTSTYLE
  7
STANDARD
  9
$CLAYER
  8
0
  9
$CELTYPE
  6
BYLAYER
  9
$CECOLOR
 62
   256
  9
$CELTSCALE
 40
1.0
  9
$DELOBJ
 70
     1
  9
$DISPSILH
 70
     0
  9
$DIMSCALE
 40
1.0
  9
$DIMASZ
 40
0.18
  9
$DIMEXO
 40
0.0625
  9
$DIMDLI
 40
0.38
  9
$DIMRND
 40
0.0
  9
$DIMDLE
 40
0.0
  9
$DIMEXE
 40
0.18
  9
$DIMTP
 40
0.0
  9
$DIMTM
 40
0.0
  9
$DIMTXT
 40
0.18
  9
$DIMCEN
 40
0.09
  9
$DIMTSZ
 40
0.0
  9
$DIMTOL
 70
     0
  9
$DIMLIM
 70
     0
  9
$DIMTIH
 70
     1
  9
$DIMTOH
 70
     1
  9
$DIMSE1
 70
     0
  9
$DIMSE2
 70
     0
  9
$DIMTAD
 70
     0
  9
$DIMZIN
 70
     0
  9
$DIMBLK
  1

  9
$DIMASO
 70
     1
  9
$DIMSHO
 70
     1
  9
$DIMPOST
  1

  9
$DIMAPOST
  1

  9
$DIMALT
 70
     0
  9
$DIMALTD
 70
     2
  9
$DIMALTF
 40
25.4
  9
$DIMLFAC
 40
1.0
  9
$DIMTOFL
 70
     0
  9
$DIMTVP
 40
0.0
  9
$DIMTIX
 70
     0
  9
$DIMSOXD
 70
     0
  9
$DIMSAH
 70
     0
  9
$DIMBLK1
  1

  9
$DIMBLK2
  1

  9
$DIMSTYLE
  2
STANDARD
  9
$DIMCLRD
 70
     0
  9
$DIMCLRE
 70
     0
  9
$DIMCLRT
 70
     0
  9
$DIMTFAC
 40
1.0
  9
$DIMGAP
 40
0.09
  9
$DIMJUST
 70
     0
  9
$DIMSD1
 70
     0
  9
$DIMSD2
 70
     0
  9
$DIMTOLJ
 70
     1
  9
$DIMTZIN
 70
     0
  9
$DIMALTZ
 70
     0
  9
$DIMALTTZ
 70
     0
  9
$DIMFIT
 70
     5
  9
$DIMUPT
 70
     0
  9
$DIMUNIT
 70
     2
  9
$DIMDEC
 70
     4
  9
$DIMTDEC
 70
     4
  9
$DIMALTU
 70
     2
  9
$DIMALTTD
 70
     2
  9
$DIMTXSTY
  7
STANDARD
  9
$DIMAUNIT
 70
     0
  9
$LUNITS
 70
     2
  9
$LUPREC
 70
     4
  9
$SKETCHINC
 40
0.1
  9
$FILLETRAD
 40
0.0
  9
$AUNITS
 70
     0
  9
$AUPREC
 70
     0
  9
$MENU
  1
acad
  9
$ELEVATION
 40
0.0
  9
$PELEVATION
 40
0.0
  9
$THICKNESS
 40
0.0
  9
$LIMCHECK
 70
     0
  9
$BLIPMODE
 70
     0
  9
$CHAMFERA
 40
0.0
  9
$CHAMFERB
 40
0.0
  9
$CHAMFERC
 40
0.0
  9
$CHAMFERD
 40
0.0
  9
$SKPOLY
 70
     0
  9
$TDCREATE
 40
2453354.460335648
  9
$TDUPDATE
 40
2453354.462567291
  9
$TDINDWG
 40
0.0006230093
  9
$TDUSRTIMER
 40
0.0006230093
  9
$USRTIMER
 70
     1
  9
$ANGBASE
 50
0.0
  9
$ANGDIR
 70
     0
  9
$PDMODE
 70
     0
  9
$PDSIZE
 40
0.0
  9
$PLINEWID
 40
0.0
  9
$COORDS
 70
     1
  9
$SPLFRAME
 70
     0
  9
$SPLINETYPE
 70
     6
  9
$SPLINESEGS
 70
     8
  9
$ATTDIA
 70
     0
  9
$ATTREQ
 70
     1
  9
$HANDLING
 70
  4097
  9
$HANDSEED
  5
3F86
  9
$SURFTAB1
 70
     6
  9
$SURFTAB2
 70
     6
  9
$SURFTYPE
 70
     6
  9
$SURFU
 70
     6
  9
$SURFV
 70
     6
  9
$UCSNAME
  2

  9
$UCSORG
 10
0.0
 20
0.0
 30
0.0
  9
$UCSXDIR
 10
1.0
 20
0.0
 30
0.0
  9
$UCSYDIR
 10
0.0
 20
1.0
 30
0.0
  9
$PUCSNAME
  2

  9
$PUCSORG
 10
0.0
 20
0.0
 30
0.0
  9
$PUCSXDIR
 10
1.0
 20
0.0
 30
0.0
  9
$PUCSYDIR
 10
0.0
 20
1.0
 30
0.0
  9
$USERI1
 70
     0
  9
$USERI2
 70
     0
  9
$USERI3
 70
     0
  9
$USERI4
 70
     0
  9
$USERI5
 70
     0
  9
$USERR1
 40
0.0
  9
$USERR2
 40
0.0
  9
$USERR3
 40
0.0
  9
$USERR4
 40
0.0
  9
$USERR5
 40
0.0
  9
$WORLDVIEW
 70
     1
  9
$SHADEDGE
 70
     3
  9
$SHADEDIF
 70
    70
  9
$TILEMODE
 70
     1
  9
$MAXACTVP
 70
    16
  9
$PINSBASE
 10
0.0
 20
0.0
 30
0.0
  9
$PLIMCHECK
 70
     0
  9
$PEXTMIN
 10
1.000000000000000E+20
 20
1.000000000000000E+20
 30
1.000000000000000E+20
  9
$PEXTMAX
 10
-1.000000000000000E+20
 20
-1.000000000000000E+20
 30
-1.000000000000000E+20
  9
$PLIMMIN
 10
0.0
 20
0.0
  9
$PLIMMAX
 10
12.0
 20
9.0
  9
$UNITMODE
 70
     0
  9
$VISRETAIN
 70
     0
  9
$PLINEGEN
 70
     0
  9
$PSLTSCALE
 70
     1
  9
$TREEDEPTH
 70
  3020
  9
$PICKSTYLE
 70
     1
  9
$CMLSTYLE
  2
STANDARD
  9
$CMLJUST
 70
     0
  9
$CMLSCALE
 40
1.0
  9
$SAVEIMAGES
 70
     1
  0
ENDSEC
  0
SECTION
  2
CLASSES
  0
CLASS
  1
ACDBDICTIONARYWDFLT
  2
AcDbDictionaryWithDefault
  3
AutoCAD 2000
 90
    32768
280
     0
281
     0
  0
CLASS
  1
ACDBPLACEHOLDER
  2
AcDbPlaceHolder
  3
AutoCAD 2000
 90
    32768
280
     0
281
     0
  0
CLASS
  1
LAYOUT
  2
AcDbLayout
  3
AutoCAD 2000
 90
    32768
280
     0
281
     0
  0
CLASS
  1
LONG_TRANSACTION
  2
AcDbLongTransaction
  3
AutoCAD 2000
 90
    32768
280
     0
281
     0
  0
CLASS
  1
LWPOLYLINE
  2
AcDbPolyline
  3
AutoCAD 2000
 90
    32768
280
     0
281
     1
  0
CLASS
  1
HATCH
  2
AcDbHatch
  3
AutoCAD 2000
 90
    32768
280
     0
281
     1
  0
CLASS
  1
XRECORD
  2
AcDbXrecord
  3
AutoCAD 2000
 90
    32768
280
     0
281
     0
  0
ENDSEC
  0
SECTION
  2
TABLES
  0
TABLE
  2
VPORT
  5
8
330
0
100
AcDbSymbolTable
 70
     3
  0
VPORT
  5
3F81
330
8
100
AcDbSymbolTableRecord
100
AcDbViewportTableRecord
  2
*ACTIVE
 70
     0
 10
0.0
 20
0.0
 11
1.0
 21
1.0
 12
36.27695043767169
 22
27.39164473536467
 13
0.0
 23
0.0
 14
1.0
 24
1.0
 15
0.0
 25
0.0
 16
0.0
 26
0.0
 36
1.0
 17
0.0
 27
0.0
 37
0.0
 40
4.555243980940424
 41
1.831013916500993
 42
50.0
 43
0.0
 44
0.0
 50
0.0
 51
0.0
 71
     0
 72
   100
 73
     1
 74
     1
 75
     0
 76
     0
 77
     0
 78
     0
  0
ENDTAB
  0
TABLE
  2
LTYPE
  5
5
330
0
100
AcDbSymbolTable
 70
    25
  0
LTYPE
  5
13
330
5
100
AcDbSymbolTableRecord
100
AcDbLinetypeTableRecord
  2
BYBLOCK
 70
     0
  3

 72
    65
 73
     0
 40
0.0
  0
LTYPE
  5
14
330
5
100
AcDbSymbolTableRecord
100
AcDbLinetypeTableRecord
  2
BYLAYER
 70
     0
  3

 72
    65
 73
     0
 40
0.0
  0
LTYPE
  5
15
330
5
100
AcDbSymbolTableRecord
100
AcDbLinetypeTableRecord
  2
CONTINUOUS
 70
     0
  3
Solid line
 72
    65
 73
     0
 40
0.0
  0
LTYPE
  5
22
330
5
100
AcDbSymbolTableRecord
100
AcDbLinetypeTableRecord
  2
BORDER
 70
     0
  3
__ __ . __ __ . __ __ . __ __ . __ __ . __ __ .
 72
    65
 73
     6
 40
1.75
 49
0.5
 74
     0
 49
-0.25
 74
     0
 49
0.5
 74
     0
 49
-0.25
 74
     0
 49
0.5
 74
     0
 49
-0.25
 74
     0
  0
LTYPE
  5
23
330
5
100
AcDbSymbolTableRecord
100
AcDbLinetypeTableRecord
  2
BORDER2
 70
     0
  3
__.__.__.__.__.__.__.__.__.__.__.__.__.__.__.__
 72
    65
 73
     6
 40
0.875
 49
0.25
 74
     0
 49
-0.125
 74
     0
 49
0.25
 74
     0
 49
-0.125
 74
     0
 49
0.25
 74
     0
 49
-0.125
 74
     0
  0
LTYPE
  5
24
330
5
100
AcDbSymbolTableRecord
100
AcDbLinetypeTableRecord
  2
BORDERX2
 70
     0
  3
____  ____  .  ____  ____  .  
 72
    65
 73
     6
 40
3.5
 49
1.0
 74
     0
 49
-0.5
 74
     0
 49
1.0
 74
     0
 49
-0.5
 74
     0
 49
1.0
 74
     0
 49
-0.5
 74
     0
  0
LTYPE
  5
25
330
5
100
AcDbSymbolTableRecord
100
AcDbLinetypeTableRecord
  2
CENTER
 70
     0
  3
____ _ ____ _ ____ _ ____ _ ____ _ ____ _ ____
 72
    65
 73
     4
 40
2.0
 49
1.25
 74
     0
 49
-0.25
 74
     0
 49
0.25
 74
     0
 49
-0.25
 74
     0
  0
LTYPE
  5
26
330
5
100
AcDbSymbolTableRecord
100
AcDbLinetypeTableRecord
  2
CENTER2
 70
     0
  3
____ _ ____ _ ____ _ ____ _ ____ _ ____ _ ____
 72
    65
 73
     4
 40
1.125
 49
0.75
 74
     0
 49
-0.125
 74
     0
 49
0.125
 74
     0
 49
-0.125
 74
     0
  0
LTYPE
  5
27
330
5
100
AcDbSymbolTableRecord
100
AcDbLinetypeTableRecord
  2
CENTERX2
 70
     0
  3
________  __  ________  __  ________  __  
 72
    65
 73
     4
 40
4.0
 49
2.5
 74
     0
 49
-0.5
 74
     0
 49
0.5
 74
     0
 49
-0.5
 74
     0
  0
LTYPE
  5
28
330
5
100
AcDbSymbolTableRecord
100
AcDbLinetypeTableRecord
  2
DASHDOT
 70
     0
  3
__ . __ . __ . __ . __ . __ . __ . 
 72
    65
 73
     4
 40
1.0
 49
0.5
 74
     0
 49
-0.25
 74
     0
 49
0.0
 74
     0
 49
-0.25
 74
     0
  0
LTYPE
  5
29
330
5
100
AcDbSymbolTableRecord
100
AcDbLinetypeTableRecord
  2
DASHDOT2
 70
     0
  3
_._._._._._._._._._._._._._._._.
 72
    65
 73
     4
 40
0.5
 49
0.25
 74
     0
 49
-0.125
 74
     0
 49
0.0
 74
     0
 49
-0.125
 74
     0
  0
LTYPE
  5
2A
330
5
100
AcDbSymbolTableRecord
100
AcDbLinetypeTableRecord
  2
DASHDOTX2
 70
     0
  3
____  .  ____  .  ____  .  ____  .  
 72
    65
 73
     4
 40
2.0
 49
1.0
 74
     0
 49
-0.5
 74
     0
 49
0.0
 74
     0
 49
-0.5
 74
     0
  0
LTYPE
  5
2B
330
5
100
AcDbSymbolTableRecord
100
AcDbLinetypeTableRecord
  2
DASHED
 70
     0
  3
__ __ __ __ __ __ __ __ __ __ __ __ 
 72
    65
 73
     2
 40
0.75
 49
0.5
 74
     0
 49
-0.25
 74
     0
  0
LTYPE
  5
2C
330
5
100
AcDbSymbolTableRecord
100
AcDbLinetypeTableRecord
  2
DASHED2
 70
     0
  3
_ _ _ _ _ _ _ _ _ _ _ _ _ _ _ _ _ _ 
 72
    65
 73
     2
 40
0.375
 49
0.25
 74
     0
 49
-0.125
 74
     0
  0
LTYPE
  5
2D
330
5
100
AcDbSymbolTableRecord
100
AcDbLinetypeTableRecord
  2
DASHEDX2
 70
     0
  3
____  ____  ____  ____  ____  ____  
 72
    65
 73
     2
 40
1.5
 49
1.0
 74
     0
 49
-0.5
 74
     0
  0
LTYPE
  5
2E
330
5
100
AcDbSymbolTableRecord
100
AcDbLinetypeTableRecord
  2
DIVIDE
 70
     0
  3
____ . . ____ . . ____ . . ____ . . 
 72
    65
 73
     6
 40
1.25
 49
0.5
 74
     0
 49
-0.25
 74
     0
 49
0.0
 74
     0
 49
-0.25
 74
     0
 49
0.0
 74
     0
 49
-0.25
 74
     0
  0
LTYPE
  5
2F
330
5
100
AcDbSymbolTableRecord
100
AcDbLinetypeTableRecord
  2
DIVIDE2
 70
     0
  3
__..__..__..__..__..__..__..__..__..
 72
    65
 73
     6
 40
0.625
 49
0.25
 74
     0
 49
-0.125
 74
     0
 49
0.0
 74
     0
 49
-0.125
 74
     0
 49
0.0
 74
     0
 49
-0.125
 74
     0
  0
LTYPE
  5
30
330
5
100
AcDbSymbolTableRecord
100
AcDbLinetypeTableRecord
  2
DIVIDEX2
 70
     0
  3
________  .  .  ________  .  .  ________  .  . 
 72
    65
 73
     6
 40
2.5
 49
1.0
 74
     0
 49
-0.5
 74
     0
 49
0.0
 74
     0
 49
-0.5
 74
     0
 49
0.0
 74
     0
 49
-0.5
 74
     0
  0
LTYPE
  5
31
330
5
100
AcDbSymbolTableRecord
100
AcDbLinetypeTableRecord
  2
DOT
 70
     0
  3
. . . . . . . . . . . . . . . . . . 
 72
    65
 73
     2
 40
0.25
 49
0.0
 74
     0
 49
-0.25
 74
     0
  0
LTYPE
  5
32
330
5
100
AcDbSymbolTableRecord
100
AcDbLinetypeTableRecord
  2
DOT2
 70
     0
  3
....................................
 72
    65
 73
     2
 40
0.125
 49
0.0
 74
     0
 49
-0.125
 74
     0
  0
LTYPE
  5
33
330
5
100
AcDbSymbolTableRecord
100
AcDbLinetypeTableRecord
  2
DOTX2
 70
     0
  3
.  .  .  .  .  .  .  .  .  .  .  .  .  
 72
    65
 73
     2
 40
0.5
 49
0.0
 74
     0
 49
-0.5
 74
     0
  0
LTYPE
  5
34
330
5
100
AcDbSymbolTableRecord
100
AcDbLinetypeTableRecord
  2
HIDDEN
 70
     0
  3
__ __ __ __ __ __ __ __ __ __ __ __ 
 72
    65
 73
     2
 40
0.375
 49
0.25
 74
     0
 49
-0.125
 74
     0
  0
LTYPE
  5
35
330
5
100
AcDbSymbolTableRecord
100
AcDbLinetypeTableRecord
  2
HIDDEN2
 70
     0
  3
_ _ _ _ _ _ _ _ _ _ _ _ _ _ _ _ _ _ 
 72
    65
 73
     2
 40
0.1875
 49
0.125
 74
     0
 49
-0.0625
 74
     0
  0
LTYPE
  5
36
330
5
100
AcDbSymbolTableRecord
100
AcDbLinetypeTableRecord
  2
HIDDENX2
 70
     0
  3
____ ____ ____ ____ ____ ____ ____ 
 72
    65
 73
     2
 40
0.75
 49
0.5
 74
     0
 49
-0.25
 74
     0
  0
LTYPE
  5
37
330
5
100
AcDbSymbolTableRecord
100
AcDbLinetypeTableRecord
  2
PHANTOM
 70
     0
  3
______  __  __  ______  __  __  
 72
    65
 73
     6
 40
2.5
 49
1.25
 74
     0
 49
-0.25
 74
     0
 49
0.25
 74
     0
 49
-0.25
 74
     0
 49
0.25
 74
     0
 49
-0.25
 74
     0
  0
LTYPE
  5
38
330
5
100
AcDbSymbolTableRecord
100
AcDbLinetypeTableRecord
  2
PHANTOM2
 70
     0
  3
___ _ _ ___ _ _ ___ _ _ ___ _ _ 
 72
    65
 73
     6
 40
1.25
 49
0.625
 74
     0
 49
-0.125
 74
     0
 49
0.125
 74
     0
 49
-0.125
 74
     0
 49
0.125
 74
     0
 49
-0.125
 74
     0
  0
LTYPE
  5
39
330
5
100
AcDbSymbolTableRecord
100
AcDbLinetypeTableRecord
  2
PHANTOMX2
 70
     0
  3
___ _ _ ___ _ _ ___ _ _ ___ _ _ 
 72
    65
 73
     6
 40
5.0
 49
2.5
 74
     0
 49
-0.5
 74
     0
 49
0.5
 74
     0
 49
-0.5
 74
     0
 49
0.5
 74
     0
 49
-0.5
 74
     0
  0
ENDTAB
  0
TABLE
  2
LAYER
  5
2
330
0
100
AcDbSymbolTable
 70
   256
  0
LAYER
  5
10
330
2
100
AcDbSymbolTableRecord
100
AcDbLayerTableRecord
  2
0
 70
     0
 62
     7
  6
CONTINUOUS
  0
LAYER
  5
3A
330
2
100
AcDbSymbolTableRecord
100
AcDbLayerTableRecord
  2
1
 70
     0
 62
     1
  6
CONTINUOUS
  0
LAYER
  5
3B
330
2
100
AcDbSymbolTableRecord
100
AcDbLayerTableRecord
  2
2
 70
     0
 62
     2
  6
CONTINUOUS
  0
LAYER
  5
3C
330
2
100
AcDbSymbolTableRecord
100
AcDbLayerTableRecord
  2
3
 70
     0
 62
     3
  6
CONTINUOUS
  0
LAYER
  5
3D
330
2
100
AcDbSymbolTableRecord
100
AcDbLayerTableRecord
  2
4
 70
     0
 62
     4
  6
CONTINUOUS
  0
LAYER
  5
3E
330
2
100
AcDbSymbolTableRecord
100
AcDbLayerTableRecord
  2
5
 70
     0
 62
     5
  6
CONTINUOUS
  0
LAYER
  5
3F
330
2
100
AcDbSymbolTableRecord
100
AcDbLayerTableRecord
  2
6
 70
     0
 62
     6
  6
CONTINUOUS
  0
LAYER
  5
40
330
2
100
AcDbSymbolTableRecord
100
AcDbLayerTableRecord
  2
7
 70
     0
 62
     7
  6
CONTINUOUS
  0
LAYER
  5
41
330
2
100
AcDbSymbolTableRecord
100
AcDbLayerTableRecord
  2
8
 70
     0
 62
     8
  6
CONTINUOUS
  0
LAYER
  5
42
330
2
100
AcDbSymbolTableRecord
100
AcDbLayerTableRecord
  2
9
 70
     0
 62
     9
  6
CONTINUOUS
  0
LAYER
  5
43
330
2
100
AcDbSymbolTableRecord
100
AcDbLayerTableRecord
  2
10
 70
     0
 62
    10
  6
CONTINUOUS
  0
LAYER
  5
44
330
2
100
AcDbSymbolTableRecord
100
AcDbLayerTableRecord
  2
11
 70
     0
 62
    11
  6
CONTINUOUS
  0
LAYER
  5
45
330
2
100
AcDbSymbolTableRecord
100
AcDbLayerTableRecord
  2
12
 70
     0
 62
    12
  6
CONTINUOUS
  0
LAYER
  5
46
330
2
100
AcDbSymbolTableRecord
100
AcDbLayerTableRecord
  2
13
 70
     0
 62
    13
  6
CONTINUOUS
  0
LAYER
  5
47
330
2
100
AcDbSymbolTableRecord
100
AcDbLayerTableRecord
  2
14
 70
     0
 62
    14
  6
CONTINUOUS
  0
LAYER
  5
48
330
2
100
AcDbSymbolTableRecord
100
AcDbLayerTableRecord
  2
15
 70
     0
 62
    15
  6
CONTINUOUS
  0
LAYER
  5
49
330
2
100
AcDbSymbolTableRecord
100
AcDbLayerTableRecord
  2
16
 70
     0
 62
    16
  6
CONTINUOUS
  0
LAYER
  5
4A
330
2
100
AcDbSymbolTableRecord
100
AcDbLayerTableRecord
  2
17
 70
     0
 62
    17
  6
CONTINUOUS
  0
LAYER
  5
4B
330
2
100
AcDbSymbolTableRecord
100
AcDbLayerTableRecord
  2
18
 70
     0
 62
    18
  6
CONTINUOUS
  0
LAYER
  5
4C
330
2
100
AcDbSymbolTableRecord
100
AcDbLayerTableRecord
  2
19
 70
     0
 62
    19
  6
CONTINUOUS
  0
LAYER
  5
4D
330
2
100
AcDbSymbolTableRecord
100
AcDbLayerTableRecord
  2
20
 70
     0
 62
    20
  6
CONTINUOUS
  0
LAYER
  5
4E
330
2
100
AcDbSymbolTableRecord
100
AcDbLayerTableRecord
  2
21
 70
     0
 62
    21
  6
CONTINUOUS
  0
LAYER
  5
4F
330
2
100
AcDbSymbolTableRecord
100
AcDbLayerTableRecord
  2
22
 70
     0
 62
    22
  6
CONTINUOUS
  0
LAYER
  5
50
330
2
100
AcDbSymbolTableRecord
100
AcDbLayerTableRecord
  2
23
 70
     0
 62
    23
  6
CONTINUOUS
  0
LAYER
  5
51
330
2
100
AcDbSymbolTableRecord
100
AcDbLayerTableRecord
  2
24
 70
     0
 62
    24
  6
CONTINUOUS
  0
LAYER
  5
52
330
2
100
AcDbSymbolTableRecord
100
AcDbLayerTableRecord
  2
25
 70
     0
 62
    25
  6
CONTINUOUS
  0
LAYER
  5
53
330
2
100
AcDbSymbolTableRecord
100
AcDbLayerTableRecord
  2
26
 70
     0
 62
    26
  6
CONTINUOUS
  0
LAYER
  5
54
330
2
100
AcDbSymbolTableRecord
100
AcDbLayerTableRecord
  2
27
 70
     0
 62
    27
  6
CONTINUOUS
  0
LAYER
  5
55
330
2
100
AcDbSymbolTableRecord
100
AcDbLayerTableRecord
  2
28
 70
     0
 62
    28
  6
CONTINUOUS
  0
LAYER
  5
56
330
2
100
AcDbSymbolTableRecord
100
AcDbLayerTableRecord
  2
29
 70
     0
 62
    29
  6
CONTINUOUS
  0
LAYER
  5
57
330
2
100
AcDbSymbolTableRecord
100
AcDbLayerTableRecord
  2
30
 70
     0
 62
    30
  6
CONTINUOUS
  0
LAYER
  5
58
330
2
100
AcDbSymbolTableRecord
100
AcDbLayerTableRecord
  2
31
 70
     0
 62
    31
  6
CONTINUOUS
  0
LAYER
  5
59
330
2
100
AcDbSymbolTableRecord
100
AcDbLayerTableRecord
  2
32
 70
     0
 62
    32
  6
CONTINUOUS
  0
LAYER
  5
5A
330
2
100
AcDbSymbolTableRecord
100
AcDbLayerTableRecord
  2
33
 70
     0
 62
    33
  6
CONTINUOUS
  0
LAYER
  5
5B
330
2
100
AcDbSymbolTableRecord
100
AcDbLayerTableRecord
  2
34
 70
     0
 62
    34
  6
CONTINUOUS
  0
LAYER
  5
5C
330
2
100
AcDbSymbolTableRecord
100
AcDbLayerTableRecord
  2
35
 70
     0
 62
    35
  6
CONTINUOUS
  0
LAYER
  5
5D
330
2
100
AcDbSymbolTableRecord
100
AcDbLayerTableRecord
  2
36
 70
     0
 62
    36
  6
CONTINUOUS
  0
LAYER
  5
5E
330
2
100
AcDbSymbolTableRecord
100
AcDbLayerTableRecord
  2
37
 70
     0
 62
    37
  6
CONTINUOUS
  0
LAYER
  5
5F
330
2
100
AcDbSymbolTableRecord
100
AcDbLayerTableRecord
  2
38
 70
     0
 62
    38
  6
CONTINUOUS
  0
LAYER
  5
60
330
2
100
AcDbSymbolTableRecord
100
AcDbLayerTableRecord
  2
39
 70
     0
 62
    39
  6
CONTINUOUS
  0
LAYER
  5
61
330
2
100
AcDbSymbolTableRecord
100
AcDbLayerTableRecord
  2
40
 70
     0
 62
    40
  6
CONTINUOUS
  0
LAYER
  5
62
330
2
100
AcDbSymbolTableRecord
100
AcDbLayerTableRecord
  2
41
 70
     0
 62
    41
  6
CONTINUOUS
  0
LAYER
  5
63
330
2
100
AcDbSymbolTableRecord
100
AcDbLayerTableRecord
  2
42
 70
     0
 62
    42
  6
CONTINUOUS
  0
LAYER
  5
64
330
2
100
AcDbSymbolTableRecord
100
AcDbLayerTableRecord
  2
43
 70
     0
 62
    43
  6
CONTINUOUS
  0
LAYER
  5
65
330
2
100
AcDbSymbolTableRecord
100
AcDbLayerTableRecord
  2
44
 70
     0
 62
    44
  6
CONTINUOUS
  0
LAYER
  5
66
330
2
100
AcDbSymbolTableRecord
100
AcDbLayerTableRecord
  2
45
 70
     0
 62
    45
  6
CONTINUOUS
  0
LAYER
  5
67
330
2
100
AcDbSymbolTableRecord
100
AcDbLayerTableRecord
  2
46
 70
     0
 62
    46
  6
CONTINUOUS
  0
LAYER
  5
68
330
2
100
AcDbSymbolTableRecord
100
AcDbLayerTableRecord
  2
47
 70
     0
 62
    47
  6
CONTINUOUS
  0
LAYER
  5
69
330
2
100
AcDbSymbolTableRecord
100
AcDbLayerTableRecord
  2
48
 70
     0
 62
    48
  6
CONTINUOUS
  0
LAYER
  5
6A
330
2
100
AcDbSymbolTableRecord
100
AcDbLayerTableRecord
  2
49
 70
     0
 62
    49
  6
CONTINUOUS
  0
LAYER
  5
6B
330
2
100
AcDbSymbolTableRecord
100
AcDbLayerTableRecord
  2
50
 70
     0
 62
    50
  6
CONTINUOUS
  0
LAYER
  5
6C
330
2
100
AcDbSymbolTableRecord
100
AcDbLayerTableRecord
  2
51
 70
     0
 62
    51
  6
CONTINUOUS
  0
LAYER
  5
6D
330
2
100
AcDbSymbolTableRecord
100
AcDbLayerTableRecord
  2
52
 70
     0
 62
    52
  6
CONTINUOUS
  0
LAYER
  5
6E
330
2
100
AcDbSymbolTableRecord
100
AcDbLayerTableRecord
  2
53
 70
     0
 62
    53
  6
CONTINUOUS
  0
LAYER
  5
6F
330
2
100
AcDbSymbolTableRecord
100
AcDbLayerTableRecord
  2
54
 70
     0
 62
    54
  6
CONTINUOUS
  0
LAYER
  5
70
330
2
100
AcDbSymbolTableRecord
100
AcDbLayerTableRecord
  2
55
 70
     0
 62
    55
  6
CONTINUOUS
  0
LAYER
  5
71
330
2
100
AcDbSymbolTableRecord
100
AcDbLayerTableRecord
  2
56
 70
     0
 62
    56
  6
CONTINUOUS
  0
LAYER
  5
72
330
2
100
AcDbSymbolTableRecord
100
AcDbLayerTableRecord
  2
57
 70
     0
 62
    57
  6
CONTINUOUS
  0
LAYER
  5
73
330
2
100
AcDbSymbolTableRecord
100
AcDbLayerTableRecord
  2
58
 70
     0
 62
    58
  6
CONTINUOUS
  0
LAYER
  5
74
330
2
100
AcDbSymbolTableRecord
100
AcDbLayerTableRecord
  2
59
 70
     0
 62
    59
  6
CONTINUOUS
  0
LAYER
  5
75
330
2
100
AcDbSymbolTableRecord
100
AcDbLayerTableRecord
  2
60
 70
     0
 62
    60
  6
CONTINUOUS
  0
LAYER
  5
76
330
2
100
AcDbSymbolTableRecord
100
AcDbLayerTableRecord
  2
61
 70
     0
 62
    61
  6
CONTINUOUS
  0
LAYER
  5
77
330
2
100
AcDbSymbolTableRecord
100
AcDbLayerTableRecord
  2
62
 70
     0
 62
    62
  6
CONTINUOUS
  0
LAYER
  5
78
330
2
100
AcDbSymbolTableRecord
100
AcDbLayerTableRecord
  2
63
 70
     0
 62
    63
  6
CONTINUOUS
  0
LAYER
  5
79
330
2
100
AcDbSymbolTableRecord
100
AcDbLayerTableRecord
  2
64
 70
     0
 62
    64
  6
CONTINUOUS
  0
LAYER
  5
7A
330
2
100
AcDbSymbolTableRecord
100
AcDbLayerTableRecord
  2
65
 70
     0
 62
    65
  6
CONTINUOUS
  0
LAYER
  5
7B
330
2
100
AcDbSymbolTableRecord
100
AcDbLayerTableRecord
  2
66
 70
     0
 62
    66
  6
CONTINUOUS
  0
LAYER
  5
7C
330
2
100
AcDbSymbolTableRecord
100
AcDbLayerTableRecord
  2
67
 70
     0
 62
    67
  6
CONTINUOUS
  0
LAYER
  5
7D
330
2
100
AcDbSymbolTableRecord
100
AcDbLayerTableRecord
  2
68
 70
     0
 62
    68
  6
CONTINUOUS
  0
LAYER
  5
7E
330
2
100
AcDbSymbolTableRecord
100
AcDbLayerTableRecord
  2
69
 70
     0
 62
    69
  6
CONTINUOUS
  0
LAYER
  5
7F
330
2
100
AcDbSymbolTableRecord
100
AcDbLayerTableRecord
  2
70
 70
     0
 62
    70
  6
CONTINUOUS
  0
LAYER
  5
80
330
2
100
AcDbSymbolTableRecord
100
AcDbLayerTableRecord
  2
71
 70
     0
 62
    71
  6
CONTINUOUS
  0
LAYER
  5
81
330
2
100
AcDbSymbolTableRecord
100
AcDbLayerTableRecord
  2
72
 70
     0
 62
    72
  6
CONTINUOUS
  0
LAYER
  5
82
330
2
100
AcDbSymbolTableRecord
100
AcDbLayerTableRecord
  2
73
 70
     0
 62
    73
  6
CONTINUOUS
  0
LAYER
  5
83
330
2
100
AcDbSymbolTableRecord
100
AcDbLayerTableRecord
  2
74
 70
     0
 62
    74
  6
CONTINUOUS
  0
LAYER
  5
84
330
2
100
AcDbSymbolTableRecord
100
AcDbLayerTableRecord
  2
75
 70
     0
 62
    75
  6
CONTINUOUS
  0
LAYER
  5
85
330
2
100
AcDbSymbolTableRecord
100
AcDbLayerTableRecord
  2
76
 70
     0
 62
    76
  6
CONTINUOUS
  0
LAYER
  5
86
330
2
100
AcDbSymbolTableRecord
100
AcDbLayerTableRecord
  2
77
 70
     0
 62
    77
  6
CONTINUOUS
  0
LAYER
  5
87
330
2
100
AcDbSymbolTableRecord
100
AcDbLayerTableRecord
  2
78
 70
     0
 62
    78
  6
CONTINUOUS
  0
LAYER
  5
88
330
2
100
AcDbSymbolTableRecord
100
AcDbLayerTableRecord
  2
79
 70
     0
 62
    79
  6
CONTINUOUS
  0
LAYER
  5
89
330
2
100
AcDbSymbolTableRecord
100
AcDbLayerTableRecord
  2
80
 70
     0
 62
    80
  6
CONTINUOUS
  0
LAYER
  5
8A
330
2
100
AcDbSymbolTableRecord
100
AcDbLayerTableRecord
  2
81
 70
     0
 62
    81
  6
CONTINUOUS
  0
LAYER
  5
8B
330
2
100
AcDbSymbolTableRecord
100
AcDbLayerTableRecord
  2
82
 70
     0
 62
    82
  6
CONTINUOUS
  0
LAYER
  5
8C
330
2
100
AcDbSymbolTableRecord
100
AcDbLayerTableRecord
  2
83
 70
     0
 62
    83
  6
CONTINUOUS
  0
LAYER
  5
8D
330
2
100
AcDbSymbolTableRecord
100
AcDbLayerTableRecord
  2
84
 70
     0
 62
    84
  6
CONTINUOUS
  0
LAYER
  5
8E
330
2
100
AcDbSymbolTableRecord
100
AcDbLayerTableRecord
  2
85
 70
     0
 62
    85
  6
CONTINUOUS
  0
LAYER
  5
8F
330
2
100
AcDbSymbolTableRecord
100
AcDbLayerTableRecord
  2
86
 70
     0
 62
    86
  6
CONTINUOUS
  0
LAYER
  5
90
330
2
100
AcDbSymbolTableRecord
100
AcDbLayerTableRecord
  2
87
 70
     0
 62
    87
  6
CONTINUOUS
  0
LAYER
  5
91
330
2
100
AcDbSymbolTableRecord
100
AcDbLayerTableRecord
  2
88
 70
     0
 62
    88
  6
CONTINUOUS
  0
LAYER
  5
92
330
2
100
AcDbSymbolTableRecord
100
AcDbLayerTableRecord
  2
89
 70
     0
 62
    89
  6
CONTINUOUS
  0
LAYER
  5
93
330
2
100
AcDbSymbolTableRecord
100
AcDbLayerTableRecord
  2
90
 70
     0
 62
    90
  6
CONTINUOUS
  0
LAYER
  5
94
330
2
100
AcDbSymbolTableRecord
100
AcDbLayerTableRecord
  2
91
 70
     0
 62
    91
  6
CONTINUOUS
  0
LAYER
  5
95
330
2
100
AcDbSymbolTableRecord
100
AcDbLayerTableRecord
  2
92
 70
     0
 62
    92
  6
CONTINUOUS
  0
LAYER
  5
96
330
2
100
AcDbSymbolTableRecord
100
AcDbLayerTableRecord
  2
93
 70
     0
 62
    93
  6
CONTINUOUS
  0
LAYER
  5
97
330
2
100
AcDbSymbolTableRecord
100
AcDbLayerTableRecord
  2
94
 70
     0
 62
    94
  6
CONTINUOUS
  0
LAYER
  5
98
330
2
100
AcDbSymbolTableRecord
100
AcDbLayerTableRecord
  2
95
 70
     0
 62
    95
  6
CONTINUOUS
  0
LAYER
  5
99
330
2
100
AcDbSymbolTableRecord
100
AcDbLayerTableRecord
  2
96
 70
     0
 62
    96
  6
CONTINUOUS
  0
LAYER
  5
9A
330
2
100
AcDbSymbolTableRecord
100
AcDbLayerTableRecord
  2
97
 70
     0
 62
    97
  6
CONTINUOUS
  0
LAYER
  5
9B
330
2
100
AcDbSymbolTableRecord
100
AcDbLayerTableRecord
  2
98
 70
     0
 62
    98
  6
CONTINUOUS
  0
LAYER
  5
9C
330
2
100
AcDbSymbolTableRecord
100
AcDbLayerTableRecord
  2
99
 70
     0
 62
    99
  6
CONTINUOUS
  0
LAYER
  5
9D
330
2
100
AcDbSymbolTableRecord
100
AcDbLayerTableRecord
  2
100
 70
     0
 62
   100
  6
CONTINUOUS
  0
LAYER
  5
9E
330
2
100
AcDbSymbolTableRecord
100
AcDbLayerTableRecord
  2
101
 70
     0
 62
   101
  6
CONTINUOUS
  0
LAYER
  5
9F
330
2
100
AcDbSymbolTableRecord
100
AcDbLayerTableRecord
  2
102
 70
     0
 62
   102
  6
CONTINUOUS
  0
LAYER
  5
A0
330
2
100
AcDbSymbolTableRecord
100
AcDbLayerTableRecord
  2
103
 70
     0
 62
   103
  6
CONTINUOUS
  0
LAYER
  5
A1
330
2
100
AcDbSymbolTableRecord
100
AcDbLayerTableRecord
  2
104
 70
     0
 62
   104
  6
CONTINUOUS
  0
LAYER
  5
A2
330
2
100
AcDbSymbolTableRecord
100
AcDbLayerTableRecord
  2
105
 70
     0
 62
   105
  6
CONTINUOUS
  0
LAYER
  5
A3
330
2
100
AcDbSymbolTableRecord
100
AcDbLayerTableRecord
  2
106
 70
     0
 62
   106
  6
CONTINUOUS
  0
LAYER
  5
A4
330
2
100
AcDbSymbolTableRecord
100
AcDbLayerTableRecord
  2
107
 70
     0
 62
   107
  6
CONTINUOUS
  0
LAYER
  5
A5
330
2
100
AcDbSymbolTableRecord
100
AcDbLayerTableRecord
  2
108
 70
     0
 62
   108
  6
CONTINUOUS
  0
LAYER
  5
A6
330
2
100
AcDbSymbolTableRecord
100
AcDbLayerTableRecord
  2
109
 70
     0
 62
   109
  6
CONTINUOUS
  0
LAYER
  5
A7
330
2
100
AcDbSymbolTableRecord
100
AcDbLayerTableRecord
  2
110
 70
     0
 62
   110
  6
CONTINUOUS
  0
LAYER
  5
A8
330
2
100
AcDbSymbolTableRecord
100
AcDbLayerTableRecord
  2
111
 70
     0
 62
   111
  6
CONTINUOUS
  0
LAYER
  5
A9
330
2
100
AcDbSymbolTableRecord
100
AcDbLayerTableRecord
  2
112
 70
     0
 62
   112
  6
CONTINUOUS
  0
LAYER
  5
AA
330
2
100
AcDbSymbolTableRecord
100
AcDbLayerTableRecord
  2
113
 70
     0
 62
   113
  6
CONTINUOUS
  0
LAYER
  5
AB
330
2
100
AcDbSymbolTableRecord
100
AcDbLayerTableRecord
  2
114
 70
     0
 62
   114
  6
CONTINUOUS
  0
LAYER
  5
AC
330
2
100
AcDbSymbolTableRecord
100
AcDbLayerTableRecord
  2
115
 70
     0
 62
   115
  6
CONTINUOUS
  0
LAYER
  5
AD
330
2
100
AcDbSymbolTableRecord
100
AcDbLayerTableRecord
  2
116
 70
     0
 62
   116
  6
CONTINUOUS
  0
LAYER
  5
AE
330
2
100
AcDbSymbolTableRecord
100
AcDbLayerTableRecord
  2
117
 70
     0
 62
   117
  6
CONTINUOUS
  0
LAYER
  5
AF
330
2
100
AcDbSymbolTableRecord
100
AcDbLayerTableRecord
  2
118
 70
     0
 62
   118
  6
CONTINUOUS
  0
LAYER
  5
B0
330
2
100
AcDbSymbolTableRecord
100
AcDbLayerTableRecord
  2
119
 70
     0
 62
   119
  6
CONTINUOUS
  0
LAYER
  5
B1
330
2
100
AcDbSymbolTableRecord
100
AcDbLayerTableRecord
  2
120
 70
     0
 62
   120
  6
CONTINUOUS
  0
LAYER
  5
B2
330
2
100
AcDbSymbolTableRecord
100
AcDbLayerTableRecord
  2
121
 70
     0
 62
   121
  6
CONTINUOUS
  0
LAYER
  5
B3
330
2
100
AcDbSymbolTableRecord
100
AcDbLayerTableRecord
  2
122
 70
     0
 62
   122
  6
CONTINUOUS
  0
LAYER
  5
B4
330
2
100
AcDbSymbolTableRecord
100
AcDbLayerTableRecord
  2
123
 70
     0
 62
   123
  6
CONTINUOUS
  0
LAYER
  5
B5
330
2
100
AcDbSymbolTableRecord
100
AcDbLayerTableRecord
  2
124
 70
     0
 62
   124
  6
CONTINUOUS
  0
LAYER
  5
B6
330
2
100
AcDbSymbolTableRecord
100
AcDbLayerTableRecord
  2
125
 70
     0
 62
   125
  6
CONTINUOUS
  0
LAYER
  5
B7
330
2
100
AcDbSymbolTableRecord
100
AcDbLayerTableRecord
  2
126
 70
     0
 62
   126
  6
CONTINUOUS
  0
LAYER
  5
B8
330
2
100
AcDbSymbolTableRecord
100
AcDbLayerTableRecord
  2
127
 70
     0
 62
   127
  6
CONTINUOUS
  0
LAYER
  5
B9
330
2
100
AcDbSymbolTableRecord
100
AcDbLayerTableRecord
  2
128
 70
     0
 62
   128
  6
CONTINUOUS
  0
LAYER
  5
BA
330
2
100
AcDbSymbolTableRecord
100
AcDbLayerTableRecord
  2
129
 70
     0
 62
   129
  6
CONTINUOUS
  0
LAYER
  5
BB
330
2
100
AcDbSymbolTableRecord
100
AcDbLayerTableRecord
  2
130
 70
     0
 62
   130
  6
CONTINUOUS
  0
LAYER
  5
BC
330
2
100
AcDbSymbolTableRecord
100
AcDbLayerTableRecord
  2
131
 70
     0
 62
   131
  6
CONTINUOUS
  0
LAYER
  5
BD
330
2
100
AcDbSymbolTableRecord
100
AcDbLayerTableRecord
  2
132
 70
     0
 62
   132
  6
CONTINUOUS
  0
LAYER
  5
BE
330
2
100
AcDbSymbolTableRecord
100
AcDbLayerTableRecord
  2
133
 70
     0
 62
   133
  6
CONTINUOUS
  0
LAYER
  5
BF
330
2
100
AcDbSymbolTableRecord
100
AcDbLayerTableRecord
  2
134
 70
     0
 62
   134
  6
CONTINUOUS
  0
LAYER
  5
C0
330
2
100
AcDbSymbolTableRecord
100
AcDbLayerTableRecord
  2
135
 70
     0
 62
   135
  6
CONTINUOUS
  0
LAYER
  5
C1
330
2
100
AcDbSymbolTableRecord
100
AcDbLayerTableRecord
  2
136
 70
     0
 62
   136
  6
CONTINUOUS
  0
LAYER
  5
C2
330
2
100
AcDbSymbolTableRecord
100
AcDbLayerTableRecord
  2
137
 70
     0
 62
   137
  6
CONTINUOUS
  0
LAYER
  5
C3
330
2
100
AcDbSymbolTableRecord
100
AcDbLayerTableRecord
  2
138
 70
     0
 62
   138
  6
CONTINUOUS
  0
LAYER
  5
C4
330
2
100
AcDbSymbolTableRecord
100
AcDbLayerTableRecord
  2
139
 70
     0
 62
   139
  6
CONTINUOUS
  0
LAYER
  5
C5
330
2
100
AcDbSymbolTableRecord
100
AcDbLayerTableRecord
  2
140
 70
     0
 62
   140
  6
CONTINUOUS
  0
LAYER
  5
C6
330
2
100
AcDbSymbolTableRecord
100
AcDbLayerTableRecord
  2
141
 70
     0
 62
   141
  6
CONTINUOUS
  0
LAYER
  5
C7
330
2
100
AcDbSymbolTableRecord
100
AcDbLayerTableRecord
  2
142
 70
     0
 62
   142
  6
CONTINUOUS
  0
LAYER
  5
C8
330
2
100
AcDbSymbolTableRecord
100
AcDbLayerTableRecord
  2
143
 70
     0
 62
   143
  6
CONTINUOUS
  0
LAYER
  5
C9
330
2
100
AcDbSymbolTableRecord
100
AcDbLayerTableRecord
  2
144
 70
     0
 62
   144
  6
CONTINUOUS
  0
LAYER
  5
CA
330
2
100
AcDbSymbolTableRecord
100
AcDbLayerTableRecord
  2
145
 70
     0
 62
   145
  6
CONTINUOUS
  0
LAYER
  5
CB
330
2
100
AcDbSymbolTableRecord
100
AcDbLayerTableRecord
  2
146
 70
     0
 62
   146
  6
CONTINUOUS
  0
LAYER
  5
CC
330
2
100
AcDbSymbolTableRecord
100
AcDbLayerTableRecord
  2
147
 70
     0
 62
   147
  6
CONTINUOUS
  0
LAYER
  5
CD
330
2
100
AcDbSymbolTableRecord
100
AcDbLayerTableRecord
  2
148
 70
     0
 62
   148
  6
CONTINUOUS
  0
LAYER
  5
CE
330
2
100
AcDbSymbolTableRecord
100
AcDbLayerTableRecord
  2
149
 70
     0
 62
   149
  6
CONTINUOUS
  0
LAYER
  5
CF
330
2
100
AcDbSymbolTableRecord
100
AcDbLayerTableRecord
  2
150
 70
     0
 62
   150
  6
CONTINUOUS
  0
LAYER
  5
D0
330
2
100
AcDbSymbolTableRecord
100
AcDbLayerTableRecord
  2
151
 70
     0
 62
   151
  6
CONTINUOUS
  0
LAYER
  5
D1
330
2
100
AcDbSymbolTableRecord
100
AcDbLayerTableRecord
  2
152
 70
     0
 62
   152
  6
CONTINUOUS
  0
LAYER
  5
D2
330
2
100
AcDbSymbolTableRecord
100
AcDbLayerTableRecord
  2
153
 70
     0
 62
   153
  6
CONTINUOUS
  0
LAYER
  5
D3
330
2
100
AcDbSymbolTableRecord
100
AcDbLayerTableRecord
  2
154
 70
     0
 62
   154
  6
CONTINUOUS
  0
LAYER
  5
D4
330
2
100
AcDbSymbolTableRecord
100
AcDbLayerTableRecord
  2
155
 70
     0
 62
   155
  6
CONTINUOUS
  0
LAYER
  5
D5
330
2
100
AcDbSymbolTableRecord
100
AcDbLayerTableRecord
  2
156
 70
     0
 62
   156
  6
CONTINUOUS
  0
LAYER
  5
D6
330
2
100
AcDbSymbolTableRecord
100
AcDbLayerTableRecord
  2
157
 70
     0
 62
   157
  6
CONTINUOUS
  0
LAYER
  5
D7
330
2
100
AcDbSymbolTableRecord
100
AcDbLayerTableRecord
  2
158
 70
     0
 62
   158
  6
CONTINUOUS
  0
LAYER
  5
D8
330
2
100
AcDbSymbolTableRecord
100
AcDbLayerTableRecord
  2
159
 70
     0
 62
   159
  6
CONTINUOUS
  0
LAYER
  5
D9
330
2
100
AcDbSymbolTableRecord
100
AcDbLayerTableRecord
  2
160
 70
     0
 62
   160
  6
CONTINUOUS
  0
LAYER
  5
DA
330
2
100
AcDbSymbolTableRecord
100
AcDbLayerTableRecord
  2
161
 70
     0
 62
   161
  6
CONTINUOUS
  0
LAYER
  5
DB
330
2
100
AcDbSymbolTableRecord
100
AcDbLayerTableRecord
  2
162
 70
     0
 62
   162
  6
CONTINUOUS
  0
LAYER
  5
DC
330
2
100
AcDbSymbolTableRecord
100
AcDbLayerTableRecord
  2
163
 70
     0
 62
   163
  6
CONTINUOUS
  0
LAYER
  5
DD
330
2
100
AcDbSymbolTableRecord
100
AcDbLayerTableRecord
  2
164
 70
     0
 62
   164
  6
CONTINUOUS
  0
LAYER
  5
DE
330
2
100
AcDbSymbolTableRecord
100
AcDbLayerTableRecord
  2
165
 70
     0
 62
   165
  6
CONTINUOUS
  0
LAYER
  5
DF
330
2
100
AcDbSymbolTableRecord
100
AcDbLayerTableRecord
  2
166
 70
     0
 62
   166
  6
CONTINUOUS
  0
LAYER
  5
E0
330
2
100
AcDbSymbolTableRecord
100
AcDbLayerTableRecord
  2
167
 70
     0
 62
   167
  6
CONTINUOUS
  0
LAYER
  5
E1
330
2
100
AcDbSymbolTableRecord
100
AcDbLayerTableRecord
  2
168
 70
     0
 62
   168
  6
CONTINUOUS
  0
LAYER
  5
E2
330
2
100
AcDbSymbolTableRecord
100
AcDbLayerTableRecord
  2
169
 70
     0
 62
   169
  6
CONTINUOUS
  0
LAYER
  5
E3
330
2
100
AcDbSymbolTableRecord
100
AcDbLayerTableRecord
  2
170
 70
     0
 62
   170
  6
CONTINUOUS
  0
LAYER
  5
E4
330
2
100
AcDbSymbolTableRecord
100
AcDbLayerTableRecord
  2
171
 70
     0
 62
   171
  6
CONTINUOUS
  0
LAYER
  5
E5
330
2
100
AcDbSymbolTableRecord
100
AcDbLayerTableRecord
  2
172
 70
     0
 62
   172
  6
CONTINUOUS
  0
LAYER
  5
E6
330
2
100
AcDbSymbolTableRecord
100
AcDbLayerTableRecord
  2
173
 70
     0
 62
   173
  6
CONTINUOUS
  0
LAYER
  5
E7
330
2
100
AcDbSymbolTableRecord
100
AcDbLayerTableRecord
  2
174
 70
     0
 62
   174
  6
CONTINUOUS
  0
LAYER
  5
E8
330
2
100
AcDbSymbolTableRecord
100
AcDbLayerTableRecord
  2
175
 70
     0
 62
   175
  6
CONTINUOUS
  0
LAYER
  5
E9
330
2
100
AcDbSymbolTableRecord
100
AcDbLayerTableRecord
  2
176
 70
     0
 62
   176
  6
CONTINUOUS
  0
LAYER
  5
EA
330
2
100
AcDbSymbolTableRecord
100
AcDbLayerTableRecord
  2
177
 70
     0
 62
   177
  6
CONTINUOUS
  0
LAYER
  5
EB
330
2
100
AcDbSymbolTableRecord
100
AcDbLayerTableRecord
  2
178
 70
     0
 62
   178
  6
CONTINUOUS
  0
LAYER
  5
EC
330
2
100
AcDbSymbolTableRecord
100
AcDbLayerTableRecord
  2
179
 70
     0
 62
   179
  6
CONTINUOUS
  0
LAYER
  5
ED
330
2
100
AcDbSymbolTableRecord
100
AcDbLayerTableRecord
  2
180
 70
     0
 62
   180
  6
CONTINUOUS
  0
LAYER
  5
EE
330
2
100
AcDbSymbolTableRecord
100
AcDbLayerTableRecord
  2
181
 70
     0
 62
   181
  6
CONTINUOUS
  0
LAYER
  5
EF
330
2
100
AcDbSymbolTableRecord
100
AcDbLayerTableRecord
  2
182
 70
     0
 62
   182
  6
CONTINUOUS
  0
LAYER
  5
F0
330
2
100
AcDbSymbolTableRecord
100
AcDbLayerTableRecord
  2
183
 70
     0
 62
   183
  6
CONTINUOUS
  0
LAYER
  5
F1
330
2
100
AcDbSymbolTableRecord
100
AcDbLayerTableRecord
  2
184
 70
     0
 62
   184
  6
CONTINUOUS
  0
LAYER
  5
F2
330
2
100
AcDbSymbolTableRecord
100
AcDbLayerTableRecord
  2
185
 70
     0
 62
   185
  6
CONTINUOUS
  0
LAYER
  5
F3
330
2
100
AcDbSymbolTableRecord
100
AcDbLayerTableRecord
  2
186
 70
     0
 62
   186
  6
CONTINUOUS
  0
LAYER
  5
F4
330
2
100
AcDbSymbolTableRecord
100
AcDbLayerTableRecord
  2
187
 70
     0
 62
   187
  6
CONTINUOUS
  0
LAYER
  5
F5
330
2
100
AcDbSymbolTableRecord
100
AcDbLayerTableRecord
  2
188
 70
     0
 62
   188
  6
CONTINUOUS
  0
LAYER
  5
F6
330
2
100
AcDbSymbolTableRecord
100
AcDbLayerTableRecord
  2
189
 70
     0
 62
   189
  6
CONTINUOUS
  0
LAYER
  5
F7
330
2
100
AcDbSymbolTableRecord
100
AcDbLayerTableRecord
  2
190
 70
     0
 62
   190
  6
CONTINUOUS
  0
LAYER
  5
F8
330
2
100
AcDbSymbolTableRecord
100
AcDbLayerTableRecord
  2
191
 70
     0
 62
   191
  6
CONTINUOUS
  0
LAYER
  5
F9
330
2
100
AcDbSymbolTableRecord
100
AcDbLayerTableRecord
  2
192
 70
     0
 62
   192
  6
CONTINUOUS
  0
LAYER
  5
FA
330
2
100
AcDbSymbolTableRecord
100
AcDbLayerTableRecord
  2
193
 70
     0
 62
   193
  6
CONTINUOUS
  0
LAYER
  5
FB
330
2
100
AcDbSymbolTableRecord
100
AcDbLayerTableRecord
  2
194
 70
     0
 62
   194
  6
CONTINUOUS
  0
LAYER
  5
FC
330
2
100
AcDbSymbolTableRecord
100
AcDbLayerTableRecord
  2
195
 70
     0
 62
   195
  6
CONTINUOUS
  0
LAYER
  5
FD
330
2
100
AcDbSymbolTableRecord
100
AcDbLayerTableRecord
  2
196
 70
     0
 62
   196
  6
CONTINUOUS
  0
LAYER
  5
FE
330
2
100
AcDbSymbolTableRecord
100
AcDbLayerTableRecord
  2
197
 70
     0
 62
   197
  6
CONTINUOUS
  0
LAYER
  5
FF
330
2
100
AcDbSymbolTableRecord
100
AcDbLayerTableRecord
  2
198
 70
     0
 62
   198
  6
CONTINUOUS
  0
LAYER
  5
100
330
2
100
AcDbSymbolTableRecord
100
AcDbLayerTableRecord
  2
199
 70
     0
 62
   199
  6
CONTINUOUS
  0
LAYER
  5
101
330
2
100
AcDbSymbolTableRecord
100
AcDbLayerTableRecord
  2
200
 70
     0
 62
   200
  6
CONTINUOUS
  0
LAYER
  5
102
330
2
100
AcDbSymbolTableRecord
100
AcDbLayerTableRecord
  2
201
 70
     0
 62
   201
  6
CONTINUOUS
  0
LAYER
  5
103
330
2
100
AcDbSymbolTableRecord
100
AcDbLayerTableRecord
  2
202
 70
     0
 62
   202
  6
CONTINUOUS
  0
LAYER
  5
104
330
2
100
AcDbSymbolTableRecord
100
AcDbLayerTableRecord
  2
203
 70
     0
 62
   203
  6
CONTINUOUS
  0
LAYER
  5
105
330
2
100
AcDbSymbolTableRecord
100
AcDbLayerTableRecord
  2
204
 70
     0
 62
   204
  6
CONTINUOUS
  0
LAYER
  5
106
330
2
100
AcDbSymbolTableRecord
100
AcDbLayerTableRecord
  2
205
 70
     0
 62
   205
  6
CONTINUOUS
  0
LAYER
  5
107
330
2
100
AcDbSymbolTableRecord
100
AcDbLayerTableRecord
  2
206
 70
     0
 62
   206
  6
CONTINUOUS
  0
LAYER
  5
108
330
2
100
AcDbSymbolTableRecord
100
AcDbLayerTableRecord
  2
207
 70
     0
 62
   207
  6
CONTINUOUS
  0
LAYER
  5
109
330
2
100
AcDbSymbolTableRecord
100
AcDbLayerTableRecord
  2
208
 70
     0
 62
   208
  6
CONTINUOUS
  0
LAYER
  5
10A
330
2
100
AcDbSymbolTableRecord
100
AcDbLayerTableRecord
  2
209
 70
     0
 62
   209
  6
CONTINUOUS
  0
LAYER
  5
10B
330
2
100
AcDbSymbolTableRecord
100
AcDbLayerTableRecord
  2
210
 70
     0
 62
   210
  6
CONTINUOUS
  0
LAYER
  5
10C
330
2
100
AcDbSymbolTableRecord
100
AcDbLayerTableRecord
  2
211
 70
     0
 62
   211
  6
CONTINUOUS
  0
LAYER
  5
10D
330
2
100
AcDbSymbolTableRecord
100
AcDbLayerTableRecord
  2
212
 70
     0
 62
   212
  6
CONTINUOUS
  0
LAYER
  5
10E
330
2
100
AcDbSymbolTableRecord
100
AcDbLayerTableRecord
  2
213
 70
     0
 62
   213
  6
CONTINUOUS
  0
LAYER
  5
10F
330
2
100
AcDbSymbolTableRecord
100
AcDbLayerTableRecord
  2
214
 70
     0
 62
   214
  6
CONTINUOUS
  0
LAYER
  5
110
330
2
100
AcDbSymbolTableRecord
100
AcDbLayerTableRecord
  2
215
 70
     0
 62
   215
  6
CONTINUOUS
  0
LAYER
  5
111
330
2
100
AcDbSymbolTableRecord
100
AcDbLayerTableRecord
  2
216
 70
     0
 62
   216
  6
CONTINUOUS
  0
LAYER
  5
112
330
2
100
AcDbSymbolTableRecord
100
AcDbLayerTableRecord
  2
217
 70
     0
 62
   217
  6
CONTINUOUS
  0
LAYER
  5
113
330
2
100
AcDbSymbolTableRecord
100
AcDbLayerTableRecord
  2
218
 70
     0
 62
   218
  6
CONTINUOUS
  0
LAYER
  5
114
330
2
100
AcDbSymbolTableRecord
100
AcDbLayerTableRecord
  2
219
 70
     0
 62
   219
  6
CONTINUOUS
  0
LAYER
  5
115
330
2
100
AcDbSymbolTableRecord
100
AcDbLayerTableRecord
  2
220
 70
     0
 62
   220
  6
CONTINUOUS
  0
LAYER
  5
116
330
2
100
AcDbSymbolTableRecord
100
AcDbLayerTableRecord
  2
221
 70
     0
 62
   221
  6
CONTINUOUS
  0
LAYER
  5
117
330
2
100
AcDbSymbolTableRecord
100
AcDbLayerTableRecord
  2
222
 70
     0
 62
   222
  6
CONTINUOUS
  0
LAYER
  5
118
330
2
100
AcDbSymbolTableRecord
100
AcDbLayerTableRecord
  2
223
 70
     0
 62
   223
  6
CONTINUOUS
  0
LAYER
  5
119
330
2
100
AcDbSymbolTableRecord
100
AcDbLayerTableRecord
  2
224
 70
     0
 62
   224
  6
CONTINUOUS
  0
LAYER
  5
11A
330
2
100
AcDbSymbolTableRecord
100
AcDbLayerTableRecord
  2
225
 70
     0
 62
   225
  6
CONTINUOUS
  0
LAYER
  5
11B
330
2
100
AcDbSymbolTableRecord
100
AcDbLayerTableRecord
  2
226
 70
     0
 62
   226
  6
CONTINUOUS
  0
LAYER
  5
11C
330
2
100
AcDbSymbolTableRecord
100
AcDbLayerTableRecord
  2
227
 70
     0
 62
   227
  6
CONTINUOUS
  0
LAYER
  5
11D
330
2
100
AcDbSymbolTableRecord
100
AcDbLayerTableRecord
  2
228
 70
     0
 62
   228
  6
CONTINUOUS
  0
LAYER
  5
11E
330
2
100
AcDbSymbolTableRecord
100
AcDbLayerTableRecord
  2
229
 70
     0
 62
   229
  6
CONTINUOUS
  0
LAYER
  5
11F
330
2
100
AcDbSymbolTableRecord
100
AcDbLayerTableRecord
  2
230
 70
     0
 62
   230
  6
CONTINUOUS
  0
LAYER
  5
120
330
2
100
AcDbSymbolTableRecord
100
AcDbLayerTableRecord
  2
231
 70
     0
 62
   231
  6
CONTINUOUS
  0
LAYER
  5
121
330
2
100
AcDbSymbolTableRecord
100
AcDbLayerTableRecord
  2
232
 70
     0
 62
   232
  6
CONTINUOUS
  0
LAYER
  5
122
330
2
100
AcDbSymbolTableRecord
100
AcDbLayerTableRecord
  2
233
 70
     0
 62
   233
  6
CONTINUOUS
  0
LAYER
  5
123
330
2
100
AcDbSymbolTableRecord
100
AcDbLayerTableRecord
  2
234
 70
     0
 62
   234
  6
CONTINUOUS
  0
LAYER
  5
124
330
2
100
AcDbSymbolTableRecord
100
AcDbLayerTableRecord
  2
235
 70
     0
 62
   235
  6
CONTINUOUS
  0
LAYER
  5
125
330
2
100
AcDbSymbolTableRecord
100
AcDbLayerTableRecord
  2
236
 70
     0
 62
   236
  6
CONTINUOUS
  0
LAYER
  5
126
330
2
100
AcDbSymbolTableRecord
100
AcDbLayerTableRecord
  2
237
 70
     0
 62
   237
  6
CONTINUOUS
  0
LAYER
  5
127
330
2
100
AcDbSymbolTableRecord
100
AcDbLayerTableRecord
  2
238
 70
     0
 62
   238
  6
CONTINUOUS
  0
LAYER
  5
128
330
2
100
AcDbSymbolTableRecord
100
AcDbLayerTableRecord
  2
239
 70
     0
 62
   239
  6
CONTINUOUS
  0
LAYER
  5
129
330
2
100
AcDbSymbolTableRecord
100
AcDbLayerTableRecord
  2
240
 70
     0
 62
   240
  6
CONTINUOUS
  0
LAYER
  5
12A
330
2
100
AcDbSymbolTableRecord
100
AcDbLayerTableRecord
  2
241
 70
     0
 62
   241
  6
CONTINUOUS
  0
LAYER
  5
12B
330
2
100
AcDbSymbolTableRecord
100
AcDbLayerTableRecord
  2
242
 70
     0
 62
   242
  6
CONTINUOUS
  0
LAYER
  5
12C
330
2
100
AcDbSymbolTableRecord
100
AcDbLayerTableRecord
  2
243
 70
     0
 62
   243
  6
CONTINUOUS
  0
LAYER
  5
12D
330
2
100
AcDbSymbolTableRecord
100
AcDbLayerTableRecord
  2
244
 70
     0
 62
   244
  6
CONTINUOUS
  0
LAYER
  5
12E
330
2
100
AcDbSymbolTableRecord
100
AcDbLayerTableRecord
  2
245
 70
     0
 62
   245
  6
CONTINUOUS
  0
LAYER
  5
12F
330
2
100
AcDbSymbolTableRecord
100
AcDbLayerTableRecord
  2
246
 70
     0
 62
   246
  6
CONTINUOUS
  0
LAYER
  5
130
330
2
100
AcDbSymbolTableRecord
100
AcDbLayerTableRecord
  2
247
 70
     0
 62
   247
  6
CONTINUOUS
  0
LAYER
  5
131
330
2
100
AcDbSymbolTableRecord
100
AcDbLayerTableRecord
  2
248
 70
     0
 62
   248
  6
CONTINUOUS
  0
LAYER
  5
132
330
2
100
AcDbSymbolTableRecord
100
AcDbLayerTableRecord
  2
249
 70
     0
 62
   249
  6
CONTINUOUS
  0
LAYER
  5
133
330
2
100
AcDbSymbolTableRecord
100
AcDbLayerTableRecord
  2
250
 70
     0
 62
   250
  6
CONTINUOUS
  0
LAYER
  5
134
330
2
100
AcDbSymbolTableRecord
100
AcDbLayerTableRecord
  2
251
 70
     0
 62
   251
  6
CONTINUOUS
  0
LAYER
  5
135
330
2
100
AcDbSymbolTableRecord
100
AcDbLayerTableRecord
  2
252
 70
     0
 62
   252
  6
CONTINUOUS
  0
LAYER
  5
136
330
2
100
AcDbSymbolTableRecord
100
AcDbLayerTableRecord
  2
253
 70
     0
 62
   253
  6
CONTINUOUS
  0
LAYER
  5
137
330
2
100
AcDbSymbolTableRecord
100
AcDbLayerTableRecord
  2
254
 70
     0
 62
   254
  6
CONTINUOUS
  0
LAYER
  5
138
330
2
100
AcDbSymbolTableRecord
100
AcDbLayerTableRecord
  2
255
 70
     0
 62
   255
  6
CONTINUOUS
  0
ENDTAB
  0
TABLE
  2
STYLE
  5
3
330
0
100
AcDbSymbolTable
 70
     1
  0
STYLE
  5
11
330
3
100
AcDbSymbolTableRecord
100
AcDbTextStyleTableRecord
  2
STANDARD
 70
     0
 40
0.0
 41
1.0
 50
0.0
 71
     0
 42
0.2
  3
monotxt
  4

  0
ENDTAB
  0
TABLE
  2
VIEW
  5
6
330
0
100
AcDbSymbolTable
 70
     0
  0
ENDTAB
  0
TABLE
  2
UCS
  5
7
330
0
100
AcDbSymbolTable
 70
     0
  0
ENDTAB
  0
TABLE
  2
APPID
  5
9
330
0
100
AcDbSymbolTable
 70
     1
  0
APPID
  5
12
330
9
100
AcDbSymbolTableRecord
100
AcDbRegAppTableRecord
  2
ACAD
 70
     0
  0
ENDTAB
  0
TABLE
  2
DIMSTYLE
  5
A
330
0
100
AcDbSymbolTable
 70
     1
  0
DIMSTYLE
105
2C42
330
A
100
AcDbSymbolTableRecord
100
AcDbDimStyleTableRecord
  2
STANDARD
 70
     0
  3

  4

  5

  6

  7

 40
1.0
 41
0.18
 42
0.0625
 43
0.38
 44
0.18
 45
0.0
 46
0.0
 47
0.0
 48
0.0
140
0.18
141
0.09
142
0.0
143
25.4
144
1.0
145
0.0
146
1.0
147
0.09
 71
     0
 72
     0
 73
     1
 74
     1
 75
     0
 76
     0
 77
     0
 78
     0
170
     0
171
     2
172
     0
173
     0
174
     0
175
     0
176
     0
177
     0
178
     0
270
     2
271
     4
272
     4
273
     2
274
     2
340
11
275
     0
280
     0
281
     0
282
     0
283
     1
284
     0
285
     0
286
     0
287
     3
288
     0
  0
ENDTAB
  0
TABLE
  2
BLOCK_RECORD
  5
1
330
0
100
AcDbSymbolTable
 70
     0
  0
BLOCK_RECORD
  5
1E
102
{ACAD_XDICTIONARY
360
3F84
102
}
330
1
100
AcDbSymbolTableRecord
100
AcDbBlockTableRecord
  2
*MODEL_SPACE
  0
BLOCK_RECORD
  5
1A
102
{ACAD_XDICTIONARY
360
3F82
102
}
330
1
100
AcDbSymbolTableRecord
100
AcDbBlockTableRecord
  2
*PAPER_SPACE
  0
ENDTAB
  0
ENDSEC
  0
SECTION
  2
BLOCKS
  0
BLOCK
  5
13B
330
1E
100
AcDbEntity
  8
0
100
AcDbBlockBegin
  2
*MODEL_SPACE
 70
     0
 10
0.0
 20
0.0
 30
0.0
  3
*MODEL_SPACE
  1

  0
ENDBLK
  5
13C
330
1E
100
AcDbEntity
  8
0
100
AcDbBlockEnd
  0
BLOCK
  5
139
330
1A
100
AcDbEntity
 67
     1
  8
0
100
AcDbBlockBegin
  2
*PAPER_SPACE
 70
     0
 10
0.0
 20
0.0
 30
0.0
  3
*PAPER_SPACE
  1

  0
ENDBLK
  5
13A
330
1A
100
AcDbEntity
 67
     1
  8
0
100
AcDbBlockEnd
  0
ENDSEC
  0
SECTION
  2
ENTITIES
  0
LINE
  5
27BA
330
1E
100
AcDbEntity
  8
7
100
AcDbLine
 10
33.40014931397969
 20
29.63695224362936
 30
0.0
 11
36.02482122999019
 21
29.63695224362936
 31
0.0
  0
LINE
  5
27BB
330
1E
100
AcDbEntity
  8
7
100
AcDbLine
 10
35.85946689928152
 20
29.41254279481046
 30
0.0
 11
33.56550364468835
 21
29.41254279481046
 31
0.0
  0
LINE
  5
27C6
330
1E
100
AcDbEntity
  8
7
100
AcDbLine
 10
35.90146164993769
 20
29.44403885780259
 30
0.0
 11
35.85946689928152
 21
29.41254279481046
 31
0.0
  0
LINE
  5
27DB
330
1E
100
AcDbEntity
  8
7
100
AcDbLine
 10
36.08387634810041
 20
29.57789712551912
 30
0.0
 11
36.08387634810041
 21
25.20388137748763
 31
0.0
  0
LINE
  5
27DC
330
1E
100
AcDbEntity
  8
7
100
AcDbLine
 10
35.85946689928152
 20
25.36923570819629
 30
0.0
 11
35.85946689928152
 21
29.41254279481046
 31
0.0
  0
LINE
  5
27DD
330
1E
100
AcDbEntity
  8
7
100
AcDbLine
 10
33.34109419586944
 20
25.20388137748763
 30
0.0
 11
33.34109419586944
 21
29.57789712551912
 31
0.0
  0
LINE
  5
27EC
330
1E
100
AcDbEntity
  8
7
100
AcDbLine
 10
33.56550364468835
 20
29.41254279481046
 30
0.0
 11
33.56550364468835
 21
25.36923570819629
 31
0.0
  0
LINE
  5
27F3
330
1E
100
AcDbEntity
  8
7
100
AcDbLine
 10
34.68230154495081
 20
29.09889450084721
 30
0.0
 11
34.65736716174872
 21
29.08052179743513
 31
0.0
  0
LINE
  5
2807
330
1E
100
AcDbEntity
  8
7
100
AcDbLine
 10
34.74791834285107
 20
27.06871077381309
 30
0.0
 11
34.74791834285107
 21
27.71306772919366
 31
0.0
  0
LINE
  5
2808
330
1E
100
AcDbEntity
  8
7
100
AcDbLine
 10
35.32797083628939
 20
27.06871077381309
 30
0.0
 11
35.32797083628939
 21
27.71306772919366
 31
0.0
  0
LINE
  5
2809
330
1E
100
AcDbEntity
  8
7
100
AcDbLine
 10
34.09699970768047
 20
27.06871077381309
 30
0.0
 11
34.09699970768047
 21
27.71306772919366
 31
0.0
  0
LINE
  5
280A
330
1E
100
AcDbEntity
  8
7
100
AcDbLine
 10
34.67705220111879
 20
27.06871077381309
 30
0.0
 11
34.67705220111879
 21
27.71306772919366
 31
0.0
  0
LINE
  5
2812
330
1E
100
AcDbEntity
  8
7
100
AcDbLine
 10
34.76760338222116
 20
25.69994436961361
 30
0.0
 11
34.78466374967522
 21
25.73144043260574
 31
0.0
  0
LINE
  5
2830
330
1E
100
AcDbEntity
  8
7
100
AcDbLine
 10
36.02482122999019
 20
25.14351392341939
 30
0.0
 11
33.40014931397969
 21
25.14351392341939
 31
0.0
  0
LINE
  5
283C
330
1E
100
AcDbEntity
  8
7
100
AcDbLine
 10
33.56550364468835
 20
25.36923570819629
 30
0.0
 11
35.85946689928152
 21
25.36923570819629
 31
0.0
  0
LINE
  5
2869
330
1E
100
AcDbEntity
  8
7
100
AcDbLine
 10
34.67705220111879
 20
27.06871077381309
 30
0.0
 11
34.09699970768047
 21
27.06871077381309
 31
0.0
  0
LINE
  5
286A
330
1E
100
AcDbEntity
  8
7
100
AcDbLine
 10
34.67705220111879
 20
27.71306772919366
 30
0.0
 11
34.09699970768047
 21
27.71306772919366
 31
0.0
  0
LINE
  5
286B
330
1E
100
AcDbEntity
  8
7
100
AcDbLine
 10
35.32797083628939
 20
27.06871077381309
 30
0.0
 11
34.74791834285107
 21
27.06871077381309
 31
0.0
  0
LINE
  5
286C
330
1E
100
AcDbEntity
  8
7
100
AcDbLine
 10
35.32797083628939
 20
27.71306772919366
 30
0.0
 11
34.74791834285107
 21
27.71306772919366
 31
0.0
  0
LINE
  5
288D
330
1E
100
AcDbEntity
  8
7
100
AcDbLine
 10
34.72692096752299
 20
27.79049555071597
 30
0.0
 11
34.72692096752299
 21
27.80099423838001
 31
0.0
  0
LINE
  5
2893
330
1E
100
AcDbEntity
  8
7
100
AcDbLine
 10
34.74266899901905
 20
27.77605985517792
 30
0.0
 11
35.31222280479333
 21
27.77605985517792
 31
0.0
  0
LINE
  5
289A
330
1E
100
AcDbEntity
  8
7
100
AcDbLine
 10
35.31222280479333
 20
27.74587612814379
 30
0.0
 11
34.11274773917653
 21
27.74587612814379
 31
0.0
  0
LINE
  5
28A1
330
1E
100
AcDbEntity
  8
7
100
AcDbLine
 10
34.11274773917653
 20
27.77605985517792
 30
0.0
 11
34.68230154495081
 21
27.77605985517792
 31
0.0
  0
LINE
  5
28A7
330
1E
100
AcDbEntity
  8
7
100
AcDbLine
 10
34.69673724048887
 20
27.79049555071597
 30
0.0
 11
34.69673724048887
 21
27.80099423838001
 31
0.0
  0
LINE
  5
28B4
330
1E
100
AcDbEntity
  8
7
100
AcDbLine
 10
34.11274773917653
 20
27.74587612814379
 30
0.0
 11
35.31222280479333
 21
27.74587612814379
 31
0.0
  0
LINE
  5
28BB
330
1E
100
AcDbEntity
  8
7
100
AcDbLine
 10
35.31222280479333
 20
27.77605985517792
 30
0.0
 11
34.74266899901905
 21
27.77605985517792
 31
0.0
  0
LINE
  5
28C1
330
1E
100
AcDbEntity
  8
7
100
AcDbLine
 10
34.72692096752299
 20
27.79049555071597
 30
0.0
 11
34.72692096752299
 21
27.80099423838001
 31
0.0
  0
LINE
  5
28C8
330
1E
100
AcDbEntity
  8
7
100
AcDbLine
 10
34.69804957644687
 20
27.79049555071597
 30
0.0
 11
34.69804957644687
 21
27.80099423838001
 31
0.0
  0
LINE
  5
28CE
330
1E
100
AcDbEntity
  8
7
100
AcDbLine
 10
34.68230154495081
 20
27.77605985517792
 30
0.0
 11
34.11274773917653
 21
27.77605985517792
 31
0.0
  0
LINE
  5
28CF
330
1E
100
AcDbEntity
  8
7
100
AcDbLine
 10
34.69804957644687
 20
27.80099423838001
 30
0.0
 11
34.69673724048887
 21
27.80099423838001
 31
0.0
  0
LINE
  5
28D0
330
1E
100
AcDbEntity
  8
7
100
AcDbLine
 10
34.69673724048887
 20
27.79049555071597
 30
0.0
 11
34.69804957644687
 21
27.79049555071597
 31
0.0
  0
LINE
  5
28D7
330
1E
100
AcDbEntity
  8
7
100
AcDbLine
 10
35.28860075754923
 20
25.59102048509918
 30
0.0
 11
35.2781020698852
 21
25.59102048509918
 31
0.0
  0
LINE
  5
28D8
330
1E
100
AcDbEntity
  8
7
100
AcDbLine
 10
35.2781020698852
 20
25.63039056383933
 30
0.0
 11
35.2781020698852
 21
25.59102048509918
 31
0.0
  0
LINE
  5
28D9
330
1E
100
AcDbEntity
  8
7
100
AcDbLine
 10
35.28860075754923
 20
25.63039056383933
 30
0.0
 11
35.2781020698852
 21
25.63039056383933
 31
0.0
  0
LINE
  5
28DF
330
1E
100
AcDbEntity
  8
7
100
AcDbLine
 10
35.29516243733926
 20
25.62514122000731
 30
0.0
 11
35.29516243733926
 21
25.59626982893119
 31
0.0
  0
LINE
  5
28E0
330
1E
100
AcDbEntity
  8
7
100
AcDbLine
 10
35.28860075754923
 20
25.59102048509918
 30
0.0
 11
35.29253776542325
 21
25.59233282105718
 31
0.0
  0
LINE
  5
28E1
330
1E
100
AcDbEntity
  8
7
100
AcDbLine
 10
35.29253776542325
 20
25.59233282105718
 30
0.0
 11
35.29385010138126
 21
25.59626982893119
 31
0.0
  0
LINE
  5
28E2
330
1E
100
AcDbEntity
  8
7
100
AcDbLine
 10
35.36602857907154
 20
25.6238288840493
 30
0.0
 11
35.39096296227365
 21
25.56739843785508
 31
0.0
  0
LINE
  5
28E3
330
1E
100
AcDbEntity
  8
7
100
AcDbLine
 10
35.36602857907154
 20
25.6238288840493
 30
0.0
 11
35.34240653182745
 21
25.6238288840493
 31
0.0
  0
LINE
  5
28E9
330
1E
100
AcDbEntity
  8
7
100
AcDbLine
 10
35.22692096752299
 20
25.65007560320941
 30
0.0
 11
35.30566112500331
 21
25.65007560320941
 31
0.0
  0
LINE
  5
28EA
330
1E
100
AcDbEntity
  8
7
100
AcDbLine
 10
35.22692096752299
 20
25.65007560320941
 30
0.0
 11
35.22692096752299
 21
25.53721471082096
 31
0.0
  0
LINE
  5
28EB
330
1E
100
AcDbEntity
  8
7
100
AcDbLine
 10
35.2781020698852
 20
25.53721471082096
 30
0.0
 11
35.22692096752299
 21
25.53721471082096
 31
0.0
  0
LINE
  5
28EC
330
1E
100
AcDbEntity
  8
7
100
AcDbLine
 10
35.2781020698852
 20
25.5726477816871
 30
0.0
 11
35.2781020698852
 21
25.53721471082096
 31
0.0
  0
LINE
  5
28ED
330
1E
100
AcDbEntity
  8
7
100
AcDbLine
 10
35.2781020698852
 20
25.5726477816871
 30
0.0
 11
35.30566112500331
 21
25.5726477816871
 31
0.0
  0
LINE
  5
28F3
330
1E
100
AcDbEntity
  8
7
100
AcDbLine
 10
35.30697346096131
 20
25.53721471082096
 30
0.0
 11
35.32272149245737
 21
25.57658478956112
 31
0.0
  0
LINE
  5
28F4
330
1E
100
AcDbEntity
  8
7
100
AcDbLine
 10
35.33190784416341
 20
25.53721471082096
 30
0.0
 11
35.30697346096131
 21
25.53721471082096
 31
0.0
  0
LINE
  5
28F5
330
1E
100
AcDbEntity
  8
7
100
AcDbLine
 10
35.33190784416341
 20
25.53721471082096
 30
0.0
 11
35.33715718799543
 21
25.54902573444301
 31
0.0
  0
LINE
  5
28F6
330
1E
100
AcDbEntity
  8
7
100
AcDbLine
 10
35.36996558694556
 20
25.54902573444301
 30
0.0
 11
35.33715718799543
 21
25.54902573444301
 31
0.0
  0
LINE
  5
28F7
330
1E
100
AcDbEntity
  8
7
100
AcDbLine
 10
35.37652726673558
 20
25.53721471082096
 30
0.0
 11
35.36996558694556
 21
25.54902573444301
 31
0.0
  0
LINE
  5
28F8
330
1E
100
AcDbEntity
  8
7
100
AcDbLine
 10
35.37652726673558
 20
25.53721471082096
 30
0.0
 11
35.41589734547574
 21
25.53721471082096
 31
0.0
  0
LINE
  5
28F9
330
1E
100
AcDbEntity
  8
7
100
AcDbLine
 10
35.41589734547574
 20
25.57396011764511
 30
0.0
 11
35.41589734547574
 21
25.53721471082096
 31
0.0
  0
LINE
  5
28FA
330
1E
100
AcDbEntity
  8
7
100
AcDbLine
 10
35.43164537697181
 20
25.53721471082096
 30
0.0
 11
35.41589734547574
 21
25.57396011764511
 31
0.0
  0
LINE
  5
2905
330
1E
100
AcDbEntity
  8
7
100
AcDbLine
 10
35.49726217487207
 20
25.60545618063724
 30
0.0
 11
35.49726217487207
 21
25.55689975019104
 31
0.0
  0
LINE
  5
2906
330
1E
100
AcDbEntity
  8
7
100
AcDbLine
 10
35.5051361906201
 20
25.60545618063724
 30
0.0
 11
35.49726217487207
 21
25.60545618063724
 31
0.0
  0
LINE
  5
290C
330
1E
100
AcDbEntity
  8
7
100
AcDbLine
 10
35.51038553445213
 20
25.56083675806506
 30
0.0
 11
35.51038553445213
 21
25.60151917276322
 31
0.0
  0
LINE
  5
2912
330
1E
100
AcDbEntity
  8
7
100
AcDbLine
 10
35.5051361906201
 20
25.55689975019104
 30
0.0
 11
35.49726217487207
 21
25.55689975019104
 31
0.0
  0
LINE
  5
291D
330
1E
100
AcDbEntity
  8
7
100
AcDbLine
 10
35.53531991765423
 20
25.55296274231702
 30
0.0
 11
35.53531991765423
 21
25.60808085255324
 31
0.0
  0
LINE
  5
2923
330
1E
100
AcDbEntity
  8
7
100
AcDbLine
 10
35.51957188615816
 20
25.6238288840493
 30
0.0
 11
35.47101545571197
 21
25.6238288840493
 31
0.0
  0
LINE
  5
2929
330
1E
100
AcDbEntity
  8
7
100
AcDbLine
 10
35.64818081004268
 20
25.6238288840493
 30
0.0
 11
35.64818081004268
 21
25.53721471082096
 31
0.0
  0
LINE
  5
292A
330
1E
100
AcDbEntity
  8
7
100
AcDbLine
 10
35.64818081004268
 20
25.6238288840493
 30
0.0
 11
35.62455876279857
 21
25.6238288840493
 31
0.0
  0
LINE
  5
2930
330
1E
100
AcDbEntity
  8
7
100
AcDbLine
 10
35.70723592815291
 20
25.60545618063724
 30
0.0
 11
35.70723592815291
 21
25.53721471082096
 31
0.0
  0
LINE
  5
2937
330
1E
100
AcDbEntity
  8
7
100
AcDbLine
 10
35.66261650558073
 20
25.60545618063724
 30
0.0
 11
35.66261650558073
 21
25.6238288840493
 31
0.0
  0
LINE
  5
2938
330
1E
100
AcDbEntity
  8
7
100
AcDbLine
 10
35.67967687303481
 20
25.60545618063724
 30
0.0
 11
35.66261650558073
 21
25.60545618063724
 31
0.0
  0
LINE
  5
2939
330
1E
100
AcDbEntity
  8
7
100
AcDbLine
 10
35.54844327723428
 20
25.6238288840493
 30
0.0
 11
35.54844327723428
 21
25.55296274231702
 31
0.0
  0
LINE
  5
293F
330
1E
100
AcDbEntity
  8
7
100
AcDbLine
 10
35.59568737172247
 20
25.53721471082096
 30
0.0
 11
35.56419130873034
 21
25.53721471082096
 31
0.0
  0
LINE
  5
2950
330
1E
100
AcDbEntity
  8
7
100
AcDbLine
 10
35.58781335597443
 20
25.55689975019104
 30
0.0
 11
35.58256401214241
 21
25.55689975019104
 31
0.0
  0
LINE
  5
2963
330
1E
100
AcDbEntity
  8
7
100
AcDbLine
 10
33.40014931397969
 20
29.63695224362936
 30
0.0
 11
33.39752464206368
 21
29.64088925150337
 31
0.0
  0
LINE
  5
2969
330
1E
100
AcDbEntity
  8
7
100
AcDbLine
 10
36.02744590190619
 20
29.64088925150337
 30
0.0
 11
36.04975561319228
 21
29.63563990767135
 31
0.0
  0
LINE
  5
297B
330
1E
100
AcDbEntity
  8
7
100
AcDbLine
 10
33.39752464206368
 20
25.14088925150337
 30
0.0
 11
36.02744590190619
 21
25.14088925150337
 31
0.0
  0
LINE
  5
297C
330
1E
100
AcDbEntity
  8
7
100
AcDbLine
 10
36.02744590190619
 20
25.14088925150337
 30
0.0
 11
36.02482122999019
 21
25.14351392341939
 31
0.0
  0
LINE
  5
297D
330
1E
100
AcDbEntity
  8
7
100
AcDbLine
 10
33.40014931397969
 20
25.14351392341939
 30
0.0
 11
33.39752464206368
 21
25.14088925150337
 31
0.0
  0
LINE
  5
298B
330
1E
100
AcDbEntity
  8
7
100
AcDbLine
 10
33.34240653182745
 20
25.17763465832752
 30
0.0
 11
33.33715718799543
 21
25.19994436961361
 31
0.0
  0
LINE
  5
298C
330
1E
100
AcDbEntity
  8
7
100
AcDbLine
 10
34.65605482579071
 20
28.98078426462673
 30
0.0
 11
34.76760338222116
 21
28.98078426462673
 31
0.0
  0
LINE
  5
298D
330
1E
100
AcDbEntity
  8
7
100
AcDbLine
 10
34.76760338222116
 20
29.08183413339314
 30
0.0
 11
34.65605482579071
 21
29.08183413339314
 31
0.0
  0
LINE
  5
298E
330
1E
100
AcDbEntity
  8
7
100
AcDbLine
 10
34.65605482579071
 20
25.69994436961361
 30
0.0
 11
34.76760338222116
 21
25.69994436961361
 31
0.0
  0
LINE
  5
298F
330
1E
100
AcDbEntity
  8
7
100
AcDbLine
 10
34.76760338222116
 20
25.79968190242201
 30
0.0
 11
34.65605482579071
 21
25.79968190242201
 31
0.0
  0
LINE
  5
2990
330
1E
100
AcDbEntity
  8
7
100
AcDbLine
 10
38.76366637434714
 20
27.81542993391807
 30
0.0
 11
38.75448002264109
 21
27.81542993391807
 31
0.0
  0
LINE
  5
29BE
330
1E
100
AcDbEntity
  8
7
100
AcDbLine
 10
38.97757713550199
 20
29.57789712551912
 30
0.0
 11
38.97757713550199
 21
25.20388137748763
 31
0.0
  0
LINE
  5
29BF
330
1E
100
AcDbEntity
  8
7
100
AcDbLine
 10
38.76366637434714
 20
25.36923570819629
 30
0.0
 11
38.76366637434714
 21
29.41254279481046
 31
0.0
  0
LINE
  5
29C0
330
1E
100
AcDbEntity
  8
7
100
AcDbLine
 10
38.97757713550199
 20
25.14351392341939
 30
0.0
 11
38.93558238484583
 21
25.15007560320941
 31
0.0
  0
LINE
  5
29D1
330
1E
100
AcDbEntity
  8
7
100
AcDbLine
 10
38.75448002264109
 20
27.74587612814379
 30
0.0
 11
38.75448002264109
 21
27.75375014389183
 31
0.0
  0
LINE
  5
29DC
330
1E
100
AcDbEntity
  8
7
100
AcDbLine
 10
38.75448002264109
 20
27.77605985517792
 30
0.0
 11
38.76366637434714
 21
27.77605985517792
 31
0.0
  0
LINE
  5
29DD
330
1E
100
AcDbEntity
  8
7
100
AcDbLine
 10
38.76366637434714
 20
27.74587612814379
 30
0.0
 11
38.75448002264109
 21
27.74587612814379
 31
0.0
  0
LINE
  5
29DE
330
1E
100
AcDbEntity
  8
7
100
AcDbLine
 10
38.76366637434714
 20
27.80099423838001
 30
0.0
 11
38.75448002264109
 21
27.80099423838001
 31
0.0
  0
LINE
  5
29DF
330
1E
100
AcDbEntity
  8
7
100
AcDbLine
 10
38.75448002264109
 20
27.79049555071597
 30
0.0
 11
38.76366637434714
 21
27.79049555071597
 31
0.0
  0
LINE
  5
29E6
330
1E
100
AcDbEntity
  8
7
100
AcDbLine
 10
38.75448002264109
 20
25.60545618063724
 30
0.0
 11
38.75448002264109
 21
25.53721471082096
 31
0.0
  0
LINE
  5
29EC
330
1E
100
AcDbEntity
  8
7
100
AcDbLine
 10
38.75448002264109
 20
25.60545618063724
 30
0.0
 11
38.76366637434714
 21
25.60545618063724
 31
0.0
  0
LINE
  5
29ED
330
1E
100
AcDbEntity
  8
7
100
AcDbLine
 10
38.75448002264109
 20
25.53721471082096
 30
0.0
 11
38.76366637434714
 21
25.53721471082096
 31
0.0
  0
LINE
  5
29F6
330
1E
100
AcDbEntity
  8
7
100
AcDbLine
 10
39.21510994390094
 20
26.96372389717267
 30
0.0
 11
39.21510994390094
 21
27.00178163995482
 31
0.0
  0
LINE
  5
29F7
330
1E
100
AcDbEntity
  8
7
100
AcDbLine
 10
39.03925692552824
 20
26.96109922525666
 30
0.0
 11
39.21510994390094
 21
26.96372389717267
 31
0.0
  0
LINE
  5
29FE
330
1E
100
AcDbEntity
  8
7
100
AcDbLine
 10
39.21510994390094
 20
27.89548242735639
 30
0.0
 11
39.21510994390094
 21
27.92697849034852
 31
0.0
  0
LINE
  5
29FF
330
1E
100
AcDbEntity
  8
7
100
AcDbLine
 10
39.03925692552824
 20
27.93091549822253
 30
0.0
 11
39.21510994390094
 21
27.92697849034852
 31
0.0
  0
LINE
  5
2A09
330
1E
100
AcDbEntity
  8
7
100
AcDbLine
 10
38.97757713550199
 20
25.20388137748763
 30
0.0
 11
39.03925692552824
 21
25.19994436961361
 31
0.0
  0
LINE
  5
2A0A
330
1E
100
AcDbEntity
  8
7
100
AcDbLine
 10
39.03925692552824
 20
25.19994436961361
 30
0.0
 11
39.03925692552824
 21
29.58052179743513
 31
0.0
  0
LINE
  5
2A0B
330
1E
100
AcDbEntity
  8
7
100
AcDbLine
 10
39.03925692552824
 20
25.14088925150337
 30
0.0
 11
38.97757713550199
 21
25.14351392341939
 31
0.0
  0
LINE
  5
2CFE
330
1E
100
AcDbEntity
  8
7
100
AcDbLine
 10
39.03925692552824
 20
25.19994436961361
 30
0.0
 11
39.03925692552824
 21
25.17763465832752
 31
0.0
  0
LINE
  5
2CFF
330
1E
100
AcDbEntity
  8
7
100
AcDbLine
 10
39.03925692552824
 20
25.17763465832752
 30
0.0
 11
39.03925692552824
 21
25.15794961895744
 31
0.0
  0
LINE
  5
2D00
330
1E
100
AcDbEntity
  8
7
100
AcDbLine
 10
39.03925692552824
 20
25.15794961895744
 30
0.0
 11
39.03925692552824
 21
25.14482625937739
 31
0.0
  0
LINE
  5
2D01
330
1E
100
AcDbEntity
  8
7
100
AcDbLine
 10
39.03925692552824
 20
25.14482625937739
 30
0.0
 11
39.03925692552824
 21
25.14088925150337
 31
0.0
  0
LINE
  5
2D02
330
1E
100
AcDbEntity
  8
7
100
AcDbLine
 10
38.97757713550199
 20
29.63695224362936
 30
0.0
 11
39.03925692552824
 21
29.64088925150337
 31
0.0
  0
LINE
  5
2D03
330
1E
100
AcDbEntity
  8
7
100
AcDbLine
 10
39.03925692552824
 20
29.64088925150337
 30
0.0
 11
39.03925692552824
 21
29.63563990767135
 31
0.0
  0
LINE
  5
2D04
330
1E
100
AcDbEntity
  8
7
100
AcDbLine
 10
39.03925692552824
 20
29.63563990767135
 30
0.0
 11
39.03925692552824
 21
29.6225165480913
 31
0.0
  0
LINE
  5
2D05
330
1E
100
AcDbEntity
  8
7
100
AcDbLine
 10
39.03925692552824
 20
29.6225165480913
 30
0.0
 11
39.03925692552824
 21
29.60414384467923
 31
0.0
  0
LINE
  5
2D06
330
1E
100
AcDbEntity
  8
7
100
AcDbLine
 10
39.03925692552824
 20
29.60414384467923
 30
0.0
 11
39.03925692552824
 21
29.58052179743513
 31
0.0
  0
LINE
  5
2D07
330
1E
100
AcDbEntity
  8
7
100
AcDbLine
 10
39.03925692552824
 20
29.58052179743513
 30
0.0
 11
38.97757713550199
 21
29.57789712551912
 31
0.0
  0
LINE
  5
2D08
330
1E
100
AcDbEntity
  8
7
100
AcDbLine
 10
39.14424380216866
 20
27.06214909402306
 30
0.0
 11
39.14424380216866
 21
27.83905198116217
 31
0.0
  0
LINE
  5
2D09
330
1E
100
AcDbEntity
  8
7
100
AcDbLine
 10
39.14424380216866
 20
27.83905198116217
 30
0.0
 11
39.20854826411091
 21
27.88235906777634
 31
0.0
  0
LINE
  5
2D0A
330
1E
100
AcDbEntity
  8
7
100
AcDbLine
 10
39.20854826411091
 20
27.88235906777634
 30
0.0
 11
39.21510994390094
 21
27.89548242735639
 31
0.0
  0
LINE
  5
2D0B
330
1E
100
AcDbEntity
  8
7
100
AcDbLine
 10
39.14424380216866
 20
27.06214909402306
 30
0.0
 11
39.15605482579071
 21
27.06083675806506
 31
0.0
  0
LINE
  5
2D0C
330
1E
100
AcDbEntity
  8
7
100
AcDbLine
 10
39.15605482579071
 20
27.06083675806506
 30
0.0
 11
39.1783645370768
 21
27.05689975019104
 31
0.0
  0
LINE
  5
2D0D
330
1E
100
AcDbEntity
  8
7
100
AcDbLine
 10
39.1783645370768
 20
27.05689975019104
 30
0.0
 11
39.19804957644688
 21
27.04377639061099
 31
0.0
  0
LINE
  5
2D0E
330
1E
100
AcDbEntity
  8
7
100
AcDbLine
 10
39.19804957644688
 20
27.04377639061099
 30
0.0
 11
39.21117293602693
 21
27.02409135124091
 31
0.0
  0
LINE
  5
2D0F
330
1E
100
AcDbEntity
  8
7
100
AcDbLine
 10
39.21117293602693
 20
27.02409135124091
 30
0.0
 11
39.21510994390094
 21
27.00178163995482
 31
0.0
  0
LINE
  5
2D10
330
1E
100
AcDbEntity
  8
7
100
AcDbLine
 10
38.75448002264109
 20
25.60545618063724
 30
0.0
 11
38.75448002264109
 21
25.6238288840493
 31
0.0
  0
LINE
  5
2D11
330
1E
100
AcDbEntity
  8
7
100
AcDbLine
 10
38.75448002264109
 20
25.6238288840493
 30
0.0
 11
38.76366637434714
 21
25.6238288840493
 31
0.0
  0
LINE
  5
2D12
330
1E
100
AcDbEntity
  8
7
100
AcDbLine
 10
38.75448002264109
 20
25.6238288840493
 30
0.0
 11
38.75448002264109
 21
25.64351392341939
 31
0.0
  0
LINE
  5
2D13
330
1E
100
AcDbEntity
  8
7
100
AcDbLine
 10
38.75448002264109
 20
25.64351392341939
 30
0.0
 11
38.75448002264109
 21
25.65007560320941
 31
0.0
  0
LINE
  5
2D14
330
1E
100
AcDbEntity
  8
7
100
AcDbLine
 10
38.75448002264109
 20
25.65007560320941
 30
0.0
 11
38.76366637434714
 21
25.65007560320941
 31
0.0
  0
LINE
  5
2D15
330
1E
100
AcDbEntity
  8
7
100
AcDbLine
 10
38.75448002264109
 20
27.75375014389183
 30
0.0
 11
38.75448002264109
 21
27.76818583942989
 31
0.0
  0
LINE
  5
2D16
330
1E
100
AcDbEntity
  8
7
100
AcDbLine
 10
38.75448002264109
 20
27.76818583942989
 30
0.0
 11
38.75448002264109
 21
27.77605985517792
 31
0.0
  0
LINE
  5
2D17
330
1E
100
AcDbEntity
  8
7
100
AcDbLine
 10
38.75448002264109
 20
27.77605985517792
 30
0.0
 11
38.75448002264109
 21
27.77999686305193
 31
0.0
  0
LINE
  5
2D18
330
1E
100
AcDbEntity
  8
7
100
AcDbLine
 10
38.75448002264109
 20
27.77999686305193
 30
0.0
 11
38.75448002264109
 21
27.79049555071597
 31
0.0
  0
LINE
  5
2D19
330
1E
100
AcDbEntity
  8
7
100
AcDbLine
 10
38.75448002264109
 20
27.79049555071597
 30
0.0
 11
38.75448002264109
 21
27.80099423838001
 31
0.0
  0
LINE
  5
2D1A
330
1E
100
AcDbEntity
  8
7
100
AcDbLine
 10
38.75448002264109
 20
27.80099423838001
 30
0.0
 11
38.75448002264109
 21
27.81149292604406
 31
0.0
  0
LINE
  5
2D1B
330
1E
100
AcDbEntity
  8
7
100
AcDbLine
 10
38.75448002264109
 20
27.81149292604406
 30
0.0
 11
38.75448002264109
 21
27.81542993391807
 31
0.0
  0
LINE
  5
2D1C
330
1E
100
AcDbEntity
  8
7
100
AcDbLine
 10
38.97757713550199
 20
25.14351392341939
 30
0.0
 11
38.97626479954399
 21
25.15138793916742
 31
0.0
  0
LINE
  5
2D1D
330
1E
100
AcDbEntity
  8
7
100
AcDbLine
 10
38.97626479954399
 20
25.15138793916742
 30
0.0
 11
38.97626479954399
 21
25.17369765045351
 31
0.0
  0
LINE
  5
2D1E
330
1E
100
AcDbEntity
  8
7
100
AcDbLine
 10
38.97626479954399
 20
25.17369765045351
 30
0.0
 11
38.97757713550199
 21
25.20388137748763
 31
0.0
  0
LINE
  5
2D1F
330
1E
100
AcDbEntity
  8
7
100
AcDbLine
 10
38.93558238484583
 20
25.15007560320941
 30
0.0
 11
38.89489997014766
 21
25.16451129874747
 31
0.0
  0
LINE
  5
2D20
330
1E
100
AcDbEntity
  8
7
100
AcDbLine
 10
38.89489997014766
 20
25.16451129874747
 30
0.0
 11
38.85815456332352
 21
25.18550867407556
 31
0.0
  0
LINE
  5
2D21
330
1E
100
AcDbEntity
  8
7
100
AcDbLine
 10
38.85815456332352
 20
25.18550867407556
 30
0.0
 11
38.82534616437338
 21
25.21438006515167
 31
0.0
  0
LINE
  5
2D22
330
1E
100
AcDbEntity
  8
7
100
AcDbLine
 10
38.82534616437338
 20
25.21438006515167
 30
0.0
 11
38.79909944521328
 21
25.2471884641018
 31
0.0
  0
LINE
  5
2D23
330
1E
100
AcDbEntity
  8
7
100
AcDbLine
 10
38.79909944521328
 20
25.2471884641018
 30
0.0
 11
38.78072674180121
 21
25.28524620688395
 31
0.0
  0
LINE
  5
2D24
330
1E
100
AcDbEntity
  8
7
100
AcDbLine
 10
38.78072674180121
 20
25.28524620688395
 30
0.0
 11
38.76760338222116
 21
25.32592862158212
 31
0.0
  0
LINE
  5
2D25
330
1E
100
AcDbEntity
  8
7
100
AcDbLine
 10
38.76760338222116
 20
25.32592862158212
 30
0.0
 11
38.76366637434714
 21
25.36923570819629
 31
0.0
  0
LINE
  5
2D26
330
1E
100
AcDbEntity
  8
7
100
AcDbLine
 10
38.79909944521328
 20
25.27999686305193
 30
0.0
 11
38.82534616437338
 21
25.25506247984983
 31
0.0
  0
LINE
  5
2D27
330
1E
100
AcDbEntity
  8
7
100
AcDbLine
 10
38.82534616437338
 20
25.25506247984983
 30
0.0
 11
38.85815456332352
 21
25.23406510452175
 31
0.0
  0
LINE
  5
2D28
330
1E
100
AcDbEntity
  8
7
100
AcDbLine
 10
38.85815456332352
 20
25.23406510452175
 30
0.0
 11
38.89489997014766
 21
25.21831707302569
 31
0.0
  0
LINE
  5
2D29
330
1E
100
AcDbEntity
  8
7
100
AcDbLine
 10
38.89489997014766
 20
25.21831707302569
 30
0.0
 11
38.93558238484583
 21
25.20781838536164
 31
0.0
  0
LINE
  5
2D2A
330
1E
100
AcDbEntity
  8
7
100
AcDbLine
 10
38.93558238484583
 20
25.20781838536164
 30
0.0
 11
38.97757713550199
 21
25.20388137748763
 31
0.0
  0
LINE
  5
2D2B
330
1E
100
AcDbEntity
  8
7
100
AcDbLine
 10
38.76366637434714
 20
25.36923570819629
 30
0.0
 11
38.76760338222116
 21
25.33773964520416
 31
0.0
  0
LINE
  5
2D2C
330
1E
100
AcDbEntity
  8
7
100
AcDbLine
 10
38.76760338222116
 20
25.33773964520416
 30
0.0
 11
38.78072674180121
 21
25.30755591817004
 31
0.0
  0
LINE
  5
2D2D
330
1E
100
AcDbEntity
  8
7
100
AcDbLine
 10
38.78072674180121
 20
25.30755591817004
 30
0.0
 11
38.79909944521328
 21
25.27999686305193
 31
0.0
  0
LINE
  5
2D2E
330
1E
100
AcDbEntity
  8
7
100
AcDbLine
 10
38.97757713550199
 20
29.57789712551912
 30
0.0
 11
38.97626479954399
 21
29.60808085255324
 31
0.0
  0
LINE
  5
2D2F
330
1E
100
AcDbEntity
  8
7
100
AcDbLine
 10
38.97626479954399
 20
29.60808085255324
 30
0.0
 11
38.97626479954399
 21
29.62907822788133
 31
0.0
  0
LINE
  5
2D30
330
1E
100
AcDbEntity
  8
7
100
AcDbLine
 10
38.97626479954399
 20
29.62907822788133
 30
0.0
 11
38.97757713550199
 21
29.63695224362936
 31
0.0
  0
LINE
  5
2D31
330
1E
100
AcDbEntity
  8
7
100
AcDbLine
 10
38.82534616437338
 20
29.52671602315692
 30
0.0
 11
38.79909944521328
 21
29.50178163995482
 31
0.0
  0
LINE
  5
2D32
330
1E
100
AcDbEntity
  8
7
100
AcDbLine
 10
38.79909944521328
 20
29.50178163995482
 30
0.0
 11
38.78072674180121
 21
29.47422258483671
 31
0.0
  0
LINE
  5
2D33
330
1E
100
AcDbEntity
  8
7
100
AcDbLine
 10
38.78072674180121
 20
29.47422258483671
 30
0.0
 11
38.76760338222116
 21
29.44403885780259
 31
0.0
  0
LINE
  5
2D34
330
1E
100
AcDbEntity
  8
7
100
AcDbLine
 10
38.76760338222116
 20
29.44403885780259
 30
0.0
 11
38.76366637434714
 21
29.41254279481046
 31
0.0
  0
LINE
  5
2D35
330
1E
100
AcDbEntity
  8
7
100
AcDbLine
 10
38.97757713550199
 20
29.57789712551912
 30
0.0
 11
38.93558238484583
 21
29.5726477816871
 31
0.0
  0
LINE
  5
2D36
330
1E
100
AcDbEntity
  8
7
100
AcDbLine
 10
38.93558238484583
 20
29.5726477816871
 30
0.0
 11
38.89489997014766
 21
29.56214909402306
 31
0.0
  0
LINE
  5
2D37
330
1E
100
AcDbEntity
  8
7
100
AcDbLine
 10
38.89489997014766
 20
29.56214909402306
 30
0.0
 11
38.85815456332352
 21
29.546401062527
 31
0.0
  0
LINE
  5
2D38
330
1E
100
AcDbEntity
  8
7
100
AcDbLine
 10
38.85815456332352
 20
29.546401062527
 30
0.0
 11
38.82534616437338
 21
29.52671602315692
 31
0.0
  0
LINE
  5
2D39
330
1E
100
AcDbEntity
  8
7
100
AcDbLine
 10
38.76366637434714
 20
29.41254279481046
 30
0.0
 11
38.76760338222116
 21
29.45584988142463
 31
0.0
  0
LINE
  5
2D3A
330
1E
100
AcDbEntity
  8
7
100
AcDbLine
 10
38.76760338222116
 20
29.45584988142463
 30
0.0
 11
38.78072674180121
 21
29.49653229612279
 31
0.0
  0
LINE
  5
2D3B
330
1E
100
AcDbEntity
  8
7
100
AcDbLine
 10
38.78072674180121
 20
29.49653229612279
 30
0.0
 11
38.79909944521328
 21
29.53459003890495
 31
0.0
  0
LINE
  5
2D3C
330
1E
100
AcDbEntity
  8
7
100
AcDbLine
 10
38.79909944521328
 20
29.53459003890495
 30
0.0
 11
38.82534616437338
 21
29.56739843785508
 31
0.0
  0
LINE
  5
2D3D
330
1E
100
AcDbEntity
  8
7
100
AcDbLine
 10
38.82534616437338
 20
29.56739843785508
 30
0.0
 11
38.85815456332352
 21
29.59626982893119
 31
0.0
  0
LINE
  5
2D3E
330
1E
100
AcDbEntity
  8
7
100
AcDbLine
 10
38.85815456332352
 20
29.59626982893119
 30
0.0
 11
38.89489997014766
 21
29.61726720425928
 31
0.0
  0
LINE
  5
2D3F
330
1E
100
AcDbEntity
  8
7
100
AcDbLine
 10
38.89489997014766
 20
29.61726720425928
 30
0.0
 11
38.93558238484583
 21
29.63170289979734
 31
0.0
  0
LINE
  5
2D40
330
1E
100
AcDbEntity
  8
7
100
AcDbLine
 10
38.93558238484583
 20
29.63170289979734
 30
0.0
 11
38.97757713550199
 21
29.63695224362936
 31
0.0
  0
LINE
  5
2D41
330
1E
100
AcDbEntity
  8
7
100
AcDbLine
 10
33.39752464206368
 20
25.14088925150337
 30
0.0
 11
33.37390259481958
 21
25.14482625937739
 31
0.0
  0
LINE
  5
2D42
330
1E
100
AcDbEntity
  8
7
100
AcDbLine
 10
33.37390259481958
 20
25.14482625937739
 30
0.0
 11
33.35421755544951
 21
25.15794961895744
 31
0.0
  0
LINE
  5
2D43
330
1E
100
AcDbEntity
  8
7
100
AcDbLine
 10
33.35421755544951
 20
25.15794961895744
 30
0.0
 11
33.34240653182745
 21
25.17763465832752
 31
0.0
  0
LINE
  5
2D44
330
1E
100
AcDbEntity
  8
7
100
AcDbLine
 10
36.08781335597443
 20
25.19994436961361
 30
0.0
 11
36.08256401214241
 21
25.17763465832752
 31
0.0
  0
LINE
  5
2D45
330
1E
100
AcDbEntity
  8
7
100
AcDbLine
 10
36.08256401214241
 20
25.17763465832752
 30
0.0
 11
36.06944065256236
 21
25.15794961895744
 31
0.0
  0
LINE
  5
2D46
330
1E
100
AcDbEntity
  8
7
100
AcDbLine
 10
36.06944065256236
 20
25.15794961895744
 30
0.0
 11
36.04975561319228
 21
25.14482625937739
 31
0.0
  0
LINE
  5
2D47
330
1E
100
AcDbEntity
  8
7
100
AcDbLine
 10
36.04975561319228
 20
25.14482625937739
 30
0.0
 11
36.02744590190619
 21
25.14088925150337
 31
0.0
  0
LINE
  5
2D48
330
1E
100
AcDbEntity
  8
7
100
AcDbLine
 10
33.33715718799543
 20
29.58052179743513
 30
0.0
 11
33.33715718799543
 21
25.19994436961361
 31
0.0
  0
LINE
  5
2D49
330
1E
100
AcDbEntity
  8
7
100
AcDbLine
 10
33.33715718799543
 20
25.19994436961361
 30
0.0
 11
33.34109419586944
 21
25.20388137748763
 31
0.0
  0
LINE
  5
2D4A
330
1E
100
AcDbEntity
  8
7
100
AcDbLine
 10
36.08387634810041
 20
25.20388137748763
 30
0.0
 11
36.08781335597443
 21
25.19994436961361
 31
0.0
  0
LINE
  5
2D4B
330
1E
100
AcDbEntity
  8
7
100
AcDbLine
 10
36.08781335597443
 20
25.19994436961361
 30
0.0
 11
36.08781335597443
 21
29.58052179743513
 31
0.0
  0
LINE
  5
2D4C
330
1E
100
AcDbEntity
  8
7
100
AcDbLine
 10
36.04975561319228
 20
29.63563990767135
 30
0.0
 11
36.06944065256236
 21
29.6225165480913
 31
0.0
  0
LINE
  5
2D4D
330
1E
100
AcDbEntity
  8
7
100
AcDbLine
 10
36.06944065256236
 20
29.6225165480913
 30
0.0
 11
36.08256401214241
 21
29.60414384467923
 31
0.0
  0
LINE
  5
2D4E
330
1E
100
AcDbEntity
  8
7
100
AcDbLine
 10
36.08256401214241
 20
29.60414384467923
 30
0.0
 11
36.08781335597443
 21
29.58052179743513
 31
0.0
  0
LINE
  5
2D4F
330
1E
100
AcDbEntity
  8
7
100
AcDbLine
 10
36.08781335597443
 20
29.58052179743513
 30
0.0
 11
36.08387634810041
 21
29.57789712551912
 31
0.0
  0
LINE
  5
2D50
330
1E
100
AcDbEntity
  8
7
100
AcDbLine
 10
36.02482122999019
 20
29.63695224362936
 30
0.0
 11
36.02744590190619
 21
29.64088925150337
 31
0.0
  0
LINE
  5
2D51
330
1E
100
AcDbEntity
  8
7
100
AcDbLine
 10
36.02744590190619
 20
29.64088925150337
 30
0.0
 11
33.39752464206368
 21
29.64088925150337
 31
0.0
  0
LINE
  5
2D52
330
1E
100
AcDbEntity
  8
7
100
AcDbLine
 10
33.39752464206368
 20
29.64088925150337
 30
0.0
 11
33.37390259481958
 21
29.63563990767135
 31
0.0
  0
LINE
  5
2D53
330
1E
100
AcDbEntity
  8
7
100
AcDbLine
 10
33.37390259481958
 20
29.63563990767135
 30
0.0
 11
33.35421755544951
 21
29.6225165480913
 31
0.0
  0
LINE
  5
2D54
330
1E
100
AcDbEntity
  8
7
100
AcDbLine
 10
33.35421755544951
 20
29.6225165480913
 30
0.0
 11
33.34240653182745
 21
29.60414384467923
 31
0.0
  0
LINE
  5
2D55
330
1E
100
AcDbEntity
  8
7
100
AcDbLine
 10
33.34240653182745
 20
29.60414384467923
 30
0.0
 11
33.33715718799543
 21
29.58052179743513
 31
0.0
  0
LINE
  5
2D56
330
1E
100
AcDbEntity
  8
7
100
AcDbLine
 10
33.33715718799543
 20
29.58052179743513
 30
0.0
 11
33.34109419586944
 21
29.57789712551912
 31
0.0
  0
LINE
  5
2D57
330
1E
100
AcDbEntity
  8
7
100
AcDbLine
 10
35.57731466831039
 20
25.56083675806506
 30
0.0
 11
35.57731466831039
 21
25.6238288840493
 31
0.0
  0
LINE
  5
2D58
330
1E
100
AcDbEntity
  8
7
100
AcDbLine
 10
35.57731466831039
 20
25.6238288840493
 30
0.0
 11
35.54844327723428
 21
25.6238288840493
 31
0.0
  0
LINE
  5
2D59
330
1E
100
AcDbEntity
  8
7
100
AcDbLine
 10
35.5786270042684
 20
25.56083675806506
 30
0.0
 11
35.5799393402264
 21
25.55821208614904
 31
0.0
  0
LINE
  5
2D5A
330
1E
100
AcDbEntity
  8
7
100
AcDbLine
 10
35.5799393402264
 20
25.55821208614904
 30
0.0
 11
35.58256401214241
 21
25.55689975019104
 31
0.0
  0
LINE
  5
2D5B
330
1E
100
AcDbEntity
  8
7
100
AcDbLine
 10
35.58781335597443
 20
25.55689975019104
 30
0.0
 11
35.59043802789044
 21
25.55821208614904
 31
0.0
  0
LINE
  5
2D5C
330
1E
100
AcDbEntity
  8
7
100
AcDbLine
 10
35.59043802789044
 20
25.55821208614904
 30
0.0
 11
35.59175036384845
 21
25.56083675806506
 31
0.0
  0
LINE
  5
2D5D
330
1E
100
AcDbEntity
  8
7
100
AcDbLine
 10
35.61143540321852
 20
25.55296274231702
 30
0.0
 11
35.61143540321852
 21
25.6238288840493
 31
0.0
  0
LINE
  5
2D5E
330
1E
100
AcDbEntity
  8
7
100
AcDbLine
 10
35.61143540321852
 20
25.6238288840493
 30
0.0
 11
35.59306269980646
 21
25.6238288840493
 31
0.0
  0
LINE
  5
2D5F
330
1E
100
AcDbEntity
  8
7
100
AcDbLine
 10
35.59306269980646
 20
25.6238288840493
 30
0.0
 11
35.59306269980646
 21
25.56083675806506
 31
0.0
  0
LINE
  5
2D60
330
1E
100
AcDbEntity
  8
7
100
AcDbLine
 10
35.59568737172247
 20
25.53852704677896
 30
0.0
 11
35.60618605938651
 21
25.54246405465298
 31
0.0
  0
LINE
  5
2D61
330
1E
100
AcDbEntity
  8
7
100
AcDbLine
 10
35.60618605938651
 20
25.54246405465298
 30
0.0
 11
35.61012306726052
 21
25.55296274231702
 31
0.0
  0
LINE
  5
2D62
330
1E
100
AcDbEntity
  8
7
100
AcDbLine
 10
35.54975561319228
 20
25.55296274231702
 30
0.0
 11
35.5536926210663
 21
25.54246405465298
 31
0.0
  0
LINE
  5
2D63
330
1E
100
AcDbEntity
  8
7
100
AcDbLine
 10
35.5536926210663
 20
25.54246405465298
 30
0.0
 11
35.56419130873034
 21
25.53852704677896
 31
0.0
  0
LINE
  5
2D64
330
1E
100
AcDbEntity
  8
7
100
AcDbLine
 10
35.70723592815291
 20
25.60545618063724
 30
0.0
 11
35.72692096752299
 21
25.60545618063724
 31
0.0
  0
LINE
  5
2D65
330
1E
100
AcDbEntity
  8
7
100
AcDbLine
 10
35.72692096752299
 20
25.60545618063724
 30
0.0
 11
35.72692096752299
 21
25.6238288840493
 31
0.0
  0
LINE
  5
2D66
330
1E
100
AcDbEntity
  8
7
100
AcDbLine
 10
35.72692096752299
 20
25.6238288840493
 30
0.0
 11
35.66261650558073
 21
25.6238288840493
 31
0.0
  0
LINE
  5
2D67
330
1E
100
AcDbEntity
  8
7
100
AcDbLine
 10
35.67967687303481
 20
25.60545618063724
 30
0.0
 11
35.67967687303481
 21
25.53721471082096
 31
0.0
  0
LINE
  5
2D68
330
1E
100
AcDbEntity
  8
7
100
AcDbLine
 10
35.67967687303481
 20
25.53721471082096
 30
0.0
 11
35.70723592815291
 21
25.53721471082096
 31
0.0
  0
LINE
  5
2D69
330
1E
100
AcDbEntity
  8
7
100
AcDbLine
 10
35.62455876279857
 20
25.6238288840493
 30
0.0
 11
35.62455876279857
 21
25.53721471082096
 31
0.0
  0
LINE
  5
2D6A
330
1E
100
AcDbEntity
  8
7
100
AcDbLine
 10
35.62455876279857
 20
25.53721471082096
 30
0.0
 11
35.64818081004268
 21
25.53721471082096
 31
0.0
  0
LINE
  5
2D6B
330
1E
100
AcDbEntity
  8
7
100
AcDbLine
 10
35.53400758169622
 20
25.60808085255324
 30
0.0
 11
35.5300705738222
 21
25.61857954021729
 31
0.0
  0
LINE
  5
2D6C
330
1E
100
AcDbEntity
  8
7
100
AcDbLine
 10
35.5300705738222
 20
25.61857954021729
 30
0.0
 11
35.51957188615816
 21
25.6225165480913
 31
0.0
  0
LINE
  5
2D6D
330
1E
100
AcDbEntity
  8
7
100
AcDbLine
 10
35.51957188615816
 20
25.53852704677896
 30
0.0
 11
35.5300705738222
 21
25.54246405465298
 31
0.0
  0
LINE
  5
2D6E
330
1E
100
AcDbEntity
  8
7
100
AcDbLine
 10
35.5300705738222
 20
25.54246405465298
 30
0.0
 11
35.53400758169622
 21
25.55296274231702
 31
0.0
  0
LINE
  5
2D6F
330
1E
100
AcDbEntity
  8
7
100
AcDbLine
 10
35.47101545571197
 20
25.6238288840493
 30
0.0
 11
35.47101545571197
 21
25.53721471082096
 31
0.0
  0
LINE
  5
2D70
330
1E
100
AcDbEntity
  8
7
100
AcDbLine
 10
35.47101545571197
 20
25.53721471082096
 30
0.0
 11
35.51957188615816
 21
25.53721471082096
 31
0.0
  0
LINE
  5
2D71
330
1E
100
AcDbEntity
  8
7
100
AcDbLine
 10
35.5051361906201
 20
25.55689975019104
 30
0.0
 11
35.50776086253611
 21
25.55821208614904
 31
0.0
  0
LINE
  5
2D72
330
1E
100
AcDbEntity
  8
7
100
AcDbLine
 10
35.50776086253611
 20
25.55821208614904
 30
0.0
 11
35.50907319849413
 21
25.56083675806506
 31
0.0
  0
LINE
  5
2D73
330
1E
100
AcDbEntity
  8
7
100
AcDbLine
 10
35.50907319849413
 20
25.60151917276322
 30
0.0
 11
35.50776086253611
 21
25.60414384467923
 31
0.0
  0
LINE
  5
2D74
330
1E
100
AcDbEntity
  8
7
100
AcDbLine
 10
35.50776086253611
 20
25.60414384467923
 30
0.0
 11
35.5051361906201
 21
25.60545618063724
 31
0.0
  0
LINE
  5
2D75
330
1E
100
AcDbEntity
  8
7
100
AcDbLine
 10
35.43164537697181
 20
25.53721471082096
 30
0.0
 11
35.45789209613191
 21
25.53721471082096
 31
0.0
  0
LINE
  5
2D76
330
1E
100
AcDbEntity
  8
7
100
AcDbLine
 10
35.45789209613191
 20
25.53721471082096
 30
0.0
 11
35.45789209613191
 21
25.6238288840493
 31
0.0
  0
LINE
  5
2D77
330
1E
100
AcDbEntity
  8
7
100
AcDbLine
 10
35.45789209613191
 20
25.6238288840493
 30
0.0
 11
35.43558238484583
 21
25.6238288840493
 31
0.0
  0
LINE
  5
2D78
330
1E
100
AcDbEntity
  8
7
100
AcDbLine
 10
35.43558238484583
 20
25.6238288840493
 30
0.0
 11
35.43558238484583
 21
25.59102048509918
 31
0.0
  0
LINE
  5
2D79
330
1E
100
AcDbEntity
  8
7
100
AcDbLine
 10
35.43558238484583
 20
25.59102048509918
 30
0.0
 11
35.41983435334976
 21
25.6238288840493
 31
0.0
  0
LINE
  5
2D7A
330
1E
100
AcDbEntity
  8
7
100
AcDbLine
 10
35.41983435334976
 20
25.6238288840493
 30
0.0
 11
35.39096296227365
 21
25.6238288840493
 31
0.0
  0
LINE
  5
2D7B
330
1E
100
AcDbEntity
  8
7
100
AcDbLine
 10
35.39096296227365
 20
25.6238288840493
 30
0.0
 11
35.39096296227365
 21
25.56739843785508
 31
0.0
  0
LINE
  5
2D7C
330
1E
100
AcDbEntity
  8
7
100
AcDbLine
 10
35.30566112500331
 20
25.5726477816871
 30
0.0
 11
35.31484747670934
 21
25.57396011764511
 31
0.0
  0
LINE
  5
2D7D
330
1E
100
AcDbEntity
  8
7
100
AcDbLine
 10
35.31484747670934
 20
25.57396011764511
 30
0.0
 11
35.32272149245737
 21
25.57658478956112
 31
0.0
  0
LINE
  5
2D7E
330
1E
100
AcDbEntity
  8
7
100
AcDbLine
 10
35.34109419586944
 20
25.6225165480913
 30
0.0
 11
35.32797083628939
 21
25.64220158746138
 31
0.0
  0
LINE
  5
2D7F
330
1E
100
AcDbEntity
  8
7
100
AcDbLine
 10
35.32797083628939
 20
25.64220158746138
 30
0.0
 11
35.30566112500331
 21
25.64876326725141
 31
0.0
  0
LINE
  5
2D80
330
1E
100
AcDbEntity
  8
7
100
AcDbLine
 10
35.29385010138126
 20
25.62514122000731
 30
0.0
 11
35.29253776542325
 21
25.62907822788133
 31
0.0
  0
LINE
  5
2D81
330
1E
100
AcDbEntity
  8
7
100
AcDbLine
 10
35.29253776542325
 20
25.62907822788133
 30
0.0
 11
35.28860075754923
 21
25.63039056383933
 31
0.0
  0
LINE
  5
2D82
330
1E
100
AcDbEntity
  8
7
100
AcDbLine
 10
35.34240653182745
 20
25.56871077381309
 30
0.0
 11
35.3542175554495
 21
25.59233282105718
 31
0.0
  0
LINE
  5
2D83
330
1E
100
AcDbEntity
  8
7
100
AcDbLine
 10
35.3542175554495
 20
25.59233282105718
 30
0.0
 11
35.36471624311354
 21
25.56871077381309
 31
0.0
  0
LINE
  5
2D84
330
1E
100
AcDbEntity
  8
7
100
AcDbLine
 10
35.36471624311354
 20
25.56871077381309
 30
0.0
 11
35.34240653182745
 21
25.56871077381309
 31
0.0
  0
LINE
  5
2D85
330
1E
100
AcDbEntity
  8
7
100
AcDbLine
 10
34.68230154495081
 20
27.77605985517792
 30
0.0
 11
34.69280023261485
 21
27.77999686305193
 31
0.0
  0
LINE
  5
2D86
330
1E
100
AcDbEntity
  8
7
100
AcDbLine
 10
34.69280023261485
 20
27.77999686305193
 30
0.0
 11
34.69673724048887
 21
27.79049555071597
 31
0.0
  0
LINE
  5
2D87
330
1E
100
AcDbEntity
  8
7
100
AcDbLine
 10
34.72692096752299
 20
27.80099423838001
 30
0.0
 11
34.72035928773296
 21
27.81411759796007
 31
0.0
  0
LINE
  5
2D88
330
1E
100
AcDbEntity
  8
7
100
AcDbLine
 10
34.72035928773296
 20
27.81411759796007
 30
0.0
 11
34.7059235921949
 21
27.81411759796007
 31
0.0
  0
LINE
  5
2D89
330
1E
100
AcDbEntity
  8
7
100
AcDbLine
 10
34.7059235921949
 20
27.81411759796007
 30
0.0
 11
34.69804957644687
 21
27.80099423838001
 31
0.0
  0
LINE
  5
2D8A
330
1E
100
AcDbEntity
  8
7
100
AcDbLine
 10
34.72823330348099
 20
27.79049555071597
 30
0.0
 11
34.73217031135501
 21
27.77999686305193
 31
0.0
  0
LINE
  5
2D8B
330
1E
100
AcDbEntity
  8
7
100
AcDbLine
 10
34.73217031135501
 20
27.77999686305193
 30
0.0
 11
34.74266899901905
 21
27.77605985517792
 31
0.0
  0
LINE
  5
2D8C
330
1E
100
AcDbEntity
  8
7
100
AcDbLine
 10
35.31222280479333
 20
27.74587612814379
 30
0.0
 11
35.32534616437338
 21
27.75243780793382
 31
0.0
  0
LINE
  5
2D8D
330
1E
100
AcDbEntity
  8
7
100
AcDbLine
 10
35.32534616437338
 20
27.75243780793382
 30
0.0
 11
35.32534616437338
 21
27.76687350347188
 31
0.0
  0
LINE
  5
2D8E
330
1E
100
AcDbEntity
  8
7
100
AcDbLine
 10
35.32534616437338
 20
27.76687350347188
 30
0.0
 11
35.31222280479333
 21
27.77474751921991
 31
0.0
  0
LINE
  5
2D8F
330
1E
100
AcDbEntity
  8
7
100
AcDbLine
 10
34.11274773917653
 20
27.77474751921991
 30
0.0
 11
34.09962437959648
 21
27.76818583942989
 31
0.0
  0
LINE
  5
2D90
330
1E
100
AcDbEntity
  8
7
100
AcDbLine
 10
34.09962437959648
 20
27.76818583942989
 30
0.0
 11
34.09962437959648
 21
27.75375014389183
 31
0.0
  0
LINE
  5
2D91
330
1E
100
AcDbEntity
  8
7
100
AcDbLine
 10
34.09962437959648
 20
27.75375014389183
 30
0.0
 11
34.11274773917653
 21
27.74587612814379
 31
0.0
  0
LINE
  5
2D92
330
1E
100
AcDbEntity
  8
7
100
AcDbLine
 10
34.72692096752299
 20
27.80099423838001
 30
0.0
 11
34.72035928773296
 21
27.81411759796007
 31
0.0
  0
LINE
  5
2D93
330
1E
100
AcDbEntity
  8
7
100
AcDbLine
 10
34.72035928773296
 20
27.81411759796007
 30
0.0
 11
34.7059235921949
 21
27.81411759796007
 31
0.0
  0
LINE
  5
2D94
330
1E
100
AcDbEntity
  8
7
100
AcDbLine
 10
34.7059235921949
 20
27.81411759796007
 30
0.0
 11
34.69804957644687
 21
27.80099423838001
 31
0.0
  0
LINE
  5
2D95
330
1E
100
AcDbEntity
  8
7
100
AcDbLine
 10
34.68230154495081
 20
27.77605985517792
 30
0.0
 11
34.69280023261485
 21
27.77999686305193
 31
0.0
  0
LINE
  5
2D96
330
1E
100
AcDbEntity
  8
7
100
AcDbLine
 10
34.69280023261485
 20
27.77999686305193
 30
0.0
 11
34.69673724048887
 21
27.79049555071597
 31
0.0
  0
LINE
  5
2D97
330
1E
100
AcDbEntity
  8
7
100
AcDbLine
 10
34.11274773917653
 20
27.77474751921991
 30
0.0
 11
34.09962437959648
 21
27.76818583942989
 31
0.0
  0
LINE
  5
2D98
330
1E
100
AcDbEntity
  8
7
100
AcDbLine
 10
34.09962437959648
 20
27.76818583942989
 30
0.0
 11
34.09962437959648
 21
27.75375014389183
 31
0.0
  0
LINE
  5
2D99
330
1E
100
AcDbEntity
  8
7
100
AcDbLine
 10
34.09962437959648
 20
27.75375014389183
 30
0.0
 11
34.11274773917653
 21
27.74587612814379
 31
0.0
  0
LINE
  5
2D9A
330
1E
100
AcDbEntity
  8
7
100
AcDbLine
 10
35.31222280479333
 20
27.74587612814379
 30
0.0
 11
35.32534616437338
 21
27.75243780793382
 31
0.0
  0
LINE
  5
2D9B
330
1E
100
AcDbEntity
  8
7
100
AcDbLine
 10
35.32534616437338
 20
27.75243780793382
 30
0.0
 11
35.32534616437338
 21
27.76687350347188
 31
0.0
  0
LINE
  5
2D9C
330
1E
100
AcDbEntity
  8
7
100
AcDbLine
 10
35.32534616437338
 20
27.76687350347188
 30
0.0
 11
35.31222280479333
 21
27.77474751921991
 31
0.0
  0
LINE
  5
2D9D
330
1E
100
AcDbEntity
  8
7
100
AcDbLine
 10
34.72823330348099
 20
27.79049555071597
 30
0.0
 11
34.73217031135501
 21
27.77999686305193
 31
0.0
  0
LINE
  5
2D9E
330
1E
100
AcDbEntity
  8
7
100
AcDbLine
 10
34.73217031135501
 20
27.77999686305193
 30
0.0
 11
34.74266899901905
 21
27.77605985517792
 31
0.0
  0
LINE
  5
2D9F
330
1E
100
AcDbEntity
  8
7
100
AcDbLine
 10
34.82272149245737
 20
29.13301523575534
 30
0.0
 11
34.79122542946525
 21
29.15926195491545
 31
0.0
  0
LINE
  5
2DA0
330
1E
100
AcDbEntity
  8
7
100
AcDbLine
 10
34.79122542946525
 20
29.15926195491545
 30
0.0
 11
34.75316768668309
 21
29.17632232236952
 31
0.0
  0
LINE
  5
2DA1
330
1E
100
AcDbEntity
  8
7
100
AcDbLine
 10
34.75316768668309
 20
29.17632232236952
 30
0.0
 11
34.71248527198493
 21
29.18157166620154
 31
0.0
  0
LINE
  5
2DA2
330
1E
100
AcDbEntity
  8
7
100
AcDbLine
 10
34.56419130873034
 20
29.06083675806506
 30
0.0
 11
34.56156663681433
 21
29.02015434336689
 31
0.0
  0
LINE
  5
2DA3
330
1E
100
AcDbEntity
  8
7
100
AcDbLine
 10
34.56156663681433
 20
29.02015434336689
 30
0.0
 11
34.57075298852037
 21
28.97947192866873
 31
0.0
  0
LINE
  5
2DA4
330
1E
100
AcDbEntity
  8
7
100
AcDbLine
 10
34.57075298852037
 20
28.97947192866873
 30
0.0
 11
34.58912569193243
 21
28.94403885780258
 31
0.0
  0
LINE
  5
2DA5
330
1E
100
AcDbEntity
  8
7
100
AcDbLine
 10
34.58912569193243
 20
28.94403885780258
 30
0.0
 11
34.61668474705055
 21
28.91385513076846
 31
0.0
  0
LINE
  5
2DA6
330
1E
100
AcDbEntity
  8
7
100
AcDbLine
 10
34.61668474705055
 20
28.91385513076846
 30
0.0
 11
34.65211781791669
 21
28.89285775544038
 31
0.0
  0
LINE
  5
2DA7
330
1E
100
AcDbEntity
  8
7
100
AcDbLine
 10
34.65211781791669
 20
28.89285775544038
 30
0.0
 11
34.69148789665685
 21
28.88104673181834
 31
0.0
  0
LINE
  5
2DA8
330
1E
100
AcDbEntity
  8
7
100
AcDbLine
 10
34.69148789665685
 20
28.88104673181834
 30
0.0
 11
34.73348264731301
 21
28.88104673181834
 31
0.0
  0
LINE
  5
2DA9
330
1E
100
AcDbEntity
  8
7
100
AcDbLine
 10
34.73348264731301
 20
28.88104673181834
 30
0.0
 11
34.77285272605318
 21
28.89285775544038
 31
0.0
  0
LINE
  5
2DAA
330
1E
100
AcDbEntity
  8
7
100
AcDbLine
 10
34.77285272605318
 20
28.89285775544038
 30
0.0
 11
34.80828579691932
 21
28.91385513076846
 31
0.0
  0
LINE
  5
2DAB
330
1E
100
AcDbEntity
  8
7
100
AcDbLine
 10
34.80828579691932
 20
28.91385513076846
 30
0.0
 11
34.83584485203742
 21
28.94403885780258
 31
0.0
  0
LINE
  5
2DAC
330
1E
100
AcDbEntity
  8
7
100
AcDbLine
 10
34.83584485203742
 20
28.94403885780258
 30
0.0
 11
34.8542175554495
 21
28.97947192866873
 31
0.0
  0
LINE
  5
2DAD
330
1E
100
AcDbEntity
  8
7
100
AcDbLine
 10
34.8542175554495
 20
28.97947192866873
 30
0.0
 11
34.86340390715553
 21
29.02015434336689
 31
0.0
  0
LINE
  5
2DAE
330
1E
100
AcDbEntity
  8
7
100
AcDbLine
 10
34.86340390715553
 20
29.02015434336689
 30
0.0
 11
34.86077923523952
 21
29.06083675806506
 31
0.0
  0
LINE
  5
2DAF
330
1E
100
AcDbEntity
  8
7
100
AcDbLine
 10
34.86077923523952
 20
29.06083675806506
 30
0.0
 11
34.84634353970147
 21
29.10020683680521
 31
0.0
  0
LINE
  5
2DB0
330
1E
100
AcDbEntity
  8
7
100
AcDbLine
 10
34.84634353970147
 20
29.10020683680521
 30
0.0
 11
34.82272149245737
 21
29.13301523575534
 31
0.0
  0
LINE
  5
2DB1
330
1E
100
AcDbEntity
  8
7
100
AcDbLine
 10
34.71248527198493
 20
29.18157166620154
 30
0.0
 11
34.67180285728677
 21
29.17632232236952
 31
0.0
  0
LINE
  5
2DB2
330
1E
100
AcDbEntity
  8
7
100
AcDbLine
 10
34.67180285728677
 20
29.17632232236952
 30
0.0
 11
34.63374511450461
 21
29.15926195491545
 31
0.0
  0
LINE
  5
2DB3
330
1E
100
AcDbEntity
  8
7
100
AcDbLine
 10
34.63374511450461
 20
29.15926195491545
 30
0.0
 11
34.60224905151249
 21
29.13301523575534
 31
0.0
  0
LINE
  5
2DB4
330
1E
100
AcDbEntity
  8
7
100
AcDbLine
 10
34.60224905151249
 20
29.13301523575534
 30
0.0
 11
34.5786270042684
 21
29.10020683680521
 31
0.0
  0
LINE
  5
2DB5
330
1E
100
AcDbEntity
  8
7
100
AcDbLine
 10
34.5786270042684
 20
29.10020683680521
 30
0.0
 11
34.56419130873034
 21
29.06083675806506
 31
0.0
  0
LINE
  5
2DB6
330
1E
100
AcDbEntity
  8
7
100
AcDbLine
 10
34.8542175554495
 20
25.69863203365561
 30
0.0
 11
34.86340390715553
 21
25.73931444835377
 31
0.0
  0
LINE
  5
2DB7
330
1E
100
AcDbEntity
  8
7
100
AcDbLine
 10
34.86340390715553
 20
25.73931444835377
 30
0.0
 11
34.86077923523952
 21
25.77999686305193
 31
0.0
  0
LINE
  5
2DB8
330
1E
100
AcDbEntity
  8
7
100
AcDbLine
 10
34.86077923523952
 20
25.77999686305193
 30
0.0
 11
34.84634353970147
 21
25.81936694179209
 31
0.0
  0
LINE
  5
2DB9
330
1E
100
AcDbEntity
  8
7
100
AcDbLine
 10
34.84634353970147
 20
25.81936694179209
 30
0.0
 11
34.82272149245737
 21
25.85217534074222
 31
0.0
  0
LINE
  5
2DBA
330
1E
100
AcDbEntity
  8
7
100
AcDbLine
 10
34.82272149245737
 20
25.85217534074222
 30
0.0
 11
34.79122542946525
 21
25.87842205990233
 31
0.0
  0
LINE
  5
2DBB
330
1E
100
AcDbEntity
  8
7
100
AcDbLine
 10
34.79122542946525
 20
25.87842205990233
 30
0.0
 11
34.75316768668309
 21
25.8954824273564
 31
0.0
  0
LINE
  5
2DBC
330
1E
100
AcDbEntity
  8
7
100
AcDbLine
 10
34.75316768668309
 20
25.8954824273564
 30
0.0
 11
34.71248527198493
 21
25.90073177118842
 31
0.0
  0
LINE
  5
2DBD
330
1E
100
AcDbEntity
  8
7
100
AcDbLine
 10
34.63374511450461
 20
25.87842205990233
 30
0.0
 11
34.60224905151249
 21
25.85217534074222
 31
0.0
  0
LINE
  5
2DBE
330
1E
100
AcDbEntity
  8
7
100
AcDbLine
 10
34.60224905151249
 20
25.85217534074222
 30
0.0
 11
34.5786270042684
 21
25.81936694179209
 31
0.0
  0
LINE
  5
2DBF
330
1E
100
AcDbEntity
  8
7
100
AcDbLine
 10
34.5786270042684
 20
25.81936694179209
 30
0.0
 11
34.56419130873034
 21
25.77999686305193
 31
0.0
  0
LINE
  5
2DC0
330
1E
100
AcDbEntity
  8
7
100
AcDbLine
 10
34.56419130873034
 20
25.77999686305193
 30
0.0
 11
34.56156663681433
 21
25.73931444835377
 31
0.0
  0
LINE
  5
2DC1
330
1E
100
AcDbEntity
  8
7
100
AcDbLine
 10
34.56156663681433
 20
25.73931444835377
 30
0.0
 11
34.57075298852037
 21
25.69863203365561
 31
0.0
  0
LINE
  5
2DC2
330
1E
100
AcDbEntity
  8
7
100
AcDbLine
 10
34.57075298852037
 20
25.69863203365561
 30
0.0
 11
34.58912569193243
 21
25.66319896278946
 31
0.0
  0
LINE
  5
2DC3
330
1E
100
AcDbEntity
  8
7
100
AcDbLine
 10
34.58912569193243
 20
25.66319896278946
 30
0.0
 11
34.61668474705055
 21
25.63301523575534
 31
0.0
  0
LINE
  5
2DC4
330
1E
100
AcDbEntity
  8
7
100
AcDbLine
 10
34.61668474705055
 20
25.63301523575534
 30
0.0
 11
34.65211781791669
 21
25.61201786042726
 31
0.0
  0
LINE
  5
2DC5
330
1E
100
AcDbEntity
  8
7
100
AcDbLine
 10
34.65211781791669
 20
25.61201786042726
 30
0.0
 11
34.69148789665685
 21
25.60020683680521
 31
0.0
  0
LINE
  5
2DC6
330
1E
100
AcDbEntity
  8
7
100
AcDbLine
 10
34.69148789665685
 20
25.60020683680521
 30
0.0
 11
34.73348264731301
 21
25.60020683680521
 31
0.0
  0
LINE
  5
2DC7
330
1E
100
AcDbEntity
  8
7
100
AcDbLine
 10
34.73348264731301
 20
25.60020683680521
 30
0.0
 11
34.77285272605318
 21
25.61201786042726
 31
0.0
  0
LINE
  5
2DC8
330
1E
100
AcDbEntity
  8
7
100
AcDbLine
 10
34.77285272605318
 20
25.61201786042726
 30
0.0
 11
34.80828579691932
 21
25.63301523575534
 31
0.0
  0
LINE
  5
2DC9
330
1E
100
AcDbEntity
  8
7
100
AcDbLine
 10
34.80828579691932
 20
25.63301523575534
 30
0.0
 11
34.83584485203742
 21
25.66319896278946
 31
0.0
  0
LINE
  5
2DCA
330
1E
100
AcDbEntity
  8
7
100
AcDbLine
 10
34.83584485203742
 20
25.66319896278946
 30
0.0
 11
34.8542175554495
 21
25.69863203365561
 31
0.0
  0
LINE
  5
2DCB
330
1E
100
AcDbEntity
  8
7
100
AcDbLine
 10
34.71248527198493
 20
25.90073177118842
 30
0.0
 11
34.67180285728677
 21
25.8954824273564
 31
0.0
  0
LINE
  5
2DCC
330
1E
100
AcDbEntity
  8
7
100
AcDbLine
 10
34.67180285728677
 20
25.8954824273564
 30
0.0
 11
34.63374511450461
 21
25.87842205990233
 31
0.0
  0
LINE
  5
2DCD
330
1E
100
AcDbEntity
  8
7
100
AcDbLine
 10
33.34109419586944
 20
25.20388137748763
 30
0.0
 11
33.34896821161748
 21
25.17369765045351
 31
0.0
  0
LINE
  5
2DCE
330
1E
100
AcDbEntity
  8
7
100
AcDbLine
 10
33.34896821161748
 20
25.17369765045351
 30
0.0
 11
33.36996558694556
 21
25.15138793916742
 31
0.0
  0
LINE
  5
2DCF
330
1E
100
AcDbEntity
  8
7
100
AcDbLine
 10
33.36996558694556
 20
25.15138793916742
 30
0.0
 11
33.40014931397969
 21
25.14351392341939
 31
0.0
  0
LINE
  5
2DD0
330
1E
100
AcDbEntity
  8
7
100
AcDbLine
 10
36.02482122999019
 20
25.14351392341939
 30
0.0
 11
36.0536926210663
 21
25.15138793916742
 31
0.0
  0
LINE
  5
2DD1
330
1E
100
AcDbEntity
  8
7
100
AcDbLine
 10
36.0536926210663
 20
25.15138793916742
 30
0.0
 11
36.07600233235238
 21
25.17369765045351
 31
0.0
  0
LINE
  5
2DD2
330
1E
100
AcDbEntity
  8
7
100
AcDbLine
 10
36.07600233235238
 20
25.17369765045351
 30
0.0
 11
36.08387634810041
 21
25.20388137748763
 31
0.0
  0
LINE
  5
2DD3
330
1E
100
AcDbEntity
  8
7
100
AcDbLine
 10
36.02482122999019
 20
25.14351392341939
 30
0.0
 11
36.01957188615816
 21
25.15007560320941
 31
0.0
  0
LINE
  5
2DD4
330
1E
100
AcDbEntity
  8
7
100
AcDbLine
 10
36.01957188615816
 20
25.15007560320941
 30
0.0
 11
36.00907319849413
 21
25.16451129874747
 31
0.0
  0
LINE
  5
2DD5
330
1E
100
AcDbEntity
  8
7
100
AcDbLine
 10
36.00907319849413
 20
25.16451129874747
 30
0.0
 11
35.99332516699805
 21
25.18550867407556
 31
0.0
  0
LINE
  5
2DD6
330
1E
100
AcDbEntity
  8
7
100
AcDbLine
 10
35.99332516699805
 20
25.18550867407556
 30
0.0
 11
35.97232779166997
 21
25.21438006515167
 31
0.0
  0
LINE
  5
2DD7
330
1E
100
AcDbEntity
  8
7
100
AcDbLine
 10
35.97232779166997
 20
25.21438006515167
 30
0.0
 11
35.94870574442587
 21
25.2471884641018
 31
0.0
  0
LINE
  5
2DD8
330
1E
100
AcDbEntity
  8
7
100
AcDbLine
 10
35.94870574442587
 20
25.2471884641018
 30
0.0
 11
35.92114668930777
 21
25.28524620688395
 31
0.0
  0
LINE
  5
2DD9
330
1E
100
AcDbEntity
  8
7
100
AcDbLine
 10
35.92114668930777
 20
25.28524620688395
 30
0.0
 11
35.89096296227365
 21
25.32592862158212
 31
0.0
  0
LINE
  5
2DDA
330
1E
100
AcDbEntity
  8
7
100
AcDbLine
 10
35.89096296227365
 20
25.32592862158212
 30
0.0
 11
35.85946689928152
 21
25.36923570819629
 31
0.0
  0
LINE
  5
2DDB
330
1E
100
AcDbEntity
  8
7
100
AcDbLine
 10
33.56550364468835
 20
25.36923570819629
 30
0.0
 11
33.53400758169622
 21
25.32592862158212
 31
0.0
  0
LINE
  5
2DDC
330
1E
100
AcDbEntity
  8
7
100
AcDbLine
 10
33.53400758169622
 20
25.32592862158212
 30
0.0
 11
33.5038238546621
 21
25.28524620688395
 31
0.0
  0
LINE
  5
2DDD
330
1E
100
AcDbEntity
  8
7
100
AcDbLine
 10
33.5038238546621
 20
25.28524620688395
 30
0.0
 11
33.47626479954399
 21
25.2471884641018
 31
0.0
  0
LINE
  5
2DDE
330
1E
100
AcDbEntity
  8
7
100
AcDbLine
 10
33.47626479954399
 20
25.2471884641018
 30
0.0
 11
33.45133041634189
 21
25.21438006515167
 31
0.0
  0
LINE
  5
2DDF
330
1E
100
AcDbEntity
  8
7
100
AcDbLine
 10
33.45133041634189
 20
25.21438006515167
 30
0.0
 11
33.43164537697181
 21
25.18550867407556
 31
0.0
  0
LINE
  5
2DE0
330
1E
100
AcDbEntity
  8
7
100
AcDbLine
 10
33.43164537697181
 20
25.18550867407556
 30
0.0
 11
33.41589734547575
 21
25.16451129874747
 31
0.0
  0
LINE
  5
2DE1
330
1E
100
AcDbEntity
  8
7
100
AcDbLine
 10
33.41589734547575
 20
25.16451129874747
 30
0.0
 11
33.4053986578117
 21
25.15007560320941
 31
0.0
  0
LINE
  5
2DE2
330
1E
100
AcDbEntity
  8
7
100
AcDbLine
 10
33.4053986578117
 20
25.15007560320941
 30
0.0
 11
33.40014931397969
 21
25.14351392341939
 31
0.0
  0
LINE
  5
2DE3
330
1E
100
AcDbEntity
  8
7
100
AcDbLine
 10
34.65736716174872
 20
25.79968190242201
 30
0.0
 11
34.64030679429465
 21
25.76818583942989
 31
0.0
  0
LINE
  5
2DE4
330
1E
100
AcDbEntity
  8
7
100
AcDbLine
 10
34.64030679429465
 20
25.76818583942989
 30
0.0
 11
34.64030679429465
 21
25.73144043260574
 31
0.0
  0
LINE
  5
2DE5
330
1E
100
AcDbEntity
  8
7
100
AcDbLine
 10
34.64030679429465
 20
25.73144043260574
 30
0.0
 11
34.65736716174872
 21
25.69994436961361
 31
0.0
  0
LINE
  5
2DE6
330
1E
100
AcDbEntity
  8
7
100
AcDbLine
 10
34.65736716174872
 20
25.69994436961361
 30
0.0
 11
34.68230154495081
 21
25.68157166620153
 31
0.0
  0
LINE
  5
2DE7
330
1E
100
AcDbEntity
  8
7
100
AcDbLine
 10
34.68230154495081
 20
25.68157166620153
 30
0.0
 11
34.71248527198493
 21
25.67500998641151
 31
0.0
  0
LINE
  5
2DE8
330
1E
100
AcDbEntity
  8
7
100
AcDbLine
 10
34.71248527198493
 20
25.67500998641151
 30
0.0
 11
34.74266899901905
 21
25.68157166620153
 31
0.0
  0
LINE
  5
2DE9
330
1E
100
AcDbEntity
  8
7
100
AcDbLine
 10
34.74266899901905
 20
25.68157166620153
 30
0.0
 11
34.76760338222116
 21
25.69994436961361
 31
0.0
  0
LINE
  5
2DEA
330
1E
100
AcDbEntity
  8
7
100
AcDbLine
 10
34.78466374967522
 20
25.73144043260574
 30
0.0
 11
34.78466374967522
 21
25.76818583942989
 31
0.0
  0
LINE
  5
2DEB
330
1E
100
AcDbEntity
  8
7
100
AcDbLine
 10
34.78466374967522
 20
25.76818583942989
 30
0.0
 11
34.76760338222116
 21
25.79968190242201
 31
0.0
  0
LINE
  5
2DEC
330
1E
100
AcDbEntity
  8
7
100
AcDbLine
 10
34.76760338222116
 20
25.79968190242201
 30
0.0
 11
34.74266899901905
 21
25.81805460583408
 31
0.0
  0
LINE
  5
2DED
330
1E
100
AcDbEntity
  8
7
100
AcDbLine
 10
34.74266899901905
 20
25.81805460583408
 30
0.0
 11
34.71248527198493
 21
25.82461628562411
 31
0.0
  0
LINE
  5
2DEE
330
1E
100
AcDbEntity
  8
7
100
AcDbLine
 10
34.71248527198493
 20
25.82461628562411
 30
0.0
 11
34.68230154495081
 21
25.81805460583408
 31
0.0
  0
LINE
  5
2DEF
330
1E
100
AcDbEntity
  8
7
100
AcDbLine
 10
34.68230154495081
 20
25.81805460583408
 30
0.0
 11
34.65736716174872
 21
25.79968190242201
 31
0.0
  0
LINE
  5
2DF0
330
1E
100
AcDbEntity
  8
7
100
AcDbLine
 10
34.65736716174872
 20
29.08052179743513
 30
0.0
 11
34.64030679429465
 21
29.04902573444301
 31
0.0
  0
LINE
  5
2DF1
330
1E
100
AcDbEntity
  8
7
100
AcDbLine
 10
34.64030679429465
 20
29.04902573444301
 30
0.0
 11
34.64030679429465
 21
29.01228032761886
 31
0.0
  0
LINE
  5
2DF2
330
1E
100
AcDbEntity
  8
7
100
AcDbLine
 10
34.64030679429465
 20
29.01228032761886
 30
0.0
 11
34.65736716174872
 21
28.98078426462673
 31
0.0
  0
LINE
  5
2DF3
330
1E
100
AcDbEntity
  8
7
100
AcDbLine
 10
34.65736716174872
 20
28.98078426462673
 30
0.0
 11
34.68230154495081
 21
28.96241156121466
 31
0.0
  0
LINE
  5
2DF4
330
1E
100
AcDbEntity
  8
7
100
AcDbLine
 10
34.68230154495081
 20
28.96241156121466
 30
0.0
 11
34.71248527198493
 21
28.95584988142463
 31
0.0
  0
LINE
  5
2DF5
330
1E
100
AcDbEntity
  8
7
100
AcDbLine
 10
34.71248527198493
 20
28.95584988142463
 30
0.0
 11
34.74266899901905
 21
28.96241156121466
 31
0.0
  0
LINE
  5
2DF6
330
1E
100
AcDbEntity
  8
7
100
AcDbLine
 10
34.74266899901905
 20
28.96241156121466
 30
0.0
 11
34.76760338222116
 21
28.98078426462673
 31
0.0
  0
LINE
  5
2DF7
330
1E
100
AcDbEntity
  8
7
100
AcDbLine
 10
34.76760338222116
 20
28.98078426462673
 30
0.0
 11
34.78466374967522
 21
29.01228032761886
 31
0.0
  0
LINE
  5
2DF8
330
1E
100
AcDbEntity
  8
7
100
AcDbLine
 10
34.78466374967522
 20
29.01228032761886
 30
0.0
 11
34.78466374967522
 21
29.04902573444301
 31
0.0
  0
LINE
  5
2DF9
330
1E
100
AcDbEntity
  8
7
100
AcDbLine
 10
34.78466374967522
 20
29.04902573444301
 30
0.0
 11
34.76760338222116
 21
29.08052179743513
 31
0.0
  0
LINE
  5
2DFA
330
1E
100
AcDbEntity
  8
7
100
AcDbLine
 10
34.76760338222116
 20
29.08052179743513
 30
0.0
 11
34.74266899901905
 21
29.09889450084721
 31
0.0
  0
LINE
  5
2DFB
330
1E
100
AcDbEntity
  8
7
100
AcDbLine
 10
34.74266899901905
 20
29.09889450084721
 30
0.0
 11
34.71248527198493
 21
29.10545618063723
 31
0.0
  0
LINE
  5
2DFC
330
1E
100
AcDbEntity
  8
7
100
AcDbLine
 10
34.71248527198493
 20
29.10545618063723
 30
0.0
 11
34.68230154495081
 21
29.09889450084721
 31
0.0
  0
LINE
  5
2DFD
330
1E
100
AcDbEntity
  8
7
100
AcDbLine
 10
33.36077923523953
 20
25.21831707302569
 30
0.0
 11
33.38177661056761
 21
25.23406510452175
 31
0.0
  0
LINE
  5
2DFE
330
1E
100
AcDbEntity
  8
7
100
AcDbLine
 10
33.38177661056761
 20
25.23406510452175
 30
0.0
 11
33.41064800164373
 21
25.25506247984983
 31
0.0
  0
LINE
  5
2DFF
330
1E
100
AcDbEntity
  8
7
100
AcDbLine
 10
33.41064800164373
 20
25.25506247984983
 30
0.0
 11
33.44345640059386
 21
25.27999686305193
 31
0.0
  0
LINE
  5
2E00
330
1E
100
AcDbEntity
  8
7
100
AcDbLine
 10
33.44345640059386
 20
25.27999686305193
 30
0.0
 11
33.48151414337602
 21
25.30755591817004
 31
0.0
  0
LINE
  5
2E01
330
1E
100
AcDbEntity
  8
7
100
AcDbLine
 10
33.48151414337602
 20
25.30755591817004
 30
0.0
 11
33.52219655807417
 21
25.33773964520416
 31
0.0
  0
LINE
  5
2E02
330
1E
100
AcDbEntity
  8
7
100
AcDbLine
 10
33.52219655807417
 20
25.33773964520416
 30
0.0
 11
33.56550364468835
 21
25.36923570819629
 31
0.0
  0
LINE
  5
2E03
330
1E
100
AcDbEntity
  8
7
100
AcDbLine
 10
33.34109419586944
 20
25.20388137748763
 30
0.0
 11
33.34634353970148
 21
25.20781838536164
 31
0.0
  0
LINE
  5
2E04
330
1E
100
AcDbEntity
  8
7
100
AcDbLine
 10
33.34634353970148
 20
25.20781838536164
 30
0.0
 11
33.36077923523953
 21
25.21831707302569
 31
0.0
  0
LINE
  5
2E05
330
1E
100
AcDbEntity
  8
7
100
AcDbLine
 10
36.06419130873034
 20
25.21831707302569
 30
0.0
 11
36.07731466831039
 21
25.20781838536164
 31
0.0
  0
LINE
  5
2E06
330
1E
100
AcDbEntity
  8
7
100
AcDbLine
 10
36.07731466831039
 20
25.20781838536164
 30
0.0
 11
36.08387634810041
 21
25.20388137748763
 31
0.0
  0
LINE
  5
2E07
330
1E
100
AcDbEntity
  8
7
100
AcDbLine
 10
35.85946689928152
 20
25.36923570819629
 30
0.0
 11
35.90146164993769
 21
25.33773964520416
 31
0.0
  0
LINE
  5
2E08
330
1E
100
AcDbEntity
  8
7
100
AcDbLine
 10
35.90146164993769
 20
25.33773964520416
 30
0.0
 11
35.94214406463585
 21
25.30755591817004
 31
0.0
  0
LINE
  5
2E09
330
1E
100
AcDbEntity
  8
7
100
AcDbLine
 10
35.94214406463585
 20
25.30755591817004
 30
0.0
 11
35.980201807418
 21
25.27999686305193
 31
0.0
  0
LINE
  5
2E0A
330
1E
100
AcDbEntity
  8
7
100
AcDbLine
 10
35.980201807418
 20
25.27999686305193
 30
0.0
 11
36.01432254232614
 21
25.25506247984983
 31
0.0
  0
LINE
  5
2E0B
330
1E
100
AcDbEntity
  8
7
100
AcDbLine
 10
36.01432254232614
 20
25.25506247984983
 30
0.0
 11
36.04188159744425
 21
25.23406510452175
 31
0.0
  0
LINE
  5
2E0C
330
1E
100
AcDbEntity
  8
7
100
AcDbLine
 10
36.04188159744425
 20
25.23406510452175
 30
0.0
 11
36.06419130873034
 21
25.21831707302569
 31
0.0
  0
LINE
  5
2E0D
330
1E
100
AcDbEntity
  8
7
100
AcDbLine
 10
36.08387634810041
 20
29.57789712551912
 30
0.0
 11
36.07600233235238
 21
29.60808085255324
 31
0.0
  0
LINE
  5
2E0E
330
1E
100
AcDbEntity
  8
7
100
AcDbLine
 10
36.07600233235238
 20
29.60808085255324
 30
0.0
 11
36.0536926210663
 21
29.62907822788133
 31
0.0
  0
LINE
  5
2E0F
330
1E
100
AcDbEntity
  8
7
100
AcDbLine
 10
36.0536926210663
 20
29.62907822788133
 30
0.0
 11
36.02482122999019
 21
29.63695224362936
 31
0.0
  0
LINE
  5
2E10
330
1E
100
AcDbEntity
  8
7
100
AcDbLine
 10
36.08387634810041
 20
29.57789712551912
 30
0.0
 11
36.07731466831039
 21
29.5726477816871
 31
0.0
  0
LINE
  5
2E11
330
1E
100
AcDbEntity
  8
7
100
AcDbLine
 10
36.07731466831039
 20
29.5726477816871
 30
0.0
 11
36.06419130873034
 21
29.56214909402306
 31
0.0
  0
LINE
  5
2E12
330
1E
100
AcDbEntity
  8
7
100
AcDbLine
 10
36.06419130873034
 20
29.56214909402306
 30
0.0
 11
36.04188159744425
 21
29.546401062527
 31
0.0
  0
LINE
  5
2E13
330
1E
100
AcDbEntity
  8
7
100
AcDbLine
 10
36.04188159744425
 20
29.546401062527
 30
0.0
 11
36.01432254232614
 21
29.52671602315692
 31
0.0
  0
LINE
  5
2E14
330
1E
100
AcDbEntity
  8
7
100
AcDbLine
 10
36.01432254232614
 20
29.52671602315692
 30
0.0
 11
35.980201807418
 21
29.50178163995482
 31
0.0
  0
LINE
  5
2E15
330
1E
100
AcDbEntity
  8
7
100
AcDbLine
 10
35.980201807418
 20
29.50178163995482
 30
0.0
 11
35.94214406463585
 21
29.47422258483671
 31
0.0
  0
LINE
  5
2E16
330
1E
100
AcDbEntity
  8
7
100
AcDbLine
 10
35.94214406463585
 20
29.47422258483671
 30
0.0
 11
35.90146164993769
 21
29.44403885780259
 31
0.0
  0
LINE
  5
2E17
330
1E
100
AcDbEntity
  8
7
100
AcDbLine
 10
35.85946689928152
 20
29.41254279481046
 30
0.0
 11
35.89096296227365
 21
29.45584988142463
 31
0.0
  0
LINE
  5
2E18
330
1E
100
AcDbEntity
  8
7
100
AcDbLine
 10
35.89096296227365
 20
29.45584988142463
 30
0.0
 11
35.92114668930777
 21
29.49653229612279
 31
0.0
  0
LINE
  5
2E19
330
1E
100
AcDbEntity
  8
7
100
AcDbLine
 10
35.92114668930777
 20
29.49653229612279
 30
0.0
 11
35.94870574442587
 21
29.53459003890495
 31
0.0
  0
LINE
  5
2E1A
330
1E
100
AcDbEntity
  8
7
100
AcDbLine
 10
35.94870574442587
 20
29.53459003890495
 30
0.0
 11
35.97232779166997
 21
29.56739843785508
 31
0.0
  0
LINE
  5
2E1B
330
1E
100
AcDbEntity
  8
7
100
AcDbLine
 10
35.97232779166997
 20
29.56739843785508
 30
0.0
 11
35.99332516699805
 21
29.59626982893119
 31
0.0
  0
LINE
  5
2E1C
330
1E
100
AcDbEntity
  8
7
100
AcDbLine
 10
35.99332516699805
 20
29.59626982893119
 30
0.0
 11
36.00907319849413
 21
29.61726720425928
 31
0.0
  0
LINE
  5
2E1D
330
1E
100
AcDbEntity
  8
7
100
AcDbLine
 10
36.00907319849413
 20
29.61726720425928
 30
0.0
 11
36.01957188615816
 21
29.63170289979734
 31
0.0
  0
LINE
  5
2E1E
330
1E
100
AcDbEntity
  8
7
100
AcDbLine
 10
36.01957188615816
 20
29.63170289979734
 30
0.0
 11
36.02482122999019
 21
29.63695224362936
 31
0.0
  0
LINE
  5
2E1F
330
1E
100
AcDbEntity
  8
7
100
AcDbLine
 10
33.41064800164373
 20
29.52671602315692
 30
0.0
 11
33.44345640059386
 21
29.50178163995482
 31
0.0
  0
LINE
  5
2E20
330
1E
100
AcDbEntity
  8
7
100
AcDbLine
 10
33.44345640059386
 20
29.50178163995482
 30
0.0
 11
33.48151414337602
 21
29.47422258483671
 31
0.0
  0
LINE
  5
2E21
330
1E
100
AcDbEntity
  8
7
100
AcDbLine
 10
33.48151414337602
 20
29.47422258483671
 30
0.0
 11
33.52219655807417
 21
29.44403885780259
 31
0.0
  0
LINE
  5
2E22
330
1E
100
AcDbEntity
  8
7
100
AcDbLine
 10
33.52219655807417
 20
29.44403885780259
 30
0.0
 11
33.56550364468835
 21
29.41254279481046
 31
0.0
  0
LINE
  5
2E23
330
1E
100
AcDbEntity
  8
7
100
AcDbLine
 10
33.34109419586944
 20
29.57789712551912
 30
0.0
 11
33.34634353970148
 21
29.5726477816871
 31
0.0
  0
LINE
  5
2E24
330
1E
100
AcDbEntity
  8
7
100
AcDbLine
 10
33.34634353970148
 20
29.5726477816871
 30
0.0
 11
33.36077923523953
 21
29.56214909402306
 31
0.0
  0
LINE
  5
2E25
330
1E
100
AcDbEntity
  8
7
100
AcDbLine
 10
33.36077923523953
 20
29.56214909402306
 30
0.0
 11
33.38177661056761
 21
29.546401062527
 31
0.0
  0
LINE
  5
2E26
330
1E
100
AcDbEntity
  8
7
100
AcDbLine
 10
33.38177661056761
 20
29.546401062527
 30
0.0
 11
33.41064800164373
 21
29.52671602315692
 31
0.0
  0
LINE
  5
2E27
330
1E
100
AcDbEntity
  8
7
100
AcDbLine
 10
33.34109419586944
 20
29.57789712551912
 30
0.0
 11
33.34896821161748
 21
29.60808085255324
 31
0.0
  0
LINE
  5
2E28
330
1E
100
AcDbEntity
  8
7
100
AcDbLine
 10
33.34896821161748
 20
29.60808085255324
 30
0.0
 11
33.36996558694556
 21
29.62907822788133
 31
0.0
  0
LINE
  5
2E29
330
1E
100
AcDbEntity
  8
7
100
AcDbLine
 10
33.36996558694556
 20
29.62907822788133
 30
0.0
 11
33.40014931397969
 21
29.63695224362936
 31
0.0
  0
LINE
  5
2E2A
330
1E
100
AcDbEntity
  8
7
100
AcDbLine
 10
33.45133041634189
 20
29.56739843785508
 30
0.0
 11
33.43164537697181
 21
29.59626982893119
 31
0.0
  0
LINE
  5
2E2B
330
1E
100
AcDbEntity
  8
7
100
AcDbLine
 10
33.43164537697181
 20
29.59626982893119
 30
0.0
 11
33.41589734547575
 21
29.61726720425928
 31
0.0
  0
LINE
  5
2E2C
330
1E
100
AcDbEntity
  8
7
100
AcDbLine
 10
33.41589734547575
 20
29.61726720425928
 30
0.0
 11
33.4053986578117
 21
29.63170289979734
 31
0.0
  0
LINE
  5
2E2D
330
1E
100
AcDbEntity
  8
7
100
AcDbLine
 10
33.4053986578117
 20
29.63170289979734
 30
0.0
 11
33.40014931397969
 21
29.63695224362936
 31
0.0
  0
LINE
  5
2E2E
330
1E
100
AcDbEntity
  8
7
100
AcDbLine
 10
33.56550364468835
 20
29.41254279481046
 30
0.0
 11
33.53400758169622
 21
29.45584988142463
 31
0.0
  0
LINE
  5
2E2F
330
1E
100
AcDbEntity
  8
7
100
AcDbLine
 10
33.53400758169622
 20
29.45584988142463
 30
0.0
 11
33.5038238546621
 21
29.49653229612279
 31
0.0
  0
LINE
  5
2E30
330
1E
100
AcDbEntity
  8
7
100
AcDbLine
 10
33.5038238546621
 20
29.49653229612279
 30
0.0
 11
33.47626479954399
 21
29.53459003890495
 31
0.0
  0
LINE
  5
2E31
330
1E
100
AcDbEntity
  8
7
100
AcDbLine
 10
33.47626479954399
 20
29.53459003890495
 30
0.0
 11
33.45133041634189
 21
29.56739843785508
 31
0.0
  0
ENDSEC
  0
SECTION
  2
OBJECTS
  0
DICTIONARY
  5
C
330
0
100
AcDbDictionary
  3
ACAD_GROUP
350
D
  3
ACAD_MLINESTYLE
350
16
  3
ACAD_PLOTSETTINGS
350
18
  3
ACAD_LAYOUT
350
19
1001
ACAD
1000
TREAT_AS_HARD
1070
     0
  0
DICTIONARY
  5
3F84
330
1E
100
AcDbDictionary
  3
ACAD_LAYOUTSELFREF
350
3F85
  0
DICTIONARY
  5
3F82
330
1A
100
AcDbDictionary
  3
ACAD_LAYOUTSELFREF
350
3F83
  0
DICTIONARY
  5
D
102
{ACAD_REACTORS
330
C
102
}
330
C
100
AcDbDictionary
1001
ACAD
1000
TREAT_AS_HARD
1070
     0
  0
DICTIONARY
  5
16
102
{ACAD_REACTORS
330
C
102
}
330
C
100
AcDbDictionary
  3
STANDARD
350
17
1001
ACAD
1000
TREAT_AS_HARD
1070
     0
  0
DICTIONARY
  5
18
102
{ACAD_REACTORS
330
C
102
}
330
C
100
AcDbDictionary
1001
ACAD
1000
TREAT_AS_HARD
1070
     0
  0
DICTIONARY
  5
19
102
{ACAD_REACTORS
330
C
102
}
330
C
100
AcDbDictionary
1001
ACAD
1000
TREAT_AS_HARD
1070
     0
  0
XRECORD
  5
3F85
102
{ACAD_REACTORS
330
3F84
102
}
330
3F84
100
AcDbXrecord
340
1E
  0
XRECORD
  5
3F83
102
{ACAD_REACTORS
330
3F82
102
}
330
3F82
100
AcDbXrecord
340
1A
  0
MLINESTYLE
  5
17
102
{ACAD_REACTORS
330
16
102
}
330
16
100
AcDbMlineStyle
  2
STANDARD
 70
     0
  3

 62
   256
 51
90.0
 52
90.0
 71
     2
 49
0.5
 62
   256
  6
BYLAYER
 49
-0.5
 62
   256
  6
BYLAYER
  0
ENDSEC
  0
EOF
