  0
SECTION
  2
HEADER
  9
$ACADVER
  1
AC1012
  9
$DWGCODEPAGE
  3
ANSI_1252
  9
$INSBASE
 10
0.0
 20
0.0
 30
0.0
  9
$EXTMIN
 10
0.1052539316104362
 20
2.895034803267653
 30
0.0
  9
$EXTMAX
 10
5.058009837122243
 20
7.438341889881822
 30
0.0
  9
$LIMMIN
 10
0.0
 20
0.0
  9
$LIMMAX
 10
12.0
 20
9.0
  9
$ORTHOMODE
 70
     0
  9
$REGENMODE
 70
     1
  9
$FILLMODE
 70
     1
  9
$QTEXTMODE
 70
     0
  9
$MIRRTEXT
 70
     1
  9
$DRAGMODE
 70
     2
  9
$LTSCALE
 40
1.0
  9
$OSMODE
 70
   547
  9
$ATTMODE
 70
     1
  9
$TEXTSIZE
 40
0.2
  9
$TRACEWID
 40
0.05
  9
$TEXTSTYLE
  7
STANDARD
  9
$CLAYER
  8
0
  9
$CELTYPE
  6
BYLAYER
  9
$CECOLOR
 62
   256
  9
$CELTSCALE
 40
1.0
  9
$DELOBJ
 70
     1
  9
$DISPSILH
 70
     0
  9
$DIMSCALE
 40
1.0
  9
$DIMASZ
 40
0.18
  9
$DIMEXO
 40
0.0625
  9
$DIMDLI
 40
0.38
  9
$DIMRND
 40
0.0
  9
$DIMDLE
 40
0.0
  9
$DIMEXE
 40
0.18
  9
$DIMTP
 40
0.0
  9
$DIMTM
 40
0.0
  9
$DIMTXT
 40
0.18
  9
$DIMCEN
 40
0.09
  9
$DIMTSZ
 40
0.0
  9
$DIMTOL
 70
     0
  9
$DIMLIM
 70
     0
  9
$DIMTIH
 70
     1
  9
$DIMTOH
 70
     1
  9
$DIMSE1
 70
     0
  9
$DIMSE2
 70
     0
  9
$DIMTAD
 70
     0
  9
$DIMZIN
 70
     0
  9
$DIMBLK
  1

  9
$DIMASO
 70
     1
  9
$DIMSHO
 70
     1
  9
$DIMPOST
  1

  9
$DIMAPOST
  1

  9
$DIMALT
 70
     0
  9
$DIMALTD
 70
     2
  9
$DIMALTF
 40
25.4
  9
$DIMLFAC
 40
1.0
  9
$DIMTOFL
 70
     0
  9
$DIMTVP
 40
0.0
  9
$DIMTIX
 70
     0
  9
$DIMSOXD
 70
     0
  9
$DIMSAH
 70
     0
  9
$DIMBLK1
  1

  9
$DIMBLK2
  1

  9
$DIMSTYLE
  2
STANDARD
  9
$DIMCLRD
 70
     0
  9
$DIMCLRE
 70
     0
  9
$DIMCLRT
 70
     0
  9
$DIMTFAC
 40
1.0
  9
$DIMGAP
 40
0.09
  9
$DIMJUST
 70
     0
  9
$DIMSD1
 70
     0
  9
$DIMSD2
 70
     0
  9
$DIMTOLJ
 70
     1
  9
$DIMTZIN
 70
     0
  9
$DIMALTZ
 70
     0
  9
$DIMALTTZ
 70
     0
  9
$DIMFIT
 70
     5
  9
$DIMUPT
 70
     0
  9
$DIMUNIT
 70
     2
  9
$DIMDEC
 70
     4
  9
$DIMTDEC
 70
     4
  9
$DIMALTU
 70
     2
  9
$DIMALTTD
 70
     2
  9
$DIMTXSTY
  7
STANDARD
  9
$DIMAUNIT
 70
     0
  9
$LUNITS
 70
     2
  9
$LUPREC
 70
     4
  9
$SKETCHINC
 40
0.1
  9
$FILLETRAD
 40
0.0
  9
$AUNITS
 70
     0
  9
$AUPREC
 70
     0
  9
$MENU
  1
acad
  9
$ELEVATION
 40
0.0
  9
$PELEVATION
 40
0.0
  9
$THICKNESS
 40
0.0
  9
$LIMCHECK
 70
     0
  9
$BLIPMODE
 70
     0
  9
$CHAMFERA
 40
0.0
  9
$CHAMFERB
 40
0.0
  9
$CHAMFERC
 40
0.0
  9
$CHAMFERD
 40
0.0
  9
$SKPOLY
 70
     0
  9
$TDCREATE
 40
2452569.387615740
  9
$TDUPDATE
 40
2453776.653792939
  9
$TDINDWG
 40
0.0059004398
  9
$TDUSRTIMER
 40
0.0059004398
  9
$USRTIMER
 70
     1
  9
$ANGBASE
 50
0.0
  9
$ANGDIR
 70
     0
  9
$PDMODE
 70
     0
  9
$PDSIZE
 40
0.0
  9
$PLINEWID
 40
0.0
  9
$COORDS
 70
     1
  9
$SPLFRAME
 70
     0
  9
$SPLINETYPE
 70
     6
  9
$SPLINESEGS
 70
     8
  9
$ATTDIA
 70
     0
  9
$ATTREQ
 70
     1
  9
$HANDLING
 70
  4097
  9
$HANDSEED
  5
4082
  9
$SURFTAB1
 70
     6
  9
$SURFTAB2
 70
     6
  9
$SURFTYPE
 70
     6
  9
$SURFU
 70
     6
  9
$SURFV
 70
     6
  9
$UCSNAME
  2

  9
$UCSORG
 10
0.0
 20
0.0
 30
0.0
  9
$UCSXDIR
 10
1.0
 20
0.0
 30
0.0
  9
$UCSYDIR
 10
0.0
 20
1.0
 30
0.0
  9
$PUCSNAME
  2

  9
$PUCSORG
 10
0.0
 20
0.0
 30
0.0
  9
$PUCSXDIR
 10
1.0
 20
0.0
 30
0.0
  9
$PUCSYDIR
 10
0.0
 20
1.0
 30
0.0
  9
$USERI1
 70
     0
  9
$USERI2
 70
     0
  9
$USERI3
 70
     0
  9
$USERI4
 70
     0
  9
$USERI5
 70
     0
  9
$USERR1
 40
0.0
  9
$USERR2
 40
0.0
  9
$USERR3
 40
0.0
  9
$USERR4
 40
0.0
  9
$USERR5
 40
0.0
  9
$WORLDVIEW
 70
     1
  9
$SHADEDGE
 70
     3
  9
$SHADEDIF
 70
    70
  9
$TILEMODE
 70
     1
  9
$MAXACTVP
 70
    16
  9
$PINSBASE
 10
0.0
 20
0.0
 30
0.0
  9
$PLIMCHECK
 70
     0
  9
$PEXTMIN
 10
1.000000000000000E+20
 20
1.000000000000000E+20
 30
1.000000000000000E+20
  9
$PEXTMAX
 10
-1.000000000000000E+20
 20
-1.000000000000000E+20
 30
-1.000000000000000E+20
  9
$PLIMMIN
 10
0.0
 20
0.0
  9
$PLIMMAX
 10
12.0
 20
9.0
  9
$UNITMODE
 70
     0
  9
$VISRETAIN
 70
     0
  9
$PLINEGEN
 70
     0
  9
$PSLTSCALE
 70
     1
  9
$TREEDEPTH
 70
  3020
  9
$PICKSTYLE
 70
     1
  9
$CMLSTYLE
  2
STANDARD
  9
$CMLJUST
 70
     0
  9
$CMLSCALE
 40
1.0
  9
$SAVEIMAGES
 70
     1
  0
ENDSEC
  0
SECTION
  2
CLASSES
  0
CLASS
  1
ACDBDICTIONARYWDFLT
  2
AcDbDictionaryWithDefault
  3
AutoCAD 2000
 90
    32768
280
     0
281
     0
  0
CLASS
  1
ACDBPLACEHOLDER
  2
AcDbPlaceHolder
  3
AutoCAD 2000
 90
    32768
280
     0
281
     0
  0
CLASS
  1
LAYOUT
  2
AcDbLayout
  3
AutoCAD 2000
 90
    32768
280
     0
281
     0
  0
CLASS
  1
LONG_TRANSACTION
  2
AcDbLongTransaction
  3
AutoCAD 2000
 90
    32768
280
     0
281
     0
  0
CLASS
  1
LWPOLYLINE
  2
AcDbPolyline
  3
AutoCAD 2000
 90
    32768
280
     0
281
     1
  0
CLASS
  1
HATCH
  2
AcDbHatch
  3
AutoCAD 2000
 90
    32768
280
     0
281
     1
  0
CLASS
  1
XRECORD
  2
AcDbXrecord
  3
AutoCAD 2000
 90
    32768
280
     0
281
     0
  0
CLASS
  1
LONG_TRANSACTION
  2
AcDbLongTransaction
  3
AutoCAD 2000
 90
    32768
280
     0
281
     0
  0
CLASS
  1
LWPOLYLINE
  2
AcDbPolyline
  3
AutoCAD 2000
 90
    32768
280
     0
281
     1
  0
CLASS
  1
HATCH
  2
AcDbHatch
  3
AutoCAD 2000
 90
    32768
280
     0
281
     1
  0
CLASS
  1
XRECORD
  2
AcDbXrecord
  3
AutoCAD 2000
 90
    32768
280
     0
281
     0
  0
ENDSEC
  0
SECTION
  2
TABLES
  0
TABLE
  2
VPORT
  5
8
330
0
100
AcDbSymbolTable
 70
     2
  0
VPORT
  5
407F
330
8
100
AcDbSymbolTableRecord
100
AcDbViewportTableRecord
  2
*ACTIVE
 70
     0
 10
0.0
 20
0.0
 11
1.0
 21
1.0
 12
2.854046173347692
 22
5.166732809816874
 13
0.0
 23
0.0
 14
1.0
 24
1.0
 15
0.0
 25
0.0
 16
0.0
 26
0.0
 36
1.0
 17
0.0
 27
0.0
 37
0.0
 40
4.583055044990794
 41
1.740671641791044
 42
50.0
 43
0.0
 44
0.0
 50
0.0
 51
0.0
 71
     0
 72
   100
 73
     1
 74
     1
 75
     0
 76
     0
 77
     0
 78
     0
  0
ENDTAB
  0
TABLE
  2
LTYPE
  5
5
330
0
100
AcDbSymbolTable
 70
    25
  0
LTYPE
  5
13
330
5
100
AcDbSymbolTableRecord
100
AcDbLinetypeTableRecord
  2
BYBLOCK
 70
     0
  3

 72
    65
 73
     0
 40
0.0
  0
LTYPE
  5
14
330
5
100
AcDbSymbolTableRecord
100
AcDbLinetypeTableRecord
  2
BYLAYER
 70
     0
  3

 72
    65
 73
     0
 40
0.0
  0
LTYPE
  5
15
330
5
100
AcDbSymbolTableRecord
100
AcDbLinetypeTableRecord
  2
CONTINUOUS
 70
     0
  3
Solid line
 72
    65
 73
     0
 40
0.0
  0
LTYPE
  5
22
330
5
100
AcDbSymbolTableRecord
100
AcDbLinetypeTableRecord
  2
BORDER
 70
     0
  3
__ __ . __ __ . __ __ . __ __ . __ __ . __ __ .
 72
    65
 73
     6
 40
1.75
 49
0.5
 74
     0
 49
-0.25
 74
     0
 49
0.5
 74
     0
 49
-0.25
 74
     0
 49
0.5
 74
     0
 49
-0.25
 74
     0
  0
LTYPE
  5
23
330
5
100
AcDbSymbolTableRecord
100
AcDbLinetypeTableRecord
  2
BORDER2
 70
     0
  3
__.__.__.__.__.__.__.__.__.__.__.__.__.__.__.__
 72
    65
 73
     6
 40
0.875
 49
0.25
 74
     0
 49
-0.125
 74
     0
 49
0.25
 74
     0
 49
-0.125
 74
     0
 49
0.25
 74
     0
 49
-0.125
 74
     0
  0
LTYPE
  5
24
330
5
100
AcDbSymbolTableRecord
100
AcDbLinetypeTableRecord
  2
BORDERX2
 70
     0
  3
____  ____  .  ____  ____  .  
 72
    65
 73
     6
 40
3.5
 49
1.0
 74
     0
 49
-0.5
 74
     0
 49
1.0
 74
     0
 49
-0.5
 74
     0
 49
1.0
 74
     0
 49
-0.5
 74
     0
  0
LTYPE
  5
25
330
5
100
AcDbSymbolTableRecord
100
AcDbLinetypeTableRecord
  2
CENTER
 70
     0
  3
____ _ ____ _ ____ _ ____ _ ____ _ ____ _ ____
 72
    65
 73
     4
 40
2.0
 49
1.25
 74
     0
 49
-0.25
 74
     0
 49
0.25
 74
     0
 49
-0.25
 74
     0
  0
LTYPE
  5
26
330
5
100
AcDbSymbolTableRecord
100
AcDbLinetypeTableRecord
  2
CENTER2
 70
     0
  3
____ _ ____ _ ____ _ ____ _ ____ _ ____ _ ____
 72
    65
 73
     4
 40
1.125
 49
0.75
 74
     0
 49
-0.125
 74
     0
 49
0.125
 74
     0
 49
-0.125
 74
     0
  0
LTYPE
  5
27
330
5
100
AcDbSymbolTableRecord
100
AcDbLinetypeTableRecord
  2
CENTERX2
 70
     0
  3
________  __  ________  __  ________  __  
 72
    65
 73
     4
 40
4.0
 49
2.5
 74
     0
 49
-0.5
 74
     0
 49
0.5
 74
     0
 49
-0.5
 74
     0
  0
LTYPE
  5
28
330
5
100
AcDbSymbolTableRecord
100
AcDbLinetypeTableRecord
  2
DASHDOT
 70
     0
  3
__ . __ . __ . __ . __ . __ . __ . 
 72
    65
 73
     4
 40
1.0
 49
0.5
 74
     0
 49
-0.25
 74
     0
 49
0.0
 74
     0
 49
-0.25
 74
     0
  0
LTYPE
  5
29
330
5
100
AcDbSymbolTableRecord
100
AcDbLinetypeTableRecord
  2
DASHDOT2
 70
     0
  3
_._._._._._._._._._._._._._._._.
 72
    65
 73
     4
 40
0.5
 49
0.25
 74
     0
 49
-0.125
 74
     0
 49
0.0
 74
     0
 49
-0.125
 74
     0
  0
LTYPE
  5
2A
330
5
100
AcDbSymbolTableRecord
100
AcDbLinetypeTableRecord
  2
DASHDOTX2
 70
     0
  3
____  .  ____  .  ____  .  ____  .  
 72
    65
 73
     4
 40
2.0
 49
1.0
 74
     0
 49
-0.5
 74
     0
 49
0.0
 74
     0
 49
-0.5
 74
     0
  0
LTYPE
  5
2B
330
5
100
AcDbSymbolTableRecord
100
AcDbLinetypeTableRecord
  2
DASHED
 70
     0
  3
__ __ __ __ __ __ __ __ __ __ __ __ 
 72
    65
 73
     2
 40
0.75
 49
0.5
 74
     0
 49
-0.25
 74
     0
  0
LTYPE
  5
2C
330
5
100
AcDbSymbolTableRecord
100
AcDbLinetypeTableRecord
  2
DASHED2
 70
     0
  3
_ _ _ _ _ _ _ _ _ _ _ _ _ _ _ _ _ _ 
 72
    65
 73
     2
 40
0.375
 49
0.25
 74
     0
 49
-0.125
 74
     0
  0
LTYPE
  5
2D
330
5
100
AcDbSymbolTableRecord
100
AcDbLinetypeTableRecord
  2
DASHEDX2
 70
     0
  3
____  ____  ____  ____  ____  ____  
 72
    65
 73
     2
 40
1.5
 49
1.0
 74
     0
 49
-0.5
 74
     0
  0
LTYPE
  5
2E
330
5
100
AcDbSymbolTableRecord
100
AcDbLinetypeTableRecord
  2
DIVIDE
 70
     0
  3
____ . . ____ . . ____ . . ____ . . 
 72
    65
 73
     6
 40
1.25
 49
0.5
 74
     0
 49
-0.25
 74
     0
 49
0.0
 74
     0
 49
-0.25
 74
     0
 49
0.0
 74
     0
 49
-0.25
 74
     0
  0
LTYPE
  5
2F
330
5
100
AcDbSymbolTableRecord
100
AcDbLinetypeTableRecord
  2
DIVIDE2
 70
     0
  3
__..__..__..__..__..__..__..__..__..
 72
    65
 73
     6
 40
0.625
 49
0.25
 74
     0
 49
-0.125
 74
     0
 49
0.0
 74
     0
 49
-0.125
 74
     0
 49
0.0
 74
     0
 49
-0.125
 74
     0
  0
LTYPE
  5
30
330
5
100
AcDbSymbolTableRecord
100
AcDbLinetypeTableRecord
  2
DIVIDEX2
 70
     0
  3
________  .  .  ________  .  .  ________  .  . 
 72
    65
 73
     6
 40
2.5
 49
1.0
 74
     0
 49
-0.5
 74
     0
 49
0.0
 74
     0
 49
-0.5
 74
     0
 49
0.0
 74
     0
 49
-0.5
 74
     0
  0
LTYPE
  5
31
330
5
100
AcDbSymbolTableRecord
100
AcDbLinetypeTableRecord
  2
DOT
 70
     0
  3
. . . . . . . . . . . . . . . . . . 
 72
    65
 73
     2
 40
0.25
 49
0.0
 74
     0
 49
-0.25
 74
     0
  0
LTYPE
  5
32
330
5
100
AcDbSymbolTableRecord
100
AcDbLinetypeTableRecord
  2
DOT2
 70
     0
  3
....................................
 72
    65
 73
     2
 40
0.125
 49
0.0
 74
     0
 49
-0.125
 74
     0
  0
LTYPE
  5
33
330
5
100
AcDbSymbolTableRecord
100
AcDbLinetypeTableRecord
  2
DOTX2
 70
     0
  3
.  .  .  .  .  .  .  .  .  .  .  .  .  
 72
    65
 73
     2
 40
0.5
 49
0.0
 74
     0
 49
-0.5
 74
     0
  0
LTYPE
  5
34
330
5
100
AcDbSymbolTableRecord
100
AcDbLinetypeTableRecord
  2
HIDDEN
 70
     0
  3
__ __ __ __ __ __ __ __ __ __ __ __ 
 72
    65
 73
     2
 40
0.375
 49
0.25
 74
     0
 49
-0.125
 74
     0
  0
LTYPE
  5
35
330
5
100
AcDbSymbolTableRecord
100
AcDbLinetypeTableRecord
  2
HIDDEN2
 70
     0
  3
_ _ _ _ _ _ _ _ _ _ _ _ _ _ _ _ _ _ 
 72
    65
 73
     2
 40
0.1875
 49
0.125
 74
     0
 49
-0.0625
 74
     0
  0
LTYPE
  5
36
330
5
100
AcDbSymbolTableRecord
100
AcDbLinetypeTableRecord
  2
HIDDENX2
 70
     0
  3
____ ____ ____ ____ ____ ____ ____ 
 72
    65
 73
     2
 40
0.75
 49
0.5
 74
     0
 49
-0.25
 74
     0
  0
LTYPE
  5
37
330
5
100
AcDbSymbolTableRecord
100
AcDbLinetypeTableRecord
  2
PHANTOM
 70
     0
  3
______  __  __  ______  __  __  
 72
    65
 73
     6
 40
2.5
 49
1.25
 74
     0
 49
-0.25
 74
     0
 49
0.25
 74
     0
 49
-0.25
 74
     0
 49
0.25
 74
     0
 49
-0.25
 74
     0
  0
LTYPE
  5
38
330
5
100
AcDbSymbolTableRecord
100
AcDbLinetypeTableRecord
  2
PHANTOM2
 70
     0
  3
___ _ _ ___ _ _ ___ _ _ ___ _ _ 
 72
    65
 73
     6
 40
1.25
 49
0.625
 74
     0
 49
-0.125
 74
     0
 49
0.125
 74
     0
 49
-0.125
 74
     0
 49
0.125
 74
     0
 49
-0.125
 74
     0
  0
LTYPE
  5
39
330
5
100
AcDbSymbolTableRecord
100
AcDbLinetypeTableRecord
  2
PHANTOMX2
 70
     0
  3
___ _ _ ___ _ _ ___ _ _ ___ _ _ 
 72
    65
 73
     6
 40
5.0
 49
2.5
 74
     0
 49
-0.5
 74
     0
 49
0.5
 74
     0
 49
-0.5
 74
     0
 49
0.5
 74
     0
 49
-0.5
 74
     0
  0
ENDTAB
  0
TABLE
  2
LAYER
  5
2
330
0
100
AcDbSymbolTable
 70
   257
  0
LAYER
  5
10
330
2
100
AcDbSymbolTableRecord
100
AcDbLayerTableRecord
  2
0
 70
     0
 62
     7
  6
CONTINUOUS
  0
LAYER
  5
3A
330
2
100
AcDbSymbolTableRecord
100
AcDbLayerTableRecord
  2
1
 70
     0
 62
     1
  6
CONTINUOUS
  0
LAYER
  5
3B
330
2
100
AcDbSymbolTableRecord
100
AcDbLayerTableRecord
  2
2
 70
     0
 62
     2
  6
CONTINUOUS
  0
LAYER
  5
3C
330
2
100
AcDbSymbolTableRecord
100
AcDbLayerTableRecord
  2
3
 70
     0
 62
     3
  6
CONTINUOUS
  0
LAYER
  5
3D
330
2
100
AcDbSymbolTableRecord
100
AcDbLayerTableRecord
  2
4
 70
     0
 62
     4
  6
CONTINUOUS
  0
LAYER
  5
3E
330
2
100
AcDbSymbolTableRecord
100
AcDbLayerTableRecord
  2
5
 70
     0
 62
     5
  6
CONTINUOUS
  0
LAYER
  5
3F
330
2
100
AcDbSymbolTableRecord
100
AcDbLayerTableRecord
  2
6
 70
     0
 62
     6
  6
CONTINUOUS
  0
LAYER
  5
40
330
2
100
AcDbSymbolTableRecord
100
AcDbLayerTableRecord
  2
7
 70
     0
 62
     7
  6
CONTINUOUS
  0
LAYER
  5
41
330
2
100
AcDbSymbolTableRecord
100
AcDbLayerTableRecord
  2
8
 70
     0
 62
     8
  6
CONTINUOUS
  0
LAYER
  5
42
330
2
100
AcDbSymbolTableRecord
100
AcDbLayerTableRecord
  2
9
 70
     0
 62
     9
  6
CONTINUOUS
  0
LAYER
  5
43
330
2
100
AcDbSymbolTableRecord
100
AcDbLayerTableRecord
  2
10
 70
     0
 62
    10
  6
CONTINUOUS
  0
LAYER
  5
44
330
2
100
AcDbSymbolTableRecord
100
AcDbLayerTableRecord
  2
11
 70
     0
 62
    11
  6
CONTINUOUS
  0
LAYER
  5
45
330
2
100
AcDbSymbolTableRecord
100
AcDbLayerTableRecord
  2
12
 70
     0
 62
    12
  6
CONTINUOUS
  0
LAYER
  5
46
330
2
100
AcDbSymbolTableRecord
100
AcDbLayerTableRecord
  2
13
 70
     0
 62
    13
  6
CONTINUOUS
  0
LAYER
  5
47
330
2
100
AcDbSymbolTableRecord
100
AcDbLayerTableRecord
  2
14
 70
     0
 62
    14
  6
CONTINUOUS
  0
LAYER
  5
48
330
2
100
AcDbSymbolTableRecord
100
AcDbLayerTableRecord
  2
15
 70
     0
 62
    15
  6
CONTINUOUS
  0
LAYER
  5
49
330
2
100
AcDbSymbolTableRecord
100
AcDbLayerTableRecord
  2
16
 70
     0
 62
    16
  6
CONTINUOUS
  0
LAYER
  5
4A
330
2
100
AcDbSymbolTableRecord
100
AcDbLayerTableRecord
  2
17
 70
     0
 62
    17
  6
CONTINUOUS
  0
LAYER
  5
4B
330
2
100
AcDbSymbolTableRecord
100
AcDbLayerTableRecord
  2
18
 70
     0
 62
    18
  6
CONTINUOUS
  0
LAYER
  5
4C
330
2
100
AcDbSymbolTableRecord
100
AcDbLayerTableRecord
  2
19
 70
     0
 62
    19
  6
CONTINUOUS
  0
LAYER
  5
4D
330
2
100
AcDbSymbolTableRecord
100
AcDbLayerTableRecord
  2
20
 70
     0
 62
    20
  6
CONTINUOUS
  0
LAYER
  5
4E
330
2
100
AcDbSymbolTableRecord
100
AcDbLayerTableRecord
  2
21
 70
     0
 62
    21
  6
CONTINUOUS
  0
LAYER
  5
4F
330
2
100
AcDbSymbolTableRecord
100
AcDbLayerTableRecord
  2
22
 70
     0
 62
    22
  6
CONTINUOUS
  0
LAYER
  5
50
330
2
100
AcDbSymbolTableRecord
100
AcDbLayerTableRecord
  2
23
 70
     0
 62
    23
  6
CONTINUOUS
  0
LAYER
  5
51
330
2
100
AcDbSymbolTableRecord
100
AcDbLayerTableRecord
  2
24
 70
     0
 62
    24
  6
CONTINUOUS
  0
LAYER
  5
52
330
2
100
AcDbSymbolTableRecord
100
AcDbLayerTableRecord
  2
25
 70
     0
 62
    25
  6
CONTINUOUS
  0
LAYER
  5
53
330
2
100
AcDbSymbolTableRecord
100
AcDbLayerTableRecord
  2
26
 70
     0
 62
    26
  6
CONTINUOUS
  0
LAYER
  5
54
330
2
100
AcDbSymbolTableRecord
100
AcDbLayerTableRecord
  2
27
 70
     0
 62
    27
  6
CONTINUOUS
  0
LAYER
  5
55
330
2
100
AcDbSymbolTableRecord
100
AcDbLayerTableRecord
  2
28
 70
     0
 62
    28
  6
CONTINUOUS
  0
LAYER
  5
56
330
2
100
AcDbSymbolTableRecord
100
AcDbLayerTableRecord
  2
29
 70
     0
 62
    29
  6
CONTINUOUS
  0
LAYER
  5
57
330
2
100
AcDbSymbolTableRecord
100
AcDbLayerTableRecord
  2
30
 70
     0
 62
    30
  6
CONTINUOUS
  0
LAYER
  5
58
330
2
100
AcDbSymbolTableRecord
100
AcDbLayerTableRecord
  2
31
 70
     0
 62
    31
  6
CONTINUOUS
  0
LAYER
  5
59
330
2
100
AcDbSymbolTableRecord
100
AcDbLayerTableRecord
  2
32
 70
     0
 62
    32
  6
CONTINUOUS
  0
LAYER
  5
5A
330
2
100
AcDbSymbolTableRecord
100
AcDbLayerTableRecord
  2
33
 70
     0
 62
    33
  6
CONTINUOUS
  0
LAYER
  5
5B
330
2
100
AcDbSymbolTableRecord
100
AcDbLayerTableRecord
  2
34
 70
     0
 62
    34
  6
CONTINUOUS
  0
LAYER
  5
5C
330
2
100
AcDbSymbolTableRecord
100
AcDbLayerTableRecord
  2
35
 70
     0
 62
    35
  6
CONTINUOUS
  0
LAYER
  5
5D
330
2
100
AcDbSymbolTableRecord
100
AcDbLayerTableRecord
  2
36
 70
     0
 62
    36
  6
CONTINUOUS
  0
LAYER
  5
5E
330
2
100
AcDbSymbolTableRecord
100
AcDbLayerTableRecord
  2
37
 70
     0
 62
    37
  6
CONTINUOUS
  0
LAYER
  5
5F
330
2
100
AcDbSymbolTableRecord
100
AcDbLayerTableRecord
  2
38
 70
     0
 62
    38
  6
CONTINUOUS
  0
LAYER
  5
60
330
2
100
AcDbSymbolTableRecord
100
AcDbLayerTableRecord
  2
39
 70
     0
 62
    39
  6
CONTINUOUS
  0
LAYER
  5
61
330
2
100
AcDbSymbolTableRecord
100
AcDbLayerTableRecord
  2
40
 70
     0
 62
    40
  6
CONTINUOUS
  0
LAYER
  5
62
330
2
100
AcDbSymbolTableRecord
100
AcDbLayerTableRecord
  2
41
 70
     0
 62
    41
  6
CONTINUOUS
  0
LAYER
  5
63
330
2
100
AcDbSymbolTableRecord
100
AcDbLayerTableRecord
  2
42
 70
     0
 62
    42
  6
CONTINUOUS
  0
LAYER
  5
64
330
2
100
AcDbSymbolTableRecord
100
AcDbLayerTableRecord
  2
43
 70
     0
 62
    43
  6
CONTINUOUS
  0
LAYER
  5
65
330
2
100
AcDbSymbolTableRecord
100
AcDbLayerTableRecord
  2
44
 70
     0
 62
    44
  6
CONTINUOUS
  0
LAYER
  5
66
330
2
100
AcDbSymbolTableRecord
100
AcDbLayerTableRecord
  2
45
 70
     0
 62
    45
  6
CONTINUOUS
  0
LAYER
  5
67
330
2
100
AcDbSymbolTableRecord
100
AcDbLayerTableRecord
  2
46
 70
     0
 62
    46
  6
CONTINUOUS
  0
LAYER
  5
68
330
2
100
AcDbSymbolTableRecord
100
AcDbLayerTableRecord
  2
47
 70
     0
 62
    47
  6
CONTINUOUS
  0
LAYER
  5
69
330
2
100
AcDbSymbolTableRecord
100
AcDbLayerTableRecord
  2
48
 70
     0
 62
    48
  6
CONTINUOUS
  0
LAYER
  5
6A
330
2
100
AcDbSymbolTableRecord
100
AcDbLayerTableRecord
  2
49
 70
     0
 62
    49
  6
CONTINUOUS
  0
LAYER
  5
6B
330
2
100
AcDbSymbolTableRecord
100
AcDbLayerTableRecord
  2
50
 70
     0
 62
    50
  6
CONTINUOUS
  0
LAYER
  5
6C
330
2
100
AcDbSymbolTableRecord
100
AcDbLayerTableRecord
  2
51
 70
     0
 62
    51
  6
CONTINUOUS
  0
LAYER
  5
6D
330
2
100
AcDbSymbolTableRecord
100
AcDbLayerTableRecord
  2
52
 70
     0
 62
    52
  6
CONTINUOUS
  0
LAYER
  5
6E
330
2
100
AcDbSymbolTableRecord
100
AcDbLayerTableRecord
  2
53
 70
     0
 62
    53
  6
CONTINUOUS
  0
LAYER
  5
6F
330
2
100
AcDbSymbolTableRecord
100
AcDbLayerTableRecord
  2
54
 70
     0
 62
    54
  6
CONTINUOUS
  0
LAYER
  5
70
330
2
100
AcDbSymbolTableRecord
100
AcDbLayerTableRecord
  2
55
 70
     0
 62
    55
  6
CONTINUOUS
  0
LAYER
  5
71
330
2
100
AcDbSymbolTableRecord
100
AcDbLayerTableRecord
  2
56
 70
     0
 62
    56
  6
CONTINUOUS
  0
LAYER
  5
72
330
2
100
AcDbSymbolTableRecord
100
AcDbLayerTableRecord
  2
57
 70
     0
 62
    57
  6
CONTINUOUS
  0
LAYER
  5
73
330
2
100
AcDbSymbolTableRecord
100
AcDbLayerTableRecord
  2
58
 70
     0
 62
    58
  6
CONTINUOUS
  0
LAYER
  5
74
330
2
100
AcDbSymbolTableRecord
100
AcDbLayerTableRecord
  2
59
 70
     0
 62
    59
  6
CONTINUOUS
  0
LAYER
  5
75
330
2
100
AcDbSymbolTableRecord
100
AcDbLayerTableRecord
  2
60
 70
     0
 62
    60
  6
CONTINUOUS
  0
LAYER
  5
76
330
2
100
AcDbSymbolTableRecord
100
AcDbLayerTableRecord
  2
61
 70
     0
 62
    61
  6
CONTINUOUS
  0
LAYER
  5
77
330
2
100
AcDbSymbolTableRecord
100
AcDbLayerTableRecord
  2
62
 70
     0
 62
    62
  6
CONTINUOUS
  0
LAYER
  5
78
330
2
100
AcDbSymbolTableRecord
100
AcDbLayerTableRecord
  2
63
 70
     0
 62
    63
  6
CONTINUOUS
  0
LAYER
  5
79
330
2
100
AcDbSymbolTableRecord
100
AcDbLayerTableRecord
  2
64
 70
     0
 62
    64
  6
CONTINUOUS
  0
LAYER
  5
7A
330
2
100
AcDbSymbolTableRecord
100
AcDbLayerTableRecord
  2
65
 70
     0
 62
    65
  6
CONTINUOUS
  0
LAYER
  5
7B
330
2
100
AcDbSymbolTableRecord
100
AcDbLayerTableRecord
  2
66
 70
     0
 62
    66
  6
CONTINUOUS
  0
LAYER
  5
7C
330
2
100
AcDbSymbolTableRecord
100
AcDbLayerTableRecord
  2
67
 70
     0
 62
    67
  6
CONTINUOUS
  0
LAYER
  5
7D
330
2
100
AcDbSymbolTableRecord
100
AcDbLayerTableRecord
  2
68
 70
     0
 62
    68
  6
CONTINUOUS
  0
LAYER
  5
7E
330
2
100
AcDbSymbolTableRecord
100
AcDbLayerTableRecord
  2
69
 70
     0
 62
    69
  6
CONTINUOUS
  0
LAYER
  5
7F
330
2
100
AcDbSymbolTableRecord
100
AcDbLayerTableRecord
  2
70
 70
     0
 62
    70
  6
CONTINUOUS
  0
LAYER
  5
80
330
2
100
AcDbSymbolTableRecord
100
AcDbLayerTableRecord
  2
71
 70
     0
 62
    71
  6
CONTINUOUS
  0
LAYER
  5
81
330
2
100
AcDbSymbolTableRecord
100
AcDbLayerTableRecord
  2
72
 70
     0
 62
    72
  6
CONTINUOUS
  0
LAYER
  5
82
330
2
100
AcDbSymbolTableRecord
100
AcDbLayerTableRecord
  2
73
 70
     0
 62
    73
  6
CONTINUOUS
  0
LAYER
  5
83
330
2
100
AcDbSymbolTableRecord
100
AcDbLayerTableRecord
  2
74
 70
     0
 62
    74
  6
CONTINUOUS
  0
LAYER
  5
84
330
2
100
AcDbSymbolTableRecord
100
AcDbLayerTableRecord
  2
75
 70
     0
 62
    75
  6
CONTINUOUS
  0
LAYER
  5
85
330
2
100
AcDbSymbolTableRecord
100
AcDbLayerTableRecord
  2
76
 70
     0
 62
    76
  6
CONTINUOUS
  0
LAYER
  5
86
330
2
100
AcDbSymbolTableRecord
100
AcDbLayerTableRecord
  2
77
 70
     0
 62
    77
  6
CONTINUOUS
  0
LAYER
  5
87
330
2
100
AcDbSymbolTableRecord
100
AcDbLayerTableRecord
  2
78
 70
     0
 62
    78
  6
CONTINUOUS
  0
LAYER
  5
88
330
2
100
AcDbSymbolTableRecord
100
AcDbLayerTableRecord
  2
79
 70
     0
 62
    79
  6
CONTINUOUS
  0
LAYER
  5
89
330
2
100
AcDbSymbolTableRecord
100
AcDbLayerTableRecord
  2
80
 70
     0
 62
    80
  6
CONTINUOUS
  0
LAYER
  5
8A
330
2
100
AcDbSymbolTableRecord
100
AcDbLayerTableRecord
  2
81
 70
     0
 62
    81
  6
CONTINUOUS
  0
LAYER
  5
8B
330
2
100
AcDbSymbolTableRecord
100
AcDbLayerTableRecord
  2
82
 70
     0
 62
    82
  6
CONTINUOUS
  0
LAYER
  5
8C
330
2
100
AcDbSymbolTableRecord
100
AcDbLayerTableRecord
  2
83
 70
     0
 62
    83
  6
CONTINUOUS
  0
LAYER
  5
8D
330
2
100
AcDbSymbolTableRecord
100
AcDbLayerTableRecord
  2
84
 70
     0
 62
    84
  6
CONTINUOUS
  0
LAYER
  5
8E
330
2
100
AcDbSymbolTableRecord
100
AcDbLayerTableRecord
  2
85
 70
     0
 62
    85
  6
CONTINUOUS
  0
LAYER
  5
8F
330
2
100
AcDbSymbolTableRecord
100
AcDbLayerTableRecord
  2
86
 70
     0
 62
    86
  6
CONTINUOUS
  0
LAYER
  5
90
330
2
100
AcDbSymbolTableRecord
100
AcDbLayerTableRecord
  2
87
 70
     0
 62
    87
  6
CONTINUOUS
  0
LAYER
  5
91
330
2
100
AcDbSymbolTableRecord
100
AcDbLayerTableRecord
  2
88
 70
     0
 62
    88
  6
CONTINUOUS
  0
LAYER
  5
92
330
2
100
AcDbSymbolTableRecord
100
AcDbLayerTableRecord
  2
89
 70
     0
 62
    89
  6
CONTINUOUS
  0
LAYER
  5
93
330
2
100
AcDbSymbolTableRecord
100
AcDbLayerTableRecord
  2
90
 70
     0
 62
    90
  6
CONTINUOUS
  0
LAYER
  5
94
330
2
100
AcDbSymbolTableRecord
100
AcDbLayerTableRecord
  2
91
 70
     0
 62
    91
  6
CONTINUOUS
  0
LAYER
  5
95
330
2
100
AcDbSymbolTableRecord
100
AcDbLayerTableRecord
  2
92
 70
     0
 62
    92
  6
CONTINUOUS
  0
LAYER
  5
96
330
2
100
AcDbSymbolTableRecord
100
AcDbLayerTableRecord
  2
93
 70
     0
 62
    93
  6
CONTINUOUS
  0
LAYER
  5
97
330
2
100
AcDbSymbolTableRecord
100
AcDbLayerTableRecord
  2
94
 70
     0
 62
    94
  6
CONTINUOUS
  0
LAYER
  5
98
330
2
100
AcDbSymbolTableRecord
100
AcDbLayerTableRecord
  2
95
 70
     0
 62
    95
  6
CONTINUOUS
  0
LAYER
  5
99
330
2
100
AcDbSymbolTableRecord
100
AcDbLayerTableRecord
  2
96
 70
     0
 62
    96
  6
CONTINUOUS
  0
LAYER
  5
9A
330
2
100
AcDbSymbolTableRecord
100
AcDbLayerTableRecord
  2
97
 70
     0
 62
    97
  6
CONTINUOUS
  0
LAYER
  5
9B
330
2
100
AcDbSymbolTableRecord
100
AcDbLayerTableRecord
  2
98
 70
     0
 62
    98
  6
CONTINUOUS
  0
LAYER
  5
9C
330
2
100
AcDbSymbolTableRecord
100
AcDbLayerTableRecord
  2
99
 70
     0
 62
    99
  6
CONTINUOUS
  0
LAYER
  5
9D
330
2
100
AcDbSymbolTableRecord
100
AcDbLayerTableRecord
  2
100
 70
     0
 62
   100
  6
CONTINUOUS
  0
LAYER
  5
9E
330
2
100
AcDbSymbolTableRecord
100
AcDbLayerTableRecord
  2
101
 70
     0
 62
   101
  6
CONTINUOUS
  0
LAYER
  5
9F
330
2
100
AcDbSymbolTableRecord
100
AcDbLayerTableRecord
  2
102
 70
     0
 62
   102
  6
CONTINUOUS
  0
LAYER
  5
A0
330
2
100
AcDbSymbolTableRecord
100
AcDbLayerTableRecord
  2
103
 70
     0
 62
   103
  6
CONTINUOUS
  0
LAYER
  5
A1
330
2
100
AcDbSymbolTableRecord
100
AcDbLayerTableRecord
  2
104
 70
     0
 62
   104
  6
CONTINUOUS
  0
LAYER
  5
A2
330
2
100
AcDbSymbolTableRecord
100
AcDbLayerTableRecord
  2
105
 70
     0
 62
   105
  6
CONTINUOUS
  0
LAYER
  5
A3
330
2
100
AcDbSymbolTableRecord
100
AcDbLayerTableRecord
  2
106
 70
     0
 62
   106
  6
CONTINUOUS
  0
LAYER
  5
A4
330
2
100
AcDbSymbolTableRecord
100
AcDbLayerTableRecord
  2
107
 70
     0
 62
   107
  6
CONTINUOUS
  0
LAYER
  5
A5
330
2
100
AcDbSymbolTableRecord
100
AcDbLayerTableRecord
  2
108
 70
     0
 62
   108
  6
CONTINUOUS
  0
LAYER
  5
A6
330
2
100
AcDbSymbolTableRecord
100
AcDbLayerTableRecord
  2
109
 70
     0
 62
   109
  6
CONTINUOUS
  0
LAYER
  5
A7
330
2
100
AcDbSymbolTableRecord
100
AcDbLayerTableRecord
  2
110
 70
     0
 62
   110
  6
CONTINUOUS
  0
LAYER
  5
A8
330
2
100
AcDbSymbolTableRecord
100
AcDbLayerTableRecord
  2
111
 70
     0
 62
   111
  6
CONTINUOUS
  0
LAYER
  5
A9
330
2
100
AcDbSymbolTableRecord
100
AcDbLayerTableRecord
  2
112
 70
     0
 62
   112
  6
CONTINUOUS
  0
LAYER
  5
AA
330
2
100
AcDbSymbolTableRecord
100
AcDbLayerTableRecord
  2
113
 70
     0
 62
   113
  6
CONTINUOUS
  0
LAYER
  5
AB
330
2
100
AcDbSymbolTableRecord
100
AcDbLayerTableRecord
  2
114
 70
     0
 62
   114
  6
CONTINUOUS
  0
LAYER
  5
AC
330
2
100
AcDbSymbolTableRecord
100
AcDbLayerTableRecord
  2
115
 70
     0
 62
   115
  6
CONTINUOUS
  0
LAYER
  5
AD
330
2
100
AcDbSymbolTableRecord
100
AcDbLayerTableRecord
  2
116
 70
     0
 62
   116
  6
CONTINUOUS
  0
LAYER
  5
AE
330
2
100
AcDbSymbolTableRecord
100
AcDbLayerTableRecord
  2
117
 70
     0
 62
   117
  6
CONTINUOUS
  0
LAYER
  5
AF
330
2
100
AcDbSymbolTableRecord
100
AcDbLayerTableRecord
  2
118
 70
     0
 62
   118
  6
CONTINUOUS
  0
LAYER
  5
B0
330
2
100
AcDbSymbolTableRecord
100
AcDbLayerTableRecord
  2
119
 70
     0
 62
   119
  6
CONTINUOUS
  0
LAYER
  5
B1
330
2
100
AcDbSymbolTableRecord
100
AcDbLayerTableRecord
  2
120
 70
     0
 62
   120
  6
CONTINUOUS
  0
LAYER
  5
B2
330
2
100
AcDbSymbolTableRecord
100
AcDbLayerTableRecord
  2
121
 70
     0
 62
   121
  6
CONTINUOUS
  0
LAYER
  5
B3
330
2
100
AcDbSymbolTableRecord
100
AcDbLayerTableRecord
  2
122
 70
     0
 62
   122
  6
CONTINUOUS
  0
LAYER
  5
B4
330
2
100
AcDbSymbolTableRecord
100
AcDbLayerTableRecord
  2
123
 70
     0
 62
   123
  6
CONTINUOUS
  0
LAYER
  5
B5
330
2
100
AcDbSymbolTableRecord
100
AcDbLayerTableRecord
  2
124
 70
     0
 62
   124
  6
CONTINUOUS
  0
LAYER
  5
B6
330
2
100
AcDbSymbolTableRecord
100
AcDbLayerTableRecord
  2
125
 70
     0
 62
   125
  6
CONTINUOUS
  0
LAYER
  5
B7
330
2
100
AcDbSymbolTableRecord
100
AcDbLayerTableRecord
  2
126
 70
     0
 62
   126
  6
CONTINUOUS
  0
LAYER
  5
B8
330
2
100
AcDbSymbolTableRecord
100
AcDbLayerTableRecord
  2
127
 70
     0
 62
   127
  6
CONTINUOUS
  0
LAYER
  5
B9
330
2
100
AcDbSymbolTableRecord
100
AcDbLayerTableRecord
  2
128
 70
     0
 62
   128
  6
CONTINUOUS
  0
LAYER
  5
BA
330
2
100
AcDbSymbolTableRecord
100
AcDbLayerTableRecord
  2
129
 70
     0
 62
   129
  6
CONTINUOUS
  0
LAYER
  5
BB
330
2
100
AcDbSymbolTableRecord
100
AcDbLayerTableRecord
  2
130
 70
     0
 62
   130
  6
CONTINUOUS
  0
LAYER
  5
BC
330
2
100
AcDbSymbolTableRecord
100
AcDbLayerTableRecord
  2
131
 70
     0
 62
   131
  6
CONTINUOUS
  0
LAYER
  5
BD
330
2
100
AcDbSymbolTableRecord
100
AcDbLayerTableRecord
  2
132
 70
     0
 62
   132
  6
CONTINUOUS
  0
LAYER
  5
BE
330
2
100
AcDbSymbolTableRecord
100
AcDbLayerTableRecord
  2
133
 70
     0
 62
   133
  6
CONTINUOUS
  0
LAYER
  5
BF
330
2
100
AcDbSymbolTableRecord
100
AcDbLayerTableRecord
  2
134
 70
     0
 62
   134
  6
CONTINUOUS
  0
LAYER
  5
C0
330
2
100
AcDbSymbolTableRecord
100
AcDbLayerTableRecord
  2
135
 70
     0
 62
   135
  6
CONTINUOUS
  0
LAYER
  5
C1
330
2
100
AcDbSymbolTableRecord
100
AcDbLayerTableRecord
  2
136
 70
     0
 62
   136
  6
CONTINUOUS
  0
LAYER
  5
C2
330
2
100
AcDbSymbolTableRecord
100
AcDbLayerTableRecord
  2
137
 70
     0
 62
   137
  6
CONTINUOUS
  0
LAYER
  5
C3
330
2
100
AcDbSymbolTableRecord
100
AcDbLayerTableRecord
  2
138
 70
     0
 62
   138
  6
CONTINUOUS
  0
LAYER
  5
C4
330
2
100
AcDbSymbolTableRecord
100
AcDbLayerTableRecord
  2
139
 70
     0
 62
   139
  6
CONTINUOUS
  0
LAYER
  5
C5
330
2
100
AcDbSymbolTableRecord
100
AcDbLayerTableRecord
  2
140
 70
     0
 62
   140
  6
CONTINUOUS
  0
LAYER
  5
C6
330
2
100
AcDbSymbolTableRecord
100
AcDbLayerTableRecord
  2
141
 70
     0
 62
   141
  6
CONTINUOUS
  0
LAYER
  5
C7
330
2
100
AcDbSymbolTableRecord
100
AcDbLayerTableRecord
  2
142
 70
     0
 62
   142
  6
CONTINUOUS
  0
LAYER
  5
C8
330
2
100
AcDbSymbolTableRecord
100
AcDbLayerTableRecord
  2
143
 70
     0
 62
   143
  6
CONTINUOUS
  0
LAYER
  5
C9
330
2
100
AcDbSymbolTableRecord
100
AcDbLayerTableRecord
  2
144
 70
     0
 62
   144
  6
CONTINUOUS
  0
LAYER
  5
CA
330
2
100
AcDbSymbolTableRecord
100
AcDbLayerTableRecord
  2
145
 70
     0
 62
   145
  6
CONTINUOUS
  0
LAYER
  5
CB
330
2
100
AcDbSymbolTableRecord
100
AcDbLayerTableRecord
  2
146
 70
     0
 62
   146
  6
CONTINUOUS
  0
LAYER
  5
CC
330
2
100
AcDbSymbolTableRecord
100
AcDbLayerTableRecord
  2
147
 70
     0
 62
   147
  6
CONTINUOUS
  0
LAYER
  5
CD
330
2
100
AcDbSymbolTableRecord
100
AcDbLayerTableRecord
  2
148
 70
     0
 62
   148
  6
CONTINUOUS
  0
LAYER
  5
CE
330
2
100
AcDbSymbolTableRecord
100
AcDbLayerTableRecord
  2
149
 70
     0
 62
   149
  6
CONTINUOUS
  0
LAYER
  5
CF
330
2
100
AcDbSymbolTableRecord
100
AcDbLayerTableRecord
  2
150
 70
     0
 62
   150
  6
CONTINUOUS
  0
LAYER
  5
D0
330
2
100
AcDbSymbolTableRecord
100
AcDbLayerTableRecord
  2
151
 70
     0
 62
   151
  6
CONTINUOUS
  0
LAYER
  5
D1
330
2
100
AcDbSymbolTableRecord
100
AcDbLayerTableRecord
  2
152
 70
     0
 62
   152
  6
CONTINUOUS
  0
LAYER
  5
D2
330
2
100
AcDbSymbolTableRecord
100
AcDbLayerTableRecord
  2
153
 70
     0
 62
   153
  6
CONTINUOUS
  0
LAYER
  5
D3
330
2
100
AcDbSymbolTableRecord
100
AcDbLayerTableRecord
  2
154
 70
     0
 62
   154
  6
CONTINUOUS
  0
LAYER
  5
D4
330
2
100
AcDbSymbolTableRecord
100
AcDbLayerTableRecord
  2
155
 70
     0
 62
   155
  6
CONTINUOUS
  0
LAYER
  5
D5
330
2
100
AcDbSymbolTableRecord
100
AcDbLayerTableRecord
  2
156
 70
     0
 62
   156
  6
CONTINUOUS
  0
LAYER
  5
D6
330
2
100
AcDbSymbolTableRecord
100
AcDbLayerTableRecord
  2
157
 70
     0
 62
   157
  6
CONTINUOUS
  0
LAYER
  5
D7
330
2
100
AcDbSymbolTableRecord
100
AcDbLayerTableRecord
  2
158
 70
     0
 62
   158
  6
CONTINUOUS
  0
LAYER
  5
D8
330
2
100
AcDbSymbolTableRecord
100
AcDbLayerTableRecord
  2
159
 70
     0
 62
   159
  6
CONTINUOUS
  0
LAYER
  5
D9
330
2
100
AcDbSymbolTableRecord
100
AcDbLayerTableRecord
  2
160
 70
     0
 62
   160
  6
CONTINUOUS
  0
LAYER
  5
DA
330
2
100
AcDbSymbolTableRecord
100
AcDbLayerTableRecord
  2
161
 70
     0
 62
   161
  6
CONTINUOUS
  0
LAYER
  5
DB
330
2
100
AcDbSymbolTableRecord
100
AcDbLayerTableRecord
  2
162
 70
     0
 62
   162
  6
CONTINUOUS
  0
LAYER
  5
DC
330
2
100
AcDbSymbolTableRecord
100
AcDbLayerTableRecord
  2
163
 70
     0
 62
   163
  6
CONTINUOUS
  0
LAYER
  5
DD
330
2
100
AcDbSymbolTableRecord
100
AcDbLayerTableRecord
  2
164
 70
     0
 62
   164
  6
CONTINUOUS
  0
LAYER
  5
DE
330
2
100
AcDbSymbolTableRecord
100
AcDbLayerTableRecord
  2
165
 70
     0
 62
   165
  6
CONTINUOUS
  0
LAYER
  5
DF
330
2
100
AcDbSymbolTableRecord
100
AcDbLayerTableRecord
  2
166
 70
     0
 62
   166
  6
CONTINUOUS
  0
LAYER
  5
E0
330
2
100
AcDbSymbolTableRecord
100
AcDbLayerTableRecord
  2
167
 70
     0
 62
   167
  6
CONTINUOUS
  0
LAYER
  5
E1
330
2
100
AcDbSymbolTableRecord
100
AcDbLayerTableRecord
  2
168
 70
     0
 62
   168
  6
CONTINUOUS
  0
LAYER
  5
E2
330
2
100
AcDbSymbolTableRecord
100
AcDbLayerTableRecord
  2
169
 70
     0
 62
   169
  6
CONTINUOUS
  0
LAYER
  5
E3
330
2
100
AcDbSymbolTableRecord
100
AcDbLayerTableRecord
  2
170
 70
     0
 62
   170
  6
CONTINUOUS
  0
LAYER
  5
E4
330
2
100
AcDbSymbolTableRecord
100
AcDbLayerTableRecord
  2
171
 70
     0
 62
   171
  6
CONTINUOUS
  0
LAYER
  5
E5
330
2
100
AcDbSymbolTableRecord
100
AcDbLayerTableRecord
  2
172
 70
     0
 62
   172
  6
CONTINUOUS
  0
LAYER
  5
E6
330
2
100
AcDbSymbolTableRecord
100
AcDbLayerTableRecord
  2
173
 70
     0
 62
   173
  6
CONTINUOUS
  0
LAYER
  5
E7
330
2
100
AcDbSymbolTableRecord
100
AcDbLayerTableRecord
  2
174
 70
     0
 62
   174
  6
CONTINUOUS
  0
LAYER
  5
E8
330
2
100
AcDbSymbolTableRecord
100
AcDbLayerTableRecord
  2
175
 70
     0
 62
   175
  6
CONTINUOUS
  0
LAYER
  5
E9
330
2
100
AcDbSymbolTableRecord
100
AcDbLayerTableRecord
  2
176
 70
     0
 62
   176
  6
CONTINUOUS
  0
LAYER
  5
EA
330
2
100
AcDbSymbolTableRecord
100
AcDbLayerTableRecord
  2
177
 70
     0
 62
   177
  6
CONTINUOUS
  0
LAYER
  5
EB
330
2
100
AcDbSymbolTableRecord
100
AcDbLayerTableRecord
  2
178
 70
     0
 62
   178
  6
CONTINUOUS
  0
LAYER
  5
EC
330
2
100
AcDbSymbolTableRecord
100
AcDbLayerTableRecord
  2
179
 70
     0
 62
   179
  6
CONTINUOUS
  0
LAYER
  5
ED
330
2
100
AcDbSymbolTableRecord
100
AcDbLayerTableRecord
  2
180
 70
     0
 62
   180
  6
CONTINUOUS
  0
LAYER
  5
EE
330
2
100
AcDbSymbolTableRecord
100
AcDbLayerTableRecord
  2
181
 70
     0
 62
   181
  6
CONTINUOUS
  0
LAYER
  5
EF
330
2
100
AcDbSymbolTableRecord
100
AcDbLayerTableRecord
  2
182
 70
     0
 62
   182
  6
CONTINUOUS
  0
LAYER
  5
F0
330
2
100
AcDbSymbolTableRecord
100
AcDbLayerTableRecord
  2
183
 70
     0
 62
   183
  6
CONTINUOUS
  0
LAYER
  5
F1
330
2
100
AcDbSymbolTableRecord
100
AcDbLayerTableRecord
  2
184
 70
     0
 62
   184
  6
CONTINUOUS
  0
LAYER
  5
F2
330
2
100
AcDbSymbolTableRecord
100
AcDbLayerTableRecord
  2
185
 70
     0
 62
   185
  6
CONTINUOUS
  0
LAYER
  5
F3
330
2
100
AcDbSymbolTableRecord
100
AcDbLayerTableRecord
  2
186
 70
     0
 62
   186
  6
CONTINUOUS
  0
LAYER
  5
F4
330
2
100
AcDbSymbolTableRecord
100
AcDbLayerTableRecord
  2
187
 70
     0
 62
   187
  6
CONTINUOUS
  0
LAYER
  5
F5
330
2
100
AcDbSymbolTableRecord
100
AcDbLayerTableRecord
  2
188
 70
     0
 62
   188
  6
CONTINUOUS
  0
LAYER
  5
F6
330
2
100
AcDbSymbolTableRecord
100
AcDbLayerTableRecord
  2
189
 70
     0
 62
   189
  6
CONTINUOUS
  0
LAYER
  5
F7
330
2
100
AcDbSymbolTableRecord
100
AcDbLayerTableRecord
  2
190
 70
     0
 62
   190
  6
CONTINUOUS
  0
LAYER
  5
F8
330
2
100
AcDbSymbolTableRecord
100
AcDbLayerTableRecord
  2
191
 70
     0
 62
   191
  6
CONTINUOUS
  0
LAYER
  5
F9
330
2
100
AcDbSymbolTableRecord
100
AcDbLayerTableRecord
  2
192
 70
     0
 62
   192
  6
CONTINUOUS
  0
LAYER
  5
FA
330
2
100
AcDbSymbolTableRecord
100
AcDbLayerTableRecord
  2
193
 70
     0
 62
   193
  6
CONTINUOUS
  0
LAYER
  5
FB
330
2
100
AcDbSymbolTableRecord
100
AcDbLayerTableRecord
  2
194
 70
     0
 62
   194
  6
CONTINUOUS
  0
LAYER
  5
FC
330
2
100
AcDbSymbolTableRecord
100
AcDbLayerTableRecord
  2
195
 70
     0
 62
   195
  6
CONTINUOUS
  0
LAYER
  5
FD
330
2
100
AcDbSymbolTableRecord
100
AcDbLayerTableRecord
  2
196
 70
     0
 62
   196
  6
CONTINUOUS
  0
LAYER
  5
FE
330
2
100
AcDbSymbolTableRecord
100
AcDbLayerTableRecord
  2
197
 70
     0
 62
   197
  6
CONTINUOUS
  0
LAYER
  5
FF
330
2
100
AcDbSymbolTableRecord
100
AcDbLayerTableRecord
  2
198
 70
     0
 62
   198
  6
CONTINUOUS
  0
LAYER
  5
100
330
2
100
AcDbSymbolTableRecord
100
AcDbLayerTableRecord
  2
199
 70
     0
 62
   199
  6
CONTINUOUS
  0
LAYER
  5
101
330
2
100
AcDbSymbolTableRecord
100
AcDbLayerTableRecord
  2
200
 70
     0
 62
   200
  6
CONTINUOUS
  0
LAYER
  5
102
330
2
100
AcDbSymbolTableRecord
100
AcDbLayerTableRecord
  2
201
 70
     0
 62
   201
  6
CONTINUOUS
  0
LAYER
  5
103
330
2
100
AcDbSymbolTableRecord
100
AcDbLayerTableRecord
  2
202
 70
     0
 62
   202
  6
CONTINUOUS
  0
LAYER
  5
104
330
2
100
AcDbSymbolTableRecord
100
AcDbLayerTableRecord
  2
203
 70
     0
 62
   203
  6
CONTINUOUS
  0
LAYER
  5
105
330
2
100
AcDbSymbolTableRecord
100
AcDbLayerTableRecord
  2
204
 70
     0
 62
   204
  6
CONTINUOUS
  0
LAYER
  5
106
330
2
100
AcDbSymbolTableRecord
100
AcDbLayerTableRecord
  2
205
 70
     0
 62
   205
  6
CONTINUOUS
  0
LAYER
  5
107
330
2
100
AcDbSymbolTableRecord
100
AcDbLayerTableRecord
  2
206
 70
     0
 62
   206
  6
CONTINUOUS
  0
LAYER
  5
108
330
2
100
AcDbSymbolTableRecord
100
AcDbLayerTableRecord
  2
207
 70
     0
 62
   207
  6
CONTINUOUS
  0
LAYER
  5
109
330
2
100
AcDbSymbolTableRecord
100
AcDbLayerTableRecord
  2
208
 70
     0
 62
   208
  6
CONTINUOUS
  0
LAYER
  5
10A
330
2
100
AcDbSymbolTableRecord
100
AcDbLayerTableRecord
  2
209
 70
     0
 62
   209
  6
CONTINUOUS
  0
LAYER
  5
10B
330
2
100
AcDbSymbolTableRecord
100
AcDbLayerTableRecord
  2
210
 70
     0
 62
   210
  6
CONTINUOUS
  0
LAYER
  5
10C
330
2
100
AcDbSymbolTableRecord
100
AcDbLayerTableRecord
  2
211
 70
     0
 62
   211
  6
CONTINUOUS
  0
LAYER
  5
10D
330
2
100
AcDbSymbolTableRecord
100
AcDbLayerTableRecord
  2
212
 70
     0
 62
   212
  6
CONTINUOUS
  0
LAYER
  5
10E
330
2
100
AcDbSymbolTableRecord
100
AcDbLayerTableRecord
  2
213
 70
     0
 62
   213
  6
CONTINUOUS
  0
LAYER
  5
10F
330
2
100
AcDbSymbolTableRecord
100
AcDbLayerTableRecord
  2
214
 70
     0
 62
   214
  6
CONTINUOUS
  0
LAYER
  5
110
330
2
100
AcDbSymbolTableRecord
100
AcDbLayerTableRecord
  2
215
 70
     0
 62
   215
  6
CONTINUOUS
  0
LAYER
  5
111
330
2
100
AcDbSymbolTableRecord
100
AcDbLayerTableRecord
  2
216
 70
     0
 62
   216
  6
CONTINUOUS
  0
LAYER
  5
112
330
2
100
AcDbSymbolTableRecord
100
AcDbLayerTableRecord
  2
217
 70
     0
 62
   217
  6
CONTINUOUS
  0
LAYER
  5
113
330
2
100
AcDbSymbolTableRecord
100
AcDbLayerTableRecord
  2
218
 70
     0
 62
   218
  6
CONTINUOUS
  0
LAYER
  5
114
330
2
100
AcDbSymbolTableRecord
100
AcDbLayerTableRecord
  2
219
 70
     0
 62
   219
  6
CONTINUOUS
  0
LAYER
  5
115
330
2
100
AcDbSymbolTableRecord
100
AcDbLayerTableRecord
  2
220
 70
     0
 62
   220
  6
CONTINUOUS
  0
LAYER
  5
116
330
2
100
AcDbSymbolTableRecord
100
AcDbLayerTableRecord
  2
221
 70
     0
 62
   221
  6
CONTINUOUS
  0
LAYER
  5
117
330
2
100
AcDbSymbolTableRecord
100
AcDbLayerTableRecord
  2
222
 70
     0
 62
   222
  6
CONTINUOUS
  0
LAYER
  5
118
330
2
100
AcDbSymbolTableRecord
100
AcDbLayerTableRecord
  2
223
 70
     0
 62
   223
  6
CONTINUOUS
  0
LAYER
  5
119
330
2
100
AcDbSymbolTableRecord
100
AcDbLayerTableRecord
  2
224
 70
     0
 62
   224
  6
CONTINUOUS
  0
LAYER
  5
11A
330
2
100
AcDbSymbolTableRecord
100
AcDbLayerTableRecord
  2
225
 70
     0
 62
   225
  6
CONTINUOUS
  0
LAYER
  5
11B
330
2
100
AcDbSymbolTableRecord
100
AcDbLayerTableRecord
  2
226
 70
     0
 62
   226
  6
CONTINUOUS
  0
LAYER
  5
11C
330
2
100
AcDbSymbolTableRecord
100
AcDbLayerTableRecord
  2
227
 70
     0
 62
   227
  6
CONTINUOUS
  0
LAYER
  5
11D
330
2
100
AcDbSymbolTableRecord
100
AcDbLayerTableRecord
  2
228
 70
     0
 62
   228
  6
CONTINUOUS
  0
LAYER
  5
11E
330
2
100
AcDbSymbolTableRecord
100
AcDbLayerTableRecord
  2
229
 70
     0
 62
   229
  6
CONTINUOUS
  0
LAYER
  5
11F
330
2
100
AcDbSymbolTableRecord
100
AcDbLayerTableRecord
  2
230
 70
     0
 62
   230
  6
CONTINUOUS
  0
LAYER
  5
120
330
2
100
AcDbSymbolTableRecord
100
AcDbLayerTableRecord
  2
231
 70
     0
 62
   231
  6
CONTINUOUS
  0
LAYER
  5
121
330
2
100
AcDbSymbolTableRecord
100
AcDbLayerTableRecord
  2
232
 70
     0
 62
   232
  6
CONTINUOUS
  0
LAYER
  5
122
330
2
100
AcDbSymbolTableRecord
100
AcDbLayerTableRecord
  2
233
 70
     0
 62
   233
  6
CONTINUOUS
  0
LAYER
  5
123
330
2
100
AcDbSymbolTableRecord
100
AcDbLayerTableRecord
  2
234
 70
     0
 62
   234
  6
CONTINUOUS
  0
LAYER
  5
124
330
2
100
AcDbSymbolTableRecord
100
AcDbLayerTableRecord
  2
235
 70
     0
 62
   235
  6
CONTINUOUS
  0
LAYER
  5
125
330
2
100
AcDbSymbolTableRecord
100
AcDbLayerTableRecord
  2
236
 70
     0
 62
   236
  6
CONTINUOUS
  0
LAYER
  5
126
330
2
100
AcDbSymbolTableRecord
100
AcDbLayerTableRecord
  2
237
 70
     0
 62
   237
  6
CONTINUOUS
  0
LAYER
  5
127
330
2
100
AcDbSymbolTableRecord
100
AcDbLayerTableRecord
  2
238
 70
     0
 62
   238
  6
CONTINUOUS
  0
LAYER
  5
128
330
2
100
AcDbSymbolTableRecord
100
AcDbLayerTableRecord
  2
239
 70
     0
 62
   239
  6
CONTINUOUS
  0
LAYER
  5
129
330
2
100
AcDbSymbolTableRecord
100
AcDbLayerTableRecord
  2
240
 70
     0
 62
   240
  6
CONTINUOUS
  0
LAYER
  5
12A
330
2
100
AcDbSymbolTableRecord
100
AcDbLayerTableRecord
  2
241
 70
     0
 62
   241
  6
CONTINUOUS
  0
LAYER
  5
12B
330
2
100
AcDbSymbolTableRecord
100
AcDbLayerTableRecord
  2
242
 70
     0
 62
   242
  6
CONTINUOUS
  0
LAYER
  5
12C
330
2
100
AcDbSymbolTableRecord
100
AcDbLayerTableRecord
  2
243
 70
     0
 62
   243
  6
CONTINUOUS
  0
LAYER
  5
12D
330
2
100
AcDbSymbolTableRecord
100
AcDbLayerTableRecord
  2
244
 70
     0
 62
   244
  6
CONTINUOUS
  0
LAYER
  5
12E
330
2
100
AcDbSymbolTableRecord
100
AcDbLayerTableRecord
  2
245
 70
     0
 62
   245
  6
CONTINUOUS
  0
LAYER
  5
12F
330
2
100
AcDbSymbolTableRecord
100
AcDbLayerTableRecord
  2
246
 70
     0
 62
   246
  6
CONTINUOUS
  0
LAYER
  5
130
330
2
100
AcDbSymbolTableRecord
100
AcDbLayerTableRecord
  2
247
 70
     0
 62
   247
  6
CONTINUOUS
  0
LAYER
  5
131
330
2
100
AcDbSymbolTableRecord
100
AcDbLayerTableRecord
  2
248
 70
     0
 62
   248
  6
CONTINUOUS
  0
LAYER
  5
132
330
2
100
AcDbSymbolTableRecord
100
AcDbLayerTableRecord
  2
249
 70
     0
 62
   249
  6
CONTINUOUS
  0
LAYER
  5
133
330
2
100
AcDbSymbolTableRecord
100
AcDbLayerTableRecord
  2
250
 70
     0
 62
   250
  6
CONTINUOUS
  0
LAYER
  5
134
330
2
100
AcDbSymbolTableRecord
100
AcDbLayerTableRecord
  2
251
 70
     0
 62
   251
  6
CONTINUOUS
  0
LAYER
  5
135
330
2
100
AcDbSymbolTableRecord
100
AcDbLayerTableRecord
  2
252
 70
     0
 62
   252
  6
CONTINUOUS
  0
LAYER
  5
136
330
2
100
AcDbSymbolTableRecord
100
AcDbLayerTableRecord
  2
253
 70
     0
 62
   253
  6
CONTINUOUS
  0
LAYER
  5
137
330
2
100
AcDbSymbolTableRecord
100
AcDbLayerTableRecord
  2
254
 70
     0
 62
   254
  6
CONTINUOUS
  0
LAYER
  5
138
330
2
100
AcDbSymbolTableRecord
100
AcDbLayerTableRecord
  2
255
 70
     0
 62
   255
  6
CONTINUOUS
  0
LAYER
  5
4038
330
2
100
AcDbSymbolTableRecord
100
AcDbLayerTableRecord
  2
DEFPOINTS
 70
     0
 62
     7
  6
CONTINUOUS
  0
ENDTAB
  0
TABLE
  2
STYLE
  5
3
330
0
100
AcDbSymbolTable
 70
     1
  0
STYLE
  5
11
330
3
100
AcDbSymbolTableRecord
100
AcDbTextStyleTableRecord
  2
STANDARD
 70
     0
 40
0.0
 41
1.0
 50
0.0
 71
     0
 42
0.2
  3
monotxt
  4

  0
ENDTAB
  0
TABLE
  2
VIEW
  5
6
330
0
100
AcDbSymbolTable
 70
     0
  0
ENDTAB
  0
TABLE
  2
UCS
  5
7
330
0
100
AcDbSymbolTable
 70
     0
  0
ENDTAB
  0
TABLE
  2
APPID
  5
9
330
0
100
AcDbSymbolTable
 70
     1
  0
APPID
  5
12
330
9
100
AcDbSymbolTableRecord
100
AcDbRegAppTableRecord
  2
ACAD
 70
     0
  0
ENDTAB
  0
TABLE
  2
DIMSTYLE
  5
A
330
0
100
AcDbSymbolTable
 70
     1
  0
DIMSTYLE
105
2CB0
330
A
100
AcDbSymbolTableRecord
100
AcDbDimStyleTableRecord
  2
STANDARD
 70
     0
  3

  4

  5

  6

  7

 40
1.0
 41
0.18
 42
0.0625
 43
0.38
 44
0.18
 45
0.0
 46
0.0
 47
0.0
 48
0.0
140
0.18
141
0.09
142
0.0
143
25.4
144
1.0
145
0.0
146
1.0
147
0.09
 71
     0
 72
     0
 73
     1
 74
     1
 75
     0
 76
     0
 77
     0
 78
     0
170
     0
171
     2
172
     0
173
     0
174
     0
175
     0
176
     0
177
     0
178
     0
270
     2
271
     4
272
     4
273
     2
274
     2
340
11
275
     0
280
     0
281
     0
282
     0
283
     1
284
     0
285
     0
286
     0
287
     3
288
     0
  0
ENDTAB
  0
TABLE
  2
BLOCK_RECORD
  5
1
330
0
100
AcDbSymbolTable
 70
     1
  0
BLOCK_RECORD
  5
1E
102
{ACAD_XDICTIONARY
360
4047
102
}
330
1
100
AcDbSymbolTableRecord
100
AcDbBlockTableRecord
  2
*MODEL_SPACE
  0
BLOCK_RECORD
  5
1A
102
{ACAD_XDICTIONARY
360
4049
102
}
330
1
100
AcDbSymbolTableRecord
100
AcDbBlockTableRecord
  2
*PAPER_SPACE
  0
ENDTAB
  0
ENDSEC
  0
SECTION
  2
BLOCKS
  0
BLOCK
  5
13B
330
1E
100
AcDbEntity
  8
0
100
AcDbBlockBegin
  2
*MODEL_SPACE
 70
     0
 10
0.0
 20
0.0
 30
0.0
  3
*MODEL_SPACE
  1

  0
ENDBLK
  5
13C
330
1E
100
AcDbEntity
  8
0
100
AcDbBlockEnd
  0
BLOCK
  5
139
330
1A
100
AcDbEntity
 67
     1
  8
0
100
AcDbBlockBegin
  2
*PAPER_SPACE
 70
     0
 10
0.0
 20
0.0
 30
0.0
  3
*PAPER_SPACE
  1

  0
ENDBLK
  5
13A
330
1A
100
AcDbEntity
 67
     1
  8
0
100
AcDbBlockEnd
  0
ENDSEC
  0
SECTION
  2
ENTITIES
  0
LINE
  5
29D7
330
1E
100
AcDbEntity
  8
3
100
AcDbLine
 10
1.770608262319096
 20
5.270362887257151
 30
0.0
 11
1.770608262319096
 21
5.916032178595734
 31
0.0
  0
LINE
  5
29DD
330
1E
100
AcDbEntity
  8
3
100
AcDbLine
 10
1.770608262319096
 20
5.916032178595734
 30
0.0
 11
1.190555768880777
 21
5.916032178595734
 31
0.0
  0
LINE
  5
29DE
330
1E
100
AcDbEntity
  8
3
100
AcDbLine
 10
1.770608262319096
 20
4.375349763897573
 30
0.0
 11
1.770608262319096
 21
5.021019055236155
 31
0.0
  0
LINE
  5
29E4
330
1E
100
AcDbEntity
  8
3
100
AcDbLine
 10
1.770608262319096
 20
5.021019055236155
 30
0.0
 11
1.190555768880777
 21
5.021019055236155
 31
0.0
  0
LINE
  5
29FB
330
1E
100
AcDbEntity
  8
3
100
AcDbLine
 10
2.417589889615683
 20
3.330730341325395
 30
0.0
 11
2.417589889615683
 21
3.679811706154791
 31
0.0
  0
LINE
  5
2A02
330
1E
100
AcDbEntity
  8
3
100
AcDbLine
 10
0.5737578686183103
 20
3.299234278333269
 30
0.0
 11
2.386093826623558
 21
3.299234278333269
 31
0.0
  0
LINE
  5
2A09
330
1E
100
AcDbEntity
  8
3
100
AcDbLine
 10
0.5422618056261844
 20
3.679811706154791
 30
0.0
 11
0.5422618056261844
 21
3.330730341325395
 31
0.0
  0
LINE
  5
2A10
330
1E
100
AcDbEntity
  8
3
100
AcDbLine
 10
2.386093826623558
 20
3.711307769146917
 30
0.0
 11
0.5737578686183103
 21
3.711307769146917
 31
0.0
  0
LINE
  5
2A1C
330
1E
100
AcDbEntity
  8
3
100
AcDbLine
 10
0.1052539316104362
 20
2.955402257335894
 30
0.0
 11
0.1091909394844523
 21
2.959339265209909
 31
0.0
  0
LINE
  5
2A28
330
1E
100
AcDbEntity
  8
3
100
AcDbLine
 10
2.855910099589436
 20
7.335979685157413
 30
0.0
 11
2.851973091715421
 21
7.332042677283396
 31
0.0
  0
LINE
  5
2A96
330
1E
100
AcDbEntity
  8
3
100
AcDbLine
 10
2.79160563764718
 20
2.898971811141668
 30
0.0
 11
2.8217893646813
 21
2.9068458268897
 31
0.0
  0
LINE
  5
2AB6
330
1E
100
AcDbEntity
  8
3
100
AcDbLine
 10
1.420214561531695
 20
6.633879947624604
 30
0.0
 11
1.540949469668178
 21
6.633879947624604
 31
0.0
  0
LINE
  5
2AC8
330
1E
100
AcDbEntity
  8
3
100
AcDbLine
 10
1.540949469668178
 20
6.938341889881822
 30
0.0
 11
1.420214561531695
 21
6.938341889881822
 31
0.0
  0
LINE
  5
2ADA
330
1E
100
AcDbEntity
  8
3
100
AcDbLine
 10
0.6078786035264466
 20
6.581386509304395
 30
0.0
 11
0.6078786035264466
 21
6.990835328202033
 31
0.0
  0
LINE
  5
2ADB
330
1E
100
AcDbEntity
  8
3
100
AcDbLine
 10
2.353285427673426
 20
6.581386509304395
 30
0.0
 11
0.6078786035264466
 21
6.581386509304395
 31
0.0
  0
LINE
  5
2ADC
330
1E
100
AcDbEntity
  8
3
100
AcDbLine
 10
2.353285427673426
 20
6.581386509304395
 30
0.0
 11
2.353285427673426
 21
6.990835328202033
 31
0.0
  0
LINE
  5
2ADD
330
1E
100
AcDbEntity
  8
3
100
AcDbLine
 10
0.6078786035264466
 20
6.990835328202033
 30
0.0
 11
2.353285427673426
 21
6.990835328202033
 31
0.0
  0
LINE
  5
2ADE
330
1E
100
AcDbEntity
  8
3
100
AcDbLine
 10
0.6078786035264466
 20
6.581386509304395
 30
0.0
 11
0.6052539316104362
 21
6.58007417334639
 31
0.0
  0
LINE
  5
2ADF
330
1E
100
AcDbEntity
  8
3
100
AcDbLine
 10
0.6078786035264466
 20
6.990835328202033
 30
0.0
 11
0.6052539316104362
 21
6.992147664160038
 31
0.0
  0
LINE
  5
2AEF
330
1E
100
AcDbEntity
  8
3
100
AcDbLine
 10
2.353285427673426
 20
6.581386509304395
 30
0.0
 11
2.355910099589437
 21
6.58007417334639
 31
0.0
  0
LINE
  5
2AF0
330
1E
100
AcDbEntity
  8
3
100
AcDbLine
 10
2.353285427673426
 20
6.990835328202033
 30
0.0
 11
2.355910099589437
 21
6.992147664160038
 31
0.0
  0
LINE
  5
2B00
330
1E
100
AcDbEntity
  8
3
100
AcDbLine
 10
2.416277553657678
 20
6.611570236338516
 30
0.0
 11
2.417589889615683
 21
6.611570236338516
 31
0.0
  0
LINE
  5
2B01
330
1E
100
AcDbEntity
  8
3
100
AcDbLine
 10
2.386093826623558
 20
6.58007417334639
 30
0.0
 11
2.384781490665553
 21
6.58007417334639
 31
0.0
  0
LINE
  5
2B02
330
1E
100
AcDbEntity
  8
3
100
AcDbLine
 10
2.384781490665553
 20
6.992147664160038
 30
0.0
 11
2.386093826623558
 21
6.992147664160038
 31
0.0
  0
LINE
  5
2B03
330
1E
100
AcDbEntity
  8
3
100
AcDbLine
 10
2.417589889615683
 20
6.960651601167912
 30
0.0
 11
2.416277553657678
 21
6.960651601167912
 31
0.0
  0
LINE
  5
2B04
330
1E
100
AcDbEntity
  8
3
100
AcDbLine
 10
0.5448864775421947
 20
6.960651601167912
 30
0.0
 11
0.5422618056261844
 21
6.960651601167912
 31
0.0
  0
LINE
  5
2B05
330
1E
100
AcDbEntity
  8
3
100
AcDbLine
 10
0.5737578686183103
 20
6.992147664160038
 30
0.0
 11
0.5763825405343206
 21
6.992147664160038
 31
0.0
  0
LINE
  5
2B06
330
1E
100
AcDbEntity
  8
3
100
AcDbLine
 10
0.5763825405343206
 20
6.58007417334639
 30
0.0
 11
0.5737578686183103
 21
6.58007417334639
 31
0.0
  0
LINE
  5
2B07
330
1E
100
AcDbEntity
  8
3
100
AcDbLine
 10
0.5422618056261844
 20
6.611570236338516
 30
0.0
 11
0.5448864775421947
 21
6.611570236338516
 31
0.0
  0
LINE
  5
2B08
330
1E
100
AcDbEntity
  8
3
100
AcDbLine
 10
1.420214561531695
 20
6.636504619540616
 30
0.0
 11
1.420214561531695
 21
6.633879947624604
 31
0.0
  0
LINE
  5
2B0E
330
1E
100
AcDbEntity
  8
3
100
AcDbLine
 10
1.540949469668178
 20
6.935717217965812
 30
0.0
 11
1.540949469668178
 21
6.938341889881822
 31
0.0
  0
LINE
  5
2B36
330
1E
100
AcDbEntity
  8
3
100
AcDbLine
 10
1.420214561531695
 20
6.709995433188909
 30
0.0
 11
1.540949469668178
 21
6.709995433188909
 31
0.0
  0
LINE
  5
2B45
330
1E
100
AcDbEntity
  8
3
100
AcDbLine
 10
1.420214561531695
 20
6.862226404317517
 30
0.0
 11
1.540949469668178
 21
6.862226404317517
 31
0.0
  0
LINE
  5
2B54
330
1E
100
AcDbEntity
  8
3
100
AcDbLine
 10
1.420214561531695
 20
6.862226404317517
 30
0.0
 11
1.540949469668178
 21
6.862226404317517
 31
0.0
  0
LINE
  5
2B55
330
1E
100
AcDbEntity
  8
3
100
AcDbLine
 10
1.420214561531695
 20
6.709995433188909
 30
0.0
 11
1.540949469668178
 21
6.709995433188909
 31
0.0
  0
LINE
  5
2B56
330
1E
100
AcDbEntity
  8
3
100
AcDbLine
 10
1.586881228198361
 20
6.846478372821454
 30
0.0
 11
1.576382540534319
 21
6.853040052611481
 31
0.0
  0
LINE
  5
2B57
330
1E
100
AcDbEntity
  8
3
100
AcDbLine
 10
1.576382540534319
 20
6.719181784894947
 30
0.0
 11
1.586881228198361
 21
6.725743464684972
 31
0.0
  0
LINE
  5
2B67
330
1E
100
AcDbEntity
  8
3
100
AcDbLine
 10
1.374282803001511
 20
6.725743464684972
 30
0.0
 11
1.384781490665553
 21
6.719181784894947
 31
0.0
  0
LINE
  5
2B68
330
1E
100
AcDbEntity
  8
3
100
AcDbLine
 10
1.384781490665553
 20
6.853040052611481
 30
0.0
 11
1.374282803001511
 21
6.846478372821454
 31
0.0
  0
LINE
  5
2B6E
330
1E
100
AcDbEntity
  8
3
100
AcDbLine
 10
1.384781490665553
 20
6.719181784894947
 30
0.0
 11
1.576382540534319
 21
6.719181784894947
 31
0.0
  0
LINE
  5
2B6F
330
1E
100
AcDbEntity
  8
3
100
AcDbLine
 10
1.586881228198361
 20
6.725743464684972
 30
0.0
 11
1.374282803001511
 21
6.725743464684972
 31
0.0
  0
LINE
  5
2B70
330
1E
100
AcDbEntity
  8
3
100
AcDbLine
 10
1.384781490665553
 20
6.853040052611481
 30
0.0
 11
1.576382540534319
 21
6.853040052611481
 31
0.0
  0
LINE
  5
2B71
330
1E
100
AcDbEntity
  8
3
100
AcDbLine
 10
1.586881228198361
 20
6.846478372821454
 30
0.0
 11
1.374282803001511
 21
6.846478372821454
 31
0.0
  0
LINE
  5
2B80
330
1E
100
AcDbEntity
  8
3
100
AcDbLine
 10
1.420214561531695
 20
3.656189658910696
 30
0.0
 11
1.540949469668178
 21
3.656189658910696
 31
0.0
  0
LINE
  5
2B81
330
1E
100
AcDbEntity
  8
3
100
AcDbLine
 10
1.540949469668178
 20
3.35435238856949
 30
0.0
 11
1.582944220324346
 21
3.360914068359516
 31
0.0
  0
LINE
  5
2B8F
330
1E
100
AcDbEntity
  8
3
100
AcDbLine
 10
1.540949469668178
 20
3.353040052611484
 30
0.0
 11
1.420214561531695
 21
3.353040052611484
 31
0.0
  0
LINE
  5
2BA3
330
1E
100
AcDbEntity
  8
3
100
AcDbLine
 10
2.353285427673426
 20
3.709995433188912
 30
0.0
 11
2.353285427673426
 21
3.300546614291274
 31
0.0
  0
LINE
  5
2BA9
330
1E
100
AcDbEntity
  8
3
100
AcDbLine
 10
0.6078786035264466
 20
3.300546614291274
 30
0.0
 11
0.6052539316104362
 21
3.299234278333269
 31
0.0
  0
LINE
  5
2BB0
330
1E
100
AcDbEntity
  8
3
100
AcDbLine
 10
0.5448864775421947
 20
3.330730341325395
 30
0.0
 11
0.5448864775421947
 21
3.679811706154791
 31
0.0
  0
LINE
  5
2BB7
330
1E
100
AcDbEntity
  8
3
100
AcDbLine
 10
0.6052539316104362
 20
3.299234278333269
 30
0.0
 11
0.5763825405343206
 21
3.299234278333269
 31
0.0
  0
LINE
  5
2BB8
330
1E
100
AcDbEntity
  8
3
100
AcDbLine
 10
0.5763825405343206
 20
3.709995433188912
 30
0.0
 11
0.6052539316104362
 21
3.709995433188912
 31
0.0
  0
LINE
  5
2BB9
330
1E
100
AcDbEntity
  8
3
100
AcDbLine
 10
2.353285427673426
 20
3.709995433188912
 30
0.0
 11
2.355910099589437
 21
3.709995433188912
 31
0.0
  0
LINE
  5
2BBA
330
1E
100
AcDbEntity
  8
3
100
AcDbLine
 10
2.353285427673426
 20
3.300546614291274
 30
0.0
 11
2.355910099589437
 21
3.299234278333269
 31
0.0
  0
LINE
  5
2BBB
330
1E
100
AcDbEntity
  8
3
100
AcDbLine
 10
2.384781490665553
 20
3.299234278333269
 30
0.0
 11
2.355910099589437
 21
3.299234278333269
 31
0.0
  0
LINE
  5
2BC2
330
1E
100
AcDbEntity
  8
3
100
AcDbLine
 10
2.416277553657678
 20
3.679811706154791
 30
0.0
 11
2.416277553657678
 21
3.330730341325395
 31
0.0
  0
LINE
  5
2BC9
330
1E
100
AcDbEntity
  8
3
100
AcDbLine
 10
2.355910099589437
 20
3.709995433188912
 30
0.0
 11
2.384781490665553
 21
3.709995433188912
 31
0.0
  0
LINE
  5
2BCA
330
1E
100
AcDbEntity
  8
3
100
AcDbLine
 10
2.386093826623558
 20
3.711307769146917
 30
0.0
 11
2.384781490665553
 21
3.709995433188912
 31
0.0
  0
LINE
  5
2BCB
330
1E
100
AcDbEntity
  8
3
100
AcDbLine
 10
2.416277553657678
 20
3.679811706154791
 30
0.0
 11
2.417589889615683
 21
3.679811706154791
 31
0.0
  0
LINE
  5
2BCC
330
1E
100
AcDbEntity
  8
3
100
AcDbLine
 10
2.417589889615683
 20
3.330730341325395
 30
0.0
 11
2.416277553657678
 21
3.330730341325395
 31
0.0
  0
LINE
  5
2BCD
330
1E
100
AcDbEntity
  8
3
100
AcDbLine
 10
2.384781490665553
 20
3.299234278333269
 30
0.0
 11
2.386093826623558
 21
3.299234278333269
 31
0.0
  0
LINE
  5
2BCE
330
1E
100
AcDbEntity
  8
3
100
AcDbLine
 10
0.5737578686183103
 20
3.299234278333269
 30
0.0
 11
0.5763825405343206
 21
3.299234278333269
 31
0.0
  0
LINE
  5
2BCF
330
1E
100
AcDbEntity
  8
3
100
AcDbLine
 10
0.5448864775421947
 20
3.330730341325395
 30
0.0
 11
0.5422618056261844
 21
3.330730341325395
 31
0.0
  0
LINE
  5
2BD0
330
1E
100
AcDbEntity
  8
3
100
AcDbLine
 10
0.5422618056261844
 20
3.679811706154791
 30
0.0
 11
0.5448864775421947
 21
3.679811706154791
 31
0.0
  0
LINE
  5
2BD1
330
1E
100
AcDbEntity
  8
3
100
AcDbLine
 10
0.5763825405343206
 20
3.709995433188912
 30
0.0
 11
0.5737578686183103
 21
3.711307769146917
 31
0.0
  0
LINE
  5
2BD2
330
1E
100
AcDbEntity
  8
3
100
AcDbLine
 10
1.420214561531695
 20
3.654877322952691
 30
0.0
 11
1.420214561531695
 21
3.656189658910696
 31
0.0
  0
LINE
  5
2BD3
330
1E
100
AcDbEntity
  8
3
100
AcDbLine
 10
1.540949469668178
 20
3.654877322952691
 30
0.0
 11
1.420214561531695
 21
3.654877322952691
 31
0.0
  0
LINE
  5
2BD4
330
1E
100
AcDbEntity
  8
3
100
AcDbLine
 10
1.540949469668178
 20
3.656189658910696
 30
0.0
 11
1.540949469668178
 21
3.654877322952691
 31
0.0
  0
LINE
  5
2BD5
330
1E
100
AcDbEntity
  8
3
100
AcDbLine
 10
1.540949469668178
 20
3.355664724527495
 30
0.0
 11
1.540949469668178
 21
3.353040052611484
 31
0.0
  0
LINE
  5
2BD6
330
1E
100
AcDbEntity
  8
3
100
AcDbLine
 10
1.420214561531695
 20
3.355664724527495
 30
0.0
 11
1.540949469668178
 21
3.355664724527495
 31
0.0
  0
LINE
  5
2BD7
330
1E
100
AcDbEntity
  8
3
100
AcDbLine
 10
1.420214561531695
 20
3.353040052611484
 30
0.0
 11
1.420214561531695
 21
3.355664724527495
 31
0.0
  0
LINE
  5
2BFA
330
1E
100
AcDbEntity
  8
3
100
AcDbLine
 10
1.420214561531695
 20
3.581386509304397
 30
0.0
 11
1.540949469668178
 21
3.581386509304397
 31
0.0
  0
LINE
  5
2C06
330
1E
100
AcDbEntity
  8
3
100
AcDbLine
 10
1.420214561531695
 20
3.429155538175789
 30
0.0
 11
1.540949469668178
 21
3.429155538175789
 31
0.0
  0
LINE
  5
2C07
330
1E
100
AcDbEntity
  8
3
100
AcDbLine
 10
1.420214561531695
 20
3.581386509304397
 30
0.0
 11
1.391343170455579
 21
3.576137165472376
 31
0.0
  0
LINE
  5
2C12
330
1E
100
AcDbEntity
  8
3
100
AcDbLine
 10
1.420214561531695
 20
3.429155538175789
 30
0.0
 11
1.540949469668178
 21
3.429155538175789
 31
0.0
  0
LINE
  5
2C13
330
1E
100
AcDbEntity
  8
3
100
AcDbLine
 10
1.420214561531695
 20
3.581386509304397
 30
0.0
 11
1.540949469668178
 21
3.581386509304397
 31
0.0
  0
LINE
  5
2C14
330
1E
100
AcDbEntity
  8
3
100
AcDbLine
 10
1.586881228198361
 20
3.444903569671852
 30
0.0
 11
1.576382540534319
 21
3.438341889881826
 31
0.0
  0
LINE
  5
2C1F
330
1E
100
AcDbEntity
  8
3
100
AcDbLine
 10
1.576382540534319
 20
3.572200157598361
 30
0.0
 11
1.586881228198361
 21
3.565638477808334
 31
0.0
  0
LINE
  5
2C25
330
1E
100
AcDbEntity
  8
3
100
AcDbLine
 10
1.384781490665553
 20
3.438341889881826
 30
0.0
 11
1.374282803001511
 21
3.444903569671852
 31
0.0
  0
LINE
  5
2C26
330
1E
100
AcDbEntity
  8
3
100
AcDbLine
 10
1.374282803001511
 20
3.565638477808334
 30
0.0
 11
1.384781490665553
 21
3.572200157598361
 31
0.0
  0
LINE
  5
2C27
330
1E
100
AcDbEntity
  8
3
100
AcDbLine
 10
1.420214561531695
 20
3.581386509304397
 30
0.0
 11
1.401841858119621
 21
3.578761837388388
 31
0.0
  0
LINE
  5
2C28
330
1E
100
AcDbEntity
  8
3
100
AcDbLine
 10
1.401841858119621
 20
3.578761837388388
 30
0.0
 11
1.384781490665553
 21
3.572200157598361
 31
0.0
  0
LINE
  5
2C29
330
1E
100
AcDbEntity
  8
3
100
AcDbLine
 10
1.384781490665553
 20
3.572200157598361
 30
0.0
 11
1.576382540534319
 21
3.572200157598361
 31
0.0
  0
LINE
  5
2C2A
330
1E
100
AcDbEntity
  8
3
100
AcDbLine
 10
1.586881228198361
 20
3.565638477808334
 30
0.0
 11
1.374282803001511
 21
3.565638477808334
 31
0.0
  0
LINE
  5
2C2B
330
1E
100
AcDbEntity
  8
3
100
AcDbLine
 10
1.384781490665553
 20
3.438341889881826
 30
0.0
 11
1.576382540534319
 21
3.438341889881826
 31
0.0
  0
LINE
  5
2C2C
330
1E
100
AcDbEntity
  8
3
100
AcDbLine
 10
1.586881228198361
 20
3.444903569671852
 30
0.0
 11
1.374282803001511
 21
3.444903569671852
 31
0.0
  0
LINE
  5
2C2D
330
1E
100
AcDbEntity
  8
3
100
AcDbLine
 10
4.606566267568437
 20
3.166688346574739
 30
0.0
 11
4.606566267568437
 21
7.209995433188909
 31
0.0
  0
LINE
  5
2C2E
330
1E
100
AcDbEntity
  8
3
100
AcDbLine
 10
5.058009837122243
 20
6.135192283582609
 30
0.0
 11
5.058009837122243
 21
6.171937690406757
 31
0.0
  0
LINE
  5
2C36
330
1E
100
AcDbEntity
  8
3
100
AcDbLine
 10
4.998954719012007
 20
5.307108294081298
 30
0.0
 11
5.021264430298096
 21
5.301858950249277
 31
0.0
  0
LINE
  5
2C3D
330
1E
100
AcDbEntity
  8
3
100
AcDbLine
 10
5.058009837122243
 20
5.240179160223031
 30
0.0
 11
5.058009837122243
 21
5.246740840013058
 31
0.0
  0
LINE
  5
2C4F
330
1E
100
AcDbEntity
  8
3
100
AcDbLine
 10
5.058009837122243
 20
4.313669973871326
 30
0.0
 11
5.058009837122243
 21
4.351727716653478
 31
0.0
  0
LINE
  5
2C50
330
1E
100
AcDbEntity
  8
3
100
AcDbLine
 10
4.987143695389959
 20
4.41209517072172
 30
0.0
 11
4.998954719012007
 21
4.41209517072172
 31
0.0
  0
LINE
  5
2C56
330
1E
100
AcDbEntity
  8
3
100
AcDbLine
 10
4.987143695389959
 20
5.307108294081298
 30
0.0
 11
4.998954719012007
 21
5.307108294081298
 31
0.0
  0
LINE
  5
2C5C
330
1E
100
AcDbEntity
  8
3
100
AcDbLine
 10
4.882156818749539
 20
4.311045301955314
 30
0.0
 11
5.058009837122243
 21
4.313669973871326
 31
0.0
  0
LINE
  5
2C5D
330
1E
100
AcDbEntity
  8
3
100
AcDbLine
 10
4.882156818749539
 20
6.175874698280773
 30
0.0
 11
5.058009837122243
 21
6.171937690406757
 31
0.0
  0
LINE
  5
2C5E
330
1E
100
AcDbEntity
  8
3
100
AcDbLine
 10
4.820477028723292
 20
7.435717217965811
 30
0.0
 11
4.882156818749539
 21
7.438341889881822
 31
0.0
  0
LINE
  5
2C66
330
1E
100
AcDbEntity
  8
3
100
AcDbLine
 10
4.882156818749539
 20
2.938341889881826
 30
0.0
 11
4.820477028723292
 21
2.942278897755842
 31
0.0
  0
LINE
  5
2C98
330
1E
100
AcDbEntity
  8
3
100
AcDbLine
 10
4.610503275442453
 20
3.123381259960566
 30
0.0
 11
4.606566267568437
 21
3.166688346574739
 31
0.0
  0
LINE
  5
2CB3
330
1E
100
AcDbEntity
  8
3
100
AcDbLine
 10
4.820477028723292
 20
2.942278897755842
 30
0.0
 11
4.819164692765287
 21
2.950152913503873
 31
0.0
  0
LINE
  5
2CB4
330
1E
100
AcDbEntity
  8
3
100
AcDbLine
 10
4.819164692765287
 20
2.950152913503873
 30
0.0
 11
4.819164692765287
 21
2.971150288831957
 31
0.0
  0
LINE
  5
2CB5
330
1E
100
AcDbEntity
  8
3
100
AcDbLine
 10
4.819164692765287
 20
2.971150288831957
 30
0.0
 11
4.820477028723292
 21
3.001334015866078
 31
0.0
  0
LINE
  5
2CB6
330
1E
100
AcDbEntity
  8
3
100
AcDbLine
 10
4.820477028723292
 20
7.37534976389757
 30
0.0
 11
4.819164692765287
 21
7.40553349093169
 31
0.0
  0
LINE
  5
2CB7
330
1E
100
AcDbEntity
  8
3
100
AcDbLine
 10
4.819164692765287
 20
7.40553349093169
 30
0.0
 11
4.819164692765287
 21
7.427843202217781
 31
0.0
  0
LINE
  5
2CB8
330
1E
100
AcDbEntity
  8
3
100
AcDbLine
 10
4.819164692765287
 20
7.427843202217781
 30
0.0
 11
4.820477028723292
 21
7.435717217965811
 31
0.0
  0
LINE
  5
2CB9
330
1E
100
AcDbEntity
  8
3
100
AcDbLine
 10
4.606566267568437
 20
7.209995433188909
 30
0.0
 11
4.610503275442453
 21
7.253302519803082
 31
0.0
  0
LINE
  5
2CBA
330
1E
100
AcDbEntity
  8
3
100
AcDbLine
 10
4.610503275442453
 20
7.253302519803082
 30
0.0
 11
4.6223142990645
 21
7.293984934501245
 31
0.0
  0
LINE
  5
2CBB
330
1E
100
AcDbEntity
  8
3
100
AcDbLine
 10
4.6223142990645
 20
7.293984934501245
 30
0.0
 11
4.641999338434579
 21
7.332042677283396
 31
0.0
  0
LINE
  5
2CBC
330
1E
100
AcDbEntity
  8
3
100
AcDbLine
 10
4.641999338434579
 20
7.332042677283396
 30
0.0
 11
4.668246057594684
 21
7.364851076233529
 31
0.0
  0
LINE
  5
2CBD
330
1E
100
AcDbEntity
  8
3
100
AcDbLine
 10
4.668246057594684
 20
7.364851076233529
 30
0.0
 11
4.701054456544815
 21
7.393722467309643
 31
0.0
  0
LINE
  5
2CBE
330
1E
100
AcDbEntity
  8
3
100
AcDbLine
 10
4.701054456544815
 20
7.393722467309643
 30
0.0
 11
4.737799863368962
 21
7.414719842637728
 31
0.0
  0
LINE
  5
2CBF
330
1E
100
AcDbEntity
  8
3
100
AcDbLine
 10
4.737799863368962
 20
7.414719842637728
 30
0.0
 11
4.77716994210912
 21
7.429155538175786
 31
0.0
  0
LINE
  5
2CC0
330
1E
100
AcDbEntity
  8
3
100
AcDbLine
 10
4.77716994210912
 20
7.429155538175786
 30
0.0
 11
4.820477028723292
 21
7.435717217965811
 31
0.0
  0
LINE
  5
2CC1
330
1E
100
AcDbEntity
  8
3
100
AcDbLine
 10
4.820477028723292
 20
2.942278897755842
 30
0.0
 11
4.77716994210912
 21
2.947528241587863
 31
0.0
  0
LINE
  5
2CC2
330
1E
100
AcDbEntity
  8
3
100
AcDbLine
 10
4.77716994210912
 20
2.947528241587863
 30
0.0
 11
4.737799863368962
 21
2.96196393712592
 31
0.0
  0
LINE
  5
2CC3
330
1E
100
AcDbEntity
  8
3
100
AcDbLine
 10
4.737799863368962
 20
2.96196393712592
 30
0.0
 11
4.701054456544815
 21
2.982961312454004
 31
0.0
  0
LINE
  5
2CC4
330
1E
100
AcDbEntity
  8
3
100
AcDbLine
 10
4.701054456544815
 20
2.982961312454004
 30
0.0
 11
4.668246057594684
 21
3.01183270353012
 31
0.0
  0
LINE
  5
2CC5
330
1E
100
AcDbEntity
  8
3
100
AcDbLine
 10
4.668246057594684
 20
3.01183270353012
 30
0.0
 11
4.641999338434579
 21
3.044641102480251
 31
0.0
  0
LINE
  5
2CC6
330
1E
100
AcDbEntity
  8
3
100
AcDbLine
 10
4.641999338434579
 20
3.044641102480251
 30
0.0
 11
4.6223142990645
 21
3.082698845262403
 31
0.0
  0
LINE
  5
2CC7
330
1E
100
AcDbEntity
  8
3
100
AcDbLine
 10
4.6223142990645
 20
3.082698845262403
 30
0.0
 11
4.610503275442453
 21
3.123381259960566
 31
0.0
  0
LINE
  5
2CC8
330
1E
100
AcDbEntity
  8
3
100
AcDbLine
 10
4.668246057594684
 20
7.324168661535366
 30
0.0
 11
4.641999338434579
 21
7.299234278333265
 31
0.0
  0
LINE
  5
2CC9
330
1E
100
AcDbEntity
  8
3
100
AcDbLine
 10
4.641999338434579
 20
7.299234278333265
 30
0.0
 11
4.6223142990645
 21
7.271675223215156
 31
0.0
  0
LINE
  5
2CCA
330
1E
100
AcDbEntity
  8
3
100
AcDbLine
 10
4.6223142990645
 20
7.271675223215156
 30
0.0
 11
4.610503275442453
 21
7.241491496181035
 31
0.0
  0
LINE
  5
2CCB
330
1E
100
AcDbEntity
  8
3
100
AcDbLine
 10
4.610503275442453
 20
7.241491496181035
 30
0.0
 11
4.606566267568437
 21
7.209995433188909
 31
0.0
  0
LINE
  5
2CCC
330
1E
100
AcDbEntity
  8
3
100
AcDbLine
 10
4.820477028723292
 20
7.37534976389757
 30
0.0
 11
4.77716994210912
 21
7.371412756023555
 31
0.0
  0
LINE
  5
2CCD
330
1E
100
AcDbEntity
  8
3
100
AcDbLine
 10
4.77716994210912
 20
7.371412756023555
 30
0.0
 11
4.737799863368962
 21
7.360914068359512
 31
0.0
  0
LINE
  5
2CCE
330
1E
100
AcDbEntity
  8
3
100
AcDbLine
 10
4.737799863368962
 20
7.360914068359512
 30
0.0
 11
4.701054456544815
 21
7.345166036863449
 31
0.0
  0
LINE
  5
2CCF
330
1E
100
AcDbEntity
  8
3
100
AcDbLine
 10
4.701054456544815
 20
7.345166036863449
 30
0.0
 11
4.668246057594684
 21
7.324168661535366
 31
0.0
  0
LINE
  5
2CD0
330
1E
100
AcDbEntity
  8
3
100
AcDbLine
 10
4.606566267568437
 20
3.166688346574739
 30
0.0
 11
4.610503275442453
 21
3.135192283582613
 31
0.0
  0
LINE
  5
2CD1
330
1E
100
AcDbEntity
  8
3
100
AcDbLine
 10
4.610503275442453
 20
3.135192283582613
 30
0.0
 11
4.6223142990645
 21
3.105008556548492
 31
0.0
  0
LINE
  5
2CD2
330
1E
100
AcDbEntity
  8
3
100
AcDbLine
 10
4.6223142990645
 20
3.105008556548492
 30
0.0
 11
4.641999338434579
 21
3.077449501430383
 31
0.0
  0
LINE
  5
2CD3
330
1E
100
AcDbEntity
  8
3
100
AcDbLine
 10
4.641999338434579
 20
3.077449501430383
 30
0.0
 11
4.668246057594684
 21
3.052515118228282
 31
0.0
  0
LINE
  5
2CD4
330
1E
100
AcDbEntity
  8
3
100
AcDbLine
 10
4.668246057594684
 20
3.052515118228282
 30
0.0
 11
4.701054456544815
 21
3.032830078858204
 31
0.0
  0
LINE
  5
2CD5
330
1E
100
AcDbEntity
  8
3
100
AcDbLine
 10
4.701054456544815
 20
3.032830078858204
 30
0.0
 11
4.737799863368962
 21
3.017082047362141
 31
0.0
  0
LINE
  5
2CD6
330
1E
100
AcDbEntity
  8
3
100
AcDbLine
 10
4.737799863368962
 20
3.017082047362141
 30
0.0
 11
4.77716994210912
 21
3.006583359698099
 31
0.0
  0
LINE
  5
2CD7
330
1E
100
AcDbEntity
  8
3
100
AcDbLine
 10
4.77716994210912
 20
3.006583359698099
 30
0.0
 11
4.820477028723292
 21
3.001334015866078
 31
0.0
  0
LINE
  5
2CD8
330
1E
100
AcDbEntity
  8
3
100
AcDbLine
 10
4.882156818749539
 20
7.438341889881822
 30
0.0
 11
4.882156818749539
 21
7.434404882007807
 31
0.0
  0
LINE
  5
2CD9
330
1E
100
AcDbEntity
  8
3
100
AcDbLine
 10
4.882156818749539
 20
7.434404882007807
 30
0.0
 11
4.882156818749539
 21
7.421281522427753
 31
0.0
  0
LINE
  5
2CDA
330
1E
100
AcDbEntity
  8
3
100
AcDbLine
 10
4.882156818749539
 20
7.421281522427753
 30
0.0
 11
4.882156818749539
 21
7.401596483057676
 31
0.0
  0
LINE
  5
2CDB
330
1E
100
AcDbEntity
  8
3
100
AcDbLine
 10
4.882156818749539
 20
7.401596483057676
 30
0.0
 11
4.882156818749539
 21
7.37797443581358
 31
0.0
  0
LINE
  5
2CDC
330
1E
100
AcDbEntity
  8
3
100
AcDbLine
 10
4.882156818749539
 20
2.998709343950068
 30
0.0
 11
4.882156818749539
 21
2.975087296705972
 31
0.0
  0
LINE
  5
2CDD
330
1E
100
AcDbEntity
  8
3
100
AcDbLine
 10
4.882156818749539
 20
2.975087296705972
 30
0.0
 11
4.882156818749539
 21
2.955402257335894
 31
0.0
  0
LINE
  5
2CDE
330
1E
100
AcDbEntity
  8
3
100
AcDbLine
 10
4.882156818749539
 20
2.955402257335894
 30
0.0
 11
4.882156818749539
 21
2.943591233713847
 31
0.0
  0
LINE
  5
2CDF
330
1E
100
AcDbEntity
  8
3
100
AcDbLine
 10
4.882156818749539
 20
2.943591233713847
 30
0.0
 11
4.882156818749539
 21
2.938341889881826
 31
0.0
  0
LINE
  5
2CE0
330
1E
100
AcDbEntity
  8
3
100
AcDbLine
 10
4.820477028723292
 20
7.37534976389757
 30
0.0
 11
4.820477028723292
 21
3.001334015866078
 31
0.0
  0
LINE
  5
2CE1
330
1E
100
AcDbEntity
  8
3
100
AcDbLine
 10
4.820477028723292
 20
3.001334015866078
 30
0.0
 11
4.882156818749539
 21
2.998709343950068
 31
0.0
  0
LINE
  5
2CE2
330
1E
100
AcDbEntity
  8
3
100
AcDbLine
 10
4.882156818749539
 20
2.998709343950068
 30
0.0
 11
4.882156818749539
 21
7.37797443581358
 31
0.0
  0
LINE
  5
2CE3
330
1E
100
AcDbEntity
  8
3
100
AcDbLine
 10
4.882156818749539
 20
7.37797443581358
 30
0.0
 11
4.820477028723292
 21
7.37534976389757
 31
0.0
  0
LINE
  5
2CE4
330
1E
100
AcDbEntity
  8
3
100
AcDbLine
 10
4.987143695389959
 20
5.307108294081298
 30
0.0
 11
4.987143695389959
 21
6.074824829514369
 31
0.0
  0
LINE
  5
2CE5
330
1E
100
AcDbEntity
  8
3
100
AcDbLine
 10
4.987143695389959
 20
6.074824829514369
 30
0.0
 11
4.998954719012007
 21
6.074824829514369
 31
0.0
  0
LINE
  5
2CE6
330
1E
100
AcDbEntity
  8
3
100
AcDbLine
 10
4.987143695389959
 20
4.41209517072172
 30
0.0
 11
4.987143695389959
 21
5.179811706154789
 31
0.0
  0
LINE
  5
2CE7
330
1E
100
AcDbEntity
  8
3
100
AcDbLine
 10
4.987143695389959
 20
5.179811706154789
 30
0.0
 11
4.998954719012007
 21
5.179811706154789
 31
0.0
  0
LINE
  5
2CE8
330
1E
100
AcDbEntity
  8
3
100
AcDbLine
 10
5.040949469668175
 20
4.393722467309646
 30
0.0
 11
5.052760493290222
 21
4.374037427939566
 31
0.0
  0
LINE
  5
2CE9
330
1E
100
AcDbEntity
  8
3
100
AcDbLine
 10
5.052760493290222
 20
4.374037427939566
 30
0.0
 11
5.058009837122243
 21
4.351727716653478
 31
0.0
  0
LINE
  5
2CEA
330
1E
100
AcDbEntity
  8
3
100
AcDbLine
 10
4.998954719012007
 20
4.41209517072172
 30
0.0
 11
5.021264430298096
 21
4.406845826889699
 31
0.0
  0
LINE
  5
2CEB
330
1E
100
AcDbEntity
  8
3
100
AcDbLine
 10
5.021264430298096
 20
4.406845826889699
 30
0.0
 11
5.040949469668175
 21
4.393722467309646
 31
0.0
  0
LINE
  5
2CEC
330
1E
100
AcDbEntity
  8
3
100
AcDbLine
 10
5.058009837122243
 20
5.240179160223031
 30
0.0
 11
5.052760493290222
 21
5.217869448936942
 31
0.0
  0
LINE
  5
2CED
330
1E
100
AcDbEntity
  8
3
100
AcDbLine
 10
5.052760493290222
 20
5.217869448936942
 30
0.0
 11
5.040949469668175
 21
5.198184409566864
 31
0.0
  0
LINE
  5
2CEE
330
1E
100
AcDbEntity
  8
3
100
AcDbLine
 10
5.040949469668175
 20
5.198184409566864
 30
0.0
 11
5.021264430298096
 21
5.185061049986811
 31
0.0
  0
LINE
  5
2CEF
330
1E
100
AcDbEntity
  8
3
100
AcDbLine
 10
5.021264430298096
 20
5.185061049986811
 30
0.0
 11
4.998954719012007
 21
5.179811706154789
 31
0.0
  0
LINE
  5
2CF0
330
1E
100
AcDbEntity
  8
3
100
AcDbLine
 10
5.021264430298096
 20
5.301858950249277
 30
0.0
 11
5.040949469668175
 21
5.288735590669225
 31
0.0
  0
LINE
  5
2CF1
330
1E
100
AcDbEntity
  8
3
100
AcDbLine
 10
5.040949469668175
 20
5.288735590669225
 30
0.0
 11
5.052760493290222
 21
5.269050551299146
 31
0.0
  0
LINE
  5
2CF2
330
1E
100
AcDbEntity
  8
3
100
AcDbLine
 10
5.052760493290222
 20
5.269050551299146
 30
0.0
 11
5.058009837122243
 21
5.246740840013058
 31
0.0
  0
LINE
  5
2CF3
330
1E
100
AcDbEntity
  8
3
100
AcDbLine
 10
5.058009837122243
 20
6.135192283582609
 30
0.0
 11
5.052760493290222
 21
6.112882572296521
 31
0.0
  0
LINE
  5
2CF4
330
1E
100
AcDbEntity
  8
3
100
AcDbLine
 10
5.052760493290222
 20
6.112882572296521
 30
0.0
 11
5.040949469668175
 21
6.093197532926442
 31
0.0
  0
LINE
  5
2CF5
330
1E
100
AcDbEntity
  8
3
100
AcDbLine
 10
5.040949469668175
 20
6.093197532926442
 30
0.0
 11
5.021264430298096
 21
6.08007417334639
 31
0.0
  0
LINE
  5
2CF6
330
1E
100
AcDbEntity
  8
3
100
AcDbLine
 10
5.021264430298096
 20
6.08007417334639
 30
0.0
 11
4.998954719012007
 21
6.074824829514369
 31
0.0
  0
LINE
  5
2CF7
330
1E
100
AcDbEntity
  8
3
100
AcDbLine
 10
1.384781490665553
 20
3.438341889881826
 30
0.0
 11
1.401841858119621
 21
3.431780210091799
 31
0.0
  0
LINE
  5
2CF8
330
1E
100
AcDbEntity
  8
3
100
AcDbLine
 10
1.401841858119621
 20
3.431780210091799
 30
0.0
 11
1.420214561531695
 21
3.429155538175789
 31
0.0
  0
LINE
  5
2CF9
330
1E
100
AcDbEntity
  8
3
100
AcDbLine
 10
1.576382540534319
 20
3.572200157598361
 30
0.0
 11
1.559322173080251
 21
3.578761837388388
 31
0.0
  0
LINE
  5
2CFA
330
1E
100
AcDbEntity
  8
3
100
AcDbLine
 10
1.559322173080251
 20
3.578761837388388
 30
0.0
 11
1.540949469668178
 21
3.581386509304397
 31
0.0
  0
LINE
  5
2CFB
330
1E
100
AcDbEntity
  8
3
100
AcDbLine
 10
1.540949469668178
 20
3.429155538175789
 30
0.0
 11
1.559322173080251
 21
3.431780210091799
 31
0.0
  0
LINE
  5
2CFC
330
1E
100
AcDbEntity
  8
3
100
AcDbLine
 10
1.559322173080251
 20
3.431780210091799
 30
0.0
 11
1.576382540534319
 21
3.438341889881826
 31
0.0
  0
LINE
  5
2CFD
330
1E
100
AcDbEntity
  8
3
100
AcDbLine
 10
1.391343170455579
 20
3.576137165472376
 30
0.0
 11
1.36640878725348
 21
3.559076798018308
 31
0.0
  0
LINE
  5
2CFE
330
1E
100
AcDbEntity
  8
3
100
AcDbLine
 10
1.36640878725348
 20
3.559076798018308
 30
0.0
 11
1.349348419799412
 21
3.534142414816209
 31
0.0
  0
LINE
  5
2CFF
330
1E
100
AcDbEntity
  8
3
100
AcDbLine
 10
1.349348419799412
 20
3.534142414816209
 30
0.0
 11
1.34409907596739
 21
3.505271023740094
 31
0.0
  0
LINE
  5
2D00
330
1E
100
AcDbEntity
  8
3
100
AcDbLine
 10
1.34409907596739
 20
3.505271023740094
 30
0.0
 11
1.349348419799412
 21
3.476399632663978
 31
0.0
  0
LINE
  5
2D01
330
1E
100
AcDbEntity
  8
3
100
AcDbLine
 10
1.349348419799412
 20
3.476399632663978
 30
0.0
 11
1.36640878725348
 21
3.451465249461878
 31
0.0
  0
LINE
  5
2D02
330
1E
100
AcDbEntity
  8
3
100
AcDbLine
 10
1.36640878725348
 20
3.451465249461878
 30
0.0
 11
1.391343170455579
 21
3.43440488200781
 31
0.0
  0
LINE
  5
2D03
330
1E
100
AcDbEntity
  8
3
100
AcDbLine
 10
1.391343170455579
 20
3.43440488200781
 30
0.0
 11
1.420214561531695
 21
3.429155538175789
 31
0.0
  0
LINE
  5
2D04
330
1E
100
AcDbEntity
  8
3
100
AcDbLine
 10
1.540949469668178
 20
3.429155538175789
 30
0.0
 11
1.569820860744294
 21
3.43440488200781
 31
0.0
  0
LINE
  5
2D05
330
1E
100
AcDbEntity
  8
3
100
AcDbLine
 10
1.569820860744294
 20
3.43440488200781
 30
0.0
 11
1.594755243946393
 21
3.451465249461878
 31
0.0
  0
LINE
  5
2D06
330
1E
100
AcDbEntity
  8
3
100
AcDbLine
 10
1.594755243946393
 20
3.451465249461878
 30
0.0
 11
1.611815611400461
 21
3.476399632663978
 31
0.0
  0
LINE
  5
2D07
330
1E
100
AcDbEntity
  8
3
100
AcDbLine
 10
1.611815611400461
 20
3.476399632663978
 30
0.0
 11
1.617064955232482
 21
3.505271023740094
 31
0.0
  0
LINE
  5
2D08
330
1E
100
AcDbEntity
  8
3
100
AcDbLine
 10
1.617064955232482
 20
3.505271023740094
 30
0.0
 11
1.611815611400461
 21
3.534142414816209
 31
0.0
  0
LINE
  5
2D09
330
1E
100
AcDbEntity
  8
3
100
AcDbLine
 10
1.611815611400461
 20
3.534142414816209
 30
0.0
 11
1.594755243946393
 21
3.559076798018308
 31
0.0
  0
LINE
  5
2D0A
330
1E
100
AcDbEntity
  8
3
100
AcDbLine
 10
1.594755243946393
 20
3.559076798018308
 30
0.0
 11
1.569820860744294
 21
3.576137165472376
 31
0.0
  0
LINE
  5
2D0B
330
1E
100
AcDbEntity
  8
3
100
AcDbLine
 10
1.569820860744294
 20
3.576137165472376
 30
0.0
 11
1.540949469668178
 21
3.581386509304397
 31
0.0
  0
LINE
  5
2D0C
330
1E
100
AcDbEntity
  8
3
100
AcDbLine
 10
1.338849732135369
 20
3.631255275708597
 30
0.0
 11
1.307353669143244
 21
3.603696220590486
 31
0.0
  0
LINE
  5
2D0D
330
1E
100
AcDbEntity
  8
3
100
AcDbLine
 10
1.307353669143244
 20
3.603696220590486
 30
0.0
 11
1.283731621899149
 21
3.566950813766339
 31
0.0
  0
LINE
  5
2D0E
330
1E
100
AcDbEntity
  8
3
100
AcDbLine
 10
1.283731621899149
 20
3.566950813766339
 30
0.0
 11
1.271920598277102
 21
3.526268399068178
 31
0.0
  0
LINE
  5
2D0F
330
1E
100
AcDbEntity
  8
3
100
AcDbLine
 10
1.271920598277102
 20
3.526268399068178
 30
0.0
 11
1.271920598277102
 21
3.484273648412009
 31
0.0
  0
LINE
  5
2D10
330
1E
100
AcDbEntity
  8
3
100
AcDbLine
 10
1.271920598277102
 20
3.484273648412009
 30
0.0
 11
1.283731621899149
 21
3.443591233713847
 31
0.0
  0
LINE
  5
2D11
330
1E
100
AcDbEntity
  8
3
100
AcDbLine
 10
1.283731621899149
 20
3.443591233713847
 30
0.0
 11
1.307353669143244
 21
3.4068458268897
 31
0.0
  0
LINE
  5
2D12
330
1E
100
AcDbEntity
  8
3
100
AcDbLine
 10
1.307353669143244
 20
3.4068458268897
 30
0.0
 11
1.338849732135369
 21
3.379286771771589
 31
0.0
  0
LINE
  5
2D13
330
1E
100
AcDbEntity
  8
3
100
AcDbLine
 10
1.338849732135369
 20
3.379286771771589
 30
0.0
 11
1.378219810875527
 21
3.362226404317521
 31
0.0
  0
LINE
  5
2D14
330
1E
100
AcDbEntity
  8
3
100
AcDbLine
 10
1.378219810875527
 20
3.362226404317521
 30
0.0
 11
1.420214561531695
 21
3.355664724527495
 31
0.0
  0
LINE
  5
2D15
330
1E
100
AcDbEntity
  8
3
100
AcDbLine
 10
1.420214561531695
 20
3.654877322952691
 30
0.0
 11
1.378219810875527
 21
3.648315643162665
 31
0.0
  0
LINE
  5
2D16
330
1E
100
AcDbEntity
  8
3
100
AcDbLine
 10
1.378219810875527
 20
3.648315643162665
 30
0.0
 11
1.338849732135369
 21
3.631255275708597
 31
0.0
  0
LINE
  5
2D17
330
1E
100
AcDbEntity
  8
3
100
AcDbLine
 10
1.622314299064503
 20
3.379286771771589
 30
0.0
 11
1.653810362056629
 21
3.4068458268897
 31
0.0
  0
LINE
  5
2D18
330
1E
100
AcDbEntity
  8
3
100
AcDbLine
 10
1.653810362056629
 20
3.4068458268897
 30
0.0
 11
1.677432409300724
 21
3.443591233713847
 31
0.0
  0
LINE
  5
2D19
330
1E
100
AcDbEntity
  8
3
100
AcDbLine
 10
1.677432409300724
 20
3.443591233713847
 30
0.0
 11
1.689243432922771
 21
3.484273648412009
 31
0.0
  0
LINE
  5
2D1A
330
1E
100
AcDbEntity
  8
3
100
AcDbLine
 10
1.689243432922771
 20
3.484273648412009
 30
0.0
 11
1.689243432922771
 21
3.526268399068178
 31
0.0
  0
LINE
  5
2D1B
330
1E
100
AcDbEntity
  8
3
100
AcDbLine
 10
1.689243432922771
 20
3.526268399068178
 30
0.0
 11
1.677432409300724
 21
3.566950813766339
 31
0.0
  0
LINE
  5
2D1C
330
1E
100
AcDbEntity
  8
3
100
AcDbLine
 10
1.677432409300724
 20
3.566950813766339
 30
0.0
 11
1.653810362056629
 21
3.603696220590486
 31
0.0
  0
LINE
  5
2D1D
330
1E
100
AcDbEntity
  8
3
100
AcDbLine
 10
1.653810362056629
 20
3.603696220590486
 30
0.0
 11
1.622314299064503
 21
3.631255275708597
 31
0.0
  0
LINE
  5
2D1E
330
1E
100
AcDbEntity
  8
3
100
AcDbLine
 10
1.622314299064503
 20
3.631255275708597
 30
0.0
 11
1.582944220324346
 21
3.648315643162665
 31
0.0
  0
LINE
  5
2D1F
330
1E
100
AcDbEntity
  8
3
100
AcDbLine
 10
1.582944220324346
 20
3.648315643162665
 30
0.0
 11
1.540949469668178
 21
3.654877322952691
 31
0.0
  0
LINE
  5
2D20
330
1E
100
AcDbEntity
  8
3
100
AcDbLine
 10
1.540949469668178
 20
3.355664724527495
 30
0.0
 11
1.582944220324346
 21
3.362226404317521
 31
0.0
  0
LINE
  5
2D21
330
1E
100
AcDbEntity
  8
3
100
AcDbLine
 10
1.582944220324346
 20
3.362226404317521
 30
0.0
 11
1.622314299064503
 21
3.379286771771589
 31
0.0
  0
LINE
  5
2D22
330
1E
100
AcDbEntity
  8
3
100
AcDbLine
 10
2.384781490665553
 20
3.709995433188912
 30
0.0
 11
2.400529522161616
 21
3.706058425314896
 31
0.0
  0
LINE
  5
2D23
330
1E
100
AcDbEntity
  8
3
100
AcDbLine
 10
2.400529522161616
 20
3.706058425314896
 30
0.0
 11
2.411028209825658
 21
3.695559737650854
 31
0.0
  0
LINE
  5
2D24
330
1E
100
AcDbEntity
  8
3
100
AcDbLine
 10
2.411028209825658
 20
3.695559737650854
 30
0.0
 11
2.416277553657678
 21
3.679811706154791
 31
0.0
  0
LINE
  5
2D25
330
1E
100
AcDbEntity
  8
3
100
AcDbLine
 10
2.416277553657678
 20
3.330730341325395
 30
0.0
 11
2.411028209825658
 21
3.314982309829332
 31
0.0
  0
LINE
  5
2D26
330
1E
100
AcDbEntity
  8
3
100
AcDbLine
 10
2.411028209825658
 20
3.314982309829332
 30
0.0
 11
2.400529522161616
 21
3.303171286207285
 31
0.0
  0
LINE
  5
2D27
330
1E
100
AcDbEntity
  8
3
100
AcDbLine
 10
2.400529522161616
 20
3.303171286207285
 30
0.0
 11
2.384781490665553
 21
3.299234278333269
 31
0.0
  0
LINE
  5
2D28
330
1E
100
AcDbEntity
  8
3
100
AcDbLine
 10
0.5763825405343206
 20
3.299234278333269
 30
0.0
 11
0.5606345090382577
 21
3.303171286207285
 31
0.0
  0
LINE
  5
2D29
330
1E
100
AcDbEntity
  8
3
100
AcDbLine
 10
0.5606345090382577
 20
3.303171286207285
 30
0.0
 11
0.5488234854162109
 21
3.314982309829332
 31
0.0
  0
LINE
  5
2D2A
330
1E
100
AcDbEntity
  8
3
100
AcDbLine
 10
0.5488234854162109
 20
3.314982309829332
 30
0.0
 11
0.5448864775421947
 21
3.330730341325395
 31
0.0
  0
LINE
  5
2D2B
330
1E
100
AcDbEntity
  8
3
100
AcDbLine
 10
0.5448864775421947
 20
3.679811706154791
 30
0.0
 11
0.5488234854162109
 21
3.695559737650854
 31
0.0
  0
LINE
  5
2D2C
330
1E
100
AcDbEntity
  8
3
100
AcDbLine
 10
0.5488234854162109
 20
3.695559737650854
 30
0.0
 11
0.5606345090382577
 21
3.706058425314896
 31
0.0
  0
LINE
  5
2D2D
330
1E
100
AcDbEntity
  8
3
100
AcDbLine
 10
0.5606345090382577
 20
3.706058425314896
 30
0.0
 11
0.5763825405343206
 21
3.709995433188912
 31
0.0
  0
LINE
  5
2D2E
330
1E
100
AcDbEntity
  8
3
100
AcDbLine
 10
2.353285427673426
 20
3.709995433188912
 30
0.0
 11
0.6078786035264466
 21
3.709995433188912
 31
0.0
  0
LINE
  5
2D2F
330
1E
100
AcDbEntity
  8
3
100
AcDbLine
 10
0.6078786035264466
 20
3.709995433188912
 30
0.0
 11
0.6052539316104362
 21
3.709995433188912
 31
0.0
  0
LINE
  5
2D30
330
1E
100
AcDbEntity
  8
3
100
AcDbLine
 10
0.6078786035264466
 20
3.709995433188912
 30
0.0
 11
0.6078786035264466
 21
3.300546614291274
 31
0.0
  0
LINE
  5
2D31
330
1E
100
AcDbEntity
  8
3
100
AcDbLine
 10
0.6078786035264466
 20
3.300546614291274
 30
0.0
 11
2.353285427673426
 21
3.300546614291274
 31
0.0
  0
LINE
  5
2D32
330
1E
100
AcDbEntity
  8
3
100
AcDbLine
 10
1.420214561531695
 20
3.656189658910696
 30
0.0
 11
1.378219810875527
 21
3.64962797912067
 31
0.0
  0
LINE
  5
2D33
330
1E
100
AcDbEntity
  8
3
100
AcDbLine
 10
1.378219810875527
 20
3.64962797912067
 30
0.0
 11
1.338849732135369
 21
3.632567611666602
 31
0.0
  0
LINE
  5
2D34
330
1E
100
AcDbEntity
  8
3
100
AcDbLine
 10
1.338849732135369
 20
3.632567611666602
 30
0.0
 11
1.306041333185238
 21
3.603696220590486
 31
0.0
  0
LINE
  5
2D35
330
1E
100
AcDbEntity
  8
3
100
AcDbLine
 10
1.306041333185238
 20
3.603696220590486
 30
0.0
 11
1.282419285941144
 21
3.568263149724346
 31
0.0
  0
LINE
  5
2D36
330
1E
100
AcDbEntity
  8
3
100
AcDbLine
 10
1.282419285941144
 20
3.568263149724346
 30
0.0
 11
1.270608262319097
 21
3.526268399068178
 31
0.0
  0
LINE
  5
2D37
330
1E
100
AcDbEntity
  8
3
100
AcDbLine
 10
1.270608262319097
 20
3.526268399068178
 30
0.0
 11
1.270608262319097
 21
3.484273648412009
 31
0.0
  0
LINE
  5
2D38
330
1E
100
AcDbEntity
  8
3
100
AcDbLine
 10
1.270608262319097
 20
3.484273648412009
 30
0.0
 11
1.282419285941144
 21
3.442278897755841
 31
0.0
  0
LINE
  5
2D39
330
1E
100
AcDbEntity
  8
3
100
AcDbLine
 10
1.282419285941144
 20
3.442278897755841
 30
0.0
 11
1.306041333185238
 21
3.4068458268897
 31
0.0
  0
LINE
  5
2D3A
330
1E
100
AcDbEntity
  8
3
100
AcDbLine
 10
1.306041333185238
 20
3.4068458268897
 30
0.0
 11
1.338849732135369
 21
3.377974435813584
 31
0.0
  0
LINE
  5
2D3B
330
1E
100
AcDbEntity
  8
3
100
AcDbLine
 10
1.338849732135369
 20
3.377974435813584
 30
0.0
 11
1.378219810875527
 21
3.360914068359516
 31
0.0
  0
LINE
  5
2D3C
330
1E
100
AcDbEntity
  8
3
100
AcDbLine
 10
1.378219810875527
 20
3.360914068359516
 30
0.0
 11
1.420214561531695
 21
3.35435238856949
 31
0.0
  0
LINE
  5
2D3D
330
1E
100
AcDbEntity
  8
3
100
AcDbLine
 10
1.582944220324346
 20
3.360914068359516
 30
0.0
 11
1.622314299064503
 21
3.377974435813584
 31
0.0
  0
LINE
  5
2D3E
330
1E
100
AcDbEntity
  8
3
100
AcDbLine
 10
1.622314299064503
 20
3.377974435813584
 30
0.0
 11
1.655122698014634
 21
3.4068458268897
 31
0.0
  0
LINE
  5
2D3F
330
1E
100
AcDbEntity
  8
3
100
AcDbLine
 10
1.655122698014634
 20
3.4068458268897
 30
0.0
 11
1.678744745258728
 21
3.442278897755841
 31
0.0
  0
LINE
  5
2D40
330
1E
100
AcDbEntity
  8
3
100
AcDbLine
 10
1.678744745258728
 20
3.442278897755841
 30
0.0
 11
1.690555768880776
 21
3.484273648412009
 31
0.0
  0
LINE
  5
2D41
330
1E
100
AcDbEntity
  8
3
100
AcDbLine
 10
1.690555768880776
 20
3.484273648412009
 30
0.0
 11
1.690555768880776
 21
3.526268399068178
 31
0.0
  0
LINE
  5
2D42
330
1E
100
AcDbEntity
  8
3
100
AcDbLine
 10
1.690555768880776
 20
3.526268399068178
 30
0.0
 11
1.678744745258728
 21
3.568263149724346
 31
0.0
  0
LINE
  5
2D43
330
1E
100
AcDbEntity
  8
3
100
AcDbLine
 10
1.678744745258728
 20
3.568263149724346
 30
0.0
 11
1.655122698014634
 21
3.603696220590486
 31
0.0
  0
LINE
  5
2D44
330
1E
100
AcDbEntity
  8
3
100
AcDbLine
 10
1.655122698014634
 20
3.603696220590486
 30
0.0
 11
1.622314299064503
 21
3.632567611666602
 31
0.0
  0
LINE
  5
2D45
330
1E
100
AcDbEntity
  8
3
100
AcDbLine
 10
1.622314299064503
 20
3.632567611666602
 30
0.0
 11
1.582944220324346
 21
3.64962797912067
 31
0.0
  0
LINE
  5
2D46
330
1E
100
AcDbEntity
  8
3
100
AcDbLine
 10
1.582944220324346
 20
3.64962797912067
 30
0.0
 11
1.540949469668178
 21
3.656189658910696
 31
0.0
  0
LINE
  5
2D47
330
1E
100
AcDbEntity
  8
3
100
AcDbLine
 10
1.374282803001511
 20
3.56432614185033
 30
0.0
 11
1.353285427673427
 21
3.538079422690225
 31
0.0
  0
LINE
  5
2D48
330
1E
100
AcDbEntity
  8
3
100
AcDbLine
 10
1.353285427673427
 20
3.538079422690225
 30
0.0
 11
1.345411411925395
 21
3.505271023740094
 31
0.0
  0
LINE
  5
2D49
330
1E
100
AcDbEntity
  8
3
100
AcDbLine
 10
1.345411411925395
 20
3.505271023740094
 30
0.0
 11
1.353285427673427
 21
3.472462624789962
 31
0.0
  0
LINE
  5
2D4A
330
1E
100
AcDbEntity
  8
3
100
AcDbLine
 10
1.353285427673427
 20
3.472462624789962
 30
0.0
 11
1.374282803001511
 21
3.446215905629857
 31
0.0
  0
LINE
  5
2D4B
330
1E
100
AcDbEntity
  8
3
100
AcDbLine
 10
1.586881228198361
 20
3.446215905629857
 30
0.0
 11
1.607878603526445
 21
3.472462624789962
 31
0.0
  0
LINE
  5
2D4C
330
1E
100
AcDbEntity
  8
3
100
AcDbLine
 10
1.607878603526445
 20
3.472462624789962
 30
0.0
 11
1.615752619274477
 21
3.505271023740094
 31
0.0
  0
LINE
  5
2D4D
330
1E
100
AcDbEntity
  8
3
100
AcDbLine
 10
1.615752619274477
 20
3.505271023740094
 30
0.0
 11
1.607878603526445
 21
3.538079422690225
 31
0.0
  0
LINE
  5
2D4E
330
1E
100
AcDbEntity
  8
3
100
AcDbLine
 10
1.607878603526445
 20
3.538079422690225
 30
0.0
 11
1.586881228198361
 21
3.56432614185033
 31
0.0
  0
LINE
  5
2D4F
330
1E
100
AcDbEntity
  8
3
100
AcDbLine
 10
1.420214561531695
 20
6.862226404317517
 30
0.0
 11
1.401841858119621
 21
6.859601732401507
 31
0.0
  0
LINE
  5
2D50
330
1E
100
AcDbEntity
  8
3
100
AcDbLine
 10
1.401841858119621
 20
6.859601732401507
 30
0.0
 11
1.384781490665553
 21
6.853040052611481
 31
0.0
  0
LINE
  5
2D51
330
1E
100
AcDbEntity
  8
3
100
AcDbLine
 10
1.384781490665553
 20
6.719181784894947
 30
0.0
 11
1.401841858119621
 21
6.712620105104919
 31
0.0
  0
LINE
  5
2D52
330
1E
100
AcDbEntity
  8
3
100
AcDbLine
 10
1.401841858119621
 20
6.712620105104919
 30
0.0
 11
1.420214561531695
 21
6.709995433188909
 31
0.0
  0
LINE
  5
2D53
330
1E
100
AcDbEntity
  8
3
100
AcDbLine
 10
1.576382540534319
 20
6.853040052611481
 30
0.0
 11
1.559322173080251
 21
6.859601732401507
 31
0.0
  0
LINE
  5
2D54
330
1E
100
AcDbEntity
  8
3
100
AcDbLine
 10
1.559322173080251
 20
6.859601732401507
 30
0.0
 11
1.540949469668178
 21
6.862226404317517
 31
0.0
  0
LINE
  5
2D55
330
1E
100
AcDbEntity
  8
3
100
AcDbLine
 10
1.540949469668178
 20
6.709995433188909
 30
0.0
 11
1.559322173080251
 21
6.712620105104919
 31
0.0
  0
LINE
  5
2D56
330
1E
100
AcDbEntity
  8
3
100
AcDbLine
 10
1.559322173080251
 20
6.712620105104919
 30
0.0
 11
1.576382540534319
 21
6.719181784894947
 31
0.0
  0
LINE
  5
2D57
330
1E
100
AcDbEntity
  8
3
100
AcDbLine
 10
1.594755243946393
 20
6.83991669303143
 30
0.0
 11
1.569820860744294
 21
6.856977060485498
 31
0.0
  0
LINE
  5
2D58
330
1E
100
AcDbEntity
  8
3
100
AcDbLine
 10
1.569820860744294
 20
6.856977060485498
 30
0.0
 11
1.540949469668178
 21
6.862226404317517
 31
0.0
  0
LINE
  5
2D59
330
1E
100
AcDbEntity
  8
3
100
AcDbLine
 10
1.540949469668178
 20
6.709995433188909
 30
0.0
 11
1.569820860744294
 21
6.715244777020931
 31
0.0
  0
LINE
  5
2D5A
330
1E
100
AcDbEntity
  8
3
100
AcDbLine
 10
1.569820860744294
 20
6.715244777020931
 30
0.0
 11
1.594755243946393
 21
6.732305144474999
 31
0.0
  0
LINE
  5
2D5B
330
1E
100
AcDbEntity
  8
3
100
AcDbLine
 10
1.594755243946393
 20
6.732305144474999
 30
0.0
 11
1.611815611400461
 21
6.757239527677098
 31
0.0
  0
LINE
  5
2D5C
330
1E
100
AcDbEntity
  8
3
100
AcDbLine
 10
1.611815611400461
 20
6.757239527677098
 30
0.0
 11
1.617064955232482
 21
6.786110918753212
 31
0.0
  0
LINE
  5
2D5D
330
1E
100
AcDbEntity
  8
3
100
AcDbLine
 10
1.617064955232482
 20
6.786110918753212
 30
0.0
 11
1.611815611400461
 21
6.814982309829328
 31
0.0
  0
LINE
  5
2D5E
330
1E
100
AcDbEntity
  8
3
100
AcDbLine
 10
1.611815611400461
 20
6.814982309829328
 30
0.0
 11
1.594755243946393
 21
6.83991669303143
 31
0.0
  0
LINE
  5
2D5F
330
1E
100
AcDbEntity
  8
3
100
AcDbLine
 10
1.34409907596739
 20
6.786110918753212
 30
0.0
 11
1.349348419799412
 21
6.757239527677098
 31
0.0
  0
LINE
  5
2D60
330
1E
100
AcDbEntity
  8
3
100
AcDbLine
 10
1.349348419799412
 20
6.757239527677098
 30
0.0
 11
1.36640878725348
 21
6.732305144474999
 31
0.0
  0
LINE
  5
2D61
330
1E
100
AcDbEntity
  8
3
100
AcDbLine
 10
1.36640878725348
 20
6.732305144474999
 30
0.0
 11
1.391343170455579
 21
6.715244777020931
 31
0.0
  0
LINE
  5
2D62
330
1E
100
AcDbEntity
  8
3
100
AcDbLine
 10
1.391343170455579
 20
6.715244777020931
 30
0.0
 11
1.420214561531695
 21
6.709995433188909
 31
0.0
  0
LINE
  5
2D63
330
1E
100
AcDbEntity
  8
3
100
AcDbLine
 10
1.420214561531695
 20
6.862226404317517
 30
0.0
 11
1.391343170455579
 21
6.856977060485498
 31
0.0
  0
LINE
  5
2D64
330
1E
100
AcDbEntity
  8
3
100
AcDbLine
 10
1.391343170455579
 20
6.856977060485498
 30
0.0
 11
1.36640878725348
 21
6.83991669303143
 31
0.0
  0
LINE
  5
2D65
330
1E
100
AcDbEntity
  8
3
100
AcDbLine
 10
1.36640878725348
 20
6.83991669303143
 30
0.0
 11
1.349348419799412
 21
6.814982309829328
 31
0.0
  0
LINE
  5
2D66
330
1E
100
AcDbEntity
  8
3
100
AcDbLine
 10
1.349348419799412
 20
6.814982309829328
 30
0.0
 11
1.34409907596739
 21
6.786110918753212
 31
0.0
  0
LINE
  5
2D67
330
1E
100
AcDbEntity
  8
3
100
AcDbLine
 10
1.283731621899149
 20
6.724431128726967
 30
0.0
 11
1.307353669143244
 21
6.68768572190282
 31
0.0
  0
LINE
  5
2D68
330
1E
100
AcDbEntity
  8
3
100
AcDbLine
 10
1.307353669143244
 20
6.68768572190282
 30
0.0
 11
1.338849732135369
 21
6.66012666678471
 31
0.0
  0
LINE
  5
2D69
330
1E
100
AcDbEntity
  8
3
100
AcDbLine
 10
1.338849732135369
 20
6.66012666678471
 30
0.0
 11
1.378219810875527
 21
6.643066299330642
 31
0.0
  0
LINE
  5
2D6A
330
1E
100
AcDbEntity
  8
3
100
AcDbLine
 10
1.378219810875527
 20
6.643066299330642
 30
0.0
 11
1.420214561531695
 21
6.636504619540616
 31
0.0
  0
LINE
  5
2D6B
330
1E
100
AcDbEntity
  8
3
100
AcDbLine
 10
1.420214561531695
 20
6.935717217965812
 30
0.0
 11
1.378219810875527
 21
6.929155538175786
 31
0.0
  0
LINE
  5
2D6C
330
1E
100
AcDbEntity
  8
3
100
AcDbLine
 10
1.378219810875527
 20
6.929155538175786
 30
0.0
 11
1.338849732135369
 21
6.912095170721718
 31
0.0
  0
LINE
  5
2D6D
330
1E
100
AcDbEntity
  8
3
100
AcDbLine
 10
1.338849732135369
 20
6.912095170721718
 30
0.0
 11
1.307353669143244
 21
6.884536115603607
 31
0.0
  0
LINE
  5
2D6E
330
1E
100
AcDbEntity
  8
3
100
AcDbLine
 10
1.307353669143244
 20
6.884536115603607
 30
0.0
 11
1.283731621899149
 21
6.847790708779459
 31
0.0
  0
LINE
  5
2D6F
330
1E
100
AcDbEntity
  8
3
100
AcDbLine
 10
1.283731621899149
 20
6.847790708779459
 30
0.0
 11
1.271920598277102
 21
6.807108294081297
 31
0.0
  0
LINE
  5
2D70
330
1E
100
AcDbEntity
  8
3
100
AcDbLine
 10
1.271920598277102
 20
6.807108294081297
 30
0.0
 11
1.271920598277102
 21
6.76511354342513
 31
0.0
  0
LINE
  5
2D71
330
1E
100
AcDbEntity
  8
3
100
AcDbLine
 10
1.271920598277102
 20
6.76511354342513
 30
0.0
 11
1.283731621899149
 21
6.724431128726967
 31
0.0
  0
LINE
  5
2D72
330
1E
100
AcDbEntity
  8
3
100
AcDbLine
 10
1.653810362056629
 20
6.884536115603607
 30
0.0
 11
1.622314299064503
 21
6.912095170721718
 31
0.0
  0
LINE
  5
2D73
330
1E
100
AcDbEntity
  8
3
100
AcDbLine
 10
1.622314299064503
 20
6.912095170721718
 30
0.0
 11
1.582944220324346
 21
6.929155538175786
 31
0.0
  0
LINE
  5
2D74
330
1E
100
AcDbEntity
  8
3
100
AcDbLine
 10
1.582944220324346
 20
6.929155538175786
 30
0.0
 11
1.540949469668178
 21
6.935717217965812
 31
0.0
  0
LINE
  5
2D75
330
1E
100
AcDbEntity
  8
3
100
AcDbLine
 10
1.540949469668178
 20
6.636504619540616
 30
0.0
 11
1.582944220324346
 21
6.643066299330642
 31
0.0
  0
LINE
  5
2D76
330
1E
100
AcDbEntity
  8
3
100
AcDbLine
 10
1.582944220324346
 20
6.643066299330642
 30
0.0
 11
1.622314299064503
 21
6.66012666678471
 31
0.0
  0
LINE
  5
2D77
330
1E
100
AcDbEntity
  8
3
100
AcDbLine
 10
1.622314299064503
 20
6.66012666678471
 30
0.0
 11
1.653810362056629
 21
6.68768572190282
 31
0.0
  0
LINE
  5
2D78
330
1E
100
AcDbEntity
  8
3
100
AcDbLine
 10
1.653810362056629
 20
6.68768572190282
 30
0.0
 11
1.677432409300724
 21
6.724431128726967
 31
0.0
  0
LINE
  5
2D79
330
1E
100
AcDbEntity
  8
3
100
AcDbLine
 10
1.677432409300724
 20
6.724431128726967
 30
0.0
 11
1.689243432922771
 21
6.76511354342513
 31
0.0
  0
LINE
  5
2D7A
330
1E
100
AcDbEntity
  8
3
100
AcDbLine
 10
1.689243432922771
 20
6.76511354342513
 30
0.0
 11
1.689243432922771
 21
6.807108294081297
 31
0.0
  0
LINE
  5
2D7B
330
1E
100
AcDbEntity
  8
3
100
AcDbLine
 10
1.689243432922771
 20
6.807108294081297
 30
0.0
 11
1.677432409300724
 21
6.847790708779459
 31
0.0
  0
LINE
  5
2D7C
330
1E
100
AcDbEntity
  8
3
100
AcDbLine
 10
1.677432409300724
 20
6.847790708779459
 30
0.0
 11
1.653810362056629
 21
6.884536115603607
 31
0.0
  0
LINE
  5
2D7D
330
1E
100
AcDbEntity
  8
3
100
AcDbLine
 10
1.420214561531695
 20
6.938341889881822
 30
0.0
 11
1.420214561531695
 21
6.935717217965812
 31
0.0
  0
LINE
  5
2D7E
330
1E
100
AcDbEntity
  8
3
100
AcDbLine
 10
1.420214561531695
 20
6.935717217965812
 30
0.0
 11
1.540949469668178
 21
6.935717217965812
 31
0.0
  0
LINE
  5
2D7F
330
1E
100
AcDbEntity
  8
3
100
AcDbLine
 10
1.540949469668178
 20
6.633879947624604
 30
0.0
 11
1.540949469668178
 21
6.636504619540616
 31
0.0
  0
LINE
  5
2D80
330
1E
100
AcDbEntity
  8
3
100
AcDbLine
 10
1.540949469668178
 20
6.636504619540616
 30
0.0
 11
1.420214561531695
 21
6.636504619540616
 31
0.0
  0
LINE
  5
2D81
330
1E
100
AcDbEntity
  8
3
100
AcDbLine
 10
2.416277553657678
 20
6.611570236338516
 30
0.0
 11
2.416277553657678
 21
6.960651601167912
 31
0.0
  0
LINE
  5
2D82
330
1E
100
AcDbEntity
  8
3
100
AcDbLine
 10
2.416277553657678
 20
6.960651601167912
 30
0.0
 11
2.411028209825658
 21
6.976399632663975
 31
0.0
  0
LINE
  5
2D83
330
1E
100
AcDbEntity
  8
3
100
AcDbLine
 10
2.411028209825658
 20
6.976399632663975
 30
0.0
 11
2.400529522161616
 21
6.986898320328016
 31
0.0
  0
LINE
  5
2D84
330
1E
100
AcDbEntity
  8
3
100
AcDbLine
 10
2.400529522161616
 20
6.986898320328016
 30
0.0
 11
2.384781490665553
 21
6.992147664160038
 31
0.0
  0
LINE
  5
2D85
330
1E
100
AcDbEntity
  8
3
100
AcDbLine
 10
2.384781490665553
 20
6.992147664160038
 30
0.0
 11
2.355910099589437
 21
6.992147664160038
 31
0.0
  0
LINE
  5
2D86
330
1E
100
AcDbEntity
  8
3
100
AcDbLine
 10
2.355910099589437
 20
6.58007417334639
 30
0.0
 11
2.384781490665553
 21
6.58007417334639
 31
0.0
  0
LINE
  5
2D87
330
1E
100
AcDbEntity
  8
3
100
AcDbLine
 10
2.384781490665553
 20
6.58007417334639
 30
0.0
 11
2.400529522161616
 21
6.585323517178411
 31
0.0
  0
LINE
  5
2D88
330
1E
100
AcDbEntity
  8
3
100
AcDbLine
 10
2.400529522161616
 20
6.585323517178411
 30
0.0
 11
2.411028209825658
 21
6.595822204842453
 31
0.0
  0
LINE
  5
2D89
330
1E
100
AcDbEntity
  8
3
100
AcDbLine
 10
2.411028209825658
 20
6.595822204842453
 30
0.0
 11
2.416277553657678
 21
6.611570236338516
 31
0.0
  0
LINE
  5
2D8A
330
1E
100
AcDbEntity
  8
3
100
AcDbLine
 10
0.6052539316104362
 20
6.992147664160038
 30
0.0
 11
0.5763825405343206
 21
6.992147664160038
 31
0.0
  0
LINE
  5
2D8B
330
1E
100
AcDbEntity
  8
3
100
AcDbLine
 10
0.5763825405343206
 20
6.992147664160038
 30
0.0
 11
0.5606345090382577
 21
6.986898320328016
 31
0.0
  0
LINE
  5
2D8C
330
1E
100
AcDbEntity
  8
3
100
AcDbLine
 10
0.5606345090382577
 20
6.986898320328016
 30
0.0
 11
0.5488234854162109
 21
6.976399632663975
 31
0.0
  0
LINE
  5
2D8D
330
1E
100
AcDbEntity
  8
3
100
AcDbLine
 10
0.5488234854162109
 20
6.976399632663975
 30
0.0
 11
0.5448864775421947
 21
6.960651601167912
 31
0.0
  0
LINE
  5
2D8E
330
1E
100
AcDbEntity
  8
3
100
AcDbLine
 10
0.5448864775421947
 20
6.960651601167912
 30
0.0
 11
0.5448864775421947
 21
6.611570236338516
 31
0.0
  0
LINE
  5
2D8F
330
1E
100
AcDbEntity
  8
3
100
AcDbLine
 10
0.5448864775421947
 20
6.611570236338516
 30
0.0
 11
0.5488234854162109
 21
6.595822204842453
 31
0.0
  0
LINE
  5
2D90
330
1E
100
AcDbEntity
  8
3
100
AcDbLine
 10
0.5488234854162109
 20
6.595822204842453
 30
0.0
 11
0.5606345090382577
 21
6.585323517178411
 31
0.0
  0
LINE
  5
2D91
330
1E
100
AcDbEntity
  8
3
100
AcDbLine
 10
0.5606345090382577
 20
6.585323517178411
 30
0.0
 11
0.5763825405343206
 21
6.58007417334639
 31
0.0
  0
LINE
  5
2D92
330
1E
100
AcDbEntity
  8
3
100
AcDbLine
 10
0.5763825405343206
 20
6.58007417334639
 30
0.0
 11
0.6052539316104362
 21
6.58007417334639
 31
0.0
  0
LINE
  5
2D93
330
1E
100
AcDbEntity
  8
3
100
AcDbLine
 10
1.678744745258728
 20
6.849103044737464
 30
0.0
 11
1.655122698014634
 21
6.884536115603607
 31
0.0
  0
LINE
  5
2D94
330
1E
100
AcDbEntity
  8
3
100
AcDbLine
 10
1.655122698014634
 20
6.884536115603607
 30
0.0
 11
1.622314299064503
 21
6.913407506679723
 31
0.0
  0
LINE
  5
2D95
330
1E
100
AcDbEntity
  8
3
100
AcDbLine
 10
1.622314299064503
 20
6.913407506679723
 30
0.0
 11
1.582944220324346
 21
6.930467874133791
 31
0.0
  0
LINE
  5
2D96
330
1E
100
AcDbEntity
  8
3
100
AcDbLine
 10
1.582944220324346
 20
6.930467874133791
 30
0.0
 11
1.540949469668178
 21
6.937029553923817
 31
0.0
  0
LINE
  5
2D97
330
1E
100
AcDbEntity
  8
3
100
AcDbLine
 10
1.540949469668178
 20
6.635192283582609
 30
0.0
 11
1.582944220324346
 21
6.641753963372637
 31
0.0
  0
LINE
  5
2D98
330
1E
100
AcDbEntity
  8
3
100
AcDbLine
 10
1.582944220324346
 20
6.641753963372637
 30
0.0
 11
1.622314299064503
 21
6.658814330826705
 31
0.0
  0
LINE
  5
2D99
330
1E
100
AcDbEntity
  8
3
100
AcDbLine
 10
1.622314299064503
 20
6.658814330826705
 30
0.0
 11
1.655122698014634
 21
6.68768572190282
 31
0.0
  0
LINE
  5
2D9A
330
1E
100
AcDbEntity
  8
3
100
AcDbLine
 10
1.655122698014634
 20
6.68768572190282
 30
0.0
 11
1.678744745258728
 21
6.723118792768961
 31
0.0
  0
LINE
  5
2D9B
330
1E
100
AcDbEntity
  8
3
100
AcDbLine
 10
1.678744745258728
 20
6.723118792768961
 30
0.0
 11
1.690555768880776
 21
6.76511354342513
 31
0.0
  0
LINE
  5
2D9C
330
1E
100
AcDbEntity
  8
3
100
AcDbLine
 10
1.690555768880776
 20
6.76511354342513
 30
0.0
 11
1.690555768880776
 21
6.807108294081297
 31
0.0
  0
LINE
  5
2D9D
330
1E
100
AcDbEntity
  8
3
100
AcDbLine
 10
1.690555768880776
 20
6.807108294081297
 30
0.0
 11
1.678744745258728
 21
6.849103044737464
 31
0.0
  0
LINE
  5
2D9E
330
1E
100
AcDbEntity
  8
3
100
AcDbLine
 10
1.338849732135369
 20
6.658814330826705
 30
0.0
 11
1.378219810875527
 21
6.641753963372637
 31
0.0
  0
LINE
  5
2D9F
330
1E
100
AcDbEntity
  8
3
100
AcDbLine
 10
1.378219810875527
 20
6.641753963372637
 30
0.0
 11
1.420214561531695
 21
6.635192283582609
 31
0.0
  0
LINE
  5
2DA0
330
1E
100
AcDbEntity
  8
3
100
AcDbLine
 10
1.420214561531695
 20
6.937029553923817
 30
0.0
 11
1.378219810875527
 21
6.930467874133791
 31
0.0
  0
LINE
  5
2DA1
330
1E
100
AcDbEntity
  8
3
100
AcDbLine
 10
1.378219810875527
 20
6.930467874133791
 30
0.0
 11
1.338849732135369
 21
6.913407506679723
 31
0.0
  0
LINE
  5
2DA2
330
1E
100
AcDbEntity
  8
3
100
AcDbLine
 10
1.338849732135369
 20
6.913407506679723
 30
0.0
 11
1.306041333185238
 21
6.884536115603607
 31
0.0
  0
LINE
  5
2DA3
330
1E
100
AcDbEntity
  8
3
100
AcDbLine
 10
1.306041333185238
 20
6.884536115603607
 30
0.0
 11
1.282419285941144
 21
6.849103044737464
 31
0.0
  0
LINE
  5
2DA4
330
1E
100
AcDbEntity
  8
3
100
AcDbLine
 10
1.282419285941144
 20
6.849103044737464
 30
0.0
 11
1.270608262319097
 21
6.807108294081297
 31
0.0
  0
LINE
  5
2DA5
330
1E
100
AcDbEntity
  8
3
100
AcDbLine
 10
1.270608262319097
 20
6.807108294081297
 30
0.0
 11
1.270608262319097
 21
6.76511354342513
 31
0.0
  0
LINE
  5
2DA6
330
1E
100
AcDbEntity
  8
3
100
AcDbLine
 10
1.270608262319097
 20
6.76511354342513
 30
0.0
 11
1.282419285941144
 21
6.723118792768961
 31
0.0
  0
LINE
  5
2DA7
330
1E
100
AcDbEntity
  8
3
100
AcDbLine
 10
1.282419285941144
 20
6.723118792768961
 30
0.0
 11
1.306041333185238
 21
6.68768572190282
 31
0.0
  0
LINE
  5
2DA8
330
1E
100
AcDbEntity
  8
3
100
AcDbLine
 10
1.306041333185238
 20
6.68768572190282
 30
0.0
 11
1.338849732135369
 21
6.658814330826705
 31
0.0
  0
LINE
  5
2DA9
330
1E
100
AcDbEntity
  8
3
100
AcDbLine
 10
1.374282803001511
 20
6.845166036863449
 30
0.0
 11
1.353285427673427
 21
6.818919317703345
 31
0.0
  0
LINE
  5
2DAA
330
1E
100
AcDbEntity
  8
3
100
AcDbLine
 10
1.353285427673427
 20
6.818919317703345
 30
0.0
 11
1.345411411925395
 21
6.786110918753212
 31
0.0
  0
LINE
  5
2DAB
330
1E
100
AcDbEntity
  8
3
100
AcDbLine
 10
1.345411411925395
 20
6.786110918753212
 30
0.0
 11
1.353285427673427
 21
6.753302519803082
 31
0.0
  0
LINE
  5
2DAC
330
1E
100
AcDbEntity
  8
3
100
AcDbLine
 10
1.353285427673427
 20
6.753302519803082
 30
0.0
 11
1.374282803001511
 21
6.727055800642977
 31
0.0
  0
LINE
  5
2DAD
330
1E
100
AcDbEntity
  8
3
100
AcDbLine
 10
1.586881228198361
 20
6.727055800642977
 30
0.0
 11
1.607878603526445
 21
6.753302519803082
 31
0.0
  0
LINE
  5
2DAE
330
1E
100
AcDbEntity
  8
3
100
AcDbLine
 10
1.607878603526445
 20
6.753302519803082
 30
0.0
 11
1.615752619274477
 21
6.786110918753212
 31
0.0
  0
LINE
  5
2DAF
330
1E
100
AcDbEntity
  8
3
100
AcDbLine
 10
1.615752619274477
 20
6.786110918753212
 30
0.0
 11
1.607878603526445
 21
6.818919317703345
 31
0.0
  0
LINE
  5
2DB0
330
1E
100
AcDbEntity
  8
3
100
AcDbLine
 10
1.607878603526445
 20
6.818919317703345
 30
0.0
 11
1.586881228198361
 21
6.845166036863449
 31
0.0
  0
LINE
  5
2DB1
330
1E
100
AcDbEntity
  8
3
100
AcDbLine
 10
0.1091909394844523
 20
2.959339265209909
 30
0.0
 11
0.1170649552324838
 21
2.929155538175789
 31
0.0
  0
LINE
  5
2DB2
330
1E
100
AcDbEntity
  8
3
100
AcDbLine
 10
0.1170649552324838
 20
2.929155538175789
 30
0.0
 11
0.1380623305605679
 21
2.9068458268897
 31
0.0
  0
LINE
  5
2DB3
330
1E
100
AcDbEntity
  8
3
100
AcDbLine
 10
0.1380623305605679
 20
2.9068458268897
 30
0.0
 11
0.168246057594688
 21
2.898971811141668
 31
0.0
  0
LINE
  5
2DB4
330
1E
100
AcDbEntity
  8
3
100
AcDbLine
 10
0.168246057594688
 20
7.392410131351638
 30
0.0
 11
0.1380623305605679
 21
7.384536115603607
 31
0.0
  0
LINE
  5
2DB5
330
1E
100
AcDbEntity
  8
3
100
AcDbLine
 10
0.1380623305605679
 20
7.384536115603607
 30
0.0
 11
0.1170649552324838
 21
7.362226404317517
 31
0.0
  0
LINE
  5
2DB6
330
1E
100
AcDbEntity
  8
3
100
AcDbLine
 10
0.1170649552324838
 20
7.362226404317517
 30
0.0
 11
0.1091909394844523
 21
7.332042677283396
 31
0.0
  0
LINE
  5
2DB7
330
1E
100
AcDbEntity
  8
3
100
AcDbLine
 10
2.8217893646813
 20
2.9068458268897
 30
0.0
 11
2.84409907596739
 21
2.929155538175789
 31
0.0
  0
LINE
  5
2DB8
330
1E
100
AcDbEntity
  8
3
100
AcDbLine
 10
2.84409907596739
 20
2.929155538175789
 30
0.0
 11
2.851973091715421
 21
2.959339265209909
 31
0.0
  0
LINE
  5
2DB9
330
1E
100
AcDbEntity
  8
3
100
AcDbLine
 10
2.851973091715421
 20
7.332042677283396
 30
0.0
 11
2.84409907596739
 21
7.362226404317517
 31
0.0
  0
LINE
  5
2DBA
330
1E
100
AcDbEntity
  8
3
100
AcDbLine
 10
2.84409907596739
 20
7.362226404317517
 30
0.0
 11
2.8217893646813
 21
7.384536115603607
 31
0.0
  0
LINE
  5
2DBB
330
1E
100
AcDbEntity
  8
3
100
AcDbLine
 10
2.8217893646813
 20
7.384536115603607
 30
0.0
 11
2.79160563764718
 21
7.392410131351638
 31
0.0
  0
LINE
  5
2DBC
330
1E
100
AcDbEntity
  8
3
100
AcDbLine
 10
0.1091909394844523
 20
2.959339265209909
 30
0.0
 11
0.1144402833164735
 21
2.963276273083926
 31
0.0
  0
LINE
  5
2DBD
330
1E
100
AcDbEntity
  8
3
100
AcDbLine
 10
0.1144402833164735
 20
2.963276273083926
 30
0.0
 11
0.1288759788545306
 21
2.973774960747967
 31
0.0
  0
LINE
  5
2DBE
330
1E
100
AcDbEntity
  8
3
100
AcDbLine
 10
0.1288759788545306
 20
2.973774960747967
 30
0.0
 11
0.1498733541826147
 21
2.98952299224403
 31
0.0
  0
LINE
  5
2DBF
330
1E
100
AcDbEntity
  8
3
100
AcDbLine
 10
0.1498733541826147
 20
2.98952299224403
 30
0.0
 11
0.1787447452587303
 21
3.010520367572115
 31
0.0
  0
LINE
  5
2DC0
330
1E
100
AcDbEntity
  8
3
100
AcDbLine
 10
0.1787447452587303
 20
3.010520367572115
 30
0.0
 11
0.2115531442088616
 21
3.034142414816209
 31
0.0
  0
LINE
  5
2DC1
330
1E
100
AcDbEntity
  8
3
100
AcDbLine
 10
0.2115531442088616
 20
3.034142414816209
 30
0.0
 11
0.2496108869910136
 21
3.06170146993432
 31
0.0
  0
LINE
  5
2DC2
330
1E
100
AcDbEntity
  8
3
100
AcDbLine
 10
0.2496108869910136
 20
3.06170146993432
 30
0.0
 11
0.2902933016891764
 21
3.09188519696844
 31
0.0
  0
LINE
  5
2DC3
330
1E
100
AcDbEntity
  8
3
100
AcDbLine
 10
0.2902933016891764
 20
3.09188519696844
 30
0.0
 11
0.3336003883033496
 21
3.123381259960566
 31
0.0
  0
LINE
  5
2DC4
330
1E
100
AcDbEntity
  8
3
100
AcDbLine
 10
0.3336003883033496
 20
7.168000682532741
 30
0.0
 11
0.2902933016891764
 21
7.198184409566862
 31
0.0
  0
LINE
  5
2DC5
330
1E
100
AcDbEntity
  8
3
100
AcDbLine
 10
0.2902933016891764
 20
7.198184409566862
 30
0.0
 11
0.2496108869910136
 21
7.228368136600982
 31
0.0
  0
LINE
  5
2DC6
330
1E
100
AcDbEntity
  8
3
100
AcDbLine
 10
0.2496108869910136
 20
7.228368136600982
 30
0.0
 11
0.2115531442088616
 21
7.257239527677098
 31
0.0
  0
LINE
  5
2DC7
330
1E
100
AcDbEntity
  8
3
100
AcDbLine
 10
0.2115531442088616
 20
7.257239527677098
 30
0.0
 11
0.1787447452587303
 21
7.280861574921192
 31
0.0
  0
LINE
  5
2DC8
330
1E
100
AcDbEntity
  8
3
100
AcDbLine
 10
0.1787447452587303
 20
7.280861574921192
 30
0.0
 11
0.1498733541826147
 21
7.301858950249275
 31
0.0
  0
LINE
  5
2DC9
330
1E
100
AcDbEntity
  8
3
100
AcDbLine
 10
0.1498733541826147
 20
7.301858950249275
 30
0.0
 11
0.1288759788545306
 21
7.317606981745338
 31
0.0
  0
LINE
  5
2DCA
330
1E
100
AcDbEntity
  8
3
100
AcDbLine
 10
0.1288759788545306
 20
7.317606981745338
 30
0.0
 11
0.1144402833164735
 21
7.328105669409381
 31
0.0
  0
LINE
  5
2DCB
330
1E
100
AcDbEntity
  8
3
100
AcDbLine
 10
0.1144402833164735
 20
7.328105669409381
 30
0.0
 11
0.1091909394844523
 21
7.332042677283396
 31
0.0
  0
LINE
  5
2DCC
330
1E
100
AcDbEntity
  8
3
100
AcDbLine
 10
2.761421910613059
 20
7.350415380695471
 30
0.0
 11
2.777169942109122
 21
7.371412756023555
 31
0.0
  0
LINE
  5
2DCD
330
1E
100
AcDbEntity
  8
3
100
AcDbLine
 10
2.777169942109122
 20
7.371412756023555
 30
0.0
 11
2.787668629773164
 21
7.385848451561613
 31
0.0
  0
LINE
  5
2DCE
330
1E
100
AcDbEntity
  8
3
100
AcDbLine
 10
2.787668629773164
 20
7.385848451561613
 30
0.0
 11
2.79160563764718
 21
7.392410131351638
 31
0.0
  0
LINE
  5
2DCF
330
1E
100
AcDbEntity
  8
3
100
AcDbLine
 10
2.627563642896523
 20
7.168000682532741
 30
0.0
 11
2.659059705888649
 21
7.209995433188909
 31
0.0
  0
LINE
  5
2DD0
330
1E
100
AcDbEntity
  8
3
100
AcDbLine
 10
2.659059705888649
 20
7.209995433188909
 30
0.0
 11
2.68924343292277
 21
7.250677847887072
 31
0.0
  0
LINE
  5
2DD1
330
1E
100
AcDbEntity
  8
3
100
AcDbLine
 10
2.68924343292277
 20
7.250677847887072
 30
0.0
 11
2.71680248804088
 21
7.288735590669224
 31
0.0
  0
LINE
  5
2DD2
330
1E
100
AcDbEntity
  8
3
100
AcDbLine
 10
2.71680248804088
 20
7.288735590669224
 30
0.0
 11
2.740424535284975
 21
7.32285632557736
 31
0.0
  0
LINE
  5
2DD3
330
1E
100
AcDbEntity
  8
3
100
AcDbLine
 10
2.740424535284975
 20
7.32285632557736
 30
0.0
 11
2.761421910613059
 21
7.350415380695471
 31
0.0
  0
LINE
  5
2DD4
330
1E
100
AcDbEntity
  8
3
100
AcDbLine
 10
0.168246057594688
 20
7.392410131351638
 30
0.0
 11
0.1734954014267092
 21
7.385848451561613
 31
0.0
  0
LINE
  5
2DD5
330
1E
100
AcDbEntity
  8
3
100
AcDbLine
 10
0.1734954014267092
 20
7.385848451561613
 30
0.0
 11
0.183994089090751
 21
7.371412756023555
 31
0.0
  0
LINE
  5
2DD6
330
1E
100
AcDbEntity
  8
3
100
AcDbLine
 10
0.183994089090751
 20
7.371412756023555
 30
0.0
 11
0.1997421205868139
 21
7.350415380695471
 31
0.0
  0
LINE
  5
2DD7
330
1E
100
AcDbEntity
  8
3
100
AcDbLine
 10
0.1997421205868139
 20
7.350415380695471
 30
0.0
 11
0.2194271599568931
 21
7.32285632557736
 31
0.0
  0
LINE
  5
2DD8
330
1E
100
AcDbEntity
  8
3
100
AcDbLine
 10
0.2194271599568931
 20
7.32285632557736
 30
0.0
 11
0.2443615431589925
 21
7.288735590669224
 31
0.0
  0
LINE
  5
2DD9
330
1E
100
AcDbEntity
  8
3
100
AcDbLine
 10
0.2443615431589925
 20
7.288735590669224
 30
0.0
 11
0.2719205982771031
 21
7.250677847887072
 31
0.0
  0
LINE
  5
2DDA
330
1E
100
AcDbEntity
  8
3
100
AcDbLine
 10
0.2719205982771031
 20
7.250677847887072
 30
0.0
 11
0.3021043253112241
 21
7.209995433188909
 31
0.0
  0
LINE
  5
2DDB
330
1E
100
AcDbEntity
  8
3
100
AcDbLine
 10
0.3021043253112241
 20
7.209995433188909
 30
0.0
 11
0.3336003883033496
 21
7.168000682532741
 31
0.0
  0
LINE
  5
2DDC
330
1E
100
AcDbEntity
  8
3
100
AcDbLine
 10
0.3336003883033496
 20
3.123381259960566
 30
0.0
 11
0.3021043253112241
 21
3.081386509304398
 31
0.0
  0
LINE
  5
2DDD
330
1E
100
AcDbEntity
  8
3
100
AcDbLine
 10
0.3021043253112241
 20
3.081386509304398
 30
0.0
 11
0.2719205982771031
 21
3.040704094606236
 31
0.0
  0
LINE
  5
2DDE
330
1E
100
AcDbEntity
  8
3
100
AcDbLine
 10
0.2719205982771031
 20
3.040704094606236
 30
0.0
 11
0.2443615431589925
 21
3.002646351824083
 31
0.0
  0
LINE
  5
2DDF
330
1E
100
AcDbEntity
  8
3
100
AcDbLine
 10
0.2443615431589925
 20
3.002646351824083
 30
0.0
 11
0.2194271599568931
 21
2.968525616915947
 31
0.0
  0
LINE
  5
2DE0
330
1E
100
AcDbEntity
  8
3
100
AcDbLine
 10
0.2194271599568931
 20
2.968525616915947
 30
0.0
 11
0.1997421205868139
 21
2.940966561797836
 31
0.0
  0
LINE
  5
2DE1
330
1E
100
AcDbEntity
  8
3
100
AcDbLine
 10
0.1997421205868139
 20
2.940966561797836
 30
0.0
 11
0.183994089090751
 21
2.918656850511747
 31
0.0
  0
LINE
  5
2DE2
330
1E
100
AcDbEntity
  8
3
100
AcDbLine
 10
0.183994089090751
 20
2.918656850511747
 30
0.0
 11
0.1734954014267092
 21
2.905533490931695
 31
0.0
  0
LINE
  5
2DE3
330
1E
100
AcDbEntity
  8
3
100
AcDbLine
 10
0.1734954014267092
 20
2.905533490931695
 30
0.0
 11
0.168246057594688
 21
2.898971811141668
 31
0.0
  0
LINE
  5
2DE4
330
1E
100
AcDbEntity
  8
3
100
AcDbLine
 10
2.68924343292277
 20
3.040704094606236
 30
0.0
 11
2.659059705888649
 21
3.081386509304398
 31
0.0
  0
LINE
  5
2DE5
330
1E
100
AcDbEntity
  8
3
100
AcDbLine
 10
2.659059705888649
 20
3.081386509304398
 30
0.0
 11
2.627563642896523
 21
3.123381259960566
 31
0.0
  0
LINE
  5
2DE6
330
1E
100
AcDbEntity
  8
3
100
AcDbLine
 10
2.79160563764718
 20
2.898971811141668
 30
0.0
 11
2.787668629773164
 21
2.905533490931695
 31
0.0
  0
LINE
  5
2DE7
330
1E
100
AcDbEntity
  8
3
100
AcDbLine
 10
2.787668629773164
 20
2.905533490931695
 30
0.0
 11
2.777169942109122
 21
2.918656850511747
 31
0.0
  0
LINE
  5
2DE8
330
1E
100
AcDbEntity
  8
3
100
AcDbLine
 10
2.777169942109122
 20
2.918656850511747
 30
0.0
 11
2.761421910613059
 21
2.940966561797836
 31
0.0
  0
LINE
  5
2DE9
330
1E
100
AcDbEntity
  8
3
100
AcDbLine
 10
2.761421910613059
 20
2.940966561797836
 30
0.0
 11
2.740424535284975
 21
2.968525616915947
 31
0.0
  0
LINE
  5
2DEA
330
1E
100
AcDbEntity
  8
3
100
AcDbLine
 10
2.740424535284975
 20
2.968525616915947
 30
0.0
 11
2.71680248804088
 21
3.002646351824083
 31
0.0
  0
LINE
  5
2DEB
330
1E
100
AcDbEntity
  8
3
100
AcDbLine
 10
2.71680248804088
 20
3.002646351824083
 30
0.0
 11
2.68924343292277
 21
3.040704094606236
 31
0.0
  0
LINE
  5
2DEC
330
1E
100
AcDbEntity
  8
3
100
AcDbLine
 10
2.809978341059253
 20
7.301858950249275
 30
0.0
 11
2.782419285941143
 21
7.280861574921192
 31
0.0
  0
LINE
  5
2DED
330
1E
100
AcDbEntity
  8
3
100
AcDbLine
 10
2.782419285941143
 20
7.280861574921192
 30
0.0
 11
2.748298551033006
 21
7.257239527677098
 31
0.0
  0
LINE
  5
2DEE
330
1E
100
AcDbEntity
  8
3
100
AcDbLine
 10
2.748298551033006
 20
7.257239527677098
 30
0.0
 11
2.710240808250854
 21
7.228368136600982
 31
0.0
  0
LINE
  5
2DEF
330
1E
100
AcDbEntity
  8
3
100
AcDbLine
 10
2.710240808250854
 20
7.228368136600982
 30
0.0
 11
2.669558393552692
 21
7.198184409566862
 31
0.0
  0
LINE
  5
2DF0
330
1E
100
AcDbEntity
  8
3
100
AcDbLine
 10
2.669558393552692
 20
7.198184409566862
 30
0.0
 11
2.627563642896523
 21
7.168000682532741
 31
0.0
  0
LINE
  5
2DF1
330
1E
100
AcDbEntity
  8
3
100
AcDbLine
 10
2.851973091715421
 20
7.332042677283396
 30
0.0
 11
2.845411411925395
 21
7.328105669409381
 31
0.0
  0
LINE
  5
2DF2
330
1E
100
AcDbEntity
  8
3
100
AcDbLine
 10
2.845411411925395
 20
7.328105669409381
 30
0.0
 11
2.832288052345342
 21
7.317606981745338
 31
0.0
  0
LINE
  5
2DF3
330
1E
100
AcDbEntity
  8
3
100
AcDbLine
 10
2.832288052345342
 20
7.317606981745338
 30
0.0
 11
2.809978341059253
 21
7.301858950249275
 31
0.0
  0
LINE
  5
2DF4
330
1E
100
AcDbEntity
  8
3
100
AcDbLine
 10
2.627563642896523
 20
3.123381259960566
 30
0.0
 11
2.669558393552692
 21
3.09188519696844
 31
0.0
  0
LINE
  5
2DF5
330
1E
100
AcDbEntity
  8
3
100
AcDbLine
 10
2.669558393552692
 20
3.09188519696844
 30
0.0
 11
2.710240808250854
 21
3.06170146993432
 31
0.0
  0
LINE
  5
2DF6
330
1E
100
AcDbEntity
  8
3
100
AcDbLine
 10
2.710240808250854
 20
3.06170146993432
 30
0.0
 11
2.748298551033006
 21
3.034142414816209
 31
0.0
  0
LINE
  5
2DF7
330
1E
100
AcDbEntity
  8
3
100
AcDbLine
 10
2.748298551033006
 20
3.034142414816209
 30
0.0
 11
2.782419285941143
 21
3.010520367572115
 31
0.0
  0
LINE
  5
2DF8
330
1E
100
AcDbEntity
  8
3
100
AcDbLine
 10
2.782419285941143
 20
3.010520367572115
 30
0.0
 11
2.809978341059253
 21
2.98952299224403
 31
0.0
  0
LINE
  5
2DF9
330
1E
100
AcDbEntity
  8
3
100
AcDbLine
 10
2.809978341059253
 20
2.98952299224403
 30
0.0
 11
2.832288052345342
 21
2.973774960747967
 31
0.0
  0
LINE
  5
2DFA
330
1E
100
AcDbEntity
  8
3
100
AcDbLine
 10
2.832288052345342
 20
2.973774960747967
 30
0.0
 11
2.845411411925395
 21
2.963276273083926
 31
0.0
  0
LINE
  5
2DFB
330
1E
100
AcDbEntity
  8
3
100
AcDbLine
 10
2.845411411925395
 20
2.963276273083926
 30
0.0
 11
2.851973091715421
 21
2.959339265209909
 31
0.0
  0
LINE
  5
2DFC
330
1E
100
AcDbEntity
  8
3
100
AcDbLine
 10
2.795542645521195
 20
2.895034803267653
 30
0.0
 11
2.79160563764718
 21
2.898971811141668
 31
0.0
  0
LINE
  5
2DFD
330
1E
100
AcDbEntity
  8
3
100
AcDbLine
 10
2.79160563764718
 20
2.898971811141668
 30
0.0
 11
0.168246057594688
 21
2.898971811141668
 31
0.0
  0
LINE
  5
2DFE
330
1E
100
AcDbEntity
  8
3
100
AcDbLine
 10
0.168246057594688
 20
2.898971811141668
 30
0.0
 11
0.1656213856786777
 21
2.895034803267653
 31
0.0
  0
LINE
  5
2DFF
330
1E
100
AcDbEntity
  8
3
100
AcDbLine
 10
2.851973091715421
 20
7.332042677283396
 30
0.0
 11
2.851973091715421
 21
2.959339265209909
 31
0.0
  0
LINE
  5
2E00
330
1E
100
AcDbEntity
  8
3
100
AcDbLine
 10
2.851973091715421
 20
2.959339265209909
 30
0.0
 11
2.855910099589436
 21
2.955402257335894
 31
0.0
  0
LINE
  5
2E01
330
1E
100
AcDbEntity
  8
3
100
AcDbLine
 10
0.1656213856786777
 20
7.395034803267648
 30
0.0
 11
0.168246057594688
 21
7.392410131351638
 31
0.0
  0
LINE
  5
2E02
330
1E
100
AcDbEntity
  8
3
100
AcDbLine
 10
0.168246057594688
 20
7.392410131351638
 30
0.0
 11
2.79160563764718
 21
7.392410131351638
 31
0.0
  0
LINE
  5
2E03
330
1E
100
AcDbEntity
  8
3
100
AcDbLine
 10
2.79160563764718
 20
7.392410131351638
 30
0.0
 11
2.795542645521195
 21
7.395034803267648
 31
0.0
  0
LINE
  5
2E04
330
1E
100
AcDbEntity
  8
3
100
AcDbLine
 10
0.1091909394844523
 20
2.959339265209909
 30
0.0
 11
0.1091909394844523
 21
7.332042677283396
 31
0.0
  0
LINE
  5
2E05
330
1E
100
AcDbEntity
  8
3
100
AcDbLine
 10
0.1091909394844523
 20
7.332042677283396
 30
0.0
 11
0.1052539316104362
 21
7.335979685157413
 31
0.0
  0
LINE
  5
2E06
330
1E
100
AcDbEntity
  8
3
100
AcDbLine
 10
2.417589889615683
 20
3.679811706154791
 30
0.0
 11
2.413652881741668
 21
3.695559737650854
 31
0.0
  0
LINE
  5
2E07
330
1E
100
AcDbEntity
  8
3
100
AcDbLine
 10
2.413652881741668
 20
3.695559737650854
 30
0.0
 11
2.401841858119621
 21
3.707370761272901
 31
0.0
  0
LINE
  5
2E08
330
1E
100
AcDbEntity
  8
3
100
AcDbLine
 10
2.401841858119621
 20
3.707370761272901
 30
0.0
 11
2.386093826623558
 21
3.711307769146917
 31
0.0
  0
LINE
  5
2E09
330
1E
100
AcDbEntity
  8
3
100
AcDbLine
 10
0.5737578686183103
 20
3.711307769146917
 30
0.0
 11
0.5580098371222473
 21
3.707370761272901
 31
0.0
  0
LINE
  5
2E0A
330
1E
100
AcDbEntity
  8
3
100
AcDbLine
 10
0.5580098371222473
 20
3.707370761272901
 30
0.0
 11
0.547511149458205
 21
3.695559737650854
 31
0.0
  0
LINE
  5
2E0B
330
1E
100
AcDbEntity
  8
3
100
AcDbLine
 10
0.547511149458205
 20
3.695559737650854
 30
0.0
 11
0.5422618056261844
 21
3.679811706154791
 31
0.0
  0
LINE
  5
2E0C
330
1E
100
AcDbEntity
  8
3
100
AcDbLine
 10
0.5422618056261844
 20
3.330730341325395
 30
0.0
 11
0.547511149458205
 21
3.314982309829332
 31
0.0
  0
LINE
  5
2E0D
330
1E
100
AcDbEntity
  8
3
100
AcDbLine
 10
0.547511149458205
 20
3.314982309829332
 30
0.0
 11
0.5580098371222473
 21
3.303171286207285
 31
0.0
  0
LINE
  5
2E0E
330
1E
100
AcDbEntity
  8
3
100
AcDbLine
 10
0.5580098371222473
 20
3.303171286207285
 30
0.0
 11
0.5737578686183103
 21
3.299234278333269
 31
0.0
  0
LINE
  5
2E0F
330
1E
100
AcDbEntity
  8
3
100
AcDbLine
 10
2.386093826623558
 20
3.299234278333269
 30
0.0
 11
2.401841858119621
 21
3.303171286207285
 31
0.0
  0
LINE
  5
2E10
330
1E
100
AcDbEntity
  8
3
100
AcDbLine
 10
2.401841858119621
 20
3.303171286207285
 30
0.0
 11
2.413652881741668
 21
3.314982309829332
 31
0.0
  0
LINE
  5
2E11
330
1E
100
AcDbEntity
  8
3
100
AcDbLine
 10
2.413652881741668
 20
3.314982309829332
 30
0.0
 11
2.417589889615683
 21
3.330730341325395
 31
0.0
  0
LINE
  5
2E12
330
1E
100
AcDbEntity
  8
3
100
AcDbLine
 10
0.5580098371222473
 20
6.988210656286021
 30
0.0
 11
0.5737578686183103
 21
6.992147664160038
 31
0.0
  0
LINE
  5
2E13
330
1E
100
AcDbEntity
  8
3
100
AcDbLine
 10
0.5737578686183103
 20
6.992147664160038
 30
0.0
 11
2.386093826623558
 21
6.992147664160038
 31
0.0
  0
LINE
  5
2E14
330
1E
100
AcDbEntity
  8
3
100
AcDbLine
 10
2.386093826623558
 20
6.992147664160038
 30
0.0
 11
2.401841858119621
 21
6.988210656286021
 31
0.0
  0
LINE
  5
2E15
330
1E
100
AcDbEntity
  8
3
100
AcDbLine
 10
2.401841858119621
 20
6.988210656286021
 30
0.0
 11
2.413652881741668
 21
6.976399632663975
 31
0.0
  0
LINE
  5
2E16
330
1E
100
AcDbEntity
  8
3
100
AcDbLine
 10
2.413652881741668
 20
6.976399632663975
 30
0.0
 11
2.417589889615683
 21
6.960651601167912
 31
0.0
  0
LINE
  5
2E17
330
1E
100
AcDbEntity
  8
3
100
AcDbLine
 10
2.417589889615683
 20
6.960651601167912
 30
0.0
 11
2.417589889615683
 21
6.611570236338516
 31
0.0
  0
LINE
  5
2E18
330
1E
100
AcDbEntity
  8
3
100
AcDbLine
 10
2.417589889615683
 20
6.611570236338516
 30
0.0
 11
2.413652881741668
 21
6.595822204842453
 31
0.0
  0
LINE
  5
2E19
330
1E
100
AcDbEntity
  8
3
100
AcDbLine
 10
2.413652881741668
 20
6.595822204842453
 30
0.0
 11
2.401841858119621
 21
6.584011181220406
 31
0.0
  0
LINE
  5
2E1A
330
1E
100
AcDbEntity
  8
3
100
AcDbLine
 10
2.401841858119621
 20
6.584011181220406
 30
0.0
 11
2.386093826623558
 21
6.58007417334639
 31
0.0
  0
LINE
  5
2E1B
330
1E
100
AcDbEntity
  8
3
100
AcDbLine
 10
2.386093826623558
 20
6.58007417334639
 30
0.0
 11
0.5737578686183103
 21
6.58007417334639
 31
0.0
  0
LINE
  5
2E1C
330
1E
100
AcDbEntity
  8
3
100
AcDbLine
 10
0.5737578686183103
 20
6.58007417334639
 30
0.0
 11
0.5580098371222473
 21
6.584011181220406
 31
0.0
  0
LINE
  5
2E1D
330
1E
100
AcDbEntity
  8
3
100
AcDbLine
 10
0.5580098371222473
 20
6.584011181220406
 30
0.0
 11
0.547511149458205
 21
6.595822204842453
 31
0.0
  0
LINE
  5
2E1E
330
1E
100
AcDbEntity
  8
3
100
AcDbLine
 10
0.547511149458205
 20
6.595822204842453
 30
0.0
 11
0.5422618056261844
 21
6.611570236338516
 31
0.0
  0
LINE
  5
2E1F
330
1E
100
AcDbEntity
  8
3
100
AcDbLine
 10
0.5422618056261844
 20
6.611570236338516
 30
0.0
 11
0.5422618056261844
 21
6.960651601167912
 31
0.0
  0
LINE
  5
2E20
330
1E
100
AcDbEntity
  8
3
100
AcDbLine
 10
0.5422618056261844
 20
6.960651601167912
 30
0.0
 11
0.547511149458205
 21
6.976399632663975
 31
0.0
  0
LINE
  5
2E21
330
1E
100
AcDbEntity
  8
3
100
AcDbLine
 10
0.547511149458205
 20
6.976399632663975
 30
0.0
 11
0.5580098371222473
 21
6.988210656286021
 31
0.0
  0
LINE
  5
2E22
330
1E
100
AcDbEntity
  8
3
100
AcDbLine
 10
1.770608262319096
 20
4.375349763897573
 30
0.0
 11
1.190555768880777
 21
4.375349763897573
 31
0.0
  0
LINE
  5
2E23
330
1E
100
AcDbEntity
  8
3
100
AcDbLine
 10
1.190555768880777
 20
4.375349763897573
 30
0.0
 11
1.190555768880777
 21
5.021019055236155
 31
0.0
  0
LINE
  5
2E24
330
1E
100
AcDbEntity
  8
3
100
AcDbLine
 10
1.770608262319096
 20
5.270362887257151
 30
0.0
 11
1.190555768880777
 21
5.270362887257151
 31
0.0
  0
LINE
  5
2E25
330
1E
100
AcDbEntity
  8
3
100
AcDbLine
 10
1.190555768880777
 20
5.270362887257151
 30
0.0
 11
1.190555768880777
 21
5.916032178595734
 31
0.0
  0
LINE
  5
2E26
330
1E
100
AcDbEntity
  8
3
100
AcDbLine
 10
2.627563642896523
 20
7.168000682532741
 30
0.0
 11
0.3336003883033496
 21
7.168000682532741
 31
0.0
  0
LINE
  5
2E27
330
1E
100
AcDbEntity
  8
3
100
AcDbLine
 10
0.3336003883033496
 20
7.168000682532741
 30
0.0
 11
0.3336003883033496
 21
3.123381259960566
 31
0.0
  0
LINE
  5
2E28
330
1E
100
AcDbEntity
  8
3
100
AcDbLine
 10
0.3336003883033496
 20
3.123381259960566
 30
0.0
 11
2.627563642896523
 21
3.123381259960566
 31
0.0
  0
LINE
  5
2E29
330
1E
100
AcDbEntity
  8
3
100
AcDbLine
 10
2.627563642896523
 20
3.123381259960566
 30
0.0
 11
2.627563642896523
 21
7.168000682532741
 31
0.0
  0
ENDSEC
  0
SECTION
  2
OBJECTS
  0
DICTIONARY
  5
C
330
0
100
AcDbDictionary
  3
ACAD_GROUP
350
D
  3
ACAD_LAYOUT
350
19
  3
ACAD_MLINESTYLE
350
16
  3
ACAD_PLOTSETTINGS
350
18
1001
ACAD
1000
TREAT_AS_HARD
1070
     0
  0
DICTIONARY
  5
4047
330
1E
100
AcDbDictionary
  3
ACAD_LAYOUTSELFREF
350
4081
1001
ACAD
1000
TREAT_AS_HARD
1070
     1
  0
DICTIONARY
  5
4049
330
1A
100
AcDbDictionary
  3
ACAD_LAYOUTSELFREF
350
4080
1001
ACAD
1000
TREAT_AS_HARD
1070
     1
  0
DICTIONARY
  5
D
102
{ACAD_REACTORS
330
C
102
}
330
C
100
AcDbDictionary
1001
ACAD
1000
TREAT_AS_HARD
1070
     0
  0
DICTIONARY
  5
19
102
{ACAD_REACTORS
330
C
102
}
330
C
100
AcDbDictionary
1001
ACAD
1000
TREAT_AS_HARD
1070
     0
  0
DICTIONARY
  5
16
102
{ACAD_REACTORS
330
C
102
}
330
C
100
AcDbDictionary
  3
STANDARD
350
17
1001
ACAD
1000
TREAT_AS_HARD
1070
     0
  0
DICTIONARY
  5
18
102
{ACAD_REACTORS
330
C
102
}
330
C
100
AcDbDictionary
1001
ACAD
1000
TREAT_AS_HARD
1070
     0
  0
XRECORD
  5
4081
102
{ACAD_REACTORS
330
4047
102
}
330
4047
100
AcDbXrecord
340
1E
  0
XRECORD
  5
4080
102
{ACAD_REACTORS
330
4049
102
}
330
4049
100
AcDbXrecord
340
1A
  0
MLINESTYLE
  5
17
102
{ACAD_REACTORS
330
16
102
}
330
16
100
AcDbMlineStyle
  2
STANDARD
 70
     0
  3

 62
   256
 51
90.0
 52
90.0
 71
     2
 49
0.5
 62
   256
  6
BYLAYER
 49
-0.5
 62
   256
  6
BYLAYER
  0
ENDSEC
  0
EOF
