  0
SECTION
  2
HEADER
  9
$ACADVER
  1
AC1014
  9
$ACADMAINTVER
 70
     9
  9
$DWGCODEPAGE
  3
ANSI_1252
  9
$INSBASE
 10
0.0
 20
0.0
 30
0.0
  9
$EXTMIN
 10
0.0
 20
0.0
 30
0.0
  9
$EXTMAX
 10
11.1003937007874
 20
8.6003937007874
 30
0.0
  9
$LIMMIN
 10
0.0
 20
0.0
  9
$LIMMAX
 10
12.0
 20
9.0
  9
$ORTHOMODE
 70
     0
  9
$REGENMODE
 70
     1
  9
$FILLMODE
 70
     1
  9
$QTEXTMODE
 70
     0
  9
$MIRRTEXT
 70
     1
  9
$DRAGMODE
 70
     2
  9
$LTSCALE
 40
1.0
  9
$OSMODE
 70
    37
  9
$ATTMODE
 70
     1
  9
$TEXTSIZE
 40
0.2
  9
$TRACEWID
 40
0.05
  9
$TEXTSTYLE
  7
STANDARD
  9
$CLAYER
  8
0
  9
$CELTYPE
  6
BYLAYER
  9
$CECOLOR
 62
   256
  9
$CELTSCALE
 40
1.0
  9
$DELOBJ
 70
     1
  9
$DISPSILH
 70
     0
  9
$DIMSCALE
 40
1.0
  9
$DIMASZ
 40
0.18
  9
$DIMEXO
 40
0.0625
  9
$DIMDLI
 40
0.38
  9
$DIMRND
 40
0.0
  9
$DIMDLE
 40
0.0
  9
$DIMEXE
 40
0.18
  9
$DIMTP
 40
0.0
  9
$DIMTM
 40
0.0
  9
$DIMTXT
 40
0.18
  9
$DIMCEN
 40
0.09
  9
$DIMTSZ
 40
0.0
  9
$DIMTOL
 70
     0
  9
$DIMLIM
 70
     0
  9
$DIMTIH
 70
     1
  9
$DIMTOH
 70
     1
  9
$DIMSE1
 70
     0
  9
$DIMSE2
 70
     0
  9
$DIMTAD
 70
     0
  9
$DIMZIN
 70
     0
  9
$DIMBLK
  1

  9
$DIMASO
 70
     1
  9
$DIMSHO
 70
     1
  9
$DIMPOST
  1

  9
$DIMAPOST
  1

  9
$DIMALT
 70
     0
  9
$DIMALTD
 70
     2
  9
$DIMALTF
 40
25.4
  9
$DIMLFAC
 40
1.0
  9
$DIMTOFL
 70
     0
  9
$DIMTVP
 40
0.0
  9
$DIMTIX
 70
     0
  9
$DIMSOXD
 70
     0
  9
$DIMSAH
 70
     0
  9
$DIMBLK1
  1

  9
$DIMBLK2
  1

  9
$DIMSTYLE
  2
STANDARD
  9
$DIMCLRD
 70
     0
  9
$DIMCLRE
 70
     0
  9
$DIMCLRT
 70
     0
  9
$DIMTFAC
 40
1.0
  9
$DIMGAP
 40
0.09
  9
$DIMJUST
 70
     0
  9
$DIMSD1
 70
     0
  9
$DIMSD2
 70
     0
  9
$DIMTOLJ
 70
     1
  9
$DIMTZIN
 70
     0
  9
$DIMALTZ
 70
     0
  9
$DIMALTTZ
 70
     0
  9
$DIMFIT
 70
     5
  9
$DIMUPT
 70
     0
  9
$DIMUNIT
 70
     2
  9
$DIMDEC
 70
     4
  9
$DIMTDEC
 70
     4
  9
$DIMALTU
 70
     2
  9
$DIMALTTD
 70
     2
  9
$DIMTXSTY
  7
STANDARD
  9
$DIMAUNIT
 70
     0
  9
$LUNITS
 70
     2
  9
$LUPREC
 70
     4
  9
$SKETCHINC
 40
0.1
  9
$FILLETRAD
 40
0.0
  9
$AUNITS
 70
     0
  9
$AUPREC
 70
     0
  9
$MENU
  1
acad
  9
$ELEVATION
 40
0.0
  9
$PELEVATION
 40
0.0
  9
$THICKNESS
 40
0.0
  9
$LIMCHECK
 70
     0
  9
$BLIPMODE
 70
     0
  9
$CHAMFERA
 40
0.0
  9
$CHAMFERB
 40
0.0
  9
$CHAMFERC
 40
0.0
  9
$CHAMFERD
 40
0.0
  9
$SKPOLY
 70
     0
  9
$TDCREATE
 40
2452270.627754629
  9
$TDUPDATE
 40
2452271.415079930
  9
$TDINDWG
 40
0.0295893056
  9
$TDUSRTIMER
 40
0.0295893056
  9
$USRTIMER
 70
     1
  9
$ANGBASE
 50
0.0
  9
$ANGDIR
 70
     0
  9
$PDMODE
 70
     0
  9
$PDSIZE
 40
0.0
  9
$PLINEWID
 40
0.0
  9
$COORDS
 70
     0
  9
$SPLFRAME
 70
     0
  9
$SPLINETYPE
 70
     6
  9
$SPLINESEGS
 70
     8
  9
$ATTDIA
 70
     0
  9
$ATTREQ
 70
     1
  9
$HANDLING
 70
-16383
  9
$HANDSEED
  5
23EB
  9
$SURFTAB1
 70
     6
  9
$SURFTAB2
 70
     6
  9
$SURFTYPE
 70
     6
  9
$SURFU
 70
     6
  9
$SURFV
 70
     6
  9
$UCSNAME
  2

  9
$UCSORG
 10
0.0
 20
0.0
 30
0.0
  9
$UCSXDIR
 10
1.0
 20
0.0
 30
0.0
  9
$UCSYDIR
 10
0.0
 20
1.0
 30
0.0
  9
$PUCSNAME
  2

  9
$PUCSORG
 10
0.0
 20
0.0
 30
0.0
  9
$PUCSXDIR
 10
1.0
 20
0.0
 30
0.0
  9
$PUCSYDIR
 10
0.0
 20
1.0
 30
0.0
  9
$USERI1
 70
     0
  9
$USERI2
 70
     0
  9
$USERI3
 70
     0
  9
$USERI4
 70
     0
  9
$USERI5
 70
     0
  9
$USERR1
 40
0.0
  9
$USERR2
 40
0.0
  9
$USERR3
 40
0.0
  9
$USERR4
 40
0.0
  9
$USERR5
 40
0.0
  9
$WORLDVIEW
 70
     1
  9
$SHADEDGE
 70
     3
  9
$SHADEDIF
 70
    70
  9
$TILEMODE
 70
     1
  9
$MAXACTVP
 70
    16
  9
$PINSBASE
 10
0.0
 20
0.0
 30
0.0
  9
$PLIMCHECK
 70
     0
  9
$PEXTMIN
 10
1.000000000000000E+20
 20
1.000000000000000E+20
 30
1.000000000000000E+20
  9
$PEXTMAX
 10
-1.000000000000000E+20
 20
-1.000000000000000E+20
 30
-1.000000000000000E+20
  9
$PLIMMIN
 10
0.0
 20
0.0
  9
$PLIMMAX
 10
12.0
 20
9.0
  9
$UNITMODE
 70
     0
  9
$VISRETAIN
 70
     0
  9
$PLINEGEN
 70
     0
  9
$PSLTSCALE
 70
     1
  9
$TREEDEPTH
 70
  3020
  9
$PICKSTYLE
 70
     0
  9
$CMLSTYLE
  2
STANDARD
  9
$CMLJUST
 70
     0
  9
$CMLSCALE
 40
1.0
  9
$PROXYGRAPHICS
 70
     1
  9
$MEASUREMENT
 70
     0
  0
ENDSEC
  0
SECTION
  2
CLASSES
  0
CLASS
  1
ACDBDICTIONARYWDFLT
  2
AcDbDictionaryWithDefault
  3
AutoCAD 2000
 90
        0
280
     0
281
     0
  0
CLASS
  1
ACDBPLACEHOLDER
  2
AcDbPlaceHolder
  3
AutoCAD 2000
 90
        0
280
     0
281
     0
  0
CLASS
  1
LAYOUT
  2
AcDbLayout
  3
AutoCAD 2000
 90
        0
280
     0
281
     0
  0
CLASS
  1
LONG_TRANSACTION
  2
AcDbLongTransaction
  3
AutoCAD 2000
 90
        0
280
     0
281
     0
  0
CLASS
  1
LWPOLYLINE
  2
AcDbPolyline
  3
AutoCAD 2000
 90
        0
280
     0
281
     1
  0
CLASS
  1
HATCH
  2
AcDbHatch
  3
AutoCAD 2000
 90
        0
280
     0
281
     1
  0
CLASS
  1
XRECORD
  2
AcDbXrecord
  3
AutoCAD 2000
 90
        0
280
     0
281
     0
  0
ENDSEC
  0
SECTION
  2
TABLES
  0
TABLE
  2
VPORT
  5
8
330
0
100
AcDbSymbolTable
 70
     3
  0
VPORT
  5
23C5
330
8
100
AcDbSymbolTableRecord
100
AcDbViewportTableRecord
  2
*ACTIVE
 70
     0
 10
0.0
 20
0.0
 11
1.0
 21
1.0
 12
6.0
 22
4.5
 13
0.0
 23
0.0
 14
1.0
 24
1.0
 15
0.0
 25
0.0
 16
0.0
 26
0.0
 36
1.0
 17
0.0
 27
0.0
 37
0.0
 40
8.592496765847347
 41
1.597014925373134
 42
50.0
 43
0.0
 44
0.0
 50
0.0
 51
0.0
 71
     0
 72
   100
 73
     1
 74
     1
 75
     0
 76
     0
 77
     0
 78
     0
  0
ENDTAB
  0
TABLE
  2
LTYPE
  5
5
330
0
100
AcDbSymbolTable
 70
    25
  0
LTYPE
  5
13
330
5
100
AcDbSymbolTableRecord
100
AcDbLinetypeTableRecord
  2
BYBLOCK
 70
     0
  3

 72
    65
 73
     0
 40
0.0
  0
LTYPE
  5
14
330
5
100
AcDbSymbolTableRecord
100
AcDbLinetypeTableRecord
  2
BYLAYER
 70
     0
  3

 72
    65
 73
     0
 40
0.0
  0
LTYPE
  5
15
330
5
100
AcDbSymbolTableRecord
100
AcDbLinetypeTableRecord
  2
CONTINUOUS
 70
     0
  3
Solid line
 72
    65
 73
     0
 40
0.0
  0
LTYPE
  5
22
330
5
100
AcDbSymbolTableRecord
100
AcDbLinetypeTableRecord
  2
BORDER
 70
     0
  3
__ __ . __ __ . __ __ . __ __ . __ __ . __ __ .
 72
    65
 73
     6
 40
1.75
 49
0.5
 74
     0
 49
-0.25
 74
     0
 49
0.5
 74
     0
 49
-0.25
 74
     0
 49
0.5
 74
     0
 49
-0.25
 74
     0
  0
LTYPE
  5
23
330
5
100
AcDbSymbolTableRecord
100
AcDbLinetypeTableRecord
  2
BORDER2
 70
     0
  3
__.__.__.__.__.__.__.__.__.__.__.__.__.__.__.__
 72
    65
 73
     6
 40
0.875
 49
0.25
 74
     0
 49
-0.125
 74
     0
 49
0.25
 74
     0
 49
-0.125
 74
     0
 49
0.25
 74
     0
 49
-0.125
 74
     0
  0
LTYPE
  5
24
330
5
100
AcDbSymbolTableRecord
100
AcDbLinetypeTableRecord
  2
BORDERX2
 70
     0
  3
____  ____  .  ____  ____  .  
 72
    65
 73
     6
 40
3.5
 49
1.0
 74
     0
 49
-0.5
 74
     0
 49
1.0
 74
     0
 49
-0.5
 74
     0
 49
1.0
 74
     0
 49
-0.5
 74
     0
  0
LTYPE
  5
25
330
5
100
AcDbSymbolTableRecord
100
AcDbLinetypeTableRecord
  2
CENTER
 70
     0
  3
____ _ ____ _ ____ _ ____ _ ____ _ ____ _ ____
 72
    65
 73
     4
 40
2.0
 49
1.25
 74
     0
 49
-0.25
 74
     0
 49
0.25
 74
     0
 49
-0.25
 74
     0
  0
LTYPE
  5
26
330
5
100
AcDbSymbolTableRecord
100
AcDbLinetypeTableRecord
  2
CENTER2
 70
     0
  3
____ _ ____ _ ____ _ ____ _ ____ _ ____ _ ____
 72
    65
 73
     4
 40
1.125
 49
0.75
 74
     0
 49
-0.125
 74
     0
 49
0.125
 74
     0
 49
-0.125
 74
     0
  0
LTYPE
  5
27
330
5
100
AcDbSymbolTableRecord
100
AcDbLinetypeTableRecord
  2
CENTERX2
 70
     0
  3
________  __  ________  __  ________  __  
 72
    65
 73
     4
 40
4.0
 49
2.5
 74
     0
 49
-0.5
 74
     0
 49
0.5
 74
     0
 49
-0.5
 74
     0
  0
LTYPE
  5
28
330
5
100
AcDbSymbolTableRecord
100
AcDbLinetypeTableRecord
  2
DASHDOT
 70
     0
  3
__ . __ . __ . __ . __ . __ . __ . 
 72
    65
 73
     4
 40
1.0
 49
0.5
 74
     0
 49
-0.25
 74
     0
 49
0.0
 74
     0
 49
-0.25
 74
     0
  0
LTYPE
  5
29
330
5
100
AcDbSymbolTableRecord
100
AcDbLinetypeTableRecord
  2
DASHDOT2
 70
     0
  3
_._._._._._._._._._._._._._._._.
 72
    65
 73
     4
 40
0.5
 49
0.25
 74
     0
 49
-0.125
 74
     0
 49
0.0
 74
     0
 49
-0.125
 74
     0
  0
LTYPE
  5
2A
330
5
100
AcDbSymbolTableRecord
100
AcDbLinetypeTableRecord
  2
DASHDOTX2
 70
     0
  3
____  .  ____  .  ____  .  ____  .  
 72
    65
 73
     4
 40
2.0
 49
1.0
 74
     0
 49
-0.5
 74
     0
 49
0.0
 74
     0
 49
-0.5
 74
     0
  0
LTYPE
  5
2B
330
5
100
AcDbSymbolTableRecord
100
AcDbLinetypeTableRecord
  2
DASHED
 70
     0
  3
__ __ __ __ __ __ __ __ __ __ __ __ 
 72
    65
 73
     2
 40
0.75
 49
0.5
 74
     0
 49
-0.25
 74
     0
  0
LTYPE
  5
2C
330
5
100
AcDbSymbolTableRecord
100
AcDbLinetypeTableRecord
  2
DASHED2
 70
     0
  3
_ _ _ _ _ _ _ _ _ _ _ _ _ _ _ _ _ _ 
 72
    65
 73
     2
 40
0.375
 49
0.25
 74
     0
 49
-0.125
 74
     0
  0
LTYPE
  5
2D
330
5
100
AcDbSymbolTableRecord
100
AcDbLinetypeTableRecord
  2
DASHEDX2
 70
     0
  3
____  ____  ____  ____  ____  ____  
 72
    65
 73
     2
 40
1.5
 49
1.0
 74
     0
 49
-0.5
 74
     0
  0
LTYPE
  5
2E
330
5
100
AcDbSymbolTableRecord
100
AcDbLinetypeTableRecord
  2
DIVIDE
 70
     0
  3
____ . . ____ . . ____ . . ____ . . 
 72
    65
 73
     6
 40
1.25
 49
0.5
 74
     0
 49
-0.25
 74
     0
 49
0.0
 74
     0
 49
-0.25
 74
     0
 49
0.0
 74
     0
 49
-0.25
 74
     0
  0
LTYPE
  5
2F
330
5
100
AcDbSymbolTableRecord
100
AcDbLinetypeTableRecord
  2
DIVIDE2
 70
     0
  3
__..__..__..__..__..__..__..__..__..
 72
    65
 73
     6
 40
0.625
 49
0.25
 74
     0
 49
-0.125
 74
     0
 49
0.0
 74
     0
 49
-0.125
 74
     0
 49
0.0
 74
     0
 49
-0.125
 74
     0
  0
LTYPE
  5
30
330
5
100
AcDbSymbolTableRecord
100
AcDbLinetypeTableRecord
  2
DIVIDEX2
 70
     0
  3
________  .  .  ________  .  .  ________  .  . 
 72
    65
 73
     6
 40
2.5
 49
1.0
 74
     0
 49
-0.5
 74
     0
 49
0.0
 74
     0
 49
-0.5
 74
     0
 49
0.0
 74
     0
 49
-0.5
 74
     0
  0
LTYPE
  5
31
330
5
100
AcDbSymbolTableRecord
100
AcDbLinetypeTableRecord
  2
DOT
 70
     0
  3
. . . . . . . . . . . . . . . . . . 
 72
    65
 73
     2
 40
0.25
 49
0.0
 74
     0
 49
-0.25
 74
     0
  0
LTYPE
  5
32
330
5
100
AcDbSymbolTableRecord
100
AcDbLinetypeTableRecord
  2
DOT2
 70
     0
  3
....................................
 72
    65
 73
     2
 40
0.125
 49
0.0
 74
     0
 49
-0.125
 74
     0
  0
LTYPE
  5
33
330
5
100
AcDbSymbolTableRecord
100
AcDbLinetypeTableRecord
  2
DOTX2
 70
     0
  3
.  .  .  .  .  .  .  .  .  .  .  .  .  
 72
    65
 73
     2
 40
0.5
 49
0.0
 74
     0
 49
-0.5
 74
     0
  0
LTYPE
  5
34
330
5
100
AcDbSymbolTableRecord
100
AcDbLinetypeTableRecord
  2
HIDDEN
 70
     0
  3
__ __ __ __ __ __ __ __ __ __ __ __ 
 72
    65
 73
     2
 40
0.375
 49
0.25
 74
     0
 49
-0.125
 74
     0
  0
LTYPE
  5
35
330
5
100
AcDbSymbolTableRecord
100
AcDbLinetypeTableRecord
  2
HIDDEN2
 70
     0
  3
_ _ _ _ _ _ _ _ _ _ _ _ _ _ _ _ _ _ 
 72
    65
 73
     2
 40
0.1875
 49
0.125
 74
     0
 49
-0.0625
 74
     0
  0
LTYPE
  5
36
330
5
100
AcDbSymbolTableRecord
100
AcDbLinetypeTableRecord
  2
HIDDENX2
 70
     0
  3
____ ____ ____ ____ ____ ____ ____ 
 72
    65
 73
     2
 40
0.75
 49
0.5
 74
     0
 49
-0.25
 74
     0
  0
LTYPE
  5
37
330
5
100
AcDbSymbolTableRecord
100
AcDbLinetypeTableRecord
  2
PHANTOM
 70
     0
  3
______  __  __  ______  __  __  
 72
    65
 73
     6
 40
2.5
 49
1.25
 74
     0
 49
-0.25
 74
     0
 49
0.25
 74
     0
 49
-0.25
 74
     0
 49
0.25
 74
     0
 49
-0.25
 74
     0
  0
LTYPE
  5
38
330
5
100
AcDbSymbolTableRecord
100
AcDbLinetypeTableRecord
  2
PHANTOM2
 70
     0
  3
___ _ _ ___ _ _ ___ _ _ ___ _ _ 
 72
    65
 73
     6
 40
1.25
 49
0.625
 74
     0
 49
-0.125
 74
     0
 49
0.125
 74
     0
 49
-0.125
 74
     0
 49
0.125
 74
     0
 49
-0.125
 74
     0
  0
LTYPE
  5
39
330
5
100
AcDbSymbolTableRecord
100
AcDbLinetypeTableRecord
  2
PHANTOMX2
 70
     0
  3
___ _ _ ___ _ _ ___ _ _ ___ _ _ 
 72
    65
 73
     6
 40
5.0
 49
2.5
 74
     0
 49
-0.5
 74
     0
 49
0.5
 74
     0
 49
-0.5
 74
     0
 49
0.5
 74
     0
 49
-0.5
 74
     0
  0
ENDTAB
  0
TABLE
  2
LAYER
  5
2
330
0
100
AcDbSymbolTable
 70
   256
  0
LAYER
  5
10
330
2
100
AcDbSymbolTableRecord
100
AcDbLayerTableRecord
  2
0
 70
     0
 62
     7
  6
CONTINUOUS
  0
LAYER
  5
3A
330
2
100
AcDbSymbolTableRecord
100
AcDbLayerTableRecord
  2
1
 70
     0
 62
     1
  6
CONTINUOUS
  0
LAYER
  5
3B
330
2
100
AcDbSymbolTableRecord
100
AcDbLayerTableRecord
  2
2
 70
     0
 62
     2
  6
CONTINUOUS
  0
LAYER
  5
3C
330
2
100
AcDbSymbolTableRecord
100
AcDbLayerTableRecord
  2
3
 70
     0
 62
     3
  6
CONTINUOUS
  0
LAYER
  5
3D
330
2
100
AcDbSymbolTableRecord
100
AcDbLayerTableRecord
  2
4
 70
     0
 62
     4
  6
CONTINUOUS
  0
LAYER
  5
3E
330
2
100
AcDbSymbolTableRecord
100
AcDbLayerTableRecord
  2
5
 70
     0
 62
     5
  6
CONTINUOUS
  0
LAYER
  5
3F
330
2
100
AcDbSymbolTableRecord
100
AcDbLayerTableRecord
  2
6
 70
     0
 62
     6
  6
CONTINUOUS
  0
LAYER
  5
40
330
2
100
AcDbSymbolTableRecord
100
AcDbLayerTableRecord
  2
7
 70
     0
 62
     7
  6
CONTINUOUS
  0
LAYER
  5
41
330
2
100
AcDbSymbolTableRecord
100
AcDbLayerTableRecord
  2
8
 70
     0
 62
     8
  6
CONTINUOUS
  0
LAYER
  5
42
330
2
100
AcDbSymbolTableRecord
100
AcDbLayerTableRecord
  2
9
 70
     0
 62
     9
  6
CONTINUOUS
  0
LAYER
  5
43
330
2
100
AcDbSymbolTableRecord
100
AcDbLayerTableRecord
  2
10
 70
     0
 62
    10
  6
CONTINUOUS
  0
LAYER
  5
44
330
2
100
AcDbSymbolTableRecord
100
AcDbLayerTableRecord
  2
11
 70
     0
 62
    11
  6
CONTINUOUS
  0
LAYER
  5
45
330
2
100
AcDbSymbolTableRecord
100
AcDbLayerTableRecord
  2
12
 70
     0
 62
    12
  6
CONTINUOUS
  0
LAYER
  5
46
330
2
100
AcDbSymbolTableRecord
100
AcDbLayerTableRecord
  2
13
 70
     0
 62
    13
  6
CONTINUOUS
  0
LAYER
  5
47
330
2
100
AcDbSymbolTableRecord
100
AcDbLayerTableRecord
  2
14
 70
     0
 62
    14
  6
CONTINUOUS
  0
LAYER
  5
48
330
2
100
AcDbSymbolTableRecord
100
AcDbLayerTableRecord
  2
15
 70
     0
 62
    15
  6
CONTINUOUS
  0
LAYER
  5
49
330
2
100
AcDbSymbolTableRecord
100
AcDbLayerTableRecord
  2
16
 70
     0
 62
    16
  6
CONTINUOUS
  0
LAYER
  5
4A
330
2
100
AcDbSymbolTableRecord
100
AcDbLayerTableRecord
  2
17
 70
     0
 62
    17
  6
CONTINUOUS
  0
LAYER
  5
4B
330
2
100
AcDbSymbolTableRecord
100
AcDbLayerTableRecord
  2
18
 70
     0
 62
    18
  6
CONTINUOUS
  0
LAYER
  5
4C
330
2
100
AcDbSymbolTableRecord
100
AcDbLayerTableRecord
  2
19
 70
     0
 62
    19
  6
CONTINUOUS
  0
LAYER
  5
4D
330
2
100
AcDbSymbolTableRecord
100
AcDbLayerTableRecord
  2
20
 70
     0
 62
    20
  6
CONTINUOUS
  0
LAYER
  5
4E
330
2
100
AcDbSymbolTableRecord
100
AcDbLayerTableRecord
  2
21
 70
     0
 62
    21
  6
CONTINUOUS
  0
LAYER
  5
4F
330
2
100
AcDbSymbolTableRecord
100
AcDbLayerTableRecord
  2
22
 70
     0
 62
    22
  6
CONTINUOUS
  0
LAYER
  5
50
330
2
100
AcDbSymbolTableRecord
100
AcDbLayerTableRecord
  2
23
 70
     0
 62
    23
  6
CONTINUOUS
  0
LAYER
  5
51
330
2
100
AcDbSymbolTableRecord
100
AcDbLayerTableRecord
  2
24
 70
     0
 62
    24
  6
CONTINUOUS
  0
LAYER
  5
52
330
2
100
AcDbSymbolTableRecord
100
AcDbLayerTableRecord
  2
25
 70
     0
 62
    25
  6
CONTINUOUS
  0
LAYER
  5
53
330
2
100
AcDbSymbolTableRecord
100
AcDbLayerTableRecord
  2
26
 70
     0
 62
    26
  6
CONTINUOUS
  0
LAYER
  5
54
330
2
100
AcDbSymbolTableRecord
100
AcDbLayerTableRecord
  2
27
 70
     0
 62
    27
  6
CONTINUOUS
  0
LAYER
  5
55
330
2
100
AcDbSymbolTableRecord
100
AcDbLayerTableRecord
  2
28
 70
     0
 62
    28
  6
CONTINUOUS
  0
LAYER
  5
56
330
2
100
AcDbSymbolTableRecord
100
AcDbLayerTableRecord
  2
29
 70
     0
 62
    29
  6
CONTINUOUS
  0
LAYER
  5
57
330
2
100
AcDbSymbolTableRecord
100
AcDbLayerTableRecord
  2
30
 70
     0
 62
    30
  6
CONTINUOUS
  0
LAYER
  5
58
330
2
100
AcDbSymbolTableRecord
100
AcDbLayerTableRecord
  2
31
 70
     0
 62
    31
  6
CONTINUOUS
  0
LAYER
  5
59
330
2
100
AcDbSymbolTableRecord
100
AcDbLayerTableRecord
  2
32
 70
     0
 62
    32
  6
CONTINUOUS
  0
LAYER
  5
5A
330
2
100
AcDbSymbolTableRecord
100
AcDbLayerTableRecord
  2
33
 70
     0
 62
    33
  6
CONTINUOUS
  0
LAYER
  5
5B
330
2
100
AcDbSymbolTableRecord
100
AcDbLayerTableRecord
  2
34
 70
     0
 62
    34
  6
CONTINUOUS
  0
LAYER
  5
5C
330
2
100
AcDbSymbolTableRecord
100
AcDbLayerTableRecord
  2
35
 70
     0
 62
    35
  6
CONTINUOUS
  0
LAYER
  5
5D
330
2
100
AcDbSymbolTableRecord
100
AcDbLayerTableRecord
  2
36
 70
     0
 62
    36
  6
CONTINUOUS
  0
LAYER
  5
5E
330
2
100
AcDbSymbolTableRecord
100
AcDbLayerTableRecord
  2
37
 70
     0
 62
    37
  6
CONTINUOUS
  0
LAYER
  5
5F
330
2
100
AcDbSymbolTableRecord
100
AcDbLayerTableRecord
  2
38
 70
     0
 62
    38
  6
CONTINUOUS
  0
LAYER
  5
60
330
2
100
AcDbSymbolTableRecord
100
AcDbLayerTableRecord
  2
39
 70
     0
 62
    39
  6
CONTINUOUS
  0
LAYER
  5
61
330
2
100
AcDbSymbolTableRecord
100
AcDbLayerTableRecord
  2
40
 70
     0
 62
    40
  6
CONTINUOUS
  0
LAYER
  5
62
330
2
100
AcDbSymbolTableRecord
100
AcDbLayerTableRecord
  2
41
 70
     0
 62
    41
  6
CONTINUOUS
  0
LAYER
  5
63
330
2
100
AcDbSymbolTableRecord
100
AcDbLayerTableRecord
  2
42
 70
     0
 62
    42
  6
CONTINUOUS
  0
LAYER
  5
64
330
2
100
AcDbSymbolTableRecord
100
AcDbLayerTableRecord
  2
43
 70
     0
 62
    43
  6
CONTINUOUS
  0
LAYER
  5
65
330
2
100
AcDbSymbolTableRecord
100
AcDbLayerTableRecord
  2
44
 70
     0
 62
    44
  6
CONTINUOUS
  0
LAYER
  5
66
330
2
100
AcDbSymbolTableRecord
100
AcDbLayerTableRecord
  2
45
 70
     0
 62
    45
  6
CONTINUOUS
  0
LAYER
  5
67
330
2
100
AcDbSymbolTableRecord
100
AcDbLayerTableRecord
  2
46
 70
     0
 62
    46
  6
CONTINUOUS
  0
LAYER
  5
68
330
2
100
AcDbSymbolTableRecord
100
AcDbLayerTableRecord
  2
47
 70
     0
 62
    47
  6
CONTINUOUS
  0
LAYER
  5
69
330
2
100
AcDbSymbolTableRecord
100
AcDbLayerTableRecord
  2
48
 70
     0
 62
    48
  6
CONTINUOUS
  0
LAYER
  5
6A
330
2
100
AcDbSymbolTableRecord
100
AcDbLayerTableRecord
  2
49
 70
     0
 62
    49
  6
CONTINUOUS
  0
LAYER
  5
6B
330
2
100
AcDbSymbolTableRecord
100
AcDbLayerTableRecord
  2
50
 70
     0
 62
    50
  6
CONTINUOUS
  0
LAYER
  5
6C
330
2
100
AcDbSymbolTableRecord
100
AcDbLayerTableRecord
  2
51
 70
     0
 62
    51
  6
CONTINUOUS
  0
LAYER
  5
6D
330
2
100
AcDbSymbolTableRecord
100
AcDbLayerTableRecord
  2
52
 70
     0
 62
    52
  6
CONTINUOUS
  0
LAYER
  5
6E
330
2
100
AcDbSymbolTableRecord
100
AcDbLayerTableRecord
  2
53
 70
     0
 62
    53
  6
CONTINUOUS
  0
LAYER
  5
6F
330
2
100
AcDbSymbolTableRecord
100
AcDbLayerTableRecord
  2
54
 70
     0
 62
    54
  6
CONTINUOUS
  0
LAYER
  5
70
330
2
100
AcDbSymbolTableRecord
100
AcDbLayerTableRecord
  2
55
 70
     0
 62
    55
  6
CONTINUOUS
  0
LAYER
  5
71
330
2
100
AcDbSymbolTableRecord
100
AcDbLayerTableRecord
  2
56
 70
     0
 62
    56
  6
CONTINUOUS
  0
LAYER
  5
72
330
2
100
AcDbSymbolTableRecord
100
AcDbLayerTableRecord
  2
57
 70
     0
 62
    57
  6
CONTINUOUS
  0
LAYER
  5
73
330
2
100
AcDbSymbolTableRecord
100
AcDbLayerTableRecord
  2
58
 70
     0
 62
    58
  6
CONTINUOUS
  0
LAYER
  5
74
330
2
100
AcDbSymbolTableRecord
100
AcDbLayerTableRecord
  2
59
 70
     0
 62
    59
  6
CONTINUOUS
  0
LAYER
  5
75
330
2
100
AcDbSymbolTableRecord
100
AcDbLayerTableRecord
  2
60
 70
     0
 62
    60
  6
CONTINUOUS
  0
LAYER
  5
76
330
2
100
AcDbSymbolTableRecord
100
AcDbLayerTableRecord
  2
61
 70
     0
 62
    61
  6
CONTINUOUS
  0
LAYER
  5
77
330
2
100
AcDbSymbolTableRecord
100
AcDbLayerTableRecord
  2
62
 70
     0
 62
    62
  6
CONTINUOUS
  0
LAYER
  5
78
330
2
100
AcDbSymbolTableRecord
100
AcDbLayerTableRecord
  2
63
 70
     0
 62
    63
  6
CONTINUOUS
  0
LAYER
  5
79
330
2
100
AcDbSymbolTableRecord
100
AcDbLayerTableRecord
  2
64
 70
     0
 62
    64
  6
CONTINUOUS
  0
LAYER
  5
7A
330
2
100
AcDbSymbolTableRecord
100
AcDbLayerTableRecord
  2
65
 70
     0
 62
    65
  6
CONTINUOUS
  0
LAYER
  5
7B
330
2
100
AcDbSymbolTableRecord
100
AcDbLayerTableRecord
  2
66
 70
     0
 62
    66
  6
CONTINUOUS
  0
LAYER
  5
7C
330
2
100
AcDbSymbolTableRecord
100
AcDbLayerTableRecord
  2
67
 70
     0
 62
    67
  6
CONTINUOUS
  0
LAYER
  5
7D
330
2
100
AcDbSymbolTableRecord
100
AcDbLayerTableRecord
  2
68
 70
     0
 62
    68
  6
CONTINUOUS
  0
LAYER
  5
7E
330
2
100
AcDbSymbolTableRecord
100
AcDbLayerTableRecord
  2
69
 70
     0
 62
    69
  6
CONTINUOUS
  0
LAYER
  5
7F
330
2
100
AcDbSymbolTableRecord
100
AcDbLayerTableRecord
  2
70
 70
     0
 62
    70
  6
CONTINUOUS
  0
LAYER
  5
80
330
2
100
AcDbSymbolTableRecord
100
AcDbLayerTableRecord
  2
71
 70
     0
 62
    71
  6
CONTINUOUS
  0
LAYER
  5
81
330
2
100
AcDbSymbolTableRecord
100
AcDbLayerTableRecord
  2
72
 70
     0
 62
    72
  6
CONTINUOUS
  0
LAYER
  5
82
330
2
100
AcDbSymbolTableRecord
100
AcDbLayerTableRecord
  2
73
 70
     0
 62
    73
  6
CONTINUOUS
  0
LAYER
  5
83
330
2
100
AcDbSymbolTableRecord
100
AcDbLayerTableRecord
  2
74
 70
     0
 62
    74
  6
CONTINUOUS
  0
LAYER
  5
84
330
2
100
AcDbSymbolTableRecord
100
AcDbLayerTableRecord
  2
75
 70
     0
 62
    75
  6
CONTINUOUS
  0
LAYER
  5
85
330
2
100
AcDbSymbolTableRecord
100
AcDbLayerTableRecord
  2
76
 70
     0
 62
    76
  6
CONTINUOUS
  0
LAYER
  5
86
330
2
100
AcDbSymbolTableRecord
100
AcDbLayerTableRecord
  2
77
 70
     0
 62
    77
  6
CONTINUOUS
  0
LAYER
  5
87
330
2
100
AcDbSymbolTableRecord
100
AcDbLayerTableRecord
  2
78
 70
     0
 62
    78
  6
CONTINUOUS
  0
LAYER
  5
88
330
2
100
AcDbSymbolTableRecord
100
AcDbLayerTableRecord
  2
79
 70
     0
 62
    79
  6
CONTINUOUS
  0
LAYER
  5
89
330
2
100
AcDbSymbolTableRecord
100
AcDbLayerTableRecord
  2
80
 70
     0
 62
    80
  6
CONTINUOUS
  0
LAYER
  5
8A
330
2
100
AcDbSymbolTableRecord
100
AcDbLayerTableRecord
  2
81
 70
     0
 62
    81
  6
CONTINUOUS
  0
LAYER
  5
8B
330
2
100
AcDbSymbolTableRecord
100
AcDbLayerTableRecord
  2
82
 70
     0
 62
    82
  6
CONTINUOUS
  0
LAYER
  5
8C
330
2
100
AcDbSymbolTableRecord
100
AcDbLayerTableRecord
  2
83
 70
     0
 62
    83
  6
CONTINUOUS
  0
LAYER
  5
8D
330
2
100
AcDbSymbolTableRecord
100
AcDbLayerTableRecord
  2
84
 70
     0
 62
    84
  6
CONTINUOUS
  0
LAYER
  5
8E
330
2
100
AcDbSymbolTableRecord
100
AcDbLayerTableRecord
  2
85
 70
     0
 62
    85
  6
CONTINUOUS
  0
LAYER
  5
8F
330
2
100
AcDbSymbolTableRecord
100
AcDbLayerTableRecord
  2
86
 70
     0
 62
    86
  6
CONTINUOUS
  0
LAYER
  5
90
330
2
100
AcDbSymbolTableRecord
100
AcDbLayerTableRecord
  2
87
 70
     0
 62
    87
  6
CONTINUOUS
  0
LAYER
  5
91
330
2
100
AcDbSymbolTableRecord
100
AcDbLayerTableRecord
  2
88
 70
     0
 62
    88
  6
CONTINUOUS
  0
LAYER
  5
92
330
2
100
AcDbSymbolTableRecord
100
AcDbLayerTableRecord
  2
89
 70
     0
 62
    89
  6
CONTINUOUS
  0
LAYER
  5
93
330
2
100
AcDbSymbolTableRecord
100
AcDbLayerTableRecord
  2
90
 70
     0
 62
    90
  6
CONTINUOUS
  0
LAYER
  5
94
330
2
100
AcDbSymbolTableRecord
100
AcDbLayerTableRecord
  2
91
 70
     0
 62
    91
  6
CONTINUOUS
  0
LAYER
  5
95
330
2
100
AcDbSymbolTableRecord
100
AcDbLayerTableRecord
  2
92
 70
     0
 62
    92
  6
CONTINUOUS
  0
LAYER
  5
96
330
2
100
AcDbSymbolTableRecord
100
AcDbLayerTableRecord
  2
93
 70
     0
 62
    93
  6
CONTINUOUS
  0
LAYER
  5
97
330
2
100
AcDbSymbolTableRecord
100
AcDbLayerTableRecord
  2
94
 70
     0
 62
    94
  6
CONTINUOUS
  0
LAYER
  5
98
330
2
100
AcDbSymbolTableRecord
100
AcDbLayerTableRecord
  2
95
 70
     0
 62
    95
  6
CONTINUOUS
  0
LAYER
  5
99
330
2
100
AcDbSymbolTableRecord
100
AcDbLayerTableRecord
  2
96
 70
     0
 62
    96
  6
CONTINUOUS
  0
LAYER
  5
9A
330
2
100
AcDbSymbolTableRecord
100
AcDbLayerTableRecord
  2
97
 70
     0
 62
    97
  6
CONTINUOUS
  0
LAYER
  5
9B
330
2
100
AcDbSymbolTableRecord
100
AcDbLayerTableRecord
  2
98
 70
     0
 62
    98
  6
CONTINUOUS
  0
LAYER
  5
9C
330
2
100
AcDbSymbolTableRecord
100
AcDbLayerTableRecord
  2
99
 70
     0
 62
    99
  6
CONTINUOUS
  0
LAYER
  5
9D
330
2
100
AcDbSymbolTableRecord
100
AcDbLayerTableRecord
  2
100
 70
     0
 62
   100
  6
CONTINUOUS
  0
LAYER
  5
9E
330
2
100
AcDbSymbolTableRecord
100
AcDbLayerTableRecord
  2
101
 70
     0
 62
   101
  6
CONTINUOUS
  0
LAYER
  5
9F
330
2
100
AcDbSymbolTableRecord
100
AcDbLayerTableRecord
  2
102
 70
     0
 62
   102
  6
CONTINUOUS
  0
LAYER
  5
A0
330
2
100
AcDbSymbolTableRecord
100
AcDbLayerTableRecord
  2
103
 70
     0
 62
   103
  6
CONTINUOUS
  0
LAYER
  5
A1
330
2
100
AcDbSymbolTableRecord
100
AcDbLayerTableRecord
  2
104
 70
     0
 62
   104
  6
CONTINUOUS
  0
LAYER
  5
A2
330
2
100
AcDbSymbolTableRecord
100
AcDbLayerTableRecord
  2
105
 70
     0
 62
   105
  6
CONTINUOUS
  0
LAYER
  5
A3
330
2
100
AcDbSymbolTableRecord
100
AcDbLayerTableRecord
  2
106
 70
     0
 62
   106
  6
CONTINUOUS
  0
LAYER
  5
A4
330
2
100
AcDbSymbolTableRecord
100
AcDbLayerTableRecord
  2
107
 70
     0
 62
   107
  6
CONTINUOUS
  0
LAYER
  5
A5
330
2
100
AcDbSymbolTableRecord
100
AcDbLayerTableRecord
  2
108
 70
     0
 62
   108
  6
CONTINUOUS
  0
LAYER
  5
A6
330
2
100
AcDbSymbolTableRecord
100
AcDbLayerTableRecord
  2
109
 70
     0
 62
   109
  6
CONTINUOUS
  0
LAYER
  5
A7
330
2
100
AcDbSymbolTableRecord
100
AcDbLayerTableRecord
  2
110
 70
     0
 62
   110
  6
CONTINUOUS
  0
LAYER
  5
A8
330
2
100
AcDbSymbolTableRecord
100
AcDbLayerTableRecord
  2
111
 70
     0
 62
   111
  6
CONTINUOUS
  0
LAYER
  5
A9
330
2
100
AcDbSymbolTableRecord
100
AcDbLayerTableRecord
  2
112
 70
     0
 62
   112
  6
CONTINUOUS
  0
LAYER
  5
AA
330
2
100
AcDbSymbolTableRecord
100
AcDbLayerTableRecord
  2
113
 70
     0
 62
   113
  6
CONTINUOUS
  0
LAYER
  5
AB
330
2
100
AcDbSymbolTableRecord
100
AcDbLayerTableRecord
  2
114
 70
     0
 62
   114
  6
CONTINUOUS
  0
LAYER
  5
AC
330
2
100
AcDbSymbolTableRecord
100
AcDbLayerTableRecord
  2
115
 70
     0
 62
   115
  6
CONTINUOUS
  0
LAYER
  5
AD
330
2
100
AcDbSymbolTableRecord
100
AcDbLayerTableRecord
  2
116
 70
     0
 62
   116
  6
CONTINUOUS
  0
LAYER
  5
AE
330
2
100
AcDbSymbolTableRecord
100
AcDbLayerTableRecord
  2
117
 70
     0
 62
   117
  6
CONTINUOUS
  0
LAYER
  5
AF
330
2
100
AcDbSymbolTableRecord
100
AcDbLayerTableRecord
  2
118
 70
     0
 62
   118
  6
CONTINUOUS
  0
LAYER
  5
B0
330
2
100
AcDbSymbolTableRecord
100
AcDbLayerTableRecord
  2
119
 70
     0
 62
   119
  6
CONTINUOUS
  0
LAYER
  5
B1
330
2
100
AcDbSymbolTableRecord
100
AcDbLayerTableRecord
  2
120
 70
     0
 62
   120
  6
CONTINUOUS
  0
LAYER
  5
B2
330
2
100
AcDbSymbolTableRecord
100
AcDbLayerTableRecord
  2
121
 70
     0
 62
   121
  6
CONTINUOUS
  0
LAYER
  5
B3
330
2
100
AcDbSymbolTableRecord
100
AcDbLayerTableRecord
  2
122
 70
     0
 62
   122
  6
CONTINUOUS
  0
LAYER
  5
B4
330
2
100
AcDbSymbolTableRecord
100
AcDbLayerTableRecord
  2
123
 70
     0
 62
   123
  6
CONTINUOUS
  0
LAYER
  5
B5
330
2
100
AcDbSymbolTableRecord
100
AcDbLayerTableRecord
  2
124
 70
     0
 62
   124
  6
CONTINUOUS
  0
LAYER
  5
B6
330
2
100
AcDbSymbolTableRecord
100
AcDbLayerTableRecord
  2
125
 70
     0
 62
   125
  6
CONTINUOUS
  0
LAYER
  5
B7
330
2
100
AcDbSymbolTableRecord
100
AcDbLayerTableRecord
  2
126
 70
     0
 62
   126
  6
CONTINUOUS
  0
LAYER
  5
B8
330
2
100
AcDbSymbolTableRecord
100
AcDbLayerTableRecord
  2
127
 70
     0
 62
   127
  6
CONTINUOUS
  0
LAYER
  5
B9
330
2
100
AcDbSymbolTableRecord
100
AcDbLayerTableRecord
  2
128
 70
     0
 62
   128
  6
CONTINUOUS
  0
LAYER
  5
BA
330
2
100
AcDbSymbolTableRecord
100
AcDbLayerTableRecord
  2
129
 70
     0
 62
   129
  6
CONTINUOUS
  0
LAYER
  5
BB
330
2
100
AcDbSymbolTableRecord
100
AcDbLayerTableRecord
  2
130
 70
     0
 62
   130
  6
CONTINUOUS
  0
LAYER
  5
BC
330
2
100
AcDbSymbolTableRecord
100
AcDbLayerTableRecord
  2
131
 70
     0
 62
   131
  6
CONTINUOUS
  0
LAYER
  5
BD
330
2
100
AcDbSymbolTableRecord
100
AcDbLayerTableRecord
  2
132
 70
     0
 62
   132
  6
CONTINUOUS
  0
LAYER
  5
BE
330
2
100
AcDbSymbolTableRecord
100
AcDbLayerTableRecord
  2
133
 70
     0
 62
   133
  6
CONTINUOUS
  0
LAYER
  5
BF
330
2
100
AcDbSymbolTableRecord
100
AcDbLayerTableRecord
  2
134
 70
     0
 62
   134
  6
CONTINUOUS
  0
LAYER
  5
C0
330
2
100
AcDbSymbolTableRecord
100
AcDbLayerTableRecord
  2
135
 70
     0
 62
   135
  6
CONTINUOUS
  0
LAYER
  5
C1
330
2
100
AcDbSymbolTableRecord
100
AcDbLayerTableRecord
  2
136
 70
     0
 62
   136
  6
CONTINUOUS
  0
LAYER
  5
C2
330
2
100
AcDbSymbolTableRecord
100
AcDbLayerTableRecord
  2
137
 70
     0
 62
   137
  6
CONTINUOUS
  0
LAYER
  5
C3
330
2
100
AcDbSymbolTableRecord
100
AcDbLayerTableRecord
  2
138
 70
     0
 62
   138
  6
CONTINUOUS
  0
LAYER
  5
C4
330
2
100
AcDbSymbolTableRecord
100
AcDbLayerTableRecord
  2
139
 70
     0
 62
   139
  6
CONTINUOUS
  0
LAYER
  5
C5
330
2
100
AcDbSymbolTableRecord
100
AcDbLayerTableRecord
  2
140
 70
     0
 62
   140
  6
CONTINUOUS
  0
LAYER
  5
C6
330
2
100
AcDbSymbolTableRecord
100
AcDbLayerTableRecord
  2
141
 70
     0
 62
   141
  6
CONTINUOUS
  0
LAYER
  5
C7
330
2
100
AcDbSymbolTableRecord
100
AcDbLayerTableRecord
  2
142
 70
     0
 62
   142
  6
CONTINUOUS
  0
LAYER
  5
C8
330
2
100
AcDbSymbolTableRecord
100
AcDbLayerTableRecord
  2
143
 70
     0
 62
   143
  6
CONTINUOUS
  0
LAYER
  5
C9
330
2
100
AcDbSymbolTableRecord
100
AcDbLayerTableRecord
  2
144
 70
     0
 62
   144
  6
CONTINUOUS
  0
LAYER
  5
CA
330
2
100
AcDbSymbolTableRecord
100
AcDbLayerTableRecord
  2
145
 70
     0
 62
   145
  6
CONTINUOUS
  0
LAYER
  5
CB
330
2
100
AcDbSymbolTableRecord
100
AcDbLayerTableRecord
  2
146
 70
     0
 62
   146
  6
CONTINUOUS
  0
LAYER
  5
CC
330
2
100
AcDbSymbolTableRecord
100
AcDbLayerTableRecord
  2
147
 70
     0
 62
   147
  6
CONTINUOUS
  0
LAYER
  5
CD
330
2
100
AcDbSymbolTableRecord
100
AcDbLayerTableRecord
  2
148
 70
     0
 62
   148
  6
CONTINUOUS
  0
LAYER
  5
CE
330
2
100
AcDbSymbolTableRecord
100
AcDbLayerTableRecord
  2
149
 70
     0
 62
   149
  6
CONTINUOUS
  0
LAYER
  5
CF
330
2
100
AcDbSymbolTableRecord
100
AcDbLayerTableRecord
  2
150
 70
     0
 62
   150
  6
CONTINUOUS
  0
LAYER
  5
D0
330
2
100
AcDbSymbolTableRecord
100
AcDbLayerTableRecord
  2
151
 70
     0
 62
   151
  6
CONTINUOUS
  0
LAYER
  5
D1
330
2
100
AcDbSymbolTableRecord
100
AcDbLayerTableRecord
  2
152
 70
     0
 62
   152
  6
CONTINUOUS
  0
LAYER
  5
D2
330
2
100
AcDbSymbolTableRecord
100
AcDbLayerTableRecord
  2
153
 70
     0
 62
   153
  6
CONTINUOUS
  0
LAYER
  5
D3
330
2
100
AcDbSymbolTableRecord
100
AcDbLayerTableRecord
  2
154
 70
     0
 62
   154
  6
CONTINUOUS
  0
LAYER
  5
D4
330
2
100
AcDbSymbolTableRecord
100
AcDbLayerTableRecord
  2
155
 70
     0
 62
   155
  6
CONTINUOUS
  0
LAYER
  5
D5
330
2
100
AcDbSymbolTableRecord
100
AcDbLayerTableRecord
  2
156
 70
     0
 62
   156
  6
CONTINUOUS
  0
LAYER
  5
D6
330
2
100
AcDbSymbolTableRecord
100
AcDbLayerTableRecord
  2
157
 70
     0
 62
   157
  6
CONTINUOUS
  0
LAYER
  5
D7
330
2
100
AcDbSymbolTableRecord
100
AcDbLayerTableRecord
  2
158
 70
     0
 62
   158
  6
CONTINUOUS
  0
LAYER
  5
D8
330
2
100
AcDbSymbolTableRecord
100
AcDbLayerTableRecord
  2
159
 70
     0
 62
   159
  6
CONTINUOUS
  0
LAYER
  5
D9
330
2
100
AcDbSymbolTableRecord
100
AcDbLayerTableRecord
  2
160
 70
     0
 62
   160
  6
CONTINUOUS
  0
LAYER
  5
DA
330
2
100
AcDbSymbolTableRecord
100
AcDbLayerTableRecord
  2
161
 70
     0
 62
   161
  6
CONTINUOUS
  0
LAYER
  5
DB
330
2
100
AcDbSymbolTableRecord
100
AcDbLayerTableRecord
  2
162
 70
     0
 62
   162
  6
CONTINUOUS
  0
LAYER
  5
DC
330
2
100
AcDbSymbolTableRecord
100
AcDbLayerTableRecord
  2
163
 70
     0
 62
   163
  6
CONTINUOUS
  0
LAYER
  5
DD
330
2
100
AcDbSymbolTableRecord
100
AcDbLayerTableRecord
  2
164
 70
     0
 62
   164
  6
CONTINUOUS
  0
LAYER
  5
DE
330
2
100
AcDbSymbolTableRecord
100
AcDbLayerTableRecord
  2
165
 70
     0
 62
   165
  6
CONTINUOUS
  0
LAYER
  5
DF
330
2
100
AcDbSymbolTableRecord
100
AcDbLayerTableRecord
  2
166
 70
     0
 62
   166
  6
CONTINUOUS
  0
LAYER
  5
E0
330
2
100
AcDbSymbolTableRecord
100
AcDbLayerTableRecord
  2
167
 70
     0
 62
   167
  6
CONTINUOUS
  0
LAYER
  5
E1
330
2
100
AcDbSymbolTableRecord
100
AcDbLayerTableRecord
  2
168
 70
     0
 62
   168
  6
CONTINUOUS
  0
LAYER
  5
E2
330
2
100
AcDbSymbolTableRecord
100
AcDbLayerTableRecord
  2
169
 70
     0
 62
   169
  6
CONTINUOUS
  0
LAYER
  5
E3
330
2
100
AcDbSymbolTableRecord
100
AcDbLayerTableRecord
  2
170
 70
     0
 62
   170
  6
CONTINUOUS
  0
LAYER
  5
E4
330
2
100
AcDbSymbolTableRecord
100
AcDbLayerTableRecord
  2
171
 70
     0
 62
   171
  6
CONTINUOUS
  0
LAYER
  5
E5
330
2
100
AcDbSymbolTableRecord
100
AcDbLayerTableRecord
  2
172
 70
     0
 62
   172
  6
CONTINUOUS
  0
LAYER
  5
E6
330
2
100
AcDbSymbolTableRecord
100
AcDbLayerTableRecord
  2
173
 70
     0
 62
   173
  6
CONTINUOUS
  0
LAYER
  5
E7
330
2
100
AcDbSymbolTableRecord
100
AcDbLayerTableRecord
  2
174
 70
     0
 62
   174
  6
CONTINUOUS
  0
LAYER
  5
E8
330
2
100
AcDbSymbolTableRecord
100
AcDbLayerTableRecord
  2
175
 70
     0
 62
   175
  6
CONTINUOUS
  0
LAYER
  5
E9
330
2
100
AcDbSymbolTableRecord
100
AcDbLayerTableRecord
  2
176
 70
     0
 62
   176
  6
CONTINUOUS
  0
LAYER
  5
EA
330
2
100
AcDbSymbolTableRecord
100
AcDbLayerTableRecord
  2
177
 70
     0
 62
   177
  6
CONTINUOUS
  0
LAYER
  5
EB
330
2
100
AcDbSymbolTableRecord
100
AcDbLayerTableRecord
  2
178
 70
     0
 62
   178
  6
CONTINUOUS
  0
LAYER
  5
EC
330
2
100
AcDbSymbolTableRecord
100
AcDbLayerTableRecord
  2
179
 70
     0
 62
   179
  6
CONTINUOUS
  0
LAYER
  5
ED
330
2
100
AcDbSymbolTableRecord
100
AcDbLayerTableRecord
  2
180
 70
     0
 62
   180
  6
CONTINUOUS
  0
LAYER
  5
EE
330
2
100
AcDbSymbolTableRecord
100
AcDbLayerTableRecord
  2
181
 70
     0
 62
   181
  6
CONTINUOUS
  0
LAYER
  5
EF
330
2
100
AcDbSymbolTableRecord
100
AcDbLayerTableRecord
  2
182
 70
     0
 62
   182
  6
CONTINUOUS
  0
LAYER
  5
F0
330
2
100
AcDbSymbolTableRecord
100
AcDbLayerTableRecord
  2
183
 70
     0
 62
   183
  6
CONTINUOUS
  0
LAYER
  5
F1
330
2
100
AcDbSymbolTableRecord
100
AcDbLayerTableRecord
  2
184
 70
     0
 62
   184
  6
CONTINUOUS
  0
LAYER
  5
F2
330
2
100
AcDbSymbolTableRecord
100
AcDbLayerTableRecord
  2
185
 70
     0
 62
   185
  6
CONTINUOUS
  0
LAYER
  5
F3
330
2
100
AcDbSymbolTableRecord
100
AcDbLayerTableRecord
  2
186
 70
     0
 62
   186
  6
CONTINUOUS
  0
LAYER
  5
F4
330
2
100
AcDbSymbolTableRecord
100
AcDbLayerTableRecord
  2
187
 70
     0
 62
   187
  6
CONTINUOUS
  0
LAYER
  5
F5
330
2
100
AcDbSymbolTableRecord
100
AcDbLayerTableRecord
  2
188
 70
     0
 62
   188
  6
CONTINUOUS
  0
LAYER
  5
F6
330
2
100
AcDbSymbolTableRecord
100
AcDbLayerTableRecord
  2
189
 70
     0
 62
   189
  6
CONTINUOUS
  0
LAYER
  5
F7
330
2
100
AcDbSymbolTableRecord
100
AcDbLayerTableRecord
  2
190
 70
     0
 62
   190
  6
CONTINUOUS
  0
LAYER
  5
F8
330
2
100
AcDbSymbolTableRecord
100
AcDbLayerTableRecord
  2
191
 70
     0
 62
   191
  6
CONTINUOUS
  0
LAYER
  5
F9
330
2
100
AcDbSymbolTableRecord
100
AcDbLayerTableRecord
  2
192
 70
     0
 62
   192
  6
CONTINUOUS
  0
LAYER
  5
FA
330
2
100
AcDbSymbolTableRecord
100
AcDbLayerTableRecord
  2
193
 70
     0
 62
   193
  6
CONTINUOUS
  0
LAYER
  5
FB
330
2
100
AcDbSymbolTableRecord
100
AcDbLayerTableRecord
  2
194
 70
     0
 62
   194
  6
CONTINUOUS
  0
LAYER
  5
FC
330
2
100
AcDbSymbolTableRecord
100
AcDbLayerTableRecord
  2
195
 70
     0
 62
   195
  6
CONTINUOUS
  0
LAYER
  5
FD
330
2
100
AcDbSymbolTableRecord
100
AcDbLayerTableRecord
  2
196
 70
     0
 62
   196
  6
CONTINUOUS
  0
LAYER
  5
FE
330
2
100
AcDbSymbolTableRecord
100
AcDbLayerTableRecord
  2
197
 70
     0
 62
   197
  6
CONTINUOUS
  0
LAYER
  5
FF
330
2
100
AcDbSymbolTableRecord
100
AcDbLayerTableRecord
  2
198
 70
     0
 62
   198
  6
CONTINUOUS
  0
LAYER
  5
100
330
2
100
AcDbSymbolTableRecord
100
AcDbLayerTableRecord
  2
199
 70
     0
 62
   199
  6
CONTINUOUS
  0
LAYER
  5
101
330
2
100
AcDbSymbolTableRecord
100
AcDbLayerTableRecord
  2
200
 70
     0
 62
   200
  6
CONTINUOUS
  0
LAYER
  5
102
330
2
100
AcDbSymbolTableRecord
100
AcDbLayerTableRecord
  2
201
 70
     0
 62
   201
  6
CONTINUOUS
  0
LAYER
  5
103
330
2
100
AcDbSymbolTableRecord
100
AcDbLayerTableRecord
  2
202
 70
     0
 62
   202
  6
CONTINUOUS
  0
LAYER
  5
104
330
2
100
AcDbSymbolTableRecord
100
AcDbLayerTableRecord
  2
203
 70
     0
 62
   203
  6
CONTINUOUS
  0
LAYER
  5
105
330
2
100
AcDbSymbolTableRecord
100
AcDbLayerTableRecord
  2
204
 70
     0
 62
   204
  6
CONTINUOUS
  0
LAYER
  5
106
330
2
100
AcDbSymbolTableRecord
100
AcDbLayerTableRecord
  2
205
 70
     0
 62
   205
  6
CONTINUOUS
  0
LAYER
  5
107
330
2
100
AcDbSymbolTableRecord
100
AcDbLayerTableRecord
  2
206
 70
     0
 62
   206
  6
CONTINUOUS
  0
LAYER
  5
108
330
2
100
AcDbSymbolTableRecord
100
AcDbLayerTableRecord
  2
207
 70
     0
 62
   207
  6
CONTINUOUS
  0
LAYER
  5
109
330
2
100
AcDbSymbolTableRecord
100
AcDbLayerTableRecord
  2
208
 70
     0
 62
   208
  6
CONTINUOUS
  0
LAYER
  5
10A
330
2
100
AcDbSymbolTableRecord
100
AcDbLayerTableRecord
  2
209
 70
     0
 62
   209
  6
CONTINUOUS
  0
LAYER
  5
10B
330
2
100
AcDbSymbolTableRecord
100
AcDbLayerTableRecord
  2
210
 70
     0
 62
   210
  6
CONTINUOUS
  0
LAYER
  5
10C
330
2
100
AcDbSymbolTableRecord
100
AcDbLayerTableRecord
  2
211
 70
     0
 62
   211
  6
CONTINUOUS
  0
LAYER
  5
10D
330
2
100
AcDbSymbolTableRecord
100
AcDbLayerTableRecord
  2
212
 70
     0
 62
   212
  6
CONTINUOUS
  0
LAYER
  5
10E
330
2
100
AcDbSymbolTableRecord
100
AcDbLayerTableRecord
  2
213
 70
     0
 62
   213
  6
CONTINUOUS
  0
LAYER
  5
10F
330
2
100
AcDbSymbolTableRecord
100
AcDbLayerTableRecord
  2
214
 70
     0
 62
   214
  6
CONTINUOUS
  0
LAYER
  5
110
330
2
100
AcDbSymbolTableRecord
100
AcDbLayerTableRecord
  2
215
 70
     0
 62
   215
  6
CONTINUOUS
  0
LAYER
  5
111
330
2
100
AcDbSymbolTableRecord
100
AcDbLayerTableRecord
  2
216
 70
     0
 62
   216
  6
CONTINUOUS
  0
LAYER
  5
112
330
2
100
AcDbSymbolTableRecord
100
AcDbLayerTableRecord
  2
217
 70
     0
 62
   217
  6
CONTINUOUS
  0
LAYER
  5
113
330
2
100
AcDbSymbolTableRecord
100
AcDbLayerTableRecord
  2
218
 70
     0
 62
   218
  6
CONTINUOUS
  0
LAYER
  5
114
330
2
100
AcDbSymbolTableRecord
100
AcDbLayerTableRecord
  2
219
 70
     0
 62
   219
  6
CONTINUOUS
  0
LAYER
  5
115
330
2
100
AcDbSymbolTableRecord
100
AcDbLayerTableRecord
  2
220
 70
     0
 62
   220
  6
CONTINUOUS
  0
LAYER
  5
116
330
2
100
AcDbSymbolTableRecord
100
AcDbLayerTableRecord
  2
221
 70
     0
 62
   221
  6
CONTINUOUS
  0
LAYER
  5
117
330
2
100
AcDbSymbolTableRecord
100
AcDbLayerTableRecord
  2
222
 70
     0
 62
   222
  6
CONTINUOUS
  0
LAYER
  5
118
330
2
100
AcDbSymbolTableRecord
100
AcDbLayerTableRecord
  2
223
 70
     0
 62
   223
  6
CONTINUOUS
  0
LAYER
  5
119
330
2
100
AcDbSymbolTableRecord
100
AcDbLayerTableRecord
  2
224
 70
     0
 62
   224
  6
CONTINUOUS
  0
LAYER
  5
11A
330
2
100
AcDbSymbolTableRecord
100
AcDbLayerTableRecord
  2
225
 70
     0
 62
   225
  6
CONTINUOUS
  0
LAYER
  5
11B
330
2
100
AcDbSymbolTableRecord
100
AcDbLayerTableRecord
  2
226
 70
     0
 62
   226
  6
CONTINUOUS
  0
LAYER
  5
11C
330
2
100
AcDbSymbolTableRecord
100
AcDbLayerTableRecord
  2
227
 70
     0
 62
   227
  6
CONTINUOUS
  0
LAYER
  5
11D
330
2
100
AcDbSymbolTableRecord
100
AcDbLayerTableRecord
  2
228
 70
     0
 62
   228
  6
CONTINUOUS
  0
LAYER
  5
11E
330
2
100
AcDbSymbolTableRecord
100
AcDbLayerTableRecord
  2
229
 70
     0
 62
   229
  6
CONTINUOUS
  0
LAYER
  5
11F
330
2
100
AcDbSymbolTableRecord
100
AcDbLayerTableRecord
  2
230
 70
     0
 62
   230
  6
CONTINUOUS
  0
LAYER
  5
120
330
2
100
AcDbSymbolTableRecord
100
AcDbLayerTableRecord
  2
231
 70
     0
 62
   231
  6
CONTINUOUS
  0
LAYER
  5
121
330
2
100
AcDbSymbolTableRecord
100
AcDbLayerTableRecord
  2
232
 70
     0
 62
   232
  6
CONTINUOUS
  0
LAYER
  5
122
330
2
100
AcDbSymbolTableRecord
100
AcDbLayerTableRecord
  2
233
 70
     0
 62
   233
  6
CONTINUOUS
  0
LAYER
  5
123
330
2
100
AcDbSymbolTableRecord
100
AcDbLayerTableRecord
  2
234
 70
     0
 62
   234
  6
CONTINUOUS
  0
LAYER
  5
124
330
2
100
AcDbSymbolTableRecord
100
AcDbLayerTableRecord
  2
235
 70
     0
 62
   235
  6
CONTINUOUS
  0
LAYER
  5
125
330
2
100
AcDbSymbolTableRecord
100
AcDbLayerTableRecord
  2
236
 70
     0
 62
   236
  6
CONTINUOUS
  0
LAYER
  5
126
330
2
100
AcDbSymbolTableRecord
100
AcDbLayerTableRecord
  2
237
 70
     0
 62
   237
  6
CONTINUOUS
  0
LAYER
  5
127
330
2
100
AcDbSymbolTableRecord
100
AcDbLayerTableRecord
  2
238
 70
     0
 62
   238
  6
CONTINUOUS
  0
LAYER
  5
128
330
2
100
AcDbSymbolTableRecord
100
AcDbLayerTableRecord
  2
239
 70
     0
 62
   239
  6
CONTINUOUS
  0
LAYER
  5
129
330
2
100
AcDbSymbolTableRecord
100
AcDbLayerTableRecord
  2
240
 70
     0
 62
   240
  6
CONTINUOUS
  0
LAYER
  5
12A
330
2
100
AcDbSymbolTableRecord
100
AcDbLayerTableRecord
  2
241
 70
     0
 62
   241
  6
CONTINUOUS
  0
LAYER
  5
12B
330
2
100
AcDbSymbolTableRecord
100
AcDbLayerTableRecord
  2
242
 70
     0
 62
   242
  6
CONTINUOUS
  0
LAYER
  5
12C
330
2
100
AcDbSymbolTableRecord
100
AcDbLayerTableRecord
  2
243
 70
     0
 62
   243
  6
CONTINUOUS
  0
LAYER
  5
12D
330
2
100
AcDbSymbolTableRecord
100
AcDbLayerTableRecord
  2
244
 70
     0
 62
   244
  6
CONTINUOUS
  0
LAYER
  5
12E
330
2
100
AcDbSymbolTableRecord
100
AcDbLayerTableRecord
  2
245
 70
     0
 62
   245
  6
CONTINUOUS
  0
LAYER
  5
12F
330
2
100
AcDbSymbolTableRecord
100
AcDbLayerTableRecord
  2
246
 70
     0
 62
   246
  6
CONTINUOUS
  0
LAYER
  5
130
330
2
100
AcDbSymbolTableRecord
100
AcDbLayerTableRecord
  2
247
 70
     0
 62
   247
  6
CONTINUOUS
  0
LAYER
  5
131
330
2
100
AcDbSymbolTableRecord
100
AcDbLayerTableRecord
  2
248
 70
     0
 62
   248
  6
CONTINUOUS
  0
LAYER
  5
132
330
2
100
AcDbSymbolTableRecord
100
AcDbLayerTableRecord
  2
249
 70
     0
 62
   249
  6
CONTINUOUS
  0
LAYER
  5
133
330
2
100
AcDbSymbolTableRecord
100
AcDbLayerTableRecord
  2
250
 70
     0
 62
   250
  6
CONTINUOUS
  0
LAYER
  5
134
330
2
100
AcDbSymbolTableRecord
100
AcDbLayerTableRecord
  2
251
 70
     0
 62
   251
  6
CONTINUOUS
  0
LAYER
  5
135
330
2
100
AcDbSymbolTableRecord
100
AcDbLayerTableRecord
  2
252
 70
     0
 62
   252
  6
CONTINUOUS
  0
LAYER
  5
136
330
2
100
AcDbSymbolTableRecord
100
AcDbLayerTableRecord
  2
253
 70
     0
 62
   253
  6
CONTINUOUS
  0
LAYER
  5
137
330
2
100
AcDbSymbolTableRecord
100
AcDbLayerTableRecord
  2
254
 70
     0
 62
   254
  6
CONTINUOUS
  0
LAYER
  5
138
330
2
100
AcDbSymbolTableRecord
100
AcDbLayerTableRecord
  2
255
 70
     0
 62
   255
  6
CONTINUOUS
  0
ENDTAB
  0
TABLE
  2
STYLE
  5
3
330
0
100
AcDbSymbolTable
 70
     1
  0
STYLE
  5
11
330
3
100
AcDbSymbolTableRecord
100
AcDbTextStyleTableRecord
  2
STANDARD
 70
     0
 40
0.0
 41
1.0
 50
0.0
 71
     0
 42
0.2
  3
monotxt
  4

  0
ENDTAB
  0
TABLE
  2
VIEW
  5
6
330
0
100
AcDbSymbolTable
 70
     0
  0
ENDTAB
  0
TABLE
  2
UCS
  5
7
330
0
100
AcDbSymbolTable
 70
     0
  0
ENDTAB
  0
TABLE
  2
APPID
  5
9
330
0
100
AcDbSymbolTable
 70
     1
  0
APPID
  5
12
330
9
100
AcDbSymbolTableRecord
100
AcDbRegAppTableRecord
  2
ACAD
 70
     0
  0
ENDTAB
  0
TABLE
  2
DIMSTYLE
  5
A
330
0
100
AcDbSymbolTable
 70
     1
  0
DIMSTYLE
105
238E
330
A
100
AcDbSymbolTableRecord
100
AcDbDimStyleTableRecord
  2
STANDARD
 70
     0
  3

  4

  5

  6

  7

 40
1.0
 41
0.18
 42
0.0625
 43
0.38
 44
0.18
 45
0.0
 46
0.0
 47
0.0
 48
0.0
140
0.18
141
0.09
142
0.0
143
25.4
144
1.0
145
0.0
146
1.0
147
0.09
 71
     0
 72
     0
 73
     1
 74
     1
 75
     0
 76
     0
 77
     0
 78
     0
170
     0
171
     2
172
     0
173
     0
174
     0
175
     0
176
     0
177
     0
178
     0
270
     2
271
     4
272
     4
273
     2
274
     2
340
11
275
     0
280
     0
281
     0
282
     0
283
     1
284
     0
285
     0
286
     0
287
     3
288
     0
  0
ENDTAB
  0
TABLE
  2
BLOCK_RECORD
  5
1
330
0
100
AcDbSymbolTable
 70
     0
  0
BLOCK_RECORD
  5
1E
102
{ACAD_XDICTIONARY
360
23E9
102
}
330
1
100
AcDbSymbolTableRecord
100
AcDbBlockTableRecord
  2
*MODEL_SPACE
  0
BLOCK_RECORD
  5
1A
102
{ACAD_XDICTIONARY
360
23E7
102
}
330
1
100
AcDbSymbolTableRecord
100
AcDbBlockTableRecord
  2
*PAPER_SPACE
  0
ENDTAB
  0
ENDSEC
  0
SECTION
  2
BLOCKS
  0
BLOCK
  5
13B
330
1E
100
AcDbEntity
  8
0
100
AcDbBlockBegin
  2
*MODEL_SPACE
 70
     0
 10
0.0
 20
0.0
 30
0.0
  3
*MODEL_SPACE
  1

  0
ENDBLK
  5
13C
330
1E
100
AcDbEntity
  8
0
100
AcDbBlockEnd
  0
BLOCK
  5
139
330
1A
100
AcDbEntity
 67
     1
  8
0
100
AcDbBlockBegin
  2
*PAPER_SPACE
 70
     0
 10
0.0
 20
0.0
 30
0.0
  3
*PAPER_SPACE
  1

  0
ENDBLK
  5
13A
330
1A
100
AcDbEntity
 67
     1
  8
0
100
AcDbBlockEnd
  0
ENDSEC
  0
SECTION
  2
ENTITIES
  0
LINE
  5
14A
330
1E
100
AcDbEntity
  8
7
100
AcDbLine
 10
7.231299212598425
 20
7.203740157480314
 30
0.0
 11
7.231299212598425
 21
7.828740157480314
 31
0.0
  0
LINE
  5
14C
330
1E
100
AcDbEntity
  8
7
100
AcDbLine
 10
7.231299212598425
 20
7.203740157480314
 30
0.0
 11
7.231299212598425
 21
7.828740157480314
 31
0.0
  0
LINE
  5
14F
330
1E
100
AcDbEntity
  8
7
100
AcDbLine
 10
8.731299212598424
 20
7.203740157480314
 30
0.0
 11
8.731299212598424
 21
7.828740157480314
 31
0.0
  0
LINE
  5
16A
330
1E
100
AcDbEntity
  8
7
100
AcDbLine
 10
7.231299212598425
 20
7.203740157480314
 30
0.0
 11
10.32185039370078
 21
7.203740157480314
 31
0.0
  0
LINE
  5
16C
330
1E
100
AcDbEntity
  8
7
100
AcDbLine
 10
7.231299212598425
 20
7.828740157480314
 30
0.0
 11
10.32185039370078
 21
7.828740157480314
 31
0.0
  0
LINE
  5
179
330
1E
100
AcDbEntity
  8
7
100
AcDbLine
 10
7.231299212598425
 20
7.828740157480314
 30
0.0
 11
10.32185039370078
 21
7.828740157480314
 31
0.0
  0
LINE
  5
182
330
1E
100
AcDbEntity
  8
7
100
AcDbLine
 10
7.231299212598425
 20
7.203740157480314
 30
0.0
 11
10.32185039370078
 21
7.203740157480314
 31
0.0
  0
LINE
  5
186
330
1E
100
AcDbEntity
  8
7
100
AcDbLine
 10
10.32185039370078
 20
7.203740157480314
 30
0.0
 11
10.32185039370078
 21
7.828740157480314
 31
0.0
  0
LINE
  5
18A
330
1E
100
AcDbEntity
  8
7
100
AcDbLine
 10
8.731299212598424
 20
7.203740157480314
 30
0.0
 11
8.731299212598424
 21
7.828740157480314
 31
0.0
  0
LINE
  5
19D
330
1E
100
AcDbEntity
  8
7
100
AcDbLine
 10
7.231299212598425
 20
7.516732283464566
 30
0.0
 11
10.32185039370078
 21
7.516732283464566
 31
0.0
  0
LINE
  5
1AB
330
1E
100
AcDbEntity
  8
7
100
AcDbLine
 10
10.32185039370078
 20
7.203740157480314
 30
0.0
 11
10.32185039370078
 21
7.828740157480314
 31
0.0
  0
LINE
  5
1B6
330
1E
100
AcDbEntity
  8
7
100
AcDbLine
 10
7.231299212598425
 20
7.516732283464566
 30
0.0
 11
10.32185039370078
 21
7.516732283464566
 31
0.0
  0
LWPOLYLINE
  5
840
330
1E
100
AcDbEntity
  8
7
100
AcDbPolyline
 90
        3
 70
     0
 43
0.0098425196850394
 10
7.643700787401574
 20
7.341535433070865
 10
7.643700787401574
 20
7.431102362204724
 10
7.714566929133858
 20
7.431102362204724
  0
LINE
  5
845
330
1E
100
AcDbEntity
  8
7
100
AcDbLine
 10
7.687007874015748
 20
7.394685039370078
 30
0.0
 11
7.643700787401574
 21
7.394685039370078
 31
0.0
  0
LWPOLYLINE
  5
846
330
1E
100
AcDbEntity
  8
7
100
AcDbPolyline
 90
        3
 70
     0
 43
0.0098425196850394
 10
7.741141732283464
 20
7.341535433070865
 10
7.776574803149606
 20
7.431102362204724
 10
7.812992125984251
 20
7.341535433070865
  0
LINE
  5
84B
330
1E
100
AcDbEntity
  8
7
100
AcDbLine
 10
7.758858267716535
 20
7.386811023622047
 30
0.0
 11
7.794291338582676
 21
7.386811023622047
 31
0.0
  0
LWPOLYLINE
  5
84C
330
1E
100
AcDbEntity
  8
7
100
AcDbPolyline
 90
        6
 70
     0
 43
0.0098425196850394
 10
7.839566929133858
 20
7.341535433070865
 10
7.839566929133858
 20
7.431102362204724
 10
7.892716535433071
 20
7.431102362204724
 10
7.910433070866141
 20
7.422244094488188
 10
7.910433070866141
 20
7.394685039370078
 10
7.891732283464566
 20
7.386811023622047
  0
LINE
  5
854
330
1E
100
AcDbEntity
  8
7
100
AcDbLine
 10
7.891732283464566
 20
7.386811023622047
 30
0.0
 11
7.839566929133858
 21
7.386811023622047
 31
0.0
  0
LWPOLYLINE
  5
855
330
1E
100
AcDbEntity
  8
7
100
AcDbPolyline
 90
       12
 70
     0
 43
0.0098425196850394
 10
7.937007874015748
 20
7.394685039370078
 10
7.937007874015748
 20
7.431102362204724
 10
7.991141732283464
 20
7.431102362204724
 10
7.999015748031496
 20
7.422244094488188
 10
7.999015748031496
 20
7.404527559055118
 10
7.991141732283464
 20
7.394685039370078
 10
7.937007874015748
 20
7.394685039370078
 10
7.937007874015748
 20
7.341535433070865
 10
7.990157480314961
 20
7.341535433070865
 10
8.007874015748031
 20
7.350393700787401
 10
8.007874015748031
 20
7.386811023622047
 10
7.991141732283464
 20
7.394685039370078
  0
LWPOLYLINE
  5
D22
330
1E
100
AcDbEntity
  8
7
100
AcDbPolyline
 90
        5
 70
     0
 43
0.0098425196850394
 10
9.200787401574801
 20
7.716535433070865
 10
9.217519685039368
 20
7.626968503937008
 10
9.23523622047244
 20
7.716535433070865
 10
9.253937007874014
 20
7.626968503937008
 10
9.271653543307085
 20
7.716535433070865
  0
LWPOLYLINE
  5
D29
330
1E
100
AcDbEntity
  8
7
100
AcDbPolyline
 90
        4
 70
     0
 43
0.0098425196850394
 10
9.370078740157479
 20
7.626968503937008
 10
9.298228346456692
 20
7.626968503937008
 10
9.298228346456692
 20
7.716535433070865
 10
9.370078740157479
 20
7.716535433070865
  0
LINE
  5
D2F
330
1E
100
AcDbEntity
  8
7
100
AcDbLine
 10
9.351377952755903
 20
7.672244094488188
 30
0.0
 11
9.298228346456692
 21
7.672244094488188
 31
0.0
  0
LINE
  5
D30
330
1E
100
AcDbEntity
  8
7
100
AcDbLine
 10
9.422244094488188
 20
7.626968503937008
 30
0.0
 11
9.440944881889762
 21
7.626968503937008
 31
0.0
  0
LINE
  5
D31
330
1E
100
AcDbEntity
  8
7
100
AcDbLine
 10
9.432086614173227
 20
7.716535433070865
 30
0.0
 11
9.432086614173227
 21
7.626968503937008
 31
0.0
  0
LINE
  5
D32
330
1E
100
AcDbEntity
  8
7
100
AcDbLine
 10
9.422244094488188
 20
7.716535433070865
 30
0.0
 11
9.440944881889762
 21
7.716535433070865
 31
0.0
  0
LWPOLYLINE
  5
D33
330
1E
100
AcDbEntity
  8
7
100
AcDbPolyline
 90
        5
 70
     0
 43
0.0098425196850394
 10
9.53051181102362
 20
7.672244094488188
 10
9.565944881889762
 20
7.672244094488188
 10
9.565944881889762
 20
7.644685039370078
 10
9.548228346456692
 20
7.626968503937008
 10
9.511811023622046
 20
7.626968503937008
  0
LWPOLYLINE
  5
D3A
330
1E
100
AcDbEntity
  8
7
100
AcDbPolyline
 90
        6
 70
     0
 43
0.0098425196850394
 10
9.511811023622046
 20
7.626968503937008
 10
9.493110236220472
 20
7.644685039370078
 10
9.493110236220472
 20
7.698818897637795
 10
9.51279527559055
 20
7.716535433070865
 10
9.547244094488188
 20
7.716535433070865
 10
9.564960629921259
 20
7.698818897637795
  0
LINE
  5
D42
330
1E
100
AcDbEntity
  8
7
100
AcDbLine
 10
9.592519685039368
 20
7.626968503937008
 30
0.0
 11
9.592519685039368
 21
7.716535433070865
 31
0.0
  0
LINE
  5
D43
330
1E
100
AcDbEntity
  8
7
100
AcDbLine
 10
9.663385826771651
 20
7.672244094488188
 30
0.0
 11
9.592519685039368
 21
7.672244094488188
 31
0.0
  0
LINE
  5
D44
330
1E
100
AcDbEntity
  8
7
100
AcDbLine
 10
9.663385826771651
 20
7.626968503937008
 30
0.0
 11
9.663385826771651
 21
7.716535433070865
 31
0.0
  0
LINE
  5
D45
330
1E
100
AcDbEntity
  8
7
100
AcDbLine
 10
9.726377952755903
 20
7.716535433070865
 30
0.0
 11
9.726377952755903
 21
7.626968503937008
 31
0.0
  0
LINE
  5
D46
330
1E
100
AcDbEntity
  8
7
100
AcDbLine
 10
9.761811023622046
 20
7.716535433070865
 30
0.0
 11
9.690944881889762
 21
7.716535433070865
 31
0.0
  0
LINE
  5
1280
330
1E
100
AcDbEntity
  8
7
100
AcDbLine
 10
7.447834645669291
 20
1.963582677165354
 30
0.0
 11
7.447834645669291
 21
2.052165354330708
 31
0.0
  0
LINE
  5
1281
330
1E
100
AcDbEntity
  8
7
100
AcDbLine
 10
7.447834645669291
 20
2.052165354330708
 30
0.0
 11
7.519685039370078
 21
2.052165354330708
 31
0.0
  0
LINE
  5
1282
330
1E
100
AcDbEntity
  8
7
100
AcDbLine
 10
7.492125984251968
 20
2.016732283464567
 30
0.0
 11
7.447834645669291
 21
2.016732283464567
 31
0.0
  0
LINE
  5
1283
330
1E
100
AcDbEntity
  8
7
100
AcDbLine
 10
7.572834645669291
 20
1.963582677165354
 30
0.0
 11
7.590551181102362
 21
1.963582677165354
 31
0.0
  0
LINE
  5
1284
330
1E
100
AcDbEntity
  8
7
100
AcDbLine
 10
7.581692913385826
 20
2.052165354330708
 30
0.0
 11
7.581692913385826
 21
1.963582677165354
 31
0.0
  0
LINE
  5
1285
330
1E
100
AcDbEntity
  8
7
100
AcDbLine
 10
7.572834645669291
 20
2.052165354330708
 30
0.0
 11
7.590551181102362
 21
2.052165354330708
 31
0.0
  0
LWPOLYLINE
  5
1286
330
1E
100
AcDbEntity
  8
7
100
AcDbPolyline
 90
        3
 70
     0
 43
0.0098425196850394
 10
7.644685039370078
 20
2.016732283464567
 10
7.644685039370078
 20
2.052165354330708
 10
7.697834645669291
 20
2.052165354330708
  0
LWPOLYLINE
  5
128B
330
1E
100
AcDbEntity
  8
7
100
AcDbPolyline
 90
       10
 70
     0
 43
0.0098425196850394
 10
7.697834645669291
 20
2.052165354330708
 10
7.705708661417323
 20
2.044291338582677
 10
7.705708661417323
 20
2.025590551181102
 10
7.697834645669291
 20
2.016732283464567
 10
7.644685039370078
 20
2.016732283464567
 10
7.644685039370078
 20
1.963582677165354
 10
7.696850393700787
 20
1.963582677165354
 10
7.714566929133858
 20
1.971456692913385
 10
7.714566929133858
 20
2.007874015748031
 10
7.697834645669291
 20
2.016732283464567
  0
LWPOLYLINE
  5
1297
330
1E
100
AcDbEntity
  8
7
100
AcDbPolyline
 90
        4
 70
     0
 43
0.0098425196850394
 10
7.813976377952755
 20
1.963582677165354
 10
7.742125984251968
 20
1.963582677165354
 10
7.742125984251968
 20
2.052165354330708
 10
7.813976377952755
 20
2.052165354330708
  0
LINE
  5
129D
330
1E
100
AcDbEntity
  8
7
100
AcDbLine
 10
7.796259842519685
 20
2.007874015748031
 30
0.0
 11
7.742125984251968
 21
2.007874015748031
 31
0.0
  0
LWPOLYLINE
  5
129E
330
1E
100
AcDbEntity
  8
7
100
AcDbPolyline
 90
        7
 70
     0
 43
0.0098425196850394
 10
7.840551181102362
 20
1.963582677165354
 10
7.840551181102362
 20
2.052165354330708
 10
7.893700787401574
 20
2.052165354330708
 10
7.911417322834645
 20
2.044291338582677
 10
7.911417322834645
 20
2.016732283464567
 10
7.893700787401574
 20
2.007874015748031
 10
7.840551181102362
 20
2.007874015748031
  0
LINE
  5
12A7
330
1E
100
AcDbEntity
  8
7
100
AcDbLine
 10
7.911417322834645
 20
1.963582677165354
 30
0.0
 11
7.893700787401574
 21
2.007874015748031
 31
0.0
  0
LWPOLYLINE
  5
12A8
330
1E
100
AcDbEntity
  8
7
100
AcDbPolyline
 90
        3
 70
     0
 43
0.0098425196850394
 10
8.054133858267714
 20
1.963582677165354
 10
8.089566929133857
 20
1.963582677165354
 10
8.108267716535431
 20
1.981299212598425
  0
LWPOLYLINE
  5
12AD
330
1E
100
AcDbEntity
  8
7
100
AcDbPolyline
 90
        7
 70
     0
 43
0.0098425196850394
 10
8.108267716535431
 20
1.981299212598425
 10
8.108267716535431
 20
2.034448818897637
 10
8.089566929133857
 20
2.052165354330708
 10
8.054133858267714
 20
2.052165354330708
 10
8.03543307086614
 20
2.034448818897637
 10
8.03543307086614
 20
1.981299212598425
 10
8.054133858267714
 20
1.963582677165354
  0
LWPOLYLINE
  5
12B6
330
1E
100
AcDbEntity
  8
7
100
AcDbPolyline
 90
        7
 70
     0
 43
0.0098425196850394
 10
8.134842519685038
 20
1.963582677165354
 10
8.134842519685038
 20
2.052165354330708
 10
8.187992125984251
 20
2.052165354330708
 10
8.205708661417322
 20
2.044291338582677
 10
8.205708661417322
 20
2.016732283464567
 10
8.187007874015746
 20
2.007874015748031
 10
8.134842519685038
 20
2.007874015748031
  0
LINE
  5
12BF
330
1E
100
AcDbEntity
  8
7
100
AcDbLine
 10
8.268700787401574
 20
2.052165354330708
 30
0.0
 11
8.268700787401574
 21
1.963582677165354
 31
0.0
  0
LINE
  5
12C0
330
1E
100
AcDbEntity
  8
7
100
AcDbLine
 10
8.304133858267714
 20
2.052165354330708
 30
0.0
 11
8.232283464566927
 21
2.052165354330708
 31
0.0
  0
LINE
  5
12C1
330
1E
100
AcDbEntity
  8
7
100
AcDbLine
 10
8.357283464566927
 20
1.963582677165354
 30
0.0
 11
8.375
 21
1.963582677165354
 31
0.0
  0
LINE
  5
12C2
330
1E
100
AcDbEntity
  8
7
100
AcDbLine
 10
8.366141732283463
 20
2.052165354330708
 30
0.0
 11
8.366141732283463
 21
1.963582677165354
 31
0.0
  0
LINE
  5
12C3
330
1E
100
AcDbEntity
  8
7
100
AcDbLine
 10
8.357283464566927
 20
2.052165354330708
 30
0.0
 11
8.375
 21
2.052165354330708
 31
0.0
  0
LWPOLYLINE
  5
12C4
330
1E
100
AcDbEntity
  8
7
100
AcDbPolyline
 90
        3
 70
     0
 43
0.0098425196850394
 10
8.499015748031494
 20
1.981299212598425
 10
8.481299212598424
 20
1.963582677165354
 10
8.446850393700787
 20
1.963582677165354
  0
LWPOLYLINE
  5
12C9
330
1E
100
AcDbEntity
  8
7
100
AcDbPolyline
 90
        6
 70
     0
 43
0.0098425196850394
 10
8.446850393700787
 20
1.963582677165354
 10
8.429133858267714
 20
1.981299212598425
 10
8.429133858267714
 20
2.034448818897637
 10
8.446850393700787
 20
2.052165354330708
 10
8.482283464566927
 20
2.052165354330708
 10
8.5
 20
2.034448818897637
  0
LWPOLYLINE
  5
12D1
330
1E
100
AcDbEntity
  8
7
100
AcDbPolyline
 90
        5
 70
     0
 43
0.0098425196850394
 10
8.625
 20
1.963582677165354
 10
8.625
 20
2.052165354330708
 10
8.66043307086614
 20
1.963582677165354
 10
8.695866141732283
 20
2.052165354330708
 10
8.695866141732283
 20
1.963582677165354
  0
LWPOLYLINE
  5
12D8
330
1E
100
AcDbEntity
  8
7
100
AcDbPolyline
 90
        3
 70
     0
 43
0.0098425196850394
 10
8.741141732283463
 20
1.963582677165354
 10
8.776574803149605
 20
1.963582677165354
 10
8.794291338582675
 20
1.981299212598425
  0
LWPOLYLINE
  5
12DD
330
1E
100
AcDbEntity
  8
7
100
AcDbPolyline
 90
        7
 70
     0
 43
0.0098425196850394
 10
8.794291338582675
 20
1.981299212598425
 10
8.794291338582675
 20
2.034448818897637
 10
8.776574803149605
 20
2.052165354330708
 10
8.741141732283463
 20
2.052165354330708
 10
8.722440944881888
 20
2.034448818897637
 10
8.722440944881888
 20
1.981299212598425
 10
8.741141732283463
 20
1.963582677165354
  0
LWPOLYLINE
  5
12E6
330
1E
100
AcDbEntity
  8
7
100
AcDbPolyline
 90
        3
 70
     0
 43
0.0098425196850394
 10
8.820866141732283
 20
2.052165354330708
 10
8.820866141732283
 20
1.963582677165354
 10
8.89271653543307
 20
1.963582677165354
  0
LWPOLYLINE
  5
12EB
330
1E
100
AcDbEntity
  8
7
100
AcDbPolyline
 90
        5
 70
     0
 43
0.0098425196850394
 10
8.919291338582675
 20
1.963582677165354
 10
8.971456692913385
 20
1.963582677165354
 10
8.990157480314959
 20
1.981299212598425
 10
8.990157480314959
 20
2.034448818897637
 10
8.971456692913385
 20
2.052165354330708
  0
LWPOLYLINE
  5
12F2
330
1E
100
AcDbEntity
  8
7
100
AcDbPolyline
 90
        3
 70
     0
 43
0.0098425196850394
 10
8.971456692913385
 20
2.052165354330708
 10
8.919291338582675
 20
2.052165354330708
 10
8.919291338582675
 20
1.963582677165354
  0
LWPOLYLINE
  5
12F7
330
1E
100
AcDbEntity
  8
7
100
AcDbPolyline
 90
        4
 70
     0
 43
0.0098425196850394
 10
9.088582677165353
 20
1.963582677165354
 10
9.016732283464566
 20
1.963582677165354
 10
9.016732283464566
 20
2.052165354330708
 10
9.088582677165353
 20
2.052165354330708
  0
LINE
  5
12FD
330
1E
100
AcDbEntity
  8
7
100
AcDbLine
 10
9.070866141732283
 20
2.007874015748031
 30
0.0
 11
9.016732283464566
 21
2.007874015748031
 31
0.0
  0
LWPOLYLINE
  5
12FE
330
1E
100
AcDbEntity
  8
7
100
AcDbPolyline
 90
        5
 70
     0
 43
0.0098425196850394
 10
9.115157480314959
 20
1.963582677165354
 10
9.167322834645668
 20
1.963582677165354
 10
9.186023622047242
 20
1.981299212598425
 10
9.186023622047242
 20
2.034448818897637
 10
9.167322834645668
 20
2.052165354330708
  0
LWPOLYLINE
  5
1305
330
1E
100
AcDbEntity
  8
7
100
AcDbPolyline
 90
        3
 70
     0
 43
0.0098425196850394
 10
9.167322834645668
 20
2.052165354330708
 10
9.115157480314959
 20
2.052165354330708
 10
9.115157480314959
 20
1.963582677165354
  0
LWPOLYLINE
  5
130A
330
1E
100
AcDbEntity
  8
7
100
AcDbPolyline
 90
        3
 70
     0
 43
0.0098425196850394
 10
9.311023622047242
 20
1.963582677165354
 10
9.347440944881888
 20
2.052165354330708
 10
9.382874015748031
 20
1.963582677165354
  0
LINE
  5
130F
330
1E
100
AcDbEntity
  8
7
100
AcDbLine
 10
9.328740157480314
 20
2.007874015748031
 30
0.0
 11
9.365157480314959
 21
2.007874015748031
 31
0.0
  0
LWPOLYLINE
  5
1310
330
1E
100
AcDbEntity
  8
7
100
AcDbPolyline
 90
        5
 70
     0
 43
0.0098425196850394
 10
9.409448818897637
 20
1.963582677165354
 10
9.461614173228346
 20
1.963582677165354
 10
9.48031496062992
 20
1.981299212598425
 10
9.48031496062992
 20
2.034448818897637
 10
9.461614173228346
 20
2.052165354330708
  0
LWPOLYLINE
  5
1317
330
1E
100
AcDbEntity
  8
7
100
AcDbPolyline
 90
        3
 70
     0
 43
0.0098425196850394
 10
9.461614173228346
 20
2.052165354330708
 10
9.409448818897637
 20
2.052165354330708
 10
9.409448818897637
 20
1.963582677165354
  0
LWPOLYLINE
  5
131C
330
1E
100
AcDbEntity
  8
7
100
AcDbPolyline
 90
        3
 70
     0
 43
0.0098425196850394
 10
9.507874015748031
 20
1.963582677165354
 10
9.543307086614172
 20
2.052165354330708
 10
9.578740157480314
 20
1.963582677165354
  0
LINE
  5
1321
330
1E
100
AcDbEntity
  8
7
100
AcDbLine
 10
9.525590551181101
 20
2.007874015748031
 30
0.0
 11
9.561023622047242
 21
2.007874015748031
 31
0.0
  0
LWPOLYLINE
  5
1322
330
1E
100
AcDbEntity
  8
7
100
AcDbPolyline
 90
        6
 70
     0
 43
0.0098425196850394
 10
9.60531496062992
 20
1.963582677165354
 10
9.60531496062992
 20
2.052165354330708
 10
9.659448818897637
 20
2.052165354330708
 10
9.677165354330707
 20
2.044291338582677
 10
9.677165354330707
 20
2.016732283464567
 10
9.658464566929133
 20
2.007874015748031
  0
LINE
  5
132A
330
1E
100
AcDbEntity
  8
7
100
AcDbLine
 10
9.658464566929133
 20
2.007874015748031
 30
0.0
 11
9.60531496062992
 21
2.007874015748031
 31
0.0
  0
LINE
  5
132B
330
1E
100
AcDbEntity
  8
7
100
AcDbLine
 10
9.739173228346455
 20
2.052165354330708
 30
0.0
 11
9.739173228346455
 21
1.963582677165354
 31
0.0
  0
LINE
  5
132C
330
1E
100
AcDbEntity
  8
7
100
AcDbLine
 10
9.774606299212598
 20
2.052165354330708
 30
0.0
 11
9.703740157480314
 21
2.052165354330708
 31
0.0
  0
LWPOLYLINE
  5
132D
330
1E
100
AcDbEntity
  8
7
100
AcDbPolyline
 90
        4
 70
     0
 43
0.0098425196850394
 10
9.87303149606299
 20
1.963582677165354
 10
9.801181102362203
 20
1.963582677165354
 10
9.801181102362203
 20
2.052165354330708
 10
9.87303149606299
 20
2.052165354330708
  0
LINE
  5
1333
330
1E
100
AcDbEntity
  8
7
100
AcDbLine
 10
9.85531496062992
 20
2.007874015748031
 30
0.0
 11
9.801181102362203
 21
2.007874015748031
 31
0.0
  0
LWPOLYLINE
  5
1334
330
1E
100
AcDbEntity
  8
7
100
AcDbPolyline
 90
        7
 70
     0
 43
0.0098425196850394
 10
9.899606299212598
 20
1.963582677165354
 10
9.899606299212598
 20
2.052165354330708
 10
9.952755905511809
 20
2.052165354330708
 10
9.971456692913385
 20
2.044291338582677
 10
9.971456692913385
 20
2.016732283464567
 10
9.952755905511809
 20
2.007874015748031
 10
9.899606299212598
 20
2.007874015748031
  0
LINE
  5
133D
330
1E
100
AcDbEntity
  8
7
100
AcDbLine
 10
9.971456692913385
 20
1.963582677165354
 30
0.0
 11
9.952755905511809
 21
2.007874015748031
 31
0.0
  0
LWPOLYLINE
  5
133E
330
1E
100
AcDbEntity
  8
7
100
AcDbPolyline
 90
        5
 70
     0
 43
0.0098425196850394
 10
8.184055118110235
 20
1.881889763779527
 10
8.184055118110235
 20
1.917322834645669
 10
8.237204724409448
 20
1.917322834645669
 10
8.245078740157479
 20
1.908464566929133
 10
8.245078740157479
 20
1.890748031496062
  0
LWPOLYLINE
  5
1345
330
1E
100
AcDbEntity
  8
7
100
AcDbPolyline
 90
        8
 70
     0
 43
0.0098425196850394
 10
8.245078740157479
 20
1.890748031496062
 10
8.237204724409448
 20
1.881889763779527
 10
8.184055118110235
 20
1.881889763779527
 10
8.184055118110235
 20
1.828740157480314
 10
8.236220472440944
 20
1.828740157480314
 10
8.253937007874014
 20
1.836614173228346
 10
8.253937007874014
 20
1.873031496062991
 10
8.237204724409448
 20
1.881889763779527
  0
LWPOLYLINE
  5
134F
330
1E
100
AcDbEntity
  8
7
100
AcDbPolyline
 90
        3
 70
     0
 43
0.0098425196850394
 10
8.281496062992125
 20
1.917322834645669
 10
8.281496062992125
 20
1.828740157480314
 10
8.353346456692912
 20
1.828740157480314
  0
LWPOLYLINE
  5
1354
330
1E
100
AcDbEntity
  8
7
100
AcDbPolyline
 90
        3
 70
     0
 43
0.0098425196850394
 10
8.379921259842518
 20
1.828740157480314
 10
8.415354330708661
 20
1.917322834645669
 10
8.450787401574801
 20
1.828740157480314
  0
LINE
  5
1359
330
1E
100
AcDbEntity
  8
7
100
AcDbLine
 10
8.397637795275588
 20
1.873031496062991
 30
0.0
 11
8.433070866141731
 21
1.873031496062991
 31
0.0
  0
LWPOLYLINE
  5
135A
330
1E
100
AcDbEntity
  8
7
100
AcDbPolyline
 90
        4
 70
     0
 43
0.0098425196850394
 10
8.477362204724409
 20
1.828740157480314
 10
8.477362204724409
 20
1.917322834645669
 10
8.549212598425196
 20
1.828740157480314
 10
8.549212598425196
 20
1.917322834645669
  0
LINE
  5
1360
330
1E
100
AcDbEntity
  8
7
100
AcDbLine
 10
8.575787401574801
 20
1.828740157480314
 30
0.0
 11
8.575787401574801
 21
1.917322834645669
 31
0.0
  0
LINE
  5
1361
330
1E
100
AcDbEntity
  8
7
100
AcDbLine
 10
8.63779527559055
 20
1.917322834645669
 30
0.0
 11
8.575787401574801
 21
1.855314960629921
 31
0.0
  0
LINE
  5
1362
330
1E
100
AcDbEntity
  8
7
100
AcDbLine
 10
8.63779527559055
 20
1.828740157480314
 30
0.0
 11
8.602362204724409
 21
1.881889763779527
 31
0.0
  0
LWPOLYLINE
  5
1363
330
1E
100
AcDbEntity
  8
7
100
AcDbPolyline
 90
        7
 70
     0
 43
0.0098425196850394
 10
8.771653543307085
 20
1.828740157480314
 10
8.771653543307085
 20
1.917322834645669
 10
8.825787401574801
 20
1.917322834645669
 10
8.843503937007872
 20
1.908464566929133
 10
8.843503937007872
 20
1.881889763779527
 10
8.824803149606298
 20
1.873031496062991
 10
8.771653543307085
 20
1.873031496062991
  0
LWPOLYLINE
  5
136C
330
1E
100
AcDbEntity
  8
7
100
AcDbPolyline
 90
        3
 70
     0
 43
0.0098425196850394
 10
8.870078740157479
 20
1.828740157480314
 10
8.90551181102362
 20
1.917322834645669
 10
8.940944881889762
 20
1.828740157480314
  0
LINE
  5
1371
330
1E
100
AcDbEntity
  8
7
100
AcDbLine
 10
8.88779527559055
 20
1.873031496062991
 30
0.0
 11
8.923228346456692
 21
1.873031496062991
 31
0.0
  0
LWPOLYLINE
  5
1372
330
1E
100
AcDbEntity
  8
7
100
AcDbPolyline
 90
        4
 70
     0
 43
0.0098425196850394
 10
8.968503937007872
 20
1.828740157480314
 10
8.968503937007872
 20
1.917322834645669
 10
9.039370078740157
 20
1.828740157480314
 10
9.039370078740157
 20
1.917322834645669
  0
LWPOLYLINE
  5
1378
330
1E
100
AcDbEntity
  8
7
100
AcDbPolyline
 90
        4
 70
     0
 43
0.0098425196850394
 10
9.13779527559055
 20
1.828740157480314
 10
9.065944881889762
 20
1.828740157480314
 10
9.065944881889762
 20
1.917322834645669
 10
9.13779527559055
 20
1.917322834645669
  0
LINE
  5
137E
330
1E
100
AcDbEntity
  8
7
100
AcDbLine
 10
9.120078740157479
 20
1.873031496062991
 30
0.0
 11
9.065944881889762
 21
1.873031496062991
 31
0.0
  0
LWPOLYLINE
  5
137F
330
1E
100
AcDbEntity
  8
7
100
AcDbPolyline
 90
        3
 70
     0
 43
0.0098425196850394
 10
9.164370078740157
 20
1.917322834645669
 10
9.164370078740157
 20
1.828740157480314
 10
9.23523622047244
 20
1.828740157480314
  0
LWPOLYLINE
  5
143E
330
1E
100
AcDbEntity
  8
7
100
AcDbPolyline
 90
        7
 70
     0
 43
0.0098425196850394
 10
7.436023622047244
 20
7.635826771653543
 10
7.436023622047244
 20
7.724409448818897
 10
7.489173228346456
 20
7.724409448818897
 10
7.506889763779527
 20
7.716535433070865
 10
7.506889763779527
 20
7.688976377952755
 10
7.488188976377952
 20
7.681102362204724
 10
7.436023622047244
 20
7.681102362204724
  0
LWPOLYLINE
  5
1447
330
1E
100
AcDbEntity
  8
7
100
AcDbPolyline
 90
        3
 70
     0
 43
0.0098425196850394
 10
7.533464566929134
 20
7.635826771653543
 10
7.568897637795275
 20
7.724409448818897
 10
7.605314960629921
 20
7.635826771653543
  0
LINE
  5
144C
330
1E
100
AcDbEntity
  8
7
100
AcDbLine
 10
7.551181102362204
 20
7.681102362204724
 30
0.0
 11
7.586614173228346
 21
7.681102362204724
 31
0.0
  0
LWPOLYLINE
  5
144D
330
1E
100
AcDbEntity
  8
7
100
AcDbPolyline
 90
        4
 70
     0
 43
0.0098425196850394
 10
7.631889763779527
 20
7.635826771653543
 10
7.631889763779527
 20
7.724409448818897
 10
7.702755905511811
 20
7.635826771653543
 10
7.702755905511811
 20
7.724409448818897
  0
LWPOLYLINE
  5
1453
330
1E
100
AcDbEntity
  8
7
100
AcDbPolyline
 90
        7
 70
     0
 43
0.0098425196850394
 10
7.729330708661417
 20
7.635826771653543
 10
7.782480314960629
 20
7.635826771653543
 10
7.801181102362204
 20
7.653543307086613
 10
7.801181102362204
 20
7.706692913385826
 10
7.782480314960629
 20
7.724409448818897
 10
7.729330708661417
 20
7.724409448818897
 10
7.729330708661417
 20
7.635826771653543
  0
LWPOLYLINE
  5
145C
330
1E
100
AcDbEntity
  8
7
100
AcDbPolyline
 90
        6
 70
     0
 43
0.0098425196850394
 10
7.827755905511811
 20
7.724409448818897
 10
7.827755905511811
 20
7.653543307086613
 10
7.844488188976377
 20
7.635826771653543
 10
7.879921259842519
 20
7.635826771653543
 10
7.898622047244094
 20
7.653543307086613
 10
7.898622047244094
 20
7.724409448818897
  0
LINE
  5
1464
330
1E
100
AcDbEntity
  8
7
100
AcDbLine
 10
7.951771653543307
 20
7.635826771653543
 30
0.0
 11
7.969488188976377
 21
7.635826771653543
 31
0.0
  0
LINE
  5
1465
330
1E
100
AcDbEntity
  8
7
100
AcDbLine
 10
7.961614173228346
 20
7.724409448818897
 30
0.0
 11
7.961614173228346
 21
7.635826771653543
 31
0.0
  0
LINE
  5
1466
330
1E
100
AcDbEntity
  8
7
100
AcDbLine
 10
7.951771653543307
 20
7.724409448818897
 30
0.0
 11
7.969488188976377
 21
7.724409448818897
 31
0.0
  0
LINE
  5
1467
330
1E
100
AcDbEntity
  8
7
100
AcDbLine
 10
8.060039370078738
 20
7.724409448818897
 30
0.0
 11
8.060039370078738
 21
7.635826771653543
 31
0.0
  0
LINE
  5
1468
330
1E
100
AcDbEntity
  8
7
100
AcDbLine
 10
8.095472440944881
 20
7.724409448818897
 30
0.0
 11
8.023622047244094
 21
7.724409448818897
 31
0.0
  0
LWPOLYLINE
  5
1469
330
1E
100
AcDbEntity
  8
7
100
AcDbPolyline
 90
        7
 70
     0
 43
0.0098425196850394
 10
8.220472440944881
 20
7.635826771653543
 10
8.220472440944881
 20
7.724409448818897
 10
8.273622047244094
 20
7.724409448818897
 10
8.291338582677164
 20
7.716535433070865
 10
8.291338582677164
 20
7.688976377952755
 10
8.272637795275588
 20
7.681102362204724
 10
8.220472440944881
 20
7.681102362204724
  0
LINE
  5
1472
330
1E
100
AcDbEntity
  8
7
100
AcDbLine
 10
8.389763779527557
 20
7.724409448818897
 30
0.0
 11
8.31791338582677
 21
7.635826771653543
 31
0.0
  0
LWPOLYLINE
  5
1473
330
1E
100
AcDbEntity
  8
7
100
AcDbPolyline
 90
        4
 70
     0
 43
0.0098425196850394
 10
8.416338582677164
 20
7.635826771653543
 10
8.416338582677164
 20
7.724409448818897
 10
8.487204724409448
 20
7.635826771653543
 10
8.487204724409448
 20
7.724409448818897
  0
LWPOLYLINE
  5
1809
330
1E
100
AcDbEntity
  8
7
100
AcDbPolyline
 90
        5
 70
     0
 43
0.0098425196850394
 10
8.831692913385825
 20
7.384842519685039
 10
8.8503937007874
 20
7.384842519685039
 10
8.8503937007874
 20
7.40255905511811
 10
8.831692913385825
 20
7.40255905511811
 10
8.831692913385825
 20
7.384842519685039
  0
LWPOLYLINE
  5
1810
330
1E
100
AcDbEntity
  8
7
100
AcDbPolyline
 90
        3
 70
     0
 43
0.0098425196850394
 10
8.932086614173227
 20
7.466535433070865
 10
8.939960629921259
 20
7.474409448818897
 10
8.939960629921259
 20
7.384842519685039
  0
LINE
  5
1815
330
1E
100
AcDbEntity
  8
7
100
AcDbLine
 10
8.928149606299211
 20
7.384842519685039
 30
0.0
 11
8.950787401574801
 21
7.384842519685039
 31
0.0
  0
LWPOLYLINE
  5
1816
330
1E
100
AcDbEntity
  8
7
100
AcDbPolyline
 90
       12
 70
     0
 43
0.0098425196850394
 10
9.001968503937007
 20
7.40255905511811
 10
9.018700787401574
 20
7.384842519685039
 10
9.05511811023622
 20
7.384842519685039
 10
9.07283464566929
 20
7.40255905511811
 10
9.07283464566929
 20
7.456692913385826
 10
9.05511811023622
 20
7.474409448818897
 10
9.018700787401574
 20
7.474409448818897
 10
9.001968503937007
 20
7.456692913385826
 10
9.000984251968503
 20
7.438976377952755
 10
9.018700787401574
 20
7.421259842519685
 10
9.05511811023622
 20
7.421259842519685
 10
9.07283464566929
 20
7.438976377952755
  0
LWPOLYLINE
  5
1824
330
1E
100
AcDbEntity
  8
7
100
AcDbPolyline
 90
        3
 70
     0
 43
0.0098425196850394
 10
9.117125984251966
 20
7.43011811023622
 10
9.1003937007874
 20
7.438976377952755
 10
9.1003937007874
 20
7.465551181102362
  0
LWPOLYLINE
  5
1829
330
1E
100
AcDbEntity
  8
7
100
AcDbPolyline
 90
       14
 70
     0
 43
0.0098425196850394
 10
9.1003937007874
 20
7.465551181102362
 10
9.117125984251966
 20
7.474409448818897
 10
9.153543307086613
 20
7.474409448818897
 10
9.171259842519683
 20
7.465551181102362
 10
9.171259842519683
 20
7.438976377952755
 10
9.153543307086613
 20
7.43011811023622
 10
9.117125984251966
 20
7.43011811023622
 10
9.099409448818896
 20
7.421259842519685
 10
9.099409448818896
 20
7.394685039370078
 10
9.117125984251966
 20
7.384842519685039
 10
9.153543307086613
 20
7.384842519685039
 10
9.171259842519683
 20
7.393700787401574
 10
9.171259842519683
 20
7.421259842519685
 10
9.153543307086613
 20
7.43011811023622
  0
LWPOLYLINE
  5
1839
330
1E
100
AcDbEntity
  8
7
100
AcDbPolyline
 90
        3
 70
     0
 43
0.0098425196850394
 10
9.296259842519683
 20
7.474409448818897
 10
9.296259842519683
 20
7.384842519685039
 10
9.367125984251966
 20
7.384842519685039
  0
LWPOLYLINE
  5
183E
330
1E
100
AcDbEntity
  8
7
100
AcDbPolyline
 90
       12
 70
     0
 43
0.0098425196850394
 10
9.394685039370077
 20
7.438976377952755
 10
9.394685039370077
 20
7.474409448818897
 10
9.44783464566929
 20
7.474409448818897
 10
9.455708661417322
 20
7.465551181102362
 10
9.455708661417322
 20
7.447834645669291
 10
9.44783464566929
 20
7.438976377952755
 10
9.394685039370077
 20
7.438976377952755
 10
9.394685039370077
 20
7.384842519685039
 10
9.446850393700787
 20
7.384842519685039
 10
9.464566929133857
 20
7.393700787401574
 10
9.464566929133857
 20
7.43011811023622
 10
9.44783464566929
 20
7.438976377952755
  0
LINE
  5
184C
330
1E
100
AcDbEntity
  8
7
100
AcDbLine
 10
9.563976377952755
 20
7.474409448818897
 30
0.0
 11
9.492125984251966
 21
7.384842519685039
 31
0.0
  0
LWPOLYLINE
  5
184D
330
1E
100
AcDbEntity
  8
7
100
AcDbPolyline
 90
        3
 70
     0
 43
0.0098425196850394
 10
9.618110236220472
 20
7.466535433070865
 10
9.625984251968503
 20
7.474409448818897
 10
9.625984251968503
 20
7.384842519685039
  0
LINE
  5
1852
330
1E
100
AcDbEntity
  8
7
100
AcDbLine
 10
9.615157480314959
 20
7.384842519685039
 30
0.0
 11
9.636811023622046
 21
7.384842519685039
 31
0.0
  0
LWPOLYLINE
  5
1853
330
1E
100
AcDbEntity
  8
7
100
AcDbPolyline
 90
        8
 70
     0
 43
0.0098425196850394
 10
9.732283464566927
 20
7.384842519685039
 10
9.749999999999998
 20
7.394685039370078
 10
9.759842519685038
 20
7.421259842519685
 10
9.759842519685038
 20
7.438976377952755
 10
9.749999999999998
 20
7.465551181102362
 10
9.732283464566927
 20
7.474409448818897
 10
9.714566929133857
 20
7.474409448818897
 10
9.696850393700787
 20
7.465551181102362
  0
LWPOLYLINE
  5
185D
330
1E
100
AcDbEntity
  8
7
100
AcDbPolyline
 90
        6
 70
     0
 43
0.0098425196850394
 10
9.696850393700787
 20
7.465551181102362
 10
9.687007874015746
 20
7.438976377952755
 10
9.687992125984251
 20
7.421259842519685
 10
9.696850393700787
 20
7.394685039370078
 10
9.714566929133857
 20
7.384842519685039
 10
9.732283464566927
 20
7.384842519685039
  0
LWPOLYLINE
  5
1865
330
1E
100
AcDbEntity
  8
7
100
AcDbPolyline
 90
        7
 70
     0
 43
0.0098425196850394
 10
9.884842519685038
 20
7.384842519685039
 10
9.884842519685038
 20
7.474409448818897
 10
9.937992125984251
 20
7.474409448818897
 10
9.955708661417322
 20
7.465551181102362
 10
9.955708661417322
 20
7.438976377952755
 10
9.937007874015746
 20
7.43011811023622
 10
9.884842519685038
 20
7.43011811023622
  0
LWPOLYLINE
  5
186E
330
1E
100
AcDbEntity
  8
7
100
AcDbPolyline
 90
        8
 70
     0
 43
0.0098425196850394
 10
10.05314960629921
 20
7.40255905511811
 10
10.03543307086614
 20
7.384842519685039
 10
9.999999999999998
 20
7.384842519685039
 10
9.982283464566927
 20
7.40255905511811
 10
9.982283464566927
 20
7.456692913385826
 10
9.999999999999998
 20
7.474409448818897
 10
10.03641732283464
 20
7.474409448818897
 10
10.05413385826771
 20
7.456692913385826
  0
LWPOLYLINE
  5
1878
330
1E
100
AcDbEntity
  8
7
100
AcDbPolyline
 90
        7
 70
     0
 43
0.0098425196850394
 10
10.07972440944881
 20
7.393700787401574
 10
10.09744094488189
 20
7.384842519685039
 10
10.13385826771653
 20
7.384842519685039
 10
10.1515748031496
 20
7.394685039370078
 10
10.1515748031496
 20
7.421259842519685
 10
10.13385826771653
 20
7.43011811023622
 10
10.09842519685039
 20
7.43011811023622
  0
LWPOLYLINE
  5
1881
330
1E
100
AcDbEntity
  8
7
100
AcDbPolyline
 90
        6
 70
     0
 43
0.0098425196850394
 10
10.09842519685039
 20
7.43011811023622
 10
10.07972440944881
 20
7.438976377952755
 10
10.07972440944881
 20
7.465551181102362
 10
10.09842519685039
 20
7.474409448818897
 10
10.13385826771653
 20
7.474409448818897
 10
10.1515748031496
 20
7.465551181102362
  0
LWPOLYLINE
  5
1889
330
1E
100
AcDbEntity
  8
7
100
AcDbPolyline
 90
        4
 70
     0
 43
0.0098425196850394
 10
8.898622047244094
 20
7.25
 10
8.888779527559053
 20
7.267716535433071
 10
8.888779527559053
 20
7.321850393700787
 10
8.898622047244094
 20
7.339566929133858
  0
LWPOLYLINE
  5
188F
330
1E
100
AcDbEntity
  8
7
100
AcDbPolyline
 90
        5
 70
     0
 43
0.0098425196850394
 10
8.952755905511809
 20
7.267716535433071
 10
8.969488188976377
 20
7.25
 10
9.005905511811022
 20
7.25
 10
9.023622047244094
 20
7.267716535433071
 10
9.023622047244094
 20
7.321850393700787
  0
LWPOLYLINE
  5
1896
330
1E
100
AcDbEntity
  8
7
100
AcDbPolyline
 90
        8
 70
     0
 43
0.0098425196850394
 10
9.023622047244094
 20
7.321850393700787
 10
9.005905511811022
 20
7.339566929133858
 10
8.969488188976377
 20
7.339566929133858
 10
8.952755905511809
 20
7.321850393700787
 10
8.951771653543305
 20
7.303149606299212
 10
8.969488188976377
 20
7.285433070866141
 10
9.005905511811022
 20
7.285433070866141
 10
9.023622047244094
 20
7.303149606299212
  0
LWPOLYLINE
  5
18A0
330
1E
100
AcDbEntity
  8
7
100
AcDbPolyline
 90
        7
 70
     0
 43
0.0098425196850394
 10
9.094488188976377
 20
7.25
 10
9.112204724409448
 20
7.259842519685039
 10
9.122047244094487
 20
7.285433070866141
 10
9.122047244094487
 20
7.303149606299212
 10
9.112204724409448
 20
7.330708661417323
 10
9.094488188976377
 20
7.339566929133858
 10
9.076771653543305
 20
7.339566929133858
  0
LWPOLYLINE
  5
18A9
330
1E
100
AcDbEntity
  8
7
100
AcDbPolyline
 90
        7
 70
     0
 43
0.0098425196850394
 10
9.076771653543305
 20
7.339566929133858
 10
9.059055118110235
 20
7.330708661417323
 10
9.049212598425196
 20
7.303149606299212
 10
9.0501968503937
 20
7.285433070866141
 10
9.059055118110235
 20
7.259842519685039
 10
9.076771653543305
 20
7.25
 10
9.094488188976377
 20
7.25
  0
LWPOLYLINE
  5
18B2
330
1E
100
AcDbEntity
  8
7
100
AcDbPolyline
 90
        9
 70
     0
 43
0.0098425196850394
 10
9.247047244094487
 20
7.240157480314961
 10
9.24803149606299
 20
7.230314960629921
 10
9.255905511811022
 20
7.223425196850393
 10
9.26279527559055
 20
7.221456692913386
 10
9.301181102362203
 20
7.221456692913386
 10
9.307086614173227
 20
7.223425196850393
 10
9.314960629921259
 20
7.230314960629921
 10
9.316929133858266
 20
7.237204724409449
 10
9.316929133858266
 20
7.286417322834645
  0
LWPOLYLINE
  5
18BD
330
1E
100
AcDbEntity
  8
7
100
AcDbPolyline
 90
       16
 70
     0
 43
0.0098425196850394
 10
9.316929133858266
 20
7.286417322834645
 10
9.311023622047242
 20
7.298228346456692
 10
9.301181102362203
 20
7.306102362204724
 10
9.287401574803148
 20
7.309055118110236
 10
9.275590551181101
 20
7.309055118110236
 10
9.26279527559055
 20
7.306102362204724
 10
9.251968503937007
 20
7.298228346456692
 10
9.247047244094487
 20
7.286417322834645
 10
9.247047244094487
 20
7.273622047244094
 10
9.251968503937007
 20
7.261811023622047
 10
9.26279527559055
 20
7.252952755905512
 10
9.275590551181101
 20
7.25
 10
9.287401574803148
 20
7.25
 10
9.301181102362203
 20
7.252952755905512
 10
9.311023622047242
 20
7.261811023622047
 10
9.316929133858266
 20
7.273622047244094
  0
LINE
  5
18CF
330
1E
100
AcDbEntity
  8
7
100
AcDbLine
 10
9.416338582677164
 20
7.339566929133858
 30
0.0
 11
9.344488188976377
 21
7.25
 31
0.0
  0
LWPOLYLINE
  5
18D0
330
1E
100
AcDbEntity
  8
7
100
AcDbPolyline
 90
        3
 70
     0
 43
0.0098425196850394
 10
9.470472440944881
 20
7.331692913385826
 10
9.478346456692912
 20
7.339566929133858
 10
9.478346456692912
 20
7.25
  0
LINE
  5
18D5
330
1E
100
AcDbEntity
  8
7
100
AcDbLine
 10
9.467519685039368
 20
7.25
 30
0.0
 11
9.489173228346455
 21
7.25
 31
0.0
  0
LWPOLYLINE
  5
18D6
330
1E
100
AcDbEntity
  8
7
100
AcDbPolyline
 90
        7
 70
     0
 43
0.0098425196850394
 10
9.584645669291337
 20
7.25
 10
9.602362204724409
 20
7.259842519685039
 10
9.612204724409448
 20
7.285433070866141
 10
9.612204724409448
 20
7.303149606299212
 10
9.602362204724409
 20
7.330708661417323
 10
9.584645669291337
 20
7.339566929133858
 10
9.566929133858266
 20
7.339566929133858
  0
LWPOLYLINE
  5
18DF
330
1E
100
AcDbEntity
  8
7
100
AcDbPolyline
 90
        7
 70
     0
 43
0.0098425196850394
 10
9.566929133858266
 20
7.339566929133858
 10
9.549212598425196
 20
7.330708661417323
 10
9.539370078740157
 20
7.303149606299212
 10
9.540354330708661
 20
7.285433070866141
 10
9.549212598425196
 20
7.259842519685039
 10
9.566929133858266
 20
7.25
 10
9.584645669291337
 20
7.25
  0
LWPOLYLINE
  5
18E8
330
1E
100
AcDbEntity
  8
7
100
AcDbPolyline
 90
        7
 70
     0
 43
0.0098425196850394
 10
9.737204724409448
 20
7.25
 10
9.737204724409448
 20
7.339566929133858
 10
9.790354330708661
 20
7.339566929133858
 10
9.808070866141731
 20
7.330708661417323
 10
9.808070866141731
 20
7.303149606299212
 10
9.789370078740157
 20
7.295275590551181
 10
9.737204724409448
 20
7.295275590551181
  0
LWPOLYLINE
  5
18F1
330
1E
100
AcDbEntity
  8
7
100
AcDbPolyline
 90
        8
 70
     0
 43
0.0098425196850394
 10
9.90551181102362
 20
7.267716535433071
 10
9.88779527559055
 20
7.25
 10
9.852362204724409
 20
7.25
 10
9.834645669291337
 20
7.267716535433071
 10
9.834645669291337
 20
7.321850393700787
 10
9.852362204724409
 20
7.339566929133858
 10
9.888779527559053
 20
7.339566929133858
 10
9.906496062992125
 20
7.321850393700787
  0
LWPOLYLINE
  5
18FB
330
1E
100
AcDbEntity
  8
7
100
AcDbPolyline
 90
        6
 70
     0
 43
0.0098425196850394
 10
9.932086614173227
 20
7.258858267716535
 10
9.949803149606298
 20
7.25
 10
9.986220472440944
 20
7.25
 10
10.00393700787401
 20
7.259842519685039
 10
10.00393700787401
 20
7.285433070866141
 10
9.986220472440944
 20
7.295275590551181
  0
LWPOLYLINE
  5
1903
330
1E
100
AcDbEntity
  8
7
100
AcDbPolyline
 90
        7
 70
     0
 43
0.0098425196850394
 10
9.986220472440944
 20
7.295275590551181
 10
9.950787401574801
 20
7.295275590551181
 10
9.932086614173227
 20
7.303149606299212
 10
9.932086614173227
 20
7.330708661417323
 10
9.950787401574801
 20
7.339566929133858
 10
9.986220472440944
 20
7.339566929133858
 10
10.00393700787401
 20
7.330708661417323
  0
LWPOLYLINE
  5
190C
330
1E
100
AcDbEntity
  8
7
100
AcDbPolyline
 90
        4
 70
     0
 43
0.0098425196850394
 10
10.05708661417322
 20
7.25
 10
10.06594488188976
 20
7.267716535433071
 10
10.06692913385826
 20
7.321850393700787
 10
10.05708661417322
 20
7.339566929133858
  0
LINE
  5
19B4
330
1E
100
AcDbEntity
  8
3
100
AcDbLine
 10
2.291338582677165
 20
4.315944881889763
 30
0.0
 11
2.884842519685039
 21
4.315944881889763
 31
0.0
  0
LINE
  5
19B5
330
1E
100
AcDbEntity
  8
3
100
AcDbLine
 10
2.915354330708661
 20
4.315944881889763
 30
0.0
 11
2.975393700787401
 21
4.315944881889763
 31
0.0
  0
LINE
  5
19B6
330
1E
100
AcDbEntity
  8
3
100
AcDbLine
 10
3.004921259842519
 20
4.315944881889763
 30
0.0
 11
3.598425196850393
 21
4.315944881889763
 31
0.0
  0
LINE
  5
19B7
330
1E
100
AcDbEntity
  8
3
100
AcDbLine
 10
3.627952755905512
 20
4.315944881889763
 30
0.0
 11
3.687992125984251
 21
4.315944881889763
 31
0.0
  0
LINE
  5
19B8
330
1E
100
AcDbEntity
  8
3
100
AcDbLine
 10
3.718503937007874
 20
4.315944881889763
 30
0.0
 11
4.312007874015748
 21
4.315944881889763
 31
0.0
  0
LINE
  5
19B9
330
1E
100
AcDbEntity
  8
3
100
AcDbLine
 10
2.291338582677165
 20
4.315944881889763
 30
0.0
 11
2.231299212598425
 21
4.315944881889763
 31
0.0
  0
LINE
  5
19BA
330
1E
100
AcDbEntity
  8
3
100
AcDbLine
 10
4.312007874015748
 20
4.315944881889763
 30
0.0
 11
4.372047244094487
 21
4.315944881889763
 31
0.0
  0
LINE
  5
19BB
330
1E
100
AcDbEntity
  8
3
100
AcDbLine
 10
2.201771653543307
 20
4.315944881889763
 30
0.0
 11
2.166338582677165
 21
4.315944881889763
 31
0.0
  0
LINE
  5
19BC
330
1E
100
AcDbEntity
  8
3
100
AcDbLine
 10
4.401574803149606
 20
4.315944881889763
 30
0.0
 11
4.437007874015748
 21
4.315944881889763
 31
0.0
  0
LINE
  5
19BD
330
1E
100
AcDbEntity
  8
3
100
AcDbLine
 10
2.322834645669291
 20
4.343503937007874
 30
0.0
 11
2.322834645669291
 21
4.288385826771653
 31
0.0
  0
LINE
  5
19BE
330
1E
100
AcDbEntity
  8
3
100
AcDbLine
 10
2.322834645669291
 20
4.343503937007874
 30
0.0
 11
2.322834645669291
 21
4.403543307086613
 31
0.0
  0
LINE
  5
19BF
330
1E
100
AcDbEntity
  8
3
100
AcDbLine
 10
2.322834645669291
 20
4.288385826771653
 30
0.0
 11
2.322834645669291
 21
4.228346456692913
 31
0.0
  0
LINE
  5
19C0
330
1E
100
AcDbEntity
  8
3
100
AcDbLine
 10
2.322834645669291
 20
4.433070866141732
 30
0.0
 11
2.322834645669291
 21
4.468503937007874
 31
0.0
  0
LINE
  5
19C1
330
1E
100
AcDbEntity
  8
3
100
AcDbLine
 10
2.322834645669291
 20
4.198818897637795
 30
0.0
 11
2.322834645669291
 21
4.163385826771653
 31
0.0
  0
LINE
  5
19C2
330
1E
100
AcDbEntity
  8
3
100
AcDbLine
 10
4.280511811023622
 20
4.343503937007874
 30
0.0
 11
4.280511811023622
 21
4.288385826771653
 31
0.0
  0
LINE
  5
19C3
330
1E
100
AcDbEntity
  8
3
100
AcDbLine
 10
4.280511811023622
 20
4.343503937007874
 30
0.0
 11
4.280511811023622
 21
4.403543307086613
 31
0.0
  0
LINE
  5
19C4
330
1E
100
AcDbEntity
  8
3
100
AcDbLine
 10
4.280511811023622
 20
4.288385826771653
 30
0.0
 11
4.280511811023622
 21
4.228346456692913
 31
0.0
  0
LINE
  5
19C5
330
1E
100
AcDbEntity
  8
3
100
AcDbLine
 10
4.280511811023622
 20
4.433070866141732
 30
0.0
 11
4.280511811023622
 21
4.468503937007874
 31
0.0
  0
LINE
  5
19C6
330
1E
100
AcDbEntity
  8
3
100
AcDbLine
 10
4.280511811023622
 20
4.198818897637795
 30
0.0
 11
4.280511811023622
 21
4.163385826771653
 31
0.0
  0
LINE
  5
19C7
330
1E
100
AcDbEntity
  8
3
100
AcDbLine
 10
2.322834645669291
 20
6.431102362204724
 30
0.0
 11
2.322834645669291
 21
6.299212598425197
 31
0.0
  0
LINE
  5
19C8
330
1E
100
AcDbEntity
  8
3
100
AcDbLine
 10
2.322834645669291
 20
6.268700787401574
 30
0.0
 11
2.322834645669291
 21
6.208661417322834
 31
0.0
  0
LINE
  5
19C9
330
1E
100
AcDbEntity
  8
3
100
AcDbLine
 10
2.322834645669291
 20
6.179133858267716
 30
0.0
 11
2.322834645669291
 21
6.046259842519685
 31
0.0
  0
LINE
  5
19CA
330
1E
100
AcDbEntity
  8
3
100
AcDbLine
 10
2.322834645669291
 20
6.431102362204724
 30
0.0
 11
2.322834645669291
 21
6.491141732283464
 31
0.0
  0
LINE
  5
19CB
330
1E
100
AcDbEntity
  8
3
100
AcDbLine
 10
2.322834645669291
 20
6.046259842519685
 30
0.0
 11
2.322834645669291
 21
5.986220472440945
 31
0.0
  0
LINE
  5
19CC
330
1E
100
AcDbEntity
  8
3
100
AcDbLine
 10
2.322834645669291
 20
6.521653543307087
 30
0.0
 11
2.322834645669291
 21
6.556102362204724
 31
0.0
  0
LINE
  5
19CD
330
1E
100
AcDbEntity
  8
3
100
AcDbLine
 10
2.322834645669291
 20
5.956692913385826
 30
0.0
 11
2.322834645669291
 21
5.921259842519685
 31
0.0
  0
LINE
  5
19CE
330
1E
100
AcDbEntity
  8
3
100
AcDbLine
 10
4.280511811023622
 20
6.431102362204724
 30
0.0
 11
4.280511811023622
 21
6.299212598425197
 31
0.0
  0
LINE
  5
19CF
330
1E
100
AcDbEntity
  8
3
100
AcDbLine
 10
4.280511811023622
 20
6.268700787401574
 30
0.0
 11
4.280511811023622
 21
6.208661417322834
 31
0.0
  0
LINE
  5
19D0
330
1E
100
AcDbEntity
  8
3
100
AcDbLine
 10
4.280511811023622
 20
6.179133858267716
 30
0.0
 11
4.280511811023622
 21
6.046259842519685
 31
0.0
  0
LINE
  5
19D1
330
1E
100
AcDbEntity
  8
3
100
AcDbLine
 10
4.280511811023622
 20
6.431102362204724
 30
0.0
 11
4.280511811023622
 21
6.491141732283464
 31
0.0
  0
LINE
  5
19D2
330
1E
100
AcDbEntity
  8
3
100
AcDbLine
 10
4.280511811023622
 20
6.046259842519685
 30
0.0
 11
4.280511811023622
 21
5.986220472440945
 31
0.0
  0
LINE
  5
19D3
330
1E
100
AcDbEntity
  8
3
100
AcDbLine
 10
4.280511811023622
 20
6.521653543307087
 30
0.0
 11
4.280511811023622
 21
6.556102362204724
 31
0.0
  0
LINE
  5
19D4
330
1E
100
AcDbEntity
  8
3
100
AcDbLine
 10
4.280511811023622
 20
5.956692913385826
 30
0.0
 11
4.280511811023622
 21
5.921259842519685
 31
0.0
  0
LWPOLYLINE
  5
19D5
330
1E
100
AcDbEntity
  8
7
100
AcDbPolyline
 90
        4
 70
     0
 43
0.0098425196850394
 10
3.066929133858267
 20
3.202755905511811
 10
3.021653543307086
 20
3.202755905511811
 10
3.021653543307086
 20
3.034448818897637
 10
3.066929133858267
 20
3.034448818897637
  0
LWPOLYLINE
  5
19DB
330
1E
100
AcDbEntity
  8
7
100
AcDbPolyline
 90
        4
 70
     0
 43
0.0098425196850394
 10
3.536417322834645
 20
3.034448818897637
 10
3.581692913385826
 20
3.034448818897637
 10
3.581692913385826
 20
3.202755905511811
 10
3.536417322834645
 20
3.202755905511811
  0
LINE
  5
19E1
330
1E
100
AcDbEntity
  8
3
100
AcDbLine
 10
2.226377952755905
 20
3.936023622047244
 30
0.0
 11
2.226377952755905
 21
3.213582677165354
 31
0.0
  0
LINE
  5
19E2
330
1E
100
AcDbEntity
  8
3
100
AcDbLine
 10
4.376968503937008
 20
3.936023622047244
 30
0.0
 11
4.376968503937008
 21
3.213582677165354
 31
0.0
  0
LINE
  5
19E3
330
1E
100
AcDbEntity
  8
3
100
AcDbLine
 10
2.226377952755905
 20
3.338582677165354
 30
0.0
 11
2.958661417322834
 21
3.338582677165354
 31
0.0
  0
LINE
  5
19E4
330
1E
100
AcDbEntity
  8
3
100
AcDbLine
 10
4.376968503937008
 20
3.338582677165354
 30
0.0
 11
3.46751968503937
 21
3.338582677165354
 31
0.0
  0
LWPOLYLINE
  5
19E5
330
1E
100
AcDbEntity
  8
7
100
AcDbPolyline
 90
        4
 70
     0
 43
0.0098425196850394
 10
3.102362204724409
 20
3.328740157480315
 10
3.030511811023622
 20
3.328740157480315
 10
3.084645669291338
 20
3.381889763779527
 10
3.084645669291338
 20
3.293307086614173
  0
LWPOLYLINE
  5
19EB
330
1E
100
AcDbEntity
  8
7
100
AcDbPolyline
 90
        5
 70
     0
 43
0.0098425196850394
 10
3.155511811023622
 20
3.293307086614173
 10
3.173228346456693
 20
3.293307086614173
 10
3.173228346456693
 20
3.311023622047243
 10
3.155511811023622
 20
3.311023622047243
 10
3.155511811023622
 20
3.293307086614173
  0
LWPOLYLINE
  5
19F2
330
1E
100
AcDbEntity
  8
7
100
AcDbPolyline
 90
        7
 70
     0
 43
0.0098425196850394
 10
3.227362204724409
 20
3.301181102362204
 10
3.244094488188976
 20
3.293307086614173
 10
3.280511811023622
 20
3.293307086614173
 10
3.298228346456693
 20
3.301181102362204
 10
3.298228346456693
 20
3.328740157480315
 10
3.280511811023622
 20
3.338582677165354
 10
3.252952755905512
 20
3.338582677165354
  0
LWPOLYLINE
  5
19FB
330
1E
100
AcDbEntity
  8
7
100
AcDbPolyline
 90
        4
 70
     0
 43
0.0098425196850394
 10
3.280511811023622
 20
3.338582677165354
 10
3.298228346456693
 20
3.346456692913386
 10
3.298228346456693
 20
3.374015748031496
 10
3.280511811023622
 20
3.381889763779527
  0
LWPOLYLINE
  5
1A01
330
1E
100
AcDbEntity
  8
7
100
AcDbPolyline
 90
        3
 70
     0
 43
0.0098425196850394
 10
3.280511811023622
 20
3.381889763779527
 10
3.244094488188976
 20
3.381889763779527
 10
3.226377952755905
 20
3.374015748031496
  0
LWPOLYLINE
  5
1A06
330
1E
100
AcDbEntity
  8
7
100
AcDbPolyline
 90
       12
 70
     0
 43
0.0098425196850394
 10
3.369094488188976
 20
3.293307086614173
 10
3.386811023622047
 20
3.302165354330708
 10
3.396653543307086
 20
3.328740157480315
 10
3.396653543307086
 20
3.346456692913386
 10
3.386811023622047
 20
3.374015748031496
 10
3.369094488188976
 20
3.381889763779527
 10
3.351377952755905
 20
3.381889763779527
 10
3.333661417322834
 20
3.374015748031496
 10
3.323818897637795
 20
3.346456692913386
 10
3.324803149606299
 20
3.328740157480315
 10
3.333661417322834
 20
3.302165354330708
 10
3.351377952755905
 20
3.293307086614173
  0
LINE
  5
1A14
330
1E
100
AcDbEntity
  8
7
100
AcDbLine
 10
3.351377952755905
 20
3.293307086614173
 30
0.0
 11
3.369094488188976
 21
3.293307086614173
 31
0.0
  0
LWPOLYLINE
  5
1A15
330
1E
100
AcDbEntity
  8
7
100
AcDbPolyline
 90
        3
 70
     0
 43
0.0098425196850394
 10
3.098425196850393
 20
3.155511811023622
 10
3.106299212598425
 20
3.162401574803149
 10
3.106299212598425
 20
3.073818897637795
  0
LINE
  5
1A1A
330
1E
100
AcDbEntity
  8
7
100
AcDbLine
 10
3.094488188976378
 20
3.073818897637795
 30
0.0
 11
3.117125984251968
 21
3.073818897637795
 31
0.0
  0
LWPOLYLINE
  5
1A1B
330
1E
100
AcDbEntity
  8
7
100
AcDbPolyline
 90
        8
 70
     0
 43
0.0098425196850394
 10
3.21259842519685
 20
3.073818897637795
 10
3.230314960629921
 20
3.083661417322834
 10
3.24015748031496
 20
3.109251968503937
 10
3.24015748031496
 20
3.126968503937007
 10
3.230314960629921
 20
3.154527559055118
 10
3.21259842519685
 20
3.162401574803149
 10
3.194881889763779
 20
3.162401574803149
 10
3.177165354330708
 20
3.154527559055118
  0
LWPOLYLINE
  5
1A25
330
1E
100
AcDbEntity
  8
7
100
AcDbPolyline
 90
        6
 70
     0
 43
0.0098425196850394
 10
3.177165354330708
 20
3.154527559055118
 10
3.167322834645669
 20
3.126968503937007
 10
3.168307086614173
 20
3.109251968503937
 10
3.177165354330708
 20
3.083661417322834
 10
3.194881889763779
 20
3.073818897637795
 10
3.21259842519685
 20
3.073818897637795
  0
LWPOLYLINE
  5
1A2D
330
1E
100
AcDbEntity
  8
7
100
AcDbPolyline
 90
        9
 70
     0
 43
0.0098425196850394
 10
3.266732283464567
 20
3.091535433070866
 10
3.283464566929133
 20
3.073818897637795
 10
3.319881889763779
 20
3.073818897637795
 10
3.33759842519685
 20
3.091535433070866
 10
3.33759842519685
 20
3.144685039370078
 10
3.319881889763779
 20
3.162401574803149
 10
3.283464566929133
 20
3.162401574803149
 10
3.266732283464567
 20
3.144685039370078
 10
3.265748031496062
 20
3.126968503937007
  0
LWPOLYLINE
  5
1A38
330
1E
100
AcDbEntity
  8
7
100
AcDbPolyline
 90
        4
 70
     0
 43
0.0098425196850394
 10
3.265748031496062
 20
3.126968503937007
 10
3.283464566929133
 20
3.109251968503937
 10
3.319881889763779
 20
3.109251968503937
 10
3.33759842519685
 20
3.126968503937007
  0
LWPOLYLINE
  5
1A3E
330
1E
100
AcDbEntity
  8
7
100
AcDbPolyline
 90
        5
 70
     0
 43
0.0098425196850394
 10
3.390748031496062
 20
3.073818897637795
 10
3.408464566929133
 20
3.073818897637795
 10
3.408464566929133
 20
3.091535433070866
 10
3.390748031496062
 20
3.091535433070866
 10
3.390748031496062
 20
3.073818897637795
  0
LWPOLYLINE
  5
1A45
330
1E
100
AcDbEntity
  8
7
100
AcDbPolyline
 90
        6
 70
     0
 43
0.0098425196850394
 10
3.46259842519685
 20
3.154527559055118
 10
3.479330708661417
 20
3.162401574803149
 10
3.515748031496062
 20
3.162401574803149
 10
3.533464566929133
 20
3.154527559055118
 10
3.533464566929133
 20
3.136811023622047
 10
3.461614173228346
 20
3.091535433070866
  0
LWPOLYLINE
  5
1A4D
330
1E
100
AcDbEntity
  8
7
100
AcDbPolyline
 90
        3
 70
     0
 43
0.0098425196850394
 10
3.461614173228346
 20
3.091535433070866
 10
3.46259842519685
 20
3.073818897637795
 10
3.533464566929133
 20
3.073818897637795
  0
LWPOLYLINE
  5
1A52
330
1E
100
AcDbEntity
  8
3
100
AcDbPolyline
 90
        4
 70
     0
 43
0.0098425196850394
 10
2.226377952755905
 20
3.338582677165354
 10
2.351377952755905
 20
3.30511811023622
 10
2.351377952755905
 20
3.372047244094488
 10
2.226377952755905
 20
3.338582677165354
  0
LINE
  5
1A58
330
1E
100
AcDbEntity
  8
3
100
AcDbLine
 10
2.351377952755905
 20
3.30511811023622
 30
0.0
 11
2.349409448818897
 21
3.30511811023622
 31
0.0
  0
LINE
  5
1A59
330
1E
100
AcDbEntity
  8
3
100
AcDbLine
 10
2.351377952755905
 20
3.30511811023622
 30
0.0
 11
2.349409448818897
 21
3.30511811023622
 31
0.0
  0
LINE
  5
1A5A
330
1E
100
AcDbEntity
  8
3
100
AcDbLine
 10
2.351377952755905
 20
3.307086614173228
 30
0.0
 11
2.34251968503937
 21
3.307086614173228
 31
0.0
  0
LINE
  5
1A5B
330
1E
100
AcDbEntity
  8
3
100
AcDbLine
 10
2.351377952755905
 20
3.309055118110236
 30
0.0
 11
2.334645669291338
 21
3.309055118110236
 31
0.0
  0
LINE
  5
1A5C
330
1E
100
AcDbEntity
  8
3
100
AcDbLine
 10
2.351377952755905
 20
3.311023622047243
 30
0.0
 11
2.327755905511811
 21
3.311023622047243
 31
0.0
  0
LINE
  5
1A5D
330
1E
100
AcDbEntity
  8
3
100
AcDbLine
 10
2.351377952755905
 20
3.312992125984251
 30
0.0
 11
2.319881889763779
 21
3.312992125984251
 31
0.0
  0
LINE
  5
1A5E
330
1E
100
AcDbEntity
  8
3
100
AcDbLine
 10
2.351377952755905
 20
3.314960629921259
 30
0.0
 11
2.312007874015748
 21
3.314960629921259
 31
0.0
  0
LINE
  5
1A5F
330
1E
100
AcDbEntity
  8
3
100
AcDbLine
 10
2.351377952755905
 20
3.316929133858267
 30
0.0
 11
2.30511811023622
 21
3.316929133858267
 31
0.0
  0
LINE
  5
1A60
330
1E
100
AcDbEntity
  8
3
100
AcDbLine
 10
2.351377952755905
 20
3.318897637795275
 30
0.0
 11
2.297244094488188
 21
3.318897637795275
 31
0.0
  0
LINE
  5
1A61
330
1E
100
AcDbEntity
  8
3
100
AcDbLine
 10
2.351377952755905
 20
3.320866141732283
 30
0.0
 11
2.290354330708661
 21
3.320866141732283
 31
0.0
  0
LINE
  5
1A62
330
1E
100
AcDbEntity
  8
3
100
AcDbLine
 10
2.351377952755905
 20
3.322834645669291
 30
0.0
 11
2.28248031496063
 21
3.322834645669291
 31
0.0
  0
LINE
  5
1A63
330
1E
100
AcDbEntity
  8
3
100
AcDbLine
 10
2.351377952755905
 20
3.324803149606299
 30
0.0
 11
2.275590551181102
 21
3.324803149606299
 31
0.0
  0
LINE
  5
1A64
330
1E
100
AcDbEntity
  8
3
100
AcDbLine
 10
2.351377952755905
 20
3.326771653543307
 30
0.0
 11
2.26771653543307
 21
3.326771653543307
 31
0.0
  0
LINE
  5
1A65
330
1E
100
AcDbEntity
  8
3
100
AcDbLine
 10
2.351377952755905
 20
3.328740157480315
 30
0.0
 11
2.259842519685039
 21
3.328740157480315
 31
0.0
  0
LINE
  5
1A66
330
1E
100
AcDbEntity
  8
3
100
AcDbLine
 10
2.351377952755905
 20
3.330708661417323
 30
0.0
 11
2.252952755905512
 21
3.330708661417323
 31
0.0
  0
LINE
  5
1A67
330
1E
100
AcDbEntity
  8
3
100
AcDbLine
 10
2.351377952755905
 20
3.333661417322834
 30
0.0
 11
2.24507874015748
 21
3.333661417322834
 31
0.0
  0
LINE
  5
1A68
330
1E
100
AcDbEntity
  8
3
100
AcDbLine
 10
2.351377952755905
 20
3.335629921259842
 30
0.0
 11
2.238188976377952
 21
3.335629921259842
 31
0.0
  0
LINE
  5
1A69
330
1E
100
AcDbEntity
  8
3
100
AcDbLine
 10
2.351377952755905
 20
3.33759842519685
 30
0.0
 11
2.230314960629921
 21
3.33759842519685
 31
0.0
  0
LINE
  5
1A6A
330
1E
100
AcDbEntity
  8
3
100
AcDbLine
 10
2.351377952755905
 20
3.371062992125984
 30
0.0
 11
2.349409448818897
 21
3.371062992125984
 31
0.0
  0
LINE
  5
1A6B
330
1E
100
AcDbEntity
  8
3
100
AcDbLine
 10
2.351377952755905
 20
3.371062992125984
 30
0.0
 11
2.349409448818897
 21
3.371062992125984
 31
0.0
  0
LINE
  5
1A6C
330
1E
100
AcDbEntity
  8
3
100
AcDbLine
 10
2.351377952755905
 20
3.369094488188976
 30
0.0
 11
2.34251968503937
 21
3.369094488188976
 31
0.0
  0
LINE
  5
1A6D
330
1E
100
AcDbEntity
  8
3
100
AcDbLine
 10
2.351377952755905
 20
3.367125984251968
 30
0.0
 11
2.334645669291338
 21
3.367125984251968
 31
0.0
  0
LINE
  5
1A6E
330
1E
100
AcDbEntity
  8
3
100
AcDbLine
 10
2.351377952755905
 20
3.36515748031496
 30
0.0
 11
2.327755905511811
 21
3.36515748031496
 31
0.0
  0
LINE
  5
1A6F
330
1E
100
AcDbEntity
  8
3
100
AcDbLine
 10
2.351377952755905
 20
3.363188976377952
 30
0.0
 11
2.319881889763779
 21
3.363188976377952
 31
0.0
  0
LINE
  5
1A70
330
1E
100
AcDbEntity
  8
3
100
AcDbLine
 10
2.351377952755905
 20
3.361220472440944
 30
0.0
 11
2.312007874015748
 21
3.361220472440944
 31
0.0
  0
LINE
  5
1A71
330
1E
100
AcDbEntity
  8
3
100
AcDbLine
 10
2.351377952755905
 20
3.359251968503937
 30
0.0
 11
2.30511811023622
 21
3.359251968503937
 31
0.0
  0
LINE
  5
1A72
330
1E
100
AcDbEntity
  8
3
100
AcDbLine
 10
2.351377952755905
 20
3.357283464566929
 30
0.0
 11
2.297244094488188
 21
3.357283464566929
 31
0.0
  0
LINE
  5
1A73
330
1E
100
AcDbEntity
  8
3
100
AcDbLine
 10
2.351377952755905
 20
3.355314960629921
 30
0.0
 11
2.290354330708661
 21
3.355314960629921
 31
0.0
  0
LINE
  5
1A74
330
1E
100
AcDbEntity
  8
3
100
AcDbLine
 10
2.351377952755905
 20
3.353346456692913
 30
0.0
 11
2.28248031496063
 21
3.353346456692913
 31
0.0
  0
LINE
  5
1A75
330
1E
100
AcDbEntity
  8
3
100
AcDbLine
 10
2.351377952755905
 20
3.351377952755905
 30
0.0
 11
2.275590551181102
 21
3.351377952755905
 31
0.0
  0
LINE
  5
1A76
330
1E
100
AcDbEntity
  8
3
100
AcDbLine
 10
2.351377952755905
 20
3.349409448818897
 30
0.0
 11
2.26771653543307
 21
3.349409448818897
 31
0.0
  0
LINE
  5
1A77
330
1E
100
AcDbEntity
  8
3
100
AcDbLine
 10
2.351377952755905
 20
3.347440944881889
 30
0.0
 11
2.259842519685039
 21
3.347440944881889
 31
0.0
  0
LINE
  5
1A78
330
1E
100
AcDbEntity
  8
3
100
AcDbLine
 10
2.351377952755905
 20
3.345472440944881
 30
0.0
 11
2.252952755905512
 21
3.345472440944881
 31
0.0
  0
LINE
  5
1A79
330
1E
100
AcDbEntity
  8
3
100
AcDbLine
 10
2.351377952755905
 20
3.343503937007874
 30
0.0
 11
2.24507874015748
 21
3.343503937007874
 31
0.0
  0
LINE
  5
1A7A
330
1E
100
AcDbEntity
  8
3
100
AcDbLine
 10
2.351377952755905
 20
3.341535433070866
 30
0.0
 11
2.238188976377952
 21
3.341535433070866
 31
0.0
  0
LINE
  5
1A7B
330
1E
100
AcDbEntity
  8
3
100
AcDbLine
 10
2.351377952755905
 20
3.339566929133858
 30
0.0
 11
2.230314960629921
 21
3.339566929133858
 31
0.0
  0
LWPOLYLINE
  5
1A7C
330
1E
100
AcDbEntity
  8
3
100
AcDbPolyline
 90
        4
 70
     0
 43
0.0098425196850394
 10
4.376968503937008
 20
3.338582677165354
 10
4.251968503937008
 20
3.372047244094488
 10
4.251968503937008
 20
3.30511811023622
 10
4.376968503937008
 20
3.338582677165354
  0
LINE
  5
1A82
330
1E
100
AcDbEntity
  8
3
100
AcDbLine
 10
4.251968503937008
 20
3.371062992125984
 30
0.0
 11
4.253937007874015
 21
3.371062992125984
 31
0.0
  0
LINE
  5
1A83
330
1E
100
AcDbEntity
  8
3
100
AcDbLine
 10
4.251968503937008
 20
3.371062992125984
 30
0.0
 11
4.253937007874015
 21
3.371062992125984
 31
0.0
  0
LINE
  5
1A84
330
1E
100
AcDbEntity
  8
3
100
AcDbLine
 10
4.251968503937008
 20
3.369094488188976
 30
0.0
 11
4.260826771653543
 21
3.369094488188976
 31
0.0
  0
LINE
  5
1A85
330
1E
100
AcDbEntity
  8
3
100
AcDbLine
 10
4.251968503937008
 20
3.367125984251968
 30
0.0
 11
4.268700787401574
 21
3.367125984251968
 31
0.0
  0
LINE
  5
1A86
330
1E
100
AcDbEntity
  8
3
100
AcDbLine
 10
4.251968503937008
 20
3.36515748031496
 30
0.0
 11
4.275590551181102
 21
3.36515748031496
 31
0.0
  0
LINE
  5
1A87
330
1E
100
AcDbEntity
  8
3
100
AcDbLine
 10
4.251968503937008
 20
3.363188976377952
 30
0.0
 11
4.283464566929134
 21
3.363188976377952
 31
0.0
  0
LINE
  5
1A88
330
1E
100
AcDbEntity
  8
3
100
AcDbLine
 10
4.251968503937008
 20
3.361220472440944
 30
0.0
 11
4.290354330708661
 21
3.361220472440944
 31
0.0
  0
LINE
  5
1A89
330
1E
100
AcDbEntity
  8
3
100
AcDbLine
 10
4.251968503937008
 20
3.359251968503937
 30
0.0
 11
4.298228346456692
 21
3.359251968503937
 31
0.0
  0
LINE
  5
1A8A
330
1E
100
AcDbEntity
  8
3
100
AcDbLine
 10
4.251968503937008
 20
3.357283464566929
 30
0.0
 11
4.306102362204724
 21
3.357283464566929
 31
0.0
  0
LINE
  5
1A8B
330
1E
100
AcDbEntity
  8
3
100
AcDbLine
 10
4.251968503937008
 20
3.355314960629921
 30
0.0
 11
4.312992125984251
 21
3.355314960629921
 31
0.0
  0
LINE
  5
1A8C
330
1E
100
AcDbEntity
  8
3
100
AcDbLine
 10
4.251968503937008
 20
3.353346456692913
 30
0.0
 11
4.320866141732283
 21
3.353346456692913
 31
0.0
  0
LINE
  5
1A8D
330
1E
100
AcDbEntity
  8
3
100
AcDbLine
 10
4.251968503937008
 20
3.351377952755905
 30
0.0
 11
4.327755905511811
 21
3.351377952755905
 31
0.0
  0
LINE
  5
1A8E
330
1E
100
AcDbEntity
  8
3
100
AcDbLine
 10
4.251968503937008
 20
3.349409448818897
 30
0.0
 11
4.335629921259842
 21
3.349409448818897
 31
0.0
  0
LINE
  5
1A8F
330
1E
100
AcDbEntity
  8
3
100
AcDbLine
 10
4.251968503937008
 20
3.347440944881889
 30
0.0
 11
4.343503937007874
 21
3.347440944881889
 31
0.0
  0
LINE
  5
1A90
330
1E
100
AcDbEntity
  8
3
100
AcDbLine
 10
4.251968503937008
 20
3.345472440944881
 30
0.0
 11
4.350393700787401
 21
3.345472440944881
 31
0.0
  0
LINE
  5
1A91
330
1E
100
AcDbEntity
  8
3
100
AcDbLine
 10
4.251968503937008
 20
3.343503937007874
 30
0.0
 11
4.358267716535433
 21
3.343503937007874
 31
0.0
  0
LINE
  5
1A92
330
1E
100
AcDbEntity
  8
3
100
AcDbLine
 10
4.251968503937008
 20
3.341535433070866
 30
0.0
 11
4.365157480314961
 21
3.341535433070866
 31
0.0
  0
LINE
  5
1A93
330
1E
100
AcDbEntity
  8
3
100
AcDbLine
 10
4.251968503937008
 20
3.339566929133858
 30
0.0
 11
4.373031496062992
 21
3.339566929133858
 31
0.0
  0
LINE
  5
1A94
330
1E
100
AcDbEntity
  8
3
100
AcDbLine
 10
4.251968503937008
 20
3.30511811023622
 30
0.0
 11
4.253937007874015
 21
3.30511811023622
 31
0.0
  0
LINE
  5
1A95
330
1E
100
AcDbEntity
  8
3
100
AcDbLine
 10
4.251968503937008
 20
3.30511811023622
 30
0.0
 11
4.253937007874015
 21
3.30511811023622
 31
0.0
  0
LINE
  5
1A96
330
1E
100
AcDbEntity
  8
3
100
AcDbLine
 10
4.251968503937008
 20
3.307086614173228
 30
0.0
 11
4.260826771653543
 21
3.307086614173228
 31
0.0
  0
LINE
  5
1A97
330
1E
100
AcDbEntity
  8
3
100
AcDbLine
 10
4.251968503937008
 20
3.309055118110236
 30
0.0
 11
4.268700787401574
 21
3.309055118110236
 31
0.0
  0
LINE
  5
1A98
330
1E
100
AcDbEntity
  8
3
100
AcDbLine
 10
4.251968503937008
 20
3.311023622047243
 30
0.0
 11
4.275590551181102
 21
3.311023622047243
 31
0.0
  0
LINE
  5
1A99
330
1E
100
AcDbEntity
  8
3
100
AcDbLine
 10
4.251968503937008
 20
3.312992125984251
 30
0.0
 11
4.283464566929134
 21
3.312992125984251
 31
0.0
  0
LINE
  5
1A9A
330
1E
100
AcDbEntity
  8
3
100
AcDbLine
 10
4.251968503937008
 20
3.314960629921259
 30
0.0
 11
4.290354330708661
 21
3.314960629921259
 31
0.0
  0
LINE
  5
1A9B
330
1E
100
AcDbEntity
  8
3
100
AcDbLine
 10
4.251968503937008
 20
3.316929133858267
 30
0.0
 11
4.298228346456692
 21
3.316929133858267
 31
0.0
  0
LINE
  5
1A9C
330
1E
100
AcDbEntity
  8
3
100
AcDbLine
 10
4.251968503937008
 20
3.318897637795275
 30
0.0
 11
4.306102362204724
 21
3.318897637795275
 31
0.0
  0
LINE
  5
1A9D
330
1E
100
AcDbEntity
  8
3
100
AcDbLine
 10
4.251968503937008
 20
3.320866141732283
 30
0.0
 11
4.312992125984251
 21
3.320866141732283
 31
0.0
  0
LINE
  5
1A9E
330
1E
100
AcDbEntity
  8
3
100
AcDbLine
 10
4.251968503937008
 20
3.322834645669291
 30
0.0
 11
4.320866141732283
 21
3.322834645669291
 31
0.0
  0
LINE
  5
1A9F
330
1E
100
AcDbEntity
  8
3
100
AcDbLine
 10
4.251968503937008
 20
3.324803149606299
 30
0.0
 11
4.327755905511811
 21
3.324803149606299
 31
0.0
  0
LINE
  5
1AA0
330
1E
100
AcDbEntity
  8
3
100
AcDbLine
 10
4.251968503937008
 20
3.326771653543307
 30
0.0
 11
4.335629921259842
 21
3.326771653543307
 31
0.0
  0
LINE
  5
1AA1
330
1E
100
AcDbEntity
  8
3
100
AcDbLine
 10
4.251968503937008
 20
3.328740157480315
 30
0.0
 11
4.343503937007874
 21
3.328740157480315
 31
0.0
  0
LINE
  5
1AA2
330
1E
100
AcDbEntity
  8
3
100
AcDbLine
 10
4.251968503937008
 20
3.330708661417323
 30
0.0
 11
4.350393700787401
 21
3.330708661417323
 31
0.0
  0
LINE
  5
1AA3
330
1E
100
AcDbEntity
  8
3
100
AcDbLine
 10
4.251968503937008
 20
3.333661417322834
 30
0.0
 11
4.358267716535433
 21
3.333661417322834
 31
0.0
  0
LINE
  5
1AA4
330
1E
100
AcDbEntity
  8
3
100
AcDbLine
 10
4.251968503937008
 20
3.335629921259842
 30
0.0
 11
4.365157480314961
 21
3.335629921259842
 31
0.0
  0
LINE
  5
1AA5
330
1E
100
AcDbEntity
  8
3
100
AcDbLine
 10
4.251968503937008
 20
3.33759842519685
 30
0.0
 11
4.373031496062992
 21
3.33759842519685
 31
0.0
  0
LINE
  5
1AA6
330
1E
100
AcDbEntity
  8
7
100
AcDbLine
 10
3.116141732283464
 20
5.325787401574802
 30
0.0
 11
3.070866141732283
 21
5.325787401574802
 31
0.0
  0
LWPOLYLINE
  5
1AA7
330
1E
100
AcDbEntity
  8
7
100
AcDbPolyline
 90
        3
 70
     0
 43
0.0098425196850394
 10
3.070866141732283
 20
5.325787401574802
 10
3.070866141732283
 20
5.156496062992125
 10
3.116141732283464
 20
5.156496062992125
  0
LWPOLYLINE
  5
1AAC
330
1E
100
AcDbEntity
  8
7
100
AcDbPolyline
 90
        4
 70
     0
 43
0.0098425196850394
 10
3.487204724409449
 20
5.156496062992125
 10
3.53248031496063
 20
5.156496062992125
 10
3.53248031496063
 20
5.325787401574802
 10
3.487204724409449
 20
5.325787401574802
  0
LINE
  5
1AB2
330
1E
100
AcDbEntity
  8
3
100
AcDbLine
 10
2.322834645669291
 20
4.530511811023622
 30
0.0
 11
2.322834645669291
 21
5.585629921259842
 31
0.0
  0
LINE
  5
1AB3
330
1E
100
AcDbEntity
  8
3
100
AcDbLine
 10
4.280511811023622
 20
4.530511811023622
 30
0.0
 11
4.280511811023622
 21
5.585629921259842
 31
0.0
  0
LINE
  5
1AB4
330
1E
100
AcDbEntity
  8
3
100
AcDbLine
 10
2.322834645669291
 20
5.460629921259842
 30
0.0
 11
3.007874015748031
 21
5.460629921259842
 31
0.0
  0
LINE
  5
1AB5
330
1E
100
AcDbEntity
  8
3
100
AcDbLine
 10
4.280511811023622
 20
5.460629921259842
 30
0.0
 11
3.516732283464567
 21
5.460629921259842
 31
0.0
  0
LWPOLYLINE
  5
1AB6
330
1E
100
AcDbEntity
  8
7
100
AcDbPolyline
 90
        7
 70
     0
 43
0.0098425196850394
 10
3.079724409448818
 20
5.424212598425197
 10
3.096456692913386
 20
5.415354330708661
 10
3.133858267716535
 20
5.415354330708661
 10
3.151574803149606
 20
5.424212598425197
 10
3.151574803149606
 20
5.450787401574802
 10
3.133858267716535
 20
5.460629921259842
 10
3.106299212598425
 20
5.460629921259842
  0
LWPOLYLINE
  5
1ABF
330
1E
100
AcDbEntity
  8
7
100
AcDbPolyline
 90
        6
 70
     0
 43
0.0098425196850394
 10
3.133858267716535
 20
5.460629921259842
 10
3.151574803149606
 20
5.468503937007874
 10
3.151574803149606
 20
5.496062992125984
 10
3.133858267716535
 20
5.504921259842519
 10
3.096456692913386
 20
5.504921259842519
 10
3.078740157480315
 20
5.496062992125984
  0
LWPOLYLINE
  5
1AC7
330
1E
100
AcDbEntity
  8
7
100
AcDbPolyline
 90
        5
 70
     0
 43
0.0098425196850394
 10
3.204724409448818
 20
5.415354330708661
 10
3.222440944881889
 20
5.415354330708661
 10
3.222440944881889
 20
5.433070866141732
 10
3.204724409448818
 20
5.433070866141732
 10
3.204724409448818
 20
5.415354330708661
  0
LWPOLYLINE
  5
1ACE
330
1E
100
AcDbEntity
  8
7
100
AcDbPolyline
 90
        4
 70
     0
 43
0.0098425196850394
 10
3.276574803149606
 20
5.433070866141732
 10
3.293307086614173
 20
5.415354330708661
 10
3.329724409448818
 20
5.415354330708661
 10
3.347440944881889
 20
5.433070866141732
  0
LWPOLYLINE
  5
1AD4
330
1E
100
AcDbEntity
  8
7
100
AcDbPolyline
 90
        9
 70
     0
 43
0.0098425196850394
 10
3.347440944881889
 20
5.433070866141732
 10
3.347440944881889
 20
5.487204724409449
 10
3.329724409448818
 20
5.504921259842519
 10
3.293307086614173
 20
5.504921259842519
 10
3.276574803149606
 20
5.487204724409449
 10
3.275590551181102
 20
5.468503937007874
 10
3.293307086614173
 20
5.450787401574802
 10
3.329724409448818
 20
5.450787401574802
 10
3.347440944881889
 20
5.468503937007874
  0
LWPOLYLINE
  5
1ADF
330
1E
100
AcDbEntity
  8
7
100
AcDbPolyline
 90
        3
 70
     0
 43
0.0098425196850394
 10
3.40255905511811
 20
5.497047244094487
 10
3.409448818897637
 20
5.504921259842519
 10
3.409448818897637
 20
5.415354330708661
  0
LINE
  5
1AE4
330
1E
100
AcDbEntity
  8
7
100
AcDbLine
 10
3.398622047244094
 20
5.415354330708661
 30
0.0
 11
3.421259842519685
 21
5.415354330708661
 31
0.0
  0
LWPOLYLINE
  5
1AE5
330
1E
100
AcDbEntity
  8
7
100
AcDbPolyline
 90
       12
 70
     0
 43
0.0098425196850394
 10
3.119094488188976
 20
5.213582677165354
 10
3.135826771653543
 20
5.195866141732283
 10
3.173228346456693
 20
5.195866141732283
 10
3.190944881889763
 20
5.213582677165354
 10
3.190944881889763
 20
5.267716535433071
 10
3.173228346456693
 20
5.285433070866141
 10
3.135826771653543
 20
5.285433070866141
 10
3.119094488188976
 20
5.267716535433071
 10
3.118110236220472
 20
5.25
 10
3.135826771653543
 20
5.231299212598425
 10
3.173228346456693
 20
5.231299212598425
 10
3.190944881889763
 20
5.25
  0
LWPOLYLINE
  5
1AF3
330
1E
100
AcDbEntity
  8
7
100
AcDbPolyline
 90
       12
 70
     0
 43
0.0098425196850394
 10
3.21751968503937
 20
5.213582677165354
 10
3.234251968503937
 20
5.195866141732283
 10
3.270669291338582
 20
5.195866141732283
 10
3.288385826771653
 20
5.213582677165354
 10
3.288385826771653
 20
5.267716535433071
 10
3.270669291338582
 20
5.285433070866141
 10
3.234251968503937
 20
5.285433070866141
 10
3.21751968503937
 20
5.267716535433071
 10
3.216535433070866
 20
5.25
 10
3.234251968503937
 20
5.231299212598425
 10
3.270669291338582
 20
5.231299212598425
 10
3.288385826771653
 20
5.25
  0
LWPOLYLINE
  5
1B01
330
1E
100
AcDbEntity
  8
7
100
AcDbPolyline
 90
        4
 70
     0
 43
0.0098425196850394
 10
3.341535433070866
 20
5.195866141732283
 10
3.359251968503937
 20
5.195866141732283
 10
3.359251968503937
 20
5.213582677165354
 10
3.341535433070866
 20
5.213582677165354
  0
LINE
  5
1B07
330
1E
100
AcDbEntity
  8
7
100
AcDbLine
 10
3.341535433070866
 20
5.213582677165354
 30
0.0
 11
3.341535433070866
 21
5.195866141732283
 31
0.0
  0
LWPOLYLINE
  5
1B08
330
1E
100
AcDbEntity
  8
7
100
AcDbPolyline
 90
        4
 70
     0
 43
0.0098425196850394
 10
3.485236220472441
 20
5.231299212598425
 10
3.413385826771653
 20
5.231299212598425
 10
3.46751968503937
 20
5.285433070866141
 10
3.46751968503937
 20
5.195866141732283
  0
LWPOLYLINE
  5
1B0E
330
1E
100
AcDbEntity
  8
3
100
AcDbPolyline
 90
        4
 70
     0
 43
0.0098425196850394
 10
2.322834645669291
 20
5.460629921259842
 10
2.447834645669291
 20
5.427165354330708
 10
2.447834645669291
 20
5.494094488188976
 10
2.322834645669291
 20
5.460629921259842
  0
LINE
  5
1B14
330
1E
100
AcDbEntity
  8
3
100
AcDbLine
 10
2.447834645669291
 20
5.427165354330708
 30
0.0
 11
2.445866141732283
 21
5.427165354330708
 31
0.0
  0
LINE
  5
1B15
330
1E
100
AcDbEntity
  8
3
100
AcDbLine
 10
2.447834645669291
 20
5.427165354330708
 30
0.0
 11
2.445866141732283
 21
5.427165354330708
 31
0.0
  0
LINE
  5
1B16
330
1E
100
AcDbEntity
  8
3
100
AcDbLine
 10
2.447834645669291
 20
5.429133858267716
 30
0.0
 11
2.438976377952756
 21
5.429133858267716
 31
0.0
  0
LINE
  5
1B17
330
1E
100
AcDbEntity
  8
3
100
AcDbLine
 10
2.447834645669291
 20
5.431102362204724
 30
0.0
 11
2.431102362204724
 21
5.431102362204724
 31
0.0
  0
LINE
  5
1B18
330
1E
100
AcDbEntity
  8
3
100
AcDbLine
 10
2.447834645669291
 20
5.433070866141732
 30
0.0
 11
2.424212598425196
 21
5.433070866141732
 31
0.0
  0
LINE
  5
1B19
330
1E
100
AcDbEntity
  8
3
100
AcDbLine
 10
2.447834645669291
 20
5.435039370078739
 30
0.0
 11
2.416338582677165
 21
5.435039370078739
 31
0.0
  0
LINE
  5
1B1A
330
1E
100
AcDbEntity
  8
3
100
AcDbLine
 10
2.447834645669291
 20
5.437007874015748
 30
0.0
 11
2.409448818897637
 21
5.437007874015748
 31
0.0
  0
LINE
  5
1B1B
330
1E
100
AcDbEntity
  8
3
100
AcDbLine
 10
2.447834645669291
 20
5.43996062992126
 30
0.0
 11
2.401574803149606
 21
5.43996062992126
 31
0.0
  0
LINE
  5
1B1C
330
1E
100
AcDbEntity
  8
3
100
AcDbLine
 10
2.447834645669291
 20
5.441929133858267
 30
0.0
 11
2.393700787401574
 21
5.441929133858267
 31
0.0
  0
LINE
  5
1B1D
330
1E
100
AcDbEntity
  8
3
100
AcDbLine
 10
2.447834645669291
 20
5.443897637795275
 30
0.0
 11
2.386811023622047
 21
5.443897637795275
 31
0.0
  0
LINE
  5
1B1E
330
1E
100
AcDbEntity
  8
3
100
AcDbLine
 10
2.447834645669291
 20
5.445866141732283
 30
0.0
 11
2.378937007874015
 21
5.445866141732283
 31
0.0
  0
LINE
  5
1B1F
330
1E
100
AcDbEntity
  8
3
100
AcDbLine
 10
2.447834645669291
 20
5.447834645669291
 30
0.0
 11
2.372047244094488
 21
5.447834645669291
 31
0.0
  0
LINE
  5
1B20
330
1E
100
AcDbEntity
  8
3
100
AcDbLine
 10
2.447834645669291
 20
5.449803149606299
 30
0.0
 11
2.364173228346456
 21
5.449803149606299
 31
0.0
  0
LINE
  5
1B21
330
1E
100
AcDbEntity
  8
3
100
AcDbLine
 10
2.447834645669291
 20
5.451771653543307
 30
0.0
 11
2.356299212598425
 21
5.451771653543307
 31
0.0
  0
LINE
  5
1B22
330
1E
100
AcDbEntity
  8
3
100
AcDbLine
 10
2.447834645669291
 20
5.453740157480314
 30
0.0
 11
2.349409448818897
 21
5.453740157480314
 31
0.0
  0
LINE
  5
1B23
330
1E
100
AcDbEntity
  8
3
100
AcDbLine
 10
2.447834645669291
 20
5.455708661417323
 30
0.0
 11
2.341535433070866
 21
5.455708661417323
 31
0.0
  0
LINE
  5
1B24
330
1E
100
AcDbEntity
  8
3
100
AcDbLine
 10
2.447834645669291
 20
5.45767716535433
 30
0.0
 11
2.334645669291338
 21
5.45767716535433
 31
0.0
  0
LINE
  5
1B25
330
1E
100
AcDbEntity
  8
3
100
AcDbLine
 10
2.447834645669291
 20
5.459645669291338
 30
0.0
 11
2.326771653543307
 21
5.459645669291338
 31
0.0
  0
LINE
  5
1B26
330
1E
100
AcDbEntity
  8
3
100
AcDbLine
 10
2.447834645669291
 20
5.493110236220472
 30
0.0
 11
2.445866141732283
 21
5.493110236220472
 31
0.0
  0
LINE
  5
1B27
330
1E
100
AcDbEntity
  8
3
100
AcDbLine
 10
2.447834645669291
 20
5.493110236220472
 30
0.0
 11
2.445866141732283
 21
5.493110236220472
 31
0.0
  0
LINE
  5
1B28
330
1E
100
AcDbEntity
  8
3
100
AcDbLine
 10
2.447834645669291
 20
5.491141732283464
 30
0.0
 11
2.438976377952756
 21
5.491141732283464
 31
0.0
  0
LINE
  5
1B29
330
1E
100
AcDbEntity
  8
3
100
AcDbLine
 10
2.447834645669291
 20
5.489173228346456
 30
0.0
 11
2.431102362204724
 21
5.489173228346456
 31
0.0
  0
LINE
  5
1B2A
330
1E
100
AcDbEntity
  8
3
100
AcDbLine
 10
2.447834645669291
 20
5.487204724409449
 30
0.0
 11
2.424212598425196
 21
5.487204724409449
 31
0.0
  0
LINE
  5
1B2B
330
1E
100
AcDbEntity
  8
3
100
AcDbLine
 10
2.447834645669291
 20
5.48523622047244
 30
0.0
 11
2.416338582677165
 21
5.48523622047244
 31
0.0
  0
LINE
  5
1B2C
330
1E
100
AcDbEntity
  8
3
100
AcDbLine
 10
2.447834645669291
 20
5.483267716535433
 30
0.0
 11
2.409448818897637
 21
5.483267716535433
 31
0.0
  0
LINE
  5
1B2D
330
1E
100
AcDbEntity
  8
3
100
AcDbLine
 10
2.447834645669291
 20
5.481299212598425
 30
0.0
 11
2.401574803149606
 21
5.481299212598425
 31
0.0
  0
LINE
  5
1B2E
330
1E
100
AcDbEntity
  8
3
100
AcDbLine
 10
2.447834645669291
 20
5.479330708661417
 30
0.0
 11
2.393700787401574
 21
5.479330708661417
 31
0.0
  0
LINE
  5
1B2F
330
1E
100
AcDbEntity
  8
3
100
AcDbLine
 10
2.447834645669291
 20
5.477362204724409
 30
0.0
 11
2.386811023622047
 21
5.477362204724409
 31
0.0
  0
LINE
  5
1B30
330
1E
100
AcDbEntity
  8
3
100
AcDbLine
 10
2.447834645669291
 20
5.475393700787401
 30
0.0
 11
2.378937007874015
 21
5.475393700787401
 31
0.0
  0
LINE
  5
1B31
330
1E
100
AcDbEntity
  8
3
100
AcDbLine
 10
2.447834645669291
 20
5.473425196850393
 30
0.0
 11
2.372047244094488
 21
5.473425196850393
 31
0.0
  0
LINE
  5
1B32
330
1E
100
AcDbEntity
  8
3
100
AcDbLine
 10
2.447834645669291
 20
5.471456692913386
 30
0.0
 11
2.364173228346456
 21
5.471456692913386
 31
0.0
  0
LINE
  5
1B33
330
1E
100
AcDbEntity
  8
3
100
AcDbLine
 10
2.447834645669291
 20
5.469488188976377
 30
0.0
 11
2.356299212598425
 21
5.469488188976377
 31
0.0
  0
LINE
  5
1B34
330
1E
100
AcDbEntity
  8
3
100
AcDbLine
 10
2.447834645669291
 20
5.46751968503937
 30
0.0
 11
2.349409448818897
 21
5.46751968503937
 31
0.0
  0
LINE
  5
1B35
330
1E
100
AcDbEntity
  8
3
100
AcDbLine
 10
2.447834645669291
 20
5.465551181102362
 30
0.0
 11
2.341535433070866
 21
5.465551181102362
 31
0.0
  0
LINE
  5
1B36
330
1E
100
AcDbEntity
  8
3
100
AcDbLine
 10
2.447834645669291
 20
5.463582677165354
 30
0.0
 11
2.334645669291338
 21
5.463582677165354
 31
0.0
  0
LINE
  5
1B37
330
1E
100
AcDbEntity
  8
3
100
AcDbLine
 10
2.447834645669291
 20
5.461614173228346
 30
0.0
 11
2.326771653543307
 21
5.461614173228346
 31
0.0
  0
LWPOLYLINE
  5
1B38
330
1E
100
AcDbEntity
  8
3
100
AcDbPolyline
 90
        4
 70
     0
 43
0.0098425196850394
 10
4.280511811023622
 20
5.460629921259842
 10
4.155511811023622
 20
5.494094488188976
 10
4.155511811023622
 20
5.427165354330708
 10
4.280511811023622
 20
5.460629921259842
  0
LINE
  5
1B3E
330
1E
100
AcDbEntity
  8
3
100
AcDbLine
 10
4.155511811023622
 20
5.493110236220472
 30
0.0
 11
4.157480314960629
 21
5.493110236220472
 31
0.0
  0
LINE
  5
1B3F
330
1E
100
AcDbEntity
  8
3
100
AcDbLine
 10
4.155511811023622
 20
5.493110236220472
 30
0.0
 11
4.157480314960629
 21
5.493110236220472
 31
0.0
  0
LINE
  5
1B40
330
1E
100
AcDbEntity
  8
3
100
AcDbLine
 10
4.155511811023622
 20
5.491141732283464
 30
0.0
 11
4.164370078740157
 21
5.491141732283464
 31
0.0
  0
LINE
  5
1B41
330
1E
100
AcDbEntity
  8
3
100
AcDbLine
 10
4.155511811023622
 20
5.489173228346456
 30
0.0
 11
4.172244094488188
 21
5.489173228346456
 31
0.0
  0
LINE
  5
1B42
330
1E
100
AcDbEntity
  8
3
100
AcDbLine
 10
4.155511811023622
 20
5.487204724409449
 30
0.0
 11
4.179133858267716
 21
5.487204724409449
 31
0.0
  0
LINE
  5
1B43
330
1E
100
AcDbEntity
  8
3
100
AcDbLine
 10
4.155511811023622
 20
5.48523622047244
 30
0.0
 11
4.187007874015748
 21
5.48523622047244
 31
0.0
  0
LINE
  5
1B44
330
1E
100
AcDbEntity
  8
3
100
AcDbLine
 10
4.155511811023622
 20
5.483267716535433
 30
0.0
 11
4.193897637795275
 21
5.483267716535433
 31
0.0
  0
LINE
  5
1B45
330
1E
100
AcDbEntity
  8
3
100
AcDbLine
 10
4.155511811023622
 20
5.481299212598425
 30
0.0
 11
4.201771653543307
 21
5.481299212598425
 31
0.0
  0
LINE
  5
1B46
330
1E
100
AcDbEntity
  8
3
100
AcDbLine
 10
4.155511811023622
 20
5.479330708661417
 30
0.0
 11
4.209645669291338
 21
5.479330708661417
 31
0.0
  0
LINE
  5
1B47
330
1E
100
AcDbEntity
  8
3
100
AcDbLine
 10
4.155511811023622
 20
5.477362204724409
 30
0.0
 11
4.216535433070866
 21
5.477362204724409
 31
0.0
  0
LINE
  5
1B48
330
1E
100
AcDbEntity
  8
3
100
AcDbLine
 10
4.155511811023622
 20
5.475393700787401
 30
0.0
 11
4.224409448818898
 21
5.475393700787401
 31
0.0
  0
LINE
  5
1B49
330
1E
100
AcDbEntity
  8
3
100
AcDbLine
 10
4.155511811023622
 20
5.473425196850393
 30
0.0
 11
4.231299212598425
 21
5.473425196850393
 31
0.0
  0
LINE
  5
1B4A
330
1E
100
AcDbEntity
  8
3
100
AcDbLine
 10
4.155511811023622
 20
5.471456692913386
 30
0.0
 11
4.239173228346456
 21
5.471456692913386
 31
0.0
  0
LINE
  5
1B4B
330
1E
100
AcDbEntity
  8
3
100
AcDbLine
 10
4.155511811023622
 20
5.469488188976377
 30
0.0
 11
4.247047244094487
 21
5.469488188976377
 31
0.0
  0
LINE
  5
1B4C
330
1E
100
AcDbEntity
  8
3
100
AcDbLine
 10
4.155511811023622
 20
5.46751968503937
 30
0.0
 11
4.253937007874015
 21
5.46751968503937
 31
0.0
  0
LINE
  5
1B4D
330
1E
100
AcDbEntity
  8
3
100
AcDbLine
 10
4.155511811023622
 20
5.465551181102362
 30
0.0
 11
4.261811023622047
 21
5.465551181102362
 31
0.0
  0
LINE
  5
1B4E
330
1E
100
AcDbEntity
  8
3
100
AcDbLine
 10
4.155511811023622
 20
5.463582677165354
 30
0.0
 11
4.268700787401574
 21
5.463582677165354
 31
0.0
  0
LINE
  5
1B4F
330
1E
100
AcDbEntity
  8
3
100
AcDbLine
 10
4.155511811023622
 20
5.461614173228346
 30
0.0
 11
4.276574803149606
 21
5.461614173228346
 31
0.0
  0
LINE
  5
1B50
330
1E
100
AcDbEntity
  8
3
100
AcDbLine
 10
4.155511811023622
 20
5.427165354330708
 30
0.0
 11
4.157480314960629
 21
5.427165354330708
 31
0.0
  0
LINE
  5
1B51
330
1E
100
AcDbEntity
  8
3
100
AcDbLine
 10
4.155511811023622
 20
5.427165354330708
 30
0.0
 11
4.157480314960629
 21
5.427165354330708
 31
0.0
  0
LINE
  5
1B52
330
1E
100
AcDbEntity
  8
3
100
AcDbLine
 10
4.155511811023622
 20
5.429133858267716
 30
0.0
 11
4.164370078740157
 21
5.429133858267716
 31
0.0
  0
LINE
  5
1B53
330
1E
100
AcDbEntity
  8
3
100
AcDbLine
 10
4.155511811023622
 20
5.431102362204724
 30
0.0
 11
4.172244094488188
 21
5.431102362204724
 31
0.0
  0
LINE
  5
1B54
330
1E
100
AcDbEntity
  8
3
100
AcDbLine
 10
4.155511811023622
 20
5.433070866141732
 30
0.0
 11
4.179133858267716
 21
5.433070866141732
 31
0.0
  0
LINE
  5
1B55
330
1E
100
AcDbEntity
  8
3
100
AcDbLine
 10
4.155511811023622
 20
5.435039370078739
 30
0.0
 11
4.187007874015748
 21
5.435039370078739
 31
0.0
  0
LINE
  5
1B56
330
1E
100
AcDbEntity
  8
3
100
AcDbLine
 10
4.155511811023622
 20
5.437007874015748
 30
0.0
 11
4.193897637795275
 21
5.437007874015748
 31
0.0
  0
LINE
  5
1B57
330
1E
100
AcDbEntity
  8
3
100
AcDbLine
 10
4.155511811023622
 20
5.43996062992126
 30
0.0
 11
4.201771653543307
 21
5.43996062992126
 31
0.0
  0
LINE
  5
1B58
330
1E
100
AcDbEntity
  8
3
100
AcDbLine
 10
4.155511811023622
 20
5.441929133858267
 30
0.0
 11
4.209645669291338
 21
5.441929133858267
 31
0.0
  0
LINE
  5
1B59
330
1E
100
AcDbEntity
  8
3
100
AcDbLine
 10
4.155511811023622
 20
5.443897637795275
 30
0.0
 11
4.216535433070866
 21
5.443897637795275
 31
0.0
  0
LINE
  5
1B5A
330
1E
100
AcDbEntity
  8
3
100
AcDbLine
 10
4.155511811023622
 20
5.445866141732283
 30
0.0
 11
4.224409448818898
 21
5.445866141732283
 31
0.0
  0
LINE
  5
1B5B
330
1E
100
AcDbEntity
  8
3
100
AcDbLine
 10
4.155511811023622
 20
5.447834645669291
 30
0.0
 11
4.231299212598425
 21
5.447834645669291
 31
0.0
  0
LINE
  5
1B5C
330
1E
100
AcDbEntity
  8
3
100
AcDbLine
 10
4.155511811023622
 20
5.449803149606299
 30
0.0
 11
4.239173228346456
 21
5.449803149606299
 31
0.0
  0
LINE
  5
1B5D
330
1E
100
AcDbEntity
  8
3
100
AcDbLine
 10
4.155511811023622
 20
5.451771653543307
 30
0.0
 11
4.247047244094487
 21
5.451771653543307
 31
0.0
  0
LINE
  5
1B5E
330
1E
100
AcDbEntity
  8
3
100
AcDbLine
 10
4.155511811023622
 20
5.453740157480314
 30
0.0
 11
4.253937007874015
 21
5.453740157480314
 31
0.0
  0
LINE
  5
1B5F
330
1E
100
AcDbEntity
  8
3
100
AcDbLine
 10
4.155511811023622
 20
5.455708661417323
 30
0.0
 11
4.261811023622047
 21
5.455708661417323
 31
0.0
  0
LINE
  5
1B60
330
1E
100
AcDbEntity
  8
3
100
AcDbLine
 10
4.155511811023622
 20
5.45767716535433
 30
0.0
 11
4.268700787401574
 21
5.45767716535433
 31
0.0
  0
LINE
  5
1B61
330
1E
100
AcDbEntity
  8
3
100
AcDbLine
 10
4.155511811023622
 20
5.459645669291338
 30
0.0
 11
4.276574803149606
 21
5.459645669291338
 31
0.0
  0
LWPOLYLINE
  5
1B62
330
1E
100
AcDbEntity
  8
7
100
AcDbPolyline
 90
        4
 70
     0
 43
0.0098425196850394
 10
1.253937007874015
 20
4.310039370078739
 10
1.209645669291338
 20
4.310039370078739
 10
1.209645669291338
 20
4.141732283464566
 10
1.253937007874015
 20
4.141732283464566
  0
LWPOLYLINE
  5
1B68
330
1E
100
AcDbEntity
  8
7
100
AcDbPolyline
 90
        4
 70
     0
 43
0.0098425196850394
 10
1.625984251968503
 20
4.141732283464566
 10
1.671259842519685
 20
4.141732283464566
 10
1.671259842519685
 20
4.310039370078739
 10
1.625984251968503
 20
4.310039370078739
  0
LINE
  5
1B6E
330
1E
100
AcDbEntity
  8
3
100
AcDbLine
 10
2.193897637795275
 20
4.663385826771653
 30
0.0
 11
1.275590551181102
 21
4.663385826771653
 31
0.0
  0
LINE
  5
1B6F
330
1E
100
AcDbEntity
  8
3
100
AcDbLine
 10
2.193897637795275
 20
3.968503937007874
 30
0.0
 11
1.275590551181102
 21
3.968503937007874
 31
0.0
  0
LINE
  5
1B70
330
1E
100
AcDbEntity
  8
3
100
AcDbLine
 10
1.400590551181102
 20
4.888779527559055
 30
0.0
 11
1.400590551181102
 21
4.663385826771653
 31
0.0
  0
LINE
  5
1B71
330
1E
100
AcDbEntity
  8
3
100
AcDbLine
 10
1.400590551181102
 20
3.743110236220472
 30
0.0
 11
1.400590551181102
 21
3.968503937007874
 31
0.0
  0
LWPOLYLINE
  5
1B72
330
1E
100
AcDbEntity
  8
7
100
AcDbPolyline
 90
        3
 70
     0
 43
0.0098425196850394
 10
1.247047244094488
 20
4.482283464566929
 10
1.253937007874015
 20
4.489173228346456
 10
1.253937007874015
 20
4.400590551181102
  0
LINE
  5
1B77
330
1E
100
AcDbEntity
  8
7
100
AcDbLine
 10
1.243110236220472
 20
4.400590551181102
 30
0.0
 11
1.265748031496062
 21
4.400590551181102
 31
0.0
  0
LWPOLYLINE
  5
1B78
330
1E
100
AcDbEntity
  8
7
100
AcDbPolyline
 90
        5
 70
     0
 43
0.0098425196850394
 10
1.343503937007873
 20
4.400590551181102
 10
1.361220472440944
 20
4.400590551181102
 10
1.361220472440944
 20
4.418307086614173
 10
1.343503937007873
 20
4.418307086614173
 10
1.343503937007873
 20
4.400590551181102
  0
LWPOLYLINE
  5
1B7F
330
1E
100
AcDbEntity
  8
7
100
AcDbPolyline
 90
        7
 70
     0
 43
0.0098425196850394
 10
1.415354330708661
 20
4.408464566929134
 10
1.432086614173228
 20
4.400590551181102
 10
1.468503937007873
 20
4.400590551181102
 10
1.486220472440944
 20
4.408464566929134
 10
1.486220472440944
 20
4.436023622047244
 10
1.468503937007873
 20
4.444881889763779
 10
1.440944881889763
 20
4.444881889763779
  0
LWPOLYLINE
  5
1B88
330
1E
100
AcDbEntity
  8
7
100
AcDbPolyline
 90
        5
 70
     0
 43
0.0098425196850394
 10
1.468503937007873
 20
4.444881889763779
 10
1.486220472440944
 20
4.453740157480314
 10
1.486220472440944
 20
4.481299212598425
 10
1.468503937007873
 20
4.489173228346456
 10
1.432086614173228
 20
4.489173228346456
  0
LINE
  5
1B8F
330
1E
100
AcDbEntity
  8
7
100
AcDbLine
 10
1.432086614173228
 20
4.489173228346456
 30
0.0
 11
1.414370078740157
 21
4.481299212598425
 31
0.0
  0
LWPOLYLINE
  5
1B90
330
1E
100
AcDbEntity
  8
7
100
AcDbPolyline
 90
       12
 70
     0
 43
0.0098425196850394
 10
1.512795275590551
 20
4.418307086614173
 10
1.529527559055118
 20
4.400590551181102
 10
1.565944881889763
 20
4.400590551181102
 10
1.584645669291338
 20
4.418307086614173
 10
1.584645669291338
 20
4.471456692913386
 10
1.565944881889763
 20
4.489173228346456
 10
1.529527559055118
 20
4.489173228346456
 10
1.512795275590551
 20
4.471456692913386
 10
1.511811023622047
 20
4.453740157480314
 10
1.529527559055118
 20
4.436023622047244
 10
1.565944881889763
 20
4.436023622047244
 10
1.584645669291338
 20
4.453740157480314
  0
LWPOLYLINE
  5
1B9E
330
1E
100
AcDbEntity
  8
7
100
AcDbPolyline
 90
        7
 70
     0
 43
0.0098425196850394
 10
1.257874015748031
 20
4.188976377952755
 10
1.274606299212598
 20
4.181102362204724
 10
1.312007874015747
 20
4.181102362204724
 10
1.329724409448818
 20
4.188976377952755
 10
1.329724409448818
 20
4.216535433070866
 10
1.312007874015747
 20
4.226377952755905
 10
1.284448818897637
 20
4.226377952755905
  0
LWPOLYLINE
  5
1BA7
330
1E
100
AcDbEntity
  8
7
100
AcDbPolyline
 90
        6
 70
     0
 43
0.0098425196850394
 10
1.312007874015747
 20
4.226377952755905
 10
1.329724409448818
 20
4.234251968503937
 10
1.329724409448818
 20
4.261811023622047
 10
1.312007874015747
 20
4.269685039370078
 10
1.274606299212598
 20
4.269685039370078
 10
1.256889763779527
 20
4.261811023622047
  0
LWPOLYLINE
  5
1BAF
330
1E
100
AcDbEntity
  8
7
100
AcDbPolyline
 90
       10
 70
     0
 43
0.0098425196850394
 10
1.355314960629921
 20
4.188976377952755
 10
1.373031496062991
 20
4.181102362204724
 10
1.409448818897637
 20
4.181102362204724
 10
1.427165354330708
 20
4.188976377952755
 10
1.427165354330708
 20
4.225393700787401
 10
1.409448818897637
 20
4.234251968503937
 10
1.373031496062991
 20
4.234251968503937
 10
1.355314960629921
 20
4.226377952755905
 10
1.355314960629921
 20
4.269685039370078
 10
1.427165354330708
 20
4.269685039370078
  0
LWPOLYLINE
  5
1BBB
330
1E
100
AcDbEntity
  8
7
100
AcDbPolyline
 90
        5
 70
     0
 43
0.0098425196850394
 10
1.480314960629921
 20
4.181102362204724
 10
1.498031496062991
 20
4.181102362204724
 10
1.498031496062991
 20
4.198818897637795
 10
1.480314960629921
 20
4.198818897637795
 10
1.480314960629921
 20
4.181102362204724
  0
LWPOLYLINE
  5
1BC2
330
1E
100
AcDbEntity
  8
7
100
AcDbPolyline
 90
        7
 70
     0
 43
0.0098425196850394
 10
1.552165354330708
 20
4.188976377952755
 10
1.568897637795275
 20
4.181102362204724
 10
1.605314960629921
 20
4.181102362204724
 10
1.624015748031495
 20
4.188976377952755
 10
1.624015748031495
 20
4.216535433070866
 10
1.605314960629921
 20
4.226377952755905
 10
1.578740157480314
 20
4.226377952755905
  0
LWPOLYLINE
  5
1BCB
330
1E
100
AcDbEntity
  8
7
100
AcDbPolyline
 90
        6
 70
     0
 43
0.0098425196850394
 10
1.605314960629921
 20
4.226377952755905
 10
1.624015748031495
 20
4.234251968503937
 10
1.624015748031495
 20
4.261811023622047
 10
1.605314960629921
 20
4.269685039370078
 10
1.568897637795275
 20
4.269685039370078
 10
1.551181102362204
 20
4.261811023622047
  0
LWPOLYLINE
  5
1BD3
330
1E
100
AcDbEntity
  8
3
100
AcDbPolyline
 90
        4
 70
     0
 43
0.0098425196850394
 10
1.400590551181102
 20
4.663385826771653
 10
1.434055118110236
 20
4.788385826771653
 10
1.367125984251968
 20
4.788385826771653
 10
1.400590551181102
 20
4.663385826771653
  0
LINE
  5
1BD9
330
1E
100
AcDbEntity
  8
3
100
AcDbLine
 10
1.434055118110236
 20
4.788385826771653
 30
0.0
 11
1.434055118110236
 21
4.786417322834645
 31
0.0
  0
LINE
  5
1BDA
330
1E
100
AcDbEntity
  8
3
100
AcDbLine
 10
1.434055118110236
 20
4.788385826771653
 30
0.0
 11
1.434055118110236
 21
4.786417322834645
 31
0.0
  0
LINE
  5
1BDB
330
1E
100
AcDbEntity
  8
3
100
AcDbLine
 10
1.432086614173228
 20
4.788385826771653
 30
0.0
 11
1.432086614173228
 21
4.779527559055118
 31
0.0
  0
LINE
  5
1BDC
330
1E
100
AcDbEntity
  8
3
100
AcDbLine
 10
1.43011811023622
 20
4.788385826771653
 30
0.0
 11
1.43011811023622
 21
4.771653543307087
 31
0.0
  0
LINE
  5
1BDD
330
1E
100
AcDbEntity
  8
3
100
AcDbLine
 10
1.428149606299212
 20
4.788385826771653
 30
0.0
 11
1.428149606299212
 21
4.763779527559055
 31
0.0
  0
LINE
  5
1BDE
330
1E
100
AcDbEntity
  8
3
100
AcDbLine
 10
1.426181102362204
 20
4.788385826771653
 30
0.0
 11
1.426181102362204
 21
4.756889763779527
 31
0.0
  0
LINE
  5
1BDF
330
1E
100
AcDbEntity
  8
3
100
AcDbLine
 10
1.424212598425196
 20
4.788385826771653
 30
0.0
 11
1.424212598425196
 21
4.749015748031496
 31
0.0
  0
LINE
  5
1BE0
330
1E
100
AcDbEntity
  8
3
100
AcDbLine
 10
1.422244094488188
 20
4.788385826771653
 30
0.0
 11
1.422244094488188
 21
4.742125984251968
 31
0.0
  0
LINE
  5
1BE1
330
1E
100
AcDbEntity
  8
3
100
AcDbLine
 10
1.420275590551181
 20
4.788385826771653
 30
0.0
 11
1.420275590551181
 21
4.734251968503937
 31
0.0
  0
LINE
  5
1BE2
330
1E
100
AcDbEntity
  8
3
100
AcDbLine
 10
1.418307086614173
 20
4.788385826771653
 30
0.0
 11
1.418307086614173
 21
4.727362204724409
 31
0.0
  0
LINE
  5
1BE3
330
1E
100
AcDbEntity
  8
3
100
AcDbLine
 10
1.416338582677165
 20
4.788385826771653
 30
0.0
 11
1.416338582677165
 21
4.719488188976377
 31
0.0
  0
LINE
  5
1BE4
330
1E
100
AcDbEntity
  8
3
100
AcDbLine
 10
1.414370078740157
 20
4.788385826771653
 30
0.0
 11
1.414370078740157
 21
4.711614173228346
 31
0.0
  0
LINE
  5
1BE5
330
1E
100
AcDbEntity
  8
3
100
AcDbLine
 10
1.412401574803149
 20
4.788385826771653
 30
0.0
 11
1.412401574803149
 21
4.704724409448818
 31
0.0
  0
LINE
  5
1BE6
330
1E
100
AcDbEntity
  8
3
100
AcDbLine
 10
1.410433070866141
 20
4.788385826771653
 30
0.0
 11
1.410433070866141
 21
4.696850393700787
 31
0.0
  0
LINE
  5
1BE7
330
1E
100
AcDbEntity
  8
3
100
AcDbLine
 10
1.408464566929133
 20
4.788385826771653
 30
0.0
 11
1.408464566929133
 21
4.68996062992126
 31
0.0
  0
LINE
  5
1BE8
330
1E
100
AcDbEntity
  8
3
100
AcDbLine
 10
1.406496062992125
 20
4.788385826771653
 30
0.0
 11
1.406496062992125
 21
4.682086614173228
 31
0.0
  0
LINE
  5
1BE9
330
1E
100
AcDbEntity
  8
3
100
AcDbLine
 10
1.403543307086614
 20
4.788385826771653
 30
0.0
 11
1.403543307086614
 21
4.674212598425197
 31
0.0
  0
LINE
  5
1BEA
330
1E
100
AcDbEntity
  8
3
100
AcDbLine
 10
1.401574803149606
 20
4.788385826771653
 30
0.0
 11
1.401574803149606
 21
4.667322834645669
 31
0.0
  0
LINE
  5
1BEB
330
1E
100
AcDbEntity
  8
3
100
AcDbLine
 10
1.368110236220472
 20
4.788385826771653
 30
0.0
 11
1.368110236220472
 21
4.786417322834645
 31
0.0
  0
LINE
  5
1BEC
330
1E
100
AcDbEntity
  8
3
100
AcDbLine
 10
1.368110236220472
 20
4.788385826771653
 30
0.0
 11
1.368110236220472
 21
4.786417322834645
 31
0.0
  0
LINE
  5
1BED
330
1E
100
AcDbEntity
  8
3
100
AcDbLine
 10
1.37007874015748
 20
4.788385826771653
 30
0.0
 11
1.37007874015748
 21
4.779527559055118
 31
0.0
  0
LINE
  5
1BEE
330
1E
100
AcDbEntity
  8
3
100
AcDbLine
 10
1.372047244094487
 20
4.788385826771653
 30
0.0
 11
1.372047244094487
 21
4.771653543307087
 31
0.0
  0
LINE
  5
1BEF
330
1E
100
AcDbEntity
  8
3
100
AcDbLine
 10
1.374015748031496
 20
4.788385826771653
 30
0.0
 11
1.374015748031496
 21
4.763779527559055
 31
0.0
  0
LINE
  5
1BF0
330
1E
100
AcDbEntity
  8
3
100
AcDbLine
 10
1.375984251968503
 20
4.788385826771653
 30
0.0
 11
1.375984251968503
 21
4.756889763779527
 31
0.0
  0
LINE
  5
1BF1
330
1E
100
AcDbEntity
  8
3
100
AcDbLine
 10
1.377952755905511
 20
4.788385826771653
 30
0.0
 11
1.377952755905511
 21
4.749015748031496
 31
0.0
  0
LINE
  5
1BF2
330
1E
100
AcDbEntity
  8
3
100
AcDbLine
 10
1.379921259842519
 20
4.788385826771653
 30
0.0
 11
1.379921259842519
 21
4.742125984251968
 31
0.0
  0
LINE
  5
1BF3
330
1E
100
AcDbEntity
  8
3
100
AcDbLine
 10
1.381889763779527
 20
4.788385826771653
 30
0.0
 11
1.381889763779527
 21
4.734251968503937
 31
0.0
  0
LINE
  5
1BF4
330
1E
100
AcDbEntity
  8
3
100
AcDbLine
 10
1.383858267716535
 20
4.788385826771653
 30
0.0
 11
1.383858267716535
 21
4.727362204724409
 31
0.0
  0
LINE
  5
1BF5
330
1E
100
AcDbEntity
  8
3
100
AcDbLine
 10
1.385826771653543
 20
4.788385826771653
 30
0.0
 11
1.385826771653543
 21
4.719488188976377
 31
0.0
  0
LINE
  5
1BF6
330
1E
100
AcDbEntity
  8
3
100
AcDbLine
 10
1.387795275590551
 20
4.788385826771653
 30
0.0
 11
1.387795275590551
 21
4.711614173228346
 31
0.0
  0
LINE
  5
1BF7
330
1E
100
AcDbEntity
  8
3
100
AcDbLine
 10
1.389763779527559
 20
4.788385826771653
 30
0.0
 11
1.389763779527559
 21
4.704724409448818
 31
0.0
  0
LINE
  5
1BF8
330
1E
100
AcDbEntity
  8
3
100
AcDbLine
 10
1.391732283464566
 20
4.788385826771653
 30
0.0
 11
1.391732283464566
 21
4.696850393700787
 31
0.0
  0
LINE
  5
1BF9
330
1E
100
AcDbEntity
  8
3
100
AcDbLine
 10
1.393700787401574
 20
4.788385826771653
 30
0.0
 11
1.393700787401574
 21
4.68996062992126
 31
0.0
  0
LINE
  5
1BFA
330
1E
100
AcDbEntity
  8
3
100
AcDbLine
 10
1.395669291338582
 20
4.788385826771653
 30
0.0
 11
1.395669291338582
 21
4.682086614173228
 31
0.0
  0
LINE
  5
1BFB
330
1E
100
AcDbEntity
  8
3
100
AcDbLine
 10
1.39763779527559
 20
4.788385826771653
 30
0.0
 11
1.39763779527559
 21
4.674212598425197
 31
0.0
  0
LINE
  5
1BFC
330
1E
100
AcDbEntity
  8
3
100
AcDbLine
 10
1.399606299212598
 20
4.788385826771653
 30
0.0
 11
1.399606299212598
 21
4.667322834645669
 31
0.0
  0
LWPOLYLINE
  5
1BFD
330
1E
100
AcDbEntity
  8
3
100
AcDbPolyline
 90
        4
 70
     0
 43
0.0098425196850394
 10
1.400590551181102
 20
3.968503937007874
 10
1.367125984251968
 20
3.843503937007874
 10
1.434055118110236
 20
3.843503937007874
 10
1.400590551181102
 20
3.968503937007874
  0
LINE
  5
1C03
330
1E
100
AcDbEntity
  8
3
100
AcDbLine
 10
1.368110236220472
 20
3.843503937007874
 30
0.0
 11
1.368110236220472
 21
3.845472440944881
 31
0.0
  0
LINE
  5
1C04
330
1E
100
AcDbEntity
  8
3
100
AcDbLine
 10
1.368110236220472
 20
3.843503937007874
 30
0.0
 11
1.368110236220472
 21
3.845472440944881
 31
0.0
  0
LINE
  5
1C05
330
1E
100
AcDbEntity
  8
3
100
AcDbLine
 10
1.37007874015748
 20
3.843503937007874
 30
0.0
 11
1.37007874015748
 21
3.852362204724409
 31
0.0
  0
LINE
  5
1C06
330
1E
100
AcDbEntity
  8
3
100
AcDbLine
 10
1.372047244094487
 20
3.843503937007874
 30
0.0
 11
1.372047244094487
 21
3.860236220472441
 31
0.0
  0
LINE
  5
1C07
330
1E
100
AcDbEntity
  8
3
100
AcDbLine
 10
1.374015748031496
 20
3.843503937007874
 30
0.0
 11
1.374015748031496
 21
3.868110236220472
 31
0.0
  0
LINE
  5
1C08
330
1E
100
AcDbEntity
  8
3
100
AcDbLine
 10
1.375984251968503
 20
3.843503937007874
 30
0.0
 11
1.375984251968503
 21
3.875
 31
0.0
  0
LINE
  5
1C09
330
1E
100
AcDbEntity
  8
3
100
AcDbLine
 10
1.377952755905511
 20
3.843503937007874
 30
0.0
 11
1.377952755905511
 21
3.882874015748031
 31
0.0
  0
LINE
  5
1C0A
330
1E
100
AcDbEntity
  8
3
100
AcDbLine
 10
1.379921259842519
 20
3.843503937007874
 30
0.0
 11
1.379921259842519
 21
3.889763779527559
 31
0.0
  0
LINE
  5
1C0B
330
1E
100
AcDbEntity
  8
3
100
AcDbLine
 10
1.381889763779527
 20
3.843503937007874
 30
0.0
 11
1.381889763779527
 21
3.89763779527559
 31
0.0
  0
LINE
  5
1C0C
330
1E
100
AcDbEntity
  8
3
100
AcDbLine
 10
1.383858267716535
 20
3.843503937007874
 30
0.0
 11
1.383858267716535
 21
3.904527559055118
 31
0.0
  0
LINE
  5
1C0D
330
1E
100
AcDbEntity
  8
3
100
AcDbLine
 10
1.385826771653543
 20
3.843503937007874
 30
0.0
 11
1.385826771653543
 21
3.912401574803149
 31
0.0
  0
LINE
  5
1C0E
330
1E
100
AcDbEntity
  8
3
100
AcDbLine
 10
1.387795275590551
 20
3.843503937007874
 30
0.0
 11
1.387795275590551
 21
3.920275590551181
 31
0.0
  0
LINE
  5
1C0F
330
1E
100
AcDbEntity
  8
3
100
AcDbLine
 10
1.389763779527559
 20
3.843503937007874
 30
0.0
 11
1.389763779527559
 21
3.927165354330708
 31
0.0
  0
LINE
  5
1C10
330
1E
100
AcDbEntity
  8
3
100
AcDbLine
 10
1.391732283464566
 20
3.843503937007874
 30
0.0
 11
1.391732283464566
 21
3.93503937007874
 31
0.0
  0
LINE
  5
1C11
330
1E
100
AcDbEntity
  8
3
100
AcDbLine
 10
1.393700787401574
 20
3.843503937007874
 30
0.0
 11
1.393700787401574
 21
3.941929133858267
 31
0.0
  0
LINE
  5
1C12
330
1E
100
AcDbEntity
  8
3
100
AcDbLine
 10
1.395669291338582
 20
3.843503937007874
 30
0.0
 11
1.395669291338582
 21
3.949803149606299
 31
0.0
  0
LINE
  5
1C13
330
1E
100
AcDbEntity
  8
3
100
AcDbLine
 10
1.39763779527559
 20
3.843503937007874
 30
0.0
 11
1.39763779527559
 21
3.957677165354331
 31
0.0
  0
LINE
  5
1C14
330
1E
100
AcDbEntity
  8
3
100
AcDbLine
 10
1.399606299212598
 20
3.843503937007874
 30
0.0
 11
1.399606299212598
 21
3.964566929133858
 31
0.0
  0
LINE
  5
1C15
330
1E
100
AcDbEntity
  8
3
100
AcDbLine
 10
1.434055118110236
 20
3.843503937007874
 30
0.0
 11
1.434055118110236
 21
3.845472440944881
 31
0.0
  0
LINE
  5
1C16
330
1E
100
AcDbEntity
  8
3
100
AcDbLine
 10
1.434055118110236
 20
3.843503937007874
 30
0.0
 11
1.434055118110236
 21
3.845472440944881
 31
0.0
  0
LINE
  5
1C17
330
1E
100
AcDbEntity
  8
3
100
AcDbLine
 10
1.432086614173228
 20
3.843503937007874
 30
0.0
 11
1.432086614173228
 21
3.852362204724409
 31
0.0
  0
LINE
  5
1C18
330
1E
100
AcDbEntity
  8
3
100
AcDbLine
 10
1.43011811023622
 20
3.843503937007874
 30
0.0
 11
1.43011811023622
 21
3.860236220472441
 31
0.0
  0
LINE
  5
1C19
330
1E
100
AcDbEntity
  8
3
100
AcDbLine
 10
1.428149606299212
 20
3.843503937007874
 30
0.0
 11
1.428149606299212
 21
3.868110236220472
 31
0.0
  0
LINE
  5
1C1A
330
1E
100
AcDbEntity
  8
3
100
AcDbLine
 10
1.426181102362204
 20
3.843503937007874
 30
0.0
 11
1.426181102362204
 21
3.875
 31
0.0
  0
LINE
  5
1C1B
330
1E
100
AcDbEntity
  8
3
100
AcDbLine
 10
1.424212598425196
 20
3.843503937007874
 30
0.0
 11
1.424212598425196
 21
3.882874015748031
 31
0.0
  0
LINE
  5
1C1C
330
1E
100
AcDbEntity
  8
3
100
AcDbLine
 10
1.422244094488188
 20
3.843503937007874
 30
0.0
 11
1.422244094488188
 21
3.889763779527559
 31
0.0
  0
LINE
  5
1C1D
330
1E
100
AcDbEntity
  8
3
100
AcDbLine
 10
1.420275590551181
 20
3.843503937007874
 30
0.0
 11
1.420275590551181
 21
3.89763779527559
 31
0.0
  0
LINE
  5
1C1E
330
1E
100
AcDbEntity
  8
3
100
AcDbLine
 10
1.418307086614173
 20
3.843503937007874
 30
0.0
 11
1.418307086614173
 21
3.904527559055118
 31
0.0
  0
LINE
  5
1C1F
330
1E
100
AcDbEntity
  8
3
100
AcDbLine
 10
1.416338582677165
 20
3.843503937007874
 30
0.0
 11
1.416338582677165
 21
3.912401574803149
 31
0.0
  0
LINE
  5
1C20
330
1E
100
AcDbEntity
  8
3
100
AcDbLine
 10
1.414370078740157
 20
3.843503937007874
 30
0.0
 11
1.414370078740157
 21
3.920275590551181
 31
0.0
  0
LINE
  5
1C21
330
1E
100
AcDbEntity
  8
3
100
AcDbLine
 10
1.412401574803149
 20
3.843503937007874
 30
0.0
 11
1.412401574803149
 21
3.927165354330708
 31
0.0
  0
LINE
  5
1C22
330
1E
100
AcDbEntity
  8
3
100
AcDbLine
 10
1.410433070866141
 20
3.843503937007874
 30
0.0
 11
1.410433070866141
 21
3.93503937007874
 31
0.0
  0
LINE
  5
1C23
330
1E
100
AcDbEntity
  8
3
100
AcDbLine
 10
1.408464566929133
 20
3.843503937007874
 30
0.0
 11
1.408464566929133
 21
3.941929133858267
 31
0.0
  0
LINE
  5
1C24
330
1E
100
AcDbEntity
  8
3
100
AcDbLine
 10
1.406496062992125
 20
3.843503937007874
 30
0.0
 11
1.406496062992125
 21
3.949803149606299
 31
0.0
  0
LINE
  5
1C25
330
1E
100
AcDbEntity
  8
3
100
AcDbLine
 10
1.403543307086614
 20
3.843503937007874
 30
0.0
 11
1.403543307086614
 21
3.957677165354331
 31
0.0
  0
LINE
  5
1C26
330
1E
100
AcDbEntity
  8
3
100
AcDbLine
 10
1.401574803149606
 20
3.843503937007874
 30
0.0
 11
1.401574803149606
 21
3.964566929133858
 31
0.0
  0
LWPOLYLINE
  5
1C27
330
1E
100
AcDbEntity
  8
7
100
AcDbPolyline
 90
        4
 70
     0
 43
0.0098425196850394
 10
5.312007874015748
 20
3.448818897637795
 10
5.266732283464566
 20
3.448818897637795
 10
5.266732283464566
 20
3.279527559055118
 10
5.312007874015748
 20
3.279527559055118
  0
LWPOLYLINE
  5
1C2D
330
1E
100
AcDbEntity
  8
7
100
AcDbPolyline
 90
        4
 70
     0
 43
0.0098425196850394
 10
5.684055118110236
 20
3.279527559055118
 10
5.729330708661417
 20
3.279527559055118
 10
5.729330708661417
 20
3.448818897637795
 10
5.684055118110236
 20
3.448818897637795
  0
LINE
  5
1C33
330
1E
100
AcDbEntity
  8
3
100
AcDbLine
 10
4.409448818897637
 20
3.968503937007874
 30
0.0
 11
5.079724409448818
 21
3.968503937007874
 31
0.0
  0
LINE
  5
1C34
330
1E
100
AcDbEntity
  8
3
100
AcDbLine
 10
4.499015748031496
 20
4.315944881889763
 30
0.0
 11
5.079724409448818
 21
4.315944881889763
 31
0.0
  0
LINE
  5
1C35
330
1E
100
AcDbEntity
  8
3
100
AcDbLine
 10
4.954724409448818
 20
3.583661417322834
 30
0.0
 11
5.204724409448818
 21
3.583661417322834
 31
0.0
  0
LINE
  5
1C36
330
1E
100
AcDbEntity
  8
3
100
AcDbLine
 10
4.954724409448818
 20
4.315944881889763
 30
0.0
 11
4.954724409448818
 21
3.583661417322834
 31
0.0
  0
LWPOLYLINE
  5
1C37
330
1E
100
AcDbEntity
  8
7
100
AcDbPolyline
 90
        5
 70
     0
 43
0.0098425196850394
 10
5.303149606299212
 20
3.538385826771653
 10
5.320866141732283
 20
3.538385826771653
 10
5.320866141732283
 20
3.556102362204724
 10
5.303149606299212
 20
3.556102362204724
 10
5.303149606299212
 20
3.538385826771653
  0
LWPOLYLINE
  5
1C3E
330
1E
100
AcDbEntity
  8
7
100
AcDbPolyline
 90
        3
 70
     0
 43
0.0098425196850394
 10
5.400590551181102
 20
3.538385826771653
 10
5.445866141732283
 20
3.627952755905512
 10
5.375
 20
3.627952755905512
  0
LWPOLYLINE
  5
1C43
330
1E
100
AcDbEntity
  8
7
100
AcDbPolyline
 90
        3
 70
     0
 43
0.0098425196850394
 10
5.516732283464566
 20
3.538385826771653
 10
5.534448818897637
 20
3.548228346456693
 10
5.544291338582676
 20
3.573818897637795
  0
LWPOLYLINE
  5
1C48
330
1E
100
AcDbEntity
  8
7
100
AcDbPolyline
 90
       11
 70
     0
 43
0.0098425196850394
 10
5.544291338582676
 20
3.573818897637795
 10
5.544291338582676
 20
3.591535433070866
 10
5.534448818897637
 20
3.619094488188976
 10
5.516732283464566
 20
3.627952755905512
 10
5.499015748031496
 20
3.627952755905512
 10
5.481299212598425
 20
3.619094488188976
 10
5.471456692913386
 20
3.591535433070866
 10
5.472440944881889
 20
3.573818897637795
 10
5.481299212598425
 20
3.548228346456693
 10
5.499015748031496
 20
3.538385826771653
 10
5.516732283464566
 20
3.538385826771653
  0
LWPOLYLINE
  5
1C55
330
1E
100
AcDbEntity
  8
7
100
AcDbPolyline
 90
        3
 70
     0
 43
0.0098425196850394
 10
5.344488188976377
 20
3.400590551181102
 10
5.351377952755905
 20
3.408464566929133
 10
5.351377952755905
 20
3.318897637795275
  0
LINE
  5
1C5A
330
1E
100
AcDbEntity
  8
7
100
AcDbLine
 10
5.340551181102362
 20
3.318897637795275
 30
0.0
 11
5.363188976377952
 21
3.318897637795275
 31
0.0
  0
LWPOLYLINE
  5
1C5B
330
1E
100
AcDbEntity
  8
7
100
AcDbPolyline
 90
        3
 70
     0
 43
0.0098425196850394
 10
5.43996062992126
 20
3.318897637795275
 10
5.48523622047244
 20
3.408464566929133
 10
5.414370078740157
 20
3.408464566929133
  0
LWPOLYLINE
  5
1C60
330
1E
100
AcDbEntity
  8
7
100
AcDbPolyline
 90
        5
 70
     0
 43
0.0098425196850394
 10
5.538385826771653
 20
3.318897637795275
 10
5.556102362204724
 20
3.318897637795275
 10
5.556102362204724
 20
3.336614173228346
 10
5.538385826771653
 20
3.336614173228346
 10
5.538385826771653
 20
3.318897637795275
  0
LWPOLYLINE
  5
1C67
330
1E
100
AcDbEntity
  8
7
100
AcDbPolyline
 90
        3
 70
     0
 43
0.0098425196850394
 10
5.636811023622047
 20
3.318897637795275
 10
5.681102362204724
 20
3.408464566929133
 10
5.61023622047244
 20
3.408464566929133
  0
LWPOLYLINE
  5
1C6C
330
1E
100
AcDbEntity
  8
3
100
AcDbPolyline
 90
        4
 70
     0
 43
0.0098425196850394
 10
4.954724409448818
 20
3.968503937007874
 10
4.988188976377952
 20
4.093503937007874
 10
4.921259842519685
 20
4.093503937007874
 10
4.954724409448818
 20
3.968503937007874
  0
LINE
  5
1C72
330
1E
100
AcDbEntity
  8
3
100
AcDbLine
 10
4.987204724409449
 20
4.093503937007874
 30
0.0
 11
4.987204724409449
 21
4.091535433070866
 31
0.0
  0
LINE
  5
1C73
330
1E
100
AcDbEntity
  8
3
100
AcDbLine
 10
4.987204724409449
 20
4.093503937007874
 30
0.0
 11
4.987204724409449
 21
4.091535433070866
 31
0.0
  0
LINE
  5
1C74
330
1E
100
AcDbEntity
  8
3
100
AcDbLine
 10
4.98523622047244
 20
4.093503937007874
 30
0.0
 11
4.98523622047244
 21
4.084645669291338
 31
0.0
  0
LINE
  5
1C75
330
1E
100
AcDbEntity
  8
3
100
AcDbLine
 10
4.983267716535433
 20
4.093503937007874
 30
0.0
 11
4.983267716535433
 21
4.076771653543307
 31
0.0
  0
LINE
  5
1C76
330
1E
100
AcDbEntity
  8
3
100
AcDbLine
 10
4.981299212598425
 20
4.093503937007874
 30
0.0
 11
4.981299212598425
 21
4.068897637795275
 31
0.0
  0
LINE
  5
1C77
330
1E
100
AcDbEntity
  8
3
100
AcDbLine
 10
4.979330708661417
 20
4.093503937007874
 30
0.0
 11
4.979330708661417
 21
4.062007874015748
 31
0.0
  0
LINE
  5
1C78
330
1E
100
AcDbEntity
  8
3
100
AcDbLine
 10
4.977362204724409
 20
4.093503937007874
 30
0.0
 11
4.977362204724409
 21
4.054133858267716
 31
0.0
  0
LINE
  5
1C79
330
1E
100
AcDbEntity
  8
3
100
AcDbLine
 10
4.975393700787401
 20
4.093503937007874
 30
0.0
 11
4.975393700787401
 21
4.047244094488188
 31
0.0
  0
LINE
  5
1C7A
330
1E
100
AcDbEntity
  8
3
100
AcDbLine
 10
4.973425196850393
 20
4.093503937007874
 30
0.0
 11
4.973425196850393
 21
4.039370078740157
 31
0.0
  0
LINE
  5
1C7B
330
1E
100
AcDbEntity
  8
3
100
AcDbLine
 10
4.971456692913386
 20
4.093503937007874
 30
0.0
 11
4.971456692913386
 21
4.031496062992125
 31
0.0
  0
LINE
  5
1C7C
330
1E
100
AcDbEntity
  8
3
100
AcDbLine
 10
4.969488188976377
 20
4.093503937007874
 30
0.0
 11
4.969488188976377
 21
4.024606299212598
 31
0.0
  0
LINE
  5
1C7D
330
1E
100
AcDbEntity
  8
3
100
AcDbLine
 10
4.96751968503937
 20
4.093503937007874
 30
0.0
 11
4.96751968503937
 21
4.016732283464566
 31
0.0
  0
LINE
  5
1C7E
330
1E
100
AcDbEntity
  8
3
100
AcDbLine
 10
4.965551181102362
 20
4.093503937007874
 30
0.0
 11
4.965551181102362
 21
4.009842519685038
 31
0.0
  0
LINE
  5
1C7F
330
1E
100
AcDbEntity
  8
3
100
AcDbLine
 10
4.963582677165354
 20
4.093503937007874
 30
0.0
 11
4.963582677165354
 21
4.001968503937007
 31
0.0
  0
LINE
  5
1C80
330
1E
100
AcDbEntity
  8
3
100
AcDbLine
 10
4.961614173228346
 20
4.093503937007874
 30
0.0
 11
4.961614173228346
 21
3.994094488188976
 31
0.0
  0
LINE
  5
1C81
330
1E
100
AcDbEntity
  8
3
100
AcDbLine
 10
4.959645669291338
 20
4.093503937007874
 30
0.0
 11
4.959645669291338
 21
3.987204724409449
 31
0.0
  0
LINE
  5
1C82
330
1E
100
AcDbEntity
  8
3
100
AcDbLine
 10
4.95767716535433
 20
4.093503937007874
 30
0.0
 11
4.95767716535433
 21
3.979330708661417
 31
0.0
  0
LINE
  5
1C83
330
1E
100
AcDbEntity
  8
3
100
AcDbLine
 10
4.955708661417323
 20
4.093503937007874
 30
0.0
 11
4.955708661417323
 21
3.972440944881889
 31
0.0
  0
LINE
  5
1C84
330
1E
100
AcDbEntity
  8
3
100
AcDbLine
 10
4.921259842519685
 20
4.093503937007874
 30
0.0
 11
4.921259842519685
 21
4.091535433070866
 31
0.0
  0
LINE
  5
1C85
330
1E
100
AcDbEntity
  8
3
100
AcDbLine
 10
4.921259842519685
 20
4.093503937007874
 30
0.0
 11
4.921259842519685
 21
4.091535433070866
 31
0.0
  0
LINE
  5
1C86
330
1E
100
AcDbEntity
  8
3
100
AcDbLine
 10
4.923228346456692
 20
4.093503937007874
 30
0.0
 11
4.923228346456692
 21
4.084645669291338
 31
0.0
  0
LINE
  5
1C87
330
1E
100
AcDbEntity
  8
3
100
AcDbLine
 10
4.9251968503937
 20
4.093503937007874
 30
0.0
 11
4.9251968503937
 21
4.076771653543307
 31
0.0
  0
LINE
  5
1C88
330
1E
100
AcDbEntity
  8
3
100
AcDbLine
 10
4.928149606299212
 20
4.093503937007874
 30
0.0
 11
4.928149606299212
 21
4.068897637795275
 31
0.0
  0
LINE
  5
1C89
330
1E
100
AcDbEntity
  8
3
100
AcDbLine
 10
4.93011811023622
 20
4.093503937007874
 30
0.0
 11
4.93011811023622
 21
4.062007874015748
 31
0.0
  0
LINE
  5
1C8A
330
1E
100
AcDbEntity
  8
3
100
AcDbLine
 10
4.932086614173228
 20
4.093503937007874
 30
0.0
 11
4.932086614173228
 21
4.054133858267716
 31
0.0
  0
LINE
  5
1C8B
330
1E
100
AcDbEntity
  8
3
100
AcDbLine
 10
4.934055118110236
 20
4.093503937007874
 30
0.0
 11
4.934055118110236
 21
4.047244094488188
 31
0.0
  0
LINE
  5
1C8C
330
1E
100
AcDbEntity
  8
3
100
AcDbLine
 10
4.936023622047244
 20
4.093503937007874
 30
0.0
 11
4.936023622047244
 21
4.039370078740157
 31
0.0
  0
LINE
  5
1C8D
330
1E
100
AcDbEntity
  8
3
100
AcDbLine
 10
4.937992125984251
 20
4.093503937007874
 30
0.0
 11
4.937992125984251
 21
4.031496062992125
 31
0.0
  0
LINE
  5
1C8E
330
1E
100
AcDbEntity
  8
3
100
AcDbLine
 10
4.93996062992126
 20
4.093503937007874
 30
0.0
 11
4.93996062992126
 21
4.024606299212598
 31
0.0
  0
LINE
  5
1C8F
330
1E
100
AcDbEntity
  8
3
100
AcDbLine
 10
4.941929133858267
 20
4.093503937007874
 30
0.0
 11
4.941929133858267
 21
4.016732283464566
 31
0.0
  0
LINE
  5
1C90
330
1E
100
AcDbEntity
  8
3
100
AcDbLine
 10
4.943897637795275
 20
4.093503937007874
 30
0.0
 11
4.943897637795275
 21
4.009842519685038
 31
0.0
  0
LINE
  5
1C91
330
1E
100
AcDbEntity
  8
3
100
AcDbLine
 10
4.945866141732283
 20
4.093503937007874
 30
0.0
 11
4.945866141732283
 21
4.001968503937007
 31
0.0
  0
LINE
  5
1C92
330
1E
100
AcDbEntity
  8
3
100
AcDbLine
 10
4.947834645669291
 20
4.093503937007874
 30
0.0
 11
4.947834645669291
 21
3.994094488188976
 31
0.0
  0
LINE
  5
1C93
330
1E
100
AcDbEntity
  8
3
100
AcDbLine
 10
4.949803149606299
 20
4.093503937007874
 30
0.0
 11
4.949803149606299
 21
3.987204724409449
 31
0.0
  0
LINE
  5
1C94
330
1E
100
AcDbEntity
  8
3
100
AcDbLine
 10
4.951771653543307
 20
4.093503937007874
 30
0.0
 11
4.951771653543307
 21
3.979330708661417
 31
0.0
  0
LINE
  5
1C95
330
1E
100
AcDbEntity
  8
3
100
AcDbLine
 10
4.953740157480314
 20
4.093503937007874
 30
0.0
 11
4.953740157480314
 21
3.972440944881889
 31
0.0
  0
LWPOLYLINE
  5
1C96
330
1E
100
AcDbEntity
  8
3
100
AcDbPolyline
 90
        4
 70
     0
 43
0.0098425196850394
 10
4.954724409448818
 20
4.315944881889763
 10
4.921259842519685
 20
4.190944881889763
 10
4.988188976377952
 20
4.190944881889763
 10
4.954724409448818
 20
4.315944881889763
  0
LINE
  5
1C9C
330
1E
100
AcDbEntity
  8
3
100
AcDbLine
 10
4.921259842519685
 20
4.190944881889763
 30
0.0
 11
4.921259842519685
 21
4.192913385826771
 31
0.0
  0
LINE
  5
1C9D
330
1E
100
AcDbEntity
  8
3
100
AcDbLine
 10
4.921259842519685
 20
4.190944881889763
 30
0.0
 11
4.921259842519685
 21
4.192913385826771
 31
0.0
  0
LINE
  5
1C9E
330
1E
100
AcDbEntity
  8
3
100
AcDbLine
 10
4.923228346456692
 20
4.190944881889763
 30
0.0
 11
4.923228346456692
 21
4.199803149606299
 31
0.0
  0
LINE
  5
1C9F
330
1E
100
AcDbEntity
  8
3
100
AcDbLine
 10
4.9251968503937
 20
4.190944881889763
 30
0.0
 11
4.9251968503937
 21
4.20767716535433
 31
0.0
  0
LINE
  5
1CA0
330
1E
100
AcDbEntity
  8
3
100
AcDbLine
 10
4.928149606299212
 20
4.190944881889763
 30
0.0
 11
4.928149606299212
 21
4.215551181102362
 31
0.0
  0
LINE
  5
1CA1
330
1E
100
AcDbEntity
  8
3
100
AcDbLine
 10
4.93011811023622
 20
4.190944881889763
 30
0.0
 11
4.93011811023622
 21
4.222440944881889
 31
0.0
  0
LINE
  5
1CA2
330
1E
100
AcDbEntity
  8
3
100
AcDbLine
 10
4.932086614173228
 20
4.190944881889763
 30
0.0
 11
4.932086614173228
 21
4.230314960629921
 31
0.0
  0
LINE
  5
1CA3
330
1E
100
AcDbEntity
  8
3
100
AcDbLine
 10
4.934055118110236
 20
4.190944881889763
 30
0.0
 11
4.934055118110236
 21
4.237204724409449
 31
0.0
  0
LINE
  5
1CA4
330
1E
100
AcDbEntity
  8
3
100
AcDbLine
 10
4.936023622047244
 20
4.190944881889763
 30
0.0
 11
4.936023622047244
 21
4.24507874015748
 31
0.0
  0
LINE
  5
1CA5
330
1E
100
AcDbEntity
  8
3
100
AcDbLine
 10
4.937992125984251
 20
4.190944881889763
 30
0.0
 11
4.937992125984251
 21
4.252952755905512
 31
0.0
  0
LINE
  5
1CA6
330
1E
100
AcDbEntity
  8
3
100
AcDbLine
 10
4.93996062992126
 20
4.190944881889763
 30
0.0
 11
4.93996062992126
 21
4.259842519685039
 31
0.0
  0
LINE
  5
1CA7
330
1E
100
AcDbEntity
  8
3
100
AcDbLine
 10
4.941929133858267
 20
4.190944881889763
 30
0.0
 11
4.941929133858267
 21
4.267716535433071
 31
0.0
  0
LINE
  5
1CA8
330
1E
100
AcDbEntity
  8
3
100
AcDbLine
 10
4.943897637795275
 20
4.190944881889763
 30
0.0
 11
4.943897637795275
 21
4.274606299212598
 31
0.0
  0
LINE
  5
1CA9
330
1E
100
AcDbEntity
  8
3
100
AcDbLine
 10
4.945866141732283
 20
4.190944881889763
 30
0.0
 11
4.945866141732283
 21
4.282480314960629
 31
0.0
  0
LINE
  5
1CAA
330
1E
100
AcDbEntity
  8
3
100
AcDbLine
 10
4.947834645669291
 20
4.190944881889763
 30
0.0
 11
4.947834645669291
 21
4.289370078740157
 31
0.0
  0
LINE
  5
1CAB
330
1E
100
AcDbEntity
  8
3
100
AcDbLine
 10
4.949803149606299
 20
4.190944881889763
 30
0.0
 11
4.949803149606299
 21
4.297244094488188
 31
0.0
  0
LINE
  5
1CAC
330
1E
100
AcDbEntity
  8
3
100
AcDbLine
 10
4.951771653543307
 20
4.190944881889763
 30
0.0
 11
4.951771653543307
 21
4.30511811023622
 31
0.0
  0
LINE
  5
1CAD
330
1E
100
AcDbEntity
  8
3
100
AcDbLine
 10
4.953740157480314
 20
4.190944881889763
 30
0.0
 11
4.953740157480314
 21
4.312007874015748
 31
0.0
  0
LINE
  5
1CAE
330
1E
100
AcDbEntity
  8
3
100
AcDbLine
 10
4.987204724409449
 20
4.190944881889763
 30
0.0
 11
4.987204724409449
 21
4.192913385826771
 31
0.0
  0
LINE
  5
1CAF
330
1E
100
AcDbEntity
  8
3
100
AcDbLine
 10
4.987204724409449
 20
4.190944881889763
 30
0.0
 11
4.987204724409449
 21
4.192913385826771
 31
0.0
  0
LINE
  5
1CB0
330
1E
100
AcDbEntity
  8
3
100
AcDbLine
 10
4.98523622047244
 20
4.190944881889763
 30
0.0
 11
4.98523622047244
 21
4.199803149606299
 31
0.0
  0
LINE
  5
1CB1
330
1E
100
AcDbEntity
  8
3
100
AcDbLine
 10
4.983267716535433
 20
4.190944881889763
 30
0.0
 11
4.983267716535433
 21
4.20767716535433
 31
0.0
  0
LINE
  5
1CB2
330
1E
100
AcDbEntity
  8
3
100
AcDbLine
 10
4.981299212598425
 20
4.190944881889763
 30
0.0
 11
4.981299212598425
 21
4.215551181102362
 31
0.0
  0
LINE
  5
1CB3
330
1E
100
AcDbEntity
  8
3
100
AcDbLine
 10
4.979330708661417
 20
4.190944881889763
 30
0.0
 11
4.979330708661417
 21
4.222440944881889
 31
0.0
  0
LINE
  5
1CB4
330
1E
100
AcDbEntity
  8
3
100
AcDbLine
 10
4.977362204724409
 20
4.190944881889763
 30
0.0
 11
4.977362204724409
 21
4.230314960629921
 31
0.0
  0
LINE
  5
1CB5
330
1E
100
AcDbEntity
  8
3
100
AcDbLine
 10
4.975393700787401
 20
4.190944881889763
 30
0.0
 11
4.975393700787401
 21
4.237204724409449
 31
0.0
  0
LINE
  5
1CB6
330
1E
100
AcDbEntity
  8
3
100
AcDbLine
 10
4.973425196850393
 20
4.190944881889763
 30
0.0
 11
4.973425196850393
 21
4.24507874015748
 31
0.0
  0
LINE
  5
1CB7
330
1E
100
AcDbEntity
  8
3
100
AcDbLine
 10
4.971456692913386
 20
4.190944881889763
 30
0.0
 11
4.971456692913386
 21
4.252952755905512
 31
0.0
  0
LINE
  5
1CB8
330
1E
100
AcDbEntity
  8
3
100
AcDbLine
 10
4.969488188976377
 20
4.190944881889763
 30
0.0
 11
4.969488188976377
 21
4.259842519685039
 31
0.0
  0
LINE
  5
1CB9
330
1E
100
AcDbEntity
  8
3
100
AcDbLine
 10
4.96751968503937
 20
4.190944881889763
 30
0.0
 11
4.96751968503937
 21
4.267716535433071
 31
0.0
  0
LINE
  5
1CBA
330
1E
100
AcDbEntity
  8
3
100
AcDbLine
 10
4.965551181102362
 20
4.190944881889763
 30
0.0
 11
4.965551181102362
 21
4.274606299212598
 31
0.0
  0
LINE
  5
1CBB
330
1E
100
AcDbEntity
  8
3
100
AcDbLine
 10
4.963582677165354
 20
4.190944881889763
 30
0.0
 11
4.963582677165354
 21
4.282480314960629
 31
0.0
  0
LINE
  5
1CBC
330
1E
100
AcDbEntity
  8
3
100
AcDbLine
 10
4.961614173228346
 20
4.190944881889763
 30
0.0
 11
4.961614173228346
 21
4.289370078740157
 31
0.0
  0
LINE
  5
1CBD
330
1E
100
AcDbEntity
  8
3
100
AcDbLine
 10
4.959645669291338
 20
4.190944881889763
 30
0.0
 11
4.959645669291338
 21
4.297244094488188
 31
0.0
  0
LINE
  5
1CBE
330
1E
100
AcDbEntity
  8
3
100
AcDbLine
 10
4.95767716535433
 20
4.190944881889763
 30
0.0
 11
4.95767716535433
 21
4.30511811023622
 31
0.0
  0
LINE
  5
1CBF
330
1E
100
AcDbEntity
  8
3
100
AcDbLine
 10
4.955708661417323
 20
4.190944881889763
 30
0.0
 11
4.955708661417323
 21
4.312007874015748
 31
0.0
  0
LWPOLYLINE
  5
1CC0
330
1E
100
AcDbEntity
  8
7
100
AcDbPolyline
 90
        4
 70
     0
 43
0.0098425196850394
 10
1.173228346456692
 20
7.037401574803149
 10
1.128937007874015
 20
7.037401574803149
 10
1.128937007874015
 20
6.869094488188976
 10
1.173228346456692
 20
6.869094488188976
  0
LWPOLYLINE
  5
1CC6
330
1E
100
AcDbEntity
  8
7
100
AcDbPolyline
 90
        4
 70
     0
 43
0.0098425196850394
 10
1.545275590551181
 20
6.869094488188976
 10
1.590551181102362
 20
6.869094488188976
 10
1.590551181102362
 20
7.037401574803149
 10
1.545275590551181
 20
7.037401574803149
  0
LINE
  5
1CCC
330
1E
100
AcDbEntity
  8
3
100
AcDbLine
 10
2.248031496062992
 20
6.046259842519685
 30
0.0
 11
1.601377952755905
 21
6.046259842519685
 31
0.0
  0
LINE
  5
1CCD
330
1E
100
AcDbEntity
  8
3
100
AcDbLine
 10
2.241141732283464
 20
6.431102362204724
 30
0.0
 11
1.601377952755905
 21
6.431102362204724
 31
0.0
  0
LINE
  5
1CCE
330
1E
100
AcDbEntity
  8
3
100
AcDbLine
 10
1.726377952755905
 20
7.172244094488188
 30
0.0
 11
1.476377952755905
 21
7.172244094488188
 31
0.0
  0
LINE
  5
1CCF
330
1E
100
AcDbEntity
  8
3
100
AcDbLine
 10
1.726377952755905
 20
6.046259842519685
 30
0.0
 11
1.726377952755905
 21
7.172244094488188
 31
0.0
  0
LWPOLYLINE
  5
1CD0
330
1E
100
AcDbEntity
  8
7
100
AcDbPolyline
 90
        5
 70
     0
 43
0.0098425196850394
 10
1.164370078740157
 20
7.127952755905512
 10
1.182086614173228
 20
7.127952755905512
 10
1.182086614173228
 20
7.145669291338582
 10
1.164370078740157
 20
7.145669291338582
 10
1.164370078740157
 20
7.127952755905512
  0
LWPOLYLINE
  5
1CD7
330
1E
100
AcDbEntity
  8
7
100
AcDbPolyline
 90
        3
 70
     0
 43
0.0098425196850394
 10
1.261811023622047
 20
7.127952755905512
 10
1.307086614173228
 20
7.216535433070865
 10
1.236220472440944
 20
7.216535433070865
  0
LWPOLYLINE
  5
1CDC
330
1E
100
AcDbEntity
  8
7
100
AcDbPolyline
 90
        3
 70
     0
 43
0.0098425196850394
 10
1.36023622047244
 20
7.127952755905512
 10
1.405511811023622
 20
7.216535433070865
 10
1.333661417322834
 20
7.216535433070865
  0
LWPOLYLINE
  5
1CE1
330
1E
100
AcDbEntity
  8
7
100
AcDbPolyline
 90
        3
 70
     0
 43
0.0098425196850394
 10
1.205708661417322
 20
6.990157480314961
 10
1.21259842519685
 20
6.997047244094487
 10
1.21259842519685
 20
6.908464566929134
  0
LINE
  5
1CE6
330
1E
100
AcDbEntity
  8
7
100
AcDbLine
 10
1.201771653543306
 20
6.908464566929134
 30
0.0
 11
1.224409448818897
 21
6.908464566929134
 31
0.0
  0
LWPOLYLINE
  5
1CE7
330
1E
100
AcDbEntity
  8
7
100
AcDbPolyline
 90
        9
 70
     0
 43
0.0098425196850394
 10
1.275590551181102
 20
6.926181102362204
 10
1.292322834645669
 20
6.908464566929134
 10
1.328740157480314
 20
6.908464566929134
 10
1.346456692913385
 20
6.926181102362204
 10
1.346456692913385
 20
6.979330708661417
 10
1.328740157480314
 20
6.997047244094487
 10
1.292322834645669
 20
6.997047244094487
 10
1.275590551181102
 20
6.979330708661417
 10
1.274606299212598
 20
6.961614173228346
  0
LWPOLYLINE
  5
1CF2
330
1E
100
AcDbEntity
  8
7
100
AcDbPolyline
 90
        4
 70
     0
 43
0.0098425196850394
 10
1.274606299212598
 20
6.961614173228346
 10
1.292322834645669
 20
6.943897637795275
 10
1.328740157480314
 20
6.943897637795275
 10
1.346456692913385
 20
6.961614173228346
  0
LWPOLYLINE
  5
1CF8
330
1E
100
AcDbEntity
  8
7
100
AcDbPolyline
 90
        5
 70
     0
 43
0.0098425196850394
 10
1.399606299212598
 20
6.908464566929134
 10
1.417322834645669
 20
6.908464566929134
 10
1.417322834645669
 20
6.926181102362204
 10
1.399606299212598
 20
6.926181102362204
 10
1.399606299212598
 20
6.908464566929134
  0
LWPOLYLINE
  5
1CFF
330
1E
100
AcDbEntity
  8
7
100
AcDbPolyline
 90
        6
 70
     0
 43
0.0098425196850394
 10
1.471456692913385
 20
6.943897637795275
 10
1.488188976377952
 20
6.961614173228346
 10
1.524606299212598
 20
6.961614173228346
 10
1.542322834645669
 20
6.943897637795275
 10
1.542322834645669
 20
6.926181102362204
 10
1.524606299212598
 20
6.908464566929134
  0
LWPOLYLINE
  5
1D07
330
1E
100
AcDbEntity
  8
7
100
AcDbPolyline
 90
        7
 70
     0
 43
0.0098425196850394
 10
1.524606299212598
 20
6.908464566929134
 10
1.488188976377952
 20
6.908464566929134
 10
1.471456692913385
 20
6.926181102362204
 10
1.471456692913385
 20
6.979330708661417
 10
1.488188976377952
 20
6.997047244094487
 10
1.524606299212598
 20
6.997047244094487
 10
1.542322834645669
 20
6.979330708661417
  0
LWPOLYLINE
  5
1D10
330
1E
100
AcDbEntity
  8
3
100
AcDbPolyline
 90
        4
 70
     0
 43
0.0098425196850394
 10
1.726377952755905
 20
6.046259842519685
 10
1.759842519685039
 20
6.171259842519685
 10
1.692913385826771
 20
6.171259842519685
 10
1.726377952755905
 20
6.046259842519685
  0
LINE
  5
1D16
330
1E
100
AcDbEntity
  8
3
100
AcDbLine
 10
1.758858267716535
 20
6.171259842519685
 30
0.0
 11
1.758858267716535
 21
6.169291338582676
 31
0.0
  0
LINE
  5
1D17
330
1E
100
AcDbEntity
  8
3
100
AcDbLine
 10
1.758858267716535
 20
6.171259842519685
 30
0.0
 11
1.758858267716535
 21
6.169291338582676
 31
0.0
  0
LINE
  5
1D18
330
1E
100
AcDbEntity
  8
3
100
AcDbLine
 10
1.756889763779527
 20
6.171259842519685
 30
0.0
 11
1.756889763779527
 21
6.162401574803149
 31
0.0
  0
LINE
  5
1D19
330
1E
100
AcDbEntity
  8
3
100
AcDbLine
 10
1.754921259842519
 20
6.171259842519685
 30
0.0
 11
1.754921259842519
 21
6.154527559055118
 31
0.0
  0
LINE
  5
1D1A
330
1E
100
AcDbEntity
  8
3
100
AcDbLine
 10
1.752952755905511
 20
6.171259842519685
 30
0.0
 11
1.752952755905511
 21
6.146653543307087
 31
0.0
  0
LINE
  5
1D1B
330
1E
100
AcDbEntity
  8
3
100
AcDbLine
 10
1.750984251968503
 20
6.171259842519685
 30
0.0
 11
1.750984251968503
 21
6.139763779527559
 31
0.0
  0
LINE
  5
1D1C
330
1E
100
AcDbEntity
  8
3
100
AcDbLine
 10
1.749015748031495
 20
6.171259842519685
 30
0.0
 11
1.749015748031495
 21
6.131889763779527
 31
0.0
  0
LINE
  5
1D1D
330
1E
100
AcDbEntity
  8
3
100
AcDbLine
 10
1.747047244094487
 20
6.171259842519685
 30
0.0
 11
1.747047244094487
 21
6.125
 31
0.0
  0
LINE
  5
1D1E
330
1E
100
AcDbEntity
  8
3
100
AcDbLine
 10
1.74507874015748
 20
6.171259842519685
 30
0.0
 11
1.74507874015748
 21
6.117125984251968
 31
0.0
  0
LINE
  5
1D1F
330
1E
100
AcDbEntity
  8
3
100
AcDbLine
 10
1.743110236220472
 20
6.171259842519685
 30
0.0
 11
1.743110236220472
 21
6.11023622047244
 31
0.0
  0
LINE
  5
1D20
330
1E
100
AcDbEntity
  8
3
100
AcDbLine
 10
1.741141732283464
 20
6.171259842519685
 30
0.0
 11
1.741141732283464
 21
6.102362204724409
 31
0.0
  0
LINE
  5
1D21
330
1E
100
AcDbEntity
  8
3
100
AcDbLine
 10
1.739173228346456
 20
6.171259842519685
 30
0.0
 11
1.739173228346456
 21
6.094488188976377
 31
0.0
  0
LINE
  5
1D22
330
1E
100
AcDbEntity
  8
3
100
AcDbLine
 10
1.737204724409448
 20
6.171259842519685
 30
0.0
 11
1.737204724409448
 21
6.08759842519685
 31
0.0
  0
LINE
  5
1D23
330
1E
100
AcDbEntity
  8
3
100
AcDbLine
 10
1.73523622047244
 20
6.171259842519685
 30
0.0
 11
1.73523622047244
 21
6.079724409448818
 31
0.0
  0
LINE
  5
1D24
330
1E
100
AcDbEntity
  8
3
100
AcDbLine
 10
1.733267716535432
 20
6.171259842519685
 30
0.0
 11
1.733267716535432
 21
6.072834645669291
 31
0.0
  0
LINE
  5
1D25
330
1E
100
AcDbEntity
  8
3
100
AcDbLine
 10
1.731299212598425
 20
6.171259842519685
 30
0.0
 11
1.731299212598425
 21
6.06496062992126
 31
0.0
  0
LINE
  5
1D26
330
1E
100
AcDbEntity
  8
3
100
AcDbLine
 10
1.729330708661417
 20
6.171259842519685
 30
0.0
 11
1.729330708661417
 21
6.057086614173228
 31
0.0
  0
LINE
  5
1D27
330
1E
100
AcDbEntity
  8
3
100
AcDbLine
 10
1.727362204724409
 20
6.171259842519685
 30
0.0
 11
1.727362204724409
 21
6.0501968503937
 31
0.0
  0
LINE
  5
1D28
330
1E
100
AcDbEntity
  8
3
100
AcDbLine
 10
1.692913385826771
 20
6.171259842519685
 30
0.0
 11
1.692913385826771
 21
6.169291338582676
 31
0.0
  0
LINE
  5
1D29
330
1E
100
AcDbEntity
  8
3
100
AcDbLine
 10
1.692913385826771
 20
6.171259842519685
 30
0.0
 11
1.692913385826771
 21
6.169291338582676
 31
0.0
  0
LINE
  5
1D2A
330
1E
100
AcDbEntity
  8
3
100
AcDbLine
 10
1.694881889763779
 20
6.171259842519685
 30
0.0
 11
1.694881889763779
 21
6.162401574803149
 31
0.0
  0
LINE
  5
1D2B
330
1E
100
AcDbEntity
  8
3
100
AcDbLine
 10
1.696850393700787
 20
6.171259842519685
 30
0.0
 11
1.696850393700787
 21
6.154527559055118
 31
0.0
  0
LINE
  5
1D2C
330
1E
100
AcDbEntity
  8
3
100
AcDbLine
 10
1.698818897637795
 20
6.171259842519685
 30
0.0
 11
1.698818897637795
 21
6.146653543307087
 31
0.0
  0
LINE
  5
1D2D
330
1E
100
AcDbEntity
  8
3
100
AcDbLine
 10
1.700787401574802
 20
6.171259842519685
 30
0.0
 11
1.700787401574802
 21
6.139763779527559
 31
0.0
  0
LINE
  5
1D2E
330
1E
100
AcDbEntity
  8
3
100
AcDbLine
 10
1.70275590551181
 20
6.171259842519685
 30
0.0
 11
1.70275590551181
 21
6.131889763779527
 31
0.0
  0
LINE
  5
1D2F
330
1E
100
AcDbEntity
  8
3
100
AcDbLine
 10
1.704724409448818
 20
6.171259842519685
 30
0.0
 11
1.704724409448818
 21
6.125
 31
0.0
  0
LINE
  5
1D30
330
1E
100
AcDbEntity
  8
3
100
AcDbLine
 10
1.706692913385826
 20
6.171259842519685
 30
0.0
 11
1.706692913385826
 21
6.117125984251968
 31
0.0
  0
LINE
  5
1D31
330
1E
100
AcDbEntity
  8
3
100
AcDbLine
 10
1.709645669291338
 20
6.171259842519685
 30
0.0
 11
1.709645669291338
 21
6.11023622047244
 31
0.0
  0
LINE
  5
1D32
330
1E
100
AcDbEntity
  8
3
100
AcDbLine
 10
1.711614173228346
 20
6.171259842519685
 30
0.0
 11
1.711614173228346
 21
6.102362204724409
 31
0.0
  0
LINE
  5
1D33
330
1E
100
AcDbEntity
  8
3
100
AcDbLine
 10
1.713582677165354
 20
6.171259842519685
 30
0.0
 11
1.713582677165354
 21
6.094488188976377
 31
0.0
  0
LINE
  5
1D34
330
1E
100
AcDbEntity
  8
3
100
AcDbLine
 10
1.715551181102362
 20
6.171259842519685
 30
0.0
 11
1.715551181102362
 21
6.08759842519685
 31
0.0
  0
LINE
  5
1D35
330
1E
100
AcDbEntity
  8
3
100
AcDbLine
 10
1.717519685039369
 20
6.171259842519685
 30
0.0
 11
1.717519685039369
 21
6.079724409448818
 31
0.0
  0
LINE
  5
1D36
330
1E
100
AcDbEntity
  8
3
100
AcDbLine
 10
1.719488188976377
 20
6.171259842519685
 30
0.0
 11
1.719488188976377
 21
6.072834645669291
 31
0.0
  0
LINE
  5
1D37
330
1E
100
AcDbEntity
  8
3
100
AcDbLine
 10
1.721456692913385
 20
6.171259842519685
 30
0.0
 11
1.721456692913385
 21
6.06496062992126
 31
0.0
  0
LINE
  5
1D38
330
1E
100
AcDbEntity
  8
3
100
AcDbLine
 10
1.723425196850393
 20
6.171259842519685
 30
0.0
 11
1.723425196850393
 21
6.057086614173228
 31
0.0
  0
LINE
  5
1D39
330
1E
100
AcDbEntity
  8
3
100
AcDbLine
 10
1.725393700787401
 20
6.171259842519685
 30
0.0
 11
1.725393700787401
 21
6.0501968503937
 31
0.0
  0
LWPOLYLINE
  5
1D3A
330
1E
100
AcDbEntity
  8
3
100
AcDbPolyline
 90
        4
 70
     0
 43
0.0098425196850394
 10
1.726377952755905
 20
6.431102362204724
 10
1.692913385826771
 20
6.306102362204724
 10
1.759842519685039
 20
6.306102362204724
 10
1.726377952755905
 20
6.431102362204724
  0
LINE
  5
1D40
330
1E
100
AcDbEntity
  8
3
100
AcDbLine
 10
1.692913385826771
 20
6.306102362204724
 30
0.0
 11
1.692913385826771
 21
6.308070866141732
 31
0.0
  0
LINE
  5
1D41
330
1E
100
AcDbEntity
  8
3
100
AcDbLine
 10
1.692913385826771
 20
6.306102362204724
 30
0.0
 11
1.692913385826771
 21
6.308070866141732
 31
0.0
  0
LINE
  5
1D42
330
1E
100
AcDbEntity
  8
3
100
AcDbLine
 10
1.694881889763779
 20
6.306102362204724
 30
0.0
 11
1.694881889763779
 21
6.315944881889763
 31
0.0
  0
LINE
  5
1D43
330
1E
100
AcDbEntity
  8
3
100
AcDbLine
 10
1.696850393700787
 20
6.306102362204724
 30
0.0
 11
1.696850393700787
 21
6.322834645669291
 31
0.0
  0
LINE
  5
1D44
330
1E
100
AcDbEntity
  8
3
100
AcDbLine
 10
1.698818897637795
 20
6.306102362204724
 30
0.0
 11
1.698818897637795
 21
6.330708661417323
 31
0.0
  0
LINE
  5
1D45
330
1E
100
AcDbEntity
  8
3
100
AcDbLine
 10
1.700787401574802
 20
6.306102362204724
 30
0.0
 11
1.700787401574802
 21
6.33759842519685
 31
0.0
  0
LINE
  5
1D46
330
1E
100
AcDbEntity
  8
3
100
AcDbLine
 10
1.70275590551181
 20
6.306102362204724
 30
0.0
 11
1.70275590551181
 21
6.345472440944881
 31
0.0
  0
LINE
  5
1D47
330
1E
100
AcDbEntity
  8
3
100
AcDbLine
 10
1.704724409448818
 20
6.306102362204724
 30
0.0
 11
1.704724409448818
 21
6.353346456692913
 31
0.0
  0
LINE
  5
1D48
330
1E
100
AcDbEntity
  8
3
100
AcDbLine
 10
1.706692913385826
 20
6.306102362204724
 30
0.0
 11
1.706692913385826
 21
6.36023622047244
 31
0.0
  0
LINE
  5
1D49
330
1E
100
AcDbEntity
  8
3
100
AcDbLine
 10
1.709645669291338
 20
6.306102362204724
 30
0.0
 11
1.709645669291338
 21
6.368110236220472
 31
0.0
  0
LINE
  5
1D4A
330
1E
100
AcDbEntity
  8
3
100
AcDbLine
 10
1.711614173228346
 20
6.306102362204724
 30
0.0
 11
1.711614173228346
 21
6.375
 31
0.0
  0
LINE
  5
1D4B
330
1E
100
AcDbEntity
  8
3
100
AcDbLine
 10
1.713582677165354
 20
6.306102362204724
 30
0.0
 11
1.713582677165354
 21
6.382874015748031
 31
0.0
  0
LINE
  5
1D4C
330
1E
100
AcDbEntity
  8
3
100
AcDbLine
 10
1.715551181102362
 20
6.306102362204724
 30
0.0
 11
1.715551181102362
 21
6.390748031496062
 31
0.0
  0
LINE
  5
1D4D
330
1E
100
AcDbEntity
  8
3
100
AcDbLine
 10
1.717519685039369
 20
6.306102362204724
 30
0.0
 11
1.717519685039369
 21
6.39763779527559
 31
0.0
  0
LINE
  5
1D4E
330
1E
100
AcDbEntity
  8
3
100
AcDbLine
 10
1.719488188976377
 20
6.306102362204724
 30
0.0
 11
1.719488188976377
 21
6.405511811023622
 31
0.0
  0
LINE
  5
1D4F
330
1E
100
AcDbEntity
  8
3
100
AcDbLine
 10
1.721456692913385
 20
6.306102362204724
 30
0.0
 11
1.721456692913385
 21
6.412401574803149
 31
0.0
  0
LINE
  5
1D50
330
1E
100
AcDbEntity
  8
3
100
AcDbLine
 10
1.723425196850393
 20
6.306102362204724
 30
0.0
 11
1.723425196850393
 21
6.420275590551181
 31
0.0
  0
LINE
  5
1D51
330
1E
100
AcDbEntity
  8
3
100
AcDbLine
 10
1.725393700787401
 20
6.306102362204724
 30
0.0
 11
1.725393700787401
 21
6.427165354330708
 31
0.0
  0
LINE
  5
1D52
330
1E
100
AcDbEntity
  8
3
100
AcDbLine
 10
1.758858267716535
 20
6.306102362204724
 30
0.0
 11
1.758858267716535
 21
6.308070866141732
 31
0.0
  0
LINE
  5
1D53
330
1E
100
AcDbEntity
  8
3
100
AcDbLine
 10
1.758858267716535
 20
6.306102362204724
 30
0.0
 11
1.758858267716535
 21
6.308070866141732
 31
0.0
  0
LINE
  5
1D54
330
1E
100
AcDbEntity
  8
3
100
AcDbLine
 10
1.756889763779527
 20
6.306102362204724
 30
0.0
 11
1.756889763779527
 21
6.315944881889763
 31
0.0
  0
LINE
  5
1D55
330
1E
100
AcDbEntity
  8
3
100
AcDbLine
 10
1.754921259842519
 20
6.306102362204724
 30
0.0
 11
1.754921259842519
 21
6.322834645669291
 31
0.0
  0
LINE
  5
1D56
330
1E
100
AcDbEntity
  8
3
100
AcDbLine
 10
1.752952755905511
 20
6.306102362204724
 30
0.0
 11
1.752952755905511
 21
6.330708661417323
 31
0.0
  0
LINE
  5
1D57
330
1E
100
AcDbEntity
  8
3
100
AcDbLine
 10
1.750984251968503
 20
6.306102362204724
 30
0.0
 11
1.750984251968503
 21
6.33759842519685
 31
0.0
  0
LINE
  5
1D58
330
1E
100
AcDbEntity
  8
3
100
AcDbLine
 10
1.749015748031495
 20
6.306102362204724
 30
0.0
 11
1.749015748031495
 21
6.345472440944881
 31
0.0
  0
LINE
  5
1D59
330
1E
100
AcDbEntity
  8
3
100
AcDbLine
 10
1.747047244094487
 20
6.306102362204724
 30
0.0
 11
1.747047244094487
 21
6.353346456692913
 31
0.0
  0
LINE
  5
1D5A
330
1E
100
AcDbEntity
  8
3
100
AcDbLine
 10
1.74507874015748
 20
6.306102362204724
 30
0.0
 11
1.74507874015748
 21
6.36023622047244
 31
0.0
  0
LINE
  5
1D5B
330
1E
100
AcDbEntity
  8
3
100
AcDbLine
 10
1.743110236220472
 20
6.306102362204724
 30
0.0
 11
1.743110236220472
 21
6.368110236220472
 31
0.0
  0
LINE
  5
1D5C
330
1E
100
AcDbEntity
  8
3
100
AcDbLine
 10
1.741141732283464
 20
6.306102362204724
 30
0.0
 11
1.741141732283464
 21
6.375
 31
0.0
  0
LINE
  5
1D5D
330
1E
100
AcDbEntity
  8
3
100
AcDbLine
 10
1.739173228346456
 20
6.306102362204724
 30
0.0
 11
1.739173228346456
 21
6.382874015748031
 31
0.0
  0
LINE
  5
1D5E
330
1E
100
AcDbEntity
  8
3
100
AcDbLine
 10
1.737204724409448
 20
6.306102362204724
 30
0.0
 11
1.737204724409448
 21
6.390748031496062
 31
0.0
  0
LINE
  5
1D5F
330
1E
100
AcDbEntity
  8
3
100
AcDbLine
 10
1.73523622047244
 20
6.306102362204724
 30
0.0
 11
1.73523622047244
 21
6.39763779527559
 31
0.0
  0
LINE
  5
1D60
330
1E
100
AcDbEntity
  8
3
100
AcDbLine
 10
1.733267716535432
 20
6.306102362204724
 30
0.0
 11
1.733267716535432
 21
6.405511811023622
 31
0.0
  0
LINE
  5
1D61
330
1E
100
AcDbEntity
  8
3
100
AcDbLine
 10
1.731299212598425
 20
6.306102362204724
 30
0.0
 11
1.731299212598425
 21
6.412401574803149
 31
0.0
  0
LINE
  5
1D62
330
1E
100
AcDbEntity
  8
3
100
AcDbLine
 10
1.729330708661417
 20
6.306102362204724
 30
0.0
 11
1.729330708661417
 21
6.420275590551181
 31
0.0
  0
LINE
  5
1D63
330
1E
100
AcDbEntity
  8
3
100
AcDbLine
 10
1.727362204724409
 20
6.306102362204724
 30
0.0
 11
1.727362204724409
 21
6.427165354330708
 31
0.0
  0
LWPOLYLINE
  5
1D64
330
1E
100
AcDbEntity
  8
7
100
AcDbPolyline
 90
        4
 70
     0
 43
0.0098425196850394
 10
2.829724409448818
 20
6.977362204724409
 10
2.784448818897637
 20
6.977362204724409
 10
2.784448818897637
 20
6.809055118110236
 10
2.829724409448818
 20
6.809055118110236
  0
LWPOLYLINE
  5
1D6A
330
1E
100
AcDbEntity
  8
7
100
AcDbPolyline
 90
        4
 70
     0
 43
0.0098425196850394
 10
3.103346456692913
 20
6.809055118110236
 10
3.148622047244094
 20
6.809055118110236
 10
3.148622047244094
 20
6.977362204724409
 10
3.103346456692913
 20
6.977362204724409
  0
LINE
  5
1D70
330
1E
100
AcDbEntity
  8
3
100
AcDbLine
 10
3.381889763779527
 20
7.112204724409449
 30
0.0
 11
3.131889763779527
 21
7.112204724409449
 31
0.0
  0
LINE
  5
1D71
330
1E
100
AcDbEntity
  8
3
100
AcDbLine
 10
3.381889763779527
 20
6.371062992125984
 30
0.0
 11
3.381889763779527
 21
7.112204724409449
 31
0.0
  0
LINE
  5
1D72
330
1E
100
AcDbEntity
  8
3
100
AcDbLine
 10
3.381889763779527
 20
6.246062992125984
 30
0.0
 11
3.381889763779527
 21
6.021653543307087
 31
0.0
  0
LWPOLYLINE
  5
1D73
330
1E
100
AcDbEntity
  8
7
100
AcDbPolyline
 90
        5
 70
     0
 43
0.0098425196850394
 10
2.819881889763779
 20
7.067913385826771
 10
2.83759842519685
 20
7.067913385826771
 10
2.83759842519685
 20
7.085629921259842
 10
2.819881889763779
 20
7.085629921259842
 10
2.819881889763779
 20
7.067913385826771
  0
LWPOLYLINE
  5
1D7A
330
1E
100
AcDbEntity
  8
7
100
AcDbPolyline
 90
        4
 70
     0
 43
0.0098425196850394
 10
2.891732283464567
 20
7.148622047244094
 10
2.908464566929133
 20
7.156496062992125
 10
2.944881889763779
 20
7.156496062992125
 10
2.963582677165354
 20
7.148622047244094
  0
LWPOLYLINE
  5
1D80
330
1E
100
AcDbEntity
  8
7
100
AcDbPolyline
 90
        5
 70
     0
 43
0.0098425196850394
 10
2.963582677165354
 20
7.148622047244094
 10
2.963582677165354
 20
7.129921259842519
 10
2.890748031496062
 20
7.085629921259842
 10
2.891732283464567
 20
7.067913385826771
 10
2.963582677165354
 20
7.067913385826771
  0
LWPOLYLINE
  5
1D87
330
1E
100
AcDbEntity
  8
7
100
AcDbPolyline
 90
       10
 70
     0
 43
0.0098425196850394
 10
2.989173228346457
 20
7.075787401574802
 10
3.006889763779527
 20
7.067913385826771
 10
3.043307086614173
 20
7.067913385826771
 10
3.061023622047243
 20
7.075787401574802
 10
3.061023622047243
 20
7.111220472440945
 10
3.043307086614173
 20
7.121062992125984
 10
3.006889763779527
 20
7.121062992125984
 10
2.989173228346457
 20
7.112204724409449
 10
2.989173228346457
 20
7.156496062992125
 10
3.061023622047243
 20
7.156496062992125
  0
LWPOLYLINE
  5
1D93
330
1E
100
AcDbEntity
  8
7
100
AcDbPolyline
 90
       12
 70
     0
 43
0.0098425196850394
 10
2.833661417322834
 20
6.883858267716535
 10
2.850393700787401
 20
6.901574803149606
 10
2.886811023622047
 20
6.901574803149606
 10
2.904527559055118
 20
6.883858267716535
 10
2.904527559055118
 20
6.866141732283464
 10
2.886811023622047
 20
6.848425196850393
 10
2.850393700787401
 20
6.848425196850393
 10
2.833661417322834
 20
6.866141732283464
 10
2.833661417322834
 20
6.919291338582676
 10
2.850393700787401
 20
6.937007874015748
 10
2.886811023622047
 20
6.937007874015748
 10
2.904527559055118
 20
6.919291338582676
  0
LINE
  5
1DA1
330
1E
100
AcDbEntity
  8
7
100
AcDbLine
 10
2.957677165354331
 20
6.848425196850393
 30
0.0
 11
2.975393700787401
 21
6.848425196850393
 31
0.0
  0
LWPOLYLINE
  5
1DA2
330
1E
100
AcDbEntity
  8
7
100
AcDbPolyline
 90
        4
 70
     0
 43
0.0098425196850394
 10
2.975393700787401
 20
6.848425196850393
 10
2.975393700787401
 20
6.866141732283464
 10
2.957677165354331
 20
6.866141732283464
 10
2.957677165354331
 20
6.848425196850393
  0
LWPOLYLINE
  5
1DA8
330
1E
100
AcDbEntity
  8
7
100
AcDbPolyline
 90
        4
 70
     0
 43
0.0098425196850394
 10
3.100393700787401
 20
6.883858267716535
 10
3.029527559055118
 20
6.883858267716535
 10
3.082677165354331
 20
6.937007874015748
 10
3.082677165354331
 20
6.848425196850393
  0
LWPOLYLINE
  5
1DAE
330
1E
100
AcDbEntity
  8
3
100
AcDbPolyline
 90
        4
 70
     0
 43
0.0098425196850394
 10
3.381889763779527
 20
6.371062992125984
 10
3.415354330708661
 20
6.496062992125984
 10
3.348425196850393
 20
6.496062992125984
 10
3.381889763779527
 20
6.371062992125984
  0
LINE
  5
1DB4
330
1E
100
AcDbEntity
  8
3
100
AcDbLine
 10
3.415354330708661
 20
6.496062992125984
 30
0.0
 11
3.415354330708661
 21
6.494094488188976
 31
0.0
  0
LINE
  5
1DB5
330
1E
100
AcDbEntity
  8
3
100
AcDbLine
 10
3.415354330708661
 20
6.496062992125984
 30
0.0
 11
3.415354330708661
 21
6.494094488188976
 31
0.0
  0
LINE
  5
1DB6
330
1E
100
AcDbEntity
  8
3
100
AcDbLine
 10
3.413385826771653
 20
6.496062992125984
 30
0.0
 11
3.413385826771653
 21
6.487204724409449
 31
0.0
  0
LINE
  5
1DB7
330
1E
100
AcDbEntity
  8
3
100
AcDbLine
 10
3.411417322834645
 20
6.496062992125984
 30
0.0
 11
3.411417322834645
 21
6.479330708661417
 31
0.0
  0
LINE
  5
1DB8
330
1E
100
AcDbEntity
  8
3
100
AcDbLine
 10
3.409448818897637
 20
6.496062992125984
 30
0.0
 11
3.409448818897637
 21
6.472440944881889
 31
0.0
  0
LINE
  5
1DB9
330
1E
100
AcDbEntity
  8
3
100
AcDbLine
 10
3.40748031496063
 20
6.496062992125984
 30
0.0
 11
3.40748031496063
 21
6.464566929133858
 31
0.0
  0
LINE
  5
1DBA
330
1E
100
AcDbEntity
  8
3
100
AcDbLine
 10
3.405511811023622
 20
6.496062992125984
 30
0.0
 11
3.405511811023622
 21
6.456692913385826
 31
0.0
  0
LINE
  5
1DBB
330
1E
100
AcDbEntity
  8
3
100
AcDbLine
 10
3.403543307086614
 20
6.496062992125984
 30
0.0
 11
3.403543307086614
 21
6.449803149606299
 31
0.0
  0
LINE
  5
1DBC
330
1E
100
AcDbEntity
  8
3
100
AcDbLine
 10
3.401574803149606
 20
6.496062992125984
 30
0.0
 11
3.401574803149606
 21
6.441929133858267
 31
0.0
  0
LINE
  5
1DBD
330
1E
100
AcDbEntity
  8
3
100
AcDbLine
 10
3.399606299212598
 20
6.496062992125984
 30
0.0
 11
3.399606299212598
 21
6.435039370078739
 31
0.0
  0
LINE
  5
1DBE
330
1E
100
AcDbEntity
  8
3
100
AcDbLine
 10
3.396653543307086
 20
6.496062992125984
 30
0.0
 11
3.396653543307086
 21
6.427165354330708
 31
0.0
  0
LINE
  5
1DBF
330
1E
100
AcDbEntity
  8
3
100
AcDbLine
 10
3.394685039370078
 20
6.496062992125984
 30
0.0
 11
3.394685039370078
 21
6.420275590551181
 31
0.0
  0
LINE
  5
1DC0
330
1E
100
AcDbEntity
  8
3
100
AcDbLine
 10
3.39271653543307
 20
6.496062992125984
 30
0.0
 11
3.39271653543307
 21
6.412401574803149
 31
0.0
  0
LINE
  5
1DC1
330
1E
100
AcDbEntity
  8
3
100
AcDbLine
 10
3.390748031496062
 20
6.496062992125984
 30
0.0
 11
3.390748031496062
 21
6.404527559055118
 31
0.0
  0
LINE
  5
1DC2
330
1E
100
AcDbEntity
  8
3
100
AcDbLine
 10
3.388779527559055
 20
6.496062992125984
 30
0.0
 11
3.388779527559055
 21
6.39763779527559
 31
0.0
  0
LINE
  5
1DC3
330
1E
100
AcDbEntity
  8
3
100
AcDbLine
 10
3.386811023622047
 20
6.496062992125984
 30
0.0
 11
3.386811023622047
 21
6.389763779527559
 31
0.0
  0
LINE
  5
1DC4
330
1E
100
AcDbEntity
  8
3
100
AcDbLine
 10
3.384842519685039
 20
6.496062992125984
 30
0.0
 11
3.384842519685039
 21
6.382874015748031
 31
0.0
  0
LINE
  5
1DC5
330
1E
100
AcDbEntity
  8
3
100
AcDbLine
 10
3.382874015748031
 20
6.496062992125984
 30
0.0
 11
3.382874015748031
 21
6.375
 31
0.0
  0
LINE
  5
1DC6
330
1E
100
AcDbEntity
  8
3
100
AcDbLine
 10
3.349409448818897
 20
6.496062992125984
 30
0.0
 11
3.349409448818897
 21
6.494094488188976
 31
0.0
  0
LINE
  5
1DC7
330
1E
100
AcDbEntity
  8
3
100
AcDbLine
 10
3.349409448818897
 20
6.496062992125984
 30
0.0
 11
3.349409448818897
 21
6.494094488188976
 31
0.0
  0
LINE
  5
1DC8
330
1E
100
AcDbEntity
  8
3
100
AcDbLine
 10
3.351377952755905
 20
6.496062992125984
 30
0.0
 11
3.351377952755905
 21
6.487204724409449
 31
0.0
  0
LINE
  5
1DC9
330
1E
100
AcDbEntity
  8
3
100
AcDbLine
 10
3.353346456692913
 20
6.496062992125984
 30
0.0
 11
3.353346456692913
 21
6.479330708661417
 31
0.0
  0
LINE
  5
1DCA
330
1E
100
AcDbEntity
  8
3
100
AcDbLine
 10
3.355314960629921
 20
6.496062992125984
 30
0.0
 11
3.355314960629921
 21
6.472440944881889
 31
0.0
  0
LINE
  5
1DCB
330
1E
100
AcDbEntity
  8
3
100
AcDbLine
 10
3.357283464566929
 20
6.496062992125984
 30
0.0
 11
3.357283464566929
 21
6.464566929133858
 31
0.0
  0
LINE
  5
1DCC
330
1E
100
AcDbEntity
  8
3
100
AcDbLine
 10
3.359251968503937
 20
6.496062992125984
 30
0.0
 11
3.359251968503937
 21
6.456692913385826
 31
0.0
  0
LINE
  5
1DCD
330
1E
100
AcDbEntity
  8
3
100
AcDbLine
 10
3.361220472440944
 20
6.496062992125984
 30
0.0
 11
3.361220472440944
 21
6.449803149606299
 31
0.0
  0
LINE
  5
1DCE
330
1E
100
AcDbEntity
  8
3
100
AcDbLine
 10
3.363188976377952
 20
6.496062992125984
 30
0.0
 11
3.363188976377952
 21
6.441929133858267
 31
0.0
  0
LINE
  5
1DCF
330
1E
100
AcDbEntity
  8
3
100
AcDbLine
 10
3.36515748031496
 20
6.496062992125984
 30
0.0
 11
3.36515748031496
 21
6.435039370078739
 31
0.0
  0
LINE
  5
1DD0
330
1E
100
AcDbEntity
  8
3
100
AcDbLine
 10
3.367125984251968
 20
6.496062992125984
 30
0.0
 11
3.367125984251968
 21
6.427165354330708
 31
0.0
  0
LINE
  5
1DD1
330
1E
100
AcDbEntity
  8
3
100
AcDbLine
 10
3.369094488188976
 20
6.496062992125984
 30
0.0
 11
3.369094488188976
 21
6.420275590551181
 31
0.0
  0
LINE
  5
1DD2
330
1E
100
AcDbEntity
  8
3
100
AcDbLine
 10
3.371062992125984
 20
6.496062992125984
 30
0.0
 11
3.371062992125984
 21
6.412401574803149
 31
0.0
  0
LINE
  5
1DD3
330
1E
100
AcDbEntity
  8
3
100
AcDbLine
 10
3.373031496062992
 20
6.496062992125984
 30
0.0
 11
3.373031496062992
 21
6.404527559055118
 31
0.0
  0
LINE
  5
1DD4
330
1E
100
AcDbEntity
  8
3
100
AcDbLine
 10
3.375
 20
6.496062992125984
 30
0.0
 11
3.375
 21
6.39763779527559
 31
0.0
  0
LINE
  5
1DD5
330
1E
100
AcDbEntity
  8
3
100
AcDbLine
 10
3.376968503937007
 20
6.496062992125984
 30
0.0
 11
3.376968503937007
 21
6.389763779527559
 31
0.0
  0
LINE
  5
1DD6
330
1E
100
AcDbEntity
  8
3
100
AcDbLine
 10
3.378937007874015
 20
6.496062992125984
 30
0.0
 11
3.378937007874015
 21
6.382874015748031
 31
0.0
  0
LINE
  5
1DD7
330
1E
100
AcDbEntity
  8
3
100
AcDbLine
 10
3.380905511811023
 20
6.496062992125984
 30
0.0
 11
3.380905511811023
 21
6.375
 31
0.0
  0
LWPOLYLINE
  5
1DD8
330
1E
100
AcDbEntity
  8
3
100
AcDbPolyline
 90
        4
 70
     0
 43
0.0098425196850394
 10
3.381889763779527
 20
6.246062992125984
 10
3.348425196850393
 20
6.121062992125984
 10
3.415354330708661
 20
6.121062992125984
 10
3.381889763779527
 20
6.246062992125984
  0
LINE
  5
1DDE
330
1E
100
AcDbEntity
  8
3
100
AcDbLine
 10
3.349409448818897
 20
6.121062992125984
 30
0.0
 11
3.349409448818897
 21
6.123031496062992
 31
0.0
  0
LINE
  5
1DDF
330
1E
100
AcDbEntity
  8
3
100
AcDbLine
 10
3.349409448818897
 20
6.121062992125984
 30
0.0
 11
3.349409448818897
 21
6.123031496062992
 31
0.0
  0
LINE
  5
1DE0
330
1E
100
AcDbEntity
  8
3
100
AcDbLine
 10
3.351377952755905
 20
6.121062992125984
 30
0.0
 11
3.351377952755905
 21
6.130905511811024
 31
0.0
  0
LINE
  5
1DE1
330
1E
100
AcDbEntity
  8
3
100
AcDbLine
 10
3.353346456692913
 20
6.121062992125984
 30
0.0
 11
3.353346456692913
 21
6.13779527559055
 31
0.0
  0
LINE
  5
1DE2
330
1E
100
AcDbEntity
  8
3
100
AcDbLine
 10
3.355314960629921
 20
6.121062992125984
 30
0.0
 11
3.355314960629921
 21
6.145669291338582
 31
0.0
  0
LINE
  5
1DE3
330
1E
100
AcDbEntity
  8
3
100
AcDbLine
 10
3.357283464566929
 20
6.121062992125984
 30
0.0
 11
3.357283464566929
 21
6.15255905511811
 31
0.0
  0
LINE
  5
1DE4
330
1E
100
AcDbEntity
  8
3
100
AcDbLine
 10
3.359251968503937
 20
6.121062992125984
 30
0.0
 11
3.359251968503937
 21
6.160433070866141
 31
0.0
  0
LINE
  5
1DE5
330
1E
100
AcDbEntity
  8
3
100
AcDbLine
 10
3.361220472440944
 20
6.121062992125984
 30
0.0
 11
3.361220472440944
 21
6.168307086614173
 31
0.0
  0
LINE
  5
1DE6
330
1E
100
AcDbEntity
  8
3
100
AcDbLine
 10
3.363188976377952
 20
6.121062992125984
 30
0.0
 11
3.363188976377952
 21
6.1751968503937
 31
0.0
  0
LINE
  5
1DE7
330
1E
100
AcDbEntity
  8
3
100
AcDbLine
 10
3.36515748031496
 20
6.121062992125984
 30
0.0
 11
3.36515748031496
 21
6.183070866141732
 31
0.0
  0
LINE
  5
1DE8
330
1E
100
AcDbEntity
  8
3
100
AcDbLine
 10
3.367125984251968
 20
6.121062992125984
 30
0.0
 11
3.367125984251968
 21
6.18996062992126
 31
0.0
  0
LINE
  5
1DE9
330
1E
100
AcDbEntity
  8
3
100
AcDbLine
 10
3.369094488188976
 20
6.121062992125984
 30
0.0
 11
3.369094488188976
 21
6.197834645669291
 31
0.0
  0
LINE
  5
1DEA
330
1E
100
AcDbEntity
  8
3
100
AcDbLine
 10
3.371062992125984
 20
6.121062992125984
 30
0.0
 11
3.371062992125984
 21
6.205708661417323
 31
0.0
  0
LINE
  5
1DEB
330
1E
100
AcDbEntity
  8
3
100
AcDbLine
 10
3.373031496062992
 20
6.121062992125984
 30
0.0
 11
3.373031496062992
 21
6.21259842519685
 31
0.0
  0
LINE
  5
1DEC
330
1E
100
AcDbEntity
  8
3
100
AcDbLine
 10
3.375
 20
6.121062992125984
 30
0.0
 11
3.375
 21
6.220472440944881
 31
0.0
  0
LINE
  5
1DED
330
1E
100
AcDbEntity
  8
3
100
AcDbLine
 10
3.376968503937007
 20
6.121062992125984
 30
0.0
 11
3.376968503937007
 21
6.227362204724409
 31
0.0
  0
LINE
  5
1DEE
330
1E
100
AcDbEntity
  8
3
100
AcDbLine
 10
3.378937007874015
 20
6.121062992125984
 30
0.0
 11
3.378937007874015
 21
6.23523622047244
 31
0.0
  0
LINE
  5
1DEF
330
1E
100
AcDbEntity
  8
3
100
AcDbLine
 10
3.380905511811023
 20
6.121062992125984
 30
0.0
 11
3.380905511811023
 21
6.242125984251968
 31
0.0
  0
LINE
  5
1DF0
330
1E
100
AcDbEntity
  8
3
100
AcDbLine
 10
3.415354330708661
 20
6.121062992125984
 30
0.0
 11
3.415354330708661
 21
6.123031496062992
 31
0.0
  0
LINE
  5
1DF1
330
1E
100
AcDbEntity
  8
3
100
AcDbLine
 10
3.415354330708661
 20
6.121062992125984
 30
0.0
 11
3.415354330708661
 21
6.123031496062992
 31
0.0
  0
LINE
  5
1DF2
330
1E
100
AcDbEntity
  8
3
100
AcDbLine
 10
3.413385826771653
 20
6.121062992125984
 30
0.0
 11
3.413385826771653
 21
6.130905511811024
 31
0.0
  0
LINE
  5
1DF3
330
1E
100
AcDbEntity
  8
3
100
AcDbLine
 10
3.411417322834645
 20
6.121062992125984
 30
0.0
 11
3.411417322834645
 21
6.13779527559055
 31
0.0
  0
LINE
  5
1DF4
330
1E
100
AcDbEntity
  8
3
100
AcDbLine
 10
3.409448818897637
 20
6.121062992125984
 30
0.0
 11
3.409448818897637
 21
6.145669291338582
 31
0.0
  0
LINE
  5
1DF5
330
1E
100
AcDbEntity
  8
3
100
AcDbLine
 10
3.40748031496063
 20
6.121062992125984
 30
0.0
 11
3.40748031496063
 21
6.15255905511811
 31
0.0
  0
LINE
  5
1DF6
330
1E
100
AcDbEntity
  8
3
100
AcDbLine
 10
3.405511811023622
 20
6.121062992125984
 30
0.0
 11
3.405511811023622
 21
6.160433070866141
 31
0.0
  0
LINE
  5
1DF7
330
1E
100
AcDbEntity
  8
3
100
AcDbLine
 10
3.403543307086614
 20
6.121062992125984
 30
0.0
 11
3.403543307086614
 21
6.168307086614173
 31
0.0
  0
LINE
  5
1DF8
330
1E
100
AcDbEntity
  8
3
100
AcDbLine
 10
3.401574803149606
 20
6.121062992125984
 30
0.0
 11
3.401574803149606
 21
6.1751968503937
 31
0.0
  0
LINE
  5
1DF9
330
1E
100
AcDbEntity
  8
3
100
AcDbLine
 10
3.399606299212598
 20
6.121062992125984
 30
0.0
 11
3.399606299212598
 21
6.183070866141732
 31
0.0
  0
LINE
  5
1DFA
330
1E
100
AcDbEntity
  8
3
100
AcDbLine
 10
3.396653543307086
 20
6.121062992125984
 30
0.0
 11
3.396653543307086
 21
6.18996062992126
 31
0.0
  0
LINE
  5
1DFB
330
1E
100
AcDbEntity
  8
3
100
AcDbLine
 10
3.394685039370078
 20
6.121062992125984
 30
0.0
 11
3.394685039370078
 21
6.197834645669291
 31
0.0
  0
LINE
  5
1DFC
330
1E
100
AcDbEntity
  8
3
100
AcDbLine
 10
3.39271653543307
 20
6.121062992125984
 30
0.0
 11
3.39271653543307
 21
6.205708661417323
 31
0.0
  0
LINE
  5
1DFD
330
1E
100
AcDbEntity
  8
3
100
AcDbLine
 10
3.390748031496062
 20
6.121062992125984
 30
0.0
 11
3.390748031496062
 21
6.21259842519685
 31
0.0
  0
LINE
  5
1DFE
330
1E
100
AcDbEntity
  8
3
100
AcDbLine
 10
3.388779527559055
 20
6.121062992125984
 30
0.0
 11
3.388779527559055
 21
6.220472440944881
 31
0.0
  0
LINE
  5
1DFF
330
1E
100
AcDbEntity
  8
3
100
AcDbLine
 10
3.386811023622047
 20
6.121062992125984
 30
0.0
 11
3.386811023622047
 21
6.227362204724409
 31
0.0
  0
LINE
  5
1E00
330
1E
100
AcDbEntity
  8
3
100
AcDbLine
 10
3.384842519685039
 20
6.121062992125984
 30
0.0
 11
3.384842519685039
 21
6.23523622047244
 31
0.0
  0
LINE
  5
1E01
330
1E
100
AcDbEntity
  8
3
100
AcDbLine
 10
3.382874015748031
 20
6.121062992125984
 30
0.0
 11
3.382874015748031
 21
6.242125984251968
 31
0.0
  0
LWPOLYLINE
  5
2087
330
1E
100
AcDbEntity
  8
7
100
AcDbPolyline
 90
        3
 70
     0
 43
0.0098425196850394
 10
2.289370078740157
 20
6.421259842519685
 10
2.281496062992125
 20
6.377952755905512
 10
2.280511811023622
 20
6.372047244094487
  0
LWPOLYLINE
  5
208C
330
1E
100
AcDbEntity
  8
7
100
AcDbPolyline
 90
        5
 70
     0
 43
0.0098425196850394
 10
2.289370078740157
 20
6.421259842519685
 10
2.291338582677165
 20
6.4251968503937
 10
2.294291338582677
 20
6.428149606299212
 10
2.297244094488188
 20
6.43011811023622
 10
2.302165354330708
 20
6.431102362204724
  0
LWPOLYLINE
  5
2093
330
1E
100
AcDbEntity
  8
7
100
AcDbPolyline
 90
        4
 70
     0
 43
0.0098425196850394
 10
4.346456692913386
 20
6.246062992125984
 10
4.361220472440945
 20
6.246062992125984
 10
4.373031496062992
 20
6.246062992125984
 10
4.376968503937008
 20
6.246062992125984
  0
LWPOLYLINE
  5
2099
330
1E
100
AcDbEntity
  8
7
100
AcDbPolyline
 90
        5
 70
     0
 43
0.0098425196850394
 10
4.346456692913386
 20
6.246062992125984
 10
2.256889763779527
 20
6.246062992125984
 10
2.242125984251968
 20
6.246062992125984
 10
2.230314960629921
 20
6.246062992125984
 10
2.226377952755905
 20
6.246062992125984
  0
LWPOLYLINE
  5
20A0
330
1E
100
AcDbEntity
  8
7
100
AcDbPolyline
 90
        5
 70
     0
 43
0.0098425196850394
 10
2.227362204724409
 20
6.286417322834645
 10
2.231299212598425
 20
6.286417322834645
 10
2.242125984251968
 20
6.286417322834645
 10
2.256889763779527
 20
6.286417322834645
 10
2.476377952755905
 20
6.286417322834645
  0
LINE
  5
20A7
330
1E
100
AcDbEntity
  8
7
100
AcDbLine
 10
4.346456692913386
 20
6.286417322834645
 30
0.0
 11
4.126968503937008
 21
6.286417322834645
 31
0.0
  0
LWPOLYLINE
  5
20A8
330
1E
100
AcDbEntity
  8
7
100
AcDbPolyline
 90
        4
 70
     0
 43
0.0098425196850394
 10
4.375984251968503
 20
6.286417322834645
 10
4.372047244094487
 20
6.286417322834645
 10
4.361220472440945
 20
6.286417322834645
 10
4.346456692913386
 20
6.286417322834645
  0
LINE
  5
20AE
330
1E
100
AcDbEntity
  8
7
100
AcDbLine
 10
2.226377952755905
 20
6.246062992125984
 30
0.0
 11
2.227362204724409
 21
6.286417322834645
 31
0.0
  0
LINE
  5
20AF
330
1E
100
AcDbEntity
  8
7
100
AcDbLine
 10
2.256889763779527
 20
6.286417322834645
 30
0.0
 11
2.256889763779527
 21
6.246062992125984
 31
0.0
  0
LINE
  5
20B0
330
1E
100
AcDbEntity
  8
7
100
AcDbLine
 10
4.346456692913386
 20
6.286417322834645
 30
0.0
 11
4.346456692913386
 21
6.246062992125984
 31
0.0
  0
LINE
  5
20B1
330
1E
100
AcDbEntity
  8
7
100
AcDbLine
 10
4.126968503937008
 20
6.286417322834645
 30
0.0
 11
4.095472440944882
 21
6.371062992125984
 31
0.0
  0
LINE
  5
20B2
330
1E
100
AcDbEntity
  8
7
100
AcDbLine
 10
2.507874015748031
 20
6.371062992125984
 30
0.0
 11
4.095472440944882
 21
6.371062992125984
 31
0.0
  0
LINE
  5
20B3
330
1E
100
AcDbEntity
  8
7
100
AcDbLine
 10
2.476377952755905
 20
6.286417322834645
 30
0.0
 11
2.507874015748031
 21
6.371062992125984
 31
0.0
  0
LINE
  5
20B4
330
1E
100
AcDbEntity
  8
7
100
AcDbLine
 10
2.280511811023622
 20
6.371062992125984
 30
0.0
 11
2.288385826771653
 21
6.286417322834645
 31
0.0
  0
LINE
  5
20B5
330
1E
100
AcDbEntity
  8
7
100
AcDbLine
 10
2.358267716535433
 20
6.286417322834645
 30
0.0
 11
2.36515748031496
 21
6.371062992125984
 31
0.0
  0
LWPOLYLINE
  5
20B6
330
1E
100
AcDbEntity
  8
7
100
AcDbPolyline
 90
        5
 70
     0
 43
0.0098425196850394
 10
2.344488188976378
 20
6.431102362204724
 10
2.348425196850393
 20
6.43011811023622
 10
2.352362204724409
 20
6.428149606299212
 10
2.355314960629921
 20
6.4251968503937
 10
2.356299212598425
 20
6.421259842519685
  0
LINE
  5
20BD
330
1E
100
AcDbEntity
  8
7
100
AcDbLine
 10
2.36515748031496
 20
6.372047244094487
 30
0.0
 11
2.356299212598425
 21
6.421259842519685
 31
0.0
  0
LWPOLYLINE
  5
20BE
330
1E
100
AcDbEntity
  8
7
100
AcDbPolyline
 90
        4
 70
     0
 43
0.0098425196850394
 10
2.36515748031496
 20
6.371062992125984
 10
2.361220472440944
 20
6.371062992125984
 10
2.349409448818897
 20
6.371062992125984
 10
2.332677165354331
 20
6.371062992125984
  0
LWPOLYLINE
  5
20C4
330
1E
100
AcDbEntity
  8
7
100
AcDbPolyline
 90
        5
 70
     0
 43
0.0098425196850394
 10
2.332677165354331
 20
6.371062992125984
 10
2.313976377952756
 20
6.371062992125984
 10
2.296259842519685
 20
6.371062992125984
 10
2.284448818897637
 20
6.371062992125984
 10
2.280511811023622
 20
6.371062992125984
  0
LINE
  5
20CB
330
1E
100
AcDbEntity
  8
7
100
AcDbLine
 10
2.280511811023622
 20
6.372047244094487
 30
0.0
 11
2.280511811023622
 21
6.371062992125984
 31
0.0
  0
LINE
  5
20CC
330
1E
100
AcDbEntity
  8
7
100
AcDbLine
 10
2.36515748031496
 20
6.371062992125984
 30
0.0
 11
2.36515748031496
 21
6.372047244094487
 31
0.0
  0
LWPOLYLINE
  5
20CD
330
1E
100
AcDbEntity
  8
7
100
AcDbPolyline
 90
        4
 70
     0
 43
0.0098425196850394
 10
2.303149606299212
 20
6.431102362204724
 10
2.314960629921259
 20
6.431102362204724
 10
2.330708661417323
 20
6.431102362204724
 10
2.34251968503937
 20
6.431102362204724
  0
LINE
  5
20D3
330
1E
100
AcDbEntity
  8
7
100
AcDbLine
 10
2.356299212598425
 20
6.421259842519685
 30
0.0
 11
2.348425196850393
 21
6.421259842519685
 31
0.0
  0
LWPOLYLINE
  5
20D4
330
1E
100
AcDbEntity
  8
7
100
AcDbPolyline
 90
        5
 70
     0
 43
0.0098425196850394
 10
2.348425196850393
 20
6.421259842519685
 10
2.332677165354331
 20
6.421259842519685
 10
2.313976377952756
 20
6.421259842519685
 10
2.297244094488188
 20
6.421259842519685
 10
2.289370078740157
 20
6.421259842519685
  0
LINE
  5
20DB
330
1E
100
AcDbEntity
  8
7
100
AcDbLine
 10
2.298228346456693
 20
6.058070866141732
 30
0.0
 11
2.291338582677165
 21
6.246062992125984
 31
0.0
  0
LWPOLYLINE
  5
20DC
330
1E
100
AcDbEntity
  8
7
100
AcDbPolyline
 90
        7
 70
     0
 43
0.0098425196850394
 10
2.298228346456693
 20
6.058070866141732
 10
2.303149606299212
 20
6.058070866141732
 10
2.314960629921259
 20
6.058070866141732
 10
2.330708661417323
 20
6.058070866141732
 10
2.343503937007874
 20
6.058070866141732
 10
2.348425196850393
 20
6.058070866141732
 10
2.354330708661417
 20
6.246062992125984
  0
LWPOLYLINE
  5
20E5
330
1E
100
AcDbEntity
  8
7
100
AcDbPolyline
 90
        4
 70
     0
 43
0.0098425196850394
 10
2.335629921259842
 20
6.046259842519685
 10
2.329724409448818
 20
6.046259842519685
 10
2.316929133858267
 20
6.046259842519685
 10
2.311023622047243
 20
6.046259842519685
  0
LINE
  5
20EB
330
1E
100
AcDbEntity
  8
7
100
AcDbLine
 10
2.302165354330708
 20
6.431102362204724
 30
0.0
 11
2.303149606299212
 21
6.431102362204724
 31
0.0
  0
LINE
  5
20EC
330
1E
100
AcDbEntity
  8
7
100
AcDbLine
 10
2.34251968503937
 20
6.431102362204724
 30
0.0
 11
2.344488188976378
 21
6.431102362204724
 31
0.0
  0
LWPOLYLINE
  5
20ED
330
1E
100
AcDbEntity
  8
7
100
AcDbPolyline
 90
        3
 70
     0
 43
0.0098425196850394
 10
2.299212598425196
 20
6.059055118110236
 10
2.303149606299212
 20
6.0501968503937
 10
2.311023622047243
 20
6.047244094488188
  0
LWPOLYLINE
  5
20F2
330
1E
100
AcDbEntity
  8
7
100
AcDbPolyline
 90
        3
 70
     0
 43
0.0098425196850394
 10
2.335629921259842
 20
6.047244094488188
 10
2.343503937007874
 20
6.0501968503937
 10
2.347440944881889
 20
6.059055118110236
  0
LWPOLYLINE
  5
20F7
330
1E
100
AcDbEntity
  8
7
100
AcDbPolyline
 90
        3
 70
     0
 43
0.0098425196850394
 10
4.313976377952755
 20
6.421259842519685
 10
4.321850393700787
 20
6.377952755905512
 10
4.322834645669291
 20
6.372047244094487
  0
LWPOLYLINE
  5
20FC
330
1E
100
AcDbEntity
  8
7
100
AcDbPolyline
 90
        5
 70
     0
 43
0.0098425196850394
 10
4.313976377952755
 20
6.421259842519685
 10
4.312007874015748
 20
6.4251968503937
 10
4.309055118110236
 20
6.428149606299212
 10
4.306102362204724
 20
6.43011811023622
 10
4.301181102362204
 20
6.431102362204724
  0
LINE
  5
2103
330
1E
100
AcDbEntity
  8
7
100
AcDbLine
 10
4.376968503937008
 20
6.246062992125984
 30
0.0
 11
4.375984251968503
 21
6.286417322834645
 31
0.0
  0
LINE
  5
2104
330
1E
100
AcDbEntity
  8
7
100
AcDbLine
 10
4.322834645669291
 20
6.371062992125984
 30
0.0
 11
4.31496062992126
 21
6.286417322834645
 31
0.0
  0
LINE
  5
2105
330
1E
100
AcDbEntity
  8
7
100
AcDbLine
 10
4.24507874015748
 20
6.286417322834645
 30
0.0
 11
4.238188976377952
 21
6.371062992125984
 31
0.0
  0
LINE
  5
2106
330
1E
100
AcDbEntity
  8
7
100
AcDbLine
 10
4.238188976377952
 20
6.372047244094487
 30
0.0
 11
4.247047244094487
 21
6.421259842519685
 31
0.0
  0
LWPOLYLINE
  5
2107
330
1E
100
AcDbEntity
  8
7
100
AcDbPolyline
 90
        5
 70
     0
 43
0.0098425196850394
 10
4.258858267716535
 20
6.431102362204724
 10
4.254921259842519
 20
6.43011811023622
 10
4.250984251968503
 20
6.428149606299212
 10
4.248031496062992
 20
6.4251968503937
 10
4.247047244094487
 20
6.421259842519685
  0
LWPOLYLINE
  5
210E
330
1E
100
AcDbEntity
  8
7
100
AcDbPolyline
 90
        3
 70
     0
 43
0.0098425196850394
 10
4.238188976377952
 20
6.371062992125984
 10
4.242125984251968
 20
6.371062992125984
 10
4.253937007874015
 20
6.371062992125984
  0
LWPOLYLINE
  5
2113
330
1E
100
AcDbEntity
  8
7
100
AcDbPolyline
 90
        6
 70
     0
 43
0.0098425196850394
 10
4.253937007874015
 20
6.371062992125984
 10
4.270669291338582
 20
6.371062992125984
 10
4.289370078740157
 20
6.371062992125984
 10
4.307086614173228
 20
6.371062992125984
 10
4.317913385826771
 20
6.371062992125984
 10
4.322834645669291
 20
6.371062992125984
  0
LINE
  5
211B
330
1E
100
AcDbEntity
  8
7
100
AcDbLine
 10
4.322834645669291
 20
6.372047244094487
 30
0.0
 11
4.322834645669291
 21
6.371062992125984
 31
0.0
  0
LINE
  5
211C
330
1E
100
AcDbEntity
  8
7
100
AcDbLine
 10
4.238188976377952
 20
6.371062992125984
 30
0.0
 11
4.238188976377952
 21
6.372047244094487
 31
0.0
  0
LWPOLYLINE
  5
211D
330
1E
100
AcDbEntity
  8
7
100
AcDbPolyline
 90
        4
 70
     0
 43
0.0098425196850394
 10
4.299212598425197
 20
6.431102362204724
 10
4.288385826771653
 20
6.431102362204724
 10
4.27263779527559
 20
6.431102362204724
 10
4.260826771653543
 20
6.431102362204724
  0
LINE
  5
2123
330
1E
100
AcDbEntity
  8
7
100
AcDbLine
 10
4.247047244094487
 20
6.421259842519685
 30
0.0
 11
4.254921259842519
 21
6.421259842519685
 31
0.0
  0
LWPOLYLINE
  5
2124
330
1E
100
AcDbEntity
  8
7
100
AcDbPolyline
 90
        5
 70
     0
 43
0.0098425196850394
 10
4.254921259842519
 20
6.421259842519685
 10
4.270669291338582
 20
6.421259842519685
 10
4.289370078740157
 20
6.421259842519685
 10
4.306102362204724
 20
6.421259842519685
 10
4.313976377952755
 20
6.421259842519685
  0
LINE
  5
212B
330
1E
100
AcDbEntity
  8
7
100
AcDbLine
 10
4.30511811023622
 20
6.058070866141732
 30
0.0
 11
4.312007874015748
 21
6.246062992125984
 31
0.0
  0
LINE
  5
212C
330
1E
100
AcDbEntity
  8
7
100
AcDbLine
 10
4.254921259842519
 20
6.058070866141732
 30
0.0
 11
4.249015748031496
 21
6.246062992125984
 31
0.0
  0
LWPOLYLINE
  5
212D
330
1E
100
AcDbEntity
  8
7
100
AcDbPolyline
 90
        5
 70
     0
 43
0.0098425196850394
 10
4.30511811023622
 20
6.058070866141732
 10
4.3001968503937
 20
6.058070866141732
 10
4.287401574803149
 20
6.058070866141732
 10
4.27263779527559
 20
6.058070866141732
 10
4.259842519685039
 20
6.058070866141732
  0
LINE
  5
2134
330
1E
100
AcDbEntity
  8
7
100
AcDbLine
 10
4.259842519685039
 20
6.058070866141732
 30
0.0
 11
4.254921259842519
 21
6.058070866141732
 31
0.0
  0
LWPOLYLINE
  5
2135
330
1E
100
AcDbEntity
  8
7
100
AcDbPolyline
 90
        4
 70
     0
 43
0.0098425196850394
 10
4.267716535433071
 20
6.046259842519685
 10
4.273622047244094
 20
6.046259842519685
 10
4.286417322834645
 20
6.046259842519685
 10
4.292322834645669
 20
6.046259842519685
  0
LINE
  5
213B
330
1E
100
AcDbEntity
  8
7
100
AcDbLine
 10
4.260826771653543
 20
6.431102362204724
 30
0.0
 11
4.258858267716535
 21
6.431102362204724
 31
0.0
  0
LINE
  5
213C
330
1E
100
AcDbEntity
  8
7
100
AcDbLine
 10
4.301181102362204
 20
6.431102362204724
 30
0.0
 11
4.299212598425197
 21
6.431102362204724
 31
0.0
  0
LWPOLYLINE
  5
213D
330
1E
100
AcDbEntity
  8
7
100
AcDbPolyline
 90
        3
 70
     0
 43
0.0098425196850394
 10
4.292322834645669
 20
6.047244094488188
 10
4.3001968503937
 20
6.0501968503937
 10
4.304133858267716
 20
6.059055118110236
  0
LWPOLYLINE
  5
2142
330
1E
100
AcDbEntity
  8
7
100
AcDbPolyline
 90
        3
 70
     0
 43
0.0098425196850394
 10
4.255905511811024
 20
6.059055118110236
 10
4.259842519685039
 20
6.0501968503937
 10
4.267716535433071
 20
6.047244094488188
  0
LINE
  5
2147
330
1E
100
AcDbEntity
  8
7
100
AcDbLine
 10
2.226377952755905
 20
3.998031496062992
 30
0.0
 11
2.226377952755905
 21
4.633858267716535
 31
0.0
  0
LWPOLYLINE
  5
2148
330
1E
100
AcDbEntity
  8
7
100
AcDbPolyline
 90
        4
 70
     0
 43
0.0098425196850394
 10
2.227362204724409
 20
3.998031496062992
 10
2.231299212598425
 20
3.983267716535433
 10
2.242125984251968
 20
3.972440944881889
 10
2.256889763779527
 20
3.968503937007874
  0
LINE
  5
214E
330
1E
100
AcDbEntity
  8
7
100
AcDbLine
 10
4.346456692913386
 20
3.968503937007874
 30
0.0
 11
2.256889763779527
 21
3.968503937007874
 31
0.0
  0
LWPOLYLINE
  5
214F
330
1E
100
AcDbEntity
  8
7
100
AcDbPolyline
 90
        4
 70
     0
 43
0.0098425196850394
 10
4.346456692913386
 20
3.968503937007874
 10
4.361220472440945
 20
3.972440944881889
 10
4.372047244094487
 20
3.983267716535433
 10
4.375984251968503
 20
3.998031496062992
  0
LINE
  5
2155
330
1E
100
AcDbEntity
  8
7
100
AcDbLine
 10
4.376968503937008
 20
3.998031496062992
 30
0.0
 11
4.376968503937008
 21
4.633858267716535
 31
0.0
  0
LINE
  5
2156
330
1E
100
AcDbEntity
  8
7
100
AcDbLine
 10
4.375984251968503
 20
4.633858267716535
 30
0.0
 11
4.372047244094487
 21
4.648622047244094
 31
0.0
  0
LWPOLYLINE
  5
2157
330
1E
100
AcDbEntity
  8
7
100
AcDbPolyline
 90
        3
 70
     0
 43
0.0098425196850394
 10
4.372047244094487
 20
4.648622047244094
 10
4.361220472440945
 20
4.659448818897637
 10
4.346456692913386
 20
4.663385826771653
  0
LINE
  5
215C
330
1E
100
AcDbEntity
  8
7
100
AcDbLine
 10
4.346456692913386
 20
4.663385826771653
 30
0.0
 11
2.256889763779527
 21
4.663385826771653
 31
0.0
  0
LWPOLYLINE
  5
215D
330
1E
100
AcDbEntity
  8
7
100
AcDbPolyline
 90
        4
 70
     0
 43
0.0098425196850394
 10
2.256889763779527
 20
4.663385826771653
 10
2.242125984251968
 20
4.659448818897637
 10
2.231299212598425
 20
4.648622047244094
 10
2.227362204724409
 20
4.633858267716535
  0
LINE
  5
2163
330
1E
100
AcDbEntity
  8
7
100
AcDbLine
 10
2.259842519685039
 20
4.299212598425197
 30
0.0
 11
2.291338582677165
 21
4.299212598425197
 31
0.0
  0
LINE
  5
2164
330
1E
100
AcDbEntity
  8
3
100
AcDbLine
 10
2.291338582677165
 20
4.299212598425197
 30
0.0
 11
2.291338582677165
 21
4.33267716535433
 31
0.0
  0
LINE
  5
2165
330
1E
100
AcDbEntity
  8
7
100
AcDbLine
 10
2.259842519685039
 20
4.33267716535433
 30
0.0
 11
2.291338582677165
 21
4.33267716535433
 31
0.0
  0
LINE
  5
2166
330
1E
100
AcDbEntity
  8
7
100
AcDbLine
 10
2.259842519685039
 20
4.343503937007874
 30
0.0
 11
2.259842519685039
 21
4.33267716535433
 31
0.0
  0
LWPOLYLINE
  5
2167
330
1E
100
AcDbEntity
  8
7
100
AcDbPolyline
 90
        5
 70
     0
 43
0.0098425196850394
 10
2.385826771653543
 20
4.343503937007874
 10
2.380905511811023
 20
4.367125984251968
 10
2.367125984251968
 20
4.38779527559055
 10
2.346456692913386
 20
4.401574803149606
 10
2.322834645669291
 20
4.406496062992125
  0
LWPOLYLINE
  5
216E
330
1E
100
AcDbEntity
  8
7
100
AcDbPolyline
 90
        5
 70
     0
 43
0.0098425196850394
 10
2.322834645669291
 20
4.406496062992125
 10
2.299212598425196
 20
4.401574803149606
 10
2.278543307086614
 20
4.38779527559055
 10
2.264763779527559
 20
4.367125984251968
 10
2.259842519685039
 20
4.343503937007874
  0
LWPOLYLINE
  5
2175
330
1E
100
AcDbEntity
  8
7
100
AcDbPolyline
 90
        3
 70
     0
 43
0.0098425196850394
 10
2.386811023622047
 20
4.343503937007874
 10
2.386811023622047
 20
4.33267716535433
 10
2.354330708661417
 20
4.33267716535433
  0
LINE
  5
217A
330
1E
100
AcDbEntity
  8
3
100
AcDbLine
 10
2.354330708661417
 20
4.33267716535433
 30
0.0
 11
2.354330708661417
 21
4.299212598425197
 31
0.0
  0
LINE
  5
217B
330
1E
100
AcDbEntity
  8
7
100
AcDbLine
 10
2.386811023622047
 20
4.299212598425197
 30
0.0
 11
2.354330708661417
 21
4.299212598425197
 31
0.0
  0
LINE
  5
217C
330
1E
100
AcDbEntity
  8
7
100
AcDbLine
 10
2.386811023622047
 20
4.288385826771653
 30
0.0
 11
2.386811023622047
 21
4.299212598425197
 31
0.0
  0
LWPOLYLINE
  5
217D
330
1E
100
AcDbEntity
  8
7
100
AcDbPolyline
 90
        9
 70
     0
 43
0.0098425196850394
 10
2.259842519685039
 20
4.288385826771653
 10
2.264763779527559
 20
4.264763779527559
 10
2.278543307086614
 20
4.244094488188976
 10
2.299212598425196
 20
4.230314960629921
 10
2.322834645669291
 20
4.225393700787401
 10
2.346456692913386
 20
4.230314960629921
 10
2.367125984251968
 20
4.244094488188976
 10
2.380905511811023
 20
4.264763779527559
 10
2.385826771653543
 20
4.288385826771653
  0
LINE
  5
2188
330
1E
100
AcDbEntity
  8
7
100
AcDbLine
 10
2.259842519685039
 20
4.288385826771653
 30
0.0
 11
2.259842519685039
 21
4.299212598425197
 31
0.0
  0
LINE
  5
2189
330
1E
100
AcDbEntity
  8
7
100
AcDbLine
 10
4.343503937007874
 20
4.299212598425197
 30
0.0
 11
4.312007874015748
 21
4.299212598425197
 31
0.0
  0
LINE
  5
218A
330
1E
100
AcDbEntity
  8
7
100
AcDbLine
 10
4.343503937007874
 20
4.288385826771653
 30
0.0
 11
4.343503937007874
 21
4.299212598425197
 31
0.0
  0
LWPOLYLINE
  5
218B
330
1E
100
AcDbEntity
  8
7
100
AcDbPolyline
 90
        7
 70
     0
 43
0.0098425196850394
 10
4.21751968503937
 20
4.288385826771653
 10
4.222440944881889
 20
4.264763779527559
 10
4.236220472440945
 20
4.244094488188976
 10
4.256889763779527
 20
4.230314960629921
 10
4.280511811023622
 20
4.225393700787401
 10
4.304133858267716
 20
4.230314960629921
 10
4.324803149606299
 20
4.244094488188976
  0
LWPOLYLINE
  5
2194
330
1E
100
AcDbEntity
  8
7
100
AcDbPolyline
 90
        3
 70
     0
 43
0.0098425196850394
 10
4.324803149606299
 20
4.244094488188976
 10
4.338582677165354
 20
4.264763779527559
 10
4.343503937007874
 20
4.288385826771653
  0
LWPOLYLINE
  5
2199
330
1E
100
AcDbEntity
  8
7
100
AcDbPolyline
 90
        3
 70
     0
 43
0.0098425196850394
 10
4.216535433070866
 20
4.288385826771653
 10
4.216535433070866
 20
4.299212598425197
 10
4.249015748031496
 20
4.299212598425197
  0
LINE
  5
219E
330
1E
100
AcDbEntity
  8
3
100
AcDbLine
 10
4.249015748031496
 20
4.33267716535433
 30
0.0
 11
4.249015748031496
 21
4.299212598425197
 31
0.0
  0
LINE
  5
219F
330
1E
100
AcDbEntity
  8
7
100
AcDbLine
 10
4.216535433070866
 20
4.33267716535433
 30
0.0
 11
4.249015748031496
 21
4.33267716535433
 31
0.0
  0
LINE
  5
21A0
330
1E
100
AcDbEntity
  8
7
100
AcDbLine
 10
4.216535433070866
 20
4.343503937007874
 30
0.0
 11
4.216535433070866
 21
4.33267716535433
 31
0.0
  0
LWPOLYLINE
  5
21A1
330
1E
100
AcDbEntity
  8
7
100
AcDbPolyline
 90
        9
 70
     0
 43
0.0098425196850394
 10
4.343503937007874
 20
4.343503937007874
 10
4.338582677165354
 20
4.367125984251968
 10
4.324803149606299
 20
4.38779527559055
 10
4.304133858267716
 20
4.401574803149606
 10
4.280511811023622
 20
4.406496062992125
 10
4.256889763779527
 20
4.401574803149606
 10
4.236220472440945
 20
4.38779527559055
 10
4.222440944881889
 20
4.367125984251968
 10
4.21751968503937
 20
4.343503937007874
  0
LWPOLYLINE
  5
21AC
330
1E
100
AcDbEntity
  8
7
100
AcDbPolyline
 90
        3
 70
     0
 43
0.0098425196850394
 10
4.343503937007874
 20
4.343503937007874
 10
4.343503937007874
 20
4.33267716535433
 10
4.312007874015748
 20
4.33267716535433
  0
LINE
  5
21B1
330
1E
100
AcDbEntity
  8
3
100
AcDbLine
 10
4.312007874015748
 20
4.299212598425197
 30
0.0
 11
4.312007874015748
 21
4.33267716535433
 31
0.0
  0
LINE
  5
21B2
330
1E
100
AcDbEntity
  8
3
100
AcDbLine
 10
2.291338582677165
 20
4.288385826771653
 30
0.0
 11
2.291338582677165
 21
4.299212598425197
 31
0.0
  0
LINE
  5
21B3
330
1E
100
AcDbEntity
  8
3
100
AcDbLine
 10
2.354330708661417
 20
4.288385826771653
 30
0.0
 11
2.354330708661417
 21
4.299212598425197
 31
0.0
  0
LWPOLYLINE
  5
21B4
330
1E
100
AcDbEntity
  8
3
100
AcDbPolyline
 90
        7
 70
     0
 43
0.0098425196850394
 10
2.291338582677165
 20
4.288385826771653
 10
2.295275590551181
 20
4.27263779527559
 10
2.307086614173228
 20
4.260826771653543
 10
2.322834645669291
 20
4.256889763779527
 10
2.338582677165354
 20
4.260826771653543
 10
2.350393700787401
 20
4.27263779527559
 10
2.354330708661417
 20
4.288385826771653
  0
LINE
  5
21BD
330
1E
100
AcDbEntity
  8
3
100
AcDbLine
 10
2.291338582677165
 20
4.343503937007874
 30
0.0
 11
2.291338582677165
 21
4.33267716535433
 31
0.0
  0
LINE
  5
21BE
330
1E
100
AcDbEntity
  8
3
100
AcDbLine
 10
2.354330708661417
 20
4.343503937007874
 30
0.0
 11
2.354330708661417
 21
4.33267716535433
 31
0.0
  0
LWPOLYLINE
  5
21BF
330
1E
100
AcDbEntity
  8
3
100
AcDbPolyline
 90
        6
 70
     0
 43
0.0098425196850394
 10
2.354330708661417
 20
4.343503937007874
 10
2.350393700787401
 20
4.359251968503937
 10
2.338582677165354
 20
4.371062992125984
 10
2.322834645669291
 20
4.375
 10
2.307086614173228
 20
4.371062992125984
 10
2.295275590551181
 20
4.359251968503937
  0
LINE
  5
21C7
330
1E
100
AcDbEntity
  8
3
100
AcDbLine
 10
2.295275590551181
 20
4.359251968503937
 30
0.0
 11
2.291338582677165
 21
4.343503937007874
 31
0.0
  0
LWPOLYLINE
  5
21C8
330
1E
100
AcDbEntity
  8
3
100
AcDbPolyline
 90
        4
 70
     0
 43
0.0098425196850394
 10
2.311023622047243
 20
4.288385826771653
 10
2.316929133858267
 20
4.278543307086613
 10
2.328740157480315
 20
4.278543307086613
 10
2.334645669291338
 20
4.288385826771653
  0
LINE
  5
21CE
330
1E
100
AcDbEntity
  8
3
100
AcDbLine
 10
2.335629921259842
 20
4.288385826771653
 30
0.0
 11
2.335629921259842
 21
4.343503937007874
 31
0.0
  0
LWPOLYLINE
  5
21CF
330
1E
100
AcDbEntity
  8
3
100
AcDbPolyline
 90
        4
 70
     0
 43
0.0098425196850394
 10
2.334645669291338
 20
4.343503937007874
 10
2.328740157480315
 20
4.353346456692913
 10
2.316929133858267
 20
4.353346456692913
 10
2.311023622047243
 20
4.343503937007874
  0
LINE
  5
21D5
330
1E
100
AcDbEntity
  8
3
100
AcDbLine
 10
2.311023622047243
 20
4.343503937007874
 30
0.0
 11
2.311023622047243
 21
4.288385826771653
 31
0.0
  0
LINE
  5
21D6
330
1E
100
AcDbEntity
  8
3
100
AcDbLine
 10
4.312007874015748
 20
4.288385826771653
 30
0.0
 11
4.312007874015748
 21
4.299212598425197
 31
0.0
  0
LINE
  5
21D7
330
1E
100
AcDbEntity
  8
3
100
AcDbLine
 10
4.249015748031496
 20
4.288385826771653
 30
0.0
 11
4.249015748031496
 21
4.299212598425197
 31
0.0
  0
LWPOLYLINE
  5
21D8
330
1E
100
AcDbEntity
  8
3
100
AcDbPolyline
 90
        5
 70
     0
 43
0.0098425196850394
 10
4.249015748031496
 20
4.288385826771653
 10
4.252952755905512
 20
4.27263779527559
 10
4.264763779527559
 20
4.260826771653543
 10
4.280511811023622
 20
4.256889763779527
 10
4.296259842519685
 20
4.260826771653543
  0
LWPOLYLINE
  5
21DF
330
1E
100
AcDbEntity
  8
3
100
AcDbPolyline
 90
        3
 70
     0
 43
0.0098425196850394
 10
4.296259842519685
 20
4.260826771653543
 10
4.308070866141732
 20
4.27263779527559
 10
4.312007874015748
 20
4.288385826771653
  0
LINE
  5
21E4
330
1E
100
AcDbEntity
  8
3
100
AcDbLine
 10
4.312007874015748
 20
4.343503937007874
 30
0.0
 11
4.312007874015748
 21
4.33267716535433
 31
0.0
  0
LINE
  5
21E5
330
1E
100
AcDbEntity
  8
3
100
AcDbLine
 10
4.249015748031496
 20
4.343503937007874
 30
0.0
 11
4.249015748031496
 21
4.33267716535433
 31
0.0
  0
LWPOLYLINE
  5
21E6
330
1E
100
AcDbEntity
  8
3
100
AcDbPolyline
 90
        7
 70
     0
 43
0.0098425196850394
 10
4.312007874015748
 20
4.343503937007874
 10
4.308070866141732
 20
4.359251968503937
 10
4.296259842519685
 20
4.371062992125984
 10
4.280511811023622
 20
4.375
 10
4.264763779527559
 20
4.371062992125984
 10
4.252952755905512
 20
4.359251968503937
 10
4.249015748031496
 20
4.343503937007874
  0
LWPOLYLINE
  5
21EF
330
1E
100
AcDbEntity
  8
3
100
AcDbPolyline
 90
        3
 70
     0
 43
0.0098425196850394
 10
4.268700787401574
 20
4.288385826771653
 10
4.274606299212598
 20
4.278543307086613
 10
4.286417322834645
 20
4.278543307086613
  0
LINE
  5
21F4
330
1E
100
AcDbEntity
  8
3
100
AcDbLine
 10
4.286417322834645
 20
4.278543307086613
 30
0.0
 11
4.292322834645669
 21
4.288385826771653
 31
0.0
  0
LINE
  5
21F5
330
1E
100
AcDbEntity
  8
3
100
AcDbLine
 10
4.292322834645669
 20
4.343503937007874
 30
0.0
 11
4.292322834645669
 21
4.288385826771653
 31
0.0
  0
LWPOLYLINE
  5
21F6
330
1E
100
AcDbEntity
  8
3
100
AcDbPolyline
 90
        4
 70
     0
 43
0.0098425196850394
 10
4.292322834645669
 20
4.343503937007874
 10
4.286417322834645
 20
4.353346456692913
 10
4.274606299212598
 20
4.353346456692913
 10
4.268700787401574
 20
4.343503937007874
  0
LINE
  5
21FC
330
1E
100
AcDbEntity
  8
3
100
AcDbLine
 10
4.267716535433071
 20
4.288385826771653
 30
0.0
 11
4.267716535433071
 21
4.343503937007874
 31
0.0
  0
LINE
  5
21FD
330
1E
100
AcDbEntity
  8
3
100
AcDbLine
 10
9.348425196850392
 20
4.057086614173228
 30
0.0
 11
9.204724409448818
 21
4.005905511811023
 31
0.0
  0
LINE
  5
21FE
330
1E
100
AcDbEntity
  8
3
100
AcDbLine
 10
9.219488188976377
 20
3.907480314960629
 30
0.0
 11
9.367125984251966
 21
3.945866141732283
 31
0.0
  0
LINE
  5
21FF
330
1E
100
AcDbEntity
  8
3
100
AcDbLine
 10
9.19291338582677
 20
3.986220472440944
 30
0.0
 11
9.19291338582677
 21
3.93503937007874
 31
0.0
  0
LINE
  5
2200
330
1E
100
AcDbEntity
  8
3
100
AcDbLine
 10
9.377952755905511
 20
4.068897637795275
 30
0.0
 11
9.348425196850392
 21
4.056102362204724
 31
0.0
  0
LINE
  5
2201
330
1E
100
AcDbEntity
  8
3
100
AcDbLine
 10
9.367125984251966
 20
3.944881889763779
 30
0.0
 11
9.398622047244094
 21
3.951771653543307
 31
0.0
  0
LINE
  5
2202
330
1E
100
AcDbEntity
  8
3
100
AcDbLine
 10
9.449803149606298
 20
3.961614173228346
 30
0.0
 11
9.466535433070864
 21
3.964566929133858
 31
0.0
  0
LINE
  5
2203
330
1E
100
AcDbEntity
  8
3
100
AcDbLine
 10
9.486220472440944
 20
4.100393700787401
 30
0.0
 11
9.449803149606298
 21
4.097440944881889
 31
0.0
  0
LINE
  5
2204
330
1E
100
AcDbEntity
  8
3
100
AcDbLine
 10
9.409448818897637
 20
3.658464566929133
 30
0.0
 11
9.439960629921259
 21
3.669291338582677
 31
0.0
  0
LINE
  5
2205
330
1E
100
AcDbEntity
  8
3
100
AcDbLine
 10
9.470472440944881
 20
3.965551181102362
 30
0.0
 11
9.505905511811022
 21
3.986220472440944
 31
0.0
  0
LINE
  5
2206
330
1E
100
AcDbEntity
  8
3
100
AcDbLine
 10
8.113188976377951
 20
4.626968503937008
 30
0.0
 11
7.969488188976377
 21
4.575787401574802
 31
0.0
  0
LINE
  5
2207
330
1E
100
AcDbEntity
  8
3
100
AcDbLine
 10
7.984251968503937
 20
4.477362204724409
 30
0.0
 11
8.131889763779525
 21
4.515748031496062
 31
0.0
  0
LINE
  5
2208
330
1E
100
AcDbEntity
  8
3
100
AcDbLine
 10
7.95767716535433
 20
4.556102362204724
 30
0.0
 11
7.95767716535433
 21
4.504921259842519
 31
0.0
  0
LINE
  5
2209
330
1E
100
AcDbEntity
  8
3
100
AcDbLine
 10
8.103346456692912
 20
4.922244094488188
 30
0.0
 11
8.07283464566929
 21
4.913385826771653
 31
0.0
  0
LINE
  5
220A
330
1E
100
AcDbEntity
  8
3
100
AcDbLine
 10
8.14271653543307
 20
4.638779527559055
 30
0.0
 11
8.113188976377951
 21
4.625984251968503
 31
0.0
  0
LINE
  5
220B
330
1E
100
AcDbEntity
  8
3
100
AcDbLine
 10
8.131889763779525
 20
4.514763779527559
 30
0.0
 11
8.162401574803148
 21
4.521653543307087
 31
0.0
  0
LWPOLYLINE
  5
220C
330
1E
100
AcDbEntity
  8
3
100
AcDbPolyline
 90
        6
 70
     0
 43
0.0098425196850394
 10
9.204724409448818
 20
4.005905511811023
 10
9.201771653543305
 20
4.003937007874015
 10
9.19783464566929
 20
4.000984251968503
 10
9.194881889763777
 20
3.996062992125984
 10
9.19291338582677
 20
3.991141732283464
 10
9.19291338582677
 20
3.986220472440944
  0
LWPOLYLINE
  5
2214
330
1E
100
AcDbEntity
  8
3
100
AcDbPolyline
 90
        3
 70
     0
 43
0.0098425196850394
 10
9.19291338582677
 20
3.93503937007874
 10
9.19291338582677
 20
3.931102362204724
 10
9.194881889763777
 20
3.924212598425196
  0
LWPOLYLINE
  5
2219
330
1E
100
AcDbEntity
  8
3
100
AcDbPolyline
 90
        7
 70
     0
 43
0.0098425196850394
 10
9.194881889763777
 20
3.924212598425196
 10
9.19783464566929
 20
3.917322834645669
 10
9.202755905511809
 20
3.911417322834645
 10
9.207677165354329
 20
3.908464566929133
 10
9.21259842519685
 20
3.906496062992125
 10
9.218503937007872
 20
3.907480314960629
 10
9.219488188976377
 20
3.907480314960629
  0
LWPOLYLINE
  5
2222
330
1E
100
AcDbEntity
  8
3
100
AcDbPolyline
 90
        9
 70
     0
 43
0.0098425196850394
 10
9.51771653543307
 20
4.063976377952755
 10
9.51771653543307
 20
4.068897637795275
 10
9.515748031496062
 20
4.076771653543307
 10
9.511811023622046
 20
4.084645669291338
 10
9.506889763779525
 20
4.091535433070866
 10
9.501968503937007
 20
4.096456692913386
 10
9.496062992125983
 20
4.099409448818898
 10
9.489173228346455
 20
4.100393700787401
 10
9.487204724409448
 20
4.100393700787401
  0
LWPOLYLINE
  5
222D
330
1E
100
AcDbEntity
  8
3
100
AcDbPolyline
 90
        6
 70
     0
 43
0.0098425196850394
 10
9.505905511811022
 20
3.986220472440944
 10
9.506889763779525
 20
3.986220472440944
 10
9.511811023622046
 20
3.99015748031496
 10
9.514763779527557
 20
3.99507874015748
 10
9.516732283464566
 20
4.001968503937007
 10
9.51771653543307
 20
4.006889763779527
  0
LWPOLYLINE
  5
2235
330
1E
100
AcDbEntity
  8
3
100
AcDbPolyline
 90
        5
 70
     0
 43
0.0098425196850394
 10
7.969488188976377
 20
4.575787401574802
 10
7.966535433070865
 20
4.573818897637795
 10
7.96259842519685
 20
4.570866141732283
 10
7.959645669291338
 20
4.565944881889763
 10
7.95767716535433
 20
4.560039370078739
  0
LINE
  5
223C
330
1E
100
AcDbEntity
  8
3
100
AcDbLine
 10
7.95767716535433
 20
4.560039370078739
 30
0.0
 11
7.95767716535433
 21
4.556102362204724
 31
0.0
  0
LWPOLYLINE
  5
223D
330
1E
100
AcDbEntity
  8
3
100
AcDbPolyline
 90
        9
 70
     0
 43
0.0098425196850394
 10
7.95767716535433
 20
4.504921259842519
 10
7.95767716535433
 20
4.500984251968503
 10
7.959645669291338
 20
4.494094488188976
 10
7.96259842519685
 20
4.487204724409449
 10
7.96751968503937
 20
4.481299212598425
 10
7.972440944881889
 20
4.478346456692913
 10
7.977362204724409
 20
4.476377952755905
 10
7.983267716535433
 20
4.476377952755905
 10
7.984251968503937
 20
4.477362204724409
  0
LINE
  5
2248
330
1E
100
AcDbEntity
  8
3
100
AcDbLine
 10
8.062007874015746
 20
4.30511811023622
 30
0.0
 11
8.062007874015746
 21
4.497047244094487
 31
0.0
  0
LINE
  5
2249
330
1E
100
AcDbEntity
  8
3
100
AcDbLine
 10
8.062007874015746
 20
4.608267716535433
 30
0.0
 11
8.062007874015746
 21
4.893700787401574
 31
0.0
  0
LWPOLYLINE
  5
224A
330
1E
100
AcDbEntity
  8
3
100
AcDbPolyline
 90
        4
 70
     0
 43
0.0098425196850394
 10
8.062007874015746
 20
4.30511811023622
 10
8.064960629921259
 20
4.289370078740157
 10
8.071850393700787
 20
4.276574803149606
 10
8.080708661417322
 20
4.268700787401574
  0
LINE
  5
2250
330
1E
100
AcDbEntity
  8
3
100
AcDbLine
 10
9.400590551181101
 20
3.659448818897637
 30
0.0
 11
8.080708661417322
 21
4.268700787401574
 31
0.0
  0
LWPOLYLINE
  5
2251
330
1E
100
AcDbEntity
  8
3
100
AcDbPolyline
 90
        4
 70
     0
 43
0.0098425196850394
 10
9.419291338582675
 20
3.679133858267716
 10
9.416338582677164
 20
3.666338582677165
 10
9.409448818897637
 20
3.659448818897637
 10
9.400590551181101
 20
3.659448818897637
  0
LINE
  5
2257
330
1E
100
AcDbEntity
  8
3
100
AcDbLine
 10
9.419291338582675
 20
3.679133858267716
 30
0.0
 11
9.419291338582675
 21
4.267716535433071
 31
0.0
  0
LWPOLYLINE
  5
2258
330
1E
100
AcDbEntity
  8
3
100
AcDbPolyline
 90
        4
 70
     0
 43
0.0098425196850394
 10
9.400590551181101
 20
4.304133858267716
 10
9.409448818897637
 20
4.296259842519685
 10
9.416338582677164
 20
4.282480314960629
 10
9.419291338582675
 20
4.267716535433071
  0
LINE
  5
225E
330
1E
100
AcDbEntity
  8
3
100
AcDbLine
 10
9.400590551181101
 20
4.304133858267716
 30
0.0
 11
8.080708661417322
 21
4.912401574803149
 31
0.0
  0
LWPOLYLINE
  5
225F
330
1E
100
AcDbEntity
  8
3
100
AcDbPolyline
 90
        4
 70
     0
 43
0.0098425196850394
 10
8.080708661417322
 20
4.912401574803149
 10
8.071850393700787
 20
4.913385826771653
 10
8.064960629921259
 20
4.906496062992125
 10
8.062007874015746
 20
4.893700787401574
  0
LWPOLYLINE
  5
2265
330
1E
100
AcDbEntity
  8
3
100
AcDbPolyline
 90
        9
 70
     0
 43
0.0098425196850394
 10
8.163385826771651
 20
4.577755905511811
 10
8.16043307086614
 20
4.602362204724409
 10
8.151574803149605
 20
4.625
 10
8.138779527559053
 20
4.643700787401574
 10
8.12303149606299
 20
4.655511811023622
 10
8.107283464566927
 20
4.658464566929134
 10
8.094488188976377
 20
4.651574803149606
 10
8.08562992125984
 20
4.635826771653543
 10
8.082677165354329
 20
4.615157480314961
  0
LINE
  5
2270
330
1E
100
AcDbEntity
  8
3
100
AcDbLine
 10
8.163385826771651
 20
4.577755905511811
 30
0.0
 11
8.163385826771651
 21
4.567913385826771
 31
0.0
  0
LINE
  5
2271
330
1E
100
AcDbEntity
  8
3
100
AcDbLine
 10
8.163385826771651
 20
4.567913385826771
 30
0.0
 11
8.14271653543307
 21
4.576771653543307
 31
0.0
  0
LINE
  5
2272
330
1E
100
AcDbEntity
  8
3
100
AcDbLine
 10
8.14271653543307
 20
4.576771653543307
 30
0.0
 11
8.14271653543307
 21
4.546259842519685
 31
0.0
  0
LINE
  5
2273
330
1E
100
AcDbEntity
  8
3
100
AcDbLine
 10
8.163385826771651
 20
4.537401574803149
 30
0.0
 11
8.14271653543307
 21
4.546259842519685
 31
0.0
  0
LINE
  5
2274
330
1E
100
AcDbEntity
  8
3
100
AcDbLine
 10
8.163385826771651
 20
4.526574803149606
 30
0.0
 11
8.163385826771651
 21
4.537401574803149
 31
0.0
  0
LWPOLYLINE
  5
2275
330
1E
100
AcDbEntity
  8
3
100
AcDbPolyline
 90
        7
 70
     0
 43
0.0098425196850394
 10
8.163385826771651
 20
4.526574803149606
 10
8.16043307086614
 20
4.507874015748031
 10
8.153543307086613
 20
4.493110236220472
 10
8.141732283464566
 20
4.48523622047244
 10
8.127952755905511
 20
4.48523622047244
 10
8.114173228346455
 20
4.492125984251968
 10
8.1003937007874
 20
4.506889763779527
  0
LINE
  5
227E
330
1E
100
AcDbEntity
  8
3
100
AcDbLine
 10
9.398622047244094
 20
3.96751968503937
 30
0.0
 11
9.377952755905511
 21
3.976377952755905
 31
0.0
  0
LINE
  5
227F
330
1E
100
AcDbEntity
  8
3
100
AcDbLine
 10
9.398622047244094
 20
3.957677165354331
 30
0.0
 11
9.398622047244094
 21
3.96751968503937
 31
0.0
  0
LWPOLYLINE
  5
2280
330
1E
100
AcDbEntity
  8
3
100
AcDbPolyline
 90
        7
 70
     0
 43
0.0098425196850394
 10
9.33562992125984
 20
3.937007874015748
 10
9.349409448818896
 20
3.923228346456692
 10
9.363188976377951
 20
3.915354330708661
 10
9.376968503937007
 20
3.915354330708661
 10
9.388779527559053
 20
3.923228346456692
 10
9.395669291338581
 20
3.937992125984251
 10
9.398622047244094
 20
3.957677165354331
  0
LWPOLYLINE
  5
2289
330
1E
100
AcDbEntity
  8
3
100
AcDbPolyline
 90
        9
 70
     0
 43
0.0098425196850394
 10
9.31791338582677
 20
4.04527559055118
 10
9.320866141732283
 20
4.065944881889763
 10
9.329724409448818
 20
4.081692913385826
 10
9.342519685039368
 20
4.088582677165354
 10
9.358267716535431
 20
4.085629921259842
 10
9.374015748031494
 20
4.073818897637795
 10
9.386811023622046
 20
4.05511811023622
 10
9.395669291338581
 20
4.032480314960629
 10
9.398622047244094
 20
4.007874015748031
  0
LINE
  5
2294
330
1E
100
AcDbEntity
  8
3
100
AcDbLine
 10
9.398622047244094
 20
4.007874015748031
 30
0.0
 11
9.398622047244094
 21
3.998031496062992
 31
0.0
  0
LINE
  5
2295
330
1E
100
AcDbEntity
  8
3
100
AcDbLine
 10
9.398622047244094
 20
3.998031496062992
 30
0.0
 11
9.377952755905511
 21
4.006889763779527
 31
0.0
  0
LINE
  5
2296
330
1E
100
AcDbEntity
  8
3
100
AcDbLine
 10
9.377952755905511
 20
3.976377952755905
 30
0.0
 11
9.377952755905511
 21
4.006889763779527
 31
0.0
  0
LWPOLYLINE
  5
2297
330
1E
100
AcDbEntity
  8
3
100
AcDbPolyline
 90
        3
 70
     0
 43
0.0098425196850394
 10
8.134842519685038
 20
4.515748031496062
 10
8.145669291338581
 20
4.504921259842519
 10
8.156496062992125
 20
4.498031496062992
  0
LWPOLYLINE
  5
229C
330
1E
100
AcDbEntity
  8
3
100
AcDbPolyline
 90
        3
 70
     0
 43
0.0098425196850394
 10
8.116141732283463
 20
4.627952755905512
 10
8.119094488188975
 20
4.642716535433071
 10
8.125
 20
4.654527559055118
  0
LWPOLYLINE
  5
22A1
330
1E
100
AcDbEntity
  8
3
100
AcDbPolyline
 90
        3
 70
     0
 43
0.0098425196850394
 10
8.103346456692912
 20
4.922244094488188
 10
8.107283464566927
 20
4.922244094488188
 10
8.112204724409448
 20
4.921259842519685
  0
LINE
  5
22A6
330
1E
100
AcDbEntity
  8
3
100
AcDbLine
 10
8.112204724409448
 20
4.921259842519685
 30
0.0
 11
8.250984251968503
 21
4.857283464566929
 31
0.0
  0
LINE
  5
22A7
330
1E
100
AcDbEntity
  8
3
100
AcDbLine
 10
9.431102362204724
 20
4.312992125984251
 30
0.0
 11
9.292322834645668
 21
4.376968503937008
 31
0.0
  0
LWPOLYLINE
  5
22A8
330
1E
100
AcDbEntity
  8
3
100
AcDbPolyline
 90
        4
 70
     0
 43
0.0098425196850394
 10
9.449803149606298
 20
4.276574803149606
 10
9.446850393700787
 20
4.291338582677165
 10
9.440944881889762
 20
4.30511811023622
 10
9.431102362204724
 20
4.312992125984251
  0
LINE
  5
22AE
330
1E
100
AcDbEntity
  8
3
100
AcDbLine
 10
9.449803149606298
 20
4.276574803149606
 30
0.0
 11
9.449803149606298
 21
3.688976377952756
 31
0.0
  0
LWPOLYLINE
  5
22AF
330
1E
100
AcDbEntity
  8
3
100
AcDbPolyline
 90
        3
 70
     0
 43
0.0098425196850394
 10
9.439960629921259
 20
3.669291338582677
 10
9.446850393700787
 20
3.676181102362204
 10
9.449803149606298
 20
3.688976377952756
  0
LWPOLYLINE
  5
22B4
330
1E
100
AcDbEntity
  8
3
100
AcDbPolyline
 90
        3
 70
     0
 43
0.0098425196850394
 10
9.36023622047244
 20
4.084645669291338
 10
9.354330708661416
 20
4.072834645669291
 10
9.351377952755903
 20
4.058070866141732
  0
LWPOLYLINE
  5
22B9
330
1E
100
AcDbEntity
  8
3
100
AcDbPolyline
 90
        3
 70
     0
 43
0.0098425196850394
 10
9.391732283464566
 20
3.928149606299212
 10
9.380905511811022
 20
3.93503937007874
 10
9.370078740157479
 20
3.945866141732283
  0
LINE
  5
22BE
330
1E
100
AcDbEntity
  8
3
100
AcDbLine
 10
8.14271653543307
 20
4.536417322834645
 30
0.0
 11
8.14271653543307
 21
4.546259842519685
 31
0.0
  0
LINE
  5
22BF
330
1E
100
AcDbEntity
  8
3
100
AcDbLine
 10
8.14271653543307
 20
4.536417322834645
 30
0.0
 11
8.157480314960629
 21
4.540354330708661
 31
0.0
  0
LWPOLYLINE
  5
22C0
330
1E
100
AcDbEntity
  8
3
100
AcDbPolyline
 90
        3
 70
     0
 43
0.0098425196850394
 10
8.14271653543307
 20
4.536417322834645
 10
8.139763779527557
 20
4.52263779527559
 10
8.131889763779525
 20
4.515748031496062
  0
LINE
  5
22C5
330
1E
100
AcDbEntity
  8
3
100
AcDbLine
 10
8.112204724409448
 20
4.921259842519685
 30
0.0
 11
8.080708661417322
 21
4.912401574803149
 31
0.0
  0
LINE
  5
22C6
330
1E
100
AcDbEntity
  8
3
100
AcDbLine
 10
9.431102362204724
 20
4.312992125984251
 30
0.0
 11
9.400590551181101
 21
4.304133858267716
 31
0.0
  0
LINE
  5
22C7
330
1E
100
AcDbEntity
  8
3
100
AcDbLine
 10
9.292322834645668
 20
4.376968503937008
 30
0.0
 11
9.338582677165353
 21
4.404527559055118
 31
0.0
  0
LINE
  5
22C8
330
1E
100
AcDbEntity
  8
3
100
AcDbLine
 10
8.336614173228346
 20
4.867125984251968
 30
0.0
 11
9.338582677165353
 21
4.404527559055118
 31
0.0
  0
LINE
  5
22C9
330
1E
100
AcDbEntity
  8
3
100
AcDbLine
 10
8.250984251968503
 20
4.857283464566929
 30
0.0
 11
8.336614173228346
 21
4.867125984251968
 31
0.0
  0
LINE
  5
22CA
330
1E
100
AcDbEntity
  8
3
100
AcDbLine
 10
8.14271653543307
 20
4.58759842519685
 30
0.0
 11
8.162401574803148
 21
4.59251968503937
 31
0.0
  0
LINE
  5
22CB
330
1E
100
AcDbEntity
  8
3
100
AcDbLine
 10
8.14271653543307
 20
4.58759842519685
 30
0.0
 11
8.14271653543307
 21
4.576771653543307
 31
0.0
  0
LINE
  5
22CC
330
1E
100
AcDbEntity
  8
3
100
AcDbLine
 10
8.162401574803148
 20
4.584645669291338
 30
0.0
 11
8.14271653543307
 21
4.576771653543307
 31
0.0
  0
LWPOLYLINE
  5
22CD
330
1E
100
AcDbEntity
  8
3
100
AcDbPolyline
 90
        5
 70
     0
 43
0.0098425196850394
 10
8.14271653543307
 20
4.58759842519685
 10
8.140748031496062
 20
4.603346456692913
 10
8.132874015748031
 20
4.617125984251968
 10
8.12303149606299
 20
4.625984251968503
 10
8.113188976377951
 20
4.626968503937008
  0
LINE
  5
22D4
330
1E
100
AcDbEntity
  8
3
100
AcDbLine
 10
9.312992125984251
 20
4.367125984251968
 30
0.0
 11
9.338582677165353
 21
4.384842519685039
 31
0.0
  0
LINE
  5
22D5
330
1E
100
AcDbEntity
  8
3
100
AcDbLine
 10
9.338582677165353
 20
4.384842519685039
 30
0.0
 11
9.338582677165353
 21
4.404527559055118
 31
0.0
  0
LWPOLYLINE
  5
22D6
330
1E
100
AcDbEntity
  8
3
100
AcDbPolyline
 90
        4
 70
     0
 43
0.0098425196850394
 10
7.969488188976377
 20
4.575787401574802
 10
7.980314960629921
 20
4.573818897637795
 10
7.989173228346456
 20
4.561023622047244
 10
7.993110236220472
 20
4.544291338582676
  0
LINE
  5
22DC
330
1E
100
AcDbEntity
  8
3
100
AcDbLine
 10
7.993110236220472
 20
4.544291338582676
 30
0.0
 11
8.14271653543307
 21
4.58759842519685
 31
0.0
  0
LINE
  5
22DD
330
1E
100
AcDbEntity
  8
3
100
AcDbLine
 10
7.993110236220472
 20
4.544291338582676
 30
0.0
 11
7.993110236220472
 21
4.494094488188976
 31
0.0
  0
LINE
  5
22DE
330
1E
100
AcDbEntity
  8
3
100
AcDbLine
 10
7.993110236220472
 20
4.494094488188976
 30
0.0
 11
8.14271653543307
 21
4.536417322834645
 31
0.0
  0
LWPOLYLINE
  5
22DF
330
1E
100
AcDbEntity
  8
3
100
AcDbPolyline
 90
        3
 70
     0
 43
0.0098425196850394
 10
7.993110236220472
 20
4.494094488188976
 10
7.990157480314961
 20
4.482283464566929
 10
7.984251968503937
 20
4.477362204724409
  0
LWPOLYLINE
  5
22E4
330
1E
100
AcDbEntity
  8
3
100
AcDbPolyline
 90
        4
 70
     0
 43
0.0098425196850394
 10
7.959645669291338
 20
4.501968503937008
 10
7.963582677165354
 20
4.490157480314961
 10
7.971456692913386
 20
4.486220472440945
 10
7.975393700787401
 20
4.494094488188976
  0
LINE
  5
22EA
330
1E
100
AcDbEntity
  8
3
100
AcDbLine
 10
7.975393700787401
 20
4.494094488188976
 30
0.0
 11
7.975393700787401
 21
4.545275590551181
 31
0.0
  0
LWPOLYLINE
  5
22EB
330
1E
100
AcDbEntity
  8
3
100
AcDbPolyline
 90
        4
 70
     0
 43
0.0098425196850394
 10
7.975393700787401
 20
4.545275590551181
 10
7.971456692913386
 20
4.557086614173228
 10
7.963582677165354
 20
4.561023622047244
 10
7.959645669291338
 20
4.553149606299212
  0
LINE
  5
22F1
330
1E
100
AcDbEntity
  8
3
100
AcDbLine
 10
7.959645669291338
 20
4.553149606299212
 30
0.0
 11
7.959645669291338
 21
4.501968503937008
 31
0.0
  0
LWPOLYLINE
  5
22F2
330
1E
100
AcDbEntity
  8
3
100
AcDbPolyline
 90
        3
 70
     0
 43
0.0098425196850394
 10
7.959645669291338
 20
4.553149606299212
 10
7.95767716535433
 20
4.554133858267716
 10
7.95767716535433
 20
4.556102362204724
  0
LWPOLYLINE
  5
22F7
330
1E
100
AcDbEntity
  8
3
100
AcDbPolyline
 90
        3
 70
     0
 43
0.0098425196850394
 10
7.993110236220472
 20
4.544291338582676
 10
7.984251968503937
 20
4.544291338582676
 10
7.975393700787401
 20
4.545275590551181
  0
LWPOLYLINE
  5
22FC
330
1E
100
AcDbEntity
  8
3
100
AcDbPolyline
 90
        3
 70
     0
 43
0.0098425196850394
 10
7.993110236220472
 20
4.494094488188976
 10
7.984251968503937
 20
4.493110236220472
 10
7.975393700787401
 20
4.494094488188976
  0
LWPOLYLINE
  5
2301
330
1E
100
AcDbEntity
  8
3
100
AcDbPolyline
 90
        3
 70
     0
 43
0.0098425196850394
 10
7.959645669291338
 20
4.501968503937008
 10
7.95767716535433
 20
4.502952755905512
 10
7.95767716535433
 20
4.504921259842519
  0
LWPOLYLINE
  5
2306
330
1E
100
AcDbEntity
  8
3
100
AcDbPolyline
 90
        3
 70
     0
 43
0.0098425196850394
 10
9.514763779527557
 20
4.008858267716535
 10
9.48031496062992
 20
4.002952755905512
 10
9.449803149606298
 20
3.998031496062992
  0
LINE
  5
230B
330
1E
100
AcDbEntity
  8
3
100
AcDbLine
 10
9.449803149606298
 20
3.988188976377952
 30
0.0
 11
9.482283464566927
 21
3.993110236220472
 31
0.0
  0
LWPOLYLINE
  5
230C
330
1E
100
AcDbEntity
  8
3
100
AcDbPolyline
 90
        3
 70
     0
 43
0.0098425196850394
 10
9.514763779527557
 20
4.002952755905512
 10
9.486220472440944
 20
3.994094488188976
 10
9.482283464566927
 20
3.993110236220472
  0
LWPOLYLINE
  5
2311
330
1E
100
AcDbEntity
  8
3
100
AcDbPolyline
 90
        5
 70
     0
 43
0.0098425196850394
 10
9.514763779527557
 20
4.008858267716535
 10
9.516732283464566
 20
4.006889763779527
 10
9.51771653543307
 20
4.005905511811023
 10
9.516732283464566
 20
4.004921259842519
 10
9.514763779527557
 20
4.002952755905512
  0
LWPOLYLINE
  5
2318
330
1E
100
AcDbEntity
  8
3
100
AcDbPolyline
 90
        3
 70
     0
 43
0.0098425196850394
 10
9.514763779527557
 20
4.062007874015748
 10
9.486220472440944
 20
4.046259842519685
 10
9.482283464566927
 20
4.044291338582676
  0
LINE
  5
231D
330
1E
100
AcDbEntity
  8
3
100
AcDbLine
 10
9.449803149606298
 20
4.032480314960629
 30
0.0
 11
9.482283464566927
 21
4.044291338582676
 31
0.0
  0
LWPOLYLINE
  5
231E
330
1E
100
AcDbEntity
  8
3
100
AcDbPolyline
 90
        3
 70
     0
 43
0.0098425196850394
 10
9.514763779527557
 20
4.062007874015748
 10
9.516732283464566
 20
4.063976377952755
 10
9.51771653543307
 20
4.065944881889763
  0
LINE
  5
2323
330
1E
100
AcDbEntity
  8
3
100
AcDbLine
 10
9.419291338582675
 20
4.267716535433071
 30
0.0
 11
9.449803149606298
 21
4.276574803149606
 31
0.0
  0
LINE
  5
2324
330
1E
100
AcDbEntity
  8
3
100
AcDbLine
 10
9.449803149606298
 20
3.688976377952756
 30
0.0
 11
9.419291338582675
 21
3.679133858267716
 31
0.0
  0
LINE
  5
2325
330
1E
100
AcDbEntity
  8
3
100
AcDbLine
 10
9.377952755905511
 20
3.966535433070866
 30
0.0
 11
9.377952755905511
 21
3.976377952755905
 31
0.0
  0
LINE
  5
2326
330
1E
100
AcDbEntity
  8
3
100
AcDbLine
 10
9.482283464566927
 20
3.993110236220472
 30
0.0
 11
9.449803149606298
 21
3.985236220472441
 31
0.0
  0
LINE
  5
2327
330
1E
100
AcDbEntity
  8
3
100
AcDbLine
 10
9.39271653543307
 20
3.970472440944881
 30
0.0
 11
9.377952755905511
 21
3.966535433070866
 31
0.0
  0
LINE
  5
2328
330
1E
100
AcDbEntity
  8
3
100
AcDbLine
 10
9.449803149606298
 20
4.020669291338582
 30
0.0
 11
9.472440944881888
 21
4.02263779527559
 31
0.0
  0
LINE
  5
2329
330
1E
100
AcDbEntity
  8
3
100
AcDbLine
 10
9.449803149606298
 20
4.011811023622047
 30
0.0
 11
9.488188976377951
 21
4.020669291338582
 31
0.0
  0
LWPOLYLINE
  5
232A
330
1E
100
AcDbEntity
  8
3
100
AcDbPolyline
 90
        5
 70
     0
 43
0.0098425196850394
 10
9.472440944881888
 20
4.02263779527559
 10
9.476377952755903
 20
4.02263779527559
 10
9.481299212598424
 20
4.02263779527559
 10
9.48523622047244
 20
4.021653543307086
 10
9.488188976377951
 20
4.020669291338582
  0
LWPOLYLINE
  5
2331
330
1E
100
AcDbEntity
  8
3
100
AcDbPolyline
 90
        3
 70
     0
 43
0.0098425196850394
 10
9.466535433070864
 20
3.964566929133858
 10
9.477362204724409
 20
3.973425196850394
 10
9.482283464566927
 20
3.993110236220472
  0
LWPOLYLINE
  5
2336
330
1E
100
AcDbEntity
  8
3
100
AcDbPolyline
 90
        3
 70
     0
 43
0.0098425196850394
 10
9.367125984251966
 20
3.945866141732283
 10
9.375
 20
3.952755905511811
 10
9.377952755905511
 20
3.966535433070866
  0
LWPOLYLINE
  5
233B
330
1E
100
AcDbEntity
  8
3
100
AcDbPolyline
 90
        3
 70
     0
 43
0.0098425196850394
 10
9.489173228346455
 20
4.016732283464566
 10
9.492125984251966
 20
4.010826771653543
 10
9.496062992125983
 20
4.004921259842519
  0
LWPOLYLINE
  5
2340
330
1E
100
AcDbEntity
  8
3
100
AcDbPolyline
 90
        3
 70
     0
 43
0.0098425196850394
 10
9.514763779527557
 20
4.002952755905512
 10
9.511811023622046
 20
3.992125984251968
 10
9.505905511811022
 20
3.986220472440944
  0
LINE
  5
2345
330
1E
100
AcDbEntity
  8
3
100
AcDbLine
 10
9.482283464566927
 20
4.044291338582676
 30
0.0
 11
9.449803149606298
 21
4.035433070866141
 31
0.0
  0
LINE
  5
2346
330
1E
100
AcDbEntity
  8
3
100
AcDbLine
 10
9.397637795275588
 20
4.02263779527559
 30
0.0
 11
9.377952755905511
 21
4.01771653543307
 31
0.0
  0
LINE
  5
2347
330
1E
100
AcDbEntity
  8
3
100
AcDbLine
 10
9.377952755905511
 20
4.01771653543307
 30
0.0
 11
9.377952755905511
 21
4.006889763779527
 31
0.0
  0
LINE
  5
2348
330
1E
100
AcDbEntity
  8
3
100
AcDbLine
 10
9.398622047244094
 20
4.014763779527559
 30
0.0
 11
9.377952755905511
 21
4.006889763779527
 31
0.0
  0
LWPOLYLINE
  5
2349
330
1E
100
AcDbEntity
  8
3
100
AcDbPolyline
 90
        5
 70
     0
 43
0.0098425196850394
 10
9.348425196850392
 20
4.057086614173228
 10
9.358267716535431
 20
4.056102362204724
 10
9.368110236220472
 20
4.047244094488188
 10
9.375984251968503
 20
4.033464566929133
 10
9.377952755905511
 20
4.01771653543307
  0
LWPOLYLINE
  5
2350
330
1E
100
AcDbEntity
  8
3
100
AcDbPolyline
 90
        5
 70
     0
 43
0.0098425196850394
 10
9.449803149606298
 20
4.097440944881889
 10
9.461614173228346
 20
4.091535433070866
 10
9.472440944881888
 20
4.078740157480314
 10
9.479330708661416
 20
4.062007874015748
 10
9.482283464566927
 20
4.044291338582676
  0
LWPOLYLINE
  5
2357
330
1E
100
AcDbEntity
  8
3
100
AcDbPolyline
 90
        3
 70
     0
 43
0.0098425196850394
 10
9.486220472440944
 20
4.100393700787401
 10
9.499015748031494
 20
4.096456692913386
 10
9.509842519685038
 20
4.081692913385826
  0
LINE
  5
235C
330
1E
100
AcDbEntity
  8
3
100
AcDbLine
 10
9.509842519685038
 20
4.081692913385826
 30
0.0
 11
9.514763779527557
 21
4.062007874015748
 31
0.0
  0
LINE
  5
235D
330
1E
100
AcDbEntity
  8
3
100
AcDbLine
 10
9.228346456692912
 20
3.924212598425196
 30
0.0
 11
9.377952755905511
 21
3.966535433070866
 31
0.0
  0
LINE
  5
235E
330
1E
100
AcDbEntity
  8
3
100
AcDbLine
 10
9.228346456692912
 20
3.974409448818897
 30
0.0
 11
9.377952755905511
 21
4.01771653543307
 31
0.0
  0
LINE
  5
235F
330
1E
100
AcDbEntity
  8
3
100
AcDbLine
 10
9.228346456692912
 20
3.924212598425196
 30
0.0
 11
9.228346456692912
 21
3.974409448818897
 31
0.0
  0
LWPOLYLINE
  5
2360
330
1E
100
AcDbEntity
  8
3
100
AcDbPolyline
 90
        4
 70
     0
 43
0.0098425196850394
 10
9.228346456692912
 20
3.974409448818897
 10
9.224409448818896
 20
3.991141732283464
 10
9.215551181102361
 20
4.003937007874015
 10
9.204724409448818
 20
4.005905511811023
  0
LWPOLYLINE
  5
2366
330
1E
100
AcDbEntity
  8
3
100
AcDbPolyline
 90
        3
 70
     0
 43
0.0098425196850394
 10
9.219488188976377
 20
3.907480314960629
 10
9.226377952755903
 20
3.912401574803149
 10
9.228346456692912
 20
3.924212598425196
  0
LWPOLYLINE
  5
236B
330
1E
100
AcDbEntity
  8
3
100
AcDbPolyline
 90
        4
 70
     0
 43
0.0098425196850394
 10
9.21062992125984
 20
3.924212598425196
 10
9.206692913385825
 20
3.916338582677165
 10
9.198818897637794
 20
3.920275590551181
 10
9.194881889763777
 20
3.932086614173228
  0
LINE
  5
2371
330
1E
100
AcDbEntity
  8
3
100
AcDbLine
 10
9.21062992125984
 20
3.975393700787401
 30
0.0
 11
9.21062992125984
 21
3.924212598425196
 31
0.0
  0
LWPOLYLINE
  5
2372
330
1E
100
AcDbEntity
  8
3
100
AcDbPolyline
 90
        4
 70
     0
 43
0.0098425196850394
 10
9.194881889763777
 20
3.983267716535433
 10
9.198818897637794
 20
3.991141732283464
 10
9.206692913385825
 20
3.987204724409449
 10
9.21062992125984
 20
3.975393700787401
  0
LINE
  5
2378
330
1E
100
AcDbEntity
  8
3
100
AcDbLine
 10
9.194881889763777
 20
3.932086614173228
 30
0.0
 11
9.194881889763777
 21
3.983267716535433
 31
0.0
  0
LINE
  5
2379
330
1E
100
AcDbEntity
  8
3
100
AcDbLine
 10
9.488188976377951
 20
4.020669291338582
 30
0.0
 11
9.489173228346455
 21
4.016732283464566
 31
0.0
  0
LWPOLYLINE
  5
237A
330
1E
100
AcDbEntity
  8
3
100
AcDbPolyline
 90
        3
 70
     0
 43
0.0098425196850394
 10
9.21062992125984
 20
3.975393700787401
 10
9.219488188976377
 20
3.974409448818897
 10
9.228346456692912
 20
3.974409448818897
  0
LWPOLYLINE
  5
237F
330
1E
100
AcDbEntity
  8
3
100
AcDbPolyline
 90
        3
 70
     0
 43
0.0098425196850394
 10
9.19291338582677
 20
3.986220472440944
 10
9.19291338582677
 20
3.984251968503937
 10
9.194881889763777
 20
3.983267716535433
  0
LWPOLYLINE
  5
2384
330
1E
100
AcDbEntity
  8
3
100
AcDbPolyline
 90
        3
 70
     0
 43
0.0098425196850394
 10
9.19291338582677
 20
3.93503937007874
 10
9.19291338582677
 20
3.933070866141732
 10
9.194881889763777
 20
3.932086614173228
  0
LWPOLYLINE
  5
2389
330
1E
100
AcDbEntity
  8
3
100
AcDbPolyline
 90
        3
 70
     0
 43
0.0098425196850394
 10
9.21062992125984
 20
3.924212598425196
 10
9.219488188976377
 20
3.923228346456692
 10
9.228346456692912
 20
3.924212598425196
  0
ENDSEC
  0
SECTION
  2
OBJECTS
  0
DICTIONARY
  5
C
330
0
100
AcDbDictionary
  3
ACAD_GROUP
350
D
  3
ACAD_LAYOUT
350
19
  3
ACAD_MLINESTYLE
350
16
  3
ACAD_PLOTSETTINGS
350
18
  3
ACAD_PLOTSTYLENAME
350
E
  3
ACDBHEADERROUNDTRIPXREC
350
23C6
  0
DICTIONARY
  5
23E9
330
1E
100
AcDbDictionary
280
     1
  3
ACAD_LAYOUTSELFREF
360
23EA
  0
DICTIONARY
  5
23E7
330
1A
100
AcDbDictionary
280
     1
  3
ACAD_LAYOUTSELFREF
360
23E8
  0
DICTIONARY
  5
D
102
{ACAD_REACTORS
330
C
102
}
330
C
100
AcDbDictionary
  0
DICTIONARY
  5
19
102
{ACAD_REACTORS
330
C
102
}
330
C
100
AcDbDictionary
  0
DICTIONARY
  5
16
102
{ACAD_REACTORS
330
C
102
}
330
C
100
AcDbDictionary
  3
STANDARD
350
17
  0
DICTIONARY
  5
18
102
{ACAD_REACTORS
330
C
102
}
330
C
100
AcDbDictionary
  0
ACDBDICTIONARYWDFLT
  5
E
102
{ACAD_REACTORS
330
C
102
}
330
C
100
AcDbDictionary
281
     1
  3
Normal
350
F
100
AcDbDictionaryWithDefault
340
F
  0
DICTIONARY
  5
23C6
102
{ACAD_REACTORS
330
C
102
}
330
C
100
AcDbDictionary
  3
CEPSNTYPE
350
23D0
  3
DIMSTYLEDATA
350
23D4
  3
FINGERPRINTGUID
350
23D1
  3
HYPERLINKBASE
350
23C9
  3
INSUNITS
350
23CF
  3
LAYOUTDICT
350
23CB
  3
LWETCUNION
350
23CE
  3
PLOTSETDICT
350
23CC
  3
PLOTSTYLNAMDICT
350
23CD
  3
PSVPSCALE
350
23D3
  3
PUCSBASE
350
23D7
  3
PUCSORGBACK
350
23DD
  3
PUCSORGBOTTOM
350
23D9
  3
PUCSORGFRONT
350
23DC
  3
PUCSORGLEFT
350
23DA
  3
PUCSORGRIGHT
350
23DB
  3
PUCSORGTOP
350
23D8
  3
PUCSORTHOREF
350
23D5
  3
PUCSORTHOVIEW
350
23D6
  3
STYLESHEET
350
23CA
  3
TSTACKALIGN
350
23C7
  3
TSTACKSIZE
350
23C8
  3
UCSBASE
350
23E0
  3
UCSORGBACK
350
23E6
  3
UCSORGBOTTOM
350
23E2
  3
UCSORGFRONT
350
23E5
  3
UCSORGLEFT
350
23E3
  3
UCSORGRIGHT
350
23E4
  3
UCSORGTOP
350
23E1
  3
UCSORTHOREF
350
23DE
  3
UCSORTHOVIEW
350
23DF
  3
VERSIONGUID
350
23D2
  0
XRECORD
  5
23EA
102
{ACAD_REACTORS
330
23E9
102
}
330
23E9
100
AcDbXrecord
340
1E
  0
XRECORD
  5
23E8
102
{ACAD_REACTORS
330
23E7
102
}
330
23E7
100
AcDbXrecord
340
1A
  0
MLINESTYLE
  5
17
102
{ACAD_REACTORS
330
16
102
}
330
16
100
AcDbMlineStyle
  2
STANDARD
 70
     0
  3

 62
   256
 51
90.0
 52
90.0
 71
     2
 49
0.5
 62
   256
  6
BYLAYER
 49
-0.5
 62
   256
  6
BYLAYER
  0
ACDBPLACEHOLDER
  5
F
102
{ACAD_REACTORS
330
E
102
}
330
E
100
AcDbPlaceHolder
280
     0
  0
XRECORD
  5
23D0
102
{ACAD_REACTORS
330
23C6
102
}
330
23C6
100
AcDbXrecord
 90
        0
  0
XRECORD
  5
23D4
102
{ACAD_REACTORS
330
23C6
102
}
330
23C6
100
AcDbXrecord
1000
DSTYLE
1002
{
1070
   279
 70
     2
1002
}
  0
XRECORD
  5
23D1
102
{ACAD_REACTORS
330
23C6
102
}
330
23C6
100
AcDbXrecord
  1
{828AE52C-FADC-11D5-B771-00B0D0207C23}
  0
XRECORD
  5
23C9
102
{ACAD_REACTORS
330
23C6
102
}
330
23C6
100
AcDbXrecord
  1

  0
XRECORD
  5
23CF
102
{ACAD_REACTORS
330
23C6
102
}
330
23C6
100
AcDbXrecord
 90
        0
  0
XRECORD
  5
23CB
102
{ACAD_REACTORS
330
23C6
102
}
330
23C6
100
AcDbXrecord
340
19
  0
XRECORD
  5
23CE
102
{ACAD_REACTORS
330
23C6
102
}
330
23C6
100
AcDbXrecord
 90
    14877
  0
XRECORD
  5
23CC
102
{ACAD_REACTORS
330
23C6
102
}
330
23C6
100
AcDbXrecord
340
18
  0
XRECORD
  5
23CD
102
{ACAD_REACTORS
330
23C6
102
}
330
23C6
100
AcDbXrecord
340
E
  0
XRECORD
  5
23D3
102
{ACAD_REACTORS
330
23C6
102
}
330
23C6
100
AcDbXrecord
 40
0.0
  0
XRECORD
  5
23D7
102
{ACAD_REACTORS
330
23C6
102
}
330
23C6
100
AcDbXrecord
340
0
  0
XRECORD
  5
23DD
102
{ACAD_REACTORS
330
23C6
102
}
330
23C6
100
AcDbXrecord
 10
0.0
 20
0.0
 30
0.0
  0
XRECORD
  5
23D9
102
{ACAD_REACTORS
330
23C6
102
}
330
23C6
100
AcDbXrecord
 10
0.0
 20
0.0
 30
0.0
  0
XRECORD
  5
23DC
102
{ACAD_REACTORS
330
23C6
102
}
330
23C6
100
AcDbXrecord
 10
0.0
 20
0.0
 30
0.0
  0
XRECORD
  5
23DA
102
{ACAD_REACTORS
330
23C6
102
}
330
23C6
100
AcDbXrecord
 10
0.0
 20
0.0
 30
0.0
  0
XRECORD
  5
23DB
102
{ACAD_REACTORS
330
23C6
102
}
330
23C6
100
AcDbXrecord
 10
0.0
 20
0.0
 30
0.0
  0
XRECORD
  5
23D8
102
{ACAD_REACTORS
330
23C6
102
}
330
23C6
100
AcDbXrecord
 10
0.0
 20
0.0
 30
0.0
  0
XRECORD
  5
23D5
102
{ACAD_REACTORS
330
23C6
102
}
330
23C6
100
AcDbXrecord
340
0
  0
XRECORD
  5
23D6
102
{ACAD_REACTORS
330
23C6
102
}
330
23C6
100
AcDbXrecord
 70
     0
  0
XRECORD
  5
23CA
102
{ACAD_REACTORS
330
23C6
102
}
330
23C6
100
AcDbXrecord
  1

  0
XRECORD
  5
23C7
102
{ACAD_REACTORS
330
23C6
102
}
330
23C6
100
AcDbXrecord
 90
        1
  0
XRECORD
  5
23C8
102
{ACAD_REACTORS
330
23C6
102
}
330
23C6
100
AcDbXrecord
 90
       70
  0
XRECORD
  5
23E0
102
{ACAD_REACTORS
330
23C6
102
}
330
23C6
100
AcDbXrecord
340
0
  0
XRECORD
  5
23E6
102
{ACAD_REACTORS
330
23C6
102
}
330
23C6
100
AcDbXrecord
 10
0.0
 20
0.0
 30
0.0
  0
XRECORD
  5
23E2
102
{ACAD_REACTORS
330
23C6
102
}
330
23C6
100
AcDbXrecord
 10
0.0
 20
0.0
 30
0.0
  0
XRECORD
  5
23E5
102
{ACAD_REACTORS
330
23C6
102
}
330
23C6
100
AcDbXrecord
 10
0.0
 20
0.0
 30
0.0
  0
XRECORD
  5
23E3
102
{ACAD_REACTORS
330
23C6
102
}
330
23C6
100
AcDbXrecord
 10
0.0
 20
0.0
 30
0.0
  0
XRECORD
  5
23E4
102
{ACAD_REACTORS
330
23C6
102
}
330
23C6
100
AcDbXrecord
 10
0.0
 20
0.0
 30
0.0
  0
XRECORD
  5
23E1
102
{ACAD_REACTORS
330
23C6
102
}
330
23C6
100
AcDbXrecord
 10
0.0
 20
0.0
 30
0.0
  0
XRECORD
  5
23DE
102
{ACAD_REACTORS
330
23C6
102
}
330
23C6
100
AcDbXrecord
340
0
  0
XRECORD
  5
23DF
102
{ACAD_REACTORS
330
23C6
102
}
330
23C6
100
AcDbXrecord
 70
     0
  0
XRECORD
  5
23D2
102
{ACAD_REACTORS
330
23C6
102
}
330
23C6
100
AcDbXrecord
  1
{828AE533-FADC-11D5-B771-00B0D0207C23}
  0
ENDSEC
  0
EOF
