  0
SECTION
  2
HEADER
  9
$ACADVER
  1
AC1012
  9
$DWGCODEPAGE
  3
ANSI_1252
  9
$INSBASE
 10
0.0
 20
0.0
 30
0.0
  9
$EXTMIN
 10
-9.404126826452802
 20
-7.507458508192897
 30
-0.0000000349181948
  9
$EXTMAX
 10
19.74135275128209
 20
29.38475894653868
 30
0.0000000814935746
  9
$LIMMIN
 10
0.0
 20
0.0
  9
$LIMMAX
 10
12.0
 20
9.0
  9
$ORTHOMODE
 70
     0
  9
$REGENMODE
 70
     1
  9
$FILLMODE
 70
     1
  9
$QTEXTMODE
 70
     0
  9
$MIRRTEXT
 70
     1
  9
$DRAGMODE
 70
     2
  9
$LTSCALE
 40
1.0
  9
$OSMODE
 70
    33
  9
$ATTMODE
 70
     1
  9
$TEXTSIZE
 40
0.2
  9
$TRACEWID
 40
0.05
  9
$TEXTSTYLE
  7
STANDARD
  9
$CLAYER
  8
0
  9
$CELTYPE
  6
BYLAYER
  9
$CECOLOR
 62
   256
  9
$CELTSCALE
 40
1.0
  9
$DELOBJ
 70
     1
  9
$DISPSILH
 70
     0
  9
$DIMSCALE
 40
1.0
  9
$DIMASZ
 40
0.18
  9
$DIMEXO
 40
0.0625
  9
$DIMDLI
 40
0.38
  9
$DIMRND
 40
0.0
  9
$DIMDLE
 40
0.0
  9
$DIMEXE
 40
0.18
  9
$DIMTP
 40
0.0
  9
$DIMTM
 40
0.0
  9
$DIMTXT
 40
0.18
  9
$DIMCEN
 40
0.09
  9
$DIMTSZ
 40
0.0
  9
$DIMTOL
 70
     0
  9
$DIMLIM
 70
     0
  9
$DIMTIH
 70
     1
  9
$DIMTOH
 70
     1
  9
$DIMSE1
 70
     0
  9
$DIMSE2
 70
     0
  9
$DIMTAD
 70
     0
  9
$DIMZIN
 70
     0
  9
$DIMBLK
  1

  9
$DIMASO
 70
     1
  9
$DIMSHO
 70
     1
  9
$DIMPOST
  1

  9
$DIMAPOST
  1

  9
$DIMALT
 70
     0
  9
$DIMALTD
 70
     2
  9
$DIMALTF
 40
25.4
  9
$DIMLFAC
 40
1.0
  9
$DIMTOFL
 70
     0
  9
$DIMTVP
 40
0.0
  9
$DIMTIX
 70
     0
  9
$DIMSOXD
 70
     0
  9
$DIMSAH
 70
     0
  9
$DIMBLK1
  1

  9
$DIMBLK2
  1

  9
$DIMSTYLE
  2
STANDARD
  9
$DIMCLRD
 70
     0
  9
$DIMCLRE
 70
     0
  9
$DIMCLRT
 70
     0
  9
$DIMTFAC
 40
1.0
  9
$DIMGAP
 40
0.09
  9
$DIMJUST
 70
     0
  9
$DIMSD1
 70
     0
  9
$DIMSD2
 70
     0
  9
$DIMTOLJ
 70
     1
  9
$DIMTZIN
 70
     0
  9
$DIMALTZ
 70
     0
  9
$DIMALTTZ
 70
     0
  9
$DIMFIT
 70
     5
  9
$DIMUPT
 70
     0
  9
$DIMUNIT
 70
     2
  9
$DIMDEC
 70
     4
  9
$DIMTDEC
 70
     4
  9
$DIMALTU
 70
     2
  9
$DIMALTTD
 70
     2
  9
$DIMTXSTY
  7
STANDARD
  9
$DIMAUNIT
 70
     0
  9
$LUNITS
 70
     2
  9
$LUPREC
 70
     4
  9
$SKETCHINC
 40
0.1
  9
$FILLETRAD
 40
0.0
  9
$AUNITS
 70
     0
  9
$AUPREC
 70
     0
  9
$MENU
  1
acad
  9
$ELEVATION
 40
0.0
  9
$PELEVATION
 40
0.0
  9
$THICKNESS
 40
0.0
  9
$LIMCHECK
 70
     0
  9
$BLIPMODE
 70
     0
  9
$CHAMFERA
 40
0.0
  9
$CHAMFERB
 40
0.0
  9
$CHAMFERC
 40
0.0
  9
$CHAMFERD
 40
0.0
  9
$SKPOLY
 70
     0
  9
$TDCREATE
 40
2452685.411342592
  9
$TDUPDATE
 40
2452685.416172141
  9
$TDINDWG
 40
0.0012831019
  9
$TDUSRTIMER
 40
0.0012831019
  9
$USRTIMER
 70
     1
  9
$ANGBASE
 50
0.0
  9
$ANGDIR
 70
     0
  9
$PDMODE
 70
     0
  9
$PDSIZE
 40
0.0
  9
$PLINEWID
 40
0.0
  9
$COORDS
 70
     2
  9
$SPLFRAME
 70
     0
  9
$SPLINETYPE
 70
     6
  9
$SPLINESEGS
 70
     8
  9
$ATTDIA
 70
     0
  9
$ATTREQ
 70
     1
  9
$HANDLING
 70
  4097
  9
$HANDSEED
  5
5F8B
  9
$SURFTAB1
 70
     6
  9
$SURFTAB2
 70
     6
  9
$SURFTYPE
 70
     6
  9
$SURFU
 70
     6
  9
$SURFV
 70
     6
  9
$UCSNAME
  2

  9
$UCSORG
 10
0.0
 20
0.0
 30
0.0
  9
$UCSXDIR
 10
1.0
 20
0.0
 30
0.0
  9
$UCSYDIR
 10
0.0
 20
1.0
 30
0.0
  9
$PUCSNAME
  2

  9
$PUCSORG
 10
0.0
 20
0.0
 30
0.0
  9
$PUCSXDIR
 10
1.0
 20
0.0
 30
0.0
  9
$PUCSYDIR
 10
0.0
 20
1.0
 30
0.0
  9
$USERI1
 70
     0
  9
$USERI2
 70
     0
  9
$USERI3
 70
     0
  9
$USERI4
 70
     0
  9
$USERI5
 70
     0
  9
$USERR1
 40
0.0
  9
$USERR2
 40
0.0
  9
$USERR3
 40
0.0
  9
$USERR4
 40
0.0
  9
$USERR5
 40
0.0
  9
$WORLDVIEW
 70
     1
  9
$SHADEDGE
 70
     3
  9
$SHADEDIF
 70
    70
  9
$TILEMODE
 70
     1
  9
$MAXACTVP
 70
    16
  9
$PINSBASE
 10
0.0
 20
0.0
 30
0.0
  9
$PLIMCHECK
 70
     0
  9
$PEXTMIN
 10
1.000000000000000E+20
 20
1.000000000000000E+20
 30
1.000000000000000E+20
  9
$PEXTMAX
 10
-1.000000000000000E+20
 20
-1.000000000000000E+20
 30
-1.000000000000000E+20
  9
$PLIMMIN
 10
0.0
 20
0.0
  9
$PLIMMAX
 10
12.0
 20
9.0
  9
$UNITMODE
 70
     0
  9
$VISRETAIN
 70
     0
  9
$PLINEGEN
 70
     0
  9
$PSLTSCALE
 70
     1
  9
$TREEDEPTH
 70
  3020
  9
$PICKSTYLE
 70
     1
  9
$CMLSTYLE
  2
STANDARD
  9
$CMLJUST
 70
     0
  9
$CMLSCALE
 40
1.0
  9
$SAVEIMAGES
 70
     1
  0
ENDSEC
  0
SECTION
  2
CLASSES
  0
CLASS
  1
ACDBDICTIONARYWDFLT
  2
AcDbDictionaryWithDefault
  3
AutoCAD 2000
 90
    32768
280
     0
281
     0
  0
CLASS
  1
ACDBPLACEHOLDER
  2
AcDbPlaceHolder
  3
AutoCAD 2000
 90
    32768
280
     0
281
     0
  0
CLASS
  1
LAYOUT
  2
AcDbLayout
  3
AutoCAD 2000
 90
    32768
280
     0
281
     0
  0
CLASS
  1
LONG_TRANSACTION
  2
AcDbLongTransaction
  3
AutoCAD 2000
 90
    32768
280
     0
281
     0
  0
CLASS
  1
LWPOLYLINE
  2
AcDbPolyline
  3
AutoCAD 2000
 90
    32768
280
     0
281
     1
  0
CLASS
  1
HATCH
  2
AcDbHatch
  3
AutoCAD 2000
 90
    32768
280
     0
281
     1
  0
CLASS
  1
XRECORD
  2
AcDbXrecord
  3
AutoCAD 2000
 90
    32768
280
     0
281
     0
  0
ENDSEC
  0
SECTION
  2
TABLES
  0
TABLE
  2
VPORT
  5
8
330
0
100
AcDbSymbolTable
 70
     3
  0
VPORT
  5
5F86
330
8
100
AcDbSymbolTableRecord
100
AcDbViewportTableRecord
  2
*ACTIVE
 70
     0
 10
0.0
 20
0.0
 11
1.0
 21
1.0
 12
5.16861296241465
 22
10.93865021917289
 13
0.0
 23
0.0
 14
1.0
 24
1.0
 15
0.0
 25
0.0
 16
0.0
 26
0.0
 36
1.0
 17
0.0
 27
0.0
 37
0.0
 40
37.18385553737768
 41
1.62928759894459
 42
50.0
 43
0.0
 44
0.0
 50
0.0
 51
0.0
 71
     0
 72
   100
 73
     1
 74
     1
 75
     0
 76
     0
 77
     0
 78
     0
  0
ENDTAB
  0
TABLE
  2
LTYPE
  5
5
330
0
100
AcDbSymbolTable
 70
    25
  0
LTYPE
  5
13
330
5
100
AcDbSymbolTableRecord
100
AcDbLinetypeTableRecord
  2
BYBLOCK
 70
     0
  3

 72
    65
 73
     0
 40
0.0
  0
LTYPE
  5
14
330
5
100
AcDbSymbolTableRecord
100
AcDbLinetypeTableRecord
  2
BYLAYER
 70
     0
  3

 72
    65
 73
     0
 40
0.0
  0
LTYPE
  5
15
330
5
100
AcDbSymbolTableRecord
100
AcDbLinetypeTableRecord
  2
CONTINUOUS
 70
     0
  3
Solid line
 72
    65
 73
     0
 40
0.0
  0
LTYPE
  5
22
330
5
100
AcDbSymbolTableRecord
100
AcDbLinetypeTableRecord
  2
BORDER
 70
     0
  3
__ __ . __ __ . __ __ . __ __ . __ __ . __ __ .
 72
    65
 73
     6
 40
1.75
 49
0.5
 74
     0
 49
-0.25
 74
     0
 49
0.5
 74
     0
 49
-0.25
 74
     0
 49
0.5
 74
     0
 49
-0.25
 74
     0
  0
LTYPE
  5
23
330
5
100
AcDbSymbolTableRecord
100
AcDbLinetypeTableRecord
  2
BORDER2
 70
     0
  3
__.__.__.__.__.__.__.__.__.__.__.__.__.__.__.__
 72
    65
 73
     6
 40
0.875
 49
0.25
 74
     0
 49
-0.125
 74
     0
 49
0.25
 74
     0
 49
-0.125
 74
     0
 49
0.25
 74
     0
 49
-0.125
 74
     0
  0
LTYPE
  5
24
330
5
100
AcDbSymbolTableRecord
100
AcDbLinetypeTableRecord
  2
BORDERX2
 70
     0
  3
____  ____  .  ____  ____  .  
 72
    65
 73
     6
 40
3.5
 49
1.0
 74
     0
 49
-0.5
 74
     0
 49
1.0
 74
     0
 49
-0.5
 74
     0
 49
1.0
 74
     0
 49
-0.5
 74
     0
  0
LTYPE
  5
25
330
5
100
AcDbSymbolTableRecord
100
AcDbLinetypeTableRecord
  2
CENTER
 70
     0
  3
____ _ ____ _ ____ _ ____ _ ____ _ ____ _ ____
 72
    65
 73
     4
 40
2.0
 49
1.25
 74
     0
 49
-0.25
 74
     0
 49
0.25
 74
     0
 49
-0.25
 74
     0
  0
LTYPE
  5
26
330
5
100
AcDbSymbolTableRecord
100
AcDbLinetypeTableRecord
  2
CENTER2
 70
     0
  3
____ _ ____ _ ____ _ ____ _ ____ _ ____ _ ____
 72
    65
 73
     4
 40
1.125
 49
0.75
 74
     0
 49
-0.125
 74
     0
 49
0.125
 74
     0
 49
-0.125
 74
     0
  0
LTYPE
  5
27
330
5
100
AcDbSymbolTableRecord
100
AcDbLinetypeTableRecord
  2
CENTERX2
 70
     0
  3
________  __  ________  __  ________  __  
 72
    65
 73
     4
 40
4.0
 49
2.5
 74
     0
 49
-0.5
 74
     0
 49
0.5
 74
     0
 49
-0.5
 74
     0
  0
LTYPE
  5
28
330
5
100
AcDbSymbolTableRecord
100
AcDbLinetypeTableRecord
  2
DASHDOT
 70
     0
  3
__ . __ . __ . __ . __ . __ . __ . 
 72
    65
 73
     4
 40
1.0
 49
0.5
 74
     0
 49
-0.25
 74
     0
 49
0.0
 74
     0
 49
-0.25
 74
     0
  0
LTYPE
  5
29
330
5
100
AcDbSymbolTableRecord
100
AcDbLinetypeTableRecord
  2
DASHDOT2
 70
     0
  3
_._._._._._._._._._._._._._._._.
 72
    65
 73
     4
 40
0.5
 49
0.25
 74
     0
 49
-0.125
 74
     0
 49
0.0
 74
     0
 49
-0.125
 74
     0
  0
LTYPE
  5
2A
330
5
100
AcDbSymbolTableRecord
100
AcDbLinetypeTableRecord
  2
DASHDOTX2
 70
     0
  3
____  .  ____  .  ____  .  ____  .  
 72
    65
 73
     4
 40
2.0
 49
1.0
 74
     0
 49
-0.5
 74
     0
 49
0.0
 74
     0
 49
-0.5
 74
     0
  0
LTYPE
  5
2B
330
5
100
AcDbSymbolTableRecord
100
AcDbLinetypeTableRecord
  2
DASHED
 70
     0
  3
__ __ __ __ __ __ __ __ __ __ __ __ 
 72
    65
 73
     2
 40
0.75
 49
0.5
 74
     0
 49
-0.25
 74
     0
  0
LTYPE
  5
2C
330
5
100
AcDbSymbolTableRecord
100
AcDbLinetypeTableRecord
  2
DASHED2
 70
     0
  3
_ _ _ _ _ _ _ _ _ _ _ _ _ _ _ _ _ _ 
 72
    65
 73
     2
 40
0.375
 49
0.25
 74
     0
 49
-0.125
 74
     0
  0
LTYPE
  5
2D
330
5
100
AcDbSymbolTableRecord
100
AcDbLinetypeTableRecord
  2
DASHEDX2
 70
     0
  3
____  ____  ____  ____  ____  ____  
 72
    65
 73
     2
 40
1.5
 49
1.0
 74
     0
 49
-0.5
 74
     0
  0
LTYPE
  5
2E
330
5
100
AcDbSymbolTableRecord
100
AcDbLinetypeTableRecord
  2
DIVIDE
 70
     0
  3
____ . . ____ . . ____ . . ____ . . 
 72
    65
 73
     6
 40
1.25
 49
0.5
 74
     0
 49
-0.25
 74
     0
 49
0.0
 74
     0
 49
-0.25
 74
     0
 49
0.0
 74
     0
 49
-0.25
 74
     0
  0
LTYPE
  5
2F
330
5
100
AcDbSymbolTableRecord
100
AcDbLinetypeTableRecord
  2
DIVIDE2
 70
     0
  3
__..__..__..__..__..__..__..__..__..
 72
    65
 73
     6
 40
0.625
 49
0.25
 74
     0
 49
-0.125
 74
     0
 49
0.0
 74
     0
 49
-0.125
 74
     0
 49
0.0
 74
     0
 49
-0.125
 74
     0
  0
LTYPE
  5
30
330
5
100
AcDbSymbolTableRecord
100
AcDbLinetypeTableRecord
  2
DIVIDEX2
 70
     0
  3
________  .  .  ________  .  .  ________  .  . 
 72
    65
 73
     6
 40
2.5
 49
1.0
 74
     0
 49
-0.5
 74
     0
 49
0.0
 74
     0
 49
-0.5
 74
     0
 49
0.0
 74
     0
 49
-0.5
 74
     0
  0
LTYPE
  5
31
330
5
100
AcDbSymbolTableRecord
100
AcDbLinetypeTableRecord
  2
DOT
 70
     0
  3
. . . . . . . . . . . . . . . . . . 
 72
    65
 73
     2
 40
0.25
 49
0.0
 74
     0
 49
-0.25
 74
     0
  0
LTYPE
  5
32
330
5
100
AcDbSymbolTableRecord
100
AcDbLinetypeTableRecord
  2
DOT2
 70
     0
  3
....................................
 72
    65
 73
     2
 40
0.125
 49
0.0
 74
     0
 49
-0.125
 74
     0
  0
LTYPE
  5
33
330
5
100
AcDbSymbolTableRecord
100
AcDbLinetypeTableRecord
  2
DOTX2
 70
     0
  3
.  .  .  .  .  .  .  .  .  .  .  .  .  
 72
    65
 73
     2
 40
0.5
 49
0.0
 74
     0
 49
-0.5
 74
     0
  0
LTYPE
  5
34
330
5
100
AcDbSymbolTableRecord
100
AcDbLinetypeTableRecord
  2
HIDDEN
 70
     0
  3
__ __ __ __ __ __ __ __ __ __ __ __ 
 72
    65
 73
     2
 40
0.375
 49
0.25
 74
     0
 49
-0.125
 74
     0
  0
LTYPE
  5
35
330
5
100
AcDbSymbolTableRecord
100
AcDbLinetypeTableRecord
  2
HIDDEN2
 70
     0
  3
_ _ _ _ _ _ _ _ _ _ _ _ _ _ _ _ _ _ 
 72
    65
 73
     2
 40
0.1875
 49
0.125
 74
     0
 49
-0.0625
 74
     0
  0
LTYPE
  5
36
330
5
100
AcDbSymbolTableRecord
100
AcDbLinetypeTableRecord
  2
HIDDENX2
 70
     0
  3
____ ____ ____ ____ ____ ____ ____ 
 72
    65
 73
     2
 40
0.75
 49
0.5
 74
     0
 49
-0.25
 74
     0
  0
LTYPE
  5
37
330
5
100
AcDbSymbolTableRecord
100
AcDbLinetypeTableRecord
  2
PHANTOM
 70
     0
  3
______  __  __  ______  __  __  
 72
    65
 73
     6
 40
2.5
 49
1.25
 74
     0
 49
-0.25
 74
     0
 49
0.25
 74
     0
 49
-0.25
 74
     0
 49
0.25
 74
     0
 49
-0.25
 74
     0
  0
LTYPE
  5
38
330
5
100
AcDbSymbolTableRecord
100
AcDbLinetypeTableRecord
  2
PHANTOM2
 70
     0
  3
___ _ _ ___ _ _ ___ _ _ ___ _ _ 
 72
    65
 73
     6
 40
1.25
 49
0.625
 74
     0
 49
-0.125
 74
     0
 49
0.125
 74
     0
 49
-0.125
 74
     0
 49
0.125
 74
     0
 49
-0.125
 74
     0
  0
LTYPE
  5
39
330
5
100
AcDbSymbolTableRecord
100
AcDbLinetypeTableRecord
  2
PHANTOMX2
 70
     0
  3
___ _ _ ___ _ _ ___ _ _ ___ _ _ 
 72
    65
 73
     6
 40
5.0
 49
2.5
 74
     0
 49
-0.5
 74
     0
 49
0.5
 74
     0
 49
-0.5
 74
     0
 49
0.5
 74
     0
 49
-0.5
 74
     0
  0
ENDTAB
  0
TABLE
  2
LAYER
  5
2
330
0
100
AcDbSymbolTable
 70
   257
  0
LAYER
  5
10
330
2
100
AcDbSymbolTableRecord
100
AcDbLayerTableRecord
  2
0
 70
     0
 62
     7
  6
CONTINUOUS
  0
LAYER
  5
3A
330
2
100
AcDbSymbolTableRecord
100
AcDbLayerTableRecord
  2
1
 70
     0
 62
     1
  6
CONTINUOUS
  0
LAYER
  5
3B
330
2
100
AcDbSymbolTableRecord
100
AcDbLayerTableRecord
  2
2
 70
     0
 62
     2
  6
CONTINUOUS
  0
LAYER
  5
3C
330
2
100
AcDbSymbolTableRecord
100
AcDbLayerTableRecord
  2
3
 70
     0
 62
     3
  6
CONTINUOUS
  0
LAYER
  5
3D
330
2
100
AcDbSymbolTableRecord
100
AcDbLayerTableRecord
  2
4
 70
     0
 62
     4
  6
CONTINUOUS
  0
LAYER
  5
3E
330
2
100
AcDbSymbolTableRecord
100
AcDbLayerTableRecord
  2
5
 70
     0
 62
     5
  6
CONTINUOUS
  0
LAYER
  5
3F
330
2
100
AcDbSymbolTableRecord
100
AcDbLayerTableRecord
  2
6
 70
     0
 62
     6
  6
CONTINUOUS
  0
LAYER
  5
40
330
2
100
AcDbSymbolTableRecord
100
AcDbLayerTableRecord
  2
7
 70
     0
 62
     7
  6
CONTINUOUS
  0
LAYER
  5
41
330
2
100
AcDbSymbolTableRecord
100
AcDbLayerTableRecord
  2
8
 70
     0
 62
     8
  6
CONTINUOUS
  0
LAYER
  5
42
330
2
100
AcDbSymbolTableRecord
100
AcDbLayerTableRecord
  2
9
 70
     0
 62
     9
  6
CONTINUOUS
  0
LAYER
  5
43
330
2
100
AcDbSymbolTableRecord
100
AcDbLayerTableRecord
  2
10
 70
     0
 62
    10
  6
CONTINUOUS
  0
LAYER
  5
44
330
2
100
AcDbSymbolTableRecord
100
AcDbLayerTableRecord
  2
11
 70
     0
 62
    11
  6
CONTINUOUS
  0
LAYER
  5
45
330
2
100
AcDbSymbolTableRecord
100
AcDbLayerTableRecord
  2
12
 70
     0
 62
    12
  6
CONTINUOUS
  0
LAYER
  5
46
330
2
100
AcDbSymbolTableRecord
100
AcDbLayerTableRecord
  2
13
 70
     0
 62
    13
  6
CONTINUOUS
  0
LAYER
  5
47
330
2
100
AcDbSymbolTableRecord
100
AcDbLayerTableRecord
  2
14
 70
     0
 62
    14
  6
CONTINUOUS
  0
LAYER
  5
48
330
2
100
AcDbSymbolTableRecord
100
AcDbLayerTableRecord
  2
15
 70
     0
 62
    15
  6
CONTINUOUS
  0
LAYER
  5
49
330
2
100
AcDbSymbolTableRecord
100
AcDbLayerTableRecord
  2
16
 70
     0
 62
    16
  6
CONTINUOUS
  0
LAYER
  5
4A
330
2
100
AcDbSymbolTableRecord
100
AcDbLayerTableRecord
  2
17
 70
     0
 62
    17
  6
CONTINUOUS
  0
LAYER
  5
4B
330
2
100
AcDbSymbolTableRecord
100
AcDbLayerTableRecord
  2
18
 70
     0
 62
    18
  6
CONTINUOUS
  0
LAYER
  5
4C
330
2
100
AcDbSymbolTableRecord
100
AcDbLayerTableRecord
  2
19
 70
     0
 62
    19
  6
CONTINUOUS
  0
LAYER
  5
4D
330
2
100
AcDbSymbolTableRecord
100
AcDbLayerTableRecord
  2
20
 70
     0
 62
    20
  6
CONTINUOUS
  0
LAYER
  5
4E
330
2
100
AcDbSymbolTableRecord
100
AcDbLayerTableRecord
  2
21
 70
     0
 62
    21
  6
CONTINUOUS
  0
LAYER
  5
4F
330
2
100
AcDbSymbolTableRecord
100
AcDbLayerTableRecord
  2
22
 70
     0
 62
    22
  6
CONTINUOUS
  0
LAYER
  5
50
330
2
100
AcDbSymbolTableRecord
100
AcDbLayerTableRecord
  2
23
 70
     0
 62
    23
  6
CONTINUOUS
  0
LAYER
  5
51
330
2
100
AcDbSymbolTableRecord
100
AcDbLayerTableRecord
  2
24
 70
     0
 62
    24
  6
CONTINUOUS
  0
LAYER
  5
52
330
2
100
AcDbSymbolTableRecord
100
AcDbLayerTableRecord
  2
25
 70
     0
 62
    25
  6
CONTINUOUS
  0
LAYER
  5
53
330
2
100
AcDbSymbolTableRecord
100
AcDbLayerTableRecord
  2
26
 70
     0
 62
    26
  6
CONTINUOUS
  0
LAYER
  5
54
330
2
100
AcDbSymbolTableRecord
100
AcDbLayerTableRecord
  2
27
 70
     0
 62
    27
  6
CONTINUOUS
  0
LAYER
  5
55
330
2
100
AcDbSymbolTableRecord
100
AcDbLayerTableRecord
  2
28
 70
     0
 62
    28
  6
CONTINUOUS
  0
LAYER
  5
56
330
2
100
AcDbSymbolTableRecord
100
AcDbLayerTableRecord
  2
29
 70
     0
 62
    29
  6
CONTINUOUS
  0
LAYER
  5
57
330
2
100
AcDbSymbolTableRecord
100
AcDbLayerTableRecord
  2
30
 70
     0
 62
    30
  6
CONTINUOUS
  0
LAYER
  5
58
330
2
100
AcDbSymbolTableRecord
100
AcDbLayerTableRecord
  2
31
 70
     0
 62
    31
  6
CONTINUOUS
  0
LAYER
  5
59
330
2
100
AcDbSymbolTableRecord
100
AcDbLayerTableRecord
  2
32
 70
     0
 62
    32
  6
CONTINUOUS
  0
LAYER
  5
5A
330
2
100
AcDbSymbolTableRecord
100
AcDbLayerTableRecord
  2
33
 70
     0
 62
    33
  6
CONTINUOUS
  0
LAYER
  5
5B
330
2
100
AcDbSymbolTableRecord
100
AcDbLayerTableRecord
  2
34
 70
     0
 62
    34
  6
CONTINUOUS
  0
LAYER
  5
5C
330
2
100
AcDbSymbolTableRecord
100
AcDbLayerTableRecord
  2
35
 70
     0
 62
    35
  6
CONTINUOUS
  0
LAYER
  5
5D
330
2
100
AcDbSymbolTableRecord
100
AcDbLayerTableRecord
  2
36
 70
     0
 62
    36
  6
CONTINUOUS
  0
LAYER
  5
5E
330
2
100
AcDbSymbolTableRecord
100
AcDbLayerTableRecord
  2
37
 70
     0
 62
    37
  6
CONTINUOUS
  0
LAYER
  5
5F
330
2
100
AcDbSymbolTableRecord
100
AcDbLayerTableRecord
  2
38
 70
     0
 62
    38
  6
CONTINUOUS
  0
LAYER
  5
60
330
2
100
AcDbSymbolTableRecord
100
AcDbLayerTableRecord
  2
39
 70
     0
 62
    39
  6
CONTINUOUS
  0
LAYER
  5
61
330
2
100
AcDbSymbolTableRecord
100
AcDbLayerTableRecord
  2
40
 70
     0
 62
    40
  6
CONTINUOUS
  0
LAYER
  5
62
330
2
100
AcDbSymbolTableRecord
100
AcDbLayerTableRecord
  2
41
 70
     0
 62
    41
  6
CONTINUOUS
  0
LAYER
  5
63
330
2
100
AcDbSymbolTableRecord
100
AcDbLayerTableRecord
  2
42
 70
     0
 62
    42
  6
CONTINUOUS
  0
LAYER
  5
64
330
2
100
AcDbSymbolTableRecord
100
AcDbLayerTableRecord
  2
43
 70
     0
 62
    43
  6
CONTINUOUS
  0
LAYER
  5
65
330
2
100
AcDbSymbolTableRecord
100
AcDbLayerTableRecord
  2
44
 70
     0
 62
    44
  6
CONTINUOUS
  0
LAYER
  5
66
330
2
100
AcDbSymbolTableRecord
100
AcDbLayerTableRecord
  2
45
 70
     0
 62
    45
  6
CONTINUOUS
  0
LAYER
  5
67
330
2
100
AcDbSymbolTableRecord
100
AcDbLayerTableRecord
  2
46
 70
     0
 62
    46
  6
CONTINUOUS
  0
LAYER
  5
68
330
2
100
AcDbSymbolTableRecord
100
AcDbLayerTableRecord
  2
47
 70
     0
 62
    47
  6
CONTINUOUS
  0
LAYER
  5
69
330
2
100
AcDbSymbolTableRecord
100
AcDbLayerTableRecord
  2
48
 70
     0
 62
    48
  6
CONTINUOUS
  0
LAYER
  5
6A
330
2
100
AcDbSymbolTableRecord
100
AcDbLayerTableRecord
  2
49
 70
     0
 62
    49
  6
CONTINUOUS
  0
LAYER
  5
6B
330
2
100
AcDbSymbolTableRecord
100
AcDbLayerTableRecord
  2
50
 70
     0
 62
    50
  6
CONTINUOUS
  0
LAYER
  5
6C
330
2
100
AcDbSymbolTableRecord
100
AcDbLayerTableRecord
  2
51
 70
     0
 62
    51
  6
CONTINUOUS
  0
LAYER
  5
6D
330
2
100
AcDbSymbolTableRecord
100
AcDbLayerTableRecord
  2
52
 70
     0
 62
    52
  6
CONTINUOUS
  0
LAYER
  5
6E
330
2
100
AcDbSymbolTableRecord
100
AcDbLayerTableRecord
  2
53
 70
     0
 62
    53
  6
CONTINUOUS
  0
LAYER
  5
6F
330
2
100
AcDbSymbolTableRecord
100
AcDbLayerTableRecord
  2
54
 70
     0
 62
    54
  6
CONTINUOUS
  0
LAYER
  5
70
330
2
100
AcDbSymbolTableRecord
100
AcDbLayerTableRecord
  2
55
 70
     0
 62
    55
  6
CONTINUOUS
  0
LAYER
  5
71
330
2
100
AcDbSymbolTableRecord
100
AcDbLayerTableRecord
  2
56
 70
     0
 62
    56
  6
CONTINUOUS
  0
LAYER
  5
72
330
2
100
AcDbSymbolTableRecord
100
AcDbLayerTableRecord
  2
57
 70
     0
 62
    57
  6
CONTINUOUS
  0
LAYER
  5
73
330
2
100
AcDbSymbolTableRecord
100
AcDbLayerTableRecord
  2
58
 70
     0
 62
    58
  6
CONTINUOUS
  0
LAYER
  5
74
330
2
100
AcDbSymbolTableRecord
100
AcDbLayerTableRecord
  2
59
 70
     0
 62
    59
  6
CONTINUOUS
  0
LAYER
  5
75
330
2
100
AcDbSymbolTableRecord
100
AcDbLayerTableRecord
  2
60
 70
     0
 62
    60
  6
CONTINUOUS
  0
LAYER
  5
76
330
2
100
AcDbSymbolTableRecord
100
AcDbLayerTableRecord
  2
61
 70
     0
 62
    61
  6
CONTINUOUS
  0
LAYER
  5
77
330
2
100
AcDbSymbolTableRecord
100
AcDbLayerTableRecord
  2
62
 70
     0
 62
    62
  6
CONTINUOUS
  0
LAYER
  5
78
330
2
100
AcDbSymbolTableRecord
100
AcDbLayerTableRecord
  2
63
 70
     0
 62
    63
  6
CONTINUOUS
  0
LAYER
  5
79
330
2
100
AcDbSymbolTableRecord
100
AcDbLayerTableRecord
  2
64
 70
     0
 62
    64
  6
CONTINUOUS
  0
LAYER
  5
7A
330
2
100
AcDbSymbolTableRecord
100
AcDbLayerTableRecord
  2
65
 70
     0
 62
    65
  6
CONTINUOUS
  0
LAYER
  5
7B
330
2
100
AcDbSymbolTableRecord
100
AcDbLayerTableRecord
  2
66
 70
     0
 62
    66
  6
CONTINUOUS
  0
LAYER
  5
7C
330
2
100
AcDbSymbolTableRecord
100
AcDbLayerTableRecord
  2
67
 70
     0
 62
    67
  6
CONTINUOUS
  0
LAYER
  5
7D
330
2
100
AcDbSymbolTableRecord
100
AcDbLayerTableRecord
  2
68
 70
     0
 62
    68
  6
CONTINUOUS
  0
LAYER
  5
7E
330
2
100
AcDbSymbolTableRecord
100
AcDbLayerTableRecord
  2
69
 70
     0
 62
    69
  6
CONTINUOUS
  0
LAYER
  5
7F
330
2
100
AcDbSymbolTableRecord
100
AcDbLayerTableRecord
  2
70
 70
     0
 62
    70
  6
CONTINUOUS
  0
LAYER
  5
80
330
2
100
AcDbSymbolTableRecord
100
AcDbLayerTableRecord
  2
71
 70
     0
 62
    71
  6
CONTINUOUS
  0
LAYER
  5
81
330
2
100
AcDbSymbolTableRecord
100
AcDbLayerTableRecord
  2
72
 70
     0
 62
    72
  6
CONTINUOUS
  0
LAYER
  5
82
330
2
100
AcDbSymbolTableRecord
100
AcDbLayerTableRecord
  2
73
 70
     0
 62
    73
  6
CONTINUOUS
  0
LAYER
  5
83
330
2
100
AcDbSymbolTableRecord
100
AcDbLayerTableRecord
  2
74
 70
     0
 62
    74
  6
CONTINUOUS
  0
LAYER
  5
84
330
2
100
AcDbSymbolTableRecord
100
AcDbLayerTableRecord
  2
75
 70
     0
 62
    75
  6
CONTINUOUS
  0
LAYER
  5
85
330
2
100
AcDbSymbolTableRecord
100
AcDbLayerTableRecord
  2
76
 70
     0
 62
    76
  6
CONTINUOUS
  0
LAYER
  5
86
330
2
100
AcDbSymbolTableRecord
100
AcDbLayerTableRecord
  2
77
 70
     0
 62
    77
  6
CONTINUOUS
  0
LAYER
  5
87
330
2
100
AcDbSymbolTableRecord
100
AcDbLayerTableRecord
  2
78
 70
     0
 62
    78
  6
CONTINUOUS
  0
LAYER
  5
88
330
2
100
AcDbSymbolTableRecord
100
AcDbLayerTableRecord
  2
79
 70
     0
 62
    79
  6
CONTINUOUS
  0
LAYER
  5
89
330
2
100
AcDbSymbolTableRecord
100
AcDbLayerTableRecord
  2
80
 70
     0
 62
    80
  6
CONTINUOUS
  0
LAYER
  5
8A
330
2
100
AcDbSymbolTableRecord
100
AcDbLayerTableRecord
  2
81
 70
     0
 62
    81
  6
CONTINUOUS
  0
LAYER
  5
8B
330
2
100
AcDbSymbolTableRecord
100
AcDbLayerTableRecord
  2
82
 70
     0
 62
    82
  6
CONTINUOUS
  0
LAYER
  5
8C
330
2
100
AcDbSymbolTableRecord
100
AcDbLayerTableRecord
  2
83
 70
     0
 62
    83
  6
CONTINUOUS
  0
LAYER
  5
8D
330
2
100
AcDbSymbolTableRecord
100
AcDbLayerTableRecord
  2
84
 70
     0
 62
    84
  6
CONTINUOUS
  0
LAYER
  5
8E
330
2
100
AcDbSymbolTableRecord
100
AcDbLayerTableRecord
  2
85
 70
     0
 62
    85
  6
CONTINUOUS
  0
LAYER
  5
8F
330
2
100
AcDbSymbolTableRecord
100
AcDbLayerTableRecord
  2
86
 70
     0
 62
    86
  6
CONTINUOUS
  0
LAYER
  5
90
330
2
100
AcDbSymbolTableRecord
100
AcDbLayerTableRecord
  2
87
 70
     0
 62
    87
  6
CONTINUOUS
  0
LAYER
  5
91
330
2
100
AcDbSymbolTableRecord
100
AcDbLayerTableRecord
  2
88
 70
     0
 62
    88
  6
CONTINUOUS
  0
LAYER
  5
92
330
2
100
AcDbSymbolTableRecord
100
AcDbLayerTableRecord
  2
89
 70
     0
 62
    89
  6
CONTINUOUS
  0
LAYER
  5
93
330
2
100
AcDbSymbolTableRecord
100
AcDbLayerTableRecord
  2
90
 70
     0
 62
    90
  6
CONTINUOUS
  0
LAYER
  5
94
330
2
100
AcDbSymbolTableRecord
100
AcDbLayerTableRecord
  2
91
 70
     0
 62
    91
  6
CONTINUOUS
  0
LAYER
  5
95
330
2
100
AcDbSymbolTableRecord
100
AcDbLayerTableRecord
  2
92
 70
     0
 62
    92
  6
CONTINUOUS
  0
LAYER
  5
96
330
2
100
AcDbSymbolTableRecord
100
AcDbLayerTableRecord
  2
93
 70
     0
 62
    93
  6
CONTINUOUS
  0
LAYER
  5
97
330
2
100
AcDbSymbolTableRecord
100
AcDbLayerTableRecord
  2
94
 70
     0
 62
    94
  6
CONTINUOUS
  0
LAYER
  5
98
330
2
100
AcDbSymbolTableRecord
100
AcDbLayerTableRecord
  2
95
 70
     0
 62
    95
  6
CONTINUOUS
  0
LAYER
  5
99
330
2
100
AcDbSymbolTableRecord
100
AcDbLayerTableRecord
  2
96
 70
     0
 62
    96
  6
CONTINUOUS
  0
LAYER
  5
9A
330
2
100
AcDbSymbolTableRecord
100
AcDbLayerTableRecord
  2
97
 70
     0
 62
    97
  6
CONTINUOUS
  0
LAYER
  5
9B
330
2
100
AcDbSymbolTableRecord
100
AcDbLayerTableRecord
  2
98
 70
     0
 62
    98
  6
CONTINUOUS
  0
LAYER
  5
9C
330
2
100
AcDbSymbolTableRecord
100
AcDbLayerTableRecord
  2
99
 70
     0
 62
    99
  6
CONTINUOUS
  0
LAYER
  5
9D
330
2
100
AcDbSymbolTableRecord
100
AcDbLayerTableRecord
  2
100
 70
     0
 62
   100
  6
CONTINUOUS
  0
LAYER
  5
9E
330
2
100
AcDbSymbolTableRecord
100
AcDbLayerTableRecord
  2
101
 70
     0
 62
   101
  6
CONTINUOUS
  0
LAYER
  5
9F
330
2
100
AcDbSymbolTableRecord
100
AcDbLayerTableRecord
  2
102
 70
     0
 62
   102
  6
CONTINUOUS
  0
LAYER
  5
A0
330
2
100
AcDbSymbolTableRecord
100
AcDbLayerTableRecord
  2
103
 70
     0
 62
   103
  6
CONTINUOUS
  0
LAYER
  5
A1
330
2
100
AcDbSymbolTableRecord
100
AcDbLayerTableRecord
  2
104
 70
     0
 62
   104
  6
CONTINUOUS
  0
LAYER
  5
A2
330
2
100
AcDbSymbolTableRecord
100
AcDbLayerTableRecord
  2
105
 70
     0
 62
   105
  6
CONTINUOUS
  0
LAYER
  5
A3
330
2
100
AcDbSymbolTableRecord
100
AcDbLayerTableRecord
  2
106
 70
     0
 62
   106
  6
CONTINUOUS
  0
LAYER
  5
A4
330
2
100
AcDbSymbolTableRecord
100
AcDbLayerTableRecord
  2
107
 70
     0
 62
   107
  6
CONTINUOUS
  0
LAYER
  5
A5
330
2
100
AcDbSymbolTableRecord
100
AcDbLayerTableRecord
  2
108
 70
     0
 62
   108
  6
CONTINUOUS
  0
LAYER
  5
A6
330
2
100
AcDbSymbolTableRecord
100
AcDbLayerTableRecord
  2
109
 70
     0
 62
   109
  6
CONTINUOUS
  0
LAYER
  5
A7
330
2
100
AcDbSymbolTableRecord
100
AcDbLayerTableRecord
  2
110
 70
     0
 62
   110
  6
CONTINUOUS
  0
LAYER
  5
A8
330
2
100
AcDbSymbolTableRecord
100
AcDbLayerTableRecord
  2
111
 70
     0
 62
   111
  6
CONTINUOUS
  0
LAYER
  5
A9
330
2
100
AcDbSymbolTableRecord
100
AcDbLayerTableRecord
  2
112
 70
     0
 62
   112
  6
CONTINUOUS
  0
LAYER
  5
AA
330
2
100
AcDbSymbolTableRecord
100
AcDbLayerTableRecord
  2
113
 70
     0
 62
   113
  6
CONTINUOUS
  0
LAYER
  5
AB
330
2
100
AcDbSymbolTableRecord
100
AcDbLayerTableRecord
  2
114
 70
     0
 62
   114
  6
CONTINUOUS
  0
LAYER
  5
AC
330
2
100
AcDbSymbolTableRecord
100
AcDbLayerTableRecord
  2
115
 70
     0
 62
   115
  6
CONTINUOUS
  0
LAYER
  5
AD
330
2
100
AcDbSymbolTableRecord
100
AcDbLayerTableRecord
  2
116
 70
     0
 62
   116
  6
CONTINUOUS
  0
LAYER
  5
AE
330
2
100
AcDbSymbolTableRecord
100
AcDbLayerTableRecord
  2
117
 70
     0
 62
   117
  6
CONTINUOUS
  0
LAYER
  5
AF
330
2
100
AcDbSymbolTableRecord
100
AcDbLayerTableRecord
  2
118
 70
     0
 62
   118
  6
CONTINUOUS
  0
LAYER
  5
B0
330
2
100
AcDbSymbolTableRecord
100
AcDbLayerTableRecord
  2
119
 70
     0
 62
   119
  6
CONTINUOUS
  0
LAYER
  5
B1
330
2
100
AcDbSymbolTableRecord
100
AcDbLayerTableRecord
  2
120
 70
     0
 62
   120
  6
CONTINUOUS
  0
LAYER
  5
B2
330
2
100
AcDbSymbolTableRecord
100
AcDbLayerTableRecord
  2
121
 70
     0
 62
   121
  6
CONTINUOUS
  0
LAYER
  5
B3
330
2
100
AcDbSymbolTableRecord
100
AcDbLayerTableRecord
  2
122
 70
     0
 62
   122
  6
CONTINUOUS
  0
LAYER
  5
B4
330
2
100
AcDbSymbolTableRecord
100
AcDbLayerTableRecord
  2
123
 70
     0
 62
   123
  6
CONTINUOUS
  0
LAYER
  5
B5
330
2
100
AcDbSymbolTableRecord
100
AcDbLayerTableRecord
  2
124
 70
     0
 62
   124
  6
CONTINUOUS
  0
LAYER
  5
B6
330
2
100
AcDbSymbolTableRecord
100
AcDbLayerTableRecord
  2
125
 70
     0
 62
   125
  6
CONTINUOUS
  0
LAYER
  5
B7
330
2
100
AcDbSymbolTableRecord
100
AcDbLayerTableRecord
  2
126
 70
     0
 62
   126
  6
CONTINUOUS
  0
LAYER
  5
B8
330
2
100
AcDbSymbolTableRecord
100
AcDbLayerTableRecord
  2
127
 70
     0
 62
   127
  6
CONTINUOUS
  0
LAYER
  5
B9
330
2
100
AcDbSymbolTableRecord
100
AcDbLayerTableRecord
  2
128
 70
     0
 62
   128
  6
CONTINUOUS
  0
LAYER
  5
BA
330
2
100
AcDbSymbolTableRecord
100
AcDbLayerTableRecord
  2
129
 70
     0
 62
   129
  6
CONTINUOUS
  0
LAYER
  5
BB
330
2
100
AcDbSymbolTableRecord
100
AcDbLayerTableRecord
  2
130
 70
     0
 62
   130
  6
CONTINUOUS
  0
LAYER
  5
BC
330
2
100
AcDbSymbolTableRecord
100
AcDbLayerTableRecord
  2
131
 70
     0
 62
   131
  6
CONTINUOUS
  0
LAYER
  5
BD
330
2
100
AcDbSymbolTableRecord
100
AcDbLayerTableRecord
  2
132
 70
     0
 62
   132
  6
CONTINUOUS
  0
LAYER
  5
BE
330
2
100
AcDbSymbolTableRecord
100
AcDbLayerTableRecord
  2
133
 70
     0
 62
   133
  6
CONTINUOUS
  0
LAYER
  5
BF
330
2
100
AcDbSymbolTableRecord
100
AcDbLayerTableRecord
  2
134
 70
     0
 62
   134
  6
CONTINUOUS
  0
LAYER
  5
C0
330
2
100
AcDbSymbolTableRecord
100
AcDbLayerTableRecord
  2
135
 70
     0
 62
   135
  6
CONTINUOUS
  0
LAYER
  5
C1
330
2
100
AcDbSymbolTableRecord
100
AcDbLayerTableRecord
  2
136
 70
     0
 62
   136
  6
CONTINUOUS
  0
LAYER
  5
C2
330
2
100
AcDbSymbolTableRecord
100
AcDbLayerTableRecord
  2
137
 70
     0
 62
   137
  6
CONTINUOUS
  0
LAYER
  5
C3
330
2
100
AcDbSymbolTableRecord
100
AcDbLayerTableRecord
  2
138
 70
     0
 62
   138
  6
CONTINUOUS
  0
LAYER
  5
C4
330
2
100
AcDbSymbolTableRecord
100
AcDbLayerTableRecord
  2
139
 70
     0
 62
   139
  6
CONTINUOUS
  0
LAYER
  5
C5
330
2
100
AcDbSymbolTableRecord
100
AcDbLayerTableRecord
  2
140
 70
     0
 62
   140
  6
CONTINUOUS
  0
LAYER
  5
C6
330
2
100
AcDbSymbolTableRecord
100
AcDbLayerTableRecord
  2
141
 70
     0
 62
   141
  6
CONTINUOUS
  0
LAYER
  5
C7
330
2
100
AcDbSymbolTableRecord
100
AcDbLayerTableRecord
  2
142
 70
     0
 62
   142
  6
CONTINUOUS
  0
LAYER
  5
C8
330
2
100
AcDbSymbolTableRecord
100
AcDbLayerTableRecord
  2
143
 70
     0
 62
   143
  6
CONTINUOUS
  0
LAYER
  5
C9
330
2
100
AcDbSymbolTableRecord
100
AcDbLayerTableRecord
  2
144
 70
     0
 62
   144
  6
CONTINUOUS
  0
LAYER
  5
CA
330
2
100
AcDbSymbolTableRecord
100
AcDbLayerTableRecord
  2
145
 70
     0
 62
   145
  6
CONTINUOUS
  0
LAYER
  5
CB
330
2
100
AcDbSymbolTableRecord
100
AcDbLayerTableRecord
  2
146
 70
     0
 62
   146
  6
CONTINUOUS
  0
LAYER
  5
CC
330
2
100
AcDbSymbolTableRecord
100
AcDbLayerTableRecord
  2
147
 70
     0
 62
   147
  6
CONTINUOUS
  0
LAYER
  5
CD
330
2
100
AcDbSymbolTableRecord
100
AcDbLayerTableRecord
  2
148
 70
     0
 62
   148
  6
CONTINUOUS
  0
LAYER
  5
CE
330
2
100
AcDbSymbolTableRecord
100
AcDbLayerTableRecord
  2
149
 70
     0
 62
   149
  6
CONTINUOUS
  0
LAYER
  5
CF
330
2
100
AcDbSymbolTableRecord
100
AcDbLayerTableRecord
  2
150
 70
     0
 62
   150
  6
CONTINUOUS
  0
LAYER
  5
D0
330
2
100
AcDbSymbolTableRecord
100
AcDbLayerTableRecord
  2
151
 70
     0
 62
   151
  6
CONTINUOUS
  0
LAYER
  5
D1
330
2
100
AcDbSymbolTableRecord
100
AcDbLayerTableRecord
  2
152
 70
     0
 62
   152
  6
CONTINUOUS
  0
LAYER
  5
D2
330
2
100
AcDbSymbolTableRecord
100
AcDbLayerTableRecord
  2
153
 70
     0
 62
   153
  6
CONTINUOUS
  0
LAYER
  5
D3
330
2
100
AcDbSymbolTableRecord
100
AcDbLayerTableRecord
  2
154
 70
     0
 62
   154
  6
CONTINUOUS
  0
LAYER
  5
D4
330
2
100
AcDbSymbolTableRecord
100
AcDbLayerTableRecord
  2
155
 70
     0
 62
   155
  6
CONTINUOUS
  0
LAYER
  5
D5
330
2
100
AcDbSymbolTableRecord
100
AcDbLayerTableRecord
  2
156
 70
     0
 62
   156
  6
CONTINUOUS
  0
LAYER
  5
D6
330
2
100
AcDbSymbolTableRecord
100
AcDbLayerTableRecord
  2
157
 70
     0
 62
   157
  6
CONTINUOUS
  0
LAYER
  5
D7
330
2
100
AcDbSymbolTableRecord
100
AcDbLayerTableRecord
  2
158
 70
     0
 62
   158
  6
CONTINUOUS
  0
LAYER
  5
D8
330
2
100
AcDbSymbolTableRecord
100
AcDbLayerTableRecord
  2
159
 70
     0
 62
   159
  6
CONTINUOUS
  0
LAYER
  5
D9
330
2
100
AcDbSymbolTableRecord
100
AcDbLayerTableRecord
  2
160
 70
     0
 62
   160
  6
CONTINUOUS
  0
LAYER
  5
DA
330
2
100
AcDbSymbolTableRecord
100
AcDbLayerTableRecord
  2
161
 70
     0
 62
   161
  6
CONTINUOUS
  0
LAYER
  5
DB
330
2
100
AcDbSymbolTableRecord
100
AcDbLayerTableRecord
  2
162
 70
     0
 62
   162
  6
CONTINUOUS
  0
LAYER
  5
DC
330
2
100
AcDbSymbolTableRecord
100
AcDbLayerTableRecord
  2
163
 70
     0
 62
   163
  6
CONTINUOUS
  0
LAYER
  5
DD
330
2
100
AcDbSymbolTableRecord
100
AcDbLayerTableRecord
  2
164
 70
     0
 62
   164
  6
CONTINUOUS
  0
LAYER
  5
DE
330
2
100
AcDbSymbolTableRecord
100
AcDbLayerTableRecord
  2
165
 70
     0
 62
   165
  6
CONTINUOUS
  0
LAYER
  5
DF
330
2
100
AcDbSymbolTableRecord
100
AcDbLayerTableRecord
  2
166
 70
     0
 62
   166
  6
CONTINUOUS
  0
LAYER
  5
E0
330
2
100
AcDbSymbolTableRecord
100
AcDbLayerTableRecord
  2
167
 70
     0
 62
   167
  6
CONTINUOUS
  0
LAYER
  5
E1
330
2
100
AcDbSymbolTableRecord
100
AcDbLayerTableRecord
  2
168
 70
     0
 62
   168
  6
CONTINUOUS
  0
LAYER
  5
E2
330
2
100
AcDbSymbolTableRecord
100
AcDbLayerTableRecord
  2
169
 70
     0
 62
   169
  6
CONTINUOUS
  0
LAYER
  5
E3
330
2
100
AcDbSymbolTableRecord
100
AcDbLayerTableRecord
  2
170
 70
     0
 62
   170
  6
CONTINUOUS
  0
LAYER
  5
E4
330
2
100
AcDbSymbolTableRecord
100
AcDbLayerTableRecord
  2
171
 70
     0
 62
   171
  6
CONTINUOUS
  0
LAYER
  5
E5
330
2
100
AcDbSymbolTableRecord
100
AcDbLayerTableRecord
  2
172
 70
     0
 62
   172
  6
CONTINUOUS
  0
LAYER
  5
E6
330
2
100
AcDbSymbolTableRecord
100
AcDbLayerTableRecord
  2
173
 70
     0
 62
   173
  6
CONTINUOUS
  0
LAYER
  5
E7
330
2
100
AcDbSymbolTableRecord
100
AcDbLayerTableRecord
  2
174
 70
     0
 62
   174
  6
CONTINUOUS
  0
LAYER
  5
E8
330
2
100
AcDbSymbolTableRecord
100
AcDbLayerTableRecord
  2
175
 70
     0
 62
   175
  6
CONTINUOUS
  0
LAYER
  5
E9
330
2
100
AcDbSymbolTableRecord
100
AcDbLayerTableRecord
  2
176
 70
     0
 62
   176
  6
CONTINUOUS
  0
LAYER
  5
EA
330
2
100
AcDbSymbolTableRecord
100
AcDbLayerTableRecord
  2
177
 70
     0
 62
   177
  6
CONTINUOUS
  0
LAYER
  5
EB
330
2
100
AcDbSymbolTableRecord
100
AcDbLayerTableRecord
  2
178
 70
     0
 62
   178
  6
CONTINUOUS
  0
LAYER
  5
EC
330
2
100
AcDbSymbolTableRecord
100
AcDbLayerTableRecord
  2
179
 70
     0
 62
   179
  6
CONTINUOUS
  0
LAYER
  5
ED
330
2
100
AcDbSymbolTableRecord
100
AcDbLayerTableRecord
  2
180
 70
     0
 62
   180
  6
CONTINUOUS
  0
LAYER
  5
EE
330
2
100
AcDbSymbolTableRecord
100
AcDbLayerTableRecord
  2
181
 70
     0
 62
   181
  6
CONTINUOUS
  0
LAYER
  5
EF
330
2
100
AcDbSymbolTableRecord
100
AcDbLayerTableRecord
  2
182
 70
     0
 62
   182
  6
CONTINUOUS
  0
LAYER
  5
F0
330
2
100
AcDbSymbolTableRecord
100
AcDbLayerTableRecord
  2
183
 70
     0
 62
   183
  6
CONTINUOUS
  0
LAYER
  5
F1
330
2
100
AcDbSymbolTableRecord
100
AcDbLayerTableRecord
  2
184
 70
     0
 62
   184
  6
CONTINUOUS
  0
LAYER
  5
F2
330
2
100
AcDbSymbolTableRecord
100
AcDbLayerTableRecord
  2
185
 70
     0
 62
   185
  6
CONTINUOUS
  0
LAYER
  5
F3
330
2
100
AcDbSymbolTableRecord
100
AcDbLayerTableRecord
  2
186
 70
     0
 62
   186
  6
CONTINUOUS
  0
LAYER
  5
F4
330
2
100
AcDbSymbolTableRecord
100
AcDbLayerTableRecord
  2
187
 70
     0
 62
   187
  6
CONTINUOUS
  0
LAYER
  5
F5
330
2
100
AcDbSymbolTableRecord
100
AcDbLayerTableRecord
  2
188
 70
     0
 62
   188
  6
CONTINUOUS
  0
LAYER
  5
F6
330
2
100
AcDbSymbolTableRecord
100
AcDbLayerTableRecord
  2
189
 70
     0
 62
   189
  6
CONTINUOUS
  0
LAYER
  5
F7
330
2
100
AcDbSymbolTableRecord
100
AcDbLayerTableRecord
  2
190
 70
     0
 62
   190
  6
CONTINUOUS
  0
LAYER
  5
F8
330
2
100
AcDbSymbolTableRecord
100
AcDbLayerTableRecord
  2
191
 70
     0
 62
   191
  6
CONTINUOUS
  0
LAYER
  5
F9
330
2
100
AcDbSymbolTableRecord
100
AcDbLayerTableRecord
  2
192
 70
     0
 62
   192
  6
CONTINUOUS
  0
LAYER
  5
FA
330
2
100
AcDbSymbolTableRecord
100
AcDbLayerTableRecord
  2
193
 70
     0
 62
   193
  6
CONTINUOUS
  0
LAYER
  5
FB
330
2
100
AcDbSymbolTableRecord
100
AcDbLayerTableRecord
  2
194
 70
     0
 62
   194
  6
CONTINUOUS
  0
LAYER
  5
FC
330
2
100
AcDbSymbolTableRecord
100
AcDbLayerTableRecord
  2
195
 70
     0
 62
   195
  6
CONTINUOUS
  0
LAYER
  5
FD
330
2
100
AcDbSymbolTableRecord
100
AcDbLayerTableRecord
  2
196
 70
     0
 62
   196
  6
CONTINUOUS
  0
LAYER
  5
FE
330
2
100
AcDbSymbolTableRecord
100
AcDbLayerTableRecord
  2
197
 70
     0
 62
   197
  6
CONTINUOUS
  0
LAYER
  5
FF
330
2
100
AcDbSymbolTableRecord
100
AcDbLayerTableRecord
  2
198
 70
     0
 62
   198
  6
CONTINUOUS
  0
LAYER
  5
100
330
2
100
AcDbSymbolTableRecord
100
AcDbLayerTableRecord
  2
199
 70
     0
 62
   199
  6
CONTINUOUS
  0
LAYER
  5
101
330
2
100
AcDbSymbolTableRecord
100
AcDbLayerTableRecord
  2
200
 70
     0
 62
   200
  6
CONTINUOUS
  0
LAYER
  5
102
330
2
100
AcDbSymbolTableRecord
100
AcDbLayerTableRecord
  2
201
 70
     0
 62
   201
  6
CONTINUOUS
  0
LAYER
  5
103
330
2
100
AcDbSymbolTableRecord
100
AcDbLayerTableRecord
  2
202
 70
     0
 62
   202
  6
CONTINUOUS
  0
LAYER
  5
104
330
2
100
AcDbSymbolTableRecord
100
AcDbLayerTableRecord
  2
203
 70
     0
 62
   203
  6
CONTINUOUS
  0
LAYER
  5
105
330
2
100
AcDbSymbolTableRecord
100
AcDbLayerTableRecord
  2
204
 70
     0
 62
   204
  6
CONTINUOUS
  0
LAYER
  5
106
330
2
100
AcDbSymbolTableRecord
100
AcDbLayerTableRecord
  2
205
 70
     0
 62
   205
  6
CONTINUOUS
  0
LAYER
  5
107
330
2
100
AcDbSymbolTableRecord
100
AcDbLayerTableRecord
  2
206
 70
     0
 62
   206
  6
CONTINUOUS
  0
LAYER
  5
108
330
2
100
AcDbSymbolTableRecord
100
AcDbLayerTableRecord
  2
207
 70
     0
 62
   207
  6
CONTINUOUS
  0
LAYER
  5
109
330
2
100
AcDbSymbolTableRecord
100
AcDbLayerTableRecord
  2
208
 70
     0
 62
   208
  6
CONTINUOUS
  0
LAYER
  5
10A
330
2
100
AcDbSymbolTableRecord
100
AcDbLayerTableRecord
  2
209
 70
     0
 62
   209
  6
CONTINUOUS
  0
LAYER
  5
10B
330
2
100
AcDbSymbolTableRecord
100
AcDbLayerTableRecord
  2
210
 70
     0
 62
   210
  6
CONTINUOUS
  0
LAYER
  5
10C
330
2
100
AcDbSymbolTableRecord
100
AcDbLayerTableRecord
  2
211
 70
     0
 62
   211
  6
CONTINUOUS
  0
LAYER
  5
10D
330
2
100
AcDbSymbolTableRecord
100
AcDbLayerTableRecord
  2
212
 70
     0
 62
   212
  6
CONTINUOUS
  0
LAYER
  5
10E
330
2
100
AcDbSymbolTableRecord
100
AcDbLayerTableRecord
  2
213
 70
     0
 62
   213
  6
CONTINUOUS
  0
LAYER
  5
10F
330
2
100
AcDbSymbolTableRecord
100
AcDbLayerTableRecord
  2
214
 70
     0
 62
   214
  6
CONTINUOUS
  0
LAYER
  5
110
330
2
100
AcDbSymbolTableRecord
100
AcDbLayerTableRecord
  2
215
 70
     0
 62
   215
  6
CONTINUOUS
  0
LAYER
  5
111
330
2
100
AcDbSymbolTableRecord
100
AcDbLayerTableRecord
  2
216
 70
     0
 62
   216
  6
CONTINUOUS
  0
LAYER
  5
112
330
2
100
AcDbSymbolTableRecord
100
AcDbLayerTableRecord
  2
217
 70
     0
 62
   217
  6
CONTINUOUS
  0
LAYER
  5
113
330
2
100
AcDbSymbolTableRecord
100
AcDbLayerTableRecord
  2
218
 70
     0
 62
   218
  6
CONTINUOUS
  0
LAYER
  5
114
330
2
100
AcDbSymbolTableRecord
100
AcDbLayerTableRecord
  2
219
 70
     0
 62
   219
  6
CONTINUOUS
  0
LAYER
  5
115
330
2
100
AcDbSymbolTableRecord
100
AcDbLayerTableRecord
  2
220
 70
     0
 62
   220
  6
CONTINUOUS
  0
LAYER
  5
116
330
2
100
AcDbSymbolTableRecord
100
AcDbLayerTableRecord
  2
221
 70
     0
 62
   221
  6
CONTINUOUS
  0
LAYER
  5
117
330
2
100
AcDbSymbolTableRecord
100
AcDbLayerTableRecord
  2
222
 70
     0
 62
   222
  6
CONTINUOUS
  0
LAYER
  5
118
330
2
100
AcDbSymbolTableRecord
100
AcDbLayerTableRecord
  2
223
 70
     0
 62
   223
  6
CONTINUOUS
  0
LAYER
  5
119
330
2
100
AcDbSymbolTableRecord
100
AcDbLayerTableRecord
  2
224
 70
     0
 62
   224
  6
CONTINUOUS
  0
LAYER
  5
11A
330
2
100
AcDbSymbolTableRecord
100
AcDbLayerTableRecord
  2
225
 70
     0
 62
   225
  6
CONTINUOUS
  0
LAYER
  5
11B
330
2
100
AcDbSymbolTableRecord
100
AcDbLayerTableRecord
  2
226
 70
     0
 62
   226
  6
CONTINUOUS
  0
LAYER
  5
11C
330
2
100
AcDbSymbolTableRecord
100
AcDbLayerTableRecord
  2
227
 70
     0
 62
   227
  6
CONTINUOUS
  0
LAYER
  5
11D
330
2
100
AcDbSymbolTableRecord
100
AcDbLayerTableRecord
  2
228
 70
     0
 62
   228
  6
CONTINUOUS
  0
LAYER
  5
11E
330
2
100
AcDbSymbolTableRecord
100
AcDbLayerTableRecord
  2
229
 70
     0
 62
   229
  6
CONTINUOUS
  0
LAYER
  5
11F
330
2
100
AcDbSymbolTableRecord
100
AcDbLayerTableRecord
  2
230
 70
     0
 62
   230
  6
CONTINUOUS
  0
LAYER
  5
120
330
2
100
AcDbSymbolTableRecord
100
AcDbLayerTableRecord
  2
231
 70
     0
 62
   231
  6
CONTINUOUS
  0
LAYER
  5
121
330
2
100
AcDbSymbolTableRecord
100
AcDbLayerTableRecord
  2
232
 70
     0
 62
   232
  6
CONTINUOUS
  0
LAYER
  5
122
330
2
100
AcDbSymbolTableRecord
100
AcDbLayerTableRecord
  2
233
 70
     0
 62
   233
  6
CONTINUOUS
  0
LAYER
  5
123
330
2
100
AcDbSymbolTableRecord
100
AcDbLayerTableRecord
  2
234
 70
     0
 62
   234
  6
CONTINUOUS
  0
LAYER
  5
124
330
2
100
AcDbSymbolTableRecord
100
AcDbLayerTableRecord
  2
235
 70
     0
 62
   235
  6
CONTINUOUS
  0
LAYER
  5
125
330
2
100
AcDbSymbolTableRecord
100
AcDbLayerTableRecord
  2
236
 70
     0
 62
   236
  6
CONTINUOUS
  0
LAYER
  5
126
330
2
100
AcDbSymbolTableRecord
100
AcDbLayerTableRecord
  2
237
 70
     0
 62
   237
  6
CONTINUOUS
  0
LAYER
  5
127
330
2
100
AcDbSymbolTableRecord
100
AcDbLayerTableRecord
  2
238
 70
     0
 62
   238
  6
CONTINUOUS
  0
LAYER
  5
128
330
2
100
AcDbSymbolTableRecord
100
AcDbLayerTableRecord
  2
239
 70
     0
 62
   239
  6
CONTINUOUS
  0
LAYER
  5
129
330
2
100
AcDbSymbolTableRecord
100
AcDbLayerTableRecord
  2
240
 70
     0
 62
   240
  6
CONTINUOUS
  0
LAYER
  5
12A
330
2
100
AcDbSymbolTableRecord
100
AcDbLayerTableRecord
  2
241
 70
     0
 62
   241
  6
CONTINUOUS
  0
LAYER
  5
12B
330
2
100
AcDbSymbolTableRecord
100
AcDbLayerTableRecord
  2
242
 70
     0
 62
   242
  6
CONTINUOUS
  0
LAYER
  5
12C
330
2
100
AcDbSymbolTableRecord
100
AcDbLayerTableRecord
  2
243
 70
     0
 62
   243
  6
CONTINUOUS
  0
LAYER
  5
12D
330
2
100
AcDbSymbolTableRecord
100
AcDbLayerTableRecord
  2
244
 70
     0
 62
   244
  6
CONTINUOUS
  0
LAYER
  5
12E
330
2
100
AcDbSymbolTableRecord
100
AcDbLayerTableRecord
  2
245
 70
     0
 62
   245
  6
CONTINUOUS
  0
LAYER
  5
12F
330
2
100
AcDbSymbolTableRecord
100
AcDbLayerTableRecord
  2
246
 70
     0
 62
   246
  6
CONTINUOUS
  0
LAYER
  5
130
330
2
100
AcDbSymbolTableRecord
100
AcDbLayerTableRecord
  2
247
 70
     0
 62
   247
  6
CONTINUOUS
  0
LAYER
  5
131
330
2
100
AcDbSymbolTableRecord
100
AcDbLayerTableRecord
  2
248
 70
     0
 62
   248
  6
CONTINUOUS
  0
LAYER
  5
132
330
2
100
AcDbSymbolTableRecord
100
AcDbLayerTableRecord
  2
249
 70
     0
 62
   249
  6
CONTINUOUS
  0
LAYER
  5
133
330
2
100
AcDbSymbolTableRecord
100
AcDbLayerTableRecord
  2
250
 70
     0
 62
   250
  6
CONTINUOUS
  0
LAYER
  5
134
330
2
100
AcDbSymbolTableRecord
100
AcDbLayerTableRecord
  2
251
 70
     0
 62
   251
  6
CONTINUOUS
  0
LAYER
  5
135
330
2
100
AcDbSymbolTableRecord
100
AcDbLayerTableRecord
  2
252
 70
     0
 62
   252
  6
CONTINUOUS
  0
LAYER
  5
136
330
2
100
AcDbSymbolTableRecord
100
AcDbLayerTableRecord
  2
253
 70
     0
 62
   253
  6
CONTINUOUS
  0
LAYER
  5
137
330
2
100
AcDbSymbolTableRecord
100
AcDbLayerTableRecord
  2
254
 70
     0
 62
   254
  6
CONTINUOUS
  0
LAYER
  5
138
330
2
100
AcDbSymbolTableRecord
100
AcDbLayerTableRecord
  2
255
 70
     0
 62
   255
  6
CONTINUOUS
  0
LAYER
  5
5F39
330
2
100
AcDbSymbolTableRecord
100
AcDbLayerTableRecord
  2
DEFPOINTS
 70
     0
 62
     7
  6
CONTINUOUS
  0
ENDTAB
  0
TABLE
  2
STYLE
  5
3
330
0
100
AcDbSymbolTable
 70
     1
  0
STYLE
  5
11
330
3
100
AcDbSymbolTableRecord
100
AcDbTextStyleTableRecord
  2
STANDARD
 70
     0
 40
0.0
 41
1.0
 50
0.0
 71
     0
 42
0.2
  3
monotxt
  4

  0
ENDTAB
  0
TABLE
  2
VIEW
  5
6
330
0
100
AcDbSymbolTable
 70
     0
  0
ENDTAB
  0
TABLE
  2
UCS
  5
7
330
0
100
AcDbSymbolTable
 70
     0
  0
ENDTAB
  0
TABLE
  2
APPID
  5
9
330
0
100
AcDbSymbolTable
 70
     1
  0
APPID
  5
12
330
9
100
AcDbSymbolTableRecord
100
AcDbRegAppTableRecord
  2
ACAD
 70
     0
  0
ENDTAB
  0
TABLE
  2
DIMSTYLE
  5
A
330
0
100
AcDbSymbolTable
 70
     1
  0
DIMSTYLE
105
41A1
102
{ACAD_REACTORS
330
5F38
102
}
330
A
100
AcDbSymbolTableRecord
100
AcDbDimStyleTableRecord
  2
STANDARD
 70
     0
  3

  4

  5

  6

  7

 40
1.0
 41
0.18
 42
0.0625
 43
0.38
 44
0.18
 45
0.0
 46
0.0
 47
0.0
 48
0.0
140
0.18
141
0.09
142
0.0
143
25.4
144
1.0
145
0.0
146
1.0
147
0.09
 71
     0
 72
     0
 73
     1
 74
     1
 75
     0
 76
     0
 77
     0
 78
     0
170
     0
171
     2
172
     0
173
     0
174
     0
175
     0
176
     0
177
     0
178
     0
270
     2
271
     4
272
     4
273
     2
274
     2
340
11
275
     0
280
     0
281
     0
282
     0
283
     1
284
     0
285
     0
286
     0
287
     3
288
     0
  0
ENDTAB
  0
TABLE
  2
BLOCK_RECORD
  5
1
330
0
100
AcDbSymbolTable
 70
     1
  0
BLOCK_RECORD
  5
1E
102
{ACAD_XDICTIONARY
360
5F89
102
}
330
1
100
AcDbSymbolTableRecord
100
AcDbBlockTableRecord
  2
*MODEL_SPACE
  0
BLOCK_RECORD
  5
1A
102
{ACAD_XDICTIONARY
360
5F87
102
}
330
1
100
AcDbSymbolTableRecord
100
AcDbBlockTableRecord
  2
*PAPER_SPACE
  0
BLOCK_RECORD
  5
5F3A
330
1
100
AcDbSymbolTableRecord
100
AcDbBlockTableRecord
  2
*D0
  0
ENDTAB
  0
ENDSEC
  0
SECTION
  2
BLOCKS
  0
BLOCK
  5
13B
330
1E
100
AcDbEntity
  8
0
100
AcDbBlockBegin
  2
*MODEL_SPACE
 70
     0
 10
0.0
 20
0.0
 30
0.0
  3
*MODEL_SPACE
  1

  0
ENDBLK
  5
13C
330
1E
100
AcDbEntity
  8
0
100
AcDbBlockEnd
  0
BLOCK
  5
139
330
1A
100
AcDbEntity
 67
     1
  8
0
100
AcDbBlockBegin
  2
*PAPER_SPACE
 70
     0
 10
0.0
 20
0.0
 30
0.0
  3
*PAPER_SPACE
  1

  0
ENDBLK
  5
13A
330
1A
100
AcDbEntity
 67
     1
  8
0
100
AcDbBlockEnd
  0
BLOCK
  5
5F44
330
5F3A
100
AcDbEntity
  8
0
100
AcDbBlockBegin
  2
*D0
 70
     1
 10
0.0
 20
0.0
 30
0.0
  3
*D0
  1

  0
LINE
  5
5F46
330
5F3A
100
AcDbEntity
  8
0
 62
     0
100
AcDbLine
 10
-6.785127262921136
 20
-10.35425853140427
 30
0.0
 11
-6.785127262921136
 21
-13.88758384834756
 31
0.0
  0
LINE
  5
5F47
330
5F3A
100
AcDbEntity
  8
0
 62
     0
100
AcDbLine
 10
2.220778248889885
 20
-10.35425853140427
 30
0.0
 11
2.220778248889885
 21
-13.88758384834756
 31
0.0
  0
LINE
  5
5F48
330
5F3A
100
AcDbEntity
  8
0
 62
     0
100
AcDbLine
 10
-6.605127262921136
 20
-13.70758384834756
 30
0.0
 11
-2.882174507015625
 21
-13.70758384834756
 31
0.0
  0
LINE
  5
5F49
330
5F3A
100
AcDbEntity
  8
0
 62
     0
100
AcDbLine
 10
2.040778248889885
 20
-13.70758384834756
 30
0.0
 11
-1.682174507015625
 21
-13.70758384834756
 31
0.0
  0
SOLID
  5
5F4A
330
5F3A
100
AcDbEntity
  8
0
 62
     0
100
AcDbTrace
 10
-6.605127262921136
 20
-13.67758384834756
 30
0.0
 11
-6.605127262921136
 21
-13.73758384834756
 31
0.0
 12
-6.785127262921136
 22
-13.70758384834756
 32
0.0
 13
-6.785127262921136
 23
-13.70758384834756
 33
0.0
  0
SOLID
  5
5F4B
330
5F3A
100
AcDbEntity
  8
0
 62
     0
100
AcDbTrace
 10
2.040778248889885
 20
-13.67758384834756
 30
0.0
 11
2.040778248889885
 21
-13.73758384834756
 31
0.0
 12
2.220778248889885
 22
-13.70758384834756
 32
0.0
 13
2.220778248889885
 23
-13.70758384834756
 33
0.0
  0
MTEXT
  5
5F4C
330
5F3A
100
AcDbEntity
  8
0
 62
     0
100
AcDbMText
 10
-2.282174507015625
 20
-13.70758384834756
 30
0.0
 40
0.18
 41
0.0
 71
     5
 72
     1
  1
\A1;9.0059
1001
ACAD
1000
MTEXTBEGIN
1070
    73
1070
     1
1070
    44
1040
1.0
1070
    74
1070
     0
1000
MTEXTEND
  0
POINT
  5
5F4D
330
5F3A
100
AcDbEntity
  8
DEFPOINTS
 62
     0
100
AcDbPoint
 10
-6.785127262921136
 20
-10.29175853140427
 30
0.0
  0
POINT
  5
5F4E
330
5F3A
100
AcDbEntity
  8
DEFPOINTS
 62
     0
100
AcDbPoint
 10
2.220778248889885
 20
-10.29175853140427
 30
0.0
  0
POINT
  5
5F4F
330
5F3A
100
AcDbEntity
  8
DEFPOINTS
 62
     0
100
AcDbPoint
 10
2.220778248889885
 20
-13.70758384834756
 30
0.0
  0
ENDBLK
  5
5F45
330
5F3A
100
AcDbEntity
  8
0
100
AcDbBlockEnd
  0
ENDSEC
  0
SECTION
  2
ENTITIES
  0
LINE
  5
2B86
330
1E
100
AcDbEntity
  8
7
100
AcDbLine
 10
-9.255599703866018
 20
-7.417742783372787
 30
0.0
 11
-9.245757184180979
 21
-7.417742783372787
 31
0.0
  0
LINE
  5
2B87
330
1E
100
AcDbEntity
  8
7
100
AcDbLine
 10
4.681408170149728
 20
-7.417742783372787
 30
0.0
 11
4.691250689834765
 21
-7.417742783372787
 31
0.0
  0
LINE
  5
2B88
330
1E
100
AcDbEntity
  8
7
100
AcDbLine
 10
4.691250689834765
 20
-7.506325460538143
 30
0.0
 11
-9.255599703866018
 21
-7.506325460538143
 31
0.0
  0
LINE
  5
2B90
330
1E
100
AcDbEntity
  8
7
100
AcDbLine
 10
-9.255599703866018
 20
-7.417742783372787
 30
0.0
 11
-9.245757184180979
 21
-7.417742783372787
 31
0.0
  0
LINE
  5
2BAF
330
1E
100
AcDbEntity
  8
7
100
AcDbLine
 10
-9.255599703866018
 20
17.04091863395004
 30
0.0
 11
4.691250689834765
 21
17.04091863395004
 31
0.0
  0
LINE
  5
2BB6
330
1E
100
AcDbEntity
  8
7
100
AcDbLine
 10
-8.753631199929012
 20
16.45036745284767
 30
0.0
 11
4.179439666212719
 21
16.45036745284767
 31
0.0
  0
LINE
  5
2BB7
330
1E
100
AcDbEntity
  8
7
100
AcDbLine
 10
4.681408170149728
 20
16.95233595678469
 30
0.0
 11
4.179439666212719
 21
16.45036745284767
 31
0.0
  0
LINE
  5
2BB8
330
1E
100
AcDbEntity
  8
7
100
AcDbLine
 10
-8.753631199929012
 20
16.45036745284767
 30
0.0
 11
-9.245757184180979
 21
16.95233595678469
 31
0.0
  0
LINE
  5
2BC2
330
1E
100
AcDbEntity
  8
7
100
AcDbLine
 10
-9.255599703866018
 20
16.95233595678469
 30
0.0
 11
-9.245757184180979
 21
16.95233595678469
 31
0.0
  0
LINE
  5
2BC3
330
1E
100
AcDbEntity
  8
7
100
AcDbLine
 10
4.681408170149728
 20
16.95233595678469
 30
0.0
 11
4.691250689834765
 21
16.95233595678469
 31
0.0
  0
LINE
  5
2BCA
330
1E
100
AcDbEntity
  8
7
100
AcDbLine
 10
-6.657174507015627
 20
-0.7740419959712135
 30
0.0
 11
-6.657174507015627
 21
-0.4886089251050656
 31
0.0
  0
LINE
  5
2BD1
330
1E
100
AcDbEntity
  8
7
100
AcDbLine
 10
-6.657174507015627
 20
-1.482703413294046
 30
0.0
 11
-6.657174507015627
 21
-1.207112862112953
 31
0.0
  0
LINE
  5
2BD8
330
1E
100
AcDbEntity
  8
7
100
AcDbLine
 10
-6.903237499141608
 20
-1.482703413294046
 30
0.0
 11
-6.903237499141608
 21
-1.207112862112953
 31
0.0
  0
LINE
  5
2BD9
330
1E
100
AcDbEntity
  8
7
100
AcDbLine
 10
-6.903237499141608
 20
-0.7740419959712135
 30
0.0
 11
-7.011505215677043
 21
-0.9019947518767317
 31
0.0
  0
LINE
  5
2BDF
330
1E
100
AcDbEntity
  8
7
100
AcDbLine
 10
-6.903237499141608
 20
-0.7740419959712135
 30
0.0
 11
-6.903237499141608
 21
-0.4886089251050656
 31
0.0
  0
LINE
  5
2BE6
330
1E
100
AcDbEntity
  8
7
100
AcDbLine
 10
-6.903237499141608
 20
10.29879264969808
 30
0.0
 11
-6.903237499141608
 21
10.02320209851697
 31
0.0
  0
LINE
  5
2BED
330
1E
100
AcDbEntity
  8
7
100
AcDbLine
 10
-6.903237499141608
 20
11.01729658670595
 30
0.0
 11
-6.903237499141608
 21
10.7318635158398
 31
0.0
  0
LINE
  5
2BF4
330
1E
100
AcDbEntity
  8
7
100
AcDbLine
 10
-6.657174507015627
 20
11.01729658670595
 30
0.0
 11
-6.657174507015627
 21
10.7318635158398
 31
0.0
  0
LINE
  5
2BFB
330
1E
100
AcDbEntity
  8
7
100
AcDbLine
 10
-6.657174507015627
 20
10.29879264969808
 30
0.0
 11
-6.657174507015627
 21
10.02320209851697
 31
0.0
  0
LINE
  5
2C02
330
1E
100
AcDbEntity
  8
7
100
AcDbLine
 10
2.338888485110358
 20
-0.7740419959712135
 30
0.0
 11
2.338888485110358
 21
-0.4886089251050656
 31
0.0
  0
LINE
  5
2C09
330
1E
100
AcDbEntity
  8
7
100
AcDbLine
 10
2.338888485110358
 20
-1.482703413294046
 30
0.0
 11
2.338888485110358
 21
-1.207112862112953
 31
0.0
  0
LINE
  5
2C10
330
1E
100
AcDbEntity
  8
7
100
AcDbLine
 10
2.092825492984372
 20
-1.482703413294046
 30
0.0
 11
2.092825492984372
 21
-1.207112862112953
 31
0.0
  0
LINE
  5
2C17
330
1E
100
AcDbEntity
  8
7
100
AcDbLine
 10
2.092825492984372
 20
-0.7740419959712135
 30
0.0
 11
2.092825492984372
 21
-0.4886089251050656
 31
0.0
  0
LINE
  5
2C1D
330
1E
100
AcDbEntity
  8
7
100
AcDbLine
 10
2.279833367000122
 20
9.924776901666582
 30
0.0
 11
2.338888485110358
 21
10.02320209851697
 31
0.0
  0
LINE
  5
2C1E
330
1E
100
AcDbEntity
  8
7
100
AcDbLine
 10
2.092825492984372
 20
10.29879264969808
 30
0.0
 11
2.092825492984372
 21
10.02320209851697
 31
0.0
  0
LINE
  5
2C25
330
1E
100
AcDbEntity
  8
7
100
AcDbLine
 10
2.092825492984372
 20
11.01729658670595
 30
0.0
 11
2.092825492984372
 21
10.7318635158398
 31
0.0
  0
LINE
  5
2C2C
330
1E
100
AcDbEntity
  8
7
100
AcDbLine
 10
2.338888485110358
 20
11.01729658670595
 30
0.0
 11
2.338888485110358
 21
10.7318635158398
 31
0.0
  0
LINE
  5
2C33
330
1E
100
AcDbEntity
  8
7
100
AcDbLine
 10
2.338888485110358
 20
10.29879264969808
 30
0.0
 11
2.338888485110358
 21
10.02320209851697
 31
0.0
  0
LINE
  5
2C34
330
1E
100
AcDbEntity
  8
7
100
AcDbLine
 10
-8.753631199929012
 20
16.45036745284767
 30
0.0
 11
-9.255599703866018
 21
16.95233595678469
 31
0.0
  0
LINE
  5
2C35
330
1E
100
AcDbEntity
  8
7
100
AcDbLine
 10
-8.753631199929012
 20
-6.915774279435778
 30
0.0
 11
-8.753631199929012
 21
16.45036745284767
 31
0.0
  0
LINE
  5
2C51
330
1E
100
AcDbEntity
  8
7
100
AcDbLine
 10
-8.753631199929012
 20
-6.915774279435778
 30
0.0
 11
-9.255599703866018
 21
-7.417742783372787
 31
0.0
  0
LINE
  5
2C52
330
1E
100
AcDbEntity
  8
7
100
AcDbLine
 10
-9.314654821976255
 20
16.95233595678469
 30
0.0
 11
-9.255599703866018
 21
16.95233595678469
 31
0.0
  0
LINE
  5
2C53
330
1E
100
AcDbEntity
  8
7
100
AcDbLine
 10
-9.314654821976255
 20
-7.417742783372787
 30
0.0
 11
-9.314654821976255
 21
16.95233595678469
 31
0.0
  0
LINE
  5
2C54
330
1E
100
AcDbEntity
  8
7
100
AcDbLine
 10
-9.314654821976255
 20
-7.417742783372787
 30
0.0
 11
-9.255599703866018
 21
-7.417742783372787
 31
0.0
  0
LINE
  5
2C5A
330
1E
100
AcDbEntity
  8
7
100
AcDbLine
 10
-9.403237499141608
 20
-7.417742783372787
 30
0.0
 11
-9.403237499141608
 21
16.95233595678469
 31
0.0
  0
LINE
  5
2C74
330
1E
100
AcDbEntity
  8
7
100
AcDbLine
 10
4.838888485110357
 20
16.95233595678469
 30
0.0
 11
4.838888485110357
 21
-7.417742783372787
 31
0.0
  0
LINE
  5
2C89
330
1E
100
AcDbEntity
  8
7
100
AcDbLine
 10
4.189282185897761
 20
16.45036745284767
 30
0.0
 11
4.189282185897761
 21
-6.915774279435778
 31
0.0
  0
LINE
  5
2CA5
330
1E
100
AcDbEntity
  8
7
100
AcDbLine
 10
4.691250689834765
 20
-7.417742783372787
 30
0.0
 11
4.189282185897761
 21
-6.915774279435778
 31
0.0
  0
LINE
  5
2CA6
330
1E
100
AcDbEntity
  8
7
100
AcDbLine
 10
4.691250689834765
 20
16.95233595678469
 30
0.0
 11
4.189282185897761
 21
16.45036745284767
 31
0.0
  0
LINE
  5
2CA7
330
1E
100
AcDbEntity
  8
7
100
AcDbLine
 10
4.750305807945002
 20
-7.417742783372787
 30
0.0
 11
4.691250689834765
 21
-7.417742783372787
 31
0.0
  0
LINE
  5
2CA8
330
1E
100
AcDbEntity
  8
7
100
AcDbLine
 10
4.750305807945002
 20
16.95233595678469
 30
0.0
 11
4.750305807945002
 21
-7.417742783372787
 31
0.0
  0
LINE
  5
2CA9
330
1E
100
AcDbEntity
  8
7
100
AcDbLine
 10
4.750305807945002
 20
16.95233595678469
 30
0.0
 11
4.691250689834765
 21
16.95233595678469
 31
0.0
  0
LINE
  5
2CCD
330
1E
100
AcDbEntity
  8
7
100
AcDbLine
 10
-2.287095766858146
 20
16.6078477678083
 30
0.0
 11
-2.208355609377831
 21
16.64721784654847
 31
0.0
  0
LINE
  5
2D22
330
1E
100
AcDbEntity
  8
7
100
AcDbLine
 10
4.415660138653663
 20
-5.272073492034209
 30
0.0
 11
4.494400296133978
 21
-5.321286090459402
 31
0.0
  0
LINE
  5
2D4A
330
1E
100
AcDbEntity
  8
7
100
AcDbLine
 10
-4.245757184180979
 20
-6.089002625892476
 30
0.0
 11
-3.989851672369956
 21
-6.089002625892476
 31
0.0
  0
LINE
  5
2D4B
330
1E
100
AcDbEntity
  8
7
100
AcDbLine
 10
-4.245757184180979
 20
-6.216955381797987
 30
0.0
 11
-4.245757184180979
 21
-6.089002625892476
 31
0.0
  0
LINE
  5
2D51
330
1E
100
AcDbEntity
  8
7
100
AcDbLine
 10
-4.245757184180979
 20
-6.000419948727117
 30
0.0
 11
-3.989851672369956
 21
-6.000419948727117
 31
0.0
  0
LINE
  5
2D57
330
1E
100
AcDbEntity
  8
7
100
AcDbLine
 10
-3.989851672369956
 20
-6.000419948727117
 30
0.0
 11
-3.989851672369956
 21
-5.262230972349161
 31
0.0
  0
LINE
  5
2D58
330
1E
100
AcDbEntity
  8
7
100
AcDbLine
 10
-4.245757184180979
 20
-5.262230972349161
 30
0.0
 11
-3.989851672369956
 21
-5.262230972349161
 31
0.0
  0
LINE
  5
2D59
330
1E
100
AcDbEntity
  8
7
100
AcDbLine
 10
-4.245757184180979
 20
-6.000419948727117
 30
0.0
 11
-4.245757184180979
 21
-5.262230972349161
 31
0.0
  0
LINE
  5
2D60
330
1E
100
AcDbEntity
  8
7
100
AcDbLine
 10
-3.989851672369956
 20
-5.173648295183809
 30
0.0
 11
-3.989851672369956
 21
-5.213018373923969
 31
0.0
  0
LINE
  5
2D61
330
1E
100
AcDbEntity
  8
7
100
AcDbLine
 10
-3.989851672369956
 20
-5.213018373923969
 30
0.0
 11
-3.989851672369956
 21
-5.262230972349161
 31
0.0
  0
LINE
  5
2D67
330
1E
100
AcDbEntity
  8
7
100
AcDbLine
 10
-3.989851672369956
 20
-5.045695539278302
 30
0.0
 11
-3.989851672369956
 21
-5.173648295183809
 31
0.0
  0
LINE
  5
2D68
330
1E
100
AcDbEntity
  8
7
100
AcDbLine
 10
-7.907174507015627
 20
-6.216955381797987
 30
0.0
 11
-8.153237499141608
 21
-6.216955381797987
 31
0.0
  0
LINE
  5
2D6E
330
1E
100
AcDbEntity
  8
7
100
AcDbLine
 10
-8.153237499141608
 20
-6.216955381797987
 30
0.0
 11
-8.153237499141608
 21
-6.089002625892476
 31
0.0
  0
LINE
  5
2D74
330
1E
100
AcDbEntity
  8
7
100
AcDbLine
 10
-8.153237499141608
 20
-6.000419948727117
 30
0.0
 11
-7.907174507015627
 21
-6.000419948727117
 31
0.0
  0
LINE
  5
2D7A
330
1E
100
AcDbEntity
  8
7
100
AcDbLine
 10
-8.153237499141608
 20
-5.262230972349161
 30
0.0
 11
-7.907174507015627
 21
-5.262230972349161
 31
0.0
  0
LINE
  5
2D7B
330
1E
100
AcDbEntity
  8
7
100
AcDbLine
 10
-8.153237499141608
 20
-5.262230972349161
 30
0.0
 11
-8.153237499141608
 21
-6.000419948727117
 31
0.0
  0
LINE
  5
2D7C
330
1E
100
AcDbEntity
  8
7
100
AcDbLine
 10
-7.907174507015627
 20
-5.262230972349161
 30
0.0
 11
-7.907174507015627
 21
-6.000419948727117
 31
0.0
  0
LINE
  5
2D7D
330
1E
100
AcDbEntity
  8
7
100
AcDbLine
 10
-8.153237499141608
 20
-5.173648295183809
 30
0.0
 11
-7.907174507015627
 21
-5.173648295183809
 31
0.0
  0
LINE
  5
2D88
330
1E
100
AcDbEntity
  8
7
100
AcDbLine
 10
-8.153237499141608
 20
-5.045695539278302
 30
0.0
 11
-7.907174507015627
 21
-5.045695539278302
 31
0.0
  0
LINE
  5
2D89
330
1E
100
AcDbEntity
  8
7
100
AcDbLine
 10
-8.153237499141608
 20
-5.045695539278302
 30
0.0
 11
-8.153237499141608
 21
-5.173648295183809
 31
0.0
  0
LINE
  5
2D8A
330
1E
100
AcDbEntity
  8
7
100
AcDbLine
 10
-7.907174507015627
 20
-5.045695539278302
 30
0.0
 11
-7.907174507015627
 21
-5.173648295183809
 31
0.0
  0
LINE
  5
2D90
330
1E
100
AcDbEntity
  8
7
100
AcDbLine
 10
-8.153237499141608
 20
-1.472860893609009
 30
0.0
 11
-7.907174507015627
 21
-1.472860893609009
 31
0.0
  0
LINE
  5
2D91
330
1E
100
AcDbEntity
  8
7
100
AcDbLine
 10
-8.153237499141608
 20
-1.600813649514527
 30
0.0
 11
-8.153237499141608
 21
-1.472860893609009
 31
0.0
  0
LINE
  5
2D97
330
1E
100
AcDbEntity
  8
7
100
AcDbLine
 10
-8.153237499141608
 20
-1.384278216443657
 30
0.0
 11
-7.907174507015627
 21
-1.384278216443657
 31
0.0
  0
LINE
  5
2D9D
330
1E
100
AcDbEntity
  8
7
100
AcDbLine
 10
-7.907174507015627
 20
-1.384278216443657
 30
0.0
 11
-7.907174507015627
 21
-0.6460892400656953
 31
0.0
  0
LINE
  5
2D9E
330
1E
100
AcDbEntity
  8
7
100
AcDbLine
 10
-8.153237499141608
 20
-0.6460892400656953
 30
0.0
 11
-7.907174507015627
 21
-0.6460892400656953
 31
0.0
  0
LINE
  5
2D9F
330
1E
100
AcDbEntity
  8
7
100
AcDbLine
 10
-8.153237499141608
 20
-1.384278216443657
 30
0.0
 11
-8.153237499141608
 21
-0.6460892400656953
 31
0.0
  0
LINE
  5
2DB0
330
1E
100
AcDbEntity
  8
7
100
AcDbLine
 10
-7.907174507015627
 20
-0.43939632667988
 30
0.0
 11
-7.907174507015627
 21
-0.5673490825853805
 31
0.0
  0
LINE
  5
2DB6
330
1E
100
AcDbEntity
  8
7
100
AcDbLine
 10
-4.245757184180979
 20
-5.006325460538143
 30
0.0
 11
-3.989851672369956
 21
-5.006325460538143
 31
0.0
  0
LINE
  5
2DC6
330
1E
100
AcDbEntity
  8
7
100
AcDbLine
 10
-3.989851672369956
 20
-6.256325460538143
 30
0.0
 11
-4.245757184180979
 21
-6.256325460538143
 31
0.0
  0
LINE
  5
2DD6
330
1E
100
AcDbEntity
  8
7
100
AcDbLine
 10
-7.907174507015627
 20
-5.006325460538143
 30
0.0
 11
-8.153237499141608
 21
-5.006325460538143
 31
0.0
  0
LINE
  5
2DF7
330
1E
100
AcDbEntity
  8
7
100
AcDbLine
 10
-7.907174507015627
 20
-0.3901837282546765
 30
0.0
 11
-8.153237499141608
 21
-0.3901837282546765
 31
0.0
  0
LINE
  5
2E16
330
1E
100
AcDbEntity
  8
7
100
AcDbLine
 10
-6.411111514889642
 20
-1.709081366049954
 30
0.0
 11
-6.411111514889642
 21
-0.2622309723491583
 31
0.0
  0
LINE
  5
2E1C
330
1E
100
AcDbEntity
  8
7
100
AcDbLine
 10
-7.129615451897516
 20
-1.738608925105065
 30
0.0
 11
-6.440639073944756
 21
-1.738608925105065
 31
0.0
  0
LINE
  5
2E22
330
1E
100
AcDbEntity
  8
7
100
AcDbLine
 10
-7.159143010952632
 20
-1.709081366049954
 30
0.0
 11
-7.159143010952632
 21
-0.2622309723491583
 31
0.0
  0
LINE
  5
2E28
330
1E
100
AcDbEntity
  8
7
100
AcDbLine
 10
-6.440639073944756
 20
-0.2327034132940469
 30
0.0
 11
-7.129615451897516
 21
-0.2327034132940469
 31
0.0
  0
LINE
  5
2E2E
330
1E
100
AcDbEntity
  8
7
100
AcDbLine
 10
-8.153237499141608
 20
4.314540681194138
 30
0.0
 11
-7.907174507015627
 21
4.314540681194138
 31
0.0
  0
LINE
  5
2E2F
330
1E
100
AcDbEntity
  8
7
100
AcDbLine
 10
-8.153237499141608
 20
4.186587925288637
 30
0.0
 11
-8.153237499141608
 21
4.314540681194138
 31
0.0
  0
LINE
  5
2E35
330
1E
100
AcDbEntity
  8
7
100
AcDbLine
 10
-7.907174507015627
 20
4.137375326863434
 30
0.0
 11
-8.153237499141608
 21
4.137375326863434
 31
0.0
  0
LINE
  5
2E40
330
1E
100
AcDbEntity
  8
7
100
AcDbLine
 10
-8.153237499141608
 20
4.393280838674453
 30
0.0
 11
-7.907174507015627
 21
4.393280838674453
 31
0.0
  0
LINE
  5
2E4D
330
1E
100
AcDbEntity
  8
7
100
AcDbLine
 10
-8.753631199929012
 20
-6.502388452664124
 30
0.0
 11
-8.655206003078617
 21
-6.502388452664124
 31
0.0
  0
LINE
  5
2E4E
330
1E
100
AcDbEntity
  8
7
100
AcDbLine
 10
-8.537095766858145
 20
-6.600813649514519
 30
0.0
 11
3.962904233141853
 21
-6.600813649514519
 31
0.0
  0
LINE
  5
2E54
330
1E
100
AcDbEntity
  8
7
100
AcDbLine
 10
3.962904233141853
 20
-6.502388452664124
 30
0.0
 11
-8.537095766858145
 21
-6.502388452664124
 31
0.0
  0
LINE
  5
2E55
330
1E
100
AcDbEntity
  8
7
100
AcDbLine
 10
-7.907174507015627
 20
4.393280838674453
 30
0.0
 11
-7.907174507015627
 21
5.141312334737452
 31
0.0
  0
LINE
  5
2E56
330
1E
100
AcDbEntity
  8
7
100
AcDbLine
 10
-8.153237499141608
 20
5.141312334737452
 30
0.0
 11
-7.907174507015627
 21
5.141312334737452
 31
0.0
  0
LINE
  5
2E57
330
1E
100
AcDbEntity
  8
7
100
AcDbLine
 10
-8.153237499141608
 20
4.393280838674453
 30
0.0
 11
-8.153237499141608
 21
5.141312334737452
 31
0.0
  0
LINE
  5
2E5D
330
1E
100
AcDbEntity
  8
7
100
AcDbLine
 10
-8.153237499141608
 20
5.348005248123268
 30
0.0
 11
-8.153237499141608
 21
5.220052492217767
 31
0.0
  0
LINE
  5
2E6B
330
1E
100
AcDbEntity
  8
7
100
AcDbLine
 10
-8.625678444023497
 20
16.03698162607602
 30
0.0
 11
-8.625678444023497
 21
-6.502388452664124
 31
0.0
  0
LINE
  5
2E71
330
1E
100
AcDbEntity
  8
7
100
AcDbLine
 10
-8.655206003078617
 20
-6.502388452664124
 30
0.0
 11
-8.655206003078617
 21
16.03698162607602
 31
0.0
  0
LINE
  5
2E72
330
1E
100
AcDbEntity
  8
7
100
AcDbLine
 10
-8.753631199929012
 20
16.03698162607602
 30
0.0
 11
-8.655206003078617
 21
16.03698162607602
 31
0.0
  0
LINE
  5
2E73
330
1E
100
AcDbEntity
  8
7
100
AcDbLine
 10
-8.537095766858145
 20
16.03698162607602
 30
0.0
 11
-8.537095766858145
 21
-6.502388452664124
 31
0.0
  0
LINE
  5
2EE7
330
1E
100
AcDbEntity
  8
7
100
AcDbLine
 10
-7.464261121188854
 20
8.192493437099656
 30
0.0
 11
-7.38552096370854
 21
8.143280838674453
 31
0.0
  0
LINE
  5
2F16
330
1E
100
AcDbEntity
  8
7
100
AcDbLine
 10
-2.808749310165234
 20
14.02910761032799
 30
0.0
 11
-2.907174507015627
 21
14.06847768906815
 31
0.0
  0
LINE
  5
2F17
330
1E
100
AcDbEntity
  8
7
100
AcDbLine
 10
-7.907174507015627
 20
5.387375326863434
 30
0.0
 11
-8.153237499141608
 21
5.387375326863434
 31
0.0
  0
LINE
  5
2F18
330
1E
100
AcDbEntity
  8
7
100
AcDbLine
 10
3.962904233141853
 20
16.03698162607602
 30
0.0
 11
-8.537095766858145
 21
16.03698162607602
 31
0.0
  0
LINE
  5
2F19
330
1E
100
AcDbEntity
  8
7
100
AcDbLine
 10
3.962904233141853
 20
16.03698162607602
 30
0.0
 11
3.962904233141853
 21
-6.502388452664124
 31
0.0
  0
LINE
  5
2F1A
330
1E
100
AcDbEntity
  8
7
100
AcDbLine
 10
3.342825492984372
 20
5.387375326863434
 30
0.0
 11
3.588888485110358
 21
5.387375326863434
 31
0.0
  0
LINE
  5
2F1B
330
1E
100
AcDbEntity
  8
7
100
AcDbLine
 10
3.342825492984372
 20
4.137375326863434
 30
0.0
 11
3.588888485110358
 21
4.137375326863434
 31
0.0
  0
LINE
  5
2F1C
330
1E
100
AcDbEntity
  8
7
100
AcDbLine
 10
3.342825492984372
 20
-0.3901837282546765
 30
0.0
 11
3.588888485110358
 21
-0.3901837282546765
 31
0.0
  0
LINE
  5
2F1D
330
1E
100
AcDbEntity
  8
7
100
AcDbLine
 10
3.588888485110358
 20
-1.640183728254676
 30
0.0
 11
3.342825492984372
 21
-1.640183728254676
 31
0.0
  0
LINE
  5
2F1E
330
1E
100
AcDbEntity
  8
7
100
AcDbLine
 10
3.342825492984372
 20
-5.006325460538143
 30
0.0
 11
3.588888485110358
 21
-5.006325460538143
 31
0.0
  0
LINE
  5
2F1F
330
1E
100
AcDbEntity
  8
7
100
AcDbLine
 10
3.588888485110358
 20
-6.256325460538143
 30
0.0
 11
3.342825492984372
 21
-6.256325460538143
 31
0.0
  0
LINE
  5
2F20
330
1E
100
AcDbEntity
  8
7
100
AcDbLine
 10
1.876290059913506
 20
-0.2327034132940469
 30
0.0
 11
2.565266437866265
 21
-0.2327034132940469
 31
0.0
  0
LINE
  5
2F26
330
1E
100
AcDbEntity
  8
7
100
AcDbLine
 10
2.594793996921381
 20
-1.709081366049954
 30
0.0
 11
2.594793996921381
 21
-0.2622309723491583
 31
0.0
  0
LINE
  5
2F2C
330
1E
100
AcDbEntity
  8
7
100
AcDbLine
 10
2.565266437866265
 20
-1.738608925105065
 30
0.0
 11
1.876290059913506
 21
-1.738608925105065
 31
0.0
  0
LINE
  5
2F32
330
1E
100
AcDbEntity
  8
7
100
AcDbLine
 10
1.84676250085839
 20
-1.709081366049954
 30
0.0
 11
1.84676250085839
 21
-0.2622309723491583
 31
0.0
  0
LINE
  5
2F38
330
1E
100
AcDbEntity
  8
7
100
AcDbLine
 10
1.453061713456816
 20
-4.533884515656254
 30
0.0
 11
1.55148691030721
 21
-4.494514436916098
 31
0.0
  0
LINE
  5
2F51
330
1E
100
AcDbEntity
  8
7
100
AcDbLine
 10
-0.3284343495353128
 20
-5.006325460538143
 30
0.0
 11
-0.5744973416612944
 21
-5.006325460538143
 31
0.0
  0
LINE
  5
2F52
330
1E
100
AcDbEntity
  8
7
100
AcDbLine
 10
-0.5744973416612944
 20
-6.256325460538143
 30
0.0
 11
-0.3284343495353128
 21
-6.256325460538143
 31
0.0
  0
LINE
  5
2F53
330
1E
100
AcDbEntity
  8
7
100
AcDbLine
 10
-7.907174507015627
 20
9.924776901666582
 30
0.0
 11
-8.153237499141608
 21
9.924776901666582
 31
0.0
  0
LINE
  5
2F54
330
1E
100
AcDbEntity
  8
7
100
AcDbLine
 10
-8.153237499141608
 20
11.17477690166658
 30
0.0
 11
-7.907174507015627
 21
11.17477690166658
 31
0.0
  0
LINE
  5
2F67
330
1E
100
AcDbEntity
  8
7
100
AcDbLine
 10
-7.907174507015627
 20
14.54091863395004
 30
0.0
 11
-8.153237499141608
 21
14.54091863395004
 31
0.0
  0
LINE
  5
2F68
330
1E
100
AcDbEntity
  8
7
100
AcDbLine
 10
-8.153237499141608
 20
15.79091863395004
 30
0.0
 11
-7.907174507015627
 21
15.79091863395004
 31
0.0
  0
LINE
  5
2F69
330
1E
100
AcDbEntity
  8
7
100
AcDbLine
 10
-6.440639073944756
 20
9.767296586705953
 30
0.0
 11
-7.129615451897516
 21
9.767296586705953
 31
0.0
  0
LINE
  5
2F6F
330
1E
100
AcDbEntity
  8
7
100
AcDbLine
 10
-7.159143010952632
 20
11.24367453946186
 30
0.0
 11
-7.159143010952632
 21
9.796824145761064
 31
0.0
  0
LINE
  5
2F75
330
1E
100
AcDbEntity
  8
7
100
AcDbLine
 10
-7.129615451897516
 20
11.27320209851697
 30
0.0
 11
-6.440639073944756
 21
11.27320209851697
 31
0.0
  0
LINE
  5
2F7B
330
1E
100
AcDbEntity
  8
7
100
AcDbLine
 10
-6.411111514889642
 20
11.24367453946186
 30
0.0
 11
-6.411111514889642
 21
9.796824145761064
 31
0.0
  0
LINE
  5
2F97
330
1E
100
AcDbEntity
  8
7
100
AcDbLine
 10
-4.245757184180979
 20
14.54091863395004
 30
0.0
 11
-3.989851672369956
 21
14.54091863395004
 31
0.0
  0
LINE
  5
2F98
330
1E
100
AcDbEntity
  8
7
100
AcDbLine
 10
-3.989851672369956
 20
15.79091863395004
 30
0.0
 11
-4.245757184180979
 21
15.79091863395004
 31
0.0
  0
LINE
  5
2F99
330
1E
100
AcDbEntity
  8
7
100
AcDbLine
 10
3.342825492984372
 20
9.924776901666582
 30
0.0
 11
3.588888485110358
 21
9.924776901666582
 31
0.0
  0
LINE
  5
2F9A
330
1E
100
AcDbEntity
  8
7
100
AcDbLine
 10
3.588888485110358
 20
11.17477690166658
 30
0.0
 11
3.342825492984372
 21
11.17477690166658
 31
0.0
  0
LINE
  5
2FAD
330
1E
100
AcDbEntity
  8
7
100
AcDbLine
 10
3.588888485110358
 20
15.79091863395004
 30
0.0
 11
3.342825492984372
 21
15.79091863395004
 31
0.0
  0
LINE
  5
2FAE
330
1E
100
AcDbEntity
  8
7
100
AcDbLine
 10
3.342825492984372
 20
14.54091863395004
 30
0.0
 11
3.588888485110358
 21
14.54091863395004
 31
0.0
  0
LINE
  5
2FAF
330
1E
100
AcDbEntity
  8
7
100
AcDbLine
 10
1.876290059913506
 20
9.767296586705953
 30
0.0
 11
2.565266437866265
 21
9.767296586705953
 31
0.0
  0
LINE
  5
2FB5
330
1E
100
AcDbEntity
  8
7
100
AcDbLine
 10
1.84676250085839
 20
11.24367453946186
 30
0.0
 11
1.84676250085839
 21
9.796824145761064
 31
0.0
  0
LINE
  5
2FBB
330
1E
100
AcDbEntity
  8
7
100
AcDbLine
 10
2.565266437866265
 20
11.27320209851697
 30
0.0
 11
1.876290059913506
 21
11.27320209851697
 31
0.0
  0
LINE
  5
2FC1
330
1E
100
AcDbEntity
  8
7
100
AcDbLine
 10
2.594793996921381
 20
11.24367453946186
 30
0.0
 11
2.594793996921381
 21
9.796824145761064
 31
0.0
  0
LINE
  5
2FDF
330
1E
100
AcDbEntity
  8
7
100
AcDbLine
 10
2.80148691030721
 20
14.02910761032799
 30
0.0
 11
2.703061713456816
 21
14.06847768906815
 31
0.0
  0
LINE
  5
2FE0
330
1E
100
AcDbEntity
  8
7
100
AcDbLine
 10
-0.5744973416612944
 20
15.79091863395004
 30
0.0
 11
-0.3284343495353128
 21
15.79091863395004
 31
0.0
  0
LINE
  5
2FE1
330
1E
100
AcDbEntity
  8
7
100
AcDbLine
 10
-0.3284343495353128
 20
14.54091863395004
 30
0.0
 11
-0.5744973416612944
 21
14.54091863395004
 31
0.0
  0
LINE
  5
2FE2
330
1E
100
AcDbEntity
  8
7
100
AcDbLine
 10
-0.3284343495353128
 20
-6.216955381797987
 30
0.0
 11
-0.5744973416612944
 21
-6.216955381797987
 31
0.0
  0
LINE
  5
2FE8
330
1E
100
AcDbEntity
  8
7
100
AcDbLine
 10
-0.5744973416612944
 20
-6.216955381797987
 30
0.0
 11
-0.5744973416612944
 21
-6.089002625892476
 31
0.0
  0
LINE
  5
2FF9
330
1E
100
AcDbEntity
  8
7
100
AcDbLine
 10
-0.5744973416612944
 20
-6.000419948727117
 30
0.0
 11
-0.5744973416612944
 21
-5.262230972349161
 31
0.0
  0
LINE
  5
2FFA
330
1E
100
AcDbEntity
  8
7
100
AcDbLine
 10
-0.5744973416612944
 20
-5.173648295183809
 30
0.0
 11
-0.3284343495353128
 21
-5.173648295183809
 31
0.0
  0
LINE
  5
3005
330
1E
100
AcDbEntity
  8
7
100
AcDbLine
 10
-0.5744973416612944
 20
-5.045695539278302
 30
0.0
 11
-0.3284343495353128
 21
-5.045695539278302
 31
0.0
  0
LINE
  5
3006
330
1E
100
AcDbEntity
  8
7
100
AcDbLine
 10
-0.5744973416612944
 20
-5.045695539278302
 30
0.0
 11
-0.5744973416612944
 21
-5.173648295183809
 31
0.0
  0
LINE
  5
3007
330
1E
100
AcDbEntity
  8
7
100
AcDbLine
 10
-0.3284343495353128
 20
-5.045695539278302
 30
0.0
 11
-0.3284343495353128
 21
-5.173648295183809
 31
0.0
  0
LINE
  5
300D
330
1E
100
AcDbEntity
  8
7
100
AcDbLine
 10
3.342825492984372
 20
-6.089002625892476
 30
0.0
 11
3.588888485110358
 21
-6.089002625892476
 31
0.0
  0
LINE
  5
300E
330
1E
100
AcDbEntity
  8
7
100
AcDbLine
 10
3.342825492984372
 20
-6.216955381797987
 30
0.0
 11
3.342825492984372
 21
-6.089002625892476
 31
0.0
  0
LINE
  5
301F
330
1E
100
AcDbEntity
  8
7
100
AcDbLine
 10
3.588888485110358
 20
-5.262230972349161
 30
0.0
 11
3.588888485110358
 21
-6.000419948727117
 31
0.0
  0
LINE
  5
3030
330
1E
100
AcDbEntity
  8
7
100
AcDbLine
 10
3.588888485110358
 20
-5.045695539278302
 30
0.0
 11
3.588888485110358
 21
-5.173648295183809
 31
0.0
  0
LINE
  5
3031
330
1E
100
AcDbEntity
  8
7
100
AcDbLine
 10
3.588888485110358
 20
-1.600813649514527
 30
0.0
 11
3.342825492984372
 21
-1.600813649514527
 31
0.0
  0
LINE
  5
3037
330
1E
100
AcDbEntity
  8
7
100
AcDbLine
 10
3.342825492984372
 20
-1.600813649514527
 30
0.0
 11
3.342825492984372
 21
-1.472860893609009
 31
0.0
  0
LINE
  5
3048
330
1E
100
AcDbEntity
  8
7
100
AcDbLine
 10
3.342825492984372
 20
-1.384278216443657
 30
0.0
 11
3.342825492984372
 21
-0.6460892400656953
 31
0.0
  0
LINE
  5
3049
330
1E
100
AcDbEntity
  8
7
100
AcDbLine
 10
3.342825492984372
 20
-0.5673490825853805
 30
0.0
 11
3.588888485110358
 21
-0.5673490825853805
 31
0.0
  0
LINE
  5
3054
330
1E
100
AcDbEntity
  8
7
100
AcDbLine
 10
3.342825492984372
 20
-0.43939632667988
 30
0.0
 11
3.588888485110358
 21
-0.43939632667988
 31
0.0
  0
LINE
  5
3055
330
1E
100
AcDbEntity
  8
7
100
AcDbLine
 10
3.342825492984372
 20
-0.43939632667988
 30
0.0
 11
3.342825492984372
 21
-0.5673490825853805
 31
0.0
  0
LINE
  5
3056
330
1E
100
AcDbEntity
  8
7
100
AcDbLine
 10
3.588888485110358
 20
-0.43939632667988
 30
0.0
 11
3.588888485110358
 21
-0.5673490825853805
 31
0.0
  0
LINE
  5
3093
330
1E
100
AcDbEntity
  8
7
100
AcDbLine
 10
3.588888485110358
 20
4.186587925288637
 30
0.0
 11
3.342825492984372
 21
4.186587925288637
 31
0.0
  0
LINE
  5
3099
330
1E
100
AcDbEntity
  8
7
100
AcDbLine
 10
3.342825492984372
 20
4.186587925288637
 30
0.0
 11
3.342825492984372
 21
4.314540681194138
 31
0.0
  0
LINE
  5
30AF
330
1E
100
AcDbEntity
  8
7
100
AcDbLine
 10
4.189282185897761
 20
-6.502388452664124
 30
0.0
 11
4.090856989047367
 21
-6.502388452664124
 31
0.0
  0
LINE
  5
30B0
330
1E
100
AcDbEntity
  8
7
100
AcDbLine
 10
4.061329429992246
 20
-6.502388452664124
 30
0.0
 11
4.090856989047367
 21
-6.502388452664124
 31
0.0
  0
LINE
  5
30B6
330
1E
100
AcDbEntity
  8
7
100
AcDbLine
 10
3.342825492984372
 20
4.393280838674453
 30
0.0
 11
3.342825492984372
 21
5.141312334737452
 31
0.0
  0
LINE
  5
30C9
330
1E
100
AcDbEntity
  8
7
100
AcDbLine
 10
3.342825492984372
 20
5.348005248123268
 30
0.0
 11
3.342825492984372
 21
5.220052492217767
 31
0.0
  0
LINE
  5
30CF
330
1E
100
AcDbEntity
  8
7
100
AcDbLine
 10
4.061329429992246
 20
16.03698162607602
 30
0.0
 11
4.061329429992246
 21
-6.502388452664124
 31
0.0
  0
LINE
  5
30D0
330
1E
100
AcDbEntity
  8
7
100
AcDbLine
 10
4.090856989047367
 20
-6.502388452664124
 30
0.0
 11
4.090856989047367
 21
16.03698162607602
 31
0.0
  0
LINE
  5
30D1
330
1E
100
AcDbEntity
  8
7
100
AcDbLine
 10
4.061329429992246
 20
16.03698162607602
 30
0.0
 11
4.090856989047367
 21
16.03698162607602
 31
0.0
  0
LINE
  5
30D2
330
1E
100
AcDbEntity
  8
7
100
AcDbLine
 10
4.189282185897761
 20
16.03698162607602
 30
0.0
 11
4.090856989047367
 21
16.03698162607602
 31
0.0
  0
LINE
  5
30D8
330
1E
100
AcDbEntity
  8
7
100
AcDbLine
 10
-4.245757184180979
 20
15.74170603552484
 30
0.0
 11
-3.989851672369956
 21
15.74170603552484
 31
0.0
  0
LINE
  5
30DE
330
1E
100
AcDbEntity
  8
7
100
AcDbLine
 10
-3.989851672369956
 20
15.74170603552484
 30
0.0
 11
-3.989851672369956
 21
15.62359579930437
 31
0.0
  0
LINE
  5
30EF
330
1E
100
AcDbEntity
  8
7
100
AcDbLine
 10
-3.989851672369956
 20
15.53501312213902
 30
0.0
 11
-3.989851672369956
 21
14.79682414576106
 31
0.0
  0
LINE
  5
30F0
330
1E
100
AcDbEntity
  8
7
100
AcDbLine
 10
-3.989851672369956
 20
14.70824146859571
 30
0.0
 11
-4.245757184180979
 21
14.70824146859571
 31
0.0
  0
LINE
  5
30F6
330
1E
100
AcDbEntity
  8
7
100
AcDbLine
 10
-4.245757184180979
 20
14.70824146859571
 30
0.0
 11
-4.245757184180979
 21
14.74761154733587
 31
0.0
  0
LINE
  5
30F7
330
1E
100
AcDbEntity
  8
7
100
AcDbLine
 10
-4.245757184180979
 20
14.74761154733587
 30
0.0
 11
-4.245757184180979
 21
14.79682414576106
 31
0.0
  0
LINE
  5
30F8
330
1E
100
AcDbEntity
  8
7
100
AcDbLine
 10
-3.989851672369956
 20
14.58028871269021
 30
0.0
 11
-4.245757184180979
 21
14.58028871269021
 31
0.0
  0
LINE
  5
30F9
330
1E
100
AcDbEntity
  8
7
100
AcDbLine
 10
-3.989851672369956
 20
14.58028871269021
 30
0.0
 11
-3.989851672369956
 21
14.70824146859571
 31
0.0
  0
LINE
  5
30FA
330
1E
100
AcDbEntity
  8
7
100
AcDbLine
 10
-4.245757184180979
 20
14.58028871269021
 30
0.0
 11
-4.245757184180979
 21
14.70824146859571
 31
0.0
  0
LINE
  5
3100
330
1E
100
AcDbEntity
  8
7
100
AcDbLine
 10
-7.907174507015627
 20
15.62359579930437
 30
0.0
 11
-8.153237499141608
 21
15.62359579930437
 31
0.0
  0
LINE
  5
3101
330
1E
100
AcDbEntity
  8
7
100
AcDbLine
 10
-7.907174507015627
 20
15.74170603552484
 30
0.0
 11
-7.907174507015627
 21
15.62359579930437
 31
0.0
  0
LINE
  5
3112
330
1E
100
AcDbEntity
  8
7
100
AcDbLine
 10
-8.153237499141608
 20
14.79682414576106
 30
0.0
 11
-8.153237499141608
 21
15.53501312213902
 31
0.0
  0
LINE
  5
3123
330
1E
100
AcDbEntity
  8
7
100
AcDbLine
 10
-8.153237499141608
 20
14.58028871269021
 30
0.0
 11
-8.153237499141608
 21
14.70824146859571
 31
0.0
  0
LINE
  5
3124
330
1E
100
AcDbEntity
  8
7
100
AcDbLine
 10
-8.153237499141608
 20
11.13540682292641
 30
0.0
 11
-7.907174507015627
 21
11.13540682292641
 31
0.0
  0
LINE
  5
312A
330
1E
100
AcDbEntity
  8
7
100
AcDbLine
 10
-7.907174507015627
 20
11.13540682292641
 30
0.0
 11
-7.907174507015627
 21
11.00745406702091
 31
0.0
  0
LINE
  5
313B
330
1E
100
AcDbEntity
  8
7
100
AcDbLine
 10
-7.907174507015627
 20
10.91887138985556
 30
0.0
 11
-7.907174507015627
 21
10.1806824134776
 31
0.0
  0
LINE
  5
313C
330
1E
100
AcDbEntity
  8
7
100
AcDbLine
 10
-7.907174507015627
 20
10.09209973631224
 30
0.0
 11
-8.153237499141608
 21
10.09209973631224
 31
0.0
  0
LINE
  5
3147
330
1E
100
AcDbEntity
  8
7
100
AcDbLine
 10
-7.907174507015627
 20
9.964146980406731
 30
0.0
 11
-8.153237499141608
 21
9.964146980406731
 31
0.0
  0
LINE
  5
3148
330
1E
100
AcDbEntity
  8
7
100
AcDbLine
 10
-7.907174507015627
 20
9.964146980406731
 30
0.0
 11
-7.907174507015627
 21
10.09209973631224
 31
0.0
  0
LINE
  5
3149
330
1E
100
AcDbEntity
  8
7
100
AcDbLine
 10
-8.153237499141608
 20
9.964146980406731
 30
0.0
 11
-8.153237499141608
 21
10.09209973631224
 31
0.0
  0
LINE
  5
3172
330
1E
100
AcDbEntity
  8
7
100
AcDbLine
 10
-7.907174507015627
 20
15.79091863395004
 30
0.0
 11
-7.907174507015627
 21
15.76139107489493
 31
0.0
  0
LINE
  5
3173
330
1E
100
AcDbEntity
  8
7
100
AcDbLine
 10
-7.907174507015627
 20
15.76139107489493
 30
0.0
 11
-7.907174507015627
 21
15.74170603552484
 31
0.0
  0
LINE
  5
3188
330
1E
100
AcDbEntity
  8
7
100
AcDbLine
 10
-8.153237499141608
 20
5.348005248123268
 30
0.0
 11
-7.907174507015627
 21
5.348005248123268
 31
0.0
  0
LINE
  5
3189
330
1E
100
AcDbEntity
  8
7
100
AcDbLine
 10
-8.153237499141608
 20
5.220052492217767
 30
0.0
 11
-7.907174507015627
 21
5.220052492217767
 31
0.0
  0
LINE
  5
318A
330
1E
100
AcDbEntity
  8
7
100
AcDbLine
 10
-8.537095766858145
 20
16.12556430324137
 30
0.0
 11
3.962904233141853
 21
16.12556430324137
 31
0.0
  0
LINE
  5
3195
330
1E
100
AcDbEntity
  8
7
100
AcDbLine
 10
-0.3284343495353128
 20
15.62359579930437
 30
0.0
 11
-0.5744973416612944
 21
15.62359579930437
 31
0.0
  0
LINE
  5
3196
330
1E
100
AcDbEntity
  8
7
100
AcDbLine
 10
-0.3284343495353128
 20
15.74170603552484
 30
0.0
 11
-0.3284343495353128
 21
15.62359579930437
 31
0.0
  0
LINE
  5
319C
330
1E
100
AcDbEntity
  8
7
100
AcDbLine
 10
-0.3284343495353128
 20
15.53501312213902
 30
0.0
 11
-0.5744973416612944
 21
15.53501312213902
 31
0.0
  0
LINE
  5
31A2
330
1E
100
AcDbEntity
  8
7
100
AcDbLine
 10
-0.5744973416612944
 20
15.53501312213902
 30
0.0
 11
-0.5744973416612944
 21
14.79682414576106
 31
0.0
  0
LINE
  5
31A3
330
1E
100
AcDbEntity
  8
7
100
AcDbLine
 10
-0.3284343495353128
 20
14.79682414576106
 30
0.0
 11
-0.5744973416612944
 21
14.79682414576106
 31
0.0
  0
LINE
  5
31A4
330
1E
100
AcDbEntity
  8
7
100
AcDbLine
 10
-0.3284343495353128
 20
15.53501312213902
 30
0.0
 11
-0.3284343495353128
 21
14.79682414576106
 31
0.0
  0
LINE
  5
31B5
330
1E
100
AcDbEntity
  8
7
100
AcDbLine
 10
-0.5744973416612944
 20
14.58028871269021
 30
0.0
 11
-0.5744973416612944
 21
14.70824146859571
 31
0.0
  0
LINE
  5
31B6
330
1E
100
AcDbEntity
  8
7
100
AcDbLine
 10
3.342825492984372
 20
15.74170603552484
 30
0.0
 11
3.588888485110358
 21
15.74170603552484
 31
0.0
  0
LINE
  5
31BC
330
1E
100
AcDbEntity
  8
7
100
AcDbLine
 10
3.588888485110358
 20
15.74170603552484
 30
0.0
 11
3.588888485110358
 21
15.62359579930437
 31
0.0
  0
LINE
  5
31C2
330
1E
100
AcDbEntity
  8
7
100
AcDbLine
 10
3.588888485110358
 20
15.53501312213902
 30
0.0
 11
3.342825492984372
 21
15.53501312213902
 31
0.0
  0
LINE
  5
31C8
330
1E
100
AcDbEntity
  8
7
100
AcDbLine
 10
3.588888485110358
 20
14.79682414576106
 30
0.0
 11
3.342825492984372
 21
14.79682414576106
 31
0.0
  0
LINE
  5
31C9
330
1E
100
AcDbEntity
  8
7
100
AcDbLine
 10
3.588888485110358
 20
14.79682414576106
 30
0.0
 11
3.588888485110358
 21
15.53501312213902
 31
0.0
  0
LINE
  5
31CA
330
1E
100
AcDbEntity
  8
7
100
AcDbLine
 10
3.342825492984372
 20
14.79682414576106
 30
0.0
 11
3.342825492984372
 21
15.53501312213902
 31
0.0
  0
LINE
  5
31CB
330
1E
100
AcDbEntity
  8
7
100
AcDbLine
 10
3.588888485110358
 20
14.70824146859571
 30
0.0
 11
3.342825492984372
 21
14.70824146859571
 31
0.0
  0
LINE
  5
31D6
330
1E
100
AcDbEntity
  8
7
100
AcDbLine
 10
3.588888485110358
 20
14.58028871269021
 30
0.0
 11
3.342825492984372
 21
14.58028871269021
 31
0.0
  0
LINE
  5
31D7
330
1E
100
AcDbEntity
  8
7
100
AcDbLine
 10
3.588888485110358
 20
14.58028871269021
 30
0.0
 11
3.588888485110358
 21
14.70824146859571
 31
0.0
  0
LINE
  5
31D8
330
1E
100
AcDbEntity
  8
7
100
AcDbLine
 10
3.342825492984372
 20
14.58028871269021
 30
0.0
 11
3.342825492984372
 21
14.70824146859571
 31
0.0
  0
LINE
  5
31D9
330
1E
100
AcDbEntity
  8
7
100
AcDbLine
 10
3.588888485110358
 20
11.13540682292641
 30
0.0
 11
3.342825492984372
 21
11.13540682292641
 31
0.0
  0
LINE
  5
31DA
330
1E
100
AcDbEntity
  8
7
100
AcDbLine
 10
3.342825492984372
 20
11.13540682292641
 30
0.0
 11
3.342825492984372
 21
11.00745406702091
 31
0.0
  0
LINE
  5
31DB
330
1E
100
AcDbEntity
  8
7
100
AcDbLine
 10
3.588888485110358
 20
11.00745406702091
 30
0.0
 11
3.342825492984372
 21
11.00745406702091
 31
0.0
  0
LINE
  5
31DC
330
1E
100
AcDbEntity
  8
7
100
AcDbLine
 10
3.588888485110358
 20
11.13540682292641
 30
0.0
 11
3.588888485110358
 21
11.00745406702091
 31
0.0
  0
LINE
  5
31E2
330
1E
100
AcDbEntity
  8
7
100
AcDbLine
 10
3.588888485110358
 20
10.91887138985556
 30
0.0
 11
3.342825492984372
 21
10.91887138985556
 31
0.0
  0
LINE
  5
31E8
330
1E
100
AcDbEntity
  8
7
100
AcDbLine
 10
3.342825492984372
 20
10.91887138985556
 30
0.0
 11
3.342825492984372
 21
10.1806824134776
 31
0.0
  0
LINE
  5
31E9
330
1E
100
AcDbEntity
  8
7
100
AcDbLine
 10
3.588888485110358
 20
10.1806824134776
 30
0.0
 11
3.342825492984372
 21
10.1806824134776
 31
0.0
  0
LINE
  5
31EA
330
1E
100
AcDbEntity
  8
7
100
AcDbLine
 10
3.588888485110358
 20
10.91887138985556
 30
0.0
 11
3.588888485110358
 21
10.1806824134776
 31
0.0
  0
LINE
  5
31FB
330
1E
100
AcDbEntity
  8
7
100
AcDbLine
 10
3.342825492984372
 20
9.964146980406731
 30
0.0
 11
3.342825492984372
 21
10.09209973631224
 31
0.0
  0
LINE
  5
3238
330
1E
100
AcDbEntity
  8
7
100
AcDbLine
 10
3.588888485110358
 20
5.348005248123268
 30
0.0
 11
3.342825492984372
 21
5.348005248123268
 31
0.0
  0
LINE
  5
3239
330
1E
100
AcDbEntity
  8
7
100
AcDbLine
 10
3.588888485110358
 20
5.220052492217767
 30
0.0
 11
3.342825492984372
 21
5.220052492217767
 31
0.0
  0
LINE
  5
323A
330
1E
100
AcDbEntity
  8
7
100
AcDbLine
 10
4.208967225267839
 20
29.3539107599343
 30
0.0
 11
4.208967225267839
 21
29.34406824024927
 31
0.0
  0
LINE
  5
323B
330
1E
100
AcDbEntity
  8
7
100
AcDbLine
 10
4.464872737078863
 20
29.34406824024927
 30
0.0
 11
4.464872737078863
 21
29.3539107599343
 31
0.0
  0
LINE
  5
323C
330
1E
100
AcDbEntity
  8
7
100
AcDbLine
 10
-9.029221751110114
 20
29.3539107599343
 30
0.0
 11
-9.029221751110114
 21
29.34406824024927
 31
0.0
  0
LINE
  5
323D
330
1E
100
AcDbEntity
  8
7
100
AcDbLine
 10
-8.77331623929909
 20
29.34406824024927
 30
0.0
 11
-8.77331623929909
 21
29.3539107599343
 31
0.0
  0
LINE
  5
3252
330
1E
100
AcDbEntity
  8
7
100
AcDbLine
 10
-9.255599703866018
 20
29.2554855630839
 30
0.0
 11
4.691250689834765
 21
29.2554855630839
 31
0.0
  0
LINE
  5
3268
330
1E
100
AcDbEntity
  8
7
100
AcDbLine
 10
-9.255599703866018
 20
25.41690288591854
 30
0.0
 11
4.691250689834765
 21
25.41690288591854
 31
0.0
  0
LINE
  5
326F
330
1E
100
AcDbEntity
  8
7
100
AcDbLine
 10
4.691250689834765
 20
29.2554855630839
 30
0.0
 11
4.691250689834765
 21
25.41690288591854
 31
0.0
  0
LINE
  5
3270
330
1E
100
AcDbEntity
  8
7
100
AcDbLine
 10
-9.255599703866018
 20
29.2554855630839
 30
0.0
 11
-9.255599703866018
 21
25.41690288591854
 31
0.0
  0
LINE
  5
328F
330
1E
100
AcDbEntity
  8
7
100
AcDbLine
 10
4.464872737078863
 20
27.59209973631225
 30
0.0
 11
4.425502658338706
 21
27.91690288591854
 31
0.0
  0
LINE
  5
32AD
330
1E
100
AcDbEntity
  8
7
100
AcDbLine
 10
-5.367804428275469
 20
27.59209973631225
 30
0.0
 11
-5.328434349535312
 21
27.26729658670595
 31
0.0
  0
LINE
  5
32EC
330
1E
100
AcDbEntity
  8
7
100
AcDbLine
 10
4.691250689834765
 20
29.34406824024927
 30
0.0
 11
4.750305807945002
 21
29.34406824024927
 31
0.0
  0
LINE
  5
32ED
330
1E
100
AcDbEntity
  8
7
100
AcDbLine
 10
-9.255599703866018
 20
29.34406824024927
 30
0.0
 11
-9.314654821976255
 21
29.34406824024927
 31
0.0
  0
LINE
  5
32EE
330
1E
100
AcDbEntity
  8
7
100
AcDbLine
 10
4.750305807945002
 20
29.28501312213903
 30
0.0
 11
4.691250689834765
 21
29.28501312213903
 31
0.0
  0
LINE
  5
32EF
330
1E
100
AcDbEntity
  8
7
100
AcDbLine
 10
-9.314654821976255
 20
29.28501312213903
 30
0.0
 11
-9.255599703866018
 21
29.28501312213903
 31
0.0
  0
LINE
  5
32F0
330
1E
100
AcDbEntity
  8
7
100
AcDbLine
 10
-9.255599703866018
 20
25.32832020875319
 30
0.0
 11
-9.255599703866018
 21
25.38737532686343
 31
0.0
  0
LINE
  5
32F1
330
1E
100
AcDbEntity
  8
7
100
AcDbLine
 10
-9.245757184180979
 20
25.32832020875319
 30
0.0
 11
-9.255599703866018
 21
25.32832020875319
 31
0.0
  0
LINE
  5
32F2
330
1E
100
AcDbEntity
  8
7
100
AcDbLine
 10
-9.314654821976255
 20
25.38737532686343
 30
0.0
 11
-9.255599703866018
 21
25.38737532686343
 31
0.0
  0
LINE
  5
32F3
330
1E
100
AcDbEntity
  8
7
100
AcDbLine
 10
-9.314654821976255
 20
25.32832020875319
 30
0.0
 11
-9.255599703866018
 21
25.32832020875319
 31
0.0
  0
LINE
  5
32F4
330
1E
100
AcDbEntity
  8
7
100
AcDbLine
 10
-9.314654821976255
 20
25.32832020875319
 30
0.0
 11
-9.314654821976255
 21
25.38737532686343
 31
0.0
  0
LINE
  5
32F5
330
1E
100
AcDbEntity
  8
7
100
AcDbLine
 10
-7.080402853472318
 20
28.30076115363508
 30
0.0
 11
-7.100087892842395
 21
28.32044619300516
 31
0.0
  0
LINE
  5
32F6
330
1E
100
AcDbEntity
  8
7
100
AcDbLine
 10
-8.468198129062868
 20
28.32044619300516
 30
0.0
 11
-8.487883168432947
 21
28.30076115363508
 31
0.0
  0
LINE
  5
32F7
330
1E
100
AcDbEntity
  8
7
100
AcDbLine
 10
-8.507568207803025
 20
28.35981627174532
 30
0.0
 11
-8.468198129062868
 21
28.32044619300516
 31
0.0
  0
LINE
  5
32F8
330
1E
100
AcDbEntity
  8
7
100
AcDbLine
 10
-8.546938286543182
 20
28.32044619300516
 30
0.0
 11
-8.507568207803025
 21
28.35981627174532
 31
0.0
  0
LINE
  5
32F9
330
1E
100
AcDbEntity
  8
7
100
AcDbLine
 10
-8.507568207803025
 20
28.28107611426501
 30
0.0
 11
-8.546938286543182
 21
28.32044619300516
 31
0.0
  0
LINE
  5
32FA
330
1E
100
AcDbEntity
  8
7
100
AcDbLine
 10
-8.487883168432947
 20
28.30076115363508
 30
0.0
 11
-8.507568207803025
 21
28.28107611426501
 31
0.0
  0
LINE
  5
32FB
330
1E
100
AcDbEntity
  8
7
100
AcDbLine
 10
-7.808749310165234
 20
26.59800524812327
 30
0.0
 11
-7.779221751110114
 21
26.59800524812327
 31
0.0
  0
LINE
  5
32FC
330
1E
100
AcDbEntity
  8
7
100
AcDbLine
 10
-7.808749310165234
 20
26.53895013001304
 30
0.0
 11
-7.808749310165234
 21
26.59800524812327
 31
0.0
  0
LINE
  5
32FD
330
1E
100
AcDbEntity
  8
7
100
AcDbLine
 10
-7.749694192054993
 20
26.53895013001304
 30
0.0
 11
-7.808749310165234
 21
26.53895013001304
 31
0.0
  0
LINE
  5
32FE
330
1E
100
AcDbEntity
  8
7
100
AcDbLine
 10
-7.749694192054993
 20
26.59800524812327
 30
0.0
 11
-7.749694192054993
 21
26.53895013001304
 31
0.0
  0
LINE
  5
32FF
330
1E
100
AcDbEntity
  8
7
100
AcDbLine
 10
-7.779221751110114
 20
26.59800524812327
 30
0.0
 11
-7.749694192054993
 21
26.59800524812327
 31
0.0
  0
LINE
  5
3321
330
1E
100
AcDbEntity
  8
7
100
AcDbLine
 10
-7.011505215677043
 20
28.32044619300516
 30
0.0
 11
-7.050875294417201
 21
28.28107611426501
 31
0.0
  0
LINE
  5
3322
330
1E
100
AcDbEntity
  8
7
100
AcDbLine
 10
-7.060717814102238
 20
28.35981627174532
 30
0.0
 11
-7.011505215677043
 21
28.32044619300516
 31
0.0
  0
LINE
  5
3323
330
1E
100
AcDbEntity
  8
7
100
AcDbLine
 10
-7.100087892842395
 20
28.32044619300516
 30
0.0
 11
-7.060717814102238
 21
28.35981627174532
 31
0.0
  0
LINE
  5
3324
330
1E
100
AcDbEntity
  8
7
100
AcDbLine
 10
-7.050875294417201
 20
28.28107611426501
 30
0.0
 11
-7.080402853472318
 21
28.30076115363508
 31
0.0
  0
LINE
  5
332A
330
1E
100
AcDbEntity
  8
7
100
AcDbLine
 10
-9.403237499141608
 20
25.41690288591854
 30
0.0
 11
-9.344182381031373
 21
25.41690288591854
 31
0.0
  0
LINE
  5
3330
330
1E
100
AcDbEntity
  8
7
100
AcDbLine
 10
-9.344182381031373
 20
29.2554855630839
 30
0.0
 11
-9.344182381031373
 21
25.41690288591854
 31
0.0
  0
LINE
  5
3331
330
1E
100
AcDbEntity
  8
7
100
AcDbLine
 10
-9.403237499141608
 20
29.2554855630839
 30
0.0
 11
-9.403237499141608
 21
25.41690288591854
 31
0.0
  0
LINE
  5
3332
330
1E
100
AcDbEntity
  8
7
100
AcDbLine
 10
-9.403237499141608
 20
29.2554855630839
 30
0.0
 11
-9.344182381031373
 21
29.2554855630839
 31
0.0
  0
LINE
  5
3333
330
1E
100
AcDbEntity
  8
7
100
AcDbLine
 10
-9.344182381031373
 20
29.2554855630839
 30
0.0
 11
-9.344182381031373
 21
25.41690288591854
 31
0.0
  0
LINE
  5
3343
330
1E
100
AcDbEntity
  8
7
100
AcDbLine
 10
-9.314654821976255
 20
29.34406824024927
 30
0.0
 11
-9.373709940086492
 21
29.31454068119414
 31
0.0
  0
LINE
  5
3344
330
1E
100
AcDbEntity
  8
7
100
AcDbLine
 10
-9.373709940086492
 20
29.31454068119414
 30
0.0
 11
-9.403237499141608
 21
29.2554855630839
 31
0.0
  0
LINE
  5
3345
330
1E
100
AcDbEntity
  8
7
100
AcDbLine
 10
4.779833367000122
 20
29.2554855630839
 30
0.0
 11
4.779833367000122
 21
25.41690288591854
 31
0.0
  0
LINE
  5
334B
330
1E
100
AcDbEntity
  8
7
100
AcDbLine
 10
4.838888485110357
 20
29.2554855630839
 30
0.0
 11
4.838888485110357
 21
25.41690288591854
 31
0.0
  0
LINE
  5
334C
330
1E
100
AcDbEntity
  8
7
100
AcDbLine
 10
4.838888485110357
 20
29.2554855630839
 30
0.0
 11
4.809360926055237
 21
29.31454068119414
 31
0.0
  0
LINE
  5
334D
330
1E
100
AcDbEntity
  8
7
100
AcDbLine
 10
4.809360926055237
 20
29.31454068119414
 30
0.0
 11
4.750305807945002
 21
29.34406824024927
 31
0.0
  0
LINE
  5
334E
330
1E
100
AcDbEntity
  8
7
100
AcDbLine
 10
3.214872737078863
 20
26.59800524812327
 30
0.0
 11
3.185345178023742
 21
26.59800524812327
 31
0.0
  0
LINE
  5
3359
330
1E
100
AcDbEntity
  8
7
100
AcDbLine
 10
3.923534154401696
 20
28.30076115363508
 30
0.0
 11
3.943219193771775
 21
28.28107611426501
 31
0.0
  0
LINE
  5
337A
330
1E
100
AcDbEntity
  8
7
100
AcDbLine
 10
2.516053839441066
 20
28.29091863395004
 30
0.0
 11
2.338888485110358
 21
28.06454068119414
 31
0.0
  0
LINE
  5
3385
330
1E
100
AcDbEntity
  8
7
100
AcDbLine
 10
2.506211319756029
 20
28.30076115363508
 30
0.0
 11
2.535738878811145
 21
28.32044619300516
 31
0.0
  0
LINE
  5
339F
330
1E
100
AcDbEntity
  8
7
100
AcDbLine
 10
4.838888485110357
 20
29.2554855630839
 30
0.0
 11
4.779833367000122
 21
29.2554855630839
 31
0.0
  0
LINE
  5
33A0
330
1E
100
AcDbEntity
  8
7
100
AcDbLine
 10
4.691250689834765
 20
25.32832020875319
 30
0.0
 11
4.681408170149728
 21
25.32832020875319
 31
0.0
  0
LINE
  5
33A1
330
1E
100
AcDbEntity
  8
7
100
AcDbLine
 10
4.691250689834765
 20
25.38737532686343
 30
0.0
 11
4.691250689834765
 21
25.32832020875319
 31
0.0
  0
LINE
  5
33A2
330
1E
100
AcDbEntity
  8
7
100
AcDbLine
 10
4.750305807945002
 20
25.38737532686343
 30
0.0
 11
4.691250689834765
 21
25.38737532686343
 31
0.0
  0
LINE
  5
33A3
330
1E
100
AcDbEntity
  8
7
100
AcDbLine
 10
4.750305807945002
 20
25.32832020875319
 30
0.0
 11
4.691250689834765
 21
25.32832020875319
 31
0.0
  0
LINE
  5
33A4
330
1E
100
AcDbEntity
  8
7
100
AcDbLine
 10
4.750305807945002
 20
25.38737532686343
 30
0.0
 11
4.750305807945002
 21
25.32832020875319
 31
0.0
  0
LINE
  5
33AF
330
1E
100
AcDbEntity
  8
7
100
AcDbLine
 10
-3.409143010952632
 20
28.30076115363508
 30
0.0
 11
-3.42882805032271
 21
28.32044619300516
 31
0.0
  0
LINE
  5
33B0
330
1E
100
AcDbEntity
  8
7
100
AcDbLine
 10
-4.806780806228225
 20
28.32044619300516
 30
0.0
 11
-4.826465845598303
 21
28.30076115363508
 31
0.0
  0
LINE
  5
33B1
330
1E
100
AcDbEntity
  8
7
100
AcDbLine
 10
-4.796938286543182
 20
28.32044619300516
 30
0.0
 11
-4.806780806228225
 21
28.32044619300516
 31
0.0
  0
LINE
  5
33B2
330
1E
100
AcDbEntity
  8
7
100
AcDbLine
 10
-4.846150884968382
 20
28.35981627174532
 30
0.0
 11
-4.806780806228225
 21
28.32044619300516
 31
0.0
  0
LINE
  5
33B3
330
1E
100
AcDbEntity
  8
7
100
AcDbLine
 10
-4.88552096370854
 20
28.32044619300516
 30
0.0
 11
-4.846150884968382
 21
28.35981627174532
 31
0.0
  0
LINE
  5
33B4
330
1E
100
AcDbEntity
  8
7
100
AcDbLine
 10
-4.846150884968382
 20
28.28107611426501
 30
0.0
 11
-4.88552096370854
 21
28.32044619300516
 31
0.0
  0
LINE
  5
33B5
330
1E
100
AcDbEntity
  8
7
100
AcDbLine
 10
-4.826465845598303
 20
28.30076115363508
 30
0.0
 11
-4.846150884968382
 21
28.28107611426501
 31
0.0
  0
LINE
  5
33B6
330
1E
100
AcDbEntity
  8
7
100
AcDbLine
 10
-4.147331987330586
 20
26.59800524812327
 30
0.0
 11
-4.117804428275469
 21
26.59800524812327
 31
0.0
  0
LINE
  5
33B7
330
1E
100
AcDbEntity
  8
7
100
AcDbLine
 10
-4.147331987330586
 20
26.53895013001304
 30
0.0
 11
-4.147331987330586
 21
26.59800524812327
 31
0.0
  0
LINE
  5
33B8
330
1E
100
AcDbEntity
  8
7
100
AcDbLine
 10
-4.088276869220349
 20
26.53895013001304
 30
0.0
 11
-4.147331987330586
 21
26.53895013001304
 31
0.0
  0
LINE
  5
33B9
330
1E
100
AcDbEntity
  8
7
100
AcDbLine
 10
-4.088276869220349
 20
26.59800524812327
 30
0.0
 11
-4.088276869220349
 21
26.53895013001304
 31
0.0
  0
LINE
  5
33BA
330
1E
100
AcDbEntity
  8
7
100
AcDbLine
 10
-4.117804428275469
 20
26.59800524812327
 30
0.0
 11
-4.088276869220349
 21
26.59800524812327
 31
0.0
  0
LINE
  5
33DC
330
1E
100
AcDbEntity
  8
7
100
AcDbLine
 10
-3.350087892842395
 20
28.32044619300516
 30
0.0
 11
-3.389457971582553
 21
28.28107611426501
 31
0.0
  0
LINE
  5
33DD
330
1E
100
AcDbEntity
  8
7
100
AcDbLine
 10
-3.389457971582553
 20
28.35981627174532
 30
0.0
 11
-3.350087892842395
 21
28.32044619300516
 31
0.0
  0
LINE
  5
33DE
330
1E
100
AcDbEntity
  8
7
100
AcDbLine
 10
-3.42882805032271
 20
28.32044619300516
 30
0.0
 11
-3.389457971582553
 21
28.35981627174532
 31
0.0
  0
LINE
  5
33DF
330
1E
100
AcDbEntity
  8
7
100
AcDbLine
 10
-3.389457971582553
 20
28.28107611426501
 30
0.0
 11
-3.409143010952632
 21
28.30076115363508
 31
0.0
  0
LINE
  5
33E0
330
1E
100
AcDbEntity
  8
7
100
AcDbLine
 10
-1.174891042448697
 20
28.35981627174532
 30
0.0
 11
-1.135520963708539
 21
28.32044619300516
 31
0.0
  0
LINE
  5
33E1
330
1E
100
AcDbEntity
  8
7
100
AcDbLine
 10
-1.214261121188854
 20
28.32044619300516
 30
0.0
 11
-1.174891042448697
 21
28.35981627174532
 31
0.0
  0
LINE
  5
33E2
330
1E
100
AcDbEntity
  8
7
100
AcDbLine
 10
-1.174891042448697
 20
28.28107611426501
 30
0.0
 11
-1.214261121188854
 21
28.32044619300516
 31
0.0
  0
LINE
  5
33E3
330
1E
100
AcDbEntity
  8
7
100
AcDbLine
 10
-1.155206003078618
 20
28.30076115363508
 30
0.0
 11
-1.174891042448697
 21
28.28107611426501
 31
0.0
  0
LINE
  5
33E4
330
1E
100
AcDbEntity
  8
7
100
AcDbLine
 10
-1.135520963708539
 20
28.32044619300516
 30
0.0
 11
-1.155206003078618
 21
28.30076115363508
 31
0.0
  0
LINE
  5
33E5
330
1E
100
AcDbEntity
  8
7
100
AcDbLine
 10
-0.4760721448109009
 20
26.59800524812327
 30
0.0
 11
-0.4465445857557851
 21
26.59800524812327
 31
0.0
  0
LINE
  5
33E6
330
1E
100
AcDbEntity
  8
7
100
AcDbLine
 10
-0.4760721448109009
 20
26.53895013001304
 30
0.0
 11
-0.4760721448109009
 21
26.59800524812327
 31
0.0
  0
LINE
  5
33E7
330
1E
100
AcDbEntity
  8
7
100
AcDbLine
 10
-0.4170170267006648
 20
26.53895013001304
 30
0.0
 11
-0.4760721448109009
 21
26.53895013001304
 31
0.0
  0
LINE
  5
33E8
330
1E
100
AcDbEntity
  8
7
100
AcDbLine
 10
-0.4170170267006648
 20
26.59800524812327
 30
0.0
 11
-0.4170170267006648
 21
26.53895013001304
 31
0.0
  0
LINE
  5
33E9
330
1E
100
AcDbEntity
  8
7
100
AcDbLine
 10
-0.4465445857557851
 20
26.59800524812327
 30
0.0
 11
-0.4170170267006648
 21
26.59800524812327
 31
0.0
  0
LINE
  5
33EA
330
1E
100
AcDbEntity
  8
7
100
AcDbLine
 10
0.2818018709371315
 20
28.28107611426501
 30
0.0
 11
0.2621168315670528
 21
28.30076115363508
 31
0.0
  0
LINE
  5
33EB
330
1E
100
AcDbEntity
  8
7
100
AcDbLine
 10
0.3211719496772889
 20
28.32044619300516
 30
0.0
 11
0.2818018709371315
 21
28.28107611426501
 31
0.0
  0
LINE
  5
33EC
330
1E
100
AcDbEntity
  8
7
100
AcDbLine
 10
0.2719593512520899
 20
28.35981627174532
 30
0.0
 11
0.3211719496772889
 21
28.32044619300516
 31
0.0
  0
LINE
  5
33ED
330
1E
100
AcDbEntity
  8
7
100
AcDbLine
 10
0.2325892725119325
 20
28.32044619300516
 30
0.0
 11
0.2719593512520899
 21
28.35981627174532
 31
0.0
  0
LINE
  5
33EE
330
1E
100
AcDbEntity
  8
7
100
AcDbLine
 10
0.2621168315670528
 20
28.30076115363508
 30
0.0
 11
0.2325892725119325
 21
28.32044619300516
 31
0.0
  0
LINE
  5
363E
330
1E
100
AcDbEntity
  8
7
100
AcDbLine
 10
19.71093572920484
 20
-6.010262468412154
 30
0.0
 11
19.69125068983476
 21
-6.010262468412154
 31
0.0
  0
LINE
  5
363F
330
1E
100
AcDbEntity
  8
7
100
AcDbLine
 10
19.69125068983476
 20
-6.256325460538143
 30
0.0
 11
19.71093572920484
 21
-6.256325460538143
 31
0.0
  0
LINE
  5
3640
330
1E
100
AcDbEntity
  8
7
100
AcDbLine
 10
19.71093572920484
 20
4.895249342611471
 30
0.0
 11
19.69125068983476
 21
4.895249342611471
 31
0.0
  0
LINE
  5
3641
330
1E
100
AcDbEntity
  8
7
100
AcDbLine
 10
19.69125068983476
 20
4.639343830800434
 30
0.0
 11
19.71093572920484
 21
4.639343830800434
 31
0.0
  0
LINE
  5
3642
330
1E
100
AcDbEntity
  8
7
100
AcDbLine
 10
19.71093572920484
 20
15.79091863395004
 30
0.0
 11
19.69125068983476
 21
15.79091863395004
 31
0.0
  0
LINE
  5
3643
330
1E
100
AcDbEntity
  8
7
100
AcDbLine
 10
19.69125068983476
 20
15.54485564182406
 30
0.0
 11
19.71093572920484
 21
15.54485564182406
 31
0.0
  0
LINE
  5
3680
330
1E
100
AcDbEntity
  8
7
100
AcDbLine
 10
19.60266801266941
 20
-7.506325460538143
 30
0.0
 11
15.77392785518909
 21
-7.506325460538143
 31
0.0
  0
LINE
  5
368B
330
1E
100
AcDbEntity
  8
7
100
AcDbLine
 10
15.77392785518909
 20
16.9818635158398
 30
0.0
 11
15.75424281581901
 21
16.97202099615476
 31
0.0
  0
LINE
  5
368C
330
1E
100
AcDbEntity
  8
7
100
AcDbLine
 10
15.75424281581901
 20
16.97202099615476
 30
0.0
 11
15.74440029613397
 21
16.95233595678469
 31
0.0
  0
LINE
  5
368D
330
1E
100
AcDbEntity
  8
7
100
AcDbLine
 10
19.60266801266941
 20
17.04091863395004
 30
0.0
 11
15.77392785518909
 21
17.04091863395004
 31
0.0
  0
LINE
  5
3693
330
1E
100
AcDbEntity
  8
7
100
AcDbLine
 10
19.69125068983476
 20
-7.417742783372787
 30
0.0
 11
19.69125068983476
 21
16.95233595678469
 31
0.0
  0
LINE
  5
36A2
330
1E
100
AcDbEntity
  8
7
100
AcDbLine
 10
19.60266801266941
 20
-7.417742783372787
 30
0.0
 11
15.77392785518909
 21
-7.417742783372787
 31
0.0
  0
LINE
  5
36A3
330
1E
100
AcDbEntity
  8
7
100
AcDbLine
 10
19.60266801266941
 20
16.95233595678469
 30
0.0
 11
19.60266801266941
 21
-7.417742783372787
 31
0.0
  0
LINE
  5
3739
330
1E
100
AcDbEntity
  8
7
100
AcDbLine
 10
18.59873100479539
 20
-2.043727035341287
 30
0.0
 11
18.68731368196075
 21
-2.092939633766491
 31
0.0
  0
LINE
  5
3758
330
1E
100
AcDbEntity
  8
7
100
AcDbLine
 10
15.74440029613397
 20
-7.417742783372787
 30
0.0
 11
15.68534517802374
 21
-7.417742783372787
 31
0.0
  0
LINE
  5
3759
330
1E
100
AcDbEntity
  8
7
100
AcDbLine
 10
15.68534517802374
 20
16.95233595678469
 30
0.0
 11
15.68534517802374
 21
-7.417742783372787
 31
0.0
  0
LINE
  5
3771
330
1E
100
AcDbEntity
  8
7
100
AcDbLine
 10
19.74046328825995
 20
15.76139107489493
 30
0.0
 11
19.74046328825995
 21
15.71217847646973
 31
0.0
  0
LINE
  5
466D
330
1E
100
AcDbEntity
  8
7
100
AcDbLine
 10
19.71093572920484
 20
4.639343830800434
 30
0.0
 11
19.71093572920484
 21
4.708241468595712
 31
0.0
  0
LINE
  5
466E
330
1E
100
AcDbEntity
  8
7
100
AcDbLine
 10
19.71093572920484
 20
4.708241468595712
 30
0.0
 11
19.71093572920484
 21
4.826351704816193
 31
0.0
  0
LINE
  5
466F
330
1E
100
AcDbEntity
  8
7
100
AcDbLine
 10
19.71093572920484
 20
4.826351704816193
 30
0.0
 11
19.71093572920484
 21
4.895249342611471
 31
0.0
  0
LINE
  5
4670
330
1E
100
AcDbEntity
  8
7
100
AcDbLine
 10
19.74046328825995
 20
4.865721783556342
 30
0.0
 11
19.74046328825995
 21
4.816509185131156
 31
0.0
  0
LINE
  5
4671
330
1E
100
AcDbEntity
  8
7
100
AcDbLine
 10
19.74046328825995
 20
4.816509185131156
 30
0.0
 11
19.74046328825995
 21
4.718083988280749
 31
0.0
  0
LINE
  5
4672
330
1E
100
AcDbEntity
  8
7
100
AcDbLine
 10
19.74046328825995
 20
4.718083988280749
 30
0.0
 11
19.74046328825995
 21
4.668871389855564
 31
0.0
  0
LINE
  5
4673
330
1E
100
AcDbEntity
  8
7
100
AcDbLine
 10
19.71093572920484
 20
15.54485564182406
 30
0.0
 11
19.71093572920484
 21
15.6039107599343
 31
0.0
  0
LINE
  5
4674
330
1E
100
AcDbEntity
  8
7
100
AcDbLine
 10
19.71093572920484
 20
15.6039107599343
 30
0.0
 11
19.71093572920484
 21
15.7318635158398
 31
0.0
  0
LINE
  5
4675
330
1E
100
AcDbEntity
  8
7
100
AcDbLine
 10
19.71093572920484
 20
15.7318635158398
 30
0.0
 11
19.71093572920484
 21
15.79091863395004
 31
0.0
  0
LINE
  5
4676
330
1E
100
AcDbEntity
  8
7
100
AcDbLine
 10
19.74046328825995
 20
15.71217847646973
 30
0.0
 11
19.74046328825995
 21
15.62359579930437
 31
0.0
  0
LINE
  5
4677
330
1E
100
AcDbEntity
  8
7
100
AcDbLine
 10
19.74046328825995
 20
15.62359579930437
 30
0.0
 11
19.74046328825995
 21
15.57438320087917
 31
0.0
  0
LINE
  5
4678
330
1E
100
AcDbEntity
  8
7
100
AcDbLine
 10
19.71093572920484
 20
-6.256325460538143
 30
0.0
 11
19.71093572920484
 21
-6.197270342427902
 31
0.0
  0
LINE
  5
4679
330
1E
100
AcDbEntity
  8
7
100
AcDbLine
 10
19.71093572920484
 20
-6.197270342427902
 30
0.0
 11
19.71093572920484
 21
-6.069317586522394
 31
0.0
  0
LINE
  5
467A
330
1E
100
AcDbEntity
  8
7
100
AcDbLine
 10
19.71093572920484
 20
-6.069317586522394
 30
0.0
 11
19.71093572920484
 21
-6.010262468412154
 31
0.0
  0
LINE
  5
467B
330
1E
100
AcDbEntity
  8
7
100
AcDbLine
 10
19.74046328825995
 20
-6.039790027467272
 30
0.0
 11
19.74046328825995
 21
-6.089002625892476
 31
0.0
  0
LINE
  5
467C
330
1E
100
AcDbEntity
  8
7
100
AcDbLine
 10
19.74046328825995
 20
-6.089002625892476
 30
0.0
 11
19.74046328825995
 21
-6.187427822742865
 31
0.0
  0
LINE
  5
467D
330
1E
100
AcDbEntity
  8
7
100
AcDbLine
 10
19.74046328825995
 20
-6.187427822742865
 30
0.0
 11
19.74046328825995
 21
-6.226797901483024
 31
0.0
  0
LINE
  5
467E
330
1E
100
AcDbEntity
  8
7
100
AcDbLine
 10
15.77392785518909
 20
16.95233595678469
 30
0.0
 11
15.70503021739382
 21
16.95233595678469
 31
0.0
  0
LINE
  5
467F
330
1E
100
AcDbEntity
  8
7
100
AcDbLine
 10
15.70503021739382
 20
16.95233595678469
 30
0.0
 11
15.68534517802374
 21
16.95233595678469
 31
0.0
  0
LINE
  5
4680
330
1E
100
AcDbEntity
  8
7
100
AcDbLine
 10
15.68534517802374
 20
16.95233595678469
 30
0.0
 11
15.74440029613397
 21
16.95233595678469
 31
0.0
  0
LINE
  5
4681
330
1E
100
AcDbEntity
  8
7
100
AcDbLine
 10
15.77392785518909
 20
-7.417742783372787
 30
0.0
 11
15.70503021739382
 21
-7.417742783372787
 31
0.0
  0
LINE
  5
4682
330
1E
100
AcDbEntity
  8
7
100
AcDbLine
 10
15.70503021739382
 20
-7.417742783372787
 30
0.0
 11
15.68534517802374
 21
-7.417742783372787
 31
0.0
  0
LINE
  5
4683
330
1E
100
AcDbEntity
  8
7
100
AcDbLine
 10
15.77392785518909
 20
17.04091863395004
 30
0.0
 11
15.77392785518909
 21
17.01139107489493
 31
0.0
  0
LINE
  5
4684
330
1E
100
AcDbEntity
  8
7
100
AcDbLine
 10
15.77392785518909
 20
17.01139107489493
 30
0.0
 11
15.77392785518909
 21
16.95233595678469
 31
0.0
  0
LINE
  5
4685
330
1E
100
AcDbEntity
  8
7
100
AcDbLine
 10
19.60266801266941
 20
17.04091863395004
 30
0.0
 11
19.60266801266941
 21
17.01139107489493
 31
0.0
  0
LINE
  5
4686
330
1E
100
AcDbEntity
  8
7
100
AcDbLine
 10
19.60266801266941
 20
17.01139107489493
 30
0.0
 11
19.60266801266941
 21
16.95233595678469
 31
0.0
  0
LINE
  5
4687
330
1E
100
AcDbEntity
  8
7
100
AcDbLine
 10
19.60266801266941
 20
-7.506325460538143
 30
0.0
 11
19.60266801266941
 21
-7.476797901483024
 31
0.0
  0
LINE
  5
4688
330
1E
100
AcDbEntity
  8
7
100
AcDbLine
 10
19.60266801266941
 20
-7.476797901483024
 30
0.0
 11
19.60266801266941
 21
-7.417742783372787
 31
0.0
  0
LINE
  5
4689
330
1E
100
AcDbEntity
  8
7
100
AcDbLine
 10
15.77392785518909
 20
-7.506325460538143
 30
0.0
 11
15.77392785518909
 21
-7.476797901483024
 31
0.0
  0
LINE
  5
468A
330
1E
100
AcDbEntity
  8
7
100
AcDbLine
 10
15.77392785518909
 20
-7.476797901483024
 30
0.0
 11
15.77392785518909
 21
-7.417742783372787
 31
0.0
  0
LINE
  5
468B
330
1E
100
AcDbEntity
  8
7
100
AcDbLine
 10
19.69125068983476
 20
16.95233595678469
 30
0.0
 11
19.67156565046469
 21
16.95233595678469
 31
0.0
  0
LINE
  5
468C
330
1E
100
AcDbEntity
  8
7
100
AcDbLine
 10
19.67156565046469
 20
16.95233595678469
 30
0.0
 11
19.60266801266941
 21
16.95233595678469
 31
0.0
  0
LINE
  5
468D
330
1E
100
AcDbEntity
  8
7
100
AcDbLine
 10
19.69125068983476
 20
-7.417742783372787
 30
0.0
 11
19.67156565046469
 21
-7.417742783372787
 31
0.0
  0
LINE
  5
468E
330
1E
100
AcDbEntity
  8
7
100
AcDbLine
 10
19.67156565046469
 20
-7.417742783372787
 30
0.0
 11
19.60266801266941
 21
-7.417742783372787
 31
0.0
  0
LINE
  5
468F
330
1E
100
AcDbEntity
  8
7
100
AcDbLine
 10
18.68731368196075
 20
-2.092939633766491
 30
0.0
 11
18.7758963591261
 21
-2.043727035341287
 31
0.0
  0
LINE
  5
4690
330
1E
100
AcDbEntity
  8
7
100
AcDbLine
 10
18.7758963591261
 20
-2.043727035341287
 30
0.0
 11
18.80542391818122
 21
-1.945301838490898
 31
0.0
  0
LINE
  5
4691
330
1E
100
AcDbEntity
  8
7
100
AcDbLine
 10
18.80542391818122
 20
-1.945301838490898
 30
0.0
 11
18.73652628038595
 21
-1.866561681010583
 31
0.0
  0
LINE
  5
4692
330
1E
100
AcDbEntity
  8
7
100
AcDbLine
 10
18.73652628038595
 20
-1.866561681010583
 30
0.0
 11
18.63810108353554
 21
-1.866561681010583
 31
0.0
  0
LINE
  5
4693
330
1E
100
AcDbEntity
  8
7
100
AcDbLine
 10
18.63810108353554
 20
-1.866561681010583
 30
0.0
 11
18.56920344574027
 21
-1.945301838490898
 31
0.0
  0
LINE
  5
4694
330
1E
100
AcDbEntity
  8
7
100
AcDbLine
 10
18.56920344574027
 20
-1.945301838490898
 30
0.0
 11
18.59873100479539
 21
-2.043727035341287
 31
0.0
  0
LINE
  5
4695
330
1E
100
AcDbEntity
  8
7
100
AcDbLine
 10
16.68928218589775
 20
-2.092939633766491
 30
0.0
 11
16.77786486306311
 21
-2.043727035341287
 31
0.0
  0
LINE
  5
4696
330
1E
100
AcDbEntity
  8
7
100
AcDbLine
 10
16.77786486306311
 20
-2.043727035341287
 30
0.0
 11
16.80739242211822
 21
-1.945301838490898
 31
0.0
  0
LINE
  5
4697
330
1E
100
AcDbEntity
  8
7
100
AcDbLine
 10
16.80739242211822
 20
-1.945301838490898
 30
0.0
 11
16.73849478432296
 21
-1.866561681010583
 31
0.0
  0
LINE
  5
4698
330
1E
100
AcDbEntity
  8
7
100
AcDbLine
 10
16.73849478432296
 20
-1.866561681010583
 30
0.0
 11
16.64006958747256
 21
-1.866561681010583
 31
0.0
  0
LINE
  5
4699
330
1E
100
AcDbEntity
  8
7
100
AcDbLine
 10
16.64006958747256
 20
-1.866561681010583
 30
0.0
 11
16.57117194967728
 21
-1.945301838490898
 31
0.0
  0
LINE
  5
469A
330
1E
100
AcDbEntity
  8
7
100
AcDbLine
 10
16.57117194967728
 20
-1.945301838490898
 30
0.0
 11
16.6006995087324
 21
-2.043727035341287
 31
0.0
  0
LINE
  5
469B
330
1E
100
AcDbEntity
  8
7
100
AcDbLine
 10
16.6006995087324
 20
-2.043727035341287
 30
0.0
 11
16.68928218589775
 21
-2.092939633766491
 31
0.0
  0
LINE
  5
469C
330
1E
100
AcDbEntity
  8
7
100
AcDbLine
 10
18.68731368196075
 20
11.45036745284767
 30
0.0
 11
18.7758963591261
 21
11.49958005127287
 31
0.0
  0
LINE
  5
469D
330
1E
100
AcDbEntity
  8
7
100
AcDbLine
 10
18.7758963591261
 20
11.49958005127287
 30
0.0
 11
18.80542391818122
 21
11.59800524812326
 31
0.0
  0
LINE
  5
469E
330
1E
100
AcDbEntity
  8
7
100
AcDbLine
 10
18.80542391818122
 20
11.59800524812326
 30
0.0
 11
18.73652628038595
 21
11.67674540560358
 31
0.0
  0
LINE
  5
469F
330
1E
100
AcDbEntity
  8
7
100
AcDbLine
 10
18.73652628038595
 20
11.67674540560358
 30
0.0
 11
18.63810108353554
 21
11.67674540560358
 31
0.0
  0
LINE
  5
46A0
330
1E
100
AcDbEntity
  8
7
100
AcDbLine
 10
18.63810108353554
 20
11.67674540560358
 30
0.0
 11
18.56920344574027
 21
11.59800524812326
 31
0.0
  0
LINE
  5
46A1
330
1E
100
AcDbEntity
  8
7
100
AcDbLine
 10
18.56920344574027
 20
11.59800524812326
 30
0.0
 11
18.59873100479539
 21
11.49958005127287
 31
0.0
  0
LINE
  5
46A2
330
1E
100
AcDbEntity
  8
7
100
AcDbLine
 10
18.59873100479539
 20
11.49958005127287
 30
0.0
 11
18.68731368196075
 21
11.45036745284767
 31
0.0
  0
LINE
  5
46A3
330
1E
100
AcDbEntity
  8
7
100
AcDbLine
 10
16.64006958747256
 20
11.67674540560358
 30
0.0
 11
16.57117194967728
 21
11.59800524812326
 31
0.0
  0
LINE
  5
46A4
330
1E
100
AcDbEntity
  8
7
100
AcDbLine
 10
16.57117194967728
 20
11.59800524812326
 30
0.0
 11
16.6006995087324
 21
11.49958005127287
 31
0.0
  0
LINE
  5
46A5
330
1E
100
AcDbEntity
  8
7
100
AcDbLine
 10
16.6006995087324
 20
11.49958005127287
 30
0.0
 11
16.68928218589775
 21
11.45036745284767
 31
0.0
  0
LINE
  5
46A6
330
1E
100
AcDbEntity
  8
7
100
AcDbLine
 10
16.68928218589775
 20
11.45036745284767
 30
0.0
 11
16.77786486306311
 21
11.49958005127287
 31
0.0
  0
LINE
  5
46A7
330
1E
100
AcDbEntity
  8
7
100
AcDbLine
 10
16.77786486306311
 20
11.49958005127287
 30
0.0
 11
16.80739242211822
 21
11.59800524812326
 31
0.0
  0
LINE
  5
46A8
330
1E
100
AcDbEntity
  8
7
100
AcDbLine
 10
16.80739242211822
 20
11.59800524812326
 30
0.0
 11
16.73849478432296
 21
11.67674540560358
 31
0.0
  0
LINE
  5
46A9
330
1E
100
AcDbEntity
  8
7
100
AcDbLine
 10
16.73849478432296
 20
11.67674540560358
 30
0.0
 11
16.64006958747256
 21
11.67674540560358
 31
0.0
  0
LINE
  5
46AA
330
1E
100
AcDbEntity
  8
7
100
AcDbLine
 10
17.02392785518909
 20
12.97595800402878
 30
0.0
 11
16.89597509928359
 21
12.7298950119028
 31
0.0
  0
LINE
  5
46AB
330
1E
100
AcDbEntity
  8
7
100
AcDbLine
 10
16.89597509928359
 20
12.7298950119028
 30
0.0
 11
16.85660502054343
 21
12.46414698040673
 31
0.0
  0
LINE
  5
46AC
330
1E
100
AcDbEntity
  8
7
100
AcDbLine
 10
16.85660502054343
 20
12.46414698040673
 30
0.0
 11
16.89597509928359
 21
12.19839894891067
 31
0.0
  0
LINE
  5
46AD
330
1E
100
AcDbEntity
  8
7
100
AcDbLine
 10
16.89597509928359
 20
12.19839894891067
 30
0.0
 11
17.02392785518909
 21
11.95233595678469
 31
0.0
  0
LINE
  5
46AE
330
1E
100
AcDbEntity
  8
7
100
AcDbLine
 10
17.02392785518909
 20
11.95233595678469
 30
0.0
 11
17.21093572920485
 21
11.76532808276895
 31
0.0
  0
LINE
  5
46AF
330
1E
100
AcDbEntity
  8
7
100
AcDbLine
 10
17.21093572920485
 20
11.76532808276895
 30
0.0
 11
17.45699872133082
 21
11.63737532686343
 31
0.0
  0
LINE
  5
46B0
330
1E
100
AcDbEntity
  8
7
100
AcDbLine
 10
17.45699872133082
 20
11.63737532686343
 30
0.0
 11
17.72274675282689
 21
11.59800524812326
 31
0.0
  0
LINE
  5
46B1
330
1E
100
AcDbEntity
  8
7
100
AcDbLine
 10
17.72274675282689
 20
11.59800524812326
 30
0.0
 11
17.98849478432295
 21
11.63737532686343
 31
0.0
  0
LINE
  5
46B2
330
1E
100
AcDbEntity
  8
7
100
AcDbLine
 10
17.98849478432295
 20
11.63737532686343
 30
0.0
 11
18.23455777644894
 21
11.76532808276895
 31
0.0
  0
LINE
  5
46B3
330
1E
100
AcDbEntity
  8
7
100
AcDbLine
 10
18.23455777644894
 20
11.76532808276895
 30
0.0
 11
18.42156565046469
 21
11.95233595678469
 31
0.0
  0
LINE
  5
46B4
330
1E
100
AcDbEntity
  8
7
100
AcDbLine
 10
18.42156565046469
 20
11.95233595678469
 30
0.0
 11
18.5495184063702
 21
12.19839894891067
 31
0.0
  0
LINE
  5
46B5
330
1E
100
AcDbEntity
  8
7
100
AcDbLine
 10
18.5495184063702
 20
12.19839894891067
 30
0.0
 11
18.58888848511035
 21
12.46414698040673
 31
0.0
  0
LINE
  5
46B6
330
1E
100
AcDbEntity
  8
7
100
AcDbLine
 10
18.58888848511035
 20
12.46414698040673
 30
0.0
 11
18.5495184063702
 21
12.7298950119028
 31
0.0
  0
LINE
  5
46B7
330
1E
100
AcDbEntity
  8
7
100
AcDbLine
 10
18.5495184063702
 20
12.7298950119028
 30
0.0
 11
18.42156565046469
 21
12.97595800402878
 31
0.0
  0
LINE
  5
46B8
330
1E
100
AcDbEntity
  8
7
100
AcDbLine
 10
18.42156565046469
 20
12.97595800402878
 30
0.0
 11
18.23455777644894
 21
13.16296587804452
 31
0.0
  0
LINE
  5
46B9
330
1E
100
AcDbEntity
  8
7
100
AcDbLine
 10
18.23455777644894
 20
13.16296587804452
 30
0.0
 11
17.98849478432295
 21
13.29091863395004
 31
0.0
  0
LINE
  5
46BA
330
1E
100
AcDbEntity
  8
7
100
AcDbLine
 10
17.98849478432295
 20
13.29091863395004
 30
0.0
 11
17.72274675282689
 21
13.33028871269021
 31
0.0
  0
LINE
  5
46BB
330
1E
100
AcDbEntity
  8
7
100
AcDbLine
 10
17.72274675282689
 20
13.33028871269021
 30
0.0
 11
17.45699872133082
 21
13.29091863395004
 31
0.0
  0
LINE
  5
46BC
330
1E
100
AcDbEntity
  8
7
100
AcDbLine
 10
17.45699872133082
 20
13.29091863395004
 30
0.0
 11
17.21093572920485
 21
13.16296587804452
 31
0.0
  0
LINE
  5
46BD
330
1E
100
AcDbEntity
  8
7
100
AcDbLine
 10
17.21093572920485
 20
13.16296587804452
 30
0.0
 11
17.02392785518909
 21
12.97595800402878
 31
0.0
  0
LINE
  5
46BE
330
1E
100
AcDbEntity
  8
7
100
AcDbLine
 10
18.23455777644894
 20
8.035013122139027
 30
0.0
 11
17.98849478432295
 21
8.162965878044527
 31
0.0
  0
LINE
  5
46BF
330
1E
100
AcDbEntity
  8
7
100
AcDbLine
 10
17.98849478432295
 20
8.162965878044527
 30
0.0
 11
17.72274675282689
 21
8.202335956784693
 31
0.0
  0
LINE
  5
46C0
330
1E
100
AcDbEntity
  8
7
100
AcDbLine
 10
17.72274675282689
 20
8.202335956784693
 30
0.0
 11
17.45699872133082
 21
8.162965878044527
 31
0.0
  0
LINE
  5
46C1
330
1E
100
AcDbEntity
  8
7
100
AcDbLine
 10
17.45699872133082
 20
8.162965878044527
 30
0.0
 11
17.21093572920485
 21
8.035013122139027
 31
0.0
  0
LINE
  5
46C2
330
1E
100
AcDbEntity
  8
7
100
AcDbLine
 10
17.21093572920485
 20
8.035013122139027
 30
0.0
 11
17.02392785518909
 21
7.848005248123268
 31
0.0
  0
LINE
  5
46C3
330
1E
100
AcDbEntity
  8
7
100
AcDbLine
 10
17.02392785518909
 20
7.848005248123268
 30
0.0
 11
16.89597509928359
 21
7.601942255997286
 31
0.0
  0
LINE
  5
46C4
330
1E
100
AcDbEntity
  8
7
100
AcDbLine
 10
16.89597509928359
 20
7.601942255997286
 30
0.0
 11
16.85660502054343
 21
7.33619422450123
 31
0.0
  0
LINE
  5
46C5
330
1E
100
AcDbEntity
  8
7
100
AcDbLine
 10
16.85660502054343
 20
7.33619422450123
 30
0.0
 11
16.89597509928359
 21
7.070446193005157
 31
0.0
  0
LINE
  5
46C6
330
1E
100
AcDbEntity
  8
7
100
AcDbLine
 10
16.89597509928359
 20
7.070446193005157
 30
0.0
 11
17.02392785518909
 21
6.824383200879175
 31
0.0
  0
LINE
  5
46C7
330
1E
100
AcDbEntity
  8
7
100
AcDbLine
 10
17.02392785518909
 20
6.824383200879175
 30
0.0
 11
17.21093572920485
 21
6.637375326863434
 31
0.0
  0
LINE
  5
46C8
330
1E
100
AcDbEntity
  8
7
100
AcDbLine
 10
17.21093572920485
 20
6.637375326863434
 30
0.0
 11
17.45699872133082
 21
6.509422570957916
 31
0.0
  0
LINE
  5
46C9
330
1E
100
AcDbEntity
  8
7
100
AcDbLine
 10
17.45699872133082
 20
6.509422570957916
 30
0.0
 11
17.72274675282689
 21
6.470052492217767
 31
0.0
  0
LINE
  5
46CA
330
1E
100
AcDbEntity
  8
7
100
AcDbLine
 10
17.72274675282689
 20
6.470052492217767
 30
0.0
 11
17.98849478432295
 21
6.509422570957916
 31
0.0
  0
LINE
  5
46CB
330
1E
100
AcDbEntity
  8
7
100
AcDbLine
 10
17.98849478432295
 20
6.509422570957916
 30
0.0
 11
18.23455777644894
 21
6.637375326863434
 31
0.0
  0
LINE
  5
46CC
330
1E
100
AcDbEntity
  8
7
100
AcDbLine
 10
18.23455777644894
 20
6.637375326863434
 30
0.0
 11
18.42156565046469
 21
6.824383200879175
 31
0.0
  0
LINE
  5
46CD
330
1E
100
AcDbEntity
  8
7
100
AcDbLine
 10
18.42156565046469
 20
6.824383200879175
 30
0.0
 11
18.5495184063702
 21
7.070446193005157
 31
0.0
  0
LINE
  5
46CE
330
1E
100
AcDbEntity
  8
7
100
AcDbLine
 10
18.5495184063702
 20
7.070446193005157
 30
0.0
 11
18.58888848511035
 21
7.33619422450123
 31
0.0
  0
LINE
  5
46CF
330
1E
100
AcDbEntity
  8
7
100
AcDbLine
 10
18.58888848511035
 20
7.33619422450123
 30
0.0
 11
18.5495184063702
 21
7.601942255997286
 31
0.0
  0
LINE
  5
46D0
330
1E
100
AcDbEntity
  8
7
100
AcDbLine
 10
18.5495184063702
 20
7.601942255997286
 30
0.0
 11
18.42156565046469
 21
7.848005248123268
 31
0.0
  0
LINE
  5
46D1
330
1E
100
AcDbEntity
  8
7
100
AcDbLine
 10
18.42156565046469
 20
7.848005248123268
 30
0.0
 11
18.23455777644894
 21
8.035013122139027
 31
0.0
  0
LINE
  5
46D2
330
1E
100
AcDbEntity
  8
7
100
AcDbLine
 10
16.89597509928359
 20
1.932650917414619
 30
0.0
 11
17.02392785518909
 21
1.686587925288637
 31
0.0
  0
LINE
  5
46D3
330
1E
100
AcDbEntity
  8
7
100
AcDbLine
 10
17.02392785518909
 20
1.686587925288637
 30
0.0
 11
17.21093572920485
 21
1.499580051272879
 31
0.0
  0
LINE
  5
46D4
330
1E
100
AcDbEntity
  8
7
100
AcDbLine
 10
17.21093572920485
 20
1.499580051272879
 30
0.0
 11
17.45699872133082
 21
1.37162729536736
 31
0.0
  0
LINE
  5
46D5
330
1E
100
AcDbEntity
  8
7
100
AcDbLine
 10
17.45699872133082
 20
1.37162729536736
 30
0.0
 11
17.72274675282689
 21
1.332257216627212
 31
0.0
  0
LINE
  5
46D6
330
1E
100
AcDbEntity
  8
7
100
AcDbLine
 10
18.23455777644894
 20
1.499580051272879
 30
0.0
 11
18.42156565046469
 21
1.686587925288637
 31
0.0
  0
LINE
  5
46D7
330
1E
100
AcDbEntity
  8
7
100
AcDbLine
 10
18.42156565046469
 20
1.686587925288637
 30
0.0
 11
18.5495184063702
 21
1.932650917414619
 31
0.0
  0
LINE
  5
46D8
330
1E
100
AcDbEntity
  8
7
100
AcDbLine
 10
18.5495184063702
 20
1.932650917414619
 30
0.0
 11
18.58888848511035
 21
2.198398948910675
 31
0.0
  0
LINE
  5
46D9
330
1E
100
AcDbEntity
  8
7
100
AcDbLine
 10
18.58888848511035
 20
2.198398948910675
 30
0.0
 11
18.5495184063702
 21
2.464146980406731
 31
0.0
  0
LINE
  5
46DA
330
1E
100
AcDbEntity
  8
7
100
AcDbLine
 10
18.5495184063702
 20
2.464146980406731
 30
0.0
 11
18.42156565046469
 21
2.71020997253273
 31
0.0
  0
LINE
  5
46DB
330
1E
100
AcDbEntity
  8
7
100
AcDbLine
 10
18.42156565046469
 20
2.71020997253273
 30
0.0
 11
18.23455777644894
 21
2.897217846548471
 31
0.0
  0
LINE
  5
46DC
330
1E
100
AcDbEntity
  8
7
100
AcDbLine
 10
18.23455777644894
 20
2.897217846548471
 30
0.0
 11
17.98849478432295
 21
3.025170602453989
 31
0.0
  0
LINE
  5
46DD
330
1E
100
AcDbEntity
  8
7
100
AcDbLine
 10
17.98849478432295
 20
3.025170602453989
 30
0.0
 11
17.72274675282689
 21
3.064540681194138
 31
0.0
  0
LINE
  5
46DE
330
1E
100
AcDbEntity
  8
7
100
AcDbLine
 10
17.72274675282689
 20
3.064540681194138
 30
0.0
 11
17.45699872133082
 21
3.025170602453989
 31
0.0
  0
LINE
  5
46DF
330
1E
100
AcDbEntity
  8
7
100
AcDbLine
 10
17.45699872133082
 20
3.025170602453989
 30
0.0
 11
17.21093572920485
 21
2.897217846548471
 31
0.0
  0
LINE
  5
46E0
330
1E
100
AcDbEntity
  8
7
100
AcDbLine
 10
17.21093572920485
 20
2.897217846548471
 30
0.0
 11
17.02392785518909
 21
2.71020997253273
 31
0.0
  0
LINE
  5
46E1
330
1E
100
AcDbEntity
  8
7
100
AcDbLine
 10
17.02392785518909
 20
2.71020997253273
 30
0.0
 11
16.89597509928359
 21
2.464146980406731
 31
0.0
  0
LINE
  5
46E2
330
1E
100
AcDbEntity
  8
7
100
AcDbLine
 10
16.89597509928359
 20
2.464146980406731
 30
0.0
 11
16.85660502054343
 21
2.198398948910675
 31
0.0
  0
LINE
  5
46E3
330
1E
100
AcDbEntity
  8
7
100
AcDbLine
 10
16.85660502054343
 20
2.198398948910675
 30
0.0
 11
16.89597509928359
 21
1.932650917414619
 31
0.0
  0
LINE
  5
46E4
330
1E
100
AcDbEntity
  8
7
100
AcDbLine
 10
17.72274675282689
 20
1.332257216627212
 30
0.0
 11
17.98849478432295
 21
1.37162729536736
 31
0.0
  0
LINE
  5
46E5
330
1E
100
AcDbEntity
  8
7
100
AcDbLine
 10
17.98849478432295
 20
1.37162729536736
 30
0.0
 11
18.23455777644894
 21
1.499580051272879
 31
0.0
  0
LINE
  5
46E6
330
1E
100
AcDbEntity
  8
7
100
AcDbLine
 10
17.45699872133082
 20
-2.102782153451528
 30
0.0
 11
17.21093572920485
 21
-2.230734909357046
 31
0.0
  0
LINE
  5
46E7
330
1E
100
AcDbEntity
  8
7
100
AcDbLine
 10
17.21093572920485
 20
-2.230734909357046
 30
0.0
 11
17.02392785518909
 21
-2.417742783372787
 31
0.0
  0
LINE
  5
46E8
330
1E
100
AcDbEntity
  8
7
100
AcDbLine
 10
17.02392785518909
 20
-2.417742783372787
 30
0.0
 11
16.89597509928359
 21
-2.663805775498769
 31
0.0
  0
LINE
  5
46E9
330
1E
100
AcDbEntity
  8
7
100
AcDbLine
 10
16.89597509928359
 20
-2.663805775498769
 30
0.0
 11
16.85660502054343
 21
-2.929553806994842
 31
0.0
  0
LINE
  5
46EA
330
1E
100
AcDbEntity
  8
7
100
AcDbLine
 10
16.85660502054343
 20
-2.929553806994842
 30
0.0
 11
16.89597509928359
 21
-3.195301838490898
 31
0.0
  0
LINE
  5
46EB
330
1E
100
AcDbEntity
  8
7
100
AcDbLine
 10
16.89597509928359
 20
-3.195301838490898
 30
0.0
 11
17.02392785518909
 21
-3.44136483061688
 31
0.0
  0
LINE
  5
46EC
330
1E
100
AcDbEntity
  8
7
100
AcDbLine
 10
17.02392785518909
 20
-3.44136483061688
 30
0.0
 11
17.21093572920485
 21
-3.628372704632639
 31
0.0
  0
LINE
  5
46ED
330
1E
100
AcDbEntity
  8
7
100
AcDbLine
 10
17.21093572920485
 20
-3.628372704632639
 30
0.0
 11
17.45699872133082
 21
-3.756325460538143
 31
0.0
  0
LINE
  5
46EE
330
1E
100
AcDbEntity
  8
7
100
AcDbLine
 10
17.45699872133082
 20
-3.756325460538143
 30
0.0
 11
17.72274675282689
 21
-3.795695539278302
 31
0.0
  0
LINE
  5
46EF
330
1E
100
AcDbEntity
  8
7
100
AcDbLine
 10
17.72274675282689
 20
-3.795695539278302
 30
0.0
 11
17.98849478432295
 21
-3.756325460538143
 31
0.0
  0
LINE
  5
46F0
330
1E
100
AcDbEntity
  8
7
100
AcDbLine
 10
17.98849478432295
 20
-3.756325460538143
 30
0.0
 11
18.23455777644894
 21
-3.628372704632639
 31
0.0
  0
LINE
  5
46F1
330
1E
100
AcDbEntity
  8
7
100
AcDbLine
 10
18.23455777644894
 20
-3.628372704632639
 30
0.0
 11
18.42156565046469
 21
-3.44136483061688
 31
0.0
  0
LINE
  5
46F2
330
1E
100
AcDbEntity
  8
7
100
AcDbLine
 10
18.42156565046469
 20
-3.44136483061688
 30
0.0
 11
18.5495184063702
 21
-3.195301838490898
 31
0.0
  0
LINE
  5
46F3
330
1E
100
AcDbEntity
  8
7
100
AcDbLine
 10
18.5495184063702
 20
-3.195301838490898
 30
0.0
 11
18.58888848511035
 21
-2.929553806994842
 31
0.0
  0
LINE
  5
46F4
330
1E
100
AcDbEntity
  8
7
100
AcDbLine
 10
18.58888848511035
 20
-2.929553806994842
 30
0.0
 11
18.5495184063702
 21
-2.663805775498769
 31
0.0
  0
LINE
  5
46F5
330
1E
100
AcDbEntity
  8
7
100
AcDbLine
 10
18.5495184063702
 20
-2.663805775498769
 30
0.0
 11
18.42156565046469
 21
-2.417742783372787
 31
0.0
  0
LINE
  5
46F6
330
1E
100
AcDbEntity
  8
7
100
AcDbLine
 10
18.42156565046469
 20
-2.417742783372787
 30
0.0
 11
18.23455777644894
 21
-2.230734909357046
 31
0.0
  0
LINE
  5
46F7
330
1E
100
AcDbEntity
  8
7
100
AcDbLine
 10
18.23455777644894
 20
-2.230734909357046
 30
0.0
 11
17.98849478432295
 21
-2.102782153451528
 31
0.0
  0
LINE
  5
46F8
330
1E
100
AcDbEntity
  8
7
100
AcDbLine
 10
17.98849478432295
 20
-2.102782153451528
 30
0.0
 11
17.72274675282689
 21
-2.063412074711362
 31
0.0
  0
LINE
  5
46F9
330
1E
100
AcDbEntity
  8
7
100
AcDbLine
 10
17.72274675282689
 20
-2.063412074711362
 30
0.0
 11
17.45699872133082
 21
-2.102782153451528
 31
0.0
  0
LINE
  5
46FA
330
1E
100
AcDbEntity
  8
7
100
AcDbLine
 10
19.60266801266941
 20
16.95233595678469
 30
0.0
 11
15.77392785518909
 21
16.95233595678469
 31
0.0
  0
LINE
  5
46FB
330
1E
100
AcDbEntity
  8
7
100
AcDbLine
 10
15.77392785518909
 20
16.95233595678469
 30
0.0
 11
15.77392785518909
 21
-7.417742783372787
 31
0.0
  0
LINE
  5
46FC
330
1E
100
AcDbEntity
  8
7
100
AcDbLine
 10
17.72274675282689
 20
4.855879263871305
 30
0.0
 11
17.64400659534658
 21
4.816509185131156
 31
0.0
  0
LINE
  5
46FD
330
1E
100
AcDbEntity
  8
7
100
AcDbLine
 10
17.64400659534658
 20
4.816509185131156
 30
0.0
 11
17.64400659534658
 21
4.727926507965786
 31
0.0
  0
LINE
  5
46FE
330
1E
100
AcDbEntity
  8
7
100
AcDbLine
 10
17.64400659534658
 20
4.727926507965786
 30
0.0
 11
17.72274675282689
 21
4.678713909540601
 31
0.0
  0
LINE
  5
46FF
330
1E
100
AcDbEntity
  8
7
100
AcDbLine
 10
17.72274675282689
 20
4.678713909540601
 30
0.0
 11
17.8014869103072
 21
4.718083988280749
 31
0.0
  0
LINE
  5
4700
330
1E
100
AcDbEntity
  8
7
100
AcDbLine
 10
17.8014869103072
 20
4.718083988280749
 30
0.0
 11
17.8014869103072
 21
4.806666665446101
 31
0.0
  0
LINE
  5
4701
330
1E
100
AcDbEntity
  8
7
100
AcDbLine
 10
17.8014869103072
 20
4.806666665446101
 30
0.0
 11
17.72274675282689
 21
4.855879263871305
 31
0.0
  0
LINE
  5
4702
330
1E
100
AcDbEntity
  8
7
100
AcDbLine
 10
19.63219557172453
 20
16.95233595678469
 30
0.0
 11
19.62235305203948
 21
16.97202099615476
 31
0.0
  0
LINE
  5
4703
330
1E
100
AcDbEntity
  8
7
100
AcDbLine
 10
19.62235305203948
 20
16.97202099615476
 30
0.0
 11
19.60266801266941
 21
16.9818635158398
 31
0.0
  0
LINE
  5
4704
330
1E
100
AcDbEntity
  8
7
100
AcDbLine
 10
15.77392785518909
 20
17.04091863395004
 30
0.0
 11
15.71487273707885
 21
17.01139107489493
 31
0.0
  0
LINE
  5
4705
330
1E
100
AcDbEntity
  8
7
100
AcDbLine
 10
15.71487273707885
 20
17.01139107489493
 30
0.0
 11
15.68534517802374
 21
16.95233595678469
 31
0.0
  0
LINE
  5
4706
330
1E
100
AcDbEntity
  8
7
100
AcDbLine
 10
19.69125068983476
 20
16.95233595678469
 30
0.0
 11
19.66172313077964
 21
17.01139107489493
 31
0.0
  0
LINE
  5
4707
330
1E
100
AcDbEntity
  8
7
100
AcDbLine
 10
19.66172313077964
 20
17.01139107489493
 30
0.0
 11
19.60266801266941
 21
17.04091863395004
 31
0.0
  0
LINE
  5
4708
330
1E
100
AcDbEntity
  8
7
100
AcDbLine
 10
19.60266801266941
 20
-7.506325460538143
 30
0.0
 11
19.66172313077964
 21
-7.476797901483024
 31
0.0
  0
LINE
  5
4709
330
1E
100
AcDbEntity
  8
7
100
AcDbLine
 10
19.66172313077964
 20
-7.476797901483024
 30
0.0
 11
19.69125068983476
 21
-7.417742783372787
 31
0.0
  0
LINE
  5
470A
330
1E
100
AcDbEntity
  8
7
100
AcDbLine
 10
15.68534517802374
 20
-7.417742783372787
 30
0.0
 11
15.71487273707885
 21
-7.476797901483024
 31
0.0
  0
LINE
  5
470B
330
1E
100
AcDbEntity
  8
7
100
AcDbLine
 10
15.71487273707885
 20
-7.476797901483024
 30
0.0
 11
15.77392785518909
 21
-7.506325460538143
 31
0.0
  0
LINE
  5
470C
330
1E
100
AcDbEntity
  8
7
100
AcDbLine
 10
15.74440029613397
 20
-7.417742783372787
 30
0.0
 11
15.75424281581901
 21
-7.437427822742865
 31
0.0
  0
LINE
  5
470D
330
1E
100
AcDbEntity
  8
7
100
AcDbLine
 10
15.75424281581901
 20
-7.437427822742865
 30
0.0
 11
15.77392785518909
 21
-7.447270342427907
 31
0.0
  0
LINE
  5
470E
330
1E
100
AcDbEntity
  8
7
100
AcDbLine
 10
19.60266801266941
 20
-7.447270342427907
 30
0.0
 11
19.62235305203948
 21
-7.437427822742865
 31
0.0
  0
LINE
  5
470F
330
1E
100
AcDbEntity
  8
7
100
AcDbLine
 10
19.62235305203948
 20
-7.437427822742865
 30
0.0
 11
19.63219557172453
 21
-7.417742783372787
 31
0.0
  0
LINE
  5
4710
330
1E
100
AcDbEntity
  8
7
100
AcDbLine
 10
17.72274675282689
 20
4.895249342611471
 30
0.0
 11
17.62432155597649
 21
4.846036744186267
 31
0.0
  0
LINE
  5
4711
330
1E
100
AcDbEntity
  8
7
100
AcDbLine
 10
17.62432155597649
 20
4.846036744186267
 30
0.0
 11
17.59479399692138
 21
4.737769027650841
 31
0.0
  0
LINE
  5
4712
330
1E
100
AcDbEntity
  8
7
100
AcDbLine
 10
17.59479399692138
 20
4.737769027650841
 30
0.0
 11
17.66369163471665
 21
4.649186350485472
 31
0.0
  0
LINE
  5
4713
330
1E
100
AcDbEntity
  8
7
100
AcDbLine
 10
17.66369163471665
 20
4.649186350485472
 30
0.0
 11
17.78180187093712
 21
4.649186350485472
 31
0.0
  0
LINE
  5
4714
330
1E
100
AcDbEntity
  8
7
100
AcDbLine
 10
17.78180187093712
 20
4.649186350485472
 30
0.0
 11
17.8506995087324
 21
4.737769027650841
 31
0.0
  0
LINE
  5
4715
330
1E
100
AcDbEntity
  8
7
100
AcDbLine
 10
17.8506995087324
 20
4.737769027650841
 30
0.0
 11
17.82117194967728
 21
4.846036744186267
 31
0.0
  0
LINE
  5
4716
330
1E
100
AcDbEntity
  8
7
100
AcDbLine
 10
17.82117194967728
 20
4.846036744186267
 30
0.0
 11
17.72274675282689
 21
4.895249342611471
 31
0.0
  0
LINE
  5
4717
330
1E
100
AcDbEntity
  8
7
100
AcDbLine
 10
19.71093572920484
 20
15.54485564182406
 30
0.0
 11
19.73062076857491
 21
15.5546981615091
 31
0.0
  0
LINE
  5
4718
330
1E
100
AcDbEntity
  8
7
100
AcDbLine
 10
19.73062076857491
 20
15.5546981615091
 30
0.0
 11
19.74046328825995
 21
15.57438320087917
 31
0.0
  0
LINE
  5
4719
330
1E
100
AcDbEntity
  8
7
100
AcDbLine
 10
19.74046328825995
 20
15.76139107489493
 30
0.0
 11
19.73062076857491
 21
15.781076114265
 31
0.0
  0
LINE
  5
471A
330
1E
100
AcDbEntity
  8
7
100
AcDbLine
 10
19.73062076857491
 20
15.781076114265
 30
0.0
 11
19.71093572920484
 21
15.79091863395004
 31
0.0
  0
LINE
  5
471B
330
1E
100
AcDbEntity
  8
7
100
AcDbLine
 10
19.71093572920484
 20
4.639343830800434
 30
0.0
 11
19.73062076857491
 21
4.649186350485472
 31
0.0
  0
LINE
  5
471C
330
1E
100
AcDbEntity
  8
7
100
AcDbLine
 10
19.73062076857491
 20
4.649186350485472
 30
0.0
 11
19.74046328825995
 21
4.668871389855564
 31
0.0
  0
LINE
  5
471D
330
1E
100
AcDbEntity
  8
7
100
AcDbLine
 10
19.74046328825995
 20
4.865721783556342
 30
0.0
 11
19.73062076857491
 21
4.885406822926416
 31
0.0
  0
LINE
  5
471E
330
1E
100
AcDbEntity
  8
7
100
AcDbLine
 10
19.73062076857491
 20
4.885406822926416
 30
0.0
 11
19.71093572920484
 21
4.895249342611471
 31
0.0
  0
LINE
  5
471F
330
1E
100
AcDbEntity
  8
7
100
AcDbLine
 10
19.71093572920484
 20
-6.256325460538143
 30
0.0
 11
19.73062076857491
 21
-6.246482940853105
 31
0.0
  0
LINE
  5
4720
330
1E
100
AcDbEntity
  8
7
100
AcDbLine
 10
19.73062076857491
 20
-6.246482940853105
 30
0.0
 11
19.74046328825995
 21
-6.226797901483024
 31
0.0
  0
LINE
  5
4721
330
1E
100
AcDbEntity
  8
7
100
AcDbLine
 10
19.74046328825995
 20
-6.039790027467272
 30
0.0
 11
19.73062076857491
 21
-6.020104988097198
 31
0.0
  0
LINE
  5
4722
330
1E
100
AcDbEntity
  8
7
100
AcDbLine
 10
19.73062076857491
 20
-6.020104988097198
 30
0.0
 11
19.71093572920484
 21
-6.010262468412154
 31
0.0
  0
LINE
  5
4826
330
1E
100
AcDbEntity
  8
7
100
AcDbLine
 10
-8.77331623929909
 20
29.3539107599343
 30
0.0
 11
-8.812686318039247
 21
29.3539107599343
 31
0.0
  0
LINE
  5
4827
330
1E
100
AcDbEntity
  8
7
100
AcDbLine
 10
-8.812686318039247
 20
29.3539107599343
 30
0.0
 11
-8.901268995204599
 21
29.3539107599343
 31
0.0
  0
LINE
  5
4828
330
1E
100
AcDbEntity
  8
7
100
AcDbLine
 10
-8.901268995204599
 20
29.3539107599343
 30
0.0
 11
-8.989851672369956
 21
29.3539107599343
 31
0.0
  0
LINE
  5
4829
330
1E
100
AcDbEntity
  8
7
100
AcDbLine
 10
-8.989851672369956
 20
29.3539107599343
 30
0.0
 11
-9.029221751110114
 21
29.3539107599343
 31
0.0
  0
LINE
  5
482A
330
1E
100
AcDbEntity
  8
7
100
AcDbLine
 10
-8.999694192054993
 20
29.38343831898941
 30
0.0
 11
-8.950481593629799
 21
29.38343831898941
 31
0.0
  0
LINE
  5
482B
330
1E
100
AcDbEntity
  8
7
100
AcDbLine
 10
-8.950481593629799
 20
29.38343831898941
 30
0.0
 11
-8.852056396779405
 21
29.38343831898941
 31
0.0
  0
LINE
  5
482C
330
1E
100
AcDbEntity
  8
7
100
AcDbLine
 10
-8.852056396779405
 20
29.38343831898941
 30
0.0
 11
-8.812686318039247
 21
29.38343831898941
 31
0.0
  0
LINE
  5
482D
330
1E
100
AcDbEntity
  8
7
100
AcDbLine
 10
4.464872737078863
 20
29.3539107599343
 30
0.0
 11
4.425502658338706
 21
29.3539107599343
 31
0.0
  0
LINE
  5
482E
330
1E
100
AcDbEntity
  8
7
100
AcDbLine
 10
4.425502658338706
 20
29.3539107599343
 30
0.0
 11
4.336919981173348
 21
29.3539107599343
 31
0.0
  0
LINE
  5
482F
330
1E
100
AcDbEntity
  8
7
100
AcDbLine
 10
4.336919981173348
 20
29.3539107599343
 30
0.0
 11
4.248337304007996
 21
29.3539107599343
 31
0.0
  0
LINE
  5
4830
330
1E
100
AcDbEntity
  8
7
100
AcDbLine
 10
4.248337304007996
 20
29.3539107599343
 30
0.0
 11
4.208967225267839
 21
29.3539107599343
 31
0.0
  0
LINE
  5
4831
330
1E
100
AcDbEntity
  8
7
100
AcDbLine
 10
4.238494784322956
 20
29.38343831898941
 30
0.0
 11
4.287707382748154
 21
29.38343831898941
 31
0.0
  0
LINE
  5
4832
330
1E
100
AcDbEntity
  8
7
100
AcDbLine
 10
4.287707382748154
 20
29.38343831898941
 30
0.0
 11
4.386132579598548
 21
29.38343831898941
 31
0.0
  0
LINE
  5
4833
330
1E
100
AcDbEntity
  8
7
100
AcDbLine
 10
4.386132579598548
 20
29.38343831898941
 30
0.0
 11
4.435345178023743
 21
29.38343831898941
 31
0.0
  0
LINE
  5
4834
330
1E
100
AcDbEntity
  8
7
100
AcDbLine
 10
0.2522743118820112
 20
28.29091863395004
 30
0.0
 11
0.0062113197560296
 21
28.47792650796579
 31
0.0
  0
LINE
  5
4835
330
1E
100
AcDbEntity
  8
7
100
AcDbLine
 10
0.0062113197560296
 20
28.47792650796579
 30
0.0
 11
-0.2890642707951554
 21
28.57635170481619
 31
0.0
  0
LINE
  5
4836
330
1E
100
AcDbEntity
  8
7
100
AcDbLine
 10
-0.2890642707951554
 20
28.57635170481619
 30
0.0
 11
-0.6040249007164147
 21
28.57635170481619
 31
0.0
  0
LINE
  5
4837
330
1E
100
AcDbEntity
  8
7
100
AcDbLine
 10
-0.6040249007164147
 20
28.57635170481619
 30
0.0
 11
-0.8993004912675953
 21
28.47792650796579
 31
0.0
  0
LINE
  5
4838
330
1E
100
AcDbEntity
  8
7
100
AcDbLine
 10
-0.8993004912675953
 20
28.47792650796579
 30
0.0
 11
-1.145363483393576
 21
28.29091863395004
 31
0.0
  0
LINE
  5
4839
330
1E
100
AcDbEntity
  8
7
100
AcDbLine
 10
-0.4465445857557851
 20
26.59800524812327
 30
0.0
 11
-0.1611115148896416
 21
26.63737532686343
 31
0.0
  0
LINE
  5
483A
330
1E
100
AcDbEntity
  8
7
100
AcDbLine
 10
-0.1611115148896416
 20
26.63737532686343
 30
0.0
 11
0.1046365166064231
 21
26.76532808276895
 31
0.0
  0
LINE
  5
483B
330
1E
100
AcDbEntity
  8
7
100
AcDbLine
 10
0.1046365166064231
 20
26.76532808276895
 30
0.0
 11
0.3211719496772889
 21
26.96217847646973
 31
0.0
  0
LINE
  5
483C
330
1E
100
AcDbEntity
  8
7
100
AcDbLine
 10
0.3211719496772889
 20
26.96217847646973
 30
0.0
 11
0.468809744952877
 21
27.20824146859571
 31
0.0
  0
LINE
  5
483D
330
1E
100
AcDbEntity
  8
7
100
AcDbLine
 10
0.468809744952877
 20
27.20824146859571
 30
0.0
 11
0.5475499024331918
 21
27.49367453946186
 31
0.0
  0
LINE
  5
483E
330
1E
100
AcDbEntity
  8
7
100
AcDbLine
 10
0.5475499024331918
 20
27.49367453946186
 30
0.0
 11
0.5278648630631131
 21
27.78895013001304
 31
0.0
  0
LINE
  5
483F
330
1E
100
AcDbEntity
  8
7
100
AcDbLine
 10
0.5278648630631131
 20
27.78895013001304
 30
0.0
 11
0.4294396662127196
 21
28.06454068119414
 31
0.0
  0
LINE
  5
4840
330
1E
100
AcDbEntity
  8
7
100
AcDbLine
 10
0.4294396662127196
 20
28.06454068119414
 30
0.0
 11
0.2522743118820112
 21
28.29091863395004
 31
0.0
  0
LINE
  5
4841
330
1E
100
AcDbEntity
  8
7
100
AcDbLine
 10
-1.361898916464442
 20
27.20824146859571
 30
0.0
 11
-1.214261121188854
 21
26.96217847646973
 31
0.0
  0
LINE
  5
4842
330
1E
100
AcDbEntity
  8
7
100
AcDbLine
 10
-1.214261121188854
 20
26.96217847646973
 30
0.0
 11
-0.9977256881179886
 21
26.76532808276895
 31
0.0
  0
LINE
  5
4843
330
1E
100
AcDbEntity
  8
7
100
AcDbLine
 10
-0.9977256881179886
 20
26.76532808276895
 30
0.0
 11
-0.7319776566219241
 21
26.63737532686343
 31
0.0
  0
LINE
  5
4844
330
1E
100
AcDbEntity
  8
7
100
AcDbLine
 10
-0.7319776566219241
 20
26.63737532686343
 30
0.0
 11
-0.4465445857557851
 21
26.59800524812327
 31
0.0
  0
LINE
  5
4845
330
1E
100
AcDbEntity
  8
7
100
AcDbLine
 10
-1.145363483393576
 20
28.29091863395004
 30
0.0
 11
-1.322528837724285
 21
28.06454068119414
 31
0.0
  0
LINE
  5
4846
330
1E
100
AcDbEntity
  8
7
100
AcDbLine
 10
-1.322528837724285
 20
28.06454068119414
 30
0.0
 11
-1.420954034574678
 21
27.78895013001304
 31
0.0
  0
LINE
  5
4847
330
1E
100
AcDbEntity
  8
7
100
AcDbLine
 10
-1.420954034574678
 20
27.78895013001304
 30
0.0
 11
-1.440639073944757
 21
27.49367453946186
 31
0.0
  0
LINE
  5
4848
330
1E
100
AcDbEntity
  8
7
100
AcDbLine
 10
-1.440639073944757
 20
27.49367453946186
 30
0.0
 11
-1.361898916464442
 21
27.20824146859571
 31
0.0
  0
LINE
  5
4849
330
1E
100
AcDbEntity
  8
7
100
AcDbLine
 10
-4.88552096370854
 20
26.96217847646973
 30
0.0
 11
-4.668985530637673
 21
26.76532808276895
 31
0.0
  0
LINE
  5
484A
330
1E
100
AcDbEntity
  8
7
100
AcDbLine
 10
-4.668985530637673
 20
26.76532808276895
 30
0.0
 11
-4.403237499141608
 21
26.63737532686343
 31
0.0
  0
LINE
  5
484B
330
1E
100
AcDbEntity
  8
7
100
AcDbLine
 10
-4.403237499141608
 20
26.63737532686343
 30
0.0
 11
-4.117804428275469
 21
26.59800524812327
 31
0.0
  0
LINE
  5
484C
330
1E
100
AcDbEntity
  8
7
100
AcDbLine
 10
-4.816623325913262
 20
28.29091863395004
 30
0.0
 11
-4.993788680243969
 21
28.06454068119414
 31
0.0
  0
LINE
  5
484D
330
1E
100
AcDbEntity
  8
7
100
AcDbLine
 10
-4.993788680243969
 20
28.06454068119414
 30
0.0
 11
-5.092213877094364
 21
27.78895013001304
 31
0.0
  0
LINE
  5
484E
330
1E
100
AcDbEntity
  8
7
100
AcDbLine
 10
-5.092213877094364
 20
27.78895013001304
 30
0.0
 11
-5.111898916464442
 21
27.49367453946186
 31
0.0
  0
LINE
  5
484F
330
1E
100
AcDbEntity
  8
7
100
AcDbLine
 10
-5.111898916464442
 20
27.49367453946186
 30
0.0
 11
-5.033158758984127
 21
27.20824146859571
 31
0.0
  0
LINE
  5
4850
330
1E
100
AcDbEntity
  8
7
100
AcDbLine
 10
-5.033158758984127
 20
27.20824146859571
 30
0.0
 11
-4.88552096370854
 21
26.96217847646973
 31
0.0
  0
LINE
  5
4851
330
1E
100
AcDbEntity
  8
7
100
AcDbLine
 10
-3.418985530637673
 20
28.29091863395004
 30
0.0
 11
-3.665048522763655
 21
28.47792650796579
 31
0.0
  0
LINE
  5
4852
330
1E
100
AcDbEntity
  8
7
100
AcDbLine
 10
-3.665048522763655
 20
28.47792650796579
 30
0.0
 11
-3.960324113314836
 21
28.57635170481619
 31
0.0
  0
LINE
  5
4853
330
1E
100
AcDbEntity
  8
7
100
AcDbLine
 10
-3.960324113314836
 20
28.57635170481619
 30
0.0
 11
-4.275284743236099
 21
28.57635170481619
 31
0.0
  0
LINE
  5
4854
330
1E
100
AcDbEntity
  8
7
100
AcDbLine
 10
-4.275284743236099
 20
28.57635170481619
 30
0.0
 11
-4.57056033378728
 21
28.47792650796579
 31
0.0
  0
LINE
  5
4855
330
1E
100
AcDbEntity
  8
7
100
AcDbLine
 10
-4.57056033378728
 20
28.47792650796579
 30
0.0
 11
-4.816623325913262
 21
28.29091863395004
 31
0.0
  0
LINE
  5
4856
330
1E
100
AcDbEntity
  8
7
100
AcDbLine
 10
-4.117804428275469
 20
26.59800524812327
 30
0.0
 11
-3.832371357409327
 21
26.63737532686343
 31
0.0
  0
LINE
  5
4857
330
1E
100
AcDbEntity
  8
7
100
AcDbLine
 10
-3.832371357409327
 20
26.63737532686343
 30
0.0
 11
-3.566623325913262
 21
26.76532808276895
 31
0.0
  0
LINE
  5
4858
330
1E
100
AcDbEntity
  8
7
100
AcDbLine
 10
-3.566623325913262
 20
26.76532808276895
 30
0.0
 11
-3.350087892842395
 21
26.96217847646973
 31
0.0
  0
LINE
  5
4859
330
1E
100
AcDbEntity
  8
7
100
AcDbLine
 10
-3.350087892842395
 20
26.96217847646973
 30
0.0
 11
-3.202450097566808
 21
27.20824146859571
 31
0.0
  0
LINE
  5
485A
330
1E
100
AcDbEntity
  8
7
100
AcDbLine
 10
-3.202450097566808
 20
27.20824146859571
 30
0.0
 11
-3.123709940086493
 21
27.49367453946186
 31
0.0
  0
LINE
  5
485B
330
1E
100
AcDbEntity
  8
7
100
AcDbLine
 10
-3.123709940086493
 20
27.49367453946186
 30
0.0
 11
-3.143394979456571
 21
27.78895013001304
 31
0.0
  0
LINE
  5
485C
330
1E
100
AcDbEntity
  8
7
100
AcDbLine
 10
-3.143394979456571
 20
27.78895013001304
 30
0.0
 11
-3.241820176306966
 21
28.06454068119414
 31
0.0
  0
LINE
  5
485D
330
1E
100
AcDbEntity
  8
7
100
AcDbLine
 10
-3.241820176306966
 20
28.06454068119414
 30
0.0
 11
-3.418985530637673
 21
28.29091863395004
 31
0.0
  0
LINE
  5
485E
330
1E
100
AcDbEntity
  8
7
100
AcDbLine
 10
4.750305807945002
 20
25.32832020875319
 30
0.0
 11
4.809360926055237
 21
25.3578477678083
 31
0.0
  0
LINE
  5
485F
330
1E
100
AcDbEntity
  8
7
100
AcDbLine
 10
4.809360926055237
 20
25.3578477678083
 30
0.0
 11
4.838888485110357
 21
25.41690288591854
 31
0.0
  0
LINE
  5
4860
330
1E
100
AcDbEntity
  8
7
100
AcDbLine
 10
4.750305807945002
 20
25.38737532686343
 30
0.0
 11
4.76999084731508
 21
25.39721784654847
 31
0.0
  0
LINE
  5
4861
330
1E
100
AcDbEntity
  8
7
100
AcDbLine
 10
4.76999084731508
 20
25.39721784654847
 30
0.0
 11
4.779833367000122
 21
25.41690288591854
 31
0.0
  0
LINE
  5
4862
330
1E
100
AcDbEntity
  8
7
100
AcDbLine
 10
4.779833367000122
 20
29.2554855630839
 30
0.0
 11
4.779833367000122
 21
25.41690288591854
 31
0.0
  0
LINE
  5
4863
330
1E
100
AcDbEntity
  8
7
100
AcDbLine
 10
4.779833367000122
 20
25.41690288591854
 30
0.0
 11
4.838888485110357
 21
25.41690288591854
 31
0.0
  0
LINE
  5
4864
330
1E
100
AcDbEntity
  8
7
100
AcDbLine
 10
4.691250689834765
 20
25.41690288591854
 30
0.0
 11
4.750305807945002
 21
25.41690288591854
 31
0.0
  0
LINE
  5
4865
330
1E
100
AcDbEntity
  8
7
100
AcDbLine
 10
4.750305807945002
 20
25.41690288591854
 30
0.0
 11
4.779833367000122
 21
25.41690288591854
 31
0.0
  0
LINE
  5
4866
330
1E
100
AcDbEntity
  8
7
100
AcDbLine
 10
4.691250689834765
 20
29.2554855630839
 30
0.0
 11
4.750305807945002
 21
29.2554855630839
 31
0.0
  0
LINE
  5
4867
330
1E
100
AcDbEntity
  8
7
100
AcDbLine
 10
4.750305807945002
 20
29.2554855630839
 30
0.0
 11
4.779833367000122
 21
29.2554855630839
 31
0.0
  0
LINE
  5
4868
330
1E
100
AcDbEntity
  8
7
100
AcDbLine
 10
2.535738878811145
 20
28.32044619300516
 30
0.0
 11
2.48652628038595
 21
28.35981627174532
 31
0.0
  0
LINE
  5
4869
330
1E
100
AcDbEntity
  8
7
100
AcDbLine
 10
2.48652628038595
 20
28.35981627174532
 30
0.0
 11
2.447156201645793
 21
28.32044619300516
 31
0.0
  0
LINE
  5
486A
330
1E
100
AcDbEntity
  8
7
100
AcDbLine
 10
2.447156201645793
 20
28.32044619300516
 30
0.0
 11
2.48652628038595
 21
28.28107611426501
 31
0.0
  0
LINE
  5
486B
330
1E
100
AcDbEntity
  8
7
100
AcDbLine
 10
2.48652628038595
 20
28.28107611426501
 30
0.0
 11
2.506211319756029
 21
28.30076115363508
 31
0.0
  0
LINE
  5
486C
330
1E
100
AcDbEntity
  8
7
100
AcDbLine
 10
2.338888485110358
 20
28.06454068119414
 30
0.0
 11
2.240463288259964
 21
27.78895013001304
 31
0.0
  0
LINE
  5
486D
330
1E
100
AcDbEntity
  8
7
100
AcDbLine
 10
2.240463288259964
 20
27.78895013001304
 30
0.0
 11
2.220778248889886
 21
27.49367453946186
 31
0.0
  0
LINE
  5
486E
330
1E
100
AcDbEntity
  8
7
100
AcDbLine
 10
2.220778248889886
 20
27.49367453946186
 30
0.0
 11
2.2995184063702
 21
27.20824146859571
 31
0.0
  0
LINE
  5
486F
330
1E
100
AcDbEntity
  8
7
100
AcDbLine
 10
2.2995184063702
 20
27.20824146859571
 30
0.0
 11
2.447156201645793
 21
26.96217847646973
 31
0.0
  0
LINE
  5
4870
330
1E
100
AcDbEntity
  8
7
100
AcDbLine
 10
2.447156201645793
 20
26.96217847646973
 30
0.0
 11
2.663691634716659
 21
26.76532808276895
 31
0.0
  0
LINE
  5
4871
330
1E
100
AcDbEntity
  8
7
100
AcDbLine
 10
2.663691634716659
 20
26.76532808276895
 30
0.0
 11
2.929439666212719
 21
26.63737532686343
 31
0.0
  0
LINE
  5
4872
330
1E
100
AcDbEntity
  8
7
100
AcDbLine
 10
2.929439666212719
 20
26.63737532686343
 30
0.0
 11
3.214872737078863
 21
26.59800524812327
 31
0.0
  0
LINE
  5
4873
330
1E
100
AcDbEntity
  8
7
100
AcDbLine
 10
3.913691634716659
 20
28.29091863395004
 30
0.0
 11
3.667628642590673
 21
28.47792650796579
 31
0.0
  0
LINE
  5
4874
330
1E
100
AcDbEntity
  8
7
100
AcDbLine
 10
3.667628642590673
 20
28.47792650796579
 30
0.0
 11
3.372353052039492
 21
28.57635170481619
 31
0.0
  0
LINE
  5
4875
330
1E
100
AcDbEntity
  8
7
100
AcDbLine
 10
3.372353052039492
 20
28.57635170481619
 30
0.0
 11
3.057392422118233
 21
28.57635170481619
 31
0.0
  0
LINE
  5
4876
330
1E
100
AcDbEntity
  8
7
100
AcDbLine
 10
3.057392422118233
 20
28.57635170481619
 30
0.0
 11
2.762116831567052
 21
28.47792650796579
 31
0.0
  0
LINE
  5
4877
330
1E
100
AcDbEntity
  8
7
100
AcDbLine
 10
2.762116831567052
 20
28.47792650796579
 30
0.0
 11
2.516053839441066
 21
28.29091863395004
 31
0.0
  0
LINE
  5
4878
330
1E
100
AcDbEntity
  8
7
100
AcDbLine
 10
4.189282185897761
 20
27.78895013001304
 30
0.0
 11
4.090856989047367
 21
28.06454068119414
 31
0.0
  0
LINE
  5
4879
330
1E
100
AcDbEntity
  8
7
100
AcDbLine
 10
4.090856989047367
 20
28.06454068119414
 30
0.0
 11
3.913691634716659
 21
28.29091863395004
 31
0.0
  0
LINE
  5
487A
330
1E
100
AcDbEntity
  8
7
100
AcDbLine
 10
3.214872737078863
 20
26.59800524812327
 30
0.0
 11
3.500305807945002
 21
26.63737532686343
 31
0.0
  0
LINE
  5
487B
330
1E
100
AcDbEntity
  8
7
100
AcDbLine
 10
3.500305807945002
 20
26.63737532686343
 30
0.0
 11
3.766053839441066
 21
26.76532808276895
 31
0.0
  0
LINE
  5
487C
330
1E
100
AcDbEntity
  8
7
100
AcDbLine
 10
3.766053839441066
 20
26.76532808276895
 30
0.0
 11
3.982589272511932
 21
26.96217847646973
 31
0.0
  0
LINE
  5
487D
330
1E
100
AcDbEntity
  8
7
100
AcDbLine
 10
3.982589272511932
 20
26.96217847646973
 30
0.0
 11
4.130227067787524
 21
27.20824146859571
 31
0.0
  0
LINE
  5
487E
330
1E
100
AcDbEntity
  8
7
100
AcDbLine
 10
4.130227067787524
 20
27.20824146859571
 30
0.0
 11
4.208967225267839
 21
27.49367453946186
 31
0.0
  0
LINE
  5
487F
330
1E
100
AcDbEntity
  8
7
100
AcDbLine
 10
4.208967225267839
 20
27.49367453946186
 30
0.0
 11
4.189282185897761
 21
27.78895013001304
 31
0.0
  0
LINE
  5
4880
330
1E
100
AcDbEntity
  8
7
100
AcDbLine
 10
3.943219193771775
 20
28.28107611426501
 30
0.0
 11
3.982589272511932
 21
28.32044619300516
 31
0.0
  0
LINE
  5
4881
330
1E
100
AcDbEntity
  8
7
100
AcDbLine
 10
3.982589272511932
 20
28.32044619300516
 30
0.0
 11
3.943219193771775
 21
28.35981627174532
 31
0.0
  0
LINE
  5
4882
330
1E
100
AcDbEntity
  8
7
100
AcDbLine
 10
3.943219193771775
 20
28.35981627174532
 30
0.0
 11
3.903849115031617
 21
28.32044619300516
 31
0.0
  0
LINE
  5
4883
330
1E
100
AcDbEntity
  8
7
100
AcDbLine
 10
3.903849115031617
 20
28.32044619300516
 30
0.0
 11
3.923534154401696
 21
28.30076115363508
 31
0.0
  0
LINE
  5
4884
330
1E
100
AcDbEntity
  8
7
100
AcDbLine
 10
3.185345178023742
 20
26.59800524812327
 30
0.0
 11
3.185345178023742
 21
26.53895013001304
 31
0.0
  0
LINE
  5
4885
330
1E
100
AcDbEntity
  8
7
100
AcDbLine
 10
3.185345178023742
 20
26.53895013001304
 30
0.0
 11
3.244400296133978
 21
26.53895013001304
 31
0.0
  0
LINE
  5
4886
330
1E
100
AcDbEntity
  8
7
100
AcDbLine
 10
3.244400296133978
 20
26.53895013001304
 30
0.0
 11
3.244400296133978
 21
26.59800524812327
 31
0.0
  0
LINE
  5
4887
330
1E
100
AcDbEntity
  8
7
100
AcDbLine
 10
3.244400296133978
 20
26.59800524812327
 30
0.0
 11
3.214872737078863
 21
26.59800524812327
 31
0.0
  0
LINE
  5
4888
330
1E
100
AcDbEntity
  8
7
100
AcDbLine
 10
4.779833367000122
 20
29.2554855630839
 30
0.0
 11
4.76999084731508
 21
29.27517060245399
 31
0.0
  0
LINE
  5
4889
330
1E
100
AcDbEntity
  8
7
100
AcDbLine
 10
4.76999084731508
 20
29.27517060245399
 30
0.0
 11
4.750305807945002
 21
29.28501312213903
 31
0.0
  0
LINE
  5
488A
330
1E
100
AcDbEntity
  8
7
100
AcDbLine
 10
-9.314654821976255
 20
29.28501312213903
 30
0.0
 11
-9.334339861346332
 21
29.27517060245399
 31
0.0
  0
LINE
  5
488B
330
1E
100
AcDbEntity
  8
7
100
AcDbLine
 10
-9.334339861346332
 20
29.27517060245399
 30
0.0
 11
-9.344182381031373
 21
29.2554855630839
 31
0.0
  0
LINE
  5
488C
330
1E
100
AcDbEntity
  8
7
100
AcDbLine
 10
-9.255599703866018
 20
25.41690288591854
 30
0.0
 11
-9.314654821976255
 21
25.41690288591854
 31
0.0
  0
LINE
  5
488D
330
1E
100
AcDbEntity
  8
7
100
AcDbLine
 10
-9.314654821976255
 20
25.41690288591854
 30
0.0
 11
-9.344182381031373
 21
25.41690288591854
 31
0.0
  0
LINE
  5
488E
330
1E
100
AcDbEntity
  8
7
100
AcDbLine
 10
-9.255599703866018
 20
29.2554855630839
 30
0.0
 11
-9.314654821976255
 21
29.2554855630839
 31
0.0
  0
LINE
  5
488F
330
1E
100
AcDbEntity
  8
7
100
AcDbLine
 10
-9.314654821976255
 20
29.2554855630839
 30
0.0
 11
-9.344182381031373
 21
29.2554855630839
 31
0.0
  0
LINE
  5
4890
330
1E
100
AcDbEntity
  8
7
100
AcDbLine
 10
-9.403237499141608
 20
25.41690288591854
 30
0.0
 11
-9.373709940086492
 21
25.3578477678083
 31
0.0
  0
LINE
  5
4891
330
1E
100
AcDbEntity
  8
7
100
AcDbLine
 10
-9.373709940086492
 20
25.3578477678083
 30
0.0
 11
-9.314654821976255
 21
25.32832020875319
 31
0.0
  0
LINE
  5
4892
330
1E
100
AcDbEntity
  8
7
100
AcDbLine
 10
-9.344182381031373
 20
25.41690288591854
 30
0.0
 11
-9.334339861346332
 21
25.39721784654847
 31
0.0
  0
LINE
  5
4893
330
1E
100
AcDbEntity
  8
7
100
AcDbLine
 10
-9.334339861346332
 20
25.39721784654847
 30
0.0
 11
-9.314654821976255
 21
25.38737532686343
 31
0.0
  0
LINE
  5
4894
330
1E
100
AcDbEntity
  8
7
100
AcDbLine
 10
-7.080402853472318
 20
28.29091863395004
 30
0.0
 11
-7.326465845598303
 21
28.47792650796579
 31
0.0
  0
LINE
  5
4895
330
1E
100
AcDbEntity
  8
7
100
AcDbLine
 10
-7.326465845598303
 20
28.47792650796579
 30
0.0
 11
-7.621741436149484
 21
28.57635170481619
 31
0.0
  0
LINE
  5
4896
330
1E
100
AcDbEntity
  8
7
100
AcDbLine
 10
-7.621741436149484
 20
28.57635170481619
 30
0.0
 11
-7.936702066070743
 21
28.57635170481619
 31
0.0
  0
LINE
  5
4897
330
1E
100
AcDbEntity
  8
7
100
AcDbLine
 10
-7.936702066070743
 20
28.57635170481619
 30
0.0
 11
-8.231977656621923
 21
28.47792650796579
 31
0.0
  0
LINE
  5
4898
330
1E
100
AcDbEntity
  8
7
100
AcDbLine
 10
-8.231977656621923
 20
28.47792650796579
 30
0.0
 11
-8.47804064874791
 21
28.29091863395004
 31
0.0
  0
LINE
  5
4899
330
1E
100
AcDbEntity
  8
7
100
AcDbLine
 10
-7.22804064874791
 20
26.76532808276895
 30
0.0
 11
-7.011505215677043
 21
26.96217847646973
 31
0.0
  0
LINE
  5
489A
330
1E
100
AcDbEntity
  8
7
100
AcDbLine
 10
-7.011505215677043
 20
26.96217847646973
 30
0.0
 11
-6.863867420401451
 21
27.20824146859571
 31
0.0
  0
LINE
  5
489B
330
1E
100
AcDbEntity
  8
7
100
AcDbLine
 10
-6.863867420401451
 20
27.20824146859571
 30
0.0
 11
-6.785127262921136
 21
27.49367453946186
 31
0.0
  0
LINE
  5
489C
330
1E
100
AcDbEntity
  8
7
100
AcDbLine
 10
-6.785127262921136
 20
27.49367453946186
 30
0.0
 11
-6.804812302291216
 21
27.78895013001304
 31
0.0
  0
LINE
  5
489D
330
1E
100
AcDbEntity
  8
7
100
AcDbLine
 10
-6.804812302291216
 20
27.78895013001304
 30
0.0
 11
-6.903237499141608
 21
28.06454068119414
 31
0.0
  0
LINE
  5
489E
330
1E
100
AcDbEntity
  8
7
100
AcDbLine
 10
-6.903237499141608
 20
28.06454068119414
 30
0.0
 11
-7.080402853472318
 21
28.29091863395004
 31
0.0
  0
LINE
  5
489F
330
1E
100
AcDbEntity
  8
7
100
AcDbLine
 10
-7.779221751110114
 20
26.59800524812327
 30
0.0
 11
-7.493788680243969
 21
26.63737532686343
 31
0.0
  0
LINE
  5
48A0
330
1E
100
AcDbEntity
  8
7
100
AcDbLine
 10
-7.493788680243969
 20
26.63737532686343
 30
0.0
 11
-7.22804064874791
 21
26.76532808276895
 31
0.0
  0
LINE
  5
48A1
330
1E
100
AcDbEntity
  8
7
100
AcDbLine
 10
-8.47804064874791
 20
28.29091863395004
 30
0.0
 11
-8.655206003078617
 21
28.06454068119414
 31
0.0
  0
LINE
  5
48A2
330
1E
100
AcDbEntity
  8
7
100
AcDbLine
 10
-8.655206003078617
 20
28.06454068119414
 30
0.0
 11
-8.753631199929012
 21
27.78895013001304
 31
0.0
  0
LINE
  5
48A3
330
1E
100
AcDbEntity
  8
7
100
AcDbLine
 10
-8.753631199929012
 20
27.78895013001304
 30
0.0
 11
-8.77331623929909
 21
27.49367453946186
 31
0.0
  0
LINE
  5
48A4
330
1E
100
AcDbEntity
  8
7
100
AcDbLine
 10
-8.77331623929909
 20
27.49367453946186
 30
0.0
 11
-8.694576081818775
 21
27.20824146859571
 31
0.0
  0
LINE
  5
48A5
330
1E
100
AcDbEntity
  8
7
100
AcDbLine
 10
-8.694576081818775
 20
27.20824146859571
 30
0.0
 11
-8.546938286543182
 21
26.96217847646973
 31
0.0
  0
LINE
  5
48A6
330
1E
100
AcDbEntity
  8
7
100
AcDbLine
 10
-8.546938286543182
 20
26.96217847646973
 30
0.0
 11
-8.330402853472318
 21
26.76532808276895
 31
0.0
  0
LINE
  5
48A7
330
1E
100
AcDbEntity
  8
7
100
AcDbLine
 10
-8.330402853472318
 20
26.76532808276895
 30
0.0
 11
-8.064654821976256
 21
26.63737532686343
 31
0.0
  0
LINE
  5
48A8
330
1E
100
AcDbEntity
  8
7
100
AcDbLine
 10
-8.064654821976256
 20
26.63737532686343
 30
0.0
 11
-7.779221751110114
 21
26.59800524812327
 31
0.0
  0
LINE
  5
48A9
330
1E
100
AcDbEntity
  8
7
100
AcDbLine
 10
-0.1217414361494842
 20
28.8027296575721
 30
0.0
 11
-0.4465445857557851
 21
28.84209973631225
 31
0.0
  0
LINE
  5
48AA
330
1E
100
AcDbEntity
  8
7
100
AcDbLine
 10
-0.4465445857557851
 20
28.84209973631225
 30
0.0
 11
-0.7713477353620815
 21
28.8027296575721
 31
0.0
  0
LINE
  5
48AB
330
1E
100
AcDbEntity
  8
7
100
AcDbLine
 10
-0.7713477353620815
 20
28.8027296575721
 30
0.0
 11
-1.066623325913262
 21
28.67477690166658
 31
0.0
  0
LINE
  5
48AC
330
1E
100
AcDbEntity
  8
7
100
AcDbLine
 10
-1.066623325913262
 20
28.67477690166658
 30
0.0
 11
-1.332371357409326
 21
28.47792650796579
 31
0.0
  0
LINE
  5
48AD
330
1E
100
AcDbEntity
  8
7
100
AcDbLine
 10
-1.332371357409326
 20
28.47792650796579
 30
0.0
 11
-1.529221751110113
 21
28.22202099615477
 31
0.0
  0
LINE
  5
48AE
330
1E
100
AcDbEntity
  8
7
100
AcDbLine
 10
-1.529221751110113
 20
28.22202099615477
 30
0.0
 11
-1.657174507015627
 21
27.91690288591854
 31
0.0
  0
LINE
  5
48AF
330
1E
100
AcDbEntity
  8
7
100
AcDbLine
 10
-1.657174507015627
 20
27.91690288591854
 30
0.0
 11
-1.696544585755785
 21
27.59209973631225
 31
0.0
  0
LINE
  5
48B0
330
1E
100
AcDbEntity
  8
7
100
AcDbLine
 10
-1.529221751110113
 20
26.97202099615477
 30
0.0
 11
-1.332371357409326
 21
26.70627296465871
 31
0.0
  0
LINE
  5
48B1
330
1E
100
AcDbEntity
  8
7
100
AcDbLine
 10
-1.332371357409326
 20
26.70627296465871
 30
0.0
 11
-1.076465845598303
 21
26.50942257095791
 31
0.0
  0
LINE
  5
48B2
330
1E
100
AcDbEntity
  8
7
100
AcDbLine
 10
-1.076465845598303
 20
26.50942257095791
 30
0.0
 11
-0.7713477353620815
 21
26.38146981505241
 31
0.0
  0
LINE
  5
48B3
330
1E
100
AcDbEntity
  8
7
100
AcDbLine
 10
-0.7713477353620815
 20
26.38146981505241
 30
0.0
 11
-0.4465445857557851
 21
26.34209973631225
 31
0.0
  0
LINE
  5
48B4
330
1E
100
AcDbEntity
  8
7
100
AcDbLine
 10
-0.4465445857557851
 20
26.34209973631225
 30
0.0
 11
-0.1217414361494842
 21
26.38146981505241
 31
0.0
  0
LINE
  5
48B5
330
1E
100
AcDbEntity
  8
7
100
AcDbLine
 10
-0.1217414361494842
 20
26.38146981505241
 30
0.0
 11
0.1735341544016964
 21
26.50942257095791
 31
0.0
  0
LINE
  5
48B6
330
1E
100
AcDbEntity
  8
7
100
AcDbLine
 10
0.1735341544016964
 20
26.50942257095791
 30
0.0
 11
0.4392821858977612
 21
26.70627296465871
 31
0.0
  0
LINE
  5
48B7
330
1E
100
AcDbEntity
  8
7
100
AcDbLine
 10
0.4392821858977612
 20
26.70627296465871
 30
0.0
 11
0.6361325795985482
 21
26.96217847646973
 31
0.0
  0
LINE
  5
48B8
330
1E
100
AcDbEntity
  8
7
100
AcDbLine
 10
0.6361325795985482
 20
26.96217847646973
 30
0.0
 11
0.7640853355040576
 21
27.26729658670595
 31
0.0
  0
LINE
  5
48B9
330
1E
100
AcDbEntity
  8
7
100
AcDbLine
 10
0.7640853355040576
 20
27.26729658670595
 30
0.0
 11
0.803455414244215
 21
27.59209973631225
 31
0.0
  0
LINE
  5
48BA
330
1E
100
AcDbEntity
  8
7
100
AcDbLine
 10
0.803455414244215
 20
27.59209973631225
 30
0.0
 11
0.7640853355040576
 21
27.91690288591854
 31
0.0
  0
LINE
  5
48BB
330
1E
100
AcDbEntity
  8
7
100
AcDbLine
 10
0.7640853355040576
 20
27.91690288591854
 30
0.0
 11
0.6361325795985482
 21
28.21217847646973
 31
0.0
  0
LINE
  5
48BC
330
1E
100
AcDbEntity
  8
7
100
AcDbLine
 10
0.6361325795985482
 20
28.21217847646973
 30
0.0
 11
0.4392821858977612
 21
28.47792650796579
 31
0.0
  0
LINE
  5
48BD
330
1E
100
AcDbEntity
  8
7
100
AcDbLine
 10
0.4392821858977612
 20
28.47792650796579
 30
0.0
 11
0.183376674086738
 21
28.67477690166658
 31
0.0
  0
LINE
  5
48BE
330
1E
100
AcDbEntity
  8
7
100
AcDbLine
 10
0.183376674086738
 20
28.67477690166658
 30
0.0
 11
-0.1217414361494842
 21
28.8027296575721
 31
0.0
  0
LINE
  5
48BF
330
1E
100
AcDbEntity
  8
7
100
AcDbLine
 10
-1.696544585755785
 20
27.59209973631225
 30
0.0
 11
-1.657174507015627
 21
27.26729658670595
 31
0.0
  0
LINE
  5
48C0
330
1E
100
AcDbEntity
  8
7
100
AcDbLine
 10
-1.657174507015627
 20
27.26729658670595
 30
0.0
 11
-1.529221751110113
 21
26.97202099615477
 31
0.0
  0
LINE
  5
48C1
330
1E
100
AcDbEntity
  8
7
100
AcDbLine
 10
-3.487883168432947
 20
28.67477690166658
 30
0.0
 11
-3.793001278669169
 21
28.8027296575721
 31
0.0
  0
LINE
  5
48C2
330
1E
100
AcDbEntity
  8
7
100
AcDbLine
 10
-3.793001278669169
 20
28.8027296575721
 30
0.0
 11
-4.117804428275469
 21
28.84209973631225
 31
0.0
  0
LINE
  5
48C3
330
1E
100
AcDbEntity
  8
7
100
AcDbLine
 10
-4.117804428275469
 20
28.84209973631225
 30
0.0
 11
-4.442607577881766
 21
28.8027296575721
 31
0.0
  0
LINE
  5
48C4
330
1E
100
AcDbEntity
  8
7
100
AcDbLine
 10
-4.442607577881766
 20
28.8027296575721
 30
0.0
 11
-4.737883168432947
 21
28.67477690166658
 31
0.0
  0
LINE
  5
48C5
330
1E
100
AcDbEntity
  8
7
100
AcDbLine
 10
-4.737883168432947
 20
28.67477690166658
 30
0.0
 11
-5.003631199929012
 21
28.47792650796579
 31
0.0
  0
LINE
  5
48C6
330
1E
100
AcDbEntity
  8
7
100
AcDbLine
 10
-5.003631199929012
 20
28.47792650796579
 30
0.0
 11
-5.200481593629799
 21
28.22202099615477
 31
0.0
  0
LINE
  5
48C7
330
1E
100
AcDbEntity
  8
7
100
AcDbLine
 10
-5.200481593629799
 20
28.22202099615477
 30
0.0
 11
-5.328434349535312
 21
27.91690288591854
 31
0.0
  0
LINE
  5
48C8
330
1E
100
AcDbEntity
  8
7
100
AcDbLine
 10
-5.328434349535312
 20
27.91690288591854
 30
0.0
 11
-5.367804428275469
 21
27.59209973631225
 31
0.0
  0
LINE
  5
48C9
330
1E
100
AcDbEntity
  8
7
100
AcDbLine
 10
-5.328434349535312
 20
27.26729658670595
 30
0.0
 11
-5.200481593629799
 21
26.97202099615477
 31
0.0
  0
LINE
  5
48CA
330
1E
100
AcDbEntity
  8
7
100
AcDbLine
 10
-5.200481593629799
 20
26.97202099615477
 30
0.0
 11
-5.003631199929012
 21
26.70627296465871
 31
0.0
  0
LINE
  5
48CB
330
1E
100
AcDbEntity
  8
7
100
AcDbLine
 10
-5.003631199929012
 20
26.70627296465871
 30
0.0
 11
-4.747725688117988
 21
26.50942257095791
 31
0.0
  0
LINE
  5
48CC
330
1E
100
AcDbEntity
  8
7
100
AcDbLine
 10
-4.747725688117988
 20
26.50942257095791
 30
0.0
 11
-4.442607577881766
 21
26.38146981505241
 31
0.0
  0
LINE
  5
48CD
330
1E
100
AcDbEntity
  8
7
100
AcDbLine
 10
-4.442607577881766
 20
26.38146981505241
 30
0.0
 11
-4.117804428275469
 21
26.34209973631225
 31
0.0
  0
LINE
  5
48CE
330
1E
100
AcDbEntity
  8
7
100
AcDbLine
 10
-4.117804428275469
 20
26.34209973631225
 30
0.0
 11
-3.793001278669169
 21
26.38146981505241
 31
0.0
  0
LINE
  5
48CF
330
1E
100
AcDbEntity
  8
7
100
AcDbLine
 10
-3.793001278669169
 20
26.38146981505241
 30
0.0
 11
-3.497725688117988
 21
26.50942257095791
 31
0.0
  0
LINE
  5
48D0
330
1E
100
AcDbEntity
  8
7
100
AcDbLine
 10
-3.497725688117988
 20
26.50942257095791
 30
0.0
 11
-3.231977656621923
 21
26.70627296465871
 31
0.0
  0
LINE
  5
48D1
330
1E
100
AcDbEntity
  8
7
100
AcDbLine
 10
-3.231977656621923
 20
26.70627296465871
 30
0.0
 11
-3.035127262921136
 21
26.96217847646973
 31
0.0
  0
LINE
  5
48D2
330
1E
100
AcDbEntity
  8
7
100
AcDbLine
 10
-3.035127262921136
 20
26.96217847646973
 30
0.0
 11
-2.907174507015627
 21
27.26729658670595
 31
0.0
  0
LINE
  5
48D3
330
1E
100
AcDbEntity
  8
7
100
AcDbLine
 10
-2.907174507015627
 20
27.26729658670595
 30
0.0
 11
-2.867804428275469
 21
27.59209973631225
 31
0.0
  0
LINE
  5
48D4
330
1E
100
AcDbEntity
  8
7
100
AcDbLine
 10
-2.867804428275469
 20
27.59209973631225
 30
0.0
 11
-2.907174507015627
 21
27.91690288591854
 31
0.0
  0
LINE
  5
48D5
330
1E
100
AcDbEntity
  8
7
100
AcDbLine
 10
-2.907174507015627
 20
27.91690288591854
 30
0.0
 11
-3.035127262921136
 21
28.21217847646973
 31
0.0
  0
LINE
  5
48D6
330
1E
100
AcDbEntity
  8
7
100
AcDbLine
 10
-3.035127262921136
 20
28.21217847646973
 30
0.0
 11
-3.231977656621923
 21
28.47792650796579
 31
0.0
  0
LINE
  5
48D7
330
1E
100
AcDbEntity
  8
7
100
AcDbLine
 10
-3.231977656621923
 20
28.47792650796579
 30
0.0
 11
-3.487883168432947
 21
28.67477690166658
 31
0.0
  0
LINE
  5
48D8
330
1E
100
AcDbEntity
  8
7
100
AcDbLine
 10
2.132195571724529
 20
26.97202099615477
 30
0.0
 11
2.329045965425321
 21
26.70627296465871
 31
0.0
  0
LINE
  5
48D9
330
1E
100
AcDbEntity
  8
7
100
AcDbLine
 10
2.329045965425321
 20
26.70627296465871
 30
0.0
 11
2.584951477236344
 21
26.50942257095791
 31
0.0
  0
LINE
  5
48DA
330
1E
100
AcDbEntity
  8
7
100
AcDbLine
 10
2.584951477236344
 20
26.50942257095791
 30
0.0
 11
2.890069587472562
 21
26.38146981505241
 31
0.0
  0
LINE
  5
48DB
330
1E
100
AcDbEntity
  8
7
100
AcDbLine
 10
2.890069587472562
 20
26.38146981505241
 30
0.0
 11
3.214872737078863
 21
26.34209973631225
 31
0.0
  0
LINE
  5
48DC
330
1E
100
AcDbEntity
  8
7
100
AcDbLine
 10
3.214872737078863
 20
26.34209973631225
 30
0.0
 11
3.539675886685159
 21
26.38146981505241
 31
0.0
  0
LINE
  5
48DD
330
1E
100
AcDbEntity
  8
7
100
AcDbLine
 10
3.539675886685159
 20
26.38146981505241
 30
0.0
 11
3.834951477236344
 21
26.50942257095791
 31
0.0
  0
LINE
  5
48DE
330
1E
100
AcDbEntity
  8
7
100
AcDbLine
 10
3.834951477236344
 20
26.50942257095791
 30
0.0
 11
4.100699508732404
 21
26.70627296465871
 31
0.0
  0
LINE
  5
48DF
330
1E
100
AcDbEntity
  8
7
100
AcDbLine
 10
4.100699508732404
 20
26.70627296465871
 30
0.0
 11
4.297549902433191
 21
26.96217847646973
 31
0.0
  0
LINE
  5
48E0
330
1E
100
AcDbEntity
  8
7
100
AcDbLine
 10
4.297549902433191
 20
26.96217847646973
 30
0.0
 11
4.425502658338706
 21
27.26729658670595
 31
0.0
  0
LINE
  5
48E1
330
1E
100
AcDbEntity
  8
7
100
AcDbLine
 10
4.425502658338706
 20
27.26729658670595
 30
0.0
 11
4.464872737078863
 21
27.59209973631225
 31
0.0
  0
LINE
  5
48E2
330
1E
100
AcDbEntity
  8
7
100
AcDbLine
 10
4.425502658338706
 20
27.91690288591854
 30
0.0
 11
4.297549902433191
 21
28.21217847646973
 31
0.0
  0
LINE
  5
48E3
330
1E
100
AcDbEntity
  8
7
100
AcDbLine
 10
4.297549902433191
 20
28.21217847646973
 30
0.0
 11
4.100699508732404
 21
28.47792650796579
 31
0.0
  0
LINE
  5
48E4
330
1E
100
AcDbEntity
  8
7
100
AcDbLine
 10
4.100699508732404
 20
28.47792650796579
 30
0.0
 11
3.844793996921381
 21
28.67477690166658
 31
0.0
  0
LINE
  5
48E5
330
1E
100
AcDbEntity
  8
7
100
AcDbLine
 10
3.844793996921381
 20
28.67477690166658
 30
0.0
 11
3.539675886685159
 21
28.8027296575721
 31
0.0
  0
LINE
  5
48E6
330
1E
100
AcDbEntity
  8
7
100
AcDbLine
 10
3.539675886685159
 20
28.8027296575721
 30
0.0
 11
3.214872737078863
 21
28.84209973631225
 31
0.0
  0
LINE
  5
48E7
330
1E
100
AcDbEntity
  8
7
100
AcDbLine
 10
3.214872737078863
 20
28.84209973631225
 30
0.0
 11
2.890069587472562
 21
28.8027296575721
 31
0.0
  0
LINE
  5
48E8
330
1E
100
AcDbEntity
  8
7
100
AcDbLine
 10
2.890069587472562
 20
28.8027296575721
 30
0.0
 11
2.594793996921381
 21
28.67477690166658
 31
0.0
  0
LINE
  5
48E9
330
1E
100
AcDbEntity
  8
7
100
AcDbLine
 10
2.594793996921381
 20
28.67477690166658
 30
0.0
 11
2.329045965425321
 21
28.47792650796579
 31
0.0
  0
LINE
  5
48EA
330
1E
100
AcDbEntity
  8
7
100
AcDbLine
 10
2.329045965425321
 20
28.47792650796579
 30
0.0
 11
2.132195571724529
 21
28.22202099615477
 31
0.0
  0
LINE
  5
48EB
330
1E
100
AcDbEntity
  8
7
100
AcDbLine
 10
2.132195571724529
 20
28.22202099615477
 30
0.0
 11
2.00424281581902
 21
27.91690288591854
 31
0.0
  0
LINE
  5
48EC
330
1E
100
AcDbEntity
  8
7
100
AcDbLine
 10
2.00424281581902
 20
27.91690288591854
 30
0.0
 11
1.964872737078863
 21
27.59209973631225
 31
0.0
  0
LINE
  5
48ED
330
1E
100
AcDbEntity
  8
7
100
AcDbLine
 10
1.964872737078863
 20
27.59209973631225
 30
0.0
 11
2.00424281581902
 21
27.26729658670595
 31
0.0
  0
LINE
  5
48EE
330
1E
100
AcDbEntity
  8
7
100
AcDbLine
 10
2.00424281581902
 20
27.26729658670595
 30
0.0
 11
2.132195571724529
 21
26.97202099615477
 31
0.0
  0
LINE
  5
48EF
330
1E
100
AcDbEntity
  8
7
100
AcDbLine
 10
-6.893394979456571
 20
28.47792650796579
 30
0.0
 11
-7.149300491267595
 21
28.67477690166658
 31
0.0
  0
LINE
  5
48F0
330
1E
100
AcDbEntity
  8
7
100
AcDbLine
 10
-7.149300491267595
 20
28.67477690166658
 30
0.0
 11
-7.454418601503812
 21
28.8027296575721
 31
0.0
  0
LINE
  5
48F1
330
1E
100
AcDbEntity
  8
7
100
AcDbLine
 10
-7.454418601503812
 20
28.8027296575721
 30
0.0
 11
-7.779221751110114
 21
28.84209973631225
 31
0.0
  0
LINE
  5
48F2
330
1E
100
AcDbEntity
  8
7
100
AcDbLine
 10
-7.779221751110114
 20
28.84209973631225
 30
0.0
 11
-8.104024900716414
 21
28.8027296575721
 31
0.0
  0
LINE
  5
48F3
330
1E
100
AcDbEntity
  8
7
100
AcDbLine
 10
-8.104024900716414
 20
28.8027296575721
 30
0.0
 11
-8.399300491267595
 21
28.67477690166658
 31
0.0
  0
LINE
  5
48F4
330
1E
100
AcDbEntity
  8
7
100
AcDbLine
 10
-8.399300491267595
 20
28.67477690166658
 30
0.0
 11
-8.665048522763655
 21
28.47792650796579
 31
0.0
  0
LINE
  5
48F5
330
1E
100
AcDbEntity
  8
7
100
AcDbLine
 10
-8.665048522763655
 20
28.47792650796579
 30
0.0
 11
-8.861898916464442
 21
28.22202099615477
 31
0.0
  0
LINE
  5
48F6
330
1E
100
AcDbEntity
  8
7
100
AcDbLine
 10
-8.861898916464442
 20
28.22202099615477
 30
0.0
 11
-8.989851672369956
 21
27.91690288591854
 31
0.0
  0
LINE
  5
48F7
330
1E
100
AcDbEntity
  8
7
100
AcDbLine
 10
-8.989851672369956
 20
27.91690288591854
 30
0.0
 11
-9.029221751110114
 21
27.59209973631225
 31
0.0
  0
LINE
  5
48F8
330
1E
100
AcDbEntity
  8
7
100
AcDbLine
 10
-9.029221751110114
 20
27.59209973631225
 30
0.0
 11
-8.989851672369956
 21
27.26729658670595
 31
0.0
  0
LINE
  5
48F9
330
1E
100
AcDbEntity
  8
7
100
AcDbLine
 10
-8.989851672369956
 20
27.26729658670595
 30
0.0
 11
-8.861898916464442
 21
26.97202099615477
 31
0.0
  0
LINE
  5
48FA
330
1E
100
AcDbEntity
  8
7
100
AcDbLine
 10
-8.861898916464442
 20
26.97202099615477
 30
0.0
 11
-8.665048522763655
 21
26.70627296465871
 31
0.0
  0
LINE
  5
48FB
330
1E
100
AcDbEntity
  8
7
100
AcDbLine
 10
-8.665048522763655
 20
26.70627296465871
 30
0.0
 11
-8.409143010952632
 21
26.50942257095791
 31
0.0
  0
LINE
  5
48FC
330
1E
100
AcDbEntity
  8
7
100
AcDbLine
 10
-8.409143010952632
 20
26.50942257095791
 30
0.0
 11
-8.104024900716414
 21
26.38146981505241
 31
0.0
  0
LINE
  5
48FD
330
1E
100
AcDbEntity
  8
7
100
AcDbLine
 10
-8.104024900716414
 20
26.38146981505241
 30
0.0
 11
-7.779221751110114
 21
26.34209973631225
 31
0.0
  0
LINE
  5
48FE
330
1E
100
AcDbEntity
  8
7
100
AcDbLine
 10
-7.779221751110114
 20
26.34209973631225
 30
0.0
 11
-7.454418601503812
 21
26.38146981505241
 31
0.0
  0
LINE
  5
48FF
330
1E
100
AcDbEntity
  8
7
100
AcDbLine
 10
-7.454418601503812
 20
26.38146981505241
 30
0.0
 11
-7.159143010952632
 21
26.50942257095791
 31
0.0
  0
LINE
  5
4900
330
1E
100
AcDbEntity
  8
7
100
AcDbLine
 10
-7.159143010952632
 20
26.50942257095791
 30
0.0
 11
-6.893394979456571
 21
26.70627296465871
 31
0.0
  0
LINE
  5
4901
330
1E
100
AcDbEntity
  8
7
100
AcDbLine
 10
-6.893394979456571
 20
26.70627296465871
 30
0.0
 11
-6.696544585755784
 21
26.96217847646973
 31
0.0
  0
LINE
  5
4902
330
1E
100
AcDbEntity
  8
7
100
AcDbLine
 10
-6.696544585755784
 20
26.96217847646973
 30
0.0
 11
-6.568591829850271
 21
27.26729658670595
 31
0.0
  0
LINE
  5
4903
330
1E
100
AcDbEntity
  8
7
100
AcDbLine
 10
-6.568591829850271
 20
27.26729658670595
 30
0.0
 11
-6.529221751110114
 21
27.59209973631225
 31
0.0
  0
LINE
  5
4904
330
1E
100
AcDbEntity
  8
7
100
AcDbLine
 10
-6.529221751110114
 20
27.59209973631225
 30
0.0
 11
-6.568591829850271
 21
27.91690288591854
 31
0.0
  0
LINE
  5
4905
330
1E
100
AcDbEntity
  8
7
100
AcDbLine
 10
-6.568591829850271
 20
27.91690288591854
 30
0.0
 11
-6.696544585755784
 21
28.21217847646973
 31
0.0
  0
LINE
  5
4906
330
1E
100
AcDbEntity
  8
7
100
AcDbLine
 10
-6.696544585755784
 20
28.21217847646973
 30
0.0
 11
-6.893394979456571
 21
28.47792650796579
 31
0.0
  0
LINE
  5
4907
330
1E
100
AcDbEntity
  8
7
100
AcDbLine
 10
-9.255599703866018
 20
25.41690288591854
 30
0.0
 11
-9.255599703866018
 21
25.3578477678083
 31
0.0
  0
LINE
  5
4908
330
1E
100
AcDbEntity
  8
7
100
AcDbLine
 10
-9.255599703866018
 20
25.3578477678083
 30
0.0
 11
-9.255599703866018
 21
25.32832020875319
 31
0.0
  0
LINE
  5
4909
330
1E
100
AcDbEntity
  8
7
100
AcDbLine
 10
-9.255599703866018
 20
25.32832020875319
 30
0.0
 11
-9.245757184180979
 21
25.32832020875319
 31
0.0
  0
LINE
  5
490A
330
1E
100
AcDbEntity
  8
7
100
AcDbLine
 10
4.691250689834765
 20
25.41690288591854
 30
0.0
 11
4.691250689834765
 21
25.3578477678083
 31
0.0
  0
LINE
  5
490B
330
1E
100
AcDbEntity
  8
7
100
AcDbLine
 10
4.691250689834765
 20
25.3578477678083
 30
0.0
 11
4.691250689834765
 21
25.32832020875319
 31
0.0
  0
LINE
  5
490C
330
1E
100
AcDbEntity
  8
7
100
AcDbLine
 10
-9.245757184180979
 20
25.32832020875319
 30
0.0
 11
4.681408170149728
 21
25.32832020875319
 31
0.0
  0
LINE
  5
490D
330
1E
100
AcDbEntity
  8
7
100
AcDbLine
 10
4.681408170149728
 20
25.32832020875319
 30
0.0
 11
4.691250689834765
 21
25.32832020875319
 31
0.0
  0
LINE
  5
490E
330
1E
100
AcDbEntity
  8
7
100
AcDbLine
 10
4.691250689834765
 20
29.34406824024927
 30
0.0
 11
-9.255599703866018
 21
29.34406824024927
 31
0.0
  0
LINE
  5
490F
330
1E
100
AcDbEntity
  8
7
100
AcDbLine
 10
-9.255599703866018
 20
29.34406824024927
 30
0.0
 11
-9.255599703866018
 21
29.31454068119414
 31
0.0
  0
LINE
  5
4910
330
1E
100
AcDbEntity
  8
7
100
AcDbLine
 10
-9.255599703866018
 20
29.31454068119414
 30
0.0
 11
-9.255599703866018
 21
29.2554855630839
 31
0.0
  0
LINE
  5
4911
330
1E
100
AcDbEntity
  8
7
100
AcDbLine
 10
4.691250689834765
 20
29.34406824024927
 30
0.0
 11
4.691250689834765
 21
29.31454068119414
 31
0.0
  0
LINE
  5
4912
330
1E
100
AcDbEntity
  8
7
100
AcDbLine
 10
4.691250689834765
 20
29.31454068119414
 30
0.0
 11
4.691250689834765
 21
29.2554855630839
 31
0.0
  0
LINE
  5
4913
330
1E
100
AcDbEntity
  8
7
100
AcDbLine
 10
-8.783158758984127
 20
29.3539107599343
 30
0.0
 11
-8.793001278669169
 21
29.37359579930438
 31
0.0
  0
LINE
  5
4914
330
1E
100
AcDbEntity
  8
7
100
AcDbLine
 10
-8.793001278669169
 20
29.37359579930438
 30
0.0
 11
-8.812686318039247
 21
29.38343831898941
 31
0.0
  0
LINE
  5
4915
330
1E
100
AcDbEntity
  8
7
100
AcDbLine
 10
-8.999694192054993
 20
29.38343831898941
 30
0.0
 11
-9.019379231425071
 21
29.37359579930438
 31
0.0
  0
LINE
  5
4916
330
1E
100
AcDbEntity
  8
7
100
AcDbLine
 10
-9.019379231425071
 20
29.37359579930438
 30
0.0
 11
-9.029221751110114
 21
29.3539107599343
 31
0.0
  0
LINE
  5
4917
330
1E
100
AcDbEntity
  8
7
100
AcDbLine
 10
4.464872737078863
 20
29.3539107599343
 30
0.0
 11
4.45503021739382
 21
29.37359579930438
 31
0.0
  0
LINE
  5
4918
330
1E
100
AcDbEntity
  8
7
100
AcDbLine
 10
4.45503021739382
 20
29.37359579930438
 30
0.0
 11
4.435345178023743
 21
29.38343831898941
 31
0.0
  0
LINE
  5
4919
330
1E
100
AcDbEntity
  8
7
100
AcDbLine
 10
4.238494784322956
 20
29.38343831898941
 30
0.0
 11
4.218809744952876
 21
29.37359579930438
 31
0.0
  0
LINE
  5
491A
330
1E
100
AcDbEntity
  8
7
100
AcDbLine
 10
4.218809744952876
 20
29.37359579930438
 30
0.0
 11
4.208967225267839
 21
29.3539107599343
 31
0.0
  0
LINE
  5
491B
330
1E
100
AcDbEntity
  8
7
100
AcDbLine
 10
3.342825492984372
 20
9.924776901666582
 30
0.0
 11
3.342825492984372
 21
9.944461941036657
 31
0.0
  0
LINE
  5
491C
330
1E
100
AcDbEntity
  8
7
100
AcDbLine
 10
3.342825492984372
 20
9.944461941036657
 30
0.0
 11
3.342825492984372
 21
9.964146980406731
 31
0.0
  0
LINE
  5
491D
330
1E
100
AcDbEntity
  8
7
100
AcDbLine
 10
3.342825492984372
 20
11.17477690166658
 30
0.0
 11
3.342825492984372
 21
11.1550918622965
 31
0.0
  0
LINE
  5
491E
330
1E
100
AcDbEntity
  8
7
100
AcDbLine
 10
3.342825492984372
 20
11.1550918622965
 30
0.0
 11
3.342825492984372
 21
11.13540682292641
 31
0.0
  0
LINE
  5
491F
330
1E
100
AcDbEntity
  8
7
100
AcDbLine
 10
3.588888485110358
 20
11.17477690166658
 30
0.0
 11
3.588888485110358
 21
11.1550918622965
 31
0.0
  0
LINE
  5
4920
330
1E
100
AcDbEntity
  8
7
100
AcDbLine
 10
3.588888485110358
 20
11.1550918622965
 30
0.0
 11
3.588888485110358
 21
11.13540682292641
 31
0.0
  0
LINE
  5
4921
330
1E
100
AcDbEntity
  8
7
100
AcDbLine
 10
3.588888485110358
 20
9.924776901666582
 30
0.0
 11
3.588888485110358
 21
9.944461941036657
 31
0.0
  0
LINE
  5
4922
330
1E
100
AcDbEntity
  8
7
100
AcDbLine
 10
3.588888485110358
 20
9.944461941036657
 30
0.0
 11
3.588888485110358
 21
9.964146980406731
 31
0.0
  0
LINE
  5
4923
330
1E
100
AcDbEntity
  8
7
100
AcDbLine
 10
3.342825492984372
 20
15.79091863395004
 30
0.0
 11
3.342825492984372
 21
15.76139107489493
 31
0.0
  0
LINE
  5
4924
330
1E
100
AcDbEntity
  8
7
100
AcDbLine
 10
3.342825492984372
 20
15.76139107489493
 30
0.0
 11
3.342825492984372
 21
15.74170603552484
 31
0.0
  0
LINE
  5
4925
330
1E
100
AcDbEntity
  8
7
100
AcDbLine
 10
3.588888485110358
 20
15.79091863395004
 30
0.0
 11
3.588888485110358
 21
15.76139107489493
 31
0.0
  0
LINE
  5
4926
330
1E
100
AcDbEntity
  8
7
100
AcDbLine
 10
3.588888485110358
 20
15.76139107489493
 30
0.0
 11
3.588888485110358
 21
15.74170603552484
 31
0.0
  0
LINE
  5
4927
330
1E
100
AcDbEntity
  8
7
100
AcDbLine
 10
3.342825492984372
 20
14.54091863395004
 30
0.0
 11
3.342825492984372
 21
14.56060367332012
 31
0.0
  0
LINE
  5
4928
330
1E
100
AcDbEntity
  8
7
100
AcDbLine
 10
3.342825492984372
 20
14.56060367332012
 30
0.0
 11
3.342825492984372
 21
14.58028871269021
 31
0.0
  0
LINE
  5
4929
330
1E
100
AcDbEntity
  8
7
100
AcDbLine
 10
3.588888485110358
 20
14.54091863395004
 30
0.0
 11
3.588888485110358
 21
14.56060367332012
 31
0.0
  0
LINE
  5
492A
330
1E
100
AcDbEntity
  8
7
100
AcDbLine
 10
3.588888485110358
 20
14.56060367332012
 30
0.0
 11
3.588888485110358
 21
14.58028871269021
 31
0.0
  0
LINE
  5
492B
330
1E
100
AcDbEntity
  8
7
100
AcDbLine
 10
-0.5744973416612944
 20
15.79091863395004
 30
0.0
 11
-0.5744973416612944
 21
15.76139107489493
 31
0.0
  0
LINE
  5
492C
330
1E
100
AcDbEntity
  8
7
100
AcDbLine
 10
-0.5744973416612944
 20
15.76139107489493
 30
0.0
 11
-0.5744973416612944
 21
15.74170603552484
 31
0.0
  0
LINE
  5
492D
330
1E
100
AcDbEntity
  8
7
100
AcDbLine
 10
-0.3284343495353128
 20
15.79091863395004
 30
0.0
 11
-0.3284343495353128
 21
15.76139107489493
 31
0.0
  0
LINE
  5
492E
330
1E
100
AcDbEntity
  8
7
100
AcDbLine
 10
-0.3284343495353128
 20
15.76139107489493
 30
0.0
 11
-0.3284343495353128
 21
15.74170603552484
 31
0.0
  0
LINE
  5
492F
330
1E
100
AcDbEntity
  8
7
100
AcDbLine
 10
-0.5744973416612944
 20
14.54091863395004
 30
0.0
 11
-0.5744973416612944
 21
14.56060367332012
 31
0.0
  0
LINE
  5
4930
330
1E
100
AcDbEntity
  8
7
100
AcDbLine
 10
-0.5744973416612944
 20
14.56060367332012
 30
0.0
 11
-0.5744973416612944
 21
14.58028871269021
 31
0.0
  0
LINE
  5
4931
330
1E
100
AcDbEntity
  8
7
100
AcDbLine
 10
-0.3284343495353128
 20
14.54091863395004
 30
0.0
 11
-0.3284343495353128
 21
14.56060367332012
 31
0.0
  0
LINE
  5
4932
330
1E
100
AcDbEntity
  8
7
100
AcDbLine
 10
-0.3284343495353128
 20
14.56060367332012
 30
0.0
 11
-0.3284343495353128
 21
14.58028871269021
 31
0.0
  0
LINE
  5
4933
330
1E
100
AcDbEntity
  8
7
100
AcDbLine
 10
3.342825492984372
 20
9.964146980406731
 30
0.0
 11
3.588888485110358
 21
9.964146980406731
 31
0.0
  0
LINE
  5
4934
330
1E
100
AcDbEntity
  8
7
100
AcDbLine
 10
3.588888485110358
 20
9.964146980406731
 30
0.0
 11
3.588888485110358
 21
10.09209973631224
 31
0.0
  0
LINE
  5
4935
330
1E
100
AcDbEntity
  8
7
100
AcDbLine
 10
3.342825492984372
 20
10.09209973631224
 30
0.0
 11
3.342825492984372
 21
10.13146981505241
 31
0.0
  0
LINE
  5
4936
330
1E
100
AcDbEntity
  8
7
100
AcDbLine
 10
3.342825492984372
 20
10.13146981505241
 30
0.0
 11
3.342825492984372
 21
10.1806824134776
 31
0.0
  0
LINE
  5
4937
330
1E
100
AcDbEntity
  8
7
100
AcDbLine
 10
3.342825492984372
 20
10.09209973631224
 30
0.0
 11
3.588888485110358
 21
10.09209973631224
 31
0.0
  0
LINE
  5
4938
330
1E
100
AcDbEntity
  8
7
100
AcDbLine
 10
3.588888485110358
 20
10.09209973631224
 30
0.0
 11
3.588888485110358
 21
10.13146981505241
 31
0.0
  0
LINE
  5
4939
330
1E
100
AcDbEntity
  8
7
100
AcDbLine
 10
3.588888485110358
 20
10.13146981505241
 30
0.0
 11
3.588888485110358
 21
10.1806824134776
 31
0.0
  0
LINE
  5
493A
330
1E
100
AcDbEntity
  8
7
100
AcDbLine
 10
3.588888485110358
 20
11.00745406702091
 30
0.0
 11
3.588888485110358
 21
10.96808398828075
 31
0.0
  0
LINE
  5
493B
330
1E
100
AcDbEntity
  8
7
100
AcDbLine
 10
3.588888485110358
 20
10.96808398828075
 30
0.0
 11
3.588888485110358
 21
10.91887138985556
 31
0.0
  0
LINE
  5
493C
330
1E
100
AcDbEntity
  8
7
100
AcDbLine
 10
3.342825492984372
 20
11.00745406702091
 30
0.0
 11
3.342825492984372
 21
10.96808398828075
 31
0.0
  0
LINE
  5
493D
330
1E
100
AcDbEntity
  8
7
100
AcDbLine
 10
3.342825492984372
 20
10.96808398828075
 30
0.0
 11
3.342825492984372
 21
10.91887138985556
 31
0.0
  0
LINE
  5
493E
330
1E
100
AcDbEntity
  8
7
100
AcDbLine
 10
3.342825492984372
 20
14.70824146859571
 30
0.0
 11
3.342825492984372
 21
14.74761154733587
 31
0.0
  0
LINE
  5
493F
330
1E
100
AcDbEntity
  8
7
100
AcDbLine
 10
3.342825492984372
 20
14.74761154733587
 30
0.0
 11
3.342825492984372
 21
14.79682414576106
 31
0.0
  0
LINE
  5
4940
330
1E
100
AcDbEntity
  8
7
100
AcDbLine
 10
3.588888485110358
 20
14.70824146859571
 30
0.0
 11
3.588888485110358
 21
14.74761154733587
 31
0.0
  0
LINE
  5
4941
330
1E
100
AcDbEntity
  8
7
100
AcDbLine
 10
3.588888485110358
 20
14.74761154733587
 30
0.0
 11
3.588888485110358
 21
14.79682414576106
 31
0.0
  0
LINE
  5
4942
330
1E
100
AcDbEntity
  8
7
100
AcDbLine
 10
3.588888485110358
 20
15.62359579930437
 30
0.0
 11
3.588888485110358
 21
15.58422572056421
 31
0.0
  0
LINE
  5
4943
330
1E
100
AcDbEntity
  8
7
100
AcDbLine
 10
3.588888485110358
 20
15.58422572056421
 30
0.0
 11
3.588888485110358
 21
15.53501312213902
 31
0.0
  0
LINE
  5
4944
330
1E
100
AcDbEntity
  8
7
100
AcDbLine
 10
3.342825492984372
 20
15.62359579930437
 30
0.0
 11
3.342825492984372
 21
15.58422572056421
 31
0.0
  0
LINE
  5
4945
330
1E
100
AcDbEntity
  8
7
100
AcDbLine
 10
3.342825492984372
 20
15.58422572056421
 30
0.0
 11
3.342825492984372
 21
15.53501312213902
 31
0.0
  0
LINE
  5
4946
330
1E
100
AcDbEntity
  8
7
100
AcDbLine
 10
3.342825492984372
 20
15.74170603552484
 30
0.0
 11
3.342825492984372
 21
15.62359579930437
 31
0.0
  0
LINE
  5
4947
330
1E
100
AcDbEntity
  8
7
100
AcDbLine
 10
3.342825492984372
 20
15.62359579930437
 30
0.0
 11
3.588888485110358
 21
15.62359579930437
 31
0.0
  0
LINE
  5
4948
330
1E
100
AcDbEntity
  8
7
100
AcDbLine
 10
-0.5744973416612944
 20
14.58028871269021
 30
0.0
 11
-0.3284343495353128
 21
14.58028871269021
 31
0.0
  0
LINE
  5
4949
330
1E
100
AcDbEntity
  8
7
100
AcDbLine
 10
-0.3284343495353128
 20
14.58028871269021
 30
0.0
 11
-0.3284343495353128
 21
14.70824146859571
 31
0.0
  0
LINE
  5
494A
330
1E
100
AcDbEntity
  8
7
100
AcDbLine
 10
-0.5744973416612944
 20
14.70824146859571
 30
0.0
 11
-0.5744973416612944
 21
14.74761154733587
 31
0.0
  0
LINE
  5
494B
330
1E
100
AcDbEntity
  8
7
100
AcDbLine
 10
-0.5744973416612944
 20
14.74761154733587
 30
0.0
 11
-0.5744973416612944
 21
14.79682414576106
 31
0.0
  0
LINE
  5
494C
330
1E
100
AcDbEntity
  8
7
100
AcDbLine
 10
-0.5744973416612944
 20
14.70824146859571
 30
0.0
 11
-0.3284343495353128
 21
14.70824146859571
 31
0.0
  0
LINE
  5
494D
330
1E
100
AcDbEntity
  8
7
100
AcDbLine
 10
-0.3284343495353128
 20
14.70824146859571
 30
0.0
 11
-0.3284343495353128
 21
14.74761154733587
 31
0.0
  0
LINE
  5
494E
330
1E
100
AcDbEntity
  8
7
100
AcDbLine
 10
-0.3284343495353128
 20
14.74761154733587
 30
0.0
 11
-0.3284343495353128
 21
14.79682414576106
 31
0.0
  0
LINE
  5
494F
330
1E
100
AcDbEntity
  8
7
100
AcDbLine
 10
-0.3284343495353128
 20
15.62359579930437
 30
0.0
 11
-0.3284343495353128
 21
15.58422572056421
 31
0.0
  0
LINE
  5
4950
330
1E
100
AcDbEntity
  8
7
100
AcDbLine
 10
-0.3284343495353128
 20
15.58422572056421
 30
0.0
 11
-0.3284343495353128
 21
15.53501312213902
 31
0.0
  0
LINE
  5
4951
330
1E
100
AcDbEntity
  8
7
100
AcDbLine
 10
-0.5744973416612944
 20
15.62359579930437
 30
0.0
 11
-0.5744973416612944
 21
15.58422572056421
 31
0.0
  0
LINE
  5
4952
330
1E
100
AcDbEntity
  8
7
100
AcDbLine
 10
-0.5744973416612944
 20
15.58422572056421
 30
0.0
 11
-0.5744973416612944
 21
15.53501312213902
 31
0.0
  0
LINE
  5
4953
330
1E
100
AcDbEntity
  8
7
100
AcDbLine
 10
-0.3284343495353128
 20
15.74170603552484
 30
0.0
 11
-0.5744973416612944
 21
15.74170603552484
 31
0.0
  0
LINE
  5
4954
330
1E
100
AcDbEntity
  8
7
100
AcDbLine
 10
-0.5744973416612944
 20
15.74170603552484
 30
0.0
 11
-0.5744973416612944
 21
15.62359579930437
 31
0.0
  0
LINE
  5
4955
330
1E
100
AcDbEntity
  8
7
100
AcDbLine
 10
3.962904233141853
 20
16.03698162607602
 30
0.0
 11
3.962904233141853
 21
16.1058792638713
 31
0.0
  0
LINE
  5
4956
330
1E
100
AcDbEntity
  8
7
100
AcDbLine
 10
3.962904233141853
 20
16.1058792638713
 30
0.0
 11
3.962904233141853
 21
16.12556430324137
 31
0.0
  0
LINE
  5
4957
330
1E
100
AcDbEntity
  8
7
100
AcDbLine
 10
-7.907174507015627
 20
9.924776901666582
 30
0.0
 11
-7.907174507015627
 21
9.944461941036657
 31
0.0
  0
LINE
  5
4958
330
1E
100
AcDbEntity
  8
7
100
AcDbLine
 10
-7.907174507015627
 20
9.944461941036657
 30
0.0
 11
-7.907174507015627
 21
9.964146980406731
 31
0.0
  0
LINE
  5
4959
330
1E
100
AcDbEntity
  8
7
100
AcDbLine
 10
-7.907174507015627
 20
11.17477690166658
 30
0.0
 11
-7.907174507015627
 21
11.1550918622965
 31
0.0
  0
LINE
  5
495A
330
1E
100
AcDbEntity
  8
7
100
AcDbLine
 10
-7.907174507015627
 20
11.1550918622965
 30
0.0
 11
-7.907174507015627
 21
11.13540682292641
 31
0.0
  0
LINE
  5
495B
330
1E
100
AcDbEntity
  8
7
100
AcDbLine
 10
-8.153237499141608
 20
11.17477690166658
 30
0.0
 11
-8.153237499141608
 21
11.1550918622965
 31
0.0
  0
LINE
  5
495C
330
1E
100
AcDbEntity
  8
7
100
AcDbLine
 10
-8.153237499141608
 20
11.1550918622965
 30
0.0
 11
-8.153237499141608
 21
11.13540682292641
 31
0.0
  0
LINE
  5
495D
330
1E
100
AcDbEntity
  8
7
100
AcDbLine
 10
-8.153237499141608
 20
9.924776901666582
 30
0.0
 11
-8.153237499141608
 21
9.944461941036657
 31
0.0
  0
LINE
  5
495E
330
1E
100
AcDbEntity
  8
7
100
AcDbLine
 10
-8.153237499141608
 20
9.944461941036657
 30
0.0
 11
-8.153237499141608
 21
9.964146980406731
 31
0.0
  0
LINE
  5
495F
330
1E
100
AcDbEntity
  8
7
100
AcDbLine
 10
-8.153237499141608
 20
15.79091863395004
 30
0.0
 11
-8.153237499141608
 21
15.76139107489493
 31
0.0
  0
LINE
  5
4960
330
1E
100
AcDbEntity
  8
7
100
AcDbLine
 10
-8.153237499141608
 20
15.76139107489493
 30
0.0
 11
-8.153237499141608
 21
15.74170603552484
 31
0.0
  0
LINE
  5
4961
330
1E
100
AcDbEntity
  8
7
100
AcDbLine
 10
-7.907174507015627
 20
14.54091863395004
 30
0.0
 11
-7.907174507015627
 21
14.56060367332012
 31
0.0
  0
LINE
  5
4962
330
1E
100
AcDbEntity
  8
7
100
AcDbLine
 10
-7.907174507015627
 20
14.56060367332012
 30
0.0
 11
-7.907174507015627
 21
14.58028871269021
 31
0.0
  0
LINE
  5
4963
330
1E
100
AcDbEntity
  8
7
100
AcDbLine
 10
-8.153237499141608
 20
14.54091863395004
 30
0.0
 11
-8.153237499141608
 21
14.56060367332012
 31
0.0
  0
LINE
  5
4964
330
1E
100
AcDbEntity
  8
7
100
AcDbLine
 10
-8.153237499141608
 20
14.56060367332012
 30
0.0
 11
-8.153237499141608
 21
14.58028871269021
 31
0.0
  0
LINE
  5
4965
330
1E
100
AcDbEntity
  8
7
100
AcDbLine
 10
-3.989851672369956
 20
15.79091863395004
 30
0.0
 11
-3.989851672369956
 21
15.76139107489493
 31
0.0
  0
LINE
  5
4966
330
1E
100
AcDbEntity
  8
7
100
AcDbLine
 10
-3.989851672369956
 20
15.76139107489493
 30
0.0
 11
-3.989851672369956
 21
15.74170603552484
 31
0.0
  0
LINE
  5
4967
330
1E
100
AcDbEntity
  8
7
100
AcDbLine
 10
-4.245757184180979
 20
15.79091863395004
 30
0.0
 11
-4.245757184180979
 21
15.76139107489493
 31
0.0
  0
LINE
  5
4968
330
1E
100
AcDbEntity
  8
7
100
AcDbLine
 10
-4.245757184180979
 20
15.76139107489493
 30
0.0
 11
-4.245757184180979
 21
15.74170603552484
 31
0.0
  0
LINE
  5
4969
330
1E
100
AcDbEntity
  8
7
100
AcDbLine
 10
-4.245757184180979
 20
14.54091863395004
 30
0.0
 11
-4.245757184180979
 21
14.56060367332012
 31
0.0
  0
LINE
  5
496A
330
1E
100
AcDbEntity
  8
7
100
AcDbLine
 10
-4.245757184180979
 20
14.56060367332012
 30
0.0
 11
-4.245757184180979
 21
14.58028871269021
 31
0.0
  0
LINE
  5
496B
330
1E
100
AcDbEntity
  8
7
100
AcDbLine
 10
-3.989851672369956
 20
14.54091863395004
 30
0.0
 11
-3.989851672369956
 21
14.56060367332012
 31
0.0
  0
LINE
  5
496C
330
1E
100
AcDbEntity
  8
7
100
AcDbLine
 10
-3.989851672369956
 20
14.56060367332012
 30
0.0
 11
-3.989851672369956
 21
14.58028871269021
 31
0.0
  0
LINE
  5
496D
330
1E
100
AcDbEntity
  8
7
100
AcDbLine
 10
-8.537095766858145
 20
16.03698162607602
 30
0.0
 11
-8.537095766858145
 21
16.1058792638713
 31
0.0
  0
LINE
  5
496E
330
1E
100
AcDbEntity
  8
7
100
AcDbLine
 10
-8.537095766858145
 20
16.1058792638713
 30
0.0
 11
-8.537095766858145
 21
16.12556430324137
 31
0.0
  0
LINE
  5
496F
330
1E
100
AcDbEntity
  8
7
100
AcDbLine
 10
-8.153237499141608
 20
10.09209973631224
 30
0.0
 11
-8.153237499141608
 21
10.13146981505241
 31
0.0
  0
LINE
  5
4970
330
1E
100
AcDbEntity
  8
7
100
AcDbLine
 10
-8.153237499141608
 20
10.13146981505241
 30
0.0
 11
-8.153237499141608
 21
10.1806824134776
 31
0.0
  0
LINE
  5
4971
330
1E
100
AcDbEntity
  8
7
100
AcDbLine
 10
-7.907174507015627
 20
10.09209973631224
 30
0.0
 11
-7.907174507015627
 21
10.13146981505241
 31
0.0
  0
LINE
  5
4972
330
1E
100
AcDbEntity
  8
7
100
AcDbLine
 10
-7.907174507015627
 20
10.13146981505241
 30
0.0
 11
-7.907174507015627
 21
10.1806824134776
 31
0.0
  0
LINE
  5
4973
330
1E
100
AcDbEntity
  8
7
100
AcDbLine
 10
-8.153237499141608
 20
10.91887138985556
 30
0.0
 11
-8.153237499141608
 21
10.1806824134776
 31
0.0
  0
LINE
  5
4974
330
1E
100
AcDbEntity
  8
7
100
AcDbLine
 10
-8.153237499141608
 20
10.1806824134776
 30
0.0
 11
-7.907174507015627
 21
10.1806824134776
 31
0.0
  0
LINE
  5
4975
330
1E
100
AcDbEntity
  8
7
100
AcDbLine
 10
-7.907174507015627
 20
11.00745406702091
 30
0.0
 11
-7.907174507015627
 21
10.96808398828075
 31
0.0
  0
LINE
  5
4976
330
1E
100
AcDbEntity
  8
7
100
AcDbLine
 10
-7.907174507015627
 20
10.96808398828075
 30
0.0
 11
-7.907174507015627
 21
10.91887138985556
 31
0.0
  0
LINE
  5
4977
330
1E
100
AcDbEntity
  8
7
100
AcDbLine
 10
-8.153237499141608
 20
11.00745406702091
 30
0.0
 11
-8.153237499141608
 21
10.96808398828075
 31
0.0
  0
LINE
  5
4978
330
1E
100
AcDbEntity
  8
7
100
AcDbLine
 10
-8.153237499141608
 20
10.96808398828075
 30
0.0
 11
-8.153237499141608
 21
10.91887138985556
 31
0.0
  0
LINE
  5
4979
330
1E
100
AcDbEntity
  8
7
100
AcDbLine
 10
-8.153237499141608
 20
10.91887138985556
 30
0.0
 11
-7.907174507015627
 21
10.91887138985556
 31
0.0
  0
LINE
  5
497A
330
1E
100
AcDbEntity
  8
7
100
AcDbLine
 10
-8.153237499141608
 20
11.13540682292641
 30
0.0
 11
-8.153237499141608
 21
11.00745406702091
 31
0.0
  0
LINE
  5
497B
330
1E
100
AcDbEntity
  8
7
100
AcDbLine
 10
-8.153237499141608
 20
11.00745406702091
 30
0.0
 11
-7.907174507015627
 21
11.00745406702091
 31
0.0
  0
LINE
  5
497C
330
1E
100
AcDbEntity
  8
7
100
AcDbLine
 10
-8.153237499141608
 20
14.58028871269021
 30
0.0
 11
-7.907174507015627
 21
14.58028871269021
 31
0.0
  0
LINE
  5
497D
330
1E
100
AcDbEntity
  8
7
100
AcDbLine
 10
-7.907174507015627
 20
14.58028871269021
 30
0.0
 11
-7.907174507015627
 21
14.70824146859571
 31
0.0
  0
LINE
  5
497E
330
1E
100
AcDbEntity
  8
7
100
AcDbLine
 10
-8.153237499141608
 20
14.70824146859571
 30
0.0
 11
-8.153237499141608
 21
14.74761154733587
 31
0.0
  0
LINE
  5
497F
330
1E
100
AcDbEntity
  8
7
100
AcDbLine
 10
-8.153237499141608
 20
14.74761154733587
 30
0.0
 11
-8.153237499141608
 21
14.79682414576106
 31
0.0
  0
LINE
  5
4980
330
1E
100
AcDbEntity
  8
7
100
AcDbLine
 10
-8.153237499141608
 20
14.70824146859571
 30
0.0
 11
-7.907174507015627
 21
14.70824146859571
 31
0.0
  0
LINE
  5
4981
330
1E
100
AcDbEntity
  8
7
100
AcDbLine
 10
-7.907174507015627
 20
14.70824146859571
 30
0.0
 11
-7.907174507015627
 21
14.74761154733587
 31
0.0
  0
LINE
  5
4982
330
1E
100
AcDbEntity
  8
7
100
AcDbLine
 10
-7.907174507015627
 20
14.74761154733587
 30
0.0
 11
-7.907174507015627
 21
14.79682414576106
 31
0.0
  0
LINE
  5
4983
330
1E
100
AcDbEntity
  8
7
100
AcDbLine
 10
-8.153237499141608
 20
14.79682414576106
 30
0.0
 11
-7.907174507015627
 21
14.79682414576106
 31
0.0
  0
LINE
  5
4984
330
1E
100
AcDbEntity
  8
7
100
AcDbLine
 10
-7.907174507015627
 20
14.79682414576106
 30
0.0
 11
-7.907174507015627
 21
15.53501312213902
 31
0.0
  0
LINE
  5
4985
330
1E
100
AcDbEntity
  8
7
100
AcDbLine
 10
-7.907174507015627
 20
15.62359579930437
 30
0.0
 11
-7.907174507015627
 21
15.58422572056421
 31
0.0
  0
LINE
  5
4986
330
1E
100
AcDbEntity
  8
7
100
AcDbLine
 10
-7.907174507015627
 20
15.58422572056421
 30
0.0
 11
-7.907174507015627
 21
15.53501312213902
 31
0.0
  0
LINE
  5
4987
330
1E
100
AcDbEntity
  8
7
100
AcDbLine
 10
-8.153237499141608
 20
15.62359579930437
 30
0.0
 11
-8.153237499141608
 21
15.58422572056421
 31
0.0
  0
LINE
  5
4988
330
1E
100
AcDbEntity
  8
7
100
AcDbLine
 10
-8.153237499141608
 20
15.58422572056421
 30
0.0
 11
-8.153237499141608
 21
15.53501312213902
 31
0.0
  0
LINE
  5
4989
330
1E
100
AcDbEntity
  8
7
100
AcDbLine
 10
-8.153237499141608
 20
15.53501312213902
 30
0.0
 11
-7.907174507015627
 21
15.53501312213902
 31
0.0
  0
LINE
  5
498A
330
1E
100
AcDbEntity
  8
7
100
AcDbLine
 10
-7.907174507015627
 20
15.74170603552484
 30
0.0
 11
-8.153237499141608
 21
15.74170603552484
 31
0.0
  0
LINE
  5
498B
330
1E
100
AcDbEntity
  8
7
100
AcDbLine
 10
-8.153237499141608
 20
15.74170603552484
 30
0.0
 11
-8.153237499141608
 21
15.62359579930437
 31
0.0
  0
LINE
  5
498C
330
1E
100
AcDbEntity
  8
7
100
AcDbLine
 10
-3.989851672369956
 20
14.70824146859571
 30
0.0
 11
-3.989851672369956
 21
14.74761154733587
 31
0.0
  0
LINE
  5
498D
330
1E
100
AcDbEntity
  8
7
100
AcDbLine
 10
-3.989851672369956
 20
14.74761154733587
 30
0.0
 11
-3.989851672369956
 21
14.79682414576106
 31
0.0
  0
LINE
  5
498E
330
1E
100
AcDbEntity
  8
7
100
AcDbLine
 10
-4.245757184180979
 20
15.53501312213902
 30
0.0
 11
-4.245757184180979
 21
14.79682414576106
 31
0.0
  0
LINE
  5
498F
330
1E
100
AcDbEntity
  8
7
100
AcDbLine
 10
-4.245757184180979
 20
14.79682414576106
 30
0.0
 11
-3.989851672369956
 21
14.79682414576106
 31
0.0
  0
LINE
  5
4990
330
1E
100
AcDbEntity
  8
7
100
AcDbLine
 10
-3.989851672369956
 20
15.62359579930437
 30
0.0
 11
-3.989851672369956
 21
15.58422572056421
 31
0.0
  0
LINE
  5
4991
330
1E
100
AcDbEntity
  8
7
100
AcDbLine
 10
-3.989851672369956
 20
15.58422572056421
 30
0.0
 11
-3.989851672369956
 21
15.53501312213902
 31
0.0
  0
LINE
  5
4992
330
1E
100
AcDbEntity
  8
7
100
AcDbLine
 10
-4.245757184180979
 20
15.62359579930437
 30
0.0
 11
-4.245757184180979
 21
15.58422572056421
 31
0.0
  0
LINE
  5
4993
330
1E
100
AcDbEntity
  8
7
100
AcDbLine
 10
-4.245757184180979
 20
15.58422572056421
 30
0.0
 11
-4.245757184180979
 21
15.53501312213902
 31
0.0
  0
LINE
  5
4994
330
1E
100
AcDbEntity
  8
7
100
AcDbLine
 10
-4.245757184180979
 20
15.53501312213902
 30
0.0
 11
-3.989851672369956
 21
15.53501312213902
 31
0.0
  0
LINE
  5
4995
330
1E
100
AcDbEntity
  8
7
100
AcDbLine
 10
-4.245757184180979
 20
15.74170603552484
 30
0.0
 11
-4.245757184180979
 21
15.62359579930437
 31
0.0
  0
LINE
  5
4996
330
1E
100
AcDbEntity
  8
7
100
AcDbLine
 10
-4.245757184180979
 20
15.62359579930437
 30
0.0
 11
-3.989851672369956
 21
15.62359579930437
 31
0.0
  0
LINE
  5
4997
330
1E
100
AcDbEntity
  8
7
100
AcDbLine
 10
3.962904233141853
 20
16.03698162607602
 30
0.0
 11
4.031801870937131
 21
16.03698162607602
 31
0.0
  0
LINE
  5
4998
330
1E
100
AcDbEntity
  8
7
100
AcDbLine
 10
4.031801870937131
 20
16.03698162607602
 30
0.0
 11
4.061329429992246
 21
16.03698162607602
 31
0.0
  0
LINE
  5
4999
330
1E
100
AcDbEntity
  8
7
100
AcDbLine
 10
3.342825492984372
 20
5.387375326863434
 30
0.0
 11
3.342825492984372
 21
5.36769028749336
 31
0.0
  0
LINE
  5
499A
330
1E
100
AcDbEntity
  8
7
100
AcDbLine
 10
3.342825492984372
 20
5.36769028749336
 30
0.0
 11
3.342825492984372
 21
5.348005248123268
 31
0.0
  0
LINE
  5
499B
330
1E
100
AcDbEntity
  8
7
100
AcDbLine
 10
3.342825492984372
 20
5.220052492217767
 30
0.0
 11
3.342825492984372
 21
5.180682413477601
 31
0.0
  0
LINE
  5
499C
330
1E
100
AcDbEntity
  8
7
100
AcDbLine
 10
3.342825492984372
 20
5.180682413477601
 30
0.0
 11
3.342825492984372
 21
5.141312334737452
 31
0.0
  0
LINE
  5
499D
330
1E
100
AcDbEntity
  8
7
100
AcDbLine
 10
3.588888485110358
 20
5.387375326863434
 30
0.0
 11
3.588888485110358
 21
5.36769028749336
 31
0.0
  0
LINE
  5
499E
330
1E
100
AcDbEntity
  8
7
100
AcDbLine
 10
3.588888485110358
 20
5.36769028749336
 30
0.0
 11
3.588888485110358
 21
5.348005248123268
 31
0.0
  0
LINE
  5
499F
330
1E
100
AcDbEntity
  8
7
100
AcDbLine
 10
3.588888485110358
 20
5.348005248123268
 30
0.0
 11
3.588888485110358
 21
5.220052492217767
 31
0.0
  0
LINE
  5
49A0
330
1E
100
AcDbEntity
  8
7
100
AcDbLine
 10
3.588888485110358
 20
5.220052492217767
 30
0.0
 11
3.588888485110358
 21
5.180682413477601
 31
0.0
  0
LINE
  5
49A1
330
1E
100
AcDbEntity
  8
7
100
AcDbLine
 10
3.588888485110358
 20
5.180682413477601
 30
0.0
 11
3.588888485110358
 21
5.141312334737452
 31
0.0
  0
LINE
  5
49A2
330
1E
100
AcDbEntity
  8
7
100
AcDbLine
 10
3.588888485110358
 20
4.393280838674453
 30
0.0
 11
3.588888485110358
 21
5.141312334737452
 31
0.0
  0
LINE
  5
49A3
330
1E
100
AcDbEntity
  8
7
100
AcDbLine
 10
3.588888485110358
 20
5.141312334737452
 30
0.0
 11
3.342825492984372
 21
5.141312334737452
 31
0.0
  0
LINE
  5
49A4
330
1E
100
AcDbEntity
  8
7
100
AcDbLine
 10
3.962904233141853
 20
-6.502388452664124
 30
0.0
 11
4.031801870937131
 21
-6.502388452664124
 31
0.0
  0
LINE
  5
49A5
330
1E
100
AcDbEntity
  8
7
100
AcDbLine
 10
4.031801870937131
 20
-6.502388452664124
 30
0.0
 11
4.061329429992246
 21
-6.502388452664124
 31
0.0
  0
LINE
  5
49A6
330
1E
100
AcDbEntity
  8
7
100
AcDbLine
 10
3.342825492984372
 20
4.314540681194138
 30
0.0
 11
3.342825492984372
 21
4.353910759934304
 31
0.0
  0
LINE
  5
49A7
330
1E
100
AcDbEntity
  8
7
100
AcDbLine
 10
3.342825492984372
 20
4.353910759934304
 30
0.0
 11
3.342825492984372
 21
4.393280838674453
 31
0.0
  0
LINE
  5
49A8
330
1E
100
AcDbEntity
  8
7
100
AcDbLine
 10
3.588888485110358
 20
4.314540681194138
 30
0.0
 11
3.588888485110358
 21
4.353910759934304
 31
0.0
  0
LINE
  5
49A9
330
1E
100
AcDbEntity
  8
7
100
AcDbLine
 10
3.588888485110358
 20
4.353910759934304
 30
0.0
 11
3.588888485110358
 21
4.393280838674453
 31
0.0
  0
LINE
  5
49AA
330
1E
100
AcDbEntity
  8
7
100
AcDbLine
 10
3.588888485110358
 20
4.393280838674453
 30
0.0
 11
3.342825492984372
 21
4.393280838674453
 31
0.0
  0
LINE
  5
49AB
330
1E
100
AcDbEntity
  8
7
100
AcDbLine
 10
3.342825492984372
 20
4.137375326863434
 30
0.0
 11
3.342825492984372
 21
4.166902885918545
 31
0.0
  0
LINE
  5
49AC
330
1E
100
AcDbEntity
  8
7
100
AcDbLine
 10
3.342825492984372
 20
4.166902885918545
 30
0.0
 11
3.342825492984372
 21
4.186587925288637
 31
0.0
  0
LINE
  5
49AD
330
1E
100
AcDbEntity
  8
7
100
AcDbLine
 10
3.588888485110358
 20
4.137375326863434
 30
0.0
 11
3.588888485110358
 21
4.166902885918545
 31
0.0
  0
LINE
  5
49AE
330
1E
100
AcDbEntity
  8
7
100
AcDbLine
 10
3.588888485110358
 20
4.166902885918545
 30
0.0
 11
3.588888485110358
 21
4.186587925288637
 31
0.0
  0
LINE
  5
49AF
330
1E
100
AcDbEntity
  8
7
100
AcDbLine
 10
3.588888485110358
 20
4.186587925288637
 30
0.0
 11
3.588888485110358
 21
4.314540681194138
 31
0.0
  0
LINE
  5
49B0
330
1E
100
AcDbEntity
  8
7
100
AcDbLine
 10
3.588888485110358
 20
4.314540681194138
 30
0.0
 11
3.342825492984372
 21
4.314540681194138
 31
0.0
  0
LINE
  5
49B1
330
1E
100
AcDbEntity
  8
7
100
AcDbLine
 10
3.342825492984372
 20
-0.3901837282546765
 30
0.0
 11
3.342825492984372
 21
-0.4197112873097879
 31
0.0
  0
LINE
  5
49B2
330
1E
100
AcDbEntity
  8
7
100
AcDbLine
 10
3.342825492984372
 20
-0.4197112873097879
 30
0.0
 11
3.342825492984372
 21
-0.43939632667988
 31
0.0
  0
LINE
  5
49B3
330
1E
100
AcDbEntity
  8
7
100
AcDbLine
 10
3.342825492984372
 20
-1.640183728254676
 30
0.0
 11
3.342825492984372
 21
-1.620498688884602
 31
0.0
  0
LINE
  5
49B4
330
1E
100
AcDbEntity
  8
7
100
AcDbLine
 10
3.342825492984372
 20
-1.620498688884602
 30
0.0
 11
3.342825492984372
 21
-1.600813649514527
 31
0.0
  0
LINE
  5
49B5
330
1E
100
AcDbEntity
  8
7
100
AcDbLine
 10
3.588888485110358
 20
-1.640183728254676
 30
0.0
 11
3.588888485110358
 21
-1.620498688884602
 31
0.0
  0
LINE
  5
49B6
330
1E
100
AcDbEntity
  8
7
100
AcDbLine
 10
3.588888485110358
 20
-1.620498688884602
 30
0.0
 11
3.588888485110358
 21
-1.600813649514527
 31
0.0
  0
LINE
  5
49B7
330
1E
100
AcDbEntity
  8
7
100
AcDbLine
 10
3.588888485110358
 20
-0.3901837282546765
 30
0.0
 11
3.588888485110358
 21
-0.4197112873097879
 31
0.0
  0
LINE
  5
49B8
330
1E
100
AcDbEntity
  8
7
100
AcDbLine
 10
3.588888485110358
 20
-0.4197112873097879
 30
0.0
 11
3.588888485110358
 21
-0.43939632667988
 31
0.0
  0
LINE
  5
49B9
330
1E
100
AcDbEntity
  8
7
100
AcDbLine
 10
3.342825492984372
 20
-6.256325460538143
 30
0.0
 11
3.342825492984372
 21
-6.236640421168061
 31
0.0
  0
LINE
  5
49BA
330
1E
100
AcDbEntity
  8
7
100
AcDbLine
 10
3.342825492984372
 20
-6.236640421168061
 30
0.0
 11
3.342825492984372
 21
-6.216955381797987
 31
0.0
  0
LINE
  5
49BB
330
1E
100
AcDbEntity
  8
7
100
AcDbLine
 10
3.588888485110358
 20
-6.256325460538143
 30
0.0
 11
3.588888485110358
 21
-6.236640421168061
 31
0.0
  0
LINE
  5
49BC
330
1E
100
AcDbEntity
  8
7
100
AcDbLine
 10
3.588888485110358
 20
-6.236640421168061
 30
0.0
 11
3.588888485110358
 21
-6.216955381797987
 31
0.0
  0
LINE
  5
49BD
330
1E
100
AcDbEntity
  8
7
100
AcDbLine
 10
3.342825492984372
 20
-5.006325460538143
 30
0.0
 11
3.342825492984372
 21
-5.026010499908217
 31
0.0
  0
LINE
  5
49BE
330
1E
100
AcDbEntity
  8
7
100
AcDbLine
 10
3.342825492984372
 20
-5.026010499908217
 30
0.0
 11
3.342825492984372
 21
-5.045695539278302
 31
0.0
  0
LINE
  5
49BF
330
1E
100
AcDbEntity
  8
7
100
AcDbLine
 10
3.588888485110358
 20
-5.006325460538143
 30
0.0
 11
3.588888485110358
 21
-5.026010499908217
 31
0.0
  0
LINE
  5
49C0
330
1E
100
AcDbEntity
  8
7
100
AcDbLine
 10
3.588888485110358
 20
-5.026010499908217
 30
0.0
 11
3.588888485110358
 21
-5.045695539278302
 31
0.0
  0
LINE
  5
49C1
330
1E
100
AcDbEntity
  8
7
100
AcDbLine
 10
-0.5744973416612944
 20
-6.256325460538143
 30
0.0
 11
-0.5744973416612944
 21
-6.236640421168061
 31
0.0
  0
LINE
  5
49C2
330
1E
100
AcDbEntity
  8
7
100
AcDbLine
 10
-0.5744973416612944
 20
-6.236640421168061
 30
0.0
 11
-0.5744973416612944
 21
-6.216955381797987
 31
0.0
  0
LINE
  5
49C3
330
1E
100
AcDbEntity
  8
7
100
AcDbLine
 10
-0.3284343495353128
 20
-6.256325460538143
 30
0.0
 11
-0.3284343495353128
 21
-6.236640421168061
 31
0.0
  0
LINE
  5
49C4
330
1E
100
AcDbEntity
  8
7
100
AcDbLine
 10
-0.3284343495353128
 20
-6.236640421168061
 30
0.0
 11
-0.3284343495353128
 21
-6.216955381797987
 31
0.0
  0
LINE
  5
49C5
330
1E
100
AcDbEntity
  8
7
100
AcDbLine
 10
-0.3284343495353128
 20
-5.006325460538143
 30
0.0
 11
-0.3284343495353128
 21
-5.026010499908217
 31
0.0
  0
LINE
  5
49C6
330
1E
100
AcDbEntity
  8
7
100
AcDbLine
 10
-0.3284343495353128
 20
-5.026010499908217
 30
0.0
 11
-0.3284343495353128
 21
-5.045695539278302
 31
0.0
  0
LINE
  5
49C7
330
1E
100
AcDbEntity
  8
7
100
AcDbLine
 10
-0.5744973416612944
 20
-5.006325460538143
 30
0.0
 11
-0.5744973416612944
 21
-5.026010499908217
 31
0.0
  0
LINE
  5
49C8
330
1E
100
AcDbEntity
  8
7
100
AcDbLine
 10
-0.5744973416612944
 20
-5.026010499908217
 30
0.0
 11
-0.5744973416612944
 21
-5.045695539278302
 31
0.0
  0
LINE
  5
49C9
330
1E
100
AcDbEntity
  8
7
100
AcDbLine
 10
3.588888485110358
 20
-0.5673490825853805
 30
0.0
 11
3.588888485110358
 21
-0.6067191613255467
 31
0.0
  0
LINE
  5
49CA
330
1E
100
AcDbEntity
  8
7
100
AcDbLine
 10
3.588888485110358
 20
-0.6067191613255467
 30
0.0
 11
3.588888485110358
 21
-0.6460892400656953
 31
0.0
  0
LINE
  5
49CB
330
1E
100
AcDbEntity
  8
7
100
AcDbLine
 10
3.342825492984372
 20
-0.5673490825853805
 30
0.0
 11
3.342825492984372
 21
-0.6067191613255467
 31
0.0
  0
LINE
  5
49CC
330
1E
100
AcDbEntity
  8
7
100
AcDbLine
 10
3.342825492984372
 20
-0.6067191613255467
 30
0.0
 11
3.342825492984372
 21
-0.6460892400656953
 31
0.0
  0
LINE
  5
49CD
330
1E
100
AcDbEntity
  8
7
100
AcDbLine
 10
3.588888485110358
 20
-1.384278216443657
 30
0.0
 11
3.588888485110358
 21
-0.6460892400656953
 31
0.0
  0
LINE
  5
49CE
330
1E
100
AcDbEntity
  8
7
100
AcDbLine
 10
3.588888485110358
 20
-0.6460892400656953
 30
0.0
 11
3.342825492984372
 21
-0.6460892400656953
 31
0.0
  0
LINE
  5
49CF
330
1E
100
AcDbEntity
  8
7
100
AcDbLine
 10
3.342825492984372
 20
-1.472860893609009
 30
0.0
 11
3.342825492984372
 21
-1.433490814868843
 31
0.0
  0
LINE
  5
49D0
330
1E
100
AcDbEntity
  8
7
100
AcDbLine
 10
3.342825492984372
 20
-1.433490814868843
 30
0.0
 11
3.342825492984372
 21
-1.384278216443657
 31
0.0
  0
LINE
  5
49D1
330
1E
100
AcDbEntity
  8
7
100
AcDbLine
 10
3.588888485110358
 20
-1.472860893609009
 30
0.0
 11
3.588888485110358
 21
-1.433490814868843
 31
0.0
  0
LINE
  5
49D2
330
1E
100
AcDbEntity
  8
7
100
AcDbLine
 10
3.588888485110358
 20
-1.433490814868843
 30
0.0
 11
3.588888485110358
 21
-1.384278216443657
 31
0.0
  0
LINE
  5
49D3
330
1E
100
AcDbEntity
  8
7
100
AcDbLine
 10
3.588888485110358
 20
-1.384278216443657
 30
0.0
 11
3.342825492984372
 21
-1.384278216443657
 31
0.0
  0
LINE
  5
49D4
330
1E
100
AcDbEntity
  8
7
100
AcDbLine
 10
3.588888485110358
 20
-1.600813649514527
 30
0.0
 11
3.588888485110358
 21
-1.472860893609009
 31
0.0
  0
LINE
  5
49D5
330
1E
100
AcDbEntity
  8
7
100
AcDbLine
 10
3.588888485110358
 20
-1.472860893609009
 30
0.0
 11
3.342825492984372
 21
-1.472860893609009
 31
0.0
  0
LINE
  5
49D6
330
1E
100
AcDbEntity
  8
7
100
AcDbLine
 10
3.588888485110358
 20
-5.045695539278302
 30
0.0
 11
3.342825492984372
 21
-5.045695539278302
 31
0.0
  0
LINE
  5
49D7
330
1E
100
AcDbEntity
  8
7
100
AcDbLine
 10
3.342825492984372
 20
-5.045695539278302
 30
0.0
 11
3.342825492984372
 21
-5.173648295183809
 31
0.0
  0
LINE
  5
49D8
330
1E
100
AcDbEntity
  8
7
100
AcDbLine
 10
3.588888485110358
 20
-5.173648295183809
 30
0.0
 11
3.588888485110358
 21
-5.213018373923969
 31
0.0
  0
LINE
  5
49D9
330
1E
100
AcDbEntity
  8
7
100
AcDbLine
 10
3.588888485110358
 20
-5.213018373923969
 30
0.0
 11
3.588888485110358
 21
-5.262230972349161
 31
0.0
  0
LINE
  5
49DA
330
1E
100
AcDbEntity
  8
7
100
AcDbLine
 10
3.588888485110358
 20
-5.173648295183809
 30
0.0
 11
3.342825492984372
 21
-5.173648295183809
 31
0.0
  0
LINE
  5
49DB
330
1E
100
AcDbEntity
  8
7
100
AcDbLine
 10
3.342825492984372
 20
-5.173648295183809
 30
0.0
 11
3.342825492984372
 21
-5.213018373923969
 31
0.0
  0
LINE
  5
49DC
330
1E
100
AcDbEntity
  8
7
100
AcDbLine
 10
3.342825492984372
 20
-5.213018373923969
 30
0.0
 11
3.342825492984372
 21
-5.262230972349161
 31
0.0
  0
LINE
  5
49DD
330
1E
100
AcDbEntity
  8
7
100
AcDbLine
 10
3.588888485110358
 20
-5.262230972349161
 30
0.0
 11
3.342825492984372
 21
-5.262230972349161
 31
0.0
  0
LINE
  5
49DE
330
1E
100
AcDbEntity
  8
7
100
AcDbLine
 10
3.342825492984372
 20
-5.262230972349161
 30
0.0
 11
3.342825492984372
 21
-6.000419948727117
 31
0.0
  0
LINE
  5
49DF
330
1E
100
AcDbEntity
  8
7
100
AcDbLine
 10
3.342825492984372
 20
-6.089002625892476
 30
0.0
 11
3.342825492984372
 21
-6.04963254715232
 31
0.0
  0
LINE
  5
49E0
330
1E
100
AcDbEntity
  8
7
100
AcDbLine
 10
3.342825492984372
 20
-6.04963254715232
 30
0.0
 11
3.342825492984372
 21
-6.000419948727117
 31
0.0
  0
LINE
  5
49E1
330
1E
100
AcDbEntity
  8
7
100
AcDbLine
 10
3.588888485110358
 20
-6.089002625892476
 30
0.0
 11
3.588888485110358
 21
-6.04963254715232
 31
0.0
  0
LINE
  5
49E2
330
1E
100
AcDbEntity
  8
7
100
AcDbLine
 10
3.588888485110358
 20
-6.04963254715232
 30
0.0
 11
3.588888485110358
 21
-6.000419948727117
 31
0.0
  0
LINE
  5
49E3
330
1E
100
AcDbEntity
  8
7
100
AcDbLine
 10
3.588888485110358
 20
-6.000419948727117
 30
0.0
 11
3.342825492984372
 21
-6.000419948727117
 31
0.0
  0
LINE
  5
49E4
330
1E
100
AcDbEntity
  8
7
100
AcDbLine
 10
3.342825492984372
 20
-6.216955381797987
 30
0.0
 11
3.588888485110358
 21
-6.216955381797987
 31
0.0
  0
LINE
  5
49E5
330
1E
100
AcDbEntity
  8
7
100
AcDbLine
 10
3.588888485110358
 20
-6.216955381797987
 30
0.0
 11
3.588888485110358
 21
-6.089002625892476
 31
0.0
  0
LINE
  5
49E6
330
1E
100
AcDbEntity
  8
7
100
AcDbLine
 10
-0.3284343495353128
 20
-5.173648295183809
 30
0.0
 11
-0.3284343495353128
 21
-5.213018373923969
 31
0.0
  0
LINE
  5
49E7
330
1E
100
AcDbEntity
  8
7
100
AcDbLine
 10
-0.3284343495353128
 20
-5.213018373923969
 30
0.0
 11
-0.3284343495353128
 21
-5.262230972349161
 31
0.0
  0
LINE
  5
49E8
330
1E
100
AcDbEntity
  8
7
100
AcDbLine
 10
-0.5744973416612944
 20
-5.173648295183809
 30
0.0
 11
-0.5744973416612944
 21
-5.213018373923969
 31
0.0
  0
LINE
  5
49E9
330
1E
100
AcDbEntity
  8
7
100
AcDbLine
 10
-0.5744973416612944
 20
-5.213018373923969
 30
0.0
 11
-0.5744973416612944
 21
-5.262230972349161
 31
0.0
  0
LINE
  5
49EA
330
1E
100
AcDbEntity
  8
7
100
AcDbLine
 10
-0.3284343495353128
 20
-6.000419948727117
 30
0.0
 11
-0.3284343495353128
 21
-5.262230972349161
 31
0.0
  0
LINE
  5
49EB
330
1E
100
AcDbEntity
  8
7
100
AcDbLine
 10
-0.3284343495353128
 20
-5.262230972349161
 30
0.0
 11
-0.5744973416612944
 21
-5.262230972349161
 31
0.0
  0
LINE
  5
49EC
330
1E
100
AcDbEntity
  8
7
100
AcDbLine
 10
-0.5744973416612944
 20
-6.089002625892476
 30
0.0
 11
-0.5744973416612944
 21
-6.04963254715232
 31
0.0
  0
LINE
  5
49ED
330
1E
100
AcDbEntity
  8
7
100
AcDbLine
 10
-0.5744973416612944
 20
-6.04963254715232
 30
0.0
 11
-0.5744973416612944
 21
-6.000419948727117
 31
0.0
  0
LINE
  5
49EE
330
1E
100
AcDbEntity
  8
7
100
AcDbLine
 10
-0.3284343495353128
 20
-6.089002625892476
 30
0.0
 11
-0.3284343495353128
 21
-6.04963254715232
 31
0.0
  0
LINE
  5
49EF
330
1E
100
AcDbEntity
  8
7
100
AcDbLine
 10
-0.3284343495353128
 20
-6.04963254715232
 30
0.0
 11
-0.3284343495353128
 21
-6.000419948727117
 31
0.0
  0
LINE
  5
49F0
330
1E
100
AcDbEntity
  8
7
100
AcDbLine
 10
-0.3284343495353128
 20
-6.000419948727117
 30
0.0
 11
-0.5744973416612944
 21
-6.000419948727117
 31
0.0
  0
LINE
  5
49F1
330
1E
100
AcDbEntity
  8
7
100
AcDbLine
 10
-0.3284343495353128
 20
-6.216955381797987
 30
0.0
 11
-0.3284343495353128
 21
-6.089002625892476
 31
0.0
  0
LINE
  5
49F2
330
1E
100
AcDbEntity
  8
7
100
AcDbLine
 10
-0.3284343495353128
 20
-6.089002625892476
 30
0.0
 11
-0.5744973416612944
 21
-6.089002625892476
 31
0.0
  0
LINE
  5
49F3
330
1E
100
AcDbEntity
  8
7
100
AcDbLine
 10
2.703061713456816
 20
14.06847768906815
 30
0.0
 11
2.604636516606423
 21
14.02910761032799
 31
0.0
  0
LINE
  5
49F4
330
1E
100
AcDbEntity
  8
7
100
AcDbLine
 10
2.604636516606423
 20
14.02910761032799
 30
0.0
 11
2.565266437866265
 21
13.9306824134776
 31
0.0
  0
LINE
  5
49F5
330
1E
100
AcDbEntity
  8
7
100
AcDbLine
 10
2.565266437866265
 20
13.9306824134776
 30
0.0
 11
2.604636516606423
 21
13.83225721662721
 31
0.0
  0
LINE
  5
49F6
330
1E
100
AcDbEntity
  8
7
100
AcDbLine
 10
2.604636516606423
 20
13.83225721662721
 30
0.0
 11
2.703061713456816
 21
13.79288713788704
 31
0.0
  0
LINE
  5
49F7
330
1E
100
AcDbEntity
  8
7
100
AcDbLine
 10
2.703061713456816
 20
13.79288713788704
 30
0.0
 11
2.80148691030721
 21
13.83225721662721
 31
0.0
  0
LINE
  5
49F8
330
1E
100
AcDbEntity
  8
7
100
AcDbLine
 10
2.80148691030721
 20
13.83225721662721
 30
0.0
 11
2.840856989047367
 21
13.9306824134776
 31
0.0
  0
LINE
  5
49F9
330
1E
100
AcDbEntity
  8
7
100
AcDbLine
 10
2.840856989047367
 20
13.9306824134776
 30
0.0
 11
2.80148691030721
 21
14.02910761032799
 31
0.0
  0
LINE
  5
49FA
330
1E
100
AcDbEntity
  8
7
100
AcDbLine
 10
1.354636516606423
 20
13.83225721662721
 30
0.0
 11
1.453061713456816
 21
13.79288713788704
 31
0.0
  0
LINE
  5
49FB
330
1E
100
AcDbEntity
  8
7
100
AcDbLine
 10
1.453061713456816
 20
13.79288713788704
 30
0.0
 11
1.55148691030721
 21
13.83225721662721
 31
0.0
  0
LINE
  5
49FC
330
1E
100
AcDbEntity
  8
7
100
AcDbLine
 10
1.55148691030721
 20
13.83225721662721
 30
0.0
 11
1.590856989047367
 21
13.9306824134776
 31
0.0
  0
LINE
  5
49FD
330
1E
100
AcDbEntity
  8
7
100
AcDbLine
 10
1.590856989047367
 20
13.9306824134776
 30
0.0
 11
1.55148691030721
 21
14.02910761032799
 31
0.0
  0
LINE
  5
49FE
330
1E
100
AcDbEntity
  8
7
100
AcDbLine
 10
1.55148691030721
 20
14.02910761032799
 30
0.0
 11
1.453061713456816
 21
14.06847768906815
 31
0.0
  0
LINE
  5
49FF
330
1E
100
AcDbEntity
  8
7
100
AcDbLine
 10
1.453061713456816
 20
14.06847768906815
 30
0.0
 11
1.354636516606423
 21
14.02910761032799
 31
0.0
  0
LINE
  5
4A00
330
1E
100
AcDbEntity
  8
7
100
AcDbLine
 10
1.354636516606423
 20
14.02910761032799
 30
0.0
 11
1.315266437866265
 21
13.9306824134776
 31
0.0
  0
LINE
  5
4A01
330
1E
100
AcDbEntity
  8
7
100
AcDbLine
 10
1.315266437866265
 20
13.9306824134776
 30
0.0
 11
1.354636516606423
 21
13.83225721662721
 31
0.0
  0
LINE
  5
4A02
330
1E
100
AcDbEntity
  8
7
100
AcDbLine
 10
2.565266437866265
 20
9.767296586705953
 30
0.0
 11
2.584951477236344
 21
9.77713910639099
 31
0.0
  0
LINE
  5
4A03
330
1E
100
AcDbEntity
  8
7
100
AcDbLine
 10
2.584951477236344
 20
9.77713910639099
 30
0.0
 11
2.594793996921381
 21
9.796824145761064
 31
0.0
  0
LINE
  5
4A04
330
1E
100
AcDbEntity
  8
7
100
AcDbLine
 10
2.594793996921381
 20
11.24367453946186
 30
0.0
 11
2.584951477236344
 21
11.26335957883193
 31
0.0
  0
LINE
  5
4A05
330
1E
100
AcDbEntity
  8
7
100
AcDbLine
 10
2.584951477236344
 20
11.26335957883193
 30
0.0
 11
2.565266437866265
 21
11.27320209851697
 31
0.0
  0
LINE
  5
4A06
330
1E
100
AcDbEntity
  8
7
100
AcDbLine
 10
1.876290059913506
 20
11.27320209851697
 30
0.0
 11
1.856605020543427
 21
11.26335957883193
 31
0.0
  0
LINE
  5
4A07
330
1E
100
AcDbEntity
  8
7
100
AcDbLine
 10
1.856605020543427
 20
11.26335957883193
 30
0.0
 11
1.84676250085839
 21
11.24367453946186
 31
0.0
  0
LINE
  5
4A08
330
1E
100
AcDbEntity
  8
7
100
AcDbLine
 10
1.84676250085839
 20
9.796824145761064
 30
0.0
 11
1.856605020543427
 21
9.77713910639099
 31
0.0
  0
LINE
  5
4A09
330
1E
100
AcDbEntity
  8
7
100
AcDbLine
 10
1.856605020543427
 20
9.77713910639099
 30
0.0
 11
1.876290059913506
 21
9.767296586705953
 31
0.0
  0
LINE
  5
4A0A
330
1E
100
AcDbEntity
  8
7
100
AcDbLine
 10
2.821171949677288
 20
13.281076114265
 30
0.0
 11
2.899912107157603
 21
13.32044619300515
 31
0.0
  0
LINE
  5
4A0B
330
1E
100
AcDbEntity
  8
7
100
AcDbLine
 10
2.899912107157603
 20
13.32044619300515
 30
0.0
 11
2.899912107157603
 21
13.40902887017052
 31
0.0
  0
LINE
  5
4A0C
330
1E
100
AcDbEntity
  8
7
100
AcDbLine
 10
2.899912107157603
 20
13.40902887017052
 30
0.0
 11
2.821171949677288
 21
13.45824146859571
 31
0.0
  0
LINE
  5
4A0D
330
1E
100
AcDbEntity
  8
7
100
AcDbLine
 10
2.821171949677288
 20
13.45824146859571
 30
0.0
 11
2.742431792196974
 21
13.41887138985556
 31
0.0
  0
LINE
  5
4A0E
330
1E
100
AcDbEntity
  8
7
100
AcDbLine
 10
2.742431792196974
 20
13.41887138985556
 30
0.0
 11
2.742431792196974
 21
13.33028871269021
 31
0.0
  0
LINE
  5
4A0F
330
1E
100
AcDbEntity
  8
7
100
AcDbLine
 10
2.742431792196974
 20
13.33028871269021
 30
0.0
 11
2.821171949677288
 21
13.281076114265
 31
0.0
  0
LINE
  5
4A10
330
1E
100
AcDbEntity
  8
7
100
AcDbLine
 10
2.821171949677288
 20
11.4798950119028
 30
0.0
 11
2.899912107157603
 21
11.51926509064295
 31
0.0
  0
LINE
  5
4A11
330
1E
100
AcDbEntity
  8
7
100
AcDbLine
 10
2.899912107157603
 20
11.51926509064295
 30
0.0
 11
2.899912107157603
 21
11.60784776780832
 31
0.0
  0
LINE
  5
4A12
330
1E
100
AcDbEntity
  8
7
100
AcDbLine
 10
2.899912107157603
 20
11.60784776780832
 30
0.0
 11
2.821171949677288
 21
11.6570603662335
 31
0.0
  0
LINE
  5
4A13
330
1E
100
AcDbEntity
  8
7
100
AcDbLine
 10
2.821171949677288
 20
11.6570603662335
 30
0.0
 11
2.742431792196974
 21
11.61769028749336
 31
0.0
  0
LINE
  5
4A14
330
1E
100
AcDbEntity
  8
7
100
AcDbLine
 10
2.742431792196974
 20
11.61769028749336
 30
0.0
 11
2.742431792196974
 21
11.52910761032799
 31
0.0
  0
LINE
  5
4A15
330
1E
100
AcDbEntity
  8
7
100
AcDbLine
 10
2.742431792196974
 20
11.52910761032799
 30
0.0
 11
2.821171949677288
 21
11.4798950119028
 31
0.0
  0
LINE
  5
4A16
330
1E
100
AcDbEntity
  8
7
100
AcDbLine
 10
-7.277253247173105
 20
13.79288713788704
 30
0.0
 11
-7.17882805032271
 21
13.83225721662721
 31
0.0
  0
LINE
  5
4A17
330
1E
100
AcDbEntity
  8
7
100
AcDbLine
 10
-7.17882805032271
 20
13.83225721662721
 30
0.0
 11
-7.139457971582553
 21
13.9306824134776
 31
0.0
  0
LINE
  5
4A18
330
1E
100
AcDbEntity
  8
7
100
AcDbLine
 10
-7.139457971582553
 20
13.9306824134776
 30
0.0
 11
-7.17882805032271
 21
14.02910761032799
 31
0.0
  0
LINE
  5
4A19
330
1E
100
AcDbEntity
  8
7
100
AcDbLine
 10
-7.17882805032271
 20
14.02910761032799
 30
0.0
 11
-7.277253247173105
 21
14.06847768906815
 31
0.0
  0
LINE
  5
4A1A
330
1E
100
AcDbEntity
  8
7
100
AcDbLine
 10
-7.277253247173105
 20
14.06847768906815
 30
0.0
 11
-7.375678444023497
 21
14.02910761032799
 31
0.0
  0
LINE
  5
4A1B
330
1E
100
AcDbEntity
  8
7
100
AcDbLine
 10
-7.375678444023497
 20
14.02910761032799
 30
0.0
 11
-7.415048522763655
 21
13.9306824134776
 31
0.0
  0
LINE
  5
4A1C
330
1E
100
AcDbEntity
  8
7
100
AcDbLine
 10
-7.415048522763655
 20
13.9306824134776
 30
0.0
 11
-7.375678444023497
 21
13.83225721662721
 31
0.0
  0
LINE
  5
4A1D
330
1E
100
AcDbEntity
  8
7
100
AcDbLine
 10
-7.375678444023497
 20
13.83225721662721
 30
0.0
 11
-7.277253247173105
 21
13.79288713788704
 31
0.0
  0
LINE
  5
4A1E
330
1E
100
AcDbEntity
  8
7
100
AcDbLine
 10
-6.027253247173105
 20
13.79288713788704
 30
0.0
 11
-5.92882805032271
 21
13.83225721662721
 31
0.0
  0
LINE
  5
4A1F
330
1E
100
AcDbEntity
  8
7
100
AcDbLine
 10
-5.92882805032271
 20
13.83225721662721
 30
0.0
 11
-5.889457971582553
 21
13.9306824134776
 31
0.0
  0
LINE
  5
4A20
330
1E
100
AcDbEntity
  8
7
100
AcDbLine
 10
-5.889457971582553
 20
13.9306824134776
 30
0.0
 11
-5.92882805032271
 21
14.02910761032799
 31
0.0
  0
LINE
  5
4A21
330
1E
100
AcDbEntity
  8
7
100
AcDbLine
 10
-5.92882805032271
 20
14.02910761032799
 30
0.0
 11
-6.027253247173105
 21
14.06847768906815
 31
0.0
  0
LINE
  5
4A22
330
1E
100
AcDbEntity
  8
7
100
AcDbLine
 10
-6.027253247173105
 20
14.06847768906815
 30
0.0
 11
-6.125678444023497
 21
14.02910761032799
 31
0.0
  0
LINE
  5
4A23
330
1E
100
AcDbEntity
  8
7
100
AcDbLine
 10
-6.125678444023497
 20
14.02910761032799
 30
0.0
 11
-6.165048522763655
 21
13.9306824134776
 31
0.0
  0
LINE
  5
4A24
330
1E
100
AcDbEntity
  8
7
100
AcDbLine
 10
-6.165048522763655
 20
13.9306824134776
 30
0.0
 11
-6.125678444023497
 21
13.83225721662721
 31
0.0
  0
LINE
  5
4A25
330
1E
100
AcDbEntity
  8
7
100
AcDbLine
 10
-6.125678444023497
 20
13.83225721662721
 30
0.0
 11
-6.027253247173105
 21
13.79288713788704
 31
0.0
  0
LINE
  5
4A26
330
1E
100
AcDbEntity
  8
7
100
AcDbLine
 10
-6.440639073944756
 20
9.767296586705953
 30
0.0
 11
-6.420954034574679
 21
9.77713910639099
 31
0.0
  0
LINE
  5
4A27
330
1E
100
AcDbEntity
  8
7
100
AcDbLine
 10
-6.420954034574679
 20
9.77713910639099
 30
0.0
 11
-6.411111514889642
 21
9.796824145761064
 31
0.0
  0
LINE
  5
4A28
330
1E
100
AcDbEntity
  8
7
100
AcDbLine
 10
-6.411111514889642
 20
11.24367453946186
 30
0.0
 11
-6.420954034574679
 21
11.26335957883193
 31
0.0
  0
LINE
  5
4A29
330
1E
100
AcDbEntity
  8
7
100
AcDbLine
 10
-6.420954034574679
 20
11.26335957883193
 30
0.0
 11
-6.440639073944756
 21
11.27320209851697
 31
0.0
  0
LINE
  5
4A2A
330
1E
100
AcDbEntity
  8
7
100
AcDbLine
 10
-7.129615451897516
 20
11.27320209851697
 30
0.0
 11
-7.149300491267595
 21
11.26335957883193
 31
0.0
  0
LINE
  5
4A2B
330
1E
100
AcDbEntity
  8
7
100
AcDbLine
 10
-7.149300491267595
 20
11.26335957883193
 30
0.0
 11
-7.159143010952632
 21
11.24367453946186
 31
0.0
  0
LINE
  5
4A2C
330
1E
100
AcDbEntity
  8
7
100
AcDbLine
 10
-7.159143010952632
 20
9.796824145761064
 30
0.0
 11
-7.149300491267595
 21
9.77713910639099
 31
0.0
  0
LINE
  5
4A2D
330
1E
100
AcDbEntity
  8
7
100
AcDbLine
 10
-7.149300491267595
 20
9.77713910639099
 30
0.0
 11
-7.129615451897516
 21
9.767296586705953
 31
0.0
  0
LINE
  5
4A2E
330
1E
100
AcDbEntity
  8
7
100
AcDbLine
 10
-7.38552096370854
 20
13.45824146859571
 30
0.0
 11
-7.464261121188854
 21
13.41887138985556
 31
0.0
  0
LINE
  5
4A2F
330
1E
100
AcDbEntity
  8
7
100
AcDbLine
 10
-7.464261121188854
 20
13.41887138985556
 30
0.0
 11
-7.464261121188854
 21
13.33028871269021
 31
0.0
  0
LINE
  5
4A30
330
1E
100
AcDbEntity
  8
7
100
AcDbLine
 10
-7.464261121188854
 20
13.33028871269021
 30
0.0
 11
-7.38552096370854
 21
13.281076114265
 31
0.0
  0
LINE
  5
4A31
330
1E
100
AcDbEntity
  8
7
100
AcDbLine
 10
-7.38552096370854
 20
13.281076114265
 30
0.0
 11
-7.306780806228225
 21
13.32044619300515
 31
0.0
  0
LINE
  5
4A32
330
1E
100
AcDbEntity
  8
7
100
AcDbLine
 10
-7.306780806228225
 20
13.32044619300515
 30
0.0
 11
-7.306780806228225
 21
13.40902887017052
 31
0.0
  0
LINE
  5
4A33
330
1E
100
AcDbEntity
  8
7
100
AcDbLine
 10
-7.306780806228225
 20
13.40902887017052
 30
0.0
 11
-7.38552096370854
 21
13.45824146859571
 31
0.0
  0
LINE
  5
4A34
330
1E
100
AcDbEntity
  8
7
100
AcDbLine
 10
-7.38552096370854
 20
11.6570603662335
 30
0.0
 11
-7.464261121188854
 21
11.61769028749336
 31
0.0
  0
LINE
  5
4A35
330
1E
100
AcDbEntity
  8
7
100
AcDbLine
 10
-7.464261121188854
 20
11.61769028749336
 30
0.0
 11
-7.464261121188854
 21
11.52910761032799
 31
0.0
  0
LINE
  5
4A36
330
1E
100
AcDbEntity
  8
7
100
AcDbLine
 10
-7.464261121188854
 20
11.52910761032799
 30
0.0
 11
-7.38552096370854
 21
11.4798950119028
 31
0.0
  0
LINE
  5
4A37
330
1E
100
AcDbEntity
  8
7
100
AcDbLine
 10
-7.38552096370854
 20
11.4798950119028
 30
0.0
 11
-7.306780806228225
 21
11.51926509064295
 31
0.0
  0
LINE
  5
4A38
330
1E
100
AcDbEntity
  8
7
100
AcDbLine
 10
-7.306780806228225
 20
11.51926509064295
 30
0.0
 11
-7.306780806228225
 21
11.60784776780832
 31
0.0
  0
LINE
  5
4A39
330
1E
100
AcDbEntity
  8
7
100
AcDbLine
 10
-7.306780806228225
 20
11.60784776780832
 30
0.0
 11
-7.38552096370854
 21
11.6570603662335
 31
0.0
  0
LINE
  5
4A3A
330
1E
100
AcDbEntity
  8
7
100
AcDbLine
 10
2.604636516606423
 20
-4.297664043215309
 30
0.0
 11
2.565266437866265
 21
-4.396089240065698
 31
0.0
  0
LINE
  5
4A3B
330
1E
100
AcDbEntity
  8
7
100
AcDbLine
 10
2.565266437866265
 20
-4.396089240065698
 30
0.0
 11
2.604636516606423
 21
-4.494514436916098
 31
0.0
  0
LINE
  5
4A3C
330
1E
100
AcDbEntity
  8
7
100
AcDbLine
 10
2.604636516606423
 20
-4.494514436916098
 30
0.0
 11
2.703061713456816
 21
-4.533884515656254
 31
0.0
  0
LINE
  5
4A3D
330
1E
100
AcDbEntity
  8
7
100
AcDbLine
 10
2.703061713456816
 20
-4.533884515656254
 30
0.0
 11
2.80148691030721
 21
-4.494514436916098
 31
0.0
  0
LINE
  5
4A3E
330
1E
100
AcDbEntity
  8
7
100
AcDbLine
 10
2.80148691030721
 20
-4.494514436916098
 30
0.0
 11
2.840856989047367
 21
-4.396089240065698
 31
0.0
  0
LINE
  5
4A3F
330
1E
100
AcDbEntity
  8
7
100
AcDbLine
 10
2.840856989047367
 20
-4.396089240065698
 30
0.0
 11
2.80148691030721
 21
-4.297664043215309
 31
0.0
  0
LINE
  5
4A40
330
1E
100
AcDbEntity
  8
7
100
AcDbLine
 10
2.80148691030721
 20
-4.297664043215309
 30
0.0
 11
2.703061713456816
 21
-4.258293964475154
 31
0.0
  0
LINE
  5
4A41
330
1E
100
AcDbEntity
  8
7
100
AcDbLine
 10
2.703061713456816
 20
-4.258293964475154
 30
0.0
 11
2.604636516606423
 21
-4.297664043215309
 31
0.0
  0
LINE
  5
4A42
330
1E
100
AcDbEntity
  8
7
100
AcDbLine
 10
1.55148691030721
 20
-4.494514436916098
 30
0.0
 11
1.590856989047367
 21
-4.396089240065698
 31
0.0
  0
LINE
  5
4A43
330
1E
100
AcDbEntity
  8
7
100
AcDbLine
 10
1.590856989047367
 20
-4.396089240065698
 30
0.0
 11
1.55148691030721
 21
-4.297664043215309
 31
0.0
  0
LINE
  5
4A44
330
1E
100
AcDbEntity
  8
7
100
AcDbLine
 10
1.55148691030721
 20
-4.297664043215309
 30
0.0
 11
1.453061713456816
 21
-4.258293964475154
 31
0.0
  0
LINE
  5
4A45
330
1E
100
AcDbEntity
  8
7
100
AcDbLine
 10
1.453061713456816
 20
-4.258293964475154
 30
0.0
 11
1.354636516606423
 21
-4.297664043215309
 31
0.0
  0
LINE
  5
4A46
330
1E
100
AcDbEntity
  8
7
100
AcDbLine
 10
1.354636516606423
 20
-4.297664043215309
 30
0.0
 11
1.315266437866265
 21
-4.396089240065698
 31
0.0
  0
LINE
  5
4A47
330
1E
100
AcDbEntity
  8
7
100
AcDbLine
 10
1.315266437866265
 20
-4.396089240065698
 30
0.0
 11
1.354636516606423
 21
-4.494514436916098
 31
0.0
  0
LINE
  5
4A48
330
1E
100
AcDbEntity
  8
7
100
AcDbLine
 10
1.354636516606423
 20
-4.494514436916098
 30
0.0
 11
1.453061713456816
 21
-4.533884515656254
 31
0.0
  0
LINE
  5
4A49
330
1E
100
AcDbEntity
  8
7
100
AcDbLine
 10
1.876290059913506
 20
-0.2327034132940469
 30
0.0
 11
1.856605020543427
 21
-0.242545932979084
 31
0.0
  0
LINE
  5
4A4A
330
1E
100
AcDbEntity
  8
7
100
AcDbLine
 10
1.856605020543427
 20
-0.242545932979084
 30
0.0
 11
1.84676250085839
 21
-0.2622309723491583
 31
0.0
  0
LINE
  5
4A4B
330
1E
100
AcDbEntity
  8
7
100
AcDbLine
 10
1.84676250085839
 20
-1.709081366049954
 30
0.0
 11
1.856605020543427
 21
-1.728766405420028
 31
0.0
  0
LINE
  5
4A4C
330
1E
100
AcDbEntity
  8
7
100
AcDbLine
 10
1.856605020543427
 20
-1.728766405420028
 30
0.0
 11
1.876290059913506
 21
-1.738608925105065
 31
0.0
  0
LINE
  5
4A4D
330
1E
100
AcDbEntity
  8
7
100
AcDbLine
 10
2.565266437866265
 20
-1.738608925105065
 30
0.0
 11
2.584951477236344
 21
-1.728766405420028
 31
0.0
  0
LINE
  5
4A4E
330
1E
100
AcDbEntity
  8
7
100
AcDbLine
 10
2.584951477236344
 20
-1.728766405420028
 30
0.0
 11
2.594793996921381
 21
-1.709081366049954
 31
0.0
  0
LINE
  5
4A4F
330
1E
100
AcDbEntity
  8
7
100
AcDbLine
 10
2.594793996921381
 20
-0.2622309723491583
 30
0.0
 11
2.584951477236344
 21
-0.242545932979084
 31
0.0
  0
LINE
  5
4A50
330
1E
100
AcDbEntity
  8
7
100
AcDbLine
 10
2.584951477236344
 20
-0.242545932979084
 30
0.0
 11
2.565266437866265
 21
-0.2327034132940469
 31
0.0
  0
LINE
  5
4A51
330
1E
100
AcDbEntity
  8
7
100
AcDbLine
 10
-2.907174507015627
 20
14.06847768906815
 30
0.0
 11
-3.005599703866021
 21
14.02910761032799
 31
0.0
  0
LINE
  5
4A52
330
1E
100
AcDbEntity
  8
7
100
AcDbLine
 10
-3.005599703866021
 20
14.02910761032799
 30
0.0
 11
-3.044969782606179
 21
13.9306824134776
 31
0.0
  0
LINE
  5
4A53
330
1E
100
AcDbEntity
  8
7
100
AcDbLine
 10
-3.044969782606179
 20
13.9306824134776
 30
0.0
 11
-3.005599703866021
 21
13.83225721662721
 31
0.0
  0
LINE
  5
4A54
330
1E
100
AcDbEntity
  8
7
100
AcDbLine
 10
-3.005599703866021
 20
13.83225721662721
 30
0.0
 11
-2.907174507015627
 21
13.79288713788704
 31
0.0
  0
LINE
  5
4A55
330
1E
100
AcDbEntity
  8
7
100
AcDbLine
 10
-2.907174507015627
 20
13.79288713788704
 30
0.0
 11
-2.808749310165234
 21
13.83225721662721
 31
0.0
  0
LINE
  5
4A56
330
1E
100
AcDbEntity
  8
7
100
AcDbLine
 10
-2.808749310165234
 20
13.83225721662721
 30
0.0
 11
-2.769379231425077
 21
13.9306824134776
 31
0.0
  0
LINE
  5
4A57
330
1E
100
AcDbEntity
  8
7
100
AcDbLine
 10
-2.769379231425077
 20
13.9306824134776
 30
0.0
 11
-2.808749310165234
 21
14.02910761032799
 31
0.0
  0
LINE
  5
4A58
330
1E
100
AcDbEntity
  8
7
100
AcDbLine
 10
-1.755599703866021
 20
13.83225721662721
 30
0.0
 11
-1.657174507015627
 21
13.79288713788704
 31
0.0
  0
LINE
  5
4A59
330
1E
100
AcDbEntity
  8
7
100
AcDbLine
 10
-1.657174507015627
 20
13.79288713788704
 30
0.0
 11
-1.558749310165234
 21
13.83225721662721
 31
0.0
  0
LINE
  5
4A5A
330
1E
100
AcDbEntity
  8
7
100
AcDbLine
 10
-1.558749310165234
 20
13.83225721662721
 30
0.0
 11
-1.519379231425076
 21
13.9306824134776
 31
0.0
  0
LINE
  5
4A5B
330
1E
100
AcDbEntity
  8
7
100
AcDbLine
 10
-1.519379231425076
 20
13.9306824134776
 30
0.0
 11
-1.558749310165234
 21
14.02910761032799
 31
0.0
  0
LINE
  5
4A5C
330
1E
100
AcDbEntity
  8
7
100
AcDbLine
 10
-1.558749310165234
 20
14.02910761032799
 30
0.0
 11
-1.657174507015627
 21
14.06847768906815
 31
0.0
  0
LINE
  5
4A5D
330
1E
100
AcDbEntity
  8
7
100
AcDbLine
 10
-1.657174507015627
 20
14.06847768906815
 30
0.0
 11
-1.755599703866021
 21
14.02910761032799
 31
0.0
  0
LINE
  5
4A5E
330
1E
100
AcDbEntity
  8
7
100
AcDbLine
 10
-1.755599703866021
 20
14.02910761032799
 30
0.0
 11
-1.794969782606178
 21
13.9306824134776
 31
0.0
  0
LINE
  5
4A5F
330
1E
100
AcDbEntity
  8
7
100
AcDbLine
 10
-1.794969782606178
 20
13.9306824134776
 30
0.0
 11
-1.755599703866021
 21
13.83225721662721
 31
0.0
  0
LINE
  5
4A60
330
1E
100
AcDbEntity
  8
7
100
AcDbLine
 10
-2.907174507015627
 20
-4.258293964475154
 30
0.0
 11
-3.005599703866021
 21
-4.297664043215309
 31
0.0
  0
LINE
  5
4A61
330
1E
100
AcDbEntity
  8
7
100
AcDbLine
 10
-3.005599703866021
 20
-4.297664043215309
 30
0.0
 11
-3.044969782606179
 21
-4.396089240065698
 31
0.0
  0
LINE
  5
4A62
330
1E
100
AcDbEntity
  8
7
100
AcDbLine
 10
-3.044969782606179
 20
-4.396089240065698
 30
0.0
 11
-3.005599703866021
 21
-4.494514436916098
 31
0.0
  0
LINE
  5
4A63
330
1E
100
AcDbEntity
  8
7
100
AcDbLine
 10
-3.005599703866021
 20
-4.494514436916098
 30
0.0
 11
-2.907174507015627
 21
-4.533884515656254
 31
0.0
  0
LINE
  5
4A64
330
1E
100
AcDbEntity
  8
7
100
AcDbLine
 10
-2.907174507015627
 20
-4.533884515656254
 30
0.0
 11
-2.808749310165234
 21
-4.494514436916098
 31
0.0
  0
LINE
  5
4A65
330
1E
100
AcDbEntity
  8
7
100
AcDbLine
 10
-2.808749310165234
 20
-4.494514436916098
 30
0.0
 11
-2.769379231425077
 21
-4.396089240065698
 31
0.0
  0
LINE
  5
4A66
330
1E
100
AcDbEntity
  8
7
100
AcDbLine
 10
-2.769379231425077
 20
-4.396089240065698
 30
0.0
 11
-2.808749310165234
 21
-4.297664043215309
 31
0.0
  0
LINE
  5
4A67
330
1E
100
AcDbEntity
  8
7
100
AcDbLine
 10
-2.808749310165234
 20
-4.297664043215309
 30
0.0
 11
-2.907174507015627
 21
-4.258293964475154
 31
0.0
  0
LINE
  5
4A68
330
1E
100
AcDbEntity
  8
7
100
AcDbLine
 10
-1.657174507015627
 20
-4.258293964475154
 30
0.0
 11
-1.755599703866021
 21
-4.297664043215309
 31
0.0
  0
LINE
  5
4A69
330
1E
100
AcDbEntity
  8
7
100
AcDbLine
 10
-1.755599703866021
 20
-4.297664043215309
 30
0.0
 11
-1.794969782606178
 21
-4.396089240065698
 31
0.0
  0
LINE
  5
4A6A
330
1E
100
AcDbEntity
  8
7
100
AcDbLine
 10
-1.794969782606178
 20
-4.396089240065698
 30
0.0
 11
-1.755599703866021
 21
-4.494514436916098
 31
0.0
  0
LINE
  5
4A6B
330
1E
100
AcDbEntity
  8
7
100
AcDbLine
 10
-1.755599703866021
 20
-4.494514436916098
 30
0.0
 11
-1.657174507015627
 21
-4.533884515656254
 31
0.0
  0
LINE
  5
4A6C
330
1E
100
AcDbEntity
  8
7
100
AcDbLine
 10
-1.657174507015627
 20
-4.533884515656254
 30
0.0
 11
-1.558749310165234
 21
-4.494514436916098
 31
0.0
  0
LINE
  5
4A6D
330
1E
100
AcDbEntity
  8
7
100
AcDbLine
 10
-1.558749310165234
 20
-4.494514436916098
 30
0.0
 11
-1.519379231425076
 21
-4.396089240065698
 31
0.0
  0
LINE
  5
4A6E
330
1E
100
AcDbEntity
  8
7
100
AcDbLine
 10
-1.519379231425076
 20
-4.396089240065698
 30
0.0
 11
-1.558749310165234
 21
-4.297664043215309
 31
0.0
  0
LINE
  5
4A6F
330
1E
100
AcDbEntity
  8
7
100
AcDbLine
 10
-1.558749310165234
 20
-4.297664043215309
 30
0.0
 11
-1.657174507015627
 21
-4.258293964475154
 31
0.0
  0
LINE
  5
4A70
330
1E
100
AcDbEntity
  8
7
100
AcDbLine
 10
-7.38552096370854
 20
8.143280838674453
 30
0.0
 11
-7.306780806228225
 21
8.182650917414619
 31
0.0
  0
LINE
  5
4A71
330
1E
100
AcDbEntity
  8
7
100
AcDbLine
 10
-7.306780806228225
 20
8.182650917414619
 30
0.0
 11
-7.306780806228225
 21
8.271233594579971
 31
0.0
  0
LINE
  5
4A72
330
1E
100
AcDbEntity
  8
7
100
AcDbLine
 10
-7.306780806228225
 20
8.271233594579971
 30
0.0
 11
-7.38552096370854
 21
8.320446193005157
 31
0.0
  0
LINE
  5
4A73
330
1E
100
AcDbEntity
  8
7
100
AcDbLine
 10
-7.38552096370854
 20
8.320446193005157
 30
0.0
 11
-7.464261121188854
 21
8.281076114265008
 31
0.0
  0
LINE
  5
4A74
330
1E
100
AcDbEntity
  8
7
100
AcDbLine
 10
-7.464261121188854
 20
8.281076114265008
 30
0.0
 11
-7.464261121188854
 21
8.192493437099656
 31
0.0
  0
LINE
  5
4A75
330
1E
100
AcDbEntity
  8
7
100
AcDbLine
 10
-7.38552096370854
 20
6.342099736312249
 30
0.0
 11
-7.306780806228225
 21
6.381469815052415
 31
0.0
  0
LINE
  5
4A76
330
1E
100
AcDbEntity
  8
7
100
AcDbLine
 10
-7.306780806228225
 20
6.381469815052415
 30
0.0
 11
-7.306780806228225
 21
6.470052492217767
 31
0.0
  0
LINE
  5
4A77
330
1E
100
AcDbEntity
  8
7
100
AcDbLine
 10
-7.306780806228225
 20
6.470052492217767
 30
0.0
 11
-7.38552096370854
 21
6.519265090642953
 31
0.0
  0
LINE
  5
4A78
330
1E
100
AcDbEntity
  8
7
100
AcDbLine
 10
-7.38552096370854
 20
6.519265090642953
 30
0.0
 11
-7.464261121188854
 21
6.479895011902804
 31
0.0
  0
LINE
  5
4A79
330
1E
100
AcDbEntity
  8
7
100
AcDbLine
 10
-7.464261121188854
 20
6.479895011902804
 30
0.0
 11
-7.464261121188854
 21
6.391312334737452
 31
0.0
  0
LINE
  5
4A7A
330
1E
100
AcDbEntity
  8
7
100
AcDbLine
 10
-7.464261121188854
 20
6.391312334737452
 30
0.0
 11
-7.38552096370854
 21
6.342099736312249
 31
0.0
  0
LINE
  5
4A7B
330
1E
100
AcDbEntity
  8
7
100
AcDbLine
 10
2.821171949677288
 20
8.143280838674453
 30
0.0
 11
2.899912107157603
 21
8.182650917414619
 31
0.0
  0
LINE
  5
4A7C
330
1E
100
AcDbEntity
  8
7
100
AcDbLine
 10
2.899912107157603
 20
8.182650917414619
 30
0.0
 11
2.899912107157603
 21
8.271233594579971
 31
0.0
  0
LINE
  5
4A7D
330
1E
100
AcDbEntity
  8
7
100
AcDbLine
 10
2.899912107157603
 20
8.271233594579971
 30
0.0
 11
2.821171949677288
 21
8.320446193005157
 31
0.0
  0
LINE
  5
4A7E
330
1E
100
AcDbEntity
  8
7
100
AcDbLine
 10
2.821171949677288
 20
8.320446193005157
 30
0.0
 11
2.742431792196974
 21
8.281076114265008
 31
0.0
  0
LINE
  5
4A7F
330
1E
100
AcDbEntity
  8
7
100
AcDbLine
 10
2.742431792196974
 20
8.281076114265008
 30
0.0
 11
2.742431792196974
 21
8.192493437099656
 31
0.0
  0
LINE
  5
4A80
330
1E
100
AcDbEntity
  8
7
100
AcDbLine
 10
2.742431792196974
 20
8.192493437099656
 30
0.0
 11
2.821171949677288
 21
8.143280838674453
 31
0.0
  0
LINE
  5
4A81
330
1E
100
AcDbEntity
  8
7
100
AcDbLine
 10
2.821171949677288
 20
6.342099736312249
 30
0.0
 11
2.899912107157603
 21
6.381469815052415
 31
0.0
  0
LINE
  5
4A82
330
1E
100
AcDbEntity
  8
7
100
AcDbLine
 10
2.899912107157603
 20
6.381469815052415
 30
0.0
 11
2.899912107157603
 21
6.470052492217767
 31
0.0
  0
LINE
  5
4A83
330
1E
100
AcDbEntity
  8
7
100
AcDbLine
 10
2.899912107157603
 20
6.470052492217767
 30
0.0
 11
2.821171949677288
 21
6.519265090642953
 31
0.0
  0
LINE
  5
4A84
330
1E
100
AcDbEntity
  8
7
100
AcDbLine
 10
2.821171949677288
 20
6.519265090642953
 30
0.0
 11
2.742431792196974
 21
6.479895011902804
 31
0.0
  0
LINE
  5
4A85
330
1E
100
AcDbEntity
  8
7
100
AcDbLine
 10
2.742431792196974
 20
6.479895011902804
 30
0.0
 11
2.742431792196974
 21
6.391312334737452
 31
0.0
  0
LINE
  5
4A86
330
1E
100
AcDbEntity
  8
7
100
AcDbLine
 10
2.742431792196974
 20
6.391312334737452
 30
0.0
 11
2.821171949677288
 21
6.342099736312249
 31
0.0
  0
LINE
  5
4A87
330
1E
100
AcDbEntity
  8
7
100
AcDbLine
 10
-7.38552096370854
 20
3.015328082768952
 30
0.0
 11
-7.306780806228225
 21
3.054698161509101
 31
0.0
  0
LINE
  5
4A88
330
1E
100
AcDbEntity
  8
7
100
AcDbLine
 10
-7.306780806228225
 20
3.054698161509101
 30
0.0
 11
-7.306780806228225
 21
3.143280838674453
 31
0.0
  0
LINE
  5
4A89
330
1E
100
AcDbEntity
  8
7
100
AcDbLine
 10
-7.306780806228225
 20
3.143280838674453
 30
0.0
 11
-7.38552096370854
 21
3.192493437099656
 31
0.0
  0
LINE
  5
4A8A
330
1E
100
AcDbEntity
  8
7
100
AcDbLine
 10
-7.38552096370854
 20
3.192493437099656
 30
0.0
 11
-7.464261121188854
 21
3.15312335835949
 31
0.0
  0
LINE
  5
4A8B
330
1E
100
AcDbEntity
  8
7
100
AcDbLine
 10
-7.464261121188854
 20
3.15312335835949
 30
0.0
 11
-7.464261121188854
 21
3.064540681194138
 31
0.0
  0
LINE
  5
4A8C
330
1E
100
AcDbEntity
  8
7
100
AcDbLine
 10
-7.464261121188854
 20
3.064540681194138
 30
0.0
 11
-7.38552096370854
 21
3.015328082768952
 31
0.0
  0
LINE
  5
4A8D
330
1E
100
AcDbEntity
  8
7
100
AcDbLine
 10
-7.38552096370854
 20
1.214146980406731
 30
0.0
 11
-7.306780806228225
 21
1.253517059146897
 31
0.0
  0
LINE
  5
4A8E
330
1E
100
AcDbEntity
  8
7
100
AcDbLine
 10
-7.306780806228225
 20
1.253517059146897
 30
0.0
 11
-7.306780806228225
 21
1.342099736312249
 31
0.0
  0
LINE
  5
4A8F
330
1E
100
AcDbEntity
  8
7
100
AcDbLine
 10
-7.306780806228225
 20
1.342099736312249
 30
0.0
 11
-7.38552096370854
 21
1.391312334737452
 31
0.0
  0
LINE
  5
4A90
330
1E
100
AcDbEntity
  8
7
100
AcDbLine
 10
-7.38552096370854
 20
1.391312334737452
 30
0.0
 11
-7.464261121188854
 21
1.351942255997286
 31
0.0
  0
LINE
  5
4A91
330
1E
100
AcDbEntity
  8
7
100
AcDbLine
 10
-7.464261121188854
 20
1.351942255997286
 30
0.0
 11
-7.464261121188854
 21
1.263359578831934
 31
0.0
  0
LINE
  5
4A92
330
1E
100
AcDbEntity
  8
7
100
AcDbLine
 10
-7.464261121188854
 20
1.263359578831934
 30
0.0
 11
-7.38552096370854
 21
1.214146980406731
 31
0.0
  0
LINE
  5
4A93
330
1E
100
AcDbEntity
  8
7
100
AcDbLine
 10
2.821171949677288
 20
3.015328082768952
 30
0.0
 11
2.899912107157603
 21
3.054698161509101
 31
0.0
  0
LINE
  5
4A94
330
1E
100
AcDbEntity
  8
7
100
AcDbLine
 10
2.899912107157603
 20
3.054698161509101
 30
0.0
 11
2.899912107157603
 21
3.143280838674453
 31
0.0
  0
LINE
  5
4A95
330
1E
100
AcDbEntity
  8
7
100
AcDbLine
 10
2.899912107157603
 20
3.143280838674453
 30
0.0
 11
2.821171949677288
 21
3.192493437099656
 31
0.0
  0
LINE
  5
4A96
330
1E
100
AcDbEntity
  8
7
100
AcDbLine
 10
2.821171949677288
 20
3.192493437099656
 30
0.0
 11
2.742431792196974
 21
3.15312335835949
 31
0.0
  0
LINE
  5
4A97
330
1E
100
AcDbEntity
  8
7
100
AcDbLine
 10
2.742431792196974
 20
3.15312335835949
 30
0.0
 11
2.742431792196974
 21
3.064540681194138
 31
0.0
  0
LINE
  5
4A98
330
1E
100
AcDbEntity
  8
7
100
AcDbLine
 10
2.742431792196974
 20
3.064540681194138
 30
0.0
 11
2.821171949677288
 21
3.015328082768952
 31
0.0
  0
LINE
  5
4A99
330
1E
100
AcDbEntity
  8
7
100
AcDbLine
 10
2.821171949677288
 20
1.214146980406731
 30
0.0
 11
2.899912107157603
 21
1.253517059146897
 31
0.0
  0
LINE
  5
4A9A
330
1E
100
AcDbEntity
  8
7
100
AcDbLine
 10
2.899912107157603
 20
1.253517059146897
 30
0.0
 11
2.899912107157603
 21
1.342099736312249
 31
0.0
  0
LINE
  5
4A9B
330
1E
100
AcDbEntity
  8
7
100
AcDbLine
 10
2.899912107157603
 20
1.342099736312249
 30
0.0
 11
2.821171949677288
 21
1.391312334737452
 31
0.0
  0
LINE
  5
4A9C
330
1E
100
AcDbEntity
  8
7
100
AcDbLine
 10
2.821171949677288
 20
1.391312334737452
 30
0.0
 11
2.742431792196974
 21
1.351942255997286
 31
0.0
  0
LINE
  5
4A9D
330
1E
100
AcDbEntity
  8
7
100
AcDbLine
 10
2.742431792196974
 20
1.351942255997286
 30
0.0
 11
2.742431792196974
 21
1.263359578831934
 31
0.0
  0
LINE
  5
4A9E
330
1E
100
AcDbEntity
  8
7
100
AcDbLine
 10
2.742431792196974
 20
1.263359578831934
 30
0.0
 11
2.821171949677288
 21
1.214146980406731
 31
0.0
  0
LINE
  5
4A9F
330
1E
100
AcDbEntity
  8
7
100
AcDbLine
 10
-7.38552096370854
 20
-2.122467192821602
 30
0.0
 11
-7.306780806228225
 21
-2.083097114081454
 31
0.0
  0
LINE
  5
4AA0
330
1E
100
AcDbEntity
  8
7
100
AcDbLine
 10
-7.306780806228225
 20
-2.083097114081454
 30
0.0
 11
-7.306780806228225
 21
-1.994514436916102
 31
0.0
  0
LINE
  5
4AA1
330
1E
100
AcDbEntity
  8
7
100
AcDbLine
 10
-7.306780806228225
 20
-1.994514436916102
 30
0.0
 11
-7.38552096370854
 21
-1.945301838490898
 31
0.0
  0
LINE
  5
4AA2
330
1E
100
AcDbEntity
  8
7
100
AcDbLine
 10
-7.38552096370854
 20
-1.945301838490898
 30
0.0
 11
-7.464261121188854
 21
-1.984671917231047
 31
0.0
  0
LINE
  5
4AA3
330
1E
100
AcDbEntity
  8
7
100
AcDbLine
 10
-7.464261121188854
 20
-1.984671917231047
 30
0.0
 11
-7.464261121188854
 21
-2.073254594396416
 31
0.0
  0
LINE
  5
4AA4
330
1E
100
AcDbEntity
  8
7
100
AcDbLine
 10
-7.464261121188854
 20
-2.073254594396416
 30
0.0
 11
-7.38552096370854
 21
-2.122467192821602
 31
0.0
  0
LINE
  5
4AA5
330
1E
100
AcDbEntity
  8
7
100
AcDbLine
 10
-7.38552096370854
 20
-3.923648295183809
 30
0.0
 11
-7.306780806228225
 21
-3.884278216443654
 31
0.0
  0
LINE
  5
4AA6
330
1E
100
AcDbEntity
  8
7
100
AcDbLine
 10
-7.306780806228225
 20
-3.884278216443654
 30
0.0
 11
-7.306780806228225
 21
-3.795695539278302
 31
0.0
  0
LINE
  5
4AA7
330
1E
100
AcDbEntity
  8
7
100
AcDbLine
 10
-7.306780806228225
 20
-3.795695539278302
 30
0.0
 11
-7.38552096370854
 21
-3.746482940853105
 31
0.0
  0
LINE
  5
4AA8
330
1E
100
AcDbEntity
  8
7
100
AcDbLine
 10
-7.38552096370854
 20
-3.746482940853105
 30
0.0
 11
-7.464261121188854
 21
-3.785853019593265
 31
0.0
  0
LINE
  5
4AA9
330
1E
100
AcDbEntity
  8
7
100
AcDbLine
 10
-7.464261121188854
 20
-3.785853019593265
 30
0.0
 11
-7.464261121188854
 21
-3.874435696758617
 31
0.0
  0
LINE
  5
4AAA
330
1E
100
AcDbEntity
  8
7
100
AcDbLine
 10
-7.464261121188854
 20
-3.874435696758617
 30
0.0
 11
-7.38552096370854
 21
-3.923648295183809
 31
0.0
  0
LINE
  5
4AAB
330
1E
100
AcDbEntity
  8
7
100
AcDbLine
 10
2.821171949677288
 20
-2.122467192821602
 30
0.0
 11
2.899912107157603
 21
-2.083097114081454
 31
0.0
  0
LINE
  5
4AAC
330
1E
100
AcDbEntity
  8
7
100
AcDbLine
 10
2.899912107157603
 20
-2.083097114081454
 30
0.0
 11
2.899912107157603
 21
-1.994514436916102
 31
0.0
  0
LINE
  5
4AAD
330
1E
100
AcDbEntity
  8
7
100
AcDbLine
 10
2.899912107157603
 20
-1.994514436916102
 30
0.0
 11
2.821171949677288
 21
-1.945301838490898
 31
0.0
  0
LINE
  5
4AAE
330
1E
100
AcDbEntity
  8
7
100
AcDbLine
 10
2.821171949677288
 20
-1.945301838490898
 30
0.0
 11
2.742431792196974
 21
-1.984671917231047
 31
0.0
  0
LINE
  5
4AAF
330
1E
100
AcDbEntity
  8
7
100
AcDbLine
 10
2.742431792196974
 20
-1.984671917231047
 30
0.0
 11
2.742431792196974
 21
-2.073254594396416
 31
0.0
  0
LINE
  5
4AB0
330
1E
100
AcDbEntity
  8
7
100
AcDbLine
 10
2.742431792196974
 20
-2.073254594396416
 30
0.0
 11
2.821171949677288
 21
-2.122467192821602
 31
0.0
  0
LINE
  5
4AB1
330
1E
100
AcDbEntity
  8
7
100
AcDbLine
 10
2.899912107157603
 20
-3.795695539278302
 30
0.0
 11
2.821171949677288
 21
-3.746482940853105
 31
0.0
  0
LINE
  5
4AB2
330
1E
100
AcDbEntity
  8
7
100
AcDbLine
 10
2.821171949677288
 20
-3.746482940853105
 30
0.0
 11
2.742431792196974
 21
-3.785853019593265
 31
0.0
  0
LINE
  5
4AB3
330
1E
100
AcDbEntity
  8
7
100
AcDbLine
 10
2.742431792196974
 20
-3.785853019593265
 30
0.0
 11
2.742431792196974
 21
-3.874435696758617
 31
0.0
  0
LINE
  5
4AB4
330
1E
100
AcDbEntity
  8
7
100
AcDbLine
 10
2.742431792196974
 20
-3.874435696758617
 30
0.0
 11
2.821171949677288
 21
-3.923648295183809
 31
0.0
  0
LINE
  5
4AB5
330
1E
100
AcDbEntity
  8
7
100
AcDbLine
 10
2.821171949677288
 20
-3.923648295183809
 30
0.0
 11
2.899912107157603
 21
-3.884278216443654
 31
0.0
  0
LINE
  5
4AB6
330
1E
100
AcDbEntity
  8
7
100
AcDbLine
 10
2.899912107157603
 20
-3.884278216443654
 30
0.0
 11
2.899912107157603
 21
-3.795695539278302
 31
0.0
  0
LINE
  5
4AB7
330
1E
100
AcDbEntity
  8
7
100
AcDbLine
 10
-8.537095766858145
 20
16.03698162607602
 30
0.0
 11
-8.596150884968382
 21
16.03698162607602
 31
0.0
  0
LINE
  5
4AB8
330
1E
100
AcDbEntity
  8
7
100
AcDbLine
 10
-8.596150884968382
 20
16.03698162607602
 30
0.0
 11
-8.625678444023497
 21
16.03698162607602
 31
0.0
  0
LINE
  5
4AB9
330
1E
100
AcDbEntity
  8
7
100
AcDbLine
 10
-8.625678444023497
 20
16.03698162607602
 30
0.0
 11
-8.63552096370854
 21
16.03698162607602
 31
0.0
  0
LINE
  5
4ABA
330
1E
100
AcDbEntity
  8
7
100
AcDbLine
 10
-8.63552096370854
 20
16.03698162607602
 30
0.0
 11
-8.655206003078617
 21
16.03698162607602
 31
0.0
  0
LINE
  5
4ABB
330
1E
100
AcDbEntity
  8
7
100
AcDbLine
 10
-7.907174507015627
 20
5.387375326863434
 30
0.0
 11
-7.907174507015627
 21
5.36769028749336
 31
0.0
  0
LINE
  5
4ABC
330
1E
100
AcDbEntity
  8
7
100
AcDbLine
 10
-7.907174507015627
 20
5.36769028749336
 30
0.0
 11
-7.907174507015627
 21
5.348005248123268
 31
0.0
  0
LINE
  5
4ABD
330
1E
100
AcDbEntity
  8
7
100
AcDbLine
 10
-7.907174507015627
 20
5.348005248123268
 30
0.0
 11
-7.907174507015627
 21
5.220052492217767
 31
0.0
  0
LINE
  5
4ABE
330
1E
100
AcDbEntity
  8
7
100
AcDbLine
 10
-7.907174507015627
 20
5.220052492217767
 30
0.0
 11
-7.907174507015627
 21
5.180682413477601
 31
0.0
  0
LINE
  5
4ABF
330
1E
100
AcDbEntity
  8
7
100
AcDbLine
 10
-7.907174507015627
 20
5.180682413477601
 30
0.0
 11
-7.907174507015627
 21
5.141312334737452
 31
0.0
  0
LINE
  5
4AC0
330
1E
100
AcDbEntity
  8
7
100
AcDbLine
 10
-8.153237499141608
 20
5.387375326863434
 30
0.0
 11
-8.153237499141608
 21
5.36769028749336
 31
0.0
  0
LINE
  5
4AC1
330
1E
100
AcDbEntity
  8
7
100
AcDbLine
 10
-8.153237499141608
 20
5.36769028749336
 30
0.0
 11
-8.153237499141608
 21
5.348005248123268
 31
0.0
  0
LINE
  5
4AC2
330
1E
100
AcDbEntity
  8
7
100
AcDbLine
 10
-8.153237499141608
 20
5.220052492217767
 30
0.0
 11
-8.153237499141608
 21
5.180682413477601
 31
0.0
  0
LINE
  5
4AC3
330
1E
100
AcDbEntity
  8
7
100
AcDbLine
 10
-8.153237499141608
 20
5.180682413477601
 30
0.0
 11
-8.153237499141608
 21
5.141312334737452
 31
0.0
  0
LINE
  5
4AC4
330
1E
100
AcDbEntity
  8
7
100
AcDbLine
 10
3.962904233141853
 20
-6.502388452664124
 30
0.0
 11
3.962904233141853
 21
-6.571286090459402
 31
0.0
  0
LINE
  5
4AC5
330
1E
100
AcDbEntity
  8
7
100
AcDbLine
 10
3.962904233141853
 20
-6.571286090459402
 30
0.0
 11
3.962904233141853
 21
-6.600813649514519
 31
0.0
  0
LINE
  5
4AC6
330
1E
100
AcDbEntity
  8
7
100
AcDbLine
 10
-8.537095766858145
 20
-6.502388452664124
 30
0.0
 11
-8.596150884968382
 21
-6.502388452664124
 31
0.0
  0
LINE
  5
4AC7
330
1E
100
AcDbEntity
  8
7
100
AcDbLine
 10
-8.596150884968382
 20
-6.502388452664124
 30
0.0
 11
-8.625678444023497
 21
-6.502388452664124
 31
0.0
  0
LINE
  5
4AC8
330
1E
100
AcDbEntity
  8
7
100
AcDbLine
 10
-8.625678444023497
 20
-6.502388452664124
 30
0.0
 11
-8.63552096370854
 21
-6.502388452664124
 31
0.0
  0
LINE
  5
4AC9
330
1E
100
AcDbEntity
  8
7
100
AcDbLine
 10
-8.63552096370854
 20
-6.502388452664124
 30
0.0
 11
-8.655206003078617
 21
-6.502388452664124
 31
0.0
  0
LINE
  5
4ACA
330
1E
100
AcDbEntity
  8
7
100
AcDbLine
 10
-8.153237499141608
 20
4.314540681194138
 30
0.0
 11
-8.153237499141608
 21
4.353910759934304
 31
0.0
  0
LINE
  5
4ACB
330
1E
100
AcDbEntity
  8
7
100
AcDbLine
 10
-8.153237499141608
 20
4.353910759934304
 30
0.0
 11
-8.153237499141608
 21
4.393280838674453
 31
0.0
  0
LINE
  5
4ACC
330
1E
100
AcDbEntity
  8
7
100
AcDbLine
 10
-7.907174507015627
 20
4.314540681194138
 30
0.0
 11
-7.907174507015627
 21
4.353910759934304
 31
0.0
  0
LINE
  5
4ACD
330
1E
100
AcDbEntity
  8
7
100
AcDbLine
 10
-7.907174507015627
 20
4.353910759934304
 30
0.0
 11
-7.907174507015627
 21
4.393280838674453
 31
0.0
  0
LINE
  5
4ACE
330
1E
100
AcDbEntity
  8
7
100
AcDbLine
 10
-7.907174507015627
 20
4.137375326863434
 30
0.0
 11
-7.907174507015627
 21
4.166902885918545
 31
0.0
  0
LINE
  5
4ACF
330
1E
100
AcDbEntity
  8
7
100
AcDbLine
 10
-7.907174507015627
 20
4.166902885918545
 30
0.0
 11
-7.907174507015627
 21
4.186587925288637
 31
0.0
  0
LINE
  5
4AD0
330
1E
100
AcDbEntity
  8
7
100
AcDbLine
 10
-8.153237499141608
 20
4.137375326863434
 30
0.0
 11
-8.153237499141608
 21
4.166902885918545
 31
0.0
  0
LINE
  5
4AD1
330
1E
100
AcDbEntity
  8
7
100
AcDbLine
 10
-8.153237499141608
 20
4.166902885918545
 30
0.0
 11
-8.153237499141608
 21
4.186587925288637
 31
0.0
  0
LINE
  5
4AD2
330
1E
100
AcDbEntity
  8
7
100
AcDbLine
 10
-8.153237499141608
 20
4.186587925288637
 30
0.0
 11
-7.907174507015627
 21
4.186587925288637
 31
0.0
  0
LINE
  5
4AD3
330
1E
100
AcDbEntity
  8
7
100
AcDbLine
 10
-7.907174507015627
 20
4.186587925288637
 30
0.0
 11
-7.907174507015627
 21
4.314540681194138
 31
0.0
  0
LINE
  5
4AD4
330
1E
100
AcDbEntity
  8
7
100
AcDbLine
 10
-7.129615451897516
 20
-0.2327034132940469
 30
0.0
 11
-7.149300491267595
 21
-0.242545932979084
 31
0.0
  0
LINE
  5
4AD5
330
1E
100
AcDbEntity
  8
7
100
AcDbLine
 10
-7.149300491267595
 20
-0.242545932979084
 30
0.0
 11
-7.159143010952632
 21
-0.2622309723491583
 31
0.0
  0
LINE
  5
4AD6
330
1E
100
AcDbEntity
  8
7
100
AcDbLine
 10
-7.159143010952632
 20
-1.709081366049954
 30
0.0
 11
-7.149300491267595
 21
-1.728766405420028
 31
0.0
  0
LINE
  5
4AD7
330
1E
100
AcDbEntity
  8
7
100
AcDbLine
 10
-7.149300491267595
 20
-1.728766405420028
 30
0.0
 11
-7.129615451897516
 21
-1.738608925105065
 31
0.0
  0
LINE
  5
4AD8
330
1E
100
AcDbEntity
  8
7
100
AcDbLine
 10
-6.440639073944756
 20
-1.738608925105065
 30
0.0
 11
-6.420954034574679
 21
-1.728766405420028
 31
0.0
  0
LINE
  5
4AD9
330
1E
100
AcDbEntity
  8
7
100
AcDbLine
 10
-6.420954034574679
 20
-1.728766405420028
 30
0.0
 11
-6.411111514889642
 21
-1.709081366049954
 31
0.0
  0
LINE
  5
4ADA
330
1E
100
AcDbEntity
  8
7
100
AcDbLine
 10
-6.411111514889642
 20
-0.2622309723491583
 30
0.0
 11
-6.420954034574679
 21
-0.242545932979084
 31
0.0
  0
LINE
  5
4ADB
330
1E
100
AcDbEntity
  8
7
100
AcDbLine
 10
-6.420954034574679
 20
-0.242545932979084
 30
0.0
 11
-6.440639073944756
 21
-0.2327034132940469
 31
0.0
  0
LINE
  5
4ADC
330
1E
100
AcDbEntity
  8
7
100
AcDbLine
 10
-6.165048522763655
 20
-4.396089240065698
 30
0.0
 11
-6.125678444023497
 21
-4.494514436916098
 31
0.0
  0
LINE
  5
4ADD
330
1E
100
AcDbEntity
  8
7
100
AcDbLine
 10
-6.125678444023497
 20
-4.494514436916098
 30
0.0
 11
-6.027253247173105
 21
-4.533884515656254
 31
0.0
  0
LINE
  5
4ADE
330
1E
100
AcDbEntity
  8
7
100
AcDbLine
 10
-6.027253247173105
 20
-4.533884515656254
 30
0.0
 11
-5.92882805032271
 21
-4.494514436916098
 31
0.0
  0
LINE
  5
4ADF
330
1E
100
AcDbEntity
  8
7
100
AcDbLine
 10
-5.92882805032271
 20
-4.494514436916098
 30
0.0
 11
-5.889457971582553
 21
-4.396089240065698
 31
0.0
  0
LINE
  5
4AE0
330
1E
100
AcDbEntity
  8
7
100
AcDbLine
 10
-5.889457971582553
 20
-4.396089240065698
 30
0.0
 11
-5.92882805032271
 21
-4.297664043215309
 31
0.0
  0
LINE
  5
4AE1
330
1E
100
AcDbEntity
  8
7
100
AcDbLine
 10
-5.92882805032271
 20
-4.297664043215309
 30
0.0
 11
-6.027253247173105
 21
-4.258293964475154
 31
0.0
  0
LINE
  5
4AE2
330
1E
100
AcDbEntity
  8
7
100
AcDbLine
 10
-6.027253247173105
 20
-4.258293964475154
 30
0.0
 11
-6.125678444023497
 21
-4.297664043215309
 31
0.0
  0
LINE
  5
4AE3
330
1E
100
AcDbEntity
  8
7
100
AcDbLine
 10
-6.125678444023497
 20
-4.297664043215309
 30
0.0
 11
-6.165048522763655
 21
-4.396089240065698
 31
0.0
  0
LINE
  5
4AE4
330
1E
100
AcDbEntity
  8
7
100
AcDbLine
 10
-7.277253247173105
 20
-4.258293964475154
 30
0.0
 11
-7.375678444023497
 21
-4.297664043215309
 31
0.0
  0
LINE
  5
4AE5
330
1E
100
AcDbEntity
  8
7
100
AcDbLine
 10
-7.375678444023497
 20
-4.297664043215309
 30
0.0
 11
-7.415048522763655
 21
-4.396089240065698
 31
0.0
  0
LINE
  5
4AE6
330
1E
100
AcDbEntity
  8
7
100
AcDbLine
 10
-7.415048522763655
 20
-4.396089240065698
 30
0.0
 11
-7.375678444023497
 21
-4.494514436916098
 31
0.0
  0
LINE
  5
4AE7
330
1E
100
AcDbEntity
  8
7
100
AcDbLine
 10
-7.375678444023497
 20
-4.494514436916098
 30
0.0
 11
-7.277253247173105
 21
-4.533884515656254
 31
0.0
  0
LINE
  5
4AE8
330
1E
100
AcDbEntity
  8
7
100
AcDbLine
 10
-7.277253247173105
 20
-4.533884515656254
 30
0.0
 11
-7.17882805032271
 21
-4.494514436916098
 31
0.0
  0
LINE
  5
4AE9
330
1E
100
AcDbEntity
  8
7
100
AcDbLine
 10
-7.17882805032271
 20
-4.494514436916098
 30
0.0
 11
-7.139457971582553
 21
-4.396089240065698
 31
0.0
  0
LINE
  5
4AEA
330
1E
100
AcDbEntity
  8
7
100
AcDbLine
 10
-7.139457971582553
 20
-4.396089240065698
 30
0.0
 11
-7.17882805032271
 21
-4.297664043215309
 31
0.0
  0
LINE
  5
4AEB
330
1E
100
AcDbEntity
  8
7
100
AcDbLine
 10
-7.17882805032271
 20
-4.297664043215309
 30
0.0
 11
-7.277253247173105
 21
-4.258293964475154
 31
0.0
  0
LINE
  5
4AEC
330
1E
100
AcDbEntity
  8
7
100
AcDbLine
 10
-7.907174507015627
 20
-0.3901837282546765
 30
0.0
 11
-7.907174507015627
 21
-0.4197112873097879
 31
0.0
  0
LINE
  5
4AED
330
1E
100
AcDbEntity
  8
7
100
AcDbLine
 10
-7.907174507015627
 20
-0.4197112873097879
 30
0.0
 11
-7.907174507015627
 21
-0.43939632667988
 31
0.0
  0
LINE
  5
4AEE
330
1E
100
AcDbEntity
  8
7
100
AcDbLine
 10
-8.153237499141608
 20
-1.640183728254676
 30
0.0
 11
-7.907174507015627
 21
-1.640183728254676
 31
0.0
  0
LINE
  5
4AEF
330
1E
100
AcDbEntity
  8
7
100
AcDbLine
 10
-7.907174507015627
 20
-1.640183728254676
 30
0.0
 11
-7.907174507015627
 21
-1.620498688884602
 31
0.0
  0
LINE
  5
4AF0
330
1E
100
AcDbEntity
  8
7
100
AcDbLine
 10
-7.907174507015627
 20
-1.620498688884602
 30
0.0
 11
-7.907174507015627
 21
-1.600813649514527
 31
0.0
  0
LINE
  5
4AF1
330
1E
100
AcDbEntity
  8
7
100
AcDbLine
 10
-8.153237499141608
 20
-1.640183728254676
 30
0.0
 11
-8.153237499141608
 21
-1.620498688884602
 31
0.0
  0
LINE
  5
4AF2
330
1E
100
AcDbEntity
  8
7
100
AcDbLine
 10
-8.153237499141608
 20
-1.620498688884602
 30
0.0
 11
-8.153237499141608
 21
-1.600813649514527
 31
0.0
  0
LINE
  5
4AF3
330
1E
100
AcDbEntity
  8
7
100
AcDbLine
 10
-8.153237499141608
 20
-0.3901837282546765
 30
0.0
 11
-8.153237499141608
 21
-0.4197112873097879
 31
0.0
  0
LINE
  5
4AF4
330
1E
100
AcDbEntity
  8
7
100
AcDbLine
 10
-8.153237499141608
 20
-0.4197112873097879
 30
0.0
 11
-8.153237499141608
 21
-0.43939632667988
 31
0.0
  0
LINE
  5
4AF5
330
1E
100
AcDbEntity
  8
7
100
AcDbLine
 10
-8.153237499141608
 20
-6.256325460538143
 30
0.0
 11
-7.907174507015627
 21
-6.256325460538143
 31
0.0
  0
LINE
  5
4AF6
330
1E
100
AcDbEntity
  8
7
100
AcDbLine
 10
-7.907174507015627
 20
-6.256325460538143
 30
0.0
 11
-7.907174507015627
 21
-6.236640421168061
 31
0.0
  0
LINE
  5
4AF7
330
1E
100
AcDbEntity
  8
7
100
AcDbLine
 10
-7.907174507015627
 20
-6.236640421168061
 30
0.0
 11
-7.907174507015627
 21
-6.216955381797987
 31
0.0
  0
LINE
  5
4AF8
330
1E
100
AcDbEntity
  8
7
100
AcDbLine
 10
-8.153237499141608
 20
-6.256325460538143
 30
0.0
 11
-8.153237499141608
 21
-6.236640421168061
 31
0.0
  0
LINE
  5
4AF9
330
1E
100
AcDbEntity
  8
7
100
AcDbLine
 10
-8.153237499141608
 20
-6.236640421168061
 30
0.0
 11
-8.153237499141608
 21
-6.216955381797987
 31
0.0
  0
LINE
  5
4AFA
330
1E
100
AcDbEntity
  8
7
100
AcDbLine
 10
-7.907174507015627
 20
-5.006325460538143
 30
0.0
 11
-7.907174507015627
 21
-5.026010499908217
 31
0.0
  0
LINE
  5
4AFB
330
1E
100
AcDbEntity
  8
7
100
AcDbLine
 10
-7.907174507015627
 20
-5.026010499908217
 30
0.0
 11
-7.907174507015627
 21
-5.045695539278302
 31
0.0
  0
LINE
  5
4AFC
330
1E
100
AcDbEntity
  8
7
100
AcDbLine
 10
-8.153237499141608
 20
-5.006325460538143
 30
0.0
 11
-8.153237499141608
 21
-5.026010499908217
 31
0.0
  0
LINE
  5
4AFD
330
1E
100
AcDbEntity
  8
7
100
AcDbLine
 10
-8.153237499141608
 20
-5.026010499908217
 30
0.0
 11
-8.153237499141608
 21
-5.045695539278302
 31
0.0
  0
LINE
  5
4AFE
330
1E
100
AcDbEntity
  8
7
100
AcDbLine
 10
-3.989851672369956
 20
-6.256325460538143
 30
0.0
 11
-3.989851672369956
 21
-6.236640421168061
 31
0.0
  0
LINE
  5
4AFF
330
1E
100
AcDbEntity
  8
7
100
AcDbLine
 10
-3.989851672369956
 20
-6.236640421168061
 30
0.0
 11
-3.989851672369956
 21
-6.216955381797987
 31
0.0
  0
LINE
  5
4B00
330
1E
100
AcDbEntity
  8
7
100
AcDbLine
 10
-4.245757184180979
 20
-6.256325460538143
 30
0.0
 11
-4.245757184180979
 21
-6.236640421168061
 31
0.0
  0
LINE
  5
4B01
330
1E
100
AcDbEntity
  8
7
100
AcDbLine
 10
-4.245757184180979
 20
-6.236640421168061
 30
0.0
 11
-4.245757184180979
 21
-6.216955381797987
 31
0.0
  0
LINE
  5
4B02
330
1E
100
AcDbEntity
  8
7
100
AcDbLine
 10
-3.989851672369956
 20
-5.006325460538143
 30
0.0
 11
-3.989851672369956
 21
-5.026010499908217
 31
0.0
  0
LINE
  5
4B03
330
1E
100
AcDbEntity
  8
7
100
AcDbLine
 10
-3.989851672369956
 20
-5.026010499908217
 30
0.0
 11
-3.989851672369956
 21
-5.045695539278302
 31
0.0
  0
LINE
  5
4B04
330
1E
100
AcDbEntity
  8
7
100
AcDbLine
 10
-4.245757184180979
 20
-5.006325460538143
 30
0.0
 11
-4.245757184180979
 21
-5.026010499908217
 31
0.0
  0
LINE
  5
4B05
330
1E
100
AcDbEntity
  8
7
100
AcDbLine
 10
-4.245757184180979
 20
-5.026010499908217
 30
0.0
 11
-4.245757184180979
 21
-5.045695539278302
 31
0.0
  0
LINE
  5
4B06
330
1E
100
AcDbEntity
  8
7
100
AcDbLine
 10
-8.537095766858145
 20
-6.502388452664124
 30
0.0
 11
-8.537095766858145
 21
-6.571286090459402
 31
0.0
  0
LINE
  5
4B07
330
1E
100
AcDbEntity
  8
7
100
AcDbLine
 10
-8.537095766858145
 20
-6.571286090459402
 30
0.0
 11
-8.537095766858145
 21
-6.600813649514519
 31
0.0
  0
LINE
  5
4B08
330
1E
100
AcDbEntity
  8
7
100
AcDbLine
 10
-7.907174507015627
 20
-0.43939632667988
 30
0.0
 11
-8.153237499141608
 21
-0.43939632667988
 31
0.0
  0
LINE
  5
4B09
330
1E
100
AcDbEntity
  8
7
100
AcDbLine
 10
-8.153237499141608
 20
-0.43939632667988
 30
0.0
 11
-8.153237499141608
 21
-0.5673490825853805
 31
0.0
  0
LINE
  5
4B0A
330
1E
100
AcDbEntity
  8
7
100
AcDbLine
 10
-7.907174507015627
 20
-0.5673490825853805
 30
0.0
 11
-7.907174507015627
 21
-0.6067191613255467
 31
0.0
  0
LINE
  5
4B0B
330
1E
100
AcDbEntity
  8
7
100
AcDbLine
 10
-7.907174507015627
 20
-0.6067191613255467
 30
0.0
 11
-7.907174507015627
 21
-0.6460892400656953
 31
0.0
  0
LINE
  5
4B0C
330
1E
100
AcDbEntity
  8
7
100
AcDbLine
 10
-7.907174507015627
 20
-0.5673490825853805
 30
0.0
 11
-8.153237499141608
 21
-0.5673490825853805
 31
0.0
  0
LINE
  5
4B0D
330
1E
100
AcDbEntity
  8
7
100
AcDbLine
 10
-8.153237499141608
 20
-0.5673490825853805
 30
0.0
 11
-8.153237499141608
 21
-0.6067191613255467
 31
0.0
  0
LINE
  5
4B0E
330
1E
100
AcDbEntity
  8
7
100
AcDbLine
 10
-8.153237499141608
 20
-0.6067191613255467
 30
0.0
 11
-8.153237499141608
 21
-0.6460892400656953
 31
0.0
  0
LINE
  5
4B0F
330
1E
100
AcDbEntity
  8
7
100
AcDbLine
 10
-8.153237499141608
 20
-1.472860893609009
 30
0.0
 11
-8.153237499141608
 21
-1.433490814868843
 31
0.0
  0
LINE
  5
4B10
330
1E
100
AcDbEntity
  8
7
100
AcDbLine
 10
-8.153237499141608
 20
-1.433490814868843
 30
0.0
 11
-8.153237499141608
 21
-1.384278216443657
 31
0.0
  0
LINE
  5
4B11
330
1E
100
AcDbEntity
  8
7
100
AcDbLine
 10
-7.907174507015627
 20
-1.472860893609009
 30
0.0
 11
-7.907174507015627
 21
-1.433490814868843
 31
0.0
  0
LINE
  5
4B12
330
1E
100
AcDbEntity
  8
7
100
AcDbLine
 10
-7.907174507015627
 20
-1.433490814868843
 30
0.0
 11
-7.907174507015627
 21
-1.384278216443657
 31
0.0
  0
LINE
  5
4B13
330
1E
100
AcDbEntity
  8
7
100
AcDbLine
 10
-8.153237499141608
 20
-1.600813649514527
 30
0.0
 11
-7.907174507015627
 21
-1.600813649514527
 31
0.0
  0
LINE
  5
4B14
330
1E
100
AcDbEntity
  8
7
100
AcDbLine
 10
-7.907174507015627
 20
-1.600813649514527
 30
0.0
 11
-7.907174507015627
 21
-1.472860893609009
 31
0.0
  0
LINE
  5
4B15
330
1E
100
AcDbEntity
  8
7
100
AcDbLine
 10
-7.907174507015627
 20
-5.173648295183809
 30
0.0
 11
-7.907174507015627
 21
-5.213018373923969
 31
0.0
  0
LINE
  5
4B16
330
1E
100
AcDbEntity
  8
7
100
AcDbLine
 10
-7.907174507015627
 20
-5.213018373923969
 30
0.0
 11
-7.907174507015627
 21
-5.262230972349161
 31
0.0
  0
LINE
  5
4B17
330
1E
100
AcDbEntity
  8
7
100
AcDbLine
 10
-8.153237499141608
 20
-5.173648295183809
 30
0.0
 11
-8.153237499141608
 21
-5.213018373923969
 31
0.0
  0
LINE
  5
4B18
330
1E
100
AcDbEntity
  8
7
100
AcDbLine
 10
-8.153237499141608
 20
-5.213018373923969
 30
0.0
 11
-8.153237499141608
 21
-5.262230972349161
 31
0.0
  0
LINE
  5
4B19
330
1E
100
AcDbEntity
  8
7
100
AcDbLine
 10
-8.153237499141608
 20
-6.089002625892476
 30
0.0
 11
-8.153237499141608
 21
-6.04963254715232
 31
0.0
  0
LINE
  5
4B1A
330
1E
100
AcDbEntity
  8
7
100
AcDbLine
 10
-8.153237499141608
 20
-6.04963254715232
 30
0.0
 11
-8.153237499141608
 21
-6.000419948727117
 31
0.0
  0
LINE
  5
4B1B
330
1E
100
AcDbEntity
  8
7
100
AcDbLine
 10
-7.907174507015627
 20
-6.089002625892476
 30
0.0
 11
-7.907174507015627
 21
-6.04963254715232
 31
0.0
  0
LINE
  5
4B1C
330
1E
100
AcDbEntity
  8
7
100
AcDbLine
 10
-7.907174507015627
 20
-6.04963254715232
 30
0.0
 11
-7.907174507015627
 21
-6.000419948727117
 31
0.0
  0
LINE
  5
4B1D
330
1E
100
AcDbEntity
  8
7
100
AcDbLine
 10
-7.907174507015627
 20
-6.216955381797987
 30
0.0
 11
-7.907174507015627
 21
-6.089002625892476
 31
0.0
  0
LINE
  5
4B1E
330
1E
100
AcDbEntity
  8
7
100
AcDbLine
 10
-7.907174507015627
 20
-6.089002625892476
 30
0.0
 11
-8.153237499141608
 21
-6.089002625892476
 31
0.0
  0
LINE
  5
4B1F
330
1E
100
AcDbEntity
  8
7
100
AcDbLine
 10
-3.989851672369956
 20
-5.045695539278302
 30
0.0
 11
-4.245757184180979
 21
-5.045695539278302
 31
0.0
  0
LINE
  5
4B20
330
1E
100
AcDbEntity
  8
7
100
AcDbLine
 10
-4.245757184180979
 20
-5.045695539278302
 30
0.0
 11
-4.245757184180979
 21
-5.173648295183809
 31
0.0
  0
LINE
  5
4B21
330
1E
100
AcDbEntity
  8
7
100
AcDbLine
 10
-3.989851672369956
 20
-5.173648295183809
 30
0.0
 11
-4.245757184180979
 21
-5.173648295183809
 31
0.0
  0
LINE
  5
4B22
330
1E
100
AcDbEntity
  8
7
100
AcDbLine
 10
-4.245757184180979
 20
-5.173648295183809
 30
0.0
 11
-4.245757184180979
 21
-5.213018373923969
 31
0.0
  0
LINE
  5
4B23
330
1E
100
AcDbEntity
  8
7
100
AcDbLine
 10
-4.245757184180979
 20
-5.213018373923969
 30
0.0
 11
-4.245757184180979
 21
-5.262230972349161
 31
0.0
  0
LINE
  5
4B24
330
1E
100
AcDbEntity
  8
7
100
AcDbLine
 10
-4.245757184180979
 20
-6.089002625892476
 30
0.0
 11
-4.245757184180979
 21
-6.04963254715232
 31
0.0
  0
LINE
  5
4B25
330
1E
100
AcDbEntity
  8
7
100
AcDbLine
 10
-4.245757184180979
 20
-6.04963254715232
 30
0.0
 11
-4.245757184180979
 21
-6.000419948727117
 31
0.0
  0
LINE
  5
4B26
330
1E
100
AcDbEntity
  8
7
100
AcDbLine
 10
-3.989851672369956
 20
-6.089002625892476
 30
0.0
 11
-3.989851672369956
 21
-6.04963254715232
 31
0.0
  0
LINE
  5
4B27
330
1E
100
AcDbEntity
  8
7
100
AcDbLine
 10
-3.989851672369956
 20
-6.04963254715232
 30
0.0
 11
-3.989851672369956
 21
-6.000419948727117
 31
0.0
  0
LINE
  5
4B28
330
1E
100
AcDbEntity
  8
7
100
AcDbLine
 10
-4.245757184180979
 20
-6.216955381797987
 30
0.0
 11
-3.989851672369956
 21
-6.216955381797987
 31
0.0
  0
LINE
  5
4B29
330
1E
100
AcDbEntity
  8
7
100
AcDbLine
 10
-3.989851672369956
 20
-6.216955381797987
 30
0.0
 11
-3.989851672369956
 21
-6.089002625892476
 31
0.0
  0
LINE
  5
4B2A
330
1E
100
AcDbEntity
  8
7
100
AcDbLine
 10
-9.068591829850271
 20
-5.321286090459402
 30
0.0
 11
-8.989851672369956
 21
-5.281916011719246
 31
0.0
  0
LINE
  5
4B2B
330
1E
100
AcDbEntity
  8
7
100
AcDbLine
 10
-8.989851672369956
 20
-5.281916011719246
 30
0.0
 11
-8.989851672369956
 21
-5.193333334553894
 31
0.0
  0
LINE
  5
4B2C
330
1E
100
AcDbEntity
  8
7
100
AcDbLine
 10
-8.989851672369956
 20
-5.193333334553894
 30
0.0
 11
-9.068591829850271
 21
-5.144120736128691
 31
0.0
  0
LINE
  5
4B2D
330
1E
100
AcDbEntity
  8
7
100
AcDbLine
 10
-9.068591829850271
 20
-5.144120736128691
 30
0.0
 11
-9.147331987330586
 21
-5.183490814868846
 31
0.0
  0
LINE
  5
4B2E
330
1E
100
AcDbEntity
  8
7
100
AcDbLine
 10
-9.147331987330586
 20
-5.183490814868846
 30
0.0
 11
-9.147331987330586
 21
-5.272073492034209
 31
0.0
  0
LINE
  5
4B2F
330
1E
100
AcDbEntity
  8
7
100
AcDbLine
 10
-9.147331987330586
 20
-5.272073492034209
 30
0.0
 11
-9.068591829850271
 21
-5.321286090459402
 31
0.0
  0
LINE
  5
4B30
330
1E
100
AcDbEntity
  8
7
100
AcDbLine
 10
-9.068591829850271
 20
-5.163805775498772
 30
0.0
 11
-9.137489467645549
 21
-5.213018373923969
 31
0.0
  0
LINE
  5
4B31
330
1E
100
AcDbEntity
  8
7
100
AcDbLine
 10
-9.137489467645549
 20
-5.213018373923969
 30
0.0
 11
-9.107961908590429
 21
-5.291758531404283
 31
0.0
  0
LINE
  5
4B32
330
1E
100
AcDbEntity
  8
7
100
AcDbLine
 10
-9.107961908590429
 20
-5.291758531404283
 30
0.0
 11
-9.029221751110114
 21
-5.291758531404283
 31
0.0
  0
LINE
  5
4B33
330
1E
100
AcDbEntity
  8
7
100
AcDbLine
 10
-9.029221751110114
 20
-5.291758531404283
 30
0.0
 11
-8.999694192054993
 21
-5.213018373923969
 31
0.0
  0
LINE
  5
4B34
330
1E
100
AcDbEntity
  8
7
100
AcDbLine
 10
-8.999694192054993
 20
-5.213018373923969
 30
0.0
 11
-9.068591829850271
 21
-5.163805775498772
 31
0.0
  0
LINE
  5
4B35
330
1E
100
AcDbEntity
  8
7
100
AcDbLine
 10
-9.068591829850271
 20
14.6787139095406
 30
0.0
 11
-8.989851672369956
 21
14.71808398828074
 31
0.0
  0
LINE
  5
4B36
330
1E
100
AcDbEntity
  8
7
100
AcDbLine
 10
-8.989851672369956
 20
14.71808398828074
 30
0.0
 11
-8.989851672369956
 21
14.8066666654461
 31
0.0
  0
LINE
  5
4B37
330
1E
100
AcDbEntity
  8
7
100
AcDbLine
 10
-8.989851672369956
 20
14.8066666654461
 30
0.0
 11
-9.068591829850271
 21
14.8558792638713
 31
0.0
  0
LINE
  5
4B38
330
1E
100
AcDbEntity
  8
7
100
AcDbLine
 10
-9.068591829850271
 20
14.8558792638713
 30
0.0
 11
-9.147331987330586
 21
14.81650918513115
 31
0.0
  0
LINE
  5
4B39
330
1E
100
AcDbEntity
  8
7
100
AcDbLine
 10
-9.147331987330586
 20
14.81650918513115
 30
0.0
 11
-9.147331987330586
 21
14.72792650796578
 31
0.0
  0
LINE
  5
4B3A
330
1E
100
AcDbEntity
  8
7
100
AcDbLine
 10
-9.147331987330586
 20
14.72792650796578
 30
0.0
 11
-9.068591829850271
 21
14.6787139095406
 31
0.0
  0
LINE
  5
4B3B
330
1E
100
AcDbEntity
  8
7
100
AcDbLine
 10
-9.068591829850271
 20
14.83619422450123
 30
0.0
 11
-9.137489467645549
 21
14.78698162607602
 31
0.0
  0
LINE
  5
4B3C
330
1E
100
AcDbEntity
  8
7
100
AcDbLine
 10
-9.137489467645549
 20
14.78698162607602
 30
0.0
 11
-9.107961908590429
 21
14.70824146859571
 31
0.0
  0
LINE
  5
4B3D
330
1E
100
AcDbEntity
  8
7
100
AcDbLine
 10
-9.107961908590429
 20
14.70824146859571
 30
0.0
 11
-9.029221751110114
 21
14.70824146859571
 31
0.0
  0
LINE
  5
4B3E
330
1E
100
AcDbEntity
  8
7
100
AcDbLine
 10
-9.029221751110114
 20
14.70824146859571
 30
0.0
 11
-8.999694192054993
 21
14.78698162607602
 31
0.0
  0
LINE
  5
4B3F
330
1E
100
AcDbEntity
  8
7
100
AcDbLine
 10
-8.999694192054993
 20
14.78698162607602
 30
0.0
 11
-9.068591829850271
 21
14.83619422450123
 31
0.0
  0
LINE
  5
4B40
330
1E
100
AcDbEntity
  8
7
100
AcDbLine
 10
4.494400296133978
 20
-5.321286090459402
 30
0.0
 11
4.573140453614293
 21
-5.281916011719246
 31
0.0
  0
LINE
  5
4B41
330
1E
100
AcDbEntity
  8
7
100
AcDbLine
 10
4.573140453614293
 20
-5.281916011719246
 30
0.0
 11
4.573140453614293
 21
-5.193333334553894
 31
0.0
  0
LINE
  5
4B42
330
1E
100
AcDbEntity
  8
7
100
AcDbLine
 10
4.573140453614293
 20
-5.193333334553894
 30
0.0
 11
4.494400296133978
 21
-5.144120736128691
 31
0.0
  0
LINE
  5
4B43
330
1E
100
AcDbEntity
  8
7
100
AcDbLine
 10
4.494400296133978
 20
-5.144120736128691
 30
0.0
 11
4.415660138653663
 21
-5.183490814868846
 31
0.0
  0
LINE
  5
4B44
330
1E
100
AcDbEntity
  8
7
100
AcDbLine
 10
4.415660138653663
 20
-5.183490814868846
 30
0.0
 11
4.415660138653663
 21
-5.272073492034209
 31
0.0
  0
LINE
  5
4B45
330
1E
100
AcDbEntity
  8
7
100
AcDbLine
 10
4.494400296133978
 20
-5.163805775498772
 30
0.0
 11
4.425502658338706
 21
-5.213018373923969
 31
0.0
  0
LINE
  5
4B46
330
1E
100
AcDbEntity
  8
7
100
AcDbLine
 10
4.425502658338706
 20
-5.213018373923969
 30
0.0
 11
4.45503021739382
 21
-5.291758531404283
 31
0.0
  0
LINE
  5
4B47
330
1E
100
AcDbEntity
  8
7
100
AcDbLine
 10
4.45503021739382
 20
-5.291758531404283
 30
0.0
 11
4.533770374874135
 21
-5.291758531404283
 31
0.0
  0
LINE
  5
4B48
330
1E
100
AcDbEntity
  8
7
100
AcDbLine
 10
4.533770374874135
 20
-5.291758531404283
 30
0.0
 11
4.563297933929256
 21
-5.213018373923969
 31
0.0
  0
LINE
  5
4B49
330
1E
100
AcDbEntity
  8
7
100
AcDbLine
 10
4.563297933929256
 20
-5.213018373923969
 30
0.0
 11
4.494400296133978
 21
-5.163805775498772
 31
0.0
  0
LINE
  5
4B4A
330
1E
100
AcDbEntity
  8
7
100
AcDbLine
 10
4.415660138653663
 20
14.81650918513115
 30
0.0
 11
4.415660138653663
 21
14.72792650796578
 31
0.0
  0
LINE
  5
4B4B
330
1E
100
AcDbEntity
  8
7
100
AcDbLine
 10
4.415660138653663
 20
14.72792650796578
 30
0.0
 11
4.494400296133978
 21
14.6787139095406
 31
0.0
  0
LINE
  5
4B4C
330
1E
100
AcDbEntity
  8
7
100
AcDbLine
 10
4.494400296133978
 20
14.6787139095406
 30
0.0
 11
4.573140453614293
 21
14.71808398828074
 31
0.0
  0
LINE
  5
4B4D
330
1E
100
AcDbEntity
  8
7
100
AcDbLine
 10
4.573140453614293
 20
14.71808398828074
 30
0.0
 11
4.573140453614293
 21
14.8066666654461
 31
0.0
  0
LINE
  5
4B4E
330
1E
100
AcDbEntity
  8
7
100
AcDbLine
 10
4.573140453614293
 20
14.8066666654461
 30
0.0
 11
4.494400296133978
 21
14.8558792638713
 31
0.0
  0
LINE
  5
4B4F
330
1E
100
AcDbEntity
  8
7
100
AcDbLine
 10
4.494400296133978
 20
14.8558792638713
 30
0.0
 11
4.415660138653663
 21
14.81650918513115
 31
0.0
  0
LINE
  5
4B50
330
1E
100
AcDbEntity
  8
7
100
AcDbLine
 10
4.494400296133978
 20
14.83619422450123
 30
0.0
 11
4.425502658338706
 21
14.78698162607602
 31
0.0
  0
LINE
  5
4B51
330
1E
100
AcDbEntity
  8
7
100
AcDbLine
 10
4.425502658338706
 20
14.78698162607602
 30
0.0
 11
4.45503021739382
 21
14.70824146859571
 31
0.0
  0
LINE
  5
4B52
330
1E
100
AcDbEntity
  8
7
100
AcDbLine
 10
4.45503021739382
 20
14.70824146859571
 30
0.0
 11
4.533770374874135
 21
14.70824146859571
 31
0.0
  0
LINE
  5
4B53
330
1E
100
AcDbEntity
  8
7
100
AcDbLine
 10
4.533770374874135
 20
14.70824146859571
 30
0.0
 11
4.563297933929256
 21
14.78698162607602
 31
0.0
  0
LINE
  5
4B54
330
1E
100
AcDbEntity
  8
7
100
AcDbLine
 10
4.563297933929256
 20
14.78698162607602
 30
0.0
 11
4.494400296133978
 21
14.83619422450123
 31
0.0
  0
LINE
  5
4B55
330
1E
100
AcDbEntity
  8
7
100
AcDbLine
 10
-2.287095766858146
 20
-7.073254594396408
 30
0.0
 11
-2.365835924338461
 21
-7.112624673136565
 31
0.0
  0
LINE
  5
4B56
330
1E
100
AcDbEntity
  8
7
100
AcDbLine
 10
-2.365835924338461
 20
-7.112624673136565
 30
0.0
 11
-2.365835924338461
 21
-7.20120735030192
 31
0.0
  0
LINE
  5
4B57
330
1E
100
AcDbEntity
  8
7
100
AcDbLine
 10
-2.365835924338461
 20
-7.20120735030192
 30
0.0
 11
-2.287095766858146
 21
-7.250419948727117
 31
0.0
  0
LINE
  5
4B58
330
1E
100
AcDbEntity
  8
7
100
AcDbLine
 10
-2.287095766858146
 20
-7.250419948727117
 30
0.0
 11
-2.208355609377831
 21
-7.211049869986958
 31
0.0
  0
LINE
  5
4B59
330
1E
100
AcDbEntity
  8
7
100
AcDbLine
 10
-2.208355609377831
 20
-7.211049869986958
 30
0.0
 11
-2.208355609377831
 21
-7.122467192821606
 31
0.0
  0
LINE
  5
4B5A
330
1E
100
AcDbEntity
  8
7
100
AcDbLine
 10
-2.208355609377831
 20
-7.122467192821606
 30
0.0
 11
-2.287095766858146
 21
-7.073254594396408
 31
0.0
  0
LINE
  5
4B5B
330
1E
100
AcDbEntity
  8
7
100
AcDbLine
 10
-2.287095766858146
 20
-7.092939633766487
 30
0.0
 11
-2.355993404653419
 21
-7.142152232191685
 31
0.0
  0
LINE
  5
4B5C
330
1E
100
AcDbEntity
  8
7
100
AcDbLine
 10
-2.355993404653419
 20
-7.142152232191685
 30
0.0
 11
-2.326465845598303
 21
-7.220892389672
 31
0.0
  0
LINE
  5
4B5D
330
1E
100
AcDbEntity
  8
7
100
AcDbLine
 10
-2.326465845598303
 20
-7.220892389672
 30
0.0
 11
-2.247725688117988
 21
-7.220892389672
 31
0.0
  0
LINE
  5
4B5E
330
1E
100
AcDbEntity
  8
7
100
AcDbLine
 10
-2.247725688117988
 20
-7.220892389672
 30
0.0
 11
-2.218198129062868
 21
-7.142152232191685
 31
0.0
  0
LINE
  5
4B5F
330
1E
100
AcDbEntity
  8
7
100
AcDbLine
 10
-2.218198129062868
 20
-7.142152232191685
 30
0.0
 11
-2.287095766858146
 21
-7.092939633766487
 31
0.0
  0
LINE
  5
4B60
330
1E
100
AcDbEntity
  8
7
100
AcDbLine
 10
4.573140453614293
 20
4.806666665446101
 30
0.0
 11
4.494400296133978
 21
4.855879263871305
 31
0.0
  0
LINE
  5
4B61
330
1E
100
AcDbEntity
  8
7
100
AcDbLine
 10
4.494400296133978
 20
4.855879263871305
 30
0.0
 11
4.415660138653663
 21
4.816509185131156
 31
0.0
  0
LINE
  5
4B62
330
1E
100
AcDbEntity
  8
7
100
AcDbLine
 10
4.415660138653663
 20
4.816509185131156
 30
0.0
 11
4.415660138653663
 21
4.727926507965786
 31
0.0
  0
LINE
  5
4B63
330
1E
100
AcDbEntity
  8
7
100
AcDbLine
 10
4.415660138653663
 20
4.727926507965786
 30
0.0
 11
4.494400296133978
 21
4.678713909540601
 31
0.0
  0
LINE
  5
4B64
330
1E
100
AcDbEntity
  8
7
100
AcDbLine
 10
4.494400296133978
 20
4.678713909540601
 30
0.0
 11
4.573140453614293
 21
4.718083988280749
 31
0.0
  0
LINE
  5
4B65
330
1E
100
AcDbEntity
  8
7
100
AcDbLine
 10
4.573140453614293
 20
4.718083988280749
 30
0.0
 11
4.573140453614293
 21
4.806666665446101
 31
0.0
  0
LINE
  5
4B66
330
1E
100
AcDbEntity
  8
7
100
AcDbLine
 10
4.494400296133978
 20
4.83619422450123
 30
0.0
 11
4.425502658338706
 21
4.786981626076027
 31
0.0
  0
LINE
  5
4B67
330
1E
100
AcDbEntity
  8
7
100
AcDbLine
 10
4.425502658338706
 20
4.786981626076027
 30
0.0
 11
4.45503021739382
 21
4.708241468595712
 31
0.0
  0
LINE
  5
4B68
330
1E
100
AcDbEntity
  8
7
100
AcDbLine
 10
4.45503021739382
 20
4.708241468595712
 30
0.0
 11
4.533770374874135
 21
4.708241468595712
 31
0.0
  0
LINE
  5
4B69
330
1E
100
AcDbEntity
  8
7
100
AcDbLine
 10
4.533770374874135
 20
4.708241468595712
 30
0.0
 11
4.563297933929256
 21
4.786981626076027
 31
0.0
  0
LINE
  5
4B6A
330
1E
100
AcDbEntity
  8
7
100
AcDbLine
 10
4.563297933929256
 20
4.786981626076027
 30
0.0
 11
4.494400296133978
 21
4.83619422450123
 31
0.0
  0
LINE
  5
4B6B
330
1E
100
AcDbEntity
  8
7
100
AcDbLine
 10
-2.208355609377831
 20
16.64721784654847
 30
0.0
 11
-2.208355609377831
 21
16.73580052371382
 31
0.0
  0
LINE
  5
4B6C
330
1E
100
AcDbEntity
  8
7
100
AcDbLine
 10
-2.208355609377831
 20
16.73580052371382
 30
0.0
 11
-2.287095766858146
 21
16.78501312213902
 31
0.0
  0
LINE
  5
4B6D
330
1E
100
AcDbEntity
  8
7
100
AcDbLine
 10
-2.287095766858146
 20
16.78501312213902
 30
0.0
 11
-2.365835924338461
 21
16.74564304339886
 31
0.0
  0
LINE
  5
4B6E
330
1E
100
AcDbEntity
  8
7
100
AcDbLine
 10
-2.365835924338461
 20
16.74564304339886
 30
0.0
 11
-2.365835924338461
 21
16.6570603662335
 31
0.0
  0
LINE
  5
4B6F
330
1E
100
AcDbEntity
  8
7
100
AcDbLine
 10
-2.365835924338461
 20
16.6570603662335
 30
0.0
 11
-2.287095766858146
 21
16.6078477678083
 31
0.0
  0
LINE
  5
4B70
330
1E
100
AcDbEntity
  8
7
100
AcDbLine
 10
-2.287095766858146
 20
16.76532808276895
 30
0.0
 11
-2.355993404653419
 21
16.71611548434374
 31
0.0
  0
LINE
  5
4B71
330
1E
100
AcDbEntity
  8
7
100
AcDbLine
 10
-2.355993404653419
 20
16.71611548434374
 30
0.0
 11
-2.326465845598303
 21
16.63737532686343
 31
0.0
  0
LINE
  5
4B72
330
1E
100
AcDbEntity
  8
7
100
AcDbLine
 10
-2.326465845598303
 20
16.63737532686343
 30
0.0
 11
-2.247725688117988
 21
16.63737532686343
 31
0.0
  0
LINE
  5
4B73
330
1E
100
AcDbEntity
  8
7
100
AcDbLine
 10
-2.247725688117988
 20
16.63737532686343
 30
0.0
 11
-2.218198129062868
 21
16.71611548434374
 31
0.0
  0
LINE
  5
4B74
330
1E
100
AcDbEntity
  8
7
100
AcDbLine
 10
-2.218198129062868
 20
16.71611548434374
 30
0.0
 11
-2.287095766858146
 21
16.76532808276895
 31
0.0
  0
LINE
  5
4B75
330
1E
100
AcDbEntity
  8
7
100
AcDbLine
 10
-9.068591829850271
 20
4.678713909540601
 30
0.0
 11
-8.989851672369956
 21
4.718083988280749
 31
0.0
  0
LINE
  5
4B76
330
1E
100
AcDbEntity
  8
7
100
AcDbLine
 10
-8.989851672369956
 20
4.718083988280749
 30
0.0
 11
-8.989851672369956
 21
4.806666665446101
 31
0.0
  0
LINE
  5
4B77
330
1E
100
AcDbEntity
  8
7
100
AcDbLine
 10
-8.989851672369956
 20
4.806666665446101
 30
0.0
 11
-9.068591829850271
 21
4.855879263871305
 31
0.0
  0
LINE
  5
4B78
330
1E
100
AcDbEntity
  8
7
100
AcDbLine
 10
-9.068591829850271
 20
4.855879263871305
 30
0.0
 11
-9.147331987330586
 21
4.816509185131156
 31
0.0
  0
LINE
  5
4B79
330
1E
100
AcDbEntity
  8
7
100
AcDbLine
 10
-9.147331987330586
 20
4.816509185131156
 30
0.0
 11
-9.147331987330586
 21
4.727926507965786
 31
0.0
  0
LINE
  5
4B7A
330
1E
100
AcDbEntity
  8
7
100
AcDbLine
 10
-9.147331987330586
 20
4.727926507965786
 30
0.0
 11
-9.068591829850271
 21
4.678713909540601
 31
0.0
  0
LINE
  5
4B7B
330
1E
100
AcDbEntity
  8
7
100
AcDbLine
 10
-9.068591829850271
 20
4.83619422450123
 30
0.0
 11
-9.137489467645549
 21
4.786981626076027
 31
0.0
  0
LINE
  5
4B7C
330
1E
100
AcDbEntity
  8
7
100
AcDbLine
 10
-9.137489467645549
 20
4.786981626076027
 30
0.0
 11
-9.107961908590429
 21
4.708241468595712
 31
0.0
  0
LINE
  5
4B7D
330
1E
100
AcDbEntity
  8
7
100
AcDbLine
 10
-9.107961908590429
 20
4.708241468595712
 30
0.0
 11
-9.029221751110114
 21
4.708241468595712
 31
0.0
  0
LINE
  5
4B7E
330
1E
100
AcDbEntity
  8
7
100
AcDbLine
 10
-9.029221751110114
 20
4.708241468595712
 30
0.0
 11
-8.999694192054993
 21
4.786981626076027
 31
0.0
  0
LINE
  5
4B7F
330
1E
100
AcDbEntity
  8
7
100
AcDbLine
 10
-8.999694192054993
 20
4.786981626076027
 30
0.0
 11
-9.068591829850271
 21
4.83619422450123
 31
0.0
  0
LINE
  5
4B80
330
1E
100
AcDbEntity
  8
7
100
AcDbLine
 10
4.838888485110357
 20
16.95233595678469
 30
0.0
 11
4.81920344574028
 21
16.95233595678469
 31
0.0
  0
LINE
  5
4B81
330
1E
100
AcDbEntity
  8
7
100
AcDbLine
 10
4.81920344574028
 20
16.95233595678469
 30
0.0
 11
4.750305807945002
 21
16.95233595678469
 31
0.0
  0
LINE
  5
4B82
330
1E
100
AcDbEntity
  8
7
100
AcDbLine
 10
4.838888485110357
 20
-7.417742783372787
 30
0.0
 11
4.81920344574028
 21
-7.417742783372787
 31
0.0
  0
LINE
  5
4B83
330
1E
100
AcDbEntity
  8
7
100
AcDbLine
 10
4.81920344574028
 20
-7.417742783372787
 30
0.0
 11
4.750305807945002
 21
-7.417742783372787
 31
0.0
  0
LINE
  5
4B84
330
1E
100
AcDbEntity
  8
7
100
AcDbLine
 10
4.494400296133978
 20
14.8558792638713
 30
0.0
 11
4.415660138653663
 21
14.81650918513115
 31
0.0
  0
LINE
  5
4B85
330
1E
100
AcDbEntity
  8
7
100
AcDbLine
 10
4.415660138653663
 20
14.81650918513115
 30
0.0
 11
4.415660138653663
 21
14.72792650796578
 31
0.0
  0
LINE
  5
4B86
330
1E
100
AcDbEntity
  8
7
100
AcDbLine
 10
4.415660138653663
 20
14.72792650796578
 30
0.0
 11
4.494400296133978
 21
14.6787139095406
 31
0.0
  0
LINE
  5
4B87
330
1E
100
AcDbEntity
  8
7
100
AcDbLine
 10
4.494400296133978
 20
14.6787139095406
 30
0.0
 11
4.573140453614293
 21
14.71808398828074
 31
0.0
  0
LINE
  5
4B88
330
1E
100
AcDbEntity
  8
7
100
AcDbLine
 10
4.573140453614293
 20
14.71808398828074
 30
0.0
 11
4.573140453614293
 21
14.8066666654461
 31
0.0
  0
LINE
  5
4B89
330
1E
100
AcDbEntity
  8
7
100
AcDbLine
 10
4.573140453614293
 20
14.8066666654461
 30
0.0
 11
4.494400296133978
 21
14.8558792638713
 31
0.0
  0
LINE
  5
4B8A
330
1E
100
AcDbEntity
  8
7
100
AcDbLine
 10
4.494400296133978
 20
4.855879263871305
 30
0.0
 11
4.415660138653663
 21
4.816509185131156
 31
0.0
  0
LINE
  5
4B8B
330
1E
100
AcDbEntity
  8
7
100
AcDbLine
 10
4.415660138653663
 20
4.816509185131156
 30
0.0
 11
4.415660138653663
 21
4.727926507965786
 31
0.0
  0
LINE
  5
4B8C
330
1E
100
AcDbEntity
  8
7
100
AcDbLine
 10
4.415660138653663
 20
4.727926507965786
 30
0.0
 11
4.494400296133978
 21
4.678713909540601
 31
0.0
  0
LINE
  5
4B8D
330
1E
100
AcDbEntity
  8
7
100
AcDbLine
 10
4.494400296133978
 20
4.678713909540601
 30
0.0
 11
4.573140453614293
 21
4.718083988280749
 31
0.0
  0
LINE
  5
4B8E
330
1E
100
AcDbEntity
  8
7
100
AcDbLine
 10
4.573140453614293
 20
4.718083988280749
 30
0.0
 11
4.573140453614293
 21
4.806666665446101
 31
0.0
  0
LINE
  5
4B8F
330
1E
100
AcDbEntity
  8
7
100
AcDbLine
 10
4.573140453614293
 20
4.806666665446101
 30
0.0
 11
4.494400296133978
 21
4.855879263871305
 31
0.0
  0
LINE
  5
4B90
330
1E
100
AcDbEntity
  8
7
100
AcDbLine
 10
4.494400296133978
 20
-5.144120736128691
 30
0.0
 11
4.415660138653663
 21
-5.183490814868846
 31
0.0
  0
LINE
  5
4B91
330
1E
100
AcDbEntity
  8
7
100
AcDbLine
 10
4.415660138653663
 20
-5.183490814868846
 30
0.0
 11
4.415660138653663
 21
-5.272073492034209
 31
0.0
  0
LINE
  5
4B92
330
1E
100
AcDbEntity
  8
7
100
AcDbLine
 10
4.415660138653663
 20
-5.272073492034209
 30
0.0
 11
4.494400296133978
 21
-5.321286090459402
 31
0.0
  0
LINE
  5
4B93
330
1E
100
AcDbEntity
  8
7
100
AcDbLine
 10
4.494400296133978
 20
-5.321286090459402
 30
0.0
 11
4.573140453614293
 21
-5.281916011719246
 31
0.0
  0
LINE
  5
4B94
330
1E
100
AcDbEntity
  8
7
100
AcDbLine
 10
4.573140453614293
 20
-5.281916011719246
 30
0.0
 11
4.573140453614293
 21
-5.193333334553894
 31
0.0
  0
LINE
  5
4B95
330
1E
100
AcDbEntity
  8
7
100
AcDbLine
 10
4.573140453614293
 20
-5.193333334553894
 30
0.0
 11
4.494400296133978
 21
-5.144120736128691
 31
0.0
  0
LINE
  5
4B96
330
1E
100
AcDbEntity
  8
7
100
AcDbLine
 10
4.720778248889885
 20
16.95233595678469
 30
0.0
 11
4.710935729204845
 21
16.97202099615476
 31
0.0
  0
LINE
  5
4B97
330
1E
100
AcDbEntity
  8
7
100
AcDbLine
 10
4.710935729204845
 20
16.97202099615476
 30
0.0
 11
4.691250689834765
 21
16.9818635158398
 31
0.0
  0
LINE
  5
4B98
330
1E
100
AcDbEntity
  8
7
100
AcDbLine
 10
4.779833367000122
 20
16.95233595678469
 30
0.0
 11
4.750305807945002
 21
17.01139107489493
 31
0.0
  0
LINE
  5
4B99
330
1E
100
AcDbEntity
  8
7
100
AcDbLine
 10
4.750305807945002
 20
17.01139107489493
 30
0.0
 11
4.691250689834765
 21
17.04091863395004
 31
0.0
  0
LINE
  5
4B9A
330
1E
100
AcDbEntity
  8
7
100
AcDbLine
 10
4.691250689834765
 20
-7.447270342427907
 30
0.0
 11
4.710935729204845
 21
-7.437427822742865
 31
0.0
  0
LINE
  5
4B9B
330
1E
100
AcDbEntity
  8
7
100
AcDbLine
 10
4.710935729204845
 20
-7.437427822742865
 30
0.0
 11
4.720778248889885
 21
-7.417742783372787
 31
0.0
  0
LINE
  5
4B9C
330
1E
100
AcDbEntity
  8
7
100
AcDbLine
 10
4.691250689834765
 20
-7.506325460538143
 30
0.0
 11
4.750305807945002
 21
-7.476797901483024
 31
0.0
  0
LINE
  5
4B9D
330
1E
100
AcDbEntity
  8
7
100
AcDbLine
 10
4.750305807945002
 20
-7.476797901483024
 30
0.0
 11
4.779833367000122
 21
-7.417742783372787
 31
0.0
  0
LINE
  5
4B9E
330
1E
100
AcDbEntity
  8
7
100
AcDbLine
 10
-9.255599703866018
 20
16.9818635158398
 30
0.0
 11
-9.275284743236097
 21
16.97202099615476
 31
0.0
  0
LINE
  5
4B9F
330
1E
100
AcDbEntity
  8
7
100
AcDbLine
 10
-9.275284743236097
 20
16.97202099615476
 30
0.0
 11
-9.285127262921136
 21
16.95233595678469
 31
0.0
  0
LINE
  5
4BA0
330
1E
100
AcDbEntity
  8
7
100
AcDbLine
 10
-9.255599703866018
 20
17.04091863395004
 30
0.0
 11
-9.314654821976255
 21
17.01139107489493
 31
0.0
  0
LINE
  5
4BA1
330
1E
100
AcDbEntity
  8
7
100
AcDbLine
 10
-9.314654821976255
 20
17.01139107489493
 30
0.0
 11
-9.344182381031373
 21
16.95233595678469
 31
0.0
  0
LINE
  5
4BA2
330
1E
100
AcDbEntity
  8
7
100
AcDbLine
 10
-9.344182381031373
 20
-7.417742783372787
 30
0.0
 11
-9.314654821976255
 21
-7.476797901483024
 31
0.0
  0
LINE
  5
4BA3
330
1E
100
AcDbEntity
  8
7
100
AcDbLine
 10
-9.314654821976255
 20
-7.476797901483024
 30
0.0
 11
-9.255599703866018
 21
-7.506325460538143
 31
0.0
  0
LINE
  5
4BA4
330
1E
100
AcDbEntity
  8
7
100
AcDbLine
 10
-9.285127262921136
 20
-7.417742783372787
 30
0.0
 11
-9.275284743236097
 21
-7.437427822742865
 31
0.0
  0
LINE
  5
4BA5
330
1E
100
AcDbEntity
  8
7
100
AcDbLine
 10
-9.275284743236097
 20
-7.437427822742865
 30
0.0
 11
-9.255599703866018
 21
-7.447270342427907
 31
0.0
  0
LINE
  5
4BA6
330
1E
100
AcDbEntity
  8
7
100
AcDbLine
 10
-9.403237499141608
 20
-7.417742783372787
 30
0.0
 11
-9.38355245977153
 21
-7.417742783372787
 31
0.0
  0
LINE
  5
4BA7
330
1E
100
AcDbEntity
  8
7
100
AcDbLine
 10
-9.38355245977153
 20
-7.417742783372787
 30
0.0
 11
-9.314654821976255
 21
-7.417742783372787
 31
0.0
  0
LINE
  5
4BA8
330
1E
100
AcDbEntity
  8
7
100
AcDbLine
 10
-9.403237499141608
 20
16.95233595678469
 30
0.0
 11
-9.38355245977153
 21
16.95233595678469
 31
0.0
  0
LINE
  5
4BA9
330
1E
100
AcDbEntity
  8
7
100
AcDbLine
 10
-9.38355245977153
 20
16.95233595678469
 30
0.0
 11
-9.314654821976255
 21
16.95233595678469
 31
0.0
  0
LINE
  5
4BAA
330
1E
100
AcDbEntity
  8
7
100
AcDbLine
 10
-9.068591829850271
 20
-5.144120736128691
 30
0.0
 11
-9.147331987330586
 21
-5.183490814868846
 31
0.0
  0
LINE
  5
4BAB
330
1E
100
AcDbEntity
  8
7
100
AcDbLine
 10
-9.147331987330586
 20
-5.183490814868846
 30
0.0
 11
-9.147331987330586
 21
-5.272073492034209
 31
0.0
  0
LINE
  5
4BAC
330
1E
100
AcDbEntity
  8
7
100
AcDbLine
 10
-9.147331987330586
 20
-5.272073492034209
 30
0.0
 11
-9.068591829850271
 21
-5.321286090459402
 31
0.0
  0
LINE
  5
4BAD
330
1E
100
AcDbEntity
  8
7
100
AcDbLine
 10
-9.068591829850271
 20
-5.321286090459402
 30
0.0
 11
-8.989851672369956
 21
-5.281916011719246
 31
0.0
  0
LINE
  5
4BAE
330
1E
100
AcDbEntity
  8
7
100
AcDbLine
 10
-8.989851672369956
 20
-5.281916011719246
 30
0.0
 11
-8.989851672369956
 21
-5.193333334553894
 31
0.0
  0
LINE
  5
4BAF
330
1E
100
AcDbEntity
  8
7
100
AcDbLine
 10
-8.989851672369956
 20
-5.193333334553894
 30
0.0
 11
-9.068591829850271
 21
-5.144120736128691
 31
0.0
  0
LINE
  5
4BB0
330
1E
100
AcDbEntity
  8
7
100
AcDbLine
 10
-9.068591829850271
 20
4.855879263871305
 30
0.0
 11
-9.147331987330586
 21
4.816509185131156
 31
0.0
  0
LINE
  5
4BB1
330
1E
100
AcDbEntity
  8
7
100
AcDbLine
 10
-9.147331987330586
 20
4.816509185131156
 30
0.0
 11
-9.147331987330586
 21
4.727926507965786
 31
0.0
  0
LINE
  5
4BB2
330
1E
100
AcDbEntity
  8
7
100
AcDbLine
 10
-9.147331987330586
 20
4.727926507965786
 30
0.0
 11
-9.068591829850271
 21
4.678713909540601
 31
0.0
  0
LINE
  5
4BB3
330
1E
100
AcDbEntity
  8
7
100
AcDbLine
 10
-9.068591829850271
 20
4.678713909540601
 30
0.0
 11
-8.989851672369956
 21
4.718083988280749
 31
0.0
  0
LINE
  5
4BB4
330
1E
100
AcDbEntity
  8
7
100
AcDbLine
 10
-8.989851672369956
 20
4.718083988280749
 30
0.0
 11
-8.989851672369956
 21
4.806666665446101
 31
0.0
  0
LINE
  5
4BB5
330
1E
100
AcDbEntity
  8
7
100
AcDbLine
 10
-8.989851672369956
 20
4.806666665446101
 30
0.0
 11
-9.068591829850271
 21
4.855879263871305
 31
0.0
  0
LINE
  5
4BB6
330
1E
100
AcDbEntity
  8
7
100
AcDbLine
 10
-9.068591829850271
 20
14.8558792638713
 30
0.0
 11
-9.147331987330586
 21
14.81650918513115
 31
0.0
  0
LINE
  5
4BB7
330
1E
100
AcDbEntity
  8
7
100
AcDbLine
 10
-9.147331987330586
 20
14.81650918513115
 30
0.0
 11
-9.147331987330586
 21
14.72792650796578
 31
0.0
  0
LINE
  5
4BB8
330
1E
100
AcDbEntity
  8
7
100
AcDbLine
 10
-9.147331987330586
 20
14.72792650796578
 30
0.0
 11
-9.068591829850271
 21
14.6787139095406
 31
0.0
  0
LINE
  5
4BB9
330
1E
100
AcDbEntity
  8
7
100
AcDbLine
 10
-9.068591829850271
 20
14.6787139095406
 30
0.0
 11
-8.989851672369956
 21
14.71808398828074
 31
0.0
  0
LINE
  5
4BBA
330
1E
100
AcDbEntity
  8
7
100
AcDbLine
 10
-8.989851672369956
 20
14.71808398828074
 30
0.0
 11
-8.989851672369956
 21
14.8066666654461
 31
0.0
  0
LINE
  5
4BBB
330
1E
100
AcDbEntity
  8
7
100
AcDbLine
 10
-8.989851672369956
 20
14.8066666654461
 30
0.0
 11
-9.068591829850271
 21
14.8558792638713
 31
0.0
  0
LINE
  5
4BBC
330
1E
100
AcDbEntity
  8
7
100
AcDbLine
 10
2.338888485110358
 20
10.29879264969808
 30
0.0
 11
2.447156201645793
 21
10.42674540560358
 31
0.0
  0
LINE
  5
4BBD
330
1E
100
AcDbEntity
  8
7
100
AcDbLine
 10
2.447156201645793
 20
10.42674540560358
 30
0.0
 11
2.447156201645793
 21
10.6039107599343
 31
0.0
  0
LINE
  5
4BBE
330
1E
100
AcDbEntity
  8
7
100
AcDbLine
 10
2.447156201645793
 20
10.6039107599343
 30
0.0
 11
2.348731004795399
 21
10.7318635158398
 31
0.0
  0
LINE
  5
4BBF
330
1E
100
AcDbEntity
  8
7
100
AcDbLine
 10
2.338888485110358
 20
11.01729658670595
 30
0.0
 11
2.279833367000122
 21
11.11572178355634
 31
0.0
  0
LINE
  5
4BC0
330
1E
100
AcDbEntity
  8
7
100
AcDbLine
 10
2.279833367000122
 20
11.11572178355634
 30
0.0
 11
2.16172313077965
 21
11.11572178355634
 31
0.0
  0
LINE
  5
4BC1
330
1E
100
AcDbEntity
  8
7
100
AcDbLine
 10
2.16172313077965
 20
11.11572178355634
 30
0.0
 11
2.102668012669413
 21
11.01729658670595
 31
0.0
  0
LINE
  5
4BC2
330
1E
100
AcDbEntity
  8
7
100
AcDbLine
 10
2.102668012669413
 20
10.7318635158398
 30
0.0
 11
1.994400296133978
 21
10.6039107599343
 31
0.0
  0
LINE
  5
4BC3
330
1E
100
AcDbEntity
  8
7
100
AcDbLine
 10
1.994400296133978
 20
10.6039107599343
 30
0.0
 11
1.994400296133978
 21
10.42674540560358
 31
0.0
  0
LINE
  5
4BC4
330
1E
100
AcDbEntity
  8
7
100
AcDbLine
 10
1.994400296133978
 20
10.42674540560358
 30
0.0
 11
2.092825492984372
 21
10.29879264969808
 31
0.0
  0
LINE
  5
4BC5
330
1E
100
AcDbEntity
  8
7
100
AcDbLine
 10
2.102668012669413
 20
10.02320209851697
 30
0.0
 11
2.16172313077965
 21
9.924776901666582
 31
0.0
  0
LINE
  5
4BC6
330
1E
100
AcDbEntity
  8
7
100
AcDbLine
 10
2.16172313077965
 20
9.924776901666582
 30
0.0
 11
2.279833367000122
 21
9.924776901666582
 31
0.0
  0
LINE
  5
4BC7
330
1E
100
AcDbEntity
  8
7
100
AcDbLine
 10
2.102668012669413
 20
-0.7740419959712135
 30
0.0
 11
1.994400296133978
 21
-0.9019947518767317
 31
0.0
  0
LINE
  5
4BC8
330
1E
100
AcDbEntity
  8
7
100
AcDbLine
 10
1.994400296133978
 20
-0.9019947518767317
 30
0.0
 11
1.994400296133978
 21
-1.079160106207435
 31
0.0
  0
LINE
  5
4BC9
330
1E
100
AcDbEntity
  8
7
100
AcDbLine
 10
1.994400296133978
 20
-1.079160106207435
 30
0.0
 11
2.092825492984372
 21
-1.207112862112953
 31
0.0
  0
LINE
  5
4BCA
330
1E
100
AcDbEntity
  8
7
100
AcDbLine
 10
2.102668012669413
 20
-1.482703413294046
 30
0.0
 11
2.16172313077965
 21
-1.581128610144435
 31
0.0
  0
LINE
  5
4BCB
330
1E
100
AcDbEntity
  8
7
100
AcDbLine
 10
2.16172313077965
 20
-1.581128610144435
 30
0.0
 11
2.279833367000122
 21
-1.581128610144435
 31
0.0
  0
LINE
  5
4BCC
330
1E
100
AcDbEntity
  8
7
100
AcDbLine
 10
2.279833367000122
 20
-1.581128610144435
 30
0.0
 11
2.338888485110358
 21
-1.482703413294046
 31
0.0
  0
LINE
  5
4BCD
330
1E
100
AcDbEntity
  8
7
100
AcDbLine
 10
2.338888485110358
 20
-1.207112862112953
 30
0.0
 11
2.447156201645793
 21
-1.079160106207435
 31
0.0
  0
LINE
  5
4BCE
330
1E
100
AcDbEntity
  8
7
100
AcDbLine
 10
2.447156201645793
 20
-1.079160106207435
 30
0.0
 11
2.447156201645793
 21
-0.9019947518767317
 31
0.0
  0
LINE
  5
4BCF
330
1E
100
AcDbEntity
  8
7
100
AcDbLine
 10
2.447156201645793
 20
-0.9019947518767317
 30
0.0
 11
2.348731004795399
 21
-0.7740419959712135
 31
0.0
  0
LINE
  5
4BD0
330
1E
100
AcDbEntity
  8
7
100
AcDbLine
 10
2.338888485110358
 20
-0.4886089251050656
 30
0.0
 11
2.279833367000122
 21
-0.3901837282546765
 31
0.0
  0
LINE
  5
4BD1
330
1E
100
AcDbEntity
  8
7
100
AcDbLine
 10
2.279833367000122
 20
-0.3901837282546765
 30
0.0
 11
2.16172313077965
 21
-0.3901837282546765
 31
0.0
  0
LINE
  5
4BD2
330
1E
100
AcDbEntity
  8
7
100
AcDbLine
 10
2.16172313077965
 20
-0.3901837282546765
 30
0.0
 11
2.102668012669413
 21
-0.4886089251050656
 31
0.0
  0
LINE
  5
4BD3
330
1E
100
AcDbEntity
  8
7
100
AcDbLine
 10
-6.667017026700664
 20
10.29879264969808
 30
0.0
 11
-6.558749310165234
 21
10.42674540560358
 31
0.0
  0
LINE
  5
4BD4
330
1E
100
AcDbEntity
  8
7
100
AcDbLine
 10
-6.558749310165234
 20
10.42674540560358
 30
0.0
 11
-6.558749310165234
 21
10.6039107599343
 31
0.0
  0
LINE
  5
4BD5
330
1E
100
AcDbEntity
  8
7
100
AcDbLine
 10
-6.558749310165234
 20
10.6039107599343
 30
0.0
 11
-6.657174507015627
 21
10.7318635158398
 31
0.0
  0
LINE
  5
4BD6
330
1E
100
AcDbEntity
  8
7
100
AcDbLine
 10
-6.667017026700664
 20
11.01729658670595
 30
0.0
 11
-6.726072144810901
 21
11.11572178355634
 31
0.0
  0
LINE
  5
4BD7
330
1E
100
AcDbEntity
  8
7
100
AcDbLine
 10
-6.726072144810901
 20
11.11572178355634
 30
0.0
 11
-6.844182381031373
 21
11.11572178355634
 31
0.0
  0
LINE
  5
4BD8
330
1E
100
AcDbEntity
  8
7
100
AcDbLine
 10
-6.844182381031373
 20
11.11572178355634
 30
0.0
 11
-6.903237499141608
 21
11.01729658670595
 31
0.0
  0
LINE
  5
4BD9
330
1E
100
AcDbEntity
  8
7
100
AcDbLine
 10
-6.903237499141608
 20
10.7318635158398
 30
0.0
 11
-7.011505215677043
 21
10.6039107599343
 31
0.0
  0
LINE
  5
4BDA
330
1E
100
AcDbEntity
  8
7
100
AcDbLine
 10
-7.011505215677043
 20
10.6039107599343
 30
0.0
 11
-7.011505215677043
 21
10.42674540560358
 31
0.0
  0
LINE
  5
4BDB
330
1E
100
AcDbEntity
  8
7
100
AcDbLine
 10
-7.011505215677043
 20
10.42674540560358
 30
0.0
 11
-6.913080018826651
 21
10.29879264969808
 31
0.0
  0
LINE
  5
4BDC
330
1E
100
AcDbEntity
  8
7
100
AcDbLine
 10
-6.903237499141608
 20
10.02320209851697
 30
0.0
 11
-6.844182381031373
 21
9.924776901666582
 31
0.0
  0
LINE
  5
4BDD
330
1E
100
AcDbEntity
  8
7
100
AcDbLine
 10
-6.844182381031373
 20
9.924776901666582
 30
0.0
 11
-6.726072144810901
 21
9.924776901666582
 31
0.0
  0
LINE
  5
4BDE
330
1E
100
AcDbEntity
  8
7
100
AcDbLine
 10
-6.726072144810901
 20
9.924776901666582
 30
0.0
 11
-6.667017026700664
 21
10.02320209851697
 31
0.0
  0
LINE
  5
4BDF
330
1E
100
AcDbEntity
  8
7
100
AcDbLine
 10
-7.011505215677043
 20
-0.9019947518767317
 30
0.0
 11
-7.011505215677043
 21
-1.079160106207435
 31
0.0
  0
LINE
  5
4BE0
330
1E
100
AcDbEntity
  8
7
100
AcDbLine
 10
-7.011505215677043
 20
-1.079160106207435
 30
0.0
 11
-6.913080018826651
 21
-1.207112862112953
 31
0.0
  0
LINE
  5
4BE1
330
1E
100
AcDbEntity
  8
7
100
AcDbLine
 10
-6.903237499141608
 20
-1.482703413294046
 30
0.0
 11
-6.844182381031373
 21
-1.581128610144435
 31
0.0
  0
LINE
  5
4BE2
330
1E
100
AcDbEntity
  8
7
100
AcDbLine
 10
-6.844182381031373
 20
-1.581128610144435
 30
0.0
 11
-6.726072144810901
 21
-1.581128610144435
 31
0.0
  0
LINE
  5
4BE3
330
1E
100
AcDbEntity
  8
7
100
AcDbLine
 10
-6.726072144810901
 20
-1.581128610144435
 30
0.0
 11
-6.667017026700664
 21
-1.482703413294046
 31
0.0
  0
LINE
  5
4BE4
330
1E
100
AcDbEntity
  8
7
100
AcDbLine
 10
-6.667017026700664
 20
-1.207112862112953
 30
0.0
 11
-6.558749310165234
 21
-1.079160106207435
 31
0.0
  0
LINE
  5
4BE5
330
1E
100
AcDbEntity
  8
7
100
AcDbLine
 10
-6.558749310165234
 20
-1.079160106207435
 30
0.0
 11
-6.558749310165234
 21
-0.9019947518767317
 31
0.0
  0
LINE
  5
4BE6
330
1E
100
AcDbEntity
  8
7
100
AcDbLine
 10
-6.558749310165234
 20
-0.9019947518767317
 30
0.0
 11
-6.657174507015627
 21
-0.7740419959712135
 31
0.0
  0
LINE
  5
4BE7
330
1E
100
AcDbEntity
  8
7
100
AcDbLine
 10
-6.667017026700664
 20
-0.4886089251050656
 30
0.0
 11
-6.726072144810901
 21
-0.3901837282546765
 31
0.0
  0
LINE
  5
4BE8
330
1E
100
AcDbEntity
  8
7
100
AcDbLine
 10
-6.726072144810901
 20
-0.3901837282546765
 30
0.0
 11
-6.844182381031373
 21
-0.3901837282546765
 31
0.0
  0
LINE
  5
4BE9
330
1E
100
AcDbEntity
  8
7
100
AcDbLine
 10
-6.844182381031373
 20
-0.3901837282546765
 30
0.0
 11
-6.903237499141608
 21
-0.4886089251050656
 31
0.0
  0
LINE
  5
4BEA
330
1E
100
AcDbEntity
  8
7
100
AcDbLine
 10
-2.287095766858146
 20
16.78501312213902
 30
0.0
 11
-2.365835924338461
 21
16.74564304339886
 31
0.0
  0
LINE
  5
4BEB
330
1E
100
AcDbEntity
  8
7
100
AcDbLine
 10
-2.365835924338461
 20
16.74564304339886
 30
0.0
 11
-2.365835924338461
 21
16.6570603662335
 31
0.0
  0
LINE
  5
4BEC
330
1E
100
AcDbEntity
  8
7
100
AcDbLine
 10
-2.365835924338461
 20
16.6570603662335
 30
0.0
 11
-2.287095766858146
 21
16.6078477678083
 31
0.0
  0
LINE
  5
4BED
330
1E
100
AcDbEntity
  8
7
100
AcDbLine
 10
-2.287095766858146
 20
16.6078477678083
 30
0.0
 11
-2.208355609377831
 21
16.64721784654847
 31
0.0
  0
LINE
  5
4BEE
330
1E
100
AcDbEntity
  8
7
100
AcDbLine
 10
-2.208355609377831
 20
16.64721784654847
 30
0.0
 11
-2.208355609377831
 21
16.73580052371382
 31
0.0
  0
LINE
  5
4BEF
330
1E
100
AcDbEntity
  8
7
100
AcDbLine
 10
-2.208355609377831
 20
16.73580052371382
 30
0.0
 11
-2.287095766858146
 21
16.78501312213902
 31
0.0
  0
LINE
  5
4BF0
330
1E
100
AcDbEntity
  8
7
100
AcDbLine
 10
-9.255599703866018
 20
17.04091863395004
 30
0.0
 11
-9.255599703866018
 21
17.01139107489493
 31
0.0
  0
LINE
  5
4BF1
330
1E
100
AcDbEntity
  8
7
100
AcDbLine
 10
-9.255599703866018
 20
17.01139107489493
 30
0.0
 11
-9.255599703866018
 21
16.95233595678469
 31
0.0
  0
LINE
  5
4BF2
330
1E
100
AcDbEntity
  8
7
100
AcDbLine
 10
-9.255599703866018
 20
16.95233595678469
 30
0.0
 11
-9.245757184180979
 21
16.95233595678469
 31
0.0
  0
LINE
  5
4BF3
330
1E
100
AcDbEntity
  8
7
100
AcDbLine
 10
4.691250689834765
 20
17.04091863395004
 30
0.0
 11
4.691250689834765
 21
17.01139107489493
 31
0.0
  0
LINE
  5
4BF4
330
1E
100
AcDbEntity
  8
7
100
AcDbLine
 10
4.691250689834765
 20
17.01139107489493
 30
0.0
 11
4.691250689834765
 21
16.95233595678469
 31
0.0
  0
LINE
  5
4BF5
330
1E
100
AcDbEntity
  8
7
100
AcDbLine
 10
-9.245757184180979
 20
16.95233595678469
 30
0.0
 11
4.681408170149728
 21
16.95233595678469
 31
0.0
  0
LINE
  5
4BF6
330
1E
100
AcDbEntity
  8
7
100
AcDbLine
 10
4.681408170149728
 20
16.95233595678469
 30
0.0
 11
4.691250689834765
 21
16.95233595678469
 31
0.0
  0
LINE
  5
4BF7
330
1E
100
AcDbEntity
  8
7
100
AcDbLine
 10
-2.287095766858146
 20
-7.073254594396408
 30
0.0
 11
-2.365835924338461
 21
-7.112624673136565
 31
0.0
  0
LINE
  5
4BF8
330
1E
100
AcDbEntity
  8
7
100
AcDbLine
 10
-2.365835924338461
 20
-7.112624673136565
 30
0.0
 11
-2.365835924338461
 21
-7.20120735030192
 31
0.0
  0
LINE
  5
4BF9
330
1E
100
AcDbEntity
  8
7
100
AcDbLine
 10
-2.365835924338461
 20
-7.20120735030192
 30
0.0
 11
-2.287095766858146
 21
-7.250419948727117
 31
0.0
  0
LINE
  5
4BFA
330
1E
100
AcDbEntity
  8
7
100
AcDbLine
 10
-2.287095766858146
 20
-7.250419948727117
 30
0.0
 11
-2.208355609377831
 21
-7.211049869986958
 31
0.0
  0
LINE
  5
4BFB
330
1E
100
AcDbEntity
  8
7
100
AcDbLine
 10
-2.208355609377831
 20
-7.211049869986958
 30
0.0
 11
-2.208355609377831
 21
-7.122467192821606
 31
0.0
  0
LINE
  5
4BFC
330
1E
100
AcDbEntity
  8
7
100
AcDbLine
 10
-2.208355609377831
 20
-7.122467192821606
 30
0.0
 11
-2.287095766858146
 21
-7.073254594396408
 31
0.0
  0
LINE
  5
4BFD
330
1E
100
AcDbEntity
  8
7
100
AcDbLine
 10
4.681408170149728
 20
-7.417742783372787
 30
0.0
 11
4.179439666212719
 21
-6.915774279435778
 31
0.0
  0
LINE
  5
4BFE
330
1E
100
AcDbEntity
  8
7
100
AcDbLine
 10
4.179439666212719
 20
-6.915774279435778
 30
0.0
 11
-8.753631199929012
 21
-6.915774279435778
 31
0.0
  0
LINE
  5
4BFF
330
1E
100
AcDbEntity
  8
7
100
AcDbLine
 10
-8.753631199929012
 20
-6.915774279435778
 30
0.0
 11
-9.245757184180979
 21
-7.417742783372787
 31
0.0
  0
LINE
  5
4C00
330
1E
100
AcDbEntity
  8
7
100
AcDbLine
 10
-9.255599703866018
 20
-7.506325460538143
 30
0.0
 11
-9.255599703866018
 21
-7.476797901483024
 31
0.0
  0
LINE
  5
4C01
330
1E
100
AcDbEntity
  8
7
100
AcDbLine
 10
-9.255599703866018
 20
-7.476797901483024
 30
0.0
 11
-9.255599703866018
 21
-7.417742783372787
 31
0.0
  0
LINE
  5
4C02
330
1E
100
AcDbEntity
  8
7
100
AcDbLine
 10
4.691250689834765
 20
-7.506325460538143
 30
0.0
 11
4.691250689834765
 21
-7.476797901483024
 31
0.0
  0
LINE
  5
4C03
330
1E
100
AcDbEntity
  8
7
100
AcDbLine
 10
4.691250689834765
 20
-7.476797901483024
 30
0.0
 11
4.691250689834765
 21
-7.417742783372787
 31
0.0
  0
LINE
  5
4C04
330
1E
100
AcDbEntity
  8
7
100
AcDbLine
 10
4.691250689834765
 20
-7.417742783372787
 30
0.0
 11
4.681408170149728
 21
-7.417742783372787
 31
0.0
  0
LINE
  5
4C05
330
1E
100
AcDbEntity
  8
7
100
AcDbLine
 10
4.681408170149728
 20
-7.417742783372787
 30
0.0
 11
-9.245757184180979
 21
-7.417742783372787
 31
0.0
  0
LINE
  5
4C06
330
1E
100
AcDbEntity
  8
7
100
AcDbLine
 10
4.464872737078863
 20
4.826351704816193
 30
0.0
 11
4.464872737078863
 21
4.767296586705953
 31
0.0
  0
LINE
  5
4C07
330
1E
100
AcDbEntity
  8
7
100
AcDbLine
 10
4.464872737078863
 20
4.767296586705953
 30
0.0
 11
4.464872737078863
 21
4.708241468595712
 31
0.0
  0
ENDSEC
  0
SECTION
  2
OBJECTS
  0
DICTIONARY
  5
C
330
0
100
AcDbDictionary
  3
ACAD_GROUP
350
D
  3
ACAD_MLINESTYLE
350
16
  3
ACAD_PLOTSETTINGS
350
18
  3
ACAD_LAYOUT
350
19
1001
ACAD
1000
TREAT_AS_HARD
1070
     0
  0
DICTIONARY
  5
5F89
330
1E
100
AcDbDictionary
  3
ACAD_LAYOUTSELFREF
350
5F8A
  0
DICTIONARY
  5
5F87
330
1A
100
AcDbDictionary
  3
ACAD_LAYOUTSELFREF
350
5F88
  0
DICTIONARY
  5
D
102
{ACAD_REACTORS
330
C
102
}
330
C
100
AcDbDictionary
1001
ACAD
1000
TREAT_AS_HARD
1070
     0
  0
DICTIONARY
  5
16
102
{ACAD_REACTORS
330
C
102
}
330
C
100
AcDbDictionary
  3
STANDARD
350
17
1001
ACAD
1000
TREAT_AS_HARD
1070
     0
  0
DICTIONARY
  5
18
102
{ACAD_REACTORS
330
C
102
}
330
C
100
AcDbDictionary
1001
ACAD
1000
TREAT_AS_HARD
1070
     0
  0
DICTIONARY
  5
19
102
{ACAD_REACTORS
330
C
102
}
330
C
100
AcDbDictionary
1001
ACAD
1000
TREAT_AS_HARD
1070
     0
  0
XRECORD
  5
5F8A
102
{ACAD_REACTORS
330
5F89
102
}
330
5F89
100
AcDbXrecord
340
1E
  0
XRECORD
  5
5F88
102
{ACAD_REACTORS
330
5F87
102
}
330
5F87
100
AcDbXrecord
340
1A
  0
MLINESTYLE
  5
17
102
{ACAD_REACTORS
330
16
102
}
330
16
100
AcDbMlineStyle
  2
STANDARD
 70
     0
  3

 62
   256
 51
90.0
 52
90.0
 71
     2
 49
0.5
 62
   256
  6
BYLAYER
 49
-0.5
 62
   256
  6
BYLAYER
  0
ENDSEC
  0
EOF
