  0
SECTION
  2
HEADER
  9
$ACADVER
  1
AC1012
  9
$DWGCODEPAGE
  3
ANSI_1252
  9
$INSBASE
 10
0.0
 20
0.0
 30
0.0
  9
$EXTMIN
 10
-6.572601279908681
 20
3.084824935502499
 30
-0.0000000349181948
  9
$EXTMAX
 10
12.42941294055355
 20
11.27066869988564
 30
0.0000000814935746
  9
$LIMMIN
 10
0.0
 20
0.0
  9
$LIMMAX
 10
12.0
 20
9.0
  9
$ORTHOMODE
 70
     0
  9
$REGENMODE
 70
     1
  9
$FILLMODE
 70
     1
  9
$QTEXTMODE
 70
     0
  9
$MIRRTEXT
 70
     1
  9
$DRAGMODE
 70
     2
  9
$LTSCALE
 40
1.0
  9
$OSMODE
 70
   547
  9
$ATTMODE
 70
     1
  9
$TEXTSIZE
 40
0.2
  9
$TRACEWID
 40
0.05
  9
$TEXTSTYLE
  7
STANDARD
  9
$CLAYER
  8
0
  9
$CELTYPE
  6
BYLAYER
  9
$CECOLOR
 62
   256
  9
$CELTSCALE
 40
1.0
  9
$DELOBJ
 70
     1
  9
$DISPSILH
 70
     0
  9
$DIMSCALE
 40
1.0
  9
$DIMASZ
 40
0.18
  9
$DIMEXO
 40
0.0625
  9
$DIMDLI
 40
0.38
  9
$DIMRND
 40
0.0
  9
$DIMDLE
 40
0.0
  9
$DIMEXE
 40
0.18
  9
$DIMTP
 40
0.0
  9
$DIMTM
 40
0.0
  9
$DIMTXT
 40
0.18
  9
$DIMCEN
 40
0.09
  9
$DIMTSZ
 40
0.0
  9
$DIMTOL
 70
     0
  9
$DIMLIM
 70
     0
  9
$DIMTIH
 70
     1
  9
$DIMTOH
 70
     1
  9
$DIMSE1
 70
     0
  9
$DIMSE2
 70
     0
  9
$DIMTAD
 70
     0
  9
$DIMZIN
 70
     0
  9
$DIMBLK
  1

  9
$DIMASO
 70
     1
  9
$DIMSHO
 70
     1
  9
$DIMPOST
  1

  9
$DIMAPOST
  1

  9
$DIMALT
 70
     0
  9
$DIMALTD
 70
     2
  9
$DIMALTF
 40
25.4
  9
$DIMLFAC
 40
1.0
  9
$DIMTOFL
 70
     0
  9
$DIMTVP
 40
0.0
  9
$DIMTIX
 70
     0
  9
$DIMSOXD
 70
     0
  9
$DIMSAH
 70
     0
  9
$DIMBLK1
  1

  9
$DIMBLK2
  1

  9
$DIMSTYLE
  2
STANDARD
  9
$DIMCLRD
 70
     0
  9
$DIMCLRE
 70
     0
  9
$DIMCLRT
 70
     0
  9
$DIMTFAC
 40
1.0
  9
$DIMGAP
 40
0.09
  9
$DIMJUST
 70
     0
  9
$DIMSD1
 70
     0
  9
$DIMSD2
 70
     0
  9
$DIMTOLJ
 70
     1
  9
$DIMTZIN
 70
     0
  9
$DIMALTZ
 70
     0
  9
$DIMALTTZ
 70
     0
  9
$DIMFIT
 70
     5
  9
$DIMUPT
 70
     0
  9
$DIMUNIT
 70
     2
  9
$DIMDEC
 70
     4
  9
$DIMTDEC
 70
     4
  9
$DIMALTU
 70
     2
  9
$DIMALTTD
 70
     2
  9
$DIMTXSTY
  7
STANDARD
  9
$DIMAUNIT
 70
     0
  9
$LUNITS
 70
     2
  9
$LUPREC
 70
     4
  9
$SKETCHINC
 40
0.1
  9
$FILLETRAD
 40
0.0
  9
$AUNITS
 70
     0
  9
$AUPREC
 70
     0
  9
$MENU
  1
acad
  9
$ELEVATION
 40
0.0
  9
$PELEVATION
 40
0.0
  9
$THICKNESS
 40
0.0
  9
$LIMCHECK
 70
     0
  9
$BLIPMODE
 70
     0
  9
$CHAMFERA
 40
0.0
  9
$CHAMFERB
 40
0.0
  9
$CHAMFERC
 40
0.0
  9
$CHAMFERD
 40
0.0
  9
$SKPOLY
 70
     0
  9
$TDCREATE
 40
2452569.584317129
  9
$TDUPDATE
 40
2453946.338615821
  9
$TDINDWG
 40
0.0020811574
  9
$TDUSRTIMER
 40
0.0020811574
  9
$USRTIMER
 70
     1
  9
$ANGBASE
 50
0.0
  9
$ANGDIR
 70
     0
  9
$PDMODE
 70
     0
  9
$PDSIZE
 40
0.0
  9
$PLINEWID
 40
0.0
  9
$COORDS
 70
     1
  9
$SPLFRAME
 70
     0
  9
$SPLINETYPE
 70
     6
  9
$SPLINESEGS
 70
     8
  9
$ATTDIA
 70
     0
  9
$ATTREQ
 70
     1
  9
$HANDLING
 70
  4097
  9
$HANDSEED
  5
50D1
  9
$SURFTAB1
 70
     6
  9
$SURFTAB2
 70
     6
  9
$SURFTYPE
 70
     6
  9
$SURFU
 70
     6
  9
$SURFV
 70
     6
  9
$UCSNAME
  2

  9
$UCSORG
 10
0.0
 20
0.0
 30
0.0
  9
$UCSXDIR
 10
1.0
 20
0.0
 30
0.0
  9
$UCSYDIR
 10
0.0
 20
1.0
 30
0.0
  9
$PUCSNAME
  2

  9
$PUCSORG
 10
0.0
 20
0.0
 30
0.0
  9
$PUCSXDIR
 10
1.0
 20
0.0
 30
0.0
  9
$PUCSYDIR
 10
0.0
 20
1.0
 30
0.0
  9
$USERI1
 70
     0
  9
$USERI2
 70
     0
  9
$USERI3
 70
     0
  9
$USERI4
 70
     0
  9
$USERI5
 70
     0
  9
$USERR1
 40
0.0
  9
$USERR2
 40
0.0
  9
$USERR3
 40
0.0
  9
$USERR4
 40
0.0
  9
$USERR5
 40
0.0
  9
$WORLDVIEW
 70
     1
  9
$SHADEDGE
 70
     3
  9
$SHADEDIF
 70
    70
  9
$TILEMODE
 70
     1
  9
$MAXACTVP
 70
    16
  9
$PINSBASE
 10
0.0
 20
0.0
 30
0.0
  9
$PLIMCHECK
 70
     0
  9
$PEXTMIN
 10
1.000000000000000E+20
 20
1.000000000000000E+20
 30
1.000000000000000E+20
  9
$PEXTMAX
 10
-1.000000000000000E+20
 20
-1.000000000000000E+20
 30
-1.000000000000000E+20
  9
$PLIMMIN
 10
0.0
 20
0.0
  9
$PLIMMAX
 10
12.0
 20
9.0
  9
$UNITMODE
 70
     0
  9
$VISRETAIN
 70
     0
  9
$PLINEGEN
 70
     0
  9
$PSLTSCALE
 70
     1
  9
$TREEDEPTH
 70
  3020
  9
$PICKSTYLE
 70
     1
  9
$CMLSTYLE
  2
STANDARD
  9
$CMLJUST
 70
     0
  9
$CMLSCALE
 40
1.0
  9
$SAVEIMAGES
 70
     1
  0
ENDSEC
  0
SECTION
  2
CLASSES
  0
CLASS
  1
ACDBDICTIONARYWDFLT
  2
AcDbDictionaryWithDefault
  3
AutoCAD 2000
 90
    32768
280
     0
281
     0
  0
CLASS
  1
ACDBPLACEHOLDER
  2
AcDbPlaceHolder
  3
AutoCAD 2000
 90
    32768
280
     0
281
     0
  0
CLASS
  1
LAYOUT
  2
AcDbLayout
  3
AutoCAD 2000
 90
    32768
280
     0
281
     0
  0
CLASS
  1
LONG_TRANSACTION
  2
AcDbLongTransaction
  3
AutoCAD 2000
 90
    32768
280
     0
281
     0
  0
CLASS
  1
LWPOLYLINE
  2
AcDbPolyline
  3
AutoCAD 2000
 90
    32768
280
     0
281
     1
  0
CLASS
  1
HATCH
  2
AcDbHatch
  3
AutoCAD 2000
 90
    32768
280
     0
281
     1
  0
CLASS
  1
XRECORD
  2
AcDbXrecord
  3
AutoCAD 2000
 90
    32768
280
     0
281
     0
  0
CLASS
  1
LONG_TRANSACTION
  2
AcDbLongTransaction
  3
AutoCAD 2000
 90
    32768
280
     0
281
     0
  0
CLASS
  1
LWPOLYLINE
  2
AcDbPolyline
  3
AutoCAD 2000
 90
    32768
280
     0
281
     1
  0
CLASS
  1
HATCH
  2
AcDbHatch
  3
AutoCAD 2000
 90
    32768
280
     0
281
     1
  0
CLASS
  1
XRECORD
  2
AcDbXrecord
  3
AutoCAD 2000
 90
    32768
280
     0
281
     0
  0
ENDSEC
  0
SECTION
  2
TABLES
  0
TABLE
  2
VPORT
  5
8
330
0
100
AcDbSymbolTable
 70
     3
  0
VPORT
  5
50CE
330
8
100
AcDbSymbolTableRecord
100
AcDbViewportTableRecord
  2
*ACTIVE
 70
     0
 10
0.0
 20
0.0
 11
1.0
 21
1.0
 12
2.928405830322436
 22
7.177746817694073
 13
0.0
 23
0.0
 14
1.0
 24
1.0
 15
0.0
 25
0.0
 16
0.0
 26
0.0
 36
1.0
 17
0.0
 27
0.0
 37
0.0
 40
11.60615429907489
 41
1.647569444444444
 42
50.0
 43
0.0
 44
0.0
 50
0.0
 51
0.0
 71
     0
 72
   100
 73
     1
 74
     1
 75
     0
 76
     0
 77
     0
 78
     0
  0
ENDTAB
  0
TABLE
  2
LTYPE
  5
5
330
0
100
AcDbSymbolTable
 70
    25
  0
LTYPE
  5
13
330
5
100
AcDbSymbolTableRecord
100
AcDbLinetypeTableRecord
  2
BYBLOCK
 70
     0
  3

 72
    65
 73
     0
 40
0.0
  0
LTYPE
  5
14
330
5
100
AcDbSymbolTableRecord
100
AcDbLinetypeTableRecord
  2
BYLAYER
 70
     0
  3

 72
    65
 73
     0
 40
0.0
  0
LTYPE
  5
15
330
5
100
AcDbSymbolTableRecord
100
AcDbLinetypeTableRecord
  2
CONTINUOUS
 70
     0
  3
Solid line
 72
    65
 73
     0
 40
0.0
  0
LTYPE
  5
22
330
5
100
AcDbSymbolTableRecord
100
AcDbLinetypeTableRecord
  2
BORDER
 70
     0
  3
__ __ . __ __ . __ __ . __ __ . __ __ . __ __ .
 72
    65
 73
     6
 40
1.75
 49
0.5
 74
     0
 49
-0.25
 74
     0
 49
0.5
 74
     0
 49
-0.25
 74
     0
 49
0.5
 74
     0
 49
-0.25
 74
     0
  0
LTYPE
  5
23
330
5
100
AcDbSymbolTableRecord
100
AcDbLinetypeTableRecord
  2
BORDER2
 70
     0
  3
__.__.__.__.__.__.__.__.__.__.__.__.__.__.__.__
 72
    65
 73
     6
 40
0.875
 49
0.25
 74
     0
 49
-0.125
 74
     0
 49
0.25
 74
     0
 49
-0.125
 74
     0
 49
0.25
 74
     0
 49
-0.125
 74
     0
  0
LTYPE
  5
24
330
5
100
AcDbSymbolTableRecord
100
AcDbLinetypeTableRecord
  2
BORDERX2
 70
     0
  3
____  ____  .  ____  ____  .  
 72
    65
 73
     6
 40
3.5
 49
1.0
 74
     0
 49
-0.5
 74
     0
 49
1.0
 74
     0
 49
-0.5
 74
     0
 49
1.0
 74
     0
 49
-0.5
 74
     0
  0
LTYPE
  5
25
330
5
100
AcDbSymbolTableRecord
100
AcDbLinetypeTableRecord
  2
CENTER
 70
     0
  3
____ _ ____ _ ____ _ ____ _ ____ _ ____ _ ____
 72
    65
 73
     4
 40
2.0
 49
1.25
 74
     0
 49
-0.25
 74
     0
 49
0.25
 74
     0
 49
-0.25
 74
     0
  0
LTYPE
  5
26
330
5
100
AcDbSymbolTableRecord
100
AcDbLinetypeTableRecord
  2
CENTER2
 70
     0
  3
____ _ ____ _ ____ _ ____ _ ____ _ ____ _ ____
 72
    65
 73
     4
 40
1.125
 49
0.75
 74
     0
 49
-0.125
 74
     0
 49
0.125
 74
     0
 49
-0.125
 74
     0
  0
LTYPE
  5
27
330
5
100
AcDbSymbolTableRecord
100
AcDbLinetypeTableRecord
  2
CENTERX2
 70
     0
  3
________  __  ________  __  ________  __  
 72
    65
 73
     4
 40
4.0
 49
2.5
 74
     0
 49
-0.5
 74
     0
 49
0.5
 74
     0
 49
-0.5
 74
     0
  0
LTYPE
  5
28
330
5
100
AcDbSymbolTableRecord
100
AcDbLinetypeTableRecord
  2
DASHDOT
 70
     0
  3
__ . __ . __ . __ . __ . __ . __ . 
 72
    65
 73
     4
 40
1.0
 49
0.5
 74
     0
 49
-0.25
 74
     0
 49
0.0
 74
     0
 49
-0.25
 74
     0
  0
LTYPE
  5
29
330
5
100
AcDbSymbolTableRecord
100
AcDbLinetypeTableRecord
  2
DASHDOT2
 70
     0
  3
_._._._._._._._._._._._._._._._.
 72
    65
 73
     4
 40
0.5
 49
0.25
 74
     0
 49
-0.125
 74
     0
 49
0.0
 74
     0
 49
-0.125
 74
     0
  0
LTYPE
  5
2A
330
5
100
AcDbSymbolTableRecord
100
AcDbLinetypeTableRecord
  2
DASHDOTX2
 70
     0
  3
____  .  ____  .  ____  .  ____  .  
 72
    65
 73
     4
 40
2.0
 49
1.0
 74
     0
 49
-0.5
 74
     0
 49
0.0
 74
     0
 49
-0.5
 74
     0
  0
LTYPE
  5
2B
330
5
100
AcDbSymbolTableRecord
100
AcDbLinetypeTableRecord
  2
DASHED
 70
     0
  3
__ __ __ __ __ __ __ __ __ __ __ __ 
 72
    65
 73
     2
 40
0.75
 49
0.5
 74
     0
 49
-0.25
 74
     0
  0
LTYPE
  5
2C
330
5
100
AcDbSymbolTableRecord
100
AcDbLinetypeTableRecord
  2
DASHED2
 70
     0
  3
_ _ _ _ _ _ _ _ _ _ _ _ _ _ _ _ _ _ 
 72
    65
 73
     2
 40
0.375
 49
0.25
 74
     0
 49
-0.125
 74
     0
  0
LTYPE
  5
2D
330
5
100
AcDbSymbolTableRecord
100
AcDbLinetypeTableRecord
  2
DASHEDX2
 70
     0
  3
____  ____  ____  ____  ____  ____  
 72
    65
 73
     2
 40
1.5
 49
1.0
 74
     0
 49
-0.5
 74
     0
  0
LTYPE
  5
2E
330
5
100
AcDbSymbolTableRecord
100
AcDbLinetypeTableRecord
  2
DIVIDE
 70
     0
  3
____ . . ____ . . ____ . . ____ . . 
 72
    65
 73
     6
 40
1.25
 49
0.5
 74
     0
 49
-0.25
 74
     0
 49
0.0
 74
     0
 49
-0.25
 74
     0
 49
0.0
 74
     0
 49
-0.25
 74
     0
  0
LTYPE
  5
2F
330
5
100
AcDbSymbolTableRecord
100
AcDbLinetypeTableRecord
  2
DIVIDE2
 70
     0
  3
__..__..__..__..__..__..__..__..__..
 72
    65
 73
     6
 40
0.625
 49
0.25
 74
     0
 49
-0.125
 74
     0
 49
0.0
 74
     0
 49
-0.125
 74
     0
 49
0.0
 74
     0
 49
-0.125
 74
     0
  0
LTYPE
  5
30
330
5
100
AcDbSymbolTableRecord
100
AcDbLinetypeTableRecord
  2
DIVIDEX2
 70
     0
  3
________  .  .  ________  .  .  ________  .  . 
 72
    65
 73
     6
 40
2.5
 49
1.0
 74
     0
 49
-0.5
 74
     0
 49
0.0
 74
     0
 49
-0.5
 74
     0
 49
0.0
 74
     0
 49
-0.5
 74
     0
  0
LTYPE
  5
31
330
5
100
AcDbSymbolTableRecord
100
AcDbLinetypeTableRecord
  2
DOT
 70
     0
  3
. . . . . . . . . . . . . . . . . . 
 72
    65
 73
     2
 40
0.25
 49
0.0
 74
     0
 49
-0.25
 74
     0
  0
LTYPE
  5
32
330
5
100
AcDbSymbolTableRecord
100
AcDbLinetypeTableRecord
  2
DOT2
 70
     0
  3
....................................
 72
    65
 73
     2
 40
0.125
 49
0.0
 74
     0
 49
-0.125
 74
     0
  0
LTYPE
  5
33
330
5
100
AcDbSymbolTableRecord
100
AcDbLinetypeTableRecord
  2
DOTX2
 70
     0
  3
.  .  .  .  .  .  .  .  .  .  .  .  .  
 72
    65
 73
     2
 40
0.5
 49
0.0
 74
     0
 49
-0.5
 74
     0
  0
LTYPE
  5
34
330
5
100
AcDbSymbolTableRecord
100
AcDbLinetypeTableRecord
  2
HIDDEN
 70
     0
  3
__ __ __ __ __ __ __ __ __ __ __ __ 
 72
    65
 73
     2
 40
0.375
 49
0.25
 74
     0
 49
-0.125
 74
     0
  0
LTYPE
  5
35
330
5
100
AcDbSymbolTableRecord
100
AcDbLinetypeTableRecord
  2
HIDDEN2
 70
     0
  3
_ _ _ _ _ _ _ _ _ _ _ _ _ _ _ _ _ _ 
 72
    65
 73
     2
 40
0.1875
 49
0.125
 74
     0
 49
-0.0625
 74
     0
  0
LTYPE
  5
36
330
5
100
AcDbSymbolTableRecord
100
AcDbLinetypeTableRecord
  2
HIDDENX2
 70
     0
  3
____ ____ ____ ____ ____ ____ ____ 
 72
    65
 73
     2
 40
0.75
 49
0.5
 74
     0
 49
-0.25
 74
     0
  0
LTYPE
  5
37
330
5
100
AcDbSymbolTableRecord
100
AcDbLinetypeTableRecord
  2
PHANTOM
 70
     0
  3
______  __  __  ______  __  __  
 72
    65
 73
     6
 40
2.5
 49
1.25
 74
     0
 49
-0.25
 74
     0
 49
0.25
 74
     0
 49
-0.25
 74
     0
 49
0.25
 74
     0
 49
-0.25
 74
     0
  0
LTYPE
  5
38
330
5
100
AcDbSymbolTableRecord
100
AcDbLinetypeTableRecord
  2
PHANTOM2
 70
     0
  3
___ _ _ ___ _ _ ___ _ _ ___ _ _ 
 72
    65
 73
     6
 40
1.25
 49
0.625
 74
     0
 49
-0.125
 74
     0
 49
0.125
 74
     0
 49
-0.125
 74
     0
 49
0.125
 74
     0
 49
-0.125
 74
     0
  0
LTYPE
  5
39
330
5
100
AcDbSymbolTableRecord
100
AcDbLinetypeTableRecord
  2
PHANTOMX2
 70
     0
  3
___ _ _ ___ _ _ ___ _ _ ___ _ _ 
 72
    65
 73
     6
 40
5.0
 49
2.5
 74
     0
 49
-0.5
 74
     0
 49
0.5
 74
     0
 49
-0.5
 74
     0
 49
0.5
 74
     0
 49
-0.5
 74
     0
  0
ENDTAB
  0
TABLE
  2
LAYER
  5
2
330
0
100
AcDbSymbolTable
 70
   257
  0
LAYER
  5
10
330
2
100
AcDbSymbolTableRecord
100
AcDbLayerTableRecord
  2
0
 70
     0
 62
     7
  6
CONTINUOUS
  0
LAYER
  5
3A
330
2
100
AcDbSymbolTableRecord
100
AcDbLayerTableRecord
  2
1
 70
     0
 62
     1
  6
CONTINUOUS
  0
LAYER
  5
3B
330
2
100
AcDbSymbolTableRecord
100
AcDbLayerTableRecord
  2
2
 70
     0
 62
     2
  6
CONTINUOUS
  0
LAYER
  5
3C
330
2
100
AcDbSymbolTableRecord
100
AcDbLayerTableRecord
  2
3
 70
     0
 62
     3
  6
CONTINUOUS
  0
LAYER
  5
3D
330
2
100
AcDbSymbolTableRecord
100
AcDbLayerTableRecord
  2
4
 70
     0
 62
     4
  6
CONTINUOUS
  0
LAYER
  5
3E
330
2
100
AcDbSymbolTableRecord
100
AcDbLayerTableRecord
  2
5
 70
     0
 62
     5
  6
CONTINUOUS
  0
LAYER
  5
3F
330
2
100
AcDbSymbolTableRecord
100
AcDbLayerTableRecord
  2
6
 70
     0
 62
     6
  6
CONTINUOUS
  0
LAYER
  5
40
330
2
100
AcDbSymbolTableRecord
100
AcDbLayerTableRecord
  2
7
 70
     0
 62
     7
  6
CONTINUOUS
  0
LAYER
  5
41
330
2
100
AcDbSymbolTableRecord
100
AcDbLayerTableRecord
  2
8
 70
     0
 62
     8
  6
CONTINUOUS
  0
LAYER
  5
42
330
2
100
AcDbSymbolTableRecord
100
AcDbLayerTableRecord
  2
9
 70
     0
 62
     9
  6
CONTINUOUS
  0
LAYER
  5
43
330
2
100
AcDbSymbolTableRecord
100
AcDbLayerTableRecord
  2
10
 70
     0
 62
    10
  6
CONTINUOUS
  0
LAYER
  5
44
330
2
100
AcDbSymbolTableRecord
100
AcDbLayerTableRecord
  2
11
 70
     0
 62
    11
  6
CONTINUOUS
  0
LAYER
  5
45
330
2
100
AcDbSymbolTableRecord
100
AcDbLayerTableRecord
  2
12
 70
     0
 62
    12
  6
CONTINUOUS
  0
LAYER
  5
46
330
2
100
AcDbSymbolTableRecord
100
AcDbLayerTableRecord
  2
13
 70
     0
 62
    13
  6
CONTINUOUS
  0
LAYER
  5
47
330
2
100
AcDbSymbolTableRecord
100
AcDbLayerTableRecord
  2
14
 70
     0
 62
    14
  6
CONTINUOUS
  0
LAYER
  5
48
330
2
100
AcDbSymbolTableRecord
100
AcDbLayerTableRecord
  2
15
 70
     0
 62
    15
  6
CONTINUOUS
  0
LAYER
  5
49
330
2
100
AcDbSymbolTableRecord
100
AcDbLayerTableRecord
  2
16
 70
     0
 62
    16
  6
CONTINUOUS
  0
LAYER
  5
4A
330
2
100
AcDbSymbolTableRecord
100
AcDbLayerTableRecord
  2
17
 70
     0
 62
    17
  6
CONTINUOUS
  0
LAYER
  5
4B
330
2
100
AcDbSymbolTableRecord
100
AcDbLayerTableRecord
  2
18
 70
     0
 62
    18
  6
CONTINUOUS
  0
LAYER
  5
4C
330
2
100
AcDbSymbolTableRecord
100
AcDbLayerTableRecord
  2
19
 70
     0
 62
    19
  6
CONTINUOUS
  0
LAYER
  5
4D
330
2
100
AcDbSymbolTableRecord
100
AcDbLayerTableRecord
  2
20
 70
     0
 62
    20
  6
CONTINUOUS
  0
LAYER
  5
4E
330
2
100
AcDbSymbolTableRecord
100
AcDbLayerTableRecord
  2
21
 70
     0
 62
    21
  6
CONTINUOUS
  0
LAYER
  5
4F
330
2
100
AcDbSymbolTableRecord
100
AcDbLayerTableRecord
  2
22
 70
     0
 62
    22
  6
CONTINUOUS
  0
LAYER
  5
50
330
2
100
AcDbSymbolTableRecord
100
AcDbLayerTableRecord
  2
23
 70
     0
 62
    23
  6
CONTINUOUS
  0
LAYER
  5
51
330
2
100
AcDbSymbolTableRecord
100
AcDbLayerTableRecord
  2
24
 70
     0
 62
    24
  6
CONTINUOUS
  0
LAYER
  5
52
330
2
100
AcDbSymbolTableRecord
100
AcDbLayerTableRecord
  2
25
 70
     0
 62
    25
  6
CONTINUOUS
  0
LAYER
  5
53
330
2
100
AcDbSymbolTableRecord
100
AcDbLayerTableRecord
  2
26
 70
     0
 62
    26
  6
CONTINUOUS
  0
LAYER
  5
54
330
2
100
AcDbSymbolTableRecord
100
AcDbLayerTableRecord
  2
27
 70
     0
 62
    27
  6
CONTINUOUS
  0
LAYER
  5
55
330
2
100
AcDbSymbolTableRecord
100
AcDbLayerTableRecord
  2
28
 70
     0
 62
    28
  6
CONTINUOUS
  0
LAYER
  5
56
330
2
100
AcDbSymbolTableRecord
100
AcDbLayerTableRecord
  2
29
 70
     0
 62
    29
  6
CONTINUOUS
  0
LAYER
  5
57
330
2
100
AcDbSymbolTableRecord
100
AcDbLayerTableRecord
  2
30
 70
     0
 62
    30
  6
CONTINUOUS
  0
LAYER
  5
58
330
2
100
AcDbSymbolTableRecord
100
AcDbLayerTableRecord
  2
31
 70
     0
 62
    31
  6
CONTINUOUS
  0
LAYER
  5
59
330
2
100
AcDbSymbolTableRecord
100
AcDbLayerTableRecord
  2
32
 70
     0
 62
    32
  6
CONTINUOUS
  0
LAYER
  5
5A
330
2
100
AcDbSymbolTableRecord
100
AcDbLayerTableRecord
  2
33
 70
     0
 62
    33
  6
CONTINUOUS
  0
LAYER
  5
5B
330
2
100
AcDbSymbolTableRecord
100
AcDbLayerTableRecord
  2
34
 70
     0
 62
    34
  6
CONTINUOUS
  0
LAYER
  5
5C
330
2
100
AcDbSymbolTableRecord
100
AcDbLayerTableRecord
  2
35
 70
     0
 62
    35
  6
CONTINUOUS
  0
LAYER
  5
5D
330
2
100
AcDbSymbolTableRecord
100
AcDbLayerTableRecord
  2
36
 70
     0
 62
    36
  6
CONTINUOUS
  0
LAYER
  5
5E
330
2
100
AcDbSymbolTableRecord
100
AcDbLayerTableRecord
  2
37
 70
     0
 62
    37
  6
CONTINUOUS
  0
LAYER
  5
5F
330
2
100
AcDbSymbolTableRecord
100
AcDbLayerTableRecord
  2
38
 70
     0
 62
    38
  6
CONTINUOUS
  0
LAYER
  5
60
330
2
100
AcDbSymbolTableRecord
100
AcDbLayerTableRecord
  2
39
 70
     0
 62
    39
  6
CONTINUOUS
  0
LAYER
  5
61
330
2
100
AcDbSymbolTableRecord
100
AcDbLayerTableRecord
  2
40
 70
     0
 62
    40
  6
CONTINUOUS
  0
LAYER
  5
62
330
2
100
AcDbSymbolTableRecord
100
AcDbLayerTableRecord
  2
41
 70
     0
 62
    41
  6
CONTINUOUS
  0
LAYER
  5
63
330
2
100
AcDbSymbolTableRecord
100
AcDbLayerTableRecord
  2
42
 70
     0
 62
    42
  6
CONTINUOUS
  0
LAYER
  5
64
330
2
100
AcDbSymbolTableRecord
100
AcDbLayerTableRecord
  2
43
 70
     0
 62
    43
  6
CONTINUOUS
  0
LAYER
  5
65
330
2
100
AcDbSymbolTableRecord
100
AcDbLayerTableRecord
  2
44
 70
     0
 62
    44
  6
CONTINUOUS
  0
LAYER
  5
66
330
2
100
AcDbSymbolTableRecord
100
AcDbLayerTableRecord
  2
45
 70
     0
 62
    45
  6
CONTINUOUS
  0
LAYER
  5
67
330
2
100
AcDbSymbolTableRecord
100
AcDbLayerTableRecord
  2
46
 70
     0
 62
    46
  6
CONTINUOUS
  0
LAYER
  5
68
330
2
100
AcDbSymbolTableRecord
100
AcDbLayerTableRecord
  2
47
 70
     0
 62
    47
  6
CONTINUOUS
  0
LAYER
  5
69
330
2
100
AcDbSymbolTableRecord
100
AcDbLayerTableRecord
  2
48
 70
     0
 62
    48
  6
CONTINUOUS
  0
LAYER
  5
6A
330
2
100
AcDbSymbolTableRecord
100
AcDbLayerTableRecord
  2
49
 70
     0
 62
    49
  6
CONTINUOUS
  0
LAYER
  5
6B
330
2
100
AcDbSymbolTableRecord
100
AcDbLayerTableRecord
  2
50
 70
     0
 62
    50
  6
CONTINUOUS
  0
LAYER
  5
6C
330
2
100
AcDbSymbolTableRecord
100
AcDbLayerTableRecord
  2
51
 70
     0
 62
    51
  6
CONTINUOUS
  0
LAYER
  5
6D
330
2
100
AcDbSymbolTableRecord
100
AcDbLayerTableRecord
  2
52
 70
     0
 62
    52
  6
CONTINUOUS
  0
LAYER
  5
6E
330
2
100
AcDbSymbolTableRecord
100
AcDbLayerTableRecord
  2
53
 70
     0
 62
    53
  6
CONTINUOUS
  0
LAYER
  5
6F
330
2
100
AcDbSymbolTableRecord
100
AcDbLayerTableRecord
  2
54
 70
     0
 62
    54
  6
CONTINUOUS
  0
LAYER
  5
70
330
2
100
AcDbSymbolTableRecord
100
AcDbLayerTableRecord
  2
55
 70
     0
 62
    55
  6
CONTINUOUS
  0
LAYER
  5
71
330
2
100
AcDbSymbolTableRecord
100
AcDbLayerTableRecord
  2
56
 70
     0
 62
    56
  6
CONTINUOUS
  0
LAYER
  5
72
330
2
100
AcDbSymbolTableRecord
100
AcDbLayerTableRecord
  2
57
 70
     0
 62
    57
  6
CONTINUOUS
  0
LAYER
  5
73
330
2
100
AcDbSymbolTableRecord
100
AcDbLayerTableRecord
  2
58
 70
     0
 62
    58
  6
CONTINUOUS
  0
LAYER
  5
74
330
2
100
AcDbSymbolTableRecord
100
AcDbLayerTableRecord
  2
59
 70
     0
 62
    59
  6
CONTINUOUS
  0
LAYER
  5
75
330
2
100
AcDbSymbolTableRecord
100
AcDbLayerTableRecord
  2
60
 70
     0
 62
    60
  6
CONTINUOUS
  0
LAYER
  5
76
330
2
100
AcDbSymbolTableRecord
100
AcDbLayerTableRecord
  2
61
 70
     0
 62
    61
  6
CONTINUOUS
  0
LAYER
  5
77
330
2
100
AcDbSymbolTableRecord
100
AcDbLayerTableRecord
  2
62
 70
     0
 62
    62
  6
CONTINUOUS
  0
LAYER
  5
78
330
2
100
AcDbSymbolTableRecord
100
AcDbLayerTableRecord
  2
63
 70
     0
 62
    63
  6
CONTINUOUS
  0
LAYER
  5
79
330
2
100
AcDbSymbolTableRecord
100
AcDbLayerTableRecord
  2
64
 70
     0
 62
    64
  6
CONTINUOUS
  0
LAYER
  5
7A
330
2
100
AcDbSymbolTableRecord
100
AcDbLayerTableRecord
  2
65
 70
     0
 62
    65
  6
CONTINUOUS
  0
LAYER
  5
7B
330
2
100
AcDbSymbolTableRecord
100
AcDbLayerTableRecord
  2
66
 70
     0
 62
    66
  6
CONTINUOUS
  0
LAYER
  5
7C
330
2
100
AcDbSymbolTableRecord
100
AcDbLayerTableRecord
  2
67
 70
     0
 62
    67
  6
CONTINUOUS
  0
LAYER
  5
7D
330
2
100
AcDbSymbolTableRecord
100
AcDbLayerTableRecord
  2
68
 70
     0
 62
    68
  6
CONTINUOUS
  0
LAYER
  5
7E
330
2
100
AcDbSymbolTableRecord
100
AcDbLayerTableRecord
  2
69
 70
     0
 62
    69
  6
CONTINUOUS
  0
LAYER
  5
7F
330
2
100
AcDbSymbolTableRecord
100
AcDbLayerTableRecord
  2
70
 70
     0
 62
    70
  6
CONTINUOUS
  0
LAYER
  5
80
330
2
100
AcDbSymbolTableRecord
100
AcDbLayerTableRecord
  2
71
 70
     0
 62
    71
  6
CONTINUOUS
  0
LAYER
  5
81
330
2
100
AcDbSymbolTableRecord
100
AcDbLayerTableRecord
  2
72
 70
     0
 62
    72
  6
CONTINUOUS
  0
LAYER
  5
82
330
2
100
AcDbSymbolTableRecord
100
AcDbLayerTableRecord
  2
73
 70
     0
 62
    73
  6
CONTINUOUS
  0
LAYER
  5
83
330
2
100
AcDbSymbolTableRecord
100
AcDbLayerTableRecord
  2
74
 70
     0
 62
    74
  6
CONTINUOUS
  0
LAYER
  5
84
330
2
100
AcDbSymbolTableRecord
100
AcDbLayerTableRecord
  2
75
 70
     0
 62
    75
  6
CONTINUOUS
  0
LAYER
  5
85
330
2
100
AcDbSymbolTableRecord
100
AcDbLayerTableRecord
  2
76
 70
     0
 62
    76
  6
CONTINUOUS
  0
LAYER
  5
86
330
2
100
AcDbSymbolTableRecord
100
AcDbLayerTableRecord
  2
77
 70
     0
 62
    77
  6
CONTINUOUS
  0
LAYER
  5
87
330
2
100
AcDbSymbolTableRecord
100
AcDbLayerTableRecord
  2
78
 70
     0
 62
    78
  6
CONTINUOUS
  0
LAYER
  5
88
330
2
100
AcDbSymbolTableRecord
100
AcDbLayerTableRecord
  2
79
 70
     0
 62
    79
  6
CONTINUOUS
  0
LAYER
  5
89
330
2
100
AcDbSymbolTableRecord
100
AcDbLayerTableRecord
  2
80
 70
     0
 62
    80
  6
CONTINUOUS
  0
LAYER
  5
8A
330
2
100
AcDbSymbolTableRecord
100
AcDbLayerTableRecord
  2
81
 70
     0
 62
    81
  6
CONTINUOUS
  0
LAYER
  5
8B
330
2
100
AcDbSymbolTableRecord
100
AcDbLayerTableRecord
  2
82
 70
     0
 62
    82
  6
CONTINUOUS
  0
LAYER
  5
8C
330
2
100
AcDbSymbolTableRecord
100
AcDbLayerTableRecord
  2
83
 70
     0
 62
    83
  6
CONTINUOUS
  0
LAYER
  5
8D
330
2
100
AcDbSymbolTableRecord
100
AcDbLayerTableRecord
  2
84
 70
     0
 62
    84
  6
CONTINUOUS
  0
LAYER
  5
8E
330
2
100
AcDbSymbolTableRecord
100
AcDbLayerTableRecord
  2
85
 70
     0
 62
    85
  6
CONTINUOUS
  0
LAYER
  5
8F
330
2
100
AcDbSymbolTableRecord
100
AcDbLayerTableRecord
  2
86
 70
     0
 62
    86
  6
CONTINUOUS
  0
LAYER
  5
90
330
2
100
AcDbSymbolTableRecord
100
AcDbLayerTableRecord
  2
87
 70
     0
 62
    87
  6
CONTINUOUS
  0
LAYER
  5
91
330
2
100
AcDbSymbolTableRecord
100
AcDbLayerTableRecord
  2
88
 70
     0
 62
    88
  6
CONTINUOUS
  0
LAYER
  5
92
330
2
100
AcDbSymbolTableRecord
100
AcDbLayerTableRecord
  2
89
 70
     0
 62
    89
  6
CONTINUOUS
  0
LAYER
  5
93
330
2
100
AcDbSymbolTableRecord
100
AcDbLayerTableRecord
  2
90
 70
     0
 62
    90
  6
CONTINUOUS
  0
LAYER
  5
94
330
2
100
AcDbSymbolTableRecord
100
AcDbLayerTableRecord
  2
91
 70
     0
 62
    91
  6
CONTINUOUS
  0
LAYER
  5
95
330
2
100
AcDbSymbolTableRecord
100
AcDbLayerTableRecord
  2
92
 70
     0
 62
    92
  6
CONTINUOUS
  0
LAYER
  5
96
330
2
100
AcDbSymbolTableRecord
100
AcDbLayerTableRecord
  2
93
 70
     0
 62
    93
  6
CONTINUOUS
  0
LAYER
  5
97
330
2
100
AcDbSymbolTableRecord
100
AcDbLayerTableRecord
  2
94
 70
     0
 62
    94
  6
CONTINUOUS
  0
LAYER
  5
98
330
2
100
AcDbSymbolTableRecord
100
AcDbLayerTableRecord
  2
95
 70
     0
 62
    95
  6
CONTINUOUS
  0
LAYER
  5
99
330
2
100
AcDbSymbolTableRecord
100
AcDbLayerTableRecord
  2
96
 70
     0
 62
    96
  6
CONTINUOUS
  0
LAYER
  5
9A
330
2
100
AcDbSymbolTableRecord
100
AcDbLayerTableRecord
  2
97
 70
     0
 62
    97
  6
CONTINUOUS
  0
LAYER
  5
9B
330
2
100
AcDbSymbolTableRecord
100
AcDbLayerTableRecord
  2
98
 70
     0
 62
    98
  6
CONTINUOUS
  0
LAYER
  5
9C
330
2
100
AcDbSymbolTableRecord
100
AcDbLayerTableRecord
  2
99
 70
     0
 62
    99
  6
CONTINUOUS
  0
LAYER
  5
9D
330
2
100
AcDbSymbolTableRecord
100
AcDbLayerTableRecord
  2
100
 70
     0
 62
   100
  6
CONTINUOUS
  0
LAYER
  5
9E
330
2
100
AcDbSymbolTableRecord
100
AcDbLayerTableRecord
  2
101
 70
     0
 62
   101
  6
CONTINUOUS
  0
LAYER
  5
9F
330
2
100
AcDbSymbolTableRecord
100
AcDbLayerTableRecord
  2
102
 70
     0
 62
   102
  6
CONTINUOUS
  0
LAYER
  5
A0
330
2
100
AcDbSymbolTableRecord
100
AcDbLayerTableRecord
  2
103
 70
     0
 62
   103
  6
CONTINUOUS
  0
LAYER
  5
A1
330
2
100
AcDbSymbolTableRecord
100
AcDbLayerTableRecord
  2
104
 70
     0
 62
   104
  6
CONTINUOUS
  0
LAYER
  5
A2
330
2
100
AcDbSymbolTableRecord
100
AcDbLayerTableRecord
  2
105
 70
     0
 62
   105
  6
CONTINUOUS
  0
LAYER
  5
A3
330
2
100
AcDbSymbolTableRecord
100
AcDbLayerTableRecord
  2
106
 70
     0
 62
   106
  6
CONTINUOUS
  0
LAYER
  5
A4
330
2
100
AcDbSymbolTableRecord
100
AcDbLayerTableRecord
  2
107
 70
     0
 62
   107
  6
CONTINUOUS
  0
LAYER
  5
A5
330
2
100
AcDbSymbolTableRecord
100
AcDbLayerTableRecord
  2
108
 70
     0
 62
   108
  6
CONTINUOUS
  0
LAYER
  5
A6
330
2
100
AcDbSymbolTableRecord
100
AcDbLayerTableRecord
  2
109
 70
     0
 62
   109
  6
CONTINUOUS
  0
LAYER
  5
A7
330
2
100
AcDbSymbolTableRecord
100
AcDbLayerTableRecord
  2
110
 70
     0
 62
   110
  6
CONTINUOUS
  0
LAYER
  5
A8
330
2
100
AcDbSymbolTableRecord
100
AcDbLayerTableRecord
  2
111
 70
     0
 62
   111
  6
CONTINUOUS
  0
LAYER
  5
A9
330
2
100
AcDbSymbolTableRecord
100
AcDbLayerTableRecord
  2
112
 70
     0
 62
   112
  6
CONTINUOUS
  0
LAYER
  5
AA
330
2
100
AcDbSymbolTableRecord
100
AcDbLayerTableRecord
  2
113
 70
     0
 62
   113
  6
CONTINUOUS
  0
LAYER
  5
AB
330
2
100
AcDbSymbolTableRecord
100
AcDbLayerTableRecord
  2
114
 70
     0
 62
   114
  6
CONTINUOUS
  0
LAYER
  5
AC
330
2
100
AcDbSymbolTableRecord
100
AcDbLayerTableRecord
  2
115
 70
     0
 62
   115
  6
CONTINUOUS
  0
LAYER
  5
AD
330
2
100
AcDbSymbolTableRecord
100
AcDbLayerTableRecord
  2
116
 70
     0
 62
   116
  6
CONTINUOUS
  0
LAYER
  5
AE
330
2
100
AcDbSymbolTableRecord
100
AcDbLayerTableRecord
  2
117
 70
     0
 62
   117
  6
CONTINUOUS
  0
LAYER
  5
AF
330
2
100
AcDbSymbolTableRecord
100
AcDbLayerTableRecord
  2
118
 70
     0
 62
   118
  6
CONTINUOUS
  0
LAYER
  5
B0
330
2
100
AcDbSymbolTableRecord
100
AcDbLayerTableRecord
  2
119
 70
     0
 62
   119
  6
CONTINUOUS
  0
LAYER
  5
B1
330
2
100
AcDbSymbolTableRecord
100
AcDbLayerTableRecord
  2
120
 70
     0
 62
   120
  6
CONTINUOUS
  0
LAYER
  5
B2
330
2
100
AcDbSymbolTableRecord
100
AcDbLayerTableRecord
  2
121
 70
     0
 62
   121
  6
CONTINUOUS
  0
LAYER
  5
B3
330
2
100
AcDbSymbolTableRecord
100
AcDbLayerTableRecord
  2
122
 70
     0
 62
   122
  6
CONTINUOUS
  0
LAYER
  5
B4
330
2
100
AcDbSymbolTableRecord
100
AcDbLayerTableRecord
  2
123
 70
     0
 62
   123
  6
CONTINUOUS
  0
LAYER
  5
B5
330
2
100
AcDbSymbolTableRecord
100
AcDbLayerTableRecord
  2
124
 70
     0
 62
   124
  6
CONTINUOUS
  0
LAYER
  5
B6
330
2
100
AcDbSymbolTableRecord
100
AcDbLayerTableRecord
  2
125
 70
     0
 62
   125
  6
CONTINUOUS
  0
LAYER
  5
B7
330
2
100
AcDbSymbolTableRecord
100
AcDbLayerTableRecord
  2
126
 70
     0
 62
   126
  6
CONTINUOUS
  0
LAYER
  5
B8
330
2
100
AcDbSymbolTableRecord
100
AcDbLayerTableRecord
  2
127
 70
     0
 62
   127
  6
CONTINUOUS
  0
LAYER
  5
B9
330
2
100
AcDbSymbolTableRecord
100
AcDbLayerTableRecord
  2
128
 70
     0
 62
   128
  6
CONTINUOUS
  0
LAYER
  5
BA
330
2
100
AcDbSymbolTableRecord
100
AcDbLayerTableRecord
  2
129
 70
     0
 62
   129
  6
CONTINUOUS
  0
LAYER
  5
BB
330
2
100
AcDbSymbolTableRecord
100
AcDbLayerTableRecord
  2
130
 70
     0
 62
   130
  6
CONTINUOUS
  0
LAYER
  5
BC
330
2
100
AcDbSymbolTableRecord
100
AcDbLayerTableRecord
  2
131
 70
     0
 62
   131
  6
CONTINUOUS
  0
LAYER
  5
BD
330
2
100
AcDbSymbolTableRecord
100
AcDbLayerTableRecord
  2
132
 70
     0
 62
   132
  6
CONTINUOUS
  0
LAYER
  5
BE
330
2
100
AcDbSymbolTableRecord
100
AcDbLayerTableRecord
  2
133
 70
     0
 62
   133
  6
CONTINUOUS
  0
LAYER
  5
BF
330
2
100
AcDbSymbolTableRecord
100
AcDbLayerTableRecord
  2
134
 70
     0
 62
   134
  6
CONTINUOUS
  0
LAYER
  5
C0
330
2
100
AcDbSymbolTableRecord
100
AcDbLayerTableRecord
  2
135
 70
     0
 62
   135
  6
CONTINUOUS
  0
LAYER
  5
C1
330
2
100
AcDbSymbolTableRecord
100
AcDbLayerTableRecord
  2
136
 70
     0
 62
   136
  6
CONTINUOUS
  0
LAYER
  5
C2
330
2
100
AcDbSymbolTableRecord
100
AcDbLayerTableRecord
  2
137
 70
     0
 62
   137
  6
CONTINUOUS
  0
LAYER
  5
C3
330
2
100
AcDbSymbolTableRecord
100
AcDbLayerTableRecord
  2
138
 70
     0
 62
   138
  6
CONTINUOUS
  0
LAYER
  5
C4
330
2
100
AcDbSymbolTableRecord
100
AcDbLayerTableRecord
  2
139
 70
     0
 62
   139
  6
CONTINUOUS
  0
LAYER
  5
C5
330
2
100
AcDbSymbolTableRecord
100
AcDbLayerTableRecord
  2
140
 70
     0
 62
   140
  6
CONTINUOUS
  0
LAYER
  5
C6
330
2
100
AcDbSymbolTableRecord
100
AcDbLayerTableRecord
  2
141
 70
     0
 62
   141
  6
CONTINUOUS
  0
LAYER
  5
C7
330
2
100
AcDbSymbolTableRecord
100
AcDbLayerTableRecord
  2
142
 70
     0
 62
   142
  6
CONTINUOUS
  0
LAYER
  5
C8
330
2
100
AcDbSymbolTableRecord
100
AcDbLayerTableRecord
  2
143
 70
     0
 62
   143
  6
CONTINUOUS
  0
LAYER
  5
C9
330
2
100
AcDbSymbolTableRecord
100
AcDbLayerTableRecord
  2
144
 70
     0
 62
   144
  6
CONTINUOUS
  0
LAYER
  5
CA
330
2
100
AcDbSymbolTableRecord
100
AcDbLayerTableRecord
  2
145
 70
     0
 62
   145
  6
CONTINUOUS
  0
LAYER
  5
CB
330
2
100
AcDbSymbolTableRecord
100
AcDbLayerTableRecord
  2
146
 70
     0
 62
   146
  6
CONTINUOUS
  0
LAYER
  5
CC
330
2
100
AcDbSymbolTableRecord
100
AcDbLayerTableRecord
  2
147
 70
     0
 62
   147
  6
CONTINUOUS
  0
LAYER
  5
CD
330
2
100
AcDbSymbolTableRecord
100
AcDbLayerTableRecord
  2
148
 70
     0
 62
   148
  6
CONTINUOUS
  0
LAYER
  5
CE
330
2
100
AcDbSymbolTableRecord
100
AcDbLayerTableRecord
  2
149
 70
     0
 62
   149
  6
CONTINUOUS
  0
LAYER
  5
CF
330
2
100
AcDbSymbolTableRecord
100
AcDbLayerTableRecord
  2
150
 70
     0
 62
   150
  6
CONTINUOUS
  0
LAYER
  5
D0
330
2
100
AcDbSymbolTableRecord
100
AcDbLayerTableRecord
  2
151
 70
     0
 62
   151
  6
CONTINUOUS
  0
LAYER
  5
D1
330
2
100
AcDbSymbolTableRecord
100
AcDbLayerTableRecord
  2
152
 70
     0
 62
   152
  6
CONTINUOUS
  0
LAYER
  5
D2
330
2
100
AcDbSymbolTableRecord
100
AcDbLayerTableRecord
  2
153
 70
     0
 62
   153
  6
CONTINUOUS
  0
LAYER
  5
D3
330
2
100
AcDbSymbolTableRecord
100
AcDbLayerTableRecord
  2
154
 70
     0
 62
   154
  6
CONTINUOUS
  0
LAYER
  5
D4
330
2
100
AcDbSymbolTableRecord
100
AcDbLayerTableRecord
  2
155
 70
     0
 62
   155
  6
CONTINUOUS
  0
LAYER
  5
D5
330
2
100
AcDbSymbolTableRecord
100
AcDbLayerTableRecord
  2
156
 70
     0
 62
   156
  6
CONTINUOUS
  0
LAYER
  5
D6
330
2
100
AcDbSymbolTableRecord
100
AcDbLayerTableRecord
  2
157
 70
     0
 62
   157
  6
CONTINUOUS
  0
LAYER
  5
D7
330
2
100
AcDbSymbolTableRecord
100
AcDbLayerTableRecord
  2
158
 70
     0
 62
   158
  6
CONTINUOUS
  0
LAYER
  5
D8
330
2
100
AcDbSymbolTableRecord
100
AcDbLayerTableRecord
  2
159
 70
     0
 62
   159
  6
CONTINUOUS
  0
LAYER
  5
D9
330
2
100
AcDbSymbolTableRecord
100
AcDbLayerTableRecord
  2
160
 70
     0
 62
   160
  6
CONTINUOUS
  0
LAYER
  5
DA
330
2
100
AcDbSymbolTableRecord
100
AcDbLayerTableRecord
  2
161
 70
     0
 62
   161
  6
CONTINUOUS
  0
LAYER
  5
DB
330
2
100
AcDbSymbolTableRecord
100
AcDbLayerTableRecord
  2
162
 70
     0
 62
   162
  6
CONTINUOUS
  0
LAYER
  5
DC
330
2
100
AcDbSymbolTableRecord
100
AcDbLayerTableRecord
  2
163
 70
     0
 62
   163
  6
CONTINUOUS
  0
LAYER
  5
DD
330
2
100
AcDbSymbolTableRecord
100
AcDbLayerTableRecord
  2
164
 70
     0
 62
   164
  6
CONTINUOUS
  0
LAYER
  5
DE
330
2
100
AcDbSymbolTableRecord
100
AcDbLayerTableRecord
  2
165
 70
     0
 62
   165
  6
CONTINUOUS
  0
LAYER
  5
DF
330
2
100
AcDbSymbolTableRecord
100
AcDbLayerTableRecord
  2
166
 70
     0
 62
   166
  6
CONTINUOUS
  0
LAYER
  5
E0
330
2
100
AcDbSymbolTableRecord
100
AcDbLayerTableRecord
  2
167
 70
     0
 62
   167
  6
CONTINUOUS
  0
LAYER
  5
E1
330
2
100
AcDbSymbolTableRecord
100
AcDbLayerTableRecord
  2
168
 70
     0
 62
   168
  6
CONTINUOUS
  0
LAYER
  5
E2
330
2
100
AcDbSymbolTableRecord
100
AcDbLayerTableRecord
  2
169
 70
     0
 62
   169
  6
CONTINUOUS
  0
LAYER
  5
E3
330
2
100
AcDbSymbolTableRecord
100
AcDbLayerTableRecord
  2
170
 70
     0
 62
   170
  6
CONTINUOUS
  0
LAYER
  5
E4
330
2
100
AcDbSymbolTableRecord
100
AcDbLayerTableRecord
  2
171
 70
     0
 62
   171
  6
CONTINUOUS
  0
LAYER
  5
E5
330
2
100
AcDbSymbolTableRecord
100
AcDbLayerTableRecord
  2
172
 70
     0
 62
   172
  6
CONTINUOUS
  0
LAYER
  5
E6
330
2
100
AcDbSymbolTableRecord
100
AcDbLayerTableRecord
  2
173
 70
     0
 62
   173
  6
CONTINUOUS
  0
LAYER
  5
E7
330
2
100
AcDbSymbolTableRecord
100
AcDbLayerTableRecord
  2
174
 70
     0
 62
   174
  6
CONTINUOUS
  0
LAYER
  5
E8
330
2
100
AcDbSymbolTableRecord
100
AcDbLayerTableRecord
  2
175
 70
     0
 62
   175
  6
CONTINUOUS
  0
LAYER
  5
E9
330
2
100
AcDbSymbolTableRecord
100
AcDbLayerTableRecord
  2
176
 70
     0
 62
   176
  6
CONTINUOUS
  0
LAYER
  5
EA
330
2
100
AcDbSymbolTableRecord
100
AcDbLayerTableRecord
  2
177
 70
     0
 62
   177
  6
CONTINUOUS
  0
LAYER
  5
EB
330
2
100
AcDbSymbolTableRecord
100
AcDbLayerTableRecord
  2
178
 70
     0
 62
   178
  6
CONTINUOUS
  0
LAYER
  5
EC
330
2
100
AcDbSymbolTableRecord
100
AcDbLayerTableRecord
  2
179
 70
     0
 62
   179
  6
CONTINUOUS
  0
LAYER
  5
ED
330
2
100
AcDbSymbolTableRecord
100
AcDbLayerTableRecord
  2
180
 70
     0
 62
   180
  6
CONTINUOUS
  0
LAYER
  5
EE
330
2
100
AcDbSymbolTableRecord
100
AcDbLayerTableRecord
  2
181
 70
     0
 62
   181
  6
CONTINUOUS
  0
LAYER
  5
EF
330
2
100
AcDbSymbolTableRecord
100
AcDbLayerTableRecord
  2
182
 70
     0
 62
   182
  6
CONTINUOUS
  0
LAYER
  5
F0
330
2
100
AcDbSymbolTableRecord
100
AcDbLayerTableRecord
  2
183
 70
     0
 62
   183
  6
CONTINUOUS
  0
LAYER
  5
F1
330
2
100
AcDbSymbolTableRecord
100
AcDbLayerTableRecord
  2
184
 70
     0
 62
   184
  6
CONTINUOUS
  0
LAYER
  5
F2
330
2
100
AcDbSymbolTableRecord
100
AcDbLayerTableRecord
  2
185
 70
     0
 62
   185
  6
CONTINUOUS
  0
LAYER
  5
F3
330
2
100
AcDbSymbolTableRecord
100
AcDbLayerTableRecord
  2
186
 70
     0
 62
   186
  6
CONTINUOUS
  0
LAYER
  5
F4
330
2
100
AcDbSymbolTableRecord
100
AcDbLayerTableRecord
  2
187
 70
     0
 62
   187
  6
CONTINUOUS
  0
LAYER
  5
F5
330
2
100
AcDbSymbolTableRecord
100
AcDbLayerTableRecord
  2
188
 70
     0
 62
   188
  6
CONTINUOUS
  0
LAYER
  5
F6
330
2
100
AcDbSymbolTableRecord
100
AcDbLayerTableRecord
  2
189
 70
     0
 62
   189
  6
CONTINUOUS
  0
LAYER
  5
F7
330
2
100
AcDbSymbolTableRecord
100
AcDbLayerTableRecord
  2
190
 70
     0
 62
   190
  6
CONTINUOUS
  0
LAYER
  5
F8
330
2
100
AcDbSymbolTableRecord
100
AcDbLayerTableRecord
  2
191
 70
     0
 62
   191
  6
CONTINUOUS
  0
LAYER
  5
F9
330
2
100
AcDbSymbolTableRecord
100
AcDbLayerTableRecord
  2
192
 70
     0
 62
   192
  6
CONTINUOUS
  0
LAYER
  5
FA
330
2
100
AcDbSymbolTableRecord
100
AcDbLayerTableRecord
  2
193
 70
     0
 62
   193
  6
CONTINUOUS
  0
LAYER
  5
FB
330
2
100
AcDbSymbolTableRecord
100
AcDbLayerTableRecord
  2
194
 70
     0
 62
   194
  6
CONTINUOUS
  0
LAYER
  5
FC
330
2
100
AcDbSymbolTableRecord
100
AcDbLayerTableRecord
  2
195
 70
     0
 62
   195
  6
CONTINUOUS
  0
LAYER
  5
FD
330
2
100
AcDbSymbolTableRecord
100
AcDbLayerTableRecord
  2
196
 70
     0
 62
   196
  6
CONTINUOUS
  0
LAYER
  5
FE
330
2
100
AcDbSymbolTableRecord
100
AcDbLayerTableRecord
  2
197
 70
     0
 62
   197
  6
CONTINUOUS
  0
LAYER
  5
FF
330
2
100
AcDbSymbolTableRecord
100
AcDbLayerTableRecord
  2
198
 70
     0
 62
   198
  6
CONTINUOUS
  0
LAYER
  5
100
330
2
100
AcDbSymbolTableRecord
100
AcDbLayerTableRecord
  2
199
 70
     0
 62
   199
  6
CONTINUOUS
  0
LAYER
  5
101
330
2
100
AcDbSymbolTableRecord
100
AcDbLayerTableRecord
  2
200
 70
     0
 62
   200
  6
CONTINUOUS
  0
LAYER
  5
102
330
2
100
AcDbSymbolTableRecord
100
AcDbLayerTableRecord
  2
201
 70
     0
 62
   201
  6
CONTINUOUS
  0
LAYER
  5
103
330
2
100
AcDbSymbolTableRecord
100
AcDbLayerTableRecord
  2
202
 70
     0
 62
   202
  6
CONTINUOUS
  0
LAYER
  5
104
330
2
100
AcDbSymbolTableRecord
100
AcDbLayerTableRecord
  2
203
 70
     0
 62
   203
  6
CONTINUOUS
  0
LAYER
  5
105
330
2
100
AcDbSymbolTableRecord
100
AcDbLayerTableRecord
  2
204
 70
     0
 62
   204
  6
CONTINUOUS
  0
LAYER
  5
106
330
2
100
AcDbSymbolTableRecord
100
AcDbLayerTableRecord
  2
205
 70
     0
 62
   205
  6
CONTINUOUS
  0
LAYER
  5
107
330
2
100
AcDbSymbolTableRecord
100
AcDbLayerTableRecord
  2
206
 70
     0
 62
   206
  6
CONTINUOUS
  0
LAYER
  5
108
330
2
100
AcDbSymbolTableRecord
100
AcDbLayerTableRecord
  2
207
 70
     0
 62
   207
  6
CONTINUOUS
  0
LAYER
  5
109
330
2
100
AcDbSymbolTableRecord
100
AcDbLayerTableRecord
  2
208
 70
     0
 62
   208
  6
CONTINUOUS
  0
LAYER
  5
10A
330
2
100
AcDbSymbolTableRecord
100
AcDbLayerTableRecord
  2
209
 70
     0
 62
   209
  6
CONTINUOUS
  0
LAYER
  5
10B
330
2
100
AcDbSymbolTableRecord
100
AcDbLayerTableRecord
  2
210
 70
     0
 62
   210
  6
CONTINUOUS
  0
LAYER
  5
10C
330
2
100
AcDbSymbolTableRecord
100
AcDbLayerTableRecord
  2
211
 70
     0
 62
   211
  6
CONTINUOUS
  0
LAYER
  5
10D
330
2
100
AcDbSymbolTableRecord
100
AcDbLayerTableRecord
  2
212
 70
     0
 62
   212
  6
CONTINUOUS
  0
LAYER
  5
10E
330
2
100
AcDbSymbolTableRecord
100
AcDbLayerTableRecord
  2
213
 70
     0
 62
   213
  6
CONTINUOUS
  0
LAYER
  5
10F
330
2
100
AcDbSymbolTableRecord
100
AcDbLayerTableRecord
  2
214
 70
     0
 62
   214
  6
CONTINUOUS
  0
LAYER
  5
110
330
2
100
AcDbSymbolTableRecord
100
AcDbLayerTableRecord
  2
215
 70
     0
 62
   215
  6
CONTINUOUS
  0
LAYER
  5
111
330
2
100
AcDbSymbolTableRecord
100
AcDbLayerTableRecord
  2
216
 70
     0
 62
   216
  6
CONTINUOUS
  0
LAYER
  5
112
330
2
100
AcDbSymbolTableRecord
100
AcDbLayerTableRecord
  2
217
 70
     0
 62
   217
  6
CONTINUOUS
  0
LAYER
  5
113
330
2
100
AcDbSymbolTableRecord
100
AcDbLayerTableRecord
  2
218
 70
     0
 62
   218
  6
CONTINUOUS
  0
LAYER
  5
114
330
2
100
AcDbSymbolTableRecord
100
AcDbLayerTableRecord
  2
219
 70
     0
 62
   219
  6
CONTINUOUS
  0
LAYER
  5
115
330
2
100
AcDbSymbolTableRecord
100
AcDbLayerTableRecord
  2
220
 70
     0
 62
   220
  6
CONTINUOUS
  0
LAYER
  5
116
330
2
100
AcDbSymbolTableRecord
100
AcDbLayerTableRecord
  2
221
 70
     0
 62
   221
  6
CONTINUOUS
  0
LAYER
  5
117
330
2
100
AcDbSymbolTableRecord
100
AcDbLayerTableRecord
  2
222
 70
     0
 62
   222
  6
CONTINUOUS
  0
LAYER
  5
118
330
2
100
AcDbSymbolTableRecord
100
AcDbLayerTableRecord
  2
223
 70
     0
 62
   223
  6
CONTINUOUS
  0
LAYER
  5
119
330
2
100
AcDbSymbolTableRecord
100
AcDbLayerTableRecord
  2
224
 70
     0
 62
   224
  6
CONTINUOUS
  0
LAYER
  5
11A
330
2
100
AcDbSymbolTableRecord
100
AcDbLayerTableRecord
  2
225
 70
     0
 62
   225
  6
CONTINUOUS
  0
LAYER
  5
11B
330
2
100
AcDbSymbolTableRecord
100
AcDbLayerTableRecord
  2
226
 70
     0
 62
   226
  6
CONTINUOUS
  0
LAYER
  5
11C
330
2
100
AcDbSymbolTableRecord
100
AcDbLayerTableRecord
  2
227
 70
     0
 62
   227
  6
CONTINUOUS
  0
LAYER
  5
11D
330
2
100
AcDbSymbolTableRecord
100
AcDbLayerTableRecord
  2
228
 70
     0
 62
   228
  6
CONTINUOUS
  0
LAYER
  5
11E
330
2
100
AcDbSymbolTableRecord
100
AcDbLayerTableRecord
  2
229
 70
     0
 62
   229
  6
CONTINUOUS
  0
LAYER
  5
11F
330
2
100
AcDbSymbolTableRecord
100
AcDbLayerTableRecord
  2
230
 70
     0
 62
   230
  6
CONTINUOUS
  0
LAYER
  5
120
330
2
100
AcDbSymbolTableRecord
100
AcDbLayerTableRecord
  2
231
 70
     0
 62
   231
  6
CONTINUOUS
  0
LAYER
  5
121
330
2
100
AcDbSymbolTableRecord
100
AcDbLayerTableRecord
  2
232
 70
     0
 62
   232
  6
CONTINUOUS
  0
LAYER
  5
122
330
2
100
AcDbSymbolTableRecord
100
AcDbLayerTableRecord
  2
233
 70
     0
 62
   233
  6
CONTINUOUS
  0
LAYER
  5
123
330
2
100
AcDbSymbolTableRecord
100
AcDbLayerTableRecord
  2
234
 70
     0
 62
   234
  6
CONTINUOUS
  0
LAYER
  5
124
330
2
100
AcDbSymbolTableRecord
100
AcDbLayerTableRecord
  2
235
 70
     0
 62
   235
  6
CONTINUOUS
  0
LAYER
  5
125
330
2
100
AcDbSymbolTableRecord
100
AcDbLayerTableRecord
  2
236
 70
     0
 62
   236
  6
CONTINUOUS
  0
LAYER
  5
126
330
2
100
AcDbSymbolTableRecord
100
AcDbLayerTableRecord
  2
237
 70
     0
 62
   237
  6
CONTINUOUS
  0
LAYER
  5
127
330
2
100
AcDbSymbolTableRecord
100
AcDbLayerTableRecord
  2
238
 70
     0
 62
   238
  6
CONTINUOUS
  0
LAYER
  5
128
330
2
100
AcDbSymbolTableRecord
100
AcDbLayerTableRecord
  2
239
 70
     0
 62
   239
  6
CONTINUOUS
  0
LAYER
  5
129
330
2
100
AcDbSymbolTableRecord
100
AcDbLayerTableRecord
  2
240
 70
     0
 62
   240
  6
CONTINUOUS
  0
LAYER
  5
12A
330
2
100
AcDbSymbolTableRecord
100
AcDbLayerTableRecord
  2
241
 70
     0
 62
   241
  6
CONTINUOUS
  0
LAYER
  5
12B
330
2
100
AcDbSymbolTableRecord
100
AcDbLayerTableRecord
  2
242
 70
     0
 62
   242
  6
CONTINUOUS
  0
LAYER
  5
12C
330
2
100
AcDbSymbolTableRecord
100
AcDbLayerTableRecord
  2
243
 70
     0
 62
   243
  6
CONTINUOUS
  0
LAYER
  5
12D
330
2
100
AcDbSymbolTableRecord
100
AcDbLayerTableRecord
  2
244
 70
     0
 62
   244
  6
CONTINUOUS
  0
LAYER
  5
12E
330
2
100
AcDbSymbolTableRecord
100
AcDbLayerTableRecord
  2
245
 70
     0
 62
   245
  6
CONTINUOUS
  0
LAYER
  5
12F
330
2
100
AcDbSymbolTableRecord
100
AcDbLayerTableRecord
  2
246
 70
     0
 62
   246
  6
CONTINUOUS
  0
LAYER
  5
130
330
2
100
AcDbSymbolTableRecord
100
AcDbLayerTableRecord
  2
247
 70
     0
 62
   247
  6
CONTINUOUS
  0
LAYER
  5
131
330
2
100
AcDbSymbolTableRecord
100
AcDbLayerTableRecord
  2
248
 70
     0
 62
   248
  6
CONTINUOUS
  0
LAYER
  5
132
330
2
100
AcDbSymbolTableRecord
100
AcDbLayerTableRecord
  2
249
 70
     0
 62
   249
  6
CONTINUOUS
  0
LAYER
  5
133
330
2
100
AcDbSymbolTableRecord
100
AcDbLayerTableRecord
  2
250
 70
     0
 62
   250
  6
CONTINUOUS
  0
LAYER
  5
134
330
2
100
AcDbSymbolTableRecord
100
AcDbLayerTableRecord
  2
251
 70
     0
 62
   251
  6
CONTINUOUS
  0
LAYER
  5
135
330
2
100
AcDbSymbolTableRecord
100
AcDbLayerTableRecord
  2
252
 70
     0
 62
   252
  6
CONTINUOUS
  0
LAYER
  5
136
330
2
100
AcDbSymbolTableRecord
100
AcDbLayerTableRecord
  2
253
 70
     0
 62
   253
  6
CONTINUOUS
  0
LAYER
  5
137
330
2
100
AcDbSymbolTableRecord
100
AcDbLayerTableRecord
  2
254
 70
     0
 62
   254
  6
CONTINUOUS
  0
LAYER
  5
138
330
2
100
AcDbSymbolTableRecord
100
AcDbLayerTableRecord
  2
255
 70
     0
 62
   255
  6
CONTINUOUS
  0
LAYER
  5
3B0D
330
2
100
AcDbSymbolTableRecord
100
AcDbLayerTableRecord
  2
DEFPOINTS
 70
     0
 62
     7
  6
CONTINUOUS
  0
ENDTAB
  0
TABLE
  2
STYLE
  5
3
330
0
100
AcDbSymbolTable
 70
     1
  0
STYLE
  5
11
330
3
100
AcDbSymbolTableRecord
100
AcDbTextStyleTableRecord
  2
STANDARD
 70
     0
 40
0.0
 41
1.0
 50
0.0
 71
     0
 42
0.2
  3
monotxt
  4

  0
ENDTAB
  0
TABLE
  2
VIEW
  5
6
330
0
100
AcDbSymbolTable
 70
     0
  0
ENDTAB
  0
TABLE
  2
UCS
  5
7
330
0
100
AcDbSymbolTable
 70
     0
  0
ENDTAB
  0
TABLE
  2
APPID
  5
9
330
0
100
AcDbSymbolTable
 70
     1
  0
APPID
  5
12
330
9
100
AcDbSymbolTableRecord
100
AcDbRegAppTableRecord
  2
ACAD
 70
     0
  0
ENDTAB
  0
TABLE
  2
DIMSTYLE
  5
A
330
0
100
AcDbSymbolTable
 70
     1
  0
DIMSTYLE
105
3B09
330
A
100
AcDbSymbolTableRecord
100
AcDbDimStyleTableRecord
  2
STANDARD
 70
     0
  3

  4

  5

  6

  7

 40
1.0
 41
0.18
 42
0.0625
 43
0.38
 44
0.18
 45
0.0
 46
0.0
 47
0.0
 48
0.0
140
0.18
141
0.09
142
0.0
143
25.4
144
1.0
145
0.0
146
1.0
147
0.09
 71
     0
 72
     0
 73
     1
 74
     1
 75
     0
 76
     0
 77
     0
 78
     0
170
     0
171
     2
172
     0
173
     0
174
     0
175
     0
176
     0
177
     0
178
     0
270
     2
271
     4
272
     4
273
     2
274
     2
340
11
275
     0
280
     0
281
     0
282
     0
283
     1
284
     0
285
     0
286
     0
287
     3
288
     0
  0
ENDTAB
  0
TABLE
  2
BLOCK_RECORD
  5
1
330
0
100
AcDbSymbolTable
 70
     2
  0
BLOCK_RECORD
  5
1E
102
{ACAD_XDICTIONARY
360
5095
102
}
330
1
100
AcDbSymbolTableRecord
100
AcDbBlockTableRecord
  2
*MODEL_SPACE
  0
BLOCK_RECORD
  5
1A
102
{ACAD_XDICTIONARY
360
5097
102
}
330
1
100
AcDbSymbolTableRecord
100
AcDbBlockTableRecord
  2
*PAPER_SPACE
  0
ENDTAB
  0
ENDSEC
  0
SECTION
  2
BLOCKS
  0
BLOCK
  5
13B
330
1E
100
AcDbEntity
  8
0
100
AcDbBlockBegin
  2
*MODEL_SPACE
 70
     0
 10
0.0
 20
0.0
 30
0.0
  3
*MODEL_SPACE
  1

  0
ENDBLK
  5
13C
330
1E
100
AcDbEntity
  8
0
100
AcDbBlockEnd
  0
BLOCK
  5
139
330
1A
100
AcDbEntity
 67
     1
  8
0
100
AcDbBlockBegin
  2
*PAPER_SPACE
 70
     0
 10
0.0
 20
0.0
 30
0.0
  3
*PAPER_SPACE
  1

  0
ENDBLK
  5
13A
330
1A
100
AcDbEntity
 67
     1
  8
0
100
AcDbBlockEnd
  0
ENDSEC
  0
SECTION
  2
ENTITIES
  0
LINE
  5
34D3
330
1E
100
AcDbEntity
  8
3
100
AcDbLine
 10
-3.744650281817563
 20
3.710824457411707
 30
0.0
 11
-4.323390439297877
 21
3.710824457411707
 31
0.0
  0
LINE
  5
34D4
330
1E
100
AcDbEntity
  8
3
100
AcDbLine
 10
-4.97693374638449
 20
3.710824457411707
 30
0.0
 11
-4.97693374638449
 21
4.356493748750292
 31
0.0
  0
LINE
  5
34D5
330
1E
100
AcDbEntity
  8
3
100
AcDbLine
 10
-3.095043982604964
 20
3.710824457411707
 30
0.0
 11
-3.095043982604964
 21
4.356493748750292
 31
0.0
  0
LINE
  5
34D6
330
1E
100
AcDbEntity
  8
3
100
AcDbLine
 10
-4.394256581030161
 20
3.710824457411707
 30
0.0
 11
-4.394256581030161
 21
4.356493748750292
 31
0.0
  0
LINE
  5
34D7
330
1E
100
AcDbEntity
  8
3
100
AcDbLine
 10
-3.095043982604964
 20
4.356493748750292
 30
0.0
 11
-3.673784140085279
 21
4.356493748750292
 31
0.0
  0
LINE
  5
34D8
330
1E
100
AcDbEntity
  8
3
100
AcDbLine
 10
-3.095043982604964
 20
3.710824457411707
 30
0.0
 11
-3.673784140085279
 21
3.710824457411707
 31
0.0
  0
LINE
  5
34D9
330
1E
100
AcDbEntity
  8
3
100
AcDbLine
 10
-3.744650281817563
 20
4.356493748750292
 30
0.0
 11
-4.323390439297877
 21
4.356493748750292
 31
0.0
  0
LINE
  5
34DA
330
1E
100
AcDbEntity
  8
3
100
AcDbLine
 10
-5.62654004559709
 20
3.710824457411707
 30
0.0
 11
-5.62654004559709
 21
4.356493748750292
 31
0.0
  0
LINE
  5
34DB
330
1E
100
AcDbEntity
  8
3
100
AcDbLine
 10
-4.394256581030161
 20
4.356493748750292
 30
0.0
 11
-4.97693374638449
 21
4.356493748750292
 31
0.0
  0
LINE
  5
34DC
330
1E
100
AcDbEntity
  8
3
100
AcDbLine
 10
-4.394256581030161
 20
3.710824457411707
 30
0.0
 11
-4.97693374638449
 21
3.710824457411707
 31
0.0
  0
LINE
  5
34DD
330
1E
100
AcDbEntity
  8
3
100
AcDbLine
 10
-5.043862880242759
 20
4.356493748750292
 30
0.0
 11
-5.62654004559709
 21
4.356493748750292
 31
0.0
  0
LINE
  5
34DE
330
1E
100
AcDbEntity
  8
3
100
AcDbLine
 10
-3.744650281817563
 20
3.710824457411707
 30
0.0
 11
-3.744650281817563
 21
4.356493748750292
 31
0.0
  0
LINE
  5
34DF
330
1E
100
AcDbEntity
  8
3
100
AcDbLine
 10
-3.673784140085279
 20
3.710824457411707
 30
0.0
 11
-3.673784140085279
 21
4.356493748750292
 31
0.0
  0
LINE
  5
34E0
330
1E
100
AcDbEntity
  8
3
100
AcDbLine
 10
-5.043862880242759
 20
3.710824457411707
 30
0.0
 11
-5.62654004559709
 21
3.710824457411707
 31
0.0
  0
LINE
  5
34E1
330
1E
100
AcDbEntity
  8
3
100
AcDbLine
 10
-5.043862880242759
 20
3.710824457411707
 30
0.0
 11
-5.043862880242759
 21
4.356493748750292
 31
0.0
  0
LINE
  5
34E2
330
1E
100
AcDbEntity
  8
3
100
AcDbLine
 10
-4.323390439297877
 20
3.710824457411707
 30
0.0
 11
-4.323390439297877
 21
4.356493748750292
 31
0.0
  0
LINE
  5
34E3
330
1E
100
AcDbEntity
  8
3
100
AcDbLine
 10
-2.059610911738822
 20
3.710824457411707
 30
0.0
 11
-2.059610911738822
 21
4.356493748750292
 31
0.0
  0
LINE
  5
34E4
330
1E
100
AcDbEntity
  8
3
100
AcDbLine
 10
-1.480870754258507
 20
3.710824457411707
 30
0.0
 11
-1.480870754258507
 21
4.356493748750292
 31
0.0
  0
LINE
  5
34E5
330
1E
100
AcDbEntity
  8
3
100
AcDbLine
 10
-2.70921721095142
 20
3.710824457411707
 30
0.0
 11
-2.70921721095142
 21
4.356493748750292
 31
0.0
  0
LINE
  5
34E6
330
1E
100
AcDbEntity
  8
3
100
AcDbLine
 10
-1.480870754258507
 20
4.356493748750292
 30
0.0
 11
-2.059610911738822
 21
4.356493748750292
 31
0.0
  0
LINE
  5
34E7
330
1E
100
AcDbEntity
  8
3
100
AcDbLine
 10
-1.480870754258507
 20
3.710824457411707
 30
0.0
 11
-2.059610911738822
 21
3.710824457411707
 31
0.0
  0
LINE
  5
34E8
330
1E
100
AcDbEntity
  8
3
100
AcDbLine
 10
-2.130477053471105
 20
4.356493748750292
 30
0.0
 11
-2.70921721095142
 21
4.356493748750292
 31
0.0
  0
LINE
  5
34E9
330
1E
100
AcDbEntity
  8
3
100
AcDbLine
 10
-2.130477053471105
 20
3.710824457411707
 30
0.0
 11
-2.70921721095142
 21
3.710824457411707
 31
0.0
  0
LINE
  5
34EA
330
1E
100
AcDbEntity
  8
3
100
AcDbLine
 10
-2.130477053471105
 20
3.710824457411707
 30
0.0
 11
-2.130477053471105
 21
4.356493748750292
 31
0.0
  0
LINE
  5
34EB
330
1E
100
AcDbEntity
  8
3
100
AcDbLine
 10
-1.410004612526224
 20
3.710824457411707
 30
0.0
 11
-1.410004612526224
 21
4.356493748750292
 31
0.0
  0
LINE
  5
34F1
330
1E
100
AcDbEntity
  8
3
100
AcDbLine
 10
-0.1816581558333112
 20
3.710824457411707
 30
0.0
 11
-0.7603983133136261
 21
3.710824457411707
 31
0.0
  0
LINE
  5
34F2
330
1E
100
AcDbEntity
  8
3
100
AcDbLine
 10
-0.8312644550459094
 20
3.710824457411707
 30
0.0
 11
-0.8312644550459094
 21
4.356493748750292
 31
0.0
  0
LINE
  5
34F3
330
1E
100
AcDbEntity
  8
3
100
AcDbLine
 10
-0.7603983133136261
 20
3.710824457411707
 30
0.0
 11
-0.7603983133136261
 21
4.356493748750292
 31
0.0
  0
LINE
  5
34F4
330
1E
100
AcDbEntity
  8
3
100
AcDbLine
 10
-0.8312644550459094
 20
3.710824457411707
 30
0.0
 11
-1.410004612526224
 21
3.710824457411707
 31
0.0
  0
LINE
  5
34F5
330
1E
100
AcDbEntity
  8
3
100
AcDbLine
 10
-0.8312644550459094
 20
4.356493748750292
 30
0.0
 11
-1.410004612526224
 21
4.356493748750292
 31
0.0
  0
LINE
  5
34F6
330
1E
100
AcDbEntity
  8
3
100
AcDbLine
 10
0.8537749150328313
 20
3.710824457411707
 30
0.0
 11
0.8537749150328313
 21
4.356493748750292
 31
0.0
  0
LINE
  5
34F7
330
1E
100
AcDbEntity
  8
3
100
AcDbLine
 10
1.43645208038716
 20
3.710824457411707
 30
0.0
 11
1.43645208038716
 21
4.356493748750292
 31
0.0
  0
LINE
  5
34F8
330
1E
100
AcDbEntity
  8
3
100
AcDbLine
 10
0.2041686158202332
 20
3.710824457411707
 30
0.0
 11
0.2041686158202332
 21
4.356493748750292
 31
0.0
  0
LINE
  5
34F9
330
1E
100
AcDbEntity
  8
3
100
AcDbLine
 10
1.43645208038716
 20
4.356493748750292
 30
0.0
 11
0.8537749150328313
 21
4.356493748750292
 31
0.0
  0
LINE
  5
34FA
330
1E
100
AcDbEntity
  8
3
100
AcDbLine
 10
1.43645208038716
 20
3.710824457411707
 30
0.0
 11
0.8537749150328313
 21
3.710824457411707
 31
0.0
  0
LINE
  5
34FB
330
1E
100
AcDbEntity
  8
3
100
AcDbLine
 10
0.7868457811745629
 20
4.356493748750292
 30
0.0
 11
0.2041686158202332
 21
4.356493748750292
 31
0.0
  0
LINE
  5
34FC
330
1E
100
AcDbEntity
  8
3
100
AcDbLine
 10
0.7868457811745629
 20
3.710824457411707
 30
0.0
 11
0.2041686158202332
 21
3.710824457411707
 31
0.0
  0
LINE
  5
34FD
330
1E
100
AcDbEntity
  8
3
100
AcDbLine
 10
0.7868457811745629
 20
3.710824457411707
 30
0.0
 11
0.7868457811745629
 21
4.356493748750292
 31
0.0
  0
LINE
  5
34FE
330
1E
100
AcDbEntity
  8
3
100
AcDbLine
 10
1.503381214245429
 20
3.710824457411707
 30
0.0
 11
1.503381214245429
 21
4.356493748750292
 31
0.0
  0
LINE
  5
3504
330
1E
100
AcDbEntity
  8
3
100
AcDbLine
 10
2.735664678812355
 20
3.710824457411707
 30
0.0
 11
2.15692452133204
 21
3.710824457411707
 31
0.0
  0
LINE
  5
3505
330
1E
100
AcDbEntity
  8
3
100
AcDbLine
 10
2.086058379599759
 20
3.710824457411707
 30
0.0
 11
2.086058379599759
 21
4.356493748750292
 31
0.0
  0
LINE
  5
3506
330
1E
100
AcDbEntity
  8
3
100
AcDbLine
 10
2.15692452133204
 20
3.710824457411707
 30
0.0
 11
2.15692452133204
 21
4.356493748750292
 31
0.0
  0
LINE
  5
3507
330
1E
100
AcDbEntity
  8
3
100
AcDbLine
 10
2.086058379599759
 20
3.710824457411707
 30
0.0
 11
1.503381214245429
 21
3.710824457411707
 31
0.0
  0
LINE
  5
3508
330
1E
100
AcDbEntity
  8
3
100
AcDbLine
 10
2.086058379599759
 20
4.356493748750292
 30
0.0
 11
1.503381214245429
 21
4.356493748750292
 31
0.0
  0
LINE
  5
3509
330
1E
100
AcDbEntity
  8
3
100
AcDbLine
 10
3.771097749678499
 20
3.710824457411707
 30
0.0
 11
3.771097749678499
 21
4.356493748750292
 31
0.0
  0
LINE
  5
350A
330
1E
100
AcDbEntity
  8
3
100
AcDbLine
 10
4.349837907158814
 20
3.710824457411707
 30
0.0
 11
4.349837907158814
 21
4.356493748750292
 31
0.0
  0
LINE
  5
350B
330
1E
100
AcDbEntity
  8
3
100
AcDbLine
 10
3.121491450465899
 20
3.710824457411707
 30
0.0
 11
3.121491450465899
 21
4.356493748750292
 31
0.0
  0
LINE
  5
350C
330
1E
100
AcDbEntity
  8
3
100
AcDbLine
 10
4.349837907158814
 20
4.356493748750292
 30
0.0
 11
3.771097749678499
 21
4.356493748750292
 31
0.0
  0
LINE
  5
350D
330
1E
100
AcDbEntity
  8
3
100
AcDbLine
 10
4.349837907158814
 20
3.710824457411707
 30
0.0
 11
3.771097749678499
 21
3.710824457411707
 31
0.0
  0
LINE
  5
350E
330
1E
100
AcDbEntity
  8
3
100
AcDbLine
 10
3.700231607946214
 20
4.356493748750292
 30
0.0
 11
3.121491450465899
 21
4.356493748750292
 31
0.0
  0
LINE
  5
350F
330
1E
100
AcDbEntity
  8
3
100
AcDbLine
 10
3.700231607946214
 20
3.710824457411707
 30
0.0
 11
3.121491450465899
 21
3.710824457411707
 31
0.0
  0
LINE
  5
3510
330
1E
100
AcDbEntity
  8
3
100
AcDbLine
 10
3.700231607946214
 20
3.710824457411707
 30
0.0
 11
3.700231607946214
 21
4.356493748750292
 31
0.0
  0
LINE
  5
3511
330
1E
100
AcDbEntity
  8
3
100
AcDbLine
 10
4.420704048891096
 20
3.710824457411707
 30
0.0
 11
4.420704048891096
 21
4.356493748750292
 31
0.0
  0
LINE
  5
3517
330
1E
100
AcDbEntity
  8
3
100
AcDbLine
 10
5.649050505584011
 20
3.710824457411707
 30
0.0
 11
5.070310348103696
 21
3.710824457411707
 31
0.0
  0
LINE
  5
3518
330
1E
100
AcDbEntity
  8
3
100
AcDbLine
 10
4.999444206371411
 20
3.710824457411707
 30
0.0
 11
4.999444206371411
 21
4.356493748750292
 31
0.0
  0
LINE
  5
3519
330
1E
100
AcDbEntity
  8
3
100
AcDbLine
 10
5.070310348103696
 20
3.710824457411707
 30
0.0
 11
5.070310348103696
 21
4.356493748750292
 31
0.0
  0
LINE
  5
351A
330
1E
100
AcDbEntity
  8
3
100
AcDbLine
 10
4.999444206371411
 20
3.710824457411707
 30
0.0
 11
4.420704048891096
 21
3.710824457411707
 31
0.0
  0
LINE
  5
351B
330
1E
100
AcDbEntity
  8
3
100
AcDbLine
 10
4.999444206371411
 20
4.356493748750292
 30
0.0
 11
4.420704048891096
 21
4.356493748750292
 31
0.0
  0
LINE
  5
351C
330
1E
100
AcDbEntity
  8
3
100
AcDbLine
 10
6.684483576450151
 20
3.710824457411707
 30
0.0
 11
6.684483576450151
 21
4.356493748750292
 31
0.0
  0
LINE
  5
351D
330
1E
100
AcDbEntity
  8
3
100
AcDbLine
 10
7.263223733930466
 20
3.710824457411707
 30
0.0
 11
7.263223733930466
 21
4.356493748750292
 31
0.0
  0
LINE
  5
351E
330
1E
100
AcDbEntity
  8
3
100
AcDbLine
 10
6.034877277237555
 20
3.710824457411707
 30
0.0
 11
6.034877277237555
 21
4.356493748750292
 31
0.0
  0
LINE
  5
351F
330
1E
100
AcDbEntity
  8
3
100
AcDbLine
 10
7.263223733930466
 20
4.356493748750292
 30
0.0
 11
6.684483576450151
 21
4.356493748750292
 31
0.0
  0
LINE
  5
3520
330
1E
100
AcDbEntity
  8
3
100
AcDbLine
 10
7.263223733930466
 20
3.710824457411707
 30
0.0
 11
6.684483576450151
 21
3.710824457411707
 31
0.0
  0
LINE
  5
3521
330
1E
100
AcDbEntity
  8
3
100
AcDbLine
 10
6.61361743471787
 20
4.356493748750292
 30
0.0
 11
6.034877277237555
 21
4.356493748750292
 31
0.0
  0
LINE
  5
3522
330
1E
100
AcDbEntity
  8
3
100
AcDbLine
 10
6.61361743471787
 20
3.710824457411707
 30
0.0
 11
6.034877277237555
 21
3.710824457411707
 31
0.0
  0
LINE
  5
3523
330
1E
100
AcDbEntity
  8
3
100
AcDbLine
 10
6.61361743471787
 20
3.710824457411707
 30
0.0
 11
6.61361743471787
 21
4.356493748750292
 31
0.0
  0
LINE
  5
3524
330
1E
100
AcDbEntity
  8
3
100
AcDbLine
 10
7.334089875662751
 20
3.710824457411707
 30
0.0
 11
7.334089875662751
 21
4.356493748750292
 31
0.0
  0
LINE
  5
352A
330
1E
100
AcDbEntity
  8
3
100
AcDbLine
 10
8.566373340229681
 20
3.710824457411707
 30
0.0
 11
7.983696174875348
 21
3.710824457411707
 31
0.0
  0
LINE
  5
352B
330
1E
100
AcDbEntity
  8
3
100
AcDbLine
 10
7.916767041017081
 20
3.710824457411707
 30
0.0
 11
7.916767041017081
 21
4.356493748750292
 31
0.0
  0
LINE
  5
352C
330
1E
100
AcDbEntity
  8
3
100
AcDbLine
 10
7.983696174875348
 20
3.710824457411707
 30
0.0
 11
7.983696174875348
 21
4.356493748750292
 31
0.0
  0
LINE
  5
352D
330
1E
100
AcDbEntity
  8
3
100
AcDbLine
 10
7.916767041017081
 20
3.710824457411707
 30
0.0
 11
7.334089875662751
 21
3.710824457411707
 31
0.0
  0
LINE
  5
352E
330
1E
100
AcDbEntity
  8
3
100
AcDbLine
 10
7.916767041017081
 20
4.356493748750292
 30
0.0
 11
7.334089875662751
 21
4.356493748750292
 31
0.0
  0
LINE
  5
352F
330
1E
100
AcDbEntity
  8
3
100
AcDbLine
 10
9.601806411095822
 20
3.710824457411707
 30
0.0
 11
9.601806411095822
 21
4.356493748750292
 31
0.0
  0
LINE
  5
3530
330
1E
100
AcDbEntity
  8
3
100
AcDbLine
 10
10.18054656857613
 20
3.710824457411707
 30
0.0
 11
10.18054656857613
 21
4.356493748750292
 31
0.0
  0
LINE
  5
3531
330
1E
100
AcDbEntity
  8
3
100
AcDbLine
 10
8.948263104009207
 20
3.710824457411707
 30
0.0
 11
8.948263104009207
 21
4.356493748750292
 31
0.0
  0
LINE
  5
3532
330
1E
100
AcDbEntity
  8
3
100
AcDbLine
 10
10.18054656857613
 20
4.356493748750292
 30
0.0
 11
9.601806411095822
 21
4.356493748750292
 31
0.0
  0
LINE
  5
3533
330
1E
100
AcDbEntity
  8
3
100
AcDbLine
 10
10.18054656857613
 20
3.710824457411707
 30
0.0
 11
9.601806411095822
 21
3.710824457411707
 31
0.0
  0
LINE
  5
3534
330
1E
100
AcDbEntity
  8
3
100
AcDbLine
 10
9.530940269363536
 20
4.356493748750292
 30
0.0
 11
8.948263104009207
 21
4.356493748750292
 31
0.0
  0
LINE
  5
3535
330
1E
100
AcDbEntity
  8
3
100
AcDbLine
 10
9.530940269363536
 20
3.710824457411707
 30
0.0
 11
8.948263104009207
 21
3.710824457411707
 31
0.0
  0
LINE
  5
3536
330
1E
100
AcDbEntity
  8
3
100
AcDbLine
 10
9.530940269363536
 20
3.710824457411707
 30
0.0
 11
9.530940269363536
 21
4.356493748750292
 31
0.0
  0
LINE
  5
3537
330
1E
100
AcDbEntity
  8
3
100
AcDbLine
 10
10.25141271030841
 20
3.710824457411707
 30
0.0
 11
10.25141271030841
 21
4.356493748750292
 31
0.0
  0
LINE
  5
353D
330
1E
100
AcDbEntity
  8
3
100
AcDbLine
 10
11.47975916700133
 20
3.710824457411707
 30
0.0
 11
10.90101900952101
 21
3.710824457411707
 31
0.0
  0
LINE
  5
353E
330
1E
100
AcDbEntity
  8
3
100
AcDbLine
 10
10.83015286778873
 20
3.710824457411707
 30
0.0
 11
10.83015286778873
 21
4.356493748750292
 31
0.0
  0
LINE
  5
353F
330
1E
100
AcDbEntity
  8
3
100
AcDbLine
 10
10.90101900952101
 20
3.710824457411707
 30
0.0
 11
10.90101900952101
 21
4.356493748750292
 31
0.0
  0
LINE
  5
3540
330
1E
100
AcDbEntity
  8
3
100
AcDbLine
 10
10.83015286778873
 20
3.710824457411707
 30
0.0
 11
10.25141271030841
 21
3.710824457411707
 31
0.0
  0
LINE
  5
3541
330
1E
100
AcDbEntity
  8
3
100
AcDbLine
 10
10.83015286778873
 20
4.356493748750292
 30
0.0
 11
10.25141271030841
 21
4.356493748750292
 31
0.0
  0
LINE
  5
3552
330
1E
100
AcDbEntity
  8
3
100
AcDbLine
 10
-4.543862880242759
 20
3.084840205443203
 30
0.0
 11
-4.173784140085279
 21
3.084840205443203
 31
0.0
  0
LINE
  5
3553
330
1E
100
AcDbEntity
  8
3
100
AcDbLine
 10
-4.555673903864805
 20
3.183265402293596
 30
0.0
 11
-4.543862880242759
 21
3.084840205443203
 31
0.0
  0
LINE
  5
3554
330
1E
100
AcDbEntity
  8
3
100
AcDbLine
 10
-4.165910124337248
 20
3.183265402293596
 30
0.0
 11
-4.173784140085279
 21
3.084840205443203
 31
0.0
  0
LINE
  5
3555
330
1E
100
AcDbEntity
  8
3
100
AcDbLine
 10
-1.630477053471105
 20
3.084840205443203
 30
0.0
 11
-1.260398313313626
 21
3.084840205443203
 31
0.0
  0
LINE
  5
3556
330
1E
100
AcDbEntity
  8
3
100
AcDbLine
 10
-1.642288077093153
 20
3.183265402293596
 30
0.0
 11
-1.630477053471105
 21
3.084840205443203
 31
0.0
  0
LINE
  5
3557
330
1E
100
AcDbEntity
  8
3
100
AcDbLine
 10
-1.248587289691577
 20
3.183265402293596
 30
0.0
 11
-1.260398313313626
 21
3.084840205443203
 31
0.0
  0
LINE
  5
3558
330
1E
100
AcDbEntity
  8
3
100
AcDbLine
 10
1.282908773300547
 20
3.084840205443203
 30
0.0
 11
1.656924521332044
 21
3.084840205443203
 31
0.0
  0
LINE
  5
3559
330
1E
100
AcDbEntity
  8
3
100
AcDbLine
 10
1.275034757552516
 20
3.183265402293596
 30
0.0
 11
1.282908773300547
 21
3.084840205443203
 31
0.0
  0
LINE
  5
355A
330
1E
100
AcDbEntity
  8
3
100
AcDbLine
 10
1.664798537080075
 20
3.183265402293596
 30
0.0
 11
1.656924521332044
 21
3.084840205443203
 31
0.0
  0
LINE
  5
355B
330
1E
100
AcDbEntity
  8
3
100
AcDbLine
 10
4.200231607946214
 20
3.084840205443203
 30
0.0
 11
4.570310348103696
 21
3.084840205443203
 31
0.0
  0
LINE
  5
355C
330
1E
100
AcDbEntity
  8
3
100
AcDbLine
 10
4.188420584324166
 20
3.183265402293596
 30
0.0
 11
4.200231607946214
 21
3.084840205443203
 31
0.0
  0
LINE
  5
355D
330
1E
100
AcDbEntity
  8
3
100
AcDbLine
 10
4.582121371725744
 20
3.183265402293596
 30
0.0
 11
4.570310348103696
 21
3.084840205443203
 31
0.0
  0
LINE
  5
355E
330
1E
100
AcDbEntity
  8
3
100
AcDbLine
 10
7.11361743471787
 20
3.084840205443203
 30
0.0
 11
7.483696174875348
 21
3.084840205443203
 31
0.0
  0
LINE
  5
355F
330
1E
100
AcDbEntity
  8
3
100
AcDbLine
 10
7.105743418969836
 20
3.183265402293596
 30
0.0
 11
7.11361743471787
 21
3.084840205443203
 31
0.0
  0
LINE
  5
3560
330
1E
100
AcDbEntity
  8
3
100
AcDbLine
 10
7.495507198497396
 20
3.183265402293596
 30
0.0
 11
7.483696174875348
 21
3.084840205443203
 31
0.0
  0
LINE
  5
3561
330
1E
100
AcDbEntity
  8
3
100
AcDbLine
 10
10.03094026936353
 20
3.084840205443203
 30
0.0
 11
10.40101900952101
 21
3.084840205443203
 31
0.0
  0
LINE
  5
3562
330
1E
100
AcDbEntity
  8
3
100
AcDbLine
 10
10.01912924574148
 20
3.183265402293596
 30
0.0
 11
10.03094026936353
 21
3.084840205443203
 31
0.0
  0
LINE
  5
3563
330
1E
100
AcDbEntity
  8
3
100
AcDbLine
 10
10.40889302526904
 20
3.183265402293596
 30
0.0
 11
10.40101900952101
 21
3.084840205443203
 31
0.0
  0
LINE
  5
3581
330
1E
100
AcDbEntity
  8
3
100
AcDbLine
 10
12.42857806463913
 20
3.234446504655803
 30
0.0
 11
12.42857806463913
 21
3.891926819616433
 31
0.0
  0
LINE
  5
3582
330
1E
100
AcDbEntity
  8
3
100
AcDbLine
 10
-6.57142193536087
 20
4.828934693632181
 30
0.0
 11
-6.57142193536087
 21
4.171454378671551
 31
0.0
  0
LINE
  5
3583
330
1E
100
AcDbEntity
  8
3
100
AcDbLine
 10
11.70416861582022
 20
3.171454378671551
 30
0.0
 11
-5.847012486541972
 21
3.171454378671551
 31
0.0
  0
LINE
  5
3584
330
1E
100
AcDbEntity
  8
3
100
AcDbLine
 10
11.70416861582022
 20
4.891926819616433
 30
0.0
 11
-5.847012486541972
 21
4.891926819616433
 31
0.0
  0
LINE
  5
3585
330
1E
100
AcDbEntity
  8
3
100
AcDbLine
 10
-6.299768392053781
 20
4.79350162276604
 30
0.0
 11
-6.173784140085277
 21
4.79350162276604
 31
0.0
  0
LINE
  5
3586
330
1E
100
AcDbEntity
  8
3
100
AcDbLine
 10
11.88920798589897
 20
4.891926819616433
 30
0.0
 11
12.36558593865487
 21
4.891926819616433
 31
0.0
  0
LINE
  5
3587
330
1E
100
AcDbEntity
  8
3
100
AcDbLine
 10
-6.299768392053781
 20
4.513974063710922
 30
0.0
 11
-6.173784140085277
 21
4.513974063710922
 31
0.0
  0
LINE
  5
3588
330
1E
100
AcDbEntity
  8
3
100
AcDbLine
 10
-6.035988864494727
 20
3.171454378671551
 30
0.0
 11
-6.508429809376618
 21
3.171454378671551
 31
0.0
  0
LINE
  5
3589
330
1E
100
AcDbEntity
  8
3
100
AcDbLine
 10
-6.035988864494727
 20
4.891926819616433
 30
0.0
 11
-6.508429809376618
 21
4.891926819616433
 31
0.0
  0
LINE
  5
358A
330
1E
100
AcDbEntity
  8
3
100
AcDbLine
 10
11.88920798589897
 20
3.171454378671551
 30
0.0
 11
12.36558593865487
 21
3.171454378671551
 31
0.0
  0
LINE
  5
358B
330
1E
100
AcDbEntity
  8
3
100
AcDbLine
 10
-6.299768392053781
 20
3.545470126703047
 30
0.0
 11
-6.173784140085277
 21
3.545470126703047
 31
0.0
  0
LINE
  5
358C
330
1E
100
AcDbEntity
  8
3
100
AcDbLine
 10
-6.299768392053781
 20
3.265942567647929
 30
0.0
 11
-6.173784140085277
 21
3.265942567647929
 31
0.0
  0
LINE
  5
358D
330
1E
100
AcDbEntity
  8
3
100
AcDbLine
 10
12.15298751345802
 20
4.513974063710922
 30
0.0
 11
12.02700326148952
 21
4.513974063710922
 31
0.0
  0
LINE
  5
358E
330
1E
100
AcDbEntity
  8
3
100
AcDbLine
 10
12.15298751345802
 20
4.79350162276604
 30
0.0
 11
12.02700326148952
 21
4.79350162276604
 31
0.0
  0
LINE
  5
358F
330
1E
100
AcDbEntity
  8
3
100
AcDbLine
 10
12.15298751345802
 20
3.545470126703047
 30
0.0
 11
12.02700326148952
 21
3.545470126703047
 31
0.0
  0
LINE
  5
3590
330
1E
100
AcDbEntity
  8
3
100
AcDbLine
 10
12.15298751345802
 20
3.265942567647929
 30
0.0
 11
12.02700326148952
 21
3.265942567647929
 31
0.0
  0
LINE
  5
3594
330
1E
100
AcDbEntity
  8
3
100
AcDbLine
 10
12.42857806463913
 20
4.171454378671551
 30
0.0
 11
11.98763318274936
 21
4.171454378671551
 31
0.0
  0
LINE
  5
3595
330
1E
100
AcDbEntity
  8
3
100
AcDbLine
 10
12.42857806463913
 20
3.891926819616433
 30
0.0
 11
11.98763318274936
 21
3.891926819616433
 31
0.0
  0
LINE
  5
3596
330
1E
100
AcDbEntity
  8
3
100
AcDbLine
 10
12.42857806463913
 20
4.828934693632181
 30
0.0
 11
12.42857806463913
 21
4.171454378671551
 31
0.0
  0
LINE
  5
3597
330
1E
100
AcDbEntity
  8
3
100
AcDbLine
 10
12.42857806463913
 20
4.828934693632181
 30
0.0
 11
12.42857806463913
 21
4.171454378671551
 31
0.0
  0
LINE
  5
3598
330
1E
100
AcDbEntity
  8
3
100
AcDbLine
 10
-6.57142193536087
 20
4.171454378671551
 30
0.0
 11
-6.134414061345122
 21
4.171454378671551
 31
0.0
  0
LINE
  5
3599
330
1E
100
AcDbEntity
  8
3
100
AcDbLine
 10
-6.57142193536087
 20
3.891926819616433
 30
0.0
 11
-6.134414061345122
 21
3.891926819616433
 31
0.0
  0
LINE
  5
359A
330
1E
100
AcDbEntity
  8
3
100
AcDbLine
 10
-6.57142193536087
 20
3.234446504655803
 30
0.0
 11
-6.57142193536087
 21
3.891926819616433
 31
0.0
  0
LINE
  5
359B
330
1E
100
AcDbEntity
  8
3
100
AcDbLine
 10
-6.57142193536087
 20
3.234446504655803
 30
0.0
 11
-6.57142193536087
 21
3.891926819616433
 31
0.0
  0
LINE
  5
35B1
330
1E
100
AcDbEntity
  8
3
100
AcDbLine
 10
11.70416861582022
 20
10.82499768575816
 30
0.0
 11
12.36558593865487
 21
10.82499768575816
 31
0.0
  0
LINE
  5
35B2
330
1E
100
AcDbEntity
  8
3
100
AcDbLine
 10
11.64117648983597
 20
11.26987957552194
 30
0.0
 11
-5.787957368431735
 21
11.26987957552194
 31
0.0
  0
LINE
  5
35B3
330
1E
100
AcDbEntity
  8
3
100
AcDbLine
 10
-6.57142193536087
 20
10.82499768575816
 30
0.0
 11
-6.57142193536087
 21
10.76594256764793
 31
0.0
  0
LINE
  5
35B4
330
1E
100
AcDbEntity
  8
3
100
AcDbLine
 10
-5.910004612526224
 20
10.82499768575816
 30
0.0
 11
11.76322373393046
 21
10.82499768575816
 31
0.0
  0
LINE
  5
35B5
330
1E
100
AcDbEntity
  8
3
100
AcDbLine
 10
-5.910004612526224
 20
10.76594256764793
 30
0.0
 11
11.76322373393046
 21
10.76594256764793
 31
0.0
  0
LINE
  5
35B6
330
1E
100
AcDbEntity
  8
3
100
AcDbLine
 10
-5.847012486541972
 20
10.82499768575816
 30
0.0
 11
-6.508429809376618
 21
10.82499768575816
 31
0.0
  0
LINE
  5
35B7
330
1E
100
AcDbEntity
  8
3
100
AcDbLine
 10
11.42070404889109
 20
10.82499768575816
 30
0.0
 11
9.011255229993459
 21
10.82499768575816
 31
0.0
  0
LINE
  5
35B8
330
1E
100
AcDbEntity
  8
3
100
AcDbLine
 10
11.42070404889109
 20
10.76594256764793
 30
0.0
 11
9.011255229993459
 21
10.76594256764793
 31
0.0
  0
LINE
  5
35B9
330
1E
100
AcDbEntity
  8
3
100
AcDbLine
 10
11.42070404889109
 20
10.76594256764793
 30
0.0
 11
9.011255229993459
 21
10.76594256764793
 31
0.0
  0
LINE
  5
35BA
330
1E
100
AcDbEntity
  8
3
100
AcDbLine
 10
12.42857806463913
 20
10.76594256764793
 30
0.0
 11
12.42857806463913
 21
10.82499768575816
 31
0.0
  0
LINE
  5
35BB
330
1E
100
AcDbEntity
  8
3
100
AcDbLine
 10
11.70416861582022
 20
10.76594256764793
 30
0.0
 11
12.36558593865487
 21
10.76594256764793
 31
0.0
  0
LINE
  5
35BC
330
1E
100
AcDbEntity
  8
3
100
AcDbLine
 10
-5.847012486541972
 20
10.76594256764793
 30
0.0
 11
-6.508429809376618
 21
10.76594256764793
 31
0.0
  0
LINE
  5
35BD
330
1E
100
AcDbEntity
  8
3
100
AcDbLine
 10
-5.563547919612837
 20
10.82499768575816
 30
0.0
 11
-3.1540991007152
 21
10.82499768575816
 31
0.0
  0
LINE
  5
35BE
330
1E
100
AcDbEntity
  8
3
100
AcDbLine
 10
-5.563547919612837
 20
10.76594256764793
 30
0.0
 11
-3.1540991007152
 21
10.76594256764793
 31
0.0
  0
LINE
  5
35BF
330
1E
100
AcDbEntity
  8
3
100
AcDbLine
 10
-5.563547919612837
 20
10.82499768575816
 30
0.0
 11
-3.1540991007152
 21
10.82499768575816
 31
0.0
  0
LINE
  5
35C0
330
1E
100
AcDbEntity
  8
3
100
AcDbLine
 10
11.42070404889109
 20
10.82499768575816
 30
0.0
 11
9.011255229993459
 21
10.82499768575816
 31
0.0
  0
LINE
  5
35C1
330
1E
100
AcDbEntity
  8
3
100
AcDbLine
 10
-5.563547919612837
 20
10.76594256764793
 30
0.0
 11
-3.1540991007152
 21
10.76594256764793
 31
0.0
  0
LINE
  5
35C2
330
1E
100
AcDbEntity
  8
3
100
AcDbLine
 10
3.180546568576136
 20
10.82499768575816
 30
0.0
 11
5.589995387473774
 21
10.82499768575816
 31
0.0
  0
LINE
  5
35C3
330
1E
100
AcDbEntity
  8
3
100
AcDbLine
 10
3.180546568576136
 20
10.76594256764793
 30
0.0
 11
5.589995387473774
 21
10.76594256764793
 31
0.0
  0
LINE
  5
35C4
330
1E
100
AcDbEntity
  8
3
100
AcDbLine
 10
3.180546568576136
 20
10.82499768575816
 30
0.0
 11
5.589995387473774
 21
10.82499768575816
 31
0.0
  0
LINE
  5
35C5
330
1E
100
AcDbEntity
  8
3
100
AcDbLine
 10
3.180546568576136
 20
10.76594256764793
 30
0.0
 11
5.589995387473774
 21
10.76594256764793
 31
0.0
  0
LINE
  5
35C6
330
1E
100
AcDbEntity
  8
3
100
AcDbLine
 10
8.503381214245425
 20
10.82499768575816
 30
0.0
 11
6.093932395347788
 21
10.82499768575816
 31
0.0
  0
LINE
  5
35C7
330
1E
100
AcDbEntity
  8
3
100
AcDbLine
 10
8.503381214245425
 20
10.76594256764793
 30
0.0
 11
6.093932395347788
 21
10.76594256764793
 31
0.0
  0
LINE
  5
35C8
330
1E
100
AcDbEntity
  8
3
100
AcDbLine
 10
8.503381214245425
 20
10.82499768575816
 30
0.0
 11
6.093932395347788
 21
10.82499768575816
 31
0.0
  0
LINE
  5
35C9
330
1E
100
AcDbEntity
  8
3
100
AcDbLine
 10
8.503381214245425
 20
10.76594256764793
 30
0.0
 11
6.093932395347788
 21
10.76594256764793
 31
0.0
  0
LINE
  5
35CA
330
1E
100
AcDbEntity
  8
3
100
AcDbLine
 10
2.676609560702122
 20
10.82499768575816
 30
0.0
 11
0.2632237339304684
 21
10.82499768575816
 31
0.0
  0
LINE
  5
35CB
330
1E
100
AcDbEntity
  8
3
100
AcDbLine
 10
2.676609560702122
 20
10.76594256764793
 30
0.0
 11
0.2632237339304684
 21
10.76594256764793
 31
0.0
  0
LINE
  5
35CC
330
1E
100
AcDbEntity
  8
3
100
AcDbLine
 10
2.676609560702122
 20
10.82499768575816
 30
0.0
 11
0.2632237339304684
 21
10.82499768575816
 31
0.0
  0
LINE
  5
35CD
330
1E
100
AcDbEntity
  8
3
100
AcDbLine
 10
2.676609560702122
 20
10.76594256764793
 30
0.0
 11
0.2632237339304684
 21
10.76594256764793
 31
0.0
  0
LINE
  5
35CE
330
1E
100
AcDbEntity
  8
3
100
AcDbLine
 10
-0.2407132739435465
 20
10.82499768575816
 30
0.0
 11
-2.650162092841185
 21
10.82499768575816
 31
0.0
  0
LINE
  5
35CF
330
1E
100
AcDbEntity
  8
3
100
AcDbLine
 10
-0.2407132739435465
 20
10.76594256764793
 30
0.0
 11
-2.650162092841185
 21
10.76594256764793
 31
0.0
  0
LINE
  5
35D0
330
1E
100
AcDbEntity
  8
3
100
AcDbLine
 10
-0.2407132739435465
 20
10.82499768575816
 30
0.0
 11
-2.650162092841185
 21
10.82499768575816
 31
0.0
  0
LINE
  5
35D1
330
1E
100
AcDbEntity
  8
3
100
AcDbLine
 10
-0.2407132739435465
 20
10.76594256764793
 30
0.0
 11
-2.650162092841185
 21
10.76594256764793
 31
0.0
  0
LINE
  5
35D5
330
1E
100
AcDbEntity
  8
3
100
AcDbLine
 10
-5.847012486541972
 20
11.20688744953769
 30
0.0
 11
-5.847012486541972
 21
10.82499768575816
 31
0.0
  0
LINE
  5
35D6
330
1E
100
AcDbEntity
  8
3
100
AcDbLine
 10
11.70416861582022
 20
11.20688744953769
 30
0.0
 11
11.70416861582022
 21
10.82499768575816
 31
0.0
  0
LINE
  5
35D7
330
1E
100
AcDbEntity
  8
3
100
AcDbLine
 10
5.861648930780859
 20
4.738383512529818
 30
0.0
 11
5.849837907158814
 21
4.750194536151866
 31
0.0
  0
LINE
  5
35D8
330
1E
100
AcDbEntity
  8
3
100
AcDbLine
 10
5.995507198497396
 20
3.191139418041629
 30
0.0
 11
5.983696174875348
 21
3.179328394419581
 31
0.0
  0
LINE
  5
35D9
330
1E
100
AcDbEntity
  8
3
100
AcDbLine
 10
8.739601686686373
 20
3.324997685758166
 30
0.0
 11
8.751412710308418
 21
3.313186662136118
 31
0.0
  0
LINE
  5
35DA
330
1E
100
AcDbEntity
  8
3
100
AcDbLine
 10
8.605743418969836
 20
4.87617878812037
 30
0.0
 11
8.61361743471787
 21
4.884052803868399
 31
0.0
  0
LINE
  5
35DB
330
1E
100
AcDbEntity
  8
3
100
AcDbLine
 10
8.775034757552514
 20
4.738383512529818
 30
0.0
 11
8.763223733930466
 21
4.750194536151866
 31
0.0
  0
LINE
  5
35DC
330
1E
100
AcDbEntity
  8
3
100
AcDbLine
 10
8.908893025269048
 20
3.191139418041629
 30
0.0
 11
8.901019009521018
 21
3.179328394419581
 31
0.0
  0
LINE
  5
35DD
330
1E
100
AcDbEntity
  8
3
100
AcDbLine
 10
11.65692452133204
 20
3.324997685758166
 30
0.0
 11
11.66479853708007
 21
3.313186662136118
 31
0.0
  0
LINE
  5
35DE
330
1E
100
AcDbEntity
  8
3
100
AcDbLine
 10
11.51912924574148
 20
4.87617878812037
 30
0.0
 11
11.53094026936353
 21
4.884052803868399
 31
0.0
  0
LINE
  5
35DF
330
1E
100
AcDbEntity
  8
3
100
AcDbLine
 10
-3.055673903864805
 20
4.87617878812037
 30
0.0
 11
-3.043862880242759
 21
4.884052803868399
 31
0.0
  0
LINE
  5
35E0
330
1E
100
AcDbEntity
  8
3
100
AcDbLine
 10
-2.92181563614827
 20
3.324997685758166
 30
0.0
 11
-2.910004612526224
 21
3.313186662136118
 31
0.0
  0
LINE
  5
35E1
330
1E
100
AcDbEntity
  8
3
100
AcDbLine
 10
11.42070404889109
 20
10.76594256764793
 30
0.0
 11
9.011255229993459
 21
10.76594256764793
 31
0.0
  0
LINE
  5
35E2
330
1E
100
AcDbEntity
  8
3
100
AcDbLine
 10
2.676609560702122
 20
10.76594256764793
 30
0.0
 11
0.2632237339304684
 21
10.76594256764793
 31
0.0
  0
LINE
  5
35E3
330
1E
100
AcDbEntity
  8
3
100
AcDbLine
 10
8.908893025269048
 20
3.309249654262103
 30
0.0
 11
11.51912924574148
 21
3.309249654262103
 31
0.0
  0
LINE
  5
35E4
330
1E
100
AcDbEntity
  8
3
100
AcDbLine
 10
8.893144993772985
 20
4.738383512529818
 30
0.0
 11
8.893144993772985
 21
3.324997685758166
 31
0.0
  0
LINE
  5
35F9
330
1E
100
AcDbEntity
  8
3
100
AcDbLine
 10
-0.1383510692191372
 20
4.87617878812037
 30
0.0
 11
-0.1304770534711057
 21
4.884052803868399
 31
0.0
  0
LINE
  5
35FA
330
1E
100
AcDbEntity
  8
3
100
AcDbLine
 10
-5.795831384179766
 20
10.34074571725422
 30
0.0
 11
-5.811579415675829
 21
10.72263548103375
 31
0.0
  0
LINE
  5
35FB
330
1E
100
AcDbEntity
  8
3
100
AcDbLine
 10
-5.681658155833311
 20
3.183265402293596
 30
0.0
 11
-3.039925872368742
 21
3.183265402293596
 31
0.0
  0
LINE
  5
35FC
330
1E
100
AcDbEntity
  8
3
100
AcDbLine
 10
-2.92181563614827
 20
10.72263548103375
 30
0.0
 11
-2.937563667644333
 21
10.34074571725422
 31
0.0
  0
LINE
  5
35FD
330
1E
100
AcDbEntity
  8
3
100
AcDbLine
 10
5.983696174875348
 20
10.72263548103375
 30
0.0
 11
7.80653082054464
 21
10.72263548103375
 31
0.0
  0
LINE
  5
35FE
330
1E
100
AcDbEntity
  8
3
100
AcDbLine
 10
-0.2407132739435465
 20
10.82499768575816
 30
0.0
 11
-2.650162092841185
 21
10.82499768575816
 31
0.0
  0
LINE
  5
35FF
330
1E
100
AcDbEntity
  8
3
100
AcDbLine
 10
5.822278852040703
 20
10.72263548103375
 30
0.0
 11
3.660861529206059
 21
10.72263548103375
 31
0.0
  0
LINE
  5
3600
330
1E
100
AcDbEntity
  8
3
100
AcDbLine
 10
0.1529875134580276
 20
10.72263548103375
 30
0.0
 11
1.979759167001333
 21
10.72263548103375
 31
0.0
  0
LINE
  5
3601
330
1E
100
AcDbEntity
  8
3
100
AcDbLine
 10
2.676609560702122
 20
10.76594256764793
 30
0.0
 11
0.2632237339304684
 21
10.76594256764793
 31
0.0
  0
LINE
  5
3602
330
1E
100
AcDbEntity
  8
3
100
AcDbLine
 10
-5.681658155833311
 20
3.340745717254229
 30
0.0
 11
-5.681658155833311
 21
3.56121815819911
 31
0.0
  0
LINE
  5
3603
330
1E
100
AcDbEntity
  8
3
100
AcDbLine
 10
8.893144993772985
 20
4.738383512529818
 30
0.0
 11
8.893144993772985
 21
4.348619733002259
 31
0.0
  0
LINE
  5
3604
330
1E
100
AcDbEntity
  8
3
100
AcDbLine
 10
0.0348772772375554
 20
10.34074571725422
 30
0.0
 11
0.0191292457414925
 21
10.72263548103375
 31
0.0
  0
LINE
  5
3605
330
1E
100
AcDbEntity
  8
3
100
AcDbLine
 10
-5.799768392053783
 20
4.738383512529818
 30
0.0
 11
-5.811579415675829
 21
4.750194536151866
 31
0.0
  0
LINE
  5
3606
330
1E
100
AcDbEntity
  8
3
100
AcDbLine
 10
8.763223733930466
 20
3.313186662136118
 30
0.0
 11
8.763223733930466
 21
4.750194536151866
 31
0.0
  0
LINE
  5
3607
330
1E
100
AcDbEntity
  8
3
100
AcDbLine
 10
8.901019009521018
 20
4.884052803868399
 30
0.0
 11
11.53094026936353
 21
4.884052803868399
 31
0.0
  0
LINE
  5
3608
330
1E
100
AcDbEntity
  8
3
100
AcDbLine
 10
-5.811579415675829
 20
3.313186662136118
 30
0.0
 11
-5.799768392053783
 21
3.324997685758166
 31
0.0
  0
LINE
  5
3609
330
1E
100
AcDbEntity
  8
3
100
AcDbLine
 10
-5.673784140085279
 20
4.884052803868399
 30
0.0
 11
-5.665910124337248
 21
4.87617878812037
 31
0.0
  0
LINE
  5
360A
330
1E
100
AcDbEntity
  8
3
100
AcDbLine
 10
-5.811579415675829
 20
3.313186662136118
 30
0.0
 11
-5.811579415675829
 21
4.750194536151866
 31
0.0
  0
LINE
  5
360B
330
1E
100
AcDbEntity
  8
3
100
AcDbLine
 10
-2.910004612526224
 20
4.750194536151866
 30
0.0
 11
-2.92181563614827
 21
4.738383512529818
 31
0.0
  0
LINE
  5
360C
330
1E
100
AcDbEntity
  8
3
100
AcDbLine
 10
3.180546568576136
 20
10.82499768575816
 30
0.0
 11
5.589995387473774
 21
10.82499768575816
 31
0.0
  0
LINE
  5
360D
330
1E
100
AcDbEntity
  8
3
100
AcDbLine
 10
3.180546568576136
 20
10.76594256764793
 30
0.0
 11
5.589995387473774
 21
10.76594256764793
 31
0.0
  0
LINE
  5
360E
330
1E
100
AcDbEntity
  8
3
100
AcDbLine
 10
2.676609560702122
 20
10.82499768575816
 30
0.0
 11
0.2632237339304684
 21
10.82499768575816
 31
0.0
  0
LINE
  5
360F
330
1E
100
AcDbEntity
  8
3
100
AcDbLine
 10
2.775034757552514
 20
4.87617878812037
 30
0.0
 11
2.786845781174562
 21
4.884052803868399
 31
0.0
  0
LINE
  5
3610
330
1E
100
AcDbEntity
  8
3
100
AcDbLine
 10
2.908893025269048
 20
3.324997685758166
 30
0.0
 11
2.920704048891096
 21
3.313186662136118
 31
0.0
  0
LINE
  5
3611
330
1E
100
AcDbEntity
  8
3
100
AcDbLine
 10
0.1647985370800757
 20
3.191139418041629
 30
0.0
 11
0.1529875134580276
 21
3.179328394419581
 31
0.0
  0
LINE
  5
3612
330
1E
100
AcDbEntity
  8
3
100
AcDbLine
 10
0.0309402693635406
 20
4.738383512529818
 30
0.0
 11
0.0191292457414925
 21
4.750194536151866
 31
0.0
  0
LINE
  5
3613
330
1E
100
AcDbEntity
  8
3
100
AcDbLine
 10
0.1490505055840128
 20
4.738383512529818
 30
0.0
 11
0.1490505055840128
 21
3.324997685758166
 31
0.0
  0
LINE
  5
3614
330
1E
100
AcDbEntity
  8
3
100
AcDbLine
 10
0.1647985370800757
 20
3.309249654262103
 30
0.0
 11
2.775034757552514
 21
3.309249654262103
 31
0.0
  0
LINE
  5
3615
330
1E
100
AcDbEntity
  8
3
100
AcDbLine
 10
2.790782789048577
 20
3.324997685758166
 30
0.0
 11
2.790782789048577
 21
4.738383512529818
 31
0.0
  0
LINE
  5
3616
330
1E
100
AcDbEntity
  8
3
100
AcDbLine
 10
-5.681658155833311
 20
4.738383512529818
 30
0.0
 11
-5.681658155833311
 21
3.324997685758166
 31
0.0
  0
LINE
  5
3617
330
1E
100
AcDbEntity
  8
3
100
AcDbLine
 10
11.53094026936353
 20
3.179328394419581
 30
0.0
 11
11.51912924574148
 21
3.191139418041629
 31
0.0
  0
LINE
  5
3619
330
1E
100
AcDbEntity
  8
3
100
AcDbLine
 10
2.775034757552514
 20
4.754131544025881
 30
0.0
 11
0.1647985370800757
 21
4.754131544025881
 31
0.0
  0
LINE
  5
361A
330
1E
100
AcDbEntity
  8
3
100
AcDbLine
 10
0.0191292457414925
 20
3.313186662136118
 30
0.0
 11
0.0309402693635406
 21
3.324997685758166
 31
0.0
  0
LINE
  5
361B
330
1E
100
AcDbEntity
  8
3
100
AcDbLine
 10
5.822278852040703
 20
10.72263548103375
 30
0.0
 11
5.80653082054464
 21
10.34074571725422
 31
0.0
  0
LINE
  5
361C
330
1E
100
AcDbEntity
  8
3
100
AcDbLine
 10
5.861648930780859
 20
10.34074571725422
 30
0.0
 11
5.849837907158814
 21
10.72263548103375
 31
0.0
  0
LINE
  5
361D
330
1E
100
AcDbEntity
  8
3
100
AcDbLine
 10
-0.0084298093766169
 20
10.72263548103375
 30
0.0
 11
-2.169847132211263
 21
10.72263548103375
 31
0.0
  0
LINE
  5
3623
330
1E
100
AcDbEntity
  8
3
100
AcDbLine
 10
2.920704048891096
 20
4.750194536151866
 30
0.0
 11
2.908893025269048
 21
4.738383512529818
 31
0.0
  0
LINE
  5
3624
330
1E
100
AcDbEntity
  8
3
100
AcDbLine
 10
11.53487727723755
 20
4.738383512529818
 30
0.0
 11
11.53487727723755
 21
4.348619733002259
 31
0.0
  0
LINE
  5
3625
330
1E
100
AcDbEntity
  8
3
100
AcDbLine
 10
8.893144993772985
 20
3.340745717254229
 30
0.0
 11
8.893144993772985
 21
3.56121815819911
 31
0.0
  0
LINE
  5
3626
330
1E
100
AcDbEntity
  8
3
100
AcDbLine
 10
0.1529875134580276
 20
4.884052803868399
 30
0.0
 11
2.786845781174562
 21
4.884052803868399
 31
0.0
  0
LINE
  5
3627
330
1E
100
AcDbEntity
  8
3
100
AcDbLine
 10
8.893144993772985
 20
3.183265402293596
 30
0.0
 11
11.53487727723755
 21
3.183265402293596
 31
0.0
  0
LINE
  5
3628
330
1E
100
AcDbEntity
  8
3
100
AcDbLine
 10
5.979759167001333
 20
3.183265402293596
 30
0.0
 11
8.621491450465899
 21
3.183265402293596
 31
0.0
  0
LINE
  5
3629
330
1E
100
AcDbEntity
  8
3
100
AcDbLine
 10
3.066373340229681
 20
3.183265402293596
 30
0.0
 11
5.704168615820229
 21
3.183265402293596
 31
0.0
  0
LINE
  5
362A
330
1E
100
AcDbEntity
  8
3
100
AcDbLine
 10
0.1490505055840128
 20
3.183265402293596
 30
0.0
 11
2.790782789048577
 21
3.183265402293596
 31
0.0
  0
LINE
  5
362B
330
1E
100
AcDbEntity
  8
3
100
AcDbLine
 10
-2.76433532118764
 20
3.183265402293596
 30
0.0
 11
-0.1265400455970909
 21
3.183265402293596
 31
0.0
  0
LINE
  5
362C
330
1E
100
AcDbEntity
  8
3
100
AcDbLine
 10
3.066373340229681
 20
3.340745717254229
 30
0.0
 11
3.066373340229681
 21
3.56121815819911
 31
0.0
  0
LINE
  5
362D
330
1E
100
AcDbEntity
  8
3
100
AcDbLine
 10
3.180546568576136
 20
10.82499768575816
 30
0.0
 11
5.589995387473774
 21
10.82499768575816
 31
0.0
  0
LINE
  5
362E
330
1E
100
AcDbEntity
  8
3
100
AcDbLine
 10
-5.563547919612837
 20
10.76594256764793
 30
0.0
 11
-3.1540991007152
 21
10.76594256764793
 31
0.0
  0
LINE
  5
362F
330
1E
100
AcDbEntity
  8
3
100
AcDbLine
 10
-0.2407132739435465
 20
10.82499768575816
 30
0.0
 11
-2.650162092841185
 21
10.82499768575816
 31
0.0
  0
LINE
  5
3630
330
1E
100
AcDbEntity
  8
3
100
AcDbLine
 10
11.49944420637141
 20
10.22263548103375
 30
0.0
 11
8.916767041017081
 21
10.22263548103375
 31
0.0
  0
LINE
  5
3631
330
1E
100
AcDbEntity
  8
3
100
AcDbLine
 10
11.42070404889109
 20
10.82499768575816
 30
0.0
 11
9.011255229993459
 21
10.82499768575816
 31
0.0
  0
LINE
  5
3632
330
1E
100
AcDbEntity
  8
3
100
AcDbLine
 10
-5.563547919612837
 20
10.82499768575816
 30
0.0
 11
-3.1540991007152
 21
10.82499768575816
 31
0.0
  0
LINE
  5
3633
330
1E
100
AcDbEntity
  8
3
100
AcDbLine
 10
11.65298751345802
 20
10.72263548103375
 30
0.0
 11
11.63723948196196
 21
10.34074571725422
 31
0.0
  0
LINE
  5
3634
330
1E
100
AcDbEntity
  8
3
100
AcDbLine
 10
8.778971765426529
 20
10.34074571725422
 30
0.0
 11
8.763223733930466
 21
10.72263548103375
 31
0.0
  0
LINE
  5
3635
330
1E
100
AcDbEntity
  8
3
100
AcDbLine
 10
-5.563547919612837
 20
10.76594256764793
 30
0.0
 11
-3.1540991007152
 21
10.76594256764793
 31
0.0
  0
LINE
  5
3636
330
1E
100
AcDbEntity
  8
3
100
AcDbLine
 10
-5.563547919612837
 20
10.82499768575816
 30
0.0
 11
-3.1540991007152
 21
10.82499768575816
 31
0.0
  0
LINE
  5
3637
330
1E
100
AcDbEntity
  8
3
100
AcDbLine
 10
11.42070404889109
 20
10.76594256764793
 30
0.0
 11
9.011255229993459
 21
10.76594256764793
 31
0.0
  0
LINE
  5
3638
330
1E
100
AcDbEntity
  8
3
100
AcDbLine
 10
-0.2407132739435465
 20
10.76594256764793
 30
0.0
 11
-2.650162092841185
 21
10.76594256764793
 31
0.0
  0
LINE
  5
3639
330
1E
100
AcDbEntity
  8
3
100
AcDbLine
 10
2.948263104009207
 20
10.34074571725422
 30
0.0
 11
2.936452080387159
 21
10.72263548103375
 31
0.0
  0
LINE
  5
363A
330
1E
100
AcDbEntity
  8
3
100
AcDbLine
 10
11.42070404889109
 20
10.82499768575816
 30
0.0
 11
9.011255229993459
 21
10.82499768575816
 31
0.0
  0
LINE
  5
363B
330
1E
100
AcDbEntity
  8
3
100
AcDbLine
 10
2.920704048891096
 20
3.313186662136118
 30
0.0
 11
2.920704048891096
 21
4.750194536151866
 31
0.0
  0
LINE
  5
363C
330
1E
100
AcDbEntity
  8
3
100
AcDbLine
 10
2.786845781174562
 20
3.179328394419581
 30
0.0
 11
2.775034757552514
 21
3.191139418041629
 31
0.0
  0
LINE
  5
363D
330
1E
100
AcDbEntity
  8
3
100
AcDbLine
 10
-5.910004612526224
 20
10.76594256764793
 30
0.0
 11
11.76322373393046
 21
10.76594256764793
 31
0.0
  0
LINE
  5
363E
330
1E
100
AcDbEntity
  8
3
100
AcDbLine
 10
8.901019009521018
 20
4.884052803868399
 30
0.0
 11
8.908893025269048
 21
4.87617878812037
 31
0.0
  0
LINE
  5
363F
330
1E
100
AcDbEntity
  8
3
100
AcDbLine
 10
0.0191292457414925
 20
3.313186662136118
 30
0.0
 11
0.0191292457414925
 21
4.750194536151866
 31
0.0
  0
LINE
  5
3640
330
1E
100
AcDbEntity
  8
3
100
AcDbLine
 10
8.763223733930466
 20
3.313186662136118
 30
0.0
 11
8.775034757552514
 21
3.324997685758166
 31
0.0
  0
LINE
  5
3641
330
1E
100
AcDbEntity
  8
3
100
AcDbLine
 10
8.621491450465899
 20
4.738383512529818
 30
0.0
 11
8.621491450465899
 21
4.348619733002259
 31
0.0
  0
LINE
  5
3642
330
1E
100
AcDbEntity
  8
3
100
AcDbLine
 10
11.65298751345802
 20
10.72263548103375
 30
0.0
 11
9.491570190623381
 21
10.72263548103375
 31
0.0
  0
LINE
  5
3643
330
1E
100
AcDbEntity
  8
3
100
AcDbLine
 10
8.503381214245425
 20
10.82499768575816
 30
0.0
 11
6.093932395347788
 21
10.82499768575816
 31
0.0
  0
LINE
  5
3644
330
1E
100
AcDbEntity
  8
3
100
AcDbLine
 10
-5.665910124337248
 20
3.309249654262103
 30
0.0
 11
-3.055673903864805
 21
3.309249654262103
 31
0.0
  0
LINE
  5
3645
330
1E
100
AcDbEntity
  8
3
100
AcDbLine
 10
-3.039925872368742
 20
3.324997685758166
 30
0.0
 11
-3.039925872368742
 21
4.738383512529818
 31
0.0
  0
LINE
  5
3646
330
1E
100
AcDbEntity
  8
3
100
AcDbLine
 10
5.979759167001333
 20
4.738383512529818
 30
0.0
 11
5.979759167001333
 21
4.348619733002259
 31
0.0
  0
LINE
  5
3647
330
1E
100
AcDbEntity
  8
3
100
AcDbLine
 10
8.61361743471787
 20
3.179328394419581
 30
0.0
 11
8.605743418969836
 21
3.191139418041629
 31
0.0
  0
LINE
  5
364D
330
1E
100
AcDbEntity
  8
3
100
AcDbLine
 10
3.070310348103696
 20
10.72263548103375
 30
0.0
 11
4.893144993772985
 21
10.72263548103375
 31
0.0
  0
LINE
  5
364E
330
1E
100
AcDbEntity
  8
3
100
AcDbLine
 10
2.755349718182436
 20
10.22263548103375
 30
0.0
 11
0.1726725528281072
 21
10.22263548103375
 31
0.0
  0
LINE
  5
364F
330
1E
100
AcDbEntity
  8
3
100
AcDbLine
 10
-5.673784140085279
 20
4.884052803868399
 30
0.0
 11
-3.043862880242759
 21
4.884052803868399
 31
0.0
  0
LINE
  5
3650
330
1E
100
AcDbEntity
  8
3
100
AcDbLine
 10
-2.76433532118764
 20
3.340745717254229
 30
0.0
 11
-2.76433532118764
 21
3.56121815819911
 31
0.0
  0
LINE
  5
3651
330
1E
100
AcDbEntity
  8
3
100
AcDbLine
 10
2.904956017395033
 20
10.72263548103375
 30
0.0
 11
2.893144993772985
 21
10.34074571725422
 31
0.0
  0
LINE
  5
3652
330
1E
100
AcDbEntity
  8
3
100
AcDbLine
 10
5.849837907158814
 20
3.313186662136118
 30
0.0
 11
5.849837907158814
 21
4.750194536151866
 31
0.0
  0
LINE
  5
3653
330
1E
100
AcDbEntity
  8
3
100
AcDbLine
 10
5.983696174875348
 20
4.884052803868399
 30
0.0
 11
8.61361743471787
 21
4.884052803868399
 31
0.0
  0
LINE
  5
3654
330
1E
100
AcDbEntity
  8
3
100
AcDbLine
 10
5.983696174875348
 20
4.884052803868399
 30
0.0
 11
5.995507198497396
 21
4.87617878812037
 31
0.0
  0
LINE
  5
3655
330
1E
100
AcDbEntity
  8
3
100
AcDbLine
 10
5.849837907158814
 20
3.313186662136118
 30
0.0
 11
5.861648930780859
 21
3.324997685758166
 31
0.0
  0
LINE
  5
3656
330
1E
100
AcDbEntity
  8
3
100
AcDbLine
 10
8.605743418969836
 20
4.754131544025881
 30
0.0
 11
5.995507198497396
 21
4.754131544025881
 31
0.0
  0
LINE
  5
3657
330
1E
100
AcDbEntity
  8
3
100
AcDbLine
 10
8.621491450465899
 20
3.324997685758166
 30
0.0
 11
8.621491450465899
 21
4.738383512529818
 31
0.0
  0
LINE
  5
3658
330
1E
100
AcDbEntity
  8
3
100
AcDbLine
 10
5.995507198497396
 20
3.309249654262103
 30
0.0
 11
8.605743418969836
 21
3.309249654262103
 31
0.0
  0
LINE
  5
3659
330
1E
100
AcDbEntity
  8
3
100
AcDbLine
 10
5.979759167001333
 20
4.738383512529818
 30
0.0
 11
5.979759167001333
 21
3.324997685758166
 31
0.0
  0
LINE
  5
365A
330
1E
100
AcDbEntity
  8
3
100
AcDbLine
 10
0.1490505055840128
 20
4.738383512529818
 30
0.0
 11
0.1490505055840128
 21
4.348619733002259
 31
0.0
  0
LINE
  5
365B
330
1E
100
AcDbEntity
  8
3
100
AcDbLine
 10
2.790782789048577
 20
4.738383512529818
 30
0.0
 11
2.790782789048577
 21
4.348619733002259
 31
0.0
  0
LINE
  5
365C
330
1E
100
AcDbEntity
  8
3
100
AcDbLine
 10
5.668735544954088
 20
10.22263548103375
 30
0.0
 11
3.086058379599759
 21
10.22263548103375
 31
0.0
  0
LINE
  5
3661
330
1E
100
AcDbEntity
  8
3
100
AcDbLine
 10
8.901019009521018
 20
10.72263548103375
 30
0.0
 11
10.72385365519031
 21
10.72263548103375
 31
0.0
  0
LINE
  5
3662
330
1E
100
AcDbEntity
  8
3
100
AcDbLine
 10
8.503381214245425
 20
10.76594256764793
 30
0.0
 11
6.093932395347788
 21
10.76594256764793
 31
0.0
  0
LINE
  5
3663
330
1E
100
AcDbEntity
  8
3
100
AcDbLine
 10
-0.2407132739435465
 20
10.76594256764793
 30
0.0
 11
-2.650162092841185
 21
10.76594256764793
 31
0.0
  0
LINE
  5
3664
330
1E
100
AcDbEntity
  8
3
100
AcDbLine
 10
-2.910004612526224
 20
3.313186662136118
 30
0.0
 11
-2.910004612526224
 21
4.750194536151866
 31
0.0
  0
LINE
  5
3665
330
1E
100
AcDbEntity
  8
3
100
AcDbLine
 10
-2.882445557408113
 20
10.34074571725422
 30
0.0
 11
-2.894256581030161
 21
10.72263548103375
 31
0.0
  0
LINE
  5
3666
330
1E
100
AcDbEntity
  8
3
100
AcDbLine
 10
-0.004492801502602
 20
3.324997685758166
 30
0.0
 11
0.0033812142454295
 21
3.313186662136118
 31
0.0
  0
LINE
  5
3667
330
1E
100
AcDbEntity
  8
3
100
AcDbLine
 10
-2.748587289691577
 20
3.191139418041629
 30
0.0
 11
-2.760398313313626
 21
3.179328394419581
 31
0.0
  0
LINE
  5
3668
330
1E
100
AcDbEntity
  8
3
100
AcDbLine
 10
-2.886382565282129
 20
4.738383512529818
 30
0.0
 11
-2.894256581030161
 21
4.750194536151866
 31
0.0
  0
LINE
  5
3669
330
1E
100
AcDbEntity
  8
3
100
AcDbLine
 10
-2.76433532118764
 20
4.738383512529818
 30
0.0
 11
-2.76433532118764
 21
3.324997685758166
 31
0.0
  0
LINE
  5
366A
330
1E
100
AcDbEntity
  8
3
100
AcDbLine
 10
-2.748587289691577
 20
3.309249654262103
 30
0.0
 11
-0.1383510692191372
 21
3.309249654262103
 31
0.0
  0
LINE
  5
366B
330
1E
100
AcDbEntity
  8
3
100
AcDbLine
 10
-0.1265400455970909
 20
3.324997685758166
 30
0.0
 11
-0.1265400455970909
 21
4.738383512529818
 31
0.0
  0
LINE
  5
366C
330
1E
100
AcDbEntity
  8
3
100
AcDbLine
 10
-3.043862880242759
 20
3.179328394419581
 30
0.0
 11
-3.055673903864805
 21
3.191139418041629
 31
0.0
  0
LINE
  5
366D
330
1E
100
AcDbEntity
  8
3
100
AcDbLine
 10
-5.681658155833311
 20
4.738383512529818
 30
0.0
 11
-5.681658155833311
 21
4.348619733002259
 31
0.0
  0
LINE
  5
366E
330
1E
100
AcDbEntity
  8
3
100
AcDbLine
 10
-3.039925872368742
 20
4.738383512529818
 30
0.0
 11
-3.039925872368742
 21
4.348619733002259
 31
0.0
  0
LINE
  5
366F
330
1E
100
AcDbEntity
  8
3
100
AcDbLine
 10
-0.1619731164632316
 20
10.22263548103375
 30
0.0
 11
-2.740713273943546
 21
10.22263548103375
 31
0.0
  0
LINE
  5
3670
330
1E
100
AcDbEntity
  8
3
100
AcDbLine
 10
2.904956017395033
 20
10.72263548103375
 30
0.0
 11
0.7435386945603906
 21
10.72263548103375
 31
0.0
  0
LINE
  5
3671
330
1E
100
AcDbEntity
  8
3
100
AcDbLine
 10
-2.760398313313626
 20
10.72263548103375
 30
0.0
 11
-0.9375636676443335
 21
10.72263548103375
 31
0.0
  0
LINE
  5
3672
330
1E
100
AcDbEntity
  8
3
100
AcDbLine
 10
11.42070404889109
 20
10.76594256764793
 30
0.0
 11
9.011255229993459
 21
10.76594256764793
 31
0.0
  0
LINE
  5
3673
330
1E
100
AcDbEntity
  8
3
100
AcDbLine
 10
-2.92181563614827
 20
10.72263548103375
 30
0.0
 11
-5.083232958982916
 21
10.72263548103375
 31
0.0
  0
LINE
  5
3674
330
1E
100
AcDbEntity
  8
3
100
AcDbLine
 10
-3.075358943234885
 20
10.22263548103375
 30
0.0
 11
-5.658036108589216
 21
10.22263548103375
 31
0.0
  0
LINE
  5
3675
330
1E
100
AcDbEntity
  8
3
100
AcDbLine
 10
8.735664678812355
 20
10.72263548103375
 30
0.0
 11
6.574247355977711
 21
10.72263548103375
 31
0.0
  0
LINE
  5
3676
330
1E
100
AcDbEntity
  8
3
100
AcDbLine
 10
8.586058379599759
 20
10.22263548103375
 30
0.0
 11
6.003381214245429
 21
10.22263548103375
 31
0.0
  0
LINE
  5
3677
330
1E
100
AcDbEntity
  8
3
100
AcDbLine
 10
-3.055673903864805
 20
4.754131544025881
 30
0.0
 11
-5.665910124337248
 21
4.754131544025881
 31
0.0
  0
LINE
  5
3678
330
1E
100
AcDbEntity
  8
3
100
AcDbLine
 10
8.735664678812355
 20
10.72263548103375
 30
0.0
 11
8.72385365519031
 21
10.34074571725422
 31
0.0
  0
LINE
  5
3679
330
1E
100
AcDbEntity
  8
3
100
AcDbLine
 10
-5.910004612526224
 20
10.82499768575816
 30
0.0
 11
11.76322373393046
 21
10.82499768575816
 31
0.0
  0
LINE
  5
367A
330
1E
100
AcDbEntity
  8
3
100
AcDbLine
 10
-0.1383510692191372
 20
4.754131544025881
 30
0.0
 11
-2.748587289691577
 21
4.754131544025881
 31
0.0
  0
LINE
  5
367B
330
1E
100
AcDbEntity
  8
3
100
AcDbLine
 10
-2.894256581030161
 20
3.313186662136118
 30
0.0
 11
-2.886382565282129
 21
3.324997685758166
 31
0.0
  0
LINE
  5
367C
330
1E
100
AcDbEntity
  8
3
100
AcDbLine
 10
-2.760398313313626
 20
4.884052803868399
 30
0.0
 11
-2.748587289691577
 21
4.87617878812037
 31
0.0
  0
LINE
  5
367D
330
1E
100
AcDbEntity
  8
3
100
AcDbLine
 10
5.688420584324166
 20
4.87617878812037
 30
0.0
 11
5.700231607946214
 21
4.884052803868399
 31
0.0
  0
LINE
  5
367E
330
1E
100
AcDbEntity
  8
3
100
AcDbLine
 10
5.826215859914718
 20
3.324997685758166
 30
0.0
 11
5.834089875662751
 21
3.313186662136118
 31
0.0
  0
LINE
  5
367F
330
1E
100
AcDbEntity
  8
3
100
AcDbLine
 10
3.078184363851725
 20
3.191139418041629
 30
0.0
 11
3.070310348103696
 21
3.179328394419581
 31
0.0
  0
LINE
  5
3680
330
1E
100
AcDbEntity
  8
3
100
AcDbLine
 10
2.944326096135192
 20
4.738383512529818
 30
0.0
 11
2.936452080387159
 21
4.750194536151866
 31
0.0
  0
LINE
  5
3681
330
1E
100
AcDbEntity
  8
3
100
AcDbLine
 10
3.066373340229681
 20
4.738383512529818
 30
0.0
 11
3.066373340229681
 21
3.324997685758166
 31
0.0
  0
LINE
  5
3682
330
1E
100
AcDbEntity
  8
3
100
AcDbLine
 10
3.078184363851725
 20
3.309249654262103
 30
0.0
 11
5.688420584324166
 21
3.309249654262103
 31
0.0
  0
LINE
  5
3683
330
1E
100
AcDbEntity
  8
3
100
AcDbLine
 10
5.704168615820229
 20
3.324997685758166
 30
0.0
 11
5.704168615820229
 21
4.738383512529818
 31
0.0
  0
LINE
  5
3684
330
1E
100
AcDbEntity
  8
3
100
AcDbLine
 10
5.688420584324166
 20
4.754131544025881
 30
0.0
 11
3.078184363851725
 21
4.754131544025881
 31
0.0
  0
LINE
  5
3685
330
1E
100
AcDbEntity
  8
3
100
AcDbLine
 10
2.936452080387159
 20
3.313186662136118
 30
0.0
 11
2.944326096135192
 21
3.324997685758166
 31
0.0
  0
LINE
  5
3686
330
1E
100
AcDbEntity
  8
3
100
AcDbLine
 10
3.070310348103696
 20
4.884052803868399
 30
0.0
 11
3.078184363851725
 21
4.87617878812037
 31
0.0
  0
LINE
  5
3687
330
1E
100
AcDbEntity
  8
3
100
AcDbLine
 10
3.070310348103696
 20
4.884052803868399
 30
0.0
 11
5.700231607946214
 21
4.884052803868399
 31
0.0
  0
LINE
  5
3688
330
1E
100
AcDbEntity
  8
3
100
AcDbLine
 10
2.936452080387159
 20
3.313186662136118
 30
0.0
 11
2.936452080387159
 21
4.750194536151866
 31
0.0
  0
LINE
  5
3689
330
1E
100
AcDbEntity
  8
3
100
AcDbLine
 10
5.834089875662751
 20
4.750194536151866
 30
0.0
 11
5.826215859914718
 21
4.738383512529818
 31
0.0
  0
LINE
  5
368A
330
1E
100
AcDbEntity
  8
3
100
AcDbLine
 10
5.834089875662751
 20
3.313186662136118
 30
0.0
 11
5.834089875662751
 21
4.750194536151866
 31
0.0
  0
LINE
  5
368B
330
1E
100
AcDbEntity
  8
3
100
AcDbLine
 10
5.700231607946214
 20
3.179328394419581
 30
0.0
 11
5.688420584324166
 21
3.191139418041629
 31
0.0
  0
LINE
  5
368C
330
1E
100
AcDbEntity
  8
3
100
AcDbLine
 10
3.066373340229681
 20
4.738383512529818
 30
0.0
 11
3.066373340229681
 21
4.348619733002259
 31
0.0
  0
LINE
  5
368D
330
1E
100
AcDbEntity
  8
3
100
AcDbLine
 10
5.704168615820229
 20
4.738383512529818
 30
0.0
 11
5.704168615820229
 21
4.348619733002259
 31
0.0
  0
LINE
  5
368E
330
1E
100
AcDbEntity
  8
3
100
AcDbLine
 10
11.53487727723755
 20
3.324997685758166
 30
0.0
 11
11.53487727723755
 21
4.738383512529818
 31
0.0
  0
LINE
  5
368F
330
1E
100
AcDbEntity
  8
3
100
AcDbLine
 10
11.51912924574148
 20
4.754131544025881
 30
0.0
 11
8.908893025269048
 21
4.754131544025881
 31
0.0
  0
LINE
  5
3690
330
1E
100
AcDbEntity
  8
3
100
AcDbLine
 10
0.1529875134580276
 20
4.884052803868399
 30
0.0
 11
0.1647985370800757
 21
4.87617878812037
 31
0.0
  0
LINE
  5
3691
330
1E
100
AcDbEntity
  8
3
100
AcDbLine
 10
-5.673784140085279
 20
10.72263548103375
 30
0.0
 11
-3.850949494415987
 21
10.72263548103375
 31
0.0
  0
LINE
  5
3692
330
1E
100
AcDbEntity
  8
3
100
AcDbLine
 10
-5.665910124337248
 20
3.191139418041629
 30
0.0
 11
-5.673784140085279
 21
3.179328394419581
 31
0.0
  0
LINE
  5
3693
330
1E
100
AcDbEntity
  8
3
100
AcDbLine
 10
5.979759167001333
 20
3.340745717254229
 30
0.0
 11
5.979759167001333
 21
3.56121815819911
 31
0.0
  0
LINE
  5
3694
330
1E
100
AcDbEntity
  8
3
100
AcDbLine
 10
2.676609560702122
 20
10.82499768575816
 30
0.0
 11
0.2632237339304684
 21
10.82499768575816
 31
0.0
  0
LINE
  5
3695
330
1E
100
AcDbEntity
  8
3
100
AcDbLine
 10
3.180546568576136
 20
10.76594256764793
 30
0.0
 11
5.589995387473774
 21
10.76594256764793
 31
0.0
  0
LINE
  5
3696
330
1E
100
AcDbEntity
  8
3
100
AcDbLine
 10
-2.760398313313626
 20
4.884052803868399
 30
0.0
 11
-0.1304770534711057
 21
4.884052803868399
 31
0.0
  0
LINE
  5
3697
330
1E
100
AcDbEntity
  8
3
100
AcDbLine
 10
-2.894256581030161
 20
3.313186662136118
 30
0.0
 11
-2.894256581030161
 21
4.750194536151866
 31
0.0
  0
LINE
  5
3698
330
1E
100
AcDbEntity
  8
3
100
AcDbLine
 10
0.0033812142454295
 20
4.750194536151866
 30
0.0
 11
-0.004492801502602
 21
4.738383512529818
 31
0.0
  0
LINE
  5
3699
330
1E
100
AcDbEntity
  8
3
100
AcDbLine
 10
0.1490505055840128
 20
3.340745717254229
 30
0.0
 11
0.1490505055840128
 21
3.56121815819911
 31
0.0
  0
LINE
  5
369A
330
1E
100
AcDbEntity
  8
3
100
AcDbLine
 10
0.0033812142454295
 20
3.313186662136118
 30
0.0
 11
0.0033812142454295
 21
4.750194536151866
 31
0.0
  0
LINE
  5
369B
330
1E
100
AcDbEntity
  8
3
100
AcDbLine
 10
-0.1304770534711057
 20
3.179328394419581
 30
0.0
 11
-0.1383510692191372
 21
3.191139418041629
 31
0.0
  0
LINE
  5
369C
330
1E
100
AcDbEntity
  8
3
100
AcDbLine
 10
-2.76433532118764
 20
4.738383512529818
 30
0.0
 11
-2.76433532118764
 21
4.348619733002259
 31
0.0
  0
LINE
  5
369D
330
1E
100
AcDbEntity
  8
3
100
AcDbLine
 10
-0.1265400455970909
 20
4.738383512529818
 30
0.0
 11
-0.1265400455970909
 21
4.348619733002259
 31
0.0
  0
LINE
  5
369E
330
1E
100
AcDbEntity
  8
3
100
AcDbLine
 10
-0.0084298093766169
 20
10.72263548103375
 30
0.0
 11
-0.020240832998665
 21
10.34074571725422
 31
0.0
  0
LINE
  5
369F
330
1E
100
AcDbEntity
  8
3
100
AcDbLine
 10
8.503381214245425
 20
10.76594256764793
 30
0.0
 11
6.093932395347788
 21
10.76594256764793
 31
0.0
  0
LINE
  5
36A0
330
1E
100
AcDbEntity
  8
3
100
AcDbLine
 10
8.503381214245425
 20
10.82499768575816
 30
0.0
 11
6.093932395347788
 21
10.82499768575816
 31
0.0
  0
LINE
  5
36EC
330
1E
100
AcDbEntity
  8
3
100
AcDbLine
 10
-6.370634533786066
 20
4.537596110955014
 30
0.0
 11
-6.299768392053781
 21
4.517911071584936
 31
0.0
  0
LINE
  5
36FA
330
1E
100
AcDbEntity
  8
3
100
AcDbLine
 10
-6.102917998352996
 20
4.773816583395959
 30
0.0
 11
-6.173784140085277
 21
4.79350162276604
 31
0.0
  0
LINE
  5
377B
330
1E
100
AcDbEntity
  8
3
100
AcDbLine
 10
-6.508429809376618
 20
10.82499768575816
 30
0.0
 11
-6.555673903864807
 21
10.82499768575816
 31
0.0
  0
LINE
  5
377C
330
1E
100
AcDbEntity
  8
3
100
AcDbLine
 10
-6.555673903864807
 20
10.82499768575816
 30
0.0
 11
-6.57142193536087
 21
10.82499768575816
 31
0.0
  0
LINE
  5
378C
330
1E
100
AcDbEntity
  8
3
100
AcDbLine
 10
11.64117648983597
 20
11.26987957552194
 30
0.0
 11
11.68448357645015
 21
11.25019453615186
 31
0.0
  0
LINE
  5
378D
330
1E
100
AcDbEntity
  8
3
100
AcDbLine
 10
11.68448357645015
 20
11.25019453615186
 30
0.0
 11
11.70416861582022
 21
11.20688744953769
 31
0.0
  0
LINE
  5
3834
330
1E
100
AcDbEntity
  8
3
100
AcDbLine
 10
-0.1422880770931538
 20
10.22657248890777
 30
0.0
 11
-0.0596109117388224
 21
10.25806855189989
 31
0.0
  0
LINE
  5
3835
330
1E
100
AcDbEntity
  8
3
100
AcDbLine
 10
-0.0596109117388224
 20
10.25806855189989
 30
0.0
 11
-0.0241778408726798
 21
10.34074571725422
 31
0.0
  0
LINE
  5
396A
330
1E
100
AcDbEntity
  8
3
100
AcDbLine
 10
-3.055673903864805
 20
10.22657248890777
 30
0.0
 11
-2.972996738510476
 21
10.25806855189989
 31
0.0
  0
LINE
  5
396B
330
1E
100
AcDbEntity
  8
3
100
AcDbLine
 10
-2.972996738510476
 20
10.25806855189989
 30
0.0
 11
-2.937563667644333
 21
10.34074571725422
 31
0.0
  0
LINE
  5
397B
330
1E
100
AcDbEntity
  8
3
100
AcDbLine
 10
-3.039925872368742
 20
4.738383512529818
 30
0.0
 11
-3.020240832998664
 21
4.738383512529818
 31
0.0
  0
LINE
  5
397C
330
1E
100
AcDbEntity
  8
3
100
AcDbLine
 10
-3.020240832998664
 20
4.738383512529818
 30
0.0
 11
-3.012366817250633
 21
4.738383512529818
 31
0.0
  0
LINE
  5
399B
330
1E
100
AcDbEntity
  8
3
100
AcDbLine
 10
8.605743418969836
 20
4.781690599143992
 30
0.0
 11
8.605743418969836
 21
4.773816583395959
 31
0.0
  0
LINE
  5
399C
330
1E
100
AcDbEntity
  8
3
100
AcDbLine
 10
8.605743418969836
 20
4.773816583395959
 30
0.0
 11
8.605743418969836
 21
4.754131544025881
 31
0.0
  0
LINE
  5
39BB
330
1E
100
AcDbEntity
  8
3
100
AcDbLine
 10
0.0348772772375554
 20
10.34074571725422
 30
0.0
 11
0.070310348103698
 21
10.25806855189989
 31
0.0
  0
LINE
  5
39BC
330
1E
100
AcDbEntity
  8
3
100
AcDbLine
 10
0.070310348103698
 20
10.25806855189989
 30
0.0
 11
0.1529875134580276
 21
10.22657248890777
 31
0.0
  0
LINE
  5
39C7
330
1E
100
AcDbEntity
  8
3
100
AcDbLine
 10
-5.705280203077405
 20
4.738383512529818
 30
0.0
 11
-5.697406187329374
 21
4.738383512529818
 31
0.0
  0
LINE
  5
39C8
330
1E
100
AcDbEntity
  8
3
100
AcDbLine
 10
-5.697406187329374
 20
4.738383512529818
 30
0.0
 11
-5.681658155833311
 21
4.738383512529818
 31
0.0
  0
LINE
  5
3A08
330
1E
100
AcDbEntity
  8
3
100
AcDbLine
 10
5.999444206371411
 20
10.22263548103375
 30
0.0
 11
5.983696174875348
 21
10.22263548103375
 31
0.0
  0
LINE
  5
3A09
330
1E
100
AcDbEntity
  8
3
100
AcDbLine
 10
-3.055673903864805
 20
3.309249654262103
 30
0.0
 11
-3.039925872368742
 21
3.324997685758166
 31
0.0
  0
LINE
  5
3A10
330
1E
100
AcDbEntity
  8
3
100
AcDbLine
 10
8.908893025269048
 20
4.754131544025881
 30
0.0
 11
8.893144993772985
 21
4.738383512529818
 31
0.0
  0
LINE
  5
3A11
330
1E
100
AcDbEntity
  8
3
100
AcDbLine
 10
5.688420584324166
 20
3.309249654262103
 30
0.0
 11
5.704168615820229
 21
3.324997685758166
 31
0.0
  0
LINE
  5
3A18
330
1E
100
AcDbEntity
  8
3
100
AcDbLine
 10
8.621491450465899
 20
4.738383512529818
 30
0.0
 11
8.605743418969836
 21
4.754131544025881
 31
0.0
  0
LINE
  5
3A19
330
1E
100
AcDbEntity
  8
3
100
AcDbLine
 10
8.605743418969836
 20
3.309249654262103
 30
0.0
 11
8.621491450465899
 21
3.324997685758166
 31
0.0
  0
LINE
  5
3A1A
330
1E
100
AcDbEntity
  8
3
100
AcDbLine
 10
2.790782789048577
 20
4.738383512529818
 30
0.0
 11
2.775034757552514
 21
4.754131544025881
 31
0.0
  0
LINE
  5
3A1B
330
1E
100
AcDbEntity
  8
3
100
AcDbLine
 10
0.1647985370800757
 20
4.754131544025881
 30
0.0
 11
0.1490505055840128
 21
4.738383512529818
 31
0.0
  0
LINE
  5
3A1C
330
1E
100
AcDbEntity
  8
3
100
AcDbLine
 10
-3.039925872368742
 20
4.738383512529818
 30
0.0
 11
-3.055673903864805
 21
4.754131544025881
 31
0.0
  0
LINE
  5
3A1D
330
1E
100
AcDbEntity
  8
3
100
AcDbLine
 10
3.078184363851725
 20
4.754131544025881
 30
0.0
 11
3.066373340229681
 21
4.738383512529818
 31
0.0
  0
LINE
  5
3A1E
330
1E
100
AcDbEntity
  8
3
100
AcDbLine
 10
5.704168615820229
 20
4.738383512529818
 30
0.0
 11
5.688420584324166
 21
4.754131544025881
 31
0.0
  0
LINE
  5
3A1F
330
1E
100
AcDbEntity
  8
3
100
AcDbLine
 10
0.1647985370800757
 20
4.754131544025881
 30
0.0
 11
0.1490505055840128
 21
4.738383512529818
 31
0.0
  0
LINE
  5
3A20
330
1E
100
AcDbEntity
  8
3
100
AcDbLine
 10
0.1490505055840128
 20
3.324997685758166
 30
0.0
 11
0.1647985370800757
 21
3.309249654262103
 31
0.0
  0
LINE
  5
3A21
330
1E
100
AcDbEntity
  8
3
100
AcDbLine
 10
2.775034757552514
 20
3.309249654262103
 30
0.0
 11
2.790782789048577
 21
3.324997685758166
 31
0.0
  0
LINE
  5
3A22
330
1E
100
AcDbEntity
  8
3
100
AcDbLine
 10
2.790782789048577
 20
4.738383512529818
 30
0.0
 11
2.775034757552514
 21
4.754131544025881
 31
0.0
  0
LINE
  5
3A23
330
1E
100
AcDbEntity
  8
3
100
AcDbLine
 10
5.704168615820229
 20
4.738383512529818
 30
0.0
 11
5.688420584324166
 21
4.754131544025881
 31
0.0
  0
LINE
  5
3A24
330
1E
100
AcDbEntity
  8
3
100
AcDbLine
 10
3.066373340229681
 20
3.324997685758166
 30
0.0
 11
3.078184363851725
 21
3.309249654262103
 31
0.0
  0
LINE
  5
3A25
330
1E
100
AcDbEntity
  8
3
100
AcDbLine
 10
3.078184363851725
 20
4.754131544025881
 30
0.0
 11
3.066373340229681
 21
4.738383512529818
 31
0.0
  0
LINE
  5
3A31
330
1E
100
AcDbEntity
  8
3
100
AcDbLine
 10
11.5978694032218
 20
4.868304772372336
 30
0.0
 11
11.53094026936353
 21
4.884052803868399
 31
0.0
  0
LINE
  5
3A3E
330
1E
100
AcDbEntity
  8
3
100
AcDbLine
 10
8.893144993772985
 20
3.324997685758166
 30
0.0
 11
8.908893025269048
 21
3.309249654262103
 31
0.0
  0
LINE
  5
3A3F
330
1E
100
AcDbEntity
  8
3
100
AcDbLine
 10
11.51912924574148
 20
3.309249654262103
 30
0.0
 11
11.53487727723755
 21
3.324997685758166
 31
0.0
  0
LINE
  5
3A46
330
1E
100
AcDbEntity
  8
3
100
AcDbLine
 10
11.53487727723755
 20
4.738383512529818
 30
0.0
 11
11.51912924574148
 21
4.754131544025881
 31
0.0
  0
LINE
  5
3A4D
330
1E
100
AcDbEntity
  8
3
100
AcDbLine
 10
11.53487727723755
 20
4.738383512529818
 30
0.0
 11
11.51912924574148
 21
4.754131544025881
 31
0.0
  0
LINE
  5
3A4E
330
1E
100
AcDbEntity
  8
3
100
AcDbLine
 10
8.908893025269048
 20
4.754131544025881
 30
0.0
 11
8.893144993772985
 21
4.738383512529818
 31
0.0
  0
LINE
  5
3A80
330
1E
100
AcDbEntity
  8
3
100
AcDbLine
 10
-5.681658155833311
 20
3.324997685758166
 30
0.0
 11
-5.665910124337248
 21
3.309249654262103
 31
0.0
  0
LINE
  5
3A81
330
1E
100
AcDbEntity
  8
3
100
AcDbLine
 10
-5.665910124337248
 20
4.754131544025881
 30
0.0
 11
-5.681658155833311
 21
4.738383512529818
 31
0.0
  0
LINE
  5
3A82
330
1E
100
AcDbEntity
  8
3
100
AcDbLine
 10
-5.665910124337248
 20
4.754131544025881
 30
0.0
 11
-5.681658155833311
 21
4.738383512529818
 31
0.0
  0
LINE
  5
3A83
330
1E
100
AcDbEntity
  8
3
100
AcDbLine
 10
-2.748587289691577
 20
4.754131544025881
 30
0.0
 11
-2.76433532118764
 21
4.738383512529818
 31
0.0
  0
LINE
  5
3A84
330
1E
100
AcDbEntity
  8
3
100
AcDbLine
 10
-2.748587289691577
 20
4.754131544025881
 30
0.0
 11
-2.76433532118764
 21
4.738383512529818
 31
0.0
  0
LINE
  5
3A85
330
1E
100
AcDbEntity
  8
3
100
AcDbLine
 10
-2.76433532118764
 20
3.324997685758166
 30
0.0
 11
-2.748587289691577
 21
3.309249654262103
 31
0.0
  0
LINE
  5
3A8C
330
1E
100
AcDbEntity
  8
3
100
AcDbLine
 10
0.1687355449540906
 20
10.22263548103375
 30
0.0
 11
0.1529875134580276
 21
10.22263548103375
 31
0.0
  0
LINE
  5
3A93
330
1E
100
AcDbEntity
  8
3
100
AcDbLine
 10
3.082121371725744
 20
10.22263548103375
 30
0.0
 11
3.066373340229681
 21
10.22263548103375
 31
0.0
  0
LINE
  5
3A99
330
1E
100
AcDbEntity
  8
3
100
AcDbLine
 10
5.916767041017081
 20
3.199013433789659
 30
0.0
 11
5.983696174875348
 21
3.179328394419581
 31
0.0
  0
LINE
  5
3AA0
330
1E
100
AcDbEntity
  8
3
100
AcDbLine
 10
8.621491450465899
 20
4.738383512529818
 30
0.0
 11
8.605743418969836
 21
4.754131544025881
 31
0.0
  0
LINE
  5
3AA1
330
1E
100
AcDbEntity
  8
3
100
AcDbLine
 10
5.995507198497396
 20
4.754131544025881
 30
0.0
 11
5.979759167001333
 21
4.738383512529818
 31
0.0
  0
LINE
  5
3AA2
330
1E
100
AcDbEntity
  8
3
100
AcDbLine
 10
0.1529875134580276
 20
4.884052803868399
 30
0.0
 11
0.0860583795997609
 21
4.868304772372336
 31
0.0
  0
LINE
  5
3AB4
330
1E
100
AcDbEntity
  8
3
100
AcDbLine
 10
-3.039925872368742
 20
4.738383512529818
 30
0.0
 11
-3.055673903864805
 21
4.754131544025881
 31
0.0
  0
LINE
  5
3AB5
330
1E
100
AcDbEntity
  8
3
100
AcDbLine
 10
5.995507198497396
 20
4.754131544025881
 30
0.0
 11
5.979759167001333
 21
4.738383512529818
 31
0.0
  0
LINE
  5
3AB6
330
1E
100
AcDbEntity
  8
3
100
AcDbLine
 10
5.979759167001333
 20
3.324997685758166
 30
0.0
 11
5.995507198497396
 21
3.309249654262103
 31
0.0
  0
LINE
  5
3AB7
330
1E
100
AcDbEntity
  8
3
100
AcDbLine
 10
8.912830033143066
 20
10.22263548103375
 30
0.0
 11
8.897082001647003
 21
10.22263548103375
 31
0.0
  0
LINE
  5
3ABE
330
1E
100
AcDbEntity
  8
3
100
AcDbLine
 10
-0.1265400455970909
 20
4.738383512529818
 30
0.0
 11
-0.1383510692191372
 21
4.754131544025881
 31
0.0
  0
LINE
  5
3AD0
330
1E
100
AcDbEntity
  8
3
100
AcDbLine
 10
-0.063547919612839
 20
4.868304772372336
 30
0.0
 11
-0.1304770534711057
 21
4.884052803868399
 31
0.0
  0
LINE
  5
3AD7
330
1E
100
AcDbEntity
  8
3
100
AcDbLine
 10
-5.661973116463231
 20
10.22263548103375
 30
0.0
 11
-5.677721147959294
 21
10.22263548103375
 31
0.0
  0
LINE
  5
3ADE
330
1E
100
AcDbEntity
  8
3
100
AcDbLine
 10
-2.748587289691577
 20
10.22263548103375
 30
0.0
 11
-2.760398313313626
 21
10.22263548103375
 31
0.0
  0
LINE
  5
3ADF
330
1E
100
AcDbEntity
  8
3
100
AcDbLine
 10
-0.1265400455970909
 20
4.738383512529818
 30
0.0
 11
-0.1383510692191372
 21
4.754131544025881
 31
0.0
  0
LINE
  5
3AE0
330
1E
100
AcDbEntity
  8
3
100
AcDbLine
 10
-0.1383510692191372
 20
3.309249654262103
 30
0.0
 11
-0.1265400455970909
 21
3.324997685758166
 31
0.0
  0
LINE
  5
3B22
330
1E
100
AcDbEntity
  8
3
100
AcDbLine
 10
11.70416861582022
 20
4.828934693632181
 30
0.0
 11
11.71204263156826
 21
4.80137563851407
 31
0.0
  0
LINE
  5
3B23
330
1E
100
AcDbEntity
  8
3
100
AcDbLine
 10
11.71204263156826
 20
4.80137563851407
 30
0.0
 11
11.76322373393046
 21
4.769879575521944
 31
0.0
  0
LINE
  5
3B24
330
1E
100
AcDbEntity
  8
3
100
AcDbLine
 10
11.70416861582022
 20
3.230509496781788
 30
0.0
 11
11.71204263156826
 21
3.262005559773914
 31
0.0
  0
LINE
  5
3B25
330
1E
100
AcDbEntity
  8
3
100
AcDbLine
 10
11.71204263156826
 20
3.262005559773914
 30
0.0
 11
11.76322373393046
 21
3.29350162276604
 31
0.0
  0
LINE
  5
3B26
330
1E
100
AcDbEntity
  8
3
100
AcDbLine
 10
-5.847012486541972
 20
3.230509496781788
 30
0.0
 11
-5.854886502290003
 21
3.262005559773914
 31
0.0
  0
LINE
  5
3B27
330
1E
100
AcDbEntity
  8
3
100
AcDbLine
 10
-5.854886502290003
 20
3.262005559773914
 30
0.0
 11
-5.910004612526224
 21
3.29350162276604
 31
0.0
  0
LINE
  5
3B28
330
1E
100
AcDbEntity
  8
3
100
AcDbLine
 10
-5.847012486541972
 20
3.230509496781788
 30
0.0
 11
-5.854886502290003
 21
3.262005559773914
 31
0.0
  0
LINE
  5
3B29
330
1E
100
AcDbEntity
  8
3
100
AcDbLine
 10
-5.854886502290003
 20
3.262005559773914
 30
0.0
 11
-5.910004612526224
 21
3.29350162276604
 31
0.0
  0
LINE
  5
3B2A
330
1E
100
AcDbEntity
  8
3
100
AcDbLine
 10
-5.847012486541972
 20
4.828934693632181
 30
0.0
 11
-5.854886502290003
 21
4.80137563851407
 31
0.0
  0
LINE
  5
3B2B
330
1E
100
AcDbEntity
  8
3
100
AcDbLine
 10
-5.854886502290003
 20
4.80137563851407
 30
0.0
 11
-5.910004612526224
 21
4.769879575521944
 31
0.0
  0
LINE
  5
3B2C
330
1E
100
AcDbEntity
  8
3
100
AcDbLine
 10
-5.847012486541972
 20
4.828934693632181
 30
0.0
 11
-5.854886502290003
 21
4.80137563851407
 31
0.0
  0
LINE
  5
3B2D
330
1E
100
AcDbEntity
  8
3
100
AcDbLine
 10
-5.854886502290003
 20
4.80137563851407
 30
0.0
 11
-5.910004612526224
 21
4.769879575521944
 31
0.0
  0
LINE
  5
3B2E
330
1E
100
AcDbEntity
  8
3
100
AcDbLine
 10
11.70416861582022
 20
4.828934693632181
 30
0.0
 11
11.71204263156826
 21
4.80137563851407
 31
0.0
  0
LINE
  5
3B2F
330
1E
100
AcDbEntity
  8
3
100
AcDbLine
 10
11.71204263156826
 20
4.80137563851407
 30
0.0
 11
11.76322373393046
 21
4.769879575521944
 31
0.0
  0
LINE
  5
3B30
330
1E
100
AcDbEntity
  8
3
100
AcDbLine
 10
11.70416861582022
 20
3.230509496781788
 30
0.0
 11
11.71204263156826
 21
3.262005559773914
 31
0.0
  0
LINE
  5
3B31
330
1E
100
AcDbEntity
  8
3
100
AcDbLine
 10
11.71204263156826
 20
3.262005559773914
 30
0.0
 11
11.76322373393046
 21
3.29350162276604
 31
0.0
  0
LINE
  5
3B32
330
1E
100
AcDbEntity
  8
3
100
AcDbLine
 10
-2.760398313313626
 20
10.72263548103375
 30
0.0
 11
-2.827327447171892
 21
10.72263548103375
 31
0.0
  0
LINE
  5
3B33
330
1E
100
AcDbEntity
  8
3
100
AcDbLine
 10
-2.827327447171892
 20
10.72263548103375
 30
0.0
 11
-2.878508549534098
 21
10.72263548103375
 31
0.0
  0
LINE
  5
3B34
330
1E
100
AcDbEntity
  8
3
100
AcDbLine
 10
-2.878508549534098
 20
10.72263548103375
 30
0.0
 11
-2.894256581030161
 21
10.72263548103375
 31
0.0
  0
LINE
  5
3B35
330
1E
100
AcDbEntity
  8
3
100
AcDbLine
 10
-0.1304770534711057
 20
3.179328394419581
 30
0.0
 11
-0.063547919612839
 21
3.199013433789659
 31
0.0
  0
LINE
  5
3B36
330
1E
100
AcDbEntity
  8
3
100
AcDbLine
 10
-0.063547919612839
 20
3.199013433789659
 30
0.0
 11
-0.0123668172506335
 21
3.246257528277851
 31
0.0
  0
LINE
  5
3B37
330
1E
100
AcDbEntity
  8
3
100
AcDbLine
 10
-0.0123668172506335
 20
3.246257528277851
 30
0.0
 11
0.0033812142454295
 21
3.313186662136118
 31
0.0
  0
LINE
  5
3B38
330
1E
100
AcDbEntity
  8
3
100
AcDbLine
 10
0.0033812142454295
 20
4.750194536151866
 30
0.0
 11
-0.0123668172506335
 21
4.817123670010133
 31
0.0
  0
LINE
  5
3B39
330
1E
100
AcDbEntity
  8
3
100
AcDbLine
 10
-0.0123668172506335
 20
4.817123670010133
 30
0.0
 11
-0.063547919612839
 21
4.868304772372336
 31
0.0
  0
LINE
  5
3B3A
330
1E
100
AcDbEntity
  8
3
100
AcDbLine
 10
-2.894256581030161
 20
3.313186662136118
 30
0.0
 11
-2.878508549534098
 21
3.246257528277851
 31
0.0
  0
LINE
  5
3B3B
330
1E
100
AcDbEntity
  8
3
100
AcDbLine
 10
-2.878508549534098
 20
3.246257528277851
 30
0.0
 11
-2.827327447171892
 21
3.199013433789659
 31
0.0
  0
LINE
  5
3B3C
330
1E
100
AcDbEntity
  8
3
100
AcDbLine
 10
-2.827327447171892
 20
3.199013433789659
 30
0.0
 11
-2.760398313313626
 21
3.179328394419581
 31
0.0
  0
LINE
  5
3B3D
330
1E
100
AcDbEntity
  8
3
100
AcDbLine
 10
-2.760398313313626
 20
4.884052803868399
 30
0.0
 11
-2.827327447171892
 21
4.868304772372336
 31
0.0
  0
LINE
  5
3B3E
330
1E
100
AcDbEntity
  8
3
100
AcDbLine
 10
-2.827327447171892
 20
4.868304772372336
 30
0.0
 11
-2.878508549534098
 21
4.817123670010133
 31
0.0
  0
LINE
  5
3B3F
330
1E
100
AcDbEntity
  8
3
100
AcDbLine
 10
-2.878508549534098
 20
4.817123670010133
 30
0.0
 11
-2.894256581030161
 21
4.750194536151866
 31
0.0
  0
LINE
  5
3B40
330
1E
100
AcDbEntity
  8
3
100
AcDbLine
 10
-5.673784140085279
 20
10.72263548103375
 30
0.0
 11
-5.740713273943546
 21
10.72263548103375
 31
0.0
  0
LINE
  5
3B41
330
1E
100
AcDbEntity
  8
3
100
AcDbLine
 10
-5.740713273943546
 20
10.72263548103375
 30
0.0
 11
-5.791894376305751
 21
10.72263548103375
 31
0.0
  0
LINE
  5
3B42
330
1E
100
AcDbEntity
  8
3
100
AcDbLine
 10
-5.791894376305751
 20
10.72263548103375
 30
0.0
 11
-5.811579415675829
 21
10.72263548103375
 31
0.0
  0
LINE
  5
3B43
330
1E
100
AcDbEntity
  8
3
100
AcDbLine
 10
2.920704048891096
 20
4.750194536151866
 30
0.0
 11
2.901019009521018
 21
4.817123670010133
 31
0.0
  0
LINE
  5
3B44
330
1E
100
AcDbEntity
  8
3
100
AcDbLine
 10
2.901019009521018
 20
4.817123670010133
 30
0.0
 11
2.853774915032829
 21
4.868304772372336
 31
0.0
  0
LINE
  5
3B45
330
1E
100
AcDbEntity
  8
3
100
AcDbLine
 10
2.853774915032829
 20
4.868304772372336
 30
0.0
 11
2.786845781174562
 21
4.884052803868399
 31
0.0
  0
LINE
  5
3B46
330
1E
100
AcDbEntity
  8
3
100
AcDbLine
 10
0.0191292457414925
 20
3.313186662136118
 30
0.0
 11
0.038814285111572
 21
3.246257528277851
 31
0.0
  0
LINE
  5
3B47
330
1E
100
AcDbEntity
  8
3
100
AcDbLine
 10
0.038814285111572
 20
3.246257528277851
 30
0.0
 11
0.0860583795997609
 21
3.199013433789659
 31
0.0
  0
LINE
  5
3B48
330
1E
100
AcDbEntity
  8
3
100
AcDbLine
 10
0.0860583795997609
 20
3.199013433789659
 30
0.0
 11
0.1529875134580276
 21
3.179328394419581
 31
0.0
  0
LINE
  5
3B49
330
1E
100
AcDbEntity
  8
3
100
AcDbLine
 10
0.0860583795997609
 20
4.868304772372336
 30
0.0
 11
0.038814285111572
 21
4.817123670010133
 31
0.0
  0
LINE
  5
3B4A
330
1E
100
AcDbEntity
  8
3
100
AcDbLine
 10
0.038814285111572
 20
4.817123670010133
 30
0.0
 11
0.0191292457414925
 21
4.750194536151866
 31
0.0
  0
LINE
  5
3B4B
330
1E
100
AcDbEntity
  8
3
100
AcDbLine
 10
5.983696174875348
 20
4.884052803868399
 30
0.0
 11
5.916767041017081
 21
4.868304772372336
 31
0.0
  0
LINE
  5
3B4C
330
1E
100
AcDbEntity
  8
3
100
AcDbLine
 10
5.916767041017081
 20
4.868304772372336
 30
0.0
 11
5.869522946528892
 21
4.817123670010133
 31
0.0
  0
LINE
  5
3B4D
330
1E
100
AcDbEntity
  8
3
100
AcDbLine
 10
5.869522946528892
 20
4.817123670010133
 30
0.0
 11
5.849837907158814
 21
4.750194536151866
 31
0.0
  0
LINE
  5
3B4E
330
1E
100
AcDbEntity
  8
3
100
AcDbLine
 10
5.849837907158814
 20
3.313186662136118
 30
0.0
 11
5.869522946528892
 21
3.246257528277851
 31
0.0
  0
LINE
  5
3B4F
330
1E
100
AcDbEntity
  8
3
100
AcDbLine
 10
5.869522946528892
 20
3.246257528277851
 30
0.0
 11
5.916767041017081
 21
3.199013433789659
 31
0.0
  0
LINE
  5
3B50
330
1E
100
AcDbEntity
  8
3
100
AcDbLine
 10
-5.673784140085279
 20
4.884052803868399
 30
0.0
 11
-5.740713273943546
 21
4.868304772372336
 31
0.0
  0
LINE
  5
3B51
330
1E
100
AcDbEntity
  8
3
100
AcDbLine
 10
-5.740713273943546
 20
4.868304772372336
 30
0.0
 11
-5.791894376305751
 21
4.817123670010133
 31
0.0
  0
LINE
  5
3B52
330
1E
100
AcDbEntity
  8
3
100
AcDbLine
 10
-5.791894376305751
 20
4.817123670010133
 30
0.0
 11
-5.811579415675829
 21
4.750194536151866
 31
0.0
  0
LINE
  5
3B53
330
1E
100
AcDbEntity
  8
3
100
AcDbLine
 10
3.070310348103696
 20
10.72263548103375
 30
0.0
 11
3.003381214245429
 21
10.72263548103375
 31
0.0
  0
LINE
  5
3B54
330
1E
100
AcDbEntity
  8
3
100
AcDbLine
 10
3.003381214245429
 20
10.72263548103375
 30
0.0
 11
2.952200111883222
 21
10.72263548103375
 31
0.0
  0
LINE
  5
3B55
330
1E
100
AcDbEntity
  8
3
100
AcDbLine
 10
2.952200111883222
 20
10.72263548103375
 30
0.0
 11
2.936452080387159
 21
10.72263548103375
 31
0.0
  0
LINE
  5
3B56
330
1E
100
AcDbEntity
  8
3
100
AcDbLine
 10
-3.043862880242759
 20
3.179328394419581
 30
0.0
 11
-2.97693374638449
 21
3.199013433789659
 31
0.0
  0
LINE
  5
3B57
330
1E
100
AcDbEntity
  8
3
100
AcDbLine
 10
-2.97693374638449
 20
3.199013433789659
 30
0.0
 11
-2.929689651896302
 21
3.246257528277851
 31
0.0
  0
LINE
  5
3B58
330
1E
100
AcDbEntity
  8
3
100
AcDbLine
 10
-2.929689651896302
 20
3.246257528277851
 30
0.0
 11
-2.910004612526224
 21
3.313186662136118
 31
0.0
  0
LINE
  5
3B59
330
1E
100
AcDbEntity
  8
3
100
AcDbLine
 10
-2.910004612526224
 20
4.750194536151866
 30
0.0
 11
-2.929689651896302
 21
4.817123670010133
 31
0.0
  0
LINE
  5
3B5A
330
1E
100
AcDbEntity
  8
3
100
AcDbLine
 10
-2.929689651896302
 20
4.817123670010133
 30
0.0
 11
-2.97693374638449
 21
4.868304772372336
 31
0.0
  0
LINE
  5
3B5B
330
1E
100
AcDbEntity
  8
3
100
AcDbLine
 10
-2.97693374638449
 20
4.868304772372336
 30
0.0
 11
-3.043862880242759
 21
4.884052803868399
 31
0.0
  0
LINE
  5
3B6C
330
1E
100
AcDbEntity
  8
3
100
AcDbLine
 10
-5.811579415675829
 20
3.313186662136118
 30
0.0
 11
-5.791894376305751
 21
3.246257528277851
 31
0.0
  0
LINE
  5
3B6D
330
1E
100
AcDbEntity
  8
3
100
AcDbLine
 10
-5.791894376305751
 20
3.246257528277851
 30
0.0
 11
-5.740713273943546
 21
3.199013433789659
 31
0.0
  0
LINE
  5
3B6E
330
1E
100
AcDbEntity
  8
3
100
AcDbLine
 10
-5.740713273943546
 20
3.199013433789659
 30
0.0
 11
-5.673784140085279
 21
3.179328394419581
 31
0.0
  0
LINE
  5
3B6F
330
1E
100
AcDbEntity
  8
3
100
AcDbLine
 10
8.901019009521018
 20
4.884052803868399
 30
0.0
 11
8.834089875662751
 21
4.868304772372336
 31
0.0
  0
LINE
  5
3B70
330
1E
100
AcDbEntity
  8
3
100
AcDbLine
 10
8.834089875662751
 20
4.868304772372336
 30
0.0
 11
8.782908773300544
 21
4.817123670010133
 31
0.0
  0
LINE
  5
3B71
330
1E
100
AcDbEntity
  8
3
100
AcDbLine
 10
8.782908773300544
 20
4.817123670010133
 30
0.0
 11
8.763223733930466
 21
4.750194536151866
 31
0.0
  0
LINE
  5
3B72
330
1E
100
AcDbEntity
  8
3
100
AcDbLine
 10
8.763223733930466
 20
3.313186662136118
 30
0.0
 11
8.782908773300544
 21
3.246257528277851
 31
0.0
  0
LINE
  5
3B73
330
1E
100
AcDbEntity
  8
3
100
AcDbLine
 10
8.782908773300544
 20
3.246257528277851
 30
0.0
 11
8.834089875662751
 21
3.199013433789659
 31
0.0
  0
LINE
  5
3B74
330
1E
100
AcDbEntity
  8
3
100
AcDbLine
 10
8.834089875662751
 20
3.199013433789659
 30
0.0
 11
8.901019009521018
 21
3.179328394419581
 31
0.0
  0
LINE
  5
3B75
330
1E
100
AcDbEntity
  8
3
100
AcDbLine
 10
2.786845781174562
 20
3.179328394419581
 30
0.0
 11
2.853774915032829
 21
3.199013433789659
 31
0.0
  0
LINE
  5
3B76
330
1E
100
AcDbEntity
  8
3
100
AcDbLine
 10
2.853774915032829
 20
3.199013433789659
 30
0.0
 11
2.901019009521018
 21
3.246257528277851
 31
0.0
  0
LINE
  5
3B77
330
1E
100
AcDbEntity
  8
3
100
AcDbLine
 10
2.901019009521018
 20
3.246257528277851
 30
0.0
 11
2.920704048891096
 21
3.313186662136118
 31
0.0
  0
LINE
  5
3B78
330
1E
100
AcDbEntity
  8
3
100
AcDbLine
 10
11.66479853708007
 20
4.750194536151866
 30
0.0
 11
11.64511349770999
 21
4.817123670010133
 31
0.0
  0
LINE
  5
3B79
330
1E
100
AcDbEntity
  8
3
100
AcDbLine
 10
11.64511349770999
 20
4.817123670010133
 30
0.0
 11
11.5978694032218
 21
4.868304772372336
 31
0.0
  0
LINE
  5
3B7A
330
1E
100
AcDbEntity
  8
3
100
AcDbLine
 10
11.53094026936353
 20
3.179328394419581
 30
0.0
 11
11.5978694032218
 21
3.199013433789659
 31
0.0
  0
LINE
  5
3B7B
330
1E
100
AcDbEntity
  8
3
100
AcDbLine
 10
11.5978694032218
 20
3.199013433789659
 30
0.0
 11
11.64511349770999
 21
3.246257528277851
 31
0.0
  0
LINE
  5
3B7C
330
1E
100
AcDbEntity
  8
3
100
AcDbLine
 10
11.64511349770999
 20
3.246257528277851
 30
0.0
 11
11.66479853708007
 21
3.313186662136118
 31
0.0
  0
LINE
  5
3B7D
330
1E
100
AcDbEntity
  8
3
100
AcDbLine
 10
5.700231607946214
 20
3.179328394419581
 30
0.0
 11
5.767160741804481
 21
3.199013433789659
 31
0.0
  0
LINE
  5
3B7E
330
1E
100
AcDbEntity
  8
3
100
AcDbLine
 10
5.767160741804481
 20
3.199013433789659
 30
0.0
 11
5.818341844166688
 21
3.246257528277851
 31
0.0
  0
LINE
  5
3B7F
330
1E
100
AcDbEntity
  8
3
100
AcDbLine
 10
5.818341844166688
 20
3.246257528277851
 30
0.0
 11
5.834089875662751
 21
3.313186662136118
 31
0.0
  0
LINE
  5
3B80
330
1E
100
AcDbEntity
  8
3
100
AcDbLine
 10
8.901019009521018
 20
10.72263548103375
 30
0.0
 11
8.834089875662751
 21
10.72263548103375
 31
0.0
  0
LINE
  5
3B81
330
1E
100
AcDbEntity
  8
3
100
AcDbLine
 10
8.834089875662751
 20
10.72263548103375
 30
0.0
 11
8.782908773300544
 21
10.72263548103375
 31
0.0
  0
LINE
  5
3B82
330
1E
100
AcDbEntity
  8
3
100
AcDbLine
 10
8.782908773300544
 20
10.72263548103375
 30
0.0
 11
8.763223733930466
 21
10.72263548103375
 31
0.0
  0
LINE
  5
3B83
330
1E
100
AcDbEntity
  8
3
100
AcDbLine
 10
5.983696174875348
 20
10.72263548103375
 30
0.0
 11
5.916767041017081
 21
10.72263548103375
 31
0.0
  0
LINE
  5
3B84
330
1E
100
AcDbEntity
  8
3
100
AcDbLine
 10
5.916767041017081
 20
10.72263548103375
 30
0.0
 11
5.869522946528892
 21
10.72263548103375
 31
0.0
  0
LINE
  5
3B85
330
1E
100
AcDbEntity
  8
3
100
AcDbLine
 10
5.869522946528892
 20
10.72263548103375
 30
0.0
 11
5.849837907158814
 21
10.72263548103375
 31
0.0
  0
LINE
  5
3B86
330
1E
100
AcDbEntity
  8
3
100
AcDbLine
 10
0.1529875134580276
 20
10.72263548103375
 30
0.0
 11
0.0860583795997609
 21
10.72263548103375
 31
0.0
  0
LINE
  5
3B87
330
1E
100
AcDbEntity
  8
3
100
AcDbLine
 10
0.0860583795997609
 20
10.72263548103375
 30
0.0
 11
0.038814285111572
 21
10.72263548103375
 31
0.0
  0
LINE
  5
3B88
330
1E
100
AcDbEntity
  8
3
100
AcDbLine
 10
0.038814285111572
 20
10.72263548103375
 30
0.0
 11
0.0191292457414925
 21
10.72263548103375
 31
0.0
  0
LINE
  5
3B89
330
1E
100
AcDbEntity
  8
3
100
AcDbLine
 10
8.61361743471787
 20
3.179328394419581
 30
0.0
 11
8.684483576450151
 21
3.199013433789659
 31
0.0
  0
LINE
  5
3B8A
330
1E
100
AcDbEntity
  8
3
100
AcDbLine
 10
8.684483576450151
 20
3.199013433789659
 30
0.0
 11
8.73172767093834
 21
3.246257528277851
 31
0.0
  0
LINE
  5
3B8B
330
1E
100
AcDbEntity
  8
3
100
AcDbLine
 10
8.73172767093834
 20
3.246257528277851
 30
0.0
 11
8.751412710308418
 21
3.313186662136118
 31
0.0
  0
LINE
  5
3B8C
330
1E
100
AcDbEntity
  8
3
100
AcDbLine
 10
5.834089875662751
 20
4.750194536151866
 30
0.0
 11
5.818341844166688
 21
4.817123670010133
 31
0.0
  0
LINE
  5
3B8D
330
1E
100
AcDbEntity
  8
3
100
AcDbLine
 10
5.818341844166688
 20
4.817123670010133
 30
0.0
 11
5.767160741804481
 21
4.868304772372336
 31
0.0
  0
LINE
  5
3B8E
330
1E
100
AcDbEntity
  8
3
100
AcDbLine
 10
5.767160741804481
 20
4.868304772372336
 30
0.0
 11
5.700231607946214
 21
4.884052803868399
 31
0.0
  0
LINE
  5
3B8F
330
1E
100
AcDbEntity
  8
3
100
AcDbLine
 10
2.936452080387159
 20
3.313186662136118
 30
0.0
 11
2.952200111883222
 21
3.246257528277851
 31
0.0
  0
LINE
  5
3B90
330
1E
100
AcDbEntity
  8
3
100
AcDbLine
 10
2.952200111883222
 20
3.246257528277851
 30
0.0
 11
3.003381214245429
 21
3.199013433789659
 31
0.0
  0
LINE
  5
3B91
330
1E
100
AcDbEntity
  8
3
100
AcDbLine
 10
3.003381214245429
 20
3.199013433789659
 30
0.0
 11
3.070310348103696
 21
3.179328394419581
 31
0.0
  0
LINE
  5
3B92
330
1E
100
AcDbEntity
  8
3
100
AcDbLine
 10
8.751412710308418
 20
4.750194536151866
 30
0.0
 11
8.73172767093834
 21
4.817123670010133
 31
0.0
  0
LINE
  5
3B93
330
1E
100
AcDbEntity
  8
3
100
AcDbLine
 10
8.73172767093834
 20
4.817123670010133
 30
0.0
 11
8.684483576450151
 21
4.868304772372336
 31
0.0
  0
LINE
  5
3B94
330
1E
100
AcDbEntity
  8
3
100
AcDbLine
 10
8.684483576450151
 20
4.868304772372336
 30
0.0
 11
8.61361743471787
 21
4.884052803868399
 31
0.0
  0
LINE
  5
3B95
330
1E
100
AcDbEntity
  8
3
100
AcDbLine
 10
3.070310348103696
 20
4.884052803868399
 30
0.0
 11
3.003381214245429
 21
4.868304772372336
 31
0.0
  0
LINE
  5
3B96
330
1E
100
AcDbEntity
  8
3
100
AcDbLine
 10
3.003381214245429
 20
4.868304772372336
 30
0.0
 11
2.952200111883222
 21
4.817123670010133
 31
0.0
  0
LINE
  5
3B97
330
1E
100
AcDbEntity
  8
3
100
AcDbLine
 10
2.952200111883222
 20
4.817123670010133
 30
0.0
 11
2.936452080387159
 21
4.750194536151866
 31
0.0
  0
LINE
  5
3BA0
330
1E
100
AcDbEntity
  8
3
100
AcDbLine
 10
-5.799768392053783
 20
4.738383512529818
 30
0.0
 11
-5.76433532118764
 21
4.738383512529818
 31
0.0
  0
LINE
  5
3BA1
330
1E
100
AcDbEntity
  8
3
100
AcDbLine
 10
-5.76433532118764
 20
4.738383512529818
 30
0.0
 11
-5.681658155833311
 21
4.738383512529818
 31
0.0
  0
LINE
  5
3BA2
330
1E
100
AcDbEntity
  8
3
100
AcDbLine
 10
5.688420584324166
 20
10.22657248890777
 30
0.0
 11
5.771097749678499
 21
10.25806855189989
 31
0.0
  0
LINE
  5
3BA3
330
1E
100
AcDbEntity
  8
3
100
AcDbLine
 10
5.771097749678499
 20
10.25806855189989
 30
0.0
 11
5.80653082054464
 21
10.34074571725422
 31
0.0
  0
LINE
  5
3BA4
330
1E
100
AcDbEntity
  8
3
100
AcDbLine
 10
2.775034757552514
 20
10.22657248890777
 30
0.0
 11
2.857711922906844
 21
10.25806855189989
 31
0.0
  0
LINE
  5
3BA5
330
1E
100
AcDbEntity
  8
3
100
AcDbLine
 10
2.857711922906844
 20
10.25806855189989
 30
0.0
 11
2.893144993772985
 21
10.34074571725422
 31
0.0
  0
LINE
  5
3BA6
330
1E
100
AcDbEntity
  8
3
100
AcDbLine
 10
-5.799768392053783
 20
3.324997685758166
 30
0.0
 11
-5.76433532118764
 21
3.324997685758166
 31
0.0
  0
LINE
  5
3BA7
330
1E
100
AcDbEntity
  8
3
100
AcDbLine
 10
-5.76433532118764
 20
3.324997685758166
 30
0.0
 11
-5.681658155833311
 21
3.324997685758166
 31
0.0
  0
LINE
  5
3BA8
330
1E
100
AcDbEntity
  8
3
100
AcDbLine
 10
8.908893025269048
 20
3.309249654262103
 30
0.0
 11
8.908893025269048
 21
3.22657248890777
 31
0.0
  0
LINE
  5
3BA9
330
1E
100
AcDbEntity
  8
3
100
AcDbLine
 10
8.908893025269048
 20
3.22657248890777
 30
0.0
 11
8.908893025269048
 21
3.191139418041629
 31
0.0
  0
LINE
  5
3BAA
330
1E
100
AcDbEntity
  8
3
100
AcDbLine
 10
11.51912924574148
 20
4.87617878812037
 30
0.0
 11
11.51912924574148
 21
4.836808709380211
 31
0.0
  0
LINE
  5
3BAB
330
1E
100
AcDbEntity
  8
3
100
AcDbLine
 10
11.51912924574148
 20
4.836808709380211
 30
0.0
 11
11.51912924574148
 21
4.754131544025881
 31
0.0
  0
LINE
  5
3BAC
330
1E
100
AcDbEntity
  8
3
100
AcDbLine
 10
5.995507198497396
 20
4.87617878812037
 30
0.0
 11
5.995507198497396
 21
4.836808709380211
 31
0.0
  0
LINE
  5
3BAD
330
1E
100
AcDbEntity
  8
3
100
AcDbLine
 10
5.995507198497396
 20
4.836808709380211
 30
0.0
 11
5.995507198497396
 21
4.754131544025881
 31
0.0
  0
LINE
  5
3BAE
330
1E
100
AcDbEntity
  8
3
100
AcDbLine
 10
5.995507198497396
 20
4.781690599143992
 30
0.0
 11
5.995507198497396
 21
4.773816583395959
 31
0.0
  0
LINE
  5
3BAF
330
1E
100
AcDbEntity
  8
3
100
AcDbLine
 10
5.995507198497396
 20
4.773816583395959
 30
0.0
 11
5.995507198497396
 21
4.754131544025881
 31
0.0
  0
LINE
  5
3BB0
330
1E
100
AcDbEntity
  8
3
100
AcDbLine
 10
2.948263104009207
 20
10.34074571725422
 30
0.0
 11
2.983696174875348
 21
10.25806855189989
 31
0.0
  0
LINE
  5
3BB1
330
1E
100
AcDbEntity
  8
3
100
AcDbLine
 10
2.983696174875348
 20
10.25806855189989
 30
0.0
 11
3.066373340229681
 21
10.22657248890777
 31
0.0
  0
LINE
  5
3BB2
330
1E
100
AcDbEntity
  8
3
100
AcDbLine
 10
8.601806411095822
 20
10.22657248890777
 30
0.0
 11
8.684483576450151
 21
10.25806855189989
 31
0.0
  0
LINE
  5
3BB3
330
1E
100
AcDbEntity
  8
3
100
AcDbLine
 10
8.684483576450151
 20
10.25806855189989
 30
0.0
 11
8.719916647316292
 21
10.34074571725422
 31
0.0
  0
LINE
  5
3BB4
330
1E
100
AcDbEntity
  8
3
100
AcDbLine
 10
8.621491450465899
 20
4.738383512529818
 30
0.0
 11
8.637239481961962
 21
4.738383512529818
 31
0.0
  0
LINE
  5
3BB5
330
1E
100
AcDbEntity
  8
3
100
AcDbLine
 10
8.637239481961962
 20
4.738383512529818
 30
0.0
 11
8.645113497709996
 21
4.738383512529818
 31
0.0
  0
LINE
  5
3BB6
330
1E
100
AcDbEntity
  8
3
100
AcDbLine
 10
-3.055673903864805
 20
4.87617878812037
 30
0.0
 11
-3.055673903864805
 21
4.836808709380211
 31
0.0
  0
LINE
  5
3BB7
330
1E
100
AcDbEntity
  8
3
100
AcDbLine
 10
-3.055673903864805
 20
4.836808709380211
 30
0.0
 11
-3.055673903864805
 21
4.754131544025881
 31
0.0
  0
LINE
  5
3BB8
330
1E
100
AcDbEntity
  8
3
100
AcDbLine
 10
5.865585938654877
 20
10.34074571725422
 30
0.0
 11
5.901019009521018
 21
10.25806855189989
 31
0.0
  0
LINE
  5
3BB9
330
1E
100
AcDbEntity
  8
3
100
AcDbLine
 10
5.901019009521018
 20
10.25806855189989
 30
0.0
 11
5.983696174875348
 21
10.22657248890777
 31
0.0
  0
LINE
  5
3BBA
330
1E
100
AcDbEntity
  8
3
100
AcDbLine
 10
-5.665910124337248
 20
3.309249654262103
 30
0.0
 11
-5.665910124337248
 21
3.22657248890777
 31
0.0
  0
LINE
  5
3BBB
330
1E
100
AcDbEntity
  8
3
100
AcDbLine
 10
-5.665910124337248
 20
3.22657248890777
 30
0.0
 11
-5.665910124337248
 21
3.191139418041629
 31
0.0
  0
LINE
  5
3BBC
330
1E
100
AcDbEntity
  8
3
100
AcDbLine
 10
-2.791894376305751
 20
4.738383512529818
 30
0.0
 11
-2.78402036055772
 21
4.738383512529818
 31
0.0
  0
LINE
  5
3BBD
330
1E
100
AcDbEntity
  8
3
100
AcDbLine
 10
-2.78402036055772
 20
4.738383512529818
 30
0.0
 11
-2.76433532118764
 21
4.738383512529818
 31
0.0
  0
LINE
  5
3BBE
330
1E
100
AcDbEntity
  8
3
100
AcDbLine
 10
-5.665910124337248
 20
4.87617878812037
 30
0.0
 11
-5.665910124337248
 21
4.836808709380211
 31
0.0
  0
LINE
  5
3BBF
330
1E
100
AcDbEntity
  8
3
100
AcDbLine
 10
-5.665910124337248
 20
4.836808709380211
 30
0.0
 11
-5.665910124337248
 21
4.754131544025881
 31
0.0
  0
LINE
  5
3BC0
330
1E
100
AcDbEntity
  8
3
100
AcDbLine
 10
2.790782789048577
 20
3.324997685758166
 30
0.0
 11
2.873459954402907
 21
3.324997685758166
 31
0.0
  0
LINE
  5
3BC1
330
1E
100
AcDbEntity
  8
3
100
AcDbLine
 10
2.873459954402907
 20
3.324997685758166
 30
0.0
 11
2.908893025269048
 21
3.324997685758166
 31
0.0
  0
LINE
  5
3BC2
330
1E
100
AcDbEntity
  8
3
100
AcDbLine
 10
2.775034757552514
 20
3.309249654262103
 30
0.0
 11
2.775034757552514
 21
3.22657248890777
 31
0.0
  0
LINE
  5
3BC3
330
1E
100
AcDbEntity
  8
3
100
AcDbLine
 10
2.775034757552514
 20
3.22657248890777
 30
0.0
 11
2.775034757552514
 21
3.191139418041629
 31
0.0
  0
LINE
  5
3BC4
330
1E
100
AcDbEntity
  8
3
100
AcDbLine
 10
8.778971765426529
 20
10.34074571725422
 30
0.0
 11
8.81440483629267
 21
10.25806855189989
 31
0.0
  0
LINE
  5
3BC5
330
1E
100
AcDbEntity
  8
3
100
AcDbLine
 10
8.81440483629267
 20
10.25806855189989
 30
0.0
 11
8.897082001647003
 21
10.22657248890777
 31
0.0
  0
LINE
  5
3BC6
330
1E
100
AcDbEntity
  8
3
100
AcDbLine
 10
11.51912924574148
 20
10.22657248890777
 30
0.0
 11
11.60180641109582
 21
10.25806855189989
 31
0.0
  0
LINE
  5
3BC7
330
1E
100
AcDbEntity
  8
3
100
AcDbLine
 10
11.60180641109582
 20
10.25806855189989
 30
0.0
 11
11.63723948196196
 21
10.34074571725422
 31
0.0
  0
LINE
  5
3BC8
330
1E
100
AcDbEntity
  8
3
100
AcDbLine
 10
5.688420584324166
 20
4.87617878812037
 30
0.0
 11
5.688420584324166
 21
4.836808709380211
 31
0.0
  0
LINE
  5
3BC9
330
1E
100
AcDbEntity
  8
3
100
AcDbLine
 10
5.688420584324166
 20
4.836808709380211
 30
0.0
 11
5.688420584324166
 21
4.754131544025881
 31
0.0
  0
LINE
  5
3BCA
330
1E
100
AcDbEntity
  8
3
100
AcDbLine
 10
2.944326096135192
 20
3.324997685758166
 30
0.0
 11
2.979759167001333
 21
3.324997685758166
 31
0.0
  0
LINE
  5
3BCB
330
1E
100
AcDbEntity
  8
3
100
AcDbLine
 10
2.979759167001333
 20
3.324997685758166
 30
0.0
 11
3.066373340229681
 21
3.324997685758166
 31
0.0
  0
LINE
  5
3BEC
330
1E
100
AcDbEntity
  8
3
100
AcDbLine
 10
5.861648930780859
 20
4.738383512529818
 30
0.0
 11
5.897082001647003
 21
4.738383512529818
 31
0.0
  0
LINE
  5
3BED
330
1E
100
AcDbEntity
  8
3
100
AcDbLine
 10
5.897082001647003
 20
4.738383512529818
 30
0.0
 11
5.979759167001333
 21
4.738383512529818
 31
0.0
  0
LINE
  5
3BEE
330
1E
100
AcDbEntity
  8
3
100
AcDbLine
 10
-3.039925872368742
 20
4.738383512529818
 30
0.0
 11
-2.957248707014413
 21
4.738383512529818
 31
0.0
  0
LINE
  5
3BEF
330
1E
100
AcDbEntity
  8
3
100
AcDbLine
 10
-2.957248707014413
 20
4.738383512529818
 30
0.0
 11
-2.92181563614827
 21
4.738383512529818
 31
0.0
  0
LINE
  5
3BF0
330
1E
100
AcDbEntity
  8
3
100
AcDbLine
 10
-3.055673903864805
 20
3.309249654262103
 30
0.0
 11
-3.055673903864805
 21
3.22657248890777
 31
0.0
  0
LINE
  5
3BF1
330
1E
100
AcDbEntity
  8
3
100
AcDbLine
 10
-3.055673903864805
 20
3.22657248890777
 30
0.0
 11
-3.055673903864805
 21
3.191139418041629
 31
0.0
  0
LINE
  5
3BF2
330
1E
100
AcDbEntity
  8
3
100
AcDbLine
 10
11.51912924574148
 20
3.309249654262103
 30
0.0
 11
11.51912924574148
 21
3.22657248890777
 31
0.0
  0
LINE
  5
3BF3
330
1E
100
AcDbEntity
  8
3
100
AcDbLine
 10
11.51912924574148
 20
3.22657248890777
 30
0.0
 11
11.51912924574148
 21
3.191139418041629
 31
0.0
  0
LINE
  5
3BF4
330
1E
100
AcDbEntity
  8
3
100
AcDbLine
 10
11.53487727723755
 20
3.324997685758166
 30
0.0
 11
11.61755444259188
 21
3.324997685758166
 31
0.0
  0
LINE
  5
3BF5
330
1E
100
AcDbEntity
  8
3
100
AcDbLine
 10
11.61755444259188
 20
3.324997685758166
 30
0.0
 11
11.65692452133204
 21
3.324997685758166
 31
0.0
  0
LINE
  5
3BF6
330
1E
100
AcDbEntity
  8
3
100
AcDbLine
 10
2.775034757552514
 20
4.781690599143992
 30
0.0
 11
2.775034757552514
 21
4.773816583395959
 31
0.0
  0
LINE
  5
3BF7
330
1E
100
AcDbEntity
  8
3
100
AcDbLine
 10
2.775034757552514
 20
4.773816583395959
 30
0.0
 11
2.775034757552514
 21
4.754131544025881
 31
0.0
  0
LINE
  5
3BF8
330
1E
100
AcDbEntity
  8
3
100
AcDbLine
 10
8.621491450465899
 20
3.324997685758166
 30
0.0
 11
8.704168615820229
 21
3.324997685758166
 31
0.0
  0
LINE
  5
3BF9
330
1E
100
AcDbEntity
  8
3
100
AcDbLine
 10
8.704168615820229
 20
3.324997685758166
 30
0.0
 11
8.739601686686373
 21
3.324997685758166
 31
0.0
  0
LINE
  5
3BFA
330
1E
100
AcDbEntity
  8
3
100
AcDbLine
 10
2.790782789048577
 20
4.738383512529818
 30
0.0
 11
2.810467828418655
 21
4.738383512529818
 31
0.0
  0
LINE
  5
3BFB
330
1E
100
AcDbEntity
  8
3
100
AcDbLine
 10
2.810467828418655
 20
4.738383512529818
 30
0.0
 11
2.818341844166688
 21
4.738383512529818
 31
0.0
  0
LINE
  5
3BFC
330
1E
100
AcDbEntity
  8
3
100
AcDbLine
 10
8.605743418969836
 20
3.309249654262103
 30
0.0
 11
8.605743418969836
 21
3.22657248890777
 31
0.0
  0
LINE
  5
3BFD
330
1E
100
AcDbEntity
  8
3
100
AcDbLine
 10
8.605743418969836
 20
3.22657248890777
 30
0.0
 11
8.605743418969836
 21
3.191139418041629
 31
0.0
  0
LINE
  5
3BFE
330
1E
100
AcDbEntity
  8
3
100
AcDbLine
 10
8.621491450465899
 20
4.738383512529818
 30
0.0
 11
8.704168615820229
 21
4.738383512529818
 31
0.0
  0
LINE
  5
3BFF
330
1E
100
AcDbEntity
  8
3
100
AcDbLine
 10
8.704168615820229
 20
4.738383512529818
 30
0.0
 11
8.739601686686373
 21
4.738383512529818
 31
0.0
  0
LINE
  5
3C00
330
1E
100
AcDbEntity
  8
3
100
AcDbLine
 10
2.790782789048577
 20
4.738383512529818
 30
0.0
 11
2.873459954402907
 21
4.738383512529818
 31
0.0
  0
LINE
  5
3C01
330
1E
100
AcDbEntity
  8
3
100
AcDbLine
 10
2.873459954402907
 20
4.738383512529818
 30
0.0
 11
2.908893025269048
 21
4.738383512529818
 31
0.0
  0
LINE
  5
3C02
330
1E
100
AcDbEntity
  8
3
100
AcDbLine
 10
-0.1265400455970909
 20
3.324997685758166
 30
0.0
 11
-0.0399258723687428
 21
3.324997685758166
 31
0.0
  0
LINE
  5
3C03
330
1E
100
AcDbEntity
  8
3
100
AcDbLine
 10
-0.0399258723687428
 20
3.324997685758166
 30
0.0
 11
-0.004492801502602
 21
3.324997685758166
 31
0.0
  0
LINE
  5
3C04
330
1E
100
AcDbEntity
  8
3
100
AcDbLine
 10
-0.1383510692191372
 20
3.309249654262103
 30
0.0
 11
-0.1383510692191372
 21
3.22657248890777
 31
0.0
  0
LINE
  5
3C05
330
1E
100
AcDbEntity
  8
3
100
AcDbLine
 10
-0.1383510692191372
 20
3.22657248890777
 30
0.0
 11
-0.1383510692191372
 21
3.191139418041629
 31
0.0
  0
LINE
  5
3C06
330
1E
100
AcDbEntity
  8
3
100
AcDbLine
 10
-0.1265400455970909
 20
4.738383512529818
 30
0.0
 11
-0.0399258723687428
 21
4.738383512529818
 31
0.0
  0
LINE
  5
3C07
330
1E
100
AcDbEntity
  8
3
100
AcDbLine
 10
-0.0399258723687428
 20
4.738383512529818
 30
0.0
 11
-0.004492801502602
 21
4.738383512529818
 31
0.0
  0
LINE
  5
3C08
330
1E
100
AcDbEntity
  8
3
100
AcDbLine
 10
-2.748587289691577
 20
3.309249654262103
 30
0.0
 11
-2.748587289691577
 21
3.22657248890777
 31
0.0
  0
LINE
  5
3C09
330
1E
100
AcDbEntity
  8
3
100
AcDbLine
 10
-2.748587289691577
 20
3.22657248890777
 30
0.0
 11
-2.748587289691577
 21
3.191139418041629
 31
0.0
  0
LINE
  5
3C0A
330
1E
100
AcDbEntity
  8
3
100
AcDbLine
 10
3.078184363851725
 20
4.87617878812037
 30
0.0
 11
3.078184363851725
 21
4.836808709380211
 31
0.0
  0
LINE
  5
3C0B
330
1E
100
AcDbEntity
  8
3
100
AcDbLine
 10
3.078184363851725
 20
4.836808709380211
 30
0.0
 11
3.078184363851725
 21
4.754131544025881
 31
0.0
  0
LINE
  5
3C0C
330
1E
100
AcDbEntity
  8
3
100
AcDbLine
 10
2.944326096135192
 20
4.738383512529818
 30
0.0
 11
2.979759167001333
 21
4.738383512529818
 31
0.0
  0
LINE
  5
3C0D
330
1E
100
AcDbEntity
  8
3
100
AcDbLine
 10
2.979759167001333
 20
4.738383512529818
 30
0.0
 11
3.066373340229681
 21
4.738383512529818
 31
0.0
  0
LINE
  5
3C0E
330
1E
100
AcDbEntity
  8
3
100
AcDbLine
 10
3.03881428511157
 20
4.738383512529818
 30
0.0
 11
3.046688300859599
 21
4.738383512529818
 31
0.0
  0
LINE
  5
3C0F
330
1E
100
AcDbEntity
  8
3
100
AcDbLine
 10
3.046688300859599
 20
4.738383512529818
 30
0.0
 11
3.066373340229681
 21
4.738383512529818
 31
0.0
  0
LINE
  5
3C10
330
1E
100
AcDbEntity
  8
3
100
AcDbLine
 10
3.078184363851725
 20
4.781690599143992
 30
0.0
 11
3.078184363851725
 21
4.773816583395959
 31
0.0
  0
LINE
  5
3C11
330
1E
100
AcDbEntity
  8
3
100
AcDbLine
 10
3.078184363851725
 20
4.773816583395959
 30
0.0
 11
3.078184363851725
 21
4.754131544025881
 31
0.0
  0
LINE
  5
3C12
330
1E
100
AcDbEntity
  8
3
100
AcDbLine
 10
5.704168615820229
 20
4.738383512529818
 30
0.0
 11
5.72385365519031
 21
4.738383512529818
 31
0.0
  0
LINE
  5
3C13
330
1E
100
AcDbEntity
  8
3
100
AcDbLine
 10
5.72385365519031
 20
4.738383512529818
 30
0.0
 11
5.73172767093834
 21
4.738383512529818
 31
0.0
  0
LINE
  5
3C14
330
1E
100
AcDbEntity
  8
3
100
AcDbLine
 10
5.688420584324166
 20
4.781690599143992
 30
0.0
 11
5.688420584324166
 21
4.773816583395959
 31
0.0
  0
LINE
  5
3C15
330
1E
100
AcDbEntity
  8
3
100
AcDbLine
 10
5.688420584324166
 20
4.773816583395959
 30
0.0
 11
5.688420584324166
 21
4.754131544025881
 31
0.0
  0
LINE
  5
3C16
330
1E
100
AcDbEntity
  8
3
100
AcDbLine
 10
0.1647985370800757
 20
3.309249654262103
 30
0.0
 11
0.1647985370800757
 21
3.22657248890777
 31
0.0
  0
LINE
  5
3C17
330
1E
100
AcDbEntity
  8
3
100
AcDbLine
 10
0.1647985370800757
 20
3.22657248890777
 30
0.0
 11
0.1647985370800757
 21
3.191139418041629
 31
0.0
  0
LINE
  5
3C18
330
1E
100
AcDbEntity
  8
3
100
AcDbLine
 10
5.704168615820229
 20
3.324997685758166
 30
0.0
 11
5.786845781174562
 21
3.324997685758166
 31
0.0
  0
LINE
  5
3C19
330
1E
100
AcDbEntity
  8
3
100
AcDbLine
 10
5.786845781174562
 20
3.324997685758166
 30
0.0
 11
5.826215859914718
 21
3.324997685758166
 31
0.0
  0
LINE
  5
3C1A
330
1E
100
AcDbEntity
  8
3
100
AcDbLine
 10
5.688420584324166
 20
3.309249654262103
 30
0.0
 11
5.688420584324166
 21
3.22657248890777
 31
0.0
  0
LINE
  5
3C1B
330
1E
100
AcDbEntity
  8
3
100
AcDbLine
 10
5.688420584324166
 20
3.22657248890777
 30
0.0
 11
5.688420584324166
 21
3.191139418041629
 31
0.0
  0
LINE
  5
3C1C
330
1E
100
AcDbEntity
  8
3
100
AcDbLine
 10
5.704168615820229
 20
4.738383512529818
 30
0.0
 11
5.786845781174562
 21
4.738383512529818
 31
0.0
  0
LINE
  5
3C1D
330
1E
100
AcDbEntity
  8
3
100
AcDbLine
 10
5.786845781174562
 20
4.738383512529818
 30
0.0
 11
5.826215859914718
 21
4.738383512529818
 31
0.0
  0
LINE
  5
3C1E
330
1E
100
AcDbEntity
  8
3
100
AcDbLine
 10
3.078184363851725
 20
3.309249654262103
 30
0.0
 11
3.078184363851725
 21
3.22657248890777
 31
0.0
  0
LINE
  5
3C1F
330
1E
100
AcDbEntity
  8
3
100
AcDbLine
 10
3.078184363851725
 20
3.22657248890777
 30
0.0
 11
3.078184363851725
 21
3.191139418041629
 31
0.0
  0
LINE
  5
3C20
330
1E
100
AcDbEntity
  8
3
100
AcDbLine
 10
5.952200111883222
 20
4.738383512529818
 30
0.0
 11
5.960074127631255
 21
4.738383512529818
 31
0.0
  0
LINE
  5
3C21
330
1E
100
AcDbEntity
  8
3
100
AcDbLine
 10
5.960074127631255
 20
4.738383512529818
 30
0.0
 11
5.979759167001333
 21
4.738383512529818
 31
0.0
  0
LINE
  5
3C22
330
1E
100
AcDbEntity
  8
3
100
AcDbLine
 10
11.53487727723755
 20
4.738383512529818
 30
0.0
 11
11.61755444259188
 21
4.738383512529818
 31
0.0
  0
LINE
  5
3C23
330
1E
100
AcDbEntity
  8
3
100
AcDbLine
 10
11.61755444259188
 20
4.738383512529818
 30
0.0
 11
11.65692452133204
 21
4.738383512529818
 31
0.0
  0
LINE
  5
3C24
330
1E
100
AcDbEntity
  8
3
100
AcDbLine
 10
0.1647985370800757
 20
4.781690599143992
 30
0.0
 11
0.1647985370800757
 21
4.773816583395959
 31
0.0
  0
LINE
  5
3C25
330
1E
100
AcDbEntity
  8
3
100
AcDbLine
 10
0.1647985370800757
 20
4.773816583395959
 30
0.0
 11
0.1647985370800757
 21
4.754131544025881
 31
0.0
  0
LINE
  5
3C26
330
1E
100
AcDbEntity
  8
3
100
AcDbLine
 10
0.1214914504659017
 20
4.738383512529818
 30
0.0
 11
0.1333024740879498
 21
4.738383512529818
 31
0.0
  0
LINE
  5
3C27
330
1E
100
AcDbEntity
  8
3
100
AcDbLine
 10
0.1333024740879498
 20
4.738383512529818
 30
0.0
 11
0.1490505055840128
 21
4.738383512529818
 31
0.0
  0
LINE
  5
3C28
330
1E
100
AcDbEntity
  8
3
100
AcDbLine
 10
-0.1383510692191372
 20
4.87617878812037
 30
0.0
 11
-0.1383510692191372
 21
4.836808709380211
 31
0.0
  0
LINE
  5
3C29
330
1E
100
AcDbEntity
  8
3
100
AcDbLine
 10
-0.1383510692191372
 20
4.836808709380211
 30
0.0
 11
-0.1383510692191372
 21
4.754131544025881
 31
0.0
  0
LINE
  5
3C2A
330
1E
100
AcDbEntity
  8
3
100
AcDbLine
 10
0.0309402693635406
 20
4.738383512529818
 30
0.0
 11
0.0663733402296813
 21
4.738383512529818
 31
0.0
  0
LINE
  5
3C2B
330
1E
100
AcDbEntity
  8
3
100
AcDbLine
 10
0.0663733402296813
 20
4.738383512529818
 30
0.0
 11
0.1490505055840128
 21
4.738383512529818
 31
0.0
  0
LINE
  5
3C2C
330
1E
100
AcDbEntity
  8
3
100
AcDbLine
 10
0.1647985370800757
 20
4.87617878812037
 30
0.0
 11
0.1647985370800757
 21
4.836808709380211
 31
0.0
  0
LINE
  5
3C2D
330
1E
100
AcDbEntity
  8
3
100
AcDbLine
 10
0.1647985370800757
 20
4.836808709380211
 30
0.0
 11
0.1647985370800757
 21
4.754131544025881
 31
0.0
  0
LINE
  5
3C2E
330
1E
100
AcDbEntity
  8
3
100
AcDbLine
 10
0.0309402693635406
 20
3.324997685758166
 30
0.0
 11
0.0663733402296813
 21
3.324997685758166
 31
0.0
  0
LINE
  5
3C2F
330
1E
100
AcDbEntity
  8
3
100
AcDbLine
 10
0.0663733402296813
 20
3.324997685758166
 30
0.0
 11
0.1490505055840128
 21
3.324997685758166
 31
0.0
  0
LINE
  5
3C30
330
1E
100
AcDbEntity
  8
3
100
AcDbLine
 10
5.995507198497396
 20
3.309249654262103
 30
0.0
 11
5.995507198497396
 21
3.22657248890777
 31
0.0
  0
LINE
  5
3C31
330
1E
100
AcDbEntity
  8
3
100
AcDbLine
 10
5.995507198497396
 20
3.22657248890777
 30
0.0
 11
5.995507198497396
 21
3.191139418041629
 31
0.0
  0
LINE
  5
3C32
330
1E
100
AcDbEntity
  8
3
100
AcDbLine
 10
2.775034757552514
 20
4.87617878812037
 30
0.0
 11
2.775034757552514
 21
4.836808709380211
 31
0.0
  0
LINE
  5
3C33
330
1E
100
AcDbEntity
  8
3
100
AcDbLine
 10
2.775034757552514
 20
4.836808709380211
 30
0.0
 11
2.775034757552514
 21
4.754131544025881
 31
0.0
  0
LINE
  5
3C34
330
1E
100
AcDbEntity
  8
3
100
AcDbLine
 10
8.605743418969836
 20
4.87617878812037
 30
0.0
 11
8.605743418969836
 21
4.836808709380211
 31
0.0
  0
LINE
  5
3C35
330
1E
100
AcDbEntity
  8
3
100
AcDbLine
 10
8.605743418969836
 20
4.836808709380211
 30
0.0
 11
8.605743418969836
 21
4.754131544025881
 31
0.0
  0
LINE
  5
3C36
330
1E
100
AcDbEntity
  8
3
100
AcDbLine
 10
5.861648930780859
 20
3.324997685758166
 30
0.0
 11
5.897082001647003
 21
3.324997685758166
 31
0.0
  0
LINE
  5
3C37
330
1E
100
AcDbEntity
  8
3
100
AcDbLine
 10
5.897082001647003
 20
3.324997685758166
 30
0.0
 11
5.979759167001333
 21
3.324997685758166
 31
0.0
  0
LINE
  5
3C38
330
1E
100
AcDbEntity
  8
3
100
AcDbLine
 10
-3.055673903864805
 20
4.781690599143992
 30
0.0
 11
-3.055673903864805
 21
4.773816583395959
 31
0.0
  0
LINE
  5
3C39
330
1E
100
AcDbEntity
  8
3
100
AcDbLine
 10
-3.055673903864805
 20
4.773816583395959
 30
0.0
 11
-3.055673903864805
 21
4.754131544025881
 31
0.0
  0
LINE
  5
3C3A
330
1E
100
AcDbEntity
  8
3
100
AcDbLine
 10
11.51912924574148
 20
4.781690599143992
 30
0.0
 11
11.51912924574148
 21
4.773816583395959
 31
0.0
  0
LINE
  5
3C3B
330
1E
100
AcDbEntity
  8
3
100
AcDbLine
 10
11.51912924574148
 20
4.773816583395959
 30
0.0
 11
11.51912924574148
 21
4.754131544025881
 31
0.0
  0
LINE
  5
3C3C
330
1E
100
AcDbEntity
  8
3
100
AcDbLine
 10
11.53487727723755
 20
4.738383512529818
 30
0.0
 11
11.55456231660763
 21
4.738383512529818
 31
0.0
  0
LINE
  5
3C3D
330
1E
100
AcDbEntity
  8
3
100
AcDbLine
 10
11.55456231660763
 20
4.738383512529818
 30
0.0
 11
11.56243633235566
 21
4.738383512529818
 31
0.0
  0
LINE
  5
3C3E
330
1E
100
AcDbEntity
  8
3
100
AcDbLine
 10
8.908893025269048
 20
4.781690599143992
 30
0.0
 11
8.908893025269048
 21
4.773816583395959
 31
0.0
  0
LINE
  5
3C3F
330
1E
100
AcDbEntity
  8
3
100
AcDbLine
 10
8.908893025269048
 20
4.773816583395959
 30
0.0
 11
8.908893025269048
 21
4.754131544025881
 31
0.0
  0
LINE
  5
3C40
330
1E
100
AcDbEntity
  8
3
100
AcDbLine
 10
8.869522946528892
 20
4.738383512529818
 30
0.0
 11
8.877396962276922
 21
4.738383512529818
 31
0.0
  0
LINE
  5
3C41
330
1E
100
AcDbEntity
  8
3
100
AcDbLine
 10
8.877396962276922
 20
4.738383512529818
 30
0.0
 11
8.893144993772985
 21
4.738383512529818
 31
0.0
  0
LINE
  5
3C42
330
1E
100
AcDbEntity
  8
3
100
AcDbLine
 10
-2.878508549534098
 20
10.34074571725422
 30
0.0
 11
-2.843075478667955
 21
10.25806855189989
 31
0.0
  0
LINE
  5
3C43
330
1E
100
AcDbEntity
  8
3
100
AcDbLine
 10
-2.843075478667955
 20
10.25806855189989
 30
0.0
 11
-2.760398313313626
 21
10.22657248890777
 31
0.0
  0
LINE
  5
3C44
330
1E
100
AcDbEntity
  8
3
100
AcDbLine
 10
-5.795831384179766
 20
10.34074571725422
 30
0.0
 11
-5.760398313313626
 21
10.25806855189989
 31
0.0
  0
LINE
  5
3C45
330
1E
100
AcDbEntity
  8
3
100
AcDbLine
 10
-5.760398313313626
 20
10.25806855189989
 30
0.0
 11
-5.677721147959294
 21
10.22657248890777
 31
0.0
  0
LINE
  5
3C46
330
1E
100
AcDbEntity
  8
3
100
AcDbLine
 10
-2.886382565282129
 20
3.324997685758166
 30
0.0
 11
-2.847012486541972
 21
3.324997685758166
 31
0.0
  0
LINE
  5
3C47
330
1E
100
AcDbEntity
  8
3
100
AcDbLine
 10
-2.847012486541972
 20
3.324997685758166
 30
0.0
 11
-2.76433532118764
 21
3.324997685758166
 31
0.0
  0
LINE
  5
3C48
330
1E
100
AcDbEntity
  8
3
100
AcDbLine
 10
-2.748587289691577
 20
4.781690599143992
 30
0.0
 11
-2.748587289691577
 21
4.773816583395959
 31
0.0
  0
LINE
  5
3C49
330
1E
100
AcDbEntity
  8
3
100
AcDbLine
 10
-2.748587289691577
 20
4.773816583395959
 30
0.0
 11
-2.748587289691577
 21
4.754131544025881
 31
0.0
  0
LINE
  5
3C4A
330
1E
100
AcDbEntity
  8
3
100
AcDbLine
 10
-2.748587289691577
 20
4.87617878812037
 30
0.0
 11
-2.748587289691577
 21
4.836808709380211
 31
0.0
  0
LINE
  5
3C4B
330
1E
100
AcDbEntity
  8
3
100
AcDbLine
 10
-2.748587289691577
 20
4.836808709380211
 30
0.0
 11
-2.748587289691577
 21
4.754131544025881
 31
0.0
  0
LINE
  5
3C4C
330
1E
100
AcDbEntity
  8
3
100
AcDbLine
 10
-2.886382565282129
 20
4.738383512529818
 30
0.0
 11
-2.847012486541972
 21
4.738383512529818
 31
0.0
  0
LINE
  5
3C4D
330
1E
100
AcDbEntity
  8
3
100
AcDbLine
 10
-2.847012486541972
 20
4.738383512529818
 30
0.0
 11
-2.76433532118764
 21
4.738383512529818
 31
0.0
  0
LINE
  5
3C83
330
1E
100
AcDbEntity
  8
3
100
AcDbLine
 10
-0.1265400455970909
 20
4.738383512529818
 30
0.0
 11
-0.1068550062270113
 21
4.738383512529818
 31
0.0
  0
LINE
  5
3C84
330
1E
100
AcDbEntity
  8
3
100
AcDbLine
 10
-0.1068550062270113
 20
4.738383512529818
 30
0.0
 11
-0.0989809904789798
 21
4.738383512529818
 31
0.0
  0
LINE
  5
3C85
330
1E
100
AcDbEntity
  8
3
100
AcDbLine
 10
-0.1383510692191372
 20
4.781690599143992
 30
0.0
 11
-0.1383510692191372
 21
4.773816583395959
 31
0.0
  0
LINE
  5
3C86
330
1E
100
AcDbEntity
  8
3
100
AcDbLine
 10
-0.1383510692191372
 20
4.773816583395959
 30
0.0
 11
-0.1383510692191372
 21
4.754131544025881
 31
0.0
  0
LINE
  5
3C87
330
1E
100
AcDbEntity
  8
3
100
AcDbLine
 10
8.775034757552514
 20
4.738383512529818
 30
0.0
 11
8.810467828418655
 21
4.738383512529818
 31
0.0
  0
LINE
  5
3C88
330
1E
100
AcDbEntity
  8
3
100
AcDbLine
 10
8.810467828418655
 20
4.738383512529818
 30
0.0
 11
8.893144993772985
 21
4.738383512529818
 31
0.0
  0
LINE
  5
3C89
330
1E
100
AcDbEntity
  8
3
100
AcDbLine
 10
-5.665910124337248
 20
4.781690599143992
 30
0.0
 11
-5.665910124337248
 21
4.773816583395959
 31
0.0
  0
LINE
  5
3C8A
330
1E
100
AcDbEntity
  8
3
100
AcDbLine
 10
-5.665910124337248
 20
4.773816583395959
 30
0.0
 11
-5.665910124337248
 21
4.754131544025881
 31
0.0
  0
LINE
  5
3C8B
330
1E
100
AcDbEntity
  8
3
100
AcDbLine
 10
8.908893025269048
 20
4.87617878812037
 30
0.0
 11
8.908893025269048
 21
4.836808709380211
 31
0.0
  0
LINE
  5
3C8C
330
1E
100
AcDbEntity
  8
3
100
AcDbLine
 10
8.908893025269048
 20
4.836808709380211
 30
0.0
 11
8.908893025269048
 21
4.754131544025881
 31
0.0
  0
LINE
  5
3C8D
330
1E
100
AcDbEntity
  8
3
100
AcDbLine
 10
8.775034757552514
 20
3.324997685758166
 30
0.0
 11
8.810467828418655
 21
3.324997685758166
 31
0.0
  0
LINE
  5
3C8E
330
1E
100
AcDbEntity
  8
3
100
AcDbLine
 10
8.810467828418655
 20
3.324997685758166
 30
0.0
 11
8.893144993772985
 21
3.324997685758166
 31
0.0
  0
LINE
  5
3C8F
330
1E
100
AcDbEntity
  8
3
100
AcDbLine
 10
-3.039925872368742
 20
3.324997685758166
 30
0.0
 11
-2.957248707014413
 21
3.324997685758166
 31
0.0
  0
LINE
  5
3C90
330
1E
100
AcDbEntity
  8
3
100
AcDbLine
 10
-2.957248707014413
 20
3.324997685758166
 30
0.0
 11
-2.92181563614827
 21
3.324997685758166
 31
0.0
  0
LINE
  5
3C91
330
1E
100
AcDbEntity
  8
3
100
AcDbLine
 10
-5.787957368431735
 20
11.26987957552194
 30
0.0
 11
-5.831264455045909
 21
11.25019453615186
 31
0.0
  0
LINE
  5
3C92
330
1E
100
AcDbEntity
  8
3
100
AcDbLine
 10
-5.831264455045909
 20
11.25019453615186
 30
0.0
 11
-5.847012486541972
 21
11.20688744953769
 31
0.0
  0
LINE
  5
3C93
330
1E
100
AcDbEntity
  8
3
100
AcDbLine
 10
12.42857806463913
 20
10.76594256764793
 30
0.0
 11
12.40889302526904
 21
10.76594256764793
 31
0.0
  0
LINE
  5
3C94
330
1E
100
AcDbEntity
  8
3
100
AcDbLine
 10
12.40889302526904
 20
10.76594256764793
 30
0.0
 11
12.36558593865487
 21
10.76594256764793
 31
0.0
  0
LINE
  5
3C95
330
1E
100
AcDbEntity
  8
3
100
AcDbLine
 10
12.42857806463913
 20
10.82499768575816
 30
0.0
 11
12.40889302526904
 21
10.82499768575816
 31
0.0
  0
LINE
  5
3C96
330
1E
100
AcDbEntity
  8
3
100
AcDbLine
 10
12.40889302526904
 20
10.82499768575816
 30
0.0
 11
12.36558593865487
 21
10.82499768575816
 31
0.0
  0
LINE
  5
3C97
330
1E
100
AcDbEntity
  8
3
100
AcDbLine
 10
-6.508429809376618
 20
10.76594256764793
 30
0.0
 11
-6.555673903864807
 21
10.76594256764793
 31
0.0
  0
LINE
  5
3C98
330
1E
100
AcDbEntity
  8
3
100
AcDbLine
 10
-6.555673903864807
 20
10.76594256764793
 30
0.0
 11
-6.57142193536087
 21
10.76594256764793
 31
0.0
  0
LINE
  5
3C99
330
1E
100
AcDbEntity
  8
3
100
AcDbLine
 10
-6.134414061345122
 20
3.891926819616433
 30
0.0
 11
-6.067484927486853
 21
3.91161185898651
 31
0.0
  0
LINE
  5
3C9A
330
1E
100
AcDbEntity
  8
3
100
AcDbLine
 10
-6.067484927486853
 20
3.91161185898651
 30
0.0
 11
-6.016303825124648
 21
3.958855953474699
 31
0.0
  0
LINE
  5
3C9B
330
1E
100
AcDbEntity
  8
3
100
AcDbLine
 10
-6.016303825124648
 20
3.958855953474699
 30
0.0
 11
-5.99661878575457
 21
4.029722095206984
 31
0.0
  0
LINE
  5
3C9C
330
1E
100
AcDbEntity
  8
3
100
AcDbLine
 10
-5.99661878575457
 20
4.029722095206984
 30
0.0
 11
-6.016303825124648
 21
4.096651229065251
 31
0.0
  0
LINE
  5
3C9D
330
1E
100
AcDbEntity
  8
3
100
AcDbLine
 10
-6.016303825124648
 20
4.096651229065251
 30
0.0
 11
-6.063547919612837
 21
4.147832331427455
 31
0.0
  0
LINE
  5
3C9E
330
1E
100
AcDbEntity
  8
3
100
AcDbLine
 10
-6.063547919612837
 20
4.147832331427455
 30
0.0
 11
-6.134414061345122
 21
4.167517370797533
 31
0.0
  0
LINE
  5
3C9F
330
1E
100
AcDbEntity
  8
3
100
AcDbLine
 10
11.98763318274936
 20
4.167517370797533
 30
0.0
 11
11.92070404889109
 21
4.147832331427455
 31
0.0
  0
LINE
  5
3CA0
330
1E
100
AcDbEntity
  8
3
100
AcDbLine
 10
11.92070404889109
 20
4.147832331427455
 30
0.0
 11
11.86952294652889
 21
4.100588236939266
 31
0.0
  0
LINE
  5
3CA1
330
1E
100
AcDbEntity
  8
3
100
AcDbLine
 10
11.86952294652889
 20
4.100588236939266
 30
0.0
 11
11.84983790715881
 21
4.029722095206984
 31
0.0
  0
LINE
  5
3CA2
330
1E
100
AcDbEntity
  8
3
100
AcDbLine
 10
11.84983790715881
 20
4.029722095206984
 30
0.0
 11
11.86952294652889
 21
3.962792961348714
 31
0.0
  0
LINE
  5
3CA3
330
1E
100
AcDbEntity
  8
3
100
AcDbLine
 10
11.86952294652889
 20
3.962792961348714
 30
0.0
 11
11.91676704101708
 21
3.91161185898651
 31
0.0
  0
LINE
  5
3CA4
330
1E
100
AcDbEntity
  8
3
100
AcDbLine
 10
11.91676704101708
 20
3.91161185898651
 30
0.0
 11
11.98763318274936
 21
3.891926819616433
 31
0.0
  0
LINE
  5
3CA5
330
1E
100
AcDbEntity
  8
3
100
AcDbLine
 10
12.29078278904857
 20
3.407674851112496
 30
0.0
 11
12.2710977496785
 21
3.474603984970762
 31
0.0
  0
LINE
  5
3CA6
330
1E
100
AcDbEntity
  8
3
100
AcDbLine
 10
12.2710977496785
 20
3.474603984970762
 30
0.0
 11
12.22385365519031
 21
3.525785087332966
 31
0.0
  0
LINE
  5
3CA7
330
1E
100
AcDbEntity
  8
3
100
AcDbLine
 10
12.22385365519031
 20
3.525785087332966
 30
0.0
 11
12.15298751345802
 21
3.545470126703047
 31
0.0
  0
LINE
  5
3CA8
330
1E
100
AcDbEntity
  8
3
100
AcDbLine
 10
12.15298751345802
 20
3.269879575521944
 30
0.0
 11
12.21991664731629
 21
3.289564614892022
 31
0.0
  0
LINE
  5
3CA9
330
1E
100
AcDbEntity
  8
3
100
AcDbLine
 10
12.21991664731629
 20
3.289564614892022
 30
0.0
 11
12.2710977496785
 21
3.336808709380211
 31
0.0
  0
LINE
  5
3CAA
330
1E
100
AcDbEntity
  8
3
100
AcDbLine
 10
12.2710977496785
 20
3.336808709380211
 30
0.0
 11
12.29078278904857
 21
3.407674851112496
 31
0.0
  0
LINE
  5
3CAB
330
1E
100
AcDbEntity
  8
3
100
AcDbLine
 10
12.02700326148952
 20
3.545470126703047
 30
0.0
 11
11.96007412763125
 21
3.525785087332966
 31
0.0
  0
LINE
  5
3CAC
330
1E
100
AcDbEntity
  8
3
100
AcDbLine
 10
11.96007412763125
 20
3.525785087332966
 30
0.0
 11
11.90889302526904
 21
3.478540992844777
 31
0.0
  0
LINE
  5
3CAD
330
1E
100
AcDbEntity
  8
3
100
AcDbLine
 10
11.90889302526904
 20
3.478540992844777
 30
0.0
 11
11.88920798589897
 21
3.407674851112496
 31
0.0
  0
LINE
  5
3CAE
330
1E
100
AcDbEntity
  8
3
100
AcDbLine
 10
11.88920798589897
 20
3.407674851112496
 30
0.0
 11
11.90889302526904
 21
3.340745717254229
 31
0.0
  0
LINE
  5
3CAF
330
1E
100
AcDbEntity
  8
3
100
AcDbLine
 10
11.90889302526904
 20
3.340745717254229
 30
0.0
 11
11.95613711975723
 21
3.289564614892022
 31
0.0
  0
LINE
  5
3CB0
330
1E
100
AcDbEntity
  8
3
100
AcDbLine
 10
11.95613711975723
 20
3.289564614892022
 30
0.0
 11
12.02700326148952
 21
3.269879575521944
 31
0.0
  0
LINE
  5
3CB1
330
1E
100
AcDbEntity
  8
3
100
AcDbLine
 10
12.15298751345802
 20
4.517911071584936
 30
0.0
 11
12.21991664731629
 21
4.537596110955014
 31
0.0
  0
LINE
  5
3CB2
330
1E
100
AcDbEntity
  8
3
100
AcDbLine
 10
12.21991664731629
 20
4.537596110955014
 30
0.0
 11
12.2710977496785
 21
4.584840205443203
 31
0.0
  0
LINE
  5
3CB3
330
1E
100
AcDbEntity
  8
3
100
AcDbLine
 10
12.2710977496785
 20
4.584840205443203
 30
0.0
 11
12.29078278904857
 21
4.655706347175488
 31
0.0
  0
LINE
  5
3CB4
330
1E
100
AcDbEntity
  8
3
100
AcDbLine
 10
12.29078278904857
 20
4.655706347175488
 30
0.0
 11
12.2710977496785
 21
4.722635481033755
 31
0.0
  0
LINE
  5
3CB5
330
1E
100
AcDbEntity
  8
3
100
AcDbLine
 10
12.2710977496785
 20
4.722635481033755
 30
0.0
 11
12.22385365519031
 21
4.773816583395959
 31
0.0
  0
LINE
  5
3CB6
330
1E
100
AcDbEntity
  8
3
100
AcDbLine
 10
12.22385365519031
 20
4.773816583395959
 30
0.0
 11
12.15298751345802
 21
4.79350162276604
 31
0.0
  0
LINE
  5
3CB7
330
1E
100
AcDbEntity
  8
3
100
AcDbLine
 10
11.90889302526904
 20
4.72657248890777
 30
0.0
 11
11.88920798589897
 21
4.655706347175488
 31
0.0
  0
LINE
  5
3CB8
330
1E
100
AcDbEntity
  8
3
100
AcDbLine
 10
11.88920798589897
 20
4.655706347175488
 30
0.0
 11
11.90889302526904
 21
4.588777213317218
 31
0.0
  0
LINE
  5
3CBA
330
1E
100
AcDbEntity
  8
3
100
AcDbLine
 10
11.95613711975723
 20
4.537596110955014
 30
0.0
 11
12.02700326148952
 21
4.517911071584936
 31
0.0
  0
LINE
  5
3CBB
330
1E
100
AcDbEntity
  8
3
100
AcDbLine
 10
12.02700326148952
 20
4.79350162276604
 30
0.0
 11
11.96007412763125
 21
4.773816583395959
 31
0.0
  0
LINE
  5
3CBC
330
1E
100
AcDbEntity
  8
3
100
AcDbLine
 10
11.96007412763125
 20
4.773816583395959
 30
0.0
 11
11.90889302526904
 21
4.72657248890777
 31
0.0
  0
LINE
  5
3CBD
330
1E
100
AcDbEntity
  8
3
100
AcDbLine
 10
-6.299768392053781
 20
3.545470126703047
 30
0.0
 11
-6.366697525912051
 21
3.525785087332966
 31
0.0
  0
LINE
  5
3CBE
330
1E
100
AcDbEntity
  8
3
100
AcDbLine
 10
-6.366697525912051
 20
3.525785087332966
 30
0.0
 11
-6.417878628274255
 21
3.478540992844777
 31
0.0
  0
LINE
  5
3CBF
330
1E
100
AcDbEntity
  8
3
100
AcDbLine
 10
-6.417878628274255
 20
3.478540992844777
 30
0.0
 11
-6.437563667644333
 21
3.407674851112496
 31
0.0
  0
LINE
  5
3CC0
330
1E
100
AcDbEntity
  8
3
100
AcDbLine
 10
-6.437563667644333
 20
3.407674851112496
 30
0.0
 11
-6.417878628274255
 21
3.340745717254229
 31
0.0
  0
LINE
  5
3CC1
330
1E
100
AcDbEntity
  8
3
100
AcDbLine
 10
-6.417878628274255
 20
3.340745717254229
 30
0.0
 11
-6.370634533786066
 21
3.289564614892022
 31
0.0
  0
LINE
  5
3CC2
330
1E
100
AcDbEntity
  8
3
100
AcDbLine
 10
-6.370634533786066
 20
3.289564614892022
 30
0.0
 11
-6.299768392053781
 21
3.269879575521944
 31
0.0
  0
LINE
  5
3CC3
330
1E
100
AcDbEntity
  8
3
100
AcDbLine
 10
-6.173784140085277
 20
3.269879575521944
 30
0.0
 11
-6.106855006227011
 21
3.289564614892022
 31
0.0
  0
LINE
  5
3CC4
330
1E
100
AcDbEntity
  8
3
100
AcDbLine
 10
-6.106855006227011
 20
3.289564614892022
 30
0.0
 11
-6.055673903864805
 21
3.336808709380211
 31
0.0
  0
LINE
  5
3CC5
330
1E
100
AcDbEntity
  8
3
100
AcDbLine
 10
-6.055673903864805
 20
3.336808709380211
 30
0.0
 11
-6.035988864494727
 21
3.407674851112496
 31
0.0
  0
LINE
  5
3CC6
330
1E
100
AcDbEntity
  8
3
100
AcDbLine
 10
-6.035988864494727
 20
3.407674851112496
 30
0.0
 11
-6.055673903864805
 21
3.474603984970762
 31
0.0
  0
LINE
  5
3CC7
330
1E
100
AcDbEntity
  8
3
100
AcDbLine
 10
-6.055673903864805
 20
3.474603984970762
 30
0.0
 11
-6.102917998352996
 21
3.525785087332966
 31
0.0
  0
LINE
  5
3CC8
330
1E
100
AcDbEntity
  8
3
100
AcDbLine
 10
-6.102917998352996
 20
3.525785087332966
 30
0.0
 11
-6.173784140085277
 21
3.545470126703047
 31
0.0
  0
LINE
  5
3CC9
330
1E
100
AcDbEntity
  8
3
100
AcDbLine
 10
11.8222788520407
 20
3.230509496781788
 30
0.0
 11
11.80653082054464
 21
3.273816583395959
 31
0.0
  0
LINE
  5
3CCA
330
1E
100
AcDbEntity
  8
3
100
AcDbLine
 10
11.80653082054464
 20
3.273816583395959
 30
0.0
 11
11.76322373393046
 21
3.289564614892022
 31
0.0
  0
LINE
  5
3CCB
330
1E
100
AcDbEntity
  8
3
100
AcDbLine
 10
11.83015286778873
 20
3.234446504655803
 30
0.0
 11
11.84590089928479
 21
3.191139418041629
 31
0.0
  0
LINE
  5
3CCC
330
1E
100
AcDbEntity
  8
3
100
AcDbLine
 10
11.84590089928479
 20
3.191139418041629
 30
0.0
 11
11.88920798589897
 21
3.175391386545566
 31
0.0
  0
LINE
  5
3CCD
330
1E
100
AcDbEntity
  8
3
100
AcDbLine
 10
-5.97693374638449
 20
4.828934693632181
 30
0.0
 11
-5.992681777880553
 21
4.872241780246355
 31
0.0
  0
LINE
  5
3CCE
330
1E
100
AcDbEntity
  8
3
100
AcDbLine
 10
-5.992681777880553
 20
4.872241780246355
 30
0.0
 11
-6.035988864494727
 21
4.887989811742418
 31
0.0
  0
LINE
  5
3CCF
330
1E
100
AcDbEntity
  8
3
100
AcDbLine
 10
-5.969059730636459
 20
4.828934693632181
 30
0.0
 11
-5.953311699140396
 21
4.785627607018007
 31
0.0
  0
LINE
  5
3CD0
330
1E
100
AcDbEntity
  8
3
100
AcDbLine
 10
-5.953311699140396
 20
4.785627607018007
 30
0.0
 11
-5.910004612526224
 21
4.769879575521944
 31
0.0
  0
LINE
  5
3CD1
330
1E
100
AcDbEntity
  8
3
100
AcDbLine
 10
11.88920798589897
 20
4.887989811742418
 30
0.0
 11
11.84983790715881
 21
4.872241780246355
 31
0.0
  0
LINE
  5
3CD2
330
1E
100
AcDbEntity
  8
3
100
AcDbLine
 10
11.84983790715881
 20
4.872241780246355
 30
0.0
 11
11.83015286778873
 21
4.828934693632181
 31
0.0
  0
LINE
  5
3CD3
330
1E
100
AcDbEntity
  8
3
100
AcDbLine
 10
12.42464105676511
 20
4.828934693632181
 30
0.0
 11
12.40889302526904
 21
4.872241780246355
 31
0.0
  0
LINE
  5
3CD4
330
1E
100
AcDbEntity
  8
3
100
AcDbLine
 10
12.40889302526904
 20
4.872241780246355
 30
0.0
 11
12.36558593865487
 21
4.887989811742418
 31
0.0
  0
LINE
  5
3CD5
330
1E
100
AcDbEntity
  8
3
100
AcDbLine
 10
11.76322373393046
 20
4.769879575521944
 30
0.0
 11
11.80259381267062
 21
4.785627607018007
 31
0.0
  0
LINE
  5
3CD6
330
1E
100
AcDbEntity
  8
3
100
AcDbLine
 10
11.80259381267062
 20
4.785627607018007
 30
0.0
 11
11.8222788520407
 21
4.828934693632181
 31
0.0
  0
LINE
  5
3CD7
330
1E
100
AcDbEntity
  8
3
100
AcDbLine
 10
-5.910004612526224
 20
3.289564614892022
 30
0.0
 11
-5.949374691266381
 21
3.273816583395959
 31
0.0
  0
LINE
  5
3CD8
330
1E
100
AcDbEntity
  8
3
100
AcDbLine
 10
-5.949374691266381
 20
3.273816583395959
 30
0.0
 11
-5.969059730636459
 21
3.230509496781788
 31
0.0
  0
LINE
  5
3CD9
330
1E
100
AcDbEntity
  8
3
100
AcDbLine
 10
12.36558593865487
 20
3.175391386545566
 30
0.0
 11
12.40889302526904
 21
3.191139418041629
 31
0.0
  0
LINE
  5
3CDA
330
1E
100
AcDbEntity
  8
3
100
AcDbLine
 10
12.40889302526904
 20
3.191139418041629
 30
0.0
 11
12.42464105676511
 21
3.234446504655803
 31
0.0
  0
LINE
  5
3CDB
330
1E
100
AcDbEntity
  8
3
100
AcDbLine
 10
-6.173784140085277
 20
4.517911071584936
 30
0.0
 11
-6.106855006227011
 21
4.537596110955014
 31
0.0
  0
LINE
  5
3CDC
330
1E
100
AcDbEntity
  8
3
100
AcDbLine
 10
-6.106855006227011
 20
4.537596110955014
 30
0.0
 11
-6.055673903864805
 21
4.584840205443203
 31
0.0
  0
LINE
  5
3CDD
330
1E
100
AcDbEntity
  8
3
100
AcDbLine
 10
-6.055673903864805
 20
4.584840205443203
 30
0.0
 11
-6.035988864494727
 21
4.655706347175488
 31
0.0
  0
LINE
  5
3CDE
330
1E
100
AcDbEntity
  8
3
100
AcDbLine
 10
-6.035988864494727
 20
4.655706347175488
 30
0.0
 11
-6.055673903864805
 21
4.722635481033755
 31
0.0
  0
LINE
  5
3CDF
330
1E
100
AcDbEntity
  8
3
100
AcDbLine
 10
-6.055673903864805
 20
4.722635481033755
 30
0.0
 11
-6.102917998352996
 21
4.773816583395959
 31
0.0
  0
LINE
  5
3CE0
330
1E
100
AcDbEntity
  8
3
100
AcDbLine
 10
-6.035988864494727
 20
3.175391386545566
 30
0.0
 11
-5.99661878575457
 21
3.191139418041629
 31
0.0
  0
LINE
  5
3CE1
330
1E
100
AcDbEntity
  8
3
100
AcDbLine
 10
-5.99661878575457
 20
3.191139418041629
 30
0.0
 11
-5.97693374638449
 21
3.234446504655803
 31
0.0
  0
LINE
  5
3CE2
330
1E
100
AcDbEntity
  8
3
100
AcDbLine
 10
-6.299768392053781
 20
4.79350162276604
 30
0.0
 11
-6.366697525912051
 21
4.773816583395959
 31
0.0
  0
LINE
  5
3CE3
330
1E
100
AcDbEntity
  8
3
100
AcDbLine
 10
-6.366697525912051
 20
4.773816583395959
 30
0.0
 11
-6.417878628274255
 21
4.72657248890777
 31
0.0
  0
LINE
  5
3CE4
330
1E
100
AcDbEntity
  8
3
100
AcDbLine
 10
-6.417878628274255
 20
4.72657248890777
 30
0.0
 11
-6.437563667644333
 21
4.655706347175488
 31
0.0
  0
LINE
  5
3CE5
330
1E
100
AcDbEntity
  8
3
100
AcDbLine
 10
-6.437563667644333
 20
4.655706347175488
 30
0.0
 11
-6.417878628274255
 21
4.588777213317218
 31
0.0
  0
LINE
  5
3CE6
330
1E
100
AcDbEntity
  8
3
100
AcDbLine
 10
-6.417878628274255
 20
4.588777213317218
 30
0.0
 11
-6.370634533786066
 21
4.537596110955014
 31
0.0
  0
LINE
  5
3CE7
330
1E
100
AcDbEntity
  8
3
100
AcDbLine
 10
11.70416861582022
 20
4.891926819616433
 30
0.0
 11
11.70416861582022
 21
4.87617878812037
 31
0.0
  0
LINE
  5
3CE8
330
1E
100
AcDbEntity
  8
3
100
AcDbLine
 10
11.70416861582022
 20
4.87617878812037
 30
0.0
 11
11.70416861582022
 21
4.828934693632181
 31
0.0
  0
LINE
  5
3CE9
330
1E
100
AcDbEntity
  8
3
100
AcDbLine
 10
-6.567484927486853
 20
3.234446504655803
 30
0.0
 11
-6.55173689599079
 21
3.191139418041629
 31
0.0
  0
LINE
  5
3CEA
330
1E
100
AcDbEntity
  8
3
100
AcDbLine
 10
-6.55173689599079
 20
3.191139418041629
 30
0.0
 11
-6.508429809376618
 21
3.175391386545566
 31
0.0
  0
LINE
  5
3CEB
330
1E
100
AcDbEntity
  8
3
100
AcDbLine
 10
-6.508429809376618
 20
4.887989811742418
 30
0.0
 11
-6.55173689599079
 21
4.872241780246355
 31
0.0
  0
LINE
  5
3CEC
330
1E
100
AcDbEntity
  8
3
100
AcDbLine
 10
-6.55173689599079
 20
4.872241780246355
 30
0.0
 11
-6.567484927486853
 21
4.828934693632181
 31
0.0
  0
LINE
  5
3CED
330
1E
100
AcDbEntity
  8
3
100
AcDbLine
 10
-5.847012486541972
 20
3.171454378671551
 30
0.0
 11
-5.847012486541972
 21
3.187202410167614
 31
0.0
  0
LINE
  5
3CEE
330
1E
100
AcDbEntity
  8
3
100
AcDbLine
 10
-5.847012486541972
 20
3.187202410167614
 30
0.0
 11
-5.847012486541972
 21
3.230509496781788
 31
0.0
  0
LINE
  5
3CEF
330
1E
100
AcDbEntity
  8
3
100
AcDbLine
 10
-5.847012486541972
 20
4.891926819616433
 30
0.0
 11
-5.847012486541972
 21
4.87617878812037
 31
0.0
  0
LINE
  5
3CF0
330
1E
100
AcDbEntity
  8
3
100
AcDbLine
 10
-5.847012486541972
 20
4.87617878812037
 30
0.0
 11
-5.847012486541972
 21
4.828934693632181
 31
0.0
  0
LINE
  5
3CF1
330
1E
100
AcDbEntity
  8
3
100
AcDbLine
 10
11.70416861582022
 20
3.171454378671551
 30
0.0
 11
11.70416861582022
 21
3.187202410167614
 31
0.0
  0
LINE
  5
3CF2
330
1E
100
AcDbEntity
  8
3
100
AcDbLine
 10
11.70416861582022
 20
3.187202410167614
 30
0.0
 11
11.70416861582022
 21
3.230509496781788
 31
0.0
  0
LINE
  5
3D05
330
1E
100
AcDbEntity
  8
3
100
AcDbLine
 10
8.751412710308418
 20
3.313186662136118
 30
0.0
 11
8.751412710308418
 21
4.750194536151866
 31
0.0
  0
LINE
  5
3D06
330
1E
100
AcDbEntity
  8
3
100
AcDbLine
 10
8.751412710308418
 20
4.750194536151866
 30
0.0
 11
8.739601686686373
 21
4.738383512529818
 31
0.0
  0
LINE
  5
3D07
330
1E
100
AcDbEntity
  8
3
100
AcDbLine
 10
11.66479853708007
 20
3.313186662136118
 30
0.0
 11
11.66479853708007
 21
4.750194536151866
 31
0.0
  0
LINE
  5
3D08
330
1E
100
AcDbEntity
  8
3
100
AcDbLine
 10
11.66479853708007
 20
4.750194536151866
 30
0.0
 11
11.65692452133204
 21
4.738383512529818
 31
0.0
  0
LINE
  5
3D09
330
1E
100
AcDbEntity
  8
3
100
AcDbLine
 10
11.47975916700133
 20
3.710824457411707
 30
0.0
 11
11.47975916700133
 21
4.356493748750292
 31
0.0
  0
LINE
  5
3D0A
330
1E
100
AcDbEntity
  8
3
100
AcDbLine
 10
11.47975916700133
 20
4.356493748750292
 30
0.0
 11
10.90101900952101
 21
4.356493748750292
 31
0.0
  0
LINE
  5
3D0B
330
1E
100
AcDbEntity
  8
3
100
AcDbLine
 10
8.566373340229681
 20
3.710824457411707
 30
0.0
 11
8.566373340229681
 21
4.356493748750292
 31
0.0
  0
LINE
  5
3D0C
330
1E
100
AcDbEntity
  8
3
100
AcDbLine
 10
8.566373340229681
 20
4.356493748750292
 30
0.0
 11
7.983696174875348
 21
4.356493748750292
 31
0.0
  0
LINE
  5
3D0D
330
1E
100
AcDbEntity
  8
3
100
AcDbLine
 10
5.649050505584011
 20
3.710824457411707
 30
0.0
 11
5.649050505584011
 21
4.356493748750292
 31
0.0
  0
LINE
  5
3D0E
330
1E
100
AcDbEntity
  8
3
100
AcDbLine
 10
5.649050505584011
 20
4.356493748750292
 30
0.0
 11
5.070310348103696
 21
4.356493748750292
 31
0.0
  0
LINE
  5
3D0F
330
1E
100
AcDbEntity
  8
3
100
AcDbLine
 10
2.735664678812355
 20
3.710824457411707
 30
0.0
 11
2.735664678812355
 21
4.356493748750292
 31
0.0
  0
LINE
  5
3D10
330
1E
100
AcDbEntity
  8
3
100
AcDbLine
 10
2.735664678812355
 20
4.356493748750292
 30
0.0
 11
2.15692452133204
 21
4.356493748750292
 31
0.0
  0
LINE
  5
3D11
330
1E
100
AcDbEntity
  8
3
100
AcDbLine
 10
-0.1816581558333112
 20
3.710824457411707
 30
0.0
 11
-0.1816581558333112
 21
4.356493748750292
 31
0.0
  0
LINE
  5
3D12
330
1E
100
AcDbEntity
  8
3
100
AcDbLine
 10
-0.1816581558333112
 20
4.356493748750292
 30
0.0
 11
-0.7603983133136261
 21
4.356493748750292
 31
0.0
  0
ENDSEC
  0
SECTION
  2
OBJECTS
  0
DICTIONARY
  5
C
330
0
100
AcDbDictionary
  3
ACAD_GROUP
350
D
  3
ACAD_LAYOUT
350
19
  3
ACAD_MLINESTYLE
350
16
  3
ACAD_PLOTSETTINGS
350
18
1001
ACAD
1000
TREAT_AS_HARD
1070
     0
  0
DICTIONARY
  5
5095
330
1E
100
AcDbDictionary
  3
ACAD_LAYOUTSELFREF
350
50D0
1001
ACAD
1000
TREAT_AS_HARD
1070
     1
  0
DICTIONARY
  5
5097
330
1A
100
AcDbDictionary
  3
ACAD_LAYOUTSELFREF
350
50CF
1001
ACAD
1000
TREAT_AS_HARD
1070
     1
  0
DICTIONARY
  5
D
102
{ACAD_REACTORS
330
C
102
}
330
C
100
AcDbDictionary
1001
ACAD
1000
TREAT_AS_HARD
1070
     0
  0
DICTIONARY
  5
19
102
{ACAD_REACTORS
330
C
102
}
330
C
100
AcDbDictionary
1001
ACAD
1000
TREAT_AS_HARD
1070
     0
  0
DICTIONARY
  5
16
102
{ACAD_REACTORS
330
C
102
}
330
C
100
AcDbDictionary
  3
STANDARD
350
17
1001
ACAD
1000
TREAT_AS_HARD
1070
     0
  0
DICTIONARY
  5
18
102
{ACAD_REACTORS
330
C
102
}
330
C
100
AcDbDictionary
1001
ACAD
1000
TREAT_AS_HARD
1070
     0
  0
XRECORD
  5
50D0
102
{ACAD_REACTORS
330
5095
102
}
330
5095
100
AcDbXrecord
340
1E
  0
XRECORD
  5
50CF
102
{ACAD_REACTORS
330
5097
102
}
330
5097
100
AcDbXrecord
340
1A
  0
MLINESTYLE
  5
17
102
{ACAD_REACTORS
330
16
102
}
330
16
100
AcDbMlineStyle
  2
STANDARD
 70
     0
  3

 62
   256
 51
90.0
 52
90.0
 71
     2
 49
0.5
 62
   256
  6
BYLAYER
 49
-0.5
 62
   256
  6
BYLAYER
  0
ENDSEC
  0
EOF
