  0
SECTION
  2
HEADER
  9
$ACADVER
  1
AC1014
  9
$ACADMAINTVER
 70
     9
  9
$DWGCODEPAGE
  3
ANSI_1252
  9
$INSBASE
 10
0.0
 20
0.0
 30
0.0
  9
$EXTMIN
 10
0.5063309350567798
 20
-26.54510982097578
 30
-0.0000000239796316
  9
$EXTMAX
 10
32.2634932435251
 20
7.242641626298267
 30
0.000000008033605
  9
$LIMMIN
 10
-0.5
 20
-0.5
  9
$LIMMAX
 10
5.0
 20
5.0
  9
$ORTHOMODE
 70
     0
  9
$REGENMODE
 70
     1
  9
$FILLMODE
 70
     1
  9
$QTEXTMODE
 70
     0
  9
$MIRRTEXT
 70
     1
  9
$DRAGMODE
 70
     2
  9
$LTSCALE
 40
1.0
  9
$OSMODE
 70
   261
  9
$ATTMODE
 70
     1
  9
$TEXTSIZE
 40
0.0
  9
$TRACEWID
 40
0.05
  9
$TEXTSTYLE
  7
STANDARD
  9
$CLAYER
  8
0
  9
$CELTYPE
  6
CONTINUOUS
  9
$CECOLOR
 62
   256
  9
$CELTSCALE
 40
1.0
  9
$DELOBJ
 70
     1
  9
$DISPSILH
 70
     0
  9
$DIMSCALE
 40
1.0
  9
$DIMASZ
 40
0.18
  9
$DIMEXO
 40
0.0625
  9
$DIMDLI
 40
0.38
  9
$DIMRND
 40
0.0
  9
$DIMDLE
 40
0.0
  9
$DIMEXE
 40
0.18
  9
$DIMTP
 40
0.0
  9
$DIMTM
 40
0.0
  9
$DIMTXT
 40
0.18
  9
$DIMCEN
 40
0.09
  9
$DIMTSZ
 40
0.0
  9
$DIMTOL
 70
     0
  9
$DIMLIM
 70
     0
  9
$DIMTIH
 70
     1
  9
$DIMTOH
 70
     1
  9
$DIMSE1
 70
     0
  9
$DIMSE2
 70
     0
  9
$DIMTAD
 70
     0
  9
$DIMZIN
 70
     0
  9
$DIMBLK
  1

  9
$DIMASO
 70
     1
  9
$DIMSHO
 70
     1
  9
$DIMPOST
  1

  9
$DIMAPOST
  1

  9
$DIMALT
 70
     0
  9
$DIMALTD
 70
     2
  9
$DIMALTF
 40
25.4
  9
$DIMLFAC
 40
1.0
  9
$DIMTOFL
 70
     0
  9
$DIMTVP
 40
0.0
  9
$DIMTIX
 70
     0
  9
$DIMSOXD
 70
     0
  9
$DIMSAH
 70
     0
  9
$DIMBLK1
  1

  9
$DIMBLK2
  1

  9
$DIMSTYLE
  2
STANDARD
  9
$DIMCLRD
 70
     0
  9
$DIMCLRE
 70
     0
  9
$DIMCLRT
 70
     0
  9
$DIMTFAC
 40
1.0
  9
$DIMGAP
 40
0.09
  9
$DIMJUST
 70
     0
  9
$DIMSD1
 70
     0
  9
$DIMSD2
 70
     0
  9
$DIMTOLJ
 70
     1
  9
$DIMTZIN
 70
     0
  9
$DIMALTZ
 70
     0
  9
$DIMALTTZ
 70
     0
  9
$DIMFIT
 70
     3
  9
$DIMUPT
 70
     0
  9
$DIMUNIT
 70
     2
  9
$DIMDEC
 70
     4
  9
$DIMTDEC
 70
     4
  9
$DIMALTU
 70
     2
  9
$DIMALTTD
 70
     2
  9
$DIMTXSTY
  7
STANDARD
  9
$DIMAUNIT
 70
     0
  9
$LUNITS
 70
     2
  9
$LUPREC
 70
     4
  9
$SKETCHINC
 40
0.1
  9
$FILLETRAD
 40
0.0
  9
$AUNITS
 70
     0
  9
$AUPREC
 70
     0
  9
$MENU
  1
acad
  9
$ELEVATION
 40
0.0
  9
$PELEVATION
 40
0.0
  9
$THICKNESS
 40
0.0
  9
$LIMCHECK
 70
     0
  9
$BLIPMODE
 70
     0
  9
$CHAMFERA
 40
0.0
  9
$CHAMFERB
 40
0.0
  9
$CHAMFERC
 40
0.0
  9
$CHAMFERD
 40
0.0
  9
$SKPOLY
 70
     0
  9
$TDCREATE
 40
2452717.622851654
  9
$TDUPDATE
 40
2452717.626803298
  9
$TDINDWG
 40
0.0039771412
  9
$TDUSRTIMER
 40
0.0039771412
  9
$USRTIMER
 70
     1
  9
$ANGBASE
 50
0.0
  9
$ANGDIR
 70
     0
  9
$PDMODE
 70
     0
  9
$PDSIZE
 40
0.0
  9
$PLINEWID
 40
0.0
  9
$COORDS
 70
     1
  9
$SPLFRAME
 70
     0
  9
$SPLINETYPE
 70
     6
  9
$SPLINESEGS
 70
     8
  9
$ATTDIA
 70
     0
  9
$ATTREQ
 70
     1
  9
$HANDLING
 70
  4097
  9
$HANDSEED
  5
2AB
  9
$SURFTAB1
 70
     6
  9
$SURFTAB2
 70
     6
  9
$SURFTYPE
 70
     6
  9
$SURFU
 70
     6
  9
$SURFV
 70
     6
  9
$UCSNAME
  2

  9
$UCSORG
 10
0.0
 20
0.0
 30
0.0
  9
$UCSXDIR
 10
1.0
 20
0.0
 30
0.0
  9
$UCSYDIR
 10
0.0
 20
1.0
 30
0.0
  9
$PUCSNAME
  2

  9
$PUCSORG
 10
0.0
 20
0.0
 30
0.0
  9
$PUCSXDIR
 10
1.0
 20
0.0
 30
0.0
  9
$PUCSYDIR
 10
0.0
 20
1.0
 30
0.0
  9
$USERI1
 70
     0
  9
$USERI2
 70
     0
  9
$USERI3
 70
     0
  9
$USERI4
 70
     0
  9
$USERI5
 70
     0
  9
$USERR1
 40
0.0
  9
$USERR2
 40
0.0
  9
$USERR3
 40
0.0
  9
$USERR4
 40
0.0
  9
$USERR5
 40
0.0
  9
$WORLDVIEW
 70
     1
  9
$SHADEDGE
 70
     3
  9
$SHADEDIF
 70
    70
  9
$TILEMODE
 70
     1
  9
$MAXACTVP
 70
    16
  9
$PINSBASE
 10
0.0
 20
0.0
 30
0.0
  9
$PLIMCHECK
 70
     0
  9
$PEXTMIN
 10
1.000000000000000E+20
 20
1.000000000000000E+20
 30
1.000000000000000E+20
  9
$PEXTMAX
 10
-1.000000000000000E+20
 20
-1.000000000000000E+20
 30
-1.000000000000000E+20
  9
$PLIMMIN
 10
-0.1979161059762549
 20
-0.2112499935420479
  9
$PLIMMAX
 10
10.80208365372785
 20
8.288749766162061
  9
$UNITMODE
 70
     0
  9
$VISRETAIN
 70
     0
  9
$PLINEGEN
 70
     1
  9
$PSLTSCALE
 70
     0
  9
$TREEDEPTH
 70
  3020
  9
$PICKSTYLE
 70
     1
  9
$CMLSTYLE
  2
STANDARD
  9
$CMLJUST
 70
     0
  9
$CMLSCALE
 40
1.0
  9
$PROXYGRAPHICS
 70
     0
  9
$MEASUREMENT
 70
     0
  0
ENDSEC
  0
SECTION
  2
CLASSES
  0
CLASS
  1
LWPOLYLINE
  2
AcDbPolyline
  3
AutoCAD 2000
 90
        0
280
     0
281
     1
  0
CLASS
  1
IMAGE
  2
AcDbRasterImage
  3
ISM
 90
      127
280
     0
281
     1
  0
CLASS
  1
OLE2FRAME
  2
AcDbOle2Frame
  3
AutoCAD 2000
 90
        0
280
     0
281
     1
  0
CLASS
  1
HATCH
  2
AcDbHatch
  3
AutoCAD 2000
 90
        0
280
     0
281
     1
  0
CLASS
  1
DICTIONARYVAR
  2
AcDbDictionaryVar
  3
AutoCAD 2000
 90
        0
280
     0
281
     0
  0
CLASS
  1
RASTERVARIABLES
  2
AcDbRasterVariables
  3
ISM
 90
        0
280
     0
281
     0
  0
CLASS
  1
IMAGEDEF
  2
AcDbRasterImageDef
  3
ISM
 90
        0
280
     0
281
     0
  0
CLASS
  1
IMAGEDEF_REACTOR
  2
AcDbRasterImageDefReactor
  3
ISM
 90
        1
280
     0
281
     0
  0
CLASS
  1
IDBUFFER
  2
AcDbIdBuffer
  3
AutoCAD 2000
 90
        0
280
     0
281
     0
  0
CLASS
  1
SPATIAL_FILTER
  2
AcDbSpatialFilter
  3
AutoCAD 2000
 90
        0
280
     0
281
     0
  0
CLASS
  1
XRECORD
  2
AcDbXrecord
  3
AutoCAD 2000
 90
        0
280
     0
281
     0
  0
CLASS
  1
SORTENTSTABLE
  2
AcDbSortentsTable
  3
AutoCAD 2000
 90
        0
280
     0
281
     0
  0
CLASS
  1
LAYER_INDEX
  2
AcDbLayerIndex
  3
AutoCAD 2000
 90
        0
280
     0
281
     0
  0
CLASS
  1
SPATIAL_INDEX
  2
AcDbSpatialIndex
  3
AutoCAD 2000
 90
        0
280
     0
281
     0
  0
CLASS
  1
OBJECT_PTR
  2
CAseDLPNTableRecord
  3
ASE-LPNTableRecord
 90
        1
280
     0
281
     0
  0
CLASS
  1
LAYOUT
  2
AcDbLayout
  3
AutoCAD 2000
 90
        0
280
     0
281
     0
  0
CLASS
  1
PLOTSETTINGS
  2
AcDbPlotSettings
  3
AutoCAD 2000
 90
        0
280
     0
281
     0
  0
CLASS
  1
ACDBDICTIONARYWDFLT
  2
AcDbDictionaryWithDefault
  3
AutoCAD 2000
 90
        0
280
     0
281
     0
  0
CLASS
  1
ACDBPLACEHOLDER
  2
AcDbPlaceHolder
  3
AutoCAD 2000
 90
        0
280
     0
281
     0
  0
CLASS
  1
VBA_PROJECT
  2
AcDbVbaProject
  3
acadvba
 90
        0
280
     0
281
     0
  0
CLASS
  1
RTEXT
  2
RText
  3
RText|AutoCAD Express Tool|expresstools@autodesk.com
 90
        0
280
     0
281
     1
  0
CLASS
  1
ARCALIGNEDTEXT
  2
AcDbArcAlignedText
  3
ATEXT|AutoCAD Express Tool|expresstools@autodesk.com
 90
        0
280
     0
281
     1
  0
CLASS
  1
LONG_TRANSACTION
  2
AcDbLongTransaction
  3
AutoCAD 2000
 90
        0
280
     0
281
     0
  0
CLASS
  1
LWPOLYLINE
  2
AcDbPolyline
  3
AutoCAD 2000
 90
        0
280
     0
281
     1
  0
CLASS
  1
HATCH
  2
AcDbHatch
  3
AutoCAD 2000
 90
        0
280
     0
281
     1
  0
CLASS
  1
XRECORD
  2
AcDbXrecord
  3
AutoCAD 2000
 90
        0
280
     0
281
     0
  0
ENDSEC
  0
SECTION
  2
TABLES
  0
TABLE
  2
VPORT
  5
7
330
0
100
AcDbSymbolTable
 70
    23
  0
VPORT
  5
24E
330
7
100
AcDbSymbolTableRecord
100
AcDbViewportTableRecord
  2
L1
 70
     0
 10
0.0
 20
0.0
 11
1.0
 21
1.0
 12
0.0
 22
0.0
 13
0.0
 23
0.0
 14
1.0
 24
1.0
 15
0.0
 25
0.0
 16
0.0
 26
0.0
 36
1.0
 17
0.0
 27
0.0
 37
0.0
 40
7.926304133858266
 41
0.688564
 42
50.0
 43
22.86983526390032
 44
-22.86983526390032
 50
0.0
 51
0.0
 71
    16
 72
   100
 73
     1
 74
     1
 75
     0
 76
     0
 77
     0
 78
     0
  0
VPORT
  5
24F
330
7
100
AcDbSymbolTableRecord
100
AcDbViewportTableRecord
  2
L2
 70
     0
 10
0.0
 20
0.0
 11
0.5
 21
1.0
 12
0.0
 22
0.0
 13
0.0
 23
0.0
 14
1.0
 24
1.0
 15
0.0
 25
0.0
 16
0.0
 26
-1.0
 36
0.0
 17
0.0
 27
0.0
 37
0.0
 40
45.73967052780065
 41
0.688564
 42
50.0
 43
23.44633426093276
 44
-23.44633426093276
 50
0.0
 51
0.0
 71
    16
 72
   100
 73
     1
 74
     1
 75
     0
 76
     0
 77
     0
 78
     0
  0
VPORT
  5
250
330
7
100
AcDbSymbolTableRecord
100
AcDbViewportTableRecord
  2
L2
 70
     0
 10
0.5
 20
0.0
 11
1.0
 21
1.0
 12
0.0
 22
0.0
 13
0.0
 23
0.0
 14
1.0
 24
1.0
 15
0.0
 25
0.0
 16
1.0
 26
0.0
 36
0.0
 17
0.0
 27
0.0
 37
0.0
 40
45.73967052780065
 41
0.688564
 42
50.0
 43
23.21068588610736
 44
-23.21068588610736
 50
0.0
 51
0.0
 71
    16
 72
   100
 73
     1
 74
     1
 75
     0
 76
     0
 77
     0
 78
     0
  0
VPORT
  5
251
330
7
100
AcDbSymbolTableRecord
100
AcDbViewportTableRecord
  2
L3
 70
     0
 10
0.0
 20
0.5
 11
1.0
 21
1.0
 12
0.0
 22
0.0
 13
0.0
 23
0.0
 14
1.0
 24
1.0
 15
0.0
 25
0.0
 16
0.0
 26
0.0
 36
1.0
 17
0.0
 27
0.0
 37
0.0
 40
7.926304133858266
 41
0.688564
 42
50.0
 43
22.86983526390032
 44
-22.86983526390032
 50
0.0
 51
0.0
 71
    16
 72
   100
 73
     1
 74
     1
 75
     0
 76
     0
 77
     0
 78
     0
  0
VPORT
  5
252
330
7
100
AcDbSymbolTableRecord
100
AcDbViewportTableRecord
  2
L3
 70
     0
 10
0.0
 20
0.0
 11
1.0
 21
0.5
 12
0.0
 22
0.0
 13
0.0
 23
0.0
 14
1.0
 24
1.0
 15
0.0
 25
0.0
 16
0.0
 26
-1.0
 36
0.0
 17
0.0
 27
0.0
 37
0.0
 40
45.73967052780065
 41
0.688564
 42
50.0
 43
23.44633426093276
 44
-23.44633426093276
 50
0.0
 51
0.0
 71
    16
 72
   100
 73
     1
 74
     1
 75
     0
 76
     0
 77
     0
 78
     0
  0
VPORT
  5
253
330
7
100
AcDbSymbolTableRecord
100
AcDbViewportTableRecord
  2
L4
 70
     0
 10
0.0
 20
0.5
 11
0.5
 21
1.0
 12
0.0
 22
0.0
 13
0.0
 23
0.0
 14
1.0
 24
1.0
 15
0.0
 25
0.0
 16
0.0
 26
0.0
 36
1.0
 17
0.0
 27
0.0
 37
0.0
 40
7.926304133858266
 41
0.688564
 42
50.0
 43
22.86983526390032
 44
-22.86983526390032
 50
0.0
 51
0.0
 71
    16
 72
   100
 73
     1
 74
     1
 75
     0
 76
     0
 77
     0
 78
     0
  0
VPORT
  5
254
330
7
100
AcDbSymbolTableRecord
100
AcDbViewportTableRecord
  2
L4
 70
     0
 10
0.0
 20
0.0
 11
0.5
 21
0.5
 12
0.0
 22
0.0
 13
0.0
 23
0.0
 14
1.0
 24
1.0
 15
0.0
 25
0.0
 16
0.0
 26
-1.0
 36
0.0
 17
0.0
 27
0.0
 37
0.0
 40
45.73967052780065
 41
0.688564
 42
50.0
 43
23.44633426093276
 44
-23.44633426093276
 50
0.0
 51
0.0
 71
    16
 72
   100
 73
     1
 74
     1
 75
     0
 76
     0
 77
     0
 78
     0
  0
VPORT
  5
255
330
7
100
AcDbSymbolTableRecord
100
AcDbViewportTableRecord
  2
L4
 70
     0
 10
0.5
 20
0.0
 11
1.0
 21
0.5
 12
0.0
 22
0.0
 13
0.0
 23
0.0
 14
1.0
 24
1.0
 15
0.0
 25
0.0
 16
1.0
 26
0.0
 36
0.0
 17
0.0
 27
0.0
 37
0.0
 40
45.73967052780065
 41
0.688564
 42
50.0
 43
23.21068588610736
 44
-23.21068588610736
 50
0.0
 51
0.0
 71
    16
 72
   100
 73
     1
 74
     1
 75
     0
 76
     0
 77
     0
 78
     0
  0
VPORT
  5
256
330
7
100
AcDbSymbolTableRecord
100
AcDbViewportTableRecord
  2
L4
 70
     0
 10
0.5
 20
0.5
 11
1.0
 21
1.0
 12
0.0
 22
0.0
 13
0.0
 23
0.0
 14
1.0
 24
1.0
 15
0.0
 25
0.0
 16
0.5773502691896259
 26
-0.5773502691896259
 36
0.5773502691896259
 17
0.0
 27
0.0
 37
0.0
 40
44.80128613809216
 41
0.688564
 42
50.0
 43
23.31247725727461
 44
-23.31247725727461
 50
0.0
 51
0.0
 71
    16
 72
   100
 73
     1
 74
     1
 75
     0
 76
     0
 77
     0
 78
     0
  0
VPORT
  5
257
330
7
100
AcDbSymbolTableRecord
100
AcDbViewportTableRecord
  2
L6
 70
     0
 10
0.0
 20
0.5
 11
0.3333333333333334
 21
1.0
 12
0.0
 22
0.0
 13
0.0
 23
0.0
 14
1.0
 24
1.0
 15
0.0
 25
0.0
 16
0.7188730927569434
 26
-0.5850486126764432
 36
0.3754192287502549
 17
0.0
 27
0.0
 37
0.0
 40
47.28156778779488
 41
0.688564
 42
50.0
 43
24.4750051625393
 44
-24.4750051625393
 50
0.0
 51
0.0
 71
    16
 72
   100
 73
     1
 74
     1
 75
     0
 76
     0
 77
     0
 78
     0
  0
VPORT
  5
258
330
7
100
AcDbSymbolTableRecord
100
AcDbViewportTableRecord
  2
L6
 70
     0
 10
0.0
 20
0.0
 11
0.3333333333333334
 21
0.5
 12
0.0
 22
0.0
 13
0.0
 23
0.0
 14
1.0
 24
1.0
 15
0.0
 25
0.0
 16
-1.0
 26
0.0
 36
0.0
 17
0.0
 27
0.0
 37
0.0
 40
45.73967052780065
 41
0.688564
 42
50.0
 43
23.21068588610736
 44
-23.21068588610736
 50
0.0
 51
0.0
 71
    16
 72
   100
 73
     1
 74
     1
 75
     0
 76
     0
 77
     0
 78
     0
  0
VPORT
  5
259
330
7
100
AcDbSymbolTableRecord
100
AcDbViewportTableRecord
  2
L6
 70
     0
 10
0.3333333333333334
 20
0.5
 11
0.6666666666666666
 21
1.0
 12
0.0
 22
0.0
 13
0.0
 23
0.0
 14
1.0
 24
1.0
 15
0.0
 25
0.0
 16
0.0
 26
0.0
 36
1.0
 17
0.0
 27
0.0
 37
0.0
 40
7.926304133858266
 41
0.688564
 42
50.0
 43
22.86983526390032
 44
-22.86983526390032
 50
0.0
 51
0.0
 71
    16
 72
   100
 73
     1
 74
     1
 75
     0
 76
     0
 77
     0
 78
     0
  0
VPORT
  5
25A
330
7
100
AcDbSymbolTableRecord
100
AcDbViewportTableRecord
  2
L6
 70
     0
 10
0.3333333333333334
 20
0.0
 11
0.6666666666666666
 21
0.5
 12
0.0
 22
0.0
 13
0.0
 23
0.0
 14
1.0
 24
1.0
 15
0.0
 25
0.0
 16
0.0
 26
-1.0
 36
0.0
 17
0.0
 27
0.0
 37
0.0
 40
45.73967052780065
 41
0.688564
 42
50.0
 43
23.44633426093276
 44
-23.44633426093276
 50
0.0
 51
0.0
 71
    16
 72
   100
 73
     1
 74
     1
 75
     0
 76
     0
 77
     0
 78
     0
  0
VPORT
  5
25B
330
7
100
AcDbSymbolTableRecord
100
AcDbViewportTableRecord
  2
L6
 70
     0
 10
0.6666666666666666
 20
0.5
 11
1.0
 21
1.0
 12
0.0
 22
0.0
 13
0.0
 23
0.0
 14
1.0
 24
1.0
 15
0.0
 25
0.0
 16
0.5773502691896259
 26
-0.5773502691896259
 36
0.5773502691896259
 17
0.0
 27
0.0
 37
0.0
 40
44.80128613809216
 41
0.688564
 42
50.0
 43
23.31247725727461
 44
-23.31247725727461
 50
0.0
 51
0.0
 71
    16
 72
   100
 73
     1
 74
     1
 75
     0
 76
     0
 77
     0
 78
     0
  0
VPORT
  5
25C
330
7
100
AcDbSymbolTableRecord
100
AcDbViewportTableRecord
  2
L6
 70
     0
 10
0.6666666666666666
 20
0.0
 11
1.0
 21
0.5
 12
0.0
 22
0.0
 13
0.0
 23
0.0
 14
1.0
 24
1.0
 15
0.0
 25
0.0
 16
1.0
 26
0.0
 36
0.0
 17
0.0
 27
0.0
 37
0.0
 40
45.73967052780065
 41
0.688564
 42
50.0
 43
23.21068588610736
 44
-23.21068588610736
 50
0.0
 51
0.0
 71
    16
 72
   100
 73
     1
 74
     1
 75
     0
 76
     0
 77
     0
 78
     0
  0
VPORT
  5
285
330
7
100
AcDbSymbolTableRecord
100
AcDbViewportTableRecord
  2
*ACTIVE
 70
     0
 10
0.0
 20
0.0
 11
1.0
 21
1.0
 12
16.38491208929093
 22
-9.651234097338758
 13
0.0
 23
0.0
 14
1.0
 24
1.0
 15
0.0
 25
0.0
 16
0.0
 26
0.0
 36
1.0
 17
0.0
 27
0.0
 37
0.0
 40
34.03558336498021
 41
1.507955936352509
 42
50.0
 43
22.86983526390032
 44
-22.86983526390032
 50
0.0
 51
0.0
 71
    16
 72
   100
 73
     1
 74
     1
 75
     0
 76
     0
 77
     0
 78
     0
  0
ENDTAB
  0
TABLE
  2
LTYPE
  5
4
330
0
100
AcDbSymbolTable
 70
     7
  0
LTYPE
  5
11
330
4
100
AcDbSymbolTableRecord
100
AcDbLinetypeTableRecord
  2
BYBLOCK
 70
     0
  3

 72
    65
 73
     0
 40
0.0
  0
LTYPE
  5
12
330
4
100
AcDbSymbolTableRecord
100
AcDbLinetypeTableRecord
  2
BYLAYER
 70
     0
  3

 72
    65
 73
     0
 40
0.0
  0
LTYPE
  5
13
330
4
100
AcDbSymbolTableRecord
100
AcDbLinetypeTableRecord
  2
CONTINUOUS
 70
     0
  3
Solid line
 72
    65
 73
     0
 40
0.0
  0
LTYPE
  5
22
330
4
100
AcDbSymbolTableRecord
100
AcDbLinetypeTableRecord
  2
DASHED
 70
     0
  3
__ __ __ __ __ __ __ __ __
 72
    65
 73
     2
 40
0.75
 49
0.5
 74
     0
 49
-0.25
 74
     0
  0
LTYPE
  5
23
330
4
100
AcDbSymbolTableRecord
100
AcDbLinetypeTableRecord
  2
HIDDEN
 70
     0
  3
_ _ _ _ _ _ _ _ _ _ _ _ _ _ _
 72
    65
 73
     2
 40
0.5
 49
0.25
 74
     0
 49
-0.25
 74
     0
  0
LTYPE
  5
24
330
4
100
AcDbSymbolTableRecord
100
AcDbLinetypeTableRecord
  2
PHANTOM
 70
     0
  3
____ _ _ ____ _ _ _____ _ _ ____
 72
    65
 73
     6
 40
2.5
 49
1.25
 74
     0
 49
-0.25
 74
     0
 49
0.25
 74
     0
 49
-0.25
 74
     0
 49
0.25
 74
     0
 49
-0.25
 74
     0
  0
LTYPE
  5
25
330
4
100
AcDbSymbolTableRecord
100
AcDbLinetypeTableRecord
  2
CENTER
 70
     0
  3
____ _ ____ _ ____ _ ____
 72
    65
 73
     4
 40
2.0
 49
1.25
 74
     0
 49
-0.25
 74
     0
 49
0.25
 74
     0
 49
-0.25
 74
     0
  0
LTYPE
  5
26
330
4
100
AcDbSymbolTableRecord
100
AcDbLinetypeTableRecord
  2
DOT
 70
     0
  3
.........................
 72
    65
 73
     2
 40
0.25
 49
0.0
 74
     0
 49
-0.25
 74
     0
  0
LTYPE
  5
27
330
4
100
AcDbSymbolTableRecord
100
AcDbLinetypeTableRecord
  2
DASHDOT
 70
     0
  3
_._._._._._._._._._._._._._._._.
 72
    65
 73
     4
 40
1.0
 49
0.5
 74
     0
 49
-0.25
 74
     0
 49
0.0
 74
     0
 49
-0.25
 74
     0
  0
ENDTAB
  0
TABLE
  2
LAYER
  5
2
330
0
100
AcDbSymbolTable
 70
     4
  0
LAYER
  5
14
330
2
100
AcDbSymbolTableRecord
100
AcDbLayerTableRecord
  2
0
 70
     0
 62
     7
  6
CONTINUOUS
  0
LAYER
  5
29
330
2
100
AcDbSymbolTableRecord
100
AcDbLayerTableRecord
  2
1
 70
     0
 62
     7
  6
CONTINUOUS
  0
LAYER
  5
2A
330
2
100
AcDbSymbolTableRecord
100
AcDbLayerTableRecord
  2
TOP
 70
     0
 62
     7
  6
CONTINUOUS
  0
LAYER
  5
274
330
2
100
AcDbSymbolTableRecord
100
AcDbLayerTableRecord
  2
DEFPOINTS
 70
     0
 62
     7
  6
CONTINUOUS
  0
ENDTAB
  0
TABLE
  2
STYLE
  5
3
330
0
100
AcDbSymbolTable
 70
     1
  0
STYLE
  5
17
330
3
100
AcDbSymbolTableRecord
100
AcDbTextStyleTableRecord
  2
STANDARD
 70
     0
 40
0.0
 41
1.0
 50
0.0
 71
     0
 42
0.0
  3
txt
  4

  0
ENDTAB
  0
TABLE
  2
VIEW
  5
5
330
0
100
AcDbSymbolTable
 70
     8
  0
VIEW
  5
245
330
5
100
AcDbSymbolTableRecord
100
AcDbViewTableRecord
  2
TOP
 70
     0
 40
7.926304133858266
 10
0.0
 20
0.0
 41
10.33464566929133
 11
0.0
 21
0.0
 31
1.0
 12
0.0
 22
0.0
 32
0.0
 42
50.0
 43
22.86983526390032
 44
-22.86983526390032
 50
0.0
 71
    16
  0
VIEW
  5
246
330
5
100
AcDbSymbolTableRecord
100
AcDbViewTableRecord
  2
FRONT
 70
     0
 40
45.73967052780065
 10
0.0
 20
0.0
 41
10.33464566929133
 11
0.0
 21
-1.0
 31
0.0
 12
0.0
 22
0.0
 32
0.0
 42
50.0
 43
23.44633426093276
 44
-23.44633426093276
 50
0.0
 71
    16
  0
VIEW
  5
247
330
5
100
AcDbSymbolTableRecord
100
AcDbViewTableRecord
  2
RIGHT
 70
     0
 40
45.73967052780065
 10
0.0
 20
0.0
 41
7.926304133858266
 11
1.0
 21
0.0
 31
0.0
 12
0.0
 22
0.0
 32
0.0
 42
50.0
 43
23.21068588610736
 44
-23.21068588610736
 50
0.0
 71
    16
  0
VIEW
  5
248
330
5
100
AcDbSymbolTableRecord
100
AcDbViewTableRecord
  2
BACK
 70
     0
 40
45.73967052780065
 10
0.0
 20
0.0
 41
10.33464566929133
 11
0.0
 21
1.0
 31
0.0
 12
0.0
 22
0.0
 32
0.0
 42
50.0
 43
23.44633426093276
 44
-23.44633426093276
 50
0.0
 71
    16
  0
VIEW
  5
249
330
5
100
AcDbSymbolTableRecord
100
AcDbViewTableRecord
  2
BOTTOM
 70
     0
 40
7.926304133858266
 10
0.0
 20
0.0
 41
10.33464566929133
 11
0.0
 21
0.0
 31
-1.0
 12
0.0
 22
0.0
 32
0.0
 42
50.0
 43
22.86983526390032
 44
-22.86983526390032
 50
180.0
 71
    16
  0
VIEW
  5
24A
330
5
100
AcDbSymbolTableRecord
100
AcDbViewTableRecord
  2
LEFT
 70
     0
 40
45.73967052780065
 10
0.0
 20
0.0
 41
7.926304133858266
 11
-1.0
 21
0.0
 31
0.0
 12
0.0
 22
0.0
 32
0.0
 42
50.0
 43
23.21068588610736
 44
-23.21068588610736
 50
0.0
 71
    16
  0
VIEW
  5
24B
330
5
100
AcDbSymbolTableRecord
100
AcDbViewTableRecord
  2
TFR-ISO
 70
     0
 40
44.80128613809216
 10
0.0
 20
0.0
 41
12.91244143671423
 11
0.5773502691896259
 21
-0.5773502691896259
 31
0.5773502691896259
 12
0.0
 22
0.0
 32
0.0
 42
50.0
 43
23.31247725727461
 44
-23.31247725727461
 50
0.0
 71
    16
  0
VIEW
  5
24C
330
5
100
AcDbSymbolTableRecord
100
AcDbViewTableRecord
  2
TFR-TRI
 70
     0
 40
47.28156778779488
 10
0.0
 20
0.0
 41
12.67110328082996
 11
0.7188730927569434
 21
-0.5850486126764432
 31
0.3754192287502549
 12
0.0
 22
0.0
 32
0.0
 42
50.0
 43
24.4750051625393
 44
-24.4750051625393
 50
0.0
 71
    16
  0
ENDTAB
  0
TABLE
  2
UCS
  5
6
330
0
100
AcDbSymbolTable
 70
     0
  0
ENDTAB
  0
TABLE
  2
APPID
  5
8
330
0
100
AcDbSymbolTable
 70
     2
  0
APPID
  5
16
330
8
100
AcDbSymbolTableRecord
100
AcDbRegAppTableRecord
  2
ACAD
 70
     0
  0
APPID
  5
26E
330
8
100
AcDbSymbolTableRecord
100
AcDbRegAppTableRecord
  2
DCO15
 70
     0
  0
ENDTAB
  0
TABLE
  2
DIMSTYLE
  5
9
330
0
100
AcDbSymbolTable
 70
     1
  0
DIMSTYLE
105
18
102
{ACAD_REACTORS
330
273
102
}
330
9
100
AcDbSymbolTableRecord
100
AcDbDimStyleTableRecord
  2
STANDARD
 70
     0
  3

  4

  5

  6

  7

 40
1.0
 41
0.18
 42
0.0625
 43
0.38
 44
0.18
 45
0.0
 46
0.0
 47
0.0
 48
0.0
140
0.18
141
0.09
142
0.0
143
25.4
144
1.0
145
0.0
146
1.0
147
0.09
 71
     0
 72
     0
 73
     1
 74
     1
 75
     0
 76
     0
 77
     0
 78
     0
170
     0
171
     2
172
     0
173
     0
174
     0
175
     0
176
     0
177
     0
178
     0
270
     2
271
     4
272
     4
273
     2
274
     2
340
17
275
     0
280
     0
281
     0
282
     0
283
     1
284
     0
285
     0
286
     0
287
     0
288
     0
  0
ENDTAB
  0
TABLE
  2
BLOCK_RECORD
  5
1
330
0
100
AcDbSymbolTable
 70
     1
  0
BLOCK_RECORD
  5
A
102
{ACAD_XDICTIONARY
360
2A7
102
}
330
1
100
AcDbSymbolTableRecord
100
AcDbBlockTableRecord
  2
*MODEL_SPACE
  0
BLOCK_RECORD
  5
B
102
{ACAD_XDICTIONARY
360
2A9
102
}
330
1
100
AcDbSymbolTableRecord
100
AcDbBlockTableRecord
  2
*PAPER_SPACE
  0
BLOCK_RECORD
  5
275
330
1
100
AcDbSymbolTableRecord
100
AcDbBlockTableRecord
  2
*D0
  0
ENDTAB
  0
ENDSEC
  0
SECTION
  2
BLOCKS
  0
BLOCK
  5
D
330
A
100
AcDbEntity
  8
0
100
AcDbBlockBegin
  2
*MODEL_SPACE
 70
     0
 71
     1
 10
0.0
 20
0.0
 30
0.0
  3
*MODEL_SPACE
  1

  0
ENDBLK
  5
E
330
A
100
AcDbEntity
  8
0
100
AcDbBlockEnd
  0
BLOCK
  5
F
330
B
100
AcDbEntity
 67
     1
  8
0
100
AcDbBlockBegin
  2
*PAPER_SPACE
 70
     0
 71
     1
 10
0.0
 20
0.0
 30
0.0
  3
*PAPER_SPACE
  1

  0
ENDBLK
  5
10
330
B
100
AcDbEntity
 67
     1
  8
0
100
AcDbBlockEnd
  0
BLOCK
  5
280
330
275
100
AcDbEntity
  8
0
100
AcDbBlockBegin
  2
*D0
 70
     1
 10
0.0
 20
0.0
 30
0.0
  3
*D0
  1

  0
LINE
  5
276
330
275
100
AcDbEntity
  8
0
  6
CONTINUOUS
 62
     0
100
AcDbLine
 10
0.6323578357693233
 20
-16.7137687022941
 30
0.0
 11
0.6323578357693231
 21
-17.84106982803789
 31
0.0
  0
LINE
  5
277
330
275
100
AcDbEntity
  8
0
  6
CONTINUOUS
 62
     0
100
AcDbLine
 10
9.132357065496464
 20
-16.7509656686121
 30
0.0
 11
9.132357065496464
 21
-17.84106982803789
 31
0.0
  0
LINE
  5
278
330
275
100
AcDbEntity
  8
0
  6
CONTINUOUS
 62
     0
100
AcDbLine
 10
0.8123578357693229
 20
-17.66106982803789
 30
0.0
 11
4.387357450632893
 21
-17.66106982803789
 31
0.0
  0
LINE
  5
279
330
275
100
AcDbEntity
  8
0
  6
CONTINUOUS
 62
     0
100
AcDbLine
 10
8.952357065496464
 20
-17.66106982803789
 30
0.0
 11
5.377357450632893
 21
-17.66106982803789
 31
0.0
  0
SOLID
  5
27A
330
275
100
AcDbEntity
  8
0
  6
CONTINUOUS
 62
     0
100
AcDbTrace
 10
0.8123578357693229
 20
-17.63106982803789
 30
0.0
 11
0.8123578357693229
 21
-17.69106982803789
 31
0.0
 12
0.6323578357693231
 22
-17.66106982803789
 32
0.0
 13
0.6323578357693231
 23
-17.66106982803789
 33
0.0
  0
SOLID
  5
27B
330
275
100
AcDbEntity
  8
0
  6
CONTINUOUS
 62
     0
100
AcDbTrace
 10
8.952357065496464
 20
-17.63106982803789
 30
0.0
 11
8.952357065496464
 21
-17.69106982803789
 31
0.0
 12
9.132357065496464
 22
-17.66106982803789
 32
0.0
 13
9.132357065496464
 23
-17.66106982803789
 33
0.0
  0
MTEXT
  5
27C
330
275
100
AcDbEntity
  8
0
  6
CONTINUOUS
 62
     0
100
AcDbMText
 10
4.882357450632893
 20
-17.66106982803789
 30
0.0
 40
0.18
 41
0.0
 71
     5
 72
     1
  1
\A1;8.5000
1001
ACAD
1000
MTEXTBEGIN
1070
    73
1070
     1
1070
    44
1040
1.0
1070
    74
1070
     0
1000
MTEXTEND
  0
POINT
  5
27D
330
275
100
AcDbEntity
  8
DEFPOINTS
  6
CONTINUOUS
 62
     0
100
AcDbPoint
 10
0.6323578357693233
 20
-16.6512687022941
 30
0.0
  0
POINT
  5
27E
330
275
100
AcDbEntity
  8
DEFPOINTS
  6
CONTINUOUS
 62
     0
100
AcDbPoint
 10
9.132357065496464
 20
-16.6884656686121
 30
0.0
  0
POINT
  5
27F
330
275
100
AcDbEntity
  8
DEFPOINTS
  6
CONTINUOUS
 62
     0
100
AcDbPoint
 10
9.132357065496464
 20
-17.66106982803789
 30
0.0
  0
ENDBLK
  5
281
330
275
100
AcDbEntity
  8
0
100
AcDbBlockEnd
  0
ENDSEC
  0
SECTION
  2
ENTITIES
  0
LINE
  5
28
330
A
100
AcDbEntity
  8
TOP
  6
CONTINUOUS
 62
     3
100
AcDbLine
 10
25.24979230074487
 20
-3.069798359507206
 30
0.0
 11
25.2678937728659
 21
-3.013714973746221
 31
0.0
  0
LINE
  5
2B
330
A
100
AcDbEntity
  8
TOP
  6
CONTINUOUS
 62
     3
100
AcDbLine
 10
25.08274524029185
 20
-9.849872552436673
 30
0.0
 11
25.08274524029185
 21
-9.910841685080171
 31
0.0
  0
LINE
  5
2C
330
A
100
AcDbEntity
  8
TOP
  6
CONTINUOUS
 62
     3
100
AcDbLine
 10
28.64524333294428
 20
-9.141182496002416
 30
0.0
 11
28.64524333294428
 21
-9.734712710752445
 31
0.0
  0
LINE
  5
2D
330
A
100
AcDbEntity
  8
TOP
  6
CONTINUOUS
 62
     3
100
AcDbLine
 10
0.6323578357693233
 20
-22.98804022716548
 30
0.0
 11
0.6323578357693233
 21
-19.49204074420263
 31
0.0
  0
LINE
  5
2E
330
A
100
AcDbEntity
  8
TOP
  6
CONTINUOUS
 62
     3
100
AcDbLine
 10
1.697358039709227
 20
7.241533756256103
 30
0.0
 11
1.697358039709227
 21
2.865214017720009
 31
0.0
  0
LINE
  5
2F
330
A
100
AcDbEntity
  8
TOP
  6
CONTINUOUS
 62
     3
100
AcDbLine
 10
0.6323578357693233
 20
-16.6884656686121
 30
0.0
 11
0.6323578357693233
 21
-16.6512687022941
 31
0.0
  0
LINE
  5
30
330
A
100
AcDbEntity
  8
TOP
  6
CONTINUOUS
 62
     3
100
AcDbLine
 10
4.531025207960528
 20
2.787621608145918
 30
0.0
 11
4.9486483610603
 21
3.20524292725662
 31
0.0
  0
LINE
  5
31
330
A
100
AcDbEntity
  8
TOP
  6
CONTINUOUS
 62
     3
100
AcDbLine
 10
32.14249543044195
 20
2.601534073168022
 30
0.0
 11
32.18491926560949
 21
2.601534073168022
 31
0.0
  0
LINE
  5
32
330
A
100
AcDbEntity
  8
TOP
  6
CONTINUOUS
 62
     3
100
AcDbLine
 10
25.17649509357275
 20
-9.394757160778635
 30
0.0
 11
25.24979230074487
 21
-9.369796569535763
 31
0.0
  0
LINE
  5
33
330
A
100
AcDbEntity
  8
TOP
  6
CONTINUOUS
 62
     3
100
AcDbLine
 10
28.59786772728772
 20
-3.622214207285692
 30
0.0
 11
28.70081320176566
 21
-3.622214207285692
 31
0.0
  0
LINE
  5
34
330
A
100
AcDbEntity
  8
TOP
  6
CONTINUOUS
 62
     3
100
AcDbLine
 10
25.08274524029185
 20
2.853912977070592
 30
0.0
 11
25.08274524029185
 21
2.792943844427094
 31
0.0
  0
LINE
  5
35
330
A
100
AcDbEntity
  8
TOP
  6
CONTINUOUS
 62
     3
100
AcDbLine
 10
9.132357065496464
 20
-26.48503923417149
 30
0.0
 11
9.220746168725719
 21
-26.48503923417149
 31
0.0
  0
LINE
  5
36
330
A
100
AcDbEntity
  8
TOP
  6
CONTINUOUS
 62
     3
100
AcDbLine
 10
8.084931061819954
 20
2.601534073168022
 30
0.0
 11
8.127358564965625
 21
2.601534073168022
 31
0.0
  0
LINE
  5
37
330
A
100
AcDbEntity
  8
TOP
  6
CONTINUOUS
 62
     3
100
AcDbLine
 10
9.065676890888946
 20
2.677784002742865
 30
0.0
 11
9.103358030321425
 21
2.677784002742865
 31
0.0
  0
LINE
  5
38
330
A
100
AcDbEntity
  8
TOP
  6
CONTINUOUS
 62
     3
100
AcDbLine
 10
32.26249333529288
 20
-9.998466014867233
 30
0.0
 11
32.20249621685649
 21
-9.998466014867233
 31
0.0
  0
LINE
  5
39
330
A
100
AcDbEntity
  8
TOP
  6
CONTINUOUS
 62
     3
100
AcDbLine
 10
28.70081320176566
 20
2.677784002742865
 30
0.0
 11
28.73849434119815
 21
2.677784002742865
 31
0.0
  0
LINE
  5
3A
330
A
100
AcDbEntity
  8
TOP
  6
CONTINUOUS
 62
     3
100
AcDbLine
 10
1.757357909129223
 20
-24.38842843130033
 30
0.0
 11
1.757357909129223
 21
-24.42504035510499
 31
0.0
  0
LINE
  5
3B
330
A
100
AcDbEntity
  8
TOP
  6
CONTINUOUS
 62
     3
100
AcDbLine
 10
1.697358039709227
 20
4.101535393640602
 30
0.0
 11
1.679783839445831
 21
4.101535393640602
 31
0.0
  0
LINE
  5
3C
330
A
100
AcDbEntity
  8
TOP
  6
CONTINUOUS
 62
     3
100
AcDbLine
 10
4.849211307673289
 20
3.304681814632701
 30
0.0
 11
4.915502676597963
 21
3.238390445708027
 31
0.0
  0
LINE
  5
3D
330
A
100
AcDbEntity
  8
TOP
  6
CONTINUOUS
 62
     3
100
AcDbLine
 10
0.6990380103768404
 20
-3.622214207285692
 30
0.0
 11
0.8019825678602508
 21
-3.622214207285692
 31
0.0
  0
LINE
  5
3E
330
A
100
AcDbEntity
  8
TOP
  6
CONTINUOUS
 62
     3
100
AcDbLine
 10
5.49885608599849
 20
2.677784002742865
 30
0.0
 11
8.822108470478717
 21
2.677784002742865
 31
0.0
  0
LINE
  5
3F
330
A
100
AcDbEntity
  8
TOP
  6
CONTINUOUS
 62
     3
100
AcDbLine
 10
8.822108470478717
 20
-9.734716378730585
 30
0.0
 11
5.49885608599849
 21
-9.734716378730585
 31
0.0
  0
LINE
  5
40
330
A
100
AcDbEntity
  8
TOP
  6
CONTINUOUS
 62
     3
100
AcDbLine
 10
32.26249333529288
 20
-9.873464987833315
 30
0.0
 11
32.26249333529288
 21
-9.961852257073502
 31
0.0
  0
LINE
  5
41
330
A
100
AcDbEntity
  8
TOP
  6
CONTINUOUS
 62
     3
100
AcDbLine
 10
28.64474448791724
 20
-9.078463737786126
 30
0.0
 11
28.64474448791724
 21
-9.094606509580378
 31
0.0
  0
LINE
  5
42
330
A
100
AcDbEntity
  8
TOP
  6
CONTINUOUS
 62
     3
100
AcDbLine
 10
8.007356992136562
 20
-24.55003954814984
 30
0.0
 11
8.007356992136562
 21
-24.46165227890965
 31
0.0
  0
LINE
  5
43
330
A
100
AcDbEntity
  8
TOP
  6
CONTINUOUS
 62
     3
100
AcDbLine
 10
8.632358459328006
 20
-9.141960107368102
 30
0.0
 11
8.632358459328006
 21
-8.91846653131823
 31
0.0
  0
LINE
  5
44
330
A
100
AcDbEntity
  8
TOP
  6
CONTINUOUS
 62
     3
100
AcDbLine
 10
9.132357065496464
 20
-16.6884656686121
 30
0.0
 11
0.6323578357693233
 21
-16.6884656686121
 31
0.0
  0
LINE
  5
45
330
A
100
AcDbEntity
  8
TOP
  6
CONTINUOUS
 62
     3
100
AcDbLine
 10
9.065676890888946
 20
-3.434714500723887
 30
0.0
 11
8.96273325040007
 21
-3.434714500723887
 31
0.0
  0
LINE
  5
46
330
A
100
AcDbEntity
  8
TOP
  6
CONTINUOUS
 62
     3
100
AcDbLine
 10
8.96273325040007
 20
-9.734716378730585
 30
0.0
 11
8.822108470478717
 21
-9.734716378730585
 31
0.0
  0
LINE
  5
47
330
A
100
AcDbEntity
  8
TOP
  6
CONTINUOUS
 62
     3
100
AcDbLine
 10
2.150644027269929
 20
-3.434707164767607
 30
0.0
 11
2.793326983085363
 21
-2.914026663856618
 31
0.0
  0
LINE
  5
48
330
A
100
AcDbEntity
  8
TOP
  6
CONTINUOUS
 62
     3
100
AcDbLine
 10
28.95249518982163
 20
-14.29846613224382
 30
0.0
 11
30.01749264277793
 21
-14.29846613224382
 31
0.0
  0
LINE
  5
49
330
A
100
AcDbEntity
  8
TOP
  6
CONTINUOUS
 62
     3
100
AcDbLine
 10
25.08274524029185
 20
-4.028464794162316
 30
0.0
 11
25.11020372464808
 21
-4.075341554791838
 31
0.0
  0
LINE
  5
4A
330
A
100
AcDbEntity
  8
TOP
  6
CONTINUOUS
 62
     3
100
AcDbLine
 10
25.21417623300523
 20
-9.92221608529239
 30
0.0
 11
25.31711803950503
 21
-9.92221608529239
 31
0.0
  0
LINE
  5
4B
330
A
100
AcDbEntity
  8
TOP
  6
CONTINUOUS
 62
     3
100
AcDbLine
 10
25.27024494685365
 20
2.271533415866241
 30
0.0
 11
25.27024494685365
 21
2.677776666786585
 31
0.0
  0
LINE
  5
4C
330
A
100
AcDbEntity
  8
TOP
  6
CONTINUOUS
 62
     3
100
AcDbLine
 10
0.6323578357693233
 20
-23.07784150197865
 30
0.0
 11
0.6323578357693233
 21
-22.98804022716548
 31
0.0
  0
LINE
  5
4D
330
A
100
AcDbEntity
  8
TOP
  6
CONTINUOUS
 62
     3
100
AcDbLine
 10
0.8019825678602508
 20
2.677784002742865
 30
0.0
 11
0.9426073477816046
 21
2.677784002742865
 31
0.0
  0
LINE
  5
4E
330
A
100
AcDbEntity
  8
TOP
  6
CONTINUOUS
 62
     3
100
AcDbLine
 10
32.14249543044195
 20
2.601534073168022
 30
0.0
 11
30.26749469684576
 21
2.601534073168022
 31
0.0
  0
LINE
  5
4F
330
A
100
AcDbEntity
  8
TOP
  6
CONTINUOUS
 62
     3
100
AcDbLine
 10
25.08274524029185
 20
-10.32846667216901
 30
0.0
 11
25.11020372464808
 21
-10.37533976482039
 31
0.0
  0
LINE
  5
50
330
A
100
AcDbEntity
  8
TOP
  6
CONTINUOUS
 62
     3
100
AcDbLine
 10
28.70081320176566
 20
-3.434714500723887
 30
0.0
 11
28.59786772728772
 21
-3.434714500723887
 31
0.0
  0
LINE
  5
51
330
A
100
AcDbEntity
  8
TOP
  6
CONTINUOUS
 62
     3
100
AcDbLine
 10
28.45724478135544
 20
-3.434714500723887
 30
0.0
 11
25.45774465341546
 21
-3.434714500723887
 31
0.0
  0
LINE
  5
52
330
A
100
AcDbEntity
  8
TOP
  6
CONTINUOUS
 62
     3
100
AcDbLine
 10
9.220746168725719
 20
-26.54504002058602
 30
0.0
 11
9.132357065496464
 21
-26.54504002058602
 31
0.0
  0
LINE
  5
53
330
A
100
AcDbEntity
  8
TOP
  6
CONTINUOUS
 62
     3
100
AcDbLine
 10
4.816065623210951
 20
-2.962172544922588
 30
0.0
 11
4.849211307673289
 21
-2.995320063373995
 31
0.0
  0
LINE
  5
54
330
A
100
AcDbEntity
  8
TOP
  6
CONTINUOUS
 62
     3
100
AcDbLine
 10
4.265872570185321
 20
2.677784002742865
 30
0.0
 11
5.156024841162901
 21
2.677784002742865
 31
0.0
  0
LINE
  5
55
330
A
100
AcDbEntity
  8
TOP
  6
CONTINUOUS
 62
     3
100
AcDbLine
 10
25.11020372464808
 20
-4.075341554791838
 30
0.0
 11
25.17649509357275
 21
-4.094756163086991
 31
0.0
  0
LINE
  5
56
330
A
100
AcDbEntity
  8
TOP
  6
CONTINUOUS
 62
     3
100
AcDbLine
 10
8.96273325040007
 20
2.86528370930467
 30
0.0
 11
8.822108470478717
 21
2.86528370930467
 31
0.0
  0
LINE
  5
57
330
A
100
AcDbEntity
  8
TOP
  6
CONTINUOUS
 62
     3
100
AcDbLine
 10
32.20249621685649
 20
2.726535100201939
 30
0.0
 11
32.20249621685649
 21
3.976534366606686
 31
0.0
  0
LINE
  5
58
330
A
100
AcDbEntity
  8
TOP
  6
CONTINUOUS
 62
     3
100
AcDbLine
 10
25.24278646249742
 20
2.224660323214859
 30
0.0
 11
25.27024494685365
 21
2.271533415866241
 31
0.0
  0
LINE
  5
59
330
A
100
AcDbEntity
  8
TOP
  6
CONTINUOUS
 62
     3
100
AcDbLine
 10
28.83249361699257
 20
6.554033609536771
 30
0.0
 11
28.83249361699257
 21
6.491534930008882
 31
0.0
  0
LINE
  5
5A
330
A
100
AcDbEntity
  8
TOP
  6
CONTINUOUS
 62
     3
100
AcDbLine
 10
28.59786772728772
 20
2.86528370930467
 30
0.0
 11
28.45724478135544
 21
2.86528370930467
 31
0.0
  0
LINE
  5
5B
330
A
100
AcDbEntity
  8
TOP
  6
CONTINUOUS
 62
     3
100
AcDbLine
 10
1.697358039709227
 20
-24.42504035510499
 30
0.0
 11
1.697358039709227
 21
-24.38842843130033
 31
0.0
  0
LINE
  5
5C
330
A
100
AcDbEntity
  8
TOP
  6
CONTINUOUS
 62
     3
100
AcDbLine
 10
4.849211307673289
 20
2.304680934317648
 30
0.0
 11
4.915502676597963
 21
2.238389565392973
 31
0.0
  0
LINE
  5
5D
330
A
100
AcDbEntity
  8
TOP
  6
CONTINUOUS
 62
     3
100
AcDbLine
 10
0.8019825678602508
 20
-3.434714500723887
 30
0.0
 11
0.6990380103768404
 21
-3.434714500723887
 31
0.0
  0
LINE
  5
5E
330
A
100
AcDbEntity
  8
TOP
  6
CONTINUOUS
 62
     3
100
AcDbLine
 10
4.265872570185321
 20
-9.92221608529239
 30
0.0
 11
5.156024841162901
 21
-9.92221608529239
 31
0.0
  0
LINE
  5
5F
330
A
100
AcDbEntity
  8
TOP
  6
CONTINUOUS
 62
     3
100
AcDbLine
 10
32.14249543044195
 20
-9.998466014867233
 30
0.0
 11
32.18491926560949
 21
-9.998466014867233
 31
0.0
  0
LINE
  5
60
330
A
100
AcDbEntity
  8
TOP
  6
CONTINUOUS
 62
     3
100
AcDbLine
 10
28.83249361699257
 20
-12.15346552776038
 30
0.0
 11
28.83249361699257
 21
-12.2784665547943
 31
0.0
  0
LINE
  5
61
330
A
100
AcDbEntity
  8
TOP
  6
CONTINUOUS
 62
     3
100
AcDbLine
 10
28.64524333294428
 20
-9.078463737786126
 30
0.0
 11
28.64524333294428
 21
-9.094606509580378
 31
0.0
  0
LINE
  5
62
330
A
100
AcDbEntity
  8
TOP
  6
CONTINUOUS
 62
     3
100
AcDbLine
 10
8.067357778551095
 20
-24.46165227890965
 30
0.0
 11
8.067357778551095
 21
-24.55003954814984
 31
0.0
  0
LINE
  5
63
330
A
100
AcDbEntity
  8
TOP
  6
CONTINUOUS
 62
     3
100
AcDbLine
 10
0.5676079346579945
 20
-19.74028950471953
 30
0.0
 11
0.5676079346579945
 21
-22.73978963265951
 31
0.0
  0
LINE
  5
64
330
A
100
AcDbEntity
  8
TOP
  6
CONTINUOUS
 62
     3
100
AcDbLine
 10
8.127358564965625
 20
-8.498464694394652
 30
0.0
 11
9.132357065496464
 21
-8.498464694394652
 31
0.0
  0
LINE
  5
65
330
A
100
AcDbEntity
  8
TOP
  6
CONTINUOUS
 62
     3
100
AcDbLine
 10
3.918326139450729
 20
-3.39290321790574
 30
0.0
 11
3.1474207547999
 21
-2.76833824011296
 31
0.0
  0
LINE
  5
66
330
A
100
AcDbEntity
  8
TOP
  6
CONTINUOUS
 62
     3
100
AcDbLine
 10
28.83249361699257
 20
7.241533756256103
 30
0.0
 11
28.86764018353029
 21
7.241533756256103
 31
0.0
  0
LINE
  5
67
330
A
100
AcDbEntity
  8
TOP
  6
CONTINUOUS
 62
     3
100
AcDbLine
 10
25.31711803950503
 20
-9.734716378730585
 30
0.0
 11
25.21417623300523
 21
-9.734716378730585
 31
0.0
  0
LINE
  5
68
330
A
100
AcDbEntity
  8
TOP
  6
CONTINUOUS
 62
     3
100
AcDbLine
 10
25.45774465341546
 20
2.677784002742865
 30
0.0
 11
28.45724478135544
 21
2.677784002742865
 31
0.0
  0
LINE
  5
69
330
A
100
AcDbEntity
  8
TOP
  6
CONTINUOUS
 62
     3
100
AcDbLine
 10
9.132357065496464
 20
-23.11504030228571
 30
0.0
 11
9.132357065496464
 21
-23.07784150197865
 31
0.0
  0
LINE
  5
6A
330
A
100
AcDbEntity
  8
TOP
  6
CONTINUOUS
 62
     3
100
AcDbLine
 10
1.132357358932315
 20
-9.141960107368102
 30
0.0
 11
1.132357358932315
 21
-8.91846653131823
 31
0.0
  0
LINE
  5
6B
330
A
100
AcDbEntity
  8
TOP
  6
CONTINUOUS
 62
     3
100
AcDbLine
 10
0.6990380103768404
 20
2.86528370930467
 30
0.0
 11
0.661357787938897
 21
2.86528370930467
 31
0.0
  0
LINE
  5
6C
330
A
100
AcDbEntity
  8
TOP
  6
CONTINUOUS
 62
     3
100
AcDbLine
 10
28.64474448791724
 20
-2.778465527757569
 30
0.0
 11
28.64474448791724
 21
-2.794608299551819
 31
0.0
  0
LINE
  5
6D
330
A
100
AcDbEntity
  8
TOP
  6
CONTINUOUS
 62
     3
100
AcDbLine
 10
28.64524333294428
 20
-2.841184285973859
 30
0.0
 11
28.64524333294428
 21
-3.434714500723887
 31
0.0
  0
LINE
  5
6E
330
A
100
AcDbEntity
  8
TOP
  6
CONTINUOUS
 62
     3
100
AcDbLine
 10
8.067357778551095
 20
-3.434901567609028
 30
0.0
 11
8.067357778551095
 21
2.677747322961465
 31
0.0
  0
LINE
  5
6F
330
A
100
AcDbEntity
  8
TOP
  6
CONTINUOUS
 62
     3
100
AcDbLine
 10
4.816067457200022
 20
-3.962173425237642
 30
0.0
 11
4.849211307673289
 21
-3.995320943689049
 31
0.0
  0
LINE
  5
70
330
A
100
AcDbEntity
  8
TOP
  6
CONTINUOUS
 62
     3
100
AcDbLine
 10
3.029388886232031
 20
3.385971546171938
 30
0.0
 11
3.672071842047466
 21
2.86529104526095
 31
0.0
  0
LINE
  5
71
330
A
100
AcDbEntity
  8
TOP
  6
CONTINUOUS
 62
     3
100
AcDbLine
 10
4.816067457200022
 20
-10.26217530324433
 30
0.0
 11
4.849211307673289
 21
-10.2953191537176
 31
0.0
  0
LINE
  5
72
330
A
100
AcDbEntity
  8
TOP
  6
CONTINUOUS
 62
     3
100
AcDbLine
 10
32.26249333529288
 20
4.064921635846872
 30
0.0
 11
32.26249333529288
 21
3.976534366606686
 31
0.0
  0
LINE
  5
73
330
A
100
AcDbEntity
  8
TOP
  6
CONTINUOUS
 62
     3
100
AcDbLine
 10
25.08274524029185
 20
-3.528464354004789
 30
0.0
 11
25.08274524029185
 21
-3.549874342408116
 31
0.0
  0
LINE
  5
74
330
A
100
AcDbEntity
  8
TOP
  6
CONTINUOUS
 62
     3
100
AcDbLine
 10
28.64474448791724
 20
3.505393578454877
 30
0.0
 11
28.64474448791724
 21
3.458817592032838
 31
0.0
  0
LINE
  5
75
330
A
100
AcDbEntity
  8
TOP
  6
CONTINUOUS
 62
     3
100
AcDbLine
 10
0.5073577257299416
 20
-26.48503923417149
 30
0.0
 11
0.5439696495346026
 21
-26.48503923417149
 31
0.0
  0
LINE
  5
76
330
A
100
AcDbEntity
  8
TOP
  6
CONTINUOUS
 62
     3
100
AcDbLine
 10
8.88235867940677
 20
3.448041072257444
 30
0.0
 11
8.88235867940677
 21
3.671534648307316
 31
0.0
  0
LINE
  5
77
330
A
100
AcDbEntity
  8
TOP
  6
CONTINUOUS
 62
     3
100
AcDbLine
 10
8.822108470478717
 20
2.86528370930467
 30
0.0
 11
5.49885608599849
 21
2.86528370930467
 31
0.0
  0
LINE
  5
78
330
A
100
AcDbEntity
  8
TOP
  6
CONTINUOUS
 62
     3
100
AcDbLine
 10
28.76899357943245
 20
-12.06196047710117
 30
0.0
 11
28.76899357943245
 21
-12.02846450072646
 31
0.0
  0
LINE
  5
79
330
A
100
AcDbEntity
  8
TOP
  6
CONTINUOUS
 62
     3
100
AcDbLine
 10
25.08274524029185
 20
2.750127535598581
 30
0.0
 11
25.08274524029185
 21
2.689158402955083
 31
0.0
  0
LINE
  5
7A
330
A
100
AcDbEntity
  8
TOP
  6
CONTINUOUS
 62
     3
100
AcDbLine
 10
8.067357778551095
 20
-24.30003932807108
 30
0.0
 11
8.067357778551095
 21
-24.38842843130033
 31
0.0
  0
LINE
  5
7B
330
A
100
AcDbEntity
  8
TOP
  6
CONTINUOUS
 62
     3
100
AcDbLine
 10
4.26585973226183
 20
-9.734716378730585
 30
0.0
 11
0.9426073477816046
 21
-9.734716378730585
 31
0.0
  0
LINE
  5
7C
330
A
100
AcDbEntity
  8
TOP
  6
CONTINUOUS
 62
     3
100
AcDbLine
 10
6.970889073153379
 20
-9.214028541863315
 30
0.0
 11
7.613572028968814
 21
-9.734709042774305
 31
0.0
  0
LINE
  5
7D
330
A
100
AcDbEntity
  8
TOP
  6
CONTINUOUS
 62
     3
100
AcDbLine
 10
7.859827243366612
 20
-9.692901427934298
 30
0.0
 11
7.088920941721249
 21
-9.068340118119657
 31
0.0
  0
LINE
  5
7E
330
A
100
AcDbEntity
  8
TOP
  6
CONTINUOUS
 62
     3
100
AcDbLine
 10
7.859827243366612
 20
-3.39290321790574
 30
0.0
 11
7.088920941721249
 21
-2.76833824011296
 31
0.0
  0
LINE
  5
7F
330
A
100
AcDbEntity
  8
TOP
  6
CONTINUOUS
 62
     3
100
AcDbLine
 10
32.20249621685649
 20
-8.535078452188383
 30
0.0
 11
32.20249621685649
 21
-8.498464694394652
 31
0.0
  0
LINE
  5
80
330
A
100
AcDbEntity
  8
TOP
  6
CONTINUOUS
 62
     3
100
AcDbLine
 10
25.14599585533844
 20
-14.15346362041234
 30
0.0
 11
25.14599585533844
 21
-14.27846464744626
 31
0.0
  0
LINE
  5
81
330
A
100
AcDbEntity
  8
TOP
  6
CONTINUOUS
 62
     3
100
AcDbLine
 10
28.59786772728772
 20
-9.92221608529239
 30
0.0
 11
28.70081320176566
 21
-9.92221608529239
 31
0.0
  0
LINE
  5
82
330
A
100
AcDbEntity
  8
TOP
  6
CONTINUOUS
 62
     3
100
AcDbLine
 10
25.27024494685365
 20
2.86528370930467
 30
0.0
 11
25.27024494685365
 21
3.271534296181294
 31
0.0
  0
LINE
  5
83
330
A
100
AcDbEntity
  8
TOP
  6
CONTINUOUS
 62
     3
100
AcDbLine
 10
3.697357966350264
 20
-23.11504030228571
 30
0.0
 11
3.509858259788459
 21
-23.11504030228571
 31
0.0
  0
LINE
  5
84
330
A
100
AcDbEntity
  8
TOP
  6
CONTINUOUS
 62
     3
100
AcDbLine
 10
8.88235867940677
 20
-12.02846450072646
 30
0.0
 11
0.8823580558480866
 21
-12.02846450072646
 31
0.0
  0
LINE
  5
85
330
A
100
AcDbEntity
  8
TOP
  6
CONTINUOUS
 62
     3
100
AcDbLine
 10
25.10319788640063
 20
-3.069798359507206
 30
0.0
 11
25.17649509357275
 21
-3.094755282771937
 31
0.0
  0
LINE
  5
86
330
A
100
AcDbEntity
  8
TOP
  6
CONTINUOUS
 62
     3
100
AcDbLine
 10
25.27024494685365
 20
-10.32846667216901
 30
0.0
 11
25.27024494685365
 21
-9.92221975327053
 31
0.0
  0
LINE
  5
87
330
A
100
AcDbEntity
  8
TOP
  6
CONTINUOUS
 62
     3
100
AcDbLine
 10
0.6323578357693233
 20
-19.49204074420263
 30
0.0
 11
0.6323578357693233
 21
-19.4022376354004
 31
0.0
  0
LINE
  5
88
330
A
100
AcDbEntity
  8
TOP
  6
CONTINUOUS
 62
     3
100
AcDbLine
 10
8.032211212013374
 20
7.241533756256103
 30
0.0
 11
8.067357778551095
 21
7.241533756256103
 31
0.0
  0
LINE
  5
89
330
A
100
AcDbEntity
  8
TOP
  6
CONTINUOUS
 62
     3
100
AcDbLine
 10
8.88235867940677
 20
-14.02846626135657
 30
0.0
 11
0.8823580558480866
 21
-14.02846626135657
 31
0.0
  0
LINE
  5
8A
330
A
100
AcDbEntity
  8
TOP
  6
CONTINUOUS
 62
     3
100
AcDbLine
 10
6.092144214191277
 20
2.86529104526095
 30
0.0
 11
6.734827170006711
 21
3.385971546171938
 31
0.0
  0
LINE
  5
8B
330
A
100
AcDbEntity
  8
TOP
  6
CONTINUOUS
 62
     3
100
AcDbLine
 10
8.127358564965625
 20
4.101535393640602
 30
0.0
 11
9.132357065496464
 21
4.101535393640602
 31
0.0
  0
LINE
  5
8C
330
A
100
AcDbEntity
  8
TOP
  6
CONTINUOUS
 62
     3
100
AcDbLine
 10
32.26249333529288
 20
2.726535100201939
 30
0.0
 11
32.26249333529288
 21
2.638147830961753
 31
0.0
  0
LINE
  5
8D
330
A
100
AcDbEntity
  8
TOP
  6
CONTINUOUS
 62
     3
100
AcDbLine
 10
25.08509641427961
 20
-9.31371318377478
 30
0.0
 11
25.10319788640063
 21
-9.369796569535763
 31
0.0
  0
LINE
  5
8E
330
A
100
AcDbEntity
  8
TOP
  6
CONTINUOUS
 62
     3
100
AcDbLine
 10
25.17649509357275
 20
-3.622214207285692
 30
0.0
 11
25.21417623300523
 21
-3.622214207285692
 31
0.0
  0
LINE
  5
8F
330
A
100
AcDbEntity
  8
TOP
  6
CONTINUOUS
 62
     3
100
AcDbLine
 10
28.64474448791724
 20
3.521536350249128
 30
0.0
 11
28.64474448791724
 21
3.505393578454877
 31
0.0
  0
LINE
  5
90
330
A
100
AcDbEntity
  8
TOP
  6
CONTINUOUS
 62
     3
100
AcDbLine
 10
0.6323578357693233
 20
-26.54504002058602
 30
0.0
 11
1.637358170289231
 21
-26.54504002058602
 31
0.0
  0
LINE
  5
91
330
A
100
AcDbEntity
  8
TOP
  6
CONTINUOUS
 62
     3
100
AcDbLine
 10
9.257358092530379
 20
2.726535100201939
 30
0.0
 11
9.257358092530379
 21
3.976534366606686
 31
0.0
  0
LINE
  5
92
330
A
100
AcDbEntity
  8
TOP
  6
CONTINUOUS
 62
     3
100
AcDbLine
 10
4.816065623210951
 20
-9.262174422929286
 30
0.0
 11
4.849211307673289
 21
-9.295318273402553
 31
0.0
  0
LINE
  5
93
330
A
100
AcDbEntity
  8
TOP
  6
CONTINUOUS
 62
     3
100
AcDbLine
 10
3.918326139450729
 20
-9.692901427934298
 30
0.0
 11
3.1474207547999
 21
-9.068340118119657
 31
0.0
  0
LINE
  5
94
330
A
100
AcDbEntity
  8
TOP
  6
CONTINUOUS
 62
     3
100
AcDbLine
 10
0.5073577257299416
 20
-26.54504002058602
 30
0.0
 11
0.5073577257299416
 21
-26.48503923417149
 31
0.0
  0
LINE
  5
95
330
A
100
AcDbEntity
  8
TOP
  6
CONTINUOUS
 62
     3
100
AcDbLine
 10
0.9426073477816046
 20
-9.734716378730585
 30
0.0
 11
0.8019825678602508
 21
-9.734716378730585
 31
0.0
  0
LINE
  5
96
330
A
100
AcDbEntity
  8
TOP
  6
CONTINUOUS
 62
     3
100
AcDbLine
 10
25.13581721599987
 20
3.331259984235324
 30
0.0
 11
25.08509641427961
 21
3.286286904260475
 31
0.0
  0
LINE
  5
97
330
A
100
AcDbEntity
  8
TOP
  6
CONTINUOUS
 62
     3
100
AcDbLine
 10
28.76899357943245
 20
-16.56146559349187
 30
0.0
 11
28.76899357943245
 21
-12.2784665547943
 31
0.0
  0
LINE
  5
98
330
A
100
AcDbEntity
  8
TOP
  6
CONTINUOUS
 62
     3
100
AcDbLine
 10
25.21417623300523
 20
2.677784002742865
 30
0.0
 11
25.31711803950503
 21
2.677784002742865
 31
0.0
  0
LINE
  5
99
330
A
100
AcDbEntity
  8
TOP
  6
CONTINUOUS
 62
     3
100
AcDbLine
 10
8.067357778551095
 20
-9.998466014867233
 30
0.0
 11
8.084931061819954
 21
-9.998466014867233
 31
0.0
  0
LINE
  5
9A
330
A
100
AcDbEntity
  8
TOP
  6
CONTINUOUS
 62
     3
100
AcDbLine
 10
0.9426073477816046
 20
-3.622214207285692
 30
0.0
 11
4.26585973226183
 21
-3.622214207285692
 31
0.0
  0
LINE
  5
9B
330
A
100
AcDbEntity
  8
TOP
  6
CONTINUOUS
 62
     3
100
AcDbLine
 10
32.20249621685649
 20
-9.961852257073502
 30
0.0
 11
32.20249621685649
 21
-9.873464987833315
 31
0.0
  0
LINE
  5
9C
330
A
100
AcDbEntity
  8
TOP
  6
CONTINUOUS
 62
     3
100
AcDbLine
 10
25.08249581777833
 20
-14.06195856975314
 30
0.0
 11
25.08249581777833
 21
-14.02846626135657
 31
0.0
  0
LINE
  5
9D
330
A
100
AcDbEntity
  8
TOP
  6
CONTINUOUS
 62
     3
100
AcDbLine
 10
28.70081320176566
 20
-9.734716378730585
 30
0.0
 11
28.59786772728772
 21
-9.734716378730585
 31
0.0
  0
LINE
  5
9E
330
A
100
AcDbEntity
  8
TOP
  6
CONTINUOUS
 62
     3
100
AcDbLine
 10
1.757357909129223
 20
-24.42504035510499
 30
0.0
 11
1.697358039709227
 21
-24.42504035510499
 31
0.0
  0
LINE
  5
9F
330
A
100
AcDbEntity
  8
TOP
  6
CONTINUOUS
 62
     3
100
AcDbLine
 10
2.197357562872219
 20
-23.11504030228571
 30
0.0
 11
2.384858186428559
 21
-23.11504030228571
 31
0.0
  0
LINE
  5
A0
330
A
100
AcDbEntity
  8
TOP
  6
CONTINUOUS
 62
     3
100
AcDbLine
 10
1.679783839445831
 20
-9.998466014867233
 30
0.0
 11
1.697358039709227
 21
-9.998466014867233
 31
0.0
  0
LINE
  5
A1
330
A
100
AcDbEntity
  8
TOP
  6
CONTINUOUS
 62
     3
100
AcDbLine
 10
5.233690610299793
 20
-3.5445484381488
 30
0.0
 11
4.816067457200022
 21
-3.962173425237642
 31
0.0
  0
LINE
  5
A2
330
A
100
AcDbEntity
  8
TOP
  6
CONTINUOUS
 62
     3
100
AcDbLine
 10
25.21716930316749
 20
-2.968738225793233
 30
0.0
 11
25.13581721599987
 21
-2.968738225793233
 31
0.0
  0
LINE
  5
A3
330
A
100
AcDbEntity
  8
TOP
  6
CONTINUOUS
 62
     3
100
AcDbLine
 10
25.08274524029185
 20
-3.507054365601462
 30
0.0
 11
25.08274524029185
 21
-3.528464354004789
 31
0.0
  0
LINE
  5
A4
330
A
100
AcDbEntity
  8
TOP
  6
CONTINUOUS
 62
     3
100
AcDbLine
 10
25.45774465341546
 20
-9.92221608529239
 30
0.0
 11
28.45724478135544
 21
-9.92221608529239
 31
0.0
  0
LINE
  5
A5
330
A
100
AcDbEntity
  8
TOP
  6
CONTINUOUS
 62
     3
100
AcDbLine
 10
1.697358039709227
 20
-23.2350400411257
 30
0.0
 11
1.697358039709227
 21
-24.30003932807108
 31
0.0
  0
LINE
  5
A6
330
A
100
AcDbEntity
  8
TOP
  6
CONTINUOUS
 62
     3
100
AcDbLine
 10
1.697358039709227
 20
-3.622030808378691
 30
0.0
 11
1.697358039709227
 21
-9.734676030971044
 31
0.0
  0
LINE
  5
A7
330
A
100
AcDbEntity
  8
TOP
  6
CONTINUOUS
 62
     3
100
AcDbLine
 10
9.132357065496464
 20
-16.56146559349187
 30
0.0
 11
9.132357065496464
 21
-14.27846464744626
 31
0.0
  0
LINE
  5
A8
330
A
100
AcDbEntity
  8
TOP
  6
CONTINUOUS
 62
     3
100
AcDbLine
 10
4.26585973226183
 20
2.86528370930467
 30
0.0
 11
0.9426073477816046
 21
2.86528370930467
 31
0.0
  0
LINE
  5
A9
330
A
100
AcDbEntity
  8
TOP
  6
CONTINUOUS
 62
     3
100
AcDbLine
 10
32.20249621685649
 20
4.101535393640602
 30
0.0
 11
32.18491926560949
 21
4.101535393640602
 31
0.0
  0
LINE
  5
AA
330
A
100
AcDbEntity
  8
TOP
  6
CONTINUOUS
 62
     3
100
AcDbLine
 10
25.2678937728659
 20
-9.31371318377478
 30
0.0
 11
25.21716930316749
 21
-9.268740103799931
 31
0.0
  0
LINE
  5
AB
330
A
100
AcDbEntity
  8
TOP
  6
CONTINUOUS
 62
     3
100
AcDbLine
 10
25.45774465341546
 20
-3.434714500723887
 30
0.0
 11
25.31711803950503
 21
-3.434714500723887
 31
0.0
  0
LINE
  5
AC
330
A
100
AcDbEntity
  8
TOP
  6
CONTINUOUS
 62
     3
100
AcDbLine
 10
28.64524333294428
 20
3.521536350249128
 30
0.0
 11
28.64524333294428
 21
3.505393578454877
 31
0.0
  0
LINE
  5
AD
330
A
100
AcDbEntity
  8
TOP
  6
CONTINUOUS
 62
     3
100
AcDbLine
 10
9.257358092530379
 20
-26.48503923417149
 30
0.0
 11
9.257358092530379
 21
-26.54504002058602
 31
0.0
  0
LINE
  5
AE
330
A
100
AcDbEntity
  8
TOP
  6
CONTINUOUS
 62
     3
100
AcDbLine
 10
8.084931061819954
 20
4.101535393640602
 30
0.0
 11
8.067357778551095
 21
4.101535393640602
 31
0.0
  0
LINE
  5
AF
330
A
100
AcDbEntity
  8
TOP
  6
CONTINUOUS
 62
     3
100
AcDbLine
 10
32.20249621685649
 20
-8.498464694394652
 30
0.0
 11
32.26249333529288
 21
-8.498464694394652
 31
0.0
  0
LINE
  5
B0
330
A
100
AcDbEntity
  8
TOP
  6
CONTINUOUS
 62
     3
100
AcDbLine
 10
25.24979230074487
 20
3.230203518499491
 30
0.0
 11
25.2678937728659
 21
3.286286904260475
 31
0.0
  0
LINE
  5
B1
330
A
100
AcDbEntity
  8
TOP
  6
CONTINUOUS
 62
     3
100
AcDbLine
 10
28.70549354187234
 20
-16.62496563105198
 30
0.0
 11
25.20949589289855
 21
-16.62496563105198
 31
0.0
  0
LINE
  5
B2
330
A
100
AcDbEntity
  8
TOP
  6
CONTINUOUS
 62
     3
100
AcDbLine
 10
25.31711803950503
 20
2.86528370930467
 30
0.0
 11
25.21417623300523
 21
2.86528370930467
 31
0.0
  0
LINE
  5
B3
330
A
100
AcDbEntity
  8
TOP
  6
CONTINUOUS
 62
     3
100
AcDbLine
 10
1.757357909129223
 20
-24.46165227890965
 30
0.0
 11
1.757357909129223
 21
-24.55003954814984
 31
0.0
  0
LINE
  5
B4
330
A
100
AcDbEntity
  8
TOP
  6
CONTINUOUS
 62
     3
100
AcDbLine
 10
0.6323578357693233
 20
4.101535393640602
 30
0.0
 11
1.637358170289231
 21
4.101535393640602
 31
0.0
  0
LINE
  5
B5
330
A
100
AcDbEntity
  8
TOP
  6
CONTINUOUS
 62
     3
100
AcDbLine
 10
4.9486483610603
 20
-10.39475804109368
 30
0.0
 11
5.366273348149142
 21
-9.977133054004847
 31
0.0
  0
LINE
  5
B6
330
A
100
AcDbEntity
  8
TOP
  6
CONTINUOUS
 62
     3
100
AcDbLine
 10
32.26249333529288
 20
-8.498464694394652
 30
0.0
 11
32.26249333529288
 21
-8.535078452188383
 31
0.0
  0
LINE
  5
B7
330
A
100
AcDbEntity
  8
TOP
  6
CONTINUOUS
 62
     3
100
AcDbLine
 10
25.08249581777833
 20
-16.56146559349187
 30
0.0
 11
25.08249581777833
 21
-14.27846464744626
 31
0.0
  0
LINE
  5
B8
330
A
100
AcDbEntity
  8
TOP
  6
CONTINUOUS
 62
     3
100
AcDbLine
 10
28.64474448791724
 20
-9.078463737786126
 30
0.0
 11
28.64474448791724
 21
-9.094606509580378
 31
0.0
  0
LINE
  5
B9
330
A
100
AcDbEntity
  8
TOP
  6
CONTINUOUS
 62
     3
100
AcDbLine
 10
8.007356992136562
 20
-24.42504035510499
 30
0.0
 11
8.007356992136562
 21
-24.38842843130033
 31
0.0
  0
LINE
  5
BA
330
A
100
AcDbEntity
  8
TOP
  6
CONTINUOUS
 62
     3
100
AcDbLine
 10
7.966470039809703
 20
-23.11528972479924
 30
0.0
 11
7.977857277945411
 21
-23.11528972479924
 31
0.0
  0
LINE
  5
BB
330
A
100
AcDbEntity
  8
TOP
  6
CONTINUOUS
 62
     3
100
AcDbLine
 10
1.697358039709227
 20
-8.498464694394652
 30
0.0
 11
1.679783839445831
 21
-8.498464694394652
 31
0.0
  0
LINE
  5
BC
330
A
100
AcDbEntity
  8
TOP
  6
CONTINUOUS
 62
     3
100
AcDbLine
 10
8.822108470478717
 20
-3.622214207285692
 30
0.0
 11
8.96273325040007
 21
-3.622214207285692
 31
0.0
  0
LINE
  5
BD
330
A
100
AcDbEntity
  8
TOP
  6
CONTINUOUS
 62
     3
100
AcDbLine
 10
5.498845082064071
 20
-3.434714500723887
 30
0.0
 11
4.60869281108649
 21
-3.434714500723887
 31
0.0
  0
LINE
  5
BE
330
A
100
AcDbEntity
  8
TOP
  6
CONTINUOUS
 62
     3
100
AcDbLine
 10
25.17649509357275
 20
-3.094755282771937
 30
0.0
 11
25.24979230074487
 21
-3.069798359507206
 31
0.0
  0
LINE
  5
BF
330
A
100
AcDbEntity
  8
TOP
  6
CONTINUOUS
 62
     3
100
AcDbLine
 10
5.498845082064071
 20
-9.734716378730585
 30
0.0
 11
4.60869281108649
 21
-9.734716378730585
 31
0.0
  0
LINE
  5
C0
330
A
100
AcDbEntity
  8
TOP
  6
CONTINUOUS
 62
     3
100
AcDbLine
 10
25.08274524029185
 20
-9.828466232011487
 30
0.0
 11
25.08274524029185
 21
-9.849872552436673
 31
0.0
  0
LINE
  5
C1
330
A
100
AcDbEntity
  8
TOP
  6
CONTINUOUS
 62
     3
100
AcDbLine
 10
25.27024494685365
 20
-9.734716378730585
 30
0.0
 11
25.27024494685365
 21
-9.328465791853961
 31
0.0
  0
LINE
  5
C2
330
A
100
AcDbEntity
  8
TOP
  6
CONTINUOUS
 62
     3
100
AcDbLine
 10
9.132357065496464
 20
-22.98804022716548
 30
0.0
 11
9.132357065496464
 21
-19.49204074420263
 31
0.0
  0
LINE
  5
C3
330
A
100
AcDbEntity
  8
TOP
  6
CONTINUOUS
 62
     3
100
AcDbLine
 10
1.732504606246948
 20
7.241533756256103
 30
0.0
 11
1.697358039709227
 21
7.241533756256103
 31
0.0
  0
LINE
  5
C4
330
A
100
AcDbEntity
  8
TOP
  6
CONTINUOUS
 62
     3
100
AcDbLine
 10
9.132357065496464
 20
-16.6512687022941
 30
0.0
 11
9.132357065496464
 21
-16.56146559349187
 31
0.0
  0
LINE
  5
C5
330
A
100
AcDbEntity
  8
TOP
  6
CONTINUOUS
 62
     3
100
AcDbLine
 10
4.816065623210951
 20
3.337825665105969
 30
0.0
 11
4.398442470111179
 21
2.920204345995266
 31
0.0
  0
LINE
  5
C6
330
A
100
AcDbEntity
  8
TOP
  6
CONTINUOUS
 62
     3
100
AcDbLine
 10
28.45724478135544
 20
-3.622214207285692
 30
0.0
 11
28.59786772728772
 21
-3.622214207285692
 31
0.0
  0
LINE
  5
C7
330
A
100
AcDbEntity
  8
TOP
  6
CONTINUOUS
 62
     3
100
AcDbLine
 10
25.27024494685365
 20
-4.028464794162316
 30
0.0
 11
25.27024494685365
 21
-3.622221543241972
 31
0.0
  0
LINE
  5
C8
330
A
100
AcDbEntity
  8
TOP
  6
CONTINUOUS
 62
     3
100
AcDbLine
 10
9.132357065496464
 20
-26.48503923417149
 30
0.0
 11
8.127358564965625
 21
-26.48503923417149
 31
0.0
  0
LINE
  5
C9
330
A
100
AcDbEntity
  8
TOP
  6
CONTINUOUS
 62
     3
100
AcDbLine
 10
8.067357778551095
 20
2.601534073168022
 30
0.0
 11
8.084931061819954
 21
2.601534073168022
 31
0.0
  0
LINE
  5
CA
330
A
100
AcDbEntity
  8
TOP
  6
CONTINUOUS
 62
     3
100
AcDbLine
 10
4.915502676597963
 20
-3.06161143229867
 30
0.0
 11
4.9486483610603
 21
-3.094755282771937
 31
0.0
  0
LINE
  5
CB
330
A
100
AcDbEntity
  8
TOP
  6
CONTINUOUS
 62
     3
100
AcDbLine
 10
8.96273325040007
 20
2.677784002742865
 30
0.0
 11
9.065676890888946
 21
2.677784002742865
 31
0.0
  0
LINE
  5
CC
330
A
100
AcDbEntity
  8
TOP
  6
CONTINUOUS
 62
     3
100
AcDbLine
 10
32.20249621685649
 20
4.064921635846872
 30
0.0
 11
32.20249621685649
 21
4.101535393640602
 31
0.0
  0
LINE
  5
CD
330
A
100
AcDbEntity
  8
TOP
  6
CONTINUOUS
 62
     3
100
AcDbLine
 10
25.11020372464808
 20
2.224660323214859
 30
0.0
 11
25.17649509357275
 21
2.205242046941566
 31
0.0
  0
LINE
  5
CE
330
A
100
AcDbEntity
  8
TOP
  6
CONTINUOUS
 62
     3
100
AcDbLine
 10
28.83249361699257
 20
6.679034636570688
 30
0.0
 11
28.83249361699257
 21
6.741533316098577
 31
0.0
  0
LINE
  5
CF
330
A
100
AcDbEntity
  8
TOP
  6
CONTINUOUS
 62
     3
100
AcDbLine
 10
28.59786772728772
 20
2.677784002742865
 30
0.0
 11
28.70081320176566
 21
2.677784002742865
 31
0.0
  0
LINE
  5
D0
330
A
100
AcDbEntity
  8
TOP
  6
CONTINUOUS
 62
     3
100
AcDbLine
 10
1.757357909129223
 20
-24.30003932807108
 30
0.0
 11
1.757357909129223
 21
-24.38842843130033
 31
0.0
  0
LINE
  5
D1
330
A
100
AcDbEntity
  8
TOP
  6
CONTINUOUS
 62
     3
100
AcDbLine
 10
1.679783839445831
 20
2.601534073168022
 30
0.0
 11
1.697358039709227
 21
2.601534073168022
 31
0.0
  0
LINE
  5
D2
330
A
100
AcDbEntity
  8
TOP
  6
CONTINUOUS
 62
     3
100
AcDbLine
 10
4.816065623210951
 20
3.337825665105969
 30
0.0
 11
4.849211307673289
 21
3.304681814632701
 31
0.0
  0
LINE
  5
D3
330
A
100
AcDbEntity
  8
TOP
  6
CONTINUOUS
 62
     3
100
AcDbLine
 10
0.661357787938897
 20
-3.622214207285692
 30
0.0
 11
0.6990380103768404
 21
-3.622214207285692
 31
0.0
  0
LINE
  5
D4
330
A
100
AcDbEntity
  8
TOP
  6
CONTINUOUS
 62
     3
100
AcDbLine
 10
1.697358039709227
 20
-24.46165227890965
 30
0.0
 11
1.697358039709227
 21
-24.42504035510499
 31
0.0
  0
LINE
  5
D5
330
A
100
AcDbEntity
  8
TOP
  6
CONTINUOUS
 62
     3
100
AcDbLine
 10
5.49885608599849
 20
-9.92221608529239
 30
0.0
 11
8.822108470478717
 21
-9.92221608529239
 31
0.0
  0
LINE
  5
D6
330
A
100
AcDbEntity
  8
TOP
  6
CONTINUOUS
 62
     3
100
AcDbLine
 10
32.26249333529288
 20
-8.623465721428569
 30
0.0
 11
32.26249333529288
 21
-9.873464987833315
 31
0.0
  0
LINE
  5
D7
330
A
100
AcDbEntity
  8
TOP
  6
CONTINUOUS
 62
     3
100
AcDbLine
 10
8.007356992136562
 20
-24.55003954814984
 30
0.0
 11
8.007356992136562
 21
-26.42504028174603
 31
0.0
  0
LINE
  5
D8
330
A
100
AcDbEntity
  8
TOP
  6
CONTINUOUS
 62
     3
100
AcDbLine
 10
9.103358030321425
 20
-3.434714500723887
 30
0.0
 11
9.065676890888946
 21
-3.434714500723887
 31
0.0
  0
LINE
  5
D9
330
A
100
AcDbEntity
  8
TOP
  6
CONTINUOUS
 62
     3
100
AcDbLine
 10
9.103358030321425
 20
-9.734716378730585
 30
0.0
 11
9.065676890888946
 21
-9.734716378730585
 31
0.0
  0
LINE
  5
DA
330
A
100
AcDbEntity
  8
TOP
  6
CONTINUOUS
 62
     3
100
AcDbLine
 10
9.065676890888946
 20
-9.734716378730585
 30
0.0
 11
8.96273325040007
 21
-9.734716378730585
 31
0.0
  0
LINE
  5
DB
330
A
100
AcDbEntity
  8
TOP
  6
CONTINUOUS
 62
     3
100
AcDbLine
 10
2.675295114517494
 20
-2.76833824011296
 30
0.0
 11
1.904388812872131
 21
-3.39290321790574
 31
0.0
  0
LINE
  5
DC
330
A
100
AcDbEntity
  8
TOP
  6
CONTINUOUS
 62
     3
100
AcDbLine
 10
28.83249361699257
 20
-12.02835079340412
 30
0.0
 11
28.83249361699257
 21
7.241533756256103
 31
0.0
  0
LINE
  5
DD
330
A
100
AcDbEntity
  8
TOP
  6
CONTINUOUS
 62
     3
100
AcDbLine
 10
25.24278646249742
 20
-4.075341554791838
 30
0.0
 11
25.27024494685365
 21
-4.028464794162316
 31
0.0
  0
LINE
  5
DE
330
A
100
AcDbEntity
  8
TOP
  6
CONTINUOUS
 62
     3
100
AcDbLine
 10
25.17649509357275
 20
-9.92221608529239
 30
0.0
 11
25.21417623300523
 21
-9.92221608529239
 31
0.0
  0
LINE
  5
DF
330
A
100
AcDbEntity
  8
TOP
  6
CONTINUOUS
 62
     3
100
AcDbLine
 10
25.08274524029185
 20
2.689158402955083
 30
0.0
 11
25.08274524029185
 21
2.271533415866241
 31
0.0
  0
LINE
  5
E0
330
A
100
AcDbEntity
  8
TOP
  6
CONTINUOUS
 62
     3
100
AcDbLine
 10
0.6323578357693233
 20
-23.11504030228571
 30
0.0
 11
0.6323578357693233
 21
-23.07784150197865
 31
0.0
  0
LINE
  5
E1
330
A
100
AcDbEntity
  8
TOP
  6
CONTINUOUS
 62
     3
100
AcDbLine
 10
0.8823580558480866
 20
-9.141960107368102
 30
0.0
 11
0.8823580558480866
 21
-8.91846653131823
 31
0.0
  0
LINE
  5
E2
330
A
100
AcDbEntity
  8
TOP
  6
CONTINUOUS
 62
     3
100
AcDbLine
 10
9.132357065496464
 20
-14.27849399127138
 30
0.0
 11
9.132357065496464
 21
-12.2784665547943
 31
0.0
  0
LINE
  5
E3
330
A
100
AcDbEntity
  8
TOP
  6
CONTINUOUS
 62
     3
100
AcDbLine
 10
0.6990380103768404
 20
2.677784002742865
 30
0.0
 11
0.8019825678602508
 21
2.677784002742865
 31
0.0
  0
LINE
  5
E4
330
A
100
AcDbEntity
  8
TOP
  6
CONTINUOUS
 62
     3
100
AcDbLine
 10
25.24278646249742
 20
-10.37533976482039
 30
0.0
 11
25.27024494685365
 21
-10.32846667216901
 31
0.0
  0
LINE
  5
E5
330
A
100
AcDbEntity
  8
TOP
  6
CONTINUOUS
 62
     3
100
AcDbLine
 10
28.73849434119815
 20
-3.434714500723887
 30
0.0
 11
28.70081320176566
 21
-3.434714500723887
 31
0.0
  0
LINE
  5
E6
330
A
100
AcDbEntity
  8
TOP
  6
CONTINUOUS
 62
     3
100
AcDbLine
 10
0.661357787938897
 20
-9.92221608529239
 30
0.0
 11
0.6990380103768404
 21
-9.92221608529239
 31
0.0
  0
LINE
  5
E7
330
A
100
AcDbEntity
  8
TOP
  6
CONTINUOUS
 62
     3
100
AcDbLine
 10
25.45774465341546
 20
-3.622214207285692
 30
0.0
 11
28.45724478135544
 21
-3.622214207285692
 31
0.0
  0
LINE
  5
E8
330
A
100
AcDbEntity
  8
TOP
  6
CONTINUOUS
 62
     3
100
AcDbLine
 10
9.257358092530379
 20
-26.54504002058602
 30
0.0
 11
9.220746168725719
 21
-26.54504002058602
 31
0.0
  0
LINE
  5
E9
330
A
100
AcDbEntity
  8
TOP
  6
CONTINUOUS
 62
     3
100
AcDbLine
 10
7.947358039711102
 20
7.241533756256103
 30
0.0
 11
1.817357778549219
 21
7.241533756256103
 31
0.0
  0
LINE
  5
EA
330
A
100
AcDbEntity
  8
TOP
  6
CONTINUOUS
 62
     3
100
AcDbLine
 10
4.915502676597963
 20
-4.061612312613723
 30
0.0
 11
4.9486483610603
 21
-4.094756163086991
 31
0.0
  0
LINE
  5
EB
330
A
100
AcDbEntity
  8
TOP
  6
CONTINUOUS
 62
     3
100
AcDbLine
 10
2.150644027269929
 20
2.86529104526095
 30
0.0
 11
2.793326983085363
 21
3.385971546171938
 31
0.0
  0
LINE
  5
EC
330
A
100
AcDbEntity
  8
TOP
  6
CONTINUOUS
 62
     3
100
AcDbLine
 10
9.065676890888946
 20
2.86528370930467
 30
0.0
 11
8.96273325040007
 21
2.86528370930467
 31
0.0
  0
LINE
  5
ED
330
A
100
AcDbEntity
  8
TOP
  6
CONTINUOUS
 62
     3
100
AcDbLine
 10
28.70081320176566
 20
-3.622214207285692
 30
0.0
 11
28.73849434119815
 21
-3.622214207285692
 31
0.0
  0
LINE
  5
EE
330
A
100
AcDbEntity
  8
TOP
  6
CONTINUOUS
 62
     3
100
AcDbLine
 10
25.17649509357275
 20
2.205242046941566
 30
0.0
 11
25.24278646249742
 21
2.224660323214859
 31
0.0
  0
LINE
  5
EF
330
A
100
AcDbEntity
  8
TOP
  6
CONTINUOUS
 62
     3
100
AcDbLine
 10
28.83249361699257
 20
6.741533316098577
 30
0.0
 11
28.83249361699257
 21
6.679034636570688
 31
0.0
  0
LINE
  5
F0
330
A
100
AcDbEntity
  8
TOP
  6
CONTINUOUS
 62
     3
100
AcDbLine
 10
28.45724478135544
 20
2.86528370930467
 30
0.0
 11
25.45774465341546
 21
2.86528370930467
 31
0.0
  0
LINE
  5
F1
330
A
100
AcDbEntity
  8
TOP
  6
CONTINUOUS
 62
     3
100
AcDbLine
 10
28.70081320176566
 20
2.86528370930467
 30
0.0
 11
28.59786772728772
 21
2.86528370930467
 31
0.0
  0
LINE
  5
F2
330
A
100
AcDbEntity
  8
TOP
  6
CONTINUOUS
 62
     3
100
AcDbLine
 10
1.637358170289231
 20
-26.48503923417149
 30
0.0
 11
0.6323578357693233
 21
-26.48503923417149
 31
0.0
  0
LINE
  5
F3
330
A
100
AcDbEntity
  8
TOP
  6
CONTINUOUS
 62
     3
100
AcDbLine
 10
8.632358459328006
 20
3.448041072257444
 30
0.0
 11
8.632358459328006
 21
3.671534648307316
 31
0.0
  0
LINE
  5
F4
330
A
100
AcDbEntity
  8
TOP
  6
CONTINUOUS
 62
     3
100
AcDbLine
 10
4.816067457200022
 20
2.337824784790915
 30
0.0
 11
4.849211307673289
 21
2.304680934317648
 31
0.0
  0
LINE
  5
F5
330
A
100
AcDbEntity
  8
TOP
  6
CONTINUOUS
 62
     3
100
AcDbLine
 10
0.9426073477816046
 20
-3.434714500723887
 30
0.0
 11
0.8019825678602508
 21
-3.434714500723887
 31
0.0
  0
LINE
  5
F6
330
A
100
AcDbEntity
  8
TOP
  6
CONTINUOUS
 62
     3
100
AcDbLine
 10
0.8019825678602508
 20
-9.92221608529239
 30
0.0
 11
0.9426073477816046
 21
-9.92221608529239
 31
0.0
  0
LINE
  5
F7
330
A
100
AcDbEntity
  8
TOP
  6
CONTINUOUS
 62
     3
100
AcDbLine
 10
2.150644027269929
 20
-9.734709042774305
 30
0.0
 11
2.793326983085363
 21
-9.214028541863315
 31
0.0
  0
LINE
  5
F8
330
A
100
AcDbEntity
  8
TOP
  6
CONTINUOUS
 62
     3
100
AcDbLine
 10
32.18491926560949
 20
-8.498464694394652
 30
0.0
 11
32.14249543044195
 21
-8.498464694394652
 31
0.0
  0
LINE
  5
F9
330
A
100
AcDbEntity
  8
TOP
  6
CONTINUOUS
 62
     3
100
AcDbLine
 10
28.83249361699257
 20
-12.06196047710117
 30
0.0
 11
28.83249361699257
 21
-12.15346552776038
 31
0.0
  0
LINE
  5
FA
330
A
100
AcDbEntity
  8
TOP
  6
CONTINUOUS
 62
     3
100
AcDbLine
 10
25.08274524029185
 20
-9.80705624360816
 30
0.0
 11
25.08274524029185
 21
-9.828466232011487
 31
0.0
  0
LINE
  5
FB
330
A
100
AcDbEntity
  8
TOP
  6
CONTINUOUS
 62
     3
100
AcDbLine
 10
8.067357778551095
 20
-24.42504035510499
 30
0.0
 11
8.067357778551095
 21
-24.46165227890965
 31
0.0
  0
LINE
  5
FC
330
A
100
AcDbEntity
  8
TOP
  6
CONTINUOUS
 62
     3
100
AcDbLine
 10
6.616795301438843
 20
-2.76833824011296
 30
0.0
 11
5.845888999793479
 21
-3.39290321790574
 31
0.0
  0
LINE
  5
FD
330
A
100
AcDbEntity
  8
TOP
  6
CONTINUOUS
 62
     3
100
AcDbLine
 10
28.86764018353029
 20
-14.29846613224382
 30
0.0
 11
28.95249518982163
 21
-14.29846613224382
 31
0.0
  0
LINE
  5
FE
330
A
100
AcDbEntity
  8
TOP
  6
CONTINUOUS
 62
     3
100
AcDbLine
 10
25.45774465341546
 20
-9.734716378730585
 30
0.0
 11
25.31711803950503
 21
-9.734716378730585
 31
0.0
  0
LINE
  5
FF
330
A
100
AcDbEntity
  8
TOP
  6
CONTINUOUS
 62
     3
100
AcDbLine
 10
5.233690610299793
 20
2.755449771879757
 30
0.0
 11
4.816067457200022
 21
2.337824784790915
 31
0.0
  0
LINE
  5
100
330
A
100
AcDbEntity
  8
TOP
  6
CONTINUOUS
 62
     3
100
AcDbLine
 10
4.9486483610603
 20
2.205242046941566
 30
0.0
 11
5.366273348149142
 21
2.622867034030408
 31
0.0
  0
LINE
  5
101
330
A
100
AcDbEntity
  8
TOP
  6
CONTINUOUS
 62
     3
100
AcDbLine
 10
2.384858186428559
 20
-23.11504030228571
 30
0.0
 11
2.197357562872219
 21
-23.11504030228571
 31
0.0
  0
LINE
  5
102
330
A
100
AcDbEntity
  8
TOP
  6
CONTINUOUS
 62
     3
100
AcDbLine
 10
1.637358170289231
 20
-9.998466014867233
 30
0.0
 11
0.6323578357693233
 21
-9.998466014867233
 31
0.0
  0
LINE
  5
103
330
A
100
AcDbEntity
  8
TOP
  6
CONTINUOUS
 62
     3
100
AcDbLine
 10
0.8019825678602508
 20
2.86528370930467
 30
0.0
 11
0.6990380103768404
 21
2.86528370930467
 31
0.0
  0
LINE
  5
104
330
A
100
AcDbEntity
  8
TOP
  6
CONTINUOUS
 62
     3
100
AcDbLine
 10
30.26749469684576
 20
-8.498464694394652
 30
0.0
 11
32.14249543044195
 21
-8.498464694394652
 31
0.0
  0
LINE
  5
105
330
A
100
AcDbEntity
  8
TOP
  6
CONTINUOUS
 62
     3
100
AcDbLine
 10
28.64474448791724
 20
-2.794608299551819
 30
0.0
 11
28.64474448791724
 21
-2.841184285973859
 31
0.0
  0
LINE
  5
106
330
A
100
AcDbEntity
  8
TOP
  6
CONTINUOUS
 62
     3
100
AcDbLine
 10
25.27024494685365
 20
-3.434714500723887
 30
0.0
 11
25.27024494685365
 21
-3.028463913847263
 31
0.0
  0
LINE
  5
107
330
A
100
AcDbEntity
  8
TOP
  6
CONTINUOUS
 62
     3
100
AcDbLine
 10
9.132357065496464
 20
-19.3650406690824
 30
0.0
 11
0.6323578357693233
 21
-19.3650406690824
 31
0.0
  0
LINE
  5
108
330
A
100
AcDbEntity
  8
TOP
  6
CONTINUOUS
 62
     3
100
AcDbLine
 10
8.067357778551095
 20
-9.734676030971044
 30
0.0
 11
8.067357778551095
 21
-3.622030808378691
 31
0.0
  0
LINE
  5
109
330
A
100
AcDbEntity
  8
TOP
  6
CONTINUOUS
 62
     3
100
AcDbLine
 10
3.918326139450729
 20
2.907098660100956
 30
0.0
 11
3.1474207547999
 21
3.531659969915597
 31
0.0
  0
LINE
  5
10A
330
A
100
AcDbEntity
  8
TOP
  6
CONTINUOUS
 62
     3
100
AcDbLine
 10
32.26249333529288
 20
4.101535393640602
 30
0.0
 11
32.26249333529288
 21
4.064921635846872
 31
0.0
  0
LINE
  5
10B
330
A
100
AcDbEntity
  8
TOP
  6
CONTINUOUS
 62
     3
100
AcDbLine
 10
25.31711803950503
 20
-3.622214207285692
 30
0.0
 11
25.45774465341546
 21
-3.622214207285692
 31
0.0
  0
LINE
  5
10C
330
A
100
AcDbEntity
  8
TOP
  6
CONTINUOUS
 62
     3
100
AcDbLine
 10
28.64474448791724
 20
3.521536350249128
 30
0.0
 11
28.64474448791724
 21
3.505393578454877
 31
0.0
  0
LINE
  5
10D
330
A
100
AcDbEntity
  8
TOP
  6
CONTINUOUS
 62
     3
100
AcDbLine
 10
0.5439696495346026
 20
-26.54504002058602
 30
0.0
 11
0.5073577257299416
 21
-26.54504002058602
 31
0.0
  0
LINE
  5
10E
330
A
100
AcDbEntity
  8
TOP
  6
CONTINUOUS
 62
     3
100
AcDbLine
 10
8.822108470478717
 20
-9.92221608529239
 30
0.0
 11
8.96273325040007
 21
-9.92221608529239
 31
0.0
  0
LINE
  5
10F
330
A
100
AcDbEntity
  8
TOP
  6
CONTINUOUS
 62
     3
100
AcDbLine
 10
8.96273325040007
 20
-9.92221608529239
 30
0.0
 11
9.065676890888946
 21
-9.92221608529239
 31
0.0
  0
LINE
  5
110
330
A
100
AcDbEntity
  8
TOP
  6
CONTINUOUS
 62
     3
100
AcDbLine
 10
9.065676890888946
 20
-9.92221608529239
 30
0.0
 11
9.103358030321425
 21
-9.92221608529239
 31
0.0
  0
LINE
  5
111
330
A
100
AcDbEntity
  8
TOP
  6
CONTINUOUS
 62
     3
100
AcDbLine
 10
4.915502676597963
 20
-9.361609642327227
 30
0.0
 11
4.9486483610603
 21
-9.394757160778635
 31
0.0
  0
LINE
  5
112
330
A
100
AcDbEntity
  8
TOP
  6
CONTINUOUS
 62
     3
100
AcDbLine
 10
0.6990380103768404
 20
-9.734716378730585
 30
0.0
 11
0.661357787938897
 21
-9.734716378730585
 31
0.0
  0
LINE
  5
113
330
A
100
AcDbEntity
  8
TOP
  6
CONTINUOUS
 62
     3
100
AcDbLine
 10
25.10319788640063
 20
3.230203518499491
 30
0.0
 11
25.17649509357275
 21
3.20524292725662
 31
0.0
  0
LINE
  5
114
330
A
100
AcDbEntity
  8
TOP
  6
CONTINUOUS
 62
     3
100
AcDbLine
 10
28.76899357943245
 20
-12.15346552776038
 30
0.0
 11
28.76899357943245
 21
-12.06196047710117
 31
0.0
  0
LINE
  5
115
330
A
100
AcDbEntity
  8
TOP
  6
CONTINUOUS
 62
     3
100
AcDbLine
 10
25.08274524029185
 20
2.771533856023768
 30
0.0
 11
25.08274524029185
 21
2.750127535598581
 31
0.0
  0
LINE
  5
116
330
A
100
AcDbEntity
  8
TOP
  6
CONTINUOUS
 62
     3
100
AcDbLine
 10
8.067357778551095
 20
-23.2350400411257
 30
0.0
 11
8.067357778551095
 21
-24.30003932807108
 31
0.0
  0
LINE
  5
117
330
A
100
AcDbEntity
  8
TOP
  6
CONTINUOUS
 62
     3
100
AcDbLine
 10
1.132357358932315
 20
3.448041072257444
 30
0.0
 11
1.132357358932315
 21
3.671534648307316
 31
0.0
  0
LINE
  5
118
330
A
100
AcDbEntity
  8
TOP
  6
CONTINUOUS
 62
     3
100
AcDbLine
 10
6.970889073153379
 20
-2.914026663856618
 30
0.0
 11
7.613572028968814
 21
-3.434707164767607
 31
0.0
  0
LINE
  5
119
330
A
100
AcDbEntity
  8
TOP
  6
CONTINUOUS
 62
     3
100
AcDbLine
 10
32.20249621685649
 20
-8.623465721428569
 30
0.0
 11
32.20249621685649
 21
-8.535078452188383
 31
0.0
  0
LINE
  5
11A
330
A
100
AcDbEntity
  8
TOP
  6
CONTINUOUS
 62
     3
100
AcDbLine
 10
25.14599585533844
 20
-14.06195856975314
 30
0.0
 11
25.14599585533844
 21
-14.15346362041234
 31
0.0
  0
LINE
  5
11B
330
A
100
AcDbEntity
  8
TOP
  6
CONTINUOUS
 62
     3
100
AcDbLine
 10
28.45724478135544
 20
-9.92221608529239
 30
0.0
 11
28.59786772728772
 21
-9.92221608529239
 31
0.0
  0
LINE
  5
11C
330
A
100
AcDbEntity
  8
TOP
  6
CONTINUOUS
 62
     3
100
AcDbLine
 10
25.08274524029185
 20
3.271534296181294
 30
0.0
 11
25.08274524029185
 21
2.853912977070592
 31
0.0
  0
LINE
  5
11D
330
A
100
AcDbEntity
  8
TOP
  6
CONTINUOUS
 62
     3
100
AcDbLine
 10
3.509858259788459
 20
-23.11504030228571
 30
0.0
 11
3.697357966350264
 21
-23.11504030228571
 31
0.0
  0
LINE
  5
11E
330
A
100
AcDbEntity
  8
TOP
  6
CONTINUOUS
 62
     3
100
AcDbLine
 10
30.14249366981184
 20
-10.123463373923
 30
0.0
 11
30.14249366981184
 21
-14.1734651052099
 31
0.0
  0
LINE
  5
11F
330
A
100
AcDbEntity
  8
TOP
  6
CONTINUOUS
 62
     3
100
AcDbLine
 10
25.08509641427961
 20
-3.013714973746221
 30
0.0
 11
25.10319788640063
 21
-3.069798359507206
 31
0.0
  0
LINE
  5
120
330
A
100
AcDbEntity
  8
TOP
  6
CONTINUOUS
 62
     3
100
AcDbLine
 10
28.64524333294428
 20
-2.794608299551819
 30
0.0
 11
28.64524333294428
 21
-2.841184285973859
 31
0.0
  0
LINE
  5
121
330
A
100
AcDbEntity
  8
TOP
  6
CONTINUOUS
 62
     3
100
AcDbLine
 10
25.08274524029185
 20
-9.910841685080171
 30
0.0
 11
25.08274524029185
 21
-10.32846667216901
 31
0.0
  0
LINE
  5
122
330
A
100
AcDbEntity
  8
TOP
  6
CONTINUOUS
 62
     3
100
AcDbLine
 10
9.132357065496464
 20
-19.4022376354004
 30
0.0
 11
9.132357065496464
 21
-19.3650406690824
 31
0.0
  0
LINE
  5
123
330
A
100
AcDbEntity
  8
TOP
  6
CONTINUOUS
 62
     3
100
AcDbLine
 10
7.947358039711102
 20
7.241533756256103
 30
0.0
 11
8.032211212013374
 21
7.241533756256103
 31
0.0
  0
LINE
  5
124
330
A
100
AcDbEntity
  8
TOP
  6
CONTINUOUS
 62
     3
100
AcDbLine
 10
7.859827243366612
 20
2.907098660100956
 30
0.0
 11
7.088920941721249
 21
3.531659969915597
 31
0.0
  0
LINE
  5
125
330
A
100
AcDbEntity
  8
TOP
  6
CONTINUOUS
 62
     3
100
AcDbLine
 10
32.26249333529288
 20
3.976534366606686
 30
0.0
 11
32.26249333529288
 21
2.726535100201939
 31
0.0
  0
LINE
  5
126
330
A
100
AcDbEntity
  8
TOP
  6
CONTINUOUS
 62
     3
100
AcDbLine
 10
25.13581721599987
 20
-9.268740103799931
 30
0.0
 11
25.08509641427961
 21
-9.31371318377478
 31
0.0
  0
LINE
  5
127
330
A
100
AcDbEntity
  8
TOP
  6
CONTINUOUS
 62
     3
100
AcDbLine
 10
25.21417623300523
 20
-3.434714500723887
 30
0.0
 11
25.17649509357275
 21
-3.434714500723887
 31
0.0
  0
LINE
  5
128
330
A
100
AcDbEntity
  8
TOP
  6
CONTINUOUS
 62
     3
100
AcDbLine
 10
4.915502676597963
 20
-10.36161052264228
 30
0.0
 11
4.9486483610603
 21
-10.39475804109368
 31
0.0
  0
LINE
  5
129
330
A
100
AcDbEntity
  8
TOP
  6
CONTINUOUS
 62
     3
100
AcDbLine
 10
25.21716930316749
 20
3.331259984235324
 30
0.0
 11
25.13581721599987
 21
3.331259984235324
 31
0.0
  0
LINE
  5
12A
330
A
100
AcDbEntity
  8
TOP
  6
CONTINUOUS
 62
     3
100
AcDbLine
 10
28.76899357943245
 20
-12.02846450072646
 30
0.0
 11
28.83249361699257
 21
-12.02846450072646
 31
0.0
  0
LINE
  5
12B
330
A
100
AcDbEntity
  8
TOP
  6
CONTINUOUS
 62
     3
100
AcDbLine
 10
25.17649509357275
 20
2.677784002742865
 30
0.0
 11
25.21417623300523
 21
2.677784002742865
 31
0.0
  0
LINE
  5
12C
330
A
100
AcDbEntity
  8
TOP
  6
CONTINUOUS
 62
     3
100
AcDbLine
 10
0.5073577257299416
 20
3.976534366606686
 30
0.0
 11
0.5073577257299416
 21
2.726535100201939
 31
0.0
  0
LINE
  5
12D
330
A
100
AcDbEntity
  8
TOP
  6
CONTINUOUS
 62
     3
100
AcDbLine
 10
8.084931061819954
 20
-8.498464694394652
 30
0.0
 11
8.067357778551095
 21
-8.498464694394652
 31
0.0
  0
LINE
  5
12E
330
A
100
AcDbEntity
  8
TOP
  6
CONTINUOUS
 62
     3
100
AcDbLine
 10
4.531025207960528
 20
-3.512380269860779
 30
0.0
 11
4.9486483610603
 21
-3.094755282771937
 31
0.0
  0
LINE
  5
12F
330
A
100
AcDbEntity
  8
TOP
  6
CONTINUOUS
 62
     3
100
AcDbLine
 10
32.20249621685649
 20
-9.998466014867233
 30
0.0
 11
32.20249621685649
 21
-9.961852257073502
 31
0.0
  0
LINE
  5
130
330
A
100
AcDbEntity
  8
TOP
  6
CONTINUOUS
 62
     3
100
AcDbLine
 10
25.08249581777833
 20
-14.15346362041234
 30
0.0
 11
25.08249581777833
 21
-14.06195856975314
 31
0.0
  0
LINE
  5
131
330
A
100
AcDbEntity
  8
TOP
  6
CONTINUOUS
 62
     3
100
AcDbLine
 10
28.73849434119815
 20
-9.734716378730585
 30
0.0
 11
28.70081320176566
 21
-9.734716378730585
 31
0.0
  0
LINE
  5
132
330
A
100
AcDbEntity
  8
TOP
  6
CONTINUOUS
 62
     3
100
AcDbLine
 10
7.947358039711102
 20
-23.17503925471118
 30
0.0
 11
1.817357778549219
 21
-23.17503925471118
 31
0.0
  0
LINE
  5
133
330
A
100
AcDbEntity
  8
TOP
  6
CONTINUOUS
 62
     3
100
AcDbLine
 10
1.637358170289231
 20
-9.998466014867233
 30
0.0
 11
1.679783839445831
 21
-9.998466014867233
 31
0.0
  0
LINE
  5
134
330
A
100
AcDbEntity
  8
TOP
  6
CONTINUOUS
 62
     3
100
AcDbLine
 10
9.065676890888946
 20
-3.622214207285692
 30
0.0
 11
9.103358030321425
 21
-3.622214207285692
 31
0.0
  0
LINE
  5
135
330
A
100
AcDbEntity
  8
TOP
  6
CONTINUOUS
 62
     3
100
AcDbLine
 10
30.14249366981184
 20
7.116536397200326
 30
0.0
 11
30.14249366981184
 21
4.226536420674519
 31
0.0
  0
LINE
  5
136
330
A
100
AcDbEntity
  8
TOP
  6
CONTINUOUS
 62
     3
100
AcDbLine
 10
25.2678937728659
 20
-3.013714973746221
 30
0.0
 11
25.21716930316749
 21
-2.968738225793233
 31
0.0
  0
LINE
  5
137
330
A
100
AcDbEntity
  8
TOP
  6
CONTINUOUS
 62
     3
100
AcDbLine
 10
25.08274524029185
 20
-3.446088900936105
 30
0.0
 11
25.08274524029185
 21
-3.507054365601462
 31
0.0
  0
LINE
  5
138
330
A
100
AcDbEntity
  8
TOP
  6
CONTINUOUS
 62
     3
100
AcDbLine
 10
28.64474448791724
 20
-9.141182496002416
 30
0.0
 11
28.64474448791724
 21
-9.734712710752445
 31
0.0
  0
LINE
  5
139
330
A
100
AcDbEntity
  8
TOP
  6
CONTINUOUS
 62
     3
100
AcDbLine
 10
6.092144214191277
 20
-9.734709042774305
 30
0.0
 11
6.734827170006711
 21
-9.214028541863315
 31
0.0
  0
LINE
  5
13A
330
A
100
AcDbEntity
  8
TOP
  6
CONTINUOUS
 62
     3
100
AcDbLine
 10
6.616795301438843
 20
-9.068340118119657
 30
0.0
 11
5.845888999793479
 21
-9.692901427934298
 31
0.0
  0
LINE
  5
13B
330
A
100
AcDbEntity
  8
TOP
  6
CONTINUOUS
 62
     3
100
AcDbLine
 10
1.697358039709227
 20
2.677747322961465
 30
0.0
 11
1.697358039709227
 21
-3.434901567609028
 31
0.0
  0
LINE
  5
13C
330
A
100
AcDbEntity
  8
TOP
  6
CONTINUOUS
 62
     3
100
AcDbLine
 10
0.6323578357693233
 20
-16.6512687022941
 30
0.0
 11
0.6323578357693233
 21
-16.56146559349187
 31
0.0
  0
LINE
  5
13D
330
A
100
AcDbEntity
  8
TOP
  6
CONTINUOUS
 62
     3
100
AcDbLine
 10
0.9426073477816046
 20
2.677784002742865
 30
0.0
 11
4.26585973226183
 21
2.677784002742865
 31
0.0
  0
LINE
  5
13E
330
A
100
AcDbEntity
  8
TOP
  6
CONTINUOUS
 62
     3
100
AcDbLine
 10
32.18491926560949
 20
2.601534073168022
 30
0.0
 11
32.20249621685649
 21
2.601534073168022
 31
0.0
  0
LINE
  5
13F
330
A
100
AcDbEntity
  8
TOP
  6
CONTINUOUS
 62
     3
100
AcDbLine
 10
25.24979230074487
 20
-9.369796569535763
 30
0.0
 11
25.2678937728659
 21
-9.31371318377478
 31
0.0
  0
LINE
  5
140
330
A
100
AcDbEntity
  8
TOP
  6
CONTINUOUS
 62
     3
100
AcDbLine
 10
25.08274524029185
 20
2.792943844427094
 30
0.0
 11
25.08274524029185
 21
2.771533856023768
 31
0.0
  0
LINE
  5
141
330
A
100
AcDbEntity
  8
TOP
  6
CONTINUOUS
 62
     3
100
AcDbLine
 10
9.220746168725719
 20
-26.48503923417149
 30
0.0
 11
9.257358092530379
 21
-26.48503923417149
 31
0.0
  0
LINE
  5
142
330
A
100
AcDbEntity
  8
TOP
  6
CONTINUOUS
 62
     3
100
AcDbLine
 10
32.20249621685649
 20
4.101535393640602
 30
0.0
 11
32.26249333529288
 21
4.101535393640602
 31
0.0
  0
LINE
  5
143
330
A
100
AcDbEntity
  8
TOP
  6
CONTINUOUS
 62
     3
100
AcDbLine
 10
25.17649509357275
 20
3.20524292725662
 30
0.0
 11
25.24979230074487
 21
3.230203518499491
 31
0.0
  0
LINE
  5
144
330
A
100
AcDbEntity
  8
TOP
  6
CONTINUOUS
 62
     3
100
AcDbLine
 10
25.45774465341546
 20
2.86528370930467
 30
0.0
 11
25.31711803950503
 21
2.86528370930467
 31
0.0
  0
LINE
  5
145
330
A
100
AcDbEntity
  8
TOP
  6
CONTINUOUS
 62
     3
100
AcDbLine
 10
1.757357909129223
 20
-24.42504035510499
 30
0.0
 11
1.757357909129223
 21
-24.46165227890965
 31
0.0
  0
LINE
  5
146
330
A
100
AcDbEntity
  8
TOP
  6
CONTINUOUS
 62
     3
100
AcDbLine
 10
1.757357909129223
 20
-23.2350400411257
 30
0.0
 11
1.757357909129223
 21
-24.30003932807108
 31
0.0
  0
LINE
  5
147
330
A
100
AcDbEntity
  8
TOP
  6
CONTINUOUS
 62
     3
100
AcDbLine
 10
1.679783839445831
 20
4.101535393640602
 30
0.0
 11
1.637358170289231
 21
4.101535393640602
 31
0.0
  0
LINE
  5
148
330
A
100
AcDbEntity
  8
TOP
  6
CONTINUOUS
 62
     3
100
AcDbLine
 10
0.8019825678602508
 20
-3.622214207285692
 30
0.0
 11
0.9426073477816046
 21
-3.622214207285692
 31
0.0
  0
LINE
  5
149
330
A
100
AcDbEntity
  8
TOP
  6
CONTINUOUS
 62
     3
100
AcDbLine
 10
5.233690610299793
 20
-9.844550316155498
 30
0.0
 11
4.816067457200022
 21
-10.26217530324433
 31
0.0
  0
LINE
  5
14A
330
A
100
AcDbEntity
  8
TOP
  6
CONTINUOUS
 62
     3
100
AcDbLine
 10
32.26249333529288
 20
-9.961852257073502
 30
0.0
 11
32.26249333529288
 21
-9.998466014867233
 31
0.0
  0
LINE
  5
14B
330
A
100
AcDbEntity
  8
TOP
  6
CONTINUOUS
 62
     3
100
AcDbLine
 10
25.14599585533844
 20
-16.56146559349187
 30
0.0
 11
25.14599585533844
 21
-14.27846464744626
 31
0.0
  0
LINE
  5
14C
330
A
100
AcDbEntity
  8
TOP
  6
CONTINUOUS
 62
     3
100
AcDbLine
 10
28.64474448791724
 20
-9.094606509580378
 30
0.0
 11
28.64474448791724
 21
-9.141182496002416
 31
0.0
  0
LINE
  5
14D
330
A
100
AcDbEntity
  8
TOP
  6
CONTINUOUS
 62
     3
100
AcDbLine
 10
8.007356992136562
 20
-24.46165227890965
 30
0.0
 11
8.007356992136562
 21
-24.42504035510499
 31
0.0
  0
LINE
  5
14E
330
A
100
AcDbEntity
  8
TOP
  6
CONTINUOUS
 62
     3
100
AcDbLine
 10
7.955099307575625
 20
-23.11528972479924
 30
0.0
 11
7.966470039809703
 21
-23.11528972479924
 31
0.0
  0
LINE
  5
14F
330
A
100
AcDbEntity
  8
TOP
  6
CONTINUOUS
 62
     3
100
AcDbLine
 10
8.96273325040007
 20
-3.434714500723887
 30
0.0
 11
8.822108470478717
 21
-3.434714500723887
 31
0.0
  0
LINE
  5
150
330
A
100
AcDbEntity
  8
TOP
  6
CONTINUOUS
 62
     3
100
AcDbLine
 10
4.265872570185321
 20
-3.622214207285692
 30
0.0
 11
5.156024841162901
 21
-3.622214207285692
 31
0.0
  0
LINE
  5
151
330
A
100
AcDbEntity
  8
TOP
  6
CONTINUOUS
 62
     3
100
AcDbLine
 10
28.95249518982163
 20
7.241533756256103
 30
0.0
 11
30.01749264277793
 21
7.241533756256103
 31
0.0
  0
LINE
  5
152
330
A
100
AcDbEntity
  8
TOP
  6
CONTINUOUS
 62
     3
100
AcDbLine
 10
25.31711803950503
 20
-9.92221608529239
 30
0.0
 11
25.45774465341546
 21
-9.92221608529239
 31
0.0
  0
LINE
  5
153
330
A
100
AcDbEntity
  8
TOP
  6
CONTINUOUS
 62
     3
100
AcDbLine
 10
25.08274524029185
 20
-9.328465791853961
 30
0.0
 11
25.08274524029185
 21
-9.746087110964662
 31
0.0
  0
LINE
  5
154
330
A
100
AcDbEntity
  8
TOP
  6
CONTINUOUS
 62
     3
100
AcDbLine
 10
9.132357065496464
 20
-23.11504030228571
 30
0.0
 11
0.6323578357693233
 21
-23.11504030228571
 31
0.0
  0
LINE
  5
155
330
A
100
AcDbEntity
  8
TOP
  6
CONTINUOUS
 62
     3
100
AcDbLine
 10
1.817357778549219
 20
7.241533756256103
 30
0.0
 11
1.732504606246948
 21
7.241533756256103
 31
0.0
  0
LINE
  5
156
330
A
100
AcDbEntity
  8
TOP
  6
CONTINUOUS
 62
     3
100
AcDbLine
 10
9.132357065496464
 20
-16.6884656686121
 30
0.0
 11
9.132357065496464
 21
-16.6512687022941
 31
0.0
  0
LINE
  5
157
330
A
100
AcDbEntity
  8
TOP
  6
CONTINUOUS
 62
     3
100
AcDbLine
 10
30.26749469684576
 20
4.101535393640602
 30
0.0
 11
32.14249543044195
 21
4.101535393640602
 31
0.0
  0
LINE
  5
158
330
A
100
AcDbEntity
  8
TOP
  6
CONTINUOUS
 62
     3
100
AcDbLine
 10
25.11020372464808
 20
-10.37533976482039
 30
0.0
 11
25.17649509357275
 21
-10.39475804109368
 31
0.0
  0
LINE
  5
159
330
A
100
AcDbEntity
  8
TOP
  6
CONTINUOUS
 62
     3
100
AcDbLine
 10
28.59786772728772
 20
-3.434714500723887
 30
0.0
 11
28.45724478135544
 21
-3.434714500723887
 31
0.0
  0
LINE
  5
15A
330
A
100
AcDbEntity
  8
TOP
  6
CONTINUOUS
 62
     3
100
AcDbLine
 10
25.08274524029185
 20
-3.610839807073474
 30
0.0
 11
25.08274524029185
 21
-4.028464794162316
 31
0.0
  0
LINE
  5
15B
330
A
100
AcDbEntity
  8
TOP
  6
CONTINUOUS
 62
     3
100
AcDbLine
 10
8.127358564965625
 20
-26.54504002058602
 30
0.0
 11
9.132357065496464
 21
-26.54504002058602
 31
0.0
  0
LINE
  5
15C
330
A
100
AcDbEntity
  8
TOP
  6
CONTINUOUS
 62
     3
100
AcDbLine
 10
4.849211307673289
 20
-2.995320063373995
 30
0.0
 11
4.915502676597963
 21
-3.06161143229867
 31
0.0
  0
LINE
  5
15D
330
A
100
AcDbEntity
  8
TOP
  6
CONTINUOUS
 62
     3
100
AcDbLine
 10
5.498845082064071
 20
2.86528370930467
 30
0.0
 11
4.60869281108649
 21
2.86528370930467
 31
0.0
  0
LINE
  5
15E
330
A
100
AcDbEntity
  8
TOP
  6
CONTINUOUS
 62
     3
100
AcDbLine
 10
8.822108470478717
 20
2.677784002742865
 30
0.0
 11
8.96273325040007
 21
2.677784002742865
 31
0.0
  0
LINE
  5
15F
330
A
100
AcDbEntity
  8
TOP
  6
CONTINUOUS
 62
     3
100
AcDbLine
 10
32.20249621685649
 20
3.976534366606686
 30
0.0
 11
32.20249621685649
 21
4.064921635846872
 31
0.0
  0
LINE
  5
160
330
A
100
AcDbEntity
  8
TOP
  6
CONTINUOUS
 62
     3
100
AcDbLine
 10
25.08274524029185
 20
2.271533415866241
 30
0.0
 11
25.11020372464808
 21
2.224660323214859
 31
0.0
  0
LINE
  5
161
330
A
100
AcDbEntity
  8
TOP
  6
CONTINUOUS
 62
     3
100
AcDbLine
 10
28.83249361699257
 20
6.491534930008882
 30
0.0
 11
28.83249361699257
 21
6.554033609536771
 31
0.0
  0
LINE
  5
162
330
A
100
AcDbEntity
  8
TOP
  6
CONTINUOUS
 62
     3
100
AcDbLine
 10
28.45724478135544
 20
2.677784002742865
 30
0.0
 11
28.59786772728772
 21
2.677784002742865
 31
0.0
  0
LINE
  5
163
330
A
100
AcDbEntity
  8
TOP
  6
CONTINUOUS
 62
     3
100
AcDbLine
 10
1.637358170289231
 20
2.601534073168022
 30
0.0
 11
1.679783839445831
 21
2.601534073168022
 31
0.0
  0
LINE
  5
164
330
A
100
AcDbEntity
  8
TOP
  6
CONTINUOUS
 62
     3
100
AcDbLine
 10
4.915502676597963
 20
2.238389565392973
 30
0.0
 11
4.9486483610603
 21
2.205242046941566
 31
0.0
  0
LINE
  5
165
330
A
100
AcDbEntity
  8
TOP
  6
CONTINUOUS
 62
     3
100
AcDbLine
 10
0.6990380103768404
 20
-3.434714500723887
 30
0.0
 11
0.661357787938897
 21
-3.434714500723887
 31
0.0
  0
LINE
  5
166
330
A
100
AcDbEntity
  8
TOP
  6
CONTINUOUS
 62
     3
100
AcDbLine
 10
32.18491926560949
 20
-9.998466014867233
 30
0.0
 11
32.20249621685649
 21
-9.998466014867233
 31
0.0
  0
LINE
  5
167
330
A
100
AcDbEntity
  8
TOP
  6
CONTINUOUS
 62
     3
100
AcDbLine
 10
28.83249361699257
 20
-16.56146559349187
 30
0.0
 11
28.83249361699257
 21
-12.2784665547943
 31
0.0
  0
LINE
  5
168
330
A
100
AcDbEntity
  8
TOP
  6
CONTINUOUS
 62
     3
100
AcDbLine
 10
28.64524333294428
 20
-9.094606509580378
 30
0.0
 11
28.64524333294428
 21
-9.141182496002416
 31
0.0
  0
LINE
  5
169
330
A
100
AcDbEntity
  8
TOP
  6
CONTINUOUS
 62
     3
100
AcDbLine
 10
8.067357778551095
 20
-26.42504028174603
 30
0.0
 11
8.067357778551095
 21
-24.55003954814984
 31
0.0
  0
LINE
  5
16A
330
A
100
AcDbEntity
  8
TOP
  6
CONTINUOUS
 62
     3
100
AcDbLine
 10
9.197107883602328
 20
-22.73978963265951
 30
0.0
 11
9.197107883602328
 21
-19.74028950471953
 31
0.0
  0
LINE
  5
16B
330
A
100
AcDbEntity
  8
TOP
  6
CONTINUOUS
 62
     3
100
AcDbLine
 10
8.88235867940677
 20
-9.141960107368102
 30
0.0
 11
8.88235867940677
 21
-8.91846653131823
 31
0.0
  0
LINE
  5
16C
330
A
100
AcDbEntity
  8
TOP
  6
CONTINUOUS
 62
     3
100
AcDbLine
 10
3.029388886232031
 20
-2.914026663856618
 30
0.0
 11
3.672071842047466
 21
-3.434707164767607
 31
0.0
  0
LINE
  5
16D
330
A
100
AcDbEntity
  8
TOP
  6
CONTINUOUS
 62
     3
100
AcDbLine
 10
28.86764018353029
 20
7.241533756256103
 30
0.0
 11
28.95249518982163
 21
7.241533756256103
 31
0.0
  0
LINE
  5
16E
330
A
100
AcDbEntity
  8
TOP
  6
CONTINUOUS
 62
     3
100
AcDbLine
 10
25.17649509357275
 20
-4.094756163086991
 30
0.0
 11
25.24278646249742
 21
-4.075341554791838
 31
0.0
  0
LINE
  5
16F
330
A
100
AcDbEntity
  8
TOP
  6
CONTINUOUS
 62
     3
100
AcDbLine
 10
25.21417623300523
 20
-9.734716378730585
 30
0.0
 11
25.17649509357275
 21
-9.734716378730585
 31
0.0
  0
LINE
  5
170
330
A
100
AcDbEntity
  8
TOP
  6
CONTINUOUS
 62
     3
100
AcDbLine
 10
9.132357065496464
 20
-23.07784150197865
 30
0.0
 11
9.132357065496464
 21
-22.98804022716548
 31
0.0
  0
LINE
  5
171
330
A
100
AcDbEntity
  8
TOP
  6
CONTINUOUS
 62
     3
100
AcDbLine
 10
0.6323578357693233
 20
-14.27849399127138
 30
0.0
 11
0.6323578357693233
 21
-12.2784665547943
 31
0.0
  0
LINE
  5
172
330
A
100
AcDbEntity
  8
TOP
  6
CONTINUOUS
 62
     3
100
AcDbLine
 10
0.661357787938897
 20
2.677784002742865
 30
0.0
 11
0.6990380103768404
 21
2.677784002742865
 31
0.0
  0
LINE
  5
173
330
A
100
AcDbEntity
  8
TOP
  6
CONTINUOUS
 62
     3
100
AcDbLine
 10
3.029388886232031
 20
-9.214028541863315
 30
0.0
 11
3.672071842047466
 21
-9.734709042774305
 31
0.0
  0
LINE
  5
174
330
A
100
AcDbEntity
  8
TOP
  6
CONTINUOUS
 62
     3
100
AcDbLine
 10
30.14249366981184
 20
2.476536714112246
 30
0.0
 11
30.14249366981184
 21
-8.373463667360734
 31
0.0
  0
LINE
  5
175
330
A
100
AcDbEntity
  8
TOP
  6
CONTINUOUS
 62
     3
100
AcDbLine
 10
25.17649509357275
 20
-10.39475804109368
 30
0.0
 11
25.24278646249742
 21
-10.37533976482039
 31
0.0
  0
LINE
  5
176
330
A
100
AcDbEntity
  8
TOP
  6
CONTINUOUS
 62
     3
100
AcDbLine
 10
28.64474448791724
 20
-2.794608299551819
 30
0.0
 11
28.64474448791724
 21
-2.841184285973859
 31
0.0
  0
LINE
  5
177
330
A
100
AcDbEntity
  8
TOP
  6
CONTINUOUS
 62
     3
100
AcDbLine
 10
28.64474448791724
 20
-2.841184285973859
 30
0.0
 11
28.64474448791724
 21
-3.434714500723887
 31
0.0
  0
LINE
  5
178
330
A
100
AcDbEntity
  8
TOP
  6
CONTINUOUS
 62
     3
100
AcDbLine
 10
8.067357778551095
 20
2.865214017720009
 30
0.0
 11
8.067357778551095
 21
7.241533756256103
 31
0.0
  0
LINE
  5
179
330
A
100
AcDbEntity
  8
TOP
  6
CONTINUOUS
 62
     3
100
AcDbLine
 10
4.849211307673289
 20
-3.995320943689049
 30
0.0
 11
4.915502676597963
 21
-4.061612312613723
 31
0.0
  0
LINE
  5
17A
330
A
100
AcDbEntity
  8
TOP
  6
CONTINUOUS
 62
     3
100
AcDbLine
 10
2.675295114517494
 20
3.531659969915597
 30
0.0
 11
1.904388812872131
 21
2.907098660100956
 31
0.0
  0
LINE
  5
17B
330
A
100
AcDbEntity
  8
TOP
  6
CONTINUOUS
 62
     3
100
AcDbLine
 10
9.103358030321425
 20
2.86528370930467
 30
0.0
 11
9.065676890888946
 21
2.86528370930467
 31
0.0
  0
LINE
  5
17C
330
A
100
AcDbEntity
  8
TOP
  6
CONTINUOUS
 62
     3
100
AcDbLine
 10
32.20249621685649
 20
2.601534073168022
 30
0.0
 11
32.20249621685649
 21
2.638147830961753
 31
0.0
  0
LINE
  5
17D
330
A
100
AcDbEntity
  8
TOP
  6
CONTINUOUS
 62
     3
100
AcDbLine
 10
25.08274524029185
 20
-3.549874342408116
 30
0.0
 11
25.08274524029185
 21
-3.610839807073474
 31
0.0
  0
LINE
  5
17E
330
A
100
AcDbEntity
  8
TOP
  6
CONTINUOUS
 62
     3
100
AcDbLine
 10
28.73849434119815
 20
2.86528370930467
 30
0.0
 11
28.70081320176566
 21
2.86528370930467
 31
0.0
  0
LINE
  5
17F
330
A
100
AcDbEntity
  8
TOP
  6
CONTINUOUS
 62
     3
100
AcDbLine
 10
0.5439696495346026
 20
-26.48503923417149
 30
0.0
 11
0.6323578357693233
 21
-26.48503923417149
 31
0.0
  0
LINE
  5
180
330
A
100
AcDbEntity
  8
TOP
  6
CONTINUOUS
 62
     3
100
AcDbLine
 10
0.6990380103768404
 20
-9.92221608529239
 30
0.0
 11
0.8019825678602508
 21
-9.92221608529239
 31
0.0
  0
LINE
  5
181
330
A
100
AcDbEntity
  8
TOP
  6
CONTINUOUS
 62
     3
100
AcDbLine
 10
1.697358039709227
 20
-24.55003954814984
 30
0.0
 11
1.697358039709227
 21
-26.42504028174603
 31
0.0
  0
LINE
  5
182
330
A
100
AcDbEntity
  8
TOP
  6
CONTINUOUS
 62
     3
100
AcDbLine
 10
32.20249621685649
 20
-8.498464694394652
 30
0.0
 11
32.18491926560949
 21
-8.498464694394652
 31
0.0
  0
LINE
  5
183
330
A
100
AcDbEntity
  8
TOP
  6
CONTINUOUS
 62
     3
100
AcDbLine
 10
28.83249361699257
 20
-12.02846450072646
 30
0.0
 11
28.83249361699257
 21
-12.06196047710117
 31
0.0
  0
LINE
  5
184
330
A
100
AcDbEntity
  8
TOP
  6
CONTINUOUS
 62
     3
100
AcDbLine
 10
25.08274524029185
 20
-9.746087110964662
 30
0.0
 11
25.08274524029185
 21
-9.80705624360816
 31
0.0
  0
LINE
  5
185
330
A
100
AcDbEntity
  8
TOP
  6
CONTINUOUS
 62
     3
100
AcDbLine
 10
8.067357778551095
 20
-24.38842843130033
 30
0.0
 11
8.067357778551095
 21
-24.42504035510499
 31
0.0
  0
LINE
  5
186
330
A
100
AcDbEntity
  8
TOP
  6
CONTINUOUS
 62
     3
100
AcDbLine
 10
0.8823580558480866
 20
3.448041072257444
 30
0.0
 11
0.8823580558480866
 21
3.671534648307316
 31
0.0
  0
LINE
  5
187
330
A
100
AcDbEntity
  8
TOP
  6
CONTINUOUS
 62
     3
100
AcDbLine
 10
9.257358092530379
 20
-9.873464987833315
 30
0.0
 11
9.257358092530379
 21
-8.623465721428569
 31
0.0
  0
LINE
  5
188
330
A
100
AcDbEntity
  8
TOP
  6
CONTINUOUS
 62
     3
100
AcDbLine
 10
6.092144214191277
 20
-3.434707164767607
 30
0.0
 11
6.734827170006711
 21
-2.914026663856618
 31
0.0
  0
LINE
  5
189
330
A
100
AcDbEntity
  8
TOP
  6
CONTINUOUS
 62
     3
100
AcDbLine
 10
28.83249361699257
 20
-14.29846613224382
 30
0.0
 11
28.86764018353029
 21
-14.29846613224382
 31
0.0
  0
LINE
  5
18A
330
A
100
AcDbEntity
  8
TOP
  6
CONTINUOUS
 62
     3
100
AcDbLine
 10
25.08249581777833
 20
-14.02846626135657
 30
0.0
 11
25.14599585533844
 21
-14.02846626135657
 31
0.0
  0
LINE
  5
18B
330
A
100
AcDbEntity
  8
TOP
  6
CONTINUOUS
 62
     3
100
AcDbLine
 10
28.70081320176566
 20
-9.92221608529239
 30
0.0
 11
28.73849434119815
 21
-9.92221608529239
 31
0.0
  0
LINE
  5
18C
330
A
100
AcDbEntity
  8
TOP
  6
CONTINUOUS
 62
     3
100
AcDbLine
 10
28.64524333294428
 20
3.458817592032838
 30
0.0
 11
28.64524333294428
 21
2.86528737728281
 31
0.0
  0
LINE
  5
18D
330
A
100
AcDbEntity
  8
TOP
  6
CONTINUOUS
 62
     3
100
AcDbLine
 10
3.134857929670314
 20
-23.11504030228571
 30
0.0
 11
2.759857599552169
 21
-23.11504030228571
 31
0.0
  0
LINE
  5
18E
330
A
100
AcDbEntity
  8
TOP
  6
CONTINUOUS
 62
     3
100
AcDbLine
 10
0.9426073477816046
 20
2.86528370930467
 30
0.0
 11
0.8019825678602508
 21
2.86528370930467
 31
0.0
  0
LINE
  5
18F
330
A
100
AcDbEntity
  8
TOP
  6
CONTINUOUS
 62
     3
100
AcDbLine
 10
32.14249543044195
 20
-9.998466014867233
 30
0.0
 11
30.26749469684576
 21
-9.998466014867233
 31
0.0
  0
LINE
  5
190
330
A
100
AcDbEntity
  8
TOP
  6
CONTINUOUS
 62
     3
100
AcDbLine
 10
28.64474448791724
 20
-2.778465527757569
 30
0.0
 11
28.64474448791724
 21
-2.794608299551819
 31
0.0
  0
LINE
  5
191
330
A
100
AcDbEntity
  8
TOP
  6
CONTINUOUS
 62
     3
100
AcDbLine
 10
25.08274524029185
 20
-3.028463913847263
 30
0.0
 11
25.08274524029185
 21
-3.446088900936105
 31
0.0
  0
LINE
  5
192
330
A
100
AcDbEntity
  8
TOP
  6
CONTINUOUS
 62
     3
100
AcDbLine
 10
0.6323578357693233
 20
-19.4022376354004
 30
0.0
 11
0.6323578357693233
 21
-19.3650406690824
 31
0.0
  0
LINE
  5
193
330
A
100
AcDbEntity
  8
TOP
  6
CONTINUOUS
 62
     3
100
AcDbLine
 10
8.067357778551095
 20
-12.02835079340412
 30
0.0
 11
8.067357778551095
 21
-9.922142725729589
 31
0.0
  0
LINE
  5
194
330
A
100
AcDbEntity
  8
TOP
  6
CONTINUOUS
 62
     3
100
AcDbLine
 10
6.616795301438843
 20
3.531659969915597
 30
0.0
 11
5.845888999793479
 21
2.907098660100956
 31
0.0
  0
LINE
  5
195
330
A
100
AcDbEntity
  8
TOP
  6
CONTINUOUS
 62
     3
100
AcDbLine
 10
32.26249333529288
 20
2.638147830961753
 30
0.0
 11
32.26249333529288
 21
2.601534073168022
 31
0.0
  0
LINE
  5
196
330
A
100
AcDbEntity
  8
TOP
  6
CONTINUOUS
 62
     3
100
AcDbLine
 10
25.10319788640063
 20
-9.369796569535763
 30
0.0
 11
25.17649509357275
 21
-9.394757160778635
 31
0.0
  0
LINE
  5
197
330
A
100
AcDbEntity
  8
TOP
  6
CONTINUOUS
 62
     3
100
AcDbLine
 10
25.21417623300523
 20
-3.622214207285692
 30
0.0
 11
25.31711803950503
 21
-3.622214207285692
 31
0.0
  0
LINE
  5
198
330
A
100
AcDbEntity
  8
TOP
  6
CONTINUOUS
 62
     3
100
AcDbLine
 10
28.64474448791724
 20
3.505393578454877
 30
0.0
 11
28.64474448791724
 21
3.458817592032838
 31
0.0
  0
LINE
  5
199
330
A
100
AcDbEntity
  8
TOP
  6
CONTINUOUS
 62
     3
100
AcDbLine
 10
0.6323578357693233
 20
-26.54504002058602
 30
0.0
 11
0.5439696495346026
 21
-26.54504002058602
 31
0.0
  0
LINE
  5
19A
330
A
100
AcDbEntity
  8
TOP
  6
CONTINUOUS
 62
     3
100
AcDbLine
 10
4.849211307673289
 20
-9.295318273402553
 30
0.0
 11
4.915502676597963
 21
-9.361609642327227
 31
0.0
  0
LINE
  5
19B
330
A
100
AcDbEntity
  8
TOP
  6
CONTINUOUS
 62
     3
100
AcDbLine
 10
1.697358039709227
 20
-24.55003954814984
 30
0.0
 11
1.697358039709227
 21
-24.46165227890965
 31
0.0
  0
LINE
  5
19C
330
A
100
AcDbEntity
  8
TOP
  6
CONTINUOUS
 62
     3
100
AcDbLine
 10
0.8019825678602508
 20
-9.734716378730585
 30
0.0
 11
0.6990380103768404
 21
-9.734716378730585
 31
0.0
  0
LINE
  5
19D
330
A
100
AcDbEntity
  8
TOP
  6
CONTINUOUS
 62
     3
100
AcDbLine
 10
1.757357909129223
 20
-26.42504028174603
 30
0.0
 11
1.757357909129223
 21
-24.55003954814984
 31
0.0
  0
LINE
  5
19E
330
A
100
AcDbEntity
  8
TOP
  6
CONTINUOUS
 62
     3
100
AcDbLine
 10
8.127358564965625
 20
-8.498464694394652
 30
0.0
 11
8.084931061819954
 21
-8.498464694394652
 31
0.0
  0
LINE
  5
19F
330
A
100
AcDbEntity
  8
TOP
  6
CONTINUOUS
 62
     3
100
AcDbLine
 10
4.816065623210951
 20
-2.962172544922588
 30
0.0
 11
4.398442470111179
 21
-3.37979753201143
 31
0.0
  0
LINE
  5
1A0
330
A
100
AcDbEntity
  8
TOP
  6
CONTINUOUS
 62
     3
100
AcDbLine
 10
32.26249333529288
 20
-8.535078452188383
 30
0.0
 11
32.26249333529288
 21
-8.623465721428569
 31
0.0
  0
LINE
  5
1A1
330
A
100
AcDbEntity
  8
TOP
  6
CONTINUOUS
 62
     3
100
AcDbLine
 10
25.08249581777833
 20
-14.27846464744626
 30
0.0
 11
25.08249581777833
 21
-14.15346362041234
 31
0.0
  0
LINE
  5
1A2
330
A
100
AcDbEntity
  8
TOP
  6
CONTINUOUS
 62
     3
100
AcDbLine
 10
28.64474448791724
 20
-9.094606509580378
 30
0.0
 11
28.64474448791724
 21
-9.141182496002416
 31
0.0
  0
LINE
  5
1A3
330
A
100
AcDbEntity
  8
TOP
  6
CONTINUOUS
 62
     3
100
AcDbLine
 10
9.132357065496464
 20
2.601534073168022
 30
0.0
 11
8.127358564965625
 21
2.601534073168022
 31
0.0
  0
LINE
  5
1A4
330
A
100
AcDbEntity
  8
TOP
  6
CONTINUOUS
 62
     3
100
AcDbLine
 10
1.679783839445831
 20
-8.498464694394652
 30
0.0
 11
1.637358170289231
 21
-8.498464694394652
 31
0.0
  0
LINE
  5
1A5
330
A
100
AcDbEntity
  8
TOP
  6
CONTINUOUS
 62
     3
100
AcDbLine
 10
8.96273325040007
 20
-3.622214207285692
 30
0.0
 11
9.065676890888946
 21
-3.622214207285692
 31
0.0
  0
LINE
  5
1A6
330
A
100
AcDbEntity
  8
TOP
  6
CONTINUOUS
 62
     3
100
AcDbLine
 10
28.64474448791724
 20
3.458817592032838
 30
0.0
 11
28.64474448791724
 21
2.86528737728281
 31
0.0
  0
LINE
  5
1A7
330
A
100
AcDbEntity
  8
TOP
  6
CONTINUOUS
 62
     3
100
AcDbLine
 10
5.49885608599849
 20
-3.622214207285692
 30
0.0
 11
8.822108470478717
 21
-3.622214207285692
 31
0.0
  0
LINE
  5
1A8
330
A
100
AcDbEntity
  8
TOP
  6
CONTINUOUS
 62
     3
100
AcDbLine
 10
1.697358039709227
 20
-24.38842843130033
 30
0.0
 11
1.697358039709227
 21
-24.30003932807108
 31
0.0
  0
LINE
  5
1A9
330
A
100
AcDbEntity
  8
TOP
  6
CONTINUOUS
 62
     3
100
AcDbLine
 10
4.531025207960528
 20
-9.812378479889337
 30
0.0
 11
4.9486483610603
 21
-9.394757160778635
 31
0.0
  0
LINE
  5
1AA
330
A
100
AcDbEntity
  8
TOP
  6
CONTINUOUS
 62
     3
100
AcDbLine
 10
9.132357065496464
 20
-9.998466014867233
 30
0.0
 11
8.127358564965625
 21
-9.998466014867233
 31
0.0
  0
LINE
  5
1AB
330
A
100
AcDbEntity
  8
TOP
  6
CONTINUOUS
 62
     3
100
AcDbLine
 10
2.675295114517494
 20
-9.068340118119657
 30
0.0
 11
1.904388812872131
 21
-9.692901427934298
 31
0.0
  0
LINE
  5
1AC
330
A
100
AcDbEntity
  8
TOP
  6
CONTINUOUS
 62
     3
100
AcDbLine
 10
6.970889073153379
 20
3.385971546171938
 30
0.0
 11
7.613572028968814
 21
2.86529104526095
 31
0.0
  0
LINE
  5
1AD
330
A
100
AcDbEntity
  8
TOP
  6
CONTINUOUS
 62
     3
100
AcDbLine
 10
0.9426073477816046
 20
-9.92221608529239
 30
0.0
 11
4.26585973226183
 21
-9.92221608529239
 31
0.0
  0
LINE
  5
1AE
330
A
100
AcDbEntity
  8
TOP
  6
CONTINUOUS
 62
     3
100
AcDbLine
 10
25.31711803950503
 20
2.677784002742865
 30
0.0
 11
25.45774465341546
 21
2.677784002742865
 31
0.0
  0
LINE
  5
1AF
330
A
100
AcDbEntity
  8
TOP
  6
CONTINUOUS
 62
     3
100
AcDbLine
 10
4.849211307673289
 20
-10.2953191537176
 30
0.0
 11
4.915502676597963
 21
-10.36161052264228
 31
0.0
  0
LINE
  5
1B0
330
A
100
AcDbEntity
  8
TOP
  6
CONTINUOUS
 62
     3
100
AcDbLine
 10
4.816065623210951
 20
-9.262174422929286
 30
0.0
 11
4.398442470111179
 21
-9.679795742039988
 31
0.0
  0
LINE
  5
1B1
330
A
100
AcDbEntity
  8
TOP
  6
CONTINUOUS
 62
     3
100
AcDbLine
 10
8.822108470478717
 20
-3.434714500723887
 30
0.0
 11
5.49885608599849
 21
-3.434714500723887
 31
0.0
  0
LINE
  5
1B2
330
A
100
AcDbEntity
  8
TOP
  6
CONTINUOUS
 62
     3
100
AcDbLine
 10
8.007356992136562
 20
-24.38842843130033
 30
0.0
 11
8.007356992136562
 21
-24.30003932807108
 31
0.0
  0
LINE
  5
1B3
330
A
100
AcDbEntity
  8
TOP
  6
CONTINUOUS
 62
     3
100
AcDbLine
 10
25.08509641427961
 20
3.286286904260475
 30
0.0
 11
25.10319788640063
 21
3.230203518499491
 31
0.0
  0
LINE
  5
1B4
330
A
100
AcDbEntity
  8
TOP
  6
CONTINUOUS
 62
     3
100
AcDbLine
 10
28.76899357943245
 20
-12.2784665547943
 30
0.0
 11
28.76899357943245
 21
-12.15346552776038
 31
0.0
  0
LINE
  5
1B5
330
A
100
AcDbEntity
  8
TOP
  6
CONTINUOUS
 62
     3
100
AcDbLine
 10
8.007356992136562
 20
-23.2350400411257
 30
0.0
 11
8.007356992136562
 21
-24.30003932807108
 31
0.0
  0
LINE
  5
1B6
330
A
100
AcDbEntity
  8
TOP
  6
CONTINUOUS
 62
     3
100
AcDbLine
 10
1.637358170289231
 20
2.601534073168022
 30
0.0
 11
0.6323578357693233
 21
2.601534073168022
 31
0.0
  0
LINE
  5
1B7
330
A
100
AcDbEntity
  8
TOP
  6
CONTINUOUS
 62
     3
100
AcDbLine
 10
8.084931061819954
 20
-9.998466014867233
 30
0.0
 11
8.127358564965625
 21
-9.998466014867233
 31
0.0
  0
LINE
  5
1B8
330
A
100
AcDbEntity
  8
TOP
  6
CONTINUOUS
 62
     3
100
AcDbLine
 10
4.26585973226183
 20
-3.434714500723887
 30
0.0
 11
0.9426073477816046
 21
-3.434714500723887
 31
0.0
  0
LINE
  5
1B9
330
A
100
AcDbEntity
  8
TOP
  6
CONTINUOUS
 62
     3
100
AcDbLine
 10
32.20249621685649
 20
-9.873464987833315
 30
0.0
 11
32.20249621685649
 21
-8.623465721428569
 31
0.0
  0
LINE
  5
1BA
330
A
100
AcDbEntity
  8
TOP
  6
CONTINUOUS
 62
     3
100
AcDbLine
 10
25.14599585533844
 20
-14.02846626135657
 30
0.0
 11
25.14599585533844
 21
-14.06195856975314
 31
0.0
  0
LINE
  5
1BB
330
A
100
AcDbEntity
  8
TOP
  6
CONTINUOUS
 62
     3
100
AcDbLine
 10
28.59786772728772
 20
-9.734716378730585
 30
0.0
 11
28.45724478135544
 21
-9.734716378730585
 31
0.0
  0
LINE
  5
1BC
330
A
100
AcDbEntity
  8
TOP
  6
CONTINUOUS
 62
     3
100
AcDbLine
 10
8.127358564965625
 20
4.101535393640602
 30
0.0
 11
8.084931061819954
 21
4.101535393640602
 31
0.0
  0
LINE
  5
1BD
330
A
100
AcDbEntity
  8
TOP
  6
CONTINUOUS
 62
     3
100
AcDbLine
 10
8.067357778551095
 20
-24.42504035510499
 30
0.0
 11
8.007356992136562
 21
-24.42504035510499
 31
0.0
  0
LINE
  5
1BE
330
A
100
AcDbEntity
  8
TOP
  6
CONTINUOUS
 62
     3
100
AcDbLine
 10
2.759857599552169
 20
-23.11504030228571
 30
0.0
 11
3.134857929670314
 21
-23.11504030228571
 31
0.0
  0
LINE
  5
1BF
330
A
100
AcDbEntity
  8
TOP
  6
CONTINUOUS
 62
     3
100
AcDbLine
 10
0.6323578357693233
 20
-8.498464694394652
 30
0.0
 11
1.637358170289231
 21
-8.498464694394652
 31
0.0
  0
LINE
  5
1C0
330
A
100
AcDbEntity
  8
TOP
  6
CONTINUOUS
 62
     3
100
AcDbLine
 10
4.9486483610603
 20
-4.094756163086991
 30
0.0
 11
5.366273348149142
 21
-3.677131175998148
 31
0.0
  0
LINE
  5
1C1
330
A
100
AcDbEntity
  8
TOP
  6
CONTINUOUS
 62
     3
100
AcDbLine
 10
25.13581721599987
 20
-2.968738225793233
 30
0.0
 11
25.08509641427961
 21
-3.013714973746221
 31
0.0
  0
LINE
  5
1C2
330
A
100
AcDbEntity
  8
TOP
  6
CONTINUOUS
 62
     3
100
AcDbLine
 10
28.64524333294428
 20
-2.778465527757569
 30
0.0
 11
28.64524333294428
 21
-2.794608299551819
 31
0.0
  0
LINE
  5
1C3
330
A
100
AcDbEntity
  8
TOP
  6
CONTINUOUS
 62
     3
100
AcDbLine
 10
28.45724478135544
 20
-9.734716378730585
 30
0.0
 11
25.45774465341546
 21
-9.734716378730585
 31
0.0
  0
LINE
  5
1C4
330
A
100
AcDbEntity
  8
TOP
  6
CONTINUOUS
 62
     3
100
AcDbLine
 10
4.915502676597963
 20
3.238390445708027
 30
0.0
 11
4.9486483610603
 21
3.20524292725662
 31
0.0
  0
LINE
  5
1C5
330
A
100
AcDbEntity
  8
TOP
  6
CONTINUOUS
 62
     3
100
AcDbLine
 10
9.132357065496464
 20
-19.49204074420263
 30
0.0
 11
9.132357065496464
 21
-19.4022376354004
 31
0.0
  0
LINE
  5
1C6
330
A
100
AcDbEntity
  8
TOP
  6
CONTINUOUS
 62
     3
100
AcDbLine
 10
1.697358039709227
 20
-9.922142725729589
 30
0.0
 11
1.697358039709227
 21
-12.02835079340412
 31
0.0
  0
LINE
  5
1C7
330
A
100
AcDbEntity
  8
TOP
  6
CONTINUOUS
 62
     3
100
AcDbLine
 10
0.6323578357693233
 20
-16.56146559349187
 30
0.0
 11
0.6323578357693233
 21
-14.27846464744626
 31
0.0
  0
LINE
  5
1C8
330
A
100
AcDbEntity
  8
TOP
  6
CONTINUOUS
 62
     3
100
AcDbLine
 10
32.18491926560949
 20
4.101535393640602
 30
0.0
 11
32.14249543044195
 21
4.101535393640602
 31
0.0
  0
LINE
  5
1C9
330
A
100
AcDbEntity
  8
TOP
  6
CONTINUOUS
 62
     3
100
AcDbLine
 10
25.21716930316749
 20
-9.268740103799931
 30
0.0
 11
25.13581721599987
 21
-9.268740103799931
 31
0.0
  0
LINE
  5
1CA
330
A
100
AcDbEntity
  8
TOP
  6
CONTINUOUS
 62
     3
100
AcDbLine
 10
25.31711803950503
 20
-3.434714500723887
 30
0.0
 11
25.21417623300523
 21
-3.434714500723887
 31
0.0
  0
LINE
  5
1CB
330
A
100
AcDbEntity
  8
TOP
  6
CONTINUOUS
 62
     3
100
AcDbLine
 10
28.64524333294428
 20
3.505393578454877
 30
0.0
 11
28.64524333294428
 21
3.458817592032838
 31
0.0
  0
LINE
  5
1CC
330
A
100
AcDbEntity
  8
TOP
  6
CONTINUOUS
 62
     3
100
AcDbLine
 10
32.20249621685649
 20
2.638147830961753
 30
0.0
 11
32.20249621685649
 21
2.726535100201939
 31
0.0
  0
LINE
  5
1CD
330
A
100
AcDbEntity
  8
TOP
  6
CONTINUOUS
 62
     3
100
AcDbLine
 10
0.5073577257299416
 20
-8.623465721428569
 30
0.0
 11
0.5073577257299416
 21
-9.873464987833315
 31
0.0
  0
LINE
  5
1CE
330
A
100
AcDbEntity
  8
TOP
  6
CONTINUOUS
 62
     3
100
AcDbLine
 10
32.26249333529288
 20
2.601534073168022
 30
0.0
 11
32.20249621685649
 21
2.601534073168022
 31
0.0
  0
LINE
  5
1CF
330
A
100
AcDbEntity
  8
TOP
  6
CONTINUOUS
 62
     3
100
AcDbLine
 10
25.2678937728659
 20
3.286286904260475
 30
0.0
 11
25.21716930316749
 21
3.331259984235324
 31
0.0
  0
LINE
  5
1D0
330
A
100
AcDbEntity
  8
TOP
  6
CONTINUOUS
 62
     3
100
AcDbLine
 10
28.70549354187234
 20
-16.6884656686121
 30
0.0
 11
25.20949589289855
 21
-16.6884656686121
 31
0.0
  0
LINE
  5
1D1
330
A
100
AcDbEntity
  8
TOP
  6
CONTINUOUS
 62
     3
100
AcDbLine
 10
25.21417623300523
 20
2.86528370930467
 30
0.0
 11
25.17649509357275
 21
2.86528370930467
 31
0.0
  0
ARC
  5
1D2
330
A
100
AcDbEntity
  8
TOP
  6
CONTINUOUS
 62
     3
100
AcDbCircle
 10
6.852857204585511
 20
3.24028312242828
 30
0.0
 40
0.1874999931225972
100
AcDbArc
 50
90.0
 51
129.0132493842917
  0
ARC
  5
1D3
330
A
100
AcDbEntity
  8
TOP
  6
CONTINUOUS
 62
     3
100
AcDbCircle
 10
0.661357787938897
 20
-3.528464354004789
 30
0.0
 40
0.0937499965612986
100
AcDbArc
 50
90.0
 51
270.0
  0
ARC
  5
1D4
330
A
100
AcDbEntity
  8
TOP
  6
CONTINUOUS
 62
     3
100
AcDbCircle
 10
28.73899318622519
 20
2.771533856023768
 30
0.0
 40
0.0937499965612986
100
AcDbArc
 50
0.0
 51
40.80937466139218
  0
ARC
  5
1D5
330
A
100
AcDbEntity
  8
TOP
  6
CONTINUOUS
 62
     3
100
AcDbCircle
 10
28.70549354187234
 20
-16.56146559349187
 30
0.0
 40
0.0635000017400162
100
AcDbArc
 50
270.0
 51
0.0
  0
ARC
  5
1D6
330
A
100
AcDbEntity
  8
TOP
  6
CONTINUOUS
 62
     3
100
AcDbCircle
 10
1.786357861298797
 20
-9.547216672168779
 30
0.0
 40
0.1874999931225972
100
AcDbArc
 50
270.0
 51
309.0132493842917
  0
ARC
  5
1D7
330
A
100
AcDbEntity
  8
TOP
  6
CONTINUOUS
 62
     3
100
AcDbCircle
 10
25.20949589289855
 20
-16.56146559349187
 30
0.0
 40
0.1270000034800323
100
AcDbArc
 50
180.0
 51
270.0
  0
ARC
  5
1D8
330
A
100
AcDbEntity
  8
TOP
  6
CONTINUOUS
 62
     3
100
AcDbCircle
 10
0.9426073477816046
 20
-22.73978963265951
 30
0.0
 40
0.3749999862451945
100
AcDbArc
 50
180.0
 51
214.1746866090623
  0
ARC
  5
1D9
330
A
100
AcDbEntity
  8
TOP
  6
CONTINUOUS
 62
     3
100
AcDbCircle
 10
1.007358165887468
 20
-8.91846653131823
 30
0.0
 40
0.1249999954150648
100
AcDbArc
 50
0.0
 51
180.0
  0
ARC
  5
1DA
330
A
100
AcDbEntity
  8
TOP
  6
CONTINUOUS
 62
     3
100
AcDbCircle
 10
8.88235867940677
 20
-12.2784665547943
 30
0.0
 40
0.2499999908301296
100
AcDbArc
 50
0.0
 51
90.0
  0
ARC
  5
1DB
330
A
100
AcDbEntity
  8
TOP
  6
CONTINUOUS
 62
     3
100
AcDbCircle
 10
7.682357623028706
 20
-12.52846494088399
 30
0.0
 40
0.0935000009261925
100
AcDbArc
 50
270.0
 51
270.0
  0
ARC
  5
1DC
330
A
100
AcDbEntity
  8
TOP
  6
CONTINUOUS
 62
     3
100
AcDbCircle
 10
2.911357934658697
 20
-9.359713297628836
 30
0.0
 40
0.3749999862451945
100
AcDbArc
 50
90.0
 51
129.0132493842917
  0
ARC
  5
1DD
330
A
100
AcDbEntity
  8
TOP
  6
CONTINUOUS
 62
     3
100
AcDbCircle
 10
8.757357652372853
 20
3.671534648307316
 30
0.0
 40
0.1249999954150648
100
AcDbArc
 50
0.0
 51
180.0
  0
ARC
  5
1DE
330
A
100
AcDbEntity
  8
TOP
  6
CONTINUOUS
 62
     3
100
AcDbCircle
 10
6.852857204585511
 20
-9.359713297628836
 30
0.0
 40
0.3749999862451945
100
AcDbArc
 50
50.98675061570827
 51
129.0132493842917
  0
ARC
  5
1DF
330
A
100
AcDbEntity
  8
TOP
  6
CONTINUOUS
 62
     3
100
AcDbCircle
 10
2.911357934658697
 20
-3.059715087600277
 30
0.0
 40
0.3749999862451945
100
AcDbArc
 50
90.0
 51
129.0132493842917
  0
ARC
  5
1E0
330
A
100
AcDbEntity
  8
TOP
  6
CONTINUOUS
 62
     3
100
AcDbCircle
 10
25.17649509357275
 20
-3.528464354004789
 30
0.0
 40
0.0937499965612986
100
AcDbArc
 50
90.0
 51
270.0
  0
ARC
  5
1E1
330
A
100
AcDbEntity
  8
TOP
  6
CONTINUOUS
 62
     3
100
AcDbCircle
 10
0.8823580558480866
 20
-12.2784665547943
 30
0.0
 40
0.2499999908301296
100
AcDbArc
 50
90.0
 51
180.0
  0
ARC
  5
1E2
330
A
100
AcDbEntity
  8
TOP
  6
CONTINUOUS
 62
     3
100
AcDbCircle
 10
30.26749469684576
 20
-8.373463667360734
 30
0.0
 40
0.1249999954150648
100
AcDbArc
 50
180.0
 51
270.0
  0
ARC
  5
1E3
330
A
100
AcDbEntity
  8
TOP
  6
CONTINUOUS
 62
     3
100
AcDbCircle
 10
25.17649509357275
 20
-9.828466232011486
 30
0.0
 40
0.0937499965612986
100
AcDbArc
 50
90.0
 51
270.0
  0
ARC
  5
1E4
330
A
100
AcDbEntity
  8
TOP
  6
CONTINUOUS
 62
     3
100
AcDbCircle
 10
8.127358564965625
 20
-26.42504028174603
 30
0.0
 40
0.1199999967447054
100
AcDbArc
 50
180.0
 51
270.0
  0
ARC
  5
1E5
330
A
100
AcDbEntity
  8
TOP
  6
CONTINUOUS
 62
     3
100
AcDbCircle
 10
2.911357934658697
 20
3.24028312242828
 30
0.0
 40
0.1874999931225972
100
AcDbArc
 50
90.0
 51
129.0132493842917
  0
ARC
  5
1E6
330
A
100
AcDbEntity
  8
TOP
  6
CONTINUOUS
 62
     3
100
AcDbCircle
 10
28.73849434119815
 20
2.771533856023768
 30
0.0
 40
0.0937499965612986
100
AcDbArc
 50
270.0
 51
90.0
  0
ARC
  5
1E7
330
A
100
AcDbEntity
  8
TOP
  6
CONTINUOUS
 62
     3
100
AcDbCircle
 10
0.661357787938897
 20
-9.828466232011486
 30
0.0
 40
0.0937499965612986
100
AcDbArc
 50
90.0
 51
270.0
  0
ARC
  5
1E8
330
A
100
AcDbEntity
  8
TOP
  6
CONTINUOUS
 62
     3
100
AcDbCircle
 10
4.26585973226183
 20
-3.247214794162081
 30
0.0
 40
0.3749999862451945
100
AcDbArc
 50
270.0
 51
315.0001114539928
  0
ARC
  5
1E9
330
A
100
AcDbEntity
  8
TOP
  6
CONTINUOUS
 62
     3
100
AcDbCircle
 10
28.73849434119815
 20
2.771533856023768
 30
0.0
 40
0.0937499965612986
100
AcDbArc
 50
270.0
 51
90.0
  0
ARC
  5
1EA
330
A
100
AcDbEntity
  8
TOP
  6
CONTINUOUS
 62
     3
100
AcDbCircle
 10
1.007358165887468
 20
3.23153499456432
 30
0.0
 40
0.2499999908301296
100
AcDbArc
 50
119.9999992068994
 51
60.00000079310049
  0
ARC
  5
1EB
330
A
100
AcDbEntity
  8
TOP
  6
CONTINUOUS
 62
     3
100
AcDbCircle
 10
9.132357065496464
 20
-9.873464987833315
 30
0.0
 40
0.1249999954150648
100
AcDbArc
 50
270.0
 51
0.0
  0
ARC
  5
1EC
330
A
100
AcDbEntity
  8
TOP
  6
CONTINUOUS
 62
     3
100
AcDbCircle
 10
2.911357934658697
 20
-3.059715087600277
 30
0.0
 40
0.3749999862451945
100
AcDbArc
 50
50.98675061570827
 51
90.0
  0
ARC
  5
1ED
330
A
100
AcDbEntity
  8
TOP
  6
CONTINUOUS
 62
     3
100
AcDbCircle
 10
4.26585973226183
 20
3.052783415866475
 30
0.0
 40
0.1874999931225972
100
AcDbArc
 50
270.0
 51
315.0001114539928
  0
ARC
  5
1EE
330
A
100
AcDbEntity
  8
TOP
  6
CONTINUOUS
 62
     3
100
AcDbCircle
 10
30.26749469684576
 20
-10.123463373923
 30
0.0
 40
0.1249999954150648
100
AcDbArc
 50
90.0
 51
180.0
  0
ARC
  5
1EF
330
A
100
AcDbEntity
  8
TOP
  6
CONTINUOUS
 62
     3
100
AcDbCircle
 10
28.73899318622519
 20
-2.778465527757569
 30
0.0
 40
0.0937499965612986
100
AcDbArc
 50
0.0
 51
180.0
  0
ARC
  5
1F0
330
A
100
AcDbEntity
  8
TOP
  6
CONTINUOUS
 62
     3
100
AcDbCircle
 10
2.911357934658697
 20
3.24028312242828
 30
0.0
 40
0.1874999931225972
100
AcDbArc
 50
50.98675061570827
 51
90.0
  0
ARC
  5
1F1
330
A
100
AcDbEntity
  8
TOP
  6
CONTINUOUS
 62
     3
100
AcDbCircle
 10
0.6323578357693234
 20
2.726535100201939
 30
0.0
 40
0.1249999954150648
100
AcDbArc
 50
180.0
 51
270.0
  0
ARC
  5
1F2
330
A
100
AcDbEntity
  8
TOP
  6
CONTINUOUS
 62
     3
100
AcDbCircle
 10
1.786357861298797
 20
-3.247214794162081
 30
0.0
 40
0.1874999931225972
100
AcDbArc
 50
270.0
 51
309.0132493842917
  0
ARC
  5
1F3
330
A
100
AcDbEntity
  8
TOP
  6
CONTINUOUS
 62
     3
100
AcDbCircle
 10
4.036358008018598
 20
-9.547216672168779
 30
0.0
 40
0.1874999931225972
100
AcDbArc
 50
230.9867506157082
 51
270.0
  0
ARC
  5
1F4
330
A
100
AcDbEntity
  8
TOP
  6
CONTINUOUS
 62
     3
100
AcDbCircle
 10
1.637358170289231
 20
-26.42504028174603
 30
0.0
 40
0.1199999967447054
100
AcDbArc
 50
270.0
 51
0.0
  0
ARC
  5
1F5
330
A
100
AcDbEntity
  8
TOP
  6
CONTINUOUS
 62
     3
100
AcDbCircle
 10
5.498856085998491
 20
-3.809713913847497
 30
0.0
 40
0.3749999862451945
100
AcDbArc
 50
90.0
 51
135.0
  0
ARC
  5
1F6
330
A
100
AcDbEntity
  8
TOP
  6
CONTINUOUS
 62
     3
100
AcDbCircle
 10
30.01749264277793
 20
7.116536397200326
 30
0.0
 40
0.1249999954150648
100
AcDbArc
 50
0.0
 51
90.0
  0
ARC
  5
1F7
330
A
100
AcDbEntity
  8
TOP
  6
CONTINUOUS
 62
     3
100
AcDbCircle
 10
2.132358239247368
 20
-21.24003956868953
 30
0.0
 40
0.1559999986337249
100
AcDbArc
 50
180.0
 51
180.0
  0
ARC
  5
1F8
330
A
100
AcDbEntity
  8
TOP
  6
CONTINUOUS
 62
     3
100
AcDbCircle
 10
5.72785713122561
 20
3.052783415866475
 30
0.0
 40
0.1874999931225972
100
AcDbArc
 50
270.0
 51
309.0132493842917
  0
ARC
  5
1F9
330
A
100
AcDbEntity
  8
TOP
  6
CONTINUOUS
 62
     3
100
AcDbCircle
 10
5.498856085998491
 20
2.49028429618106
 30
0.0
 40
0.1874999931225972
100
AcDbArc
 50
90.0
 51
135.0
  0
ARC
  5
1FA
330
A
100
AcDbEntity
  8
TOP
  6
CONTINUOUS
 62
     3
100
AcDbCircle
 10
0.661357787938897
 20
2.771533856023768
 30
0.0
 40
0.0937499965612986
100
AcDbArc
 50
90.0
 51
270.0
  0
ARC
  5
1FB
330
A
100
AcDbEntity
  8
TOP
  6
CONTINUOUS
 62
     3
100
AcDbCircle
 10
6.852857204585511
 20
-3.059715087600277
 30
0.0
 40
0.3749999862451945
100
AcDbArc
 50
50.98675061570827
 51
129.0132493842917
  0
ARC
  5
1FC
330
A
100
AcDbEntity
  8
TOP
  6
CONTINUOUS
 62
     3
100
AcDbCircle
 10
7.977857277945411
 20
-9.547216672168779
 30
0.0
 40
0.1874999931225972
100
AcDbArc
 50
230.9867506157082
 51
270.0
  0
ARC
  5
1FD
330
A
100
AcDbEntity
  8
TOP
  6
CONTINUOUS
 62
     3
100
AcDbCircle
 10
29.75249589407367
 20
-12.79846481177124
 30
0.0
 40
0.0935000009261925
100
AcDbArc
 50
90.0
 51
90.0
  0
ARC
  5
1FE
330
A
100
AcDbEntity
  8
TOP
  6
CONTINUOUS
 62
     3
100
AcDbCircle
 10
6.852857204585511
 20
3.24028312242828
 30
0.0
 40
0.1874999931225972
100
AcDbArc
 50
50.98675061570827
 51
90.0
  0
ARC
  5
1FF
330
A
100
AcDbEntity
  8
TOP
  6
CONTINUOUS
 62
     3
100
AcDbCircle
 10
30.26749469684576
 20
4.22653642067452
 30
0.0
 40
0.1249999954150648
100
AcDbArc
 50
180.0
 51
270.0
  0
ARC
  5
200
330
A
100
AcDbEntity
  8
TOP
  6
CONTINUOUS
 62
     3
100
AcDbCircle
 10
28.73899318622519
 20
-9.828466232011486
 30
0.0
 40
0.0937499965612986
100
AcDbArc
 50
0.0
 51
40.80937466139218
  0
ARC
  5
201
330
A
100
AcDbEntity
  8
TOP
  6
CONTINUOUS
 62
     3
100
AcDbCircle
 10
6.852857204585511
 20
-9.359713297628836
 30
0.0
 40
0.1874999931225972
100
AcDbArc
 50
90.0
 51
129.0132493842917
  0
ARC
  5
202
330
A
100
AcDbEntity
  8
TOP
  6
CONTINUOUS
 62
     3
100
AcDbCircle
 10
25.20949589289855
 20
-16.56146559349187
 30
0.0
 40
0.0635000017400162
100
AcDbArc
 50
180.0
 51
270.0
  0
ARC
  5
203
330
A
100
AcDbEntity
  8
TOP
  6
CONTINUOUS
 62
     3
100
AcDbCircle
 10
28.73899318622519
 20
-9.078463737786126
 30
0.0
 40
0.0937499965612986
100
AcDbArc
 50
0.0
 51
180.0
  0
ARC
  5
204
330
A
100
AcDbEntity
  8
TOP
  6
CONTINUOUS
 62
     3
100
AcDbCircle
 10
0.9426073477816046
 20
-19.74028950471953
 30
0.0
 40
0.3749999862451945
100
AcDbArc
 50
145.8253133909377
 51
180.0
  0
ARC
  5
205
330
A
100
AcDbEntity
  8
TOP
  6
CONTINUOUS
 62
     3
100
AcDbCircle
 10
8.757357652372853
 20
-9.358466185061224
 30
0.0
 40
0.2499999908301296
100
AcDbArc
 50
119.9999992068994
 51
60.00000079310049
  0
ARC
  5
206
330
A
100
AcDbEntity
  8
TOP
  6
CONTINUOUS
 62
     3
100
AcDbCircle
 10
2.911357934658697
 20
-9.359713297628836
 30
0.0
 40
0.1874999931225972
100
AcDbArc
 50
90.0
 51
129.0132493842917
  0
ARC
  5
207
330
A
100
AcDbEntity
  8
TOP
  6
CONTINUOUS
 62
     3
100
AcDbCircle
 10
30.26749469684576
 20
2.476536714112246
 30
0.0
 40
0.1249999954150648
100
AcDbArc
 50
90.0
 51
180.0
  0
ARC
  5
208
330
A
100
AcDbEntity
  8
TOP
  6
CONTINUOUS
 62
     3
100
AcDbCircle
 10
1.786357861298797
 20
3.052783415866475
 30
0.0
 40
0.1874999931225972
100
AcDbArc
 50
270.0
 51
309.0132493842917
  0
ARC
  5
209
330
A
100
AcDbEntity
  8
TOP
  6
CONTINUOUS
 62
     3
100
AcDbCircle
 10
1.007358165887468
 20
3.671534648307316
 30
0.0
 40
0.1249999954150648
100
AcDbArc
 50
0.0
 51
180.0
  0
ARC
  5
20A
330
A
100
AcDbEntity
  8
TOP
  6
CONTINUOUS
 62
     3
100
AcDbCircle
 10
9.132357065496464
 20
-8.623465721428569
 30
0.0
 40
0.1249999954150648
100
AcDbArc
 50
0.0
 51
90.0
  0
ARC
  5
20B
330
A
100
AcDbEntity
  8
TOP
  6
CONTINUOUS
 62
     3
100
AcDbCircle
 10
4.036358008018598
 20
-3.247214794162081
 30
0.0
 40
0.1874999931225972
100
AcDbArc
 50
230.9867506157082
 51
270.0
  0
ARC
  5
20C
330
A
100
AcDbEntity
  8
TOP
  6
CONTINUOUS
 62
     3
100
AcDbCircle
 10
7.947358039711102
 20
-23.2350400411257
 30
0.0
 40
0.1199999967447054
100
AcDbArc
 50
0.0
 51
90.0
  0
ARC
  5
20D
330
A
100
AcDbEntity
  8
TOP
  6
CONTINUOUS
 62
     3
100
AcDbCircle
 10
28.73849434119815
 20
-3.528464354004789
 30
0.0
 40
0.0937499965612986
100
AcDbArc
 50
270.0
 51
90.0
  0
ARC
  5
20E
330
A
100
AcDbEntity
  8
TOP
  6
CONTINUOUS
 62
     3
100
AcDbCircle
 10
2.082358195231615
 20
-12.52846494088399
 30
0.0
 40
0.1249999954150648
100
AcDbArc
 50
270.0
 51
270.0
  0
ARC
  5
20F
330
A
100
AcDbEntity
  8
TOP
  6
CONTINUOUS
 62
     3
100
AcDbCircle
 10
28.73849434119815
 20
-9.828466232011486
 30
0.0
 40
0.0937499965612986
100
AcDbArc
 50
270.0
 51
90.0
  0
ARC
  5
210
330
A
100
AcDbEntity
  8
TOP
  6
CONTINUOUS
 62
     3
100
AcDbCircle
 10
9.103358030321425
 20
-3.528464354004789
 30
0.0
 40
0.0937499965612986
100
AcDbArc
 50
270.0
 51
90.0
  0
ARC
  5
211
330
A
100
AcDbEntity
  8
TOP
  6
CONTINUOUS
 62
     3
100
AcDbCircle
 10
2.911357934658697
 20
3.24028312242828
 30
0.0
 40
0.3749999862451945
100
AcDbArc
 50
90.0
 51
129.0132493842917
  0
ARC
  5
212
330
A
100
AcDbEntity
  8
TOP
  6
CONTINUOUS
 62
     3
100
AcDbCircle
 10
28.73849434119815
 20
-9.828466232011486
 30
0.0
 40
0.0937499965612986
100
AcDbArc
 50
270.0
 51
90.0
  0
ARC
  5
213
330
A
100
AcDbEntity
  8
TOP
  6
CONTINUOUS
 62
     3
100
AcDbCircle
 10
5.498856085998491
 20
-10.10971579185419
 30
0.0
 40
0.3749999862451945
100
AcDbArc
 50
90.0
 51
135.0
  0
ARC
  5
214
330
A
100
AcDbEntity
  8
TOP
  6
CONTINUOUS
 62
     3
100
AcDbCircle
 10
5.498856085998491
 20
-10.10971579185419
 30
0.0
 40
0.1874999931225972
100
AcDbArc
 50
90.0
 51
135.0
  0
ARC
  5
215
330
A
100
AcDbEntity
  8
TOP
  6
CONTINUOUS
 62
     3
100
AcDbCircle
 10
7.977857277945411
 20
-3.247214794162081
 30
0.0
 40
0.1874999931225972
100
AcDbArc
 50
230.9867506157082
 51
270.0
  0
ARC
  5
216
330
A
100
AcDbEntity
  8
TOP
  6
CONTINUOUS
 62
     3
100
AcDbCircle
 10
0.6323578357693234
 20
-8.623465721428569
 30
0.0
 40
0.1249999954150648
100
AcDbArc
 50
90.0
 51
180.0
  0
ARC
  5
217
330
A
100
AcDbEntity
  8
TOP
  6
CONTINUOUS
 62
     3
100
AcDbCircle
 10
4.26585973226183
 20
3.052783415866475
 30
0.0
 40
0.3749999862451945
100
AcDbArc
 50
270.0
 51
315.0001114539928
  0
ARC
  5
218
330
A
100
AcDbEntity
  8
TOP
  6
CONTINUOUS
 62
     3
100
AcDbCircle
 10
8.88235867940677
 20
-14.27846464744626
 30
0.0
 40
0.2499999908301296
100
AcDbArc
 50
0.0
 51
90.0
  0
ARC
  5
219
330
A
100
AcDbEntity
  8
TOP
  6
CONTINUOUS
 62
     3
100
AcDbCircle
 10
2.911357934658697
 20
3.24028312242828
 30
0.0
 40
0.3749999862451945
100
AcDbArc
 50
50.98675061570827
 51
90.0
  0
ARC
  5
21A
330
A
100
AcDbEntity
  8
TOP
  6
CONTINUOUS
 62
     3
100
AcDbCircle
 10
28.73899318622519
 20
3.521536350249128
 30
0.0
 40
0.0937499965612986
100
AcDbArc
 50
0.0
 51
180.0
  0
ARC
  5
21B
330
A
100
AcDbEntity
  8
TOP
  6
CONTINUOUS
 62
     3
100
AcDbCircle
 10
1.637358170289231
 20
-26.42504028174603
 30
0.0
 40
0.0599999983723527
100
AcDbArc
 50
270.0
 51
0.0
  0
ARC
  5
21C
330
A
100
AcDbEntity
  8
TOP
  6
CONTINUOUS
 62
     3
100
AcDbCircle
 10
9.132357065496464
 20
2.726535100201939
 30
0.0
 40
0.1249999954150648
100
AcDbArc
 50
270.0
 51
0.0
  0
ARC
  5
21D
330
A
100
AcDbEntity
  8
TOP
  6
CONTINUOUS
 62
     3
100
AcDbCircle
 10
4.26585973226183
 20
-9.547216672168779
 30
0.0
 40
0.1874999931225972
100
AcDbArc
 50
270.0
 51
315.0001114539928
  0
ARC
  5
21E
330
A
100
AcDbEntity
  8
TOP
  6
CONTINUOUS
 62
     3
100
AcDbCircle
 10
7.947358039711102
 20
-23.2350400411257
 30
0.0
 40
0.0599999983723527
100
AcDbArc
 50
0.0
 51
90.0
  0
ARC
  5
21F
330
A
100
AcDbEntity
  8
TOP
  6
CONTINUOUS
 62
     3
100
AcDbCircle
 10
6.852857204585511
 20
-3.059715087600277
 30
0.0
 40
0.1874999931225972
100
AcDbArc
 50
90.0
 51
129.0132493842917
  0
ARC
  5
220
330
A
100
AcDbEntity
  8
TOP
  6
CONTINUOUS
 62
     3
100
AcDbCircle
 10
2.911357934658697
 20
-9.359713297628836
 30
0.0
 40
0.1874999931225972
100
AcDbArc
 50
50.98675061570827
 51
90.0
  0
ARC
  5
221
330
A
100
AcDbEntity
  8
TOP
  6
CONTINUOUS
 62
     3
100
AcDbCircle
 10
8.822108470478717
 20
-19.74028950471953
 30
0.0
 40
0.3749999862451945
100
AcDbArc
 50
0.0
 51
34.17468660906229
  0
ARC
  5
222
330
A
100
AcDbEntity
  8
TOP
  6
CONTINUOUS
 62
     3
100
AcDbCircle
 10
7.632357579012953
 20
-21.24003956868953
 30
0.0
 40
0.1559999986337249
100
AcDbArc
 50
180.0
 51
180.0
  0
ARC
  5
223
330
A
100
AcDbEntity
  8
TOP
  6
CONTINUOUS
 62
     3
100
AcDbCircle
 10
9.103358030321425
 20
-9.828466232011486
 30
0.0
 40
0.0937499965612986
100
AcDbArc
 50
270.0
 51
90.0
  0
ARC
  5
224
330
A
100
AcDbEntity
  8
TOP
  6
CONTINUOUS
 62
     3
100
AcDbCircle
 10
5.498856085998491
 20
2.49028429618106
 30
0.0
 40
0.3749999862451945
100
AcDbArc
 50
90.0
 51
135.0
  0
ARC
  5
225
330
A
100
AcDbEntity
  8
TOP
  6
CONTINUOUS
 62
     3
100
AcDbCircle
 10
28.70549354187234
 20
-16.56146559349187
 30
0.0
 40
0.1270000034800323
100
AcDbArc
 50
270.0
 51
0.0
  0
ARC
  5
226
330
A
100
AcDbEntity
  8
TOP
  6
CONTINUOUS
 62
     3
100
AcDbCircle
 10
5.72785713122561
 20
-9.547216672168779
 30
0.0
 40
0.1874999931225972
100
AcDbArc
 50
270.0
 51
309.0132493842917
  0
ARC
  5
227
330
A
100
AcDbEntity
  8
TOP
  6
CONTINUOUS
 62
     3
100
AcDbCircle
 10
8.757357652372853
 20
-8.91846653131823
 30
0.0
 40
0.1249999954150648
100
AcDbArc
 50
0.0
 51
180.0
  0
ARC
  5
228
330
A
100
AcDbEntity
  8
TOP
  6
CONTINUOUS
 62
     3
100
AcDbCircle
 10
6.852857204585511
 20
3.24028312242828
 30
0.0
 40
0.3749999862451945
100
AcDbArc
 50
50.98675061570827
 51
129.0132493842917
  0
ARC
  5
229
330
A
100
AcDbEntity
  8
TOP
  6
CONTINUOUS
 62
     3
100
AcDbCircle
 10
2.082358195231615
 20
-12.52846494088399
 30
0.0
 40
0.0935000009261925
100
AcDbArc
 50
270.0
 51
270.0
  0
ARC
  5
22A
330
A
100
AcDbEntity
  8
TOP
  6
CONTINUOUS
 62
     3
100
AcDbCircle
 10
1.817357778549219
 20
-23.2350400411257
 30
0.0
 40
0.1199999967447054
100
AcDbArc
 50
90.0
 51
180.0
  0
ARC
  5
22B
330
A
100
AcDbEntity
  8
TOP
  6
CONTINUOUS
 62
     3
100
AcDbCircle
 10
6.852857204585511
 20
-9.359713297628836
 30
0.0
 40
0.1874999931225972
100
AcDbArc
 50
50.98675061570827
 51
90.0
  0
ARC
  5
22C
330
A
100
AcDbEntity
  8
TOP
  6
CONTINUOUS
 62
     3
100
AcDbCircle
 10
2.911357934658697
 20
-3.059715087600277
 30
0.0
 40
0.1874999931225972
100
AcDbArc
 50
90.0
 51
129.0132493842917
  0
ARC
  5
22D
330
A
100
AcDbEntity
  8
TOP
  6
CONTINUOUS
 62
     3
100
AcDbCircle
 10
1.007358165887468
 20
-9.358466185061224
 30
0.0
 40
0.2499999908301296
100
AcDbArc
 50
119.9999992068994
 51
60.00000079310049
  0
ARC
  5
22E
330
A
100
AcDbEntity
  8
TOP
  6
CONTINUOUS
 62
     3
100
AcDbCircle
 10
8.127358564965625
 20
-26.42504028174603
 30
0.0
 40
0.0599999983723527
100
AcDbArc
 50
180.0
 51
270.0
  0
ARC
  5
22F
330
A
100
AcDbEntity
  8
TOP
  6
CONTINUOUS
 62
     3
100
AcDbCircle
 10
25.17649509357275
 20
2.771533856023768
 30
0.0
 40
0.0937499965612986
100
AcDbArc
 50
90.0
 51
270.0
  0
ARC
  5
230
330
A
100
AcDbEntity
  8
TOP
  6
CONTINUOUS
 62
     3
100
AcDbCircle
 10
8.757357652372853
 20
3.23153499456432
 30
0.0
 40
0.2499999908301296
100
AcDbArc
 50
119.9999992068994
 51
60.00000079310049
  0
ARC
  5
231
330
A
100
AcDbEntity
  8
TOP
  6
CONTINUOUS
 62
     3
100
AcDbCircle
 10
9.103358030321425
 20
2.771533856023768
 30
0.0
 40
0.0937499965612986
100
AcDbArc
 50
270.0
 51
90.0
  0
ARC
  5
232
330
A
100
AcDbEntity
  8
TOP
  6
CONTINUOUS
 62
     3
100
AcDbCircle
 10
4.26585973226183
 20
-3.247214794162081
 30
0.0
 40
0.1874999931225972
100
AcDbArc
 50
270.0
 51
315.0001114539928
  0
ARC
  5
233
330
A
100
AcDbEntity
  8
TOP
  6
CONTINUOUS
 62
     3
100
AcDbCircle
 10
2.911357934658697
 20
-3.059715087600277
 30
0.0
 40
0.1874999931225972
100
AcDbArc
 50
50.98675061570827
 51
90.0
  0
ARC
  5
234
330
A
100
AcDbEntity
  8
TOP
  6
CONTINUOUS
 62
     3
100
AcDbCircle
 10
0.6323578357693234
 20
-9.873464987833315
 30
0.0
 40
0.1249999954150648
100
AcDbArc
 50
180.0
 51
270.0
  0
ARC
  5
235
330
A
100
AcDbEntity
  8
TOP
  6
CONTINUOUS
 62
     3
100
AcDbCircle
 10
7.682357623028706
 20
-12.52846494088399
 30
0.0
 40
0.1249999954150648
100
AcDbArc
 50
270.0
 51
270.0
  0
ARC
  5
236
330
A
100
AcDbEntity
  8
TOP
  6
CONTINUOUS
 62
     3
100
AcDbCircle
 10
28.73849434119815
 20
-3.528464354004789
 30
0.0
 40
0.0937499965612986
100
AcDbArc
 50
270.0
 51
90.0
  0
ARC
  5
237
330
A
100
AcDbEntity
  8
TOP
  6
CONTINUOUS
 62
     3
100
AcDbCircle
 10
0.8823580558480866
 20
-14.27846464744626
 30
0.0
 40
0.2499999908301296
100
AcDbArc
 50
90.0
 51
180.0
  0
ARC
  5
238
330
A
100
AcDbEntity
  8
TOP
  6
CONTINUOUS
 62
     3
100
AcDbCircle
 10
4.036358008018598
 20
3.052783415866475
 30
0.0
 40
0.1874999931225972
100
AcDbArc
 50
230.9867506157082
 51
270.0
  0
ARC
  5
239
330
A
100
AcDbEntity
  8
TOP
  6
CONTINUOUS
 62
     3
100
AcDbCircle
 10
9.132357065496464
 20
3.976534366606686
 30
0.0
 40
0.1249999954150648
100
AcDbArc
 50
0.0
 51
90.0
  0
ARC
  5
23A
330
A
100
AcDbEntity
  8
TOP
  6
CONTINUOUS
 62
     3
100
AcDbCircle
 10
1.817357778549219
 20
-23.2350400411257
 30
0.0
 40
0.0599999983723527
100
AcDbArc
 50
90.0
 51
180.0
  0
ARC
  5
23B
330
A
100
AcDbEntity
  8
TOP
  6
CONTINUOUS
 62
     3
100
AcDbCircle
 10
0.6323578357693234
 20
3.976534366606686
 30
0.0
 40
0.1249999954150648
100
AcDbArc
 50
90.0
 51
180.0
  0
ARC
  5
23C
330
A
100
AcDbEntity
  8
TOP
  6
CONTINUOUS
 62
     3
100
AcDbCircle
 10
6.852857204585511
 20
-3.059715087600277
 30
0.0
 40
0.1874999931225972
100
AcDbArc
 50
50.98675061570827
 51
90.0
  0
ARC
  5
23D
330
A
100
AcDbEntity
  8
TOP
  6
CONTINUOUS
 62
     3
100
AcDbCircle
 10
2.911357934658697
 20
-9.359713297628836
 30
0.0
 40
0.3749999862451945
100
AcDbArc
 50
50.98675061570827
 51
90.0
  0
ARC
  5
23E
330
A
100
AcDbEntity
  8
TOP
  6
CONTINUOUS
 62
     3
100
AcDbCircle
 10
8.822108470478717
 20
-22.73978963265951
 30
0.0
 40
0.3749999862451945
100
AcDbArc
 50
325.8253133909377
 51
0.0
  0
ARC
  5
23F
330
A
100
AcDbEntity
  8
TOP
  6
CONTINUOUS
 62
     3
100
AcDbCircle
 10
29.75249589407367
 20
5.741536103761663
 30
0.0
 40
0.0935000009261925
100
AcDbArc
 50
90.0
 51
90.0
  0
ARC
  5
240
330
A
100
AcDbEntity
  8
TOP
  6
CONTINUOUS
 62
     3
100
AcDbCircle
 10
5.72785713122561
 20
-3.247214794162081
 30
0.0
 40
0.1874999931225972
100
AcDbArc
 50
270.0
 51
309.0132493842917
  0
ARC
  5
241
330
A
100
AcDbEntity
  8
TOP
  6
CONTINUOUS
 62
     3
100
AcDbCircle
 10
5.498856085998491
 20
-3.809713913847497
 30
0.0
 40
0.1874999931225972
100
AcDbArc
 50
90.0
 51
135.0
  0
ARC
  5
242
330
A
100
AcDbEntity
  8
TOP
  6
CONTINUOUS
 62
     3
100
AcDbCircle
 10
30.01749264277793
 20
-14.1734651052099
 30
0.0
 40
0.1249999954150648
100
AcDbArc
 50
270.0
 51
0.0
  0
ARC
  5
243
330
A
100
AcDbEntity
  8
TOP
  6
CONTINUOUS
 62
     3
100
AcDbCircle
 10
7.977857277945411
 20
3.052783415866475
 30
0.0
 40
0.1874999931225972
100
AcDbArc
 50
230.9867506157082
 51
270.0
  0
ARC
  5
244
330
A
100
AcDbEntity
  8
TOP
  6
CONTINUOUS
 62
     3
100
AcDbCircle
 10
4.26585973226183
 20
-9.547216672168779
 30
0.0
 40
0.3749999862451945
100
AcDbArc
 50
270.0
 51
315.0001114539928
  0
CIRCLE
  5
264
330
A
100
AcDbEntity
  8
0
  6
CONTINUOUS
100
AcDbCircle
 10
2.132358239247368
 20
-21.24003956868953
 30
0.0
 40
0.1559999986337249
  0
CIRCLE
  5
265
330
A
100
AcDbEntity
  8
0
  6
CONTINUOUS
100
AcDbCircle
 10
7.632357579012953
 20
-21.24003956868953
 30
0.0
 40
0.1559999986337249
  0
CIRCLE
  5
266
330
A
100
AcDbEntity
  8
0
  6
CONTINUOUS
100
AcDbCircle
 10
2.082358195231615
 20
-12.52846494088399
 30
0.0
 40
0.0935000009261925
  0
CIRCLE
  5
267
330
A
100
AcDbEntity
  8
0
  6
CONTINUOUS
100
AcDbCircle
 10
2.082358195231615
 20
-12.52846494088399
 30
0.0
 40
0.1249999954150648
  0
CIRCLE
  5
268
330
A
100
AcDbEntity
  8
0
  6
CONTINUOUS
100
AcDbCircle
 10
7.682357623028706
 20
-12.52846494088399
 30
0.0
 40
0.0935000009261925
  0
CIRCLE
  5
269
330
A
100
AcDbEntity
  8
0
  6
CONTINUOUS
100
AcDbCircle
 10
7.682357623028706
 20
-12.52846494088399
 30
0.0
 40
0.1249999954150648
  0
CIRCLE
  5
26A
330
A
100
AcDbEntity
  8
0
  6
CONTINUOUS
100
AcDbCircle
 10
29.75249589407367
 20
5.741536103761663
 30
0.0
 40
0.0935000009261925
  0
CIRCLE
  5
26B
330
A
100
AcDbEntity
  8
0
  6
CONTINUOUS
100
AcDbCircle
 10
29.75249589407367
 20
-12.79846481177124
 30
0.0
 40
0.0935000009261925
  0
VIEWPORT
  5
263
330
B
100
AcDbEntity
 67
     1
  8
0
  6
CONTINUOUS
100
AcDbViewport
 10
3.6468788249694
 20
2.25
 30
0.0
 40
8.2937576499388
 41
5.5
 68
     1
 69
     1
1001
ACAD
1000
MVIEW
1002
{
1070
    16
1010
0.0
1020
0.0
1030
0.0
1010
0.0
1020
0.0
1030
1.0
1040
0.0
1040
5.5
1040
3.6468788249694
1040
2.25
1040
50.0
1040
0.0
1040
0.0
1070
     0
1070
   100
1070
     1
1070
     1
1070
     0
1070
     0
1070
     0
1070
     0
1040
0.0
1040
0.0
1040
0.0
1040
1.0
1040
1.0
1040
0.0
1040
0.0
1070
     0
1002
{
1002
}
1002
}
  0
ENDSEC
  0
SECTION
  2
OBJECTS
  0
DICTIONARY
  5
19
330
0
100
AcDbDictionary
  3
ACAD_GROUP
350
1A
  3
ACAD_MLINESTYLE
350
1B
  3
ACAD_LAYOUT
350
1E
  3
ACAD_PLOTSETTINGS
350
21
  3
ACAD_PLOTSTYLENAME
350
1F
  3
ACDBHEADERROUNDTRIPXREC
350
286
  0
DICTIONARY
  5
2A7
330
A
100
AcDbDictionary
280
     1
  3
ACAD_LAYOUTSELFREF
360
2A8
  0
DICTIONARY
  5
2A9
330
B
100
AcDbDictionary
280
     1
  3
ACAD_LAYOUTSELFREF
360
2AA
  0
DICTIONARY
  5
1A
102
{ACAD_REACTORS
330
19
102
}
330
19
100
AcDbDictionary
  0
DICTIONARY
  5
1B
102
{ACAD_REACTORS
330
19
102
}
330
19
100
AcDbDictionary
  3
STANDARD
350
1C
  0
DICTIONARY
  5
1E
102
{ACAD_REACTORS
330
19
102
}
330
19
100
AcDbDictionary
  0
DICTIONARY
  5
21
102
{ACAD_REACTORS
330
19
102
}
330
19
100
AcDbDictionary
  0
ACDBDICTIONARYWDFLT
  5
1F
102
{ACAD_REACTORS
330
19
102
}
330
19
100
AcDbDictionary
281
     1
  3
Normal
350
1D
100
AcDbDictionaryWithDefault
340
1D
  0
DICTIONARY
  5
286
102
{ACAD_REACTORS
330
19
102
}
330
19
100
AcDbDictionary
  3
TSTACKALIGN
350
287
  3
TSTACKSIZE
350
288
  3
HYPERLINKBASE
350
289
  3
STYLESHEET
350
28A
  3
LAYOUTDICT
350
28B
  3
PLOTSETDICT
350
28C
  3
PLOTSTYLNAMDICT
350
28D
  3
LWETCUNION
350
28E
  3
INSUNITS
350
28F
  3
CEPSNTYPE
350
290
  3
FINGERPRINTGUID
350
291
  3
VERSIONGUID
350
292
  3
PSVPSCALE
350
293
  3
DIMSTYLEDATA
350
294
  3
PUCSORTHOREF
350
295
  3
PUCSORTHOVIEW
350
296
  3
PUCSBASE
350
297
  3
PUCSORGTOP
350
298
  3
PUCSORGBOTTOM
350
299
  3
PUCSORGLEFT
350
29A
  3
PUCSORGRIGHT
350
29B
  3
PUCSORGFRONT
350
29C
  3
PUCSORGBACK
350
29D
  3
UCSORTHOREF
350
29E
  3
UCSORTHOVIEW
350
29F
  3
UCSBASE
350
2A0
  3
UCSORGTOP
350
2A1
  3
UCSORGBOTTOM
350
2A2
  3
UCSORGLEFT
350
2A3
  3
UCSORGRIGHT
350
2A4
  3
UCSORGFRONT
350
2A5
  3
UCSORGBACK
350
2A6
  0
XRECORD
  5
2A8
102
{ACAD_REACTORS
330
2A7
102
}
330
2A7
100
AcDbXrecord
340
A
  0
XRECORD
  5
2AA
102
{ACAD_REACTORS
330
2A9
102
}
330
2A9
100
AcDbXrecord
340
B
  0
MLINESTYLE
  5
1C
102
{ACAD_REACTORS
330
1B
102
}
330
1B
100
AcDbMlineStyle
  2
STANDARD
 70
     0
  3

 62
     0
 51
90.00000000000019
 52
90.00000000000019
 71
     2
 49
0.5
 62
   256
  6
BYLAYER
 49
-0.5
 62
   256
  6
BYLAYER
  0
ACDBPLACEHOLDER
  5
1D
102
{ACAD_REACTORS
330
1F
102
}
330
1F
100
AcDbPlaceHolder
280
     0
  0
XRECORD
  5
287
102
{ACAD_REACTORS
330
286
102
}
330
286
100
AcDbXrecord
 90
        0
  0
XRECORD
  5
288
102
{ACAD_REACTORS
330
286
102
}
330
286
100
AcDbXrecord
 90
        0
  0
XRECORD
  5
289
102
{ACAD_REACTORS
330
286
102
}
330
286
100
AcDbXrecord
  1

  0
XRECORD
  5
28A
102
{ACAD_REACTORS
330
286
102
}
330
286
100
AcDbXrecord
  1

  0
XRECORD
  5
28B
102
{ACAD_REACTORS
330
286
102
}
330
286
100
AcDbXrecord
340
1E
  0
XRECORD
  5
28C
102
{ACAD_REACTORS
330
286
102
}
330
286
100
AcDbXrecord
340
21
  0
XRECORD
  5
28D
102
{ACAD_REACTORS
330
286
102
}
330
286
100
AcDbXrecord
340
1F
  0
XRECORD
  5
28E
102
{ACAD_REACTORS
330
286
102
}
330
286
100
AcDbXrecord
 90
    10752
  0
XRECORD
  5
28F
102
{ACAD_REACTORS
330
286
102
}
330
286
100
AcDbXrecord
 90
        0
  0
XRECORD
  5
290
102
{ACAD_REACTORS
330
286
102
}
330
286
100
AcDbXrecord
 90
        0
  0
XRECORD
  5
291
102
{ACAD_REACTORS
330
286
102
}
330
286
100
AcDbXrecord
  1

  0
XRECORD
  5
292
102
{ACAD_REACTORS
330
286
102
}
330
286
100
AcDbXrecord
  1
{3CE22EFC-597F-11D7-9DF2-00B0D0207C84}
  0
XRECORD
  5
293
102
{ACAD_REACTORS
330
286
102
}
330
286
100
AcDbXrecord
 40
0.0
  0
XRECORD
  5
294
102
{ACAD_REACTORS
330
286
102
}
330
286
100
AcDbXrecord
1000
DSTYLE
1002
{
1070
   278
 70
     0
1070
   371
 70
     0
1070
   372
 70
     0
1002
}
  0
XRECORD
  5
295
102
{ACAD_REACTORS
330
286
102
}
330
286
100
AcDbXrecord
340
0
  0
XRECORD
  5
296
102
{ACAD_REACTORS
330
286
102
}
330
286
100
AcDbXrecord
 70
     0
  0
XRECORD
  5
297
102
{ACAD_REACTORS
330
286
102
}
330
286
100
AcDbXrecord
340
0
  0
XRECORD
  5
298
102
{ACAD_REACTORS
330
286
102
}
330
286
100
AcDbXrecord
 10
0.0
 20
0.0
 30
0.0
  0
XRECORD
  5
299
102
{ACAD_REACTORS
330
286
102
}
330
286
100
AcDbXrecord
 10
0.0
 20
0.0
 30
0.0
  0
XRECORD
  5
29A
102
{ACAD_REACTORS
330
286
102
}
330
286
100
AcDbXrecord
 10
0.0
 20
0.0
 30
0.0
  0
XRECORD
  5
29B
102
{ACAD_REACTORS
330
286
102
}
330
286
100
AcDbXrecord
 10
0.0
 20
0.0
 30
0.0
  0
XRECORD
  5
29C
102
{ACAD_REACTORS
330
286
102
}
330
286
100
AcDbXrecord
 10
0.0
 20
0.0
 30
0.0
  0
XRECORD
  5
29D
102
{ACAD_REACTORS
330
286
102
}
330
286
100
AcDbXrecord
 10
0.0
 20
0.0
 30
0.0
  0
XRECORD
  5
29E
102
{ACAD_REACTORS
330
286
102
}
330
286
100
AcDbXrecord
340
0
  0
XRECORD
  5
29F
102
{ACAD_REACTORS
330
286
102
}
330
286
100
AcDbXrecord
 70
     0
  0
XRECORD
  5
2A0
102
{ACAD_REACTORS
330
286
102
}
330
286
100
AcDbXrecord
340
0
  0
XRECORD
  5
2A1
102
{ACAD_REACTORS
330
286
102
}
330
286
100
AcDbXrecord
 10
0.0
 20
0.0
 30
0.0
  0
XRECORD
  5
2A2
102
{ACAD_REACTORS
330
286
102
}
330
286
100
AcDbXrecord
 10
0.0
 20
0.0
 30
0.0
  0
XRECORD
  5
2A3
102
{ACAD_REACTORS
330
286
102
}
330
286
100
AcDbXrecord
 10
0.0
 20
0.0
 30
0.0
  0
XRECORD
  5
2A4
102
{ACAD_REACTORS
330
286
102
}
330
286
100
AcDbXrecord
 10
0.0
 20
0.0
 30
0.0
  0
XRECORD
  5
2A5
102
{ACAD_REACTORS
330
286
102
}
330
286
100
AcDbXrecord
 10
0.0
 20
0.0
 30
0.0
  0
XRECORD
  5
2A6
102
{ACAD_REACTORS
330
286
102
}
330
286
100
AcDbXrecord
 10
0.0
 20
0.0
 30
0.0
  0
ENDSEC
  0
EOF
