  0
SECTION
  2
HEADER
  9
$ACADVER
  1
AC1012
  9
$DWGCODEPAGE
  3
ANSI_1252
  9
$INSBASE
 10
0.0
 20
0.0
 30
0.0
  9
$EXTMIN
 10
-2.753356908859402
 20
4.609176662062733
 30
-0.0015258207003583
  9
$EXTMAX
 10
9.706970240113989
 20
13.20872500144029
 30
0.0000000349246037
  9
$LIMMIN
 10
0.0
 20
0.0
  9
$LIMMAX
 10
12.0
 20
9.0
  9
$ORTHOMODE
 70
     0
  9
$REGENMODE
 70
     1
  9
$FILLMODE
 70
     1
  9
$QTEXTMODE
 70
     0
  9
$MIRRTEXT
 70
     1
  9
$DRAGMODE
 70
     2
  9
$LTSCALE
 40
1.0
  9
$OSMODE
 70
    35
  9
$ATTMODE
 70
     1
  9
$TEXTSIZE
 40
0.2
  9
$TRACEWID
 40
0.05
  9
$TEXTSTYLE
  7
STANDARD
  9
$CLAYER
  8
0
  9
$CELTYPE
  6
BYLAYER
  9
$CECOLOR
 62
   256
  9
$CELTSCALE
 40
1.0
  9
$DELOBJ
 70
     1
  9
$DISPSILH
 70
     0
  9
$DIMSCALE
 40
1.0
  9
$DIMASZ
 40
0.18
  9
$DIMEXO
 40
0.0625
  9
$DIMDLI
 40
0.38
  9
$DIMRND
 40
0.0
  9
$DIMDLE
 40
0.0
  9
$DIMEXE
 40
0.18
  9
$DIMTP
 40
0.0
  9
$DIMTM
 40
0.0
  9
$DIMTXT
 40
0.18
  9
$DIMCEN
 40
0.09
  9
$DIMTSZ
 40
0.0
  9
$DIMTOL
 70
     0
  9
$DIMLIM
 70
     0
  9
$DIMTIH
 70
     1
  9
$DIMTOH
 70
     1
  9
$DIMSE1
 70
     0
  9
$DIMSE2
 70
     0
  9
$DIMTAD
 70
     0
  9
$DIMZIN
 70
     0
  9
$DIMBLK
  1

  9
$DIMASO
 70
     1
  9
$DIMSHO
 70
     1
  9
$DIMPOST
  1

  9
$DIMAPOST
  1

  9
$DIMALT
 70
     0
  9
$DIMALTD
 70
     2
  9
$DIMALTF
 40
25.4
  9
$DIMLFAC
 40
1.0
  9
$DIMTOFL
 70
     0
  9
$DIMTVP
 40
0.0
  9
$DIMTIX
 70
     0
  9
$DIMSOXD
 70
     0
  9
$DIMSAH
 70
     0
  9
$DIMBLK1
  1

  9
$DIMBLK2
  1

  9
$DIMSTYLE
  2
STANDARD
  9
$DIMCLRD
 70
     0
  9
$DIMCLRE
 70
     0
  9
$DIMCLRT
 70
     0
  9
$DIMTFAC
 40
1.0
  9
$DIMGAP
 40
0.09
  9
$DIMJUST
 70
     0
  9
$DIMSD1
 70
     0
  9
$DIMSD2
 70
     0
  9
$DIMTOLJ
 70
     1
  9
$DIMTZIN
 70
     0
  9
$DIMALTZ
 70
     0
  9
$DIMALTTZ
 70
     0
  9
$DIMFIT
 70
     5
  9
$DIMUPT
 70
     0
  9
$DIMUNIT
 70
     2
  9
$DIMDEC
 70
     4
  9
$DIMTDEC
 70
     4
  9
$DIMALTU
 70
     2
  9
$DIMALTTD
 70
     2
  9
$DIMTXSTY
  7
STANDARD
  9
$DIMAUNIT
 70
     0
  9
$LUNITS
 70
     2
  9
$LUPREC
 70
     4
  9
$SKETCHINC
 40
0.1
  9
$FILLETRAD
 40
0.0
  9
$AUNITS
 70
     0
  9
$AUPREC
 70
     0
  9
$MENU
  1
acad
  9
$ELEVATION
 40
0.0
  9
$PELEVATION
 40
0.0
  9
$THICKNESS
 40
0.0
  9
$LIMCHECK
 70
     0
  9
$BLIPMODE
 70
     0
  9
$CHAMFERA
 40
0.0
  9
$CHAMFERB
 40
0.0
  9
$CHAMFERC
 40
0.0
  9
$CHAMFERD
 40
0.0
  9
$SKPOLY
 70
     0
  9
$TDCREATE
 40
2453049.429560185
  9
$TDUPDATE
 40
2453049.454561551
  9
$TDINDWG
 40
0.0110780208
  9
$TDUSRTIMER
 40
0.0110780208
  9
$USRTIMER
 70
     1
  9
$ANGBASE
 50
0.0
  9
$ANGDIR
 70
     0
  9
$PDMODE
 70
     0
  9
$PDSIZE
 40
0.0
  9
$PLINEWID
 40
0.0
  9
$COORDS
 70
     2
  9
$SPLFRAME
 70
     0
  9
$SPLINETYPE
 70
     6
  9
$SPLINESEGS
 70
     8
  9
$ATTDIA
 70
     0
  9
$ATTREQ
 70
     1
  9
$HANDLING
 70
  4097
  9
$HANDSEED
  5
57CF
  9
$SURFTAB1
 70
     6
  9
$SURFTAB2
 70
     6
  9
$SURFTYPE
 70
     6
  9
$SURFU
 70
     6
  9
$SURFV
 70
     6
  9
$UCSNAME
  2

  9
$UCSORG
 10
0.0
 20
0.0
 30
0.0
  9
$UCSXDIR
 10
1.0
 20
0.0
 30
0.0
  9
$UCSYDIR
 10
0.0
 20
1.0
 30
0.0
  9
$PUCSNAME
  2

  9
$PUCSORG
 10
0.0
 20
0.0
 30
0.0
  9
$PUCSXDIR
 10
1.0
 20
0.0
 30
0.0
  9
$PUCSYDIR
 10
0.0
 20
1.0
 30
0.0
  9
$USERI1
 70
     0
  9
$USERI2
 70
     0
  9
$USERI3
 70
     0
  9
$USERI4
 70
     0
  9
$USERI5
 70
     0
  9
$USERR1
 40
0.0
  9
$USERR2
 40
0.0
  9
$USERR3
 40
0.0
  9
$USERR4
 40
0.0
  9
$USERR5
 40
0.0
  9
$WORLDVIEW
 70
     1
  9
$SHADEDGE
 70
     3
  9
$SHADEDIF
 70
    70
  9
$TILEMODE
 70
     1
  9
$MAXACTVP
 70
    16
  9
$PINSBASE
 10
0.0
 20
0.0
 30
0.0
  9
$PLIMCHECK
 70
     0
  9
$PEXTMIN
 10
1.000000000000000E+20
 20
1.000000000000000E+20
 30
1.000000000000000E+20
  9
$PEXTMAX
 10
-1.000000000000000E+20
 20
-1.000000000000000E+20
 30
-1.000000000000000E+20
  9
$PLIMMIN
 10
0.0
 20
0.0
  9
$PLIMMAX
 10
12.0
 20
9.0
  9
$UNITMODE
 70
     0
  9
$VISRETAIN
 70
     0
  9
$PLINEGEN
 70
     0
  9
$PSLTSCALE
 70
     1
  9
$TREEDEPTH
 70
  3020
  9
$PICKSTYLE
 70
     1
  9
$CMLSTYLE
  2
STANDARD
  9
$CMLJUST
 70
     0
  9
$CMLSCALE
 40
1.0
  9
$SAVEIMAGES
 70
     1
  0
ENDSEC
  0
SECTION
  2
CLASSES
  0
CLASS
  1
ACDBDICTIONARYWDFLT
  2
AcDbDictionaryWithDefault
  3
AutoCAD 2000
 90
    32768
280
     0
281
     0
  0
CLASS
  1
ACDBPLACEHOLDER
  2
AcDbPlaceHolder
  3
AutoCAD 2000
 90
    32768
280
     0
281
     0
  0
CLASS
  1
LAYOUT
  2
AcDbLayout
  3
AutoCAD 2000
 90
    32768
280
     0
281
     0
  0
CLASS
  1
LONG_TRANSACTION
  2
AcDbLongTransaction
  3
AutoCAD 2000
 90
    32768
280
     0
281
     0
  0
CLASS
  1
LWPOLYLINE
  2
AcDbPolyline
  3
AutoCAD 2000
 90
    32768
280
     0
281
     1
  0
CLASS
  1
HATCH
  2
AcDbHatch
  3
AutoCAD 2000
 90
    32768
280
     0
281
     1
  0
CLASS
  1
XRECORD
  2
AcDbXrecord
  3
AutoCAD 2000
 90
    32768
280
     0
281
     0
  0
ENDSEC
  0
SECTION
  2
TABLES
  0
TABLE
  2
VPORT
  5
8
330
0
100
AcDbSymbolTable
 70
     3
  0
VPORT
  5
57CA
330
8
100
AcDbSymbolTableRecord
100
AcDbViewportTableRecord
  2
*ACTIVE
 70
     0
 10
0.0
 20
0.0
 11
1.0
 21
1.0
 12
3.476806665627294
 22
8.908950831751514
 13
0.0
 23
0.0
 14
1.0
 24
1.0
 15
0.0
 25
0.0
 16
0.0
 26
0.0
 36
1.0
 17
0.0
 27
0.0
 37
0.0
 40
8.67201644336108
 41
1.713080168776371
 42
50.0
 43
0.0
 44
0.0
 50
0.0
 51
0.0
 71
     0
 72
   100
 73
     1
 74
     1
 75
     0
 76
     0
 77
     0
 78
     0
  0
ENDTAB
  0
TABLE
  2
LTYPE
  5
5
330
0
100
AcDbSymbolTable
 70
    25
  0
LTYPE
  5
13
330
5
100
AcDbSymbolTableRecord
100
AcDbLinetypeTableRecord
  2
BYBLOCK
 70
     0
  3

 72
    65
 73
     0
 40
0.0
  0
LTYPE
  5
14
330
5
100
AcDbSymbolTableRecord
100
AcDbLinetypeTableRecord
  2
BYLAYER
 70
     0
  3

 72
    65
 73
     0
 40
0.0
  0
LTYPE
  5
15
330
5
100
AcDbSymbolTableRecord
100
AcDbLinetypeTableRecord
  2
CONTINUOUS
 70
     0
  3
Solid line
 72
    65
 73
     0
 40
0.0
  0
LTYPE
  5
22
330
5
100
AcDbSymbolTableRecord
100
AcDbLinetypeTableRecord
  2
BORDER
 70
     0
  3
__ __ . __ __ . __ __ . __ __ . __ __ . __ __ .
 72
    65
 73
     6
 40
1.75
 49
0.5
 74
     0
 49
-0.25
 74
     0
 49
0.5
 74
     0
 49
-0.25
 74
     0
 49
0.5
 74
     0
 49
-0.25
 74
     0
  0
LTYPE
  5
23
330
5
100
AcDbSymbolTableRecord
100
AcDbLinetypeTableRecord
  2
BORDER2
 70
     0
  3
__.__.__.__.__.__.__.__.__.__.__.__.__.__.__.__
 72
    65
 73
     6
 40
0.875
 49
0.25
 74
     0
 49
-0.125
 74
     0
 49
0.25
 74
     0
 49
-0.125
 74
     0
 49
0.25
 74
     0
 49
-0.125
 74
     0
  0
LTYPE
  5
24
330
5
100
AcDbSymbolTableRecord
100
AcDbLinetypeTableRecord
  2
BORDERX2
 70
     0
  3
____  ____  .  ____  ____  .  
 72
    65
 73
     6
 40
3.5
 49
1.0
 74
     0
 49
-0.5
 74
     0
 49
1.0
 74
     0
 49
-0.5
 74
     0
 49
1.0
 74
     0
 49
-0.5
 74
     0
  0
LTYPE
  5
25
330
5
100
AcDbSymbolTableRecord
100
AcDbLinetypeTableRecord
  2
CENTER
 70
     0
  3
____ _ ____ _ ____ _ ____ _ ____ _ ____ _ ____
 72
    65
 73
     4
 40
2.0
 49
1.25
 74
     0
 49
-0.25
 74
     0
 49
0.25
 74
     0
 49
-0.25
 74
     0
  0
LTYPE
  5
26
330
5
100
AcDbSymbolTableRecord
100
AcDbLinetypeTableRecord
  2
CENTER2
 70
     0
  3
____ _ ____ _ ____ _ ____ _ ____ _ ____ _ ____
 72
    65
 73
     4
 40
1.125
 49
0.75
 74
     0
 49
-0.125
 74
     0
 49
0.125
 74
     0
 49
-0.125
 74
     0
  0
LTYPE
  5
27
330
5
100
AcDbSymbolTableRecord
100
AcDbLinetypeTableRecord
  2
CENTERX2
 70
     0
  3
________  __  ________  __  ________  __  
 72
    65
 73
     4
 40
4.0
 49
2.5
 74
     0
 49
-0.5
 74
     0
 49
0.5
 74
     0
 49
-0.5
 74
     0
  0
LTYPE
  5
28
330
5
100
AcDbSymbolTableRecord
100
AcDbLinetypeTableRecord
  2
DASHDOT
 70
     0
  3
__ . __ . __ . __ . __ . __ . __ . 
 72
    65
 73
     4
 40
1.0
 49
0.5
 74
     0
 49
-0.25
 74
     0
 49
0.0
 74
     0
 49
-0.25
 74
     0
  0
LTYPE
  5
29
330
5
100
AcDbSymbolTableRecord
100
AcDbLinetypeTableRecord
  2
DASHDOT2
 70
     0
  3
_._._._._._._._._._._._._._._._.
 72
    65
 73
     4
 40
0.5
 49
0.25
 74
     0
 49
-0.125
 74
     0
 49
0.0
 74
     0
 49
-0.125
 74
     0
  0
LTYPE
  5
2A
330
5
100
AcDbSymbolTableRecord
100
AcDbLinetypeTableRecord
  2
DASHDOTX2
 70
     0
  3
____  .  ____  .  ____  .  ____  .  
 72
    65
 73
     4
 40
2.0
 49
1.0
 74
     0
 49
-0.5
 74
     0
 49
0.0
 74
     0
 49
-0.5
 74
     0
  0
LTYPE
  5
2B
330
5
100
AcDbSymbolTableRecord
100
AcDbLinetypeTableRecord
  2
DASHED
 70
     0
  3
__ __ __ __ __ __ __ __ __ __ __ __ 
 72
    65
 73
     2
 40
0.75
 49
0.5
 74
     0
 49
-0.25
 74
     0
  0
LTYPE
  5
2C
330
5
100
AcDbSymbolTableRecord
100
AcDbLinetypeTableRecord
  2
DASHED2
 70
     0
  3
_ _ _ _ _ _ _ _ _ _ _ _ _ _ _ _ _ _ 
 72
    65
 73
     2
 40
0.375
 49
0.25
 74
     0
 49
-0.125
 74
     0
  0
LTYPE
  5
2D
330
5
100
AcDbSymbolTableRecord
100
AcDbLinetypeTableRecord
  2
DASHEDX2
 70
     0
  3
____  ____  ____  ____  ____  ____  
 72
    65
 73
     2
 40
1.5
 49
1.0
 74
     0
 49
-0.5
 74
     0
  0
LTYPE
  5
2E
330
5
100
AcDbSymbolTableRecord
100
AcDbLinetypeTableRecord
  2
DIVIDE
 70
     0
  3
____ . . ____ . . ____ . . ____ . . 
 72
    65
 73
     6
 40
1.25
 49
0.5
 74
     0
 49
-0.25
 74
     0
 49
0.0
 74
     0
 49
-0.25
 74
     0
 49
0.0
 74
     0
 49
-0.25
 74
     0
  0
LTYPE
  5
2F
330
5
100
AcDbSymbolTableRecord
100
AcDbLinetypeTableRecord
  2
DIVIDE2
 70
     0
  3
__..__..__..__..__..__..__..__..__..
 72
    65
 73
     6
 40
0.625
 49
0.25
 74
     0
 49
-0.125
 74
     0
 49
0.0
 74
     0
 49
-0.125
 74
     0
 49
0.0
 74
     0
 49
-0.125
 74
     0
  0
LTYPE
  5
30
330
5
100
AcDbSymbolTableRecord
100
AcDbLinetypeTableRecord
  2
DIVIDEX2
 70
     0
  3
________  .  .  ________  .  .  ________  .  . 
 72
    65
 73
     6
 40
2.5
 49
1.0
 74
     0
 49
-0.5
 74
     0
 49
0.0
 74
     0
 49
-0.5
 74
     0
 49
0.0
 74
     0
 49
-0.5
 74
     0
  0
LTYPE
  5
31
330
5
100
AcDbSymbolTableRecord
100
AcDbLinetypeTableRecord
  2
DOT
 70
     0
  3
. . . . . . . . . . . . . . . . . . 
 72
    65
 73
     2
 40
0.25
 49
0.0
 74
     0
 49
-0.25
 74
     0
  0
LTYPE
  5
32
330
5
100
AcDbSymbolTableRecord
100
AcDbLinetypeTableRecord
  2
DOT2
 70
     0
  3
....................................
 72
    65
 73
     2
 40
0.125
 49
0.0
 74
     0
 49
-0.125
 74
     0
  0
LTYPE
  5
33
330
5
100
AcDbSymbolTableRecord
100
AcDbLinetypeTableRecord
  2
DOTX2
 70
     0
  3
.  .  .  .  .  .  .  .  .  .  .  .  .  
 72
    65
 73
     2
 40
0.5
 49
0.0
 74
     0
 49
-0.5
 74
     0
  0
LTYPE
  5
34
330
5
100
AcDbSymbolTableRecord
100
AcDbLinetypeTableRecord
  2
HIDDEN
 70
     0
  3
__ __ __ __ __ __ __ __ __ __ __ __ 
 72
    65
 73
     2
 40
0.375
 49
0.25
 74
     0
 49
-0.125
 74
     0
  0
LTYPE
  5
35
330
5
100
AcDbSymbolTableRecord
100
AcDbLinetypeTableRecord
  2
HIDDEN2
 70
     0
  3
_ _ _ _ _ _ _ _ _ _ _ _ _ _ _ _ _ _ 
 72
    65
 73
     2
 40
0.1875
 49
0.125
 74
     0
 49
-0.0625
 74
     0
  0
LTYPE
  5
36
330
5
100
AcDbSymbolTableRecord
100
AcDbLinetypeTableRecord
  2
HIDDENX2
 70
     0
  3
____ ____ ____ ____ ____ ____ ____ 
 72
    65
 73
     2
 40
0.75
 49
0.5
 74
     0
 49
-0.25
 74
     0
  0
LTYPE
  5
37
330
5
100
AcDbSymbolTableRecord
100
AcDbLinetypeTableRecord
  2
PHANTOM
 70
     0
  3
______  __  __  ______  __  __  
 72
    65
 73
     6
 40
2.5
 49
1.25
 74
     0
 49
-0.25
 74
     0
 49
0.25
 74
     0
 49
-0.25
 74
     0
 49
0.25
 74
     0
 49
-0.25
 74
     0
  0
LTYPE
  5
38
330
5
100
AcDbSymbolTableRecord
100
AcDbLinetypeTableRecord
  2
PHANTOM2
 70
     0
  3
___ _ _ ___ _ _ ___ _ _ ___ _ _ 
 72
    65
 73
     6
 40
1.25
 49
0.625
 74
     0
 49
-0.125
 74
     0
 49
0.125
 74
     0
 49
-0.125
 74
     0
 49
0.125
 74
     0
 49
-0.125
 74
     0
  0
LTYPE
  5
39
330
5
100
AcDbSymbolTableRecord
100
AcDbLinetypeTableRecord
  2
PHANTOMX2
 70
     0
  3
___ _ _ ___ _ _ ___ _ _ ___ _ _ 
 72
    65
 73
     6
 40
5.0
 49
2.5
 74
     0
 49
-0.5
 74
     0
 49
0.5
 74
     0
 49
-0.5
 74
     0
 49
0.5
 74
     0
 49
-0.5
 74
     0
  0
ENDTAB
  0
TABLE
  2
LAYER
  5
2
330
0
100
AcDbSymbolTable
 70
   257
  0
LAYER
  5
10
330
2
100
AcDbSymbolTableRecord
100
AcDbLayerTableRecord
  2
0
 70
     0
 62
     7
  6
CONTINUOUS
  0
LAYER
  5
3A
330
2
100
AcDbSymbolTableRecord
100
AcDbLayerTableRecord
  2
1
 70
     0
 62
     1
  6
CONTINUOUS
  0
LAYER
  5
3B
330
2
100
AcDbSymbolTableRecord
100
AcDbLayerTableRecord
  2
2
 70
     0
 62
     2
  6
CONTINUOUS
  0
LAYER
  5
3C
330
2
100
AcDbSymbolTableRecord
100
AcDbLayerTableRecord
  2
3
 70
     0
 62
     3
  6
CONTINUOUS
  0
LAYER
  5
3D
330
2
100
AcDbSymbolTableRecord
100
AcDbLayerTableRecord
  2
4
 70
     0
 62
     4
  6
CONTINUOUS
  0
LAYER
  5
3E
330
2
100
AcDbSymbolTableRecord
100
AcDbLayerTableRecord
  2
5
 70
     0
 62
     5
  6
CONTINUOUS
  0
LAYER
  5
3F
330
2
100
AcDbSymbolTableRecord
100
AcDbLayerTableRecord
  2
6
 70
     0
 62
     6
  6
CONTINUOUS
  0
LAYER
  5
40
330
2
100
AcDbSymbolTableRecord
100
AcDbLayerTableRecord
  2
7
 70
     0
 62
     7
  6
CONTINUOUS
  0
LAYER
  5
41
330
2
100
AcDbSymbolTableRecord
100
AcDbLayerTableRecord
  2
8
 70
     0
 62
     8
  6
CONTINUOUS
  0
LAYER
  5
42
330
2
100
AcDbSymbolTableRecord
100
AcDbLayerTableRecord
  2
9
 70
     0
 62
     9
  6
CONTINUOUS
  0
LAYER
  5
43
330
2
100
AcDbSymbolTableRecord
100
AcDbLayerTableRecord
  2
10
 70
     0
 62
    10
  6
CONTINUOUS
  0
LAYER
  5
44
330
2
100
AcDbSymbolTableRecord
100
AcDbLayerTableRecord
  2
11
 70
     0
 62
    11
  6
CONTINUOUS
  0
LAYER
  5
45
330
2
100
AcDbSymbolTableRecord
100
AcDbLayerTableRecord
  2
12
 70
     0
 62
    12
  6
CONTINUOUS
  0
LAYER
  5
46
330
2
100
AcDbSymbolTableRecord
100
AcDbLayerTableRecord
  2
13
 70
     0
 62
    13
  6
CONTINUOUS
  0
LAYER
  5
47
330
2
100
AcDbSymbolTableRecord
100
AcDbLayerTableRecord
  2
14
 70
     0
 62
    14
  6
CONTINUOUS
  0
LAYER
  5
48
330
2
100
AcDbSymbolTableRecord
100
AcDbLayerTableRecord
  2
15
 70
     0
 62
    15
  6
CONTINUOUS
  0
LAYER
  5
49
330
2
100
AcDbSymbolTableRecord
100
AcDbLayerTableRecord
  2
16
 70
     0
 62
    16
  6
CONTINUOUS
  0
LAYER
  5
4A
330
2
100
AcDbSymbolTableRecord
100
AcDbLayerTableRecord
  2
17
 70
     0
 62
    17
  6
CONTINUOUS
  0
LAYER
  5
4B
330
2
100
AcDbSymbolTableRecord
100
AcDbLayerTableRecord
  2
18
 70
     0
 62
    18
  6
CONTINUOUS
  0
LAYER
  5
4C
330
2
100
AcDbSymbolTableRecord
100
AcDbLayerTableRecord
  2
19
 70
     0
 62
    19
  6
CONTINUOUS
  0
LAYER
  5
4D
330
2
100
AcDbSymbolTableRecord
100
AcDbLayerTableRecord
  2
20
 70
     0
 62
    20
  6
CONTINUOUS
  0
LAYER
  5
4E
330
2
100
AcDbSymbolTableRecord
100
AcDbLayerTableRecord
  2
21
 70
     0
 62
    21
  6
CONTINUOUS
  0
LAYER
  5
4F
330
2
100
AcDbSymbolTableRecord
100
AcDbLayerTableRecord
  2
22
 70
     0
 62
    22
  6
CONTINUOUS
  0
LAYER
  5
50
330
2
100
AcDbSymbolTableRecord
100
AcDbLayerTableRecord
  2
23
 70
     0
 62
    23
  6
CONTINUOUS
  0
LAYER
  5
51
330
2
100
AcDbSymbolTableRecord
100
AcDbLayerTableRecord
  2
24
 70
     0
 62
    24
  6
CONTINUOUS
  0
LAYER
  5
52
330
2
100
AcDbSymbolTableRecord
100
AcDbLayerTableRecord
  2
25
 70
     0
 62
    25
  6
CONTINUOUS
  0
LAYER
  5
53
330
2
100
AcDbSymbolTableRecord
100
AcDbLayerTableRecord
  2
26
 70
     0
 62
    26
  6
CONTINUOUS
  0
LAYER
  5
54
330
2
100
AcDbSymbolTableRecord
100
AcDbLayerTableRecord
  2
27
 70
     0
 62
    27
  6
CONTINUOUS
  0
LAYER
  5
55
330
2
100
AcDbSymbolTableRecord
100
AcDbLayerTableRecord
  2
28
 70
     0
 62
    28
  6
CONTINUOUS
  0
LAYER
  5
56
330
2
100
AcDbSymbolTableRecord
100
AcDbLayerTableRecord
  2
29
 70
     0
 62
    29
  6
CONTINUOUS
  0
LAYER
  5
57
330
2
100
AcDbSymbolTableRecord
100
AcDbLayerTableRecord
  2
30
 70
     0
 62
    30
  6
CONTINUOUS
  0
LAYER
  5
58
330
2
100
AcDbSymbolTableRecord
100
AcDbLayerTableRecord
  2
31
 70
     0
 62
    31
  6
CONTINUOUS
  0
LAYER
  5
59
330
2
100
AcDbSymbolTableRecord
100
AcDbLayerTableRecord
  2
32
 70
     0
 62
    32
  6
CONTINUOUS
  0
LAYER
  5
5A
330
2
100
AcDbSymbolTableRecord
100
AcDbLayerTableRecord
  2
33
 70
     0
 62
    33
  6
CONTINUOUS
  0
LAYER
  5
5B
330
2
100
AcDbSymbolTableRecord
100
AcDbLayerTableRecord
  2
34
 70
     0
 62
    34
  6
CONTINUOUS
  0
LAYER
  5
5C
330
2
100
AcDbSymbolTableRecord
100
AcDbLayerTableRecord
  2
35
 70
     0
 62
    35
  6
CONTINUOUS
  0
LAYER
  5
5D
330
2
100
AcDbSymbolTableRecord
100
AcDbLayerTableRecord
  2
36
 70
     0
 62
    36
  6
CONTINUOUS
  0
LAYER
  5
5E
330
2
100
AcDbSymbolTableRecord
100
AcDbLayerTableRecord
  2
37
 70
     0
 62
    37
  6
CONTINUOUS
  0
LAYER
  5
5F
330
2
100
AcDbSymbolTableRecord
100
AcDbLayerTableRecord
  2
38
 70
     0
 62
    38
  6
CONTINUOUS
  0
LAYER
  5
60
330
2
100
AcDbSymbolTableRecord
100
AcDbLayerTableRecord
  2
39
 70
     0
 62
    39
  6
CONTINUOUS
  0
LAYER
  5
61
330
2
100
AcDbSymbolTableRecord
100
AcDbLayerTableRecord
  2
40
 70
     0
 62
    40
  6
CONTINUOUS
  0
LAYER
  5
62
330
2
100
AcDbSymbolTableRecord
100
AcDbLayerTableRecord
  2
41
 70
     0
 62
    41
  6
CONTINUOUS
  0
LAYER
  5
63
330
2
100
AcDbSymbolTableRecord
100
AcDbLayerTableRecord
  2
42
 70
     0
 62
    42
  6
CONTINUOUS
  0
LAYER
  5
64
330
2
100
AcDbSymbolTableRecord
100
AcDbLayerTableRecord
  2
43
 70
     0
 62
    43
  6
CONTINUOUS
  0
LAYER
  5
65
330
2
100
AcDbSymbolTableRecord
100
AcDbLayerTableRecord
  2
44
 70
     0
 62
    44
  6
CONTINUOUS
  0
LAYER
  5
66
330
2
100
AcDbSymbolTableRecord
100
AcDbLayerTableRecord
  2
45
 70
     0
 62
    45
  6
CONTINUOUS
  0
LAYER
  5
67
330
2
100
AcDbSymbolTableRecord
100
AcDbLayerTableRecord
  2
46
 70
     0
 62
    46
  6
CONTINUOUS
  0
LAYER
  5
68
330
2
100
AcDbSymbolTableRecord
100
AcDbLayerTableRecord
  2
47
 70
     0
 62
    47
  6
CONTINUOUS
  0
LAYER
  5
69
330
2
100
AcDbSymbolTableRecord
100
AcDbLayerTableRecord
  2
48
 70
     0
 62
    48
  6
CONTINUOUS
  0
LAYER
  5
6A
330
2
100
AcDbSymbolTableRecord
100
AcDbLayerTableRecord
  2
49
 70
     0
 62
    49
  6
CONTINUOUS
  0
LAYER
  5
6B
330
2
100
AcDbSymbolTableRecord
100
AcDbLayerTableRecord
  2
50
 70
     0
 62
    50
  6
CONTINUOUS
  0
LAYER
  5
6C
330
2
100
AcDbSymbolTableRecord
100
AcDbLayerTableRecord
  2
51
 70
     0
 62
    51
  6
CONTINUOUS
  0
LAYER
  5
6D
330
2
100
AcDbSymbolTableRecord
100
AcDbLayerTableRecord
  2
52
 70
     0
 62
    52
  6
CONTINUOUS
  0
LAYER
  5
6E
330
2
100
AcDbSymbolTableRecord
100
AcDbLayerTableRecord
  2
53
 70
     0
 62
    53
  6
CONTINUOUS
  0
LAYER
  5
6F
330
2
100
AcDbSymbolTableRecord
100
AcDbLayerTableRecord
  2
54
 70
     0
 62
    54
  6
CONTINUOUS
  0
LAYER
  5
70
330
2
100
AcDbSymbolTableRecord
100
AcDbLayerTableRecord
  2
55
 70
     0
 62
    55
  6
CONTINUOUS
  0
LAYER
  5
71
330
2
100
AcDbSymbolTableRecord
100
AcDbLayerTableRecord
  2
56
 70
     0
 62
    56
  6
CONTINUOUS
  0
LAYER
  5
72
330
2
100
AcDbSymbolTableRecord
100
AcDbLayerTableRecord
  2
57
 70
     0
 62
    57
  6
CONTINUOUS
  0
LAYER
  5
73
330
2
100
AcDbSymbolTableRecord
100
AcDbLayerTableRecord
  2
58
 70
     0
 62
    58
  6
CONTINUOUS
  0
LAYER
  5
74
330
2
100
AcDbSymbolTableRecord
100
AcDbLayerTableRecord
  2
59
 70
     0
 62
    59
  6
CONTINUOUS
  0
LAYER
  5
75
330
2
100
AcDbSymbolTableRecord
100
AcDbLayerTableRecord
  2
60
 70
     0
 62
    60
  6
CONTINUOUS
  0
LAYER
  5
76
330
2
100
AcDbSymbolTableRecord
100
AcDbLayerTableRecord
  2
61
 70
     0
 62
    61
  6
CONTINUOUS
  0
LAYER
  5
77
330
2
100
AcDbSymbolTableRecord
100
AcDbLayerTableRecord
  2
62
 70
     0
 62
    62
  6
CONTINUOUS
  0
LAYER
  5
78
330
2
100
AcDbSymbolTableRecord
100
AcDbLayerTableRecord
  2
63
 70
     0
 62
    63
  6
CONTINUOUS
  0
LAYER
  5
79
330
2
100
AcDbSymbolTableRecord
100
AcDbLayerTableRecord
  2
64
 70
     0
 62
    64
  6
CONTINUOUS
  0
LAYER
  5
7A
330
2
100
AcDbSymbolTableRecord
100
AcDbLayerTableRecord
  2
65
 70
     0
 62
    65
  6
CONTINUOUS
  0
LAYER
  5
7B
330
2
100
AcDbSymbolTableRecord
100
AcDbLayerTableRecord
  2
66
 70
     0
 62
    66
  6
CONTINUOUS
  0
LAYER
  5
7C
330
2
100
AcDbSymbolTableRecord
100
AcDbLayerTableRecord
  2
67
 70
     0
 62
    67
  6
CONTINUOUS
  0
LAYER
  5
7D
330
2
100
AcDbSymbolTableRecord
100
AcDbLayerTableRecord
  2
68
 70
     0
 62
    68
  6
CONTINUOUS
  0
LAYER
  5
7E
330
2
100
AcDbSymbolTableRecord
100
AcDbLayerTableRecord
  2
69
 70
     0
 62
    69
  6
CONTINUOUS
  0
LAYER
  5
7F
330
2
100
AcDbSymbolTableRecord
100
AcDbLayerTableRecord
  2
70
 70
     0
 62
    70
  6
CONTINUOUS
  0
LAYER
  5
80
330
2
100
AcDbSymbolTableRecord
100
AcDbLayerTableRecord
  2
71
 70
     0
 62
    71
  6
CONTINUOUS
  0
LAYER
  5
81
330
2
100
AcDbSymbolTableRecord
100
AcDbLayerTableRecord
  2
72
 70
     0
 62
    72
  6
CONTINUOUS
  0
LAYER
  5
82
330
2
100
AcDbSymbolTableRecord
100
AcDbLayerTableRecord
  2
73
 70
     0
 62
    73
  6
CONTINUOUS
  0
LAYER
  5
83
330
2
100
AcDbSymbolTableRecord
100
AcDbLayerTableRecord
  2
74
 70
     0
 62
    74
  6
CONTINUOUS
  0
LAYER
  5
84
330
2
100
AcDbSymbolTableRecord
100
AcDbLayerTableRecord
  2
75
 70
     0
 62
    75
  6
CONTINUOUS
  0
LAYER
  5
85
330
2
100
AcDbSymbolTableRecord
100
AcDbLayerTableRecord
  2
76
 70
     0
 62
    76
  6
CONTINUOUS
  0
LAYER
  5
86
330
2
100
AcDbSymbolTableRecord
100
AcDbLayerTableRecord
  2
77
 70
     0
 62
    77
  6
CONTINUOUS
  0
LAYER
  5
87
330
2
100
AcDbSymbolTableRecord
100
AcDbLayerTableRecord
  2
78
 70
     0
 62
    78
  6
CONTINUOUS
  0
LAYER
  5
88
330
2
100
AcDbSymbolTableRecord
100
AcDbLayerTableRecord
  2
79
 70
     0
 62
    79
  6
CONTINUOUS
  0
LAYER
  5
89
330
2
100
AcDbSymbolTableRecord
100
AcDbLayerTableRecord
  2
80
 70
     0
 62
    80
  6
CONTINUOUS
  0
LAYER
  5
8A
330
2
100
AcDbSymbolTableRecord
100
AcDbLayerTableRecord
  2
81
 70
     0
 62
    81
  6
CONTINUOUS
  0
LAYER
  5
8B
330
2
100
AcDbSymbolTableRecord
100
AcDbLayerTableRecord
  2
82
 70
     0
 62
    82
  6
CONTINUOUS
  0
LAYER
  5
8C
330
2
100
AcDbSymbolTableRecord
100
AcDbLayerTableRecord
  2
83
 70
     0
 62
    83
  6
CONTINUOUS
  0
LAYER
  5
8D
330
2
100
AcDbSymbolTableRecord
100
AcDbLayerTableRecord
  2
84
 70
     0
 62
    84
  6
CONTINUOUS
  0
LAYER
  5
8E
330
2
100
AcDbSymbolTableRecord
100
AcDbLayerTableRecord
  2
85
 70
     0
 62
    85
  6
CONTINUOUS
  0
LAYER
  5
8F
330
2
100
AcDbSymbolTableRecord
100
AcDbLayerTableRecord
  2
86
 70
     0
 62
    86
  6
CONTINUOUS
  0
LAYER
  5
90
330
2
100
AcDbSymbolTableRecord
100
AcDbLayerTableRecord
  2
87
 70
     0
 62
    87
  6
CONTINUOUS
  0
LAYER
  5
91
330
2
100
AcDbSymbolTableRecord
100
AcDbLayerTableRecord
  2
88
 70
     0
 62
    88
  6
CONTINUOUS
  0
LAYER
  5
92
330
2
100
AcDbSymbolTableRecord
100
AcDbLayerTableRecord
  2
89
 70
     0
 62
    89
  6
CONTINUOUS
  0
LAYER
  5
93
330
2
100
AcDbSymbolTableRecord
100
AcDbLayerTableRecord
  2
90
 70
     0
 62
    90
  6
CONTINUOUS
  0
LAYER
  5
94
330
2
100
AcDbSymbolTableRecord
100
AcDbLayerTableRecord
  2
91
 70
     0
 62
    91
  6
CONTINUOUS
  0
LAYER
  5
95
330
2
100
AcDbSymbolTableRecord
100
AcDbLayerTableRecord
  2
92
 70
     0
 62
    92
  6
CONTINUOUS
  0
LAYER
  5
96
330
2
100
AcDbSymbolTableRecord
100
AcDbLayerTableRecord
  2
93
 70
     0
 62
    93
  6
CONTINUOUS
  0
LAYER
  5
97
330
2
100
AcDbSymbolTableRecord
100
AcDbLayerTableRecord
  2
94
 70
     0
 62
    94
  6
CONTINUOUS
  0
LAYER
  5
98
330
2
100
AcDbSymbolTableRecord
100
AcDbLayerTableRecord
  2
95
 70
     0
 62
    95
  6
CONTINUOUS
  0
LAYER
  5
99
330
2
100
AcDbSymbolTableRecord
100
AcDbLayerTableRecord
  2
96
 70
     0
 62
    96
  6
CONTINUOUS
  0
LAYER
  5
9A
330
2
100
AcDbSymbolTableRecord
100
AcDbLayerTableRecord
  2
97
 70
     0
 62
    97
  6
CONTINUOUS
  0
LAYER
  5
9B
330
2
100
AcDbSymbolTableRecord
100
AcDbLayerTableRecord
  2
98
 70
     0
 62
    98
  6
CONTINUOUS
  0
LAYER
  5
9C
330
2
100
AcDbSymbolTableRecord
100
AcDbLayerTableRecord
  2
99
 70
     0
 62
    99
  6
CONTINUOUS
  0
LAYER
  5
9D
330
2
100
AcDbSymbolTableRecord
100
AcDbLayerTableRecord
  2
100
 70
     0
 62
   100
  6
CONTINUOUS
  0
LAYER
  5
9E
330
2
100
AcDbSymbolTableRecord
100
AcDbLayerTableRecord
  2
101
 70
     0
 62
   101
  6
CONTINUOUS
  0
LAYER
  5
9F
330
2
100
AcDbSymbolTableRecord
100
AcDbLayerTableRecord
  2
102
 70
     0
 62
   102
  6
CONTINUOUS
  0
LAYER
  5
A0
330
2
100
AcDbSymbolTableRecord
100
AcDbLayerTableRecord
  2
103
 70
     0
 62
   103
  6
CONTINUOUS
  0
LAYER
  5
A1
330
2
100
AcDbSymbolTableRecord
100
AcDbLayerTableRecord
  2
104
 70
     0
 62
   104
  6
CONTINUOUS
  0
LAYER
  5
A2
330
2
100
AcDbSymbolTableRecord
100
AcDbLayerTableRecord
  2
105
 70
     0
 62
   105
  6
CONTINUOUS
  0
LAYER
  5
A3
330
2
100
AcDbSymbolTableRecord
100
AcDbLayerTableRecord
  2
106
 70
     0
 62
   106
  6
CONTINUOUS
  0
LAYER
  5
A4
330
2
100
AcDbSymbolTableRecord
100
AcDbLayerTableRecord
  2
107
 70
     0
 62
   107
  6
CONTINUOUS
  0
LAYER
  5
A5
330
2
100
AcDbSymbolTableRecord
100
AcDbLayerTableRecord
  2
108
 70
     0
 62
   108
  6
CONTINUOUS
  0
LAYER
  5
A6
330
2
100
AcDbSymbolTableRecord
100
AcDbLayerTableRecord
  2
109
 70
     0
 62
   109
  6
CONTINUOUS
  0
LAYER
  5
A7
330
2
100
AcDbSymbolTableRecord
100
AcDbLayerTableRecord
  2
110
 70
     0
 62
   110
  6
CONTINUOUS
  0
LAYER
  5
A8
330
2
100
AcDbSymbolTableRecord
100
AcDbLayerTableRecord
  2
111
 70
     0
 62
   111
  6
CONTINUOUS
  0
LAYER
  5
A9
330
2
100
AcDbSymbolTableRecord
100
AcDbLayerTableRecord
  2
112
 70
     0
 62
   112
  6
CONTINUOUS
  0
LAYER
  5
AA
330
2
100
AcDbSymbolTableRecord
100
AcDbLayerTableRecord
  2
113
 70
     0
 62
   113
  6
CONTINUOUS
  0
LAYER
  5
AB
330
2
100
AcDbSymbolTableRecord
100
AcDbLayerTableRecord
  2
114
 70
     0
 62
   114
  6
CONTINUOUS
  0
LAYER
  5
AC
330
2
100
AcDbSymbolTableRecord
100
AcDbLayerTableRecord
  2
115
 70
     0
 62
   115
  6
CONTINUOUS
  0
LAYER
  5
AD
330
2
100
AcDbSymbolTableRecord
100
AcDbLayerTableRecord
  2
116
 70
     0
 62
   116
  6
CONTINUOUS
  0
LAYER
  5
AE
330
2
100
AcDbSymbolTableRecord
100
AcDbLayerTableRecord
  2
117
 70
     0
 62
   117
  6
CONTINUOUS
  0
LAYER
  5
AF
330
2
100
AcDbSymbolTableRecord
100
AcDbLayerTableRecord
  2
118
 70
     0
 62
   118
  6
CONTINUOUS
  0
LAYER
  5
B0
330
2
100
AcDbSymbolTableRecord
100
AcDbLayerTableRecord
  2
119
 70
     0
 62
   119
  6
CONTINUOUS
  0
LAYER
  5
B1
330
2
100
AcDbSymbolTableRecord
100
AcDbLayerTableRecord
  2
120
 70
     0
 62
   120
  6
CONTINUOUS
  0
LAYER
  5
B2
330
2
100
AcDbSymbolTableRecord
100
AcDbLayerTableRecord
  2
121
 70
     0
 62
   121
  6
CONTINUOUS
  0
LAYER
  5
B3
330
2
100
AcDbSymbolTableRecord
100
AcDbLayerTableRecord
  2
122
 70
     0
 62
   122
  6
CONTINUOUS
  0
LAYER
  5
B4
330
2
100
AcDbSymbolTableRecord
100
AcDbLayerTableRecord
  2
123
 70
     0
 62
   123
  6
CONTINUOUS
  0
LAYER
  5
B5
330
2
100
AcDbSymbolTableRecord
100
AcDbLayerTableRecord
  2
124
 70
     0
 62
   124
  6
CONTINUOUS
  0
LAYER
  5
B6
330
2
100
AcDbSymbolTableRecord
100
AcDbLayerTableRecord
  2
125
 70
     0
 62
   125
  6
CONTINUOUS
  0
LAYER
  5
B7
330
2
100
AcDbSymbolTableRecord
100
AcDbLayerTableRecord
  2
126
 70
     0
 62
   126
  6
CONTINUOUS
  0
LAYER
  5
B8
330
2
100
AcDbSymbolTableRecord
100
AcDbLayerTableRecord
  2
127
 70
     0
 62
   127
  6
CONTINUOUS
  0
LAYER
  5
B9
330
2
100
AcDbSymbolTableRecord
100
AcDbLayerTableRecord
  2
128
 70
     0
 62
   128
  6
CONTINUOUS
  0
LAYER
  5
BA
330
2
100
AcDbSymbolTableRecord
100
AcDbLayerTableRecord
  2
129
 70
     0
 62
   129
  6
CONTINUOUS
  0
LAYER
  5
BB
330
2
100
AcDbSymbolTableRecord
100
AcDbLayerTableRecord
  2
130
 70
     0
 62
   130
  6
CONTINUOUS
  0
LAYER
  5
BC
330
2
100
AcDbSymbolTableRecord
100
AcDbLayerTableRecord
  2
131
 70
     0
 62
   131
  6
CONTINUOUS
  0
LAYER
  5
BD
330
2
100
AcDbSymbolTableRecord
100
AcDbLayerTableRecord
  2
132
 70
     0
 62
   132
  6
CONTINUOUS
  0
LAYER
  5
BE
330
2
100
AcDbSymbolTableRecord
100
AcDbLayerTableRecord
  2
133
 70
     0
 62
   133
  6
CONTINUOUS
  0
LAYER
  5
BF
330
2
100
AcDbSymbolTableRecord
100
AcDbLayerTableRecord
  2
134
 70
     0
 62
   134
  6
CONTINUOUS
  0
LAYER
  5
C0
330
2
100
AcDbSymbolTableRecord
100
AcDbLayerTableRecord
  2
135
 70
     0
 62
   135
  6
CONTINUOUS
  0
LAYER
  5
C1
330
2
100
AcDbSymbolTableRecord
100
AcDbLayerTableRecord
  2
136
 70
     0
 62
   136
  6
CONTINUOUS
  0
LAYER
  5
C2
330
2
100
AcDbSymbolTableRecord
100
AcDbLayerTableRecord
  2
137
 70
     0
 62
   137
  6
CONTINUOUS
  0
LAYER
  5
C3
330
2
100
AcDbSymbolTableRecord
100
AcDbLayerTableRecord
  2
138
 70
     0
 62
   138
  6
CONTINUOUS
  0
LAYER
  5
C4
330
2
100
AcDbSymbolTableRecord
100
AcDbLayerTableRecord
  2
139
 70
     0
 62
   139
  6
CONTINUOUS
  0
LAYER
  5
C5
330
2
100
AcDbSymbolTableRecord
100
AcDbLayerTableRecord
  2
140
 70
     0
 62
   140
  6
CONTINUOUS
  0
LAYER
  5
C6
330
2
100
AcDbSymbolTableRecord
100
AcDbLayerTableRecord
  2
141
 70
     0
 62
   141
  6
CONTINUOUS
  0
LAYER
  5
C7
330
2
100
AcDbSymbolTableRecord
100
AcDbLayerTableRecord
  2
142
 70
     0
 62
   142
  6
CONTINUOUS
  0
LAYER
  5
C8
330
2
100
AcDbSymbolTableRecord
100
AcDbLayerTableRecord
  2
143
 70
     0
 62
   143
  6
CONTINUOUS
  0
LAYER
  5
C9
330
2
100
AcDbSymbolTableRecord
100
AcDbLayerTableRecord
  2
144
 70
     0
 62
   144
  6
CONTINUOUS
  0
LAYER
  5
CA
330
2
100
AcDbSymbolTableRecord
100
AcDbLayerTableRecord
  2
145
 70
     0
 62
   145
  6
CONTINUOUS
  0
LAYER
  5
CB
330
2
100
AcDbSymbolTableRecord
100
AcDbLayerTableRecord
  2
146
 70
     0
 62
   146
  6
CONTINUOUS
  0
LAYER
  5
CC
330
2
100
AcDbSymbolTableRecord
100
AcDbLayerTableRecord
  2
147
 70
     0
 62
   147
  6
CONTINUOUS
  0
LAYER
  5
CD
330
2
100
AcDbSymbolTableRecord
100
AcDbLayerTableRecord
  2
148
 70
     0
 62
   148
  6
CONTINUOUS
  0
LAYER
  5
CE
330
2
100
AcDbSymbolTableRecord
100
AcDbLayerTableRecord
  2
149
 70
     0
 62
   149
  6
CONTINUOUS
  0
LAYER
  5
CF
330
2
100
AcDbSymbolTableRecord
100
AcDbLayerTableRecord
  2
150
 70
     0
 62
   150
  6
CONTINUOUS
  0
LAYER
  5
D0
330
2
100
AcDbSymbolTableRecord
100
AcDbLayerTableRecord
  2
151
 70
     0
 62
   151
  6
CONTINUOUS
  0
LAYER
  5
D1
330
2
100
AcDbSymbolTableRecord
100
AcDbLayerTableRecord
  2
152
 70
     0
 62
   152
  6
CONTINUOUS
  0
LAYER
  5
D2
330
2
100
AcDbSymbolTableRecord
100
AcDbLayerTableRecord
  2
153
 70
     0
 62
   153
  6
CONTINUOUS
  0
LAYER
  5
D3
330
2
100
AcDbSymbolTableRecord
100
AcDbLayerTableRecord
  2
154
 70
     0
 62
   154
  6
CONTINUOUS
  0
LAYER
  5
D4
330
2
100
AcDbSymbolTableRecord
100
AcDbLayerTableRecord
  2
155
 70
     0
 62
   155
  6
CONTINUOUS
  0
LAYER
  5
D5
330
2
100
AcDbSymbolTableRecord
100
AcDbLayerTableRecord
  2
156
 70
     0
 62
   156
  6
CONTINUOUS
  0
LAYER
  5
D6
330
2
100
AcDbSymbolTableRecord
100
AcDbLayerTableRecord
  2
157
 70
     0
 62
   157
  6
CONTINUOUS
  0
LAYER
  5
D7
330
2
100
AcDbSymbolTableRecord
100
AcDbLayerTableRecord
  2
158
 70
     0
 62
   158
  6
CONTINUOUS
  0
LAYER
  5
D8
330
2
100
AcDbSymbolTableRecord
100
AcDbLayerTableRecord
  2
159
 70
     0
 62
   159
  6
CONTINUOUS
  0
LAYER
  5
D9
330
2
100
AcDbSymbolTableRecord
100
AcDbLayerTableRecord
  2
160
 70
     0
 62
   160
  6
CONTINUOUS
  0
LAYER
  5
DA
330
2
100
AcDbSymbolTableRecord
100
AcDbLayerTableRecord
  2
161
 70
     0
 62
   161
  6
CONTINUOUS
  0
LAYER
  5
DB
330
2
100
AcDbSymbolTableRecord
100
AcDbLayerTableRecord
  2
162
 70
     0
 62
   162
  6
CONTINUOUS
  0
LAYER
  5
DC
330
2
100
AcDbSymbolTableRecord
100
AcDbLayerTableRecord
  2
163
 70
     0
 62
   163
  6
CONTINUOUS
  0
LAYER
  5
DD
330
2
100
AcDbSymbolTableRecord
100
AcDbLayerTableRecord
  2
164
 70
     0
 62
   164
  6
CONTINUOUS
  0
LAYER
  5
DE
330
2
100
AcDbSymbolTableRecord
100
AcDbLayerTableRecord
  2
165
 70
     0
 62
   165
  6
CONTINUOUS
  0
LAYER
  5
DF
330
2
100
AcDbSymbolTableRecord
100
AcDbLayerTableRecord
  2
166
 70
     0
 62
   166
  6
CONTINUOUS
  0
LAYER
  5
E0
330
2
100
AcDbSymbolTableRecord
100
AcDbLayerTableRecord
  2
167
 70
     0
 62
   167
  6
CONTINUOUS
  0
LAYER
  5
E1
330
2
100
AcDbSymbolTableRecord
100
AcDbLayerTableRecord
  2
168
 70
     0
 62
   168
  6
CONTINUOUS
  0
LAYER
  5
E2
330
2
100
AcDbSymbolTableRecord
100
AcDbLayerTableRecord
  2
169
 70
     0
 62
   169
  6
CONTINUOUS
  0
LAYER
  5
E3
330
2
100
AcDbSymbolTableRecord
100
AcDbLayerTableRecord
  2
170
 70
     0
 62
   170
  6
CONTINUOUS
  0
LAYER
  5
E4
330
2
100
AcDbSymbolTableRecord
100
AcDbLayerTableRecord
  2
171
 70
     0
 62
   171
  6
CONTINUOUS
  0
LAYER
  5
E5
330
2
100
AcDbSymbolTableRecord
100
AcDbLayerTableRecord
  2
172
 70
     0
 62
   172
  6
CONTINUOUS
  0
LAYER
  5
E6
330
2
100
AcDbSymbolTableRecord
100
AcDbLayerTableRecord
  2
173
 70
     0
 62
   173
  6
CONTINUOUS
  0
LAYER
  5
E7
330
2
100
AcDbSymbolTableRecord
100
AcDbLayerTableRecord
  2
174
 70
     0
 62
   174
  6
CONTINUOUS
  0
LAYER
  5
E8
330
2
100
AcDbSymbolTableRecord
100
AcDbLayerTableRecord
  2
175
 70
     0
 62
   175
  6
CONTINUOUS
  0
LAYER
  5
E9
330
2
100
AcDbSymbolTableRecord
100
AcDbLayerTableRecord
  2
176
 70
     0
 62
   176
  6
CONTINUOUS
  0
LAYER
  5
EA
330
2
100
AcDbSymbolTableRecord
100
AcDbLayerTableRecord
  2
177
 70
     0
 62
   177
  6
CONTINUOUS
  0
LAYER
  5
EB
330
2
100
AcDbSymbolTableRecord
100
AcDbLayerTableRecord
  2
178
 70
     0
 62
   178
  6
CONTINUOUS
  0
LAYER
  5
EC
330
2
100
AcDbSymbolTableRecord
100
AcDbLayerTableRecord
  2
179
 70
     0
 62
   179
  6
CONTINUOUS
  0
LAYER
  5
ED
330
2
100
AcDbSymbolTableRecord
100
AcDbLayerTableRecord
  2
180
 70
     0
 62
   180
  6
CONTINUOUS
  0
LAYER
  5
EE
330
2
100
AcDbSymbolTableRecord
100
AcDbLayerTableRecord
  2
181
 70
     0
 62
   181
  6
CONTINUOUS
  0
LAYER
  5
EF
330
2
100
AcDbSymbolTableRecord
100
AcDbLayerTableRecord
  2
182
 70
     0
 62
   182
  6
CONTINUOUS
  0
LAYER
  5
F0
330
2
100
AcDbSymbolTableRecord
100
AcDbLayerTableRecord
  2
183
 70
     0
 62
   183
  6
CONTINUOUS
  0
LAYER
  5
F1
330
2
100
AcDbSymbolTableRecord
100
AcDbLayerTableRecord
  2
184
 70
     0
 62
   184
  6
CONTINUOUS
  0
LAYER
  5
F2
330
2
100
AcDbSymbolTableRecord
100
AcDbLayerTableRecord
  2
185
 70
     0
 62
   185
  6
CONTINUOUS
  0
LAYER
  5
F3
330
2
100
AcDbSymbolTableRecord
100
AcDbLayerTableRecord
  2
186
 70
     0
 62
   186
  6
CONTINUOUS
  0
LAYER
  5
F4
330
2
100
AcDbSymbolTableRecord
100
AcDbLayerTableRecord
  2
187
 70
     0
 62
   187
  6
CONTINUOUS
  0
LAYER
  5
F5
330
2
100
AcDbSymbolTableRecord
100
AcDbLayerTableRecord
  2
188
 70
     0
 62
   188
  6
CONTINUOUS
  0
LAYER
  5
F6
330
2
100
AcDbSymbolTableRecord
100
AcDbLayerTableRecord
  2
189
 70
     0
 62
   189
  6
CONTINUOUS
  0
LAYER
  5
F7
330
2
100
AcDbSymbolTableRecord
100
AcDbLayerTableRecord
  2
190
 70
     0
 62
   190
  6
CONTINUOUS
  0
LAYER
  5
F8
330
2
100
AcDbSymbolTableRecord
100
AcDbLayerTableRecord
  2
191
 70
     0
 62
   191
  6
CONTINUOUS
  0
LAYER
  5
F9
330
2
100
AcDbSymbolTableRecord
100
AcDbLayerTableRecord
  2
192
 70
     0
 62
   192
  6
CONTINUOUS
  0
LAYER
  5
FA
330
2
100
AcDbSymbolTableRecord
100
AcDbLayerTableRecord
  2
193
 70
     0
 62
   193
  6
CONTINUOUS
  0
LAYER
  5
FB
330
2
100
AcDbSymbolTableRecord
100
AcDbLayerTableRecord
  2
194
 70
     0
 62
   194
  6
CONTINUOUS
  0
LAYER
  5
FC
330
2
100
AcDbSymbolTableRecord
100
AcDbLayerTableRecord
  2
195
 70
     0
 62
   195
  6
CONTINUOUS
  0
LAYER
  5
FD
330
2
100
AcDbSymbolTableRecord
100
AcDbLayerTableRecord
  2
196
 70
     0
 62
   196
  6
CONTINUOUS
  0
LAYER
  5
FE
330
2
100
AcDbSymbolTableRecord
100
AcDbLayerTableRecord
  2
197
 70
     0
 62
   197
  6
CONTINUOUS
  0
LAYER
  5
FF
330
2
100
AcDbSymbolTableRecord
100
AcDbLayerTableRecord
  2
198
 70
     0
 62
   198
  6
CONTINUOUS
  0
LAYER
  5
100
330
2
100
AcDbSymbolTableRecord
100
AcDbLayerTableRecord
  2
199
 70
     0
 62
   199
  6
CONTINUOUS
  0
LAYER
  5
101
330
2
100
AcDbSymbolTableRecord
100
AcDbLayerTableRecord
  2
200
 70
     0
 62
   200
  6
CONTINUOUS
  0
LAYER
  5
102
330
2
100
AcDbSymbolTableRecord
100
AcDbLayerTableRecord
  2
201
 70
     0
 62
   201
  6
CONTINUOUS
  0
LAYER
  5
103
330
2
100
AcDbSymbolTableRecord
100
AcDbLayerTableRecord
  2
202
 70
     0
 62
   202
  6
CONTINUOUS
  0
LAYER
  5
104
330
2
100
AcDbSymbolTableRecord
100
AcDbLayerTableRecord
  2
203
 70
     0
 62
   203
  6
CONTINUOUS
  0
LAYER
  5
105
330
2
100
AcDbSymbolTableRecord
100
AcDbLayerTableRecord
  2
204
 70
     0
 62
   204
  6
CONTINUOUS
  0
LAYER
  5
106
330
2
100
AcDbSymbolTableRecord
100
AcDbLayerTableRecord
  2
205
 70
     0
 62
   205
  6
CONTINUOUS
  0
LAYER
  5
107
330
2
100
AcDbSymbolTableRecord
100
AcDbLayerTableRecord
  2
206
 70
     0
 62
   206
  6
CONTINUOUS
  0
LAYER
  5
108
330
2
100
AcDbSymbolTableRecord
100
AcDbLayerTableRecord
  2
207
 70
     0
 62
   207
  6
CONTINUOUS
  0
LAYER
  5
109
330
2
100
AcDbSymbolTableRecord
100
AcDbLayerTableRecord
  2
208
 70
     0
 62
   208
  6
CONTINUOUS
  0
LAYER
  5
10A
330
2
100
AcDbSymbolTableRecord
100
AcDbLayerTableRecord
  2
209
 70
     0
 62
   209
  6
CONTINUOUS
  0
LAYER
  5
10B
330
2
100
AcDbSymbolTableRecord
100
AcDbLayerTableRecord
  2
210
 70
     0
 62
   210
  6
CONTINUOUS
  0
LAYER
  5
10C
330
2
100
AcDbSymbolTableRecord
100
AcDbLayerTableRecord
  2
211
 70
     0
 62
   211
  6
CONTINUOUS
  0
LAYER
  5
10D
330
2
100
AcDbSymbolTableRecord
100
AcDbLayerTableRecord
  2
212
 70
     0
 62
   212
  6
CONTINUOUS
  0
LAYER
  5
10E
330
2
100
AcDbSymbolTableRecord
100
AcDbLayerTableRecord
  2
213
 70
     0
 62
   213
  6
CONTINUOUS
  0
LAYER
  5
10F
330
2
100
AcDbSymbolTableRecord
100
AcDbLayerTableRecord
  2
214
 70
     0
 62
   214
  6
CONTINUOUS
  0
LAYER
  5
110
330
2
100
AcDbSymbolTableRecord
100
AcDbLayerTableRecord
  2
215
 70
     0
 62
   215
  6
CONTINUOUS
  0
LAYER
  5
111
330
2
100
AcDbSymbolTableRecord
100
AcDbLayerTableRecord
  2
216
 70
     0
 62
   216
  6
CONTINUOUS
  0
LAYER
  5
112
330
2
100
AcDbSymbolTableRecord
100
AcDbLayerTableRecord
  2
217
 70
     0
 62
   217
  6
CONTINUOUS
  0
LAYER
  5
113
330
2
100
AcDbSymbolTableRecord
100
AcDbLayerTableRecord
  2
218
 70
     0
 62
   218
  6
CONTINUOUS
  0
LAYER
  5
114
330
2
100
AcDbSymbolTableRecord
100
AcDbLayerTableRecord
  2
219
 70
     0
 62
   219
  6
CONTINUOUS
  0
LAYER
  5
115
330
2
100
AcDbSymbolTableRecord
100
AcDbLayerTableRecord
  2
220
 70
     0
 62
   220
  6
CONTINUOUS
  0
LAYER
  5
116
330
2
100
AcDbSymbolTableRecord
100
AcDbLayerTableRecord
  2
221
 70
     0
 62
   221
  6
CONTINUOUS
  0
LAYER
  5
117
330
2
100
AcDbSymbolTableRecord
100
AcDbLayerTableRecord
  2
222
 70
     0
 62
   222
  6
CONTINUOUS
  0
LAYER
  5
118
330
2
100
AcDbSymbolTableRecord
100
AcDbLayerTableRecord
  2
223
 70
     0
 62
   223
  6
CONTINUOUS
  0
LAYER
  5
119
330
2
100
AcDbSymbolTableRecord
100
AcDbLayerTableRecord
  2
224
 70
     0
 62
   224
  6
CONTINUOUS
  0
LAYER
  5
11A
330
2
100
AcDbSymbolTableRecord
100
AcDbLayerTableRecord
  2
225
 70
     0
 62
   225
  6
CONTINUOUS
  0
LAYER
  5
11B
330
2
100
AcDbSymbolTableRecord
100
AcDbLayerTableRecord
  2
226
 70
     0
 62
   226
  6
CONTINUOUS
  0
LAYER
  5
11C
330
2
100
AcDbSymbolTableRecord
100
AcDbLayerTableRecord
  2
227
 70
     0
 62
   227
  6
CONTINUOUS
  0
LAYER
  5
11D
330
2
100
AcDbSymbolTableRecord
100
AcDbLayerTableRecord
  2
228
 70
     0
 62
   228
  6
CONTINUOUS
  0
LAYER
  5
11E
330
2
100
AcDbSymbolTableRecord
100
AcDbLayerTableRecord
  2
229
 70
     0
 62
   229
  6
CONTINUOUS
  0
LAYER
  5
11F
330
2
100
AcDbSymbolTableRecord
100
AcDbLayerTableRecord
  2
230
 70
     0
 62
   230
  6
CONTINUOUS
  0
LAYER
  5
120
330
2
100
AcDbSymbolTableRecord
100
AcDbLayerTableRecord
  2
231
 70
     0
 62
   231
  6
CONTINUOUS
  0
LAYER
  5
121
330
2
100
AcDbSymbolTableRecord
100
AcDbLayerTableRecord
  2
232
 70
     0
 62
   232
  6
CONTINUOUS
  0
LAYER
  5
122
330
2
100
AcDbSymbolTableRecord
100
AcDbLayerTableRecord
  2
233
 70
     0
 62
   233
  6
CONTINUOUS
  0
LAYER
  5
123
330
2
100
AcDbSymbolTableRecord
100
AcDbLayerTableRecord
  2
234
 70
     0
 62
   234
  6
CONTINUOUS
  0
LAYER
  5
124
330
2
100
AcDbSymbolTableRecord
100
AcDbLayerTableRecord
  2
235
 70
     0
 62
   235
  6
CONTINUOUS
  0
LAYER
  5
125
330
2
100
AcDbSymbolTableRecord
100
AcDbLayerTableRecord
  2
236
 70
     0
 62
   236
  6
CONTINUOUS
  0
LAYER
  5
126
330
2
100
AcDbSymbolTableRecord
100
AcDbLayerTableRecord
  2
237
 70
     0
 62
   237
  6
CONTINUOUS
  0
LAYER
  5
127
330
2
100
AcDbSymbolTableRecord
100
AcDbLayerTableRecord
  2
238
 70
     0
 62
   238
  6
CONTINUOUS
  0
LAYER
  5
128
330
2
100
AcDbSymbolTableRecord
100
AcDbLayerTableRecord
  2
239
 70
     0
 62
   239
  6
CONTINUOUS
  0
LAYER
  5
129
330
2
100
AcDbSymbolTableRecord
100
AcDbLayerTableRecord
  2
240
 70
     0
 62
   240
  6
CONTINUOUS
  0
LAYER
  5
12A
330
2
100
AcDbSymbolTableRecord
100
AcDbLayerTableRecord
  2
241
 70
     0
 62
   241
  6
CONTINUOUS
  0
LAYER
  5
12B
330
2
100
AcDbSymbolTableRecord
100
AcDbLayerTableRecord
  2
242
 70
     0
 62
   242
  6
CONTINUOUS
  0
LAYER
  5
12C
330
2
100
AcDbSymbolTableRecord
100
AcDbLayerTableRecord
  2
243
 70
     0
 62
   243
  6
CONTINUOUS
  0
LAYER
  5
12D
330
2
100
AcDbSymbolTableRecord
100
AcDbLayerTableRecord
  2
244
 70
     0
 62
   244
  6
CONTINUOUS
  0
LAYER
  5
12E
330
2
100
AcDbSymbolTableRecord
100
AcDbLayerTableRecord
  2
245
 70
     0
 62
   245
  6
CONTINUOUS
  0
LAYER
  5
12F
330
2
100
AcDbSymbolTableRecord
100
AcDbLayerTableRecord
  2
246
 70
     0
 62
   246
  6
CONTINUOUS
  0
LAYER
  5
130
330
2
100
AcDbSymbolTableRecord
100
AcDbLayerTableRecord
  2
247
 70
     0
 62
   247
  6
CONTINUOUS
  0
LAYER
  5
131
330
2
100
AcDbSymbolTableRecord
100
AcDbLayerTableRecord
  2
248
 70
     0
 62
   248
  6
CONTINUOUS
  0
LAYER
  5
132
330
2
100
AcDbSymbolTableRecord
100
AcDbLayerTableRecord
  2
249
 70
     0
 62
   249
  6
CONTINUOUS
  0
LAYER
  5
133
330
2
100
AcDbSymbolTableRecord
100
AcDbLayerTableRecord
  2
250
 70
     0
 62
   250
  6
CONTINUOUS
  0
LAYER
  5
134
330
2
100
AcDbSymbolTableRecord
100
AcDbLayerTableRecord
  2
251
 70
     0
 62
   251
  6
CONTINUOUS
  0
LAYER
  5
135
330
2
100
AcDbSymbolTableRecord
100
AcDbLayerTableRecord
  2
252
 70
     0
 62
   252
  6
CONTINUOUS
  0
LAYER
  5
136
330
2
100
AcDbSymbolTableRecord
100
AcDbLayerTableRecord
  2
253
 70
     0
 62
   253
  6
CONTINUOUS
  0
LAYER
  5
137
330
2
100
AcDbSymbolTableRecord
100
AcDbLayerTableRecord
  2
254
 70
     0
 62
   254
  6
CONTINUOUS
  0
LAYER
  5
138
330
2
100
AcDbSymbolTableRecord
100
AcDbLayerTableRecord
  2
255
 70
     0
 62
   255
  6
CONTINUOUS
  0
LAYER
  5
577C
330
2
100
AcDbSymbolTableRecord
100
AcDbLayerTableRecord
  2
DEFPOINTS
 70
     0
 62
     7
  6
CONTINUOUS
  0
ENDTAB
  0
TABLE
  2
STYLE
  5
3
330
0
100
AcDbSymbolTable
 70
     1
  0
STYLE
  5
11
330
3
100
AcDbSymbolTableRecord
100
AcDbTextStyleTableRecord
  2
STANDARD
 70
     0
 40
0.0
 41
1.0
 50
0.0
 71
     0
 42
0.2
  3
monotxt
  4

  0
ENDTAB
  0
TABLE
  2
VIEW
  5
6
330
0
100
AcDbSymbolTable
 70
     0
  0
ENDTAB
  0
TABLE
  2
UCS
  5
7
330
0
100
AcDbSymbolTable
 70
     0
  0
ENDTAB
  0
TABLE
  2
APPID
  5
9
330
0
100
AcDbSymbolTable
 70
     1
  0
APPID
  5
12
330
9
100
AcDbSymbolTableRecord
100
AcDbRegAppTableRecord
  2
ACAD
 70
     0
  0
ENDTAB
  0
TABLE
  2
DIMSTYLE
  5
A
330
0
100
AcDbSymbolTable
 70
     1
  0
DIMSTYLE
105
3B4B
102
{ACAD_REACTORS
330
577B
102
}
330
A
100
AcDbSymbolTableRecord
100
AcDbDimStyleTableRecord
  2
STANDARD
 70
     0
  3

  4

  5

  6

  7

 40
1.0
 41
0.18
 42
0.0625
 43
0.38
 44
0.18
 45
0.0
 46
0.0
 47
0.0
 48
0.0
140
0.18
141
0.09
142
0.0
143
25.4
144
1.0
145
0.0
146
1.0
147
0.09
 71
     0
 72
     0
 73
     1
 74
     1
 75
     0
 76
     0
 77
     0
 78
     0
170
     0
171
     2
172
     0
173
     0
174
     0
175
     0
176
     0
177
     0
178
     0
270
     2
271
     4
272
     4
273
     2
274
     2
340
11
275
     0
280
     0
281
     0
282
     0
283
     1
284
     0
285
     0
286
     0
287
     3
288
     0
  0
ENDTAB
  0
TABLE
  2
BLOCK_RECORD
  5
1
330
0
100
AcDbSymbolTable
 70
     1
  0
BLOCK_RECORD
  5
1E
102
{ACAD_XDICTIONARY
360
57CD
102
}
330
1
100
AcDbSymbolTableRecord
100
AcDbBlockTableRecord
  2
*MODEL_SPACE
  0
BLOCK_RECORD
  5
1A
102
{ACAD_XDICTIONARY
360
57CB
102
}
330
1
100
AcDbSymbolTableRecord
100
AcDbBlockTableRecord
  2
*PAPER_SPACE
  0
BLOCK_RECORD
  5
577D
330
1
100
AcDbSymbolTableRecord
100
AcDbBlockTableRecord
  2
*D0
  0
ENDTAB
  0
ENDSEC
  0
SECTION
  2
BLOCKS
  0
BLOCK
  5
13B
330
1E
100
AcDbEntity
  8
0
100
AcDbBlockBegin
  2
*MODEL_SPACE
 70
     0
 10
0.0
 20
0.0
 30
0.0
  3
*MODEL_SPACE
  1

  0
ENDBLK
  5
13C
330
1E
100
AcDbEntity
  8
0
100
AcDbBlockEnd
  0
BLOCK
  5
139
330
1A
100
AcDbEntity
 67
     1
  8
0
100
AcDbBlockBegin
  2
*PAPER_SPACE
 70
     0
 10
0.0
 20
0.0
 30
0.0
  3
*PAPER_SPACE
  1

  0
ENDBLK
  5
13A
330
1A
100
AcDbEntity
 67
     1
  8
0
100
AcDbBlockEnd
  0
BLOCK
  5
5788
330
577D
100
AcDbEntity
  8
0
100
AcDbBlockBegin
  2
*D0
 70
     1
 10
0.0
 20
0.0
 30
0.0
  3
*D0
  1

  0
LINE
  5
578A
330
577D
100
AcDbEntity
  8
0
 62
     0
100
AcDbLine
 10
-2.752714776015774
 20
14.61962177990902
 30
0.0
 11
-2.752714776015774
 21
15.25301434858055
 31
0.0
  0
LINE
  5
578B
330
577D
100
AcDbEntity
  8
0
 62
     0
100
AcDbLine
 10
2.247285223984224
 20
14.61962177990902
 30
0.0
 11
2.247285223984224
 21
15.25301434858055
 31
0.0
  0
LINE
  5
578C
330
577D
100
AcDbEntity
  8
0
 62
     0
100
AcDbLine
 10
-2.572714776015774
 20
15.07301434858055
 30
0.0
 11
-0.8527147760157747
 21
15.07301434858055
 31
0.0
  0
LINE
  5
578D
330
577D
100
AcDbEntity
  8
0
 62
     0
100
AcDbLine
 10
2.067285223984224
 20
15.07301434858055
 30
0.0
 11
0.3472852239842251
 21
15.07301434858055
 31
0.0
  0
SOLID
  5
578E
330
577D
100
AcDbEntity
  8
0
 62
     0
100
AcDbTrace
 10
-2.572714776015774
 20
15.10301434858055
 30
0.0
 11
-2.572714776015774
 21
15.04301434858055
 31
0.0
 12
-2.752714776015774
 22
15.07301434858055
 32
0.0
 13
-2.752714776015774
 23
15.07301434858055
 33
0.0
  0
SOLID
  5
578F
330
577D
100
AcDbEntity
  8
0
 62
     0
100
AcDbTrace
 10
2.067285223984224
 20
15.10301434858055
 30
0.0
 11
2.067285223984224
 21
15.04301434858055
 31
0.0
 12
2.247285223984224
 22
15.07301434858055
 32
0.0
 13
2.247285223984224
 23
15.07301434858055
 33
0.0
  0
MTEXT
  5
5790
330
577D
100
AcDbEntity
  8
0
 62
     0
100
AcDbMText
 10
-0.2527147760157749
 20
15.07301434858055
 30
0.0
 40
0.18
 41
0.0
 71
     5
 72
     1
  1
\A1;5.0000
1001
ACAD
1000
MTEXTBEGIN
1070
    73
1070
     1
1070
    44
1040
1.0
1070
    74
1070
     0
1000
MTEXTEND
  0
POINT
  5
5791
330
577D
100
AcDbEntity
  8
DEFPOINTS
 62
     0
100
AcDbPoint
 10
-2.752714776015774
 20
14.55712177990903
 30
0.0
  0
POINT
  5
5792
330
577D
100
AcDbEntity
  8
DEFPOINTS
 62
     0
100
AcDbPoint
 10
2.247285223984224
 20
14.55712177990903
 30
0.0
  0
POINT
  5
5793
330
577D
100
AcDbEntity
  8
DEFPOINTS
 62
     0
100
AcDbPoint
 10
2.247285223984224
 20
15.07301434858055
 30
0.0
  0
ENDBLK
  5
5789
330
577D
100
AcDbEntity
  8
0
100
AcDbBlockEnd
  0
ENDSEC
  0
SECTION
  2
ENTITIES
  0
LINE
  5
2A74
330
1E
100
AcDbEntity
  8
7
100
AcDbLine
 10
-0.9023210752283734
 20
12.07680681927911
 30
0.0
 11
-0.9180691067244364
 21
12.07680681927911
 31
0.0
  0
LINE
  5
2A8B
330
1E
100
AcDbEntity
  8
7
100
AcDbLine
 10
-0.9023210752283734
 20
12.07680681927911
 30
0.0
 11
-0.9023210752283734
 21
10.96394592689065
 31
0.0
  0
LINE
  5
2A8C
330
1E
100
AcDbEntity
  8
7
100
AcDbLine
 10
0.2630332554802877
 20
12.39439212111638
 30
0.0
 11
0.1186763000997102
 21
11.52825038883291
 31
0.0
  0
LINE
  5
2A8D
330
1E
100
AcDbEntity
  8
7
100
AcDbLine
 10
-0.9180691067244364
 20
10.92457584815049
 30
0.0
 11
-0.9180691067244364
 21
12.07680681927911
 31
0.0
  0
LINE
  5
2AEF
330
1E
100
AcDbEntity
  8
7
100
AcDbLine
 10
0.8457104208346173
 20
11.74872282977779
 30
0.0
 11
0.8404610770025975
 21
11.76447086127386
 31
0.0
  0
LINE
  5
2B06
330
1E
100
AcDbEntity
  8
7
100
AcDbLine
 10
0.8457104208346173
 20
11.74872282977779
 30
0.0
 11
-0.2094076894016021
 21
11.40751548069643
 31
0.0
  0
LINE
  5
2B07
330
1E
100
AcDbEntity
  8
7
100
AcDbLine
 10
1.509752415585273
 20
10.73822414211375
 30
0.0
 11
0.640986011385798
 21
10.60699054631323
 31
0.0
  0
LINE
  5
2B08
330
1E
100
AcDbEntity
  8
7
100
AcDbLine
 10
-0.2540271119737802
 20
11.40751548069643
 30
0.0
 11
0.8404610770025975
 21
11.76447086127386
 31
0.0
  0
LINE
  5
2B13
330
1E
100
AcDbEntity
  8
7
100
AcDbLine
 10
1.076681549443541
 20
9.984943302218741
 30
0.0
 11
1.087180237107585
 21
9.992817317966773
 31
0.0
  0
LINE
  5
2B14
330
1E
100
AcDbEntity
  8
7
100
AcDbLine
 10
0.984818032383175
 20
9.273657212979896
 30
0.0
 11
1.066182861779501
 21
9.34714802662819
 31
0.0
  0
LINE
  5
2B2D
330
1E
100
AcDbEntity
  8
7
100
AcDbLine
 10
1.076681549443541
 20
9.984943302218741
 30
0.0
 11
0.4231382423569281
 21
10.88520576941034
 31
0.0
  0
LINE
  5
2B2E
330
1E
100
AcDbEntity
  8
7
100
AcDbLine
 10
0.3207760376325188
 20
9.042686084370973
 30
0.0
 11
-0.0729247497690562
 21
9.827462987258112
 31
0.0
  0
LINE
  5
2B2F
330
1E
100
AcDbEntity
  8
7
100
AcDbLine
 10
0.4100148827768751
 20
10.92457584815049
 30
0.0
 11
1.087180237107585
 21
9.992817317966773
 31
0.0
  0
LINE
  5
2B3A
330
1E
100
AcDbEntity
  8
7
100
AcDbLine
 10
-0.5296176631548822
 20
9.221163774659686
 30
0.0
 11
-0.5191189754908408
 21
9.213289758911654
 31
0.0
  0
LINE
  5
2B54
330
1E
100
AcDbEntity
  8
7
100
AcDbLine
 10
-0.5296176631548822
 20
9.221163774659686
 30
0.0
 11
0.1239256439317309
 21
10.12142624185128
 31
0.0
  0
LINE
  5
2B55
330
1E
100
AcDbEntity
  8
7
100
AcDbLine
 10
-1.660851258955408
 20
9.648985296969398
 30
0.0
 11
-1.036179342944909
 21
10.26578319723186
 31
0.0
  0
LINE
  5
2B56
330
1E
100
AcDbEntity
  8
7
100
AcDbLine
 10
0.1580463788398676
 20
10.14504828909538
 30
0.0
 11
-0.5191189754908408
 21
9.213289758911654
 31
0.0
  0
LINE
  5
2B64
330
1E
100
AcDbEntity
  8
7
100
AcDbLine
 10
-1.752714776015774
 20
10.51250235733685
 30
0.0
 11
-1.757964119847795
 21
10.4993789977568
 31
0.0
  0
LINE
  5
2B7E
330
1E
100
AcDbEntity
  8
7
100
AcDbLine
 10
-1.752714776015774
 20
10.51250235733685
 30
0.0
 11
-0.697596665779555
 21
10.17129500825548
 31
0.0
  0
LINE
  5
2B7F
330
1E
100
AcDbEntity
  8
7
100
AcDbLine
 10
-1.697596665779554
 20
11.71985143870168
 30
0.0
 11
-0.9180691067244364
 21
11.31565196363606
 31
0.0
  0
LINE
  5
2B80
330
1E
100
AcDbEntity
  8
7
100
AcDbLine
 10
-0.6634759308714182
 20
10.14504828909538
 30
0.0
 11
-1.757964119847795
 21
10.4993789977568
 31
0.0
  0
LINE
  5
2B81
330
1E
100
AcDbEntity
  8
7
100
AcDbLine
 10
1.997941391963227
 20
8.208040415079636
 30
0.0
 11
-2.503370943994777
 21
8.208040415079636
 31
0.0
  0
LINE
  5
2B82
330
1E
100
AcDbEntity
  8
7
100
AcDbLine
 10
-2.752714776015775
 20
8.460008919016644
 30
0.0
 11
-2.752714776015775
 21
12.95869658305863
 31
0.0
  0
LINE
  5
2B83
330
1E
100
AcDbEntity
  8
7
100
AcDbLine
 10
-2.503370943994777
 20
13.20804041507963
 30
0.0
 11
1.997941391963227
 21
13.20804041507963
 31
0.0
  0
LINE
  5
2B84
330
1E
100
AcDbEntity
  8
7
100
AcDbLine
 10
2.247285223984224
 20
12.95869658305863
 30
0.0
 11
2.247285223984224
 21
8.460008919016644
 31
0.0
  0
LINE
  5
2C47
330
1E
100
AcDbEntity
  8
7
100
AcDbLine
 10
-2.503370943994777
 20
5.861583722166248
 30
0.0
 11
-2.503370943994777
 21
5.60961521822924
 31
0.0
  0
LINE
  5
2C48
330
1E
100
AcDbEntity
  8
7
100
AcDbLine
 10
-2.503370943994777
 20
5.591242514817166
 30
0.0
 11
-2.503370943994777
 21
5.129300257599319
 31
0.0
  0
LINE
  5
2C49
330
1E
100
AcDbEntity
  8
7
100
AcDbLine
 10
-2.503370943994777
 20
5.110927554187246
 30
0.0
 11
-2.503370943994777
 21
4.861583722166249
 31
0.0
  0
LINE
  5
2C4A
330
1E
100
AcDbEntity
  8
7
100
AcDbLine
 10
1.997941391963227
 20
4.861583722166249
 30
0.0
 11
1.997941391963227
 21
5.861583722166248
 31
0.0
  0
LINE
  5
2C4B
330
1E
100
AcDbEntity
  8
7
100
AcDbLine
 10
-2.592609789139135
 20
5.129300257599319
 30
0.0
 11
-2.592609789139135
 21
5.110927554187246
 31
0.0
  0
LINE
  5
2C4C
330
1E
100
AcDbEntity
  8
7
100
AcDbLine
 10
-2.592609789139135
 20
5.60961521822924
 30
0.0
 11
-2.592609789139135
 21
5.591242514817166
 31
0.0
  0
LINE
  5
2C4D
330
1E
100
AcDbEntity
  8
7
100
AcDbLine
 10
1.997941391963227
 20
5.861583722166248
 30
0.0
 11
-2.503370943994777
 21
5.861583722166248
 31
0.0
  0
LINE
  5
2C54
330
1E
100
AcDbEntity
  8
7
100
AcDbLine
 10
-2.752714776015775
 20
5.861583722166248
 30
0.0
 11
-2.752714776015775
 21
6.110927554187245
 31
0.0
  0
LINE
  5
2C55
330
1E
100
AcDbEntity
  8
7
100
AcDbLine
 10
2.247285223984224
 20
6.110927554187245
 30
0.0
 11
2.247285223984224
 21
5.861583722166248
 31
0.0
  0
LINE
  5
2C87
330
1E
100
AcDbEntity
  8
7
100
AcDbLine
 10
-1.377386692026273
 20
4.984943302218741
 30
0.0
 11
-1.377386692026273
 21
5.735599470197744
 31
0.0
  0
LINE
  5
2C88
330
1E
100
AcDbEntity
  8
7
100
AcDbLine
 10
2.247285223984224
 20
4.861583722166249
 30
0.0
 11
2.247285223984224
 21
4.60961521822924
 31
0.0
  0
LINE
  5
2C89
330
1E
100
AcDbEntity
  8
7
100
AcDbLine
 10
-2.752714776015775
 20
4.60961521822924
 30
0.0
 11
-2.752714776015775
 21
4.861583722166249
 31
0.0
  0
LINE
  5
2C8F
330
1E
100
AcDbEntity
  8
7
100
AcDbLine
 10
-2.503370943994777
 20
4.861583722166249
 30
0.0
 11
-2.503370943994777
 21
4.60961521822924
 31
0.0
  0
LINE
  5
2CA5
330
1E
100
AcDbEntity
  8
7
100
AcDbLine
 10
-1.503370943994776
 20
4.984943302218741
 30
0.0
 11
-1.377386692026273
 21
4.984943302218741
 31
0.0
  0
LINE
  5
2CA6
330
1E
100
AcDbEntity
  8
7
100
AcDbLine
 10
-1.503370943994776
 20
4.984943302218741
 30
0.0
 11
-1.503370943994776
 21
5.735599470197744
 31
0.0
  0
LINE
  5
2CA7
330
1E
100
AcDbEntity
  8
7
100
AcDbLine
 10
-2.36951267627824
 20
4.984943302218741
 30
0.0
 11
-2.36951267627824
 21
5.735599470197744
 31
0.0
  0
LINE
  5
2CA8
330
1E
100
AcDbEntity
  8
7
100
AcDbLine
 10
-2.36951267627824
 20
4.984943302218741
 30
0.0
 11
-1.503370943994776
 21
4.984943302218741
 31
0.0
  0
LINE
  5
2CA9
330
1E
100
AcDbEntity
  8
7
100
AcDbLine
 10
-2.576861757643071
 20
5.60961521822924
 30
0.0
 11
-2.36951267627824
 21
5.60961521822924
 31
0.0
  0
LINE
  5
2CAA
330
1E
100
AcDbEntity
  8
7
100
AcDbLine
 10
-2.576861757643071
 20
5.60961521822924
 30
0.0
 11
-2.576861757643071
 21
5.591242514817166
 31
0.0
  0
LINE
  5
2CC6
330
1E
100
AcDbEntity
  8
7
100
AcDbLine
 10
6.546497822409421
 20
11.64373595313737
 30
0.0
 11
6.278781286976349
 21
11.91145248857044
 31
0.0
  0
LINE
  5
2CC7
330
1E
100
AcDbEntity
  8
7
100
AcDbLine
 10
6.189542441831993
 20
11.8248383153421
 30
0.0
 11
6.45463430534905
 21
11.55712177990902
 31
0.0
  0
LINE
  5
2CC8
330
1E
100
AcDbEntity
  8
7
100
AcDbLine
 10
7.260408583564275
 20
10.92982519198252
 30
0.0
 11
6.990067376215193
 21
11.2001663993316
 31
0.0
  0
LINE
  5
2CC9
330
1E
100
AcDbEntity
  8
7
100
AcDbLine
 10
6.898203859154827
 20
11.11617689801926
 30
0.0
 11
7.165920394587899
 21
10.84846036258619
 31
0.0
  0
LINE
  5
2CCA
330
1E
100
AcDbEntity
  8
7
100
AcDbLine
 10
7.8667077961627
 20
10.32352597938409
 30
0.0
 11
7.596366588813618
 21
10.59386718673317
 31
0.0
  0
LINE
  5
2CCB
330
1E
100
AcDbEntity
  8
7
100
AcDbLine
 10
7.515001759417292
 20
10.4993789977568
 30
0.0
 11
7.782718294850363
 21
10.23166246232372
 31
0.0
  0
LINE
  5
2CCC
330
1E
100
AcDbEntity
  8
7
100
AcDbLine
 10
6.984818032383174
 20
10.21328975891165
 30
0.0
 11
7.255159239732255
 21
10.48363096626073
 31
0.0
  0
LINE
  5
2CCD
330
1E
100
AcDbEntity
  8
7
100
AcDbLine
 10
7.160671050755874
 20
10.56762046757307
 30
0.0
 11
6.892954515322803
 21
10.29990393214
 31
0.0
  0
LINE
  5
2CCE
330
1E
100
AcDbEntity
  8
7
100
AcDbLine
 10
7.591117244981598
 20
10.81958897151007
 30
0.0
 11
7.86408312424669
 21
11.09255485077517
 31
0.0
  0
LINE
  5
2CCF
330
1E
100
AcDbEntity
  8
7
100
AcDbLine
 10
7.777468951018343
 20
11.18179369591952
 30
0.0
 11
7.507127743669262
 21
10.91407716048645
 31
0.0
  0
LINE
  5
2CD0
330
1E
100
AcDbEntity
  8
7
100
AcDbLine
 10
6.900828531070837
 20
11.28940524447595
 30
0.0
 11
6.633111995637766
 21
11.55712177990902
 31
0.0
  0
LINE
  5
2CD1
330
1E
100
AcDbEntity
  8
7
100
AcDbLine
 10
6.543873150493411
 20
11.47050760668068
 30
0.0
 11
6.808965014010468
 21
11.20279107124761
 31
0.0
  0
LINE
  5
2CD2
330
1E
100
AcDbEntity
  8
7
100
AcDbLine
 10
8.223663176740126
 20
9.966570598806667
 30
0.0
 11
7.955946641307055
 21
10.23428713423973
 31
0.0
  0
LINE
  5
2CD3
330
1E
100
AcDbEntity
  8
7
100
AcDbLine
 10
7.86933246807871
 20
10.14242361717937
 30
0.0
 11
8.13704900351178
 21
9.877331753662311
 31
0.0
  0
LINE
  5
2CD4
330
1E
100
AcDbEntity
  8
7
100
AcDbLine
 10
6.627862651805746
 20
9.856334378334228
 30
0.0
 11
6.895579187238817
 21
10.12405091376729
 31
0.0
  0
LINE
  5
2CD5
330
1E
100
AcDbEntity
  8
7
100
AcDbLine
 10
6.806340342094458
 20
10.21066508699564
 30
0.0
 11
6.538623806661386
 21
9.945573223478582
 31
0.0
  0
LINE
  5
2CD6
330
1E
100
AcDbEntity
  8
7
100
AcDbLine
 10
7.950697297475035
 20
11.17916902400351
 30
0.0
 11
8.218413832908106
 21
11.44688555943659
 31
0.0
  0
LINE
  5
2CD7
330
1E
100
AcDbEntity
  8
7
100
AcDbLine
 10
8.13179965967976
 20
11.53612440458094
 30
0.0
 11
7.86408312424669
 21
11.27103254106388
 31
0.0
  0
LINE
  5
2CD8
330
1E
100
AcDbEntity
  8
7
100
AcDbLine
 10
8.577993885401543
 20
9.61223989014525
 30
0.0
 11
8.310277349968473
 21
9.87995642557832
 31
0.0
  0
LINE
  5
2CD9
330
1E
100
AcDbEntity
  8
7
100
AcDbLine
 10
8.223663176740126
 20
9.788092908517953
 30
0.0
 11
8.491379712173198
 21
9.523001045000894
 31
0.0
  0
LINE
  5
2CDA
330
1E
100
AcDbEntity
  8
7
100
AcDbLine
 10
8.932324594062961
 20
9.257909181483832
 30
0.0
 11
8.667232730545904
 21
9.525625716916904
 31
0.0
  0
LINE
  5
2CDB
330
1E
100
AcDbEntity
  8
7
100
AcDbLine
 10
8.577993885401543
 20
9.433762199856536
 30
0.0
 11
8.845710420834615
 21
9.168670336339477
 31
0.0
  0
LINE
  5
2CDC
330
1E
100
AcDbEntity
  8
7
100
AcDbLine
 10
6.189542441831993
 20
12.0006913337148
 30
0.0
 11
5.924450578314932
 21
12.26578319723186
 31
0.0
  0
LINE
  5
2CDD
330
1E
100
AcDbEntity
  8
7
100
AcDbLine
 10
5.835211733170576
 20
12.17916902400351
 30
0.0
 11
6.100303596687633
 21
11.91145248857044
 31
0.0
  0
LINE
  5
2CDE
330
1E
100
AcDbEntity
  8
7
100
AcDbLine
 10
8.307652678052463
 20
11.53612440458094
 30
0.0
 11
8.572744541569523
 21
11.801216268098
 31
0.0
  0
LINE
  5
2CDF
330
1E
100
AcDbEntity
  8
7
100
AcDbLine
 10
8.486130368341179
 20
11.89045511324236
 30
0.0
 11
8.218413832908106
 21
11.6253632497253
 31
0.0
  0
LINE
  5
2CE0
330
1E
100
AcDbEntity
  8
7
100
AcDbLine
 10
6.273531943144329
 20
9.502003669672809
 30
0.0
 11
6.541248478577401
 21
9.769720205105882
 31
0.0
  0
LINE
  5
2CE1
330
1E
100
AcDbEntity
  8
7
100
AcDbLine
 10
6.45200963343304
 20
9.856334378334228
 30
0.0
 11
6.184293097999969
 21
9.591242514817166
 31
0.0
  0
LINE
  5
2CE2
330
1E
100
AcDbEntity
  8
7
100
AcDbLine
 10
5.919201234482912
 20
9.147672961011393
 30
0.0
 11
6.184293097999969
 21
9.415389496444465
 31
0.0
  0
LINE
  5
2CE3
330
1E
100
AcDbEntity
  8
7
100
AcDbLine
 10
6.097678924771623
 20
9.502003669672809
 30
0.0
 11
5.829962389338551
 21
9.236911806155749
 31
0.0
  0
LINE
  5
2CE4
330
1E
100
AcDbEntity
  8
7
100
AcDbLine
 10
8.661983386713879
 20
11.89045511324236
 30
0.0
 11
8.927075250230942
 21
12.15554697675942
 31
0.0
  0
LINE
  5
2CE5
330
1E
100
AcDbEntity
  8
7
100
AcDbLine
 10
8.840461077002595
 20
12.24478582190378
 30
0.0
 11
8.572744541569523
 21
11.97969395838672
 31
0.0
  0
LINE
  5
2CE6
330
1E
100
AcDbEntity
  8
7
100
AcDbLine
 10
8.932324594062961
 20
9.079431491195119
 30
0.0
 11
9.239411208236191
 21
8.774969548937903
 31
0.0
  0
LINE
  5
2CE7
330
1E
100
AcDbEntity
  8
7
100
AcDbLine
 10
9.328650053380545
 20
8.861583722166248
 30
0.0
 11
9.021563439207321
 21
9.168670336339477
 31
0.0
  0
LINE
  5
2CE8
330
1E
100
AcDbEntity
  8
7
100
AcDbLine
 10
5.835211733170576
 20
12.35502204237622
 30
0.0
 11
5.546497822409421
 21
12.64373595313737
 31
0.0
  0
LINE
  5
2CE9
330
1E
100
AcDbEntity
  8
7
100
AcDbLine
 10
5.457258977265065
 20
12.55712177990903
 30
0.0
 11
5.745972888026216
 21
12.26578319723186
 31
0.0
  0
LINE
  5
2CEA
330
1E
100
AcDbEntity
  8
7
100
AcDbLine
 10
5.743348216110206
 20
9.147672961011393
 30
0.0
 11
5.457258977265065
 21
8.864208394082261
 31
0.0
  0
LINE
  5
2CEB
330
1E
100
AcDbEntity
  8
7
100
AcDbLine
 10
5.546497822409421
 20
8.774969548937903
 30
0.0
 11
5.829962389338551
 21
9.061058787783046
 31
0.0
  0
LINE
  5
2CEC
330
1E
100
AcDbEntity
  8
7
100
AcDbLine
 10
9.016314095375296
 20
12.24478582190378
 30
0.0
 11
9.326025381464535
 21
12.55449710799302
 31
0.0
  0
LINE
  5
2CED
330
1E
100
AcDbEntity
  8
7
100
AcDbLine
 10
9.239411208236191
 20
12.64636062505338
 30
0.0
 11
8.927075250230942
 21
12.33402466704814
 31
0.0
  0
LINE
  5
2CFA
330
1E
100
AcDbEntity
  8
7
100
AcDbLine
 10
7.34439808487661
 20
10.9508225673106
 30
0.0
 11
7.260408583564275
 21
10.92720052006651
 31
0.0
  0
LINE
  5
2D06
330
1E
100
AcDbEntity
  8
7
100
AcDbLine
 10
7.619988636057712
 20
10.70410340720561
 30
0.0
 11
7.612114620309682
 21
10.76447086127386
 31
0.0
  0
LINE
  5
2D07
330
1E
100
AcDbEntity
  8
7
100
AcDbLine
 10
7.612114620309682
 20
10.76447086127386
 30
0.0
 11
7.591117244981598
 21
10.81958897151007
 31
0.0
  0
LINE
  5
2D11
330
1E
100
AcDbEntity
  8
7
100
AcDbLine
 10
6.189542441831993
 20
11.8248383153421
 30
0.0
 11
6.058308846031465
 21
11.66473332846545
 31
0.0
  0
LINE
  5
2D6A
330
1E
100
AcDbEntity
  8
7
100
AcDbLine
 10
6.895579187238817
 20
10.12405091376729
 30
0.0
 11
7.003190735795247
 21
10.04793542820299
 31
0.0
  0
LINE
  5
2DAD
330
1E
100
AcDbEntity
  8
7
100
AcDbLine
 10
8.606865276477662
 20
10.5256257169169
 30
0.0
 11
8.619988636057712
 21
10.70410340720561
 31
0.0
  0
LINE
  5
2E24
330
1E
100
AcDbEntity
  8
7
100
AcDbLine
 10
6.898203859154827
 20
11.11355222610325
 30
0.0
 11
6.816839029758502
 21
10.99019264605076
 31
0.0
  0
LINE
  5
2EDF
330
1E
100
AcDbEntity
  8
7
100
AcDbLine
 10
6.543873150493411
 20
11.46788293476467
 30
0.0
 11
6.438886273852991
 21
11.33664933896414
 31
0.0
  0
LINE
  5
2F01
330
1E
100
AcDbEntity
  8
7
100
AcDbLine
 10
5.682980762041964
 20
9.412764824528451
 30
0.0
 11
5.832587061254566
 21
9.236911806155749
 31
0.0
  0
LINE
  5
2FA3
330
1E
100
AcDbEntity
  8
7
100
AcDbLine
 10
5.580618557317555
 20
12.77234487702189
 30
0.0
 11
5.570119869653515
 21
12.84846036258619
 31
0.0
  0
LINE
  5
2FEC
330
1E
100
AcDbEntity
  8
7
100
AcDbLine
 10
7.247285223984221
 20
10.57286981140509
 30
0.0
 11
7.257783911648265
 21
10.56499579565706
 31
0.0
  0
LINE
  5
2FED
330
1E
100
AcDbEntity
  8
7
100
AcDbLine
 10
7.247285223984221
 20
10.56499579565706
 30
0.0
 11
7.247285223984221
 21
10.57286981140509
 31
0.0
  0
LINE
  5
2FEE
330
1E
100
AcDbEntity
  8
7
100
AcDbLine
 10
7.257783911648265
 20
10.56499579565706
 30
0.0
 11
7.247285223984221
 21
10.56499579565706
 31
0.0
  0
LINE
  5
3058
330
1E
100
AcDbEntity
  8
7
100
AcDbLine
 10
7.515001759417292
 20
10.58336849906913
 30
0.0
 11
7.517626431333302
 21
10.58599317098514
 31
0.0
  0
LINE
  5
3059
330
1E
100
AcDbEntity
  8
7
100
AcDbLine
 10
7.515001759417292
 20
10.4993789977568
 30
0.0
 11
7.515001759417292
 21
10.50200366967281
 31
0.0
  0
LINE
  5
30C7
330
1E
100
AcDbEntity
  8
7
100
AcDbLine
 10
6.273531943144329
 20
9.502003669672809
 30
0.0
 11
6.265657927396294
 21
9.502003669672809
 31
0.0
  0
LINE
  5
318B
330
1E
100
AcDbEntity
  8
7
100
AcDbLine
 10
5.462508321097085
 20
8.780218892769923
 30
0.0
 11
5.462508321097085
 21
8.772344877021893
 31
0.0
  0
LINE
  5
318C
330
1E
100
AcDbEntity
  8
7
100
AcDbLine
 10
5.457258977265065
 20
8.780218892769923
 30
0.0
 11
5.462508321097085
 21
8.772344877021893
 31
0.0
  0
LINE
  5
318D
330
1E
100
AcDbEntity
  8
7
100
AcDbLine
 10
5.457258977265065
 20
8.780218892769923
 30
0.0
 11
5.462508321097085
 21
8.780218892769923
 31
0.0
  0
LINE
  5
31CA
330
1E
100
AcDbEntity
  8
7
100
AcDbLine
 10
8.577993885401543
 20
9.564995795657061
 30
0.0
 11
8.577993885401543
 21
9.523001045000894
 31
0.0
  0
LINE
  5
3282
330
1E
100
AcDbEntity
  8
7
100
AcDbLine
 10
7.467757664929104
 20
10.54662309224498
 30
0.0
 11
7.515001759417292
 21
10.58336849906913
 31
0.0
  0
LINE
  5
328F
330
1E
100
AcDbEntity
  8
7
100
AcDbLine
 10
9.328650053380545
 20
12.63848660930535
 30
0.0
 11
9.320776037632516
 21
12.64636062505338
 31
0.0
  0
LINE
  5
3295
330
1E
100
AcDbEntity
  8
7
100
AcDbLine
 10
9.320776037632516
 20
8.772344877021893
 30
0.0
 11
9.328650053380545
 21
8.780218892769923
 31
0.0
  0
LINE
  5
3296
330
1E
100
AcDbEntity
  8
7
100
AcDbLine
 10
9.320776037632516
 20
8.772344877021893
 30
0.0
 11
9.320776037632516
 21
8.780218892769923
 31
0.0
  0
LINE
  5
3297
330
1E
100
AcDbEntity
  8
7
100
AcDbLine
 10
5.829962389338551
 20
6.239536478071761
 30
0.0
 11
5.515001759417293
 21
6.239536478071761
 31
0.0
  0
LINE
  5
3298
330
1E
100
AcDbEntity
  8
7
100
AcDbLine
 10
5.515001759417293
 20
6.116176898019268
 30
0.0
 11
5.829962389338551
 21
6.116176898019268
 31
0.0
  0
LINE
  5
3299
330
1E
100
AcDbEntity
  8
7
100
AcDbLine
 10
8.932324594062961
 20
6.116176898019268
 30
0.0
 11
9.265657927396294
 21
6.116176898019268
 31
0.0
  0
LINE
  5
329A
330
1E
100
AcDbEntity
  8
7
100
AcDbLine
 10
9.265657927396294
 20
6.239536478071761
 30
0.0
 11
8.932324594062961
 21
6.239536478071761
 31
0.0
  0
LINE
  5
32A3
330
1E
100
AcDbEntity
  8
7
100
AcDbLine
 10
9.265657927396294
 20
6.239536478071761
 30
0.0
 11
9.228912520572151
 21
6.229037790407719
 31
0.0
  0
LINE
  5
331D
330
1E
100
AcDbEntity
  8
7
100
AcDbLine
 10
9.643610683301805
 20
6.239536478071761
 30
0.0
 11
9.640986011385795
 21
6.239536478071761
 31
0.0
  0
LINE
  5
331E
330
1E
100
AcDbEntity
  8
7
100
AcDbLine
 10
9.640986011385795
 20
6.116176898019268
 30
0.0
 11
9.643610683301805
 21
6.116176898019268
 31
0.0
  0
LINE
  5
333B
330
1E
100
AcDbEntity
  8
7
100
AcDbLine
 10
7.252534567816245
 20
6.239536478071761
 30
0.0
 11
7.247285223984221
 21
6.239536478071761
 31
0.0
  0
LINE
  5
333C
330
1E
100
AcDbEntity
  8
7
100
AcDbLine
 10
7.247285223984221
 20
6.116176898019268
 30
0.0
 11
7.252534567816245
 21
6.116176898019268
 31
0.0
  0
LINE
  5
4065
330
1E
100
AcDbEntity
  8
7
100
AcDbLine
 10
5.829962389338551
 20
6.116176898019268
 30
0.0
 11
5.829962389338551
 21
6.118801569935278
 31
0.0
  0
LINE
  5
4066
330
1E
100
AcDbEntity
  8
7
100
AcDbLine
 10
5.829962389338551
 20
6.118801569935278
 30
0.0
 11
5.829962389338551
 21
6.12930025759932
 31
0.0
  0
LINE
  5
4067
330
1E
100
AcDbEntity
  8
7
100
AcDbLine
 10
5.829962389338551
 20
6.12930025759932
 30
0.0
 11
5.829962389338551
 21
6.145048289095384
 31
0.0
  0
LINE
  5
4068
330
1E
100
AcDbEntity
  8
7
100
AcDbLine
 10
5.829962389338551
 20
6.145048289095384
 30
0.0
 11
5.829962389338551
 21
6.158171648675436
 31
0.0
  0
LINE
  5
4069
330
1E
100
AcDbEntity
  8
7
100
AcDbLine
 10
5.829962389338551
 20
6.158171648675436
 30
0.0
 11
5.829962389338551
 21
6.173919680171497
 31
0.0
  0
LINE
  5
406A
330
1E
100
AcDbEntity
  8
7
100
AcDbLine
 10
5.829962389338551
 20
6.173919680171497
 30
0.0
 11
5.829962389338551
 21
6.189667711667562
 31
0.0
  0
LINE
  5
406B
330
1E
100
AcDbEntity
  8
7
100
AcDbLine
 10
5.829962389338551
 20
6.189667711667562
 30
0.0
 11
5.829962389338551
 21
6.205415743163623
 31
0.0
  0
LINE
  5
406C
330
1E
100
AcDbEntity
  8
7
100
AcDbLine
 10
5.829962389338551
 20
6.205415743163623
 30
0.0
 11
5.829962389338551
 21
6.221163774659688
 31
0.0
  0
LINE
  5
406D
330
1E
100
AcDbEntity
  8
7
100
AcDbLine
 10
5.829962389338551
 20
6.221163774659688
 30
0.0
 11
5.829962389338551
 21
6.234287134239739
 31
0.0
  0
LINE
  5
406E
330
1E
100
AcDbEntity
  8
7
100
AcDbLine
 10
5.829962389338551
 20
6.234287134239739
 30
0.0
 11
5.829962389338551
 21
6.239536478071761
 31
0.0
  0
LINE
  5
406F
330
1E
100
AcDbEntity
  8
7
100
AcDbLine
 10
8.932324594062961
 20
6.184418367835539
 30
0.0
 11
8.932324594062961
 21
6.168670336339477
 31
0.0
  0
LINE
  5
4070
330
1E
100
AcDbEntity
  8
7
100
AcDbLine
 10
8.932324594062961
 20
6.168670336339477
 30
0.0
 11
8.932324594062961
 21
6.155546976759426
 31
0.0
  0
LINE
  5
4071
330
1E
100
AcDbEntity
  8
7
100
AcDbLine
 10
8.932324594062961
 20
6.155546976759426
 30
0.0
 11
8.932324594062961
 21
6.134549601431341
 31
0.0
  0
LINE
  5
4072
330
1E
100
AcDbEntity
  8
7
100
AcDbLine
 10
8.932324594062961
 20
6.134549601431341
 30
0.0
 11
8.932324594062961
 21
6.121426241851287
 31
0.0
  0
LINE
  5
4073
330
1E
100
AcDbEntity
  8
7
100
AcDbLine
 10
8.932324594062961
 20
6.121426241851287
 30
0.0
 11
8.932324594062961
 21
6.116176898019268
 31
0.0
  0
LINE
  5
4074
330
1E
100
AcDbEntity
  8
7
100
AcDbLine
 10
8.932324594062961
 20
6.239536478071761
 30
0.0
 11
8.932324594062961
 21
6.229037790407719
 31
0.0
  0
LINE
  5
4075
330
1E
100
AcDbEntity
  8
7
100
AcDbLine
 10
8.932324594062961
 20
6.229037790407719
 30
0.0
 11
8.932324594062961
 21
6.213289758911655
 31
0.0
  0
LINE
  5
4076
330
1E
100
AcDbEntity
  8
7
100
AcDbLine
 10
8.932324594062961
 20
6.213289758911655
 30
0.0
 11
8.932324594062961
 21
6.200166399331603
 31
0.0
  0
LINE
  5
4077
330
1E
100
AcDbEntity
  8
7
100
AcDbLine
 10
8.932324594062961
 20
6.200166399331603
 30
0.0
 11
8.932324594062961
 21
6.184418367835539
 31
0.0
  0
LINE
  5
4078
330
1E
100
AcDbEntity
  8
7
100
AcDbLine
 10
9.643610683301805
 20
6.118801569935278
 30
0.0
 11
9.680356090125954
 21
6.12930025759932
 31
0.0
  0
LINE
  5
4079
330
1E
100
AcDbEntity
  8
7
100
AcDbLine
 10
9.680356090125954
 20
6.12930025759932
 30
0.0
 11
9.701353465454037
 21
6.160796320591446
 31
0.0
  0
LINE
  5
407A
330
1E
100
AcDbEntity
  8
7
100
AcDbLine
 10
9.701353465454037
 20
6.160796320591446
 30
0.0
 11
9.701353465454037
 21
6.197541727415593
 31
0.0
  0
LINE
  5
407B
330
1E
100
AcDbEntity
  8
7
100
AcDbLine
 10
9.701353465454037
 20
6.197541727415593
 30
0.0
 11
9.680356090125954
 21
6.229037790407719
 31
0.0
  0
LINE
  5
407C
330
1E
100
AcDbEntity
  8
7
100
AcDbLine
 10
9.680356090125954
 20
6.229037790407719
 30
0.0
 11
9.643610683301805
 21
6.239536478071761
 31
0.0
  0
LINE
  5
407D
330
1E
100
AcDbEntity
  8
7
100
AcDbLine
 10
8.577993885401543
 20
6.239536478071761
 30
0.0
 11
8.381143491700758
 21
6.239536478071761
 31
0.0
  0
LINE
  5
407E
330
1E
100
AcDbEntity
  8
7
100
AcDbLine
 10
8.381143491700758
 20
6.239536478071761
 30
0.0
 11
8.171169738419919
 21
6.239536478071761
 31
0.0
  0
LINE
  5
407F
330
1E
100
AcDbEntity
  8
7
100
AcDbLine
 10
8.171169738419919
 20
6.239536478071761
 30
0.0
 11
7.953321969391045
 21
6.239536478071761
 31
0.0
  0
LINE
  5
4080
330
1E
100
AcDbEntity
  8
7
100
AcDbLine
 10
7.953321969391045
 20
6.239536478071761
 30
0.0
 11
7.730224856530156
 21
6.239536478071761
 31
0.0
  0
LINE
  5
4081
330
1E
100
AcDbEntity
  8
7
100
AcDbLine
 10
7.730224856530156
 20
6.239536478071761
 30
0.0
 11
7.501878399837242
 21
6.239536478071761
 31
0.0
  0
LINE
  5
4082
330
1E
100
AcDbEntity
  8
7
100
AcDbLine
 10
7.501878399837242
 20
6.239536478071761
 30
0.0
 11
7.270907271228319
 21
6.239536478071761
 31
0.0
  0
LINE
  5
4083
330
1E
100
AcDbEntity
  8
7
100
AcDbLine
 10
7.270907271228319
 20
6.239536478071761
 30
0.0
 11
7.042560814535406
 21
6.239536478071761
 31
0.0
  0
LINE
  5
4084
330
1E
100
AcDbEntity
  8
7
100
AcDbLine
 10
7.042560814535406
 20
6.239536478071761
 30
0.0
 11
6.816839029758502
 21
6.239536478071761
 31
0.0
  0
LINE
  5
4085
330
1E
100
AcDbEntity
  8
7
100
AcDbLine
 10
6.816839029758502
 20
6.239536478071761
 30
0.0
 11
6.598991260729627
 21
6.239536478071761
 31
0.0
  0
LINE
  5
4086
330
1E
100
AcDbEntity
  8
7
100
AcDbLine
 10
6.598991260729627
 20
6.239536478071761
 30
0.0
 11
6.389017507448788
 21
6.239536478071761
 31
0.0
  0
LINE
  5
4087
330
1E
100
AcDbEntity
  8
7
100
AcDbLine
 10
6.389017507448788
 20
6.239536478071761
 30
0.0
 11
6.189542441831993
 21
6.239536478071761
 31
0.0
  0
LINE
  5
4088
330
1E
100
AcDbEntity
  8
7
100
AcDbLine
 10
6.189542441831993
 20
6.239536478071761
 30
0.0
 11
6.000566063879237
 21
6.239536478071761
 31
0.0
  0
LINE
  5
4089
330
1E
100
AcDbEntity
  8
7
100
AcDbLine
 10
6.000566063879237
 20
6.239536478071761
 30
0.0
 11
5.829962389338551
 21
6.239536478071761
 31
0.0
  0
LINE
  5
408A
330
1E
100
AcDbEntity
  8
7
100
AcDbLine
 10
8.932324594062961
 20
6.239536478071761
 30
0.0
 11
8.764345591438289
 21
6.239536478071761
 31
0.0
  0
LINE
  5
408B
330
1E
100
AcDbEntity
  8
7
100
AcDbLine
 10
8.764345591438289
 20
6.239536478071761
 30
0.0
 11
8.577993885401543
 21
6.239536478071761
 31
0.0
  0
LINE
  5
408C
330
1E
100
AcDbEntity
  8
7
100
AcDbLine
 10
5.829962389338551
 20
6.116176898019268
 30
0.0
 11
6.003190735795247
 21
6.116176898019268
 31
0.0
  0
LINE
  5
408D
330
1E
100
AcDbEntity
  8
7
100
AcDbLine
 10
6.003190735795247
 20
6.116176898019268
 30
0.0
 11
6.189542441831993
 21
6.116176898019268
 31
0.0
  0
LINE
  5
408E
330
1E
100
AcDbEntity
  8
7
100
AcDbLine
 10
6.189542441831993
 20
6.116176898019268
 30
0.0
 11
6.389017507448788
 21
6.116176898019268
 31
0.0
  0
LINE
  5
408F
330
1E
100
AcDbEntity
  8
7
100
AcDbLine
 10
6.389017507448788
 20
6.116176898019268
 30
0.0
 11
6.598991260729627
 21
6.116176898019268
 31
0.0
  0
LINE
  5
4090
330
1E
100
AcDbEntity
  8
7
100
AcDbLine
 10
6.598991260729627
 20
6.116176898019268
 30
0.0
 11
6.816839029758502
 21
6.116176898019268
 31
0.0
  0
LINE
  5
4091
330
1E
100
AcDbEntity
  8
7
100
AcDbLine
 10
6.816839029758502
 20
6.116176898019268
 30
0.0
 11
7.042560814535406
 21
6.116176898019268
 31
0.0
  0
LINE
  5
4092
330
1E
100
AcDbEntity
  8
7
100
AcDbLine
 10
7.042560814535406
 20
6.116176898019268
 30
0.0
 11
7.270907271228319
 21
6.116176898019268
 31
0.0
  0
LINE
  5
4093
330
1E
100
AcDbEntity
  8
7
100
AcDbLine
 10
7.270907271228319
 20
6.116176898019268
 30
0.0
 11
7.501878399837242
 21
6.116176898019268
 31
0.0
  0
LINE
  5
4094
330
1E
100
AcDbEntity
  8
7
100
AcDbLine
 10
7.501878399837242
 20
6.116176898019268
 30
0.0
 11
7.730224856530156
 21
6.116176898019268
 31
0.0
  0
LINE
  5
4095
330
1E
100
AcDbEntity
  8
7
100
AcDbLine
 10
7.730224856530156
 20
6.116176898019268
 30
0.0
 11
7.953321969391045
 21
6.116176898019268
 31
0.0
  0
LINE
  5
4096
330
1E
100
AcDbEntity
  8
7
100
AcDbLine
 10
7.953321969391045
 20
6.116176898019268
 30
0.0
 11
8.171169738419919
 21
6.116176898019268
 31
0.0
  0
LINE
  5
4097
330
1E
100
AcDbEntity
  8
7
100
AcDbLine
 10
8.171169738419919
 20
6.116176898019268
 30
0.0
 11
8.381143491700758
 21
6.116176898019268
 31
0.0
  0
LINE
  5
4098
330
1E
100
AcDbEntity
  8
7
100
AcDbLine
 10
8.381143491700758
 20
6.116176898019268
 30
0.0
 11
8.577993885401543
 21
6.116176898019268
 31
0.0
  0
LINE
  5
4099
330
1E
100
AcDbEntity
  8
7
100
AcDbLine
 10
8.577993885401543
 20
6.116176898019268
 30
0.0
 11
8.764345591438289
 21
6.116176898019268
 31
0.0
  0
LINE
  5
409A
330
1E
100
AcDbEntity
  8
7
100
AcDbLine
 10
8.764345591438289
 20
6.116176898019268
 30
0.0
 11
8.932324594062961
 21
6.116176898019268
 31
0.0
  0
LINE
  5
409B
330
1E
100
AcDbEntity
  8
7
100
AcDbLine
 10
5.139673675427792
 20
6.116176898019268
 30
0.0
 11
5.152797035007846
 21
6.116176898019268
 31
0.0
  0
LINE
  5
409C
330
1E
100
AcDbEntity
  8
7
100
AcDbLine
 10
5.152797035007846
 20
6.116176898019268
 30
0.0
 11
5.184293097999969
 21
6.116176898019268
 31
0.0
  0
LINE
  5
409D
330
1E
100
AcDbEntity
  8
7
100
AcDbLine
 10
5.184293097999969
 20
6.116176898019268
 30
0.0
 11
5.234161864404171
 21
6.116176898019268
 31
0.0
  0
LINE
  5
409E
330
1E
100
AcDbEntity
  8
7
100
AcDbLine
 10
5.234161864404171
 20
6.116176898019268
 30
0.0
 11
5.294529318472413
 21
6.116176898019268
 31
0.0
  0
LINE
  5
409F
330
1E
100
AcDbEntity
  8
7
100
AcDbLine
 10
5.294529318472413
 20
6.116176898019268
 30
0.0
 11
5.360146116372675
 21
6.116176898019268
 31
0.0
  0
LINE
  5
40A0
330
1E
100
AcDbEntity
  8
7
100
AcDbLine
 10
5.360146116372675
 20
6.116176898019268
 30
0.0
 11
5.423138242356927
 21
6.116176898019268
 31
0.0
  0
LINE
  5
40A1
330
1E
100
AcDbEntity
  8
7
100
AcDbLine
 10
5.423138242356927
 20
6.116176898019268
 30
0.0
 11
5.473007008761125
 21
6.116176898019268
 31
0.0
  0
LINE
  5
40A2
330
1E
100
AcDbEntity
  8
7
100
AcDbLine
 10
5.473007008761125
 20
6.116176898019268
 30
0.0
 11
5.504503071753253
 21
6.116176898019268
 31
0.0
  0
LINE
  5
40A3
330
1E
100
AcDbEntity
  8
7
100
AcDbLine
 10
5.504503071753253
 20
6.116176898019268
 30
0.0
 11
5.515001759417293
 21
6.116176898019268
 31
0.0
  0
LINE
  5
40A4
330
1E
100
AcDbEntity
  8
7
100
AcDbLine
 10
5.360146116372675
 20
6.239536478071761
 30
0.0
 11
5.294529318472413
 21
6.239536478071761
 31
0.0
  0
LINE
  5
40A5
330
1E
100
AcDbEntity
  8
7
100
AcDbLine
 10
5.294529318472413
 20
6.239536478071761
 30
0.0
 11
5.234161864404171
 21
6.239536478071761
 31
0.0
  0
LINE
  5
40A6
330
1E
100
AcDbEntity
  8
7
100
AcDbLine
 10
5.234161864404171
 20
6.239536478071761
 30
0.0
 11
5.184293097999969
 21
6.239536478071761
 31
0.0
  0
LINE
  5
40A7
330
1E
100
AcDbEntity
  8
7
100
AcDbLine
 10
5.184293097999969
 20
6.239536478071761
 30
0.0
 11
5.152797035007846
 21
6.239536478071761
 31
0.0
  0
LINE
  5
40A8
330
1E
100
AcDbEntity
  8
7
100
AcDbLine
 10
5.152797035007846
 20
6.239536478071761
 30
0.0
 11
5.139673675427792
 21
6.239536478071761
 31
0.0
  0
LINE
  5
40A9
330
1E
100
AcDbEntity
  8
7
100
AcDbLine
 10
5.515001759417293
 20
6.239536478071761
 30
0.0
 11
5.504503071753253
 21
6.239536478071761
 31
0.0
  0
LINE
  5
40AA
330
1E
100
AcDbEntity
  8
7
100
AcDbLine
 10
5.504503071753253
 20
6.239536478071761
 30
0.0
 11
5.473007008761125
 21
6.239536478071761
 31
0.0
  0
LINE
  5
40AB
330
1E
100
AcDbEntity
  8
7
100
AcDbLine
 10
5.473007008761125
 20
6.239536478071761
 30
0.0
 11
5.423138242356927
 21
6.239536478071761
 31
0.0
  0
LINE
  5
40AC
330
1E
100
AcDbEntity
  8
7
100
AcDbLine
 10
5.423138242356927
 20
6.239536478071761
 30
0.0
 11
5.360146116372675
 21
6.239536478071761
 31
0.0
  0
LINE
  5
40AD
330
1E
100
AcDbEntity
  8
7
100
AcDbLine
 10
5.139673675427792
 20
6.239536478071761
 30
0.0
 11
5.102928268603648
 21
6.229037790407719
 31
0.0
  0
LINE
  5
40AE
330
1E
100
AcDbEntity
  8
7
100
AcDbLine
 10
5.102928268603648
 20
6.229037790407719
 30
0.0
 11
5.081930893275564
 21
6.197541727415593
 31
0.0
  0
LINE
  5
40AF
330
1E
100
AcDbEntity
  8
7
100
AcDbLine
 10
5.081930893275564
 20
6.197541727415593
 30
0.0
 11
5.081930893275564
 21
6.160796320591446
 31
0.0
  0
LINE
  5
40B0
330
1E
100
AcDbEntity
  8
7
100
AcDbLine
 10
5.081930893275564
 20
6.160796320591446
 30
0.0
 11
5.102928268603648
 21
6.12930025759932
 31
0.0
  0
LINE
  5
40B1
330
1E
100
AcDbEntity
  8
7
100
AcDbLine
 10
5.102928268603648
 20
6.12930025759932
 30
0.0
 11
5.139673675427792
 21
6.118801569935278
 31
0.0
  0
LINE
  5
40B2
330
1E
100
AcDbEntity
  8
7
100
AcDbLine
 10
5.515001759417293
 20
6.118801569935278
 30
0.0
 11
5.55174716624144
 21
6.12930025759932
 31
0.0
  0
LINE
  5
40B3
330
1E
100
AcDbEntity
  8
7
100
AcDbLine
 10
5.55174716624144
 20
6.12930025759932
 30
0.0
 11
5.572744541569525
 21
6.160796320591446
 31
0.0
  0
LINE
  5
40B4
330
1E
100
AcDbEntity
  8
7
100
AcDbLine
 10
5.572744541569525
 20
6.160796320591446
 30
0.0
 11
5.572744541569525
 21
6.197541727415593
 31
0.0
  0
LINE
  5
40B5
330
1E
100
AcDbEntity
  8
7
100
AcDbLine
 10
5.572744541569525
 20
6.197541727415593
 30
0.0
 11
5.55174716624144
 21
6.229037790407719
 31
0.0
  0
LINE
  5
40B6
330
1E
100
AcDbEntity
  8
7
100
AcDbLine
 10
5.55174716624144
 20
6.229037790407719
 30
0.0
 11
5.515001759417293
 21
6.239536478071761
 31
0.0
  0
LINE
  5
40B7
330
1E
100
AcDbEntity
  8
7
100
AcDbLine
 10
9.265657927396294
 20
6.116176898019268
 30
0.0
 11
9.276156615060338
 21
6.116176898019268
 31
0.0
  0
LINE
  5
40B8
330
1E
100
AcDbEntity
  8
7
100
AcDbLine
 10
9.276156615060338
 20
6.116176898019268
 30
0.0
 11
9.310277349968473
 21
6.116176898019268
 31
0.0
  0
LINE
  5
40B9
330
1E
100
AcDbEntity
  8
7
100
AcDbLine
 10
9.310277349968473
 20
6.116176898019268
 30
0.0
 11
9.360146116372675
 21
6.116176898019268
 31
0.0
  0
LINE
  5
40BA
330
1E
100
AcDbEntity
  8
7
100
AcDbLine
 10
9.360146116372675
 20
6.116176898019268
 30
0.0
 11
9.420513570440917
 21
6.116176898019268
 31
0.0
  0
LINE
  5
40BB
330
1E
100
AcDbEntity
  8
7
100
AcDbLine
 10
9.420513570440917
 20
6.116176898019268
 30
0.0
 11
9.486130368341179
 21
6.116176898019268
 31
0.0
  0
LINE
  5
40BC
330
1E
100
AcDbEntity
  8
7
100
AcDbLine
 10
9.486130368341179
 20
6.116176898019268
 30
0.0
 11
9.546497822409421
 21
6.116176898019268
 31
0.0
  0
LINE
  5
40BD
330
1E
100
AcDbEntity
  8
7
100
AcDbLine
 10
9.546497822409421
 20
6.116176898019268
 30
0.0
 11
9.596366588813618
 21
6.116176898019268
 31
0.0
  0
LINE
  5
40BE
330
1E
100
AcDbEntity
  8
7
100
AcDbLine
 10
9.596366588813618
 20
6.116176898019268
 30
0.0
 11
9.630487323721755
 21
6.116176898019268
 31
0.0
  0
LINE
  5
40BF
330
1E
100
AcDbEntity
  8
7
100
AcDbLine
 10
9.630487323721755
 20
6.116176898019268
 30
0.0
 11
9.640986011385795
 21
6.116176898019268
 31
0.0
  0
LINE
  5
40C0
330
1E
100
AcDbEntity
  8
7
100
AcDbLine
 10
9.640986011385795
 20
6.239536478071761
 30
0.0
 11
9.630487323721755
 21
6.239536478071761
 31
0.0
  0
LINE
  5
40C1
330
1E
100
AcDbEntity
  8
7
100
AcDbLine
 10
9.630487323721755
 20
6.239536478071761
 30
0.0
 11
9.596366588813618
 21
6.239536478071761
 31
0.0
  0
LINE
  5
40C2
330
1E
100
AcDbEntity
  8
7
100
AcDbLine
 10
9.596366588813618
 20
6.239536478071761
 30
0.0
 11
9.546497822409421
 21
6.239536478071761
 31
0.0
  0
LINE
  5
40C3
330
1E
100
AcDbEntity
  8
7
100
AcDbLine
 10
9.546497822409421
 20
6.239536478071761
 30
0.0
 11
9.486130368341179
 21
6.239536478071761
 31
0.0
  0
LINE
  5
40C4
330
1E
100
AcDbEntity
  8
7
100
AcDbLine
 10
9.486130368341179
 20
6.239536478071761
 30
0.0
 11
9.420513570440917
 21
6.239536478071761
 31
0.0
  0
LINE
  5
40C5
330
1E
100
AcDbEntity
  8
7
100
AcDbLine
 10
9.420513570440917
 20
6.239536478071761
 30
0.0
 11
9.360146116372675
 21
6.239536478071761
 31
0.0
  0
LINE
  5
40C6
330
1E
100
AcDbEntity
  8
7
100
AcDbLine
 10
9.360146116372675
 20
6.239536478071761
 30
0.0
 11
9.310277349968473
 21
6.239536478071761
 31
0.0
  0
LINE
  5
40C7
330
1E
100
AcDbEntity
  8
7
100
AcDbLine
 10
9.310277349968473
 20
6.239536478071761
 30
0.0
 11
9.276156615060338
 21
6.239536478071761
 31
0.0
  0
LINE
  5
40C8
330
1E
100
AcDbEntity
  8
7
100
AcDbLine
 10
9.276156615060338
 20
6.239536478071761
 30
0.0
 11
9.265657927396294
 21
6.239536478071761
 31
0.0
  0
LINE
  5
40C9
330
1E
100
AcDbEntity
  8
7
100
AcDbLine
 10
9.228912520572151
 20
6.229037790407719
 30
0.0
 11
9.207915145244067
 21
6.197541727415593
 31
0.0
  0
LINE
  5
40CA
330
1E
100
AcDbEntity
  8
7
100
AcDbLine
 10
9.207915145244067
 20
6.197541727415593
 30
0.0
 11
9.207915145244067
 21
6.160796320591446
 31
0.0
  0
LINE
  5
40CB
330
1E
100
AcDbEntity
  8
7
100
AcDbLine
 10
9.207915145244067
 20
6.160796320591446
 30
0.0
 11
9.228912520572151
 21
6.12930025759932
 31
0.0
  0
LINE
  5
40CC
330
1E
100
AcDbEntity
  8
7
100
AcDbLine
 10
9.228912520572151
 20
6.12930025759932
 30
0.0
 11
9.265657927396294
 21
6.118801569935278
 31
0.0
  0
LINE
  5
40CD
330
1E
100
AcDbEntity
  8
7
100
AcDbLine
 10
9.640986011385795
 20
6.118801569935278
 30
0.0
 11
9.677731418209944
 21
6.12930025759932
 31
0.0
  0
LINE
  5
40CE
330
1E
100
AcDbEntity
  8
7
100
AcDbLine
 10
9.677731418209944
 20
6.12930025759932
 30
0.0
 11
9.698728793538027
 21
6.160796320591446
 31
0.0
  0
LINE
  5
40CF
330
1E
100
AcDbEntity
  8
7
100
AcDbLine
 10
9.698728793538027
 20
6.160796320591446
 30
0.0
 11
9.698728793538027
 21
6.197541727415593
 31
0.0
  0
LINE
  5
40D0
330
1E
100
AcDbEntity
  8
7
100
AcDbLine
 10
9.698728793538027
 20
6.197541727415593
 30
0.0
 11
9.677731418209944
 21
6.229037790407719
 31
0.0
  0
LINE
  5
40D1
330
1E
100
AcDbEntity
  8
7
100
AcDbLine
 10
9.677731418209944
 20
6.229037790407719
 30
0.0
 11
9.640986011385795
 21
6.239536478071761
 31
0.0
  0
LINE
  5
40D2
330
1E
100
AcDbEntity
  8
7
100
AcDbLine
 10
9.320776037632516
 20
8.780218892769923
 30
0.0
 11
9.323400709548526
 21
8.780218892769923
 31
0.0
  0
LINE
  5
40D3
330
1E
100
AcDbEntity
  8
7
100
AcDbLine
 10
9.323400709548526
 20
8.780218892769923
 30
0.0
 11
9.328650053380545
 21
8.780218892769923
 31
0.0
  0
LINE
  5
40D4
330
1E
100
AcDbEntity
  8
7
100
AcDbLine
 10
9.328650053380545
 20
12.63848660930535
 30
0.0
 11
9.323400709548526
 21
12.63848660930535
 31
0.0
  0
LINE
  5
40D5
330
1E
100
AcDbEntity
  8
7
100
AcDbLine
 10
9.323400709548526
 20
12.63848660930535
 30
0.0
 11
9.320776037632516
 21
12.63848660930535
 31
0.0
  0
LINE
  5
40D6
330
1E
100
AcDbEntity
  8
7
100
AcDbLine
 10
9.320776037632516
 20
12.63848660930535
 30
0.0
 11
9.320776037632516
 21
12.64636062505338
 31
0.0
  0
LINE
  5
40D7
330
1E
100
AcDbEntity
  8
7
100
AcDbLine
 10
5.462508321097085
 20
12.63848660930535
 30
0.0
 11
5.457258977265065
 21
12.63848660930535
 31
0.0
  0
LINE
  5
40D8
330
1E
100
AcDbEntity
  8
7
100
AcDbLine
 10
5.457258977265065
 20
12.63848660930535
 30
0.0
 11
5.462508321097085
 21
12.64636062505338
 31
0.0
  0
LINE
  5
40D9
330
1E
100
AcDbEntity
  8
7
100
AcDbLine
 10
5.462508321097085
 20
12.64636062505338
 30
0.0
 11
5.462508321097085
 21
12.63848660930535
 31
0.0
  0
LINE
  5
40DA
330
1E
100
AcDbEntity
  8
7
100
AcDbLine
 10
7.257783911648265
 20
10.56499579565706
 30
0.0
 11
7.286655302724378
 21
10.54399842032897
 31
0.0
  0
LINE
  5
40DB
330
1E
100
AcDbEntity
  8
7
100
AcDbLine
 10
7.286655302724378
 20
10.54399842032897
 30
0.0
 11
7.34702275679262
 21
10.52300104500089
 31
0.0
  0
LINE
  5
40DC
330
1E
100
AcDbEntity
  8
7
100
AcDbLine
 10
7.34702275679262
 20
10.52300104500089
 30
0.0
 11
7.410014882776872
 21
10.5256257169169
 31
0.0
  0
LINE
  5
40DD
330
1E
100
AcDbEntity
  8
7
100
AcDbLine
 10
7.410014882776872
 20
10.5256257169169
 30
0.0
 11
7.467757664929104
 21
10.54662309224498
 31
0.0
  0
LINE
  5
40DE
330
1E
100
AcDbEntity
  8
7
100
AcDbLine
 10
7.517626431333302
 20
10.58599317098514
 30
0.0
 11
7.543873150493411
 21
10.6253632497253
 31
0.0
  0
LINE
  5
40DF
330
1E
100
AcDbEntity
  8
7
100
AcDbLine
 10
7.543873150493411
 20
10.6253632497253
 30
0.0
 11
7.562245853905484
 21
10.68573070379354
 31
0.0
  0
LINE
  5
40E0
330
1E
100
AcDbEntity
  8
7
100
AcDbLine
 10
7.562245853905484
 20
10.68573070379354
 30
0.0
 11
7.55962118198947
 21
10.74872282977779
 31
0.0
  0
LINE
  5
40E1
330
1E
100
AcDbEntity
  8
7
100
AcDbLine
 10
7.55962118198947
 20
10.74872282977779
 30
0.0
 11
7.535999134745376
 21
10.80909028384603
 31
0.0
  0
LINE
  5
40E2
330
1E
100
AcDbEntity
  8
7
100
AcDbLine
 10
7.535999134745376
 20
10.80909028384603
 30
0.0
 11
7.522875775165326
 21
10.82746298725811
 31
0.0
  0
LINE
  5
40E3
330
1E
100
AcDbEntity
  8
7
100
AcDbLine
 10
7.34964742870863
 20
10.89570445707438
 30
0.0
 11
7.289279974640388
 21
10.87733175366231
 31
0.0
  0
LINE
  5
40E4
330
1E
100
AcDbEntity
  8
7
100
AcDbLine
 10
7.289279974640388
 20
10.87733175366231
 30
0.0
 11
7.252534567816245
 21
10.8510850345022
 31
0.0
  0
LINE
  5
40E5
330
1E
100
AcDbEntity
  8
7
100
AcDbLine
 10
7.512377087501282
 20
10.84058634683816
 30
0.0
 11
7.473007008761124
 21
10.87208240983029
 31
0.0
  0
LINE
  5
40E6
330
1E
100
AcDbEntity
  8
7
100
AcDbLine
 10
7.473007008761124
 20
10.87208240983029
 30
0.0
 11
7.412639554692882
 21
10.89307978515837
 31
0.0
  0
LINE
  5
40E7
330
1E
100
AcDbEntity
  8
7
100
AcDbLine
 10
7.412639554692882
 20
10.89307978515837
 30
0.0
 11
7.34964742870863
 21
10.89570445707438
 31
0.0
  0
LINE
  5
40E8
330
1E
100
AcDbEntity
  8
7
100
AcDbLine
 10
7.252534567816245
 20
10.8510850345022
 30
0.0
 11
7.218413832908106
 21
10.81171495576205
 31
0.0
  0
LINE
  5
40E9
330
1E
100
AcDbEntity
  8
7
100
AcDbLine
 10
7.218413832908106
 20
10.81171495576205
 30
0.0
 11
7.194791785664013
 21
10.75397217360981
 31
0.0
  0
LINE
  5
40EA
330
1E
100
AcDbEntity
  8
7
100
AcDbLine
 10
7.194791785664013
 20
10.75397217360981
 30
0.0
 11
7.189542441831993
 21
10.69098004762556
 31
0.0
  0
LINE
  5
40EB
330
1E
100
AcDbEntity
  8
7
100
AcDbLine
 10
7.189542441831993
 20
10.69098004762556
 30
0.0
 11
7.205290473328052
 21
10.63061259355732
 31
0.0
  0
LINE
  5
40EC
330
1E
100
AcDbEntity
  8
7
100
AcDbLine
 10
7.205290473328052
 20
10.63061259355732
 30
0.0
 11
7.242035880152201
 21
10.57811915523711
 31
0.0
  0
LINE
  5
40ED
330
1E
100
AcDbEntity
  8
7
100
AcDbLine
 10
7.242035880152201
 20
10.57811915523711
 30
0.0
 11
7.247285223984221
 21
10.57286981140509
 31
0.0
  0
LINE
  5
40EE
330
1E
100
AcDbEntity
  8
7
100
AcDbLine
 10
6.898203859154827
 20
11.16342099250745
 30
0.0
 11
6.898203859154827
 21
11.20279107124761
 31
0.0
  0
LINE
  5
40EF
330
1E
100
AcDbEntity
  8
7
100
AcDbLine
 10
6.898203859154827
 20
11.20279107124761
 30
0.0
 11
6.898203859154827
 21
11.20541574316362
 31
0.0
  0
LINE
  5
40F0
330
1E
100
AcDbEntity
  8
7
100
AcDbLine
 10
6.898203859154827
 20
11.11617689801926
 30
0.0
 11
6.898203859154827
 21
11.12405091376729
 31
0.0
  0
LINE
  5
40F1
330
1E
100
AcDbEntity
  8
7
100
AcDbLine
 10
6.898203859154827
 20
11.12405091376729
 30
0.0
 11
6.898203859154827
 21
11.13717427334735
 31
0.0
  0
LINE
  5
40F2
330
1E
100
AcDbEntity
  8
7
100
AcDbLine
 10
6.898203859154827
 20
11.13717427334735
 30
0.0
 11
6.898203859154827
 21
11.16342099250745
 31
0.0
  0
LINE
  5
40F3
330
1E
100
AcDbEntity
  8
7
100
AcDbLine
 10
7.260408583564275
 20
10.92982519198252
 30
0.0
 11
7.260408583564275
 21
10.92457584815049
 31
0.0
  0
LINE
  5
40F4
330
1E
100
AcDbEntity
  8
7
100
AcDbLine
 10
7.260408583564275
 20
10.92457584815049
 30
0.0
 11
7.257783911648265
 21
10.91407716048645
 31
0.0
  0
LINE
  5
40F5
330
1E
100
AcDbEntity
  8
7
100
AcDbLine
 10
7.257783911648265
 20
10.91407716048645
 30
0.0
 11
7.255159239732255
 21
10.89832912899039
 31
0.0
  0
LINE
  5
40F6
330
1E
100
AcDbEntity
  8
7
100
AcDbLine
 10
7.255159239732255
 20
10.89832912899039
 30
0.0
 11
7.252534567816245
 21
10.86945773791428
 31
0.0
  0
LINE
  5
40F7
330
1E
100
AcDbEntity
  8
7
100
AcDbLine
 10
7.252534567816245
 20
10.86945773791428
 30
0.0
 11
7.252534567816245
 21
10.8510850345022
 31
0.0
  0
LINE
  5
40F8
330
1E
100
AcDbEntity
  8
7
100
AcDbLine
 10
7.252534567816245
 20
10.8510850345022
 30
0.0
 11
7.234161864404171
 21
10.8510850345022
 31
0.0
  0
LINE
  5
40F9
330
1E
100
AcDbEntity
  8
7
100
AcDbLine
 10
7.234161864404171
 20
10.8510850345022
 30
0.0
 11
7.202665801412043
 21
10.8510850345022
 31
0.0
  0
LINE
  5
40FA
330
1E
100
AcDbEntity
  8
7
100
AcDbLine
 10
7.202665801412043
 20
10.8510850345022
 30
0.0
 11
7.181668426083959
 21
10.84846036258619
 31
0.0
  0
LINE
  5
40FB
330
1E
100
AcDbEntity
  8
7
100
AcDbLine
 10
7.181668426083959
 20
10.84846036258619
 30
0.0
 11
7.171169738419919
 21
10.84846036258619
 31
0.0
  0
LINE
  5
40FC
330
1E
100
AcDbEntity
  8
7
100
AcDbLine
 10
7.171169738419919
 20
10.84846036258619
 30
0.0
 11
7.165920394587899
 21
10.84846036258619
 31
0.0
  0
LINE
  5
40FD
330
1E
100
AcDbEntity
  8
7
100
AcDbLine
 10
6.982193360467164
 20
10.21328975891165
 30
0.0
 11
6.984818032383174
 21
10.21328975891165
 31
0.0
  0
LINE
  5
40FE
330
1E
100
AcDbEntity
  8
7
100
AcDbLine
 10
6.984818032383174
 20
10.21328975891165
 30
0.0
 11
6.979568688551154
 21
10.21328975891165
 31
0.0
  0
LINE
  5
40FF
330
1E
100
AcDbEntity
  8
7
100
AcDbLine
 10
6.979568688551154
 20
10.21328975891165
 30
0.0
 11
6.969070000887109
 21
10.21066508699564
 31
0.0
  0
LINE
  5
4100
330
1E
100
AcDbEntity
  8
7
100
AcDbLine
 10
6.969070000887109
 20
10.21066508699564
 30
0.0
 11
6.948072625559025
 21
10.21066508699564
 31
0.0
  0
LINE
  5
4101
330
1E
100
AcDbEntity
  8
7
100
AcDbLine
 10
6.948072625559025
 20
10.21066508699564
 30
0.0
 11
6.913951890650887
 21
10.21066508699564
 31
0.0
  0
LINE
  5
4102
330
1E
100
AcDbEntity
  8
7
100
AcDbLine
 10
6.913951890650887
 20
10.21066508699564
 30
0.0
 11
6.892954515322803
 21
10.21066508699564
 31
0.0
  0
LINE
  5
4103
330
1E
100
AcDbEntity
  8
7
100
AcDbLine
 10
6.892954515322803
 20
10.21066508699564
 30
0.0
 11
6.892954515322803
 21
10.22903779040772
 31
0.0
  0
LINE
  5
4104
330
1E
100
AcDbEntity
  8
7
100
AcDbLine
 10
6.892954515322803
 20
10.22903779040772
 30
0.0
 11
6.892954515322803
 21
10.26315852531585
 31
0.0
  0
LINE
  5
4105
330
1E
100
AcDbEntity
  8
7
100
AcDbLine
 10
6.892954515322803
 20
10.26315852531585
 30
0.0
 11
6.892954515322803
 21
10.28415590064393
 31
0.0
  0
LINE
  5
4106
330
1E
100
AcDbEntity
  8
7
100
AcDbLine
 10
6.892954515322803
 20
10.28415590064393
 30
0.0
 11
6.892954515322803
 21
10.29465458830798
 31
0.0
  0
LINE
  5
4107
330
1E
100
AcDbEntity
  8
7
100
AcDbLine
 10
6.892954515322803
 20
10.29465458830798
 30
0.0
 11
6.892954515322803
 21
10.29990393214
 31
0.0
  0
LINE
  5
4108
330
1E
100
AcDbEntity
  8
7
100
AcDbLine
 10
7.247285223984221
 20
10.56499579565706
 30
0.0
 11
7.247285223984221
 21
10.56237112374105
 31
0.0
  0
LINE
  5
4109
330
1E
100
AcDbEntity
  8
7
100
AcDbLine
 10
7.247285223984221
 20
10.56237112374105
 30
0.0
 11
7.247285223984221
 21
10.53087506074892
 31
0.0
  0
LINE
  5
410A
330
1E
100
AcDbEntity
  8
7
100
AcDbLine
 10
7.247285223984221
 20
10.53087506074892
 30
0.0
 11
7.249909895900235
 21
10.50725301350482
 31
0.0
  0
LINE
  5
410B
330
1E
100
AcDbEntity
  8
7
100
AcDbLine
 10
7.249909895900235
 20
10.50725301350482
 30
0.0
 11
7.252534567816245
 21
10.49412965392477
 31
0.0
  0
LINE
  5
410C
330
1E
100
AcDbEntity
  8
7
100
AcDbLine
 10
7.252534567816245
 20
10.49412965392477
 30
0.0
 11
7.255159239732255
 21
10.48363096626073
 31
0.0
  0
LINE
  5
410D
330
1E
100
AcDbEntity
  8
7
100
AcDbLine
 10
7.163295722671884
 20
10.56762046757307
 30
0.0
 11
7.165920394587899
 21
10.56762046757307
 31
0.0
  0
LINE
  5
410E
330
1E
100
AcDbEntity
  8
7
100
AcDbLine
 10
7.165920394587899
 20
10.56762046757307
 30
0.0
 11
7.176419082251939
 21
10.56499579565706
 31
0.0
  0
LINE
  5
410F
330
1E
100
AcDbEntity
  8
7
100
AcDbLine
 10
7.176419082251939
 20
10.56499579565706
 30
0.0
 11
7.197416457580023
 21
10.56499579565706
 31
0.0
  0
LINE
  5
4110
330
1E
100
AcDbEntity
  8
7
100
AcDbLine
 10
7.197416457580023
 20
10.56499579565706
 30
0.0
 11
7.226287848656136
 21
10.56237112374105
 31
0.0
  0
LINE
  5
4111
330
1E
100
AcDbEntity
  8
7
100
AcDbLine
 10
7.226287848656136
 20
10.56237112374105
 30
0.0
 11
7.247285223984221
 21
10.56499579565706
 31
0.0
  0
LINE
  5
4112
330
1E
100
AcDbEntity
  8
7
100
AcDbLine
 10
6.898203859154827
 20
11.20541574316362
 30
0.0
 11
6.940198609810996
 21
11.20279107124761
 31
0.0
  0
LINE
  5
4113
330
1E
100
AcDbEntity
  8
7
100
AcDbLine
 10
6.940198609810996
 20
11.20279107124761
 30
0.0
 11
6.966445328971099
 21
11.20279107124761
 31
0.0
  0
LINE
  5
4114
330
1E
100
AcDbEntity
  8
7
100
AcDbLine
 10
6.966445328971099
 20
11.20279107124761
 30
0.0
 11
6.979568688551154
 21
11.2001663993316
 31
0.0
  0
LINE
  5
4115
330
1E
100
AcDbEntity
  8
7
100
AcDbLine
 10
6.979568688551154
 20
11.2001663993316
 30
0.0
 11
6.990067376215193
 21
11.2001663993316
 31
0.0
  0
LINE
  5
4116
330
1E
100
AcDbEntity
  8
7
100
AcDbLine
 10
6.538623806661386
 20
9.856334378334228
 30
0.0
 11
6.538623806661386
 21
9.895704457074385
 31
0.0
  0
LINE
  5
4117
330
1E
100
AcDbEntity
  8
7
100
AcDbLine
 10
6.538623806661386
 20
9.895704457074385
 30
0.0
 11
6.538623806661386
 21
9.92195117623449
 31
0.0
  0
LINE
  5
4118
330
1E
100
AcDbEntity
  8
7
100
AcDbLine
 10
6.538623806661386
 20
9.92195117623449
 30
0.0
 11
6.538623806661386
 21
9.935074535814541
 31
0.0
  0
LINE
  5
4119
330
1E
100
AcDbEntity
  8
7
100
AcDbLine
 10
6.538623806661386
 20
9.935074535814541
 30
0.0
 11
6.538623806661386
 21
9.942948551562572
 31
0.0
  0
LINE
  5
411A
330
1E
100
AcDbEntity
  8
7
100
AcDbLine
 10
6.806340342094458
 20
10.21066508699564
 30
0.0
 11
6.808965014010468
 21
10.21066508699564
 31
0.0
  0
LINE
  5
411B
330
1E
100
AcDbEntity
  8
7
100
AcDbLine
 10
6.808965014010468
 20
10.21066508699564
 30
0.0
 11
6.816839029758502
 21
10.21066508699564
 31
0.0
  0
LINE
  5
411C
330
1E
100
AcDbEntity
  8
7
100
AcDbLine
 10
6.816839029758502
 20
10.21066508699564
 30
0.0
 11
6.835211733170575
 21
10.21066508699564
 31
0.0
  0
LINE
  5
411D
330
1E
100
AcDbEntity
  8
7
100
AcDbLine
 10
6.835211733170575
 20
10.21066508699564
 30
0.0
 11
6.8667077961627
 21
10.21066508699564
 31
0.0
  0
LINE
  5
411E
330
1E
100
AcDbEntity
  8
7
100
AcDbLine
 10
6.8667077961627
 20
10.21066508699564
 30
0.0
 11
6.892954515322803
 21
10.21066508699564
 31
0.0
  0
LINE
  5
411F
330
1E
100
AcDbEntity
  8
7
100
AcDbLine
 10
6.892954515322803
 20
10.21066508699564
 30
0.0
 11
6.892954515322803
 21
10.20804041507963
 31
0.0
  0
LINE
  5
4120
330
1E
100
AcDbEntity
  8
7
100
AcDbLine
 10
6.892954515322803
 20
10.20804041507963
 30
0.0
 11
6.892954515322803
 21
10.17129500825548
 31
0.0
  0
LINE
  5
4121
330
1E
100
AcDbEntity
  8
7
100
AcDbLine
 10
6.892954515322803
 20
10.17129500825548
 30
0.0
 11
6.892954515322803
 21
10.14767296101139
 31
0.0
  0
LINE
  5
4122
330
1E
100
AcDbEntity
  8
7
100
AcDbLine
 10
6.892954515322803
 20
10.14767296101139
 30
0.0
 11
6.895579187238817
 21
10.13192492951532
 31
0.0
  0
LINE
  5
4123
330
1E
100
AcDbEntity
  8
7
100
AcDbLine
 10
6.895579187238817
 20
10.13192492951532
 30
0.0
 11
6.895579187238817
 21
10.12405091376729
 31
0.0
  0
LINE
  5
4124
330
1E
100
AcDbEntity
  8
7
100
AcDbLine
 10
8.223663176740126
 20
9.966570598806667
 30
0.0
 11
8.223663176740126
 21
9.963945926890657
 31
0.0
  0
LINE
  5
4125
330
1E
100
AcDbEntity
  8
7
100
AcDbLine
 10
8.223663176740126
 20
9.963945926890657
 30
0.0
 11
8.223663176740126
 21
9.953447239226616
 31
0.0
  0
LINE
  5
4126
330
1E
100
AcDbEntity
  8
7
100
AcDbLine
 10
8.223663176740126
 20
9.953447239226616
 30
0.0
 11
8.223663176740126
 21
9.932449863898531
 31
0.0
  0
LINE
  5
4127
330
1E
100
AcDbEntity
  8
7
100
AcDbLine
 10
8.223663176740126
 20
9.932449863898531
 30
0.0
 11
8.223663176740126
 21
9.898329128990395
 31
0.0
  0
LINE
  5
4128
330
1E
100
AcDbEntity
  8
7
100
AcDbLine
 10
8.223663176740126
 20
9.898329128990395
 30
0.0
 11
8.223663176740126
 21
9.877331753662311
 31
0.0
  0
LINE
  5
4129
330
1E
100
AcDbEntity
  8
7
100
AcDbLine
 10
7.86933246807871
 20
10.14504828909538
 30
0.0
 11
7.86933246807871
 21
10.14767296101139
 31
0.0
  0
LINE
  5
412A
330
1E
100
AcDbEntity
  8
7
100
AcDbLine
 10
7.86933246807871
 20
10.14767296101139
 30
0.0
 11
7.86933246807871
 21
10.15817164867543
 31
0.0
  0
LINE
  5
412B
330
1E
100
AcDbEntity
  8
7
100
AcDbLine
 10
7.86933246807871
 20
10.15817164867543
 30
0.0
 11
7.871957139994719
 21
10.17916902400352
 31
0.0
  0
LINE
  5
412C
330
1E
100
AcDbEntity
  8
7
100
AcDbLine
 10
7.871957139994719
 20
10.17916902400352
 30
0.0
 11
7.871957139994719
 21
10.21066508699564
 31
0.0
  0
LINE
  5
412D
330
1E
100
AcDbEntity
  8
7
100
AcDbLine
 10
7.871957139994719
 20
10.21066508699564
 30
0.0
 11
7.871957139994719
 21
10.23166246232372
 31
0.0
  0
LINE
  5
412E
330
1E
100
AcDbEntity
  8
7
100
AcDbLine
 10
7.871957139994719
 20
10.23166246232372
 30
0.0
 11
7.908702546818867
 21
10.23166246232372
 31
0.0
  0
LINE
  5
412F
330
1E
100
AcDbEntity
  8
7
100
AcDbLine
 10
7.908702546818867
 20
10.23166246232372
 30
0.0
 11
7.932324594062961
 21
10.23166246232372
 31
0.0
  0
LINE
  5
4130
330
1E
100
AcDbEntity
  8
7
100
AcDbLine
 10
7.932324594062961
 20
10.23166246232372
 30
0.0
 11
7.948072625559025
 21
10.23428713423973
 31
0.0
  0
LINE
  5
4131
330
1E
100
AcDbEntity
  8
7
100
AcDbLine
 10
7.948072625559025
 20
10.23428713423973
 30
0.0
 11
7.955946641307055
 21
10.23428713423973
 31
0.0
  0
LINE
  5
4132
330
1E
100
AcDbEntity
  8
7
100
AcDbLine
 10
6.543873150493411
 20
11.47050760668068
 30
0.0
 11
6.543873150493411
 21
11.47838162242871
 31
0.0
  0
LINE
  5
4133
330
1E
100
AcDbEntity
  8
7
100
AcDbLine
 10
6.543873150493411
 20
11.47838162242871
 30
0.0
 11
6.543873150493411
 21
11.49150498200876
 31
0.0
  0
LINE
  5
4134
330
1E
100
AcDbEntity
  8
7
100
AcDbLine
 10
6.543873150493411
 20
11.49150498200876
 30
0.0
 11
6.543873150493411
 21
11.51775170116887
 31
0.0
  0
LINE
  5
4135
330
1E
100
AcDbEntity
  8
7
100
AcDbLine
 10
6.543873150493411
 20
11.51775170116887
 30
0.0
 11
6.543873150493411
 21
11.55712177990902
 31
0.0
  0
LINE
  5
4136
330
1E
100
AcDbEntity
  8
7
100
AcDbLine
 10
6.543873150493411
 20
11.55712177990902
 30
0.0
 11
6.543873150493411
 21
11.55974645182504
 31
0.0
  0
LINE
  5
4137
330
1E
100
AcDbEntity
  8
7
100
AcDbLine
 10
6.543873150493411
 20
11.55974645182504
 30
0.0
 11
6.585867901149578
 21
11.55712177990902
 31
0.0
  0
LINE
  5
4138
330
1E
100
AcDbEntity
  8
7
100
AcDbLine
 10
6.585867901149578
 20
11.55712177990902
 30
0.0
 11
6.609489948393672
 21
11.55712177990902
 31
0.0
  0
LINE
  5
4139
330
1E
100
AcDbEntity
  8
7
100
AcDbLine
 10
6.609489948393672
 20
11.55712177990902
 30
0.0
 11
6.625237979889736
 21
11.55712177990902
 31
0.0
  0
LINE
  5
413A
330
1E
100
AcDbEntity
  8
7
100
AcDbLine
 10
6.625237979889736
 20
11.55712177990902
 30
0.0
 11
6.633111995637766
 21
11.55712177990902
 31
0.0
  0
LINE
  5
413B
330
1E
100
AcDbEntity
  8
7
100
AcDbLine
 10
6.900828531070837
 20
11.28940524447595
 30
0.0
 11
6.900828531070837
 21
11.28415590064393
 31
0.0
  0
LINE
  5
413C
330
1E
100
AcDbEntity
  8
7
100
AcDbLine
 10
6.900828531070837
 20
11.28415590064393
 30
0.0
 11
6.900828531070837
 21
11.2762818848959
 31
0.0
  0
LINE
  5
413D
330
1E
100
AcDbEntity
  8
7
100
AcDbLine
 10
6.900828531070837
 20
11.2762818848959
 30
0.0
 11
6.898203859154827
 21
11.25790918148383
 31
0.0
  0
LINE
  5
413E
330
1E
100
AcDbEntity
  8
7
100
AcDbLine
 10
6.898203859154827
 20
11.25790918148383
 30
0.0
 11
6.898203859154827
 21
11.2264131184917
 31
0.0
  0
LINE
  5
413F
330
1E
100
AcDbEntity
  8
7
100
AcDbLine
 10
6.898203859154827
 20
11.2264131184917
 30
0.0
 11
6.898203859154827
 21
11.20541574316362
 31
0.0
  0
LINE
  5
4140
330
1E
100
AcDbEntity
  8
7
100
AcDbLine
 10
6.898203859154827
 20
11.20541574316362
 30
0.0
 11
6.874581811910734
 21
11.20541574316362
 31
0.0
  0
LINE
  5
4141
330
1E
100
AcDbEntity
  8
7
100
AcDbLine
 10
6.874581811910734
 20
11.20541574316362
 30
0.0
 11
6.843085748918605
 21
11.20541574316362
 31
0.0
  0
LINE
  5
4142
330
1E
100
AcDbEntity
  8
7
100
AcDbLine
 10
6.843085748918605
 20
11.20541574316362
 30
0.0
 11
6.824713045506531
 21
11.20279107124761
 31
0.0
  0
LINE
  5
4143
330
1E
100
AcDbEntity
  8
7
100
AcDbLine
 10
6.824713045506531
 20
11.20279107124761
 30
0.0
 11
6.814214357842492
 21
11.20279107124761
 31
0.0
  0
LINE
  5
4144
330
1E
100
AcDbEntity
  8
7
100
AcDbLine
 10
6.814214357842492
 20
11.20279107124761
 30
0.0
 11
6.811589685926482
 21
11.20279107124761
 31
0.0
  0
LINE
  5
4145
330
1E
100
AcDbEntity
  8
7
100
AcDbLine
 10
8.223663176740126
 20
9.877331753662311
 30
0.0
 11
8.200041129496032
 21
9.877331753662311
 31
0.0
  0
LINE
  5
4146
330
1E
100
AcDbEntity
  8
7
100
AcDbLine
 10
8.200041129496032
 20
9.877331753662311
 30
0.0
 11
8.168545066503909
 21
9.877331753662311
 31
0.0
  0
LINE
  5
4147
330
1E
100
AcDbEntity
  8
7
100
AcDbLine
 10
8.168545066503909
 20
9.877331753662311
 30
0.0
 11
8.147547691175825
 21
9.877331753662311
 31
0.0
  0
LINE
  5
4148
330
1E
100
AcDbEntity
  8
7
100
AcDbLine
 10
8.147547691175825
 20
9.877331753662311
 30
0.0
 11
8.13967367542779
 21
9.877331753662311
 31
0.0
  0
LINE
  5
4149
330
1E
100
AcDbEntity
  8
7
100
AcDbLine
 10
8.13967367542779
 20
9.877331753662311
 30
0.0
 11
8.13704900351178
 21
9.877331753662311
 31
0.0
  0
LINE
  5
414A
330
1E
100
AcDbEntity
  8
7
100
AcDbLine
 10
6.627862651805746
 20
9.856334378334228
 30
0.0
 11
6.625237979889736
 21
9.856334378334228
 31
0.0
  0
LINE
  5
414B
330
1E
100
AcDbEntity
  8
7
100
AcDbLine
 10
6.625237979889736
 20
9.856334378334228
 30
0.0
 11
6.614739292225692
 21
9.856334378334228
 31
0.0
  0
LINE
  5
414C
330
1E
100
AcDbEntity
  8
7
100
AcDbLine
 10
6.614739292225692
 20
9.856334378334228
 30
0.0
 11
6.593741916897608
 21
9.856334378334228
 31
0.0
  0
LINE
  5
414D
330
1E
100
AcDbEntity
  8
7
100
AcDbLine
 10
6.593741916897608
 20
9.856334378334228
 30
0.0
 11
6.55962118198947
 21
9.856334378334228
 31
0.0
  0
LINE
  5
414E
330
1E
100
AcDbEntity
  8
7
100
AcDbLine
 10
6.55962118198947
 20
9.856334378334228
 30
0.0
 11
6.538623806661386
 21
9.856334378334228
 31
0.0
  0
LINE
  5
414F
330
1E
100
AcDbEntity
  8
7
100
AcDbLine
 10
8.577993885401543
 20
9.61223989014525
 30
0.0
 11
8.577993885401543
 21
9.60436587439722
 31
0.0
  0
LINE
  5
4150
330
1E
100
AcDbEntity
  8
7
100
AcDbLine
 10
8.577993885401543
 20
9.60436587439722
 30
0.0
 11
8.577993885401543
 21
9.588617842901156
 31
0.0
  0
LINE
  5
4151
330
1E
100
AcDbEntity
  8
7
100
AcDbLine
 10
8.577993885401543
 20
9.588617842901156
 30
0.0
 11
8.577993885401543
 21
9.564995795657061
 31
0.0
  0
LINE
  5
4152
330
1E
100
AcDbEntity
  8
7
100
AcDbLine
 10
8.577993885401543
 20
9.523001045000894
 30
0.0
 11
8.546497822409421
 21
9.523001045000894
 31
0.0
  0
LINE
  5
4153
330
1E
100
AcDbEntity
  8
7
100
AcDbLine
 10
8.546497822409421
 20
9.523001045000894
 30
0.0
 11
8.517626431333301
 21
9.523001045000894
 31
0.0
  0
LINE
  5
4154
330
1E
100
AcDbEntity
  8
7
100
AcDbLine
 10
8.517626431333301
 20
9.523001045000894
 30
0.0
 11
8.501878399837242
 21
9.523001045000894
 31
0.0
  0
LINE
  5
4155
330
1E
100
AcDbEntity
  8
7
100
AcDbLine
 10
8.501878399837242
 20
9.523001045000894
 30
0.0
 11
8.494004384089208
 21
9.523001045000894
 31
0.0
  0
LINE
  5
4156
330
1E
100
AcDbEntity
  8
7
100
AcDbLine
 10
8.494004384089208
 20
9.523001045000894
 30
0.0
 11
8.491379712173198
 21
9.523001045000894
 31
0.0
  0
LINE
  5
4157
330
1E
100
AcDbEntity
  8
7
100
AcDbLine
 10
8.226287848656136
 20
9.866833065998269
 30
0.0
 11
8.223663176740126
 21
9.877331753662311
 31
0.0
  0
LINE
  5
4158
330
1E
100
AcDbEntity
  8
7
100
AcDbLine
 10
8.223663176740126
 20
9.877331753662311
 30
0.0
 11
8.226287848656136
 21
9.877331753662311
 31
0.0
  0
LINE
  5
4159
330
1E
100
AcDbEntity
  8
7
100
AcDbLine
 10
8.226287848656136
 20
9.877331753662311
 30
0.0
 11
8.263033255480284
 21
9.877331753662311
 31
0.0
  0
LINE
  5
415A
330
1E
100
AcDbEntity
  8
7
100
AcDbLine
 10
8.263033255480284
 20
9.877331753662311
 30
0.0
 11
8.289279974640388
 21
9.877331753662311
 31
0.0
  0
LINE
  5
415B
330
1E
100
AcDbEntity
  8
7
100
AcDbLine
 10
8.289279974640388
 20
9.877331753662311
 30
0.0
 11
8.302403334220443
 21
9.877331753662311
 31
0.0
  0
LINE
  5
415C
330
1E
100
AcDbEntity
  8
7
100
AcDbLine
 10
8.302403334220443
 20
9.877331753662311
 30
0.0
 11
8.310277349968473
 21
9.877331753662311
 31
0.0
  0
LINE
  5
415D
330
1E
100
AcDbEntity
  8
7
100
AcDbLine
 10
8.223663176740126
 20
9.790717580433966
 30
0.0
 11
8.223663176740126
 21
9.795966924265986
 31
0.0
  0
LINE
  5
415E
330
1E
100
AcDbEntity
  8
7
100
AcDbLine
 10
8.223663176740126
 20
9.795966924265986
 30
0.0
 11
8.223663176740126
 21
9.809090283846037
 31
0.0
  0
LINE
  5
415F
330
1E
100
AcDbEntity
  8
7
100
AcDbLine
 10
8.223663176740126
 20
9.809090283846037
 30
0.0
 11
8.226287848656136
 21
9.832712331090133
 31
0.0
  0
LINE
  5
4160
330
1E
100
AcDbEntity
  8
7
100
AcDbLine
 10
8.226287848656136
 20
9.832712331090133
 30
0.0
 11
8.226287848656136
 21
9.866833065998269
 31
0.0
  0
LINE
  5
4161
330
1E
100
AcDbEntity
  8
7
100
AcDbLine
 10
6.189542441831993
 20
11.8248383153421
 30
0.0
 11
6.189542441831993
 21
11.83008765917412
 31
0.0
  0
LINE
  5
4162
330
1E
100
AcDbEntity
  8
7
100
AcDbLine
 10
6.189542441831993
 20
11.83008765917412
 30
0.0
 11
6.189542441831993
 21
11.84583569067018
 31
0.0
  0
LINE
  5
4163
330
1E
100
AcDbEntity
  8
7
100
AcDbLine
 10
6.189542441831993
 20
11.84583569067018
 30
0.0
 11
6.189542441831993
 21
11.86945773791427
 31
0.0
  0
LINE
  5
4164
330
1E
100
AcDbEntity
  8
7
100
AcDbLine
 10
6.189542441831993
 20
11.86945773791427
 30
0.0
 11
6.189542441831993
 21
11.91145248857044
 31
0.0
  0
LINE
  5
4165
330
1E
100
AcDbEntity
  8
7
100
AcDbLine
 10
6.543873150493411
 20
11.64373595313737
 30
0.0
 11
6.543873150493411
 21
11.64111128122136
 31
0.0
  0
LINE
  5
4166
330
1E
100
AcDbEntity
  8
7
100
AcDbLine
 10
6.543873150493411
 20
11.64111128122136
 30
0.0
 11
6.543873150493411
 21
11.63061259355732
 31
0.0
  0
LINE
  5
4167
330
1E
100
AcDbEntity
  8
7
100
AcDbLine
 10
6.543873150493411
 20
11.63061259355732
 30
0.0
 11
6.543873150493411
 21
11.61223989014525
 31
0.0
  0
LINE
  5
4168
330
1E
100
AcDbEntity
  8
7
100
AcDbLine
 10
6.543873150493411
 20
11.61223989014525
 30
0.0
 11
6.543873150493411
 21
11.58074382715312
 31
0.0
  0
LINE
  5
4169
330
1E
100
AcDbEntity
  8
7
100
AcDbLine
 10
6.543873150493411
 20
11.58074382715312
 30
0.0
 11
6.543873150493411
 21
11.55974645182504
 31
0.0
  0
LINE
  5
416A
330
1E
100
AcDbEntity
  8
7
100
AcDbLine
 10
6.543873150493411
 20
11.55974645182504
 30
0.0
 11
6.515001759417292
 21
11.55974645182504
 31
0.0
  0
LINE
  5
416B
330
1E
100
AcDbEntity
  8
7
100
AcDbLine
 10
6.515001759417292
 20
11.55974645182504
 30
0.0
 11
6.486130368341179
 21
11.55712177990902
 31
0.0
  0
LINE
  5
416C
330
1E
100
AcDbEntity
  8
7
100
AcDbLine
 10
6.486130368341179
 20
11.55712177990902
 30
0.0
 11
6.467757664929105
 21
11.55712177990902
 31
0.0
  0
LINE
  5
416D
330
1E
100
AcDbEntity
  8
7
100
AcDbLine
 10
6.467757664929105
 20
11.55712177990902
 30
0.0
 11
6.459883649181075
 21
11.55712177990902
 31
0.0
  0
LINE
  5
416E
330
1E
100
AcDbEntity
  8
7
100
AcDbLine
 10
6.459883649181075
 20
11.55712177990902
 30
0.0
 11
6.45463430534905
 21
11.55712177990902
 31
0.0
  0
LINE
  5
416F
330
1E
100
AcDbEntity
  8
7
100
AcDbLine
 10
6.189542441831993
 20
11.91145248857044
 30
0.0
 11
6.231537192488161
 21
11.91145248857044
 31
0.0
  0
LINE
  5
4170
330
1E
100
AcDbEntity
  8
7
100
AcDbLine
 10
6.231537192488161
 20
11.91145248857044
 30
0.0
 11
6.255159239732255
 21
11.91145248857044
 31
0.0
  0
LINE
  5
4171
330
1E
100
AcDbEntity
  8
7
100
AcDbLine
 10
6.255159239732255
 20
11.91145248857044
 30
0.0
 11
6.27090727122832
 21
11.91145248857044
 31
0.0
  0
LINE
  5
4172
330
1E
100
AcDbEntity
  8
7
100
AcDbLine
 10
6.27090727122832
 20
11.91145248857044
 30
0.0
 11
6.278781286976349
 21
11.91145248857044
 31
0.0
  0
LINE
  5
4173
330
1E
100
AcDbEntity
  8
7
100
AcDbLine
 10
6.097678924771623
 20
9.502003669672809
 30
0.0
 11
6.100303596687633
 21
9.502003669672809
 31
0.0
  0
LINE
  5
4174
330
1E
100
AcDbEntity
  8
7
100
AcDbLine
 10
6.100303596687633
 20
9.502003669672809
 30
0.0
 11
6.108177612435667
 21
9.502003669672809
 31
0.0
  0
LINE
  5
4175
330
1E
100
AcDbEntity
  8
7
100
AcDbLine
 10
6.108177612435667
 20
9.502003669672809
 30
0.0
 11
6.129174987763751
 21
9.502003669672809
 31
0.0
  0
LINE
  5
4176
330
1E
100
AcDbEntity
  8
7
100
AcDbLine
 10
6.129174987763751
 20
9.502003669672809
 30
0.0
 11
6.160671050755875
 21
9.502003669672809
 31
0.0
  0
LINE
  5
4177
330
1E
100
AcDbEntity
  8
7
100
AcDbLine
 10
6.160671050755875
 20
9.502003669672809
 30
0.0
 11
6.184293097999969
 21
9.502003669672809
 31
0.0
  0
LINE
  5
4178
330
1E
100
AcDbEntity
  8
7
100
AcDbLine
 10
6.184293097999969
 20
9.502003669672809
 30
0.0
 11
6.184293097999969
 21
9.494129653924778
 31
0.0
  0
LINE
  5
4179
330
1E
100
AcDbEntity
  8
7
100
AcDbLine
 10
6.184293097999969
 20
9.494129653924778
 30
0.0
 11
6.184293097999969
 21
9.457384247100632
 31
0.0
  0
LINE
  5
417A
330
1E
100
AcDbEntity
  8
7
100
AcDbLine
 10
6.184293097999969
 20
9.457384247100632
 30
0.0
 11
6.184293097999969
 21
9.433762199856536
 31
0.0
  0
LINE
  5
417B
330
1E
100
AcDbEntity
  8
7
100
AcDbLine
 10
6.184293097999969
 20
9.433762199856536
 30
0.0
 11
6.184293097999969
 21
9.420638840276485
 31
0.0
  0
LINE
  5
417C
330
1E
100
AcDbEntity
  8
7
100
AcDbLine
 10
6.184293097999969
 20
9.420638840276485
 30
0.0
 11
6.184293097999969
 21
9.415389496444465
 31
0.0
  0
LINE
  5
417D
330
1E
100
AcDbEntity
  8
7
100
AcDbLine
 10
5.829962389338551
 20
9.234287134239739
 30
0.0
 11
5.829962389338551
 21
9.236911806155749
 31
0.0
  0
LINE
  5
417E
330
1E
100
AcDbEntity
  8
7
100
AcDbLine
 10
5.829962389338551
 20
9.236911806155749
 30
0.0
 11
5.829962389338551
 21
9.231662462323729
 31
0.0
  0
LINE
  5
417F
330
1E
100
AcDbEntity
  8
7
100
AcDbLine
 10
5.829962389338551
 20
9.231662462323729
 30
0.0
 11
5.829962389338551
 21
9.223788446575696
 31
0.0
  0
LINE
  5
4180
330
1E
100
AcDbEntity
  8
7
100
AcDbLine
 10
5.829962389338551
 20
9.223788446575696
 30
0.0
 11
5.829962389338551
 21
9.205415743163623
 31
0.0
  0
LINE
  5
4181
330
1E
100
AcDbEntity
  8
7
100
AcDbLine
 10
5.829962389338551
 20
9.205415743163623
 30
0.0
 11
5.829962389338551
 21
9.173919680171497
 31
0.0
  0
LINE
  5
4182
330
1E
100
AcDbEntity
  8
7
100
AcDbLine
 10
5.829962389338551
 20
9.173919680171497
 30
0.0
 11
5.829962389338551
 21
9.147672961011393
 31
0.0
  0
LINE
  5
4183
330
1E
100
AcDbEntity
  8
7
100
AcDbLine
 10
5.745972888026216
 20
12.26578319723186
 30
0.0
 11
5.74859755994223
 21
12.26578319723186
 31
0.0
  0
LINE
  5
4184
330
1E
100
AcDbEntity
  8
7
100
AcDbLine
 10
5.74859755994223
 20
12.26578319723186
 30
0.0
 11
5.75647157569026
 21
12.26578319723186
 31
0.0
  0
LINE
  5
4185
330
1E
100
AcDbEntity
  8
7
100
AcDbLine
 10
5.75647157569026
 20
12.26578319723186
 30
0.0
 11
5.772219607186324
 21
12.26578319723186
 31
0.0
  0
LINE
  5
4186
330
1E
100
AcDbEntity
  8
7
100
AcDbLine
 10
5.772219607186324
 20
12.26578319723186
 30
0.0
 11
5.801090998262438
 21
12.26578319723186
 31
0.0
  0
LINE
  5
4187
330
1E
100
AcDbEntity
  8
7
100
AcDbLine
 10
5.801090998262438
 20
12.26578319723186
 30
0.0
 11
5.835211733170576
 21
12.26578319723186
 31
0.0
  0
LINE
  5
4188
330
1E
100
AcDbEntity
  8
7
100
AcDbLine
 10
5.457258977265065
 20
12.57024513948908
 30
0.0
 11
5.459883649181075
 21
12.58336849906913
 31
0.0
  0
LINE
  5
4189
330
1E
100
AcDbEntity
  8
7
100
AcDbLine
 10
5.459883649181075
 20
12.58336849906913
 30
0.0
 11
5.462508321097085
 21
12.60961521822923
 31
0.0
  0
LINE
  5
418A
330
1E
100
AcDbEntity
  8
7
100
AcDbLine
 10
5.462508321097085
 20
12.60961521822923
 30
0.0
 11
5.462508321097085
 21
12.63848660930535
 31
0.0
  0
LINE
  5
418B
330
1E
100
AcDbEntity
  8
7
100
AcDbLine
 10
5.457258977265065
 20
12.55712177990903
 30
0.0
 11
5.457258977265065
 21
12.55974645182504
 31
0.0
  0
LINE
  5
418C
330
1E
100
AcDbEntity
  8
7
100
AcDbLine
 10
5.457258977265065
 20
12.55974645182504
 30
0.0
 11
5.457258977265065
 21
12.57024513948908
 31
0.0
  0
LINE
  5
418D
330
1E
100
AcDbEntity
  8
7
100
AcDbLine
 10
5.462508321097085
 20
12.63848660930535
 30
0.0
 11
5.494004384089208
 21
12.63848660930535
 31
0.0
  0
LINE
  5
418E
330
1E
100
AcDbEntity
  8
7
100
AcDbLine
 10
5.494004384089208
 20
12.63848660930535
 30
0.0
 11
5.520251103249317
 21
12.64111128122136
 31
0.0
  0
LINE
  5
418F
330
1E
100
AcDbEntity
  8
7
100
AcDbLine
 10
5.520251103249317
 20
12.64111128122136
 30
0.0
 11
5.535999134745376
 21
12.64373595313737
 31
0.0
  0
LINE
  5
4190
330
1E
100
AcDbEntity
  8
7
100
AcDbLine
 10
5.535999134745376
 20
12.64373595313737
 30
0.0
 11
5.546497822409421
 21
12.64373595313737
 31
0.0
  0
LINE
  5
4191
330
1E
100
AcDbEntity
  8
7
100
AcDbLine
 10
8.932324594062961
 20
9.168670336339477
 30
0.0
 11
8.932324594062961
 21
9.210665086995645
 31
0.0
  0
LINE
  5
4192
330
1E
100
AcDbEntity
  8
7
100
AcDbLine
 10
8.932324594062961
 20
9.210665086995645
 30
0.0
 11
8.932324594062961
 21
9.234287134239739
 31
0.0
  0
LINE
  5
4193
330
1E
100
AcDbEntity
  8
7
100
AcDbLine
 10
8.932324594062961
 20
9.234287134239739
 30
0.0
 11
8.932324594062961
 21
9.250035165735802
 31
0.0
  0
LINE
  5
4194
330
1E
100
AcDbEntity
  8
7
100
AcDbLine
 10
8.932324594062961
 20
9.250035165735802
 30
0.0
 11
8.932324594062961
 21
9.257909181483832
 31
0.0
  0
LINE
  5
4195
330
1E
100
AcDbEntity
  8
7
100
AcDbLine
 10
8.577993885401543
 20
9.467882934764674
 30
0.0
 11
8.577993885401543
 21
9.496754325840788
 31
0.0
  0
LINE
  5
4196
330
1E
100
AcDbEntity
  8
7
100
AcDbLine
 10
8.577993885401543
 20
9.496754325840788
 30
0.0
 11
8.577993885401543
 21
9.523001045000894
 31
0.0
  0
LINE
  5
4197
330
1E
100
AcDbEntity
  8
7
100
AcDbLine
 10
8.577993885401543
 20
9.436386871772548
 30
0.0
 11
8.577993885401543
 21
9.433762199856536
 31
0.0
  0
LINE
  5
4198
330
1E
100
AcDbEntity
  8
7
100
AcDbLine
 10
8.577993885401543
 20
9.433762199856536
 30
0.0
 11
8.577993885401543
 21
9.439011543688557
 31
0.0
  0
LINE
  5
4199
330
1E
100
AcDbEntity
  8
7
100
AcDbLine
 10
8.577993885401543
 20
9.439011543688557
 30
0.0
 11
8.577993885401543
 21
9.446885559436591
 31
0.0
  0
LINE
  5
419A
330
1E
100
AcDbEntity
  8
7
100
AcDbLine
 10
8.577993885401543
 20
9.446885559436591
 30
0.0
 11
8.577993885401543
 21
9.467882934764674
 31
0.0
  0
LINE
  5
419B
330
1E
100
AcDbEntity
  8
7
100
AcDbLine
 10
8.577993885401543
 20
9.523001045000894
 30
0.0
 11
8.580618557317553
 21
9.523001045000894
 31
0.0
  0
LINE
  5
419C
330
1E
100
AcDbEntity
  8
7
100
AcDbLine
 10
8.580618557317553
 20
9.523001045000894
 30
0.0
 11
8.617363964141702
 21
9.523001045000894
 31
0.0
  0
LINE
  5
419D
330
1E
100
AcDbEntity
  8
7
100
AcDbLine
 10
8.617363964141702
 20
9.523001045000894
 30
0.0
 11
8.643610683301805
 21
9.523001045000894
 31
0.0
  0
LINE
  5
419E
330
1E
100
AcDbEntity
  8
7
100
AcDbLine
 10
8.643610683301805
 20
9.523001045000894
 30
0.0
 11
8.656734042881859
 21
9.523001045000894
 31
0.0
  0
LINE
  5
419F
330
1E
100
AcDbEntity
  8
7
100
AcDbLine
 10
8.656734042881859
 20
9.523001045000894
 30
0.0
 11
8.664608058629889
 21
9.523001045000894
 31
0.0
  0
LINE
  5
41A0
330
1E
100
AcDbEntity
  8
7
100
AcDbLine
 10
5.835211733170576
 20
12.26578319723186
 30
0.0
 11
5.835211733170576
 21
12.30515327597202
 31
0.0
  0
LINE
  5
41A1
330
1E
100
AcDbEntity
  8
7
100
AcDbLine
 10
5.835211733170576
 20
12.30515327597202
 30
0.0
 11
5.835211733170576
 21
12.33139999513212
 31
0.0
  0
LINE
  5
41A2
330
1E
100
AcDbEntity
  8
7
100
AcDbLine
 10
5.835211733170576
 20
12.33139999513212
 30
0.0
 11
5.835211733170576
 21
12.34452335471218
 31
0.0
  0
LINE
  5
41A3
330
1E
100
AcDbEntity
  8
7
100
AcDbLine
 10
5.835211733170576
 20
12.34452335471218
 30
0.0
 11
5.835211733170576
 21
12.35239737046021
 31
0.0
  0
LINE
  5
41A4
330
1E
100
AcDbEntity
  8
7
100
AcDbLine
 10
8.845710420834615
 20
9.168670336339477
 30
0.0
 11
8.848335092750625
 21
9.168670336339477
 31
0.0
  0
LINE
  5
41A5
330
1E
100
AcDbEntity
  8
7
100
AcDbLine
 10
8.848335092750625
 20
9.168670336339477
 30
0.0
 11
8.85620910849866
 21
9.168670336339477
 31
0.0
  0
LINE
  5
41A6
330
1E
100
AcDbEntity
  8
7
100
AcDbLine
 10
8.85620910849866
 20
9.168670336339477
 30
0.0
 11
8.877206483826743
 21
9.168670336339477
 31
0.0
  0
LINE
  5
41A7
330
1E
100
AcDbEntity
  8
7
100
AcDbLine
 10
8.877206483826743
 20
9.168670336339477
 30
0.0
 11
8.908702546818867
 21
9.168670336339477
 31
0.0
  0
LINE
  5
41A8
330
1E
100
AcDbEntity
  8
7
100
AcDbLine
 10
8.908702546818867
 20
9.168670336339477
 30
0.0
 11
8.932324594062961
 21
9.168670336339477
 31
0.0
  0
LINE
  5
41A9
330
1E
100
AcDbEntity
  8
7
100
AcDbLine
 10
5.829962389338551
 20
9.147672961011393
 30
0.0
 11
5.871957139994719
 21
9.147672961011393
 31
0.0
  0
LINE
  5
41AA
330
1E
100
AcDbEntity
  8
7
100
AcDbLine
 10
5.871957139994719
 20
9.147672961011393
 30
0.0
 11
5.895579187238818
 21
9.147672961011393
 31
0.0
  0
LINE
  5
41AB
330
1E
100
AcDbEntity
  8
7
100
AcDbLine
 10
5.895579187238818
 20
9.147672961011393
 30
0.0
 11
5.911327218734878
 21
9.147672961011393
 31
0.0
  0
LINE
  5
41AC
330
1E
100
AcDbEntity
  8
7
100
AcDbLine
 10
5.911327218734878
 20
9.147672961011393
 30
0.0
 11
5.919201234482912
 21
9.147672961011393
 31
0.0
  0
LINE
  5
41AD
330
1E
100
AcDbEntity
  8
7
100
AcDbLine
 10
5.829962389338551
 20
9.108302882271235
 30
0.0
 11
5.829962389338551
 21
9.147672961011393
 31
0.0
  0
LINE
  5
41AE
330
1E
100
AcDbEntity
  8
7
100
AcDbLine
 10
5.829962389338551
 20
9.147672961011393
 30
0.0
 11
5.824713045506531
 21
9.147672961011393
 31
0.0
  0
LINE
  5
41AF
330
1E
100
AcDbEntity
  8
7
100
AcDbLine
 10
5.824713045506531
 20
9.147672961011393
 30
0.0
 11
5.787967638682384
 21
9.147672961011393
 31
0.0
  0
LINE
  5
41B0
330
1E
100
AcDbEntity
  8
7
100
AcDbLine
 10
5.787967638682384
 20
9.147672961011393
 30
0.0
 11
5.76172091952228
 21
9.147672961011393
 31
0.0
  0
LINE
  5
41B1
330
1E
100
AcDbEntity
  8
7
100
AcDbLine
 10
5.76172091952228
 20
9.147672961011393
 30
0.0
 11
5.74859755994223
 21
9.147672961011393
 31
0.0
  0
LINE
  5
41B2
330
1E
100
AcDbEntity
  8
7
100
AcDbLine
 10
5.74859755994223
 20
9.147672961011393
 30
0.0
 11
5.743348216110206
 21
9.147672961011393
 31
0.0
  0
LINE
  5
41B3
330
1E
100
AcDbEntity
  8
7
100
AcDbLine
 10
5.829962389338551
 20
9.061058787783046
 30
0.0
 11
5.829962389338551
 21
9.068932803531076
 31
0.0
  0
LINE
  5
41B4
330
1E
100
AcDbEntity
  8
7
100
AcDbLine
 10
5.829962389338551
 20
9.068932803531076
 30
0.0
 11
5.829962389338551
 21
9.082056163111131
 31
0.0
  0
LINE
  5
41B5
330
1E
100
AcDbEntity
  8
7
100
AcDbLine
 10
5.829962389338551
 20
9.082056163111131
 30
0.0
 11
5.829962389338551
 21
9.108302882271235
 31
0.0
  0
LINE
  5
41B6
330
1E
100
AcDbEntity
  8
7
100
AcDbLine
 10
5.543873150493411
 20
8.774969548937903
 30
0.0
 11
5.541248478577401
 21
8.774969548937903
 31
0.0
  0
LINE
  5
41B7
330
1E
100
AcDbEntity
  8
7
100
AcDbLine
 10
5.541248478577401
 20
8.774969548937903
 30
0.0
 11
5.533374462829367
 21
8.774969548937903
 31
0.0
  0
LINE
  5
41B8
330
1E
100
AcDbEntity
  8
7
100
AcDbLine
 10
5.533374462829367
 20
8.774969548937903
 30
0.0
 11
5.517626431333303
 21
8.777594220853913
 31
0.0
  0
LINE
  5
41B9
330
1E
100
AcDbEntity
  8
7
100
AcDbLine
 10
5.517626431333303
 20
8.777594220853913
 30
0.0
 11
5.491379712173198
 21
8.780218892769923
 31
0.0
  0
LINE
  5
41BA
330
1E
100
AcDbEntity
  8
7
100
AcDbLine
 10
5.491379712173198
 20
8.780218892769923
 30
0.0
 11
5.462508321097085
 21
8.780218892769923
 31
0.0
  0
LINE
  5
41BB
330
1E
100
AcDbEntity
  8
7
100
AcDbLine
 10
5.462508321097085
 20
8.780218892769923
 30
0.0
 11
5.462508321097085
 21
8.811714955762049
 31
0.0
  0
LINE
  5
41BC
330
1E
100
AcDbEntity
  8
7
100
AcDbLine
 10
5.462508321097085
 20
8.811714955762049
 30
0.0
 11
5.459883649181075
 21
8.835337003006145
 31
0.0
  0
LINE
  5
41BD
330
1E
100
AcDbEntity
  8
7
100
AcDbLine
 10
5.459883649181075
 20
8.835337003006145
 30
0.0
 11
5.459883649181075
 21
8.851085034502204
 31
0.0
  0
LINE
  5
41BE
330
1E
100
AcDbEntity
  8
7
100
AcDbLine
 10
5.459883649181075
 20
8.851085034502204
 30
0.0
 11
5.457258977265065
 21
8.861583722166248
 31
0.0
  0
LINE
  5
41BF
330
1E
100
AcDbEntity
  8
7
100
AcDbLine
 10
8.927075250230942
 20
12.15554697675942
 30
0.0
 11
8.927075250230942
 21
12.16079632059144
 31
0.0
  0
LINE
  5
41C0
330
1E
100
AcDbEntity
  8
7
100
AcDbLine
 10
8.927075250230942
 20
12.16079632059144
 30
0.0
 11
8.927075250230942
 21
12.16867033633947
 31
0.0
  0
LINE
  5
41C1
330
1E
100
AcDbEntity
  8
7
100
AcDbLine
 10
8.927075250230942
 20
12.16867033633947
 30
0.0
 11
8.927075250230942
 21
12.18704303975155
 31
0.0
  0
LINE
  5
41C2
330
1E
100
AcDbEntity
  8
7
100
AcDbLine
 10
8.927075250230942
 20
12.18704303975155
 30
0.0
 11
8.927075250230942
 21
12.21853910274367
 31
0.0
  0
LINE
  5
41C3
330
1E
100
AcDbEntity
  8
7
100
AcDbLine
 10
8.927075250230942
 20
12.21853910274367
 30
0.0
 11
8.927075250230942
 21
12.24478582190378
 31
0.0
  0
LINE
  5
41C4
330
1E
100
AcDbEntity
  8
7
100
AcDbLine
 10
8.927075250230942
 20
12.24478582190378
 30
0.0
 11
8.900828531070837
 21
12.24478582190378
 31
0.0
  0
LINE
  5
41C5
330
1E
100
AcDbEntity
  8
7
100
AcDbLine
 10
8.900828531070837
 20
12.24478582190378
 30
0.0
 11
8.86933246807871
 21
12.24478582190378
 31
0.0
  0
LINE
  5
41C6
330
1E
100
AcDbEntity
  8
7
100
AcDbLine
 10
8.86933246807871
 20
12.24478582190378
 30
0.0
 11
8.850959764666635
 21
12.24478582190378
 31
0.0
  0
LINE
  5
41C7
330
1E
100
AcDbEntity
  8
7
100
AcDbLine
 10
8.850959764666635
 20
12.24478582190378
 30
0.0
 11
8.843085748918605
 21
12.24478582190378
 31
0.0
  0
LINE
  5
41C8
330
1E
100
AcDbEntity
  8
7
100
AcDbLine
 10
8.843085748918605
 20
12.24478582190378
 30
0.0
 11
8.840461077002595
 21
12.24478582190378
 31
0.0
  0
LINE
  5
41C9
330
1E
100
AcDbEntity
  8
7
100
AcDbLine
 10
8.64886002713383
 20
11.89045511324236
 30
0.0
 11
8.630487323721755
 21
11.89045511324236
 31
0.0
  0
LINE
  5
41CA
330
1E
100
AcDbEntity
  8
7
100
AcDbLine
 10
8.630487323721755
 20
11.89045511324236
 30
0.0
 11
8.598991260729627
 21
11.89045511324236
 31
0.0
  0
LINE
  5
41CB
330
1E
100
AcDbEntity
  8
7
100
AcDbLine
 10
8.598991260729627
 20
11.89045511324236
 30
0.0
 11
8.575369213485533
 21
11.89045511324236
 31
0.0
  0
LINE
  5
41CC
330
1E
100
AcDbEntity
  8
7
100
AcDbLine
 10
8.575369213485533
 20
11.89045511324236
 30
0.0
 11
8.572744541569523
 21
11.93244986389853
 31
0.0
  0
LINE
  5
41CD
330
1E
100
AcDbEntity
  8
7
100
AcDbLine
 10
8.572744541569523
 20
11.93244986389853
 30
0.0
 11
8.572744541569523
 21
11.95607191114262
 31
0.0
  0
LINE
  5
41CE
330
1E
100
AcDbEntity
  8
7
100
AcDbLine
 10
8.572744541569523
 20
11.95607191114262
 30
0.0
 11
8.572744541569523
 21
11.97181994263868
 31
0.0
  0
LINE
  5
41CF
330
1E
100
AcDbEntity
  8
7
100
AcDbLine
 10
8.572744541569523
 20
11.97181994263868
 30
0.0
 11
8.572744541569523
 21
11.97969395838672
 31
0.0
  0
LINE
  5
41D0
330
1E
100
AcDbEntity
  8
7
100
AcDbLine
 10
8.661983386713879
 20
11.89045511324236
 30
0.0
 11
8.656734042881859
 21
11.89045511324236
 31
0.0
  0
LINE
  5
41D1
330
1E
100
AcDbEntity
  8
7
100
AcDbLine
 10
8.656734042881859
 20
11.89045511324236
 30
0.0
 11
8.64886002713383
 21
11.89045511324236
 31
0.0
  0
LINE
  5
41D2
330
1E
100
AcDbEntity
  8
7
100
AcDbLine
 10
5.924450578314932
 20
12.26578319723186
 30
0.0
 11
5.919201234482912
 21
12.26578319723186
 31
0.0
  0
LINE
  5
41D3
330
1E
100
AcDbEntity
  8
7
100
AcDbLine
 10
5.919201234482912
 20
12.26578319723186
 30
0.0
 11
5.911327218734878
 21
12.26578319723186
 31
0.0
  0
LINE
  5
41D4
330
1E
100
AcDbEntity
  8
7
100
AcDbLine
 10
5.911327218734878
 20
12.26578319723186
 30
0.0
 11
5.892954515322803
 21
12.26578319723186
 31
0.0
  0
LINE
  5
41D5
330
1E
100
AcDbEntity
  8
7
100
AcDbLine
 10
5.892954515322803
 20
12.26578319723186
 30
0.0
 11
5.86145845233068
 21
12.26578319723186
 31
0.0
  0
LINE
  5
41D6
330
1E
100
AcDbEntity
  8
7
100
AcDbLine
 10
5.86145845233068
 20
12.26578319723186
 30
0.0
 11
5.835211733170576
 21
12.26578319723186
 31
0.0
  0
LINE
  5
41D7
330
1E
100
AcDbEntity
  8
7
100
AcDbLine
 10
5.835211733170576
 20
12.26578319723186
 30
0.0
 11
5.835211733170576
 21
12.24216114998777
 31
0.0
  0
LINE
  5
41D8
330
1E
100
AcDbEntity
  8
7
100
AcDbLine
 10
5.835211733170576
 20
12.24216114998777
 30
0.0
 11
5.835211733170576
 21
12.21066508699564
 31
0.0
  0
LINE
  5
41D9
330
1E
100
AcDbEntity
  8
7
100
AcDbLine
 10
5.835211733170576
 20
12.21066508699564
 30
0.0
 11
5.835211733170576
 21
12.18966771166756
 31
0.0
  0
LINE
  5
41DA
330
1E
100
AcDbEntity
  8
7
100
AcDbLine
 10
5.835211733170576
 20
12.18966771166756
 30
0.0
 11
5.835211733170576
 21
12.18179369591952
 31
0.0
  0
LINE
  5
41DB
330
1E
100
AcDbEntity
  8
7
100
AcDbLine
 10
5.835211733170576
 20
12.18179369591952
 30
0.0
 11
5.835211733170576
 21
12.17916902400351
 31
0.0
  0
LINE
  5
41DC
330
1E
100
AcDbEntity
  8
7
100
AcDbLine
 10
6.189542441831993
 20
11.99806666179879
 30
0.0
 11
6.189542441831993
 21
12.0006913337148
 31
0.0
  0
LINE
  5
41DD
330
1E
100
AcDbEntity
  8
7
100
AcDbLine
 10
6.189542441831993
 20
12.0006913337148
 30
0.0
 11
6.189542441831993
 21
11.99544198988278
 31
0.0
  0
LINE
  5
41DE
330
1E
100
AcDbEntity
  8
7
100
AcDbLine
 10
6.189542441831993
 20
11.99544198988278
 30
0.0
 11
6.189542441831993
 21
11.98756797413475
 31
0.0
  0
LINE
  5
41DF
330
1E
100
AcDbEntity
  8
7
100
AcDbLine
 10
6.189542441831993
 20
11.98756797413475
 30
0.0
 11
6.189542441831993
 21
11.96657059880666
 31
0.0
  0
LINE
  5
41E0
330
1E
100
AcDbEntity
  8
7
100
AcDbLine
 10
6.189542441831993
 20
11.96657059880666
 30
0.0
 11
6.189542441831993
 21
11.93769920773055
 31
0.0
  0
LINE
  5
41E1
330
1E
100
AcDbEntity
  8
7
100
AcDbLine
 10
6.189542441831993
 20
11.93769920773055
 30
0.0
 11
6.189542441831993
 21
11.91407716048645
 31
0.0
  0
LINE
  5
41E2
330
1E
100
AcDbEntity
  8
7
100
AcDbLine
 10
6.189542441831993
 20
11.91407716048645
 30
0.0
 11
6.189542441831993
 21
11.91145248857044
 31
0.0
  0
LINE
  5
41E3
330
1E
100
AcDbEntity
  8
7
100
AcDbLine
 10
6.189542441831993
 20
11.91145248857044
 30
0.0
 11
6.163295722671885
 21
11.91145248857044
 31
0.0
  0
LINE
  5
41E4
330
1E
100
AcDbEntity
  8
7
100
AcDbLine
 10
6.163295722671885
 20
11.91145248857044
 30
0.0
 11
6.131799659679761
 21
11.91145248857044
 31
0.0
  0
LINE
  5
41E5
330
1E
100
AcDbEntity
  8
7
100
AcDbLine
 10
6.131799659679761
 20
11.91145248857044
 30
0.0
 11
6.113426956267687
 21
11.91145248857044
 31
0.0
  0
LINE
  5
41E6
330
1E
100
AcDbEntity
  8
7
100
AcDbLine
 10
6.113426956267687
 20
11.91145248857044
 30
0.0
 11
6.105552940519658
 21
11.91145248857044
 31
0.0
  0
LINE
  5
41E7
330
1E
100
AcDbEntity
  8
7
100
AcDbLine
 10
6.105552940519658
 20
11.91145248857044
 30
0.0
 11
6.102928268603648
 21
11.91145248857044
 31
0.0
  0
LINE
  5
41E8
330
1E
100
AcDbEntity
  8
7
100
AcDbLine
 10
6.265657927396294
 20
9.502003669672809
 30
0.0
 11
6.249909895900235
 21
9.502003669672809
 31
0.0
  0
LINE
  5
41E9
330
1E
100
AcDbEntity
  8
7
100
AcDbLine
 10
6.249909895900235
 20
9.502003669672809
 30
0.0
 11
6.226287848656137
 21
9.502003669672809
 31
0.0
  0
LINE
  5
41EA
330
1E
100
AcDbEntity
  8
7
100
AcDbLine
 10
6.226287848656137
 20
9.502003669672809
 30
0.0
 11
6.184293097999969
 21
9.502003669672809
 31
0.0
  0
LINE
  5
41EB
330
1E
100
AcDbEntity
  8
7
100
AcDbLine
 10
6.184293097999969
 20
9.502003669672809
 30
0.0
 11
6.184293097999969
 21
9.541373748412969
 31
0.0
  0
LINE
  5
41EC
330
1E
100
AcDbEntity
  8
7
100
AcDbLine
 10
6.184293097999969
 20
9.541373748412969
 30
0.0
 11
6.184293097999969
 21
9.567620467573071
 31
0.0
  0
LINE
  5
41ED
330
1E
100
AcDbEntity
  8
7
100
AcDbLine
 10
6.184293097999969
 20
9.567620467573071
 30
0.0
 11
6.184293097999969
 21
9.580743827153124
 31
0.0
  0
LINE
  5
41EE
330
1E
100
AcDbEntity
  8
7
100
AcDbLine
 10
6.184293097999969
 20
9.580743827153124
 30
0.0
 11
6.184293097999969
 21
9.588617842901156
 31
0.0
  0
LINE
  5
41EF
330
1E
100
AcDbEntity
  8
7
100
AcDbLine
 10
6.45200963343304
 20
9.856334378334228
 30
0.0
 11
6.459883649181075
 21
9.856334378334228
 31
0.0
  0
LINE
  5
41F0
330
1E
100
AcDbEntity
  8
7
100
AcDbLine
 10
6.459883649181075
 20
9.856334378334228
 30
0.0
 11
6.473007008761125
 21
9.856334378334228
 31
0.0
  0
LINE
  5
41F1
330
1E
100
AcDbEntity
  8
7
100
AcDbLine
 10
6.473007008761125
 20
9.856334378334228
 30
0.0
 11
6.499253727921233
 21
9.856334378334228
 31
0.0
  0
LINE
  5
41F2
330
1E
100
AcDbEntity
  8
7
100
AcDbLine
 10
6.499253727921233
 20
9.856334378334228
 30
0.0
 11
6.538623806661386
 21
9.856334378334228
 31
0.0
  0
LINE
  5
41F3
330
1E
100
AcDbEntity
  8
7
100
AcDbLine
 10
6.538623806661386
 20
9.803840940014017
 30
0.0
 11
6.538623806661386
 21
9.782843564685933
 31
0.0
  0
LINE
  5
41F4
330
1E
100
AcDbEntity
  8
7
100
AcDbLine
 10
6.538623806661386
 20
9.782843564685933
 30
0.0
 11
6.538623806661386
 21
9.774969548937901
 31
0.0
  0
LINE
  5
41F5
330
1E
100
AcDbEntity
  8
7
100
AcDbLine
 10
6.538623806661386
 20
9.774969548937901
 30
0.0
 11
6.538623806661386
 21
9.769720205105882
 31
0.0
  0
LINE
  5
41F6
330
1E
100
AcDbEntity
  8
7
100
AcDbLine
 10
6.538623806661386
 20
9.856334378334228
 30
0.0
 11
6.538623806661386
 21
9.837961674922153
 31
0.0
  0
LINE
  5
41F7
330
1E
100
AcDbEntity
  8
7
100
AcDbLine
 10
6.538623806661386
 20
9.837961674922153
 30
0.0
 11
6.538623806661386
 21
9.803840940014017
 31
0.0
  0
LINE
  5
41F8
330
1E
100
AcDbEntity
  8
7
100
AcDbLine
 10
8.486130368341179
 20
11.89045511324236
 30
0.0
 11
8.488755040257188
 21
11.89045511324236
 31
0.0
  0
LINE
  5
41F9
330
1E
100
AcDbEntity
  8
7
100
AcDbLine
 10
8.488755040257188
 20
11.89045511324236
 30
0.0
 11
8.496629056005218
 21
11.89045511324236
 31
0.0
  0
LINE
  5
41FA
330
1E
100
AcDbEntity
  8
7
100
AcDbLine
 10
8.496629056005218
 20
11.89045511324236
 30
0.0
 11
8.517626431333301
 21
11.89045511324236
 31
0.0
  0
LINE
  5
41FB
330
1E
100
AcDbEntity
  8
7
100
AcDbLine
 10
8.517626431333301
 20
11.89045511324236
 30
0.0
 11
8.54912249432543
 21
11.89045511324236
 31
0.0
  0
LINE
  5
41FC
330
1E
100
AcDbEntity
  8
7
100
AcDbLine
 10
8.54912249432543
 20
11.89045511324236
 30
0.0
 11
8.572744541569523
 21
11.89045511324236
 31
0.0
  0
LINE
  5
41FD
330
1E
100
AcDbEntity
  8
7
100
AcDbLine
 10
8.572744541569523
 20
11.89045511324236
 30
0.0
 11
8.575369213485533
 21
11.89045511324236
 31
0.0
  0
LINE
  5
41FE
330
1E
100
AcDbEntity
  8
7
100
AcDbLine
 10
8.575369213485533
 20
11.89045511324236
 30
0.0
 11
8.572744541569523
 21
11.8510850345022
 31
0.0
  0
LINE
  5
41FF
330
1E
100
AcDbEntity
  8
7
100
AcDbLine
 10
8.572744541569523
 20
11.8510850345022
 30
0.0
 11
8.572744541569523
 21
11.8248383153421
 31
0.0
  0
LINE
  5
4200
330
1E
100
AcDbEntity
  8
7
100
AcDbLine
 10
8.572744541569523
 20
11.8248383153421
 30
0.0
 11
8.572744541569523
 21
11.80909028384603
 31
0.0
  0
LINE
  5
4201
330
1E
100
AcDbEntity
  8
7
100
AcDbLine
 10
8.572744541569523
 20
11.80909028384603
 30
0.0
 11
8.572744541569523
 21
11.801216268098
 31
0.0
  0
LINE
  5
4202
330
1E
100
AcDbEntity
  8
7
100
AcDbLine
 10
8.305028006136453
 20
11.53612440458094
 30
0.0
 11
8.297153990388423
 21
11.53612440458094
 31
0.0
  0
LINE
  5
4203
330
1E
100
AcDbEntity
  8
7
100
AcDbLine
 10
8.297153990388423
 20
11.53612440458094
 30
0.0
 11
8.284030630808368
 21
11.53612440458094
 31
0.0
  0
LINE
  5
4204
330
1E
100
AcDbEntity
  8
7
100
AcDbLine
 10
8.284030630808368
 20
11.53612440458094
 30
0.0
 11
8.260408583564274
 21
11.53612440458094
 31
0.0
  0
LINE
  5
4205
330
1E
100
AcDbEntity
  8
7
100
AcDbLine
 10
8.260408583564274
 20
11.53612440458094
 30
0.0
 11
8.221038504824116
 21
11.53612440458094
 31
0.0
  0
LINE
  5
4206
330
1E
100
AcDbEntity
  8
7
100
AcDbLine
 10
8.13179965967976
 20
11.53612440458094
 30
0.0
 11
8.13442433159577
 21
11.53612440458094
 31
0.0
  0
LINE
  5
4207
330
1E
100
AcDbEntity
  8
7
100
AcDbLine
 10
8.13442433159577
 20
11.53612440458094
 30
0.0
 11
8.1422983473438
 21
11.53612440458094
 31
0.0
  0
LINE
  5
4208
330
1E
100
AcDbEntity
  8
7
100
AcDbLine
 10
8.1422983473438
 20
11.53612440458094
 30
0.0
 11
8.163295722671884
 21
11.53612440458094
 31
0.0
  0
LINE
  5
4209
330
1E
100
AcDbEntity
  8
7
100
AcDbLine
 10
8.163295722671884
 20
11.53612440458094
 30
0.0
 11
8.194791785664012
 21
11.53612440458094
 31
0.0
  0
LINE
  5
420A
330
1E
100
AcDbEntity
  8
7
100
AcDbLine
 10
8.194791785664012
 20
11.53612440458094
 30
0.0
 11
8.218413832908106
 21
11.53612440458094
 31
0.0
  0
LINE
  5
420B
330
1E
100
AcDbEntity
  8
7
100
AcDbLine
 10
8.218413832908106
 20
11.53612440458094
 30
0.0
 11
8.221038504824116
 21
11.53612440458094
 31
0.0
  0
LINE
  5
420C
330
1E
100
AcDbEntity
  8
7
100
AcDbLine
 10
8.221038504824116
 20
11.53612440458094
 30
0.0
 11
8.221038504824116
 21
11.57811915523711
 31
0.0
  0
LINE
  5
420D
330
1E
100
AcDbEntity
  8
7
100
AcDbLine
 10
8.221038504824116
 20
11.57811915523711
 30
0.0
 11
8.218413832908106
 21
11.6017412024812
 31
0.0
  0
LINE
  5
420E
330
1E
100
AcDbEntity
  8
7
100
AcDbLine
 10
8.218413832908106
 20
11.6017412024812
 30
0.0
 11
8.218413832908106
 21
11.61748923397727
 31
0.0
  0
LINE
  5
420F
330
1E
100
AcDbEntity
  8
7
100
AcDbLine
 10
8.218413832908106
 20
11.61748923397727
 30
0.0
 11
8.218413832908106
 21
11.6253632497253
 31
0.0
  0
LINE
  5
4210
330
1E
100
AcDbEntity
  8
7
100
AcDbLine
 10
8.218413832908106
 20
11.45738424710063
 30
0.0
 11
8.218413832908106
 21
11.4495102313526
 31
0.0
  0
LINE
  5
4211
330
1E
100
AcDbEntity
  8
7
100
AcDbLine
 10
8.218413832908106
 20
11.4495102313526
 30
0.0
 11
8.218413832908106
 21
11.44688555943659
 31
0.0
  0
LINE
  5
4212
330
1E
100
AcDbEntity
  8
7
100
AcDbLine
 10
8.221038504824116
 20
11.53612440458094
 30
0.0
 11
8.218413832908106
 21
11.50725301350483
 31
0.0
  0
LINE
  5
4213
330
1E
100
AcDbEntity
  8
7
100
AcDbLine
 10
8.218413832908106
 20
11.50725301350483
 30
0.0
 11
8.218413832908106
 21
11.4757569505127
 31
0.0
  0
LINE
  5
4214
330
1E
100
AcDbEntity
  8
7
100
AcDbLine
 10
8.218413832908106
 20
11.4757569505127
 30
0.0
 11
8.218413832908106
 21
11.45738424710063
 31
0.0
  0
LINE
  5
4215
330
1E
100
AcDbEntity
  8
7
100
AcDbLine
 10
7.950697297475035
 20
11.18179369591952
 30
0.0
 11
7.942823281727005
 21
11.18179369591952
 31
0.0
  0
LINE
  5
4216
330
1E
100
AcDbEntity
  8
7
100
AcDbLine
 10
7.942823281727005
 20
11.18179369591952
 30
0.0
 11
7.929699922146951
 21
11.18179369591952
 31
0.0
  0
LINE
  5
4217
330
1E
100
AcDbEntity
  8
7
100
AcDbLine
 10
7.929699922146951
 20
11.18179369591952
 30
0.0
 11
7.903453202986847
 21
11.18179369591952
 31
0.0
  0
LINE
  5
4218
330
1E
100
AcDbEntity
  8
7
100
AcDbLine
 10
7.903453202986847
 20
11.18179369591952
 30
0.0
 11
7.8667077961627
 21
11.18179369591952
 31
0.0
  0
LINE
  5
4219
330
1E
100
AcDbEntity
  8
7
100
AcDbLine
 10
7.8667077961627
 20
11.18179369591952
 30
0.0
 11
7.8667077961627
 21
11.18441836783554
 31
0.0
  0
LINE
  5
421A
330
1E
100
AcDbEntity
  8
7
100
AcDbLine
 10
7.8667077961627
 20
11.18441836783554
 30
0.0
 11
7.8667077961627
 21
11.22378844657569
 31
0.0
  0
LINE
  5
421B
330
1E
100
AcDbEntity
  8
7
100
AcDbLine
 10
7.8667077961627
 20
11.22378844657569
 30
0.0
 11
7.8667077961627
 21
11.24741049381979
 31
0.0
  0
LINE
  5
421C
330
1E
100
AcDbEntity
  8
7
100
AcDbLine
 10
7.8667077961627
 20
11.24741049381979
 30
0.0
 11
7.86408312424669
 21
11.26053385339984
 31
0.0
  0
LINE
  5
421D
330
1E
100
AcDbEntity
  8
7
100
AcDbLine
 10
7.86408312424669
 20
11.26053385339984
 30
0.0
 11
7.86408312424669
 21
11.26840786914787
 31
0.0
  0
LINE
  5
421E
330
1E
100
AcDbEntity
  8
7
100
AcDbLine
 10
7.8667077961627
 20
10.32352597938409
 30
0.0
 11
7.8667077961627
 21
10.31827663555207
 31
0.0
  0
LINE
  5
421F
330
1E
100
AcDbEntity
  8
7
100
AcDbLine
 10
7.8667077961627
 20
10.31827663555207
 30
0.0
 11
7.86933246807871
 21
10.30777794788803
 31
0.0
  0
LINE
  5
4220
330
1E
100
AcDbEntity
  8
7
100
AcDbLine
 10
7.86933246807871
 20
10.30777794788803
 30
0.0
 11
7.86933246807871
 21
10.28940524447595
 31
0.0
  0
LINE
  5
4221
330
1E
100
AcDbEntity
  8
7
100
AcDbLine
 10
7.86933246807871
 20
10.28940524447595
 30
0.0
 11
7.86933246807871
 21
10.25265983765181
 31
0.0
  0
LINE
  5
4222
330
1E
100
AcDbEntity
  8
7
100
AcDbLine
 10
7.86933246807871
 20
10.25265983765181
 30
0.0
 11
7.871957139994719
 21
10.23166246232372
 31
0.0
  0
LINE
  5
4223
330
1E
100
AcDbEntity
  8
7
100
AcDbLine
 10
7.871957139994719
 20
10.23166246232372
 30
0.0
 11
7.86933246807871
 21
10.23166246232372
 31
0.0
  0
LINE
  5
4224
330
1E
100
AcDbEntity
  8
7
100
AcDbLine
 10
7.86933246807871
 20
10.23166246232372
 30
0.0
 11
7.850959764666635
 21
10.23166246232372
 31
0.0
  0
LINE
  5
4225
330
1E
100
AcDbEntity
  8
7
100
AcDbLine
 10
7.850959764666635
 20
10.23166246232372
 30
0.0
 11
7.816839029758502
 21
10.23166246232372
 31
0.0
  0
LINE
  5
4226
330
1E
100
AcDbEntity
  8
7
100
AcDbLine
 10
7.816839029758502
 20
10.23166246232372
 30
0.0
 11
7.795841654430418
 21
10.23166246232372
 31
0.0
  0
LINE
  5
4227
330
1E
100
AcDbEntity
  8
7
100
AcDbLine
 10
7.795841654430418
 20
10.23166246232372
 30
0.0
 11
7.785342966766373
 21
10.23166246232372
 31
0.0
  0
LINE
  5
4228
330
1E
100
AcDbEntity
  8
7
100
AcDbLine
 10
7.785342966766373
 20
10.23166246232372
 30
0.0
 11
7.782718294850363
 21
10.23166246232372
 31
0.0
  0
LINE
  5
4229
330
1E
100
AcDbEntity
  8
7
100
AcDbLine
 10
7.515001759417292
 20
10.50200366967281
 30
0.0
 11
7.515001759417292
 21
10.50725301350482
 31
0.0
  0
LINE
  5
422A
330
1E
100
AcDbEntity
  8
7
100
AcDbLine
 10
7.515001759417292
 20
10.50725301350482
 30
0.0
 11
7.515001759417292
 21
10.52037637308488
 31
0.0
  0
LINE
  5
422B
330
1E
100
AcDbEntity
  8
7
100
AcDbLine
 10
7.515001759417292
 20
10.52037637308488
 30
0.0
 11
7.517626431333302
 21
10.54137374841296
 31
0.0
  0
LINE
  5
422C
330
1E
100
AcDbEntity
  8
7
100
AcDbLine
 10
7.517626431333302
 20
10.54137374841296
 30
0.0
 11
7.517626431333302
 21
10.58074382715312
 31
0.0
  0
LINE
  5
422D
330
1E
100
AcDbEntity
  8
7
100
AcDbLine
 10
7.517626431333302
 20
10.58074382715312
 30
0.0
 11
7.515001759417292
 21
10.58336849906913
 31
0.0
  0
LINE
  5
422E
330
1E
100
AcDbEntity
  8
7
100
AcDbLine
 10
7.517626431333302
 20
10.58599317098514
 30
0.0
 11
7.535999134745376
 21
10.58599317098514
 31
0.0
  0
LINE
  5
422F
330
1E
100
AcDbEntity
  8
7
100
AcDbLine
 10
7.535999134745376
 20
10.58599317098514
 30
0.0
 11
7.564870525821494
 21
10.58861784290115
 31
0.0
  0
LINE
  5
4230
330
1E
100
AcDbEntity
  8
7
100
AcDbLine
 10
7.564870525821494
 20
10.58861784290115
 30
0.0
 11
7.580618557317554
 21
10.59124251481716
 31
0.0
  0
LINE
  5
4231
330
1E
100
AcDbEntity
  8
7
100
AcDbLine
 10
7.580618557317554
 20
10.59124251481716
 30
0.0
 11
7.591117244981598
 21
10.59386718673317
 31
0.0
  0
LINE
  5
4232
330
1E
100
AcDbEntity
  8
7
100
AcDbLine
 10
7.591117244981598
 20
10.59386718673317
 30
0.0
 11
7.593741916897608
 21
10.59386718673317
 31
0.0
  0
LINE
  5
4233
330
1E
100
AcDbEntity
  8
7
100
AcDbLine
 10
7.777468951018343
 20
11.18179369591952
 30
0.0
 11
7.780093622934353
 21
11.18179369591952
 31
0.0
  0
LINE
  5
4234
330
1E
100
AcDbEntity
  8
7
100
AcDbLine
 10
7.780093622934353
 20
11.18179369591952
 30
0.0
 11
7.790592310598398
 21
11.18179369591952
 31
0.0
  0
LINE
  5
4235
330
1E
100
AcDbEntity
  8
7
100
AcDbLine
 10
7.790592310598398
 20
11.18179369591952
 30
0.0
 11
7.811589685926482
 21
11.18179369591952
 31
0.0
  0
LINE
  5
4236
330
1E
100
AcDbEntity
  8
7
100
AcDbLine
 10
7.811589685926482
 20
11.18179369591952
 30
0.0
 11
7.845710420834615
 21
11.18179369591952
 31
0.0
  0
LINE
  5
4237
330
1E
100
AcDbEntity
  8
7
100
AcDbLine
 10
7.845710420834615
 20
11.18179369591952
 30
0.0
 11
7.8667077961627
 21
11.18179369591952
 31
0.0
  0
LINE
  5
4238
330
1E
100
AcDbEntity
  8
7
100
AcDbLine
 10
7.8667077961627
 20
11.18179369591952
 30
0.0
 11
7.8667077961627
 21
11.17391968017149
 31
0.0
  0
LINE
  5
4239
330
1E
100
AcDbEntity
  8
7
100
AcDbLine
 10
7.8667077961627
 20
11.17391968017149
 30
0.0
 11
7.86408312424669
 21
11.13717427334735
 31
0.0
  0
LINE
  5
423A
330
1E
100
AcDbEntity
  8
7
100
AcDbLine
 10
7.86408312424669
 20
11.13717427334735
 30
0.0
 11
7.86408312424669
 21
11.11092755418724
 31
0.0
  0
LINE
  5
423B
330
1E
100
AcDbEntity
  8
7
100
AcDbLine
 10
7.86408312424669
 20
11.11092755418724
 30
0.0
 11
7.86408312424669
 21
11.09780419460719
 31
0.0
  0
LINE
  5
423C
330
1E
100
AcDbEntity
  8
7
100
AcDbLine
 10
7.86408312424669
 20
11.09780419460719
 30
0.0
 11
7.86408312424669
 21
11.09255485077517
 31
0.0
  0
LINE
  5
423D
330
1E
100
AcDbEntity
  8
7
100
AcDbLine
 10
7.512377087501282
 20
10.84058634683816
 30
0.0
 11
7.512377087501282
 21
10.86683306599826
 31
0.0
  0
LINE
  5
423E
330
1E
100
AcDbEntity
  8
7
100
AcDbLine
 10
7.512377087501282
 20
10.86683306599826
 30
0.0
 11
7.509752415585272
 21
10.89045511324236
 31
0.0
  0
LINE
  5
423F
330
1E
100
AcDbEntity
  8
7
100
AcDbLine
 10
7.509752415585272
 20
10.89045511324236
 30
0.0
 11
7.509752415585272
 21
10.90620314473842
 31
0.0
  0
LINE
  5
4240
330
1E
100
AcDbEntity
  8
7
100
AcDbLine
 10
7.509752415585272
 20
10.90620314473842
 30
0.0
 11
7.507127743669262
 21
10.91407716048645
 31
0.0
  0
LINE
  5
4241
330
1E
100
AcDbEntity
  8
7
100
AcDbLine
 10
7.591117244981598
 20
10.82221364342609
 30
0.0
 11
7.583243229233568
 21
10.82221364342609
 31
0.0
  0
LINE
  5
4242
330
1E
100
AcDbEntity
  8
7
100
AcDbLine
 10
7.583243229233568
 20
10.82221364342609
 30
0.0
 11
7.567495197737504
 21
10.8248383153421
 31
0.0
  0
LINE
  5
4243
330
1E
100
AcDbEntity
  8
7
100
AcDbLine
 10
7.567495197737504
 20
10.8248383153421
 30
0.0
 11
7.543873150493411
 21
10.82746298725811
 31
0.0
  0
LINE
  5
4244
330
1E
100
AcDbEntity
  8
7
100
AcDbLine
 10
7.543873150493411
 20
10.82746298725811
 30
0.0
 11
7.522875775165326
 21
10.82746298725811
 31
0.0
  0
LINE
  5
4245
330
1E
100
AcDbEntity
  8
7
100
AcDbLine
 10
7.522875775165326
 20
10.82746298725811
 30
0.0
 11
7.515001759417292
 21
10.83796167492215
 31
0.0
  0
LINE
  5
4246
330
1E
100
AcDbEntity
  8
7
100
AcDbLine
 10
7.515001759417292
 20
10.83796167492215
 30
0.0
 11
7.512377087501282
 21
10.84058634683816
 31
0.0
  0
LINE
  5
4247
330
1E
100
AcDbEntity
  8
7
100
AcDbLine
 10
8.927075250230942
 20
12.33402466704814
 30
0.0
 11
8.927075250230942
 21
12.33139999513212
 31
0.0
  0
LINE
  5
4248
330
1E
100
AcDbEntity
  8
7
100
AcDbLine
 10
8.927075250230942
 20
12.33139999513212
 30
0.0
 11
8.927075250230942
 21
12.32352597938409
 31
0.0
  0
LINE
  5
4249
330
1E
100
AcDbEntity
  8
7
100
AcDbLine
 10
8.927075250230942
 20
12.32352597938409
 30
0.0
 11
8.927075250230942
 21
12.31040261980404
 31
0.0
  0
LINE
  5
424A
330
1E
100
AcDbEntity
  8
7
100
AcDbLine
 10
8.927075250230942
 20
12.31040261980404
 30
0.0
 11
8.927075250230942
 21
12.28678057255994
 31
0.0
  0
LINE
  5
424B
330
1E
100
AcDbEntity
  8
7
100
AcDbLine
 10
8.927075250230942
 20
12.28678057255994
 30
0.0
 11
8.927075250230942
 21
12.24478582190378
 31
0.0
  0
LINE
  5
424C
330
1E
100
AcDbEntity
  8
7
100
AcDbLine
 10
8.927075250230942
 20
12.24478582190378
 30
0.0
 11
8.929699922146951
 21
12.24478582190378
 31
0.0
  0
LINE
  5
424D
330
1E
100
AcDbEntity
  8
7
100
AcDbLine
 10
8.929699922146951
 20
12.24478582190378
 30
0.0
 11
8.969070000887109
 21
12.24478582190378
 31
0.0
  0
LINE
  5
424E
330
1E
100
AcDbEntity
  8
7
100
AcDbLine
 10
8.969070000887109
 20
12.24478582190378
 30
0.0
 11
8.992692048131203
 21
12.24478582190378
 31
0.0
  0
LINE
  5
424F
330
1E
100
AcDbEntity
  8
7
100
AcDbLine
 10
8.992692048131203
 20
12.24478582190378
 30
0.0
 11
9.008440079627266
 21
12.24478582190378
 31
0.0
  0
LINE
  5
4250
330
1E
100
AcDbEntity
  8
7
100
AcDbLine
 10
9.008440079627266
 20
12.24478582190378
 30
0.0
 11
9.016314095375296
 21
12.24478582190378
 31
0.0
  0
LINE
  5
4251
330
1E
100
AcDbEntity
  8
7
100
AcDbLine
 10
9.239411208236191
 20
12.64373595313737
 30
0.0
 11
9.239411208236191
 21
12.64636062505338
 31
0.0
  0
LINE
  5
4252
330
1E
100
AcDbEntity
  8
7
100
AcDbLine
 10
9.239411208236191
 20
12.64636062505338
 30
0.0
 11
9.244660552068211
 21
12.64373595313737
 31
0.0
  0
LINE
  5
4253
330
1E
100
AcDbEntity
  8
7
100
AcDbLine
 10
9.244660552068211
 20
12.64373595313737
 30
0.0
 11
9.252534567816244
 21
12.64373595313737
 31
0.0
  0
LINE
  5
4254
330
1E
100
AcDbEntity
  8
7
100
AcDbLine
 10
9.252534567816244
 20
12.64373595313737
 30
0.0
 11
9.265657927396294
 21
12.64111128122136
 31
0.0
  0
LINE
  5
4255
330
1E
100
AcDbEntity
  8
7
100
AcDbLine
 10
9.265657927396294
 20
12.64111128122136
 30
0.0
 11
9.291904646556403
 21
12.64111128122136
 31
0.0
  0
LINE
  5
4256
330
1E
100
AcDbEntity
  8
7
100
AcDbLine
 10
9.291904646556403
 20
12.64111128122136
 30
0.0
 11
9.320776037632516
 21
12.63848660930535
 31
0.0
  0
LINE
  5
4257
330
1E
100
AcDbEntity
  8
7
100
AcDbLine
 10
9.320776037632516
 20
12.63848660930535
 30
0.0
 11
9.323400709548526
 21
12.60699054631323
 31
0.0
  0
LINE
  5
4258
330
1E
100
AcDbEntity
  8
7
100
AcDbLine
 10
9.323400709548526
 20
12.60699054631323
 30
0.0
 11
9.323400709548526
 21
12.58336849906913
 31
0.0
  0
LINE
  5
4259
330
1E
100
AcDbEntity
  8
7
100
AcDbLine
 10
9.323400709548526
 20
12.58336849906913
 30
0.0
 11
9.326025381464535
 21
12.56762046757307
 31
0.0
  0
LINE
  5
425A
330
1E
100
AcDbEntity
  8
7
100
AcDbLine
 10
9.326025381464535
 20
12.56762046757307
 30
0.0
 11
9.326025381464535
 21
12.55712177990903
 31
0.0
  0
LINE
  5
425B
330
1E
100
AcDbEntity
  8
7
100
AcDbLine
 10
8.932324594062961
 20
9.147672961011393
 30
0.0
 11
8.932324594062961
 21
9.116176898019267
 31
0.0
  0
LINE
  5
425C
330
1E
100
AcDbEntity
  8
7
100
AcDbLine
 10
8.932324594062961
 20
9.116176898019267
 30
0.0
 11
8.932324594062961
 21
9.095179522691182
 31
0.0
  0
LINE
  5
425D
330
1E
100
AcDbEntity
  8
7
100
AcDbLine
 10
8.932324594062961
 20
9.095179522691182
 30
0.0
 11
8.932324594062961
 21
9.084680835027141
 31
0.0
  0
LINE
  5
425E
330
1E
100
AcDbEntity
  8
7
100
AcDbLine
 10
8.932324594062961
 20
9.084680835027141
 30
0.0
 11
8.932324594062961
 21
9.082056163111131
 31
0.0
  0
LINE
  5
425F
330
1E
100
AcDbEntity
  8
7
100
AcDbLine
 10
9.018938767291306
 20
9.168670336339477
 30
0.0
 11
9.011064751543276
 21
9.168670336339477
 31
0.0
  0
LINE
  5
4260
330
1E
100
AcDbEntity
  8
7
100
AcDbLine
 10
9.011064751543276
 20
9.168670336339477
 30
0.0
 11
8.997941391963223
 21
9.168670336339477
 31
0.0
  0
LINE
  5
4261
330
1E
100
AcDbEntity
  8
7
100
AcDbLine
 10
8.997941391963223
 20
9.168670336339477
 30
0.0
 11
8.971694672803119
 21
9.168670336339477
 31
0.0
  0
LINE
  5
4262
330
1E
100
AcDbEntity
  8
7
100
AcDbLine
 10
8.971694672803119
 20
9.168670336339477
 30
0.0
 11
8.932324594062961
 21
9.168670336339477
 31
0.0
  0
LINE
  5
4263
330
1E
100
AcDbEntity
  8
7
100
AcDbLine
 10
8.932324594062961
 20
9.168670336339477
 30
0.0
 11
8.932324594062961
 21
9.147672961011393
 31
0.0
  0
LINE
  5
4264
330
1E
100
AcDbEntity
  8
7
100
AcDbLine
 10
9.328650053380545
 20
8.861583722166248
 30
0.0
 11
9.328650053380545
 21
8.858959050250238
 31
0.0
  0
LINE
  5
4265
330
1E
100
AcDbEntity
  8
7
100
AcDbLine
 10
9.328650053380545
 20
8.858959050250238
 30
0.0
 11
9.326025381464535
 21
8.848460362586195
 31
0.0
  0
LINE
  5
4266
330
1E
100
AcDbEntity
  8
7
100
AcDbLine
 10
9.326025381464535
 20
8.848460362586195
 30
0.0
 11
9.326025381464535
 21
8.835337003006145
 31
0.0
  0
LINE
  5
4267
330
1E
100
AcDbEntity
  8
7
100
AcDbLine
 10
9.326025381464535
 20
8.835337003006145
 30
0.0
 11
9.323400709548526
 21
8.809090283846039
 31
0.0
  0
LINE
  5
4268
330
1E
100
AcDbEntity
  8
7
100
AcDbLine
 10
9.323400709548526
 20
8.809090283846039
 30
0.0
 11
9.320776037632516
 21
8.780218892769923
 31
0.0
  0
LINE
  5
4269
330
1E
100
AcDbEntity
  8
7
100
AcDbLine
 10
9.265657927396294
 20
8.777594220853913
 30
0.0
 11
9.249909895900234
 21
8.774969548937903
 31
0.0
  0
LINE
  5
426A
330
1E
100
AcDbEntity
  8
7
100
AcDbLine
 10
9.249909895900234
 20
8.774969548937903
 30
0.0
 11
9.239411208236191
 21
8.774969548937903
 31
0.0
  0
LINE
  5
426B
330
1E
100
AcDbEntity
  8
7
100
AcDbLine
 10
9.320776037632516
 20
8.780218892769923
 30
0.0
 11
9.289279974640388
 21
8.780218892769923
 31
0.0
  0
LINE
  5
426C
330
1E
100
AcDbEntity
  8
7
100
AcDbLine
 10
9.289279974640388
 20
8.780218892769923
 30
0.0
 11
9.265657927396294
 21
8.777594220853913
 31
0.0
  0
LINE
  5
426D
330
1E
100
AcDbEntity
  8
7
100
AcDbLine
 10
5.577993885401545
 20
8.648985296969399
 30
0.0
 11
5.570119869653515
 21
8.714602094869661
 31
0.0
  0
LINE
  5
426E
330
1E
100
AcDbEntity
  8
7
100
AcDbLine
 10
5.570119869653515
 20
8.714602094869661
 30
0.0
 11
5.543873150493411
 21
8.772344877021893
 31
0.0
  0
LINE
  5
426F
330
1E
100
AcDbEntity
  8
7
100
AcDbLine
 10
5.131799659679762
 20
8.801216268098009
 30
0.0
 11
5.095054252855613
 21
8.738224142113757
 31
0.0
  0
LINE
  5
4270
330
1E
100
AcDbEntity
  8
7
100
AcDbLine
 10
5.095054252855613
 20
8.738224142113757
 30
0.0
 11
5.07930622135955
 21
8.667358000381472
 31
0.0
  0
LINE
  5
4271
330
1E
100
AcDbEntity
  8
7
100
AcDbLine
 10
5.07930622135955
 20
8.667358000381472
 30
0.0
 11
5.084555565191574
 21
8.593867186733177
 31
0.0
  0
LINE
  5
4272
330
1E
100
AcDbEntity
  8
7
100
AcDbLine
 10
5.084555565191574
 20
8.593867186733177
 30
0.0
 11
5.110802284351677
 21
8.525625716916906
 31
0.0
  0
LINE
  5
4273
330
1E
100
AcDbEntity
  8
7
100
AcDbLine
 10
5.110802284351677
 20
8.525625716916906
 30
0.0
 11
5.155421706923855
 21
8.470507606680683
 31
0.0
  0
LINE
  5
4274
330
1E
100
AcDbEntity
  8
7
100
AcDbLine
 10
5.155421706923855
 20
8.470507606680683
 30
0.0
 11
5.215789160992097
 21
8.425888184108508
 31
0.0
  0
LINE
  5
4275
330
1E
100
AcDbEntity
  8
7
100
AcDbLine
 10
5.215789160992097
 20
8.425888184108508
 30
0.0
 11
5.284030630808369
 21
8.404890808780422
 31
0.0
  0
LINE
  5
4276
330
1E
100
AcDbEntity
  8
7
100
AcDbLine
 10
5.284030630808369
 20
8.404890808780422
 30
0.0
 11
5.354896772540655
 21
8.402266136864412
 31
0.0
  0
LINE
  5
4277
330
1E
100
AcDbEntity
  8
7
100
AcDbLine
 10
5.354896772540655
 20
8.402266136864412
 30
0.0
 11
5.425762914272937
 21
8.420638840276485
 31
0.0
  0
LINE
  5
4278
330
1E
100
AcDbEntity
  8
7
100
AcDbLine
 10
5.425762914272937
 20
8.420638840276485
 30
0.0
 11
5.488755040257188
 21
8.457384247100634
 31
0.0
  0
LINE
  5
4279
330
1E
100
AcDbEntity
  8
7
100
AcDbLine
 10
5.488755040257188
 20
8.457384247100634
 30
0.0
 11
5.535999134745376
 21
8.512502357336853
 31
0.0
  0
LINE
  5
427A
330
1E
100
AcDbEntity
  8
7
100
AcDbLine
 10
5.535999134745376
 20
8.512502357336853
 30
0.0
 11
5.567495197737505
 21
8.578119155237114
 31
0.0
  0
LINE
  5
427B
330
1E
100
AcDbEntity
  8
7
100
AcDbLine
 10
5.567495197737505
 20
8.578119155237114
 30
0.0
 11
5.577993885401545
 21
8.648985296969399
 31
0.0
  0
LINE
  5
427C
330
1E
100
AcDbEntity
  8
7
100
AcDbLine
 10
5.457258977265065
 20
8.861583722166248
 30
0.0
 11
5.391642179364799
 21
8.890455113242364
 31
0.0
  0
LINE
  5
427D
330
1E
100
AcDbEntity
  8
7
100
AcDbLine
 10
5.391642179364799
 20
8.890455113242364
 30
0.0
 11
5.318151365716508
 21
8.898329128990397
 31
0.0
  0
LINE
  5
427E
330
1E
100
AcDbEntity
  8
7
100
AcDbLine
 10
5.318151365716508
 20
8.898329128990397
 30
0.0
 11
5.247285223984221
 21
8.885205769410344
 31
0.0
  0
LINE
  5
427F
330
1E
100
AcDbEntity
  8
7
100
AcDbLine
 10
5.247285223984221
 20
8.885205769410344
 30
0.0
 11
5.184293097999969
 21
8.851085034502204
 31
0.0
  0
LINE
  5
4280
330
1E
100
AcDbEntity
  8
7
100
AcDbLine
 10
5.184293097999969
 20
8.851085034502204
 30
0.0
 11
5.131799659679762
 21
8.801216268098009
 31
0.0
  0
LINE
  5
4281
330
1E
100
AcDbEntity
  8
7
100
AcDbLine
 10
5.428387586188947
 20
8.722476110617691
 30
0.0
 11
5.391642179364799
 21
8.756596845525827
 31
0.0
  0
LINE
  5
4282
330
1E
100
AcDbEntity
  8
7
100
AcDbLine
 10
5.391642179364799
 20
8.756596845525827
 30
0.0
 11
5.341773412960601
 21
8.772344877021893
 31
0.0
  0
LINE
  5
4283
330
1E
100
AcDbEntity
  8
7
100
AcDbLine
 10
5.341773412960601
 20
8.772344877021893
 30
0.0
 11
5.289279974640389
 21
8.76709553318987
 31
0.0
  0
LINE
  5
4284
330
1E
100
AcDbEntity
  8
7
100
AcDbLine
 10
5.289279974640389
 20
8.76709553318987
 30
0.0
 11
5.247285223984221
 21
8.740848814029767
 31
0.0
  0
LINE
  5
4285
330
1E
100
AcDbEntity
  8
7
100
AcDbLine
 10
5.247285223984221
 20
8.740848814029767
 30
0.0
 11
5.215789160992097
 21
8.698854063373598
 31
0.0
  0
LINE
  5
4286
330
1E
100
AcDbEntity
  8
7
100
AcDbLine
 10
5.215789160992097
 20
8.698854063373598
 30
0.0
 11
5.205290473328053
 21
8.648985296969399
 31
0.0
  0
LINE
  5
4287
330
1E
100
AcDbEntity
  8
7
100
AcDbLine
 10
5.205290473328053
 20
8.648985296969399
 30
0.0
 11
5.215789160992097
 21
8.599116530565197
 31
0.0
  0
LINE
  5
4288
330
1E
100
AcDbEntity
  8
7
100
AcDbLine
 10
5.215789160992097
 20
8.599116530565197
 30
0.0
 11
5.247285223984221
 21
8.557121779909031
 31
0.0
  0
LINE
  5
4289
330
1E
100
AcDbEntity
  8
7
100
AcDbLine
 10
5.247285223984221
 20
8.557121779909031
 30
0.0
 11
5.289279974640389
 21
8.530875060748925
 31
0.0
  0
LINE
  5
428A
330
1E
100
AcDbEntity
  8
7
100
AcDbLine
 10
5.289279974640389
 20
8.530875060748925
 30
0.0
 11
5.341773412960601
 21
8.525625716916906
 31
0.0
  0
LINE
  5
428B
330
1E
100
AcDbEntity
  8
7
100
AcDbLine
 10
5.341773412960601
 20
8.525625716916906
 30
0.0
 11
5.389017507448789
 21
8.541373748412969
 31
0.0
  0
LINE
  5
428C
330
1E
100
AcDbEntity
  8
7
100
AcDbLine
 10
5.389017507448789
 20
8.541373748412969
 30
0.0
 11
5.428387586188947
 21
8.575494483321104
 31
0.0
  0
LINE
  5
428D
330
1E
100
AcDbEntity
  8
7
100
AcDbLine
 10
5.428387586188947
 20
8.575494483321104
 30
0.0
 11
5.449384961517031
 21
8.622738577809293
 31
0.0
  0
LINE
  5
428E
330
1E
100
AcDbEntity
  8
7
100
AcDbLine
 10
5.449384961517031
 20
8.622738577809293
 30
0.0
 11
5.449384961517031
 21
8.675232016129502
 31
0.0
  0
LINE
  5
428F
330
1E
100
AcDbEntity
  8
7
100
AcDbLine
 10
5.449384961517031
 20
8.675232016129502
 30
0.0
 11
5.428387586188947
 21
8.722476110617691
 31
0.0
  0
LINE
  5
4290
330
1E
100
AcDbEntity
  8
7
100
AcDbLine
 10
5.234161864404171
 20
12.54399842032897
 30
0.0
 11
5.307652678052463
 21
12.52300104500089
 31
0.0
  0
LINE
  5
4291
330
1E
100
AcDbEntity
  8
7
100
AcDbLine
 10
5.307652678052463
 20
12.52300104500089
 30
0.0
 11
5.383768163616769
 21
12.52825038883291
 31
0.0
  0
LINE
  5
4292
330
1E
100
AcDbEntity
  8
7
100
AcDbLine
 10
5.383768163616769
 20
12.52825038883291
 30
0.0
 11
5.454634305349051
 21
12.55712177990903
 31
0.0
  0
LINE
  5
4293
330
1E
100
AcDbEntity
  8
7
100
AcDbLine
 10
5.570119869653515
 20
12.84846036258619
 30
0.0
 11
5.535999134745376
 21
12.91670183240246
 31
0.0
  0
LINE
  5
4294
330
1E
100
AcDbEntity
  8
7
100
AcDbLine
 10
5.535999134745376
 20
12.91670183240246
 30
0.0
 11
5.480881024509159
 21
12.97181994263868
 31
0.0
  0
LINE
  5
4295
330
1E
100
AcDbEntity
  8
7
100
AcDbLine
 10
5.480881024509159
 20
12.97181994263868
 30
0.0
 11
5.415264226608897
 21
13.00856534946283
 31
0.0
  0
LINE
  5
4296
330
1E
100
AcDbEntity
  8
7
100
AcDbLine
 10
5.415264226608897
 20
13.00856534946283
 30
0.0
 11
5.339148741044591
 21
13.02168870904289
 31
0.0
  0
LINE
  5
4297
330
1E
100
AcDbEntity
  8
7
100
AcDbLine
 10
5.339148741044591
 20
13.02168870904289
 30
0.0
 11
5.263033255480285
 21
13.01119002137884
 31
0.0
  0
LINE
  5
4298
330
1E
100
AcDbEntity
  8
7
100
AcDbLine
 10
5.263033255480285
 20
13.01119002137884
 30
0.0
 11
5.194791785664014
 21
12.97969395838672
 31
0.0
  0
LINE
  5
4299
330
1E
100
AcDbEntity
  8
7
100
AcDbLine
 10
5.194791785664014
 20
12.97969395838672
 30
0.0
 11
5.137049003511782
 21
12.92982519198252
 31
0.0
  0
LINE
  5
429A
330
1E
100
AcDbEntity
  8
7
100
AcDbLine
 10
5.137049003511782
 20
12.92982519198252
 30
0.0
 11
5.097678924771623
 21
12.86158372216624
 31
0.0
  0
LINE
  5
429B
330
1E
100
AcDbEntity
  8
7
100
AcDbLine
 10
5.097678924771623
 20
12.86158372216624
 30
0.0
 11
5.081930893275564
 21
12.78809290851795
 31
0.0
  0
LINE
  5
429C
330
1E
100
AcDbEntity
  8
7
100
AcDbLine
 10
5.081930893275564
 20
12.78809290851795
 30
0.0
 11
5.089804909023594
 21
12.71197742295365
 31
0.0
  0
LINE
  5
429D
330
1E
100
AcDbEntity
  8
7
100
AcDbLine
 10
5.089804909023594
 20
12.71197742295365
 30
0.0
 11
5.118676300099707
 21
12.64111128122136
 31
0.0
  0
LINE
  5
429E
330
1E
100
AcDbEntity
  8
7
100
AcDbLine
 10
5.118676300099707
 20
12.64111128122136
 30
0.0
 11
5.168545066503909
 21
12.58336849906913
 31
0.0
  0
LINE
  5
429F
330
1E
100
AcDbEntity
  8
7
100
AcDbLine
 10
5.168545066503909
 20
12.58336849906913
 30
0.0
 11
5.234161864404171
 21
12.54399842032897
 31
0.0
  0
LINE
  5
42A0
330
1E
100
AcDbEntity
  8
7
100
AcDbLine
 10
5.543873150493411
 20
12.64373595313737
 30
0.0
 11
5.572744541569525
 21
12.70410340720561
 31
0.0
  0
LINE
  5
42A1
330
1E
100
AcDbEntity
  8
7
100
AcDbLine
 10
5.572744541569525
 20
12.70410340720561
 30
0.0
 11
5.580618557317555
 21
12.77234487702189
 31
0.0
  0
LINE
  5
42A2
330
1E
100
AcDbEntity
  8
7
100
AcDbLine
 10
5.431012258104956
 20
12.84583569067018
 30
0.0
 11
5.394266851280809
 21
12.87995642557832
 31
0.0
  0
LINE
  5
42A3
330
1E
100
AcDbEntity
  8
7
100
AcDbLine
 10
5.394266851280809
 20
12.87995642557832
 30
0.0
 11
5.344398084876611
 21
12.89570445707438
 31
0.0
  0
LINE
  5
42A4
330
1E
100
AcDbEntity
  8
7
100
AcDbLine
 10
5.344398084876611
 20
12.89570445707438
 30
0.0
 11
5.291904646556403
 21
12.89045511324236
 31
0.0
  0
LINE
  5
42A5
330
1E
100
AcDbEntity
  8
7
100
AcDbLine
 10
5.291904646556403
 20
12.89045511324236
 30
0.0
 11
5.249909895900236
 21
12.86420839408226
 31
0.0
  0
LINE
  5
42A6
330
1E
100
AcDbEntity
  8
7
100
AcDbLine
 10
5.249909895900236
 20
12.86420839408226
 30
0.0
 11
5.218413832908107
 21
12.82221364342609
 31
0.0
  0
LINE
  5
42A7
330
1E
100
AcDbEntity
  8
7
100
AcDbLine
 10
5.218413832908107
 20
12.82221364342609
 30
0.0
 11
5.207915145244068
 21
12.77234487702189
 31
0.0
  0
LINE
  5
42A8
330
1E
100
AcDbEntity
  8
7
100
AcDbLine
 10
5.207915145244068
 20
12.77234487702189
 30
0.0
 11
5.218413832908107
 21
12.72247611061769
 31
0.0
  0
LINE
  5
42A9
330
1E
100
AcDbEntity
  8
7
100
AcDbLine
 10
5.218413832908107
 20
12.72247611061769
 30
0.0
 11
5.249909895900236
 21
12.68048135996152
 31
0.0
  0
LINE
  5
42AA
330
1E
100
AcDbEntity
  8
7
100
AcDbLine
 10
5.249909895900236
 20
12.68048135996152
 30
0.0
 11
5.291904646556403
 21
12.65423464080141
 31
0.0
  0
LINE
  5
42AB
330
1E
100
AcDbEntity
  8
7
100
AcDbLine
 10
5.291904646556403
 20
12.65423464080141
 30
0.0
 11
5.344398084876611
 21
12.64898529696939
 31
0.0
  0
LINE
  5
42AC
330
1E
100
AcDbEntity
  8
7
100
AcDbLine
 10
5.344398084876611
 20
12.64898529696939
 30
0.0
 11
5.391642179364799
 21
12.66473332846546
 31
0.0
  0
LINE
  5
42AD
330
1E
100
AcDbEntity
  8
7
100
AcDbLine
 10
5.391642179364799
 20
12.66473332846546
 30
0.0
 11
5.431012258104956
 21
12.69885406337359
 31
0.0
  0
LINE
  5
42AE
330
1E
100
AcDbEntity
  8
7
100
AcDbLine
 10
5.431012258104956
 20
12.69885406337359
 30
0.0
 11
5.452009633433041
 21
12.74609815786178
 31
0.0
  0
LINE
  5
42AF
330
1E
100
AcDbEntity
  8
7
100
AcDbLine
 10
5.452009633433041
 20
12.74609815786178
 30
0.0
 11
5.452009633433041
 21
12.79859159618199
 31
0.0
  0
LINE
  5
42B0
330
1E
100
AcDbEntity
  8
7
100
AcDbLine
 10
5.452009633433041
 20
12.79859159618199
 30
0.0
 11
5.431012258104956
 21
12.84583569067018
 31
0.0
  0
LINE
  5
42B1
330
1E
100
AcDbEntity
  8
7
100
AcDbLine
 10
9.470382336845114
 20
8.895704457074387
 30
0.0
 11
9.396891523196822
 21
8.890455113242364
 31
0.0
  0
LINE
  5
42B2
330
1E
100
AcDbEntity
  8
7
100
AcDbLine
 10
9.396891523196822
 20
8.890455113242364
 30
0.0
 11
9.328650053380545
 21
8.861583722166248
 31
0.0
  0
LINE
  5
42B3
330
1E
100
AcDbEntity
  8
7
100
AcDbLine
 10
9.701353465454037
 20
8.646360625053389
 30
0.0
 11
9.690854777789997
 21
8.719851438701681
 31
0.0
  0
LINE
  5
42B4
330
1E
100
AcDbEntity
  8
7
100
AcDbLine
 10
9.690854777789997
 20
8.719851438701681
 30
0.0
 11
9.656734042881859
 21
8.788092908517953
 31
0.0
  0
LINE
  5
42B5
330
1E
100
AcDbEntity
  8
7
100
AcDbLine
 10
9.656734042881859
 20
8.788092908517953
 30
0.0
 11
9.606865276477662
 21
8.840586346838165
 31
0.0
  0
LINE
  5
42B6
330
1E
100
AcDbEntity
  8
7
100
AcDbLine
 10
9.606865276477662
 20
8.840586346838165
 30
0.0
 11
9.543873150493411
 21
8.877331753662311
 31
0.0
  0
LINE
  5
42B7
330
1E
100
AcDbEntity
  8
7
100
AcDbLine
 10
9.543873150493411
 20
8.877331753662311
 30
0.0
 11
9.470382336845114
 21
8.895704457074387
 31
0.0
  0
LINE
  5
42B8
330
1E
100
AcDbEntity
  8
7
100
AcDbLine
 10
9.257783911648264
 20
8.48888031009276
 30
0.0
 11
9.315526693800496
 21
8.439011543688557
 31
0.0
  0
LINE
  5
42B9
330
1E
100
AcDbEntity
  8
7
100
AcDbLine
 10
9.315526693800496
 20
8.439011543688557
 30
0.0
 11
9.383768163616768
 21
8.404890808780422
 31
0.0
  0
LINE
  5
42BA
330
1E
100
AcDbEntity
  8
7
100
AcDbLine
 10
9.383768163616768
 20
8.404890808780422
 30
0.0
 11
9.459883649181074
 21
8.397016793032392
 31
0.0
  0
LINE
  5
42BB
330
1E
100
AcDbEntity
  8
7
100
AcDbLine
 10
9.459883649181074
 20
8.397016793032392
 30
0.0
 11
9.535999134745376
 21
8.412764824528451
 31
0.0
  0
LINE
  5
42BC
330
1E
100
AcDbEntity
  8
7
100
AcDbLine
 10
9.535999134745376
 20
8.412764824528451
 30
0.0
 11
9.601615932645637
 21
8.446885559436591
 31
0.0
  0
LINE
  5
42BD
330
1E
100
AcDbEntity
  8
7
100
AcDbLine
 10
9.601615932645637
 20
8.446885559436591
 30
0.0
 11
9.656734042881859
 21
8.502003669672809
 31
0.0
  0
LINE
  5
42BE
330
1E
100
AcDbEntity
  8
7
100
AcDbLine
 10
9.656734042881859
 20
8.502003669672809
 30
0.0
 11
9.690854777789997
 21
8.570245139489081
 31
0.0
  0
LINE
  5
42BF
330
1E
100
AcDbEntity
  8
7
100
AcDbLine
 10
9.690854777789997
 20
8.570245139489081
 30
0.0
 11
9.701353465454037
 21
8.646360625053389
 31
0.0
  0
LINE
  5
42C0
330
1E
100
AcDbEntity
  8
7
100
AcDbLine
 10
9.239411208236191
 20
8.774969548937903
 30
0.0
 11
9.210539817160077
 21
8.704103407205618
 31
0.0
  0
LINE
  5
42C1
330
1E
100
AcDbEntity
  8
7
100
AcDbLine
 10
9.210539817160077
 20
8.704103407205618
 30
0.0
 11
9.202665801412042
 21
8.627987921641313
 31
0.0
  0
LINE
  5
42C2
330
1E
100
AcDbEntity
  8
7
100
AcDbLine
 10
9.202665801412042
 20
8.627987921641313
 30
0.0
 11
9.221038504824116
 21
8.554497107993022
 31
0.0
  0
LINE
  5
42C3
330
1E
100
AcDbEntity
  8
7
100
AcDbLine
 10
9.221038504824116
 20
8.554497107993022
 30
0.0
 11
9.257783911648264
 21
8.48888031009276
 31
0.0
  0
LINE
  5
42C4
330
1E
100
AcDbEntity
  8
7
100
AcDbLine
 10
9.572744541569523
 20
8.672607344213492
 30
0.0
 11
9.55174716624144
 21
8.719851438701681
 31
0.0
  0
LINE
  5
42C5
330
1E
100
AcDbEntity
  8
7
100
AcDbLine
 10
9.55174716624144
 20
8.719851438701681
 30
0.0
 11
9.515001759417291
 21
8.753972173609817
 31
0.0
  0
LINE
  5
42C6
330
1E
100
AcDbEntity
  8
7
100
AcDbLine
 10
9.515001759417291
 20
8.753972173609817
 30
0.0
 11
9.465132993013094
 21
8.769720205105883
 31
0.0
  0
LINE
  5
42C7
330
1E
100
AcDbEntity
  8
7
100
AcDbLine
 10
9.465132993013094
 20
8.769720205105883
 30
0.0
 11
9.412639554692882
 21
8.76447086127386
 31
0.0
  0
LINE
  5
42C8
330
1E
100
AcDbEntity
  8
7
100
AcDbLine
 10
9.412639554692882
 20
8.76447086127386
 30
0.0
 11
9.370644804036714
 21
8.738224142113757
 31
0.0
  0
LINE
  5
42C9
330
1E
100
AcDbEntity
  8
7
100
AcDbLine
 10
9.370644804036714
 20
8.738224142113757
 30
0.0
 11
9.33914874104459
 21
8.696229391457588
 31
0.0
  0
LINE
  5
42CA
330
1E
100
AcDbEntity
  8
7
100
AcDbLine
 10
9.33914874104459
 20
8.696229391457588
 30
0.0
 11
9.328650053380545
 21
8.646360625053389
 31
0.0
  0
LINE
  5
42CB
330
1E
100
AcDbEntity
  8
7
100
AcDbLine
 10
9.328650053380545
 20
8.646360625053389
 30
0.0
 11
9.33914874104459
 21
8.596491858649187
 31
0.0
  0
LINE
  5
42CC
330
1E
100
AcDbEntity
  8
7
100
AcDbLine
 10
9.33914874104459
 20
8.596491858649187
 30
0.0
 11
9.370644804036714
 21
8.554497107993022
 31
0.0
  0
LINE
  5
42CD
330
1E
100
AcDbEntity
  8
7
100
AcDbLine
 10
9.370644804036714
 20
8.554497107993022
 30
0.0
 11
9.412639554692882
 21
8.528250388832915
 31
0.0
  0
LINE
  5
42CE
330
1E
100
AcDbEntity
  8
7
100
AcDbLine
 10
9.412639554692882
 20
8.528250388832915
 30
0.0
 11
9.465132993013094
 21
8.523001045000896
 31
0.0
  0
LINE
  5
42CF
330
1E
100
AcDbEntity
  8
7
100
AcDbLine
 10
9.465132993013094
 20
8.523001045000896
 30
0.0
 11
9.512377087501281
 21
8.538749076496955
 31
0.0
  0
LINE
  5
42D0
330
1E
100
AcDbEntity
  8
7
100
AcDbLine
 10
9.512377087501281
 20
8.538749076496955
 30
0.0
 11
9.55174716624144
 21
8.572869811405094
 31
0.0
  0
LINE
  5
42D1
330
1E
100
AcDbEntity
  8
7
100
AcDbLine
 10
9.55174716624144
 20
8.572869811405094
 30
0.0
 11
9.572744541569523
 21
8.620113905893283
 31
0.0
  0
LINE
  5
42D2
330
1E
100
AcDbEntity
  8
7
100
AcDbLine
 10
9.572744541569523
 20
8.620113905893283
 30
0.0
 11
9.572744541569523
 21
8.672607344213492
 31
0.0
  0
LINE
  5
42D3
330
1E
100
AcDbEntity
  8
7
100
AcDbLine
 10
9.226287848656136
 20
12.86420839408226
 30
0.0
 11
9.207915145244067
 21
12.79071758043396
 31
0.0
  0
LINE
  5
42D4
330
1E
100
AcDbEntity
  8
7
100
AcDbLine
 10
9.207915145244067
 20
12.79071758043396
 30
0.0
 11
9.213164489076087
 21
12.71460209486966
 31
0.0
  0
LINE
  5
42D5
330
1E
100
AcDbEntity
  8
7
100
AcDbLine
 10
9.213164489076087
 20
12.71460209486966
 30
0.0
 11
9.242035880152201
 21
12.64636062505338
 31
0.0
  0
LINE
  5
42D6
330
1E
100
AcDbEntity
  8
7
100
AcDbLine
 10
9.706602809286057
 20
12.76972020510588
 30
0.0
 11
9.696104121622017
 21
12.84583569067018
 31
0.0
  0
LINE
  5
42D7
330
1E
100
AcDbEntity
  8
7
100
AcDbLine
 10
9.696104121622017
 20
12.84583569067018
 30
0.0
 11
9.661983386713879
 21
12.91145248857044
 31
0.0
  0
LINE
  5
42D8
330
1E
100
AcDbEntity
  8
7
100
AcDbLine
 10
9.661983386713879
 20
12.91145248857044
 30
0.0
 11
9.609489948393672
 21
12.96657059880666
 31
0.0
  0
LINE
  5
42D9
330
1E
100
AcDbEntity
  8
7
100
AcDbLine
 10
9.609489948393672
 20
12.96657059880666
 30
0.0
 11
9.543873150493411
 21
13.00331600563081
 31
0.0
  0
LINE
  5
42DA
330
1E
100
AcDbEntity
  8
7
100
AcDbLine
 10
9.543873150493411
 20
13.00331600563081
 30
0.0
 11
9.467757664929104
 21
13.01906403712687
 31
0.0
  0
LINE
  5
42DB
330
1E
100
AcDbEntity
  8
7
100
AcDbLine
 10
9.467757664929104
 20
13.01906403712687
 30
0.0
 11
9.391642179364797
 21
13.01119002137884
 31
0.0
  0
LINE
  5
42DC
330
1E
100
AcDbEntity
  8
7
100
AcDbLine
 10
9.391642179364797
 20
13.01119002137884
 30
0.0
 11
9.323400709548526
 21
12.97969395838672
 31
0.0
  0
LINE
  5
42DD
330
1E
100
AcDbEntity
  8
7
100
AcDbLine
 10
9.323400709548526
 20
12.97969395838672
 30
0.0
 11
9.265657927396294
 21
12.92982519198252
 31
0.0
  0
LINE
  5
42DE
330
1E
100
AcDbEntity
  8
7
100
AcDbLine
 10
9.265657927396294
 20
12.92982519198252
 30
0.0
 11
9.226287848656136
 21
12.86420839408226
 31
0.0
  0
LINE
  5
42DF
330
1E
100
AcDbEntity
  8
7
100
AcDbLine
 10
9.612114620309682
 20
12.57286981140509
 30
0.0
 11
9.661983386713879
 21
12.62798792164131
 31
0.0
  0
LINE
  5
42E0
330
1E
100
AcDbEntity
  8
7
100
AcDbLine
 10
9.661983386713879
 20
12.62798792164131
 30
0.0
 11
9.696104121622017
 21
12.69622939145758
 31
0.0
  0
LINE
  5
42E1
330
1E
100
AcDbEntity
  8
7
100
AcDbLine
 10
9.696104121622017
 20
12.69622939145758
 30
0.0
 11
9.706602809286057
 21
12.76972020510588
 31
0.0
  0
LINE
  5
42E2
330
1E
100
AcDbEntity
  8
7
100
AcDbLine
 10
9.328650053380545
 20
12.55712177990903
 30
0.0
 11
9.396891523196822
 21
12.52825038883291
 31
0.0
  0
LINE
  5
42E3
330
1E
100
AcDbEntity
  8
7
100
AcDbLine
 10
9.396891523196822
 20
12.52825038883291
 30
0.0
 11
9.473007008761124
 21
12.52037637308488
 31
0.0
  0
LINE
  5
42E4
330
1E
100
AcDbEntity
  8
7
100
AcDbLine
 10
9.473007008761124
 20
12.52037637308488
 30
0.0
 11
9.546497822409421
 21
12.53612440458094
 31
0.0
  0
LINE
  5
42E5
330
1E
100
AcDbEntity
  8
7
100
AcDbLine
 10
9.546497822409421
 20
12.53612440458094
 30
0.0
 11
9.612114620309682
 21
12.57286981140509
 31
0.0
  0
LINE
  5
42E6
330
1E
100
AcDbEntity
  8
7
100
AcDbLine
 10
9.577993885401543
 20
12.74347348594577
 30
0.0
 11
9.577993885401543
 21
12.79596692426598
 31
0.0
  0
LINE
  5
42E7
330
1E
100
AcDbEntity
  8
7
100
AcDbLine
 10
9.577993885401543
 20
12.79596692426598
 30
0.0
 11
9.55699651007346
 21
12.84321101875417
 31
0.0
  0
LINE
  5
42E8
330
1E
100
AcDbEntity
  8
7
100
AcDbLine
 10
9.55699651007346
 20
12.84321101875417
 30
0.0
 11
9.520251103249316
 21
12.87733175366231
 31
0.0
  0
LINE
  5
42E9
330
1E
100
AcDbEntity
  8
7
100
AcDbLine
 10
9.520251103249316
 20
12.87733175366231
 30
0.0
 11
9.470382336845114
 21
12.89307978515837
 31
0.0
  0
LINE
  5
42EA
330
1E
100
AcDbEntity
  8
7
100
AcDbLine
 10
9.470382336845114
 20
12.89307978515837
 30
0.0
 11
9.417888898524907
 21
12.88783044132635
 31
0.0
  0
LINE
  5
42EB
330
1E
100
AcDbEntity
  8
7
100
AcDbLine
 10
9.417888898524907
 20
12.88783044132635
 30
0.0
 11
9.375894147868738
 21
12.86158372216624
 31
0.0
  0
LINE
  5
42EC
330
1E
100
AcDbEntity
  8
7
100
AcDbLine
 10
9.375894147868738
 20
12.86158372216624
 30
0.0
 11
9.34439808487661
 21
12.81958897151008
 31
0.0
  0
LINE
  5
42ED
330
1E
100
AcDbEntity
  8
7
100
AcDbLine
 10
9.34439808487661
 20
12.81958897151008
 30
0.0
 11
9.333899397212571
 21
12.76972020510588
 31
0.0
  0
LINE
  5
42EE
330
1E
100
AcDbEntity
  8
7
100
AcDbLine
 10
9.333899397212571
 20
12.76972020510588
 30
0.0
 11
9.34439808487661
 21
12.71985143870168
 31
0.0
  0
LINE
  5
42EF
330
1E
100
AcDbEntity
  8
7
100
AcDbLine
 10
9.34439808487661
 20
12.71985143870168
 30
0.0
 11
9.375894147868738
 21
12.67785668804551
 31
0.0
  0
LINE
  5
42F0
330
1E
100
AcDbEntity
  8
7
100
AcDbLine
 10
9.375894147868738
 20
12.67785668804551
 30
0.0
 11
9.417888898524907
 21
12.6516099688854
 31
0.0
  0
LINE
  5
42F1
330
1E
100
AcDbEntity
  8
7
100
AcDbLine
 10
9.417888898524907
 20
12.6516099688854
 30
0.0
 11
9.470382336845114
 21
12.64636062505338
 31
0.0
  0
LINE
  5
42F2
330
1E
100
AcDbEntity
  8
7
100
AcDbLine
 10
9.470382336845114
 20
12.64636062505338
 30
0.0
 11
9.517626431333301
 21
12.66210865654945
 31
0.0
  0
LINE
  5
42F3
330
1E
100
AcDbEntity
  8
7
100
AcDbLine
 10
9.517626431333301
 20
12.66210865654945
 30
0.0
 11
9.55699651007346
 21
12.69622939145758
 31
0.0
  0
LINE
  5
42F4
330
1E
100
AcDbEntity
  8
7
100
AcDbLine
 10
9.55699651007346
 20
12.69622939145758
 30
0.0
 11
9.577993885401543
 21
12.74347348594577
 31
0.0
  0
LINE
  5
42F5
330
1E
100
AcDbEntity
  8
7
100
AcDbLine
 10
5.260408583564275
 20
9.92195117623449
 30
0.0
 11
5.349647428708631
 21
9.70935275103764
 31
0.0
  0
LINE
  5
42F6
330
1E
100
AcDbEntity
  8
7
100
AcDbLine
 10
5.349647428708631
 20
9.70935275103764
 30
0.0
 11
5.462508321097085
 21
9.509877685420843
 31
0.0
  0
LINE
  5
42F7
330
1E
100
AcDbEntity
  8
7
100
AcDbLine
 10
5.462508321097085
 20
9.509877685420843
 30
0.0
 11
5.593741916897609
 21
9.320901307468083
 31
0.0
  0
LINE
  5
42F8
330
1E
100
AcDbEntity
  8
7
100
AcDbLine
 10
5.593741916897609
 20
9.320901307468083
 30
0.0
 11
5.743348216110206
 21
9.147672961011393
 31
0.0
  0
LINE
  5
42F9
330
1E
100
AcDbEntity
  8
7
100
AcDbLine
 10
5.74859755994223
 20
12.26578319723186
 30
0.0
 11
5.596366588813618
 21
12.09255485077517
 31
0.0
  0
LINE
  5
42FA
330
1E
100
AcDbEntity
  8
7
100
AcDbLine
 10
5.596366588813618
 20
12.09255485077517
 30
0.0
 11
5.465132993013095
 21
11.90357847282241
 31
0.0
  0
LINE
  5
42FB
330
1E
100
AcDbEntity
  8
7
100
AcDbLine
 10
5.465132993013095
 20
11.90357847282241
 30
0.0
 11
5.352272100624641
 21
11.70410340720561
 31
0.0
  0
LINE
  5
42FC
330
1E
100
AcDbEntity
  8
7
100
AcDbLine
 10
5.352272100624641
 20
11.70410340720561
 30
0.0
 11
5.260408583564275
 21
11.49412965392477
 31
0.0
  0
LINE
  5
42FD
330
1E
100
AcDbEntity
  8
7
100
AcDbLine
 10
5.260408583564275
 20
11.49412965392477
 30
0.0
 11
5.192167113748004
 21
11.2762818848959
 31
0.0
  0
LINE
  5
42FE
330
1E
100
AcDbEntity
  8
7
100
AcDbLine
 10
5.192167113748004
 20
11.2762818848959
 30
0.0
 11
5.144923019259816
 21
11.050560100119
 31
0.0
  0
LINE
  5
42FF
330
1E
100
AcDbEntity
  8
7
100
AcDbLine
 10
5.144923019259816
 20
11.050560100119
 30
0.0
 11
5.121300972015717
 21
10.82221364342609
 31
0.0
  0
LINE
  5
4300
330
1E
100
AcDbEntity
  8
7
100
AcDbLine
 10
5.121300972015717
 20
10.82221364342609
 30
0.0
 11
5.121300972015717
 21
10.59386718673317
 31
0.0
  0
LINE
  5
4301
330
1E
100
AcDbEntity
  8
7
100
AcDbLine
 10
5.121300972015717
 20
10.59386718673317
 30
0.0
 11
5.144923019259816
 21
10.36552073004026
 31
0.0
  0
LINE
  5
4302
330
1E
100
AcDbEntity
  8
7
100
AcDbLine
 10
5.144923019259816
 20
10.36552073004026
 30
0.0
 11
5.189542441831994
 21
10.13979894526336
 31
0.0
  0
LINE
  5
4303
330
1E
100
AcDbEntity
  8
7
100
AcDbLine
 10
5.189542441831994
 20
10.13979894526336
 30
0.0
 11
5.260408583564275
 21
9.92195117623449
 31
0.0
  0
LINE
  5
4304
330
1E
100
AcDbEntity
  8
7
100
AcDbLine
 10
5.837836405086586
 20
12.17654435208751
 30
0.0
 11
5.685605433957974
 21
12.0006913337148
 31
0.0
  0
LINE
  5
4305
330
1E
100
AcDbEntity
  8
7
100
AcDbLine
 10
5.685605433957974
 20
12.0006913337148
 30
0.0
 11
5.55437183815745
 21
11.80909028384603
 31
0.0
  0
LINE
  5
4306
330
1E
100
AcDbEntity
  8
7
100
AcDbLine
 10
5.55437183815745
 20
11.80909028384603
 30
0.0
 11
5.444135617685011
 21
11.60436587439722
 31
0.0
  0
LINE
  5
4307
330
1E
100
AcDbEntity
  8
7
100
AcDbLine
 10
5.444135617685011
 20
11.60436587439722
 30
0.0
 11
5.357521444456665
 21
11.38914277728436
 31
0.0
  0
LINE
  5
4308
330
1E
100
AcDbEntity
  8
7
100
AcDbLine
 10
5.357521444456665
 20
11.38914277728436
 30
0.0
 11
5.294529318472413
 21
11.16604566442346
 31
0.0
  0
LINE
  5
4309
330
1E
100
AcDbEntity
  8
7
100
AcDbLine
 10
5.294529318472413
 20
11.16604566442346
 30
0.0
 11
5.257783911648266
 21
10.93507453581454
 31
0.0
  0
LINE
  5
430A
330
1E
100
AcDbEntity
  8
7
100
AcDbLine
 10
5.257783911648266
 20
10.93507453581454
 30
0.0
 11
5.244660552068211
 21
10.70410340720561
 31
0.0
  0
LINE
  5
430B
330
1E
100
AcDbEntity
  8
7
100
AcDbLine
 10
5.244660552068211
 20
10.70410340720561
 30
0.0
 11
5.257783911648266
 21
10.47313227859669
 31
0.0
  0
LINE
  5
430C
330
1E
100
AcDbEntity
  8
7
100
AcDbLine
 10
5.257783911648266
 20
10.47313227859669
 30
0.0
 11
5.294529318472413
 21
10.24478582190378
 31
0.0
  0
LINE
  5
430D
330
1E
100
AcDbEntity
  8
7
100
AcDbLine
 10
5.294529318472413
 20
10.24478582190378
 30
0.0
 11
5.357521444456665
 21
10.02168870904289
 31
0.0
  0
LINE
  5
430E
330
1E
100
AcDbEntity
  8
7
100
AcDbLine
 10
5.357521444456665
 20
10.02168870904289
 30
0.0
 11
5.444135617685011
 21
9.806465611930027
 31
0.0
  0
LINE
  5
430F
330
1E
100
AcDbEntity
  8
7
100
AcDbLine
 10
5.444135617685011
 20
9.806465611930027
 30
0.0
 11
5.55174716624144
 21
9.60436587439722
 31
0.0
  0
LINE
  5
4310
330
1E
100
AcDbEntity
  8
7
100
AcDbLine
 10
5.55174716624144
 20
9.60436587439722
 30
0.0
 11
5.682980762041964
 21
9.412764824528451
 31
0.0
  0
LINE
  5
4311
330
1E
100
AcDbEntity
  8
7
100
AcDbLine
 10
6.123925643931731
 20
10.62273857780929
 30
0.0
 11
6.147547691175826
 21
10.45475957518462
 31
0.0
  0
LINE
  5
4312
330
1E
100
AcDbEntity
  8
7
100
AcDbLine
 10
6.147547691175826
 20
10.45475957518462
 30
0.0
 11
6.192167113748003
 21
10.29202991639197
 31
0.0
  0
LINE
  5
4313
330
1E
100
AcDbEntity
  8
7
100
AcDbLine
 10
6.192167113748003
 20
10.29202991639197
 30
0.0
 11
6.257783911648265
 21
10.13454960143134
 31
0.0
  0
LINE
  5
4314
330
1E
100
AcDbEntity
  8
7
100
AcDbLine
 10
6.257783911648265
 20
10.13454960143134
 30
0.0
 11
6.347022756792621
 21
9.990192646050763
 31
0.0
  0
LINE
  5
4315
330
1E
100
AcDbEntity
  8
7
100
AcDbLine
 10
6.347022756792621
 20
9.990192646050763
 30
0.0
 11
6.45200963343304
 21
9.856334378334228
 31
0.0
  0
LINE
  5
4316
330
1E
100
AcDbEntity
  8
7
100
AcDbLine
 10
6.457258977265065
 20
11.55712177990902
 30
0.0
 11
6.349647428708631
 21
11.4258881841085
 31
0.0
  0
LINE
  5
4317
330
1E
100
AcDbEntity
  8
7
100
AcDbLine
 10
6.349647428708631
 20
11.4258881841085
 30
0.0
 11
6.263033255480284
 21
11.27890655681191
 31
0.0
  0
LINE
  5
4318
330
1E
100
AcDbEntity
  8
7
100
AcDbLine
 10
6.263033255480284
 20
11.27890655681191
 30
0.0
 11
6.194791785664013
 21
11.12405091376729
 31
0.0
  0
LINE
  5
4319
330
1E
100
AcDbEntity
  8
7
100
AcDbLine
 10
6.194791785664013
 20
11.12405091376729
 30
0.0
 11
6.147547691175826
 21
10.96132125497464
 31
0.0
  0
LINE
  5
431A
330
1E
100
AcDbEntity
  8
7
100
AcDbLine
 10
6.147547691175826
 20
10.96132125497464
 30
0.0
 11
6.123925643931731
 21
10.79334225234997
 31
0.0
  0
LINE
  5
431B
330
1E
100
AcDbEntity
  8
7
100
AcDbLine
 10
6.123925643931731
 20
10.79334225234997
 30
0.0
 11
6.123925643931731
 21
10.62273857780929
 31
0.0
  0
LINE
  5
431C
330
1E
100
AcDbEntity
  8
7
100
AcDbLine
 10
6.438886273852991
 20
11.33664933896414
 30
0.0
 11
6.354896772540655
 21
11.19229238358357
 31
0.0
  0
LINE
  5
431D
330
1E
100
AcDbEntity
  8
7
100
AcDbLine
 10
6.354896772540655
 20
11.19229238358357
 30
0.0
 11
6.294529318472413
 21
11.03481206862294
 31
0.0
  0
LINE
  5
431E
330
1E
100
AcDbEntity
  8
7
100
AcDbLine
 10
6.294529318472413
 20
11.03481206862294
 30
0.0
 11
6.257783911648265
 21
10.87208240983029
 31
0.0
  0
LINE
  5
431F
330
1E
100
AcDbEntity
  8
7
100
AcDbLine
 10
6.257783911648265
 20
10.87208240983029
 30
0.0
 11
6.244660552068211
 21
10.70410340720561
 31
0.0
  0
LINE
  5
4320
330
1E
100
AcDbEntity
  8
7
100
AcDbLine
 10
6.244660552068211
 20
10.70410340720561
 30
0.0
 11
6.257783911648265
 21
10.53874907649695
 31
0.0
  0
LINE
  5
4321
330
1E
100
AcDbEntity
  8
7
100
AcDbLine
 10
6.257783911648265
 20
10.53874907649695
 30
0.0
 11
6.294529318472413
 21
10.3760194177043
 31
0.0
  0
LINE
  5
4322
330
1E
100
AcDbEntity
  8
7
100
AcDbLine
 10
6.294529318472413
 20
10.3760194177043
 30
0.0
 11
6.354896772540655
 21
10.22116377465968
 31
0.0
  0
LINE
  5
4323
330
1E
100
AcDbEntity
  8
7
100
AcDbLine
 10
6.354896772540655
 20
10.22116377465968
 30
0.0
 11
6.436261601936981
 21
10.07418214736309
 31
0.0
  0
LINE
  5
4324
330
1E
100
AcDbEntity
  8
7
100
AcDbLine
 10
6.436261601936981
 20
10.07418214736309
 30
0.0
 11
6.538623806661386
 21
9.945573223478582
 31
0.0
  0
LINE
  5
4325
330
1E
100
AcDbEntity
  8
7
100
AcDbLine
 10
8.572744541569523
 20
8.801216268098009
 30
0.0
 11
8.759096247606269
 21
8.932449863898533
 31
0.0
  0
LINE
  5
4326
330
1E
100
AcDbEntity
  8
7
100
AcDbLine
 10
8.759096247606269
 20
8.932449863898533
 30
0.0
 11
8.932324594062961
 21
9.082056163111131
 31
0.0
  0
LINE
  5
4327
330
1E
100
AcDbEntity
  8
7
100
AcDbLine
 10
5.829962389338551
 20
9.061058787783046
 30
0.0
 11
6.005815407711257
 21
8.914077160486456
 31
0.0
  0
LINE
  5
4328
330
1E
100
AcDbEntity
  8
7
100
AcDbLine
 10
6.005815407711257
 20
8.914077160486456
 30
0.0
 11
6.192167113748003
 21
8.785468236601943
 31
0.0
  0
LINE
  5
4329
330
1E
100
AcDbEntity
  8
7
100
AcDbLine
 10
6.192167113748003
 20
8.785468236601943
 30
0.0
 11
6.394266851280808
 21
8.675232016129502
 31
0.0
  0
LINE
  5
432A
330
1E
100
AcDbEntity
  8
7
100
AcDbLine
 10
6.394266851280808
 20
8.675232016129502
 30
0.0
 11
6.604240604561653
 21
8.585993170985148
 31
0.0
  0
LINE
  5
432B
330
1E
100
AcDbEntity
  8
7
100
AcDbLine
 10
6.604240604561653
 20
8.585993170985148
 30
0.0
 11
6.822088373590522
 21
8.520376373084886
 31
0.0
  0
LINE
  5
432C
330
1E
100
AcDbEntity
  8
7
100
AcDbLine
 10
6.822088373590522
 20
8.520376373084886
 30
0.0
 11
7.045185486451416
 21
8.475756950512703
 31
0.0
  0
LINE
  5
432D
330
1E
100
AcDbEntity
  8
7
100
AcDbLine
 10
7.045185486451416
 20
8.475756950512703
 30
0.0
 11
7.270907271228319
 21
8.45475957518462
 31
0.0
  0
LINE
  5
432E
330
1E
100
AcDbEntity
  8
7
100
AcDbLine
 10
7.270907271228319
 20
8.45475957518462
 30
0.0
 11
7.499253727921233
 21
8.45475957518462
 31
0.0
  0
LINE
  5
432F
330
1E
100
AcDbEntity
  8
7
100
AcDbLine
 10
7.499253727921233
 20
8.45475957518462
 30
0.0
 11
7.727600184614141
 21
8.481006294344727
 31
0.0
  0
LINE
  5
4330
330
1E
100
AcDbEntity
  8
7
100
AcDbLine
 10
7.727600184614141
 20
8.481006294344727
 30
0.0
 11
7.948072625559025
 21
8.528250388832915
 31
0.0
  0
LINE
  5
4331
330
1E
100
AcDbEntity
  8
7
100
AcDbLine
 10
7.948072625559025
 20
8.528250388832915
 30
0.0
 11
8.165920394587899
 21
8.596491858649187
 31
0.0
  0
LINE
  5
4332
330
1E
100
AcDbEntity
  8
7
100
AcDbLine
 10
8.165920394587899
 20
8.596491858649187
 30
0.0
 11
8.375894147868738
 21
8.688355375709555
 31
0.0
  0
LINE
  5
4333
330
1E
100
AcDbEntity
  8
7
100
AcDbLine
 10
8.375894147868738
 20
8.688355375709555
 30
0.0
 11
8.572744541569523
 21
8.801216268098009
 31
0.0
  0
LINE
  5
4334
330
1E
100
AcDbEntity
  8
7
100
AcDbLine
 10
6.263033255480284
 20
8.890455113242364
 30
0.0
 11
6.44938496151703
 21
8.788092908517953
 31
0.0
  0
LINE
  5
4335
330
1E
100
AcDbEntity
  8
7
100
AcDbLine
 10
6.44938496151703
 20
8.788092908517953
 30
0.0
 11
6.64886002713383
 21
8.704103407205618
 31
0.0
  0
LINE
  5
4336
330
1E
100
AcDbEntity
  8
7
100
AcDbLine
 10
6.64886002713383
 20
8.704103407205618
 30
0.0
 11
6.85358443658265
 21
8.641111281221366
 31
0.0
  0
LINE
  5
4337
330
1E
100
AcDbEntity
  8
7
100
AcDbLine
 10
6.85358443658265
 20
8.641111281221366
 30
0.0
 11
7.063558189863489
 21
8.599116530565197
 31
0.0
  0
LINE
  5
4338
330
1E
100
AcDbEntity
  8
7
100
AcDbLine
 10
7.063558189863489
 20
8.599116530565197
 30
0.0
 11
7.278781286976348
 21
8.580743827153124
 31
0.0
  0
LINE
  5
4339
330
1E
100
AcDbEntity
  8
7
100
AcDbLine
 10
7.278781286976348
 20
8.580743827153124
 30
0.0
 11
7.494004384089208
 21
8.580743827153124
 31
0.0
  0
LINE
  5
433A
330
1E
100
AcDbEntity
  8
7
100
AcDbLine
 10
7.494004384089208
 20
8.580743827153124
 30
0.0
 11
7.706602809286057
 21
8.60436587439722
 31
0.0
  0
LINE
  5
433B
330
1E
100
AcDbEntity
  8
7
100
AcDbLine
 10
7.706602809286057
 20
8.60436587439722
 30
0.0
 11
7.916576562566902
 21
8.648985296969399
 31
0.0
  0
LINE
  5
433C
330
1E
100
AcDbEntity
  8
7
100
AcDbLine
 10
7.916576562566902
 20
8.648985296969399
 30
0.0
 11
8.121300972015717
 21
8.714602094869661
 31
0.0
  0
LINE
  5
433D
330
1E
100
AcDbEntity
  8
7
100
AcDbLine
 10
8.121300972015717
 20
8.714602094869661
 30
0.0
 11
8.318151365716506
 21
8.801216268098009
 31
0.0
  0
LINE
  5
433E
330
1E
100
AcDbEntity
  8
7
100
AcDbLine
 10
8.318151365716506
 20
8.801216268098009
 30
0.0
 11
8.504503071753251
 21
8.906203144738427
 31
0.0
  0
LINE
  5
433F
330
1E
100
AcDbEntity
  8
7
100
AcDbLine
 10
8.504503071753251
 20
8.906203144738427
 30
0.0
 11
8.680356090125954
 21
9.02956272479092
 31
0.0
  0
LINE
  5
4340
330
1E
100
AcDbEntity
  8
7
100
AcDbLine
 10
8.680356090125954
 20
9.02956272479092
 30
0.0
 11
8.843085748918605
 21
9.171295008255487
 31
0.0
  0
LINE
  5
4341
330
1E
100
AcDbEntity
  8
7
100
AcDbLine
 10
5.919201234482912
 20
9.150297632927403
 30
0.0
 11
6.084555565191574
 21
9.011190021378848
 31
0.0
  0
LINE
  5
4342
330
1E
100
AcDbEntity
  8
7
100
AcDbLine
 10
6.084555565191574
 20
9.011190021378848
 30
0.0
 11
6.263033255480284
 21
8.890455113242364
 31
0.0
  0
LINE
  5
4343
330
1E
100
AcDbEntity
  8
7
100
AcDbLine
 10
6.885080499574773
 20
9.021688709042891
 30
0.0
 11
7.084555565191573
 21
8.977069286470708
 31
0.0
  0
LINE
  5
4344
330
1E
100
AcDbEntity
  8
7
100
AcDbLine
 10
7.084555565191573
 20
8.977069286470708
 30
0.0
 11
7.284030630808368
 21
8.956071911142625
 31
0.0
  0
LINE
  5
4345
330
1E
100
AcDbEntity
  8
7
100
AcDbLine
 10
7.284030630808368
 20
8.956071911142625
 30
0.0
 11
7.486130368341179
 21
8.956071911142625
 31
0.0
  0
LINE
  5
4346
330
1E
100
AcDbEntity
  8
7
100
AcDbLine
 10
7.486130368341179
 20
8.956071911142625
 30
0.0
 11
7.688230105873988
 21
8.982318630302732
 31
0.0
  0
LINE
  5
4347
330
1E
100
AcDbEntity
  8
7
100
AcDbLine
 10
7.688230105873988
 20
8.982318630302732
 30
0.0
 11
7.885080499574773
 21
9.02956272479092
 31
0.0
  0
LINE
  5
4348
330
1E
100
AcDbEntity
  8
7
100
AcDbLine
 10
7.885080499574773
 20
9.02956272479092
 30
0.0
 11
8.074056877527528
 21
9.100428866523202
 31
0.0
  0
LINE
  5
4349
330
1E
100
AcDbEntity
  8
7
100
AcDbLine
 10
8.074056877527528
 20
9.100428866523202
 30
0.0
 11
8.255159239732254
 21
9.19229238358357
 31
0.0
  0
LINE
  5
434A
330
1E
100
AcDbEntity
  8
7
100
AcDbLine
 10
8.255159239732254
 20
9.19229238358357
 30
0.0
 11
8.423138242356927
 21
9.305153275972022
 31
0.0
  0
LINE
  5
434B
330
1E
100
AcDbEntity
  8
7
100
AcDbLine
 10
8.423138242356927
 20
9.305153275972022
 30
0.0
 11
8.577993885401543
 21
9.436386871772548
 31
0.0
  0
LINE
  5
434C
330
1E
100
AcDbEntity
  8
7
100
AcDbLine
 10
6.186917769915983
 20
9.415389496444465
 30
0.0
 11
6.341773412960601
 21
9.286780572559948
 31
0.0
  0
LINE
  5
434D
330
1E
100
AcDbEntity
  8
7
100
AcDbLine
 10
6.341773412960601
 20
9.286780572559948
 30
0.0
 11
6.512377087501282
 21
9.179169024003519
 31
0.0
  0
LINE
  5
434E
330
1E
100
AcDbEntity
  8
7
100
AcDbLine
 10
6.512377087501282
 20
9.179169024003519
 30
0.0
 11
6.696104121622018
 21
9.089930178859161
 31
0.0
  0
LINE
  5
434F
330
1E
100
AcDbEntity
  8
7
100
AcDbLine
 10
6.696104121622018
 20
9.089930178859161
 30
0.0
 11
6.885080499574773
 21
9.021688709042891
 31
0.0
  0
LINE
  5
4350
330
1E
100
AcDbEntity
  8
7
100
AcDbLine
 10
7.291904646556403
 20
9.079431491195119
 30
0.0
 11
7.478256352593149
 21
9.079431491195119
 31
0.0
  0
LINE
  5
4351
330
1E
100
AcDbEntity
  8
7
100
AcDbLine
 10
7.478256352593149
 20
9.079431491195119
 30
0.0
 11
7.664608058629889
 21
9.103053538439215
 31
0.0
  0
LINE
  5
4352
330
1E
100
AcDbEntity
  8
7
100
AcDbLine
 10
7.664608058629889
 20
9.103053538439215
 30
0.0
 11
7.848335092750625
 21
9.147672961011393
 31
0.0
  0
LINE
  5
4353
330
1E
100
AcDbEntity
  8
7
100
AcDbLine
 10
7.848335092750625
 20
9.147672961011393
 30
0.0
 11
8.024188111123331
 21
9.213289758911654
 31
0.0
  0
LINE
  5
4354
330
1E
100
AcDbEntity
  8
7
100
AcDbLine
 10
8.024188111123331
 20
9.213289758911654
 30
0.0
 11
8.189542441831992
 21
9.297279260223991
 31
0.0
  0
LINE
  5
4355
330
1E
100
AcDbEntity
  8
7
100
AcDbLine
 10
8.189542441831992
 20
9.297279260223991
 30
0.0
 11
8.34702275679262
 21
9.40226613686441
 31
0.0
  0
LINE
  5
4356
330
1E
100
AcDbEntity
  8
7
100
AcDbLine
 10
8.34702275679262
 20
9.40226613686441
 30
0.0
 11
8.488755040257188
 21
9.523001045000894
 31
0.0
  0
LINE
  5
4357
330
1E
100
AcDbEntity
  8
7
100
AcDbLine
 10
6.273531943144329
 20
9.502003669672809
 30
0.0
 11
6.417888898524907
 21
9.383893433452339
 31
0.0
  0
LINE
  5
4358
330
1E
100
AcDbEntity
  8
7
100
AcDbLine
 10
6.417888898524907
 20
9.383893433452339
 30
0.0
 11
6.577993885401544
 21
9.284155900643938
 31
0.0
  0
LINE
  5
4359
330
1E
100
AcDbEntity
  8
7
100
AcDbLine
 10
6.577993885401544
 20
9.284155900643938
 30
0.0
 11
6.745972888026216
 21
9.202791071247613
 31
0.0
  0
LINE
  5
435A
330
1E
100
AcDbEntity
  8
7
100
AcDbLine
 10
6.745972888026216
 20
9.202791071247613
 30
0.0
 11
6.921825906398922
 21
9.139798945263361
 31
0.0
  0
LINE
  5
435B
330
1E
100
AcDbEntity
  8
7
100
AcDbLine
 10
6.921825906398922
 20
9.139798945263361
 30
0.0
 11
7.105552940519658
 21
9.097804194607192
 31
0.0
  0
LINE
  5
435C
330
1E
100
AcDbEntity
  8
7
100
AcDbLine
 10
7.105552940519658
 20
9.097804194607192
 30
0.0
 11
7.291904646556403
 21
9.079431491195119
 31
0.0
  0
LINE
  5
435D
330
1E
100
AcDbEntity
  8
7
100
AcDbLine
 10
6.606865276477662
 20
12.82221364342609
 30
0.0
 11
6.396891523196823
 21
12.73559947019774
 31
0.0
  0
LINE
  5
435E
330
1E
100
AcDbEntity
  8
7
100
AcDbLine
 10
6.396891523196823
 20
12.73559947019774
 30
0.0
 11
6.197416457580023
 21
12.6253632497253
 31
0.0
  0
LINE
  5
435F
330
1E
100
AcDbEntity
  8
7
100
AcDbLine
 10
6.197416457580023
 20
12.6253632497253
 30
0.0
 11
6.011064751543277
 21
12.4993789977568
 31
0.0
  0
LINE
  5
4360
330
1E
100
AcDbEntity
  8
7
100
AcDbLine
 10
6.011064751543277
 20
12.4993789977568
 30
0.0
 11
5.835211733170576
 21
12.35239737046021
 31
0.0
  0
LINE
  5
4361
330
1E
100
AcDbEntity
  8
7
100
AcDbLine
 10
8.927075250230942
 20
12.33139999513212
 30
0.0
 11
8.756471575690259
 21
12.48100629434472
 31
0.0
  0
LINE
  5
4362
330
1E
100
AcDbEntity
  8
7
100
AcDbLine
 10
8.756471575690259
 20
12.48100629434472
 30
0.0
 11
8.570119869653513
 21
12.60961521822923
 31
0.0
  0
LINE
  5
4363
330
1E
100
AcDbEntity
  8
7
100
AcDbLine
 10
8.570119869653513
 20
12.60961521822923
 30
0.0
 11
8.370644804036714
 21
12.72247611061769
 31
0.0
  0
LINE
  5
4364
330
1E
100
AcDbEntity
  8
7
100
AcDbLine
 10
8.370644804036714
 20
12.72247611061769
 30
0.0
 11
8.163295722671884
 21
12.81171495576205
 31
0.0
  0
LINE
  5
4365
330
1E
100
AcDbEntity
  8
7
100
AcDbLine
 10
8.163295722671884
 20
12.81171495576205
 30
0.0
 11
7.948072625559025
 21
12.87995642557832
 31
0.0
  0
LINE
  5
4366
330
1E
100
AcDbEntity
  8
7
100
AcDbLine
 10
7.948072625559025
 20
12.87995642557832
 30
0.0
 11
7.724975512698131
 21
12.92720052006651
 31
0.0
  0
LINE
  5
4367
330
1E
100
AcDbEntity
  8
7
100
AcDbLine
 10
7.724975512698131
 20
12.92720052006651
 30
0.0
 11
7.499253727921233
 21
12.95344723922661
 31
0.0
  0
LINE
  5
4368
330
1E
100
AcDbEntity
  8
7
100
AcDbLine
 10
7.499253727921233
 20
12.95344723922661
 30
0.0
 11
7.273531943144329
 21
12.95344723922661
 31
0.0
  0
LINE
  5
4369
330
1E
100
AcDbEntity
  8
7
100
AcDbLine
 10
7.273531943144329
 20
12.95344723922661
 30
0.0
 11
7.045185486451416
 21
12.93244986389853
 31
0.0
  0
LINE
  5
436A
330
1E
100
AcDbEntity
  8
7
100
AcDbLine
 10
7.045185486451416
 20
12.93244986389853
 30
0.0
 11
6.824713045506531
 21
12.88783044132635
 31
0.0
  0
LINE
  5
436B
330
1E
100
AcDbEntity
  8
7
100
AcDbLine
 10
6.824713045506531
 20
12.88783044132635
 30
0.0
 11
6.606865276477662
 21
12.82221364342609
 31
0.0
  0
LINE
  5
436C
330
1E
100
AcDbEntity
  8
7
100
AcDbLine
 10
8.312902021884486
 20
12.60961521822923
 30
0.0
 11
8.118676300099707
 21
12.69360471954157
 31
0.0
  0
LINE
  5
436D
330
1E
100
AcDbEntity
  8
7
100
AcDbLine
 10
8.118676300099707
 20
12.69360471954157
 30
0.0
 11
7.913951890650887
 21
12.75922151744183
 31
0.0
  0
LINE
  5
436E
330
1E
100
AcDbEntity
  8
7
100
AcDbLine
 10
7.913951890650887
 20
12.75922151744183
 30
0.0
 11
7.703978137370047
 21
12.80384094001401
 31
0.0
  0
LINE
  5
436F
330
1E
100
AcDbEntity
  8
7
100
AcDbLine
 10
7.703978137370047
 20
12.80384094001401
 30
0.0
 11
7.491379712173198
 21
12.82746298725811
 31
0.0
  0
LINE
  5
4370
330
1E
100
AcDbEntity
  8
7
100
AcDbLine
 10
7.491379712173198
 20
12.82746298725811
 30
0.0
 11
7.278781286976348
 21
12.82746298725811
 31
0.0
  0
LINE
  5
4371
330
1E
100
AcDbEntity
  8
7
100
AcDbLine
 10
7.278781286976348
 20
12.82746298725811
 30
0.0
 11
7.066182861779499
 21
12.80909028384603
 31
0.0
  0
LINE
  5
4372
330
1E
100
AcDbEntity
  8
7
100
AcDbLine
 10
7.066182861779499
 20
12.80909028384603
 30
0.0
 11
6.85620910849866
 21
12.76709553318986
 31
0.0
  0
LINE
  5
4373
330
1E
100
AcDbEntity
  8
7
100
AcDbLine
 10
6.85620910849866
 20
12.76709553318986
 30
0.0
 11
6.65148469904984
 21
12.70410340720561
 31
0.0
  0
LINE
  5
4374
330
1E
100
AcDbEntity
  8
7
100
AcDbLine
 10
6.65148469904984
 20
12.70410340720561
 30
0.0
 11
6.45463430534905
 21
12.62273857780929
 31
0.0
  0
LINE
  5
4375
330
1E
100
AcDbEntity
  8
7
100
AcDbLine
 10
6.45463430534905
 20
12.62273857780929
 30
0.0
 11
6.265657927396294
 21
12.52037637308488
 31
0.0
  0
LINE
  5
4376
330
1E
100
AcDbEntity
  8
7
100
AcDbLine
 10
6.265657927396294
 20
12.52037637308488
 30
0.0
 11
6.089804909023594
 21
12.3996414649484
 31
0.0
  0
LINE
  5
4377
330
1E
100
AcDbEntity
  8
7
100
AcDbLine
 10
6.089804909023594
 20
12.3996414649484
 30
0.0
 11
5.924450578314932
 21
12.26315852531585
 31
0.0
  0
LINE
  5
4378
330
1E
100
AcDbEntity
  8
7
100
AcDbLine
 10
8.837836405086585
 20
12.24216114998777
 30
0.0
 11
8.675106746293934
 21
12.38126876153632
 31
0.0
  0
LINE
  5
4379
330
1E
100
AcDbEntity
  8
7
100
AcDbLine
 10
8.675106746293934
 20
12.38126876153632
 30
0.0
 11
8.501878399837242
 21
12.50462834158882
 31
0.0
  0
LINE
  5
437A
330
1E
100
AcDbEntity
  8
7
100
AcDbLine
 10
8.501878399837242
 20
12.50462834158882
 30
0.0
 11
8.312902021884486
 21
12.60961521822923
 31
0.0
  0
LINE
  5
437B
330
1E
100
AcDbEntity
  8
7
100
AcDbLine
 10
9.622613307973722
 20
10.70410340720561
 30
0.0
 11
9.609489948393672
 21
10.94557322347858
 31
0.0
  0
LINE
  5
437C
330
1E
100
AcDbEntity
  8
7
100
AcDbLine
 10
9.609489948393672
 20
10.94557322347858
 30
0.0
 11
9.570119869653513
 21
11.18441836783554
 31
0.0
  0
LINE
  5
437D
330
1E
100
AcDbEntity
  8
7
100
AcDbLine
 10
9.570119869653513
 20
11.18441836783554
 30
0.0
 11
9.507127743669261
 21
11.41801416836047
 31
0.0
  0
LINE
  5
437E
330
1E
100
AcDbEntity
  8
7
100
AcDbLine
 10
9.507127743669261
 20
11.41801416836047
 30
0.0
 11
9.417888898524907
 21
11.64373595313737
 31
0.0
  0
LINE
  5
437F
330
1E
100
AcDbEntity
  8
7
100
AcDbLine
 10
9.417888898524907
 20
11.64373595313737
 30
0.0
 11
9.305028006136453
 21
11.85633437833422
 31
0.0
  0
LINE
  5
4380
330
1E
100
AcDbEntity
  8
7
100
AcDbLine
 10
9.305028006136453
 20
11.85633437833422
 30
0.0
 11
9.171169738419919
 21
12.05843411586703
 31
0.0
  0
LINE
  5
4381
330
1E
100
AcDbEntity
  8
7
100
AcDbLine
 10
9.171169738419919
 20
12.05843411586703
 30
0.0
 11
9.013689423459286
 21
12.24478582190378
 31
0.0
  0
LINE
  5
4382
330
1E
100
AcDbEntity
  8
7
100
AcDbLine
 10
9.018938767291306
 20
9.168670336339477
 30
0.0
 11
9.173794410335929
 21
9.355022042376223
 31
0.0
  0
LINE
  5
4383
330
1E
100
AcDbEntity
  8
7
100
AcDbLine
 10
9.173794410335929
 20
9.355022042376223
 30
0.0
 11
9.307652678052463
 21
9.55449710799302
 31
0.0
  0
LINE
  5
4384
330
1E
100
AcDbEntity
  8
7
100
AcDbLine
 10
9.307652678052463
 20
9.55449710799302
 30
0.0
 11
9.417888898524907
 21
9.769720205105882
 31
0.0
  0
LINE
  5
4385
330
1E
100
AcDbEntity
  8
7
100
AcDbLine
 10
9.417888898524907
 20
9.769720205105882
 30
0.0
 11
9.507127743669261
 21
9.992817317966773
 31
0.0
  0
LINE
  5
4386
330
1E
100
AcDbEntity
  8
7
100
AcDbLine
 10
9.507127743669261
 20
9.992817317966773
 30
0.0
 11
9.570119869653513
 21
10.2264131184917
 31
0.0
  0
LINE
  5
4387
330
1E
100
AcDbEntity
  8
7
100
AcDbLine
 10
9.570119869653513
 20
10.2264131184917
 30
0.0
 11
9.609489948393672
 21
10.46263359093265
 31
0.0
  0
LINE
  5
4388
330
1E
100
AcDbEntity
  8
7
100
AcDbLine
 10
9.609489948393672
 20
10.46263359093265
 30
0.0
 11
9.622613307973722
 21
10.70410340720561
 31
0.0
  0
LINE
  5
4389
330
1E
100
AcDbEntity
  8
7
100
AcDbLine
 10
9.197416457580022
 20
11.79071758043396
 30
0.0
 11
9.071432205611518
 21
11.97969395838672
 31
0.0
  0
LINE
  5
438A
330
1E
100
AcDbEntity
  8
7
100
AcDbLine
 10
9.071432205611518
 20
11.97969395838672
 30
0.0
 11
8.924450578314932
 21
12.15554697675942
 31
0.0
  0
LINE
  5
438B
330
1E
100
AcDbEntity
  8
7
100
AcDbLine
 10
8.929699922146951
 20
9.257909181483832
 30
0.0
 11
9.076681549443538
 21
9.433762199856536
 31
0.0
  0
LINE
  5
438C
330
1E
100
AcDbEntity
  8
7
100
AcDbLine
 10
9.076681549443538
 20
9.433762199856536
 30
0.0
 11
9.200041129496032
 21
9.622738577809291
 31
0.0
  0
LINE
  5
438D
330
1E
100
AcDbEntity
  8
7
100
AcDbLine
 10
9.200041129496032
 20
9.622738577809291
 30
0.0
 11
9.305028006136453
 21
9.824838315342102
 31
0.0
  0
LINE
  5
438E
330
1E
100
AcDbEntity
  8
7
100
AcDbLine
 10
9.305028006136453
 20
9.824838315342102
 30
0.0
 11
9.389017507448787
 21
10.03743674053895
 31
0.0
  0
LINE
  5
438F
330
1E
100
AcDbEntity
  8
7
100
AcDbLine
 10
9.389017507448787
 20
10.03743674053895
 30
0.0
 11
9.449384961517029
 21
10.25528450956782
 31
0.0
  0
LINE
  5
4390
330
1E
100
AcDbEntity
  8
7
100
AcDbLine
 10
9.449384961517029
 20
10.25528450956782
 30
0.0
 11
9.486130368341179
 21
10.48100629434472
 31
0.0
  0
LINE
  5
4391
330
1E
100
AcDbEntity
  8
7
100
AcDbLine
 10
9.486130368341179
 20
10.48100629434472
 30
0.0
 11
9.496629056005218
 21
10.70672807912163
 31
0.0
  0
LINE
  5
4392
330
1E
100
AcDbEntity
  8
7
100
AcDbLine
 10
9.496629056005218
 20
10.70672807912163
 30
0.0
 11
9.483505696425169
 21
10.93507453581454
 31
0.0
  0
LINE
  5
4393
330
1E
100
AcDbEntity
  8
7
100
AcDbLine
 10
9.483505696425169
 20
10.93507453581454
 30
0.0
 11
9.446760289601019
 21
11.15817164867543
 31
0.0
  0
LINE
  5
4394
330
1E
100
AcDbEntity
  8
7
100
AcDbLine
 10
9.446760289601019
 20
11.15817164867543
 30
0.0
 11
9.386392835532777
 21
11.37864408962031
 31
0.0
  0
LINE
  5
4395
330
1E
100
AcDbEntity
  8
7
100
AcDbLine
 10
9.386392835532777
 20
11.37864408962031
 30
0.0
 11
9.302403334220443
 21
11.58861784290115
 31
0.0
  0
LINE
  5
4396
330
1E
100
AcDbEntity
  8
7
100
AcDbLine
 10
9.302403334220443
 20
11.58861784290115
 30
0.0
 11
9.197416457580022
 21
11.79071758043396
 31
0.0
  0
LINE
  5
4397
330
1E
100
AcDbEntity
  8
7
100
AcDbLine
 10
6.808965014010468
 20
11.20279107124761
 30
0.0
 11
6.730224856530156
 21
11.09517952269118
 31
0.0
  0
LINE
  5
4398
330
1E
100
AcDbEntity
  8
7
100
AcDbLine
 10
6.730224856530156
 20
11.09517952269118
 30
0.0
 11
6.669857402461914
 21
10.97181994263868
 31
0.0
  0
LINE
  5
4399
330
1E
100
AcDbEntity
  8
7
100
AcDbLine
 10
6.669857402461914
 20
10.97181994263868
 30
0.0
 11
6.633111995637766
 21
10.84321101875417
 31
0.0
  0
LINE
  5
439A
330
1E
100
AcDbEntity
  8
7
100
AcDbLine
 10
6.633111995637766
 20
10.84321101875417
 30
0.0
 11
6.619988636057712
 21
10.70672807912163
 31
0.0
  0
LINE
  5
439B
330
1E
100
AcDbEntity
  8
7
100
AcDbLine
 10
6.619988636057712
 20
10.70672807912163
 30
0.0
 11
6.630487323721756
 21
10.57286981140509
 31
0.0
  0
LINE
  5
439C
330
1E
100
AcDbEntity
  8
7
100
AcDbLine
 10
6.630487323721756
 20
10.57286981140509
 30
0.0
 11
6.667232730545904
 21
10.44163621560456
 31
0.0
  0
LINE
  5
439D
330
1E
100
AcDbEntity
  8
7
100
AcDbLine
 10
6.667232730545904
 20
10.44163621560456
 30
0.0
 11
6.724975512698131
 21
10.32090130746808
 31
0.0
  0
LINE
  5
439E
330
1E
100
AcDbEntity
  8
7
100
AcDbLine
 10
6.724975512698131
 20
10.32090130746808
 30
0.0
 11
6.806340342094458
 21
10.21066508699564
 31
0.0
  0
LINE
  5
439F
330
1E
100
AcDbEntity
  8
7
100
AcDbLine
 10
6.816839029758502
 20
10.99019264605076
 30
0.0
 11
6.764345591438289
 21
10.8510850345022
 31
0.0
  0
LINE
  5
43A0
330
1E
100
AcDbEntity
  8
7
100
AcDbLine
 10
6.764345591438289
 20
10.8510850345022
 30
0.0
 11
6.745972888026216
 21
10.70410340720561
 31
0.0
  0
LINE
  5
43A1
330
1E
100
AcDbEntity
  8
7
100
AcDbLine
 10
6.745972888026216
 20
10.70410340720561
 30
0.0
 11
6.764345591438289
 21
10.55974645182504
 31
0.0
  0
LINE
  5
43A2
330
1E
100
AcDbEntity
  8
7
100
AcDbLine
 10
6.764345591438289
 20
10.55974645182504
 30
0.0
 11
6.814214357842492
 21
10.42063884027648
 31
0.0
  0
LINE
  5
43A3
330
1E
100
AcDbEntity
  8
7
100
AcDbLine
 10
6.814214357842492
 20
10.42063884027648
 30
0.0
 11
6.895579187238817
 21
10.29990393214
 31
0.0
  0
LINE
  5
43A4
330
1E
100
AcDbEntity
  8
7
100
AcDbLine
 10
9.000566063879237
 20
11.33927401088015
 30
0.0
 11
8.911327218734877
 21
11.53612440458094
 31
0.0
  0
LINE
  5
43A5
330
1E
100
AcDbEntity
  8
7
100
AcDbLine
 10
8.911327218734877
 20
11.53612440458094
 30
0.0
 11
8.795841654430418
 21
11.71985143870168
 31
0.0
  0
LINE
  5
43A6
330
1E
100
AcDbEntity
  8
7
100
AcDbLine
 10
8.795841654430418
 20
11.71985143870168
 30
0.0
 11
8.659358714797869
 21
11.88783044132635
 31
0.0
  0
LINE
  5
43A7
330
1E
100
AcDbEntity
  8
7
100
AcDbLine
 10
9.121300972015717
 20
10.70410340720561
 30
0.0
 11
9.108177612435667
 21
10.91932650431848
 31
0.0
  0
LINE
  5
43A8
330
1E
100
AcDbEntity
  8
7
100
AcDbLine
 10
9.108177612435667
 20
10.91932650431848
 30
0.0
 11
9.068807533695508
 21
11.13454960143134
 31
0.0
  0
LINE
  5
43A9
330
1E
100
AcDbEntity
  8
7
100
AcDbLine
 10
9.068807533695508
 20
11.13454960143134
 30
0.0
 11
9.000566063879237
 21
11.33927401088015
 31
0.0
  0
LINE
  5
43AA
330
1E
100
AcDbEntity
  8
7
100
AcDbLine
 10
8.664608058629889
 20
9.525625716916904
 30
0.0
 11
8.798466326346428
 21
9.693604719541575
 31
0.0
  0
LINE
  5
43AB
330
1E
100
AcDbEntity
  8
7
100
AcDbLine
 10
8.798466326346428
 20
9.693604719541575
 30
0.0
 11
8.913951890650887
 21
9.874707081746301
 31
0.0
  0
LINE
  5
43AC
330
1E
100
AcDbEntity
  8
7
100
AcDbLine
 10
8.913951890650887
 20
9.874707081746301
 30
0.0
 11
9.003190735795246
 21
10.07155747544709
 31
0.0
  0
LINE
  5
43AD
330
1E
100
AcDbEntity
  8
7
100
AcDbLine
 10
9.003190735795246
 20
10.07155747544709
 30
0.0
 11
9.068807533695508
 21
10.2762818848959
 31
0.0
  0
LINE
  5
43AE
330
1E
100
AcDbEntity
  8
7
100
AcDbLine
 10
9.068807533695508
 20
10.2762818848959
 30
0.0
 11
9.108177612435667
 21
10.48888031009275
 31
0.0
  0
LINE
  5
43AF
330
1E
100
AcDbEntity
  8
7
100
AcDbLine
 10
9.108177612435667
 20
10.48888031009275
 30
0.0
 11
9.121300972015717
 21
10.70410340720561
 31
0.0
  0
LINE
  5
43B0
330
1E
100
AcDbEntity
  8
7
100
AcDbLine
 10
8.577993885401543
 20
9.61223989014525
 30
0.0
 11
8.701353465454037
 21
9.76709553318987
 31
0.0
  0
LINE
  5
43B1
330
1E
100
AcDbEntity
  8
7
100
AcDbLine
 10
8.701353465454037
 20
9.76709553318987
 30
0.0
 11
8.806340342094458
 21
9.937699207730553
 31
0.0
  0
LINE
  5
43B2
330
1E
100
AcDbEntity
  8
7
100
AcDbLine
 10
8.806340342094458
 20
9.937699207730553
 30
0.0
 11
8.890329843406792
 21
10.12142624185128
 31
0.0
  0
LINE
  5
43B3
330
1E
100
AcDbEntity
  8
7
100
AcDbLine
 10
8.890329843406792
 20
10.12142624185128
 30
0.0
 11
8.950697297475034
 21
10.31040261980404
 31
0.0
  0
LINE
  5
43B4
330
1E
100
AcDbEntity
  8
7
100
AcDbLine
 10
8.950697297475034
 20
10.31040261980404
 30
0.0
 11
8.984818032383174
 21
10.50725301350482
 31
0.0
  0
LINE
  5
43B5
330
1E
100
AcDbEntity
  8
7
100
AcDbLine
 10
8.984818032383174
 20
10.50725301350482
 30
0.0
 11
8.997941391963223
 21
10.70672807912163
 31
0.0
  0
LINE
  5
43B6
330
1E
100
AcDbEntity
  8
7
100
AcDbLine
 10
8.997941391963223
 20
10.70672807912163
 30
0.0
 11
8.984818032383174
 21
10.90620314473842
 31
0.0
  0
LINE
  5
43B7
330
1E
100
AcDbEntity
  8
7
100
AcDbLine
 10
8.984818032383174
 20
10.90620314473842
 30
0.0
 11
8.948072625559024
 21
11.10305353843921
 31
0.0
  0
LINE
  5
43B8
330
1E
100
AcDbEntity
  8
7
100
AcDbLine
 10
8.948072625559024
 20
11.10305353843921
 30
0.0
 11
8.887705171490782
 21
11.29465458830798
 31
0.0
  0
LINE
  5
43B9
330
1E
100
AcDbEntity
  8
7
100
AcDbLine
 10
8.887705171490782
 20
11.29465458830798
 30
0.0
 11
8.803715670178448
 21
11.4757569505127
 31
0.0
  0
LINE
  5
43BA
330
1E
100
AcDbEntity
  8
7
100
AcDbLine
 10
8.803715670178448
 20
11.4757569505127
 30
0.0
 11
8.698728793538027
 21
11.64636062505338
 31
0.0
  0
LINE
  5
43BB
330
1E
100
AcDbEntity
  8
7
100
AcDbLine
 10
8.698728793538027
 20
11.64636062505338
 30
0.0
 11
8.572744541569523
 21
11.801216268098
 31
0.0
  0
LINE
  5
43BC
330
1E
100
AcDbEntity
  8
7
100
AcDbLine
 10
8.572744541569523
 20
11.9770692864707
 30
0.0
 11
8.417888898524907
 21
12.10567821035522
 31
0.0
  0
LINE
  5
43BD
330
1E
100
AcDbEntity
  8
7
100
AcDbLine
 10
8.417888898524907
 20
12.10567821035522
 30
0.0
 11
8.249909895900234
 21
12.21853910274367
 31
0.0
  0
LINE
  5
43BE
330
1E
100
AcDbEntity
  8
7
100
AcDbLine
 10
8.249909895900234
 20
12.21853910274367
 30
0.0
 11
8.071432205611518
 21
12.30777794788803
 31
0.0
  0
LINE
  5
43BF
330
1E
100
AcDbEntity
  8
7
100
AcDbLine
 10
8.071432205611518
 20
12.30777794788803
 30
0.0
 11
7.882455827658763
 21
12.37864408962031
 31
0.0
  0
LINE
  5
43C0
330
1E
100
AcDbEntity
  8
7
100
AcDbLine
 10
7.882455827658763
 20
12.37864408962031
 30
0.0
 11
7.685605433957974
 21
12.4258881841085
 31
0.0
  0
LINE
  5
43C1
330
1E
100
AcDbEntity
  8
7
100
AcDbLine
 10
7.685605433957974
 20
12.4258881841085
 30
0.0
 11
7.486130368341179
 21
12.45213490326861
 31
0.0
  0
LINE
  5
43C2
330
1E
100
AcDbEntity
  8
7
100
AcDbLine
 10
7.486130368341179
 20
12.45213490326861
 30
0.0
 11
7.284030630808368
 21
12.45213490326861
 31
0.0
  0
LINE
  5
43C3
330
1E
100
AcDbEntity
  8
7
100
AcDbLine
 10
7.284030630808368
 20
12.45213490326861
 30
0.0
 11
7.084555565191573
 21
12.43113752794052
 31
0.0
  0
LINE
  5
43C4
330
1E
100
AcDbEntity
  8
7
100
AcDbLine
 10
7.084555565191573
 20
12.43113752794052
 30
0.0
 11
6.887705171490783
 21
12.38651810536834
 31
0.0
  0
LINE
  5
43C5
330
1E
100
AcDbEntity
  8
7
100
AcDbLine
 10
6.887705171490783
 20
12.38651810536834
 30
0.0
 11
6.698728793538028
 21
12.32090130746808
 31
0.0
  0
LINE
  5
43C6
330
1E
100
AcDbEntity
  8
7
100
AcDbLine
 10
6.698728793538028
 20
12.32090130746808
 30
0.0
 11
6.517626431333302
 21
12.23166246232373
 31
0.0
  0
LINE
  5
43C7
330
1E
100
AcDbEntity
  8
7
100
AcDbLine
 10
6.517626431333302
 20
12.23166246232373
 30
0.0
 11
6.347022756792621
 21
12.12405091376729
 31
0.0
  0
LINE
  5
43C8
330
1E
100
AcDbEntity
  8
7
100
AcDbLine
 10
6.347022756792621
 20
12.12405091376729
 30
0.0
 11
6.192167113748003
 21
11.99806666179879
 31
0.0
  0
LINE
  5
43C9
330
1E
100
AcDbEntity
  8
7
100
AcDbLine
 10
8.018938767291306
 20
12.19491705549958
 30
0.0
 11
7.845710420834615
 21
12.26053385339984
 31
0.0
  0
LINE
  5
43CA
330
1E
100
AcDbEntity
  8
7
100
AcDbLine
 10
7.845710420834615
 20
12.26053385339984
 30
0.0
 11
7.664608058629889
 21
12.30515327597202
 31
0.0
  0
LINE
  5
43CB
330
1E
100
AcDbEntity
  8
7
100
AcDbLine
 10
7.664608058629889
 20
12.30515327597202
 30
0.0
 11
7.478256352593149
 21
12.32877532321611
 31
0.0
  0
LINE
  5
43CC
330
1E
100
AcDbEntity
  8
7
100
AcDbLine
 10
7.478256352593149
 20
12.32877532321611
 30
0.0
 11
7.291904646556403
 21
12.32877532321611
 31
0.0
  0
LINE
  5
43CD
330
1E
100
AcDbEntity
  8
7
100
AcDbLine
 10
7.291904646556403
 20
12.32877532321611
 30
0.0
 11
7.108177612435667
 21
12.31040261980404
 31
0.0
  0
LINE
  5
43CE
330
1E
100
AcDbEntity
  8
7
100
AcDbLine
 10
7.108177612435667
 20
12.31040261980404
 30
0.0
 11
6.924450578314932
 21
12.26840786914787
 31
0.0
  0
LINE
  5
43CF
330
1E
100
AcDbEntity
  8
7
100
AcDbLine
 10
6.924450578314932
 20
12.26840786914787
 30
0.0
 11
6.748597559942226
 21
12.20804041507963
 31
0.0
  0
LINE
  5
43D0
330
1E
100
AcDbEntity
  8
7
100
AcDbLine
 10
6.748597559942226
 20
12.20804041507963
 30
0.0
 11
6.580618557317554
 21
12.1266755856833
 31
0.0
  0
LINE
  5
43D1
330
1E
100
AcDbEntity
  8
7
100
AcDbLine
 10
6.580618557317554
 20
12.1266755856833
 30
0.0
 11
6.423138242356927
 21
12.0269380528749
 31
0.0
  0
LINE
  5
43D2
330
1E
100
AcDbEntity
  8
7
100
AcDbLine
 10
6.423138242356927
 20
12.0269380528749
 30
0.0
 11
6.278781286976349
 21
11.91145248857044
 31
0.0
  0
LINE
  5
43D3
330
1E
100
AcDbEntity
  8
7
100
AcDbLine
 10
8.486130368341179
 20
11.89045511324236
 30
0.0
 11
8.3417734129606
 21
12.00856534946283
 31
0.0
  0
LINE
  5
43D4
330
1E
100
AcDbEntity
  8
7
100
AcDbLine
 10
8.3417734129606
 20
12.00856534946283
 30
0.0
 11
8.186917769915982
 21
12.11092755418724
 31
0.0
  0
LINE
  5
43D5
330
1E
100
AcDbEntity
  8
7
100
AcDbLine
 10
8.186917769915982
 20
12.11092755418724
 30
0.0
 11
8.018938767291306
 21
12.19491705549958
 31
0.0
  0
LINE
  5
43D6
330
1E
100
AcDbEntity
  8
7
100
AcDbLine
 10
6.974319344719129
 20
9.520376373084884
 30
0.0
 11
7.134424331595771
 21
9.478381622428717
 31
0.0
  0
LINE
  5
43D7
330
1E
100
AcDbEntity
  8
7
100
AcDbLine
 10
7.134424331595771
 20
9.478381622428717
 30
0.0
 11
7.302403334220443
 21
9.457384247100632
 31
0.0
  0
LINE
  5
43D8
330
1E
100
AcDbEntity
  8
7
100
AcDbLine
 10
7.302403334220443
 20
9.457384247100632
 30
0.0
 11
7.470382336845114
 21
9.457384247100632
 31
0.0
  0
LINE
  5
43D9
330
1E
100
AcDbEntity
  8
7
100
AcDbLine
 10
7.470382336845114
 20
9.457384247100632
 30
0.0
 11
7.635736667553776
 21
9.483630966260736
 31
0.0
  0
LINE
  5
43DA
330
1E
100
AcDbEntity
  8
7
100
AcDbLine
 10
7.635736667553776
 20
9.483630966260736
 30
0.0
 11
7.795841654430418
 21
9.530875060748925
 31
0.0
  0
LINE
  5
43DB
330
1E
100
AcDbEntity
  8
7
100
AcDbLine
 10
7.795841654430418
 20
9.530875060748925
 30
0.0
 11
7.950697297475035
 21
9.596491858649187
 31
0.0
  0
LINE
  5
43DC
330
1E
100
AcDbEntity
  8
7
100
AcDbLine
 10
7.950697297475035
 20
9.596491858649187
 30
0.0
 11
8.092429580939603
 21
9.685730703793543
 31
0.0
  0
LINE
  5
43DD
330
1E
100
AcDbEntity
  8
7
100
AcDbLine
 10
8.092429580939603
 20
9.685730703793543
 30
0.0
 11
8.223663176740126
 21
9.790717580433966
 31
0.0
  0
LINE
  5
43DE
330
1E
100
AcDbEntity
  8
7
100
AcDbLine
 10
6.541248478577401
 20
9.769720205105882
 30
0.0
 11
6.672482074377924
 21
9.667358000381472
 31
0.0
  0
LINE
  5
43DF
330
1E
100
AcDbEntity
  8
7
100
AcDbLine
 10
6.672482074377924
 20
9.667358000381472
 30
0.0
 11
6.819463701674512
 21
9.583368499069136
 31
0.0
  0
LINE
  5
43E0
330
1E
100
AcDbEntity
  8
7
100
AcDbLine
 10
6.819463701674512
 20
9.583368499069136
 30
0.0
 11
6.974319344719129
 21
9.520376373084884
 31
0.0
  0
LINE
  5
43E1
330
1E
100
AcDbEntity
  8
7
100
AcDbLine
 10
6.903453202986847
 20
9.677856688045514
 30
0.0
 11
7.058308846031465
 21
9.622738577809291
 31
0.0
  0
LINE
  5
43E2
330
1E
100
AcDbEntity
  8
7
100
AcDbLine
 10
7.058308846031465
 20
9.622738577809291
 30
0.0
 11
7.221038504824116
 21
9.588617842901156
 31
0.0
  0
LINE
  5
43E3
330
1E
100
AcDbEntity
  8
7
100
AcDbLine
 10
7.221038504824116
 20
9.588617842901156
 30
0.0
 11
7.386392835532778
 21
9.578119155237114
 31
0.0
  0
LINE
  5
43E4
330
1E
100
AcDbEntity
  8
7
100
AcDbLine
 10
7.386392835532778
 20
9.578119155237114
 30
0.0
 11
7.54912249432543
 21
9.591242514817166
 31
0.0
  0
LINE
  5
43E5
330
1E
100
AcDbEntity
  8
7
100
AcDbLine
 10
7.54912249432543
 20
9.591242514817166
 30
0.0
 11
7.711852153118082
 21
9.630612593557323
 31
0.0
  0
LINE
  5
43E6
330
1E
100
AcDbEntity
  8
7
100
AcDbLine
 10
7.711852153118082
 20
9.630612593557323
 30
0.0
 11
7.86408312424669
 21
9.690980047625565
 31
0.0
  0
LINE
  5
43E7
330
1E
100
AcDbEntity
  8
7
100
AcDbLine
 10
7.86408312424669
 20
9.690980047625565
 30
0.0
 11
8.005815407711256
 21
9.774969548937901
 31
0.0
  0
LINE
  5
43E8
330
1E
100
AcDbEntity
  8
7
100
AcDbLine
 10
8.005815407711256
 20
9.774969548937901
 30
0.0
 11
8.13442433159577
 21
9.877331753662311
 31
0.0
  0
LINE
  5
43E9
330
1E
100
AcDbEntity
  8
7
100
AcDbLine
 10
6.627862651805746
 20
9.856334378334228
 30
0.0
 11
6.75909624760627
 21
9.75922151744184
 31
0.0
  0
LINE
  5
43EA
330
1E
100
AcDbEntity
  8
7
100
AcDbLine
 10
6.75909624760627
 20
9.75922151744184
 30
0.0
 11
6.903453202986847
 21
9.677856688045514
 31
0.0
  0
LINE
  5
43EB
330
1E
100
AcDbEntity
  8
7
100
AcDbLine
 10
8.619988636057712
 20
10.70410340720561
 30
0.0
 11
8.606865276477662
 21
10.88520576941034
 31
0.0
  0
LINE
  5
43EC
330
1E
100
AcDbEntity
  8
7
100
AcDbLine
 10
8.606865276477662
 20
10.88520576941034
 30
0.0
 11
8.567495197737503
 21
11.06105878778304
 31
0.0
  0
LINE
  5
43ED
330
1E
100
AcDbEntity
  8
7
100
AcDbLine
 10
8.567495197737503
 20
11.06105878778304
 30
0.0
 11
8.501878399837242
 21
11.23166246232373
 31
0.0
  0
LINE
  5
43EE
330
1E
100
AcDbEntity
  8
7
100
AcDbLine
 10
8.501878399837242
 20
11.23166246232373
 30
0.0
 11
8.415264226608892
 21
11.38914277728436
 31
0.0
  0
LINE
  5
43EF
330
1E
100
AcDbEntity
  8
7
100
AcDbLine
 10
8.415264226608892
 20
11.38914277728436
 30
0.0
 11
8.305028006136453
 21
11.53349973266493
 31
0.0
  0
LINE
  5
43F0
330
1E
100
AcDbEntity
  8
7
100
AcDbLine
 10
8.310277349968473
 20
9.87995642557832
 30
0.0
 11
8.417888898524907
 21
10.02168870904289
 31
0.0
  0
LINE
  5
43F1
330
1E
100
AcDbEntity
  8
7
100
AcDbLine
 10
8.417888898524907
 20
10.02168870904289
 30
0.0
 11
8.504503071753251
 21
10.17916902400352
 31
0.0
  0
LINE
  5
43F2
330
1E
100
AcDbEntity
  8
7
100
AcDbLine
 10
8.504503071753251
 20
10.17916902400352
 30
0.0
 11
8.567495197737503
 21
10.34977269854419
 31
0.0
  0
LINE
  5
43F3
330
1E
100
AcDbEntity
  8
7
100
AcDbLine
 10
8.567495197737503
 20
10.34977269854419
 30
0.0
 11
8.606865276477662
 21
10.5256257169169
 31
0.0
  0
LINE
  5
43F4
330
1E
100
AcDbEntity
  8
7
100
AcDbLine
 10
8.452009633433039
 20
10.38914277728435
 30
0.0
 11
8.486130368341179
 21
10.54662309224498
 31
0.0
  0
LINE
  5
43F5
330
1E
100
AcDbEntity
  8
7
100
AcDbLine
 10
8.486130368341179
 20
10.54662309224498
 30
0.0
 11
8.496629056005218
 21
10.70672807912163
 31
0.0
  0
LINE
  5
43F6
330
1E
100
AcDbEntity
  8
7
100
AcDbLine
 10
8.496629056005218
 20
10.70672807912163
 30
0.0
 11
8.483505696425169
 21
10.86945773791428
 31
0.0
  0
LINE
  5
43F7
330
1E
100
AcDbEntity
  8
7
100
AcDbLine
 10
8.483505696425169
 20
10.86945773791428
 30
0.0
 11
8.449384961517029
 21
11.02693805287491
 31
0.0
  0
LINE
  5
43F8
330
1E
100
AcDbEntity
  8
7
100
AcDbLine
 10
8.449384961517029
 20
11.02693805287491
 30
0.0
 11
8.391642179364797
 21
11.1765443520875
 31
0.0
  0
LINE
  5
43F9
330
1E
100
AcDbEntity
  8
7
100
AcDbLine
 10
8.391642179364797
 20
11.1765443520875
 30
0.0
 11
8.315526693800496
 21
11.31827663555207
 31
0.0
  0
LINE
  5
43FA
330
1E
100
AcDbEntity
  8
7
100
AcDbLine
 10
8.315526693800496
 20
11.31827663555207
 30
0.0
 11
8.218413832908106
 21
11.44688555943659
 31
0.0
  0
LINE
  5
43FB
330
1E
100
AcDbEntity
  8
7
100
AcDbLine
 10
8.221038504824116
 20
9.966570598806667
 30
0.0
 11
8.318151365716506
 21
10.09517952269118
 31
0.0
  0
LINE
  5
43FC
330
1E
100
AcDbEntity
  8
7
100
AcDbLine
 10
8.318151365716506
 20
10.09517952269118
 30
0.0
 11
8.394266851280807
 21
10.23691180615575
 31
0.0
  0
LINE
  5
43FD
330
1E
100
AcDbEntity
  8
7
100
AcDbLine
 10
8.394266851280807
 20
10.23691180615575
 30
0.0
 11
8.452009633433039
 21
10.38914277728435
 31
0.0
  0
LINE
  5
43FE
330
1E
100
AcDbEntity
  8
7
100
AcDbLine
 10
7.633111995637766
 20
11.9245758481505
 30
0.0
 11
7.467757664929104
 21
11.9508225673106
 31
0.0
  0
LINE
  5
43FF
330
1E
100
AcDbEntity
  8
7
100
AcDbLine
 10
7.467757664929104
 20
11.9508225673106
 30
0.0
 11
7.302403334220443
 21
11.9508225673106
 31
0.0
  0
LINE
  5
4400
330
1E
100
AcDbEntity
  8
7
100
AcDbLine
 10
7.302403334220443
 20
11.9508225673106
 30
0.0
 11
7.137049003511781
 21
11.93244986389853
 31
0.0
  0
LINE
  5
4401
330
1E
100
AcDbEntity
  8
7
100
AcDbLine
 10
7.137049003511781
 20
11.93244986389853
 30
0.0
 11
6.976944016635139
 21
11.89045511324236
 31
0.0
  0
LINE
  5
4402
330
1E
100
AcDbEntity
  8
7
100
AcDbLine
 10
6.976944016635139
 20
11.89045511324236
 30
0.0
 11
6.822088373590522
 21
11.82746298725811
 31
0.0
  0
LINE
  5
4403
330
1E
100
AcDbEntity
  8
7
100
AcDbLine
 10
6.822088373590522
 20
11.82746298725811
 30
0.0
 11
6.677731418209944
 21
11.74347348594577
 31
0.0
  0
LINE
  5
4404
330
1E
100
AcDbEntity
  8
7
100
AcDbLine
 10
6.677731418209944
 20
11.74347348594577
 30
0.0
 11
6.546497822409421
 21
11.64373595313737
 31
0.0
  0
LINE
  5
4405
330
1E
100
AcDbEntity
  8
7
100
AcDbLine
 10
8.218413832908106
 20
11.62273857780929
 30
0.0
 11
8.087180237107583
 21
11.72772545444971
 31
0.0
  0
LINE
  5
4406
330
1E
100
AcDbEntity
  8
7
100
AcDbLine
 10
8.087180237107583
 20
11.72772545444971
 30
0.0
 11
7.945447953643015
 21
11.81433962767805
 31
0.0
  0
LINE
  5
4407
330
1E
100
AcDbEntity
  8
7
100
AcDbLine
 10
7.945447953643015
 20
11.81433962767805
 30
0.0
 11
7.793216982514408
 21
11.87995642557832
 31
0.0
  0
LINE
  5
4408
330
1E
100
AcDbEntity
  8
7
100
AcDbLine
 10
7.793216982514408
 20
11.87995642557832
 30
0.0
 11
7.633111995637766
 21
11.9245758481505
 31
0.0
  0
LINE
  5
4409
330
1E
100
AcDbEntity
  8
7
100
AcDbLine
 10
7.54912249432543
 20
11.81696429959407
 30
0.0
 11
7.386392835532778
 21
11.83008765917412
 31
0.0
  0
LINE
  5
440A
330
1E
100
AcDbEntity
  8
7
100
AcDbLine
 10
7.386392835532778
 20
11.83008765917412
 30
0.0
 11
7.223663176740126
 21
11.81958897151007
 31
0.0
  0
LINE
  5
440B
330
1E
100
AcDbEntity
  8
7
100
AcDbLine
 10
7.223663176740126
 20
11.81958897151007
 30
0.0
 11
7.063558189863489
 21
11.78809290851795
 31
0.0
  0
LINE
  5
440C
330
1E
100
AcDbEntity
  8
7
100
AcDbLine
 10
7.063558189863489
 20
11.78809290851795
 30
0.0
 11
6.908702546818867
 21
11.73035012636572
 31
0.0
  0
LINE
  5
440D
330
1E
100
AcDbEntity
  8
7
100
AcDbLine
 10
6.908702546818867
 20
11.73035012636572
 30
0.0
 11
6.764345591438289
 21
11.65423464080141
 31
0.0
  0
LINE
  5
440E
330
1E
100
AcDbEntity
  8
7
100
AcDbLine
 10
6.764345591438289
 20
11.65423464080141
 30
0.0
 11
6.633111995637766
 21
11.55449710799302
 31
0.0
  0
LINE
  5
440F
330
1E
100
AcDbEntity
  8
7
100
AcDbLine
 10
8.12917498776375
 20
11.53612440458094
 30
0.0
 11
8.003190735795246
 21
11.63586193738934
 31
0.0
  0
LINE
  5
4410
330
1E
100
AcDbEntity
  8
7
100
AcDbLine
 10
8.003190735795246
 20
11.63586193738934
 30
0.0
 11
7.85883378041467
 21
11.71722676678567
 31
0.0
  0
LINE
  5
4411
330
1E
100
AcDbEntity
  8
7
100
AcDbLine
 10
7.85883378041467
 20
11.71722676678567
 30
0.0
 11
7.709227481202072
 21
11.77759422085391
 31
0.0
  0
LINE
  5
4412
330
1E
100
AcDbEntity
  8
7
100
AcDbLine
 10
7.709227481202072
 20
11.77759422085391
 30
0.0
 11
7.54912249432543
 21
11.81696429959407
 31
0.0
  0
LINE
  5
4413
330
1E
100
AcDbEntity
  8
7
100
AcDbLine
 10
7.003190735795247
 20
10.04793542820299
 30
0.0
 11
7.123925643931731
 21
9.995441989882783
 31
0.0
  0
LINE
  5
4414
330
1E
100
AcDbEntity
  8
7
100
AcDbLine
 10
7.123925643931731
 20
9.995441989882783
 30
0.0
 11
7.252534567816245
 21
9.961321254974647
 31
0.0
  0
LINE
  5
4415
330
1E
100
AcDbEntity
  8
7
100
AcDbLine
 10
7.252534567816245
 20
9.961321254974647
 30
0.0
 11
7.386392835532778
 21
9.953447239226616
 31
0.0
  0
LINE
  5
4416
330
1E
100
AcDbEntity
  8
7
100
AcDbLine
 10
7.386392835532778
 20
9.953447239226616
 30
0.0
 11
7.517626431333302
 21
9.969195270722678
 31
0.0
  0
LINE
  5
4417
330
1E
100
AcDbEntity
  8
7
100
AcDbLine
 10
7.517626431333302
 20
9.969195270722678
 30
0.0
 11
7.643610683301806
 21
10.00594067754682
 31
0.0
  0
LINE
  5
4418
330
1E
100
AcDbEntity
  8
7
100
AcDbLine
 10
7.643610683301806
 20
10.00594067754682
 30
0.0
 11
7.764345591438289
 21
10.06368345969905
 31
0.0
  0
LINE
  5
4419
330
1E
100
AcDbEntity
  8
7
100
AcDbLine
 10
7.764345591438289
 20
10.06368345969905
 30
0.0
 11
7.86933246807871
 21
10.14242361717937
 31
0.0
  0
LINE
  5
441A
330
1E
100
AcDbEntity
  8
7
100
AcDbLine
 10
6.984818032383174
 20
10.21328975891165
 30
0.0
 11
7.087180237107583
 21
10.14767296101139
 31
0.0
  0
LINE
  5
441B
330
1E
100
AcDbEntity
  8
7
100
AcDbLine
 10
7.087180237107583
 20
10.14767296101139
 30
0.0
 11
7.202665801412043
 21
10.10305353843921
 31
0.0
  0
LINE
  5
441C
330
1E
100
AcDbEntity
  8
7
100
AcDbLine
 10
7.202665801412043
 20
10.10305353843921
 30
0.0
 11
7.323400709548526
 21
10.08205616311113
 31
0.0
  0
LINE
  5
441D
330
1E
100
AcDbEntity
  8
7
100
AcDbLine
 10
7.323400709548526
 20
10.08205616311113
 30
0.0
 11
7.44676028960102
 21
10.08468083502714
 31
0.0
  0
LINE
  5
441E
330
1E
100
AcDbEntity
  8
7
100
AcDbLine
 10
7.44676028960102
 20
10.08468083502714
 30
0.0
 11
7.567495197737504
 21
10.11092755418724
 31
0.0
  0
LINE
  5
441F
330
1E
100
AcDbEntity
  8
7
100
AcDbLine
 10
7.567495197737504
 20
10.11092755418724
 30
0.0
 11
7.680356090125954
 21
10.16079632059144
 31
0.0
  0
LINE
  5
4420
330
1E
100
AcDbEntity
  8
7
100
AcDbLine
 10
7.680356090125954
 20
10.16079632059144
 30
0.0
 11
7.780093622934353
 21
10.23166246232372
 31
0.0
  0
LINE
  5
4421
330
1E
100
AcDbEntity
  8
7
100
AcDbLine
 10
8.121300972015717
 20
10.70410340720561
 30
0.0
 11
8.110802284351677
 21
10.83271233109013
 31
0.0
  0
LINE
  5
4422
330
1E
100
AcDbEntity
  8
7
100
AcDbLine
 10
8.110802284351677
 20
10.83271233109013
 30
0.0
 11
8.076681549443538
 21
10.95607191114262
 31
0.0
  0
LINE
  5
4423
330
1E
100
AcDbEntity
  8
7
100
AcDbLine
 10
8.076681549443538
 20
10.95607191114262
 30
0.0
 11
8.024188111123331
 21
11.0741821473631
 31
0.0
  0
LINE
  5
4424
330
1E
100
AcDbEntity
  8
7
100
AcDbLine
 10
8.024188111123331
 20
11.0741821473631
 30
0.0
 11
7.950697297475035
 21
11.17916902400351
 31
0.0
  0
LINE
  5
4425
330
1E
100
AcDbEntity
  8
7
100
AcDbLine
 10
7.955946641307055
 20
10.23428713423973
 30
0.0
 11
8.026812783039341
 21
10.33927401088015
 31
0.0
  0
LINE
  5
4426
330
1E
100
AcDbEntity
  8
7
100
AcDbLine
 10
8.026812783039341
 20
10.33927401088015
 30
0.0
 11
8.079306221359548
 21
10.45475957518462
 31
0.0
  0
LINE
  5
4427
330
1E
100
AcDbEntity
  8
7
100
AcDbLine
 10
8.079306221359548
 20
10.45475957518462
 30
0.0
 11
8.110802284351677
 21
10.57811915523711
 31
0.0
  0
LINE
  5
4428
330
1E
100
AcDbEntity
  8
7
100
AcDbLine
 10
8.110802284351677
 20
10.57811915523711
 30
0.0
 11
8.121300972015717
 21
10.70410340720561
 31
0.0
  0
LINE
  5
4429
330
1E
100
AcDbEntity
  8
7
100
AcDbLine
 10
7.8667077961627
 20
10.32352597938409
 30
0.0
 11
7.929699922146951
 21
10.42326351219249
 31
0.0
  0
LINE
  5
442A
330
1E
100
AcDbEntity
  8
7
100
AcDbLine
 10
7.929699922146951
 20
10.42326351219249
 30
0.0
 11
7.971694672803119
 21
10.53349973266493
 31
0.0
  0
LINE
  5
442B
330
1E
100
AcDbEntity
  8
7
100
AcDbLine
 10
7.971694672803119
 20
10.53349973266493
 30
0.0
 11
7.992692048131203
 21
10.64898529696939
 31
0.0
  0
LINE
  5
442C
330
1E
100
AcDbEntity
  8
7
100
AcDbLine
 10
7.992692048131203
 20
10.64898529696939
 30
0.0
 11
7.992692048131203
 21
10.76709553318986
 31
0.0
  0
LINE
  5
442D
330
1E
100
AcDbEntity
  8
7
100
AcDbLine
 10
7.992692048131203
 20
10.76709553318986
 30
0.0
 11
7.969070000887109
 21
10.88258109749433
 31
0.0
  0
LINE
  5
442E
330
1E
100
AcDbEntity
  8
7
100
AcDbLine
 10
7.969070000887109
 20
10.88258109749433
 30
0.0
 11
7.924450578314932
 21
10.99281731796677
 31
0.0
  0
LINE
  5
442F
330
1E
100
AcDbEntity
  8
7
100
AcDbLine
 10
7.924450578314932
 20
10.99281731796677
 30
0.0
 11
7.86145845233068
 21
11.08993017885916
 31
0.0
  0
LINE
  5
4430
330
1E
100
AcDbEntity
  8
7
100
AcDbLine
 10
7.255159239732255
 20
11.44688555943659
 30
0.0
 11
7.129174987763751
 21
11.41538949644446
 31
0.0
  0
LINE
  5
4431
330
1E
100
AcDbEntity
  8
7
100
AcDbLine
 10
7.129174987763751
 20
11.41538949644446
 30
0.0
 11
7.008440079627267
 21
11.36289605812425
 31
0.0
  0
LINE
  5
4432
330
1E
100
AcDbEntity
  8
7
100
AcDbLine
 10
7.008440079627267
 20
11.36289605812425
 30
0.0
 11
6.900828531070837
 21
11.28940524447595
 31
0.0
  0
LINE
  5
4433
330
1E
100
AcDbEntity
  8
7
100
AcDbLine
 10
7.86408312424669
 20
11.26840786914787
 30
0.0
 11
7.75909624760627
 21
11.34714802662819
 31
0.0
  0
LINE
  5
4434
330
1E
100
AcDbEntity
  8
7
100
AcDbLine
 10
7.75909624760627
 20
11.34714802662819
 30
0.0
 11
7.640986011385796
 21
11.40489080878042
 31
0.0
  0
LINE
  5
4435
330
1E
100
AcDbEntity
  8
7
100
AcDbLine
 10
7.640986011385796
 20
11.40489080878042
 30
0.0
 11
7.515001759417292
 21
11.44163621560456
 31
0.0
  0
LINE
  5
4436
330
1E
100
AcDbEntity
  8
7
100
AcDbLine
 10
7.515001759417292
 20
11.44163621560456
 30
0.0
 11
7.386392835532778
 21
11.45475957518462
 31
0.0
  0
LINE
  5
4437
330
1E
100
AcDbEntity
  8
7
100
AcDbLine
 10
7.386392835532778
 20
11.45475957518462
 30
0.0
 11
7.255159239732255
 21
11.44688555943659
 31
0.0
  0
LINE
  5
4438
330
1E
100
AcDbEntity
  8
7
100
AcDbLine
 10
7.564870525821494
 20
11.29727926022399
 30
0.0
 11
7.44676028960102
 21
11.32352597938409
 31
0.0
  0
LINE
  5
4439
330
1E
100
AcDbEntity
  8
7
100
AcDbLine
 10
7.44676028960102
 20
11.32352597938409
 30
0.0
 11
7.326025381464536
 21
11.3261506513001
 31
0.0
  0
LINE
  5
443A
330
1E
100
AcDbEntity
  8
7
100
AcDbLine
 10
7.326025381464536
 20
11.3261506513001
 30
0.0
 11
7.205290473328052
 21
11.30777794788803
 31
0.0
  0
LINE
  5
443B
330
1E
100
AcDbEntity
  8
7
100
AcDbLine
 10
7.205290473328052
 20
11.30777794788803
 30
0.0
 11
7.092429580939603
 21
11.26315852531585
 31
0.0
  0
LINE
  5
443C
330
1E
100
AcDbEntity
  8
7
100
AcDbLine
 10
7.092429580939603
 20
11.26315852531585
 30
0.0
 11
6.990067376215193
 21
11.2001663993316
 31
0.0
  0
LINE
  5
443D
330
1E
100
AcDbEntity
  8
7
100
AcDbLine
 10
7.774844279102333
 20
11.17916902400351
 30
0.0
 11
7.675106746293934
 21
11.2500351657358
 31
0.0
  0
LINE
  5
443E
330
1E
100
AcDbEntity
  8
7
100
AcDbLine
 10
7.675106746293934
 20
11.2500351657358
 30
0.0
 11
7.564870525821494
 21
11.29727926022399
 31
0.0
  0
LINE
  5
443F
330
1E
100
AcDbEntity
  8
7
100
AcDbLine
 10
5.696104121622018
 20
11.21066508699564
 30
0.0
 11
5.646235355217821
 21
11.01119002137884
 31
0.0
  0
LINE
  5
4440
330
1E
100
AcDbEntity
  8
7
100
AcDbLine
 10
5.646235355217821
 20
11.01119002137884
 30
0.0
 11
5.622613307973722
 21
10.80909028384603
 31
0.0
  0
LINE
  5
4441
330
1E
100
AcDbEntity
  8
7
100
AcDbLine
 10
5.622613307973722
 20
10.80909028384603
 30
0.0
 11
5.622613307973722
 21
10.60436587439722
 31
0.0
  0
LINE
  5
4442
330
1E
100
AcDbEntity
  8
7
100
AcDbLine
 10
5.622613307973722
 20
10.60436587439722
 30
0.0
 11
5.646235355217821
 21
10.40226613686441
 31
0.0
  0
LINE
  5
4443
330
1E
100
AcDbEntity
  8
7
100
AcDbLine
 10
5.646235355217821
 20
10.40226613686441
 30
0.0
 11
5.693479449706008
 21
10.20279107124761
 31
0.0
  0
LINE
  5
4444
330
1E
100
AcDbEntity
  8
7
100
AcDbLine
 10
5.693479449706008
 20
10.20279107124761
 30
0.0
 11
5.76172091952228
 21
10.01119002137884
 31
0.0
  0
LINE
  5
4445
330
1E
100
AcDbEntity
  8
7
100
AcDbLine
 10
5.76172091952228
 20
10.01119002137884
 30
0.0
 11
5.85358443658265
 21
9.830087659174122
 31
0.0
  0
LINE
  5
4446
330
1E
100
AcDbEntity
  8
7
100
AcDbLine
 10
5.85358443658265
 20
9.830087659174122
 30
0.0
 11
5.9664453289711
 21
9.659483984633439
 31
0.0
  0
LINE
  5
4447
330
1E
100
AcDbEntity
  8
7
100
AcDbLine
 10
5.9664453289711
 20
9.659483984633439
 30
0.0
 11
6.097678924771623
 21
9.502003669672809
 31
0.0
  0
LINE
  5
4448
330
1E
100
AcDbEntity
  8
7
100
AcDbLine
 10
6.102928268603648
 20
11.91145248857044
 30
0.0
 11
5.97169467280312
 21
11.75397217360981
 31
0.0
  0
LINE
  5
4449
330
1E
100
AcDbEntity
  8
7
100
AcDbLine
 10
5.97169467280312
 20
11.75397217360981
 30
0.0
 11
5.85883378041467
 21
11.58599317098514
 31
0.0
  0
LINE
  5
444A
330
1E
100
AcDbEntity
  8
7
100
AcDbLine
 10
5.85883378041467
 20
11.58599317098514
 30
0.0
 11
5.764345591438289
 21
11.40226613686441
 31
0.0
  0
LINE
  5
444B
330
1E
100
AcDbEntity
  8
7
100
AcDbLine
 10
5.764345591438289
 20
11.40226613686441
 30
0.0
 11
5.696104121622018
 21
11.21066508699564
 31
0.0
  0
LINE
  5
444C
330
1E
100
AcDbEntity
  8
7
100
AcDbLine
 10
6.058308846031465
 20
11.66473332846545
 30
0.0
 11
5.948072625559025
 21
11.49150498200876
 31
0.0
  0
LINE
  5
444D
330
1E
100
AcDbEntity
  8
7
100
AcDbLine
 10
5.948072625559025
 20
11.49150498200876
 30
0.0
 11
5.85883378041467
 21
11.30777794788803
 31
0.0
  0
LINE
  5
444E
330
1E
100
AcDbEntity
  8
7
100
AcDbLine
 10
5.85883378041467
 20
11.30777794788803
 30
0.0
 11
5.795841654430418
 21
11.11092755418724
 31
0.0
  0
LINE
  5
444F
330
1E
100
AcDbEntity
  8
7
100
AcDbLine
 10
5.795841654430418
 20
11.11092755418724
 30
0.0
 11
5.75647157569026
 21
10.90882781665443
 31
0.0
  0
LINE
  5
4450
330
1E
100
AcDbEntity
  8
7
100
AcDbLine
 10
5.75647157569026
 20
10.90882781665443
 30
0.0
 11
5.743348216110206
 21
10.70410340720561
 31
0.0
  0
LINE
  5
4451
330
1E
100
AcDbEntity
  8
7
100
AcDbLine
 10
5.743348216110206
 20
10.70410340720561
 30
0.0
 11
5.75647157569026
 21
10.4993789977568
 31
0.0
  0
LINE
  5
4452
330
1E
100
AcDbEntity
  8
7
100
AcDbLine
 10
5.75647157569026
 20
10.4993789977568
 30
0.0
 11
5.793216982514408
 21
10.29990393214
 31
0.0
  0
LINE
  5
4453
330
1E
100
AcDbEntity
  8
7
100
AcDbLine
 10
5.793216982514408
 20
10.29990393214
 30
0.0
 11
5.85883378041467
 21
10.10567821035522
 31
0.0
  0
LINE
  5
4454
330
1E
100
AcDbEntity
  8
7
100
AcDbLine
 10
5.85883378041467
 20
10.10567821035522
 30
0.0
 11
5.945447953643015
 21
9.91932650431848
 31
0.0
  0
LINE
  5
4455
330
1E
100
AcDbEntity
  8
7
100
AcDbLine
 10
5.945447953643015
 20
9.91932650431848
 30
0.0
 11
6.055684174115455
 21
9.746098157861785
 31
0.0
  0
LINE
  5
4456
330
1E
100
AcDbEntity
  8
7
100
AcDbLine
 10
6.055684174115455
 20
9.746098157861785
 30
0.0
 11
6.184293097999969
 21
9.588617842901156
 31
0.0
  0
LINE
  5
4457
330
1E
100
AcDbEntity
  8
7
100
AcDbLine
 10
7.593741916897608
 20
10.59386718673317
 30
0.0
 11
7.614739292225692
 21
10.64898529696939
 31
0.0
  0
LINE
  5
4458
330
1E
100
AcDbEntity
  8
7
100
AcDbLine
 10
7.614739292225692
 20
10.64898529696939
 30
0.0
 11
7.619988636057712
 21
10.70410340720561
 31
0.0
  0
LINE
  5
4459
330
1E
100
AcDbEntity
  8
7
100
AcDbLine
 10
7.255159239732255
 20
10.48363096626073
 30
0.0
 11
7.3417734129606
 21
10.45738424710063
 31
0.0
  0
LINE
  5
445A
330
1E
100
AcDbEntity
  8
7
100
AcDbLine
 10
7.3417734129606
 20
10.45738424710063
 30
0.0
 11
7.431012258104956
 21
10.46263359093265
 31
0.0
  0
LINE
  5
445B
330
1E
100
AcDbEntity
  8
7
100
AcDbLine
 10
7.431012258104956
 20
10.46263359093265
 30
0.0
 11
7.512377087501282
 21
10.4993789977568
 31
0.0
  0
LINE
  5
445C
330
1E
100
AcDbEntity
  8
7
100
AcDbLine
 10
7.507127743669262
 20
10.91145248857044
 30
0.0
 11
7.428387586188947
 21
10.94557322347858
 31
0.0
  0
LINE
  5
445D
330
1E
100
AcDbEntity
  8
7
100
AcDbLine
 10
7.428387586188947
 20
10.94557322347858
 30
0.0
 11
7.34439808487661
 21
10.9508225673106
 31
0.0
  0
LINE
  5
445E
330
1E
100
AcDbEntity
  8
7
100
AcDbLine
 10
7.165920394587899
 20
10.84583569067018
 30
0.0
 11
7.134424331595771
 21
10.78021889276992
 31
0.0
  0
LINE
  5
445F
330
1E
100
AcDbEntity
  8
7
100
AcDbLine
 10
7.134424331595771
 20
10.78021889276992
 30
0.0
 11
7.121300972015717
 21
10.70672807912163
 31
0.0
  0
LINE
  5
4460
330
1E
100
AcDbEntity
  8
7
100
AcDbLine
 10
7.121300972015717
 20
10.70672807912163
 30
0.0
 11
7.131799659679761
 21
10.63323726547333
 31
0.0
  0
LINE
  5
4461
330
1E
100
AcDbEntity
  8
7
100
AcDbLine
 10
7.131799659679761
 20
10.63323726547333
 30
0.0
 11
7.163295722671884
 21
10.56762046757307
 31
0.0
  0
LINE
  5
4462
330
1E
100
AcDbEntity
  8
7
100
AcDbLine
 10
-2.576861757643071
 20
5.110927554187246
 30
0.0
 11
-2.589985117223124
 21
5.110927554187246
 31
0.0
  0
LINE
  5
4463
330
1E
100
AcDbEntity
  8
7
100
AcDbLine
 10
-2.589985117223124
 20
5.110927554187246
 30
0.0
 11
-2.592609789139135
 21
5.110927554187246
 31
0.0
  0
LINE
  5
4464
330
1E
100
AcDbEntity
  8
7
100
AcDbLine
 10
-2.592609789139135
 20
5.129300257599319
 30
0.0
 11
-2.589985117223124
 21
5.129300257599319
 31
0.0
  0
LINE
  5
4465
330
1E
100
AcDbEntity
  8
7
100
AcDbLine
 10
-2.589985117223124
 20
5.129300257599319
 30
0.0
 11
-2.576861757643071
 21
5.129300257599319
 31
0.0
  0
LINE
  5
4466
330
1E
100
AcDbEntity
  8
7
100
AcDbLine
 10
-2.36951267627824
 20
5.129300257599319
 30
0.0
 11
-2.576861757643071
 21
5.129300257599319
 31
0.0
  0
LINE
  5
4467
330
1E
100
AcDbEntity
  8
7
100
AcDbLine
 10
-2.576861757643071
 20
5.129300257599319
 30
0.0
 11
-2.576861757643071
 21
5.110927554187246
 31
0.0
  0
LINE
  5
4468
330
1E
100
AcDbEntity
  8
7
100
AcDbLine
 10
-2.576861757643071
 20
5.110927554187246
 30
0.0
 11
-2.36951267627824
 21
5.110927554187246
 31
0.0
  0
LINE
  5
4469
330
1E
100
AcDbEntity
  8
7
100
AcDbLine
 10
-2.592609789139135
 20
5.60961521822924
 30
0.0
 11
-2.589985117223124
 21
5.60961521822924
 31
0.0
  0
LINE
  5
446A
330
1E
100
AcDbEntity
  8
7
100
AcDbLine
 10
-2.589985117223124
 20
5.60961521822924
 30
0.0
 11
-2.576861757643071
 21
5.60961521822924
 31
0.0
  0
LINE
  5
446B
330
1E
100
AcDbEntity
  8
7
100
AcDbLine
 10
-2.36951267627824
 20
5.591242514817166
 30
0.0
 11
-2.576861757643071
 21
5.591242514817166
 31
0.0
  0
LINE
  5
446C
330
1E
100
AcDbEntity
  8
7
100
AcDbLine
 10
-2.576861757643071
 20
5.591242514817166
 30
0.0
 11
-2.589985117223124
 21
5.591242514817166
 31
0.0
  0
LINE
  5
446D
330
1E
100
AcDbEntity
  8
7
100
AcDbLine
 10
-2.589985117223124
 20
5.591242514817166
 30
0.0
 11
-2.592609789139135
 21
5.591242514817166
 31
0.0
  0
LINE
  5
446E
330
1E
100
AcDbEntity
  8
7
100
AcDbLine
 10
-1.377386692026273
 20
5.735599470197744
 30
0.0
 11
-1.503370943994776
 21
5.735599470197744
 31
0.0
  0
LINE
  5
446F
330
1E
100
AcDbEntity
  8
7
100
AcDbLine
 10
-1.503370943994776
 20
5.735599470197744
 30
0.0
 11
-2.36951267627824
 21
5.735599470197744
 31
0.0
  0
LINE
  5
4470
330
1E
100
AcDbEntity
  8
7
100
AcDbLine
 10
-2.503370943994777
 20
4.60961521822924
 30
0.0
 11
-2.579486429559082
 21
4.60961521822924
 31
0.0
  0
LINE
  5
4471
330
1E
100
AcDbEntity
  8
7
100
AcDbLine
 10
-2.579486429559082
 20
4.60961521822924
 30
0.0
 11
-2.650352571291364
 21
4.60961521822924
 31
0.0
  0
LINE
  5
4472
330
1E
100
AcDbEntity
  8
7
100
AcDbLine
 10
-2.650352571291364
 20
4.60961521822924
 30
0.0
 11
-2.705470681527586
 21
4.60961521822924
 31
0.0
  0
LINE
  5
4473
330
1E
100
AcDbEntity
  8
7
100
AcDbLine
 10
-2.705470681527586
 20
4.60961521822924
 30
0.0
 11
-2.739591416435722
 21
4.60961521822924
 31
0.0
  0
LINE
  5
4474
330
1E
100
AcDbEntity
  8
7
100
AcDbLine
 10
-2.739591416435722
 20
4.60961521822924
 30
0.0
 11
-2.752714776015775
 21
4.60961521822924
 31
0.0
  0
LINE
  5
4475
330
1E
100
AcDbEntity
  8
7
100
AcDbLine
 10
2.247285223984224
 20
4.60961521822924
 30
0.0
 11
2.234161864404172
 21
4.60961521822924
 31
0.0
  0
LINE
  5
4476
330
1E
100
AcDbEntity
  8
7
100
AcDbLine
 10
2.234161864404172
 20
4.60961521822924
 30
0.0
 11
2.200041129496034
 21
4.60961521822924
 31
0.0
  0
LINE
  5
4477
330
1E
100
AcDbEntity
  8
7
100
AcDbLine
 10
2.200041129496034
 20
4.60961521822924
 30
0.0
 11
2.144923019259814
 21
4.60961521822924
 31
0.0
  0
LINE
  5
4478
330
1E
100
AcDbEntity
  8
7
100
AcDbLine
 10
2.144923019259814
 20
4.60961521822924
 30
0.0
 11
2.07405687752753
 21
4.60961521822924
 31
0.0
  0
LINE
  5
4479
330
1E
100
AcDbEntity
  8
7
100
AcDbLine
 10
2.07405687752753
 20
4.60961521822924
 30
0.0
 11
1.997941391963227
 21
4.60961521822924
 31
0.0
  0
LINE
  5
447A
330
1E
100
AcDbEntity
  8
7
100
AcDbLine
 10
-2.503370943994777
 20
4.60961521822924
 30
0.0
 11
1.997941391963227
 21
4.60961521822924
 31
0.0
  0
LINE
  5
447B
330
1E
100
AcDbEntity
  8
7
100
AcDbLine
 10
1.997941391963227
 20
4.60961521822924
 30
0.0
 11
1.997941391963227
 21
4.861583722166249
 31
0.0
  0
LINE
  5
447C
330
1E
100
AcDbEntity
  8
7
100
AcDbLine
 10
-2.752714776015775
 20
4.861583722166249
 30
0.0
 11
-2.739591416435722
 21
4.861583722166249
 31
0.0
  0
LINE
  5
447D
330
1E
100
AcDbEntity
  8
7
100
AcDbLine
 10
-2.739591416435722
 20
4.861583722166249
 30
0.0
 11
-2.705470681527586
 21
4.861583722166249
 31
0.0
  0
LINE
  5
447E
330
1E
100
AcDbEntity
  8
7
100
AcDbLine
 10
-2.705470681527586
 20
4.861583722166249
 30
0.0
 11
-2.650352571291364
 21
4.861583722166249
 31
0.0
  0
LINE
  5
447F
330
1E
100
AcDbEntity
  8
7
100
AcDbLine
 10
-2.650352571291364
 20
4.861583722166249
 30
0.0
 11
-2.579486429559082
 21
4.861583722166249
 31
0.0
  0
LINE
  5
4480
330
1E
100
AcDbEntity
  8
7
100
AcDbLine
 10
-2.579486429559082
 20
4.861583722166249
 30
0.0
 11
-2.503370943994777
 21
4.861583722166249
 31
0.0
  0
LINE
  5
4481
330
1E
100
AcDbEntity
  8
7
100
AcDbLine
 10
-2.503370943994777
 20
4.861583722166249
 30
0.0
 11
1.997941391963227
 21
4.861583722166249
 31
0.0
  0
LINE
  5
4482
330
1E
100
AcDbEntity
  8
7
100
AcDbLine
 10
1.997941391963227
 20
4.861583722166249
 30
0.0
 11
2.07405687752753
 21
4.861583722166249
 31
0.0
  0
LINE
  5
4483
330
1E
100
AcDbEntity
  8
7
100
AcDbLine
 10
2.07405687752753
 20
4.861583722166249
 30
0.0
 11
2.144923019259814
 21
4.861583722166249
 31
0.0
  0
LINE
  5
4484
330
1E
100
AcDbEntity
  8
7
100
AcDbLine
 10
2.144923019259814
 20
4.861583722166249
 30
0.0
 11
2.200041129496034
 21
4.861583722166249
 31
0.0
  0
LINE
  5
4485
330
1E
100
AcDbEntity
  8
7
100
AcDbLine
 10
2.200041129496034
 20
4.861583722166249
 30
0.0
 11
2.234161864404172
 21
4.861583722166249
 31
0.0
  0
LINE
  5
4486
330
1E
100
AcDbEntity
  8
7
100
AcDbLine
 10
2.234161864404172
 20
4.861583722166249
 30
0.0
 11
2.247285223984224
 21
4.861583722166249
 31
0.0
  0
LINE
  5
4487
330
1E
100
AcDbEntity
  8
7
100
AcDbLine
 10
-2.650352571291364
 20
5.861583722166248
 30
0.0
 11
-2.705470681527586
 21
5.861583722166248
 31
0.0
  0
LINE
  5
4488
330
1E
100
AcDbEntity
  8
7
100
AcDbLine
 10
-2.705470681527586
 20
5.861583722166248
 30
0.0
 11
-2.739591416435722
 21
5.861583722166248
 31
0.0
  0
LINE
  5
4489
330
1E
100
AcDbEntity
  8
7
100
AcDbLine
 10
-2.739591416435722
 20
5.861583722166248
 30
0.0
 11
-2.752714776015775
 21
5.861583722166248
 31
0.0
  0
LINE
  5
448A
330
1E
100
AcDbEntity
  8
7
100
AcDbLine
 10
-2.503370943994777
 20
5.861583722166248
 30
0.0
 11
-2.579486429559082
 21
5.861583722166248
 31
0.0
  0
LINE
  5
448B
330
1E
100
AcDbEntity
  8
7
100
AcDbLine
 10
-2.579486429559082
 20
5.861583722166248
 30
0.0
 11
-2.650352571291364
 21
5.861583722166248
 31
0.0
  0
LINE
  5
448C
330
1E
100
AcDbEntity
  8
7
100
AcDbLine
 10
2.247285223984224
 20
5.861583722166248
 30
0.0
 11
2.234161864404172
 21
5.861583722166248
 31
0.0
  0
LINE
  5
448D
330
1E
100
AcDbEntity
  8
7
100
AcDbLine
 10
2.234161864404172
 20
5.861583722166248
 30
0.0
 11
2.200041129496034
 21
5.861583722166248
 31
0.0
  0
LINE
  5
448E
330
1E
100
AcDbEntity
  8
7
100
AcDbLine
 10
2.200041129496034
 20
5.861583722166248
 30
0.0
 11
2.144923019259814
 21
5.861583722166248
 31
0.0
  0
LINE
  5
448F
330
1E
100
AcDbEntity
  8
7
100
AcDbLine
 10
2.144923019259814
 20
5.861583722166248
 30
0.0
 11
2.07405687752753
 21
5.861583722166248
 31
0.0
  0
LINE
  5
4490
330
1E
100
AcDbEntity
  8
7
100
AcDbLine
 10
2.07405687752753
 20
5.861583722166248
 30
0.0
 11
1.997941391963227
 21
5.861583722166248
 31
0.0
  0
LINE
  5
4491
330
1E
100
AcDbEntity
  8
7
100
AcDbLine
 10
-2.752714776015775
 20
6.110927554187245
 30
0.0
 11
-2.739591416435722
 21
6.110927554187245
 31
0.0
  0
LINE
  5
4492
330
1E
100
AcDbEntity
  8
7
100
AcDbLine
 10
-2.739591416435722
 20
6.110927554187245
 30
0.0
 11
-2.705470681527586
 21
6.110927554187245
 31
0.0
  0
LINE
  5
4493
330
1E
100
AcDbEntity
  8
7
100
AcDbLine
 10
-2.705470681527586
 20
6.110927554187245
 30
0.0
 11
-2.650352571291364
 21
6.110927554187245
 31
0.0
  0
LINE
  5
4494
330
1E
100
AcDbEntity
  8
7
100
AcDbLine
 10
-2.650352571291364
 20
6.110927554187245
 30
0.0
 11
-2.579486429559082
 21
6.110927554187245
 31
0.0
  0
LINE
  5
4495
330
1E
100
AcDbEntity
  8
7
100
AcDbLine
 10
-2.579486429559082
 20
6.110927554187245
 30
0.0
 11
-2.503370943994777
 21
6.110927554187245
 31
0.0
  0
LINE
  5
4496
330
1E
100
AcDbEntity
  8
7
100
AcDbLine
 10
1.997941391963227
 20
6.110927554187245
 30
0.0
 11
2.07405687752753
 21
6.110927554187245
 31
0.0
  0
LINE
  5
4497
330
1E
100
AcDbEntity
  8
7
100
AcDbLine
 10
2.07405687752753
 20
6.110927554187245
 30
0.0
 11
2.144923019259814
 21
6.110927554187245
 31
0.0
  0
LINE
  5
4498
330
1E
100
AcDbEntity
  8
7
100
AcDbLine
 10
2.144923019259814
 20
6.110927554187245
 30
0.0
 11
2.200041129496034
 21
6.110927554187245
 31
0.0
  0
LINE
  5
4499
330
1E
100
AcDbEntity
  8
7
100
AcDbLine
 10
2.200041129496034
 20
6.110927554187245
 30
0.0
 11
2.234161864404172
 21
6.110927554187245
 31
0.0
  0
LINE
  5
449A
330
1E
100
AcDbEntity
  8
7
100
AcDbLine
 10
2.234161864404172
 20
6.110927554187245
 30
0.0
 11
2.247285223984224
 21
6.110927554187245
 31
0.0
  0
LINE
  5
449B
330
1E
100
AcDbEntity
  8
7
100
AcDbLine
 10
1.997941391963227
 20
5.861583722166248
 30
0.0
 11
1.997941391963227
 21
6.110927554187245
 31
0.0
  0
LINE
  5
449C
330
1E
100
AcDbEntity
  8
7
100
AcDbLine
 10
1.997941391963227
 20
6.110927554187245
 30
0.0
 11
-2.503370943994777
 21
6.110927554187245
 31
0.0
  0
LINE
  5
449D
330
1E
100
AcDbEntity
  8
7
100
AcDbLine
 10
-2.503370943994777
 20
6.110927554187245
 30
0.0
 11
-2.503370943994777
 21
5.861583722166248
 31
0.0
  0
LINE
  5
449E
330
1E
100
AcDbEntity
  8
7
100
AcDbLine
 10
-2.752714776015775
 20
8.460008919016644
 30
0.0
 11
-2.739591416435722
 21
8.383893433452339
 31
0.0
  0
LINE
  5
449F
330
1E
100
AcDbEntity
  8
7
100
AcDbLine
 10
-2.739591416435722
 20
8.383893433452339
 30
0.0
 11
-2.705470681527586
 21
8.313027291720054
 31
0.0
  0
LINE
  5
44A0
330
1E
100
AcDbEntity
  8
7
100
AcDbLine
 10
-2.705470681527586
 20
8.313027291720054
 30
0.0
 11
-2.650352571291364
 21
8.257909181483832
 31
0.0
  0
LINE
  5
44A1
330
1E
100
AcDbEntity
  8
7
100
AcDbLine
 10
-2.650352571291364
 20
8.257909181483832
 30
0.0
 11
-2.579486429559082
 21
8.223788446575696
 31
0.0
  0
LINE
  5
44A2
330
1E
100
AcDbEntity
  8
7
100
AcDbLine
 10
-2.579486429559082
 20
8.223788446575696
 30
0.0
 11
-2.503370943994777
 21
8.210665086995646
 31
0.0
  0
LINE
  5
44A3
330
1E
100
AcDbEntity
  8
7
100
AcDbLine
 10
-2.503370943994777
 20
13.20804041507963
 30
0.0
 11
-2.579486429559082
 21
13.19491705549958
 31
0.0
  0
LINE
  5
44A4
330
1E
100
AcDbEntity
  8
7
100
AcDbLine
 10
-2.579486429559082
 20
13.19491705549958
 30
0.0
 11
-2.650352571291364
 21
13.16079632059144
 31
0.0
  0
LINE
  5
44A5
330
1E
100
AcDbEntity
  8
7
100
AcDbLine
 10
-2.650352571291364
 20
13.16079632059144
 30
0.0
 11
-2.705470681527586
 21
13.10567821035522
 31
0.0
  0
LINE
  5
44A6
330
1E
100
AcDbEntity
  8
7
100
AcDbLine
 10
-2.705470681527586
 20
13.10567821035522
 30
0.0
 11
-2.739591416435722
 21
13.03481206862294
 31
0.0
  0
LINE
  5
44A7
330
1E
100
AcDbEntity
  8
7
100
AcDbLine
 10
-2.739591416435722
 20
13.03481206862294
 30
0.0
 11
-2.752714776015775
 21
12.95869658305863
 31
0.0
  0
LINE
  5
44A8
330
1E
100
AcDbEntity
  8
7
100
AcDbLine
 10
2.247285223984224
 20
12.95869658305863
 30
0.0
 11
2.234161864404172
 21
13.03481206862294
 31
0.0
  0
LINE
  5
44A9
330
1E
100
AcDbEntity
  8
7
100
AcDbLine
 10
2.234161864404172
 20
13.03481206862294
 30
0.0
 11
2.200041129496034
 21
13.10567821035522
 31
0.0
  0
LINE
  5
44AA
330
1E
100
AcDbEntity
  8
7
100
AcDbLine
 10
2.200041129496034
 20
13.10567821035522
 30
0.0
 11
2.144923019259814
 21
13.16079632059144
 31
0.0
  0
LINE
  5
44AB
330
1E
100
AcDbEntity
  8
7
100
AcDbLine
 10
2.144923019259814
 20
13.16079632059144
 30
0.0
 11
2.07405687752753
 21
13.19491705549958
 31
0.0
  0
LINE
  5
44AC
330
1E
100
AcDbEntity
  8
7
100
AcDbLine
 10
2.07405687752753
 20
13.19491705549958
 30
0.0
 11
1.997941391963227
 21
13.20804041507963
 31
0.0
  0
LINE
  5
44AD
330
1E
100
AcDbEntity
  8
7
100
AcDbLine
 10
1.997941391963227
 20
8.210665086995646
 30
0.0
 11
2.07405687752753
 21
8.223788446575696
 31
0.0
  0
LINE
  5
44AE
330
1E
100
AcDbEntity
  8
7
100
AcDbLine
 10
2.07405687752753
 20
8.223788446575696
 30
0.0
 11
2.144923019259814
 21
8.257909181483832
 31
0.0
  0
LINE
  5
44AF
330
1E
100
AcDbEntity
  8
7
100
AcDbLine
 10
2.144923019259814
 20
8.257909181483832
 30
0.0
 11
2.200041129496034
 21
8.313027291720054
 31
0.0
  0
LINE
  5
44B0
330
1E
100
AcDbEntity
  8
7
100
AcDbLine
 10
2.200041129496034
 20
8.313027291720054
 30
0.0
 11
2.234161864404172
 21
8.383893433452339
 31
0.0
  0
LINE
  5
44B1
330
1E
100
AcDbEntity
  8
7
100
AcDbLine
 10
2.234161864404172
 20
8.383893433452339
 30
0.0
 11
2.247285223984224
 21
8.460008919016644
 31
0.0
  0
LINE
  5
44B2
330
1E
100
AcDbEntity
  8
7
100
AcDbLine
 10
1.648860027133832
 20
10.09255485077517
 30
0.0
 11
1.701353465454038
 21
10.29465458830798
 31
0.0
  0
LINE
  5
44B3
330
1E
100
AcDbEntity
  8
7
100
AcDbLine
 10
1.701353465454038
 20
10.29465458830798
 30
0.0
 11
1.735474200362177
 21
10.4993789977568
 31
0.0
  0
LINE
  5
44B4
330
1E
100
AcDbEntity
  8
7
100
AcDbLine
 10
1.735474200362177
 20
10.4993789977568
 30
0.0
 11
1.745972888026219
 21
10.70935275103763
 31
0.0
  0
LINE
  5
44B5
330
1E
100
AcDbEntity
  8
7
100
AcDbLine
 10
-0.8708250122362475
 20
8.806465611930029
 30
0.0
 11
-0.6687252747034389
 21
8.753972173609817
 31
0.0
  0
LINE
  5
44B6
330
1E
100
AcDbEntity
  8
7
100
AcDbLine
 10
-0.6687252747034389
 20
8.753972173609817
 30
0.0
 11
-0.4640008652546204
 21
8.719851438701681
 31
0.0
  0
LINE
  5
44B7
330
1E
100
AcDbEntity
  8
7
100
AcDbLine
 10
-0.4640008652546204
 20
8.719851438701681
 30
0.0
 11
-0.2540271119737802
 21
8.709352751037641
 31
0.0
  0
LINE
  5
44B8
330
1E
100
AcDbEntity
  8
7
100
AcDbLine
 10
-0.2540271119737802
 20
8.709352751037641
 30
0.0
 11
-0.0440533586929401
 21
8.719851438701681
 31
0.0
  0
LINE
  5
44B9
330
1E
100
AcDbEntity
  8
7
100
AcDbLine
 10
-0.0440533586929401
 20
8.719851438701681
 30
0.0
 11
0.1606710507558775
 21
8.753972173609817
 31
0.0
  0
LINE
  5
44BA
330
1E
100
AcDbEntity
  8
7
100
AcDbLine
 10
0.1606710507558775
 20
8.753972173609817
 30
0.0
 11
0.3627707882886861
 21
8.806465611930029
 31
0.0
  0
LINE
  5
44BB
330
1E
100
AcDbEntity
  8
7
100
AcDbLine
 10
0.3627707882886861
 20
8.806465611930029
 30
0.0
 11
0.5596211819894741
 21
8.88258109749433
 31
0.0
  0
LINE
  5
44BC
330
1E
100
AcDbEntity
  8
7
100
AcDbLine
 10
0.5596211819894741
 20
8.88258109749433
 30
0.0
 11
0.7459728880262198
 21
8.977069286470708
 31
0.0
  0
LINE
  5
44BD
330
1E
100
AcDbEntity
  8
7
100
AcDbLine
 10
0.7459728880262198
 20
8.977069286470708
 30
0.0
 11
0.9218259063989231
 21
9.092554850775172
 31
0.0
  0
LINE
  5
44BE
330
1E
100
AcDbEntity
  8
7
100
AcDbLine
 10
0.9218259063989231
 20
9.092554850775172
 30
0.0
 11
1.084555565191575
 21
9.223788446575696
 31
0.0
  0
LINE
  5
44BF
330
1E
100
AcDbEntity
  8
7
100
AcDbLine
 10
1.084555565191575
 20
9.223788446575696
 30
0.0
 11
1.231537192488162
 21
9.370770073872284
 31
0.0
  0
LINE
  5
44C0
330
1E
100
AcDbEntity
  8
7
100
AcDbLine
 10
1.231537192488162
 20
9.370770073872284
 30
0.0
 11
1.362770788288686
 21
9.533499732664935
 31
0.0
  0
LINE
  5
44C1
330
1E
100
AcDbEntity
  8
7
100
AcDbLine
 10
1.362770788288686
 20
9.533499732664935
 30
0.0
 11
1.478256352593147
 21
9.70935275103764
 31
0.0
  0
LINE
  5
44C2
330
1E
100
AcDbEntity
  8
7
100
AcDbLine
 10
1.478256352593147
 20
9.70935275103764
 30
0.0
 11
1.572744541569525
 21
9.895704457074385
 31
0.0
  0
LINE
  5
44C3
330
1E
100
AcDbEntity
  8
7
100
AcDbLine
 10
1.572744541569525
 20
9.895704457074385
 30
0.0
 11
1.648860027133832
 21
10.09255485077517
 31
0.0
  0
LINE
  5
44C4
330
1E
100
AcDbEntity
  8
7
100
AcDbLine
 10
-2.243528424309737
 20
10.91932650431848
 30
0.0
 11
-2.25402711197378
 21
10.70935275103763
 31
0.0
  0
LINE
  5
44C5
330
1E
100
AcDbEntity
  8
7
100
AcDbLine
 10
-2.25402711197378
 20
10.70935275103763
 30
0.0
 11
-2.243528424309737
 21
10.4993789977568
 31
0.0
  0
LINE
  5
44C6
330
1E
100
AcDbEntity
  8
7
100
AcDbLine
 10
-2.243528424309737
 20
10.4993789977568
 30
0.0
 11
-2.209407689401601
 21
10.29465458830798
 31
0.0
  0
LINE
  5
44C7
330
1E
100
AcDbEntity
  8
7
100
AcDbLine
 10
-2.209407689401601
 20
10.29465458830798
 30
0.0
 11
-2.156914251081392
 21
10.09255485077517
 31
0.0
  0
LINE
  5
44C8
330
1E
100
AcDbEntity
  8
7
100
AcDbLine
 10
-2.156914251081392
 20
10.09255485077517
 30
0.0
 11
-2.080798765517087
 21
9.895704457074385
 31
0.0
  0
LINE
  5
44C9
330
1E
100
AcDbEntity
  8
7
100
AcDbLine
 10
-2.080798765517087
 20
9.895704457074385
 30
0.0
 11
-1.986310576540709
 21
9.70935275103764
 31
0.0
  0
LINE
  5
44CA
330
1E
100
AcDbEntity
  8
7
100
AcDbLine
 10
-1.986310576540709
 20
9.70935275103764
 30
0.0
 11
-1.870825012236247
 21
9.533499732664935
 31
0.0
  0
LINE
  5
44CB
330
1E
100
AcDbEntity
  8
7
100
AcDbLine
 10
-1.870825012236247
 20
9.533499732664935
 30
0.0
 11
-1.739591416435723
 21
9.370770073872284
 31
0.0
  0
LINE
  5
44CC
330
1E
100
AcDbEntity
  8
7
100
AcDbLine
 10
-1.739591416435723
 20
9.370770073872284
 30
0.0
 11
-1.592609789139133
 21
9.223788446575696
 31
0.0
  0
LINE
  5
44CD
330
1E
100
AcDbEntity
  8
7
100
AcDbLine
 10
-1.592609789139133
 20
9.223788446575696
 30
0.0
 11
-1.429880130346483
 21
9.092554850775172
 31
0.0
  0
LINE
  5
44CE
330
1E
100
AcDbEntity
  8
7
100
AcDbLine
 10
-1.429880130346483
 20
9.092554850775172
 30
0.0
 11
-1.254027111973779
 21
8.977069286470708
 31
0.0
  0
LINE
  5
44CF
330
1E
100
AcDbEntity
  8
7
100
AcDbLine
 10
-1.254027111973779
 20
8.977069286470708
 30
0.0
 11
-1.067675405937035
 21
8.88258109749433
 31
0.0
  0
LINE
  5
44D0
330
1E
100
AcDbEntity
  8
7
100
AcDbLine
 10
-1.067675405937035
 20
8.88258109749433
 30
0.0
 11
-0.8708250122362475
 21
8.806465611930029
 31
0.0
  0
LINE
  5
44D1
330
1E
100
AcDbEntity
  8
7
100
AcDbLine
 10
-0.6687252747034389
 20
12.66473332846546
 30
0.0
 11
-0.8708250122362475
 21
12.61223989014524
 31
0.0
  0
LINE
  5
44D2
330
1E
100
AcDbEntity
  8
7
100
AcDbLine
 10
-0.8708250122362475
 20
12.61223989014524
 30
0.0
 11
-1.067675405937035
 21
12.53612440458094
 31
0.0
  0
LINE
  5
44D3
330
1E
100
AcDbEntity
  8
7
100
AcDbLine
 10
-1.067675405937035
 20
12.53612440458094
 30
0.0
 11
-1.254027111973779
 21
12.44163621560456
 31
0.0
  0
LINE
  5
44D4
330
1E
100
AcDbEntity
  8
7
100
AcDbLine
 10
-1.254027111973779
 20
12.44163621560456
 30
0.0
 11
-1.429880130346483
 21
12.3261506513001
 31
0.0
  0
LINE
  5
44D5
330
1E
100
AcDbEntity
  8
7
100
AcDbLine
 10
-1.429880130346483
 20
12.3261506513001
 30
0.0
 11
-1.592609789139133
 21
12.19491705549958
 31
0.0
  0
LINE
  5
44D6
330
1E
100
AcDbEntity
  8
7
100
AcDbLine
 10
-1.592609789139133
 20
12.19491705549958
 30
0.0
 11
-1.739591416435723
 21
12.04793542820299
 31
0.0
  0
LINE
  5
44D7
330
1E
100
AcDbEntity
  8
7
100
AcDbLine
 10
-1.739591416435723
 20
12.04793542820299
 30
0.0
 11
-1.870825012236247
 21
11.88520576941034
 31
0.0
  0
LINE
  5
44D8
330
1E
100
AcDbEntity
  8
7
100
AcDbLine
 10
-1.870825012236247
 20
11.88520576941034
 30
0.0
 11
-1.986310576540709
 21
11.70935275103764
 31
0.0
  0
LINE
  5
44D9
330
1E
100
AcDbEntity
  8
7
100
AcDbLine
 10
-1.986310576540709
 20
11.70935275103764
 30
0.0
 11
-2.080798765517087
 21
11.52300104500089
 31
0.0
  0
LINE
  5
44DA
330
1E
100
AcDbEntity
  8
7
100
AcDbLine
 10
-2.080798765517087
 20
11.52300104500089
 30
0.0
 11
-2.156914251081392
 21
11.3261506513001
 31
0.0
  0
LINE
  5
44DB
330
1E
100
AcDbEntity
  8
7
100
AcDbLine
 10
-2.156914251081392
 20
11.3261506513001
 30
0.0
 11
-2.209407689401601
 21
11.12405091376729
 31
0.0
  0
LINE
  5
44DC
330
1E
100
AcDbEntity
  8
7
100
AcDbLine
 10
-2.209407689401601
 20
11.12405091376729
 30
0.0
 11
-2.243528424309737
 21
10.91932650431848
 31
0.0
  0
LINE
  5
44DD
330
1E
100
AcDbEntity
  8
7
100
AcDbLine
 10
1.572744541569525
 20
11.52300104500089
 30
0.0
 11
1.478256352593147
 21
11.70935275103764
 31
0.0
  0
LINE
  5
44DE
330
1E
100
AcDbEntity
  8
7
100
AcDbLine
 10
1.478256352593147
 20
11.70935275103764
 30
0.0
 11
1.362770788288686
 21
11.88520576941034
 31
0.0
  0
LINE
  5
44DF
330
1E
100
AcDbEntity
  8
7
100
AcDbLine
 10
1.362770788288686
 20
11.88520576941034
 30
0.0
 11
1.231537192488162
 21
12.04793542820299
 31
0.0
  0
LINE
  5
44E0
330
1E
100
AcDbEntity
  8
7
100
AcDbLine
 10
1.231537192488162
 20
12.04793542820299
 30
0.0
 11
1.084555565191575
 21
12.19491705549958
 31
0.0
  0
LINE
  5
44E1
330
1E
100
AcDbEntity
  8
7
100
AcDbLine
 10
1.084555565191575
 20
12.19491705549958
 30
0.0
 11
0.9218259063989231
 21
12.3261506513001
 31
0.0
  0
LINE
  5
44E2
330
1E
100
AcDbEntity
  8
7
100
AcDbLine
 10
0.9218259063989231
 20
12.3261506513001
 30
0.0
 11
0.7459728880262198
 21
12.44163621560456
 31
0.0
  0
LINE
  5
44E3
330
1E
100
AcDbEntity
  8
7
100
AcDbLine
 10
0.7459728880262198
 20
12.44163621560456
 30
0.0
 11
0.5596211819894741
 21
12.53612440458094
 31
0.0
  0
LINE
  5
44E4
330
1E
100
AcDbEntity
  8
7
100
AcDbLine
 10
0.5596211819894741
 20
12.53612440458094
 30
0.0
 11
0.3627707882886861
 21
12.61223989014524
 31
0.0
  0
LINE
  5
44E5
330
1E
100
AcDbEntity
  8
7
100
AcDbLine
 10
0.3627707882886861
 20
12.61223989014524
 30
0.0
 11
0.1606710507558775
 21
12.66473332846546
 31
0.0
  0
LINE
  5
44E6
330
1E
100
AcDbEntity
  8
7
100
AcDbLine
 10
0.1606710507558775
 20
12.66473332846546
 30
0.0
 11
-0.0440533586929401
 21
12.69885406337359
 31
0.0
  0
LINE
  5
44E7
330
1E
100
AcDbEntity
  8
7
100
AcDbLine
 10
-0.0440533586929401
 20
12.69885406337359
 30
0.0
 11
-0.2540271119737802
 21
12.70935275103764
 31
0.0
  0
LINE
  5
44E8
330
1E
100
AcDbEntity
  8
7
100
AcDbLine
 10
-0.2540271119737802
 20
12.70935275103764
 30
0.0
 11
-0.4640008652546204
 21
12.69885406337359
 31
0.0
  0
LINE
  5
44E9
330
1E
100
AcDbEntity
  8
7
100
AcDbLine
 10
-0.4640008652546204
 20
12.69885406337359
 30
0.0
 11
-0.6687252747034389
 21
12.66473332846546
 31
0.0
  0
LINE
  5
44EA
330
1E
100
AcDbEntity
  8
7
100
AcDbLine
 10
1.745972888026219
 20
10.70935275103763
 30
0.0
 11
1.735474200362177
 21
10.91932650431848
 31
0.0
  0
LINE
  5
44EB
330
1E
100
AcDbEntity
  8
7
100
AcDbLine
 10
1.735474200362177
 20
10.91932650431848
 30
0.0
 11
1.701353465454038
 21
11.12405091376729
 31
0.0
  0
LINE
  5
44EC
330
1E
100
AcDbEntity
  8
7
100
AcDbLine
 10
1.701353465454038
 20
11.12405091376729
 30
0.0
 11
1.648860027133832
 21
11.3261506513001
 31
0.0
  0
LINE
  5
44ED
330
1E
100
AcDbEntity
  8
7
100
AcDbLine
 10
1.648860027133832
 20
11.3261506513001
 30
0.0
 11
1.572744541569525
 21
11.52300104500089
 31
0.0
  0
LINE
  5
44EE
330
1E
100
AcDbEntity
  8
7
100
AcDbLine
 10
-2.435129474178504
 20
8.620113905893283
 30
0.0
 11
-2.414132098850419
 21
8.572869811405094
 31
0.0
  0
LINE
  5
44EF
330
1E
100
AcDbEntity
  8
7
100
AcDbLine
 10
-2.414132098850419
 20
8.572869811405094
 30
0.0
 11
-2.377386692026274
 21
8.538749076496955
 31
0.0
  0
LINE
  5
44F0
330
1E
100
AcDbEntity
  8
7
100
AcDbLine
 10
-2.377386692026274
 20
8.538749076496955
 30
0.0
 11
-2.327517925622073
 21
8.523001045000896
 31
0.0
  0
LINE
  5
44F1
330
1E
100
AcDbEntity
  8
7
100
AcDbLine
 10
-2.327517925622073
 20
8.523001045000896
 30
0.0
 11
-2.275024487301863
 21
8.528250388832915
 31
0.0
  0
LINE
  5
44F2
330
1E
100
AcDbEntity
  8
7
100
AcDbLine
 10
-2.275024487301863
 20
8.528250388832915
 30
0.0
 11
-2.233029736645695
 21
8.554497107993022
 31
0.0
  0
LINE
  5
44F3
330
1E
100
AcDbEntity
  8
7
100
AcDbLine
 10
-2.233029736645695
 20
8.554497107993022
 30
0.0
 11
-2.201533673653569
 21
8.596491858649187
 31
0.0
  0
LINE
  5
44F4
330
1E
100
AcDbEntity
  8
7
100
AcDbLine
 10
-2.201533673653569
 20
8.596491858649187
 30
0.0
 11
-2.191034985989528
 21
8.646360625053389
 31
0.0
  0
LINE
  5
44F5
330
1E
100
AcDbEntity
  8
7
100
AcDbLine
 10
-2.191034985989528
 20
8.646360625053389
 30
0.0
 11
-2.201533673653569
 21
8.696229391457588
 31
0.0
  0
LINE
  5
44F6
330
1E
100
AcDbEntity
  8
7
100
AcDbLine
 10
-2.201533673653569
 20
8.696229391457588
 30
0.0
 11
-2.233029736645695
 21
8.738224142113757
 31
0.0
  0
LINE
  5
44F7
330
1E
100
AcDbEntity
  8
7
100
AcDbLine
 10
-2.233029736645695
 20
8.738224142113757
 30
0.0
 11
-2.275024487301863
 21
8.76447086127386
 31
0.0
  0
LINE
  5
44F8
330
1E
100
AcDbEntity
  8
7
100
AcDbLine
 10
-2.275024487301863
 20
8.76447086127386
 30
0.0
 11
-2.327517925622073
 21
8.769720205105883
 31
0.0
  0
LINE
  5
44F9
330
1E
100
AcDbEntity
  8
7
100
AcDbLine
 10
-2.327517925622073
 20
8.769720205105883
 30
0.0
 11
-2.374762020110264
 21
8.753972173609817
 31
0.0
  0
LINE
  5
44FA
330
1E
100
AcDbEntity
  8
7
100
AcDbLine
 10
-2.374762020110264
 20
8.753972173609817
 30
0.0
 11
-2.414132098850419
 21
8.719851438701681
 31
0.0
  0
LINE
  5
44FB
330
1E
100
AcDbEntity
  8
7
100
AcDbLine
 10
-2.414132098850419
 20
8.719851438701681
 30
0.0
 11
-2.435129474178504
 21
8.672607344213492
 31
0.0
  0
LINE
  5
44FC
330
1E
100
AcDbEntity
  8
7
100
AcDbLine
 10
-2.435129474178504
 20
8.672607344213492
 30
0.0
 11
-2.435129474178504
 21
8.620113905893283
 31
0.0
  0
LINE
  5
44FD
330
1E
100
AcDbEntity
  8
7
100
AcDbLine
 10
1.890329843406794
 20
12.68048135996152
 30
0.0
 11
1.921825906398923
 21
12.72247611061769
 31
0.0
  0
LINE
  5
44FE
330
1E
100
AcDbEntity
  8
7
100
AcDbLine
 10
1.921825906398923
 20
12.72247611061769
 30
0.0
 11
1.932324594062962
 21
12.77234487702189
 31
0.0
  0
LINE
  5
44FF
330
1E
100
AcDbEntity
  8
7
100
AcDbLine
 10
1.932324594062962
 20
12.77234487702189
 30
0.0
 11
1.921825906398923
 21
12.82221364342609
 31
0.0
  0
LINE
  5
4500
330
1E
100
AcDbEntity
  8
7
100
AcDbLine
 10
1.921825906398923
 20
12.82221364342609
 30
0.0
 11
1.890329843406794
 21
12.86420839408226
 31
0.0
  0
LINE
  5
4501
330
1E
100
AcDbEntity
  8
7
100
AcDbLine
 10
1.890329843406794
 20
12.86420839408226
 30
0.0
 11
1.848335092750627
 21
12.89045511324236
 31
0.0
  0
LINE
  5
4502
330
1E
100
AcDbEntity
  8
7
100
AcDbLine
 10
1.848335092750627
 20
12.89045511324236
 30
0.0
 11
1.795841654430419
 21
12.89570445707438
 31
0.0
  0
LINE
  5
4503
330
1E
100
AcDbEntity
  8
7
100
AcDbLine
 10
1.795841654430419
 20
12.89570445707438
 30
0.0
 11
1.748597559942229
 21
12.87995642557832
 31
0.0
  0
LINE
  5
4504
330
1E
100
AcDbEntity
  8
7
100
AcDbLine
 10
1.748597559942229
 20
12.87995642557832
 30
0.0
 11
1.709227481202071
 21
12.84583569067018
 31
0.0
  0
LINE
  5
4505
330
1E
100
AcDbEntity
  8
7
100
AcDbLine
 10
1.709227481202071
 20
12.84583569067018
 30
0.0
 11
1.688230105873987
 21
12.79859159618199
 31
0.0
  0
LINE
  5
4506
330
1E
100
AcDbEntity
  8
7
100
AcDbLine
 10
1.688230105873987
 20
12.79859159618199
 30
0.0
 11
1.688230105873987
 21
12.74609815786178
 31
0.0
  0
LINE
  5
4507
330
1E
100
AcDbEntity
  8
7
100
AcDbLine
 10
1.688230105873987
 20
12.74609815786178
 30
0.0
 11
1.709227481202071
 21
12.69885406337359
 31
0.0
  0
LINE
  5
4508
330
1E
100
AcDbEntity
  8
7
100
AcDbLine
 10
1.709227481202071
 20
12.69885406337359
 30
0.0
 11
1.745972888026219
 21
12.66473332846546
 31
0.0
  0
LINE
  5
4509
330
1E
100
AcDbEntity
  8
7
100
AcDbLine
 10
1.745972888026219
 20
12.66473332846546
 30
0.0
 11
1.795841654430419
 21
12.64898529696939
 31
0.0
  0
LINE
  5
450A
330
1E
100
AcDbEntity
  8
7
100
AcDbLine
 10
1.795841654430419
 20
12.64898529696939
 30
0.0
 11
1.848335092750627
 21
12.65423464080141
 31
0.0
  0
LINE
  5
450B
330
1E
100
AcDbEntity
  8
7
100
AcDbLine
 10
1.848335092750627
 20
12.65423464080141
 30
0.0
 11
1.890329843406794
 21
12.68048135996152
 31
0.0
  0
LINE
  5
450C
330
1E
100
AcDbEntity
  8
7
100
AcDbLine
 10
1.890329843406794
 20
8.738224142113757
 30
0.0
 11
1.848335092750627
 21
8.76447086127386
 31
0.0
  0
LINE
  5
450D
330
1E
100
AcDbEntity
  8
7
100
AcDbLine
 10
1.848335092750627
 20
8.76447086127386
 30
0.0
 11
1.795841654430419
 21
8.769720205105883
 31
0.0
  0
LINE
  5
450E
330
1E
100
AcDbEntity
  8
7
100
AcDbLine
 10
1.795841654430419
 20
8.769720205105883
 30
0.0
 11
1.748597559942229
 21
8.753972173609817
 31
0.0
  0
LINE
  5
450F
330
1E
100
AcDbEntity
  8
7
100
AcDbLine
 10
1.748597559942229
 20
8.753972173609817
 30
0.0
 11
1.709227481202071
 21
8.719851438701681
 31
0.0
  0
LINE
  5
4510
330
1E
100
AcDbEntity
  8
7
100
AcDbLine
 10
1.709227481202071
 20
8.719851438701681
 30
0.0
 11
1.688230105873987
 21
8.672607344213492
 31
0.0
  0
LINE
  5
4511
330
1E
100
AcDbEntity
  8
7
100
AcDbLine
 10
1.688230105873987
 20
8.672607344213492
 30
0.0
 11
1.688230105873987
 21
8.620113905893283
 31
0.0
  0
LINE
  5
4512
330
1E
100
AcDbEntity
  8
7
100
AcDbLine
 10
1.688230105873987
 20
8.620113905893283
 30
0.0
 11
1.709227481202071
 21
8.572869811405094
 31
0.0
  0
LINE
  5
4513
330
1E
100
AcDbEntity
  8
7
100
AcDbLine
 10
1.709227481202071
 20
8.572869811405094
 30
0.0
 11
1.745972888026219
 21
8.538749076496955
 31
0.0
  0
LINE
  5
4514
330
1E
100
AcDbEntity
  8
7
100
AcDbLine
 10
1.745972888026219
 20
8.538749076496955
 30
0.0
 11
1.795841654430419
 21
8.523001045000896
 31
0.0
  0
LINE
  5
4515
330
1E
100
AcDbEntity
  8
7
100
AcDbLine
 10
1.795841654430419
 20
8.523001045000896
 30
0.0
 11
1.848335092750627
 21
8.528250388832915
 31
0.0
  0
LINE
  5
4516
330
1E
100
AcDbEntity
  8
7
100
AcDbLine
 10
1.848335092750627
 20
8.528250388832915
 30
0.0
 11
1.890329843406794
 21
8.554497107993022
 31
0.0
  0
LINE
  5
4517
330
1E
100
AcDbEntity
  8
7
100
AcDbLine
 10
1.890329843406794
 20
8.554497107993022
 30
0.0
 11
1.921825906398923
 21
8.596491858649187
 31
0.0
  0
LINE
  5
4518
330
1E
100
AcDbEntity
  8
7
100
AcDbLine
 10
1.921825906398923
 20
8.596491858649187
 30
0.0
 11
1.932324594062962
 21
8.646360625053389
 31
0.0
  0
LINE
  5
4519
330
1E
100
AcDbEntity
  8
7
100
AcDbLine
 10
1.932324594062962
 20
8.646360625053389
 30
0.0
 11
1.921825906398923
 21
8.696229391457588
 31
0.0
  0
LINE
  5
451A
330
1E
100
AcDbEntity
  8
7
100
AcDbLine
 10
1.921825906398923
 20
8.696229391457588
 30
0.0
 11
1.890329843406794
 21
8.738224142113757
 31
0.0
  0
LINE
  5
451B
330
1E
100
AcDbEntity
  8
7
100
AcDbLine
 10
-2.414132098850419
 20
12.84583569067018
 30
0.0
 11
-2.435129474178504
 21
12.79859159618199
 31
0.0
  0
LINE
  5
451C
330
1E
100
AcDbEntity
  8
7
100
AcDbLine
 10
-2.435129474178504
 20
12.79859159618199
 30
0.0
 11
-2.435129474178504
 21
12.74609815786178
 31
0.0
  0
LINE
  5
451D
330
1E
100
AcDbEntity
  8
7
100
AcDbLine
 10
-2.435129474178504
 20
12.74609815786178
 30
0.0
 11
-2.414132098850419
 21
12.69885406337359
 31
0.0
  0
LINE
  5
451E
330
1E
100
AcDbEntity
  8
7
100
AcDbLine
 10
-2.414132098850419
 20
12.69885406337359
 30
0.0
 11
-2.377386692026274
 21
12.66473332846546
 31
0.0
  0
LINE
  5
451F
330
1E
100
AcDbEntity
  8
7
100
AcDbLine
 10
-2.377386692026274
 20
12.66473332846546
 30
0.0
 11
-2.327517925622073
 21
12.64898529696939
 31
0.0
  0
LINE
  5
4520
330
1E
100
AcDbEntity
  8
7
100
AcDbLine
 10
-2.327517925622073
 20
12.64898529696939
 30
0.0
 11
-2.275024487301863
 21
12.65423464080141
 31
0.0
  0
LINE
  5
4521
330
1E
100
AcDbEntity
  8
7
100
AcDbLine
 10
-2.275024487301863
 20
12.65423464080141
 30
0.0
 11
-2.233029736645695
 21
12.68048135996152
 31
0.0
  0
LINE
  5
4522
330
1E
100
AcDbEntity
  8
7
100
AcDbLine
 10
-2.233029736645695
 20
12.68048135996152
 30
0.0
 11
-2.201533673653569
 21
12.72247611061769
 31
0.0
  0
LINE
  5
4523
330
1E
100
AcDbEntity
  8
7
100
AcDbLine
 10
-2.201533673653569
 20
12.72247611061769
 30
0.0
 11
-2.191034985989528
 21
12.77234487702189
 31
0.0
  0
LINE
  5
4524
330
1E
100
AcDbEntity
  8
7
100
AcDbLine
 10
-2.191034985989528
 20
12.77234487702189
 30
0.0
 11
-2.201533673653569
 21
12.82221364342609
 31
0.0
  0
LINE
  5
4525
330
1E
100
AcDbEntity
  8
7
100
AcDbLine
 10
-2.201533673653569
 20
12.82221364342609
 30
0.0
 11
-2.233029736645695
 21
12.86420839408226
 31
0.0
  0
LINE
  5
4526
330
1E
100
AcDbEntity
  8
7
100
AcDbLine
 10
-2.233029736645695
 20
12.86420839408226
 30
0.0
 11
-2.275024487301863
 21
12.89045511324236
 31
0.0
  0
LINE
  5
4527
330
1E
100
AcDbEntity
  8
7
100
AcDbLine
 10
-2.275024487301863
 20
12.89045511324236
 30
0.0
 11
-2.327517925622073
 21
12.89570445707438
 31
0.0
  0
LINE
  5
4528
330
1E
100
AcDbEntity
  8
7
100
AcDbLine
 10
-2.327517925622073
 20
12.89570445707438
 30
0.0
 11
-2.374762020110264
 21
12.87995642557832
 31
0.0
  0
LINE
  5
4529
330
1E
100
AcDbEntity
  8
7
100
AcDbLine
 10
-2.374762020110264
 20
12.87995642557832
 30
0.0
 11
-2.414132098850419
 21
12.84583569067018
 31
0.0
  0
LINE
  5
452A
330
1E
100
AcDbEntity
  8
7
100
AcDbLine
 10
-1.697596665779554
 20
11.71985143870168
 30
0.0
 11
-1.768462807511837
 21
11.74084881402976
 31
0.0
  0
LINE
  5
452B
330
1E
100
AcDbEntity
  8
7
100
AcDbLine
 10
-1.768462807511837
 20
11.74084881402976
 30
0.0
 11
-1.841953621160132
 21
11.73035012636572
 31
0.0
  0
LINE
  5
452C
330
1E
100
AcDbEntity
  8
7
100
AcDbLine
 10
-1.841953621160132
 20
11.73035012636572
 30
0.0
 11
-1.904945747144384
 21
11.69098004762556
 31
0.0
  0
LINE
  5
452D
330
1E
100
AcDbEntity
  8
7
100
AcDbLine
 10
-1.904945747144384
 20
11.69098004762556
 30
0.0
 11
-1.94169115396853
 21
11.63061259355732
 31
0.0
  0
LINE
  5
452E
330
1E
100
AcDbEntity
  8
7
100
AcDbLine
 10
-2.104420812761182
 20
11.12930025759931
 30
0.0
 11
-2.09917146892916
 21
11.14242361717937
 31
0.0
  0
LINE
  5
452F
330
1E
100
AcDbEntity
  8
7
100
AcDbLine
 10
-2.09917146892916
 20
11.14242361717937
 30
0.0
 11
-1.94169115396853
 21
11.63061259355732
 31
0.0
  0
LINE
  5
4530
330
1E
100
AcDbEntity
  8
7
100
AcDbLine
 10
-1.954814513548583
 20
10.63061259355732
 30
0.0
 11
-1.860326324572205
 21
10.56237112374105
 31
0.0
  0
LINE
  5
4531
330
1E
100
AcDbEntity
  8
7
100
AcDbLine
 10
-1.860326324572205
 20
10.56237112374105
 30
0.0
 11
-1.752714776015774
 21
10.51250235733685
 31
0.0
  0
LINE
  5
4532
330
1E
100
AcDbEntity
  8
7
100
AcDbLine
 10
-2.09917146892916
 20
11.14242361717937
 30
0.0
 11
-2.120168844257243
 21
11.03481206862294
 31
0.0
  0
LINE
  5
4533
330
1E
100
AcDbEntity
  8
7
100
AcDbLine
 10
-2.120168844257243
 20
11.03481206862294
 30
0.0
 11
-2.117544172341233
 21
10.92457584815049
 31
0.0
  0
LINE
  5
4534
330
1E
100
AcDbEntity
  8
7
100
AcDbLine
 10
-2.117544172341233
 20
10.92457584815049
 30
0.0
 11
-2.086048109349107
 21
10.81696429959406
 31
0.0
  0
LINE
  5
4535
330
1E
100
AcDbEntity
  8
7
100
AcDbLine
 10
-2.086048109349107
 20
10.81696429959406
 30
0.0
 11
-2.030929999112888
 21
10.71722676678567
 31
0.0
  0
LINE
  5
4536
330
1E
100
AcDbEntity
  8
7
100
AcDbLine
 10
-2.030929999112888
 20
10.71722676678567
 30
0.0
 11
-1.954814513548583
 21
10.63061259355732
 31
0.0
  0
LINE
  5
4537
330
1E
100
AcDbEntity
  8
7
100
AcDbLine
 10
-2.036179342944908
 20
10.70410340720561
 30
0.0
 11
-2.091297453181129
 21
10.80384094001401
 31
0.0
  0
LINE
  5
4538
330
1E
100
AcDbEntity
  8
7
100
AcDbLine
 10
-2.091297453181129
 20
10.80384094001401
 30
0.0
 11
-2.120168844257243
 21
10.91145248857044
 31
0.0
  0
LINE
  5
4539
330
1E
100
AcDbEntity
  8
7
100
AcDbLine
 10
-2.120168844257243
 20
10.91145248857044
 30
0.0
 11
-2.125418188089266
 21
11.02168870904288
 31
0.0
  0
LINE
  5
453A
330
1E
100
AcDbEntity
  8
7
100
AcDbLine
 10
-2.125418188089266
 20
11.02168870904288
 30
0.0
 11
-2.104420812761182
 21
11.12930025759931
 31
0.0
  0
LINE
  5
453B
330
1E
100
AcDbEntity
  8
7
100
AcDbLine
 10
-1.757964119847795
 20
10.4993789977568
 30
0.0
 11
-1.865575668404226
 21
10.54662309224498
 31
0.0
  0
LINE
  5
453C
330
1E
100
AcDbEntity
  8
7
100
AcDbLine
 10
-1.865575668404226
 20
10.54662309224498
 30
0.0
 11
-1.960063857380603
 21
10.61748923397727
 31
0.0
  0
LINE
  5
453D
330
1E
100
AcDbEntity
  8
7
100
AcDbLine
 10
-1.960063857380603
 20
10.61748923397727
 30
0.0
 11
-2.036179342944908
 21
10.70410340720561
 31
0.0
  0
LINE
  5
453E
330
1E
100
AcDbEntity
  8
7
100
AcDbLine
 10
-1.660851258955408
 20
9.648985296969398
 30
0.0
 11
-1.702846009611574
 21
9.585993170985146
 31
0.0
  0
LINE
  5
453F
330
1E
100
AcDbEntity
  8
7
100
AcDbLine
 10
-1.702846009611574
 20
9.585993170985146
 30
0.0
 11
-1.715969369191627
 21
9.512502357336853
 31
0.0
  0
LINE
  5
4540
330
1E
100
AcDbEntity
  8
7
100
AcDbLine
 10
-1.715969369191627
 20
9.512502357336853
 30
0.0
 11
-1.697596665779554
 21
9.441636215604567
 31
0.0
  0
LINE
  5
4541
330
1E
100
AcDbEntity
  8
7
100
AcDbLine
 10
-1.697596665779554
 20
9.441636215604567
 30
0.0
 11
-1.650352571291366
 21
9.389142777284359
 31
0.0
  0
LINE
  5
4542
330
1E
100
AcDbEntity
  8
7
100
AcDbLine
 10
-1.225155720897665
 20
9.079431491195119
 30
0.0
 11
-1.235654408561707
 21
9.087305506943151
 31
0.0
  0
LINE
  5
4543
330
1E
100
AcDbEntity
  8
7
100
AcDbLine
 10
-1.235654408561707
 20
9.087305506943151
 30
0.0
 11
-1.650352571291366
 21
9.389142777284359
 31
0.0
  0
LINE
  5
4544
330
1E
100
AcDbEntity
  8
7
100
AcDbLine
 10
-1.033554671028898
 20
9.003316005630814
 30
0.0
 11
-0.9206937786404463
 21
8.998066661798794
 31
0.0
  0
LINE
  5
4545
330
1E
100
AcDbEntity
  8
7
100
AcDbLine
 10
-0.9206937786404463
 20
8.998066661798794
 30
0.0
 11
-0.8104575581680055
 21
9.021688709042891
 31
0.0
  0
LINE
  5
4546
330
1E
100
AcDbEntity
  8
7
100
AcDbLine
 10
-0.8104575581680055
 20
9.021688709042891
 30
0.0
 11
-0.7028460096115765
 21
9.066308131615066
 31
0.0
  0
LINE
  5
4547
330
1E
100
AcDbEntity
  8
7
100
AcDbLine
 10
-0.7028460096115765
 20
9.066308131615066
 30
0.0
 11
-0.608357820635197
 21
9.134549601431341
 31
0.0
  0
LINE
  5
4548
330
1E
100
AcDbEntity
  8
7
100
AcDbLine
 10
-0.608357820635197
 20
9.134549601431341
 30
0.0
 11
-0.5296176631548822
 21
9.221163774659686
 31
0.0
  0
LINE
  5
4549
330
1E
100
AcDbEntity
  8
7
100
AcDbLine
 10
-1.235654408561707
 20
9.087305506943151
 30
0.0
 11
-1.141166219585329
 21
9.03218739670693
 31
0.0
  0
LINE
  5
454A
330
1E
100
AcDbEntity
  8
7
100
AcDbLine
 10
-1.141166219585329
 20
9.03218739670693
 30
0.0
 11
-1.033554671028898
 21
9.003316005630814
 31
0.0
  0
LINE
  5
454B
330
1E
100
AcDbEntity
  8
7
100
AcDbLine
 10
-0.5191189754908408
 20
9.213289758911654
 30
0.0
 11
-0.5978591329711556
 21
9.126675585683308
 31
0.0
  0
LINE
  5
454C
330
1E
100
AcDbEntity
  8
7
100
AcDbLine
 10
-0.5978591329711556
 20
9.126675585683308
 30
0.0
 11
-0.6923473219475343
 21
9.058434115867035
 31
0.0
  0
LINE
  5
454D
330
1E
100
AcDbEntity
  8
7
100
AcDbLine
 10
-0.6923473219475343
 20
9.058434115867035
 30
0.0
 11
-0.7973341985879543
 21
9.011190021378848
 31
0.0
  0
LINE
  5
454E
330
1E
100
AcDbEntity
  8
7
100
AcDbLine
 10
-0.7973341985879543
 20
9.011190021378848
 30
0.0
 11
-0.9101950909764049
 21
8.990192646050765
 31
0.0
  0
LINE
  5
454F
330
1E
100
AcDbEntity
  8
7
100
AcDbLine
 10
-0.9101950909764049
 20
8.990192646050765
 30
0.0
 11
-1.020431311448846
 21
8.995441989882785
 31
0.0
  0
LINE
  5
4550
330
1E
100
AcDbEntity
  8
7
100
AcDbLine
 10
-1.020431311448846
 20
8.995441989882785
 30
0.0
 11
-1.128042860005276
 21
9.024313380958901
 31
0.0
  0
LINE
  5
4551
330
1E
100
AcDbEntity
  8
7
100
AcDbLine
 10
-1.128042860005276
 20
9.024313380958901
 30
0.0
 11
-1.225155720897665
 21
9.079431491195119
 31
0.0
  0
LINE
  5
4552
330
1E
100
AcDbEntity
  8
7
100
AcDbLine
 10
0.4336369300209704
 20
8.948197895394596
 30
0.0
 11
0.5071277436692645
 21
8.942948551562572
 31
0.0
  0
LINE
  5
4553
330
1E
100
AcDbEntity
  8
7
100
AcDbLine
 10
0.5071277436692645
 20
8.942948551562572
 30
0.0
 11
0.5727445415695263
 21
8.971819942638688
 31
0.0
  0
LINE
  5
4554
330
1E
100
AcDbEntity
  8
7
100
AcDbLine
 10
0.3207760376325188
 20
9.042686084370973
 30
0.0
 11
0.3680201321207077
 21
8.982318630302732
 31
0.0
  0
LINE
  5
4555
330
1E
100
AcDbEntity
  8
7
100
AcDbLine
 10
0.3680201321207077
 20
8.982318630302732
 30
0.0
 11
0.4336369300209704
 21
8.948197895394596
 31
0.0
  0
LINE
  5
4556
330
1E
100
AcDbEntity
  8
7
100
AcDbLine
 10
0.9979413919632271
 20
9.281531228727928
 30
0.0
 11
0.984818032383175
 21
9.273657212979896
 31
0.0
  0
LINE
  5
4557
330
1E
100
AcDbEntity
  8
7
100
AcDbLine
 10
0.984818032383175
 20
9.273657212979896
 30
0.0
 11
0.5727445415695263
 21
8.971819942638688
 31
0.0
  0
LINE
  5
4558
330
1E
100
AcDbEntity
  8
7
100
AcDbLine
 10
1.066182861779501
 20
9.34714802662819
 30
0.0
 11
1.129174987763753
 21
9.439011543688557
 31
0.0
  0
LINE
  5
4559
330
1E
100
AcDbEntity
  8
7
100
AcDbLine
 10
1.129174987763753
 20
9.439011543688557
 30
0.0
 11
1.165920394587899
 21
9.546623092244988
 31
0.0
  0
LINE
  5
455A
330
1E
100
AcDbEntity
  8
7
100
AcDbLine
 10
1.165920394587899
 20
9.546623092244988
 30
0.0
 11
1.18166842608396
 21
9.659483984633439
 31
0.0
  0
LINE
  5
455B
330
1E
100
AcDbEntity
  8
7
100
AcDbLine
 10
1.18166842608396
 20
9.659483984633439
 30
0.0
 11
1.17116973841992
 21
9.772344877021891
 31
0.0
  0
LINE
  5
455C
330
1E
100
AcDbEntity
  8
7
100
AcDbLine
 10
1.17116973841992
 20
9.772344877021891
 30
0.0
 11
1.134424331595773
 21
9.885205769410344
 31
0.0
  0
LINE
  5
455D
330
1E
100
AcDbEntity
  8
7
100
AcDbLine
 10
1.134424331595773
 20
9.885205769410344
 30
0.0
 11
1.076681549443541
 21
9.984943302218741
 31
0.0
  0
LINE
  5
455E
330
1E
100
AcDbEntity
  8
7
100
AcDbLine
 10
1.087180237107585
 20
9.992817317966773
 30
0.0
 11
1.147547691175827
 21
9.893079785158374
 31
0.0
  0
LINE
  5
455F
330
1E
100
AcDbEntity
  8
7
100
AcDbLine
 10
1.147547691175827
 20
9.893079785158374
 30
0.0
 11
1.18166842608396
 21
9.780218892769923
 31
0.0
  0
LINE
  5
4560
330
1E
100
AcDbEntity
  8
7
100
AcDbLine
 10
1.18166842608396
 20
9.780218892769923
 30
0.0
 11
1.192167113748005
 21
9.667358000381472
 31
0.0
  0
LINE
  5
4561
330
1E
100
AcDbEntity
  8
7
100
AcDbLine
 10
1.192167113748005
 20
9.667358000381472
 30
0.0
 11
1.17904375416795
 21
9.55449710799302
 31
0.0
  0
LINE
  5
4562
330
1E
100
AcDbEntity
  8
7
100
AcDbLine
 10
1.17904375416795
 20
9.55449710799302
 30
0.0
 11
1.139673675427792
 21
9.449510231352601
 31
0.0
  0
LINE
  5
4563
330
1E
100
AcDbEntity
  8
7
100
AcDbLine
 10
1.139673675427792
 20
9.449510231352601
 30
0.0
 11
1.079306221359552
 21
9.355022042376223
 31
0.0
  0
LINE
  5
4564
330
1E
100
AcDbEntity
  8
7
100
AcDbLine
 10
1.079306221359552
 20
9.355022042376223
 30
0.0
 11
0.9979413919632271
 21
9.281531228727928
 31
0.0
  0
LINE
  5
4565
330
1E
100
AcDbEntity
  8
7
100
AcDbLine
 10
1.509752415585273
 20
10.73822414211375
 30
0.0
 11
1.580618557317557
 21
10.76447086127386
 31
0.0
  0
LINE
  5
4566
330
1E
100
AcDbEntity
  8
7
100
AcDbLine
 10
1.580618557317557
 20
10.76447086127386
 30
0.0
 11
1.633111995637767
 21
10.81696429959406
 31
0.0
  0
LINE
  5
4567
330
1E
100
AcDbEntity
  8
7
100
AcDbLine
 10
1.633111995637767
 20
10.81696429959406
 30
0.0
 11
1.659358714797871
 21
10.88520576941034
 31
0.0
  0
LINE
  5
4568
330
1E
100
AcDbEntity
  8
7
100
AcDbLine
 10
1.659358714797871
 20
10.88520576941034
 30
0.0
 11
1.654109370965851
 21
10.95607191114262
 31
0.0
  0
LINE
  5
4569
330
1E
100
AcDbEntity
  8
7
100
AcDbLine
 10
1.491379712173199
 20
11.45738424710063
 30
0.0
 11
1.496629056005222
 21
11.44426088752057
 31
0.0
  0
LINE
  5
456A
330
1E
100
AcDbEntity
  8
7
100
AcDbLine
 10
1.496629056005222
 20
11.44426088752057
 30
0.0
 11
1.654109370965851
 21
10.95607191114262
 31
0.0
  0
LINE
  5
456B
330
1E
100
AcDbEntity
  8
7
100
AcDbLine
 10
1.496629056005222
 20
11.44426088752057
 30
0.0
 11
1.449384961517031
 21
11.54399842032898
 31
0.0
  0
LINE
  5
456C
330
1E
100
AcDbEntity
  8
7
100
AcDbLine
 10
1.449384961517031
 20
11.54399842032898
 30
0.0
 11
1.38114349170076
 21
11.63061259355732
 31
0.0
  0
LINE
  5
456D
330
1E
100
AcDbEntity
  8
7
100
AcDbLine
 10
1.38114349170076
 20
11.63061259355732
 30
0.0
 11
1.291904646556402
 21
11.69885406337359
 31
0.0
  0
LINE
  5
456E
330
1E
100
AcDbEntity
  8
7
100
AcDbLine
 10
1.291904646556402
 20
11.69885406337359
 30
0.0
 11
1.189542441831995
 21
11.74872282977779
 31
0.0
  0
LINE
  5
456F
330
1E
100
AcDbEntity
  8
7
100
AcDbLine
 10
1.189542441831995
 20
11.74872282977779
 30
0.0
 11
1.076681549443541
 21
11.77234487702189
 31
0.0
  0
LINE
  5
4570
330
1E
100
AcDbEntity
  8
7
100
AcDbLine
 10
1.076681549443541
 20
11.77234487702189
 30
0.0
 11
0.9611959851390814
 21
11.7749695489379
 31
0.0
  0
LINE
  5
4571
330
1E
100
AcDbEntity
  8
7
100
AcDbLine
 10
0.9611959851390814
 20
11.7749695489379
 30
0.0
 11
0.8457104208346173
 21
11.74872282977779
 31
0.0
  0
LINE
  5
4572
330
1E
100
AcDbEntity
  8
7
100
AcDbLine
 10
0.8404610770025975
 20
11.76447086127386
 30
0.0
 11
0.9559466413070589
 21
11.78809290851795
 31
0.0
  0
LINE
  5
4573
330
1E
100
AcDbEntity
  8
7
100
AcDbLine
 10
0.9559466413070589
 20
11.78809290851795
 30
0.0
 11
1.074056877527531
 21
11.78809290851795
 31
0.0
  0
LINE
  5
4574
330
1E
100
AcDbEntity
  8
7
100
AcDbLine
 10
1.074056877527531
 20
11.78809290851795
 30
0.0
 11
1.184293097999972
 21
11.76184618935785
 31
0.0
  0
LINE
  5
4575
330
1E
100
AcDbEntity
  8
7
100
AcDbLine
 10
1.184293097999972
 20
11.76184618935785
 30
0.0
 11
1.289279974640392
 21
11.71460209486965
 31
0.0
  0
LINE
  5
4576
330
1E
100
AcDbEntity
  8
7
100
AcDbLine
 10
1.289279974640392
 20
11.71460209486965
 30
0.0
 11
1.375894147868738
 21
11.64373595313737
 31
0.0
  0
LINE
  5
4577
330
1E
100
AcDbEntity
  8
7
100
AcDbLine
 10
1.375894147868738
 20
11.64373595313737
 30
0.0
 11
1.446760289601021
 21
11.55712177990902
 31
0.0
  0
LINE
  5
4578
330
1E
100
AcDbEntity
  8
7
100
AcDbLine
 10
1.446760289601021
 20
11.55712177990902
 30
0.0
 11
1.491379712173199
 21
11.45738424710063
 31
0.0
  0
LINE
  5
4579
330
1E
100
AcDbEntity
  8
7
100
AcDbLine
 10
-0.907570419060395
 20
10.95344723922661
 30
0.0
 11
-0.9416911539685308
 21
10.83271233109013
 31
0.0
  0
LINE
  5
457A
330
1E
100
AcDbEntity
  8
7
100
AcDbLine
 10
-0.9416911539685308
 20
10.83271233109013
 30
0.0
 11
-0.9521898416325722
 21
10.70935275103763
 31
0.0
  0
LINE
  5
457B
330
1E
100
AcDbEntity
  8
7
100
AcDbLine
 10
0.3102773499684766
 20
11.11880156993527
 30
0.0
 11
0.2289125205721509
 21
11.21328975891165
 31
0.0
  0
LINE
  5
457C
330
1E
100
AcDbEntity
  8
7
100
AcDbLine
 10
0.2289125205721509
 20
11.21328975891165
 30
0.0
 11
0.1317996596797633
 21
11.29202991639197
 31
0.0
  0
LINE
  5
457D
330
1E
100
AcDbEntity
  8
7
100
AcDbLine
 10
0.1317996596797633
 20
11.29202991639197
 30
0.0
 11
0.0215634392073216
 21
11.3523973704602
 31
0.0
  0
LINE
  5
457E
330
1E
100
AcDbEntity
  8
7
100
AcDbLine
 10
0.0215634392073216
 20
11.3523973704602
 30
0.0
 11
-0.0991714689291614
 21
11.38914277728436
 31
0.0
  0
LINE
  5
457F
330
1E
100
AcDbEntity
  8
7
100
AcDbLine
 10
-0.0991714689291614
 20
11.38914277728436
 30
0.0
 11
-0.2225310489816543
 21
11.40751548069643
 31
0.0
  0
LINE
  5
4580
330
1E
100
AcDbEntity
  8
7
100
AcDbLine
 10
-0.2225310489816543
 20
11.40751548069643
 30
0.0
 11
-0.3485153009501589
 21
11.40226613686441
 31
0.0
  0
LINE
  5
4581
330
1E
100
AcDbEntity
  8
7
100
AcDbLine
 10
-0.3485153009501589
 20
11.40226613686441
 30
0.0
 11
-0.469250209086642
 21
11.37339474578829
 31
0.0
  0
LINE
  5
4582
330
1E
100
AcDbEntity
  8
7
100
AcDbLine
 10
-0.469250209086642
 20
11.37339474578829
 30
0.0
 11
-0.5847357733911034
 21
11.32352597938409
 31
0.0
  0
LINE
  5
4583
330
1E
100
AcDbEntity
  8
7
100
AcDbLine
 10
-0.5847357733911034
 20
11.32352597938409
 30
0.0
 11
-0.6897226500315235
 21
11.25528450956782
 31
0.0
  0
LINE
  5
4584
330
1E
100
AcDbEntity
  8
7
100
AcDbLine
 10
-0.6897226500315235
 20
11.25528450956782
 30
0.0
 11
-0.7789614951758797
 21
11.16867033633947
 31
0.0
  0
LINE
  5
4585
330
1E
100
AcDbEntity
  8
7
100
AcDbLine
 10
-0.7789614951758797
 20
11.16867033633947
 30
0.0
 11
-0.8524523088241737
 21
11.06630813161506
 31
0.0
  0
LINE
  5
4586
330
1E
100
AcDbEntity
  8
7
100
AcDbLine
 10
-0.8524523088241737
 20
11.06630813161506
 30
0.0
 11
-0.907570419060395
 21
10.95344723922661
 31
0.0
  0
LINE
  5
4587
330
1E
100
AcDbEntity
  8
7
100
AcDbLine
 10
-0.5847357733911034
 20
10.09517952269118
 30
0.0
 11
-0.469250209086642
 21
10.04531075628698
 31
0.0
  0
LINE
  5
4588
330
1E
100
AcDbEntity
  8
7
100
AcDbLine
 10
-0.469250209086642
 20
10.04531075628698
 30
0.0
 11
-0.3485153009501589
 21
10.01643936521086
 31
0.0
  0
LINE
  5
4589
330
1E
100
AcDbEntity
  8
7
100
AcDbLine
 10
-0.3485153009501589
 20
10.01643936521086
 30
0.0
 11
-0.2225310489816543
 21
10.01119002137884
 31
0.0
  0
LINE
  5
458A
330
1E
100
AcDbEntity
  8
7
100
AcDbLine
 10
-0.2225310489816543
 20
10.01119002137884
 30
0.0
 11
-0.0991714689291614
 21
10.02956272479092
 31
0.0
  0
LINE
  5
458B
330
1E
100
AcDbEntity
  8
7
100
AcDbLine
 10
-0.0991714689291614
 20
10.02956272479092
 30
0.0
 11
0.0215634392073216
 21
10.06630813161506
 31
0.0
  0
LINE
  5
458C
330
1E
100
AcDbEntity
  8
7
100
AcDbLine
 10
0.0215634392073216
 20
10.06630813161506
 30
0.0
 11
0.1317996596797633
 21
10.1266755856833
 31
0.0
  0
LINE
  5
458D
330
1E
100
AcDbEntity
  8
7
100
AcDbLine
 10
0.1317996596797633
 20
10.1266755856833
 30
0.0
 11
0.2289125205721509
 21
10.20541574316362
 31
0.0
  0
LINE
  5
458E
330
1E
100
AcDbEntity
  8
7
100
AcDbLine
 10
0.2289125205721509
 20
10.20541574316362
 30
0.0
 11
0.3102773499684766
 21
10.29990393214
 31
0.0
  0
LINE
  5
458F
330
1E
100
AcDbEntity
  8
7
100
AcDbLine
 10
0.3102773499684766
 20
10.29990393214
 30
0.0
 11
0.3758941478687392
 21
10.40751548069643
 31
0.0
  0
LINE
  5
4590
330
1E
100
AcDbEntity
  8
7
100
AcDbLine
 10
0.3758941478687392
 20
10.40751548069643
 30
0.0
 11
0.4178888985249074
 21
10.52300104500089
 31
0.0
  0
LINE
  5
4591
330
1E
100
AcDbEntity
  8
7
100
AcDbLine
 10
0.4178888985249074
 20
10.52300104500089
 30
0.0
 11
0.441510945769001
 21
10.64636062505338
 31
0.0
  0
LINE
  5
4592
330
1E
100
AcDbEntity
  8
7
100
AcDbLine
 10
0.441510945769001
 20
10.64636062505338
 30
0.0
 11
0.441510945769001
 21
10.77234487702189
 31
0.0
  0
LINE
  5
4593
330
1E
100
AcDbEntity
  8
7
100
AcDbLine
 10
0.441510945769001
 20
10.77234487702189
 30
0.0
 11
0.4178888985249074
 21
10.89570445707438
 31
0.0
  0
LINE
  5
4594
330
1E
100
AcDbEntity
  8
7
100
AcDbLine
 10
0.4178888985249074
 20
10.89570445707438
 30
0.0
 11
0.3758941478687392
 21
11.01119002137884
 31
0.0
  0
LINE
  5
4595
330
1E
100
AcDbEntity
  8
7
100
AcDbLine
 10
0.3758941478687392
 20
11.01119002137884
 30
0.0
 11
0.3102773499684766
 21
11.11880156993527
 31
0.0
  0
LINE
  5
4596
330
1E
100
AcDbEntity
  8
7
100
AcDbLine
 10
-0.9521898416325722
 20
10.70935275103763
 30
0.0
 11
-0.9416911539685308
 21
10.58599317098514
 31
0.0
  0
LINE
  5
4597
330
1E
100
AcDbEntity
  8
7
100
AcDbLine
 10
-0.9416911539685308
 20
10.58599317098514
 30
0.0
 11
-0.907570419060395
 21
10.46525826284866
 31
0.0
  0
LINE
  5
4598
330
1E
100
AcDbEntity
  8
7
100
AcDbLine
 10
-0.907570419060395
 20
10.46525826284866
 30
0.0
 11
-0.8524523088241737
 21
10.35239737046021
 31
0.0
  0
LINE
  5
4599
330
1E
100
AcDbEntity
  8
7
100
AcDbLine
 10
-0.8524523088241737
 20
10.35239737046021
 30
0.0
 11
-0.7789614951758797
 21
10.2500351657358
 31
0.0
  0
LINE
  5
459A
330
1E
100
AcDbEntity
  8
7
100
AcDbLine
 10
-0.7789614951758797
 20
10.2500351657358
 30
0.0
 11
-0.6897226500315235
 21
10.16342099250745
 31
0.0
  0
LINE
  5
459B
330
1E
100
AcDbEntity
  8
7
100
AcDbLine
 10
-0.6897226500315235
 20
10.16342099250745
 30
0.0
 11
-0.5847357733911034
 21
10.09517952269118
 31
0.0
  0
LINE
  5
459C
330
1E
100
AcDbEntity
  8
7
100
AcDbLine
 10
-0.0729247497690562
 20
10.21853910274367
 30
0.0
 11
0.0215634392073216
 21
10.26578319723186
 31
0.0
  0
LINE
  5
459D
330
1E
100
AcDbEntity
  8
7
100
AcDbLine
 10
0.0215634392073216
 20
10.26578319723186
 30
0.0
 11
0.105552940519658
 21
10.33139999513212
 31
0.0
  0
LINE
  5
459E
330
1E
100
AcDbEntity
  8
7
100
AcDbLine
 10
0.105552940519658
 20
10.33139999513212
 30
0.0
 11
0.1737944103359306
 21
10.41014015261244
 31
0.0
  0
LINE
  5
459F
330
1E
100
AcDbEntity
  8
7
100
AcDbLine
 10
0.1737944103359306
 20
10.41014015261244
 30
0.0
 11
0.226287848656141
 21
10.50462834158881
 31
0.0
  0
LINE
  5
45A0
330
1E
100
AcDbEntity
  8
7
100
AcDbLine
 10
0.226287848656141
 20
10.50462834158881
 30
0.0
 11
0.257783911648267
 21
10.60436587439722
 31
0.0
  0
LINE
  5
45A1
330
1E
100
AcDbEntity
  8
7
100
AcDbLine
 10
0.257783911648267
 20
10.60436587439722
 30
0.0
 11
0.2682825993123084
 21
10.70935275103763
 31
0.0
  0
LINE
  5
45A2
330
1E
100
AcDbEntity
  8
7
100
AcDbLine
 10
-0.5742370857270612
 20
11.12142624185128
 30
0.0
 11
-0.6503525712913661
 21
11.050560100119
 31
0.0
  0
LINE
  5
45A3
330
1E
100
AcDbEntity
  8
7
100
AcDbLine
 10
-0.6503525712913661
 20
11.050560100119
 30
0.0
 11
-0.7107200253596071
 21
10.96394592689065
 31
0.0
  0
LINE
  5
45A4
330
1E
100
AcDbEntity
  8
7
100
AcDbLine
 10
-0.7107200253596071
 20
10.96394592689065
 30
0.0
 11
-0.7527147760157753
 21
10.86683306599826
 31
0.0
  0
LINE
  5
45A5
330
1E
100
AcDbEntity
  8
7
100
AcDbLine
 10
-0.7527147760157753
 20
10.86683306599826
 30
0.0
 11
-0.773712151343859
 21
10.76184618935785
 31
0.0
  0
LINE
  5
45A6
330
1E
100
AcDbEntity
  8
7
100
AcDbLine
 10
-0.773712151343859
 20
10.76184618935785
 30
0.0
 11
-0.773712151343859
 21
10.65685931271743
 31
0.0
  0
LINE
  5
45A7
330
1E
100
AcDbEntity
  8
7
100
AcDbLine
 10
-0.773712151343859
 20
10.65685931271743
 30
0.0
 11
-0.7527147760157753
 21
10.551872436077
 31
0.0
  0
LINE
  5
45A8
330
1E
100
AcDbEntity
  8
7
100
AcDbLine
 10
-0.7527147760157753
 20
10.551872436077
 30
0.0
 11
-0.7107200253596071
 21
10.45475957518462
 31
0.0
  0
LINE
  5
45A9
330
1E
100
AcDbEntity
  8
7
100
AcDbLine
 10
-0.7107200253596071
 20
10.45475957518462
 30
0.0
 11
-0.6503525712913661
 21
10.36814540195627
 31
0.0
  0
LINE
  5
45AA
330
1E
100
AcDbEntity
  8
7
100
AcDbLine
 10
-0.6503525712913661
 20
10.36814540195627
 30
0.0
 11
-0.5742370857270612
 21
10.29727926022399
 31
0.0
  0
LINE
  5
45AB
330
1E
100
AcDbEntity
  8
7
100
AcDbLine
 10
-0.5742370857270612
 20
10.29727926022399
 30
0.0
 11
-0.4849982405827049
 21
10.23953647807176
 31
0.0
  0
LINE
  5
45AC
330
1E
100
AcDbEntity
  8
7
100
AcDbLine
 10
-0.4849982405827049
 20
10.23953647807176
 30
0.0
 11
-0.3852607077743055
 21
10.20279107124761
 31
0.0
  0
LINE
  5
45AD
330
1E
100
AcDbEntity
  8
7
100
AcDbLine
 10
-0.3852607077743055
 20
10.20279107124761
 30
0.0
 11
-0.2802738311338846
 21
10.18704303975155
 31
0.0
  0
LINE
  5
45AE
330
1E
100
AcDbEntity
  8
7
100
AcDbLine
 10
-0.2802738311338846
 20
10.18704303975155
 30
0.0
 11
-0.1752869544934654
 21
10.19229238358356
 31
0.0
  0
LINE
  5
45AF
330
1E
100
AcDbEntity
  8
7
100
AcDbLine
 10
-0.1752869544934654
 20
10.19229238358356
 30
0.0
 11
-0.0729247497690562
 21
10.21853910274367
 31
0.0
  0
LINE
  5
45B0
330
1E
100
AcDbEntity
  8
7
100
AcDbLine
 10
0.2682825993123084
 20
10.70935275103763
 30
0.0
 11
0.257783911648267
 21
10.81433962767806
 31
0.0
  0
LINE
  5
45B1
330
1E
100
AcDbEntity
  8
7
100
AcDbLine
 10
0.257783911648267
 20
10.81433962767806
 30
0.0
 11
0.226287848656141
 21
10.91407716048645
 31
0.0
  0
LINE
  5
45B2
330
1E
100
AcDbEntity
  8
7
100
AcDbLine
 10
0.226287848656141
 20
10.91407716048645
 30
0.0
 11
0.1737944103359306
 21
11.00856534946283
 31
0.0
  0
LINE
  5
45B3
330
1E
100
AcDbEntity
  8
7
100
AcDbLine
 10
0.1737944103359306
 20
11.00856534946283
 30
0.0
 11
0.105552940519658
 21
11.08730550694315
 31
0.0
  0
LINE
  5
45B4
330
1E
100
AcDbEntity
  8
7
100
AcDbLine
 10
0.105552940519658
 20
11.08730550694315
 30
0.0
 11
0.0215634392073216
 21
11.15292230484341
 31
0.0
  0
LINE
  5
45B5
330
1E
100
AcDbEntity
  8
7
100
AcDbLine
 10
0.0215634392073216
 20
11.15292230484341
 30
0.0
 11
-0.0729247497690562
 21
11.2001663993316
 31
0.0
  0
LINE
  5
45B6
330
1E
100
AcDbEntity
  8
7
100
AcDbLine
 10
-0.0729247497690562
 20
11.2001663993316
 30
0.0
 11
-0.1752869544934654
 21
11.2264131184917
 31
0.0
  0
LINE
  5
45B7
330
1E
100
AcDbEntity
  8
7
100
AcDbLine
 10
-0.1752869544934654
 20
11.2264131184917
 30
0.0
 11
-0.2802738311338846
 21
11.23166246232373
 31
0.0
  0
LINE
  5
45B8
330
1E
100
AcDbEntity
  8
7
100
AcDbLine
 10
-0.2802738311338846
 20
11.23166246232373
 30
0.0
 11
-0.3852607077743055
 21
11.21591443082766
 31
0.0
  0
LINE
  5
45B9
330
1E
100
AcDbEntity
  8
7
100
AcDbLine
 10
-0.3852607077743055
 20
11.21591443082766
 30
0.0
 11
-0.4849982405827049
 21
11.17916902400351
 31
0.0
  0
LINE
  5
45BA
330
1E
100
AcDbEntity
  8
7
100
AcDbLine
 10
-0.4849982405827049
 20
11.17916902400351
 30
0.0
 11
-0.5742370857270612
 21
11.12142624185128
 31
0.0
  0
LINE
  5
45BB
330
1E
100
AcDbEntity
  8
7
100
AcDbLine
 10
0.2630332554802877
 20
12.39439212111638
 30
0.0
 11
0.2604085835642769
 21
12.47050760668068
 31
0.0
  0
LINE
  5
45BC
330
1E
100
AcDbEntity
  8
7
100
AcDbLine
 10
0.2604085835642769
 20
12.47050760668068
 30
0.0
 11
0.226287848656141
 21
12.53612440458094
 31
0.0
  0
LINE
  5
45BD
330
1E
100
AcDbEntity
  8
7
100
AcDbLine
 10
0.226287848656141
 20
12.53612440458094
 30
0.0
 11
0.1711697384199198
 21
12.58336849906913
 31
0.0
  0
LINE
  5
45BE
330
1E
100
AcDbEntity
  8
7
100
AcDbLine
 10
0.1711697384199198
 20
12.58336849906913
 30
0.0
 11
0.1003035966876373
 21
12.59911653056519
 31
0.0
  0
LINE
  5
45BF
330
1E
100
AcDbEntity
  8
7
100
AcDbLine
 10
-0.424630786514463
 20
12.59911653056519
 30
0.0
 11
-0.4115074269344108
 21
12.59911653056519
 31
0.0
  0
LINE
  5
45C0
330
1E
100
AcDbEntity
  8
7
100
AcDbLine
 10
-0.4115074269344108
 20
12.59911653056519
 30
0.0
 11
0.1003035966876373
 21
12.59911653056519
 31
0.0
  0
LINE
  5
45C1
330
1E
100
AcDbEntity
  8
7
100
AcDbLine
 10
-0.4115074269344108
 20
12.59911653056519
 30
0.0
 11
-0.5191189754908408
 21
12.58599317098514
 31
0.0
  0
LINE
  5
45C2
330
1E
100
AcDbEntity
  8
7
100
AcDbLine
 10
-0.5191189754908408
 20
12.58599317098514
 30
0.0
 11
-0.6241058521312599
 21
12.54662309224498
 31
0.0
  0
LINE
  5
45C3
330
1E
100
AcDbEntity
  8
7
100
AcDbLine
 10
-0.6241058521312599
 20
12.54662309224498
 30
0.0
 11
-0.7185940411076395
 21
12.48625563817674
 31
0.0
  0
LINE
  5
45C4
330
1E
100
AcDbEntity
  8
7
100
AcDbLine
 10
-0.7185940411076395
 20
12.48625563817674
 30
0.0
 11
-0.7947095266719427
 21
12.40226613686441
 31
0.0
  0
LINE
  5
45C5
330
1E
100
AcDbEntity
  8
7
100
AcDbLine
 10
-0.7947095266719427
 20
12.40226613686441
 30
0.0
 11
-0.8550769807401845
 21
12.30252860405601
 31
0.0
  0
LINE
  5
45C6
330
1E
100
AcDbEntity
  8
7
100
AcDbLine
 10
-0.8550769807401845
 20
12.30252860405601
 30
0.0
 11
-0.8891977156483203
 21
12.19229238358357
 31
0.0
  0
LINE
  5
45C7
330
1E
100
AcDbEntity
  8
7
100
AcDbLine
 10
-0.8891977156483203
 20
12.19229238358357
 30
0.0
 11
-0.9023210752283734
 21
12.07680681927911
 31
0.0
  0
LINE
  5
45C8
330
1E
100
AcDbEntity
  8
7
100
AcDbLine
 10
-0.9180691067244364
 20
12.07680681927911
 30
0.0
 11
-0.9049457471443833
 21
12.19229238358357
 31
0.0
  0
LINE
  5
45C9
330
1E
100
AcDbEntity
  8
7
100
AcDbLine
 10
-0.9049457471443833
 20
12.19229238358357
 30
0.0
 11
-0.8682003403202367
 21
12.30252860405601
 31
0.0
  0
LINE
  5
45CA
330
1E
100
AcDbEntity
  8
7
100
AcDbLine
 10
-0.8682003403202367
 20
12.30252860405601
 30
0.0
 11
-0.8104575581680055
 21
12.40226613686441
 31
0.0
  0
LINE
  5
45CB
330
1E
100
AcDbEntity
  8
7
100
AcDbLine
 10
-0.8104575581680055
 20
12.40226613686441
 30
0.0
 11
-0.7317174006876908
 21
12.48625563817674
 31
0.0
  0
LINE
  5
45CC
330
1E
100
AcDbEntity
  8
7
100
AcDbLine
 10
-0.7317174006876908
 20
12.48625563817674
 30
0.0
 11
-0.637229211711313
 21
12.54662309224498
 31
0.0
  0
LINE
  5
45CD
330
1E
100
AcDbEntity
  8
7
100
AcDbLine
 10
-0.637229211711313
 20
12.54662309224498
 30
0.0
 11
-0.5348670069869037
 21
12.58599317098514
 31
0.0
  0
LINE
  5
45CE
330
1E
100
AcDbEntity
  8
7
100
AcDbLine
 10
-0.5348670069869037
 20
12.58599317098514
 30
0.0
 11
-0.424630786514463
 21
12.59911653056519
 31
0.0
  0
ENDSEC
  0
SECTION
  2
OBJECTS
  0
DICTIONARY
  5
C
330
0
100
AcDbDictionary
  3
ACAD_GROUP
350
D
  3
ACAD_MLINESTYLE
350
16
  3
ACAD_PLOTSETTINGS
350
18
  3
ACAD_LAYOUT
350
19
1001
ACAD
1000
TREAT_AS_HARD
1070
     0
  0
DICTIONARY
  5
57CD
330
1E
100
AcDbDictionary
  3
ACAD_LAYOUTSELFREF
350
57CE
  0
DICTIONARY
  5
57CB
330
1A
100
AcDbDictionary
  3
ACAD_LAYOUTSELFREF
350
57CC
  0
DICTIONARY
  5
D
102
{ACAD_REACTORS
330
C
102
}
330
C
100
AcDbDictionary
1001
ACAD
1000
TREAT_AS_HARD
1070
     0
  0
DICTIONARY
  5
16
102
{ACAD_REACTORS
330
C
102
}
330
C
100
AcDbDictionary
  3
STANDARD
350
17
1001
ACAD
1000
TREAT_AS_HARD
1070
     0
  0
DICTIONARY
  5
18
102
{ACAD_REACTORS
330
C
102
}
330
C
100
AcDbDictionary
1001
ACAD
1000
TREAT_AS_HARD
1070
     0
  0
DICTIONARY
  5
19
102
{ACAD_REACTORS
330
C
102
}
330
C
100
AcDbDictionary
1001
ACAD
1000
TREAT_AS_HARD
1070
     0
  0
XRECORD
  5
57CE
102
{ACAD_REACTORS
330
57CD
102
}
330
57CD
100
AcDbXrecord
340
1E
  0
XRECORD
  5
57CC
102
{ACAD_REACTORS
330
57CB
102
}
330
57CB
100
AcDbXrecord
340
1A
  0
MLINESTYLE
  5
17
102
{ACAD_REACTORS
330
16
102
}
330
16
100
AcDbMlineStyle
  2
STANDARD
 70
     0
  3

 62
   256
 51
90.0
 52
90.0
 71
     2
 49
0.5
 62
   256
  6
BYLAYER
 49
-0.5
 62
   256
  6
BYLAYER
  0
ENDSEC
  0
EOF
