  0
SECTION
  2
HEADER
  9
$ACADVER
  1
AC1015
  9
$ACADMAINTVER
 70
    20
  9
$DWGCODEPAGE
  3
ANSI_1252
  9
$INSBASE
 10
0.0
 20
0.0
 30
0.0
  9
$EXTMIN
 10
-0.5
 20
-0.5
 30
-0.5
  9
$EXTMAX
 10
5.0
 20
5.0
 30
5.0
  9
$LIMMIN
 10
-0.5
 20
-0.5
  9
$LIMMAX
 10
5.0
 20
5.0
  9
$ORTHOMODE
 70
     0
  9
$REGENMODE
 70
     1
  9
$FILLMODE
 70
     1
  9
$QTEXTMODE
 70
     0
  9
$MIRRTEXT
 70
     1
  9
$LTSCALE
 40
1.0
  9
$ATTMODE
 70
     1
  9
$TEXTSIZE
 40
0.2
  9
$TRACEWID
 40
0.05
  9
$TEXTSTYLE
  7
Standard
  9
$CLAYER
  8
0
  9
$CELTYPE
  6
BYLAYER
  9
$CECOLOR
 62
   256
  9
$CELTSCALE
 40
1.0
  9
$DISPSILH
 70
     0
  9
$DIMSCALE
 40
1.0
  9
$DIMASZ
 40
0.18
  9
$DIMEXO
 40
0.0625
  9
$DIMDLI
 40
0.38
  9
$DIMRND
 40
0.0
  9
$DIMDLE
 40
0.0
  9
$DIMEXE
 40
0.18
  9
$DIMTP
 40
0.0
  9
$DIMTM
 40
0.0
  9
$DIMTXT
 40
0.18
  9
$DIMCEN
 40
0.09
  9
$DIMTSZ
 40
0.0
  9
$DIMTOL
 70
     0
  9
$DIMLIM
 70
     0
  9
$DIMTIH
 70
     1
  9
$DIMTOH
 70
     1
  9
$DIMSE1
 70
     0
  9
$DIMSE2
 70
     0
  9
$DIMTAD
 70
     0
  9
$DIMZIN
 70
     0
  9
$DIMBLK
  1

  9
$DIMASO
 70
     1
  9
$DIMSHO
 70
     1
  9
$DIMPOST
  1

  9
$DIMAPOST
  1

  9
$DIMALT
 70
     0
  9
$DIMALTD
 70
     2
  9
$DIMALTF
 40
25.4
  9
$DIMLFAC
 40
1.0
  9
$DIMTOFL
 70
     0
  9
$DIMTVP
 40
0.0
  9
$DIMTIX
 70
     0
  9
$DIMSOXD
 70
     0
  9
$DIMSAH
 70
     0
  9
$DIMBLK1
  1

  9
$DIMBLK2
  1

  9
$DIMSTYLE
  2
Standard
  9
$DIMCLRD
 70
     0
  9
$DIMCLRE
 70
     0
  9
$DIMCLRT
 70
     0
  9
$DIMTFAC
 40
1.0
  9
$DIMGAP
 40
0.09
  9
$DIMJUST
 70
     0
  9
$DIMSD1
 70
     0
  9
$DIMSD2
 70
     0
  9
$DIMTOLJ
 70
     1
  9
$DIMTZIN
 70
     0
  9
$DIMALTZ
 70
     0
  9
$DIMALTTZ
 70
     0
  9
$DIMUPT
 70
     0
  9
$DIMDEC
 70
     4
  9
$DIMTDEC
 70
     4
  9
$DIMALTU
 70
     2
  9
$DIMALTTD
 70
     2
  9
$DIMTXSTY
  7
Standard
  9
$DIMAUNIT
 70
     0
  9
$DIMADEC
 70
     0
  9
$DIMALTRND
 40
0.0
  9
$DIMAZIN
 70
     0
  9
$DIMDSEP
 70
    46
  9
$DIMATFIT
 70
     3
  9
$DIMFRAC
 70
     0
  9
$DIMLDRBLK
  1

  9
$DIMLUNIT
 70
     2
  9
$DIMLWD
 70
    -2
  9
$DIMLWE
 70
    -2
  9
$DIMTMOVE
 70
     0
  9
$LUNITS
 70
     2
  9
$LUPREC
 70
     4
  9
$SKETCHINC
 40
0.1
  9
$FILLETRAD
 40
0.5
  9
$AUNITS
 70
     0
  9
$AUPREC
 70
     0
  9
$MENU
  1
.
  9
$ELEVATION
 40
0.0
  9
$PELEVATION
 40
0.0
  9
$THICKNESS
 40
0.0
  9
$LIMCHECK
 70
     0
  9
$CHAMFERA
 40
0.5
  9
$CHAMFERB
 40
0.5
  9
$CHAMFERC
 40
1.0
  9
$CHAMFERD
 40
0.0
  9
$SKPOLY
 70
     0
  9
$TDCREATE
 40
2456692.577906308
  9
$TDUCREATE
 40
2456692.827906308
  9
$TDUPDATE
 40
2456692.580132628
  9
$TDUUPDATE
 40
2456692.830132627
  9
$TDINDWG
 40
0.0006157986
  9
$TDUSRTIMER
 40
0.0006146412
  9
$USRTIMER
 70
     1
  9
$ANGBASE
 50
0.0
  9
$ANGDIR
 70
     0
  9
$PDMODE
 70
     0
  9
$PDSIZE
 40
0.0
  9
$PLINEWID
 40
0.0
  9
$SPLFRAME
 70
     0
  9
$SPLINETYPE
 70
     6
  9
$SPLINESEGS
 70
     8
  9
$HANDSEED
  5
49B
  9
$SURFTAB1
 70
     6
  9
$SURFTAB2
 70
     6
  9
$SURFTYPE
 70
     6
  9
$SURFU
 70
     6
  9
$SURFV
 70
     6
  9
$UCSBASE
  2

  9
$UCSNAME
  2

  9
$UCSORG
 10
0.0
 20
0.0
 30
0.0
  9
$UCSXDIR
 10
1.0
 20
0.0
 30
0.0
  9
$UCSYDIR
 10
0.0
 20
1.0
 30
0.0
  9
$UCSORTHOREF
  2

  9
$UCSORTHOVIEW
 70
     0
  9
$UCSORGTOP
 10
0.0
 20
0.0
 30
0.0
  9
$UCSORGBOTTOM
 10
0.0
 20
0.0
 30
0.0
  9
$UCSORGLEFT
 10
0.0
 20
0.0
 30
0.0
  9
$UCSORGRIGHT
 10
0.0
 20
0.0
 30
0.0
  9
$UCSORGFRONT
 10
0.0
 20
0.0
 30
0.0
  9
$UCSORGBACK
 10
0.0
 20
0.0
 30
0.0
  9
$PUCSBASE
  2

  9
$PUCSNAME
  2

  9
$PUCSORG
 10
0.0
 20
0.0
 30
0.0
  9
$PUCSXDIR
 10
1.0
 20
0.0
 30
0.0
  9
$PUCSYDIR
 10
0.0
 20
1.0
 30
0.0
  9
$PUCSORTHOREF
  2

  9
$PUCSORTHOVIEW
 70
     0
  9
$PUCSORGTOP
 10
0.0
 20
0.0
 30
0.0
  9
$PUCSORGBOTTOM
 10
0.0
 20
0.0
 30
0.0
  9
$PUCSORGLEFT
 10
0.0
 20
0.0
 30
0.0
  9
$PUCSORGRIGHT
 10
0.0
 20
0.0
 30
0.0
  9
$PUCSORGFRONT
 10
0.0
 20
0.0
 30
0.0
  9
$PUCSORGBACK
 10
0.0
 20
0.0
 30
0.0
  9
$USERI1
 70
     0
  9
$USERI2
 70
     0
  9
$USERI3
 70
     0
  9
$USERI4
 70
     0
  9
$USERI5
 70
     0
  9
$USERR1
 40
0.0
  9
$USERR2
 40
0.0
  9
$USERR3
 40
0.0
  9
$USERR4
 40
0.0
  9
$USERR5
 40
0.0
  9
$WORLDVIEW
 70
     1
  9
$SHADEDGE
 70
     3
  9
$SHADEDIF
 70
    70
  9
$TILEMODE
 70
     0
  9
$MAXACTVP
 70
    64
  9
$PINSBASE
 10
0.0
 20
0.0
 30
0.0
  9
$PLIMCHECK
 70
     0
  9
$PEXTMIN
 10
1.617603
 20
4.108335
 30
0.0
  9
$PEXTMAX
 10
5.452066
 20
4.841166999999999
 30
0.0
  9
$PLIMMIN
 10
0.0
 20
0.0
  9
$PLIMMAX
 10
11.0
 20
8.5
  9
$UNITMODE
 70
     0
  9
$VISRETAIN
 70
     1
  9
$PLINEGEN
 70
     0
  9
$PSLTSCALE
 70
     1
  9
$TREEDEPTH
 70
  3020
  9
$CMLSTYLE
  2
Standard
  9
$CMLJUST
 70
     0
  9
$CMLSCALE
 40
1.0
  9
$PROXYGRAPHICS
 70
     1
  9
$MEASUREMENT
 70
     0
  9
$CELWEIGHT
370
    -1
  9
$ENDCAPS
280
     0
  9
$JOINSTYLE
280
     0
  9
$LWDISPLAY
290
     0
  9
$INSUNITS
 70
     1
  9
$HYPERLINKBASE
  1

  9
$STYLESHEET
  1

  9
$XEDIT
290
     1
  9
$CEPSNTYPE
380
     0
  9
$PSTYLEMODE
290
     1
  9
$FINGERPRINTGUID
  2
{5A7415DB-4698-4DA4-A2B6-80DB6625E940}
  9
$VERSIONGUID
  2
{FAEB1C32-E019-11D5-929B-00C0DF256EC4}
  9
$EXTNAMES
290
     1
  9
$PSVPSCALE
 40
0.0
  9
$OLESTARTUP
290
     0
  0
ENDSEC
  0
SECTION
  2
CLASSES
  0
CLASS
  1
ACDBDICTIONARYWDFLT
  2
AcDbDictionaryWithDefault
  3
ObjectDBX Classes
 90
        0
280
     0
281
     0
  0
CLASS
  1
VISUALSTYLE
  2
AcDbVisualStyle
  3
ObjectDBX Classes
 90
     4095
280
     0
281
     0
  0
CLASS
  1
MATERIAL
  2
AcDbMaterial
  3
ObjectDBX Classes
 90
     1153
280
     0
281
     0
  0
CLASS
  1
DICTIONARYVAR
  2
AcDbDictionaryVar
  3
ObjectDBX Classes
 90
        0
280
     0
281
     0
  0
CLASS
  1
ACDBPLACEHOLDER
  2
AcDbPlaceHolder
  3
ObjectDBX Classes
 90
        0
280
     0
281
     0
  0
CLASS
  1
LAYOUT
  2
AcDbLayout
  3
ObjectDBX Classes
 90
        0
280
     0
281
     0
  0
CLASS
  1
TABLESTYLE
  2
AcDbTableStyle
  3
ObjectDBX Classes
 90
     4095
280
     0
281
     0
  0
CLASS
  1
SCALE
  2
AcDbScale
  3
ObjectDBX Classes
 90
     1153
280
     0
281
     0
  0
CLASS
  1
MLEADERSTYLE
  2
AcDbMLeaderStyle
  3
ACDB_MLEADERSTYLE_CLASS
 90
     4095
280
     0
281
     0
  0
CLASS
  1
CELLSTYLEMAP
  2
AcDbCellStyleMap
  3
ObjectDBX Classes
 90
     1152
280
     0
281
     0
  0
ENDSEC
  0
SECTION
  2
TABLES
  0
TABLE
  2
VPORT
  5
8
330
0
100
AcDbSymbolTable
 70
    17
  0
VPORT
  5
29
330
8
100
AcDbSymbolTableRecord
100
AcDbViewportTableRecord
  2
DUMMY
 70
     0
 10
0.0
 20
0.0
 11
1.0
 21
1.0
 12
10.429907
 22
4.5
 13
0.0
 23
0.0
 14
0.5
 24
0.5
 15
0.5
 25
0.5
 16
0.0
 26
0.0
 36
1.0
 17
0.0
 27
0.0
 37
0.0
 40
9.0
 41
1.972972999999999
 42
50.0
 43
0.0
 44
0.0
 50
0.0
 51
0.0
 71
     0
 72
   100
 73
     1
 74
     3
 75
     0
 76
     0
 77
     0
 78
     0
281
     0
 65
     1
110
0.0
120
0.0
130
0.0
111
1.0
121
0.0
131
0.0
112
0.0
122
1.0
132
0.0
 79
     0
146
0.0
  0
VPORT
  5
3EB
330
8
100
AcDbSymbolTableRecord
100
AcDbViewportTableRecord
  2
*ACTIVE
 70
     0
 10
0.0
 20
0.0
 11
1.0
 21
1.0
 12
-6.834471999999999
 22
-6.834471999999999
 13
0.0
 23
0.0
 14
0.5
 24
0.5
 15
0.5
 25
0.5
 16
0.7188730927569435
 26
-0.5850486126764432
 36
0.3754192287502549
 17
0.0
 27
0.0
 37
0.0
 40
61.350868
 41
0.28943
 42
50.0
 43
482.07238
 44
-482.07238
 50
0.0
 51
0.0
 71
     0
 72
   100
 73
     1
 74
     3
 75
     0
 76
     0
 77
     0
 78
     0
281
     0
 65
     1
110
0.0
120
0.0
130
0.0
111
1.0
121
0.0
131
0.0
112
0.0
122
1.0
132
0.0
 79
     0
146
0.0
  0
VPORT
  5
3EC
330
8
100
AcDbSymbolTableRecord
100
AcDbViewportTableRecord
  2
L1
 70
     0
 10
0.0
 20
0.0
 11
1.0
 21
1.0
 12
-6.834471999999999
 22
-6.834471999999999
 13
0.0
 23
0.0
 14
0.5
 24
0.5
 15
0.5
 25
0.5
 16
0.7188730927569435
 26
-0.5850486126764432
 36
0.3754192287502549
 17
0.0
 27
0.0
 37
0.0
 40
61.350868
 41
0.28943
 42
50.0
 43
482.07238
 44
-482.07238
 50
0.0
 51
0.0
 71
     0
 72
   100
 73
     1
 74
     3
 75
     0
 76
     0
 77
     0
 78
     0
281
     0
 65
     1
110
0.0
120
0.0
130
0.0
111
1.0
121
0.0
131
0.0
112
0.0
122
1.0
132
0.0
 79
     0
146
0.0
  0
VPORT
  5
3ED
330
8
100
AcDbSymbolTableRecord
100
AcDbViewportTableRecord
  2
L2
 70
     0
 10
0.0
 20
0.0
 11
0.5
 21
1.0
 12
0.0
 22
0.0
 13
0.0
 23
0.0
 14
0.5
 24
0.5
 15
0.5
 25
0.5
 16
0.0
 26
-1.0
 36
0.0
 17
0.0
 27
0.0
 37
0.0
 40
59.28775
 41
0.299501
 42
50.0
 43
30.446227
 44
-30.446227
 50
0.0
 51
0.0
 71
     0
 72
   100
 73
     1
 74
     3
 75
     0
 76
     0
 77
     0
 78
     0
281
     0
 65
     1
110
0.0
120
0.0
130
0.0
111
1.0
121
0.0
131
0.0
112
0.0
122
1.0
132
0.0
 79
     0
146
0.0
  0
VPORT
  5
3EE
330
8
100
AcDbSymbolTableRecord
100
AcDbViewportTableRecord
  2
L2
 70
     0
 10
0.5
 20
0.0
 11
1.0
 21
1.0
 12
0.0
 22
0.0
 13
0.0
 23
0.0
 14
0.5
 24
0.5
 15
0.5
 25
0.5
 16
1.0
 26
0.0
 36
0.0
 17
0.0
 27
0.0
 37
0.0
 40
59.28775
 41
0.299501
 42
50.0
 43
30.05782
 44
-30.05782
 50
0.0
 51
0.0
 71
     0
 72
   100
 73
     1
 74
     3
 75
     0
 76
     0
 77
     0
 78
     0
281
     0
 65
     1
110
0.0
120
0.0
130
0.0
111
1.0
121
0.0
131
0.0
112
0.0
122
1.0
132
0.0
 79
     0
146
0.0
  0
VPORT
  5
3EF
330
8
100
AcDbSymbolTableRecord
100
AcDbViewportTableRecord
  2
L3
 70
     0
 10
0.0
 20
0.5
 11
1.0
 21
1.0
 12
0.0
 22
0.0
 13
0.0
 23
0.0
 14
0.5
 24
0.5
 15
0.5
 25
0.5
 16
0.0
 26
0.0
 36
1.0
 17
0.0
 27
0.0
 37
0.0
 40
9.942482999999999
 41
1.785947999999999
 42
50.0
 43
29.643875
 44
-29.643875
 50
0.0
 51
0.0
 71
     0
 72
   100
 73
     1
 74
     3
 75
     0
 76
     0
 77
     0
 78
     0
281
     0
 65
     1
110
0.0
120
0.0
130
0.0
111
1.0
121
0.0
131
0.0
112
0.0
122
1.0
132
0.0
 79
     0
146
0.0
  0
VPORT
  5
3F0
330
8
100
AcDbSymbolTableRecord
100
AcDbViewportTableRecord
  2
L3
 70
     0
 10
0.0
 20
0.0
 11
1.0
 21
0.5
 12
0.0
 22
0.0
 13
0.0
 23
0.0
 14
0.5
 24
0.5
 15
0.5
 25
0.5
 16
0.0
 26
-1.0
 36
0.0
 17
0.0
 27
0.0
 37
0.0
 40
59.28775
 41
0.299501
 42
50.0
 43
30.446227
 44
-30.446227
 50
0.0
 51
0.0
 71
     0
 72
   100
 73
     1
 74
     3
 75
     0
 76
     0
 77
     0
 78
     0
281
     0
 65
     1
110
0.0
120
0.0
130
0.0
111
1.0
121
0.0
131
0.0
112
0.0
122
1.0
132
0.0
 79
     0
146
0.0
  0
VPORT
  5
3F1
330
8
100
AcDbSymbolTableRecord
100
AcDbViewportTableRecord
  2
L4
 70
     0
 10
0.0
 20
0.5
 11
0.5
 21
1.0
 12
0.0
 22
0.0
 13
0.0
 23
0.0
 14
0.5
 24
0.5
 15
0.5
 25
0.5
 16
0.0
 26
0.0
 36
1.0
 17
0.0
 27
0.0
 37
0.0
 40
9.942482999999999
 41
1.785947999999999
 42
50.0
 43
29.643875
 44
-29.643875
 50
0.0
 51
0.0
 71
     0
 72
   100
 73
     1
 74
     3
 75
     0
 76
     0
 77
     0
 78
     0
281
     0
 65
     1
110
0.0
120
0.0
130
0.0
111
1.0
121
0.0
131
0.0
112
0.0
122
1.0
132
0.0
 79
     0
146
0.0
  0
VPORT
  5
3F2
330
8
100
AcDbSymbolTableRecord
100
AcDbViewportTableRecord
  2
L4
 70
     0
 10
0.0
 20
0.0
 11
0.5
 21
0.5
 12
0.0
 22
0.0
 13
0.0
 23
0.0
 14
0.5
 24
0.5
 15
0.5
 25
0.5
 16
0.0
 26
-1.0
 36
0.0
 17
0.0
 27
0.0
 37
0.0
 40
59.28775
 41
0.299501
 42
50.0
 43
30.446227
 44
-30.446227
 50
0.0
 51
0.0
 71
     0
 72
   100
 73
     1
 74
     3
 75
     0
 76
     0
 77
     0
 78
     0
281
     0
 65
     1
110
0.0
120
0.0
130
0.0
111
1.0
121
0.0
131
0.0
112
0.0
122
1.0
132
0.0
 79
     0
146
0.0
  0
VPORT
  5
3F3
330
8
100
AcDbSymbolTableRecord
100
AcDbViewportTableRecord
  2
L4
 70
     0
 10
0.5
 20
0.0
 11
1.0
 21
0.5
 12
0.0
 22
0.0
 13
0.0
 23
0.0
 14
0.5
 24
0.5
 15
0.5
 25
0.5
 16
1.0
 26
0.0
 36
0.0
 17
0.0
 27
0.0
 37
0.0
 40
59.28775
 41
0.299501
 42
50.0
 43
30.05782
 44
-30.05782
 50
0.0
 51
0.0
 71
     0
 72
   100
 73
     1
 74
     3
 75
     0
 76
     0
 77
     0
 78
     0
281
     0
 65
     1
110
0.0
120
0.0
130
0.0
111
1.0
121
0.0
131
0.0
112
0.0
122
1.0
132
0.0
 79
     0
146
0.0
  0
VPORT
  5
3F4
330
8
100
AcDbSymbolTableRecord
100
AcDbViewportTableRecord
  2
L4
 70
     0
 10
0.5
 20
0.5
 11
1.0
 21
1.0
 12
0.0
 22
0.0
 13
0.0
 23
0.0
 14
0.5
 24
0.5
 15
0.5
 25
0.5
 16
0.5773502691896259
 26
-0.5773502691896259
 36
0.5773502691896259
 17
0.0
 27
0.0
 37
0.0
 40
58.136664
 41
0.305431
 42
50.0
 43
30.264658
 44
-30.264658
 50
0.0
 51
0.0
 71
     0
 72
   100
 73
     1
 74
     3
 75
     0
 76
     0
 77
     0
 78
     0
281
     0
 65
     1
110
0.0
120
0.0
130
0.0
111
1.0
121
0.0
131
0.0
112
0.0
122
1.0
132
0.0
 79
     0
146
0.0
  0
VPORT
  5
3F5
330
8
100
AcDbSymbolTableRecord
100
AcDbViewportTableRecord
  2
L6
 70
     0
 10
0.0
 20
0.5
 11
0.333333
 21
1.0
 12
-6.834471999999999
 22
-6.834471999999999
 13
0.0
 23
0.0
 14
0.5
 24
0.5
 15
0.5
 25
0.5
 16
0.7188730927569435
 26
-0.5850486126764432
 36
0.3754192287502549
 17
0.0
 27
0.0
 37
0.0
 40
61.350868
 41
0.28943
 42
50.0
 43
482.07238
 44
-482.07238
 50
0.0
 51
0.0
 71
     0
 72
   100
 73
     1
 74
     3
 75
     0
 76
     0
 77
     0
 78
     0
281
     0
 65
     1
110
0.0
120
0.0
130
0.0
111
1.0
121
0.0
131
0.0
112
0.0
122
1.0
132
0.0
 79
     0
146
0.0
  0
VPORT
  5
3F6
330
8
100
AcDbSymbolTableRecord
100
AcDbViewportTableRecord
  2
L6
 70
     0
 10
0.0
 20
0.0
 11
0.333333
 21
0.5
 12
0.0
 22
0.0
 13
0.0
 23
0.0
 14
0.5
 24
0.5
 15
0.5
 25
0.5
 16
-1.0
 26
0.0
 36
0.0
 17
0.0
 27
0.0
 37
0.0
 40
59.28775
 41
0.299501
 42
50.0
 43
30.05782
 44
-30.05782
 50
0.0
 51
0.0
 71
     0
 72
   100
 73
     1
 74
     3
 75
     0
 76
     0
 77
     0
 78
     0
281
     0
 65
     1
110
0.0
120
0.0
130
0.0
111
1.0
121
0.0
131
0.0
112
0.0
122
1.0
132
0.0
 79
     0
146
0.0
  0
VPORT
  5
3F7
330
8
100
AcDbSymbolTableRecord
100
AcDbViewportTableRecord
  2
L6
 70
     0
 10
0.333333
 20
0.5
 11
0.666667
 21
1.0
 12
0.0
 22
0.0
 13
0.0
 23
0.0
 14
0.5
 24
0.5
 15
0.5
 25
0.5
 16
0.0
 26
0.0
 36
1.0
 17
0.0
 27
0.0
 37
0.0
 40
9.942482999999999
 41
1.785947999999999
 42
50.0
 43
29.643875
 44
-29.643875
 50
0.0
 51
0.0
 71
     0
 72
   100
 73
     1
 74
     3
 75
     0
 76
     0
 77
     0
 78
     0
281
     0
 65
     1
110
0.0
120
0.0
130
0.0
111
1.0
121
0.0
131
0.0
112
0.0
122
1.0
132
0.0
 79
     0
146
0.0
  0
VPORT
  5
3F8
330
8
100
AcDbSymbolTableRecord
100
AcDbViewportTableRecord
  2
L6
 70
     0
 10
0.333333
 20
0.0
 11
0.666667
 21
0.5
 12
0.0
 22
0.0
 13
0.0
 23
0.0
 14
0.5
 24
0.5
 15
0.5
 25
0.5
 16
0.0
 26
-1.0
 36
0.0
 17
0.0
 27
0.0
 37
0.0
 40
59.28775
 41
0.299501
 42
50.0
 43
30.446227
 44
-30.446227
 50
0.0
 51
0.0
 71
     0
 72
   100
 73
     1
 74
     3
 75
     0
 76
     0
 77
     0
 78
     0
281
     0
 65
     1
110
0.0
120
0.0
130
0.0
111
1.0
121
0.0
131
0.0
112
0.0
122
1.0
132
0.0
 79
     0
146
0.0
  0
VPORT
  5
3F9
330
8
100
AcDbSymbolTableRecord
100
AcDbViewportTableRecord
  2
L6
 70
     0
 10
0.666667
 20
0.5
 11
1.0
 21
1.0
 12
0.0
 22
0.0
 13
0.0
 23
0.0
 14
0.5
 24
0.5
 15
0.5
 25
0.5
 16
0.5773502691896259
 26
-0.5773502691896259
 36
0.5773502691896259
 17
0.0
 27
0.0
 37
0.0
 40
58.136664
 41
0.305431
 42
50.0
 43
30.264658
 44
-30.264658
 50
0.0
 51
0.0
 71
     0
 72
   100
 73
     1
 74
     3
 75
     0
 76
     0
 77
     0
 78
     0
281
     0
 65
     1
110
0.0
120
0.0
130
0.0
111
1.0
121
0.0
131
0.0
112
0.0
122
1.0
132
0.0
 79
     0
146
0.0
  0
VPORT
  5
3FA
330
8
100
AcDbSymbolTableRecord
100
AcDbViewportTableRecord
  2
L6
 70
     0
 10
0.666667
 20
0.0
 11
1.0
 21
0.5
 12
0.0
 22
0.0
 13
0.0
 23
0.0
 14
0.5
 24
0.5
 15
0.5
 25
0.5
 16
1.0
 26
0.0
 36
0.0
 17
0.0
 27
0.0
 37
0.0
 40
59.28775
 41
0.299501
 42
50.0
 43
30.05782
 44
-30.05782
 50
0.0
 51
0.0
 71
     0
 72
   100
 73
     1
 74
     3
 75
     0
 76
     0
 77
     0
 78
     0
281
     0
 65
     1
110
0.0
120
0.0
130
0.0
111
1.0
121
0.0
131
0.0
112
0.0
122
1.0
132
0.0
 79
     0
146
0.0
  0
ENDTAB
  0
TABLE
  2
LTYPE
  5
5
330
0
100
AcDbSymbolTable
 70
     7
  0
LTYPE
  5
14
330
5
100
AcDbSymbolTableRecord
100
AcDbLinetypeTableRecord
  2
BYBLOCK
 70
     0
  3

 72
    65
 73
     0
 40
0.0
  0
LTYPE
  5
15
330
5
100
AcDbSymbolTableRecord
100
AcDbLinetypeTableRecord
  2
BYLAYER
 70
     0
  3

 72
    65
 73
     0
 40
0.0
  0
LTYPE
  5
16
330
5
100
AcDbSymbolTableRecord
100
AcDbLinetypeTableRecord
  2
CONTINUOUS
 70
     0
  3
Solid line
 72
    65
 73
     0
 40
0.0
  0
LTYPE
  5
40
330
5
100
AcDbSymbolTableRecord
100
AcDbLinetypeTableRecord
  2
DASHED
 70
     0
  3
__ __ __ __ __ __ __ __ __
 72
    65
 73
     2
 40
25.72
 49
12.86
 74
     4
 75
     0
340
0
 46
0.0
 50
0.0
 44
0.0
 45
0.0
 49
-12.86
 74
     4
 75
     0
340
0
 46
0.0
 50
0.0
 44
0.0
 45
0.0
  0
LTYPE
  5
41
330
5
100
AcDbSymbolTableRecord
100
AcDbLinetypeTableRecord
  2
HIDDEN
 70
     0
  3
_ _ _ _ _ _ _ _ _ _ _ _ _ _ _
 72
    65
 73
     2
 40
0.5
 49
0.25
 74
     4
 75
     0
340
0
 46
0.0
 50
0.0
 44
0.0
 45
0.0
 49
-0.25
 74
     4
 75
     0
340
0
 46
0.0
 50
0.0
 44
0.0
 45
0.0
  0
LTYPE
  5
42
330
5
100
AcDbSymbolTableRecord
100
AcDbLinetypeTableRecord
  2
PHANTOM
 70
     0
  3
____ _ _ ____ _ _ _____ _ _ ____
 72
    65
 73
     6
 40
50.5
 49
18.0
 74
     4
 75
     0
340
0
 46
0.0
 50
0.0
 44
0.0
 45
0.0
 49
-6.5
 74
     4
 75
     0
340
0
 46
0.0
 50
0.0
 44
0.0
 45
0.0
 49
6.5
 74
     4
 75
     0
340
0
 46
0.0
 50
0.0
 44
0.0
 45
0.0
 49
-6.5
 74
     4
 75
     0
340
0
 46
0.0
 50
0.0
 44
0.0
 45
0.0
 49
6.5
 74
     4
 75
     0
340
0
 46
0.0
 50
0.0
 44
0.0
 45
0.0
 49
-6.5
 74
     4
 75
     0
340
0
 46
0.0
 50
0.0
 44
0.0
 45
0.0
  0
LTYPE
  5
43
330
5
100
AcDbSymbolTableRecord
100
AcDbLinetypeTableRecord
  2
CENTER
 70
     0
  3
____ _ ____ _ ____ _ ____
 72
    65
 73
     4
 40
47.4
 49
22.0
 74
     4
 75
     0
340
0
 46
0.0
 50
0.0
 44
0.0
 45
0.0
 49
-8.5
 74
     4
 75
     0
340
0
 46
0.0
 50
0.0
 44
0.0
 45
0.0
 49
8.5
 74
     4
 75
     0
340
0
 46
0.0
 50
0.0
 44
0.0
 45
0.0
 49
-8.5
 74
     4
 75
     0
340
0
 46
0.0
 50
0.0
 44
0.0
 45
0.0
  0
LTYPE
  5
44
330
5
100
AcDbSymbolTableRecord
100
AcDbLinetypeTableRecord
  2
DOT
 70
     0
  3
.........................
 72
    65
 73
     2
 40
10.0
 49
0.0
 74
     4
 75
     0
340
0
 46
0.0
 50
0.0
 44
0.0
 45
0.0
 49
-10.0
 74
     4
 75
     0
340
0
 46
0.0
 50
0.0
 44
0.0
 45
0.0
  0
LTYPE
  5
45
330
5
100
AcDbSymbolTableRecord
100
AcDbLinetypeTableRecord
  2
DASHDOT
 70
     0
  3
_._._._._._._._._._._._._._._._.
 72
    65
 73
     4
 40
70.0
 49
31.0
 74
     4
 75
     0
340
0
 46
0.0
 50
0.0
 44
0.0
 45
0.0
 49
-13.0
 74
     4
 75
     0
340
0
 46
0.0
 50
0.0
 44
0.0
 45
0.0
 49
13.0
 74
     4
 75
     0
340
0
 46
0.0
 50
0.0
 44
0.0
 45
0.0
 49
-13.0
 74
     4
 75
     0
340
0
 46
0.0
 50
0.0
 44
0.0
 45
0.0
  0
ENDTAB
  0
TABLE
  2
LAYER
  5
2
330
0
100
AcDbSymbolTable
 70
     2
  0
LAYER
  5
10
102
{ACAD_XDICTIONARY
360
44D
102
}
330
2
100
AcDbSymbolTableRecord
100
AcDbLayerTableRecord
  2
0
 70
     0
 62
     7
  6
CONTINUOUS
370
    -3
390
F
  0
LAYER
  5
58
102
{ACAD_XDICTIONARY
360
44F
102
}
330
2
100
AcDbSymbolTableRecord
100
AcDbLayerTableRecord
  2
1
 70
     0
 62
     7
  6
CONTINUOUS
370
    -3
390
F
  0
ENDTAB
  0
TABLE
  2
STYLE
  5
3
330
0
100
AcDbSymbolTable
 70
     1
  0
STYLE
  5
11
330
3
100
AcDbSymbolTableRecord
100
AcDbTextStyleTableRecord
  2
Standard
 70
     0
 40
0.0
 41
1.0
 50
0.0
 71
     0
 42
0.2
  3
txt
  4

  0
ENDTAB
  0
TABLE
  2
VIEW
  5
6
330
0
100
AcDbSymbolTable
 70
     8
  0
VIEW
  5
46
330
6
100
AcDbSymbolTableRecord
100
AcDbViewTableRecord
  2
TOP
 70
     0
 40
9.942482999999999
 10
0.0
 20
0.0
 41
13.88718
 11
0.0
 21
0.0
 31
1.0
 12
0.0
 22
0.0
 32
0.0
 42
50.0
 43
29.643875
 44
-29.643875
 50
0.0
 71
     0
281
     0
 72
     0
  0
VIEW
  5
47
330
6
100
AcDbSymbolTableRecord
100
AcDbViewTableRecord
  2
FRONT
 70
     0
 40
59.28775
 10
0.0
 20
0.0
 41
13.88718
 11
0.0
 21
-1.0
 31
0.0
 12
0.0
 22
0.0
 32
0.0
 42
50.0
 43
30.446227
 44
-30.446227
 50
0.0
 71
     0
281
     0
 72
     0
  0
VIEW
  5
48
330
6
100
AcDbSymbolTableRecord
100
AcDbViewTableRecord
  2
RIGHT
 70
     0
 40
59.28775
 10
0.0
 20
0.0
 41
9.942482999999999
 11
1.0
 21
0.0
 31
0.0
 12
0.0
 22
0.0
 32
0.0
 42
50.0
 43
30.05782
 44
-30.05782
 50
0.0
 71
     0
281
     0
 72
     0
  0
VIEW
  5
49
330
6
100
AcDbSymbolTableRecord
100
AcDbViewTableRecord
  2
BACK
 70
     0
 40
59.28775
 10
0.0
 20
0.0
 41
13.88718
 11
0.0
 21
1.0
 31
0.0
 12
0.0
 22
0.0
 32
0.0
 42
50.0
 43
30.446227
 44
-30.446227
 50
0.0
 71
     0
281
     0
 72
     0
  0
VIEW
  5
4A
330
6
100
AcDbSymbolTableRecord
100
AcDbViewTableRecord
  2
BOTTOM
 70
     0
 40
9.942482999999999
 10
0.0
 20
0.0
 41
13.88718
 11
0.0
 21
0.0
 31
-1.0
 12
0.0
 22
0.0
 32
0.0
 42
50.0
 43
29.643875
 44
-29.643875
 50
180.0
 71
     0
281
     0
 72
     0
  0
VIEW
  5
4B
330
6
100
AcDbSymbolTableRecord
100
AcDbViewTableRecord
  2
LEFT
 70
     0
 40
59.28775
 10
0.0
 20
0.0
 41
9.942482999999999
 11
-1.0
 21
0.0
 31
0.0
 12
0.0
 22
0.0
 32
0.0
 42
50.0
 43
30.05782
 44
-30.05782
 50
0.0
 71
     0
281
     0
 72
     0
  0
VIEW
  5
4C
330
6
100
AcDbSymbolTableRecord
100
AcDbViewTableRecord
  2
TFR-ISO
 70
     0
 40
58.136664
 10
0.0
 20
0.0
 41
16.850116
 11
0.5773502691896259
 21
-0.5773502691896259
 31
0.5773502691896259
 12
0.0
 22
0.0
 32
0.0
 42
50.0
 43
30.264658
 44
-30.264658
 50
0.0
 71
     0
281
     0
 72
     0
  0
VIEW
  5
4D
330
6
100
AcDbSymbolTableRecord
100
AcDbViewTableRecord
  2
TFR-TRI
 70
     0
 40
61.350868
 10
0.0
 20
0.0
 41
16.477288
 11
0.7188730927569435
 21
-0.5850486126764432
 31
0.3754192287502549
 12
0.0
 22
0.0
 32
0.0
 42
50.0
 43
31.762517
 44
-31.762517
 50
0.0
 71
     0
281
     0
 72
     0
  0
ENDTAB
  0
TABLE
  2
UCS
  5
7
330
0
100
AcDbSymbolTable
 70
     0
  0
ENDTAB
  0
TABLE
  2
APPID
  5
9
330
0
100
AcDbSymbolTable
 70
     2
  0
APPID
  5
12
330
9
100
AcDbSymbolTableRecord
100
AcDbRegAppTableRecord
  2
ACAD
 70
     0
  0
APPID
  5
49A
330
9
100
AcDbSymbolTableRecord
100
AcDbRegAppTableRecord
  2
ACAD_MLEADERVER
 70
     0
  0
ENDTAB
  0
TABLE
  2
DIMSTYLE
  5
A
330
0
100
AcDbSymbolTable
 70
     1
100
AcDbDimStyleTable
 71
     0
  0
DIMSTYLE
105
27
330
A
100
AcDbSymbolTableRecord
100
AcDbDimStyleTableRecord
  2
Standard
 70
     0
340
11
  0
ENDTAB
  0
TABLE
  2
BLOCK_RECORD
  5
1
330
0
100
AcDbSymbolTable
 70
     1
  0
BLOCK_RECORD
  5
1F
330
1
100
AcDbSymbolTableRecord
100
AcDbBlockTableRecord
  2
*Model_Space
340
22
  0
BLOCK_RECORD
  5
53
330
1
100
AcDbSymbolTableRecord
100
AcDbBlockTableRecord
  2
*PAPER_SPACE
340
3EA
  0
BLOCK_RECORD
  5
4E
330
1
100
AcDbSymbolTableRecord
100
AcDbBlockTableRecord
  2
*PAPER_SPACE0
340
52
  0
ENDTAB
  0
ENDSEC
  0
SECTION
  2
BLOCKS
  0
BLOCK
  5
20
330
1F
100
AcDbEntity
  8
0
100
AcDbBlockBegin
  2
*Model_Space
 70
     0
 10
0.0
 20
0.0
 30
0.0
  3
*Model_Space
  1

  0
ENDBLK
  5
21
330
1F
100
AcDbEntity
  8
0
100
AcDbBlockEnd
  0
BLOCK
  5
54
330
53
100
AcDbEntity
 67
     1
  8
0
100
AcDbBlockBegin
  2
*PAPER_SPACE
 70
     0
 10
0.0
 20
0.0
 30
0.0
  3
*PAPER_SPACE
  1

  0
ENDBLK
  5
55
330
53
100
AcDbEntity
 67
     1
  8
0
100
AcDbBlockEnd
  0
BLOCK
  5
4F
330
4E
100
AcDbEntity
 67
     1
  8
0
100
AcDbBlockBegin
  2
*PAPER_SPACE0
 70
     0
 10
0.0
 20
0.0
 30
0.0
  3
*PAPER_SPACE0
  1

  0
VIEWPORT
  5
51
102
{ACAD_XDICTIONARY
360
47D
102
}
330
4E
100
AcDbEntity
 67
     1
  8
0
100
AcDbViewport
 10
5.5
 20
4.25
 30
0.0
 40
11.0
 41
8.5
 68
     0
 69
     1
 12
5.5
 22
4.25
 13
0.0
 23
0.0
 14
1.0
 24
1.0
 15
1.0
 25
1.0
 16
0.0
 26
0.0
 36
1.0
 17
0.0
 27
0.0
 37
0.0
 42
43.28072699999999
 43
0.0
 44
0.0
 45
8.5
 50
0.0
 51
0.0
 72
   100
 90
   557152
  1

281
     0
 71
     1
 74
     0
110
0.0
120
0.0
130
0.0
111
1.0
121
0.0
131
0.0
112
0.0
122
1.0
132
0.0
 79
     0
146
0.0
  0
ENDBLK
  5
50
330
4E
100
AcDbEntity
 67
     1
  8
0
100
AcDbBlockEnd
  0
ENDSEC
  0
SECTION
  2
ENTITIES
  0
VIEWPORT
  5
56
102
{ACAD_XDICTIONARY
360
481
102
}
330
53
100
AcDbEntity
 67
     1
  8
0
100
AcDbViewport
 10
7.654569892473118
 20
4.25
 30
0.0
 40
15.31166959404893
 41
7.367883995703545
 68
     1
 69
     1
 12
7.654569892473118
 22
4.25
 13
0.0
 23
0.0
 14
1.0
 24
1.0
 15
1.0
 25
1.0
 16
0.0
 26
0.0
 36
1.0
 17
0.0
 27
0.0
 37
0.0
 42
43.28072699999999
 43
0.0
 44
0.0
 45
7.367883995703545
 50
0.0
 51
0.0
 72
   100
 90
   557152
  1

281
     0
 71
     1
 74
     0
110
0.0
120
0.0
130
0.0
111
1.0
121
0.0
131
0.0
112
0.0
122
1.0
132
0.0
 79
     0
146
0.0
  0
LINE
  5
57
330
53
100
AcDbEntity
 67
     1
  8
1
  6
Continuous
 62
    18
100
AcDbLine
 10
1.618337
 20
4.841166999999999
 30
0.0
 11
1.618337
 21
4.838465
 31
0.0
  0
LINE
  5
59
330
53
100
AcDbEntity
 67
     1
  8
1
  6
Continuous
 62
    18
100
AcDbLine
 10
2.241267999999999
 20
4.841166999999999
 30
0.0
 11
2.241267999999999
 21
4.838465
 31
0.0
  0
LINE
  5
5A
330
53
100
AcDbEntity
 67
     1
  8
1
  6
Continuous
 62
    18
100
AcDbLine
 10
2.042761999999999
 20
4.841166999999999
 30
0.0
 11
2.042729999999999
 21
4.839337
 31
0.0
  0
LINE
  5
5B
330
53
100
AcDbEntity
 67
     1
  8
1
  6
Continuous
 62
    18
100
AcDbLine
 10
2.042761999999999
 20
4.841166999999999
 30
0.0
 11
2.241267999999999
 21
4.841166999999999
 31
0.0
  0
LINE
  5
5C
330
53
100
AcDbEntity
 67
     1
  8
1
  6
Continuous
 62
    18
100
AcDbLine
 10
1.816874
 20
4.839339999999999
 30
0.0
 11
1.816841999999999
 21
4.841166999999999
 31
0.0
  0
LINE
  5
5D
330
53
100
AcDbEntity
 67
     1
  8
1
  6
Continuous
 62
    18
100
AcDbLine
 10
1.618337
 20
4.841166999999999
 30
0.0
 11
1.816841999999999
 21
4.841166999999999
 31
0.0
  0
LINE
  5
5E
330
53
100
AcDbEntity
 67
     1
  8
1
  6
Continuous
 62
    18
100
AcDbLine
 10
2.015222999999999
 20
4.834335
 30
0.0
 11
1.844381999999999
 21
4.834335
 31
0.0
  0
LINE
  5
5F
330
53
100
AcDbEntity
 67
     1
  8
1
  6
Continuous
 62
    18
100
AcDbLine
 10
1.844381999999999
 20
4.834335
 30
0.0
 11
1.844365
 21
4.836192999999999
 31
0.0
  0
LINE
  5
60
330
53
100
AcDbEntity
 67
     1
  8
1
  6
Continuous
 62
    18
100
AcDbLine
 10
1.854802
 20
4.836375
 30
0.0
 11
1.854802
 21
4.834333999999999
 31
0.0
  0
LINE
  5
61
330
53
100
AcDbEntity
 67
     1
  8
1
  6
Continuous
 62
    18
100
AcDbLine
 10
1.844365
 20
4.836192999999999
 30
0.0
 11
1.847422
 21
4.836320999999999
 31
0.0
  0
LINE
  5
62
330
53
100
AcDbEntity
 67
     1
  8
1
  6
Continuous
 62
    18
100
AcDbLine
 10
1.847422
 20
4.836320999999999
 30
0.0
 11
1.854802
 21
4.836375
 31
0.0
  0
LINE
  5
63
330
53
100
AcDbEntity
 67
     1
  8
1
  6
Continuous
 62
    18
100
AcDbLine
 10
2.004802
 20
4.834333999999999
 30
0.0
 11
2.004802
 21
4.836375
 31
0.0
  0
LINE
  5
64
330
53
100
AcDbEntity
 67
     1
  8
1
  6
Continuous
 62
    18
100
AcDbLine
 10
2.004802
 20
4.836375
 30
0.0
 11
1.854802
 21
4.836375
 31
0.0
  0
LINE
  5
65
330
53
100
AcDbEntity
 67
     1
  8
1
  6
Continuous
 62
    18
100
AcDbLine
 10
2.004802
 20
4.836375
 30
0.0
 11
2.012182
 21
4.836320999999999
 31
0.0
  0
LINE
  5
66
330
53
100
AcDbEntity
 67
     1
  8
1
  6
Continuous
 62
    18
100
AcDbLine
 10
2.012182
 20
4.836320999999999
 30
0.0
 11
2.015238999999999
 21
4.836192999999999
 31
0.0
  0
LINE
  5
67
330
53
100
AcDbEntity
 67
     1
  8
1
  6
Continuous
 62
    18
100
AcDbLine
 10
2.015222999999999
 20
4.834335
 30
0.0
 11
2.015238999999999
 21
4.836192999999999
 31
0.0
  0
LINE
  5
68
330
53
100
AcDbEntity
 67
     1
  8
1
  6
Continuous
 62
    18
100
AcDbLine
 10
2.042729999999999
 20
4.839337
 30
0.0
 11
2.040327
 21
4.839241
 31
0.0
  0
LINE
  5
69
330
53
100
AcDbEntity
 67
     1
  8
1
  6
Continuous
 62
    18
100
AcDbLine
 10
2.040327
 20
4.839241
 30
0.0
 11
2.034731
 21
4.839201
 31
0.0
  0
LINE
  5
6A
330
53
100
AcDbEntity
 67
     1
  8
1
  6
Continuous
 62
    18
100
AcDbLine
 10
1.824875
 20
4.839201
 30
0.0
 11
2.034731
 21
4.839201
 31
0.0
  0
LINE
  5
6B
330
53
100
AcDbEntity
 67
     1
  8
1
  6
Continuous
 62
    18
100
AcDbLine
 10
1.619785
 20
4.838466999999999
 30
0.0
 11
1.619785
 21
4.839719
 31
0.0
  0
LINE
  5
6C
330
53
100
AcDbEntity
 67
     1
  8
1
  6
Continuous
 62
    18
100
AcDbLine
 10
1.665320999999999
 20
4.838467999999999
 30
0.0
 11
1.665320999999999
 21
4.839719
 31
0.0
  0
LINE
  5
6D
330
53
100
AcDbEntity
 67
     1
  8
1
  6
Continuous
 62
    18
100
AcDbLine
 10
1.665320999999999
 20
4.839719
 30
0.0
 11
1.619785
 21
4.839719
 31
0.0
  0
LINE
  5
6E
330
53
100
AcDbEntity
 67
     1
  8
1
  6
Continuous
 62
    18
100
AcDbLine
 10
1.695316999999999
 20
4.839204
 30
0.0
 11
1.695316999999999
 21
4.836032
 31
0.0
  0
LINE
  5
6F
330
53
100
AcDbEntity
 67
     1
  8
1
  6
Continuous
 62
    18
100
AcDbLine
 10
1.665320999999999
 20
4.839719
 30
0.0
 11
1.68017
 21
4.839649999999999
 31
0.0
  0
LINE
  5
70
330
53
100
AcDbEntity
 67
     1
  8
1
  6
Continuous
 62
    18
100
AcDbLine
 10
1.68017
 20
4.839649999999999
 30
0.0
 11
1.691125999999999
 21
4.839462
 31
0.0
  0
LINE
  5
71
330
53
100
AcDbEntity
 67
     1
  8
1
  6
Continuous
 62
    18
100
AcDbLine
 10
1.691125999999999
 20
4.839462
 30
0.0
 11
1.695316999999999
 21
4.839204
 31
0.0
  0
LINE
  5
72
330
53
100
AcDbEntity
 67
     1
  8
1
  6
Continuous
 62
    18
100
AcDbLine
 10
1.695316999999999
 20
4.839204
 30
0.0
 11
1.701318999999999
 21
4.833201999999999
 31
0.0
  0
LINE
  5
73
330
53
100
AcDbEntity
 67
     1
  8
1
  6
Continuous
 62
    18
100
AcDbLine
 10
1.701318999999999
 20
4.832257
 30
0.0
 11
1.701318999999999
 21
4.833201999999999
 31
0.0
  0
LINE
  5
74
330
53
100
AcDbEntity
 67
     1
  8
1
  6
Continuous
 62
    18
100
AcDbLine
 10
1.721316
 20
4.832859
 30
0.0
 11
1.721316
 21
4.832257
 31
0.0
  0
LINE
  5
75
330
53
100
AcDbEntity
 67
     1
  8
1
  6
Continuous
 62
    18
100
AcDbLine
 10
1.701318999999999
 20
4.833201999999999
 30
0.0
 11
1.707297999999999
 21
4.832958999999999
 31
0.0
  0
LINE
  5
76
330
53
100
AcDbEntity
 67
     1
  8
1
  6
Continuous
 62
    18
100
AcDbLine
 10
1.707297999999999
 20
4.832958999999999
 30
0.0
 11
1.721316
 21
4.832859
 31
0.0
  0
LINE
  5
77
330
53
100
AcDbEntity
 67
     1
  8
1
  6
Continuous
 62
    18
100
AcDbLine
 10
2.138288
 20
4.832859
 30
0.0
 11
1.721316
 21
4.832859
 31
0.0
  0
LINE
  5
78
330
53
100
AcDbEntity
 67
     1
  8
1
  6
Continuous
 62
    18
100
AcDbLine
 10
2.138288
 20
4.832257
 30
0.0
 11
2.138288
 21
4.832859
 31
0.0
  0
LINE
  5
79
330
53
100
AcDbEntity
 67
     1
  8
1
  6
Continuous
 62
    18
100
AcDbLine
 10
2.158284999999999
 20
4.833201999999999
 30
0.0
 11
2.158284999999999
 21
4.832257
 31
0.0
  0
LINE
  5
7A
330
53
100
AcDbEntity
 67
     1
  8
1
  6
Continuous
 62
    18
100
AcDbLine
 10
2.138288
 20
4.832859
 30
0.0
 11
2.152306999999999
 21
4.832958999999999
 31
0.0
  0
LINE
  5
7B
330
53
100
AcDbEntity
 67
     1
  8
1
  6
Continuous
 62
    18
100
AcDbLine
 10
2.152306999999999
 20
4.832958999999999
 30
0.0
 11
2.158284999999999
 21
4.833201999999999
 31
0.0
  0
LINE
  5
7C
330
53
100
AcDbEntity
 67
     1
  8
1
  6
Continuous
 62
    18
100
AcDbLine
 10
2.164287999999999
 20
4.836032
 30
0.0
 11
2.164287999999999
 21
4.839204
 31
0.0
  0
LINE
  5
7D
330
53
100
AcDbEntity
 67
     1
  8
1
  6
Continuous
 62
    18
100
AcDbLine
 10
2.164287999999999
 20
4.839204
 30
0.0
 11
2.158284999999999
 21
4.833201999999999
 31
0.0
  0
LINE
  5
7E
330
53
100
AcDbEntity
 67
     1
  8
1
  6
Continuous
 62
    18
100
AcDbLine
 10
2.194282999999999
 20
4.839719
 30
0.0
 11
2.194282999999999
 21
4.838467999999999
 31
0.0
  0
LINE
  5
7F
330
53
100
AcDbEntity
 67
     1
  8
1
  6
Continuous
 62
    18
100
AcDbLine
 10
2.164287999999999
 20
4.839204
 30
0.0
 11
2.168477999999999
 21
4.839462
 31
0.0
  0
LINE
  5
80
330
53
100
AcDbEntity
 67
     1
  8
1
  6
Continuous
 62
    18
100
AcDbLine
 10
2.168477999999999
 20
4.839462
 30
0.0
 11
2.179434
 21
4.839649999999999
 31
0.0
  0
LINE
  5
81
330
53
100
AcDbEntity
 67
     1
  8
1
  6
Continuous
 62
    18
100
AcDbLine
 10
2.179434
 20
4.839649999999999
 30
0.0
 11
2.194282999999999
 21
4.839719
 31
0.0
  0
LINE
  5
82
330
53
100
AcDbEntity
 67
     1
  8
1
  6
Continuous
 62
    18
100
AcDbLine
 10
2.239818999999999
 20
4.839719
 30
0.0
 11
2.239818999999999
 21
4.838466999999999
 31
0.0
  0
LINE
  5
83
330
53
100
AcDbEntity
 67
     1
  8
1
  6
Continuous
 62
    18
100
AcDbLine
 10
2.194282999999999
 20
4.839719
 30
0.0
 11
2.239818999999999
 21
4.839719
 31
0.0
  0
LINE
  5
84
330
53
100
AcDbEntity
 67
     1
  8
1
  6
Continuous
 62
    18
100
AcDbLine
 10
1.824875
 20
4.839201
 30
0.0
 11
1.819218
 21
4.839241999999999
 31
0.0
  0
LINE
  5
85
330
53
100
AcDbEntity
 67
     1
  8
1
  6
Continuous
 62
    18
100
AcDbLine
 10
1.819218
 20
4.839241999999999
 30
0.0
 11
1.816874
 21
4.839339999999999
 31
0.0
  0
LINE
  5
86
330
53
100
AcDbEntity
 67
     1
  8
1
  6
Continuous
 62
    18
100
AcDbLine
 10
2.241267999999999
 20
4.841166999999999
 30
0.0
 11
2.239818999999999
 21
4.839719
 31
0.0
  0
LINE
  5
87
330
53
100
AcDbEntity
 67
     1
  8
1
  6
Continuous
 62
    18
100
AcDbLine
 10
1.619785
 20
4.839719
 30
0.0
 11
1.618337
 21
4.841166999999999
 31
0.0
  0
LINE
  5
88
330
53
100
AcDbEntity
 67
     1
  8
1
  6
Continuous
 62
    18
100
AcDbLine
 10
1.850567999999999
 20
4.749101
 30
0.0
 11
2.009031999999999
 21
4.749101
 31
0.0
  0
LINE
  5
89
330
53
100
AcDbEntity
 67
     1
  8
1
  6
Continuous
 62
    18
100
AcDbLine
 10
1.878802
 20
4.369863999999999
 30
0.0
 11
1.878802
 21
4.492026999999999
 31
0.0
  0
LINE
  5
8A
330
53
100
AcDbEntity
 67
     1
  8
1
  6
Continuous
 62
    18
100
AcDbLine
 10
1.860801999999999
 20
4.369863999999999
 30
0.0
 11
1.860801999999999
 21
4.492026999999999
 31
0.0
  0
LINE
  5
8B
330
53
100
AcDbEntity
 67
     1
  8
1
  6
Continuous
 62
    18
100
AcDbLine
 10
1.940802
 20
4.369863999999999
 30
0.0
 11
1.940802
 21
4.492026999999999
 31
0.0
  0
LINE
  5
8C
330
53
100
AcDbEntity
 67
     1
  8
1
  6
Continuous
 62
    18
100
AcDbLine
 10
1.958802
 20
4.369863999999999
 30
0.0
 11
1.958802
 21
4.492026999999999
 31
0.0
  0
LINE
  5
8D
330
53
100
AcDbEntity
 67
     1
  8
1
  6
Continuous
 62
    18
100
AcDbLine
 10
1.798802
 20
4.369863999999999
 30
0.0
 11
1.798802
 21
4.492026999999999
 31
0.0
  0
LINE
  5
8E
330
53
100
AcDbEntity
 67
     1
  8
1
  6
Continuous
 62
    18
100
AcDbLine
 10
1.780801999999999
 20
4.369863999999999
 30
0.0
 11
1.780801999999999
 21
4.492026999999999
 31
0.0
  0
LINE
  5
8F
330
53
100
AcDbEntity
 67
     1
  8
1
  6
Continuous
 62
    18
100
AcDbLine
 10
1.998852
 20
4.369863999999999
 30
0.0
 11
1.998852
 21
4.492026999999999
 31
0.0
  0
LINE
  5
90
330
53
100
AcDbEntity
 67
     1
  8
1
  6
Continuous
 62
    18
100
AcDbLine
 10
1.980852
 20
4.369863999999999
 30
0.0
 11
1.980852
 21
4.492026999999999
 31
0.0
  0
LINE
  5
91
330
53
100
AcDbEntity
 67
     1
  8
1
  6
Continuous
 62
    18
100
AcDbLine
 10
2.078851999999999
 20
4.369863999999999
 30
0.0
 11
2.078851999999999
 21
4.492026999999999
 31
0.0
  0
LINE
  5
92
330
53
100
AcDbEntity
 67
     1
  8
1
  6
Continuous
 62
    18
100
AcDbLine
 10
2.060852999999999
 20
4.369863999999999
 30
0.0
 11
2.060852999999999
 21
4.492026999999999
 31
0.0
  0
LINE
  5
93
330
53
100
AcDbEntity
 67
     1
  8
1
  6
Continuous
 62
    18
100
AcDbLine
 10
1.918852
 20
4.369863999999999
 30
0.0
 11
1.918852
 21
4.492026999999999
 31
0.0
  0
LINE
  5
94
330
53
100
AcDbEntity
 67
     1
  8
1
  6
Continuous
 62
    18
100
AcDbLine
 10
1.900852
 20
4.369863999999999
 30
0.0
 11
1.900852
 21
4.492026999999999
 31
0.0
  0
LINE
  5
95
330
53
100
AcDbEntity
 67
     1
  8
1
  6
Continuous
 62
    18
100
AcDbLine
 10
1.737350999999999
 20
4.389541999999999
 30
0.0
 11
1.737702
 21
4.369396
 31
0.0
  0
LINE
  5
96
330
53
100
AcDbEntity
 67
     1
  8
1
  6
Continuous
 62
    18
100
AcDbLine
 10
2.122252999999999
 20
4.389541999999999
 30
0.0
 11
2.121901999999999
 21
4.369396
 31
0.0
  0
LINE
  5
97
330
53
100
AcDbEntity
 67
     1
  8
1
  6
Continuous
 62
    18
100
AcDbLine
 10
2.152047999999999
 20
4.369396
 30
0.0
 11
2.152047999999999
 21
4.389541999999999
 31
0.0
  0
LINE
  5
98
330
53
100
AcDbEntity
 67
     1
  8
1
  6
Continuous
 62
    18
100
AcDbLine
 10
2.122252999999999
 20
4.389541999999999
 30
0.0
 11
2.152047999999999
 21
4.389541999999999
 31
0.0
  0
LINE
  5
99
330
53
100
AcDbEntity
 67
     1
  8
1
  6
Continuous
 62
    18
100
AcDbLine
 10
1.737350999999999
 20
4.389541999999999
 30
0.0
 11
1.707556
 21
4.389541999999999
 31
0.0
  0
LINE
  5
9A
330
53
100
AcDbEntity
 67
     1
  8
1
  6
Continuous
 62
    18
100
AcDbLine
 10
1.707556
 20
4.369396
 30
0.0
 11
1.707556
 21
4.389541999999999
 31
0.0
  0
LINE
  5
9B
330
53
100
AcDbEntity
 67
     1
  8
1
  6
Continuous
 62
    18
100
AcDbLine
 10
1.695009999999999
 20
4.389541999999999
 30
0.0
 11
1.707556
 21
4.389541999999999
 31
0.0
  0
LINE
  5
9C
330
53
100
AcDbEntity
 67
     1
  8
1
  6
Continuous
 62
    18
100
AcDbLine
 10
2.152047999999999
 20
4.389541999999999
 30
0.0
 11
2.164593999999999
 21
4.389541999999999
 31
0.0
  0
LINE
  5
9D
330
53
100
AcDbEntity
 67
     1
  8
1
  6
Continuous
 62
    18
100
AcDbLine
 10
1.761804
 20
4.389541999999999
 30
0.0
 11
1.761457
 21
4.369636999999999
 31
0.0
  0
LINE
  5
9E
330
53
100
AcDbEntity
 67
     1
  8
1
  6
Continuous
 62
    18
100
AcDbLine
 10
1.777802
 20
4.389541999999999
 30
0.0
 11
1.778146
 21
4.369862
 31
0.0
  0
LINE
  5
9F
330
53
100
AcDbEntity
 67
     1
  8
1
  6
Continuous
 62
    18
100
AcDbLine
 10
1.777802
 20
4.389541999999999
 30
0.0
 11
1.761804
 21
4.389541999999999
 31
0.0
  0
LINE
  5
A0
330
53
100
AcDbEntity
 67
     1
  8
1
  6
Continuous
 62
    18
100
AcDbLine
 10
1.801804
 20
4.389541999999999
 30
0.0
 11
1.801460999999999
 21
4.369862
 31
0.0
  0
LINE
  5
A1
330
53
100
AcDbEntity
 67
     1
  8
1
  6
Continuous
 62
    18
100
AcDbLine
 10
1.817802
 20
4.389541999999999
 30
0.0
 11
1.818145999999999
 21
4.369862
 31
0.0
  0
LINE
  5
A2
330
53
100
AcDbEntity
 67
     1
  8
1
  6
Continuous
 62
    18
100
AcDbLine
 10
1.817802
 20
4.389541999999999
 30
0.0
 11
1.801804
 21
4.389541999999999
 31
0.0
  0
LINE
  5
A3
330
53
100
AcDbEntity
 67
     1
  8
1
  6
Continuous
 62
    18
100
AcDbLine
 10
1.841803999999999
 20
4.389541999999999
 30
0.0
 11
1.841460999999999
 21
4.369862
 31
0.0
  0
LINE
  5
A4
330
53
100
AcDbEntity
 67
     1
  8
1
  6
Continuous
 62
    18
100
AcDbLine
 10
1.857801999999999
 20
4.389541999999999
 30
0.0
 11
1.858145999999999
 21
4.369862
 31
0.0
  0
LINE
  5
A5
330
53
100
AcDbEntity
 67
     1
  8
1
  6
Continuous
 62
    18
100
AcDbLine
 10
1.857801999999999
 20
4.389541999999999
 30
0.0
 11
1.841803999999999
 21
4.389541999999999
 31
0.0
  0
LINE
  5
A6
330
53
100
AcDbEntity
 67
     1
  8
1
  6
Continuous
 62
    18
100
AcDbLine
 10
1.881803999999999
 20
4.389541999999999
 30
0.0
 11
1.881461
 21
4.369862
 31
0.0
  0
LINE
  5
A7
330
53
100
AcDbEntity
 67
     1
  8
1
  6
Continuous
 62
    18
100
AcDbLine
 10
1.897802
 20
4.389541999999999
 30
0.0
 11
1.898145999999999
 21
4.369862
 31
0.0
  0
LINE
  5
A8
330
53
100
AcDbEntity
 67
     1
  8
1
  6
Continuous
 62
    18
100
AcDbLine
 10
1.897802
 20
4.389541999999999
 30
0.0
 11
1.881803999999999
 21
4.389541999999999
 31
0.0
  0
LINE
  5
A9
330
53
100
AcDbEntity
 67
     1
  8
1
  6
Continuous
 62
    18
100
AcDbLine
 10
1.921804
 20
4.389541999999999
 30
0.0
 11
1.921461
 21
4.369862
 31
0.0
  0
LINE
  5
AA
330
53
100
AcDbEntity
 67
     1
  8
1
  6
Continuous
 62
    18
100
AcDbLine
 10
1.937801999999999
 20
4.389541999999999
 30
0.0
 11
1.938145999999999
 21
4.369862
 31
0.0
  0
LINE
  5
AB
330
53
100
AcDbEntity
 67
     1
  8
1
  6
Continuous
 62
    18
100
AcDbLine
 10
1.937801999999999
 20
4.389541999999999
 30
0.0
 11
1.921804
 21
4.389541999999999
 31
0.0
  0
LINE
  5
AC
330
53
100
AcDbEntity
 67
     1
  8
1
  6
Continuous
 62
    18
100
AcDbLine
 10
1.961804
 20
4.389541999999999
 30
0.0
 11
1.961461
 21
4.369862
 31
0.0
  0
LINE
  5
AD
330
53
100
AcDbEntity
 67
     1
  8
1
  6
Continuous
 62
    18
100
AcDbLine
 10
1.977802
 20
4.389541999999999
 30
0.0
 11
1.978145999999999
 21
4.369862
 31
0.0
  0
LINE
  5
AE
330
53
100
AcDbEntity
 67
     1
  8
1
  6
Continuous
 62
    18
100
AcDbLine
 10
1.977802
 20
4.389541999999999
 30
0.0
 11
1.961804
 21
4.389541999999999
 31
0.0
  0
LINE
  5
AF
330
53
100
AcDbEntity
 67
     1
  8
1
  6
Continuous
 62
    18
100
AcDbLine
 10
2.001803999999999
 20
4.389541999999999
 30
0.0
 11
2.001460999999999
 21
4.369862
 31
0.0
  0
LINE
  5
B0
330
53
100
AcDbEntity
 67
     1
  8
1
  6
Continuous
 62
    18
100
AcDbLine
 10
2.017802
 20
4.389541999999999
 30
0.0
 11
2.018145999999999
 21
4.369862
 31
0.0
  0
LINE
  5
B1
330
53
100
AcDbEntity
 67
     1
  8
1
  6
Continuous
 62
    18
100
AcDbLine
 10
2.017802
 20
4.389541999999999
 30
0.0
 11
2.001803999999999
 21
4.389541999999999
 31
0.0
  0
LINE
  5
B2
330
53
100
AcDbEntity
 67
     1
  8
1
  6
Continuous
 62
    18
100
AcDbLine
 10
2.041803999999999
 20
4.389541999999999
 30
0.0
 11
2.041460999999999
 21
4.369862
 31
0.0
  0
LINE
  5
B3
330
53
100
AcDbEntity
 67
     1
  8
1
  6
Continuous
 62
    18
100
AcDbLine
 10
2.057802
 20
4.389541999999999
 30
0.0
 11
2.058145999999999
 21
4.369862
 31
0.0
  0
LINE
  5
B4
330
53
100
AcDbEntity
 67
     1
  8
1
  6
Continuous
 62
    18
100
AcDbLine
 10
2.057802
 20
4.389541999999999
 30
0.0
 11
2.041803999999999
 21
4.389541999999999
 31
0.0
  0
LINE
  5
B5
330
53
100
AcDbEntity
 67
     1
  8
1
  6
Continuous
 62
    18
100
AcDbLine
 10
2.081803999999999
 20
4.389541999999999
 30
0.0
 11
2.081461
 21
4.369862
 31
0.0
  0
LINE
  5
B6
330
53
100
AcDbEntity
 67
     1
  8
1
  6
Continuous
 62
    18
100
AcDbLine
 10
2.097802
 20
4.389541999999999
 30
0.0
 11
2.098145999999999
 21
4.369811
 31
0.0
  0
LINE
  5
B7
330
53
100
AcDbEntity
 67
     1
  8
1
  6
Continuous
 62
    18
100
AcDbLine
 10
2.097802
 20
4.389541999999999
 30
0.0
 11
2.081803999999999
 21
4.389541999999999
 31
0.0
  0
LINE
  5
B8
330
53
100
AcDbEntity
 67
     1
  8
1
  6
Continuous
 62
    18
100
AcDbLine
 10
2.038802
 20
4.369863999999999
 30
0.0
 11
2.038802
 21
4.492026999999999
 31
0.0
  0
LINE
  5
B9
330
53
100
AcDbEntity
 67
     1
  8
1
  6
Continuous
 62
    18
100
AcDbLine
 10
2.020802
 20
4.369863999999999
 30
0.0
 11
2.020802
 21
4.492026999999999
 31
0.0
  0
LINE
  5
BA
330
53
100
AcDbEntity
 67
     1
  8
1
  6
Continuous
 62
    18
100
AcDbLine
 10
1.838802
 20
4.369863999999999
 30
0.0
 11
1.838802
 21
4.492026999999999
 31
0.0
  0
LINE
  5
BB
330
53
100
AcDbEntity
 67
     1
  8
1
  6
Continuous
 62
    18
100
AcDbLine
 10
1.820802
 20
4.369863999999999
 30
0.0
 11
1.820802
 21
4.492026999999999
 31
0.0
  0
LINE
  5
BC
330
53
100
AcDbEntity
 67
     1
  8
1
  6
Continuous
 62
    18
100
AcDbLine
 10
1.864206
 20
4.723163999999999
 30
0.0
 11
1.875499
 21
4.723163999999999
 31
0.0
  0
LINE
  5
BD
330
53
100
AcDbEntity
 67
     1
  8
1
  6
Continuous
 62
    18
100
AcDbLine
 10
1.944207
 20
4.723163999999999
 30
0.0
 11
1.955498
 21
4.723163999999999
 31
0.0
  0
LINE
  5
BE
330
53
100
AcDbEntity
 67
     1
  8
1
  6
Continuous
 62
    18
100
AcDbLine
 10
1.95574
 20
4.698751999999999
 30
0.0
 11
1.944388
 21
4.698751999999999
 31
0.0
  0
LINE
  5
BF
330
53
100
AcDbEntity
 67
     1
  8
1
  6
Continuous
 62
    18
100
AcDbLine
 10
1.944388
 20
4.698751999999999
 30
0.0
 11
1.944388
 21
4.698555999999999
 31
0.0
  0
LINE
  5
C0
330
53
100
AcDbEntity
 67
     1
  8
1
  6
Continuous
 62
    18
100
AcDbLine
 10
2.024207
 20
4.699162999999999
 30
0.0
 11
2.035498
 21
4.699162999999999
 31
0.0
  0
LINE
  5
C1
330
53
100
AcDbEntity
 67
     1
  8
1
  6
Continuous
 62
    18
100
AcDbLine
 10
1.875416999999999
 20
4.703866
 30
0.0
 11
1.85833
 21
4.703866
 31
0.0
  0
LINE
  5
C2
330
53
100
AcDbEntity
 67
     1
  8
1
  6
Continuous
 62
    18
100
AcDbLine
 10
1.875416999999999
 20
4.703866
 30
0.0
 11
1.875416999999999
 21
4.703901
 31
0.0
  0
LINE
  5
C3
330
53
100
AcDbEntity
 67
     1
  8
1
  6
Continuous
 62
    18
100
AcDbLine
 10
1.875416999999999
 20
4.717901
 30
0.0
 11
1.875416999999999
 21
4.718049999999999
 31
0.0
  0
LINE
  5
C4
330
53
100
AcDbEntity
 67
     1
  8
1
  6
Continuous
 62
    18
100
AcDbLine
 10
1.875416999999999
 20
4.718049999999999
 30
0.0
 11
1.858399999999999
 21
4.718049999999999
 31
0.0
  0
LINE
  5
C5
330
53
100
AcDbEntity
 67
     1
  8
1
  6
Continuous
 62
    18
100
AcDbLine
 10
1.87574
 20
4.698751999999999
 30
0.0
 11
1.863963999999999
 21
4.698751999999999
 31
0.0
  0
LINE
  5
C6
330
53
100
AcDbEntity
 67
     1
  8
1
  6
Continuous
 62
    18
100
AcDbLine
 10
1.880522
 20
4.702630999999999
 30
0.0
 11
1.880522
 21
4.703901
 31
0.0
  0
LINE
  5
C7
330
53
100
AcDbEntity
 67
     1
  8
1
  6
Continuous
 62
    18
100
AcDbLine
 10
1.880259999999999
 20
4.703751999999999
 30
0.0
 11
1.880408
 21
4.703901
 31
0.0
  0
LINE
  5
C8
330
53
100
AcDbEntity
 67
     1
  8
1
  6
Continuous
 62
    18
100
AcDbLine
 10
1.880259999999999
 20
4.703751999999999
 30
0.0
 11
1.880229
 21
4.702265
 31
0.0
  0
LINE
  5
C9
330
53
100
AcDbEntity
 67
     1
  8
1
  6
Continuous
 62
    18
100
AcDbLine
 10
1.880522
 20
4.717901
 30
0.0
 11
1.880416999999999
 21
4.718007
 31
0.0
  0
LINE
  5
CA
330
53
100
AcDbEntity
 67
     1
  8
1
  6
Continuous
 62
    18
100
AcDbLine
 10
1.880416999999999
 20
4.718007
 30
0.0
 11
1.880416999999999
 21
4.717901
 31
0.0
  0
LINE
  5
CB
330
53
100
AcDbEntity
 67
     1
  8
1
  6
Continuous
 62
    18
100
AcDbLine
 10
1.944081999999999
 20
4.698816
 30
0.0
 11
1.944081999999999
 21
4.703901
 31
0.0
  0
LINE
  5
CC
330
53
100
AcDbEntity
 67
     1
  8
1
  6
Continuous
 62
    18
100
AcDbLine
 10
2.018801999999999
 20
4.679146
 30
0.0
 11
2.018801999999999
 21
4.679901
 31
0.0
  0
LINE
  5
CD
330
53
100
AcDbEntity
 67
     1
  8
1
  6
Continuous
 62
    18
100
AcDbLine
 10
2.040802
 20
4.679901
 30
0.0
 11
2.040802
 21
4.679005
 31
0.0
  0
LINE
  5
CE
330
53
100
AcDbEntity
 67
     1
  8
1
  6
Continuous
 62
    18
100
AcDbLine
 10
1.944388
 20
4.698751999999999
 30
0.0
 11
1.944345
 21
4.703751999999999
 31
0.0
  0
LINE
  5
CF
330
53
100
AcDbEntity
 67
     1
  8
1
  6
Continuous
 62
    18
100
AcDbLine
 10
1.944195999999999
 20
4.703901
 30
0.0
 11
1.944345
 21
4.703751999999999
 31
0.0
  0
LINE
  5
D0
330
53
100
AcDbEntity
 67
     1
  8
1
  6
Continuous
 62
    18
100
AcDbLine
 10
1.944186999999999
 20
4.717901
 30
0.0
 11
1.944186999999999
 21
4.718007
 31
0.0
  0
LINE
  5
D1
330
53
100
AcDbEntity
 67
     1
  8
1
  6
Continuous
 62
    18
100
AcDbLine
 10
1.944081999999999
 20
4.717901
 30
0.0
 11
1.944186999999999
 21
4.718007
 31
0.0
  0
LINE
  5
D2
330
53
100
AcDbEntity
 67
     1
  8
1
  6
Continuous
 62
    18
100
AcDbLine
 10
2.018539
 20
4.679751999999999
 30
0.0
 11
2.018688
 21
4.679901
 31
0.0
  0
LINE
  5
D3
330
53
100
AcDbEntity
 67
     1
  8
1
  6
Continuous
 62
    18
100
AcDbLine
 10
2.018539
 20
4.679751999999999
 30
0.0
 11
2.018527999999999
 21
4.679553
 31
0.0
  0
LINE
  5
D4
330
53
100
AcDbEntity
 67
     1
  8
1
  6
Continuous
 62
    18
100
AcDbLine
 10
2.018801999999999
 20
4.693901
 30
0.0
 11
2.018695999999999
 21
4.694005999999999
 31
0.0
  0
LINE
  5
D5
330
53
100
AcDbEntity
 67
     1
  8
1
  6
Continuous
 62
    18
100
AcDbLine
 10
2.018695999999999
 20
4.694005999999999
 30
0.0
 11
2.018695999999999
 21
4.693901
 31
0.0
  0
LINE
  5
D6
330
53
100
AcDbEntity
 67
     1
  8
1
  6
Continuous
 62
    18
100
AcDbLine
 10
2.04108
 20
4.679406
 30
0.0
 11
2.041065
 21
4.679751999999999
 31
0.0
  0
LINE
  5
D7
330
53
100
AcDbEntity
 67
     1
  8
1
  6
Continuous
 62
    18
100
AcDbLine
 10
2.040916
 20
4.679901
 30
0.0
 11
2.041065
 21
4.679751999999999
 31
0.0
  0
LINE
  5
D8
330
53
100
AcDbEntity
 67
     1
  8
1
  6
Continuous
 62
    18
100
AcDbLine
 10
2.040908
 20
4.693901
 30
0.0
 11
2.040908
 21
4.694005999999999
 31
0.0
  0
LINE
  5
D9
330
53
100
AcDbEntity
 67
     1
  8
1
  6
Continuous
 62
    18
100
AcDbLine
 10
2.040802
 20
4.693901
 30
0.0
 11
2.040908
 21
4.694005999999999
 31
0.0
  0
LINE
  5
DA
330
53
100
AcDbEntity
 67
     1
  8
1
  6
Continuous
 62
    18
100
AcDbLine
 10
2.041065
 20
4.679751999999999
 30
0.0
 11
2.041304
 21
4.679751999999999
 31
0.0
  0
LINE
  5
DB
330
53
100
AcDbEntity
 67
     1
  8
1
  6
Continuous
 62
    18
100
AcDbLine
 10
2.0184
 20
4.679751999999999
 30
0.0
 11
2.018539
 21
4.679751999999999
 31
0.0
  0
LINE
  5
DC
330
53
100
AcDbEntity
 67
     1
  8
1
  6
Continuous
 62
    18
100
AcDbLine
 10
1.944345
 20
4.703751999999999
 30
0.0
 11
1.961304999999999
 21
4.703751999999999
 31
0.0
  0
LINE
  5
DD
330
53
100
AcDbEntity
 67
     1
  8
1
  6
Continuous
 62
    18
100
AcDbLine
 10
1.961375
 20
4.703866
 30
0.0
 11
1.949187
 21
4.703866
 31
0.0
  0
LINE
  5
DE
330
53
100
AcDbEntity
 67
     1
  8
1
  6
Continuous
 62
    18
100
AcDbLine
 10
1.949187
 20
4.703866
 30
0.0
 11
1.944186999999999
 21
4.703908999999999
 31
0.0
  0
LINE
  5
DF
330
53
100
AcDbEntity
 67
     1
  8
1
  6
Continuous
 62
    18
100
AcDbLine
 10
1.858400999999999
 20
4.703751999999999
 30
0.0
 11
1.880259999999999
 21
4.703751999999999
 31
0.0
  0
LINE
  5
E0
330
53
100
AcDbEntity
 67
     1
  8
1
  6
Continuous
 62
    18
100
AcDbLine
 10
1.880416999999999
 20
4.703908999999999
 30
0.0
 11
1.875416999999999
 21
4.703866
 31
0.0
  0
LINE
  5
E1
330
53
100
AcDbEntity
 67
     1
  8
1
  6
Continuous
 62
    18
100
AcDbLine
 10
1.961304
 20
4.718049999999999
 30
0.0
 11
1.949187
 21
4.718049999999999
 31
0.0
  0
LINE
  5
E2
330
53
100
AcDbEntity
 67
     1
  8
1
  6
Continuous
 62
    18
100
AcDbLine
 10
1.949187
 20
4.718049999999999
 30
0.0
 11
1.949187
 21
4.717901
 31
0.0
  0
LINE
  5
E3
330
53
100
AcDbEntity
 67
     1
  8
1
  6
Continuous
 62
    18
100
AcDbLine
 10
1.949187
 20
4.703901
 30
0.0
 11
1.949187
 21
4.703866
 31
0.0
  0
LINE
  5
E4
330
53
100
AcDbEntity
 67
     1
  8
1
  6
Continuous
 62
    18
100
AcDbLine
 10
2.041231999999999
 20
4.694163999999999
 30
0.0
 11
2.018472999999999
 21
4.694163999999999
 31
0.0
  0
LINE
  5
E5
330
53
100
AcDbEntity
 67
     1
  8
1
  6
Continuous
 62
    18
100
AcDbLine
 10
2.018383
 20
4.694021
 30
0.0
 11
2.018695999999999
 21
4.694005999999999
 31
0.0
  0
LINE
  5
E6
330
53
100
AcDbEntity
 67
     1
  8
1
  6
Continuous
 62
    18
100
AcDbLine
 10
2.040908
 20
4.694005999999999
 30
0.0
 11
2.041320999999999
 21
4.694023999999999
 31
0.0
  0
LINE
  5
E7
330
53
100
AcDbEntity
 67
     1
  8
1
  6
Continuous
 62
    18
100
AcDbLine
 10
1.961231999999999
 20
4.718162999999999
 30
0.0
 11
1.938472999999999
 21
4.718162999999999
 31
0.0
  0
LINE
  5
E8
330
53
100
AcDbEntity
 67
     1
  8
1
  6
Continuous
 62
    18
100
AcDbLine
 10
1.944186999999999
 20
4.718007
 30
0.0
 11
1.949187
 21
4.718049999999999
 31
0.0
  0
LINE
  5
E9
330
53
100
AcDbEntity
 67
     1
  8
1
  6
Continuous
 62
    18
100
AcDbLine
 10
1.881231999999999
 20
4.718162999999999
 30
0.0
 11
1.858470999999999
 21
4.718162999999999
 31
0.0
  0
LINE
  5
EA
330
53
100
AcDbEntity
 67
     1
  8
1
  6
Continuous
 62
    18
100
AcDbLine
 10
1.875416999999999
 20
4.718049999999999
 30
0.0
 11
1.880416999999999
 21
4.718007
 31
0.0
  0
LINE
  5
EB
330
53
100
AcDbEntity
 67
     1
  8
1
  6
Continuous
 62
    18
100
AcDbLine
 10
2.037141
 20
4.679901
 30
0.0
 11
2.038291
 21
4.676362999999999
 31
0.0
  0
LINE
  5
EC
330
53
100
AcDbEntity
 67
     1
  8
1
  6
Continuous
 62
    18
100
AcDbLine
 10
1.859972999999999
 20
4.717901
 30
0.0
 11
1.859972999999999
 21
4.703901
 31
0.0
  0
LINE
  5
ED
330
53
100
AcDbEntity
 67
     1
  8
1
  6
Continuous
 62
    18
100
AcDbLine
 10
1.861801999999999
 20
4.703901
 30
0.0
 11
1.860647999999999
 21
4.703901
 31
0.0
  0
LINE
  5
EE
330
53
100
AcDbEntity
 67
     1
  8
1
  6
Continuous
 62
    18
100
AcDbLine
 10
1.860647999999999
 20
4.703901
 30
0.0
 11
1.859972999999999
 21
4.703901
 31
0.0
  0
LINE
  5
EF
330
53
100
AcDbEntity
 67
     1
  8
1
  6
Continuous
 62
    18
100
AcDbLine
 10
1.861801999999999
 20
4.717901
 30
0.0
 11
1.861801999999999
 21
4.703901
 31
0.0
  0
LINE
  5
F0
330
53
100
AcDbEntity
 67
     1
  8
1
  6
Continuous
 62
    18
100
AcDbLine
 10
1.861801999999999
 20
4.717901
 30
0.0
 11
1.860647999999999
 21
4.717901
 31
0.0
  0
LINE
  5
F1
330
53
100
AcDbEntity
 67
     1
  8
1
  6
Continuous
 62
    18
100
AcDbLine
 10
1.860647999999999
 20
4.717901
 30
0.0
 11
1.859972999999999
 21
4.717901
 31
0.0
  0
LINE
  5
F2
330
53
100
AcDbEntity
 67
     1
  8
1
  6
Continuous
 62
    18
100
AcDbLine
 10
1.862802
 20
4.703901
 30
0.0
 11
1.862545
 21
4.703901
 31
0.0
  0
LINE
  5
F3
330
53
100
AcDbEntity
 67
     1
  8
1
  6
Continuous
 62
    18
100
AcDbLine
 10
1.862545
 20
4.703901
 30
0.0
 11
1.861801999999999
 21
4.703901
 31
0.0
  0
LINE
  5
F4
330
53
100
AcDbEntity
 67
     1
  8
1
  6
Continuous
 62
    18
100
AcDbLine
 10
1.862802
 20
4.717901
 30
0.0
 11
1.862545
 21
4.717901
 31
0.0
  0
LINE
  5
F5
330
53
100
AcDbEntity
 67
     1
  8
1
  6
Continuous
 62
    18
100
AcDbLine
 10
1.862545
 20
4.717901
 30
0.0
 11
1.861801999999999
 21
4.717901
 31
0.0
  0
LINE
  5
F6
330
53
100
AcDbEntity
 67
     1
  8
1
  6
Continuous
 62
    18
100
AcDbLine
 10
1.862802
 20
4.703901
 30
0.0
 11
1.862802
 21
4.717901
 31
0.0
  0
LINE
  5
F7
330
53
100
AcDbEntity
 67
     1
  8
1
  6
Continuous
 62
    18
100
AcDbLine
 10
1.876801999999999
 20
4.703901
 30
0.0
 11
1.876801999999999
 21
4.717901
 31
0.0
  0
LINE
  5
F8
330
53
100
AcDbEntity
 67
     1
  8
1
  6
Continuous
 62
    18
100
AcDbLine
 10
1.876801999999999
 20
4.703901
 30
0.0
 11
1.877059
 21
4.703901
 31
0.0
  0
LINE
  5
F9
330
53
100
AcDbEntity
 67
     1
  8
1
  6
Continuous
 62
    18
100
AcDbLine
 10
1.877059
 20
4.703901
 30
0.0
 11
1.877801999999999
 21
4.703901
 31
0.0
  0
LINE
  5
FA
330
53
100
AcDbEntity
 67
     1
  8
1
  6
Continuous
 62
    18
100
AcDbLine
 10
1.877801999999999
 20
4.717901
 30
0.0
 11
1.877801999999999
 21
4.703901
 31
0.0
  0
LINE
  5
FB
330
53
100
AcDbEntity
 67
     1
  8
1
  6
Continuous
 62
    18
100
AcDbLine
 10
1.876801999999999
 20
4.717901
 30
0.0
 11
1.877059
 21
4.717901
 31
0.0
  0
LINE
  5
FC
330
53
100
AcDbEntity
 67
     1
  8
1
  6
Continuous
 62
    18
100
AcDbLine
 10
1.877059
 20
4.717901
 30
0.0
 11
1.877801999999999
 21
4.717901
 31
0.0
  0
LINE
  5
FD
330
53
100
AcDbEntity
 67
     1
  8
1
  6
Continuous
 62
    18
100
AcDbLine
 10
1.879631999999999
 20
4.703901
 30
0.0
 11
1.878956
 21
4.703901
 31
0.0
  0
LINE
  5
FE
330
53
100
AcDbEntity
 67
     1
  8
1
  6
Continuous
 62
    18
100
AcDbLine
 10
1.878956
 20
4.703901
 30
0.0
 11
1.877801999999999
 21
4.703901
 31
0.0
  0
LINE
  5
FF
330
53
100
AcDbEntity
 67
     1
  8
1
  6
Continuous
 62
    18
100
AcDbLine
 10
1.879631999999999
 20
4.717901
 30
0.0
 11
1.879631999999999
 21
4.703901
 31
0.0
  0
LINE
  5
100
330
53
100
AcDbEntity
 67
     1
  8
1
  6
Continuous
 62
    18
100
AcDbLine
 10
1.879631999999999
 20
4.717901
 30
0.0
 11
1.878956
 21
4.717901
 31
0.0
  0
LINE
  5
101
330
53
100
AcDbEntity
 67
     1
  8
1
  6
Continuous
 62
    18
100
AcDbLine
 10
1.878956
 20
4.717901
 30
0.0
 11
1.877801999999999
 21
4.717901
 31
0.0
  0
LINE
  5
102
330
53
100
AcDbEntity
 67
     1
  8
1
  6
Continuous
 62
    18
100
AcDbLine
 10
1.886875
 20
4.703901
 30
0.0
 11
1.885050999999999
 21
4.703901
 31
0.0
  0
LINE
  5
103
330
53
100
AcDbEntity
 67
     1
  8
1
  6
Continuous
 62
    18
100
AcDbLine
 10
1.885050999999999
 20
4.703901
 30
0.0
 11
1.879631999999999
 21
4.703901
 31
0.0
  0
LINE
  5
104
330
53
100
AcDbEntity
 67
     1
  8
1
  6
Continuous
 62
    18
100
AcDbLine
 10
1.886875
 20
4.717901
 30
0.0
 11
1.885050999999999
 21
4.717901
 31
0.0
  0
LINE
  5
105
330
53
100
AcDbEntity
 67
     1
  8
1
  6
Continuous
 62
    18
100
AcDbLine
 10
1.885050999999999
 20
4.717901
 30
0.0
 11
1.879631999999999
 21
4.717901
 31
0.0
  0
LINE
  5
106
330
53
100
AcDbEntity
 67
     1
  8
1
  6
Continuous
 62
    18
100
AcDbLine
 10
1.859972999999999
 20
4.717901
 30
0.0
 11
1.854552999999999
 21
4.717901
 31
0.0
  0
LINE
  5
107
330
53
100
AcDbEntity
 67
     1
  8
1
  6
Continuous
 62
    18
100
AcDbLine
 10
1.854552999999999
 20
4.717901
 30
0.0
 11
1.85273
 21
4.717901
 31
0.0
  0
LINE
  5
108
330
53
100
AcDbEntity
 67
     1
  8
1
  6
Continuous
 62
    18
100
AcDbLine
 10
1.859972999999999
 20
4.703901
 30
0.0
 11
1.854552999999999
 21
4.703901
 31
0.0
  0
LINE
  5
109
330
53
100
AcDbEntity
 67
     1
  8
1
  6
Continuous
 62
    18
100
AcDbLine
 10
1.854552999999999
 20
4.703901
 30
0.0
 11
1.85273
 21
4.703901
 31
0.0
  0
LINE
  5
10A
330
53
100
AcDbEntity
 67
     1
  8
1
  6
Continuous
 62
    18
100
AcDbLine
 10
1.862802
 20
4.717901
 30
0.0
 11
1.865502
 21
4.717901
 31
0.0
  0
LINE
  5
10B
330
53
100
AcDbEntity
 67
     1
  8
1
  6
Continuous
 62
    18
100
AcDbLine
 10
1.874101999999999
 20
4.717901
 30
0.0
 11
1.869801999999999
 21
4.717901
 31
0.0
  0
LINE
  5
10C
330
53
100
AcDbEntity
 67
     1
  8
1
  6
Continuous
 62
    18
100
AcDbLine
 10
1.869801999999999
 20
4.717901
 30
0.0
 11
1.865502
 21
4.717901
 31
0.0
  0
LINE
  5
10D
330
53
100
AcDbEntity
 67
     1
  8
1
  6
Continuous
 62
    18
100
AcDbLine
 10
1.876801999999999
 20
4.717901
 30
0.0
 11
1.874101999999999
 21
4.717901
 31
0.0
  0
LINE
  5
10E
330
53
100
AcDbEntity
 67
     1
  8
1
  6
Continuous
 62
    18
100
AcDbLine
 10
1.876801999999999
 20
4.703901
 30
0.0
 11
1.874101999999999
 21
4.703901
 31
0.0
  0
LINE
  5
10F
330
53
100
AcDbEntity
 67
     1
  8
1
  6
Continuous
 62
    18
100
AcDbLine
 10
1.874101999999999
 20
4.703901
 30
0.0
 11
1.869801999999999
 21
4.703901
 31
0.0
  0
LINE
  5
110
330
53
100
AcDbEntity
 67
     1
  8
1
  6
Continuous
 62
    18
100
AcDbLine
 10
1.869801999999999
 20
4.703901
 30
0.0
 11
1.865502
 21
4.703901
 31
0.0
  0
LINE
  5
111
330
53
100
AcDbEntity
 67
     1
  8
1
  6
Continuous
 62
    18
100
AcDbLine
 10
1.862802
 20
4.703901
 30
0.0
 11
1.865502
 21
4.703901
 31
0.0
  0
LINE
  5
112
330
53
100
AcDbEntity
 67
     1
  8
1
  6
Continuous
 62
    18
100
AcDbLine
 10
1.874101999999999
 20
4.717901
 30
0.0
 11
1.874101999999999
 21
4.703901
 31
0.0
  0
LINE
  5
113
330
53
100
AcDbEntity
 67
     1
  8
1
  6
Continuous
 62
    18
100
AcDbLine
 10
1.865502
 20
4.717901
 30
0.0
 11
1.865502
 21
4.703901
 31
0.0
  0
LINE
  5
114
330
53
100
AcDbEntity
 67
     1
  8
1
  6
Continuous
 62
    18
100
AcDbLine
 10
1.943801999999999
 20
4.700844999999999
 30
0.0
 11
1.944081999999999
 21
4.700844999999999
 31
0.0
  0
LINE
  5
115
330
53
100
AcDbEntity
 67
     1
  8
1
  6
Continuous
 62
    18
100
AcDbLine
 10
1.943801999999999
 20
4.700844999999999
 30
0.0
 11
1.942127999999999
 21
4.700891
 31
0.0
  0
LINE
  5
116
330
53
100
AcDbEntity
 67
     1
  8
1
  6
Continuous
 62
    18
100
AcDbLine
 10
1.942127999999999
 20
4.700891
 30
0.0
 11
1.940647
 21
4.701026
 31
0.0
  0
LINE
  5
117
330
53
100
AcDbEntity
 67
     1
  8
1
  6
Continuous
 62
    18
100
AcDbLine
 10
1.938802
 20
4.703598
 30
0.0
 11
1.938802
 21
4.703146
 31
0.0
  0
LINE
  5
118
330
53
100
AcDbEntity
 67
     1
  8
1
  6
Continuous
 62
    18
100
AcDbLine
 10
1.938802
 20
4.703598
 30
0.0
 11
1.938498
 21
4.703598
 31
0.0
  0
LINE
  5
119
330
53
100
AcDbEntity
 67
     1
  8
1
  6
Continuous
 62
    18
100
AcDbLine
 10
1.956802
 20
4.703901
 30
0.0
 11
1.954101999999999
 21
4.703901
 31
0.0
  0
LINE
  5
11A
330
53
100
AcDbEntity
 67
     1
  8
1
  6
Continuous
 62
    18
100
AcDbLine
 10
1.954101999999999
 20
4.703901
 30
0.0
 11
1.949802
 21
4.703901
 31
0.0
  0
LINE
  5
11B
330
53
100
AcDbEntity
 67
     1
  8
1
  6
Continuous
 62
    18
100
AcDbLine
 10
1.949802
 20
4.703901
 30
0.0
 11
1.945502
 21
4.703901
 31
0.0
  0
LINE
  5
11C
330
53
100
AcDbEntity
 67
     1
  8
1
  6
Continuous
 62
    18
100
AcDbLine
 10
1.942802
 20
4.703901
 30
0.0
 11
1.945502
 21
4.703901
 31
0.0
  0
LINE
  5
11D
330
53
100
AcDbEntity
 67
     1
  8
1
  6
Continuous
 62
    18
100
AcDbLine
 10
1.942802
 20
4.703901
 30
0.0
 11
1.942545999999999
 21
4.703901
 31
0.0
  0
LINE
  5
11E
330
53
100
AcDbEntity
 67
     1
  8
1
  6
Continuous
 62
    18
100
AcDbLine
 10
1.942545999999999
 20
4.703901
 30
0.0
 11
1.941802
 21
4.703901
 31
0.0
  0
LINE
  5
11F
330
53
100
AcDbEntity
 67
     1
  8
1
  6
Continuous
 62
    18
100
AcDbLine
 10
1.941802
 20
4.703901
 30
0.0
 11
1.940647999999999
 21
4.703901
 31
0.0
  0
LINE
  5
120
330
53
100
AcDbEntity
 67
     1
  8
1
  6
Continuous
 62
    18
100
AcDbLine
 10
1.940647999999999
 20
4.703901
 30
0.0
 11
1.939972999999999
 21
4.703901
 31
0.0
  0
LINE
  5
121
330
53
100
AcDbEntity
 67
     1
  8
1
  6
Continuous
 62
    18
100
AcDbLine
 10
1.939972999999999
 20
4.703901
 30
0.0
 11
1.934553
 21
4.703901
 31
0.0
  0
LINE
  5
122
330
53
100
AcDbEntity
 67
     1
  8
1
  6
Continuous
 62
    18
100
AcDbLine
 10
1.934553
 20
4.703901
 30
0.0
 11
1.932729999999999
 21
4.703901
 31
0.0
  0
LINE
  5
123
330
53
100
AcDbEntity
 67
     1
  8
1
  6
Continuous
 62
    18
100
AcDbLine
 10
1.966874
 20
4.703901
 30
0.0
 11
1.965050999999999
 21
4.703901
 31
0.0
  0
LINE
  5
124
330
53
100
AcDbEntity
 67
     1
  8
1
  6
Continuous
 62
    18
100
AcDbLine
 10
1.965050999999999
 20
4.703901
 30
0.0
 11
1.959632
 21
4.703901
 31
0.0
  0
LINE
  5
125
330
53
100
AcDbEntity
 67
     1
  8
1
  6
Continuous
 62
    18
100
AcDbLine
 10
1.959632
 20
4.703901
 30
0.0
 11
1.958956
 21
4.703901
 31
0.0
  0
LINE
  5
126
330
53
100
AcDbEntity
 67
     1
  8
1
  6
Continuous
 62
    18
100
AcDbLine
 10
1.958956
 20
4.703901
 30
0.0
 11
1.957802
 21
4.703901
 31
0.0
  0
LINE
  5
127
330
53
100
AcDbEntity
 67
     1
  8
1
  6
Continuous
 62
    18
100
AcDbLine
 10
1.956802
 20
4.703901
 30
0.0
 11
1.957059
 21
4.703901
 31
0.0
  0
LINE
  5
128
330
53
100
AcDbEntity
 67
     1
  8
1
  6
Continuous
 62
    18
100
AcDbLine
 10
1.957059
 20
4.703901
 30
0.0
 11
1.957802
 21
4.703901
 31
0.0
  0
LINE
  5
129
330
53
100
AcDbEntity
 67
     1
  8
1
  6
Continuous
 62
    18
100
AcDbLine
 10
1.942802
 20
4.717901
 30
0.0
 11
1.945502
 21
4.717901
 31
0.0
  0
LINE
  5
12A
330
53
100
AcDbEntity
 67
     1
  8
1
  6
Continuous
 62
    18
100
AcDbLine
 10
1.954101999999999
 20
4.717901
 30
0.0
 11
1.949802
 21
4.717901
 31
0.0
  0
LINE
  5
12B
330
53
100
AcDbEntity
 67
     1
  8
1
  6
Continuous
 62
    18
100
AcDbLine
 10
1.949802
 20
4.717901
 30
0.0
 11
1.945502
 21
4.717901
 31
0.0
  0
LINE
  5
12C
330
53
100
AcDbEntity
 67
     1
  8
1
  6
Continuous
 62
    18
100
AcDbLine
 10
1.956802
 20
4.717901
 30
0.0
 11
1.954101999999999
 21
4.717901
 31
0.0
  0
LINE
  5
12D
330
53
100
AcDbEntity
 67
     1
  8
1
  6
Continuous
 62
    18
100
AcDbLine
 10
1.956802
 20
4.717901
 30
0.0
 11
1.957059
 21
4.717901
 31
0.0
  0
LINE
  5
12E
330
53
100
AcDbEntity
 67
     1
  8
1
  6
Continuous
 62
    18
100
AcDbLine
 10
1.957059
 20
4.717901
 30
0.0
 11
1.957802
 21
4.717901
 31
0.0
  0
LINE
  5
12F
330
53
100
AcDbEntity
 67
     1
  8
1
  6
Continuous
 62
    18
100
AcDbLine
 10
1.959632
 20
4.717901
 30
0.0
 11
1.958956
 21
4.717901
 31
0.0
  0
LINE
  5
130
330
53
100
AcDbEntity
 67
     1
  8
1
  6
Continuous
 62
    18
100
AcDbLine
 10
1.958956
 20
4.717901
 30
0.0
 11
1.957802
 21
4.717901
 31
0.0
  0
LINE
  5
131
330
53
100
AcDbEntity
 67
     1
  8
1
  6
Continuous
 62
    18
100
AcDbLine
 10
1.966874
 20
4.717901
 30
0.0
 11
1.965050999999999
 21
4.717901
 31
0.0
  0
LINE
  5
132
330
53
100
AcDbEntity
 67
     1
  8
1
  6
Continuous
 62
    18
100
AcDbLine
 10
1.965050999999999
 20
4.717901
 30
0.0
 11
1.959632
 21
4.717901
 31
0.0
  0
LINE
  5
133
330
53
100
AcDbEntity
 67
     1
  8
1
  6
Continuous
 62
    18
100
AcDbLine
 10
1.939972999999999
 20
4.717901
 30
0.0
 11
1.934553
 21
4.717901
 31
0.0
  0
LINE
  5
134
330
53
100
AcDbEntity
 67
     1
  8
1
  6
Continuous
 62
    18
100
AcDbLine
 10
1.934553
 20
4.717901
 30
0.0
 11
1.932729999999999
 21
4.717901
 31
0.0
  0
LINE
  5
135
330
53
100
AcDbEntity
 67
     1
  8
1
  6
Continuous
 62
    18
100
AcDbLine
 10
1.941802
 20
4.717901
 30
0.0
 11
1.940647999999999
 21
4.717901
 31
0.0
  0
LINE
  5
136
330
53
100
AcDbEntity
 67
     1
  8
1
  6
Continuous
 62
    18
100
AcDbLine
 10
1.940647999999999
 20
4.717901
 30
0.0
 11
1.939972999999999
 21
4.717901
 31
0.0
  0
LINE
  5
137
330
53
100
AcDbEntity
 67
     1
  8
1
  6
Continuous
 62
    18
100
AcDbLine
 10
1.942802
 20
4.717901
 30
0.0
 11
1.942545999999999
 21
4.717901
 31
0.0
  0
LINE
  5
138
330
53
100
AcDbEntity
 67
     1
  8
1
  6
Continuous
 62
    18
100
AcDbLine
 10
1.942545999999999
 20
4.717901
 30
0.0
 11
1.941802
 21
4.717901
 31
0.0
  0
LINE
  5
139
330
53
100
AcDbEntity
 67
     1
  8
1
  6
Continuous
 62
    18
100
AcDbLine
 10
1.942802
 20
4.703901
 30
0.0
 11
1.942802
 21
4.717901
 31
0.0
  0
LINE
  5
13A
330
53
100
AcDbEntity
 67
     1
  8
1
  6
Continuous
 62
    18
100
AcDbLine
 10
1.956802
 20
4.703901
 30
0.0
 11
1.956802
 21
4.717901
 31
0.0
  0
LINE
  5
13B
330
53
100
AcDbEntity
 67
     1
  8
1
  6
Continuous
 62
    18
100
AcDbLine
 10
1.941802
 20
4.717901
 30
0.0
 11
1.941802
 21
4.703901
 31
0.0
  0
LINE
  5
13C
330
53
100
AcDbEntity
 67
     1
  8
1
  6
Continuous
 62
    18
100
AcDbLine
 10
1.939972999999999
 20
4.717901
 30
0.0
 11
1.939972999999999
 21
4.703901
 31
0.0
  0
LINE
  5
13D
330
53
100
AcDbEntity
 67
     1
  8
1
  6
Continuous
 62
    18
100
AcDbLine
 10
1.959632
 20
4.717901
 30
0.0
 11
1.959632
 21
4.703901
 31
0.0
  0
LINE
  5
13E
330
53
100
AcDbEntity
 67
     1
  8
1
  6
Continuous
 62
    18
100
AcDbLine
 10
1.957802
 20
4.717901
 30
0.0
 11
1.957802
 21
4.703901
 31
0.0
  0
LINE
  5
13F
330
53
100
AcDbEntity
 67
     1
  8
1
  6
Continuous
 62
    18
100
AcDbLine
 10
1.938802
 20
4.703901
 30
0.0
 11
1.938802
 21
4.703825
 31
0.0
  0
LINE
  5
140
330
53
100
AcDbEntity
 67
     1
  8
1
  6
Continuous
 62
    18
100
AcDbLine
 10
1.938802
 20
4.703825
 30
0.0
 11
1.938802
 21
4.703598
 31
0.0
  0
LINE
  5
141
330
53
100
AcDbEntity
 67
     1
  8
1
  6
Continuous
 62
    18
100
AcDbLine
 10
1.943801999999999
 20
4.703901
 30
0.0
 11
1.943801999999999
 21
4.700844999999999
 31
0.0
  0
LINE
  5
142
330
53
100
AcDbEntity
 67
     1
  8
1
  6
Continuous
 62
    18
100
AcDbLine
 10
1.945502
 20
4.717901
 30
0.0
 11
1.945502
 21
4.703901
 31
0.0
  0
LINE
  5
143
330
53
100
AcDbEntity
 67
     1
  8
1
  6
Continuous
 62
    18
100
AcDbLine
 10
1.954101999999999
 20
4.717901
 30
0.0
 11
1.954101999999999
 21
4.703901
 31
0.0
  0
LINE
  5
144
330
53
100
AcDbEntity
 67
     1
  8
1
  6
Continuous
 62
    18
100
AcDbLine
 10
1.980022999999999
 20
4.618901
 30
0.0
 11
1.980697999999999
 21
4.618901
 31
0.0
  0
LINE
  5
145
330
53
100
AcDbEntity
 67
     1
  8
1
  6
Continuous
 62
    18
100
AcDbLine
 10
1.980697999999999
 20
4.618901
 30
0.0
 11
1.981851999999999
 21
4.618901
 31
0.0
  0
LINE
  5
146
330
53
100
AcDbEntity
 67
     1
  8
1
  6
Continuous
 62
    18
100
AcDbLine
 10
1.981851999999999
 20
4.632901
 30
0.0
 11
1.981851999999999
 21
4.618901
 31
0.0
  0
LINE
  5
147
330
53
100
AcDbEntity
 67
     1
  8
1
  6
Continuous
 62
    18
100
AcDbLine
 10
1.980022999999999
 20
4.632901
 30
0.0
 11
1.980697999999999
 21
4.632901
 31
0.0
  0
LINE
  5
148
330
53
100
AcDbEntity
 67
     1
  8
1
  6
Continuous
 62
    18
100
AcDbLine
 10
1.980697999999999
 20
4.632901
 30
0.0
 11
1.981851999999999
 21
4.632901
 31
0.0
  0
LINE
  5
149
330
53
100
AcDbEntity
 67
     1
  8
1
  6
Continuous
 62
    18
100
AcDbLine
 10
1.980022999999999
 20
4.632901
 30
0.0
 11
1.980022999999999
 21
4.618901
 31
0.0
  0
LINE
  5
14A
330
53
100
AcDbEntity
 67
     1
  8
1
  6
Continuous
 62
    18
100
AcDbLine
 10
1.97278
 20
4.618901
 30
0.0
 11
1.974604
 21
4.618901
 31
0.0
  0
LINE
  5
14B
330
53
100
AcDbEntity
 67
     1
  8
1
  6
Continuous
 62
    18
100
AcDbLine
 10
1.974604
 20
4.618901
 30
0.0
 11
1.980022999999999
 21
4.618901
 31
0.0
  0
LINE
  5
14C
330
53
100
AcDbEntity
 67
     1
  8
1
  6
Continuous
 62
    18
100
AcDbLine
 10
1.97278
 20
4.632901
 30
0.0
 11
1.974604
 21
4.632901
 31
0.0
  0
LINE
  5
14D
330
53
100
AcDbEntity
 67
     1
  8
1
  6
Continuous
 62
    18
100
AcDbLine
 10
1.974604
 20
4.632901
 30
0.0
 11
1.980022999999999
 21
4.632901
 31
0.0
  0
LINE
  5
14E
330
53
100
AcDbEntity
 67
     1
  8
1
  6
Continuous
 62
    18
100
AcDbLine
 10
1.999681999999999
 20
4.618901
 30
0.0
 11
2.005100999999999
 21
4.618901
 31
0.0
  0
LINE
  5
14F
330
53
100
AcDbEntity
 67
     1
  8
1
  6
Continuous
 62
    18
100
AcDbLine
 10
2.005100999999999
 20
4.618901
 30
0.0
 11
2.006924999999999
 21
4.618901
 31
0.0
  0
LINE
  5
150
330
53
100
AcDbEntity
 67
     1
  8
1
  6
Continuous
 62
    18
100
AcDbLine
 10
1.999681999999999
 20
4.632901
 30
0.0
 11
2.005100999999999
 21
4.632901
 31
0.0
  0
LINE
  5
151
330
53
100
AcDbEntity
 67
     1
  8
1
  6
Continuous
 62
    18
100
AcDbLine
 10
2.005100999999999
 20
4.632901
 30
0.0
 11
2.006924999999999
 21
4.632901
 31
0.0
  0
LINE
  5
152
330
53
100
AcDbEntity
 67
     1
  8
1
  6
Continuous
 62
    18
100
AcDbLine
 10
1.999681999999999
 20
4.632901
 30
0.0
 11
1.999681999999999
 21
4.618901
 31
0.0
  0
LINE
  5
153
330
53
100
AcDbEntity
 67
     1
  8
1
  6
Continuous
 62
    18
100
AcDbLine
 10
1.997851999999999
 20
4.618901
 30
0.0
 11
1.999006999999999
 21
4.618901
 31
0.0
  0
LINE
  5
154
330
53
100
AcDbEntity
 67
     1
  8
1
  6
Continuous
 62
    18
100
AcDbLine
 10
1.999006999999999
 20
4.618901
 30
0.0
 11
1.999681999999999
 21
4.618901
 31
0.0
  0
LINE
  5
155
330
53
100
AcDbEntity
 67
     1
  8
1
  6
Continuous
 62
    18
100
AcDbLine
 10
1.997851999999999
 20
4.632901
 30
0.0
 11
1.999006999999999
 21
4.632901
 31
0.0
  0
LINE
  5
156
330
53
100
AcDbEntity
 67
     1
  8
1
  6
Continuous
 62
    18
100
AcDbLine
 10
1.999006999999999
 20
4.632901
 30
0.0
 11
1.999681999999999
 21
4.632901
 31
0.0
  0
LINE
  5
157
330
53
100
AcDbEntity
 67
     1
  8
1
  6
Continuous
 62
    18
100
AcDbLine
 10
1.997851999999999
 20
4.632901
 30
0.0
 11
1.997851999999999
 21
4.618901
 31
0.0
  0
LINE
  5
158
330
53
100
AcDbEntity
 67
     1
  8
1
  6
Continuous
 62
    18
100
AcDbLine
 10
1.982852
 20
4.618901
 30
0.0
 11
1.982595999999999
 21
4.618901
 31
0.0
  0
LINE
  5
159
330
53
100
AcDbEntity
 67
     1
  8
1
  6
Continuous
 62
    18
100
AcDbLine
 10
1.982595999999999
 20
4.618901
 30
0.0
 11
1.981851999999999
 21
4.618901
 31
0.0
  0
LINE
  5
15A
330
53
100
AcDbEntity
 67
     1
  8
1
  6
Continuous
 62
    18
100
AcDbLine
 10
1.982852
 20
4.632901
 30
0.0
 11
1.982595999999999
 21
4.632901
 31
0.0
  0
LINE
  5
15B
330
53
100
AcDbEntity
 67
     1
  8
1
  6
Continuous
 62
    18
100
AcDbLine
 10
1.982595999999999
 20
4.632901
 30
0.0
 11
1.981851999999999
 21
4.632901
 31
0.0
  0
LINE
  5
15C
330
53
100
AcDbEntity
 67
     1
  8
1
  6
Continuous
 62
    18
100
AcDbLine
 10
1.996852
 20
4.618901
 30
0.0
 11
1.997109
 21
4.618901
 31
0.0
  0
LINE
  5
15D
330
53
100
AcDbEntity
 67
     1
  8
1
  6
Continuous
 62
    18
100
AcDbLine
 10
1.997109
 20
4.618901
 30
0.0
 11
1.997851999999999
 21
4.618901
 31
0.0
  0
LINE
  5
15E
330
53
100
AcDbEntity
 67
     1
  8
1
  6
Continuous
 62
    18
100
AcDbLine
 10
1.996852
 20
4.632901
 30
0.0
 11
1.997109
 21
4.632901
 31
0.0
  0
LINE
  5
15F
330
53
100
AcDbEntity
 67
     1
  8
1
  6
Continuous
 62
    18
100
AcDbLine
 10
1.997109
 20
4.632901
 30
0.0
 11
1.997851999999999
 21
4.632901
 31
0.0
  0
LINE
  5
160
330
53
100
AcDbEntity
 67
     1
  8
1
  6
Continuous
 62
    18
100
AcDbLine
 10
1.996852
 20
4.618901
 30
0.0
 11
1.996852
 21
4.632901
 31
0.0
  0
LINE
  5
161
330
53
100
AcDbEntity
 67
     1
  8
1
  6
Continuous
 62
    18
100
AcDbLine
 10
1.982852
 20
4.618901
 30
0.0
 11
1.982852
 21
4.632901
 31
0.0
  0
LINE
  5
162
330
53
100
AcDbEntity
 67
     1
  8
1
  6
Continuous
 62
    18
100
AcDbLine
 10
1.982852
 20
4.632901
 30
0.0
 11
1.985552
 21
4.632901
 31
0.0
  0
LINE
  5
163
330
53
100
AcDbEntity
 67
     1
  8
1
  6
Continuous
 62
    18
100
AcDbLine
 10
1.994152999999999
 20
4.632901
 30
0.0
 11
1.989851999999999
 21
4.632901
 31
0.0
  0
LINE
  5
164
330
53
100
AcDbEntity
 67
     1
  8
1
  6
Continuous
 62
    18
100
AcDbLine
 10
1.989851999999999
 20
4.632901
 30
0.0
 11
1.985552
 21
4.632901
 31
0.0
  0
LINE
  5
165
330
53
100
AcDbEntity
 67
     1
  8
1
  6
Continuous
 62
    18
100
AcDbLine
 10
1.996852
 20
4.632901
 30
0.0
 11
1.994152999999999
 21
4.632901
 31
0.0
  0
LINE
  5
166
330
53
100
AcDbEntity
 67
     1
  8
1
  6
Continuous
 62
    18
100
AcDbLine
 10
1.996852
 20
4.618901
 30
0.0
 11
1.994152999999999
 21
4.618901
 31
0.0
  0
LINE
  5
167
330
53
100
AcDbEntity
 67
     1
  8
1
  6
Continuous
 62
    18
100
AcDbLine
 10
1.994152999999999
 20
4.618901
 30
0.0
 11
1.989851999999999
 21
4.618901
 31
0.0
  0
LINE
  5
168
330
53
100
AcDbEntity
 67
     1
  8
1
  6
Continuous
 62
    18
100
AcDbLine
 10
1.989851999999999
 20
4.618901
 30
0.0
 11
1.985552
 21
4.618901
 31
0.0
  0
LINE
  5
169
330
53
100
AcDbEntity
 67
     1
  8
1
  6
Continuous
 62
    18
100
AcDbLine
 10
1.982852
 20
4.618901
 30
0.0
 11
1.985552
 21
4.618901
 31
0.0
  0
LINE
  5
16A
330
53
100
AcDbEntity
 67
     1
  8
1
  6
Continuous
 62
    18
100
AcDbLine
 10
1.994152999999999
 20
4.632901
 30
0.0
 11
1.994152999999999
 21
4.618901
 31
0.0
  0
LINE
  5
16B
330
53
100
AcDbEntity
 67
     1
  8
1
  6
Continuous
 62
    18
100
AcDbLine
 10
1.985552
 20
4.632901
 30
0.0
 11
1.985552
 21
4.618901
 31
0.0
  0
LINE
  5
16C
330
53
100
AcDbEntity
 67
     1
  8
1
  6
Continuous
 62
    18
100
AcDbLine
 10
1.916852
 20
4.618901
 30
0.0
 11
1.914152999999999
 21
4.618901
 31
0.0
  0
LINE
  5
16D
330
53
100
AcDbEntity
 67
     1
  8
1
  6
Continuous
 62
    18
100
AcDbLine
 10
1.914152999999999
 20
4.618901
 30
0.0
 11
1.909852
 21
4.618901
 31
0.0
  0
LINE
  5
16E
330
53
100
AcDbEntity
 67
     1
  8
1
  6
Continuous
 62
    18
100
AcDbLine
 10
1.909852
 20
4.618901
 30
0.0
 11
1.905552
 21
4.618901
 31
0.0
  0
LINE
  5
16F
330
53
100
AcDbEntity
 67
     1
  8
1
  6
Continuous
 62
    18
100
AcDbLine
 10
1.902852
 20
4.618901
 30
0.0
 11
1.905552
 21
4.618901
 31
0.0
  0
LINE
  5
170
330
53
100
AcDbEntity
 67
     1
  8
1
  6
Continuous
 62
    18
100
AcDbLine
 10
1.902852
 20
4.618901
 30
0.0
 11
1.902595999999999
 21
4.618901
 31
0.0
  0
LINE
  5
171
330
53
100
AcDbEntity
 67
     1
  8
1
  6
Continuous
 62
    18
100
AcDbLine
 10
1.902595999999999
 20
4.618901
 30
0.0
 11
1.901852
 21
4.618901
 31
0.0
  0
LINE
  5
172
330
53
100
AcDbEntity
 67
     1
  8
1
  6
Continuous
 62
    18
100
AcDbLine
 10
1.900023
 20
4.618901
 30
0.0
 11
1.900698
 21
4.618901
 31
0.0
  0
LINE
  5
173
330
53
100
AcDbEntity
 67
     1
  8
1
  6
Continuous
 62
    18
100
AcDbLine
 10
1.900698
 20
4.618901
 30
0.0
 11
1.901852
 21
4.618901
 31
0.0
  0
LINE
  5
174
330
53
100
AcDbEntity
 67
     1
  8
1
  6
Continuous
 62
    18
100
AcDbLine
 10
1.892779999999999
 20
4.618901
 30
0.0
 11
1.894604
 21
4.618901
 31
0.0
  0
LINE
  5
175
330
53
100
AcDbEntity
 67
     1
  8
1
  6
Continuous
 62
    18
100
AcDbLine
 10
1.894604
 20
4.618901
 30
0.0
 11
1.900023
 21
4.618901
 31
0.0
  0
LINE
  5
176
330
53
100
AcDbEntity
 67
     1
  8
1
  6
Continuous
 62
    18
100
AcDbLine
 10
1.919681999999999
 20
4.618901
 30
0.0
 11
1.925100999999999
 21
4.618901
 31
0.0
  0
LINE
  5
177
330
53
100
AcDbEntity
 67
     1
  8
1
  6
Continuous
 62
    18
100
AcDbLine
 10
1.925100999999999
 20
4.618901
 30
0.0
 11
1.926924999999999
 21
4.618901
 31
0.0
  0
LINE
  5
178
330
53
100
AcDbEntity
 67
     1
  8
1
  6
Continuous
 62
    18
100
AcDbLine
 10
1.917852
 20
4.618901
 30
0.0
 11
1.919006999999999
 21
4.618901
 31
0.0
  0
LINE
  5
179
330
53
100
AcDbEntity
 67
     1
  8
1
  6
Continuous
 62
    18
100
AcDbLine
 10
1.919006999999999
 20
4.618901
 30
0.0
 11
1.919681999999999
 21
4.618901
 31
0.0
  0
LINE
  5
17A
330
53
100
AcDbEntity
 67
     1
  8
1
  6
Continuous
 62
    18
100
AcDbLine
 10
1.916852
 20
4.618901
 30
0.0
 11
1.917108999999999
 21
4.618901
 31
0.0
  0
LINE
  5
17B
330
53
100
AcDbEntity
 67
     1
  8
1
  6
Continuous
 62
    18
100
AcDbLine
 10
1.917108999999999
 20
4.618901
 30
0.0
 11
1.917852
 21
4.618901
 31
0.0
  0
LINE
  5
17C
330
53
100
AcDbEntity
 67
     1
  8
1
  6
Continuous
 62
    18
100
AcDbLine
 10
1.902852
 20
4.632901
 30
0.0
 11
1.905552
 21
4.632901
 31
0.0
  0
LINE
  5
17D
330
53
100
AcDbEntity
 67
     1
  8
1
  6
Continuous
 62
    18
100
AcDbLine
 10
1.914152999999999
 20
4.632901
 30
0.0
 11
1.909852
 21
4.632901
 31
0.0
  0
LINE
  5
17E
330
53
100
AcDbEntity
 67
     1
  8
1
  6
Continuous
 62
    18
100
AcDbLine
 10
1.909852
 20
4.632901
 30
0.0
 11
1.905552
 21
4.632901
 31
0.0
  0
LINE
  5
17F
330
53
100
AcDbEntity
 67
     1
  8
1
  6
Continuous
 62
    18
100
AcDbLine
 10
1.916852
 20
4.632901
 30
0.0
 11
1.914152999999999
 21
4.632901
 31
0.0
  0
LINE
  5
180
330
53
100
AcDbEntity
 67
     1
  8
1
  6
Continuous
 62
    18
100
AcDbLine
 10
1.916852
 20
4.632901
 30
0.0
 11
1.917108999999999
 21
4.632901
 31
0.0
  0
LINE
  5
181
330
53
100
AcDbEntity
 67
     1
  8
1
  6
Continuous
 62
    18
100
AcDbLine
 10
1.917108999999999
 20
4.632901
 30
0.0
 11
1.917852
 21
4.632901
 31
0.0
  0
LINE
  5
182
330
53
100
AcDbEntity
 67
     1
  8
1
  6
Continuous
 62
    18
100
AcDbLine
 10
1.917852
 20
4.632901
 30
0.0
 11
1.919006999999999
 21
4.632901
 31
0.0
  0
LINE
  5
183
330
53
100
AcDbEntity
 67
     1
  8
1
  6
Continuous
 62
    18
100
AcDbLine
 10
1.919006999999999
 20
4.632901
 30
0.0
 11
1.919681999999999
 21
4.632901
 31
0.0
  0
LINE
  5
184
330
53
100
AcDbEntity
 67
     1
  8
1
  6
Continuous
 62
    18
100
AcDbLine
 10
1.919681999999999
 20
4.632901
 30
0.0
 11
1.925100999999999
 21
4.632901
 31
0.0
  0
LINE
  5
185
330
53
100
AcDbEntity
 67
     1
  8
1
  6
Continuous
 62
    18
100
AcDbLine
 10
1.925100999999999
 20
4.632901
 30
0.0
 11
1.926924999999999
 21
4.632901
 31
0.0
  0
LINE
  5
186
330
53
100
AcDbEntity
 67
     1
  8
1
  6
Continuous
 62
    18
100
AcDbLine
 10
1.892779999999999
 20
4.632901
 30
0.0
 11
1.894604
 21
4.632901
 31
0.0
  0
LINE
  5
187
330
53
100
AcDbEntity
 67
     1
  8
1
  6
Continuous
 62
    18
100
AcDbLine
 10
1.894604
 20
4.632901
 30
0.0
 11
1.900023
 21
4.632901
 31
0.0
  0
LINE
  5
188
330
53
100
AcDbEntity
 67
     1
  8
1
  6
Continuous
 62
    18
100
AcDbLine
 10
1.900023
 20
4.632901
 30
0.0
 11
1.900698
 21
4.632901
 31
0.0
  0
LINE
  5
189
330
53
100
AcDbEntity
 67
     1
  8
1
  6
Continuous
 62
    18
100
AcDbLine
 10
1.900698
 20
4.632901
 30
0.0
 11
1.901852
 21
4.632901
 31
0.0
  0
LINE
  5
18A
330
53
100
AcDbEntity
 67
     1
  8
1
  6
Continuous
 62
    18
100
AcDbLine
 10
1.902852
 20
4.632901
 30
0.0
 11
1.902595999999999
 21
4.632901
 31
0.0
  0
LINE
  5
18B
330
53
100
AcDbEntity
 67
     1
  8
1
  6
Continuous
 62
    18
100
AcDbLine
 10
1.902595999999999
 20
4.632901
 30
0.0
 11
1.901852
 21
4.632901
 31
0.0
  0
LINE
  5
18C
330
53
100
AcDbEntity
 67
     1
  8
1
  6
Continuous
 62
    18
100
AcDbLine
 10
1.902852
 20
4.618901
 30
0.0
 11
1.902852
 21
4.632901
 31
0.0
  0
LINE
  5
18D
330
53
100
AcDbEntity
 67
     1
  8
1
  6
Continuous
 62
    18
100
AcDbLine
 10
1.916852
 20
4.618901
 30
0.0
 11
1.916852
 21
4.632901
 31
0.0
  0
LINE
  5
18E
330
53
100
AcDbEntity
 67
     1
  8
1
  6
Continuous
 62
    18
100
AcDbLine
 10
1.901852
 20
4.632901
 30
0.0
 11
1.901852
 21
4.618901
 31
0.0
  0
LINE
  5
18F
330
53
100
AcDbEntity
 67
     1
  8
1
  6
Continuous
 62
    18
100
AcDbLine
 10
1.900023
 20
4.632901
 30
0.0
 11
1.900023
 21
4.618901
 31
0.0
  0
LINE
  5
190
330
53
100
AcDbEntity
 67
     1
  8
1
  6
Continuous
 62
    18
100
AcDbLine
 10
1.919681999999999
 20
4.632901
 30
0.0
 11
1.919681999999999
 21
4.618901
 31
0.0
  0
LINE
  5
191
330
53
100
AcDbEntity
 67
     1
  8
1
  6
Continuous
 62
    18
100
AcDbLine
 10
1.917852
 20
4.632901
 30
0.0
 11
1.917852
 21
4.618901
 31
0.0
  0
LINE
  5
192
330
53
100
AcDbEntity
 67
     1
  8
1
  6
Continuous
 62
    18
100
AcDbLine
 10
1.914152999999999
 20
4.632901
 30
0.0
 11
1.914152999999999
 21
4.618901
 31
0.0
  0
LINE
  5
193
330
53
100
AcDbEntity
 67
     1
  8
1
  6
Continuous
 62
    18
100
AcDbLine
 10
1.905552
 20
4.632901
 30
0.0
 11
1.905552
 21
4.618901
 31
0.0
  0
LINE
  5
194
330
53
100
AcDbEntity
 67
     1
  8
1
  6
Continuous
 62
    18
100
AcDbLine
 10
1.978658
 20
4.618615
 30
0.0
 11
1.978650999999999
 21
4.618401
 31
0.0
  0
LINE
  5
195
330
53
100
AcDbEntity
 67
     1
  8
1
  6
Continuous
 62
    18
100
AcDbLine
 10
1.915988999999999
 20
4.636900999999999
 30
0.0
 11
1.915545999999999
 21
4.636900999999999
 31
0.0
  0
LINE
  5
196
330
53
100
AcDbEntity
 67
     1
  8
1
  6
Continuous
 62
    18
100
AcDbLine
 10
1.996572
 20
4.613191999999999
 30
0.0
 11
1.983134999999999
 21
4.613191999999999
 31
0.0
  0
LINE
  5
197
330
53
100
AcDbEntity
 67
     1
  8
1
  6
Continuous
 62
    18
100
AcDbLine
 10
1.916570999999999
 20
4.613191999999999
 30
0.0
 11
1.903134
 21
4.613191999999999
 31
0.0
  0
LINE
  5
198
330
53
100
AcDbEntity
 67
     1
  8
1
  6
Continuous
 62
    18
100
AcDbLine
 10
1.90514
 20
4.637551999999999
 30
0.0
 11
1.910336999999999
 21
4.637551999999999
 31
0.0
  0
LINE
  5
199
330
53
100
AcDbEntity
 67
     1
  8
1
  6
Continuous
 62
    18
100
AcDbLine
 10
1.910336999999999
 20
4.637551999999999
 30
0.0
 11
1.910336999999999
 21
4.638391999999999
 31
0.0
  0
LINE
  5
19A
330
53
100
AcDbEntity
 67
     1
  8
1
  6
Continuous
 62
    18
100
AcDbLine
 10
1.835734
 20
4.637749999999999
 30
0.0
 11
1.82397
 21
4.637749999999999
 31
0.0
  0
LINE
  5
19B
330
53
100
AcDbEntity
 67
     1
  8
1
  6
Continuous
 62
    18
100
AcDbLine
 10
1.977345
 20
4.618401
 30
0.0
 11
1.978436999999999
 21
4.618401
 31
0.0
  0
LINE
  5
19C
330
53
100
AcDbEntity
 67
     1
  8
1
  6
Continuous
 62
    18
100
AcDbLine
 10
1.978436999999999
 20
4.618401
 30
0.0
 11
1.978658
 21
4.618401
 31
0.0
  0
LINE
  5
19D
330
53
100
AcDbEntity
 67
     1
  8
1
  6
Continuous
 62
    18
100
AcDbLine
 10
1.915766999999999
 20
4.618401
 30
0.0
 11
1.921609
 21
4.618401
 31
0.0
  0
LINE
  5
19E
330
53
100
AcDbEntity
 67
     1
  8
1
  6
Continuous
 62
    18
100
AcDbLine
 10
1.841089
 20
4.657383999999999
 30
0.0
 11
1.841079999999999
 21
4.656901
 31
0.0
  0
LINE
  5
19F
330
53
100
AcDbEntity
 67
     1
  8
1
  6
Continuous
 62
    18
100
AcDbLine
 10
1.818524
 20
4.656901
 30
0.0
 11
1.818518
 21
4.657235
 31
0.0
  0
LINE
  5
1A0
330
53
100
AcDbEntity
 67
     1
  8
1
  6
Continuous
 62
    18
100
AcDbLine
 10
1.915545999999999
 20
4.618401
 30
0.0
 11
1.915766999999999
 21
4.618401
 31
0.0
  0
LINE
  5
1A1
330
53
100
AcDbEntity
 67
     1
  8
1
  6
Continuous
 62
    18
100
AcDbLine
 10
1.915766999999999
 20
4.618401
 30
0.0
 11
1.915758
 21
4.618901
 31
0.0
  0
LINE
  5
1A2
330
53
100
AcDbEntity
 67
     1
  8
1
  6
Continuous
 62
    18
100
AcDbLine
 10
1.915545999999999
 20
4.618401
 30
0.0
 11
1.915545999999999
 21
4.618901
 31
0.0
  0
LINE
  5
1A3
330
53
100
AcDbEntity
 67
     1
  8
1
  6
Continuous
 62
    18
100
AcDbLine
 10
1.915545999999999
 20
4.632901
 30
0.0
 11
1.915545999999999
 21
4.637141999999999
 31
0.0
  0
LINE
  5
1A4
330
53
100
AcDbEntity
 67
     1
  8
1
  6
Continuous
 62
    18
100
AcDbLine
 10
1.818402
 20
4.64275
 30
0.0
 11
1.841302999999999
 21
4.64275
 31
0.0
  0
LINE
  5
1A5
330
53
100
AcDbEntity
 67
     1
  8
1
  6
Continuous
 62
    18
100
AcDbLine
 10
1.898072999999999
 20
4.618305
 30
0.0
 11
1.910493999999999
 21
4.618305
 31
0.0
  0
LINE
  5
1A6
330
53
100
AcDbEntity
 67
     1
  8
1
  6
Continuous
 62
    18
100
AcDbLine
 10
1.910493999999999
 20
4.618305
 30
0.0
 11
1.910493999999999
 21
4.618901
 31
0.0
  0
LINE
  5
1A7
330
53
100
AcDbEntity
 67
     1
  8
1
  6
Continuous
 62
    18
100
AcDbLine
 10
1.915493999999999
 20
4.618348999999999
 30
0.0
 11
1.910493999999999
 21
4.618305
 31
0.0
  0
LINE
  5
1A8
330
53
100
AcDbEntity
 67
     1
  8
1
  6
Continuous
 62
    18
100
AcDbLine
 10
1.915493999999999
 20
4.637166
 30
0.0
 11
1.915493999999999
 21
4.632901
 31
0.0
  0
LINE
  5
1A9
330
53
100
AcDbEntity
 67
     1
  8
1
  6
Continuous
 62
    18
100
AcDbLine
 10
1.915493999999999
 20
4.618901
 30
0.0
 11
1.915493999999999
 21
4.618348999999999
 31
0.0
  0
LINE
  5
1AA
330
53
100
AcDbEntity
 67
     1
  8
1
  6
Continuous
 62
    18
100
AcDbLine
 10
1.915493999999999
 20
4.637394999999999
 30
0.0
 11
1.912563999999999
 21
4.632901
 31
0.0
  0
LINE
  5
1AB
330
53
100
AcDbEntity
 67
     1
  8
1
  6
Continuous
 62
    18
100
AcDbLine
 10
1.898138
 20
4.618191999999999
 30
0.0
 11
1.921565999999999
 21
4.618191999999999
 31
0.0
  0
LINE
  5
1AC
330
53
100
AcDbEntity
 67
     1
  8
1
  6
Continuous
 62
    18
100
AcDbLine
 10
1.983709999999999
 20
4.618305
 30
0.0
 11
1.978711
 21
4.618348999999999
 31
0.0
  0
LINE
  5
1AD
330
53
100
AcDbEntity
 67
     1
  8
1
  6
Continuous
 62
    18
100
AcDbLine
 10
1.983709999999999
 20
4.618901
 30
0.0
 11
1.983709999999999
 21
4.618305
 31
0.0
  0
LINE
  5
1AE
330
53
100
AcDbEntity
 67
     1
  8
1
  6
Continuous
 62
    18
100
AcDbLine
 10
1.981640999999999
 20
4.632901
 30
0.0
 11
1.979988
 21
4.634117999999999
 31
0.0
  0
LINE
  5
1AF
330
53
100
AcDbEntity
 67
     1
  8
1
  6
Continuous
 62
    18
100
AcDbLine
 10
1.978711
 20
4.618348999999999
 30
0.0
 11
1.978711
 21
4.618901
 31
0.0
  0
LINE
  5
1B0
330
53
100
AcDbEntity
 67
     1
  8
1
  6
Continuous
 62
    18
100
AcDbLine
 10
2.001631
 20
4.618305
 30
0.0
 11
1.983709999999999
 21
4.618305
 31
0.0
  0
LINE
  5
1B1
330
53
100
AcDbEntity
 67
     1
  8
1
  6
Continuous
 62
    18
100
AcDbLine
 10
1.97814
 20
4.618191999999999
 30
0.0
 11
2.001568
 21
4.618191999999999
 31
0.0
  0
LINE
  5
1B2
330
53
100
AcDbEntity
 67
     1
  8
1
  6
Continuous
 62
    18
100
AcDbLine
 10
1.985141
 20
4.637551999999999
 30
0.0
 11
1.994565
 21
4.637551999999999
 31
0.0
  0
LINE
  5
1B3
330
53
100
AcDbEntity
 67
     1
  8
1
  6
Continuous
 62
    18
100
AcDbLine
 10
1.978711
 20
4.618348999999999
 30
0.0
 11
1.978658
 21
4.618401
 31
0.0
  0
LINE
  5
1B4
330
53
100
AcDbEntity
 67
     1
  8
1
  6
Continuous
 62
    18
100
AcDbLine
 10
1.978658
 20
4.618901
 30
0.0
 11
1.978658
 21
4.618401
 31
0.0
  0
LINE
  5
1B5
330
53
100
AcDbEntity
 67
     1
  8
1
  6
Continuous
 62
    18
100
AcDbLine
 10
1.915493999999999
 20
4.618348999999999
 30
0.0
 11
1.915545999999999
 21
4.618401
 31
0.0
  0
LINE
  5
1B6
330
53
100
AcDbEntity
 67
     1
  8
1
  6
Continuous
 62
    18
100
AcDbLine
 10
1.910336999999999
 20
4.637551999999999
 30
0.0
 11
1.910336999999999
 21
4.634738999999999
 31
0.0
  0
LINE
  5
1B7
330
53
100
AcDbEntity
 67
     1
  8
1
  6
Continuous
 62
    18
100
AcDbLine
 10
1.910336999999999
 20
4.634738999999999
 30
0.0
 11
1.910336999999999
 21
4.632901
 31
0.0
  0
LINE
  5
1B8
330
53
100
AcDbEntity
 67
     1
  8
1
  6
Continuous
 62
    18
100
AcDbLine
 10
1.914564
 20
4.637551999999999
 30
0.0
 11
1.912749999999999
 21
4.637551999999999
 31
0.0
  0
LINE
  5
1B9
330
53
100
AcDbEntity
 67
     1
  8
1
  6
Continuous
 62
    18
100
AcDbLine
 10
1.912749999999999
 20
4.637551999999999
 30
0.0
 11
1.910336999999999
 21
4.637551999999999
 31
0.0
  0
LINE
  5
1BA
330
53
100
AcDbEntity
 67
     1
  8
1
  6
Continuous
 62
    18
100
AcDbLine
 10
1.915326999999999
 20
4.637241
 30
0.0
 11
1.914379999999999
 21
4.634612
 31
0.0
  0
LINE
  5
1BB
330
53
100
AcDbEntity
 67
     1
  8
1
  6
Continuous
 62
    18
100
AcDbLine
 10
1.914379999999999
 20
4.634612
 30
0.0
 11
1.912170999999999
 21
4.632901
 31
0.0
  0
LINE
  5
1BC
330
53
100
AcDbEntity
 67
     1
  8
1
  6
Continuous
 62
    18
100
AcDbLine
 10
1.980114
 20
4.634249999999999
 30
0.0
 11
1.980992999999999
 21
4.633461
 31
0.0
  0
LINE
  5
1BD
330
53
100
AcDbEntity
 67
     1
  8
1
  6
Continuous
 62
    18
100
AcDbLine
 10
1.980992999999999
 20
4.633461
 30
0.0
 11
1.982033
 21
4.632901
 31
0.0
  0
LINE
  5
1BE
330
53
100
AcDbEntity
 67
     1
  8
1
  6
Continuous
 62
    18
100
AcDbLine
 10
1.983868
 20
4.637001999999999
 30
0.0
 11
1.983868
 21
4.634516
 31
0.0
  0
LINE
  5
1BF
330
53
100
AcDbEntity
 67
     1
  8
1
  6
Continuous
 62
    18
100
AcDbLine
 10
1.983868
 20
4.634516
 30
0.0
 11
1.983868
 21
4.632901
 31
0.0
  0
LINE
  5
1C0
330
53
100
AcDbEntity
 67
     1
  8
1
  6
Continuous
 62
    18
100
AcDbLine
 10
2.012729999999999
 20
4.693901
 30
0.0
 11
2.014552999999999
 21
4.693901
 31
0.0
  0
LINE
  5
1C1
330
53
100
AcDbEntity
 67
     1
  8
1
  6
Continuous
 62
    18
100
AcDbLine
 10
2.014552999999999
 20
4.693901
 30
0.0
 11
2.019972999999999
 21
4.693901
 31
0.0
  0
LINE
  5
1C2
330
53
100
AcDbEntity
 67
     1
  8
1
  6
Continuous
 62
    18
100
AcDbLine
 10
2.019972999999999
 20
4.693901
 30
0.0
 11
2.020647999999999
 21
4.693901
 31
0.0
  0
LINE
  5
1C3
330
53
100
AcDbEntity
 67
     1
  8
1
  6
Continuous
 62
    18
100
AcDbLine
 10
2.020647999999999
 20
4.693901
 30
0.0
 11
2.021802
 21
4.693901
 31
0.0
  0
LINE
  5
1C4
330
53
100
AcDbEntity
 67
     1
  8
1
  6
Continuous
 62
    18
100
AcDbLine
 10
2.022801999999999
 20
4.693901
 30
0.0
 11
2.022545999999999
 21
4.693901
 31
0.0
  0
LINE
  5
1C5
330
53
100
AcDbEntity
 67
     1
  8
1
  6
Continuous
 62
    18
100
AcDbLine
 10
2.022545999999999
 20
4.693901
 30
0.0
 11
2.021802
 21
4.693901
 31
0.0
  0
LINE
  5
1C6
330
53
100
AcDbEntity
 67
     1
  8
1
  6
Continuous
 62
    18
100
AcDbLine
 10
2.022801999999999
 20
4.693901
 30
0.0
 11
2.025501999999999
 21
4.693901
 31
0.0
  0
LINE
  5
1C7
330
53
100
AcDbEntity
 67
     1
  8
1
  6
Continuous
 62
    18
100
AcDbLine
 10
2.034101999999999
 20
4.693901
 30
0.0
 11
2.029802
 21
4.693901
 31
0.0
  0
LINE
  5
1C8
330
53
100
AcDbEntity
 67
     1
  8
1
  6
Continuous
 62
    18
100
AcDbLine
 10
2.029802
 20
4.693901
 30
0.0
 11
2.025501999999999
 21
4.693901
 31
0.0
  0
LINE
  5
1C9
330
53
100
AcDbEntity
 67
     1
  8
1
  6
Continuous
 62
    18
100
AcDbLine
 10
2.036802
 20
4.693901
 30
0.0
 11
2.034101999999999
 21
4.693901
 31
0.0
  0
LINE
  5
1CA
330
53
100
AcDbEntity
 67
     1
  8
1
  6
Continuous
 62
    18
100
AcDbLine
 10
2.036802
 20
4.693901
 30
0.0
 11
2.037059
 21
4.693901
 31
0.0
  0
LINE
  5
1CB
330
53
100
AcDbEntity
 67
     1
  8
1
  6
Continuous
 62
    18
100
AcDbLine
 10
2.037059
 20
4.693901
 30
0.0
 11
2.037802
 21
4.693901
 31
0.0
  0
LINE
  5
1CC
330
53
100
AcDbEntity
 67
     1
  8
1
  6
Continuous
 62
    18
100
AcDbLine
 10
2.037802
 20
4.693901
 30
0.0
 11
2.038956
 21
4.693901
 31
0.0
  0
LINE
  5
1CD
330
53
100
AcDbEntity
 67
     1
  8
1
  6
Continuous
 62
    18
100
AcDbLine
 10
2.038956
 20
4.693901
 30
0.0
 11
2.039632
 21
4.693901
 31
0.0
  0
LINE
  5
1CE
330
53
100
AcDbEntity
 67
     1
  8
1
  6
Continuous
 62
    18
100
AcDbLine
 10
2.039632
 20
4.693901
 30
0.0
 11
2.045050999999999
 21
4.693901
 31
0.0
  0
LINE
  5
1CF
330
53
100
AcDbEntity
 67
     1
  8
1
  6
Continuous
 62
    18
100
AcDbLine
 10
2.045050999999999
 20
4.693901
 30
0.0
 11
2.046875
 21
4.693901
 31
0.0
  0
LINE
  5
1D0
330
53
100
AcDbEntity
 67
     1
  8
1
  6
Continuous
 62
    18
100
AcDbLine
 10
2.039632
 20
4.679901
 30
0.0
 11
2.045050999999999
 21
4.679901
 31
0.0
  0
LINE
  5
1D1
330
53
100
AcDbEntity
 67
     1
  8
1
  6
Continuous
 62
    18
100
AcDbLine
 10
2.045050999999999
 20
4.679901
 30
0.0
 11
2.046875
 21
4.679901
 31
0.0
  0
LINE
  5
1D2
330
53
100
AcDbEntity
 67
     1
  8
1
  6
Continuous
 62
    18
100
AcDbLine
 10
2.037802
 20
4.679901
 30
0.0
 11
2.038956
 21
4.679901
 31
0.0
  0
LINE
  5
1D3
330
53
100
AcDbEntity
 67
     1
  8
1
  6
Continuous
 62
    18
100
AcDbLine
 10
2.038956
 20
4.679901
 30
0.0
 11
2.039632
 21
4.679901
 31
0.0
  0
LINE
  5
1D4
330
53
100
AcDbEntity
 67
     1
  8
1
  6
Continuous
 62
    18
100
AcDbLine
 10
2.036802
 20
4.679901
 30
0.0
 11
2.037059
 21
4.679901
 31
0.0
  0
LINE
  5
1D5
330
53
100
AcDbEntity
 67
     1
  8
1
  6
Continuous
 62
    18
100
AcDbLine
 10
2.037059
 20
4.679901
 30
0.0
 11
2.037802
 21
4.679901
 31
0.0
  0
LINE
  5
1D6
330
53
100
AcDbEntity
 67
     1
  8
1
  6
Continuous
 62
    18
100
AcDbLine
 10
2.036802
 20
4.679901
 30
0.0
 11
2.034101999999999
 21
4.679901
 31
0.0
  0
LINE
  5
1D7
330
53
100
AcDbEntity
 67
     1
  8
1
  6
Continuous
 62
    18
100
AcDbLine
 10
2.034101999999999
 20
4.679901
 30
0.0
 11
2.029802
 21
4.679901
 31
0.0
  0
LINE
  5
1D8
330
53
100
AcDbEntity
 67
     1
  8
1
  6
Continuous
 62
    18
100
AcDbLine
 10
2.029802
 20
4.679901
 30
0.0
 11
2.025501999999999
 21
4.679901
 31
0.0
  0
LINE
  5
1D9
330
53
100
AcDbEntity
 67
     1
  8
1
  6
Continuous
 62
    18
100
AcDbLine
 10
2.022801999999999
 20
4.679901
 30
0.0
 11
2.025501999999999
 21
4.679901
 31
0.0
  0
LINE
  5
1DA
330
53
100
AcDbEntity
 67
     1
  8
1
  6
Continuous
 62
    18
100
AcDbLine
 10
2.022801999999999
 20
4.679901
 30
0.0
 11
2.022545999999999
 21
4.679901
 31
0.0
  0
LINE
  5
1DB
330
53
100
AcDbEntity
 67
     1
  8
1
  6
Continuous
 62
    18
100
AcDbLine
 10
2.022545999999999
 20
4.679901
 30
0.0
 11
2.021802
 21
4.679901
 31
0.0
  0
LINE
  5
1DC
330
53
100
AcDbEntity
 67
     1
  8
1
  6
Continuous
 62
    18
100
AcDbLine
 10
2.019972999999999
 20
4.679901
 30
0.0
 11
2.020647999999999
 21
4.679901
 31
0.0
  0
LINE
  5
1DD
330
53
100
AcDbEntity
 67
     1
  8
1
  6
Continuous
 62
    18
100
AcDbLine
 10
2.020647999999999
 20
4.679901
 30
0.0
 11
2.021802
 21
4.679901
 31
0.0
  0
LINE
  5
1DE
330
53
100
AcDbEntity
 67
     1
  8
1
  6
Continuous
 62
    18
100
AcDbLine
 10
2.012729999999999
 20
4.679901
 30
0.0
 11
2.014552999999999
 21
4.679901
 31
0.0
  0
LINE
  5
1DF
330
53
100
AcDbEntity
 67
     1
  8
1
  6
Continuous
 62
    18
100
AcDbLine
 10
2.014552999999999
 20
4.679901
 30
0.0
 11
2.019972999999999
 21
4.679901
 31
0.0
  0
LINE
  5
1E0
330
53
100
AcDbEntity
 67
     1
  8
1
  6
Continuous
 62
    18
100
AcDbLine
 10
2.019972999999999
 20
4.693901
 30
0.0
 11
2.019972999999999
 21
4.679901
 31
0.0
  0
LINE
  5
1E1
330
53
100
AcDbEntity
 67
     1
  8
1
  6
Continuous
 62
    18
100
AcDbLine
 10
2.021802
 20
4.693901
 30
0.0
 11
2.021802
 21
4.679901
 31
0.0
  0
LINE
  5
1E2
330
53
100
AcDbEntity
 67
     1
  8
1
  6
Continuous
 62
    18
100
AcDbLine
 10
2.022801999999999
 20
4.679901
 30
0.0
 11
2.022801999999999
 21
4.693901
 31
0.0
  0
LINE
  5
1E3
330
53
100
AcDbEntity
 67
     1
  8
1
  6
Continuous
 62
    18
100
AcDbLine
 10
2.036802
 20
4.679901
 30
0.0
 11
2.036802
 21
4.693901
 31
0.0
  0
LINE
  5
1E4
330
53
100
AcDbEntity
 67
     1
  8
1
  6
Continuous
 62
    18
100
AcDbLine
 10
2.037802
 20
4.693901
 30
0.0
 11
2.037802
 21
4.679901
 31
0.0
  0
LINE
  5
1E5
330
53
100
AcDbEntity
 67
     1
  8
1
  6
Continuous
 62
    18
100
AcDbLine
 10
2.039632
 20
4.693901
 30
0.0
 11
2.039632
 21
4.679901
 31
0.0
  0
LINE
  5
1E6
330
53
100
AcDbEntity
 67
     1
  8
1
  6
Continuous
 62
    18
100
AcDbLine
 10
2.034101999999999
 20
4.693901
 30
0.0
 11
2.034101999999999
 21
4.679901
 31
0.0
  0
LINE
  5
1E7
330
53
100
AcDbEntity
 67
     1
  8
1
  6
Continuous
 62
    18
100
AcDbLine
 10
2.025501999999999
 20
4.693901
 30
0.0
 11
2.025501999999999
 21
4.679901
 31
0.0
  0
LINE
  5
1E8
330
53
100
AcDbEntity
 67
     1
  8
1
  6
Continuous
 62
    18
100
AcDbLine
 10
1.836802
 20
4.642901
 30
0.0
 11
1.834102
 21
4.642901
 31
0.0
  0
LINE
  5
1E9
330
53
100
AcDbEntity
 67
     1
  8
1
  6
Continuous
 62
    18
100
AcDbLine
 10
1.834102
 20
4.642901
 30
0.0
 11
1.829802
 21
4.642901
 31
0.0
  0
LINE
  5
1EA
330
53
100
AcDbEntity
 67
     1
  8
1
  6
Continuous
 62
    18
100
AcDbLine
 10
1.829802
 20
4.642901
 30
0.0
 11
1.825502
 21
4.642901
 31
0.0
  0
LINE
  5
1EB
330
53
100
AcDbEntity
 67
     1
  8
1
  6
Continuous
 62
    18
100
AcDbLine
 10
1.822802
 20
4.642901
 30
0.0
 11
1.825502
 21
4.642901
 31
0.0
  0
LINE
  5
1EC
330
53
100
AcDbEntity
 67
     1
  8
1
  6
Continuous
 62
    18
100
AcDbLine
 10
1.822802
 20
4.642901
 30
0.0
 11
1.822545999999999
 21
4.642901
 31
0.0
  0
LINE
  5
1ED
330
53
100
AcDbEntity
 67
     1
  8
1
  6
Continuous
 62
    18
100
AcDbLine
 10
1.822545999999999
 20
4.642901
 30
0.0
 11
1.821802
 21
4.642901
 31
0.0
  0
LINE
  5
1EE
330
53
100
AcDbEntity
 67
     1
  8
1
  6
Continuous
 62
    18
100
AcDbLine
 10
1.819973
 20
4.642901
 30
0.0
 11
1.820648
 21
4.642901
 31
0.0
  0
LINE
  5
1EF
330
53
100
AcDbEntity
 67
     1
  8
1
  6
Continuous
 62
    18
100
AcDbLine
 10
1.820648
 20
4.642901
 30
0.0
 11
1.821802
 21
4.642901
 31
0.0
  0
LINE
  5
1F0
330
53
100
AcDbEntity
 67
     1
  8
1
  6
Continuous
 62
    18
100
AcDbLine
 10
1.812729999999999
 20
4.642901
 30
0.0
 11
1.814552999999999
 21
4.642901
 31
0.0
  0
LINE
  5
1F1
330
53
100
AcDbEntity
 67
     1
  8
1
  6
Continuous
 62
    18
100
AcDbLine
 10
1.814552999999999
 20
4.642901
 30
0.0
 11
1.819973
 21
4.642901
 31
0.0
  0
LINE
  5
1F2
330
53
100
AcDbEntity
 67
     1
  8
1
  6
Continuous
 62
    18
100
AcDbLine
 10
1.839631999999999
 20
4.642901
 30
0.0
 11
1.845050999999999
 21
4.642901
 31
0.0
  0
LINE
  5
1F3
330
53
100
AcDbEntity
 67
     1
  8
1
  6
Continuous
 62
    18
100
AcDbLine
 10
1.845050999999999
 20
4.642901
 30
0.0
 11
1.846874
 21
4.642901
 31
0.0
  0
LINE
  5
1F4
330
53
100
AcDbEntity
 67
     1
  8
1
  6
Continuous
 62
    18
100
AcDbLine
 10
1.837801999999999
 20
4.642901
 30
0.0
 11
1.838955999999999
 21
4.642901
 31
0.0
  0
LINE
  5
1F5
330
53
100
AcDbEntity
 67
     1
  8
1
  6
Continuous
 62
    18
100
AcDbLine
 10
1.838955999999999
 20
4.642901
 30
0.0
 11
1.839631999999999
 21
4.642901
 31
0.0
  0
LINE
  5
1F6
330
53
100
AcDbEntity
 67
     1
  8
1
  6
Continuous
 62
    18
100
AcDbLine
 10
1.836802
 20
4.642901
 30
0.0
 11
1.837058999999999
 21
4.642901
 31
0.0
  0
LINE
  5
1F7
330
53
100
AcDbEntity
 67
     1
  8
1
  6
Continuous
 62
    18
100
AcDbLine
 10
1.837058999999999
 20
4.642901
 30
0.0
 11
1.837801999999999
 21
4.642901
 31
0.0
  0
LINE
  5
1F8
330
53
100
AcDbEntity
 67
     1
  8
1
  6
Continuous
 62
    18
100
AcDbLine
 10
1.822802
 20
4.656901
 30
0.0
 11
1.825502
 21
4.656901
 31
0.0
  0
LINE
  5
1F9
330
53
100
AcDbEntity
 67
     1
  8
1
  6
Continuous
 62
    18
100
AcDbLine
 10
1.834102
 20
4.656901
 30
0.0
 11
1.829802
 21
4.656901
 31
0.0
  0
LINE
  5
1FA
330
53
100
AcDbEntity
 67
     1
  8
1
  6
Continuous
 62
    18
100
AcDbLine
 10
1.829802
 20
4.656901
 30
0.0
 11
1.825502
 21
4.656901
 31
0.0
  0
LINE
  5
1FB
330
53
100
AcDbEntity
 67
     1
  8
1
  6
Continuous
 62
    18
100
AcDbLine
 10
1.836802
 20
4.656901
 30
0.0
 11
1.834102
 21
4.656901
 31
0.0
  0
LINE
  5
1FC
330
53
100
AcDbEntity
 67
     1
  8
1
  6
Continuous
 62
    18
100
AcDbLine
 10
1.836802
 20
4.656901
 30
0.0
 11
1.837058999999999
 21
4.656901
 31
0.0
  0
LINE
  5
1FD
330
53
100
AcDbEntity
 67
     1
  8
1
  6
Continuous
 62
    18
100
AcDbLine
 10
1.837058999999999
 20
4.656901
 30
0.0
 11
1.837801999999999
 21
4.656901
 31
0.0
  0
LINE
  5
1FE
330
53
100
AcDbEntity
 67
     1
  8
1
  6
Continuous
 62
    18
100
AcDbLine
 10
1.837801999999999
 20
4.656901
 30
0.0
 11
1.838955999999999
 21
4.656901
 31
0.0
  0
LINE
  5
1FF
330
53
100
AcDbEntity
 67
     1
  8
1
  6
Continuous
 62
    18
100
AcDbLine
 10
1.838955999999999
 20
4.656901
 30
0.0
 11
1.839631999999999
 21
4.656901
 31
0.0
  0
LINE
  5
200
330
53
100
AcDbEntity
 67
     1
  8
1
  6
Continuous
 62
    18
100
AcDbLine
 10
1.839631999999999
 20
4.656901
 30
0.0
 11
1.845050999999999
 21
4.656901
 31
0.0
  0
LINE
  5
201
330
53
100
AcDbEntity
 67
     1
  8
1
  6
Continuous
 62
    18
100
AcDbLine
 10
1.845050999999999
 20
4.656901
 30
0.0
 11
1.846874
 21
4.656901
 31
0.0
  0
LINE
  5
202
330
53
100
AcDbEntity
 67
     1
  8
1
  6
Continuous
 62
    18
100
AcDbLine
 10
1.812729999999999
 20
4.656901
 30
0.0
 11
1.814552999999999
 21
4.656901
 31
0.0
  0
LINE
  5
203
330
53
100
AcDbEntity
 67
     1
  8
1
  6
Continuous
 62
    18
100
AcDbLine
 10
1.814552999999999
 20
4.656901
 30
0.0
 11
1.819973
 21
4.656901
 31
0.0
  0
LINE
  5
204
330
53
100
AcDbEntity
 67
     1
  8
1
  6
Continuous
 62
    18
100
AcDbLine
 10
1.819973
 20
4.656901
 30
0.0
 11
1.820648
 21
4.656901
 31
0.0
  0
LINE
  5
205
330
53
100
AcDbEntity
 67
     1
  8
1
  6
Continuous
 62
    18
100
AcDbLine
 10
1.820648
 20
4.656901
 30
0.0
 11
1.821802
 21
4.656901
 31
0.0
  0
LINE
  5
206
330
53
100
AcDbEntity
 67
     1
  8
1
  6
Continuous
 62
    18
100
AcDbLine
 10
1.822802
 20
4.656901
 30
0.0
 11
1.822545999999999
 21
4.656901
 31
0.0
  0
LINE
  5
207
330
53
100
AcDbEntity
 67
     1
  8
1
  6
Continuous
 62
    18
100
AcDbLine
 10
1.822545999999999
 20
4.656901
 30
0.0
 11
1.821802
 21
4.656901
 31
0.0
  0
LINE
  5
208
330
53
100
AcDbEntity
 67
     1
  8
1
  6
Continuous
 62
    18
100
AcDbLine
 10
1.838802
 20
4.656901
 30
0.0
 11
1.838802
 21
4.657701
 31
0.0
  0
LINE
  5
209
330
53
100
AcDbEntity
 67
     1
  8
1
  6
Continuous
 62
    18
100
AcDbLine
 10
1.838802
 20
4.657701
 30
0.0
 11
1.838802
 21
4.660008
 31
0.0
  0
LINE
  5
20A
330
53
100
AcDbEntity
 67
     1
  8
1
  6
Continuous
 62
    18
100
AcDbLine
 10
1.820802
 20
4.656901
 30
0.0
 11
1.820802
 21
4.657676999999999
 31
0.0
  0
LINE
  5
20B
330
53
100
AcDbEntity
 67
     1
  8
1
  6
Continuous
 62
    18
100
AcDbLine
 10
1.820802
 20
4.657676999999999
 30
0.0
 11
1.820802
 21
4.659918
 31
0.0
  0
LINE
  5
20C
330
53
100
AcDbEntity
 67
     1
  8
1
  6
Continuous
 62
    18
100
AcDbLine
 10
1.822802
 20
4.642901
 30
0.0
 11
1.822802
 21
4.656901
 31
0.0
  0
LINE
  5
20D
330
53
100
AcDbEntity
 67
     1
  8
1
  6
Continuous
 62
    18
100
AcDbLine
 10
1.836802
 20
4.642901
 30
0.0
 11
1.836802
 21
4.656901
 31
0.0
  0
LINE
  5
20E
330
53
100
AcDbEntity
 67
     1
  8
1
  6
Continuous
 62
    18
100
AcDbLine
 10
1.832834
 20
4.663067999999999
 30
0.0
 11
1.826870999999999
 21
4.663067999999999
 31
0.0
  0
LINE
  5
20F
330
53
100
AcDbEntity
 67
     1
  8
1
  6
Continuous
 62
    18
100
AcDbLine
 10
1.837801999999999
 20
4.656901
 30
0.0
 11
1.837801999999999
 21
4.642901
 31
0.0
  0
LINE
  5
210
330
53
100
AcDbEntity
 67
     1
  8
1
  6
Continuous
 62
    18
100
AcDbLine
 10
1.839631999999999
 20
4.656901
 30
0.0
 11
1.839631999999999
 21
4.642901
 31
0.0
  0
LINE
  5
211
330
53
100
AcDbEntity
 67
     1
  8
1
  6
Continuous
 62
    18
100
AcDbLine
 10
1.819973
 20
4.656901
 30
0.0
 11
1.819973
 21
4.642901
 31
0.0
  0
LINE
  5
212
330
53
100
AcDbEntity
 67
     1
  8
1
  6
Continuous
 62
    18
100
AcDbLine
 10
1.821802
 20
4.656901
 30
0.0
 11
1.821802
 21
4.642901
 31
0.0
  0
LINE
  5
213
330
53
100
AcDbEntity
 67
     1
  8
1
  6
Continuous
 62
    18
100
AcDbLine
 10
1.834102
 20
4.656901
 30
0.0
 11
1.834102
 21
4.642901
 31
0.0
  0
LINE
  5
214
330
53
100
AcDbEntity
 67
     1
  8
1
  6
Continuous
 62
    18
100
AcDbLine
 10
1.825502
 20
4.656901
 30
0.0
 11
1.825502
 21
4.642901
 31
0.0
  0
LINE
  5
215
330
53
100
AcDbEntity
 67
     1
  8
1
  6
Continuous
 62
    18
100
AcDbLine
 10
2.160445999999999
 20
4.832257
 30
0.0
 11
2.166765999999999
 21
4.838467999999999
 31
0.0
  0
LINE
  5
216
330
53
100
AcDbEntity
 67
     1
  8
1
  6
Continuous
 62
    18
100
AcDbLine
 10
2.235476999999999
 20
4.831944
 30
0.0
 11
2.242000999999999
 21
4.838467999999999
 31
0.0
  0
LINE
  5
217
330
53
100
AcDbEntity
 67
     1
  8
1
  6
Continuous
 62
    18
100
AcDbLine
 10
2.242000999999999
 20
4.838467999999999
 30
0.0
 11
2.166765999999999
 21
4.838467999999999
 31
0.0
  0
LINE
  5
218
330
53
100
AcDbEntity
 67
     1
  8
1
  6
Continuous
 62
    18
100
AcDbLine
 10
2.160445999999999
 20
4.832257
 30
0.0
 11
1.699158
 21
4.832257
 31
0.0
  0
LINE
  5
219
330
53
100
AcDbEntity
 67
     1
  8
1
  6
Continuous
 62
    18
100
AcDbLine
 10
1.699158
 20
4.832257
 30
0.0
 11
1.692838
 21
4.838467999999999
 31
0.0
  0
LINE
  5
21A
330
53
100
AcDbEntity
 67
     1
  8
1
  6
Continuous
 62
    18
100
AcDbLine
 10
1.692838
 20
4.838467999999999
 30
0.0
 11
1.617603
 21
4.838467999999999
 31
0.0
  0
LINE
  5
21B
330
53
100
AcDbEntity
 67
     1
  8
1
  6
Continuous
 62
    18
100
AcDbLine
 10
1.624127
 20
4.831944
 30
0.0
 11
1.617603
 21
4.838467999999999
 31
0.0
  0
LINE
  5
21C
330
53
100
AcDbEntity
 67
     1
  8
1
  6
Continuous
 62
    18
100
AcDbLine
 10
1.689529
 20
4.831944
 30
0.0
 11
1.624127
 21
4.831944
 31
0.0
  0
LINE
  5
21D
330
53
100
AcDbEntity
 67
     1
  8
1
  6
Continuous
 62
    18
100
AcDbLine
 10
1.689529
 20
4.831944
 30
0.0
 11
1.69124
 21
4.830233999999999
 31
0.0
  0
LINE
  5
21E
330
53
100
AcDbEntity
 67
     1
  8
1
  6
Continuous
 62
    18
100
AcDbLine
 10
2.168363999999999
 20
4.830233999999999
 30
0.0
 11
1.69124
 21
4.830233999999999
 31
0.0
  0
LINE
  5
21F
330
53
100
AcDbEntity
 67
     1
  8
1
  6
Continuous
 62
    18
100
AcDbLine
 10
2.170075
 20
4.831944
 30
0.0
 11
2.168363999999999
 21
4.830233999999999
 31
0.0
  0
LINE
  5
220
330
53
100
AcDbEntity
 67
     1
  8
1
  6
Continuous
 62
    18
100
AcDbLine
 10
2.170075
 20
4.831944
 30
0.0
 11
2.235476999999999
 21
4.831944
 31
0.0
  0
LINE
  5
221
330
53
100
AcDbEntity
 67
     1
  8
1
  6
Continuous
 62
    18
100
AcDbLine
 10
2.242000999999999
 20
4.729769
 30
0.0
 11
2.242000999999999
 21
4.838467999999999
 31
0.0
  0
LINE
  5
222
330
53
100
AcDbEntity
 67
     1
  8
1
  6
Continuous
 62
    18
100
AcDbLine
 10
1.617603
 20
4.838467999999999
 30
0.0
 11
1.617603
 21
4.729769
 31
0.0
  0
LINE
  5
223
330
53
100
AcDbEntity
 67
     1
  8
1
  6
Continuous
 62
    18
100
AcDbLine
 10
2.233766999999999
 20
4.118769
 30
0.0
 11
2.242000999999999
 21
4.118769
 31
0.0
  0
LINE
  5
224
330
53
100
AcDbEntity
 67
     1
  8
1
  6
Continuous
 62
    18
100
AcDbLine
 10
2.233766999999999
 20
4.118769
 30
0.0
 11
1.625837999999999
 21
4.118769
 31
0.0
  0
LINE
  5
225
330
53
100
AcDbEntity
 67
     1
  8
1
  6
Continuous
 62
    18
100
AcDbLine
 10
1.625837999999999
 20
4.118769
 30
0.0
 11
1.617603
 21
4.118769
 31
0.0
  0
LINE
  5
226
330
53
100
AcDbEntity
 67
     1
  8
1
  6
Continuous
 62
    18
100
AcDbLine
 10
2.03858
 20
4.231549
 30
0.0
 11
2.03858
 21
4.199987999999999
 31
0.0
  0
LINE
  5
227
330
53
100
AcDbEntity
 67
     1
  8
1
  6
Continuous
 62
    18
100
AcDbLine
 10
2.03858
 20
4.231549
 30
0.0
 11
2.034187999999999
 21
4.242155
 31
0.0
  0
LINE
  5
228
330
53
100
AcDbEntity
 67
     1
  8
1
  6
Continuous
 62
    18
100
AcDbLine
 10
2.034187999999999
 20
4.242155
 30
0.0
 11
2.023581999999999
 21
4.246547
 31
0.0
  0
LINE
  5
229
330
53
100
AcDbEntity
 67
     1
  8
1
  6
Continuous
 62
    18
100
AcDbLine
 10
1.836021999999999
 20
4.246547
 30
0.0
 11
2.023581999999999
 21
4.246547
 31
0.0
  0
LINE
  5
22A
330
53
100
AcDbEntity
 67
     1
  8
1
  6
Continuous
 62
    18
100
AcDbLine
 10
1.836021999999999
 20
4.246547
 30
0.0
 11
1.825415999999999
 21
4.242155
 31
0.0
  0
LINE
  5
22B
330
53
100
AcDbEntity
 67
     1
  8
1
  6
Continuous
 62
    18
100
AcDbLine
 10
1.825415999999999
 20
4.242155
 30
0.0
 11
1.821024
 21
4.231549
 31
0.0
  0
LINE
  5
22C
330
53
100
AcDbEntity
 67
     1
  8
1
  6
Continuous
 62
    18
100
AcDbLine
 10
1.821024
 20
4.231549
 30
0.0
 11
1.821024
 21
4.199987999999999
 31
0.0
  0
LINE
  5
22D
330
53
100
AcDbEntity
 67
     1
  8
1
  6
Continuous
 62
    18
100
AcDbLine
 10
1.821024
 20
4.199987999999999
 30
0.0
 11
1.825415999999999
 21
4.189383999999999
 31
0.0
  0
LINE
  5
22E
330
53
100
AcDbEntity
 67
     1
  8
1
  6
Continuous
 62
    18
100
AcDbLine
 10
1.825415999999999
 20
4.189383999999999
 30
0.0
 11
1.836021999999999
 21
4.184991
 31
0.0
  0
LINE
  5
22F
330
53
100
AcDbEntity
 67
     1
  8
1
  6
Continuous
 62
    18
100
AcDbLine
 10
1.836021999999999
 20
4.184991
 30
0.0
 11
2.023581999999999
 21
4.184991
 31
0.0
  0
LINE
  5
230
330
53
100
AcDbEntity
 67
     1
  8
1
  6
Continuous
 62
    18
100
AcDbLine
 10
2.023581999999999
 20
4.184991
 30
0.0
 11
2.034187999999999
 21
4.189383999999999
 31
0.0
  0
LINE
  5
231
330
53
100
AcDbEntity
 67
     1
  8
1
  6
Continuous
 62
    18
100
AcDbLine
 10
2.034187999999999
 20
4.189383999999999
 30
0.0
 11
2.03858
 21
4.199987999999999
 31
0.0
  0
LINE
  5
232
330
53
100
AcDbEntity
 67
     1
  8
1
  6
Continuous
 62
    18
100
AcDbLine
 10
2.194802
 20
4.339395999999999
 30
0.0
 11
1.664802
 21
4.339395999999999
 31
0.0
  0
LINE
  5
233
330
53
100
AcDbEntity
 67
     1
  8
1
  6
Continuous
 62
    18
100
AcDbLine
 10
1.664802
 20
4.327396
 30
0.0
 11
1.664802
 21
4.339395999999999
 31
0.0
  0
LINE
  5
234
330
53
100
AcDbEntity
 67
     1
  8
1
  6
Continuous
 62
    18
100
AcDbLine
 10
2.186802
 20
4.319396
 30
0.0
 11
1.672802
 21
4.319396
 31
0.0
  0
LINE
  5
235
330
53
100
AcDbEntity
 67
     1
  8
1
  6
Continuous
 62
    18
100
AcDbLine
 10
2.194802
 20
4.327396
 30
0.0
 11
2.194802
 21
4.339395999999999
 31
0.0
  0
LINE
  5
236
330
53
100
AcDbEntity
 67
     1
  8
1
  6
Continuous
 62
    18
100
AcDbLine
 10
1.835322999999999
 20
4.184293
 30
0.0
 11
1.824718
 21
4.188684999999999
 31
0.0
  0
LINE
  5
237
330
53
100
AcDbEntity
 67
     1
  8
1
  6
Continuous
 62
    18
100
AcDbLine
 10
1.824718
 20
4.188684999999999
 30
0.0
 11
1.820325999999999
 21
4.19929
 31
0.0
  0
LINE
  5
238
330
53
100
AcDbEntity
 67
     1
  8
1
  6
Continuous
 62
    18
100
AcDbLine
 10
1.836021999999999
 20
4.184991
 30
0.0
 11
1.835322999999999
 21
4.184293
 31
0.0
  0
LINE
  5
239
330
53
100
AcDbEntity
 67
     1
  8
1
  6
Continuous
 62
    18
100
AcDbLine
 10
1.820325999999999
 20
4.19929
 30
0.0
 11
1.821024
 21
4.199987999999999
 31
0.0
  0
LINE
  5
23A
330
53
100
AcDbEntity
 67
     1
  8
1
  6
Continuous
 62
    18
100
AcDbLine
 10
1.835322999999999
 20
4.184293
 30
0.0
 11
2.024281
 21
4.184293
 31
0.0
  0
LINE
  5
23B
330
53
100
AcDbEntity
 67
     1
  8
1
  6
Continuous
 62
    18
100
AcDbLine
 10
2.024281
 20
4.184293
 30
0.0
 11
2.023581999999999
 21
4.184991
 31
0.0
  0
LINE
  5
23C
330
53
100
AcDbEntity
 67
     1
  8
1
  6
Continuous
 62
    18
100
AcDbLine
 10
2.039279
 20
4.19929
 30
0.0
 11
2.034886
 21
4.188684999999999
 31
0.0
  0
LINE
  5
23D
330
53
100
AcDbEntity
 67
     1
  8
1
  6
Continuous
 62
    18
100
AcDbLine
 10
2.034886
 20
4.188684999999999
 30
0.0
 11
2.024281
 21
4.184293
 31
0.0
  0
LINE
  5
23E
330
53
100
AcDbEntity
 67
     1
  8
1
  6
Continuous
 62
    18
100
AcDbLine
 10
2.03858
 20
4.199987999999999
 30
0.0
 11
2.039279
 21
4.19929
 31
0.0
  0
LINE
  5
23F
330
53
100
AcDbEntity
 67
     1
  8
1
  6
Continuous
 62
    18
100
AcDbLine
 10
2.039279
 20
4.232248
 30
0.0
 11
2.039279
 21
4.19929
 31
0.0
  0
LINE
  5
240
330
53
100
AcDbEntity
 67
     1
  8
1
  6
Continuous
 62
    18
100
AcDbLine
 10
2.039279
 20
4.232248
 30
0.0
 11
2.03858
 21
4.231549
 31
0.0
  0
LINE
  5
241
330
53
100
AcDbEntity
 67
     1
  8
1
  6
Continuous
 62
    18
100
AcDbLine
 10
2.024281
 20
4.247244999999999
 30
0.0
 11
2.034886
 21
4.242853
 31
0.0
  0
LINE
  5
242
330
53
100
AcDbEntity
 67
     1
  8
1
  6
Continuous
 62
    18
100
AcDbLine
 10
2.034886
 20
4.242853
 30
0.0
 11
2.039279
 21
4.232248
 31
0.0
  0
LINE
  5
243
330
53
100
AcDbEntity
 67
     1
  8
1
  6
Continuous
 62
    18
100
AcDbLine
 10
2.023581999999999
 20
4.246547
 30
0.0
 11
2.024281
 21
4.247244999999999
 31
0.0
  0
LINE
  5
244
330
53
100
AcDbEntity
 67
     1
  8
1
  6
Continuous
 62
    18
100
AcDbLine
 10
1.835322999999999
 20
4.247244999999999
 30
0.0
 11
2.024281
 21
4.247244999999999
 31
0.0
  0
LINE
  5
245
330
53
100
AcDbEntity
 67
     1
  8
1
  6
Continuous
 62
    18
100
AcDbLine
 10
1.835322999999999
 20
4.247244999999999
 30
0.0
 11
1.836021999999999
 21
4.246547
 31
0.0
  0
LINE
  5
246
330
53
100
AcDbEntity
 67
     1
  8
1
  6
Continuous
 62
    18
100
AcDbLine
 10
1.820325999999999
 20
4.232248
 30
0.0
 11
1.824718
 21
4.242853
 31
0.0
  0
LINE
  5
247
330
53
100
AcDbEntity
 67
     1
  8
1
  6
Continuous
 62
    18
100
AcDbLine
 10
1.824718
 20
4.242853
 30
0.0
 11
1.835322999999999
 21
4.247244999999999
 31
0.0
  0
LINE
  5
248
330
53
100
AcDbEntity
 67
     1
  8
1
  6
Continuous
 62
    18
100
AcDbLine
 10
1.821024
 20
4.231549
 30
0.0
 11
1.820325999999999
 21
4.232248
 31
0.0
  0
LINE
  5
249
330
53
100
AcDbEntity
 67
     1
  8
1
  6
Continuous
 62
    18
100
AcDbLine
 10
1.820325999999999
 20
4.19929
 30
0.0
 11
1.820325999999999
 21
4.232248
 31
0.0
  0
LINE
  5
24A
330
53
100
AcDbEntity
 67
     1
  8
1
  6
Continuous
 62
    18
100
AcDbLine
 10
1.625837999999999
 20
4.768608999999999
 30
0.0
 11
1.624127
 21
4.770319
 31
0.0
  0
LINE
  5
24B
330
53
100
AcDbEntity
 67
     1
  8
1
  6
Continuous
 62
    18
100
AcDbLine
 10
1.69124
 20
4.768608999999999
 30
0.0
 11
1.625837999999999
 21
4.768608999999999
 31
0.0
  0
LINE
  5
24C
330
53
100
AcDbEntity
 67
     1
  8
1
  6
Continuous
 62
    18
100
AcDbLine
 10
1.689529
 20
4.770319
 30
0.0
 11
1.69124
 21
4.768608999999999
 31
0.0
  0
LINE
  5
24D
330
53
100
AcDbEntity
 67
     1
  8
1
  6
Continuous
 62
    18
100
AcDbLine
 10
1.624127
 20
4.770319
 30
0.0
 11
1.689529
 21
4.770319
 31
0.0
  0
LINE
  5
24E
330
53
100
AcDbEntity
 67
     1
  8
1
  6
Continuous
 62
    18
100
AcDbLine
 10
2.170075
 20
4.831944
 30
0.0
 11
2.170075
 21
4.770319
 31
0.0
  0
LINE
  5
24F
330
53
100
AcDbEntity
 67
     1
  8
1
  6
Continuous
 62
    18
100
AcDbLine
 10
2.168363999999999
 20
4.830233999999999
 30
0.0
 11
2.168363999999999
 21
4.768608999999999
 31
0.0
  0
LINE
  5
250
330
53
100
AcDbEntity
 67
     1
  8
1
  6
Continuous
 62
    18
100
AcDbLine
 10
2.170075
 20
4.770319
 30
0.0
 11
2.168363999999999
 21
4.768608999999999
 31
0.0
  0
LINE
  5
251
330
53
100
AcDbEntity
 67
     1
  8
1
  6
Continuous
 62
    18
100
AcDbLine
 10
1.69124
 20
4.830233999999999
 30
0.0
 11
1.69124
 21
4.768608999999999
 31
0.0
  0
LINE
  5
252
330
53
100
AcDbEntity
 67
     1
  8
1
  6
Continuous
 62
    18
100
AcDbLine
 10
1.689529
 20
4.831944
 30
0.0
 11
1.689529
 21
4.770319
 31
0.0
  0
LINE
  5
253
330
53
100
AcDbEntity
 67
     1
  8
1
  6
Continuous
 62
    18
100
AcDbLine
 10
1.624127
 20
4.770319
 30
0.0
 11
1.624127
 21
4.831944
 31
0.0
  0
LINE
  5
254
330
53
100
AcDbEntity
 67
     1
  8
1
  6
Continuous
 62
    18
100
AcDbLine
 10
1.849504999999999
 20
4.704396
 30
0.0
 11
1.849802
 21
4.704396
 31
0.0
  0
LINE
  5
255
330
53
100
AcDbEntity
 67
     1
  8
1
  6
Continuous
 62
    18
100
AcDbLine
 10
1.849504999999999
 20
4.704396
 30
0.0
 11
1.805802999999999
 21
4.704396
 31
0.0
  0
LINE
  5
256
330
53
100
AcDbEntity
 67
     1
  8
1
  6
Continuous
 62
    18
100
AcDbLine
 10
2.053800999999999
 20
4.704396
 30
0.0
 11
2.010099
 21
4.704396
 31
0.0
  0
LINE
  5
257
330
53
100
AcDbEntity
 67
     1
  8
1
  6
Continuous
 62
    18
100
AcDbLine
 10
2.010099
 20
4.704396
 30
0.0
 11
2.009802
 21
4.704396
 31
0.0
  0
LINE
  5
258
330
53
100
AcDbEntity
 67
     1
  8
1
  6
Continuous
 62
    18
100
AcDbLine
 10
2.009802
 20
4.759395999999999
 30
0.0
 11
2.010099
 21
4.777651999999999
 31
0.0
  0
LINE
  5
259
330
53
100
AcDbEntity
 67
     1
  8
1
  6
Continuous
 62
    18
100
AcDbLine
 10
2.010099
 20
4.777651999999999
 30
0.0
 11
2.014161999999999
 21
4.781657
 31
0.0
  0
LINE
  5
25A
330
53
100
AcDbEntity
 67
     1
  8
1
  6
Continuous
 62
    18
100
AcDbLine
 10
2.014161999999999
 20
4.781657
 30
0.0
 11
2.025136999999999
 21
4.784584999999999
 31
0.0
  0
LINE
  5
25B
330
53
100
AcDbEntity
 67
     1
  8
1
  6
Continuous
 62
    18
100
AcDbLine
 10
2.025136999999999
 20
4.784584999999999
 30
0.0
 11
2.040099
 21
4.785655
 31
0.0
  0
LINE
  5
25C
330
53
100
AcDbEntity
 67
     1
  8
1
  6
Continuous
 62
    18
100
AcDbLine
 10
1.819504999999999
 20
4.785655
 30
0.0
 11
2.040099
 21
4.785655
 31
0.0
  0
LINE
  5
25D
330
53
100
AcDbEntity
 67
     1
  8
1
  6
Continuous
 62
    18
100
AcDbLine
 10
1.819504999999999
 20
4.785655
 30
0.0
 11
1.834466999999999
 21
4.784584999999999
 31
0.0
  0
LINE
  5
25E
330
53
100
AcDbEntity
 67
     1
  8
1
  6
Continuous
 62
    18
100
AcDbLine
 10
1.834466999999999
 20
4.784584999999999
 30
0.0
 11
1.845441999999999
 21
4.781657
 31
0.0
  0
LINE
  5
25F
330
53
100
AcDbEntity
 67
     1
  8
1
  6
Continuous
 62
    18
100
AcDbLine
 10
1.845441999999999
 20
4.781657
 30
0.0
 11
1.849504999999999
 21
4.777651999999999
 31
0.0
  0
LINE
  5
260
330
53
100
AcDbEntity
 67
     1
  8
1
  6
Continuous
 62
    18
100
AcDbLine
 10
1.849802
 20
4.759395999999999
 30
0.0
 11
1.849504999999999
 21
4.777651999999999
 31
0.0
  0
LINE
  5
261
330
53
100
AcDbEntity
 67
     1
  8
1
  6
Continuous
 62
    18
100
AcDbLine
 10
2.009802
 20
4.759395999999999
 30
0.0
 11
1.849802
 21
4.759395999999999
 31
0.0
  0
LINE
  5
262
330
53
100
AcDbEntity
 67
     1
  8
1
  6
Continuous
 62
    18
100
AcDbLine
 10
1.849802
 20
4.704396
 30
0.0
 11
1.849802
 21
4.747570999999999
 31
0.0
  0
LINE
  5
263
330
53
100
AcDbEntity
 67
     1
  8
1
  6
Continuous
 62
    18
100
AcDbLine
 10
2.009802
 20
4.704396
 30
0.0
 11
2.009802
 21
4.747570999999999
 31
0.0
  0
LINE
  5
264
330
53
100
AcDbEntity
 67
     1
  8
1
  6
Continuous
 62
    18
100
AcDbLine
 10
2.009802
 20
4.747570999999999
 30
0.0
 11
2.008640999999999
 21
4.749892
 31
0.0
  0
LINE
  5
265
330
53
100
AcDbEntity
 67
     1
  8
1
  6
Continuous
 62
    18
100
AcDbLine
 10
2.008640999999999
 20
4.749892
 30
0.0
 11
1.850963
 21
4.749892
 31
0.0
  0
LINE
  5
266
330
53
100
AcDbEntity
 67
     1
  8
1
  6
Continuous
 62
    18
100
AcDbLine
 10
1.849802
 20
4.747570999999999
 30
0.0
 11
1.850963
 21
4.749892
 31
0.0
  0
LINE
  5
267
330
53
100
AcDbEntity
 67
     1
  8
1
  6
Continuous
 62
    18
100
AcDbLine
 10
2.010099
 20
4.704396
 30
0.0
 11
2.010099
 21
4.777651999999999
 31
0.0
  0
LINE
  5
268
330
53
100
AcDbEntity
 67
     1
  8
1
  6
Continuous
 62
    18
100
AcDbLine
 10
2.008640999999999
 20
4.749643999999999
 30
0.0
 11
2.008655
 21
4.756554
 31
0.0
  0
LINE
  5
269
330
53
100
AcDbEntity
 67
     1
  8
1
  6
Continuous
 62
    18
100
AcDbLine
 10
2.008655
 20
4.756554
 30
0.0
 11
2.008684999999999
 21
4.759395999999999
 31
0.0
  0
LINE
  5
26A
330
53
100
AcDbEntity
 67
     1
  8
1
  6
Continuous
 62
    18
100
AcDbLine
 10
1.849504999999999
 20
4.777651999999999
 30
0.0
 11
1.849504999999999
 21
4.704396
 31
0.0
  0
LINE
  5
26B
330
53
100
AcDbEntity
 67
     1
  8
1
  6
Continuous
 62
    18
100
AcDbLine
 10
1.850963
 20
4.749643999999999
 30
0.0
 11
1.85095
 21
4.756554
 31
0.0
  0
LINE
  5
26C
330
53
100
AcDbEntity
 67
     1
  8
1
  6
Continuous
 62
    18
100
AcDbLine
 10
1.85095
 20
4.756554
 30
0.0
 11
1.850918999999999
 21
4.759395999999999
 31
0.0
  0
LINE
  5
26D
330
53
100
AcDbEntity
 67
     1
  8
1
  6
Continuous
 62
    18
100
AcDbLine
 10
1.805802999999999
 20
4.704396
 30
0.0
 11
1.805802999999999
 21
4.639852999999999
 31
0.0
  0
LINE
  5
26E
330
53
100
AcDbEntity
 67
     1
  8
1
  6
Continuous
 62
    18
100
AcDbLine
 10
1.805802999999999
 20
4.639852999999999
 30
0.0
 11
1.805802
 21
4.638396
 31
0.0
  0
LINE
  5
26F
330
53
100
AcDbEntity
 67
     1
  8
1
  6
Continuous
 62
    18
100
AcDbLine
 10
1.805802
 20
4.598396
 30
0.0
 11
1.805802
 21
4.638396
 31
0.0
  0
LINE
  5
270
330
53
100
AcDbEntity
 67
     1
  8
1
  6
Continuous
 62
    18
100
AcDbLine
 10
1.805802
 20
4.549148999999999
 30
0.0
 11
1.805802
 21
4.598396
 31
0.0
  0
LINE
  5
271
330
53
100
AcDbEntity
 67
     1
  8
1
  6
Continuous
 62
    18
100
AcDbLine
 10
1.805802999999999
 20
4.639853999999999
 30
0.0
 11
1.693581999999999
 21
4.639853999999999
 31
0.0
  0
LINE
  5
272
330
53
100
AcDbEntity
 67
     1
  8
1
  6
Continuous
 62
    18
100
AcDbLine
 10
1.69504
 20
4.638396
 30
0.0
 11
1.693581999999999
 21
4.639853999999999
 31
0.0
  0
LINE
  5
273
330
53
100
AcDbEntity
 67
     1
  8
1
  6
Continuous
 62
    18
100
AcDbLine
 10
1.69504
 20
4.638396
 30
0.0
 11
1.805802
 21
4.638396
 31
0.0
  0
LINE
  5
274
330
53
100
AcDbEntity
 67
     1
  8
1
  6
Continuous
 62
    18
100
AcDbLine
 10
2.053800999999999
 20
4.639852999999999
 30
0.0
 11
2.053802
 21
4.638396
 31
0.0
  0
LINE
  5
275
330
53
100
AcDbEntity
 67
     1
  8
1
  6
Continuous
 62
    18
100
AcDbLine
 10
2.053800999999999
 20
4.639852999999999
 30
0.0
 11
2.053800999999999
 21
4.704396
 31
0.0
  0
LINE
  5
276
330
53
100
AcDbEntity
 67
     1
  8
1
  6
Continuous
 62
    18
100
AcDbLine
 10
2.053802
 20
4.549148999999999
 30
0.0
 11
2.053802
 21
4.598396
 31
0.0
  0
LINE
  5
277
330
53
100
AcDbEntity
 67
     1
  8
1
  6
Continuous
 62
    18
100
AcDbLine
 10
2.053802
 20
4.598396
 30
0.0
 11
2.053802
 21
4.638396
 31
0.0
  0
LINE
  5
278
330
53
100
AcDbEntity
 67
     1
  8
1
  6
Continuous
 62
    18
100
AcDbLine
 10
2.164563999999999
 20
4.638396
 30
0.0
 11
2.166022
 21
4.639853999999999
 31
0.0
  0
LINE
  5
279
330
53
100
AcDbEntity
 67
     1
  8
1
  6
Continuous
 62
    18
100
AcDbLine
 10
2.166022
 20
4.639853999999999
 30
0.0
 11
2.053800999999999
 21
4.639853999999999
 31
0.0
  0
LINE
  5
27A
330
53
100
AcDbEntity
 67
     1
  8
1
  6
Continuous
 62
    18
100
AcDbLine
 10
2.164563999999999
 20
4.638396
 30
0.0
 11
2.053802
 21
4.638396
 31
0.0
  0
LINE
  5
27B
330
53
100
AcDbEntity
 67
     1
  8
1
  6
Continuous
 62
    18
100
AcDbLine
 10
1.693583
 20
4.369396
 30
0.0
 11
2.166020999999999
 21
4.369396
 31
0.0
  0
LINE
  5
27C
330
53
100
AcDbEntity
 67
     1
  8
1
  6
Continuous
 62
    18
100
AcDbLine
 10
2.166022
 20
4.369396
 30
0.0
 11
2.166022
 21
4.639853999999999
 31
0.0
  0
LINE
  5
27D
330
53
100
AcDbEntity
 67
     1
  8
1
  6
Continuous
 62
    18
100
AcDbLine
 10
2.164563999999999
 20
4.638396
 30
0.0
 11
2.164563999999999
 21
4.598396
 31
0.0
  0
LINE
  5
27E
330
53
100
AcDbEntity
 67
     1
  8
1
  6
Continuous
 62
    18
100
AcDbLine
 10
2.164302
 20
4.598396
 30
0.0
 11
2.164302
 21
4.393301
 31
0.0
  0
LINE
  5
27F
330
53
100
AcDbEntity
 67
     1
  8
1
  6
Continuous
 62
    18
100
AcDbLine
 10
2.164534999999999
 20
4.391437999999999
 30
0.0
 11
2.164302
 21
4.393301
 31
0.0
  0
LINE
  5
280
330
53
100
AcDbEntity
 67
     1
  8
1
  6
Continuous
 62
    18
100
AcDbLine
 10
2.164534999999999
 20
4.391437999999999
 30
0.0
 11
2.165195
 21
4.370275
 31
0.0
  0
LINE
  5
281
330
53
100
AcDbEntity
 67
     1
  8
1
  6
Continuous
 62
    18
100
AcDbLine
 10
2.165633999999999
 20
4.369396
 30
0.0
 11
2.165195
 21
4.370275
 31
0.0
  0
LINE
  5
282
330
53
100
AcDbEntity
 67
     1
  8
1
  6
Continuous
 62
    18
100
AcDbLine
 10
1.693581999999999
 20
4.639853999999999
 30
0.0
 11
1.693581999999999
 21
4.369396
 31
0.0
  0
LINE
  5
283
330
53
100
AcDbEntity
 67
     1
  8
1
  6
Continuous
 62
    18
100
AcDbLine
 10
1.69397
 20
4.369396
 30
0.0
 11
1.694409
 21
4.370275
 31
0.0
  0
LINE
  5
284
330
53
100
AcDbEntity
 67
     1
  8
1
  6
Continuous
 62
    18
100
AcDbLine
 10
1.694409
 20
4.370275
 30
0.0
 11
1.695068999999999
 21
4.391437999999999
 31
0.0
  0
LINE
  5
285
330
53
100
AcDbEntity
 67
     1
  8
1
  6
Continuous
 62
    18
100
AcDbLine
 10
1.695068999999999
 20
4.391437999999999
 30
0.0
 11
1.695302
 21
4.393301
 31
0.0
  0
LINE
  5
286
330
53
100
AcDbEntity
 67
     1
  8
1
  6
Continuous
 62
    18
100
AcDbLine
 10
1.695302
 20
4.598396
 30
0.0
 11
1.695302
 21
4.393301
 31
0.0
  0
LINE
  5
287
330
53
100
AcDbEntity
 67
     1
  8
1
  6
Continuous
 62
    18
100
AcDbLine
 10
1.69504
 20
4.638396
 30
0.0
 11
1.69504
 21
4.598396
 31
0.0
  0
LINE
  5
288
330
53
100
AcDbEntity
 67
     1
  8
1
  6
Continuous
 62
    18
100
AcDbLine
 10
2.040099
 20
4.785655
 30
0.0
 11
2.040099
 21
4.734396
 31
0.0
  0
LINE
  5
289
330
53
100
AcDbEntity
 67
     1
  8
1
  6
Continuous
 62
    18
100
AcDbLine
 10
2.040099
 20
4.734396
 30
0.0
 11
2.083800999999999
 21
4.734396
 31
0.0
  0
LINE
  5
28A
330
53
100
AcDbEntity
 67
     1
  8
1
  6
Continuous
 62
    18
100
AcDbLine
 10
2.083800999999999
 20
4.734396
 30
0.0
 11
2.083800999999999
 21
4.669853999999999
 31
0.0
  0
LINE
  5
28B
330
53
100
AcDbEntity
 67
     1
  8
1
  6
Continuous
 62
    18
100
AcDbLine
 10
2.083800999999999
 20
4.669853999999999
 30
0.0
 11
2.196022
 21
4.669853999999999
 31
0.0
  0
LINE
  5
28C
330
53
100
AcDbEntity
 67
     1
  8
1
  6
Continuous
 62
    18
100
AcDbLine
 10
2.196022
 20
4.669853999999999
 30
0.0
 11
2.196022
 21
4.339395999999999
 31
0.0
  0
LINE
  5
28D
330
53
100
AcDbEntity
 67
     1
  8
1
  6
Continuous
 62
    18
100
AcDbLine
 10
2.196022
 20
4.339395999999999
 30
0.0
 11
2.194802
 21
4.339395999999999
 31
0.0
  0
LINE
  5
28E
330
53
100
AcDbEntity
 67
     1
  8
1
  6
Continuous
 62
    18
100
AcDbLine
 10
1.664802
 20
4.339395999999999
 30
0.0
 11
1.663583
 21
4.339395999999999
 31
0.0
  0
LINE
  5
28F
330
53
100
AcDbEntity
 67
     1
  8
1
  6
Continuous
 62
    18
100
AcDbLine
 10
1.663583
 20
4.339395999999999
 30
0.0
 11
1.663583
 21
4.669853999999999
 31
0.0
  0
LINE
  5
290
330
53
100
AcDbEntity
 67
     1
  8
1
  6
Continuous
 62
    18
100
AcDbLine
 10
1.663583
 20
4.669853999999999
 30
0.0
 11
1.775802999999999
 21
4.669853999999999
 31
0.0
  0
LINE
  5
291
330
53
100
AcDbEntity
 67
     1
  8
1
  6
Continuous
 62
    18
100
AcDbLine
 10
1.775802999999999
 20
4.669853999999999
 30
0.0
 11
1.775802999999999
 21
4.734396
 31
0.0
  0
LINE
  5
292
330
53
100
AcDbEntity
 67
     1
  8
1
  6
Continuous
 62
    18
100
AcDbLine
 10
1.775802999999999
 20
4.734396
 30
0.0
 11
1.819504999999999
 21
4.734396
 31
0.0
  0
LINE
  5
293
330
53
100
AcDbEntity
 67
     1
  8
1
  6
Continuous
 62
    18
100
AcDbLine
 10
1.819504999999999
 20
4.734396
 30
0.0
 11
1.819504999999999
 21
4.785655
 31
0.0
  0
LINE
  5
294
330
53
100
AcDbEntity
 67
     1
  8
1
  6
Continuous
 62
    18
100
AcDbLine
 10
1.625837999999999
 20
4.118769
 30
0.0
 11
1.625837999999999
 21
4.768608999999999
 31
0.0
  0
LINE
  5
295
330
53
100
AcDbEntity
 67
     1
  8
1
  6
Continuous
 62
    18
100
AcDbLine
 10
2.233766999999999
 20
4.768608999999999
 30
0.0
 11
2.233766999999999
 21
4.118769
 31
0.0
  0
LINE
  5
296
330
53
100
AcDbEntity
 67
     1
  8
1
  6
Continuous
 62
    18
100
AcDbLine
 10
2.168363999999999
 20
4.768608999999999
 30
0.0
 11
2.233766999999999
 21
4.768608999999999
 31
0.0
  0
LINE
  5
297
330
53
100
AcDbEntity
 67
     1
  8
1
  6
Continuous
 62
    18
100
AcDbLine
 10
2.233766999999999
 20
4.768608999999999
 30
0.0
 11
2.235476999999999
 21
4.770319
 31
0.0
  0
LINE
  5
298
330
53
100
AcDbEntity
 67
     1
  8
1
  6
Continuous
 62
    18
100
AcDbLine
 10
2.235476999999999
 20
4.770319
 30
0.0
 11
2.170075
 21
4.770319
 31
0.0
  0
LINE
  5
299
330
53
100
AcDbEntity
 67
     1
  8
1
  6
Continuous
 62
    18
100
AcDbLine
 10
2.235476999999999
 20
4.770319
 30
0.0
 11
2.235476999999999
 21
4.831944
 31
0.0
  0
LINE
  5
29A
330
53
100
AcDbEntity
 67
     1
  8
1
  6
Continuous
 62
    18
100
AcDbLine
 10
2.242000999999999
 20
4.118769
 30
0.0
 11
2.242000999999999
 21
4.636413
 31
0.0
  0
LINE
  5
29B
330
53
100
AcDbEntity
 67
     1
  8
1
  6
Continuous
 62
    18
100
AcDbLine
 10
2.242000999999999
 20
4.636413
 30
0.0
 11
2.242000999999999
 21
4.729769
 31
0.0
  0
LINE
  5
29C
330
53
100
AcDbEntity
 67
     1
  8
1
  6
Continuous
 62
    18
100
AcDbLine
 10
1.617603
 20
4.729769
 30
0.0
 11
1.617603
 21
4.636413
 31
0.0
  0
LINE
  5
29D
330
53
100
AcDbEntity
 67
     1
  8
1
  6
Continuous
 62
    18
100
AcDbLine
 10
1.617603
 20
4.636413
 30
0.0
 11
1.617603
 21
4.118769
 31
0.0
  0
LINE
  5
29E
330
53
100
AcDbEntity
 67
     1
  8
1
  6
Continuous
 62
    18
100
AcDbLine
 10
1.805802
 20
4.599923
 30
0.0
 11
2.053802
 21
4.599923
 31
0.0
  0
LINE
  5
29F
330
53
100
AcDbEntity
 67
     1
  8
1
  6
Continuous
 62
    18
100
AcDbLine
 10
2.081802
 20
4.492026999999999
 30
0.0
 11
2.057802
 21
4.492026999999999
 31
0.0
  0
LINE
  5
2A0
330
53
100
AcDbEntity
 67
     1
  8
1
  6
Continuous
 62
    18
100
AcDbLine
 10
2.041802
 20
4.492026999999999
 30
0.0
 11
2.017802
 21
4.492026999999999
 31
0.0
  0
LINE
  5
2A1
330
53
100
AcDbEntity
 67
     1
  8
1
  6
Continuous
 62
    18
100
AcDbLine
 10
2.001802
 20
4.492026999999999
 30
0.0
 11
1.977802
 21
4.492026999999999
 31
0.0
  0
LINE
  5
2A2
330
53
100
AcDbEntity
 67
     1
  8
1
  6
Continuous
 62
    18
100
AcDbLine
 10
1.961802
 20
4.492026999999999
 30
0.0
 11
1.937801999999999
 21
4.492026999999999
 31
0.0
  0
LINE
  5
2A3
330
53
100
AcDbEntity
 67
     1
  8
1
  6
Continuous
 62
    18
100
AcDbLine
 10
1.921801999999999
 20
4.492026999999999
 30
0.0
 11
1.897802
 21
4.492026999999999
 31
0.0
  0
LINE
  5
2A4
330
53
100
AcDbEntity
 67
     1
  8
1
  6
Continuous
 62
    18
100
AcDbLine
 10
1.881802
 20
4.492026999999999
 30
0.0
 11
1.857801999999999
 21
4.492026999999999
 31
0.0
  0
LINE
  5
2A5
330
53
100
AcDbEntity
 67
     1
  8
1
  6
Continuous
 62
    18
100
AcDbLine
 10
1.841801999999999
 20
4.492026999999999
 30
0.0
 11
1.817802
 21
4.492026999999999
 31
0.0
  0
LINE
  5
2A6
330
53
100
AcDbEntity
 67
     1
  8
1
  6
Continuous
 62
    18
100
AcDbLine
 10
1.801802
 20
4.492026999999999
 30
0.0
 11
1.777802
 21
4.492026999999999
 31
0.0
  0
LINE
  5
2A7
330
53
100
AcDbEntity
 67
     1
  8
1
  6
Continuous
 62
    18
100
AcDbLine
 10
2.081802
 20
4.393301
 30
0.0
 11
2.164302
 21
4.393301
 31
0.0
  0
LINE
  5
2A8
330
53
100
AcDbEntity
 67
     1
  8
1
  6
Continuous
 62
    18
100
AcDbLine
 10
2.057802
 20
4.492026999999999
 30
0.0
 11
2.057802
 21
4.393301
 31
0.0
  0
LINE
  5
2A9
330
53
100
AcDbEntity
 67
     1
  8
1
  6
Continuous
 62
    18
100
AcDbLine
 10
2.041802
 20
4.393301
 30
0.0
 11
2.057802
 21
4.393301
 31
0.0
  0
LINE
  5
2AA
330
53
100
AcDbEntity
 67
     1
  8
1
  6
Continuous
 62
    18
100
AcDbLine
 10
2.041802
 20
4.492026999999999
 30
0.0
 11
2.041802
 21
4.393301
 31
0.0
  0
LINE
  5
2AB
330
53
100
AcDbEntity
 67
     1
  8
1
  6
Continuous
 62
    18
100
AcDbLine
 10
2.017802
 20
4.492026999999999
 30
0.0
 11
2.017802
 21
4.393301
 31
0.0
  0
LINE
  5
2AC
330
53
100
AcDbEntity
 67
     1
  8
1
  6
Continuous
 62
    18
100
AcDbLine
 10
2.001802
 20
4.393301
 30
0.0
 11
2.017802
 21
4.393301
 31
0.0
  0
LINE
  5
2AD
330
53
100
AcDbEntity
 67
     1
  8
1
  6
Continuous
 62
    18
100
AcDbLine
 10
2.001802
 20
4.492026999999999
 30
0.0
 11
2.001802
 21
4.393301
 31
0.0
  0
LINE
  5
2AE
330
53
100
AcDbEntity
 67
     1
  8
1
  6
Continuous
 62
    18
100
AcDbLine
 10
1.977802
 20
4.492026999999999
 30
0.0
 11
1.977802
 21
4.393301
 31
0.0
  0
LINE
  5
2AF
330
53
100
AcDbEntity
 67
     1
  8
1
  6
Continuous
 62
    18
100
AcDbLine
 10
1.961802
 20
4.393301
 30
0.0
 11
1.977802
 21
4.393301
 31
0.0
  0
LINE
  5
2B0
330
53
100
AcDbEntity
 67
     1
  8
1
  6
Continuous
 62
    18
100
AcDbLine
 10
1.961802
 20
4.492026999999999
 30
0.0
 11
1.961802
 21
4.393301
 31
0.0
  0
LINE
  5
2B1
330
53
100
AcDbEntity
 67
     1
  8
1
  6
Continuous
 62
    18
100
AcDbLine
 10
1.937801999999999
 20
4.492026999999999
 30
0.0
 11
1.937801999999999
 21
4.393301
 31
0.0
  0
LINE
  5
2B2
330
53
100
AcDbEntity
 67
     1
  8
1
  6
Continuous
 62
    18
100
AcDbLine
 10
1.937801999999999
 20
4.393301
 30
0.0
 11
1.921801999999999
 21
4.393301
 31
0.0
  0
LINE
  5
2B3
330
53
100
AcDbEntity
 67
     1
  8
1
  6
Continuous
 62
    18
100
AcDbLine
 10
1.921801999999999
 20
4.492026999999999
 30
0.0
 11
1.921801999999999
 21
4.393301
 31
0.0
  0
LINE
  5
2B4
330
53
100
AcDbEntity
 67
     1
  8
1
  6
Continuous
 62
    18
100
AcDbLine
 10
1.897802
 20
4.492026999999999
 30
0.0
 11
1.897802
 21
4.393301
 31
0.0
  0
LINE
  5
2B5
330
53
100
AcDbEntity
 67
     1
  8
1
  6
Continuous
 62
    18
100
AcDbLine
 10
1.897802
 20
4.393301
 30
0.0
 11
1.881802
 21
4.393301
 31
0.0
  0
LINE
  5
2B6
330
53
100
AcDbEntity
 67
     1
  8
1
  6
Continuous
 62
    18
100
AcDbLine
 10
1.881802
 20
4.492026999999999
 30
0.0
 11
1.881802
 21
4.393301
 31
0.0
  0
LINE
  5
2B7
330
53
100
AcDbEntity
 67
     1
  8
1
  6
Continuous
 62
    18
100
AcDbLine
 10
1.857801999999999
 20
4.492026999999999
 30
0.0
 11
1.857801999999999
 21
4.393301
 31
0.0
  0
LINE
  5
2B8
330
53
100
AcDbEntity
 67
     1
  8
1
  6
Continuous
 62
    18
100
AcDbLine
 10
1.857801999999999
 20
4.393301
 30
0.0
 11
1.841801999999999
 21
4.393301
 31
0.0
  0
LINE
  5
2B9
330
53
100
AcDbEntity
 67
     1
  8
1
  6
Continuous
 62
    18
100
AcDbLine
 10
1.841801999999999
 20
4.492026999999999
 30
0.0
 11
1.841801999999999
 21
4.393301
 31
0.0
  0
LINE
  5
2BA
330
53
100
AcDbEntity
 67
     1
  8
1
  6
Continuous
 62
    18
100
AcDbLine
 10
1.817802
 20
4.492026999999999
 30
0.0
 11
1.817802
 21
4.393301
 31
0.0
  0
LINE
  5
2BB
330
53
100
AcDbEntity
 67
     1
  8
1
  6
Continuous
 62
    18
100
AcDbLine
 10
1.817802
 20
4.393301
 30
0.0
 11
1.801802
 21
4.393301
 31
0.0
  0
LINE
  5
2BC
330
53
100
AcDbEntity
 67
     1
  8
1
  6
Continuous
 62
    18
100
AcDbLine
 10
1.801802
 20
4.492026999999999
 30
0.0
 11
1.801802
 21
4.393301
 31
0.0
  0
LINE
  5
2BD
330
53
100
AcDbEntity
 67
     1
  8
1
  6
Continuous
 62
    18
100
AcDbLine
 10
2.081802
 20
4.492026999999999
 30
0.0
 11
2.081802
 21
4.393301
 31
0.0
  0
LINE
  5
2BE
330
53
100
AcDbEntity
 67
     1
  8
1
  6
Continuous
 62
    18
100
AcDbLine
 10
1.777802
 20
4.492026999999999
 30
0.0
 11
1.777802
 21
4.393301
 31
0.0
  0
LINE
  5
2BF
330
53
100
AcDbEntity
 67
     1
  8
1
  6
Continuous
 62
    18
100
AcDbLine
 10
1.805802
 20
4.598396
 30
0.0
 11
1.69504
 21
4.598396
 31
0.0
  0
LINE
  5
2C0
330
53
100
AcDbEntity
 67
     1
  8
1
  6
Continuous
 62
    18
100
AcDbLine
 10
2.053802
 20
4.598396
 30
0.0
 11
2.164563999999999
 21
4.598396
 31
0.0
  0
LINE
  5
2C1
330
53
100
AcDbEntity
 67
     1
  8
1
  6
Continuous
 62
    18
100
AcDbLine
 10
2.053802
 20
4.549148999999999
 30
0.0
 11
1.805802
 21
4.549148999999999
 31
0.0
  0
LINE
  5
2C2
330
53
100
AcDbEntity
 67
     1
  8
1
  6
Continuous
 62
    18
100
AcDbLine
 10
1.777802
 20
4.393301
 30
0.0
 11
1.695302
 21
4.393301
 31
0.0
  0
LINE
  5
2C3
330
53
100
AcDbEntity
 67
     1
  8
1
  6
Continuous
 62
    18
100
AcDbLine
 10
2.053802
 20
4.551126999999999
 30
0.0
 11
1.805802
 21
4.551126999999999
 31
0.0
  0
LINE
  5
2C4
330
53
100
AcDbEntity
 67
     1
  8
1
  6
Continuous
 62
    18
100
AcDbLine
 10
1.805802
 20
4.581012999999999
 30
0.0
 11
2.053802
 21
4.581012999999999
 31
0.0
  0
LINE
  5
2C5
330
53
100
AcDbEntity
 67
     1
  8
1
  6
Continuous
 62
    18
100
AcDbLine
 10
1.777218999999999
 20
4.370275
 30
0.0
 11
1.778043999999999
 21
4.369862
 31
0.0
  0
LINE
  5
2C6
330
53
100
AcDbEntity
 67
     1
  8
1
  6
Continuous
 62
    18
100
AcDbLine
 10
1.801909
 20
4.369862
 30
0.0
 11
1.778043999999999
 21
4.369862
 31
0.0
  0
LINE
  5
2C7
330
53
100
AcDbEntity
 67
     1
  8
1
  6
Continuous
 62
    18
100
AcDbLine
 10
1.802733
 20
4.370275
 30
0.0
 11
1.801909
 21
4.369862
 31
0.0
  0
LINE
  5
2C8
330
53
100
AcDbEntity
 67
     1
  8
1
  6
Continuous
 62
    18
100
AcDbLine
 10
1.817218999999999
 20
4.370275
 30
0.0
 11
1.802733
 21
4.370275
 31
0.0
  0
LINE
  5
2C9
330
53
100
AcDbEntity
 67
     1
  8
1
  6
Continuous
 62
    18
100
AcDbLine
 10
1.817218999999999
 20
4.370275
 30
0.0
 11
1.818043
 21
4.369862
 31
0.0
  0
LINE
  5
2CA
330
53
100
AcDbEntity
 67
     1
  8
1
  6
Continuous
 62
    18
100
AcDbLine
 10
1.841909
 20
4.369862
 30
0.0
 11
1.818043
 21
4.369862
 31
0.0
  0
LINE
  5
2CB
330
53
100
AcDbEntity
 67
     1
  8
1
  6
Continuous
 62
    18
100
AcDbLine
 10
1.842733
 20
4.370275
 30
0.0
 11
1.841909
 21
4.369862
 31
0.0
  0
LINE
  5
2CC
330
53
100
AcDbEntity
 67
     1
  8
1
  6
Continuous
 62
    18
100
AcDbLine
 10
1.857218999999999
 20
4.370275
 30
0.0
 11
1.842733
 21
4.370275
 31
0.0
  0
LINE
  5
2CD
330
53
100
AcDbEntity
 67
     1
  8
1
  6
Continuous
 62
    18
100
AcDbLine
 10
1.857218999999999
 20
4.370275
 30
0.0
 11
1.858043999999999
 21
4.369862
 31
0.0
  0
LINE
  5
2CE
330
53
100
AcDbEntity
 67
     1
  8
1
  6
Continuous
 62
    18
100
AcDbLine
 10
1.881909
 20
4.369862
 30
0.0
 11
1.858043999999999
 21
4.369862
 31
0.0
  0
LINE
  5
2CF
330
53
100
AcDbEntity
 67
     1
  8
1
  6
Continuous
 62
    18
100
AcDbLine
 10
1.882733
 20
4.370275
 30
0.0
 11
1.881909
 21
4.369862
 31
0.0
  0
LINE
  5
2D0
330
53
100
AcDbEntity
 67
     1
  8
1
  6
Continuous
 62
    18
100
AcDbLine
 10
1.897218999999999
 20
4.370275
 30
0.0
 11
1.882733
 21
4.370275
 31
0.0
  0
LINE
  5
2D1
330
53
100
AcDbEntity
 67
     1
  8
1
  6
Continuous
 62
    18
100
AcDbLine
 10
1.897218999999999
 20
4.370275
 30
0.0
 11
1.898043999999999
 21
4.369862
 31
0.0
  0
LINE
  5
2D2
330
53
100
AcDbEntity
 67
     1
  8
1
  6
Continuous
 62
    18
100
AcDbLine
 10
1.921909
 20
4.369862
 30
0.0
 11
1.898043999999999
 21
4.369862
 31
0.0
  0
LINE
  5
2D3
330
53
100
AcDbEntity
 67
     1
  8
1
  6
Continuous
 62
    18
100
AcDbLine
 10
1.922733
 20
4.370275
 30
0.0
 11
1.921909
 21
4.369862
 31
0.0
  0
LINE
  5
2D4
330
53
100
AcDbEntity
 67
     1
  8
1
  6
Continuous
 62
    18
100
AcDbLine
 10
1.937218999999999
 20
4.370275
 30
0.0
 11
1.922733
 21
4.370275
 31
0.0
  0
LINE
  5
2D5
330
53
100
AcDbEntity
 67
     1
  8
1
  6
Continuous
 62
    18
100
AcDbLine
 10
1.937218999999999
 20
4.370275
 30
0.0
 11
1.938043
 21
4.369862
 31
0.0
  0
LINE
  5
2D6
330
53
100
AcDbEntity
 67
     1
  8
1
  6
Continuous
 62
    18
100
AcDbLine
 10
1.938043
 20
4.369862
 30
0.0
 11
1.961909
 21
4.369862
 31
0.0
  0
LINE
  5
2D7
330
53
100
AcDbEntity
 67
     1
  8
1
  6
Continuous
 62
    18
100
AcDbLine
 10
1.962733
 20
4.370275
 30
0.0
 11
1.961909
 21
4.369862
 31
0.0
  0
LINE
  5
2D8
330
53
100
AcDbEntity
 67
     1
  8
1
  6
Continuous
 62
    18
100
AcDbLine
 10
1.962733
 20
4.370275
 30
0.0
 11
1.977218999999999
 21
4.370275
 31
0.0
  0
LINE
  5
2D9
330
53
100
AcDbEntity
 67
     1
  8
1
  6
Continuous
 62
    18
100
AcDbLine
 10
1.977218999999999
 20
4.370275
 30
0.0
 11
1.978043999999999
 21
4.369862
 31
0.0
  0
LINE
  5
2DA
330
53
100
AcDbEntity
 67
     1
  8
1
  6
Continuous
 62
    18
100
AcDbLine
 10
1.978043999999999
 20
4.369862
 30
0.0
 11
2.001908999999999
 21
4.369862
 31
0.0
  0
LINE
  5
2DB
330
53
100
AcDbEntity
 67
     1
  8
1
  6
Continuous
 62
    18
100
AcDbLine
 10
2.002733
 20
4.370275
 30
0.0
 11
2.001908999999999
 21
4.369862
 31
0.0
  0
LINE
  5
2DC
330
53
100
AcDbEntity
 67
     1
  8
1
  6
Continuous
 62
    18
100
AcDbLine
 10
2.002733
 20
4.370275
 30
0.0
 11
2.017218999999999
 21
4.370275
 31
0.0
  0
LINE
  5
2DD
330
53
100
AcDbEntity
 67
     1
  8
1
  6
Continuous
 62
    18
100
AcDbLine
 10
2.017218999999999
 20
4.370275
 30
0.0
 11
2.018043999999999
 21
4.369862
 31
0.0
  0
LINE
  5
2DE
330
53
100
AcDbEntity
 67
     1
  8
1
  6
Continuous
 62
    18
100
AcDbLine
 10
2.018043999999999
 20
4.369862
 30
0.0
 11
2.041908999999999
 21
4.369862
 31
0.0
  0
LINE
  5
2DF
330
53
100
AcDbEntity
 67
     1
  8
1
  6
Continuous
 62
    18
100
AcDbLine
 10
2.042733
 20
4.370275
 30
0.0
 11
2.041908999999999
 21
4.369862
 31
0.0
  0
LINE
  5
2E0
330
53
100
AcDbEntity
 67
     1
  8
1
  6
Continuous
 62
    18
100
AcDbLine
 10
2.042733
 20
4.370275
 30
0.0
 11
2.057218999999999
 21
4.370275
 31
0.0
  0
LINE
  5
2E1
330
53
100
AcDbEntity
 67
     1
  8
1
  6
Continuous
 62
    18
100
AcDbLine
 10
2.057218999999999
 20
4.370275
 30
0.0
 11
2.058043
 21
4.369862
 31
0.0
  0
LINE
  5
2E2
330
53
100
AcDbEntity
 67
     1
  8
1
  6
Continuous
 62
    18
100
AcDbLine
 10
2.058043
 20
4.369862
 30
0.0
 11
2.081908
 21
4.369862
 31
0.0
  0
LINE
  5
2E3
330
53
100
AcDbEntity
 67
     1
  8
1
  6
Continuous
 62
    18
100
AcDbLine
 10
2.082733
 20
4.370275
 30
0.0
 11
2.081908
 21
4.369862
 31
0.0
  0
LINE
  5
2E4
330
53
100
AcDbEntity
 67
     1
  8
1
  6
Continuous
 62
    18
100
AcDbLine
 10
1.777218999999999
 20
4.370275
 30
0.0
 11
1.762733
 21
4.370275
 31
0.0
  0
LINE
  5
2E5
330
53
100
AcDbEntity
 67
     1
  8
1
  6
Continuous
 62
    18
100
AcDbLine
 10
2.082733
 20
4.370275
 30
0.0
 11
2.097218999999999
 21
4.370275
 31
0.0
  0
LINE
  5
2E6
330
53
100
AcDbEntity
 67
     1
  8
1
  6
Continuous
 62
    18
100
AcDbLine
 10
2.097218999999999
 20
4.370275
 30
0.0
 11
2.098975999999999
 21
4.369396
 31
0.0
  0
LINE
  5
2E7
330
53
100
AcDbEntity
 67
     1
  8
1
  6
Continuous
 62
    18
100
AcDbLine
 10
1.762733
 20
4.370275
 30
0.0
 11
1.760975999999999
 21
4.369396
 31
0.0
  0
LINE
  5
2E8
330
53
100
AcDbEntity
 67
     1
  8
1
  6
Continuous
 62
    18
100
AcDbLine
 10
1.849504999999999
 20
4.704396
 30
0.0
 11
1.847184
 21
4.706717
 31
0.0
  0
LINE
  5
2E9
330
53
100
AcDbEntity
 67
     1
  8
1
  6
Continuous
 62
    18
100
AcDbLine
 10
1.847184
 20
4.706717
 30
0.0
 11
1.840671999999999
 21
4.713229
 31
0.0
  0
LINE
  5
2EA
330
53
100
AcDbEntity
 67
     1
  8
1
  6
Continuous
 62
    18
100
AcDbLine
 10
1.840671999999999
 20
4.713229
 30
0.0
 11
1.830954999999999
 21
4.722946
 31
0.0
  0
LINE
  5
2EB
330
53
100
AcDbEntity
 67
     1
  8
1
  6
Continuous
 62
    18
100
AcDbLine
 10
1.830954999999999
 20
4.722946
 30
0.0
 11
1.819504999999999
 21
4.734396
 31
0.0
  0
LINE
  5
2EC
330
53
100
AcDbEntity
 67
     1
  8
1
  6
Continuous
 62
    18
100
AcDbLine
 10
1.805802999999999
 20
4.704396
 30
0.0
 11
1.803519999999999
 21
4.706679
 31
0.0
  0
LINE
  5
2ED
330
53
100
AcDbEntity
 67
     1
  8
1
  6
Continuous
 62
    18
100
AcDbLine
 10
1.803519999999999
 20
4.706679
 30
0.0
 11
1.797016999999999
 21
4.713181999999999
 31
0.0
  0
LINE
  5
2EE
330
53
100
AcDbEntity
 67
     1
  8
1
  6
Continuous
 62
    18
100
AcDbLine
 10
1.797016999999999
 20
4.713181999999999
 30
0.0
 11
1.787284
 21
4.722915
 31
0.0
  0
LINE
  5
2EF
330
53
100
AcDbEntity
 67
     1
  8
1
  6
Continuous
 62
    18
100
AcDbLine
 10
1.787284
 20
4.722915
 30
0.0
 11
1.775802999999999
 21
4.734396
 31
0.0
  0
LINE
  5
2F0
330
53
100
AcDbEntity
 67
     1
  8
1
  6
Continuous
 62
    18
100
AcDbLine
 10
1.805802999999999
 20
4.639853999999999
 30
0.0
 11
1.803481999999999
 21
4.642174999999999
 31
0.0
  0
LINE
  5
2F1
330
53
100
AcDbEntity
 67
     1
  8
1
  6
Continuous
 62
    18
100
AcDbLine
 10
1.803481999999999
 20
4.642174999999999
 30
0.0
 11
1.79697
 21
4.648685999999999
 31
0.0
  0
LINE
  5
2F2
330
53
100
AcDbEntity
 67
     1
  8
1
  6
Continuous
 62
    18
100
AcDbLine
 10
1.79697
 20
4.648685999999999
 30
0.0
 11
1.787252999999999
 21
4.658402999999999
 31
0.0
  0
LINE
  5
2F3
330
53
100
AcDbEntity
 67
     1
  8
1
  6
Continuous
 62
    18
100
AcDbLine
 10
1.787252999999999
 20
4.658402999999999
 30
0.0
 11
1.775802999999999
 21
4.669853999999999
 31
0.0
  0
LINE
  5
2F4
330
53
100
AcDbEntity
 67
     1
  8
1
  6
Continuous
 62
    18
100
AcDbLine
 10
1.693581999999999
 20
4.639853999999999
 30
0.0
 11
1.691261
 21
4.642174999999999
 31
0.0
  0
LINE
  5
2F5
330
53
100
AcDbEntity
 67
     1
  8
1
  6
Continuous
 62
    18
100
AcDbLine
 10
1.691261
 20
4.642174999999999
 30
0.0
 11
1.684749
 21
4.648685999999999
 31
0.0
  0
LINE
  5
2F6
330
53
100
AcDbEntity
 67
     1
  8
1
  6
Continuous
 62
    18
100
AcDbLine
 10
1.684749
 20
4.648685999999999
 30
0.0
 11
1.675033
 21
4.658402999999999
 31
0.0
  0
LINE
  5
2F7
330
53
100
AcDbEntity
 67
     1
  8
1
  6
Continuous
 62
    18
100
AcDbLine
 10
1.675033
 20
4.658402999999999
 30
0.0
 11
1.663583
 21
4.669853999999999
 31
0.0
  0
LINE
  5
2F8
330
53
100
AcDbEntity
 67
     1
  8
1
  6
Continuous
 62
    18
100
AcDbLine
 10
1.693581999999999
 20
4.369396
 30
0.0
 11
1.691261
 21
4.367073999999999
 31
0.0
  0
LINE
  5
2F9
330
53
100
AcDbEntity
 67
     1
  8
1
  6
Continuous
 62
    18
100
AcDbLine
 10
1.691261
 20
4.367073999999999
 30
0.0
 11
1.684749
 21
4.360562999999999
 31
0.0
  0
LINE
  5
2FA
330
53
100
AcDbEntity
 67
     1
  8
1
  6
Continuous
 62
    18
100
AcDbLine
 10
1.684749
 20
4.360562999999999
 30
0.0
 11
1.675033
 21
4.350845999999999
 31
0.0
  0
LINE
  5
2FB
330
53
100
AcDbEntity
 67
     1
  8
1
  6
Continuous
 62
    18
100
AcDbLine
 10
1.675033
 20
4.350845999999999
 30
0.0
 11
1.663583
 21
4.339395999999999
 31
0.0
  0
LINE
  5
2FC
330
53
100
AcDbEntity
 67
     1
  8
1
  6
Continuous
 62
    18
100
AcDbLine
 10
2.166022
 20
4.369396
 30
0.0
 11
2.168343
 21
4.367073999999999
 31
0.0
  0
LINE
  5
2FD
330
53
100
AcDbEntity
 67
     1
  8
1
  6
Continuous
 62
    18
100
AcDbLine
 10
2.168343
 20
4.367073999999999
 30
0.0
 11
2.174854999999999
 21
4.360562999999999
 31
0.0
  0
LINE
  5
2FE
330
53
100
AcDbEntity
 67
     1
  8
1
  6
Continuous
 62
    18
100
AcDbLine
 10
2.174854999999999
 20
4.360562999999999
 30
0.0
 11
2.184571
 21
4.350845999999999
 31
0.0
  0
LINE
  5
2FF
330
53
100
AcDbEntity
 67
     1
  8
1
  6
Continuous
 62
    18
100
AcDbLine
 10
2.184571
 20
4.350845999999999
 30
0.0
 11
2.196022
 21
4.339395999999999
 31
0.0
  0
LINE
  5
300
330
53
100
AcDbEntity
 67
     1
  8
1
  6
Continuous
 62
    18
100
AcDbLine
 10
2.166022
 20
4.639853999999999
 30
0.0
 11
2.168343
 21
4.642174999999999
 31
0.0
  0
LINE
  5
301
330
53
100
AcDbEntity
 67
     1
  8
1
  6
Continuous
 62
    18
100
AcDbLine
 10
2.168343
 20
4.642174999999999
 30
0.0
 11
2.174854999999999
 21
4.648685999999999
 31
0.0
  0
LINE
  5
302
330
53
100
AcDbEntity
 67
     1
  8
1
  6
Continuous
 62
    18
100
AcDbLine
 10
2.174854999999999
 20
4.648685999999999
 30
0.0
 11
2.184571
 21
4.658402999999999
 31
0.0
  0
LINE
  5
303
330
53
100
AcDbEntity
 67
     1
  8
1
  6
Continuous
 62
    18
100
AcDbLine
 10
2.184571
 20
4.658402999999999
 30
0.0
 11
2.196022
 21
4.669853999999999
 31
0.0
  0
LINE
  5
304
330
53
100
AcDbEntity
 67
     1
  8
1
  6
Continuous
 62
    18
100
AcDbLine
 10
2.053800999999999
 20
4.639853999999999
 30
0.0
 11
2.056122
 21
4.642174999999999
 31
0.0
  0
LINE
  5
305
330
53
100
AcDbEntity
 67
     1
  8
1
  6
Continuous
 62
    18
100
AcDbLine
 10
2.056122
 20
4.642174999999999
 30
0.0
 11
2.062634
 21
4.648685999999999
 31
0.0
  0
LINE
  5
306
330
53
100
AcDbEntity
 67
     1
  8
1
  6
Continuous
 62
    18
100
AcDbLine
 10
2.062634
 20
4.648685999999999
 30
0.0
 11
2.072350999999999
 21
4.658402999999999
 31
0.0
  0
LINE
  5
307
330
53
100
AcDbEntity
 67
     1
  8
1
  6
Continuous
 62
    18
100
AcDbLine
 10
2.072350999999999
 20
4.658402999999999
 30
0.0
 11
2.083800999999999
 21
4.669853999999999
 31
0.0
  0
LINE
  5
308
330
53
100
AcDbEntity
 67
     1
  8
1
  6
Continuous
 62
    18
100
AcDbLine
 10
2.053800999999999
 20
4.704396
 30
0.0
 11
2.056083999999999
 21
4.706679
 31
0.0
  0
LINE
  5
309
330
53
100
AcDbEntity
 67
     1
  8
1
  6
Continuous
 62
    18
100
AcDbLine
 10
2.056083999999999
 20
4.706679
 30
0.0
 11
2.062588
 21
4.713181999999999
 31
0.0
  0
LINE
  5
30A
330
53
100
AcDbEntity
 67
     1
  8
1
  6
Continuous
 62
    18
100
AcDbLine
 10
2.062588
 20
4.713181999999999
 30
0.0
 11
2.072319999999999
 21
4.722915
 31
0.0
  0
LINE
  5
30B
330
53
100
AcDbEntity
 67
     1
  8
1
  6
Continuous
 62
    18
100
AcDbLine
 10
2.072319999999999
 20
4.722915
 30
0.0
 11
2.083800999999999
 21
4.734396
 31
0.0
  0
LINE
  5
30C
330
53
100
AcDbEntity
 67
     1
  8
1
  6
Continuous
 62
    18
100
AcDbLine
 10
2.010099
 20
4.704396
 30
0.0
 11
2.01242
 21
4.706717
 31
0.0
  0
LINE
  5
30D
330
53
100
AcDbEntity
 67
     1
  8
1
  6
Continuous
 62
    18
100
AcDbLine
 10
2.01242
 20
4.706717
 30
0.0
 11
2.018931999999999
 21
4.713229
 31
0.0
  0
LINE
  5
30E
330
53
100
AcDbEntity
 67
     1
  8
1
  6
Continuous
 62
    18
100
AcDbLine
 10
2.018931999999999
 20
4.713229
 30
0.0
 11
2.028649
 21
4.722946
 31
0.0
  0
LINE
  5
30F
330
53
100
AcDbEntity
 67
     1
  8
1
  6
Continuous
 62
    18
100
AcDbLine
 10
2.028649
 20
4.722946
 30
0.0
 11
2.040099
 21
4.734396
 31
0.0
  0
LINE
  5
310
330
53
100
AcDbEntity
 67
     1
  8
1
  6
Continuous
 62
    18
100
AcDbLine
 10
5.442066
 20
4.829919999999999
 30
0.0
 11
5.442066
 21
4.801066
 31
0.0
  0
LINE
  5
311
330
53
100
AcDbEntity
 67
     1
  8
1
  6
Continuous
 62
    18
100
AcDbLine
 10
5.442066
 20
4.801066
 30
0.0
 11
5.442066
 21
4.762730999999999
 31
0.0
  0
LINE
  5
312
330
53
100
AcDbEntity
 67
     1
  8
1
  6
Continuous
 62
    18
100
AcDbLine
 10
5.442066
 20
4.762730999999999
 30
0.0
 11
5.442066
 21
4.715994
 31
0.0
  0
LINE
  5
313
330
53
100
AcDbEntity
 67
     1
  8
1
  6
Continuous
 62
    18
100
AcDbLine
 10
5.442066
 20
4.715994
 30
0.0
 11
5.442066
 21
4.712388999999999
 31
0.0
  0
LINE
  5
314
330
53
100
AcDbEntity
 67
     1
  8
1
  6
Continuous
 62
    18
100
AcDbLine
 10
5.442066
 20
4.712388999999999
 30
0.0
 11
5.442066
 21
4.708291
 31
0.0
  0
LINE
  5
315
330
53
100
AcDbEntity
 67
     1
  8
1
  6
Continuous
 62
    18
100
AcDbLine
 10
5.442066
 20
4.708291
 30
0.0
 11
5.442066
 21
4.217357999999999
 31
0.0
  0
LINE
  5
316
330
53
100
AcDbEntity
 67
     1
  8
1
  6
Continuous
 62
    18
100
AcDbLine
 10
5.442066
 20
4.217357999999999
 30
0.0
 11
5.442066
 21
4.213230999999999
 31
0.0
  0
LINE
  5
317
330
53
100
AcDbEntity
 67
     1
  8
1
  6
Continuous
 62
    18
100
AcDbLine
 10
5.442066
 20
4.213230999999999
 30
0.0
 11
5.442066
 21
4.209608
 31
0.0
  0
LINE
  5
318
330
53
100
AcDbEntity
 67
     1
  8
1
  6
Continuous
 62
    18
100
AcDbLine
 10
5.442066
 20
4.117632
 30
0.0
 11
5.442066
 21
4.158337999999999
 31
0.0
  0
LINE
  5
319
330
53
100
AcDbEntity
 67
     1
  8
1
  6
Continuous
 62
    18
100
AcDbLine
 10
5.442066
 20
4.158337999999999
 30
0.0
 11
5.442066
 21
4.209608
 31
0.0
  0
LINE
  5
31A
330
53
100
AcDbEntity
 67
     1
  8
1
  6
Continuous
 62
    18
100
AcDbLine
 10
5.084063999999999
 20
4.109936
 30
0.0
 11
5.182015999999999
 21
4.111646
 31
0.0
  0
LINE
  5
31B
330
53
100
AcDbEntity
 67
     1
  8
1
  6
Continuous
 62
    18
100
AcDbLine
 10
5.182015999999999
 20
4.111646
 30
0.0
 11
5.267275999999999
 21
4.113133999999999
 31
0.0
  0
LINE
  5
31C
330
53
100
AcDbEntity
 67
     1
  8
1
  6
Continuous
 62
    18
100
AcDbLine
 10
4.992329999999999
 20
4.108335
 30
0.0
 11
5.084063999999999
 21
4.109936
 31
0.0
  0
LINE
  5
31D
330
53
100
AcDbEntity
 67
     1
  8
1
  6
Continuous
 62
    18
100
AcDbLine
 10
5.442066
 20
4.116184999999999
 30
0.0
 11
5.373193999999999
 21
4.114983
 31
0.0
  0
LINE
  5
31E
330
53
100
AcDbEntity
 67
     1
  8
1
  6
Continuous
 62
    18
100
AcDbLine
 10
5.373193999999999
 20
4.114983
 30
0.0
 11
5.307719999999999
 21
4.113839999999999
 31
0.0
  0
LINE
  5
31F
330
53
100
AcDbEntity
 67
     1
  8
1
  6
Continuous
 62
    18
100
AcDbLine
 10
5.267275999999999
 20
4.113133999999999
 30
0.0
 11
5.267275999999999
 21
4.124162
 31
0.0
  0
LINE
  5
320
330
53
100
AcDbEntity
 67
     1
  8
1
  6
Continuous
 62
    18
100
AcDbLine
 10
5.267275999999999
 20
4.124162
 30
0.0
 11
5.267275999999999
 21
4.135692999999999
 31
0.0
  0
LINE
  5
321
330
53
100
AcDbEntity
 67
     1
  8
1
  6
Continuous
 62
    18
100
AcDbLine
 10
5.086197
 20
4.134319999999999
 30
0.0
 11
5.267275999999999
 21
4.135692999999999
 31
0.0
  0
LINE
  5
322
330
53
100
AcDbEntity
 67
     1
  8
1
  6
Continuous
 62
    18
100
AcDbLine
 10
5.284488999999999
 20
4.113433999999999
 30
0.0
 11
5.292462
 21
4.114651999999999
 31
0.0
  0
LINE
  5
323
330
53
100
AcDbEntity
 67
     1
  8
1
  6
Continuous
 62
    18
100
AcDbLine
 10
5.292462
 20
4.114651999999999
 30
0.0
 11
5.284488999999999
 21
4.113433999999999
 31
0.0
  0
LINE
  5
324
330
53
100
AcDbEntity
 67
     1
  8
1
  6
Continuous
 62
    18
100
AcDbLine
 10
5.267275999999999
 20
4.135692999999999
 30
0.0
 11
5.267275999999999
 21
4.169755999999999
 31
0.0
  0
LINE
  5
325
330
53
100
AcDbEntity
 67
     1
  8
1
  6
Continuous
 62
    18
100
AcDbLine
 10
5.267275999999999
 20
4.169755999999999
 30
0.0
 11
5.270899
 21
4.191017999999999
 31
0.0
  0
LINE
  5
326
330
53
100
AcDbEntity
 67
     1
  8
1
  6
Continuous
 62
    18
100
AcDbLine
 10
5.270899
 20
4.191017999999999
 30
0.0
 11
5.278107
 21
4.204608
 31
0.0
  0
LINE
  5
327
330
53
100
AcDbEntity
 67
     1
  8
1
  6
Continuous
 62
    18
100
AcDbLine
 10
5.278107
 20
4.204608
 30
0.0
 11
5.285586
 21
4.211968999999999
 31
0.0
  0
LINE
  5
328
330
53
100
AcDbEntity
 67
     1
  8
1
  6
Continuous
 62
    18
100
AcDbLine
 10
5.285586
 20
4.211968999999999
 30
0.0
 11
5.292812
 21
4.21555
 31
0.0
  0
LINE
  5
329
330
53
100
AcDbEntity
 67
     1
  8
1
  6
Continuous
 62
    18
100
AcDbLine
 10
5.292812
 20
4.21555
 30
0.0
 11
5.298716999999999
 21
4.216442999999999
 31
0.0
  0
LINE
  5
32A
330
53
100
AcDbEntity
 67
     1
  8
1
  6
Continuous
 62
    18
100
AcDbLine
 10
5.298716999999999
 20
4.216442999999999
 30
0.0
 11
5.442066
 21
4.217357999999999
 31
0.0
  0
LINE
  5
32B
330
53
100
AcDbEntity
 67
     1
  8
1
  6
Continuous
 62
    18
100
AcDbLine
 10
5.442066
 20
4.708291
 30
0.0
 11
5.402039
 21
4.708544999999999
 31
0.0
  0
LINE
  5
32C
330
53
100
AcDbEntity
 67
     1
  8
1
  6
Continuous
 62
    18
100
AcDbLine
 10
5.402039
 20
4.708544999999999
 30
0.0
 11
5.350276
 21
4.708873
 31
0.0
  0
LINE
  5
32D
330
53
100
AcDbEntity
 67
     1
  8
1
  6
Continuous
 62
    18
100
AcDbLine
 10
5.350276
 20
4.708873
 30
0.0
 11
5.350276
 21
4.784968
 31
0.0
  0
LINE
  5
32E
330
53
100
AcDbEntity
 67
     1
  8
1
  6
Continuous
 62
    18
100
AcDbLine
 10
5.350276
 20
4.784968
 30
0.0
 11
5.227254
 21
4.785851
 31
0.0
  0
LINE
  5
32F
330
53
100
AcDbEntity
 67
     1
  8
1
  6
Continuous
 62
    18
100
AcDbLine
 10
5.227254
 20
4.785851
 30
0.0
 11
5.087902999999999
 21
4.786849
 31
0.0
  0
LINE
  5
330
330
53
100
AcDbEntity
 67
     1
  8
1
  6
Continuous
 62
    18
100
AcDbLine
 10
5.087902999999999
 20
4.786849
 30
0.0
 11
5.084063999999999
 21
4.830733
 31
0.0
  0
LINE
  5
331
330
53
100
AcDbEntity
 67
     1
  8
1
  6
Continuous
 62
    18
100
AcDbLine
 10
5.084063999999999
 20
4.830733
 30
0.0
 11
4.992329999999999
 21
4.830733
 31
0.0
  0
LINE
  5
332
330
53
100
AcDbEntity
 67
     1
  8
1
  6
Continuous
 62
    18
100
AcDbLine
 10
4.992329999999999
 20
4.830733
 30
0.0
 11
4.992329999999999
 21
4.542926999999999
 31
0.0
  0
LINE
  5
333
330
53
100
AcDbEntity
 67
     1
  8
1
  6
Continuous
 62
    18
100
AcDbLine
 10
4.992329999999999
 20
4.542926999999999
 30
0.0
 11
4.992329999999999
 21
4.214732999999999
 31
0.0
  0
LINE
  5
334
330
53
100
AcDbEntity
 67
     1
  8
1
  6
Continuous
 62
    18
100
AcDbLine
 10
4.992329999999999
 20
4.214732999999999
 30
0.0
 11
4.992329999999999
 21
4.108335
 31
0.0
  0
LINE
  5
335
330
53
100
AcDbEntity
 67
     1
  8
1
  6
Continuous
 62
    18
100
AcDbLine
 10
5.084063999999999
 20
4.109936
 30
0.0
 11
5.086197
 21
4.134319999999999
 31
0.0
  0
LINE
  5
336
330
53
100
AcDbEntity
 67
     1
  8
1
  6
Continuous
 62
    18
100
AcDbLine
 10
5.298716999999999
 20
4.115186
 30
0.0
 11
5.295278999999999
 21
4.115226999999999
 31
0.0
  0
LINE
  5
337
330
53
100
AcDbEntity
 67
     1
  8
1
  6
Continuous
 62
    18
100
AcDbLine
 10
5.295278999999999
 20
4.115226999999999
 30
0.0
 11
5.292462
 21
4.114651999999999
 31
0.0
  0
LINE
  5
338
330
53
100
AcDbEntity
 67
     1
  8
1
  6
Continuous
 62
    18
100
AcDbLine
 10
5.307719999999999
 20
4.113839999999999
 30
0.0
 11
5.303039
 21
4.114391999999999
 31
0.0
  0
LINE
  5
339
330
53
100
AcDbEntity
 67
     1
  8
1
  6
Continuous
 62
    18
100
AcDbLine
 10
5.303039
 20
4.114391999999999
 30
0.0
 11
5.299077999999999
 21
4.115126999999999
 31
0.0
  0
LINE
  5
33A
330
53
100
AcDbEntity
 67
     1
  8
1
  6
Continuous
 62
    18
100
AcDbLine
 10
5.298716999999999
 20
4.115186
 30
0.0
 11
5.299077999999999
 21
4.115126999999999
 31
0.0
  0
LINE
  5
33B
330
53
100
AcDbEntity
 67
     1
  8
1
  6
Continuous
 62
    18
100
AcDbLine
 10
5.383312999999999
 20
4.769286
 30
0.0
 11
5.383312999999999
 21
4.770011
 31
0.0
  0
LINE
  5
33C
330
53
100
AcDbEntity
 67
     1
  8
1
  6
Continuous
 62
    18
100
AcDbLine
 10
5.383312999999999
 20
4.770011
 30
0.0
 11
5.383312999999999
 21
4.770732999999999
 31
0.0
  0
LINE
  5
33D
330
53
100
AcDbEntity
 67
     1
  8
1
  6
Continuous
 62
    18
100
AcDbLine
 10
5.378312999999999
 20
4.775732999999999
 30
0.0
 11
5.379494
 21
4.775591999999999
 31
0.0
  0
LINE
  5
33E
330
53
100
AcDbEntity
 67
     1
  8
1
  6
Continuous
 62
    18
100
AcDbLine
 10
5.379494
 20
4.775591999999999
 30
0.0
 11
5.380533999999999
 21
4.775212
 31
0.0
  0
LINE
  5
33F
330
53
100
AcDbEntity
 67
     1
  8
1
  6
Continuous
 62
    18
100
AcDbLine
 10
5.380533999999999
 20
4.775212
 30
0.0
 11
5.381739999999999
 21
4.774373999999999
 31
0.0
  0
LINE
  5
340
330
53
100
AcDbEntity
 67
     1
  8
1
  6
Continuous
 62
    18
100
AcDbLine
 10
5.381739999999999
 20
4.774373999999999
 30
0.0
 11
5.382883999999999
 21
4.772758999999999
 31
0.0
  0
LINE
  5
341
330
53
100
AcDbEntity
 67
     1
  8
1
  6
Continuous
 62
    18
100
AcDbLine
 10
5.382883999999999
 20
4.772758999999999
 30
0.0
 11
5.383312999999999
 21
4.770732999999999
 31
0.0
  0
LINE
  5
342
330
53
100
AcDbEntity
 67
     1
  8
1
  6
Continuous
 62
    18
100
AcDbLine
 10
5.383312999999999
 20
4.769286
 30
0.0
 11
5.382925
 21
4.767713999999999
 31
0.0
  0
LINE
  5
343
330
53
100
AcDbEntity
 67
     1
  8
1
  6
Continuous
 62
    18
100
AcDbLine
 10
5.382925
 20
4.767713999999999
 30
0.0
 11
5.38192
 21
4.766468999999999
 31
0.0
  0
LINE
  5
344
330
53
100
AcDbEntity
 67
     1
  8
1
  6
Continuous
 62
    18
100
AcDbLine
 10
5.38192
 20
4.766468999999999
 30
0.0
 11
5.380695999999999
 21
4.765716999999999
 31
0.0
  0
LINE
  5
345
330
53
100
AcDbEntity
 67
     1
  8
1
  6
Continuous
 62
    18
100
AcDbLine
 10
5.380695999999999
 20
4.765716999999999
 30
0.0
 11
5.379415999999999
 21
4.765342999999999
 31
0.0
  0
LINE
  5
346
330
53
100
AcDbEntity
 67
     1
  8
1
  6
Continuous
 62
    18
100
AcDbLine
 10
5.379415999999999
 20
4.765342999999999
 30
0.0
 11
5.378356
 21
4.765263
 31
0.0
  0
LINE
  5
347
330
53
100
AcDbEntity
 67
     1
  8
1
  6
Continuous
 62
    18
100
AcDbLine
 10
4.943329
 20
4.196691999999999
 30
0.0
 11
4.943329
 21
4.192299
 31
0.0
  0
LINE
  5
348
330
53
100
AcDbEntity
 67
     1
  8
1
  6
Continuous
 62
    18
100
AcDbLine
 10
5.378312999999999
 20
4.775732999999999
 30
0.0
 11
5.362066
 21
4.775732999999999
 31
0.0
  0
LINE
  5
349
330
53
100
AcDbEntity
 67
     1
  8
1
  6
Continuous
 62
    18
100
AcDbLine
 10
5.084063999999999
 20
4.830733
 30
0.0
 11
5.224686
 21
4.830733
 31
0.0
  0
LINE
  5
34A
330
53
100
AcDbEntity
 67
     1
  8
1
  6
Continuous
 62
    18
100
AcDbLine
 10
5.224686
 20
4.830733
 30
0.0
 11
5.350065999999999
 21
4.830733
 31
0.0
  0
LINE
  5
34B
330
53
100
AcDbEntity
 67
     1
  8
1
  6
Continuous
 62
    18
100
AcDbLine
 10
5.352198
 20
4.830733
 30
0.0
 11
5.401958
 21
4.830733
 31
0.0
  0
LINE
  5
34C
330
53
100
AcDbEntity
 67
     1
  8
1
  6
Continuous
 62
    18
100
AcDbLine
 10
5.401958
 20
4.830733
 30
0.0
 11
5.442066
 21
4.830733
 31
0.0
  0
LINE
  5
34D
330
53
100
AcDbEntity
 67
     1
  8
1
  6
Continuous
 62
    18
100
AcDbLine
 10
5.350276
 20
4.784968
 30
0.0
 11
5.350276
 21
4.808946999999999
 31
0.0
  0
LINE
  5
34E
330
53
100
AcDbEntity
 67
     1
  8
1
  6
Continuous
 62
    18
100
AcDbLine
 10
5.350276
 20
4.808946999999999
 30
0.0
 11
5.350276
 21
4.830731
 31
0.0
  0
LINE
  5
34F
330
53
100
AcDbEntity
 67
     1
  8
1
  6
Continuous
 62
    18
100
AcDbLine
 10
5.350276
 20
4.830731
 30
0.0
 11
5.350065999999999
 21
4.830733
 31
0.0
  0
LINE
  5
350
330
53
100
AcDbEntity
 67
     1
  8
1
  6
Continuous
 62
    18
100
AcDbLine
 10
5.378356
 20
4.765263
 30
0.0
 11
5.362066
 21
4.765514999999999
 31
0.0
  0
LINE
  5
351
330
53
100
AcDbEntity
 67
     1
  8
1
  6
Continuous
 62
    18
100
AcDbLine
 10
5.3784
 20
4.765266
 30
0.0
 11
5.3784
 21
4.775732999999999
 31
0.0
  0
LINE
  5
352
330
53
100
AcDbEntity
 67
     1
  8
1
  6
Continuous
 62
    18
100
AcDbLine
 10
5.452066
 20
4.617105999999999
 30
0.0
 11
5.452066
 21
4.622762999999999
 31
0.0
  0
LINE
  5
353
330
53
100
AcDbEntity
 67
     1
  8
1
  6
Continuous
 62
    18
100
AcDbLine
 10
5.452066
 20
4.622762999999999
 30
0.0
 11
5.452066
 21
4.625105999999999
 31
0.0
  0
LINE
  5
354
330
53
100
AcDbEntity
 67
     1
  8
1
  6
Continuous
 62
    18
100
AcDbLine
 10
5.452066
 20
4.617105999999999
 30
0.0
 11
5.452066
 21
4.605106
 31
0.0
  0
LINE
  5
355
330
53
100
AcDbEntity
 67
     1
  8
1
  6
Continuous
 62
    18
100
AcDbLine
 10
5.452066
 20
4.625105999999999
 30
0.0
 11
5.442066
 21
4.625105999999999
 31
0.0
  0
LINE
  5
356
330
53
100
AcDbEntity
 67
     1
  8
1
  6
Continuous
 62
    18
100
AcDbLine
 10
5.452066
 20
4.605106
 30
0.0
 11
5.442066
 21
4.605106
 31
0.0
  0
LINE
  5
357
330
53
100
AcDbEntity
 67
     1
  8
1
  6
Continuous
 62
    18
100
AcDbLine
 10
5.442066
 20
4.617105999999999
 30
0.0
 11
5.452066
 21
4.617105999999999
 31
0.0
  0
LINE
  5
358
330
53
100
AcDbEntity
 67
     1
  8
1
  6
Continuous
 62
    18
100
AcDbLine
 10
4.909329
 20
4.109783999999999
 30
0.0
 11
4.909329
 21
4.108335
 31
0.0
  0
LINE
  5
359
330
53
100
AcDbEntity
 67
     1
  8
1
  6
Continuous
 62
    18
100
AcDbLine
 10
4.909329
 20
4.176733
 30
0.0
 11
4.992329999999999
 21
4.214732999999999
 31
0.0
  0
LINE
  5
35A
330
53
100
AcDbEntity
 67
     1
  8
1
  6
Continuous
 62
    18
100
AcDbLine
 10
4.909329
 20
4.108335
 30
0.0
 11
4.992329999999999
 21
4.108335
 31
0.0
  0
LINE
  5
35B
330
53
100
AcDbEntity
 67
     1
  8
1
  6
Continuous
 62
    18
100
AcDbLine
 10
4.953725
 20
4.582901999999999
 30
0.0
 11
4.97313
 21
4.577092999999999
 31
0.0
  0
LINE
  5
35C
330
53
100
AcDbEntity
 67
     1
  8
1
  6
Continuous
 62
    18
100
AcDbLine
 10
4.97313
 20
4.577092999999999
 30
0.0
 11
4.987200999999999
 21
4.562522
 31
0.0
  0
LINE
  5
35D
330
53
100
AcDbEntity
 67
     1
  8
1
  6
Continuous
 62
    18
100
AcDbLine
 10
4.987200999999999
 20
4.562522
 30
0.0
 11
4.992329999999999
 21
4.542926999999999
 31
0.0
  0
LINE
  5
35E
330
53
100
AcDbEntity
 67
     1
  8
1
  6
Continuous
 62
    18
100
AcDbLine
 10
4.930328
 20
4.583719999999999
 30
0.0
 11
4.953725
 21
4.582901999999999
 31
0.0
  0
LINE
  5
35F
330
53
100
AcDbEntity
 67
     1
  8
1
  6
Continuous
 62
    18
100
AcDbLine
 10
4.830328999999999
 20
4.625839
 30
0.0
 11
4.835458
 21
4.606244
 31
0.0
  0
LINE
  5
360
330
53
100
AcDbEntity
 67
     1
  8
1
  6
Continuous
 62
    18
100
AcDbLine
 10
4.835458
 20
4.606244
 30
0.0
 11
4.849529
 21
4.591673
 31
0.0
  0
LINE
  5
361
330
53
100
AcDbEntity
 67
     1
  8
1
  6
Continuous
 62
    18
100
AcDbLine
 10
4.849529
 20
4.591673
 30
0.0
 11
4.868933999999999
 21
4.585863999999999
 31
0.0
  0
LINE
  5
362
330
53
100
AcDbEntity
 67
     1
  8
1
  6
Continuous
 62
    18
100
AcDbLine
 10
4.830328999999999
 20
4.715733
 30
0.0
 11
4.830328999999999
 21
4.625839
 31
0.0
  0
LINE
  5
363
330
53
100
AcDbEntity
 67
     1
  8
1
  6
Continuous
 62
    18
100
AcDbLine
 10
4.909329
 20
4.753733
 30
0.0
 11
4.830328999999999
 21
4.715733
 31
0.0
  0
LINE
  5
364
330
53
100
AcDbEntity
 67
     1
  8
1
  6
Continuous
 62
    18
100
AcDbLine
 10
4.879852999999999
 20
4.828033
 30
0.0
 11
4.879852999999999
 21
4.828769999999999
 31
0.0
  0
LINE
  5
365
330
53
100
AcDbEntity
 67
     1
  8
1
  6
Continuous
 62
    18
100
AcDbLine
 10
4.879852999999999
 20
4.828769999999999
 30
0.0
 11
4.837664
 21
4.828033
 31
0.0
  0
LINE
  5
366
330
53
100
AcDbEntity
 67
     1
  8
1
  6
Continuous
 62
    18
100
AcDbLine
 10
4.879852999999999
 20
4.828769999999999
 30
0.0
 11
4.894630999999999
 21
4.829028
 31
0.0
  0
LINE
  5
367
330
53
100
AcDbEntity
 67
     1
  8
1
  6
Continuous
 62
    18
100
AcDbLine
 10
4.894630999999999
 20
4.829028
 30
0.0
 11
4.905396999999999
 21
4.829216
 31
0.0
  0
LINE
  5
368
330
53
100
AcDbEntity
 67
     1
  8
1
  6
Continuous
 62
    18
100
AcDbLine
 10
4.905396999999999
 20
4.829216
 30
0.0
 11
4.909329
 21
4.829284999999999
 31
0.0
  0
LINE
  5
369
330
53
100
AcDbEntity
 67
     1
  8
1
  6
Continuous
 62
    18
100
AcDbLine
 10
4.909329
 20
4.829284999999999
 30
0.0
 11
4.909329
 21
4.828033
 31
0.0
  0
LINE
  5
36A
330
53
100
AcDbEntity
 67
     1
  8
1
  6
Continuous
 62
    18
100
AcDbLine
 10
4.909329
 20
4.757334999999999
 30
0.0
 11
4.909329
 21
4.753733
 31
0.0
  0
LINE
  5
36B
330
53
100
AcDbEntity
 67
     1
  8
1
  6
Continuous
 62
    18
100
AcDbLine
 10
4.992329999999999
 20
4.830733
 30
0.0
 11
4.909329
 21
4.829284999999999
 31
0.0
  0
LINE
  5
36C
330
53
100
AcDbEntity
 67
     1
  8
1
  6
Continuous
 62
    18
100
AcDbLine
 10
5.362066
 20
4.726894999999999
 30
0.0
 11
5.360564
 21
4.720301
 31
0.0
  0
LINE
  5
36D
330
53
100
AcDbEntity
 67
     1
  8
1
  6
Continuous
 62
    18
100
AcDbLine
 10
5.360564
 20
4.720301
 30
0.0
 11
5.357916
 21
4.716514
 31
0.0
  0
LINE
  5
36E
330
53
100
AcDbEntity
 67
     1
  8
1
  6
Continuous
 62
    18
100
AcDbLine
 10
5.357916
 20
4.716514
 30
0.0
 11
5.362066
 21
4.716489
 31
0.0
  0
LINE
  5
36F
330
53
100
AcDbEntity
 67
     1
  8
1
  6
Continuous
 62
    18
100
AcDbLine
 10
5.362066
 20
4.716489
 30
0.0
 11
5.386061999999999
 21
4.716341
 31
0.0
  0
LINE
  5
370
330
53
100
AcDbEntity
 67
     1
  8
1
  6
Continuous
 62
    18
100
AcDbLine
 10
5.386061999999999
 20
4.716341
 30
0.0
 11
5.442066
 21
4.715994
 31
0.0
  0
LINE
  5
371
330
53
100
AcDbEntity
 67
     1
  8
1
  6
Continuous
 62
    18
100
AcDbLine
 10
5.442066
 20
4.829919999999999
 30
0.0
 11
5.402167999999999
 21
4.829899
 31
0.0
  0
LINE
  5
372
330
53
100
AcDbEntity
 67
     1
  8
1
  6
Continuous
 62
    18
100
AcDbLine
 10
5.402167999999999
 20
4.829899
 30
0.0
 11
5.362066
 21
4.829879
 31
0.0
  0
LINE
  5
373
330
53
100
AcDbEntity
 67
     1
  8
1
  6
Continuous
 62
    18
100
AcDbLine
 10
5.362066
 20
4.829879
 30
0.0
 11
5.354522
 21
4.829875
 31
0.0
  0
LINE
  5
374
330
53
100
AcDbEntity
 67
     1
  8
1
  6
Continuous
 62
    18
100
AcDbLine
 10
5.362066
 20
4.818732999999999
 30
0.0
 11
5.362066
 21
4.800170999999999
 31
0.0
  0
LINE
  5
375
330
53
100
AcDbEntity
 67
     1
  8
1
  6
Continuous
 62
    18
100
AcDbLine
 10
5.362066
 20
4.800170999999999
 30
0.0
 11
5.362066
 21
4.779984999999999
 31
0.0
  0
LINE
  5
376
330
53
100
AcDbEntity
 67
     1
  8
1
  6
Continuous
 62
    18
100
AcDbLine
 10
5.362066
 20
4.779984999999999
 30
0.0
 11
5.362066
 21
4.726894999999999
 31
0.0
  0
LINE
  5
377
330
53
100
AcDbEntity
 67
     1
  8
1
  6
Continuous
 62
    18
100
AcDbLine
 10
5.279066
 20
4.140957
 30
0.0
 11
5.279066
 21
4.132916999999999
 31
0.0
  0
LINE
  5
378
330
53
100
AcDbEntity
 67
     1
  8
1
  6
Continuous
 62
    18
100
AcDbLine
 10
5.279066
 20
4.132916999999999
 30
0.0
 11
5.279066
 21
4.125131999999999
 31
0.0
  0
LINE
  5
379
330
53
100
AcDbEntity
 67
     1
  8
1
  6
Continuous
 62
    18
100
AcDbLine
 10
5.279066
 20
4.169755999999999
 30
0.0
 11
5.279066
 21
4.140957
 31
0.0
  0
LINE
  5
37A
330
53
100
AcDbEntity
 67
     1
  8
1
  6
Continuous
 62
    18
100
AcDbLine
 10
5.299077999999999
 20
4.115126999999999
 30
0.0
 11
5.323074
 21
4.115548
 31
0.0
  0
LINE
  5
37B
330
53
100
AcDbEntity
 67
     1
  8
1
  6
Continuous
 62
    18
100
AcDbLine
 10
5.323074
 20
4.115548
 30
0.0
 11
5.419058
 21
4.117229
 31
0.0
  0
LINE
  5
37C
330
53
100
AcDbEntity
 67
     1
  8
1
  6
Continuous
 62
    18
100
AcDbLine
 10
5.419058
 20
4.117229
 30
0.0
 11
5.442066
 21
4.117632
 31
0.0
  0
LINE
  5
37D
330
53
100
AcDbEntity
 67
     1
  8
1
  6
Continuous
 62
    18
100
AcDbLine
 10
5.442066
 20
4.209608
 30
0.0
 11
5.418069999999999
 21
4.209458
 31
0.0
  0
LINE
  5
37E
330
53
100
AcDbEntity
 67
     1
  8
1
  6
Continuous
 62
    18
100
AcDbLine
 10
5.418069999999999
 20
4.209458
 30
0.0
 11
5.322087
 21
4.208859999999999
 31
0.0
  0
LINE
  5
37F
330
53
100
AcDbEntity
 67
     1
  8
1
  6
Continuous
 62
    18
100
AcDbLine
 10
5.322087
 20
4.208859999999999
 30
0.0
 11
5.298716999999999
 21
4.208714999999999
 31
0.0
  0
LINE
  5
380
330
53
100
AcDbEntity
 67
     1
  8
1
  6
Continuous
 62
    18
100
AcDbLine
 10
5.298716999999999
 20
4.208714999999999
 30
0.0
 11
5.298716999999999
 21
4.156531
 31
0.0
  0
LINE
  5
381
330
53
100
AcDbEntity
 67
     1
  8
1
  6
Continuous
 62
    18
100
AcDbLine
 10
5.298716999999999
 20
4.156531
 30
0.0
 11
5.298716999999999
 21
4.115186
 31
0.0
  0
LINE
  5
382
330
53
100
AcDbEntity
 67
     1
  8
1
  6
Continuous
 62
    18
100
AcDbLine
 10
5.279341
 20
4.123505999999999
 30
0.0
 11
5.283776
 21
4.118642999999999
 31
0.0
  0
LINE
  5
383
330
53
100
AcDbEntity
 67
     1
  8
1
  6
Continuous
 62
    18
100
AcDbLine
 10
5.283776
 20
4.118642999999999
 30
0.0
 11
5.289011
 21
4.116373999999999
 31
0.0
  0
LINE
  5
384
330
53
100
AcDbEntity
 67
     1
  8
1
  6
Continuous
 62
    18
100
AcDbLine
 10
5.289011
 20
4.116373999999999
 30
0.0
 11
5.293219
 21
4.115458999999999
 31
0.0
  0
LINE
  5
385
330
53
100
AcDbEntity
 67
     1
  8
1
  6
Continuous
 62
    18
100
AcDbLine
 10
5.293219
 20
4.115458999999999
 30
0.0
 11
5.295278999999999
 21
4.115226999999999
 31
0.0
  0
LINE
  5
386
330
53
100
AcDbEntity
 67
     1
  8
1
  6
Continuous
 62
    18
100
AcDbLine
 10
5.298716999999999
 20
4.208714999999999
 30
0.0
 11
5.295026999999999
 21
4.207964999999999
 31
0.0
  0
LINE
  5
387
330
53
100
AcDbEntity
 67
     1
  8
1
  6
Continuous
 62
    18
100
AcDbLine
 10
5.295026999999999
 20
4.207964999999999
 30
0.0
 11
5.290511
 21
4.204912999999999
 31
0.0
  0
LINE
  5
388
330
53
100
AcDbEntity
 67
     1
  8
1
  6
Continuous
 62
    18
100
AcDbLine
 10
5.290511
 20
4.204912999999999
 30
0.0
 11
5.285835999999999
 21
4.198658
 31
0.0
  0
LINE
  5
389
330
53
100
AcDbEntity
 67
     1
  8
1
  6
Continuous
 62
    18
100
AcDbLine
 10
5.285835999999999
 20
4.198658
 30
0.0
 11
5.281330999999999
 21
4.187247
 31
0.0
  0
LINE
  5
38A
330
53
100
AcDbEntity
 67
     1
  8
1
  6
Continuous
 62
    18
100
AcDbLine
 10
5.281330999999999
 20
4.187247
 30
0.0
 11
5.279066
 21
4.169755999999999
 31
0.0
  0
LINE
  5
38B
330
53
100
AcDbEntity
 67
     1
  8
1
  6
Continuous
 62
    18
100
AcDbLine
 10
5.350276
 20
4.708873
 30
0.0
 11
5.350373
 21
4.708969999999999
 31
0.0
  0
LINE
  5
38C
330
53
100
AcDbEntity
 67
     1
  8
1
  6
Continuous
 62
    18
100
AcDbLine
 10
5.350373
 20
4.708969999999999
 30
0.0
 11
5.353758999999999
 21
4.712342999999999
 31
0.0
  0
LINE
  5
38D
330
53
100
AcDbEntity
 67
     1
  8
1
  6
Continuous
 62
    18
100
AcDbLine
 10
5.353758999999999
 20
4.712342999999999
 30
0.0
 11
5.357916
 21
4.716514
 31
0.0
  0
LINE
  5
38E
330
53
100
AcDbEntity
 67
     1
  8
1
  6
Continuous
 62
    18
100
AcDbLine
 10
5.350276
 20
4.784968
 30
0.0
 11
5.354019
 21
4.784692999999999
 31
0.0
  0
LINE
  5
38F
330
53
100
AcDbEntity
 67
     1
  8
1
  6
Continuous
 62
    18
100
AcDbLine
 10
5.354019
 20
4.784692999999999
 30
0.0
 11
5.357313999999999
 21
4.783964
 31
0.0
  0
LINE
  5
390
330
53
100
AcDbEntity
 67
     1
  8
1
  6
Continuous
 62
    18
100
AcDbLine
 10
5.357313999999999
 20
4.783964
 30
0.0
 11
5.359922
 21
4.782837999999999
 31
0.0
  0
LINE
  5
391
330
53
100
AcDbEntity
 67
     1
  8
1
  6
Continuous
 62
    18
100
AcDbLine
 10
5.359922
 20
4.782837999999999
 30
0.0
 11
5.361610999999999
 21
4.781353
 31
0.0
  0
LINE
  5
392
330
53
100
AcDbEntity
 67
     1
  8
1
  6
Continuous
 62
    18
100
AcDbLine
 10
5.361610999999999
 20
4.781353
 30
0.0
 11
5.362065
 21
4.780048
 31
0.0
  0
LINE
  5
393
330
53
100
AcDbEntity
 67
     1
  8
1
  6
Continuous
 62
    18
100
AcDbLine
 10
5.362065
 20
4.780048
 30
0.0
 11
5.362066
 21
4.779984999999999
 31
0.0
  0
LINE
  5
394
330
53
100
AcDbEntity
 67
     1
  8
1
  6
Continuous
 62
    18
100
AcDbLine
 10
5.362066
 20
4.818732999999999
 30
0.0
 11
5.362065
 21
4.818902999999999
 31
0.0
  0
LINE
  5
395
330
53
100
AcDbEntity
 67
     1
  8
1
  6
Continuous
 62
    18
100
AcDbLine
 10
5.362065
 20
4.818902999999999
 30
0.0
 11
5.361691999999999
 21
4.821705999999999
 31
0.0
  0
LINE
  5
396
330
53
100
AcDbEntity
 67
     1
  8
1
  6
Continuous
 62
    18
100
AcDbLine
 10
5.361691999999999
 20
4.821705999999999
 30
0.0
 11
5.360078999999999
 21
4.825346999999999
 31
0.0
  0
LINE
  5
397
330
53
100
AcDbEntity
 67
     1
  8
1
  6
Continuous
 62
    18
100
AcDbLine
 10
5.360078999999999
 20
4.825346999999999
 30
0.0
 11
5.357459999999999
 21
4.828184999999999
 31
0.0
  0
LINE
  5
398
330
53
100
AcDbEntity
 67
     1
  8
1
  6
Continuous
 62
    18
100
AcDbLine
 10
5.357459999999999
 20
4.828184999999999
 30
0.0
 11
5.354096
 21
4.830036999999999
 31
0.0
  0
LINE
  5
399
330
53
100
AcDbEntity
 67
     1
  8
1
  6
Continuous
 62
    18
100
AcDbLine
 10
5.354096
 20
4.830036999999999
 30
0.0
 11
5.350276
 21
4.830731
 31
0.0
  0
LINE
  5
39A
330
53
100
AcDbEntity
 67
     1
  8
1
  6
Continuous
 62
    18
100
AcDbLine
 10
5.298716999999999
 20
4.208714999999999
 30
0.0
 11
5.298731
 21
4.21233
 31
0.0
  0
LINE
  5
39B
330
53
100
AcDbEntity
 67
     1
  8
1
  6
Continuous
 62
    18
100
AcDbLine
 10
5.298731
 20
4.21233
 30
0.0
 11
5.298716999999999
 21
4.216442999999999
 31
0.0
  0
LINE
  5
39C
330
53
100
AcDbEntity
 67
     1
  8
1
  6
Continuous
 62
    18
100
AcDbLine
 10
5.279066
 20
4.169755999999999
 30
0.0
 11
5.275624999999999
 21
4.169755999999999
 31
0.0
  0
LINE
  5
39D
330
53
100
AcDbEntity
 67
     1
  8
1
  6
Continuous
 62
    18
100
AcDbLine
 10
5.275624999999999
 20
4.169755999999999
 30
0.0
 11
5.267275999999999
 21
4.169755999999999
 31
0.0
  0
LINE
  5
39E
330
53
100
AcDbEntity
 67
     1
  8
1
  6
Continuous
 62
    18
100
AcDbLine
 10
5.279066
 20
4.140957
 30
0.0
 11
5.279066
 21
4.140893
 31
0.0
  0
LINE
  5
39F
330
53
100
AcDbEntity
 67
     1
  8
1
  6
Continuous
 62
    18
100
AcDbLine
 10
5.279066
 20
4.140893
 30
0.0
 11
5.278585999999999
 21
4.139473999999999
 31
0.0
  0
LINE
  5
3A0
330
53
100
AcDbEntity
 67
     1
  8
1
  6
Continuous
 62
    18
100
AcDbLine
 10
5.278585999999999
 20
4.139473999999999
 30
0.0
 11
5.276876999999999
 21
4.137915
 31
0.0
  0
LINE
  5
3A1
330
53
100
AcDbEntity
 67
     1
  8
1
  6
Continuous
 62
    18
100
AcDbLine
 10
5.276876999999999
 20
4.137915
 30
0.0
 11
5.274270999999999
 21
4.13674
 31
0.0
  0
LINE
  5
3A2
330
53
100
AcDbEntity
 67
     1
  8
1
  6
Continuous
 62
    18
100
AcDbLine
 10
5.274270999999999
 20
4.13674
 30
0.0
 11
5.270998
 21
4.135979999999999
 31
0.0
  0
LINE
  5
3A3
330
53
100
AcDbEntity
 67
     1
  8
1
  6
Continuous
 62
    18
100
AcDbLine
 10
5.270998
 20
4.135979999999999
 30
0.0
 11
5.267275999999999
 21
4.135692999999999
 31
0.0
  0
LINE
  5
3A4
330
53
100
AcDbEntity
 67
     1
  8
1
  6
Continuous
 62
    18
100
AcDbLine
 10
5.279066
 20
4.125131999999999
 30
0.0
 11
5.279065
 21
4.124969
 31
0.0
  0
LINE
  5
3A5
330
53
100
AcDbEntity
 67
     1
  8
1
  6
Continuous
 62
    18
100
AcDbLine
 10
5.279065
 20
4.124969
 30
0.0
 11
5.278669999999999
 21
4.122074999999999
 31
0.0
  0
LINE
  5
3A6
330
53
100
AcDbEntity
 67
     1
  8
1
  6
Continuous
 62
    18
100
AcDbLine
 10
5.278669999999999
 20
4.122074999999999
 30
0.0
 11
5.277034999999999
 21
4.118452999999999
 31
0.0
  0
LINE
  5
3A7
330
53
100
AcDbEntity
 67
     1
  8
1
  6
Continuous
 62
    18
100
AcDbLine
 10
5.277034999999999
 20
4.118452999999999
 30
0.0
 11
5.274417999999999
 21
4.115648
 31
0.0
  0
LINE
  5
3A8
330
53
100
AcDbEntity
 67
     1
  8
1
  6
Continuous
 62
    18
100
AcDbLine
 10
5.274417999999999
 20
4.115648
 30
0.0
 11
5.271073999999999
 21
4.113821999999999
 31
0.0
  0
LINE
  5
3A9
330
53
100
AcDbEntity
 67
     1
  8
1
  6
Continuous
 62
    18
100
AcDbLine
 10
5.271073999999999
 20
4.113821999999999
 30
0.0
 11
5.267275999999999
 21
4.113133999999999
 31
0.0
  0
LINE
  5
3AA
330
53
100
AcDbEntity
 67
     1
  8
1
  6
Continuous
 62
    18
100
AcDbLine
 10
4.94033
 20
4.195248
 30
0.0
 11
4.94033
 21
4.194401
 31
0.0
  0
LINE
  5
3AB
330
53
100
AcDbEntity
 67
     1
  8
1
  6
Continuous
 62
    18
100
AcDbLine
 10
4.94033
 20
4.194401
 30
0.0
 11
4.936364
 21
4.193337999999999
 31
0.0
  0
LINE
  5
3AC
330
53
100
AcDbEntity
 67
     1
  8
1
  6
Continuous
 62
    18
100
AcDbLine
 10
5.362328999999999
 20
4.775732999999999
 30
0.0
 11
5.362066
 21
4.775732999999999
 31
0.0
  0
LINE
  5
3AD
330
53
100
AcDbEntity
 67
     1
  8
1
  6
Continuous
 62
    18
100
AcDbLine
 10
5.367329999999999
 20
4.770732999999999
 30
0.0
 11
5.367329999999999
 21
4.765431999999999
 31
0.0
  0
LINE
  5
3AE
330
53
100
AcDbEntity
 67
     1
  8
1
  6
Continuous
 62
    18
100
AcDbLine
 10
5.362066
 20
4.770766
 30
0.0
 11
5.367329999999999
 21
4.770732999999999
 31
0.0
  0
LINE
  5
3AF
330
53
100
AcDbEntity
 67
     1
  8
1
  6
Continuous
 62
    18
100
AcDbLine
 10
4.452590999999999
 20
4.821509999999999
 30
0.0
 11
4.826329
 21
4.828033
 31
0.0
  0
LINE
  5
3B0
330
53
100
AcDbEntity
 67
     1
  8
1
  6
Continuous
 62
    18
100
AcDbLine
 10
4.452590999999999
 20
4.821509999999999
 30
0.0
 11
4.354588999999999
 21
4.819798999999999
 31
0.0
  0
LINE
  5
3B1
330
53
100
AcDbEntity
 67
     1
  8
1
  6
Continuous
 62
    18
100
AcDbLine
 10
4.826329
 20
4.828033
 30
0.0
 11
4.909329
 21
4.828033
 31
0.0
  0
LINE
  5
3B2
330
53
100
AcDbEntity
 67
     1
  8
1
  6
Continuous
 62
    18
100
AcDbLine
 10
4.826329
 20
4.719335
 30
0.0
 11
4.826329
 21
4.828033
 31
0.0
  0
LINE
  5
3B3
330
53
100
AcDbEntity
 67
     1
  8
1
  6
Continuous
 62
    18
100
AcDbLine
 10
4.909329
 20
4.757334999999999
 30
0.0
 11
4.826329
 21
4.719335
 31
0.0
  0
LINE
  5
3B4
330
53
100
AcDbEntity
 67
     1
  8
1
  6
Continuous
 62
    18
100
AcDbLine
 10
4.909329
 20
4.828033
 30
0.0
 11
4.909329
 21
4.757334999999999
 31
0.0
  0
LINE
  5
3B5
330
53
100
AcDbEntity
 67
     1
  8
1
  6
Continuous
 62
    18
100
AcDbLine
 10
4.354588999999999
 20
4.108335
 30
0.0
 11
4.826329
 21
4.108335
 31
0.0
  0
LINE
  5
3B6
330
53
100
AcDbEntity
 67
     1
  8
1
  6
Continuous
 62
    18
100
AcDbLine
 10
4.344592999999999
 20
4.316962
 30
0.0
 11
4.344592999999999
 21
4.311304999999999
 31
0.0
  0
LINE
  5
3B7
330
53
100
AcDbEntity
 67
     1
  8
1
  6
Continuous
 62
    18
100
AcDbLine
 10
4.344592999999999
 20
4.311304999999999
 30
0.0
 11
4.344592999999999
 21
4.308962
 31
0.0
  0
LINE
  5
3B8
330
53
100
AcDbEntity
 67
     1
  8
1
  6
Continuous
 62
    18
100
AcDbLine
 10
4.344592999999999
 20
4.316962
 30
0.0
 11
4.344592999999999
 21
4.328962
 31
0.0
  0
LINE
  5
3B9
330
53
100
AcDbEntity
 67
     1
  8
1
  6
Continuous
 62
    18
100
AcDbLine
 10
4.344592999999999
 20
4.308962
 30
0.0
 11
4.354588999999999
 21
4.308962
 31
0.0
  0
LINE
  5
3BA
330
53
100
AcDbEntity
 67
     1
  8
1
  6
Continuous
 62
    18
100
AcDbLine
 10
4.354588999999999
 20
4.316962
 30
0.0
 11
4.344592999999999
 21
4.316962
 31
0.0
  0
LINE
  5
3BB
330
53
100
AcDbEntity
 67
     1
  8
1
  6
Continuous
 62
    18
100
AcDbLine
 10
4.344592999999999
 20
4.328962
 30
0.0
 11
4.354588999999999
 21
4.328962
 31
0.0
  0
LINE
  5
3BC
330
53
100
AcDbEntity
 67
     1
  8
1
  6
Continuous
 62
    18
100
AcDbLine
 10
4.354588999999999
 20
4.819798999999999
 30
0.0
 11
4.354588999999999
 21
4.758173999999999
 31
0.0
  0
LINE
  5
3BD
330
53
100
AcDbEntity
 67
     1
  8
1
  6
Continuous
 62
    18
100
AcDbLine
 10
4.354588999999999
 20
4.758173999999999
 30
0.0
 11
4.354588999999999
 21
4.108335
 31
0.0
  0
LINE
  5
3BE
330
53
100
AcDbEntity
 67
     1
  8
1
  6
Continuous
 62
    18
100
AcDbLine
 10
4.354588999999999
 20
4.758173999999999
 30
0.0
 11
4.452590999999999
 21
4.759884999999999
 31
0.0
  0
LINE
  5
3BF
330
53
100
AcDbEntity
 67
     1
  8
1
  6
Continuous
 62
    18
100
AcDbLine
 10
4.452590999999999
 20
4.759884999999999
 30
0.0
 11
4.452590999999999
 21
4.821509999999999
 31
0.0
  0
LINE
  5
3C0
330
53
100
AcDbEntity
 67
     1
  8
1
  6
Continuous
 62
    18
100
AcDbLine
 10
4.826329
 20
4.108335
 30
0.0
 11
4.826329
 21
4.625979
 31
0.0
  0
LINE
  5
3C1
330
53
100
AcDbEntity
 67
     1
  8
1
  6
Continuous
 62
    18
100
AcDbLine
 10
4.826329
 20
4.625979
 30
0.0
 11
4.826329
 21
4.719335
 31
0.0
  0
LINE
  5
3C2
330
53
100
AcDbEntity
 67
     1
  8
1
  6
Continuous
 62
    18
100
AcDbLine
 10
4.864933
 20
4.586002999999999
 30
0.0
 11
4.845528999999999
 21
4.591813
 31
0.0
  0
LINE
  5
3C3
330
53
100
AcDbEntity
 67
     1
  8
1
  6
Continuous
 62
    18
100
AcDbLine
 10
4.845528999999999
 20
4.591813
 30
0.0
 11
4.831458
 21
4.606383
 31
0.0
  0
LINE
  5
3C4
330
53
100
AcDbEntity
 67
     1
  8
1
  6
Continuous
 62
    18
100
AcDbLine
 10
4.831458
 20
4.606383
 30
0.0
 11
4.826329
 21
4.625979
 31
0.0
  0
LINE
  5
3C5
330
53
100
AcDbEntity
 67
     1
  8
1
  6
Continuous
 62
    18
100
AcDbLine
 10
4.988329
 20
4.543066999999999
 30
0.0
 11
4.983201
 21
4.562662
 31
0.0
  0
LINE
  5
3C6
330
53
100
AcDbEntity
 67
     1
  8
1
  6
Continuous
 62
    18
100
AcDbLine
 10
4.983201
 20
4.562662
 30
0.0
 11
4.96913
 21
4.577233
 31
0.0
  0
LINE
  5
3C7
330
53
100
AcDbEntity
 67
     1
  8
1
  6
Continuous
 62
    18
100
AcDbLine
 10
4.96913
 20
4.577233
 30
0.0
 11
4.949726
 21
4.583041999999999
 31
0.0
  0
LINE
  5
3C8
330
53
100
AcDbEntity
 67
     1
  8
1
  6
Continuous
 62
    18
100
AcDbLine
 10
4.988329
 20
4.543066999999999
 30
0.0
 11
4.988329
 21
4.218334999999999
 31
0.0
  0
LINE
  5
3C9
330
53
100
AcDbEntity
 67
     1
  8
1
  6
Continuous
 62
    18
100
AcDbLine
 10
4.909329
 20
4.180334999999999
 30
0.0
 11
4.988329
 21
4.218334999999999
 31
0.0
  0
LINE
  5
3CA
330
53
100
AcDbEntity
 67
     1
  8
1
  6
Continuous
 62
    18
100
AcDbLine
 10
4.864933
 20
4.586002999999999
 30
0.0
 11
4.930329
 21
4.583719999999999
 31
0.0
  0
LINE
  5
3CB
330
53
100
AcDbEntity
 67
     1
  8
1
  6
Continuous
 62
    18
100
AcDbLine
 10
4.875328999999999
 20
4.737377999999999
 30
0.0
 11
4.875328999999999
 21
4.741768
 31
0.0
  0
LINE
  5
3CC
330
53
100
AcDbEntity
 67
     1
  8
1
  6
Continuous
 62
    18
100
AcDbLine
 10
4.826329
 20
4.108335
 30
0.0
 11
4.909329
 21
4.109783999999999
 31
0.0
  0
LINE
  5
3CD
330
53
100
AcDbEntity
 67
     1
  8
1
  6
Continuous
 62
    18
100
AcDbLine
 10
4.909329
 20
4.180334999999999
 30
0.0
 11
4.909329
 21
4.109783999999999
 31
0.0
  0
LINE
  5
3CE
330
53
100
AcDbEntity
 67
     1
  8
1
  6
Continuous
 62
    18
100
AcDbLine
 10
5.29243
 20
4.116470999999999
 30
0.0
 11
5.277766
 21
4.116215
 31
0.0
  0
ARC
  5
3CF
330
53
100
AcDbEntity
 67
     1
  8
1
  6
Continuous
 62
    18
100
AcDbCircle
 10
1.829851999999999
 20
4.649900999999999
 30
0.0
 40
0.0135000003501773
100
AcDbArc
 50
211.235625
 51
270.0
  0
ARC
  5
3D0
330
53
100
AcDbEntity
 67
     1
  8
1
  6
Continuous
 62
    18
100
AcDbCircle
 10
1.829851999999999
 20
4.649900999999999
 30
0.0
 40
0.0135000003501773
100
AcDbArc
 50
90.0
 51
148.770001
  0
ARC
  5
3D1
330
53
100
AcDbEntity
 67
     1
  8
1
  6
Continuous
 62
    18
100
AcDbCircle
 10
1.829851999999999
 20
4.649900999999999
 30
0.0
 40
0.0135000003501773
100
AcDbArc
 50
31.229999
 51
90.0
  0
ARC
  5
3D2
330
53
100
AcDbEntity
 67
     1
  8
1
  6
Continuous
 62
    18
100
AcDbCircle
 10
1.829851999999999
 20
4.649900999999999
 30
0.0
 40
0.0135000003501773
100
AcDbArc
 50
270.0
 51
328.764375
  0
ARC
  5
3D3
330
53
100
AcDbEntity
 67
     1
  8
1
  6
Continuous
 62
    18
100
AcDbCircle
 10
1.989851999999999
 20
4.624901
 30
0.0
 40
0.0135000003501773
100
AcDbArc
 50
206.3925
 51
270.0
  0
ARC
  5
3D4
330
53
100
AcDbEntity
 67
     1
  8
1
  6
Continuous
 62
    18
100
AcDbCircle
 10
1.989851999999999
 20
4.624901
 30
0.0
 40
0.0135000003501773
100
AcDbArc
 50
90.0
 51
143.6625
  0
ARC
  5
3D5
330
53
100
AcDbEntity
 67
     1
  8
1
  6
Continuous
 62
    18
100
AcDbCircle
 10
1.989851999999999
 20
4.624901
 30
0.0
 40
0.0135000003501773
100
AcDbArc
 50
36.3375
 51
90.0
  0
ARC
  5
3D6
330
53
100
AcDbEntity
 67
     1
  8
1
  6
Continuous
 62
    18
100
AcDbCircle
 10
1.989851999999999
 20
4.624901
 30
0.0
 40
0.0135000003501773
100
AcDbArc
 50
270.0
 51
333.6075
  0
ARC
  5
3D7
330
53
100
AcDbEntity
 67
     1
  8
1
  6
Continuous
 62
    18
100
AcDbCircle
 10
2.029851999999999
 20
4.686900999999999
 30
0.0
 40
0.0135000003501773
100
AcDbArc
 50
211.235625
 51
270.0
  0
ARC
  5
3D8
330
53
100
AcDbEntity
 67
     1
  8
1
  6
Continuous
 62
    18
100
AcDbCircle
 10
2.029851999999999
 20
4.686900999999999
 30
0.0
 40
0.0135000003501773
100
AcDbArc
 50
90.0
 51
148.770001
  0
ARC
  5
3D9
330
53
100
AcDbEntity
 67
     1
  8
1
  6
Continuous
 62
    18
100
AcDbCircle
 10
2.029851999999999
 20
4.686900999999999
 30
0.0
 40
0.0135000003501773
100
AcDbArc
 50
31.229999
 51
90.0
  0
ARC
  5
3DA
330
53
100
AcDbEntity
 67
     1
  8
1
  6
Continuous
 62
    18
100
AcDbCircle
 10
2.029851999999999
 20
4.686900999999999
 30
0.0
 40
0.0135000003501773
100
AcDbArc
 50
270.0
 51
328.764375
  0
ARC
  5
3DB
330
53
100
AcDbEntity
 67
     1
  8
1
  6
Continuous
 62
    18
100
AcDbCircle
 10
1.869852
 20
4.710900999999999
 30
0.0
 40
0.0135000003501773
100
AcDbArc
 50
211.235625
 51
270.0
  0
ARC
  5
3DC
330
53
100
AcDbEntity
 67
     1
  8
1
  6
Continuous
 62
    18
100
AcDbCircle
 10
1.869852
 20
4.710900999999999
 30
0.0
 40
0.0135000003501773
100
AcDbArc
 50
90.0
 51
148.770001
  0
ARC
  5
3DD
330
53
100
AcDbEntity
 67
     1
  8
1
  6
Continuous
 62
    18
100
AcDbCircle
 10
1.869852
 20
4.710900999999999
 30
0.0
 40
0.0135000003501773
100
AcDbArc
 50
31.229999
 51
90.0
  0
ARC
  5
3DE
330
53
100
AcDbEntity
 67
     1
  8
1
  6
Continuous
 62
    18
100
AcDbCircle
 10
1.869852
 20
4.710900999999999
 30
0.0
 40
0.0135000003501773
100
AcDbArc
 50
270.0
 51
328.764375
  0
ARC
  5
3DF
330
53
100
AcDbEntity
 67
     1
  8
1
  6
Continuous
 62
    18
100
AcDbCircle
 10
1.949852
 20
4.710900999999999
 30
0.0
 40
0.0135000003501773
100
AcDbArc
 50
211.235625
 51
270.0
  0
ARC
  5
3E0
330
53
100
AcDbEntity
 67
     1
  8
1
  6
Continuous
 62
    18
100
AcDbCircle
 10
1.949852
 20
4.710900999999999
 30
0.0
 40
0.0135000003501773
100
AcDbArc
 50
90.0
 51
148.770001
  0
ARC
  5
3E1
330
53
100
AcDbEntity
 67
     1
  8
1
  6
Continuous
 62
    18
100
AcDbCircle
 10
1.949852
 20
4.710900999999999
 30
0.0
 40
0.0135000003501773
100
AcDbArc
 50
31.9725
 51
90.0
  0
ARC
  5
3E2
330
53
100
AcDbEntity
 67
     1
  8
1
  6
Continuous
 62
    18
100
AcDbCircle
 10
1.949852
 20
4.710900999999999
 30
0.0
 40
0.0135000003501773
100
AcDbArc
 50
270.0
 51
328.590001
  0
ARC
  5
3E3
330
53
100
AcDbEntity
 67
     1
  8
1
  6
Continuous
 62
    18
100
AcDbCircle
 10
1.909852
 20
4.624901
 30
0.0
 40
0.0135000003501773
100
AcDbArc
 50
206.3925
 51
270.0
  0
ARC
  5
3E4
330
53
100
AcDbEntity
 67
     1
  8
1
  6
Continuous
 62
    18
100
AcDbCircle
 10
1.909852
 20
4.624901
 30
0.0
 40
0.0135000003501773
100
AcDbArc
 50
90.0
 51
142.987499
  0
ARC
  5
3E5
330
53
100
AcDbEntity
 67
     1
  8
1
  6
Continuous
 62
    18
100
AcDbCircle
 10
1.909852
 20
4.624901
 30
0.0
 40
0.0135000003501773
100
AcDbArc
 50
36.3375
 51
90.0
  0
ARC
  5
3E6
330
53
100
AcDbEntity
 67
     1
  8
1
  6
Continuous
 62
    18
100
AcDbCircle
 10
1.909852
 20
4.624901
 30
0.0
 40
0.0135000003501773
100
AcDbArc
 50
270.0
 51
333.6075
  0
ARC
  5
3E7
330
53
100
AcDbEntity
 67
     1
  8
1
  6
Continuous
 62
    18
100
AcDbCircle
 10
1.672802
 20
4.327396
 30
0.0
 40
0.0080000003799796
100
AcDbArc
 50
180.0
 51
270.0
  0
ARC
  5
3E8
330
53
100
AcDbEntity
 67
     1
  8
1
  6
Continuous
 62
    18
100
AcDbCircle
 10
2.186802
 20
4.327396
 30
0.0
 40
0.0080000003799796
100
AcDbArc
 50
270.0
 51
0.0
  0
ARC
  5
3E9
330
53
100
AcDbEntity
 67
     1
  8
1
  6
Continuous
 62
    18
100
AcDbCircle
 10
5.362328999999999
 20
4.770732999999999
 30
0.0
 40
0.0049999998882413
100
AcDbArc
 50
0.0
 51
90.0
  0
ENDSEC
  0
SECTION
  2
OBJECTS
  0
DICTIONARY
  5
C
330
0
100
AcDbDictionary
281
     1
  3
ACAD_CIP_PREVIOUS_PRODUCT_INFO
350
44C
  3
ACAD_COLOR
350
434
  3
ACAD_GROUP
350
D
  3
ACAD_LAYOUT
350
1A
  3
ACAD_MATERIAL
350
3B
  3
ACAD_MLEADERSTYLE
350
3FD
  3
ACAD_MLINESTYLE
350
17
  3
ACAD_PLOTSETTINGS
350
19
  3
ACAD_PLOTSTYLENAME
350
E
  3
ACAD_SCALELIST
350
437
  3
ACAD_TABLESTYLE
350
435
  3
ACAD_VISUALSTYLE
350
2A
  3
ACDB_RECOMPOSE_DATA
350
459
  3
AcDbVariableDictionary
350
3FB
  3
DWGPROPS
350
45A
  0
DICTIONARY
  5
44D
330
10
100
AcDbDictionary
280
     1
281
     1
  3
ADSK_XREC_LAYER_RECONCILED
360
44E
  0
DICTIONARY
  5
44F
330
58
100
AcDbDictionary
280
     1
281
     1
  3
ADSK_XREC_LAYER_RECONCILED
360
450
  0
DICTIONARY
  5
47D
330
51
100
AcDbDictionary
280
     1
281
     1
  3
ACAD_XREC_ROUNDTRIP
360
47E
  0
DICTIONARY
  5
481
330
56
100
AcDbDictionary
280
     1
281
     1
  3
ACAD_XREC_ROUNDTRIP
360
482
  0
XRECORD
  5
44C
102
{ACAD_REACTORS
330
C
102
}
330
C
100
AcDbXrecord
280
     1
300
ACD
300
2012
300

  0
DICTIONARY
  5
434
102
{ACAD_REACTORS
330
C
102
}
330
C
100
AcDbDictionary
281
     1
  0
DICTIONARY
  5
D
102
{ACAD_REACTORS
330
C
102
}
330
C
100
AcDbDictionary
281
     1
  0
DICTIONARY
  5
1A
102
{ACAD_REACTORS
330
C
102
}
330
C
100
AcDbDictionary
281
     1
  3
35544
350
3EA
  3
Model
350
22
  3
Sheet 1
350
52
  0
DICTIONARY
  5
3B
102
{ACAD_REACTORS
330
C
102
}
330
C
100
AcDbDictionary
281
     1
  3
BYBLOCK
350
3D
  3
BYLAYER
350
3C
  3
Global
350
3E
  0
DICTIONARY
  5
3FD
102
{ACAD_REACTORS
330
C
102
}
330
C
100
AcDbDictionary
281
     1
  3
Standard
350
449
  0
DICTIONARY
  5
17
102
{ACAD_REACTORS
330
C
102
}
330
C
100
AcDbDictionary
281
     1
  3
Standard
350
18
  0
DICTIONARY
  5
19
102
{ACAD_REACTORS
330
C
102
}
330
C
100
AcDbDictionary
281
     1
  0
ACDBDICTIONARYWDFLT
  5
E
102
{ACAD_REACTORS
330
C
102
}
330
C
100
AcDbDictionary
281
     1
  3
Normal
350
F
100
AcDbDictionaryWithDefault
340
F
  0
DICTIONARY
  5
437
102
{ACAD_REACTORS
330
C
102
}
330
C
100
AcDbDictionary
281
     1
  3
A0
350
438
  3
A1
350
439
  3
A2
350
43A
  3
A3
350
43B
  3
A4
350
43C
  3
A5
350
43D
  3
A6
350
43E
  3
A7
350
43F
  3
A8
350
440
  3
A9
350
441
  3
B0
350
442
  3
B1
350
443
  3
B2
350
444
  3
B3
350
445
  3
B4
350
446
  3
B5
350
447
  3
B6
350
448
  0
DICTIONARY
  5
435
102
{ACAD_REACTORS
330
C
102
}
330
C
100
AcDbDictionary
281
     1
  3
Standard
350
436
  0
DICTIONARY
  5
2A
102
{ACAD_REACTORS
330
C
102
}
330
C
100
AcDbDictionary
281
     1
  3
2dWireframe
350
2F
  3
3D Hidden
350
31
  3
3dWireframe
350
30
  3
Basic
350
32
  3
Brighten
350
36
  3
ColorChange
350
3A
  3
Conceptual
350
34
  3
Dim
350
35
  3
EdgeColorOff
350
433
  3
Facepattern
350
39
  3
Flat
350
2B
  3
FlatWithEdges
350
2C
  3
Gouraud
350
2D
  3
GouraudWithEdges
350
2E
  3
Hidden
350
42B
  3
JitterOff
350
431
  3
Linepattern
350
38
  3
OverhangOff
350
432
  3
Realistic
350
33
  3
Shaded
350
430
  3
Shaded with edges
350
42F
  3
Shades of Gray
350
42C
  3
Sketchy
350
42D
  3
Thicken
350
37
  3
Wireframe
350
42A
  3
X-Ray
350
42E
  0
XRECORD
  5
459
102
{ACAD_REACTORS
330
C
102
}
330
C
100
AcDbXrecord
280
     1
 90
        1
330
436
  0
DICTIONARY
  5
3FB
102
{ACAD_REACTORS
330
C
102
}
330
C
100
AcDbDictionary
281
     1
  3
CANNOSCALE
350
453
  3
CMLEADERSTYLE
350
452
  3
CTABLESTYLE
350
451
  3
DIMASSOC
350
3FE
  3
HIDETEXT
350
3FF
  3
INDEXCTL
350
455
  3
SORTENTS
350
454
  3
XCLIPFRAME
350
456
  0
XRECORD
  5
45A
102
{ACAD_REACTORS
330
C
102
}
330
C
100
AcDbXrecord
280
     1
  1
DWGPROPS COOKIE
  2

  3

  4

  6

  7

  8
bjn
  9

300
=
301
=
302
=
303
=
304
=
305
=
306
=
307
=
308
=
309
=
 40
0.0006155324074074
 41
2456692.577906308
 42
2456692.580132628
  1

 90
        0
  0
XRECORD
  5
44E
102
{ACAD_REACTORS
330
44D
102
}
330
44D
100
AcDbXrecord
280
     1
290
     1
  0
XRECORD
  5
450
102
{ACAD_REACTORS
330
44F
102
}
330
44F
100
AcDbXrecord
280
     1
290
     1
  0
XRECORD
  5
47E
102
{ACAD_REACTORS
330
47D
102
}
330
47D
100
AcDbXrecord
280
     1
102
SHADEPLOT
 70
     0
  0
XRECORD
  5
482
102
{ACAD_REACTORS
330
481
102
}
330
481
100
AcDbXrecord
280
     1
102
SHADEPLOT
 70
     0
  0
LAYOUT
  5
3EA
102
{ACAD_XDICTIONARY
360
483
102
}
102
{ACAD_REACTORS
330
1A
102
}
330
1A
100
AcDbPlotSettings
  1

  2
none_device
  4
ISO_B4_(354.00_x_250.00_MM)
  6

 40
7.5
 41
20.0
 42
7.5
 43
20.0
 44
354.0
 45
250.0
 46
35.33333300000001
 47
0.0
 48
0.0
 49
0.0
140
13.0
141
10.5
142
1.0
143
1.088570999999999
 70
   692
 72
     0
 73
     0
 74
     1
  7

 75
     0
147
0.918635
148
12.7
149
12.7
100
AcDbLayout
  1
35544
 70
     1
 71
     2
 10
0.0
 20
0.0
 11
11.0
 21
8.5
 12
0.0
 22
0.0
 32
0.0
 14
1.617603
 24
4.108335
 34
0.0
 15
5.452066
 25
4.841166999999999
 35
0.0
146
0.0
 13
0.0
 23
0.0
 33
0.0
 16
1.0
 26
0.0
 36
0.0
 17
0.0
 27
1.0
 37
0.0
 76
     0
330
53
331
56
  0
LAYOUT
  5
22
102
{ACAD_XDICTIONARY
360
45B
102
}
102
{ACAD_REACTORS
330
1A
102
}
330
1A
100
AcDbPlotSettings
  1

  2
none_device
  4

  6

 40
0.0
 41
0.0
 42
0.0
 43
0.0
 44
0.0
 45
0.0
 46
0.0
 47
0.0
 48
0.0
 49
0.0
140
0.0
141
0.0
142
1.0
143
1.0
 70
  1712
 72
     0
 73
     0
 74
     0
  7

 75
     0
147
1.0
148
0.0
149
0.0
100
AcDbLayout
  1
Model
 70
     1
 71
     0
 10
-0.5
 20
-0.5
 11
5.0
 21
5.0
 12
0.0
 22
0.0
 32
0.0
 14
-0.5
 24
-0.5
 34
-0.5
 15
5.0
 25
5.0
 35
5.0
146
0.0
 13
0.0
 23
0.0
 33
0.0
 16
1.0
 26
0.0
 36
0.0
 17
0.0
 27
1.0
 37
0.0
 76
     0
330
1F
331
29
  0
LAYOUT
  5
52
102
{ACAD_XDICTIONARY
360
47F
102
}
102
{ACAD_REACTORS
330
1A
102
}
330
1A
100
AcDbPlotSettings
  1

  2
none_device
  4
ISO_B4_(354.00_x_250.00_MM)
  6

 40
7.5
 41
20.0
 42
7.5
 43
20.0
 44
354.0
 45
250.0
 46
35.33333300000001
 47
0.0
 48
0.0
 49
0.0
140
13.0
141
10.5
142
1.0
143
1.088570999999999
 70
   692
 72
     0
 73
     0
 74
     1
  7

 75
     0
147
0.918635
148
12.7
149
12.7
100
AcDbLayout
  1
Sheet 1
 70
     1
 71
     1
 10
0.0
 20
0.0
 11
11.0
 21
8.5
 12
0.0
 22
0.0
 32
0.0
 14
0.0
 24
0.0
 34
0.0
 15
11.0
 25
8.5
 35
0.0
146
0.0
 13
0.0
 23
0.0
 33
0.0
 16
1.0
 26
0.0
 36
0.0
 17
0.0
 27
1.0
 37
0.0
 76
     0
330
4E
331
51
  0
MATERIAL
  5
3D
102
{ACAD_XDICTIONARY
360
422
102
}
102
{ACAD_REACTORS
330
3B
102
}
330
3B
100
AcDbMaterial
  1
BYBLOCK
  0
MATERIAL
  5
3C
102
{ACAD_XDICTIONARY
360
420
102
}
102
{ACAD_REACTORS
330
3B
102
}
330
3B
100
AcDbMaterial
  1
BYLAYER
  0
MATERIAL
  5
3E
102
{ACAD_XDICTIONARY
360
424
102
}
102
{ACAD_REACTORS
330
3B
102
}
330
3B
100
AcDbMaterial
  1
Global
  0
MLEADERSTYLE
  5
449
102
{ACAD_REACTORS
330
3FD
102
}
330
3FD
100
AcDbMLeaderStyle
170
     2
171
     1
172
     0
 90
        2
 40
0.0
 41
0.0
173
     1
 91
-1056964608
340
14
 92
       -2
290
     1
 42
0.09
291
     1
 43
0.36
  3
Standard
 44
0.18
300

342
11
174
     1
178
     6
175
     1
176
     0
 93
-1056964608
 45
0.18
292
     0
297
     0
 46
0.18
 94
-1056964608
 47
1.0
 49
1.0
140
1.0
293
     1
141
0.0
294
     1
177
     0
142
1.0
295
     0
296
     0
143
0.125
1001
ACAD_MLEADERVER
1070
     2
  0
MLINESTYLE
  5
18
102
{ACAD_REACTORS
330
17
102
}
330
17
100
AcDbMlineStyle
  2
STANDARD
 70
     0
  3

 62
   256
 51
90.0
 52
90.0
 71
     2
 49
0.5
 62
   256
  6
BYLAYER
 49
-0.5
 62
   256
  6
BYLAYER
  0
ACDBPLACEHOLDER
  5
F
102
{ACAD_REACTORS
330
E
102
}
330
E
  0
SCALE
  5
438
102
{ACAD_REACTORS
330
437
102
}
330
437
100
AcDbScale
 70
     0
300
1:1
140
1.0
141
1.0
290
     1
  0
SCALE
  5
439
102
{ACAD_REACTORS
330
437
102
}
330
437
100
AcDbScale
 70
     0
300
1/128" = 1'-0"
140
0.0078125
141
12.0
290
     0
  0
SCALE
  5
43A
102
{ACAD_REACTORS
330
437
102
}
330
437
100
AcDbScale
 70
     0
300
1/64" = 1'-0"
140
0.015625
141
12.0
290
     0
  0
SCALE
  5
43B
102
{ACAD_REACTORS
330
437
102
}
330
437
100
AcDbScale
 70
     0
300
1/32" = 1'-0"
140
0.03125
141
12.0
290
     0
  0
SCALE
  5
43C
102
{ACAD_REACTORS
330
437
102
}
330
437
100
AcDbScale
 70
     0
300
1/16" = 1'-0"
140
0.0625
141
12.0
290
     0
  0
SCALE
  5
43D
102
{ACAD_REACTORS
330
437
102
}
330
437
100
AcDbScale
 70
     0
300
3/32" = 1'-0"
140
0.09375
141
12.0
290
     0
  0
SCALE
  5
43E
102
{ACAD_REACTORS
330
437
102
}
330
437
100
AcDbScale
 70
     0
300
1/8" = 1'-0"
140
0.125
141
12.0
290
     0
  0
SCALE
  5
43F
102
{ACAD_REACTORS
330
437
102
}
330
437
100
AcDbScale
 70
     0
300
3/16" = 1'-0"
140
0.1875
141
12.0
290
     0
  0
SCALE
  5
440
102
{ACAD_REACTORS
330
437
102
}
330
437
100
AcDbScale
 70
     0
300
1/4" = 1'-0"
140
0.25
141
12.0
290
     0
  0
SCALE
  5
441
102
{ACAD_REACTORS
330
437
102
}
330
437
100
AcDbScale
 70
     0
300
3/8" = 1'-0"
140
0.375
141
12.0
290
     0
  0
SCALE
  5
442
102
{ACAD_REACTORS
330
437
102
}
330
437
100
AcDbScale
 70
     0
300
1/2" = 1'-0"
140
0.5
141
12.0
290
     0
  0
SCALE
  5
443
102
{ACAD_REACTORS
330
437
102
}
330
437
100
AcDbScale
 70
     0
300
3/4" = 1'-0"
140
0.75
141
12.0
290
     0
  0
SCALE
  5
444
102
{ACAD_REACTORS
330
437
102
}
330
437
100
AcDbScale
 70
     0
300
1" = 1'-0"
140
1.0
141
12.0
290
     0
  0
SCALE
  5
445
102
{ACAD_REACTORS
330
437
102
}
330
437
100
AcDbScale
 70
     0
300
1-1/2" = 1'-0"
140
1.5
141
12.0
290
     0
  0
SCALE
  5
446
102
{ACAD_REACTORS
330
437
102
}
330
437
100
AcDbScale
 70
     0
300
3" = 1'-0"
140
3.0
141
12.0
290
     0
  0
SCALE
  5
447
102
{ACAD_REACTORS
330
437
102
}
330
437
100
AcDbScale
 70
     0
300
6" = 1'-0"
140
6.0
141
12.0
290
     0
  0
SCALE
  5
448
102
{ACAD_REACTORS
330
437
102
}
330
437
100
AcDbScale
 70
     0
300
1'-0" = 1'-0"
140
12.0
141
12.0
290
     0
  0
TABLESTYLE
  5
436
102
{ACAD_XDICTIONARY
360
457
102
}
102
{ACAD_REACTORS
330
435
102
}
330
435
100
AcDbTableStyle
  3
Standard
 70
     0
 71
     0
 40
0.06
 41
0.06
280
     0
281
     0
  7
Standard
140
0.18
170
     2
 62
     0
 63
     7
283
     0
274
    -2
284
     1
 64
     0
275
    -2
285
     1
 65
     0
276
    -2
286
     1
 66
     0
277
    -2
287
     1
 67
     0
278
    -2
288
     1
 68
     0
279
    -2
289
     1
 69
     0
  7
Standard
140
0.25
170
     5
 62
     0
 63
     7
283
     0
274
    -2
284
     1
 64
     0
275
    -2
285
     1
 65
     0
276
    -2
286
     1
 66
     0
277
    -2
287
     1
 67
     0
278
    -2
288
     1
 68
     0
279
    -2
289
     1
 69
     0
  7
Standard
140
0.18
170
     5
 62
     0
 63
     7
283
     0
274
    -2
284
     1
 64
     0
275
    -2
285
     1
 65
     0
276
    -2
286
     1
 66
     0
277
    -2
287
     1
 67
     0
278
    -2
288
     1
 68
     0
279
    -2
289
     1
 69
     0
  0
VISUALSTYLE
  5
2F
102
{ACAD_XDICTIONARY
360
465
102
}
102
{ACAD_REACTORS
330
2A
102
}
330
2A
100
AcDbVisualStyle
  2

 70
     4
 71
     0
 72
     2
 73
     0
 90
        0
 40
-0.6
 41
-30.0
 62
     5
 63
     7
 74
     1
 91
        4
 64
     7
 65
   257
 75
     1
175
     1
 42
1.0
 92
        0
 66
   257
 43
1.0
 76
     1
 77
     6
 78
     2
 67
     7
 79
     5
170
     0
171
     0
290
     0
174
     0
 93
        1
 44
0.0
173
     0
291
     0
 45
0.0
1001
ACAD
1000
AcDbSavedByObjectVersion
1070
     0
  0
VISUALSTYLE
  5
31
102
{ACAD_XDICTIONARY
360
469
102
}
102
{ACAD_REACTORS
330
2A
102
}
330
2A
100
AcDbVisualStyle
  2

 70
     6
 71
     1
 72
     2
 73
     2
 90
        0
 40
-0.6
 41
-30.0
 62
     5
 63
     7
 74
     2
 91
        2
 64
     7
 65
   257
 75
     2
175
     1
 42
40.0
 92
        0
 66
   257
 43
1.0
 76
     1
 77
     6
 78
     2
 67
     7
 79
     3
170
     0
171
     0
290
     0
174
     0
 93
        1
 44
0.0
173
     0
291
     0
 45
0.0
1001
ACAD
1000
AcDbSavedByObjectVersion
1070
     0
  0
VISUALSTYLE
  5
30
102
{ACAD_XDICTIONARY
360
467
102
}
102
{ACAD_REACTORS
330
2A
102
}
330
2A
100
AcDbVisualStyle
  2

 70
     5
 71
     0
 72
     2
 73
     0
 90
        0
 40
-0.6
 41
-30.0
 62
     5
 63
     7
 74
     1
 91
        4
 64
     7
 65
   257
 75
     1
175
     1
 42
1.0
 92
        0
 66
   257
 43
1.0
 76
     1
 77
     6
 78
     2
 67
     7
 79
     5
170
     0
171
     0
290
     0
174
     0
 93
        1
 44
0.0
173
     0
291
     0
 45
0.0
1001
ACAD
1000
AcDbSavedByObjectVersion
1070
     0
  0
VISUALSTYLE
  5
32
102
{ACAD_XDICTIONARY
360
46B
102
}
102
{ACAD_REACTORS
330
2A
102
}
330
2A
100
AcDbVisualStyle
  2

 70
     7
 71
     1
 72
     0
 73
     1
 90
        0
 40
-0.6
 41
-30.0
 62
     5
 63
     7
 74
     0
 91
        4
 64
     7
 65
   257
 75
     1
175
     1
 42
1.0
 92
        8
 66
     7
 43
1.0
 76
     1
 77
     6
 78
     2
 67
     7
 79
     5
170
     0
171
     0
290
     0
174
     0
 93
        1
 44
0.0
173
     0
291
     1
 45
0.0
1001
ACAD
1000
AcDbSavedByObjectVersion
1070
     0
  0
VISUALSTYLE
  5
36
102
{ACAD_XDICTIONARY
360
473
102
}
102
{ACAD_REACTORS
330
2A
102
}
330
2A
100
AcDbVisualStyle
  2

 70
    12
 71
     2
 72
     2
 73
     0
 90
        0
 40
-0.6
 41
-30.0
 62
     5
 63
     7
 74
     1
 91
        4
 64
     7
 65
   257
 75
     1
175
     1
 42
1.0
 92
        8
 66
     7
 43
1.0
 76
     1
 77
     6
 78
     2
 67
     7
 79
     5
170
     0
171
     0
290
     0
174
     0
 93
        1
 44
50.0
173
     0
291
     1
 45
0.0
1001
ACAD
1000
AcDbSavedByObjectVersion
1070
     0
  0
VISUALSTYLE
  5
3A
102
{ACAD_XDICTIONARY
360
47B
102
}
102
{ACAD_REACTORS
330
2A
102
}
330
2A
100
AcDbVisualStyle
  2

 70
    16
 71
     2
 72
     2
 73
     3
 90
        0
 40
-0.6
 41
-30.0
 62
     5
 63
     8
 74
     1
 91
        4
 64
     7
 65
   257
 75
     1
175
     1
 42
1.0
 92
        8
 66
     8
 43
1.0
 76
     1
 77
     6
 78
     2
 67
     7
 79
     5
170
     0
171
     0
290
     0
174
     0
 93
        1
 44
0.0
173
     0
291
     1
 45
0.0
1001
ACAD
1000
AcDbSavedByObjectVersion
1070
     0
  0
VISUALSTYLE
  5
34
102
{ACAD_XDICTIONARY
360
46F
102
}
102
{ACAD_REACTORS
330
2A
102
}
330
2A
100
AcDbVisualStyle
  2

 70
     9
 71
     3
 72
     2
 73
     0
 90
        0
 40
-0.6
 41
-30.0
 62
     5
 63
     7
 74
     2
 91
        2
 64
     7
 65
   257
 75
     1
175
     1
 42
40.0
 92
        8
 66
     7
 43
1.0
 76
     1
 77
     6
 78
     2
 67
     7
 79
     3
170
     0
171
     0
290
     0
174
     0
 93
        1
 44
0.0
173
     0
291
     0
 45
0.0
1001
ACAD
1000
AcDbSavedByObjectVersion
1070
     0
  0
VISUALSTYLE
  5
35
102
{ACAD_XDICTIONARY
360
471
102
}
102
{ACAD_REACTORS
330
2A
102
}
330
2A
100
AcDbVisualStyle
  2

 70
    11
 71
     2
 72
     2
 73
     0
 90
        0
 40
-0.6
 41
-30.0
 62
     5
 63
     7
 74
     1
 91
        4
 64
     7
 65
   257
 75
     1
175
     1
 42
1.0
 92
        8
 66
     7
 43
1.0
 76
     1
 77
     6
 78
     2
 67
     7
 79
     5
170
     0
171
     0
290
     0
174
     0
 93
        1
 44
-50.0
173
     0
291
     1
 45
0.0
1001
ACAD
1000
AcDbSavedByObjectVersion
1070
     0
  0
VISUALSTYLE
  5
433
102
{ACAD_XDICTIONARY
360
497
102
}
102
{ACAD_REACTORS
330
2A
102
}
330
2A
100
AcDbVisualStyle
  2
EdgeColorOff
 70
    22
 71
     2
 72
     2
 73
     0
 90
        0
 40
-0.6
 41
-30.0
 62
     5
 63
     7
 74
     1
 91
        4
 64
     7
 65
   257
 75
     1
175
     1
 42
1.0
 92
        8
 66
     7
 43
1.0
 76
     1
 77
     6
 78
     2
 67
     7
 79
     5
170
     0
171
     0
290
     0
174
     0
 93
        1
 44
0.0
173
     0
291
     1
 45
0.0
1001
ACAD
1000
AcDbSavedByObjectVersion
1070
     0
  0
VISUALSTYLE
  5
39
102
{ACAD_XDICTIONARY
360
479
102
}
102
{ACAD_REACTORS
330
2A
102
}
330
2A
100
AcDbVisualStyle
  2

 70
    15
 71
     2
 72
     2
 73
     0
 90
        0
 40
-0.6
 41
-30.0
 62
     5
 63
     7
 74
     1
 91
        4
 64
     7
 65
   257
 75
     1
175
     1
 42
1.0
 92
        8
 66
     7
 43
1.0
 76
     1
 77
     6
 78
     2
 67
     7
 79
     5
170
     0
171
     0
290
     0
174
     0
 93
        1
 44
0.0
173
     0
291
     1
 45
0.0
1001
ACAD
1000
AcDbSavedByObjectVersion
1070
     0
  0
VISUALSTYLE
  5
2B
102
{ACAD_XDICTIONARY
360
45D
102
}
102
{ACAD_REACTORS
330
2A
102
}
330
2A
100
AcDbVisualStyle
  2

 70
     0
 71
     2
 72
     1
 73
     1
 90
        2
 40
-0.6
 41
30.0
 62
     5
 63
     7
 74
     0
 91
        4
 64
     7
 65
   257
 75
     1
175
     1
 42
1.0
 92
        8
 66
     7
 43
1.0
 76
     1
 77
     6
 78
     2
 67
     7
 79
     5
170
     0
171
     0
290
     0
174
     0
 93
       13
 44
0.0
173
     0
291
     1
 45
0.0
1001
ACAD
1000
AcDbSavedByObjectVersion
1070
     0
  0
VISUALSTYLE
  5
2C
102
{ACAD_XDICTIONARY
360
45F
102
}
102
{ACAD_REACTORS
330
2A
102
}
330
2A
100
AcDbVisualStyle
  2

 70
     1
 71
     2
 72
     1
 73
     1
 90
        2
 40
-0.6
 41
30.0
 62
     5
 63
     7
 74
     1
 91
        4
 64
     7
 65
   257
 75
     1
175
     1
 42
1.0
 92
        0
 66
   257
 43
1.0
 76
     1
 77
     6
 78
     2
 67
     7
 79
     5
170
     0
171
     0
290
     0
174
     0
 93
       13
 44
0.0
173
     0
291
     1
 45
0.0
1001
ACAD
1000
AcDbSavedByObjectVersion
1070
     0
  0
VISUALSTYLE
  5
2D
102
{ACAD_XDICTIONARY
360
461
102
}
102
{ACAD_REACTORS
330
2A
102
}
330
2A
100
AcDbVisualStyle
  2

 70
     2
 71
     2
 72
     2
 73
     1
 90
        2
 40
-0.6
 41
30.0
 62
     5
 63
     7
 74
     0
 91
        4
 64
     7
 65
   257
 75
     1
175
     1
 42
1.0
 92
        0
 66
     7
 43
1.0
 76
     1
 77
     6
 78
     2
 67
     7
 79
     5
170
     0
171
     0
290
     0
174
     0
 93
       13
 44
0.0
173
     0
291
     1
 45
0.0
1001
ACAD
1000
AcDbSavedByObjectVersion
1070
     0
  0
VISUALSTYLE
  5
2E
102
{ACAD_XDICTIONARY
360
463
102
}
102
{ACAD_REACTORS
330
2A
102
}
330
2A
100
AcDbVisualStyle
  2

 70
     3
 71
     2
 72
     2
 73
     1
 90
        2
 40
-0.6
 41
30.0
 62
     5
 63
     7
 74
     1
 91
        4
 64
     7
 65
   257
 75
     1
175
     1
 42
1.0
 92
        0
 66
   257
 43
1.0
 76
     1
 77
     6
 78
     2
 67
     7
 79
     5
170
     0
171
     0
290
     0
174
     0
 93
       13
 44
0.0
173
     0
291
     1
 45
0.0
1001
ACAD
1000
AcDbSavedByObjectVersion
1070
     0
  0
VISUALSTYLE
  5
42B
102
{ACAD_XDICTIONARY
360
487
102
}
102
{ACAD_REACTORS
330
2A
102
}
330
2A
100
AcDbVisualStyle
  2
Hidden
 70
     6
 71
     1
 72
     2
 73
     2
 90
        0
 40
-0.6
 41
-30.0
 62
     5
 63
     7
 74
     2
 91
        2
 64
     7
 65
   257
 75
     2
175
     1
 42
40.0
 92
        0
 66
   257
 43
1.0
 76
     1
 77
     6
 78
     2
 67
     7
 79
     3
170
     0
171
     0
290
     0
174
     0
 93
        1
 44
0.0
173
     0
291
     0
 45
0.0
1001
ACAD
1000
AcDbSavedByObjectVersion
1070
     0
  0
VISUALSTYLE
  5
431
102
{ACAD_XDICTIONARY
360
493
102
}
102
{ACAD_REACTORS
330
2A
102
}
330
2A
100
AcDbVisualStyle
  2
JitterOff
 70
    20
 71
     2
 72
     2
 73
     0
 90
        0
 40
-0.6
 41
-30.0
 62
     5
 63
     7
 74
     1
 91
        4
 64
     7
 65
   257
 75
     1
175
     1
 42
1.0
 92
       10
 66
     7
 43
1.0
 76
     1
 77
     6
 78
     2
 67
     7
 79
     5
170
     0
171
     0
290
     0
174
     0
 93
        1
 44
0.0
173
     0
291
     1
 45
0.0
1001
ACAD
1000
AcDbSavedByObjectVersion
1070
     0
  0
VISUALSTYLE
  5
38
102
{ACAD_XDICTIONARY
360
477
102
}
102
{ACAD_REACTORS
330
2A
102
}
330
2A
100
AcDbVisualStyle
  2

 70
    14
 71
     2
 72
     2
 73
     0
 90
        0
 40
-0.6
 41
-30.0
 62
     5
 63
     7
 74
     1
 91
        4
 64
     7
 65
   257
 75
     7
175
     7
 42
1.0
 92
        8
 66
     7
 43
1.0
 76
     1
 77
     6
 78
     2
 67
     7
 79
     5
170
     0
171
     0
290
     0
174
     0
 93
        1
 44
0.0
173
     0
291
     1
 45
0.0
1001
ACAD
1000
AcDbSavedByObjectVersion
1070
     0
  0
VISUALSTYLE
  5
432
102
{ACAD_XDICTIONARY
360
495
102
}
102
{ACAD_REACTORS
330
2A
102
}
330
2A
100
AcDbVisualStyle
  2
OverhangOff
 70
    21
 71
     2
 72
     2
 73
     0
 90
        0
 40
-0.6
 41
-30.0
 62
     5
 63
     7
 74
     1
 91
        4
 64
     7
 65
   257
 75
     1
175
     1
 42
1.0
 92
        9
 66
     7
 43
1.0
 76
     1
 77
     6
 78
     2
 67
     7
 79
     5
170
     0
171
     0
290
     0
174
     0
 93
        1
 44
0.0
173
     0
291
     1
 45
0.0
1001
ACAD
1000
AcDbSavedByObjectVersion
1070
     0
  0
VISUALSTYLE
  5
33
102
{ACAD_XDICTIONARY
360
46D
102
}
102
{ACAD_REACTORS
330
2A
102
}
330
2A
100
AcDbVisualStyle
  2

 70
     8
 71
     2
 72
     2
 73
     0
 90
        0
 40
-0.6
 41
-30.0
 62
     5
 63
     7
 74
     1
 91
        0
 64
     7
 65
   257
 75
     1
175
     1
 42
1.0
 92
        8
 66
     8
 43
1.0
 76
     1
 77
     6
 78
     2
 67
     7
 79
     5
170
     0
171
     0
290
     0
174
     0
 93
       13
 44
0.0
173
     0
291
     0
 45
0.0
1001
ACAD
1000
AcDbSavedByObjectVersion
1070
     0
  0
VISUALSTYLE
  5
430
102
{ACAD_XDICTIONARY
360
491
102
}
102
{ACAD_REACTORS
330
2A
102
}
330
2A
100
AcDbVisualStyle
  2
Shaded
 70
    27
 71
     2
 72
     2
 73
     1
 90
        2
 40
-0.6
 41
30.0
 62
     5
 63
     7
 74
     0
 91
        4
 64
     7
 65
   257
 75
     1
175
     1
 42
1.0
 92
        8
 66
   257
 43
1.0
 76
     1
 77
     6
 78
     2
 67
     8
 79
     3
170
     0
171
     0
290
     0
174
     0
 93
        5
 44
0.0
173
     0
291
     0
 45
0.0
1001
ACAD
1000
AcDbSavedByObjectVersion
1070
     0
  0
VISUALSTYLE
  5
42F
102
{ACAD_XDICTIONARY
360
48F
102
}
102
{ACAD_REACTORS
330
2A
102
}
330
2A
100
AcDbVisualStyle
  2
Shaded with edges
 70
    26
 71
     2
 72
     2
 73
     1
 90
        2
 40
-0.6
 41
30.0
 62
     5
 63
     7
 74
     1
 91
       10
 64
     7
 65
   257
 75
     2
175
     1
 42
1.0
 92
        8
 66
   257
 43
1.0
 76
     1
 77
     6
 78
     2
 67
     7
 79
     3
170
     0
171
     0
290
     0
174
     0
 93
        5
 44
0.0
173
     0
291
     0
 45
0.0
1001
ACAD
1000
AcDbSavedByObjectVersion
1070
     0
  0
VISUALSTYLE
  5
42C
102
{ACAD_XDICTIONARY
360
489
102
}
102
{ACAD_REACTORS
330
2A
102
}
330
2A
100
AcDbVisualStyle
  2
Shades of Gray
 70
    23
 71
     2
 72
     2
 73
     3
 90
        0
 40
-0.6
 41
-30.0
 62
     5
 63
     7
 74
     2
 91
        2
 64
     7
 65
     7
 75
     1
175
     1
 42
40.0
 92
        8
 66
     7
 43
1.0
 76
     1
 77
     6
 78
     2
 67
     7
 79
     3
170
     0
171
     0
290
     0
174
     0
 93
        1
 44
0.0
173
     0
291
     0
 45
0.0
1001
ACAD
1000
AcDbSavedByObjectVersion
1070
     0
  0
VISUALSTYLE
  5
42D
102
{ACAD_XDICTIONARY
360
48B
102
}
102
{ACAD_REACTORS
330
2A
102
}
330
2A
100
AcDbVisualStyle
  2
Sketchy
 70
    24
 71
     1
 72
     2
 73
     2
 90
        0
 40
-0.6
 41
-30.0
 62
     5
 63
     7
 74
     2
 91
        2
 64
     7
 65
     7
 75
     1
175
     1
 42
40.0
 92
       11
 66
     7
 43
1.0
 76
     1
 77
     6
 78
     2
 67
     7
 79
     6
170
     0
171
     0
290
     0
174
     0
 93
        1
 44
0.0
173
     0
291
     0
 45
0.0
1001
ACAD
1000
AcDbSavedByObjectVersion
1070
     0
  0
VISUALSTYLE
  5
37
102
{ACAD_XDICTIONARY
360
475
102
}
102
{ACAD_REACTORS
330
2A
102
}
330
2A
100
AcDbVisualStyle
  2

 70
    13
 71
     2
 72
     2
 73
     0
 90
        0
 40
-0.6
 41
-30.0
 62
     5
 63
     7
 74
     1
 91
        4
 64
     7
 65
   257
 75
     1
175
     1
 42
1.0
 92
       12
 66
     7
 43
1.0
 76
     1
 77
     6
 78
     2
 67
     7
 79
     5
170
     0
171
     0
290
     0
174
     0
 93
        1
 44
0.0
173
     0
291
     1
 45
0.0
1001
ACAD
1000
AcDbSavedByObjectVersion
1070
     0
  0
VISUALSTYLE
  5
42A
102
{ACAD_XDICTIONARY
360
485
102
}
102
{ACAD_REACTORS
330
2A
102
}
330
2A
100
AcDbVisualStyle
  2
Wireframe
 70
     5
 71
     0
 72
     2
 73
     0
 90
        0
 40
-0.6
 41
-30.0
 62
     5
 63
     7
 74
     1
 91
        4
 64
     7
 65
   257
 75
     1
175
     1
 42
1.0
 92
        0
 66
   257
 43
1.0
 76
     1
 77
     6
 78
     2
 67
     7
 79
     3
170
     0
171
     0
290
     0
174
     0
 93
        1
 44
0.0
173
     0
291
     0
 45
0.0
1001
ACAD
1000
AcDbSavedByObjectVersion
1070
     0
  0
VISUALSTYLE
  5
42E
102
{ACAD_XDICTIONARY
360
48D
102
}
102
{ACAD_REACTORS
330
2A
102
}
330
2A
100
AcDbVisualStyle
  2
X-Ray
 70
    25
 71
     2
 72
     2
 73
     1
 90
        1
 40
0.5
 41
-30.0
 62
     5
 63
     7
 74
     1
 91
        0
 64
     7
 65
   257
 75
     1
175
     1
 42
1.0
 92
        8
 66
     7
 43
1.0
 76
     1
 77
     6
 78
     2
 67
     7
 79
     3
170
     0
171
     0
290
     0
174
     0
 93
       13
 44
0.0
173
     0
291
     0
 45
0.0
1001
ACAD
1000
AcDbSavedByObjectVersion
1070
     0
  0
DICTIONARYVAR
  5
453
102
{ACAD_REACTORS
330
3FB
102
}
330
3FB
100
DictionaryVariables
280
     0
  1
1:1
  0
DICTIONARYVAR
  5
452
102
{ACAD_REACTORS
330
3FB
102
}
330
3FB
100
DictionaryVariables
280
     0
  1
STANDARD
  0
DICTIONARYVAR
  5
451
102
{ACAD_REACTORS
330
3FB
102
}
330
3FB
100
DictionaryVariables
280
     0
  1
STANDARD
  0
DICTIONARYVAR
  5
3FE
102
{ACAD_REACTORS
330
3FB
102
}
330
3FB
100
DictionaryVariables
280
     0
  1
2
  0
DICTIONARYVAR
  5
3FF
102
{ACAD_REACTORS
330
3FB
102
}
330
3FB
100
DictionaryVariables
280
     0
  1
1
  0
DICTIONARYVAR
  5
455
102
{ACAD_REACTORS
330
3FB
102
}
330
3FB
100
DictionaryVariables
280
     0
  1
0
  0
DICTIONARYVAR
  5
454
102
{ACAD_REACTORS
330
3FB
102
}
330
3FB
100
DictionaryVariables
280
     0
  1
127
  0
DICTIONARYVAR
  5
456
102
{ACAD_REACTORS
330
3FB
102
}
330
3FB
100
DictionaryVariables
280
     0
  1
2
  0
DICTIONARY
  5
483
330
3EA
100
AcDbDictionary
280
     1
281
     1
  3
ACAD_XREC_ROUNDTRIP
360
484
  0
DICTIONARY
  5
45B
330
22
100
AcDbDictionary
280
     1
281
     1
  3
ACAD_XREC_ROUNDTRIP
360
45C
  0
DICTIONARY
  5
47F
330
52
100
AcDbDictionary
280
     1
281
     1
  3
ACAD_XREC_ROUNDTRIP
360
480
  0
DICTIONARY
  5
422
330
3D
100
AcDbDictionary
280
     1
281
     1
  3
ACAD_XREC_ROUNDTRIP
360
423
  0
DICTIONARY
  5
420
330
3C
100
AcDbDictionary
280
     1
281
     1
  3
ACAD_XREC_ROUNDTRIP
360
421
  0
DICTIONARY
  5
424
330
3E
100
AcDbDictionary
280
     1
281
     1
  3
ACAD_XREC_ROUNDTRIP
360
425
  0
DICTIONARY
  5
457
330
436
100
AcDbDictionary
280
     1
281
     1
  3
ACAD_ROUNDTRIP_2008_TABLESTYLE_CELLSTYLEMAP
360
458
  3
ACAD_XREC_ROUNDTRIP
360
499
  0
DICTIONARY
  5
465
330
2F
100
AcDbDictionary
280
     1
281
     1
  3
ACAD_XREC_ROUNDTRIP
360
466
  0
DICTIONARY
  5
469
330
31
100
AcDbDictionary
280
     1
281
     1
  3
ACAD_XREC_ROUNDTRIP
360
46A
  0
DICTIONARY
  5
467
330
30
100
AcDbDictionary
280
     1
281
     1
  3
ACAD_XREC_ROUNDTRIP
360
468
  0
DICTIONARY
  5
46B
330
32
100
AcDbDictionary
280
     1
281
     1
  3
ACAD_XREC_ROUNDTRIP
360
46C
  0
DICTIONARY
  5
473
330
36
100
AcDbDictionary
280
     1
281
     1
  3
ACAD_XREC_ROUNDTRIP
360
474
  0
DICTIONARY
  5
47B
330
3A
100
AcDbDictionary
280
     1
281
     1
  3
ACAD_XREC_ROUNDTRIP
360
47C
  0
DICTIONARY
  5
46F
330
34
100
AcDbDictionary
280
     1
281
     1
  3
ACAD_XREC_ROUNDTRIP
360
470
  0
DICTIONARY
  5
471
330
35
100
AcDbDictionary
280
     1
281
     1
  3
ACAD_XREC_ROUNDTRIP
360
472
  0
DICTIONARY
  5
497
330
433
100
AcDbDictionary
280
     1
281
     1
  3
ACAD_XREC_ROUNDTRIP
360
498
  0
DICTIONARY
  5
479
330
39
100
AcDbDictionary
280
     1
281
     1
  3
ACAD_XREC_ROUNDTRIP
360
47A
  0
DICTIONARY
  5
45D
330
2B
100
AcDbDictionary
280
     1
281
     1
  3
ACAD_XREC_ROUNDTRIP
360
45E
  0
DICTIONARY
  5
45F
330
2C
100
AcDbDictionary
280
     1
281
     1
  3
ACAD_XREC_ROUNDTRIP
360
460
  0
DICTIONARY
  5
461
330
2D
100
AcDbDictionary
280
     1
281
     1
  3
ACAD_XREC_ROUNDTRIP
360
462
  0
DICTIONARY
  5
463
330
2E
100
AcDbDictionary
280
     1
281
     1
  3
ACAD_XREC_ROUNDTRIP
360
464
  0
DICTIONARY
  5
487
330
42B
100
AcDbDictionary
280
     1
281
     1
  3
ACAD_XREC_ROUNDTRIP
360
488
  0
DICTIONARY
  5
493
330
431
100
AcDbDictionary
280
     1
281
     1
  3
ACAD_XREC_ROUNDTRIP
360
494
  0
DICTIONARY
  5
477
330
38
100
AcDbDictionary
280
     1
281
     1
  3
ACAD_XREC_ROUNDTRIP
360
478
  0
DICTIONARY
  5
495
330
432
100
AcDbDictionary
280
     1
281
     1
  3
ACAD_XREC_ROUNDTRIP
360
496
  0
DICTIONARY
  5
46D
330
33
100
AcDbDictionary
280
     1
281
     1
  3
ACAD_XREC_ROUNDTRIP
360
46E
  0
DICTIONARY
  5
491
330
430
100
AcDbDictionary
280
     1
281
     1
  3
ACAD_XREC_ROUNDTRIP
360
492
  0
DICTIONARY
  5
48F
330
42F
100
AcDbDictionary
280
     1
281
     1
  3
ACAD_XREC_ROUNDTRIP
360
490
  0
DICTIONARY
  5
489
330
42C
100
AcDbDictionary
280
     1
281
     1
  3
ACAD_XREC_ROUNDTRIP
360
48A
  0
DICTIONARY
  5
48B
330
42D
100
AcDbDictionary
280
     1
281
     1
  3
ACAD_XREC_ROUNDTRIP
360
48C
  0
DICTIONARY
  5
475
330
37
100
AcDbDictionary
280
     1
281
     1
  3
ACAD_XREC_ROUNDTRIP
360
476
  0
DICTIONARY
  5
485
330
42A
100
AcDbDictionary
280
     1
281
     1
  3
ACAD_XREC_ROUNDTRIP
360
486
  0
DICTIONARY
  5
48D
330
42E
100
AcDbDictionary
280
     1
281
     1
  3
ACAD_XREC_ROUNDTRIP
360
48E
  0
XRECORD
  5
484
102
{ACAD_REACTORS
330
483
102
}
330
483
100
AcDbXrecord
280
     1
102
SHADEPLOT
 70
     0
102
SHADEPLOTRESLEVEL
 70
     2
102
SHADEPLOTCUSTOMDPI
 70
   300
  0
XRECORD
  5
45C
102
{ACAD_REACTORS
330
45B
102
}
330
45B
100
AcDbXrecord
280
     1
102
SHADEPLOT
 70
     0
102
SHADEPLOTRESLEVEL
 70
     2
102
SHADEPLOTCUSTOMDPI
 70
   300
  0
XRECORD
  5
480
102
{ACAD_REACTORS
330
47F
102
}
330
47F
100
AcDbXrecord
280
     1
102
SHADEPLOT
 70
     0
102
SHADEPLOTRESLEVEL
 70
     2
102
SHADEPLOTCUSTOMDPI
 70
   300
  0
XRECORD
  5
423
102
{ACAD_REACTORS
330
422
102
}
330
422
100
AcDbXrecord
280
     1
102
MATERIAL
148
0.0
149
0.0
149
0.0
 93
        0
 94
      127
282
     0
 72
     1
 77
     1
171
     1
175
     1
179
     1
273
     0
  0
XRECORD
  5
421
102
{ACAD_REACTORS
330
420
102
}
330
420
100
AcDbXrecord
280
     1
102
MATERIAL
148
0.0
149
0.0
149
0.0
 93
        0
 94
      127
282
     0
 72
     1
 77
     1
171
     1
175
     1
179
     1
273
     0
  0
XRECORD
  5
425
102
{ACAD_REACTORS
330
424
102
}
330
424
100
AcDbXrecord
280
     1
102
MATERIAL
148
0.0
149
0.0
149
0.0
 93
        0
 94
      127
282
     0
 72
     1
 77
     1
171
     1
175
     1
179
     1
273
     0
  0
CELLSTYLEMAP
  5
458
102
{ACAD_REACTORS
330
457
102
}
330
457
100
AcDbCellStyleMap
 90
        3
300
CELLSTYLE
  1
TABLEFORMAT_BEGIN
 90
        5
170
     1
 91
        0
 92
    32768
 62
   257
 93
        1
300
CONTENTFORMAT
  1
CONTENTFORMAT_BEGIN
 90
        0
 91
        0
 92
      512
 93
        0
300

 40
0.0
140
1.0
 94
        5
 62
     0
340
11
144
0.25
309
CONTENTFORMAT_END
171
     0
 94
        0
309
TABLEFORMAT_END
  1
CELLSTYLE_BEGIN
 90
        1
 91
        1
300
_TITLE
309
CELLSTYLE_END
300
CELLSTYLE
  1
TABLEFORMAT_BEGIN
 90
        5
170
     1
 91
        0
 92
        0
 62
   257
 93
        1
300
CONTENTFORMAT
  1
CONTENTFORMAT_BEGIN
 90
        0
 91
        0
 92
      512
 93
        0
300

 40
0.0
140
1.0
 94
        5
 62
     0
340
11
144
0.18
309
CONTENTFORMAT_END
171
     0
 94
        0
309
TABLEFORMAT_END
  1
CELLSTYLE_BEGIN
 90
        2
 91
        1
300
_HEADER
309
CELLSTYLE_END
300
CELLSTYLE
  1
TABLEFORMAT_BEGIN
 90
        5
170
     1
 91
        0
 92
        0
 62
   257
 93
        1
300
CONTENTFORMAT
  1
CONTENTFORMAT_BEGIN
 90
        0
 91
        0
 92
      512
 93
        0
300

 40
0.0
140
1.0
 94
        2
 62
     0
340
11
144
0.18
309
CONTENTFORMAT_END
171
     0
 94
        0
309
TABLEFORMAT_END
  1
CELLSTYLE_BEGIN
 90
        3
 91
        2
300
_DATA
309
CELLSTYLE_END
  0
XRECORD
  5
499
102
{ACAD_REACTORS
330
457
102
}
330
457
100
AcDbXrecord
280
     1
102
ACAD_ROUNDTRIP_PRE2007_TABLESTYLE
 90
      512
 91
        0
  1

 92
      512
 93
        0
  2

 94
      512
 95
        0
  3

  0
XRECORD
  5
466
102
{ACAD_REACTORS
330
465
102
}
330
465
100
AcDbXrecord
280
     1
102
RTVSPropertyOp0
 70
     1
102
RTVSPropertyOp1
 70
     1
102
RTVSPropertyOp2
 70
     1
102
RTVSPropertyOp3
 70
     1
102
RTVSPropertyOp4
 70
     1
102
RTVSPropertyOp5
 70
     1
102
RTVSPropertyOp6
 70
     1
102
RTVSPropertyOp7
 70
     1
102
RTVSPropertyOp8
 70
     1
102
RTVSPropertyOp9
 70
     1
102
RTVSPropertyOp10
 70
     1
102
RTVSPropertyOp11
 70
     1
102
RTVSPropertyOp12
 70
     1
102
RTVSPropertyOp13
 70
     1
102
RTVSPropertyOp14
 70
     1
102
RTVSPropertyOp15
 70
     1
102
RTVSPropertyOp16
 70
     1
102
RTVSPropertyOp17
 70
     1
102
RTVSPropertyOp18
 70
     1
102
RTVSPropertyOp19
 70
     1
102
RTVSPropertyOp20
 70
     1
102
RTVSPropertyOp21
 70
     1
102
RTVSPropertyOp22
 70
     1
102
RTVSPropertyOp23
 70
     1
102
RTVSPropertyOp24
 70
     1
102
RTVSPropertyOp25
 70
     1
102
RTVSPropertyOp26
 70
     1
102
RTVSPropertyOp27
 70
     1
102
RTVSPropertyOp28
 70
     1
102
RTVSPropertyOp29
 70
     1
102
RTVSPropertyOp30
 70
     1
102
RTVSPropertyOp31
 70
     1
102
RTVSPropertyOp32
 70
     1
  0
XRECORD
  5
46A
102
{ACAD_REACTORS
330
469
102
}
330
469
100
AcDbXrecord
280
     1
102
RTVSPropertyOp0
 70
     1
102
RTVSPropertyOp1
 70
     1
102
RTVSPropertyOp2
 70
     1
102
RTVSPropertyOp3
 70
     1
102
RTVSPropertyOp4
 70
     1
102
RTVSPropertyOp5
 70
     1
102
RTVSPropertyOp6
 70
     1
102
RTVSPropertyOp7
 70
     1
102
RTVSPropertyOp8
 70
     1
102
RTVSPropertyOp9
 70
     1
102
RTVSPropertyOp10
 70
     1
102
RTVSPropertyOp11
 70
     1
102
RTVSPropertyOp12
 70
     1
102
RTVSPropertyOp13
 70
     1
102
RTVSPropertyOp14
 70
     1
102
RTVSPropertyOp15
 70
     1
102
RTVSPropertyOp16
 70
     1
102
RTVSPropertyOp17
 70
     1
102
RTVSPropertyOp18
 70
     1
102
RTVSPropertyOp19
 70
     1
102
RTVSPropertyOp20
 70
     1
102
RTVSPropertyOp21
 70
     1
102
RTVSPropertyOp22
 70
     1
102
RTVSPropertyOp23
 70
     1
102
RTVSPropertyOp24
 70
     1
102
RTVSPropertyOp25
 70
     1
102
RTVSPropertyOp26
 70
     1
102
RTVSPropertyOp27
 70
     1
102
RTVSPropertyOp28
 70
     1
102
RTVSPropertyOp29
 70
     1
102
RTVSPropertyOp30
 70
     1
102
RTVSPropertyOp31
 70
     1
102
RTVSPropertyOp32
 70
     1
  0
XRECORD
  5
468
102
{ACAD_REACTORS
330
467
102
}
330
467
100
AcDbXrecord
280
     1
102
RTVSPropertyOp0
 70
     1
102
RTVSPropertyOp1
 70
     1
102
RTVSPropertyOp2
 70
     1
102
RTVSPropertyOp3
 70
     1
102
RTVSPropertyOp4
 70
     1
102
RTVSPropertyOp5
 70
     1
102
RTVSPropertyOp6
 70
     1
102
RTVSPropertyOp7
 70
     1
102
RTVSPropertyOp8
 70
     1
102
RTVSPropertyOp9
 70
     1
102
RTVSPropertyOp10
 70
     1
102
RTVSPropertyOp11
 70
     1
102
RTVSPropertyOp12
 70
     1
102
RTVSPropertyOp13
 70
     1
102
RTVSPropertyOp14
 70
     1
102
RTVSPropertyOp15
 70
     1
102
RTVSPropertyOp16
 70
     1
102
RTVSPropertyOp17
 70
     1
102
RTVSPropertyOp18
 70
     1
102
RTVSPropertyOp19
 70
     1
102
RTVSPropertyOp20
 70
     1
102
RTVSPropertyOp21
 70
     1
102
RTVSPropertyOp22
 70
     1
102
RTVSPropertyOp23
 70
     1
102
RTVSPropertyOp24
 70
     1
102
RTVSPropertyOp25
 70
     1
102
RTVSPropertyOp26
 70
     1
102
RTVSPropertyOp27
 70
     1
102
RTVSPropertyOp28
 70
     1
102
RTVSPropertyOp29
 70
     1
102
RTVSPropertyOp30
 70
     1
102
RTVSPropertyOp31
 70
     1
102
RTVSPropertyOp32
 70
     1
  0
XRECORD
  5
46C
102
{ACAD_REACTORS
330
46B
102
}
330
46B
100
AcDbXrecord
280
     1
102
RTVSPropertyOp0
 70
     1
102
RTVSPropertyOp1
 70
     1
102
RTVSPropertyOp2
 70
     1
102
RTVSPropertyOp3
 70
     1
102
RTVSPropertyOp4
 70
     1
102
RTVSPropertyOp5
 70
     1
102
RTVSPropertyOp6
 70
     1
102
RTVSPropertyOp7
 70
     1
102
RTVSPropertyOp8
 70
     1
102
RTVSPropertyOp9
 70
     1
102
RTVSPropertyOp10
 70
     1
102
RTVSPropertyOp11
 70
     1
102
RTVSPropertyOp12
 70
     1
102
RTVSPropertyOp13
 70
     1
102
RTVSPropertyOp14
 70
     1
102
RTVSPropertyOp15
 70
     1
102
RTVSPropertyOp16
 70
     1
102
RTVSPropertyOp17
 70
     1
102
RTVSPropertyOp18
 70
     1
102
RTVSPropertyOp19
 70
     1
102
RTVSPropertyOp20
 70
     1
102
RTVSPropertyOp21
 70
     1
102
RTVSPropertyOp22
 70
     1
102
RTVSPropertyOp23
 70
     1
102
RTVSPropertyOp24
 70
     1
102
RTVSPropertyOp25
 70
     1
102
RTVSPropertyOp26
 70
     1
102
RTVSPropertyOp27
 70
     1
102
RTVSPropertyOp28
 70
     1
102
RTVSPropertyOp29
 70
     1
102
RTVSPropertyOp30
 70
     1
102
RTVSPropertyOp31
 70
     1
102
RTVSPropertyOp32
 70
     1
  0
XRECORD
  5
474
102
{ACAD_REACTORS
330
473
102
}
330
473
100
AcDbXrecord
280
     1
102
RTVSPropertyOp0
 70
     1
102
RTVSPropertyOp1
 70
     1
102
RTVSPropertyOp2
 70
     1
102
RTVSPropertyOp3
 70
     1
102
RTVSPropertyOp4
 70
     1
102
RTVSPropertyOp5
 70
     1
102
RTVSPropertyOp6
 70
     1
102
RTVSPropertyOp7
 70
     1
102
RTVSPropertyOp8
 70
     1
102
RTVSPropertyOp9
 70
     1
102
RTVSPropertyOp10
 70
     1
102
RTVSPropertyOp11
 70
     1
102
RTVSPropertyOp12
 70
     1
102
RTVSPropertyOp13
 70
     1
102
RTVSPropertyOp14
 70
     1
102
RTVSPropertyOp15
 70
     1
102
RTVSPropertyOp16
 70
     1
102
RTVSPropertyOp17
 70
     1
102
RTVSPropertyOp18
 70
     1
102
RTVSPropertyOp19
 70
     1
102
RTVSPropertyOp20
 70
     1
102
RTVSPropertyOp21
 70
     1
102
RTVSPropertyOp22
 70
     1
102
RTVSPropertyOp23
 70
     1
102
RTVSPropertyOp24
 70
     1
102
RTVSPropertyOp25
 70
     1
102
RTVSPropertyOp26
 70
     1
102
RTVSPropertyOp27
 70
     1
102
RTVSPropertyOp28
 70
     1
102
RTVSPropertyOp29
 70
     1
102
RTVSPropertyOp30
 70
     1
102
RTVSPropertyOp31
 70
     1
102
RTVSPropertyOp32
 70
     1
  0
XRECORD
  5
47C
102
{ACAD_REACTORS
330
47B
102
}
330
47B
100
AcDbXrecord
280
     1
102
RTVSPropertyOp0
 70
     1
102
RTVSPropertyOp1
 70
     1
102
RTVSPropertyOp2
 70
     1
102
RTVSPropertyOp3
 70
     1
102
RTVSPropertyOp4
 70
     1
102
RTVSPropertyOp5
 70
     1
102
RTVSPropertyOp6
 70
     1
102
RTVSPropertyOp7
 70
     1
102
RTVSPropertyOp8
 70
     1
102
RTVSPropertyOp9
 70
     1
102
RTVSPropertyOp10
 70
     1
102
RTVSPropertyOp11
 70
     1
102
RTVSPropertyOp12
 70
     1
102
RTVSPropertyOp13
 70
     1
102
RTVSPropertyOp14
 70
     1
102
RTVSPropertyOp15
 70
     1
102
RTVSPropertyOp16
 70
     1
102
RTVSPropertyOp17
 70
     1
102
RTVSPropertyOp18
 70
     1
102
RTVSPropertyOp19
 70
     1
102
RTVSPropertyOp20
 70
     1
102
RTVSPropertyOp21
 70
     1
102
RTVSPropertyOp22
 70
     1
102
RTVSPropertyOp23
 70
     1
102
RTVSPropertyOp24
 70
     1
102
RTVSPropertyOp25
 70
     1
102
RTVSPropertyOp26
 70
     1
102
RTVSPropertyOp27
 70
     1
102
RTVSPropertyOp28
 70
     1
102
RTVSPropertyOp29
 70
     1
102
RTVSPropertyOp30
 70
     1
102
RTVSPropertyOp31
 70
     1
102
RTVSPropertyOp32
 70
     1
  0
XRECORD
  5
470
102
{ACAD_REACTORS
330
46F
102
}
330
46F
100
AcDbXrecord
280
     1
102
RTVSPropertyOp0
 70
     1
102
RTVSPropertyOp1
 70
     1
102
RTVSPropertyOp2
 70
     1
102
RTVSPropertyOp3
 70
     1
102
RTVSPropertyOp4
 70
     1
102
RTVSPropertyOp5
 70
     1
102
RTVSPropertyOp6
 70
     1
102
RTVSPropertyOp7
 70
     1
102
RTVSPropertyOp8
 70
     1
102
RTVSPropertyOp9
 70
     1
102
RTVSPropertyOp10
 70
     1
102
RTVSPropertyOp11
 70
     1
102
RTVSPropertyOp12
 70
     1
102
RTVSPropertyOp13
 70
     1
102
RTVSPropertyOp14
 70
     1
102
RTVSPropertyOp15
 70
     1
102
RTVSPropertyOp16
 70
     1
102
RTVSPropertyOp17
 70
     1
102
RTVSPropertyOp18
 70
     1
102
RTVSPropertyOp19
 70
     1
102
RTVSPropertyOp20
 70
     1
102
RTVSPropertyOp21
 70
     1
102
RTVSPropertyOp22
 70
     1
102
RTVSPropertyOp23
 70
     1
102
RTVSPropertyOp24
 70
     1
102
RTVSPropertyOp25
 70
     1
102
RTVSPropertyOp26
 70
     1
102
RTVSPropertyOp27
 70
     1
102
RTVSPropertyOp28
 70
     1
102
RTVSPropertyOp29
 70
     1
102
RTVSPropertyOp30
 70
     1
102
RTVSPropertyOp31
 70
     1
102
RTVSPropertyOp32
 70
     1
  0
XRECORD
  5
472
102
{ACAD_REACTORS
330
471
102
}
330
471
100
AcDbXrecord
280
     1
102
RTVSPropertyOp0
 70
     1
102
RTVSPropertyOp1
 70
     1
102
RTVSPropertyOp2
 70
     1
102
RTVSPropertyOp3
 70
     1
102
RTVSPropertyOp4
 70
     1
102
RTVSPropertyOp5
 70
     1
102
RTVSPropertyOp6
 70
     1
102
RTVSPropertyOp7
 70
     1
102
RTVSPropertyOp8
 70
     1
102
RTVSPropertyOp9
 70
     1
102
RTVSPropertyOp10
 70
     1
102
RTVSPropertyOp11
 70
     1
102
RTVSPropertyOp12
 70
     1
102
RTVSPropertyOp13
 70
     1
102
RTVSPropertyOp14
 70
     1
102
RTVSPropertyOp15
 70
     1
102
RTVSPropertyOp16
 70
     1
102
RTVSPropertyOp17
 70
     1
102
RTVSPropertyOp18
 70
     1
102
RTVSPropertyOp19
 70
     1
102
RTVSPropertyOp20
 70
     1
102
RTVSPropertyOp21
 70
     1
102
RTVSPropertyOp22
 70
     1
102
RTVSPropertyOp23
 70
     1
102
RTVSPropertyOp24
 70
     1
102
RTVSPropertyOp25
 70
     1
102
RTVSPropertyOp26
 70
     1
102
RTVSPropertyOp27
 70
     1
102
RTVSPropertyOp28
 70
     1
102
RTVSPropertyOp29
 70
     1
102
RTVSPropertyOp30
 70
     1
102
RTVSPropertyOp31
 70
     1
102
RTVSPropertyOp32
 70
     1
  0
XRECORD
  5
498
102
{ACAD_REACTORS
330
497
102
}
330
497
100
AcDbXrecord
280
     1
102
RTVSPropertyOp0
 70
     0
102
RTVSPropertyOp1
 70
     0
102
RTVSPropertyOp2
 70
     0
102
RTVSPropertyOp3
 70
     0
102
RTVSPropertyOp4
 70
     0
102
RTVSPropertyOp5
 70
     0
102
RTVSPropertyOp6
 70
     0
102
RTVSPropertyOp7
 70
     0
102
RTVSPropertyOp8
 70
     0
102
RTVSPropertyOp9
 70
     0
102
RTVSPropertyOp10
 70
     0
102
RTVSPropertyOp11
 70
     0
102
RTVSPropertyOp12
 70
     0
102
RTVSPropertyOp13
 70
     0
102
RTVSPropertyOp14
 70
     2
102
RTVSPropertyOp15
 70
     0
102
RTVSPropertyOp16
 70
     0
102
RTVSPropertyOp17
 70
     0
102
RTVSPropertyOp18
 70
     0
102
RTVSPropertyOp19
 70
     0
102
RTVSPropertyOp20
 70
     0
102
RTVSPropertyOp21
 70
     0
102
RTVSPropertyOp22
 70
     0
102
RTVSPropertyOp23
 70
     0
102
RTVSPropertyOp24
 70
     0
102
RTVSPropertyOp25
 70
     0
102
RTVSPropertyOp26
 70
     0
102
RTVSPropertyOp27
 70
     0
102
RTVSPropertyOp28
 70
     0
102
RTVSPropertyOp29
 70
     0
102
RTVSPropertyOp30
 70
     0
102
RTVSPropertyOp31
 70
     0
102
RTVSPropertyOp32
 70
     0
  0
XRECORD
  5
47A
102
{ACAD_REACTORS
330
479
102
}
330
479
100
AcDbXrecord
280
     1
102
RTVSPropertyOp0
 70
     1
102
RTVSPropertyOp1
 70
     1
102
RTVSPropertyOp2
 70
     1
102
RTVSPropertyOp3
 70
     1
102
RTVSPropertyOp4
 70
     1
102
RTVSPropertyOp5
 70
     1
102
RTVSPropertyOp6
 70
     1
102
RTVSPropertyOp7
 70
     1
102
RTVSPropertyOp8
 70
     1
102
RTVSPropertyOp9
 70
     1
102
RTVSPropertyOp10
 70
     1
102
RTVSPropertyOp11
 70
     1
102
RTVSPropertyOp12
 70
     1
102
RTVSPropertyOp13
 70
     1
102
RTVSPropertyOp14
 70
     1
102
RTVSPropertyOp15
 70
     1
102
RTVSPropertyOp16
 70
     1
102
RTVSPropertyOp17
 70
     1
102
RTVSPropertyOp18
 70
     1
102
RTVSPropertyOp19
 70
     1
102
RTVSPropertyOp20
 70
     1
102
RTVSPropertyOp21
 70
     1
102
RTVSPropertyOp22
 70
     1
102
RTVSPropertyOp23
 70
     1
102
RTVSPropertyOp24
 70
     1
102
RTVSPropertyOp25
 70
     1
102
RTVSPropertyOp26
 70
     1
102
RTVSPropertyOp27
 70
     1
102
RTVSPropertyOp28
 70
     1
102
RTVSPropertyOp29
 70
     1
102
RTVSPropertyOp30
 70
     1
102
RTVSPropertyOp31
 70
     1
102
RTVSPropertyOp32
 70
     1
  0
XRECORD
  5
45E
102
{ACAD_REACTORS
330
45D
102
}
330
45D
100
AcDbXrecord
280
     1
102
RTVSPropertyOp0
 70
     1
102
RTVSPropertyOp1
 70
     1
102
RTVSPropertyOp2
 70
     1
102
RTVSPropertyOp3
 70
     1
102
RTVSPropertyOp4
 70
     1
102
RTVSPropertyOp5
 70
     1
102
RTVSPropertyOp6
 70
     1
102
RTVSPropertyOp7
 70
     1
102
RTVSPropertyOp8
 70
     1
102
RTVSPropertyOp9
 70
     1
102
RTVSPropertyOp10
 70
     1
102
RTVSPropertyOp11
 70
     1
102
RTVSPropertyOp12
 70
     1
102
RTVSPropertyOp13
 70
     1
102
RTVSPropertyOp14
 70
     1
102
RTVSPropertyOp15
 70
     1
102
RTVSPropertyOp16
 70
     1
102
RTVSPropertyOp17
 70
     1
102
RTVSPropertyOp18
 70
     1
102
RTVSPropertyOp19
 70
     1
102
RTVSPropertyOp20
 70
     1
102
RTVSPropertyOp21
 70
     1
102
RTVSPropertyOp22
 70
     1
102
RTVSPropertyOp23
 70
     1
102
RTVSPropertyOp24
 70
     1
102
RTVSPropertyOp25
 70
     1
102
RTVSPropertyOp26
 70
     1
102
RTVSPropertyOp27
 70
     1
102
RTVSPropertyOp28
 70
     1
102
RTVSPropertyOp29
 70
     1
102
RTVSPropertyOp30
 70
     1
102
RTVSPropertyOp31
 70
     1
102
RTVSPropertyOp32
 70
     1
  0
XRECORD
  5
460
102
{ACAD_REACTORS
330
45F
102
}
330
45F
100
AcDbXrecord
280
     1
102
RTVSPropertyOp0
 70
     1
102
RTVSPropertyOp1
 70
     1
102
RTVSPropertyOp2
 70
     1
102
RTVSPropertyOp3
 70
     1
102
RTVSPropertyOp4
 70
     1
102
RTVSPropertyOp5
 70
     1
102
RTVSPropertyOp6
 70
     1
102
RTVSPropertyOp7
 70
     1
102
RTVSPropertyOp8
 70
     1
102
RTVSPropertyOp9
 70
     1
102
RTVSPropertyOp10
 70
     1
102
RTVSPropertyOp11
 70
     1
102
RTVSPropertyOp12
 70
     1
102
RTVSPropertyOp13
 70
     1
102
RTVSPropertyOp14
 70
     1
102
RTVSPropertyOp15
 70
     1
102
RTVSPropertyOp16
 70
     1
102
RTVSPropertyOp17
 70
     1
102
RTVSPropertyOp18
 70
     1
102
RTVSPropertyOp19
 70
     1
102
RTVSPropertyOp20
 70
     1
102
RTVSPropertyOp21
 70
     1
102
RTVSPropertyOp22
 70
     1
102
RTVSPropertyOp23
 70
     1
102
RTVSPropertyOp24
 70
     1
102
RTVSPropertyOp25
 70
     1
102
RTVSPropertyOp26
 70
     1
102
RTVSPropertyOp27
 70
     1
102
RTVSPropertyOp28
 70
     1
102
RTVSPropertyOp29
 70
     1
102
RTVSPropertyOp30
 70
     1
102
RTVSPropertyOp31
 70
     1
102
RTVSPropertyOp32
 70
     1
  0
XRECORD
  5
462
102
{ACAD_REACTORS
330
461
102
}
330
461
100
AcDbXrecord
280
     1
102
RTVSPropertyOp0
 70
     1
102
RTVSPropertyOp1
 70
     1
102
RTVSPropertyOp2
 70
     1
102
RTVSPropertyOp3
 70
     1
102
RTVSPropertyOp4
 70
     1
102
RTVSPropertyOp5
 70
     1
102
RTVSPropertyOp6
 70
     1
102
RTVSPropertyOp7
 70
     1
102
RTVSPropertyOp8
 70
     1
102
RTVSPropertyOp9
 70
     1
102
RTVSPropertyOp10
 70
     1
102
RTVSPropertyOp11
 70
     1
102
RTVSPropertyOp12
 70
     1
102
RTVSPropertyOp13
 70
     1
102
RTVSPropertyOp14
 70
     1
102
RTVSPropertyOp15
 70
     1
102
RTVSPropertyOp16
 70
     1
102
RTVSPropertyOp17
 70
     1
102
RTVSPropertyOp18
 70
     1
102
RTVSPropertyOp19
 70
     1
102
RTVSPropertyOp20
 70
     1
102
RTVSPropertyOp21
 70
     1
102
RTVSPropertyOp22
 70
     1
102
RTVSPropertyOp23
 70
     1
102
RTVSPropertyOp24
 70
     1
102
RTVSPropertyOp25
 70
     1
102
RTVSPropertyOp26
 70
     1
102
RTVSPropertyOp27
 70
     1
102
RTVSPropertyOp28
 70
     1
102
RTVSPropertyOp29
 70
     1
102
RTVSPropertyOp30
 70
     1
102
RTVSPropertyOp31
 70
     1
102
RTVSPropertyOp32
 70
     1
  0
XRECORD
  5
464
102
{ACAD_REACTORS
330
463
102
}
330
463
100
AcDbXrecord
280
     1
102
RTVSPropertyOp0
 70
     1
102
RTVSPropertyOp1
 70
     1
102
RTVSPropertyOp2
 70
     1
102
RTVSPropertyOp3
 70
     1
102
RTVSPropertyOp4
 70
     1
102
RTVSPropertyOp5
 70
     1
102
RTVSPropertyOp6
 70
     1
102
RTVSPropertyOp7
 70
     1
102
RTVSPropertyOp8
 70
     1
102
RTVSPropertyOp9
 70
     1
102
RTVSPropertyOp10
 70
     1
102
RTVSPropertyOp11
 70
     1
102
RTVSPropertyOp12
 70
     1
102
RTVSPropertyOp13
 70
     1
102
RTVSPropertyOp14
 70
     1
102
RTVSPropertyOp15
 70
     1
102
RTVSPropertyOp16
 70
     1
102
RTVSPropertyOp17
 70
     1
102
RTVSPropertyOp18
 70
     1
102
RTVSPropertyOp19
 70
     1
102
RTVSPropertyOp20
 70
     1
102
RTVSPropertyOp21
 70
     1
102
RTVSPropertyOp22
 70
     1
102
RTVSPropertyOp23
 70
     1
102
RTVSPropertyOp24
 70
     1
102
RTVSPropertyOp25
 70
     1
102
RTVSPropertyOp26
 70
     1
102
RTVSPropertyOp27
 70
     1
102
RTVSPropertyOp28
 70
     1
102
RTVSPropertyOp29
 70
     1
102
RTVSPropertyOp30
 70
     1
102
RTVSPropertyOp31
 70
     1
102
RTVSPropertyOp32
 70
     1
  0
XRECORD
  5
488
102
{ACAD_REACTORS
330
487
102
}
330
487
100
AcDbXrecord
280
     1
102
RTVSPropertyOp0
 70
     1
102
RTVSPropertyOp1
 70
     1
102
RTVSPropertyOp2
 70
     1
102
RTVSPropertyOp3
 70
     1
102
RTVSPropertyOp4
 70
     1
102
RTVSPropertyOp5
 70
     1
102
RTVSPropertyOp6
 70
     1
102
RTVSPropertyOp7
 70
     1
102
RTVSPropertyOp8
 70
     1
102
RTVSPropertyOp9
 70
     1
102
RTVSPropertyOp10
 70
     1
102
RTVSPropertyOp11
 70
     1
102
RTVSPropertyOp12
 70
     1
102
RTVSPropertyOp13
 70
     1
102
RTVSPropertyOp14
 70
     1
102
RTVSPropertyOp15
 70
     1
102
RTVSPropertyOp16
 70
     1
102
RTVSPropertyOp17
 70
     1
102
RTVSPropertyOp18
 70
     1
102
RTVSPropertyOp19
 70
     1
102
RTVSPropertyOp20
 70
     1
102
RTVSPropertyOp21
 70
     1
102
RTVSPropertyOp22
 70
     1
102
RTVSPropertyOp23
 70
     1
102
RTVSPropertyOp24
 70
     1
102
RTVSPropertyOp25
 70
     1
102
RTVSPropertyOp26
 70
     1
102
RTVSPropertyOp27
 70
     1
102
RTVSPropertyOp28
 70
     1
102
RTVSPropertyOp29
 70
     1
102
RTVSPropertyOp30
 70
     1
102
RTVSPropertyOp31
 70
     1
102
RTVSPropertyOp32
 70
     1
  0
XRECORD
  5
494
102
{ACAD_REACTORS
330
493
102
}
330
493
100
AcDbXrecord
280
     1
102
RTVSPropertyOp0
 70
     0
102
RTVSPropertyOp1
 70
     0
102
RTVSPropertyOp2
 70
     0
102
RTVSPropertyOp3
 70
     0
102
RTVSPropertyOp4
 70
     0
102
RTVSPropertyOp5
 70
     0
102
RTVSPropertyOp6
 70
     0
102
RTVSPropertyOp7
 70
     0
102
RTVSPropertyOp8
 70
     0
102
RTVSPropertyOp9
 70
     0
102
RTVSPropertyOp10
 70
     0
102
RTVSPropertyOp11
 70
     0
102
RTVSPropertyOp12
 70
     0
102
RTVSPropertyOp13
 70
     0
102
RTVSPropertyOp14
 70
     2
102
RTVSPropertyOp15
 70
     0
102
RTVSPropertyOp16
 70
     0
102
RTVSPropertyOp17
 70
     0
102
RTVSPropertyOp18
 70
     0
102
RTVSPropertyOp19
 70
     0
102
RTVSPropertyOp20
 70
     0
102
RTVSPropertyOp21
 70
     0
102
RTVSPropertyOp22
 70
     0
102
RTVSPropertyOp23
 70
     0
102
RTVSPropertyOp24
 70
     0
102
RTVSPropertyOp25
 70
     0
102
RTVSPropertyOp26
 70
     0
102
RTVSPropertyOp27
 70
     0
102
RTVSPropertyOp28
 70
     0
102
RTVSPropertyOp29
 70
     0
102
RTVSPropertyOp30
 70
     0
102
RTVSPropertyOp31
 70
     0
102
RTVSPropertyOp32
 70
     0
  0
XRECORD
  5
478
102
{ACAD_REACTORS
330
477
102
}
330
477
100
AcDbXrecord
280
     1
102
RTVSPropertyOp0
 70
     1
102
RTVSPropertyOp1
 70
     1
102
RTVSPropertyOp2
 70
     1
102
RTVSPropertyOp3
 70
     1
102
RTVSPropertyOp4
 70
     1
102
RTVSPropertyOp5
 70
     1
102
RTVSPropertyOp6
 70
     1
102
RTVSPropertyOp7
 70
     1
102
RTVSPropertyOp8
 70
     1
102
RTVSPropertyOp9
 70
     1
102
RTVSPropertyOp10
 70
     1
102
RTVSPropertyOp11
 70
     1
102
RTVSPropertyOp12
 70
     1
102
RTVSPropertyOp13
 70
     1
102
RTVSPropertyOp14
 70
     1
102
RTVSPropertyOp15
 70
     1
102
RTVSPropertyOp16
 70
     1
102
RTVSPropertyOp17
 70
     1
102
RTVSPropertyOp18
 70
     1
102
RTVSPropertyOp19
 70
     1
102
RTVSPropertyOp20
 70
     1
102
RTVSPropertyOp21
 70
     1
102
RTVSPropertyOp22
 70
     1
102
RTVSPropertyOp23
 70
     1
102
RTVSPropertyOp24
 70
     1
102
RTVSPropertyOp25
 70
     1
102
RTVSPropertyOp26
 70
     1
102
RTVSPropertyOp27
 70
     1
102
RTVSPropertyOp28
 70
     1
102
RTVSPropertyOp29
 70
     1
102
RTVSPropertyOp30
 70
     1
102
RTVSPropertyOp31
 70
     1
102
RTVSPropertyOp32
 70
     1
  0
XRECORD
  5
496
102
{ACAD_REACTORS
330
495
102
}
330
495
100
AcDbXrecord
280
     1
102
RTVSPropertyOp0
 70
     0
102
RTVSPropertyOp1
 70
     0
102
RTVSPropertyOp2
 70
     0
102
RTVSPropertyOp3
 70
     0
102
RTVSPropertyOp4
 70
     0
102
RTVSPropertyOp5
 70
     0
102
RTVSPropertyOp6
 70
     0
102
RTVSPropertyOp7
 70
     0
102
RTVSPropertyOp8
 70
     0
102
RTVSPropertyOp9
 70
     0
102
RTVSPropertyOp10
 70
     0
102
RTVSPropertyOp11
 70
     0
102
RTVSPropertyOp12
 70
     0
102
RTVSPropertyOp13
 70
     0
102
RTVSPropertyOp14
 70
     2
102
RTVSPropertyOp15
 70
     0
102
RTVSPropertyOp16
 70
     0
102
RTVSPropertyOp17
 70
     0
102
RTVSPropertyOp18
 70
     0
102
RTVSPropertyOp19
 70
     0
102
RTVSPropertyOp20
 70
     0
102
RTVSPropertyOp21
 70
     0
102
RTVSPropertyOp22
 70
     0
102
RTVSPropertyOp23
 70
     0
102
RTVSPropertyOp24
 70
     0
102
RTVSPropertyOp25
 70
     0
102
RTVSPropertyOp26
 70
     0
102
RTVSPropertyOp27
 70
     0
102
RTVSPropertyOp28
 70
     0
102
RTVSPropertyOp29
 70
     0
102
RTVSPropertyOp30
 70
     0
102
RTVSPropertyOp31
 70
     0
102
RTVSPropertyOp32
 70
     0
  0
XRECORD
  5
46E
102
{ACAD_REACTORS
330
46D
102
}
330
46D
100
AcDbXrecord
280
     1
102
RTVSPropertyOp0
 70
     1
102
RTVSPropertyOp1
 70
     1
102
RTVSPropertyOp2
 70
     1
102
RTVSPropertyOp3
 70
     1
102
RTVSPropertyOp4
 70
     1
102
RTVSPropertyOp5
 70
     1
102
RTVSPropertyOp6
 70
     1
102
RTVSPropertyOp7
 70
     1
102
RTVSPropertyOp8
 70
     1
102
RTVSPropertyOp9
 70
     1
102
RTVSPropertyOp10
 70
     1
102
RTVSPropertyOp11
 70
     1
102
RTVSPropertyOp12
 70
     1
102
RTVSPropertyOp13
 70
     1
102
RTVSPropertyOp14
 70
     1
102
RTVSPropertyOp15
 70
     1
102
RTVSPropertyOp16
 70
     1
102
RTVSPropertyOp17
 70
     1
102
RTVSPropertyOp18
 70
     1
102
RTVSPropertyOp19
 70
     1
102
RTVSPropertyOp20
 70
     1
102
RTVSPropertyOp21
 70
     1
102
RTVSPropertyOp22
 70
     1
102
RTVSPropertyOp23
 70
     1
102
RTVSPropertyOp24
 70
     1
102
RTVSPropertyOp25
 70
     1
102
RTVSPropertyOp26
 70
     1
102
RTVSPropertyOp27
 70
     1
102
RTVSPropertyOp28
 70
     1
102
RTVSPropertyOp29
 70
     1
102
RTVSPropertyOp30
 70
     1
102
RTVSPropertyOp31
 70
     1
102
RTVSPropertyOp32
 70
     1
  0
XRECORD
  5
492
102
{ACAD_REACTORS
330
491
102
}
330
491
100
AcDbXrecord
280
     1
102
RTVSPropertyOp0
 70
     1
102
RTVSPropertyOp1
 70
     1
102
RTVSPropertyOp2
 70
     1
102
RTVSPropertyOp3
 70
     1
102
RTVSPropertyOp4
 70
     1
102
RTVSPropertyOp5
 70
     1
102
RTVSPropertyOp6
 70
     1
102
RTVSPropertyOp7
 70
     1
102
RTVSPropertyOp8
 70
     1
102
RTVSPropertyOp9
 70
     1
102
RTVSPropertyOp10
 70
     1
102
RTVSPropertyOp11
 70
     1
102
RTVSPropertyOp12
 70
     1
102
RTVSPropertyOp13
 70
     1
102
RTVSPropertyOp14
 70
     1
102
RTVSPropertyOp15
 70
     1
102
RTVSPropertyOp16
 70
     1
102
RTVSPropertyOp17
 70
     1
102
RTVSPropertyOp18
 70
     1
102
RTVSPropertyOp19
 70
     1
102
RTVSPropertyOp20
 70
     1
102
RTVSPropertyOp21
 70
     1
102
RTVSPropertyOp22
 70
     1
102
RTVSPropertyOp23
 70
     1
102
RTVSPropertyOp24
 70
     1
102
RTVSPropertyOp25
 70
     1
102
RTVSPropertyOp26
 70
     1
102
RTVSPropertyOp27
 70
     1
102
RTVSPropertyOp28
 70
     1
102
RTVSPropertyOp29
 70
     1
102
RTVSPropertyOp30
 70
     1
102
RTVSPropertyOp31
 70
     1
102
RTVSPropertyOp32
 70
     1
  0
XRECORD
  5
490
102
{ACAD_REACTORS
330
48F
102
}
330
48F
100
AcDbXrecord
280
     1
102
RTVSPropertyOp0
 70
     1
102
RTVSPropertyOp1
 70
     1
102
RTVSPropertyOp2
 70
     1
102
RTVSPropertyOp3
 70
     1
102
RTVSPropertyOp4
 70
     1
102
RTVSPropertyOp5
 70
     1
102
RTVSPropertyOp6
 70
     1
102
RTVSPropertyOp7
 70
     1
102
RTVSPropertyOp8
 70
     1
102
RTVSPropertyOp9
 70
     1
102
RTVSPropertyOp10
 70
     1
102
RTVSPropertyOp11
 70
     1
102
RTVSPropertyOp12
 70
     1
102
RTVSPropertyOp13
 70
     1
102
RTVSPropertyOp14
 70
     1
102
RTVSPropertyOp15
 70
     1
102
RTVSPropertyOp16
 70
     1
102
RTVSPropertyOp17
 70
     1
102
RTVSPropertyOp18
 70
     1
102
RTVSPropertyOp19
 70
     1
102
RTVSPropertyOp20
 70
     1
102
RTVSPropertyOp21
 70
     1
102
RTVSPropertyOp22
 70
     1
102
RTVSPropertyOp23
 70
     1
102
RTVSPropertyOp24
 70
     1
102
RTVSPropertyOp25
 70
     1
102
RTVSPropertyOp26
 70
     1
102
RTVSPropertyOp27
 70
     1
102
RTVSPropertyOp28
 70
     1
102
RTVSPropertyOp29
 70
     1
102
RTVSPropertyOp30
 70
     1
102
RTVSPropertyOp31
 70
     1
102
RTVSPropertyOp32
 70
     1
  0
XRECORD
  5
48A
102
{ACAD_REACTORS
330
489
102
}
330
489
100
AcDbXrecord
280
     1
102
RTVSPropertyOp0
 70
     1
102
RTVSPropertyOp1
 70
     1
102
RTVSPropertyOp2
 70
     1
102
RTVSPropertyOp3
 70
     1
102
RTVSPropertyOp4
 70
     1
102
RTVSPropertyOp5
 70
     1
102
RTVSPropertyOp6
 70
     1
102
RTVSPropertyOp7
 70
     1
102
RTVSPropertyOp8
 70
     1
102
RTVSPropertyOp9
 70
     1
102
RTVSPropertyOp10
 70
     1
102
RTVSPropertyOp11
 70
     1
102
RTVSPropertyOp12
 70
     1
102
RTVSPropertyOp13
 70
     1
102
RTVSPropertyOp14
 70
     1
102
RTVSPropertyOp15
 70
     1
102
RTVSPropertyOp16
 70
     1
102
RTVSPropertyOp17
 70
     1
102
RTVSPropertyOp18
 70
     1
102
RTVSPropertyOp19
 70
     1
102
RTVSPropertyOp20
 70
     1
102
RTVSPropertyOp21
 70
     1
102
RTVSPropertyOp22
 70
     1
102
RTVSPropertyOp23
 70
     1
102
RTVSPropertyOp24
 70
     1
102
RTVSPropertyOp25
 70
     1
102
RTVSPropertyOp26
 70
     1
102
RTVSPropertyOp27
 70
     1
102
RTVSPropertyOp28
 70
     1
102
RTVSPropertyOp29
 70
     1
102
RTVSPropertyOp30
 70
     1
102
RTVSPropertyOp31
 70
     1
102
RTVSPropertyOp32
 70
     1
  0
XRECORD
  5
48C
102
{ACAD_REACTORS
330
48B
102
}
330
48B
100
AcDbXrecord
280
     1
102
RTVSPropertyOp0
 70
     1
102
RTVSPropertyOp1
 70
     1
102
RTVSPropertyOp2
 70
     1
102
RTVSPropertyOp3
 70
     1
102
RTVSPropertyOp4
 70
     1
102
RTVSPropertyOp5
 70
     1
102
RTVSPropertyOp6
 70
     1
102
RTVSPropertyOp7
 70
     1
102
RTVSPropertyOp8
 70
     1
102
RTVSPropertyOp9
 70
     1
102
RTVSPropertyOp10
 70
     1
102
RTVSPropertyOp11
 70
     1
102
RTVSPropertyOp12
 70
     1
102
RTVSPropertyOp13
 70
     1
102
RTVSPropertyOp14
 70
     1
102
RTVSPropertyOp15
 70
     1
102
RTVSPropertyOp16
 70
     1
102
RTVSPropertyOp17
 70
     1
102
RTVSPropertyOp18
 70
     1
102
RTVSPropertyOp19
 70
     1
102
RTVSPropertyOp20
 70
     1
102
RTVSPropertyOp21
 70
     1
102
RTVSPropertyOp22
 70
     1
102
RTVSPropertyOp23
 70
     1
102
RTVSPropertyOp24
 70
     1
102
RTVSPropertyOp25
 70
     1
102
RTVSPropertyOp26
 70
     1
102
RTVSPropertyOp27
 70
     1
102
RTVSPropertyOp28
 70
     1
102
RTVSPropertyOp29
 70
     1
102
RTVSPropertyOp30
 70
     1
102
RTVSPropertyOp31
 70
     1
102
RTVSPropertyOp32
 70
     1
  0
XRECORD
  5
476
102
{ACAD_REACTORS
330
475
102
}
330
475
100
AcDbXrecord
280
     1
102
RTVSPropertyOp0
 70
     1
102
RTVSPropertyOp1
 70
     1
102
RTVSPropertyOp2
 70
     1
102
RTVSPropertyOp3
 70
     1
102
RTVSPropertyOp4
 70
     1
102
RTVSPropertyOp5
 70
     1
102
RTVSPropertyOp6
 70
     1
102
RTVSPropertyOp7
 70
     1
102
RTVSPropertyOp8
 70
     1
102
RTVSPropertyOp9
 70
     1
102
RTVSPropertyOp10
 70
     1
102
RTVSPropertyOp11
 70
     1
102
RTVSPropertyOp12
 70
     1
102
RTVSPropertyOp13
 70
     1
102
RTVSPropertyOp14
 70
     1
102
RTVSPropertyOp15
 70
     1
102
RTVSPropertyOp16
 70
     1
102
RTVSPropertyOp17
 70
     1
102
RTVSPropertyOp18
 70
     1
102
RTVSPropertyOp19
 70
     1
102
RTVSPropertyOp20
 70
     1
102
RTVSPropertyOp21
 70
     1
102
RTVSPropertyOp22
 70
     1
102
RTVSPropertyOp23
 70
     1
102
RTVSPropertyOp24
 70
     1
102
RTVSPropertyOp25
 70
     1
102
RTVSPropertyOp26
 70
     1
102
RTVSPropertyOp27
 70
     1
102
RTVSPropertyOp28
 70
     1
102
RTVSPropertyOp29
 70
     1
102
RTVSPropertyOp30
 70
     1
102
RTVSPropertyOp31
 70
     1
102
RTVSPropertyOp32
 70
     1
  0
XRECORD
  5
486
102
{ACAD_REACTORS
330
485
102
}
330
485
100
AcDbXrecord
280
     1
102
RTVSPropertyOp0
 70
     1
102
RTVSPropertyOp1
 70
     1
102
RTVSPropertyOp2
 70
     1
102
RTVSPropertyOp3
 70
     1
102
RTVSPropertyOp4
 70
     1
102
RTVSPropertyOp5
 70
     1
102
RTVSPropertyOp6
 70
     1
102
RTVSPropertyOp7
 70
     1
102
RTVSPropertyOp8
 70
     1
102
RTVSPropertyOp9
 70
     1
102
RTVSPropertyOp10
 70
     1
102
RTVSPropertyOp11
 70
     1
102
RTVSPropertyOp12
 70
     1
102
RTVSPropertyOp13
 70
     1
102
RTVSPropertyOp14
 70
     1
102
RTVSPropertyOp15
 70
     1
102
RTVSPropertyOp16
 70
     1
102
RTVSPropertyOp17
 70
     1
102
RTVSPropertyOp18
 70
     1
102
RTVSPropertyOp19
 70
     1
102
RTVSPropertyOp20
 70
     1
102
RTVSPropertyOp21
 70
     1
102
RTVSPropertyOp22
 70
     1
102
RTVSPropertyOp23
 70
     1
102
RTVSPropertyOp24
 70
     1
102
RTVSPropertyOp25
 70
     1
102
RTVSPropertyOp26
 70
     1
102
RTVSPropertyOp27
 70
     1
102
RTVSPropertyOp28
 70
     1
102
RTVSPropertyOp29
 70
     1
102
RTVSPropertyOp30
 70
     1
102
RTVSPropertyOp31
 70
     1
102
RTVSPropertyOp32
 70
     1
  0
XRECORD
  5
48E
102
{ACAD_REACTORS
330
48D
102
}
330
48D
100
AcDbXrecord
280
     1
102
RTVSPropertyOp0
 70
     1
102
RTVSPropertyOp1
 70
     1
102
RTVSPropertyOp2
 70
     1
102
RTVSPropertyOp3
 70
     1
102
RTVSPropertyOp4
 70
     1
102
RTVSPropertyOp5
 70
     1
102
RTVSPropertyOp6
 70
     1
102
RTVSPropertyOp7
 70
     1
102
RTVSPropertyOp8
 70
     1
102
RTVSPropertyOp9
 70
     1
102
RTVSPropertyOp10
 70
     1
102
RTVSPropertyOp11
 70
     1
102
RTVSPropertyOp12
 70
     1
102
RTVSPropertyOp13
 70
     1
102
RTVSPropertyOp14
 70
     1
102
RTVSPropertyOp15
 70
     1
102
RTVSPropertyOp16
 70
     1
102
RTVSPropertyOp17
 70
     1
102
RTVSPropertyOp18
 70
     1
102
RTVSPropertyOp19
 70
     1
102
RTVSPropertyOp20
 70
     1
102
RTVSPropertyOp21
 70
     1
102
RTVSPropertyOp22
 70
     1
102
RTVSPropertyOp23
 70
     1
102
RTVSPropertyOp24
 70
     1
102
RTVSPropertyOp25
 70
     1
102
RTVSPropertyOp26
 70
     1
102
RTVSPropertyOp27
 70
     1
102
RTVSPropertyOp28
 70
     1
102
RTVSPropertyOp29
 70
     1
102
RTVSPropertyOp30
 70
     1
102
RTVSPropertyOp31
 70
     1
102
RTVSPropertyOp32
 70
     1
  0
ENDSEC
  0
EOF
