  0
SECTION
  2
HEADER
  9
$ACADVER
  1
AC1009
  9
$DWGCODEPAGE
  3
ansi_1252
  9
$INSBASE
 10
0.0
 20
0.0
 30
0.0
  9
$EXTMIN
 10
0.0
 20
0.0
 30
0.0
  9
$EXTMAX
 10
11.0
 20
8.5
 30
0.0
  9
$LIMMIN
 10
0.0
 20
0.0
  9
$LIMMAX
 10
11.0
 20
8.5
  9
$ORTHOMODE
 70
     0
  9
$REGENMODE
 70
     1
  9
$FILLMODE
 70
     1
  9
$QTEXTMODE
 70
     0
  9
$MIRRTEXT
 70
     1
  9
$DRAGMODE
 70
     2
  9
$LTSCALE
 40
1.0
  9
$OSMODE
 70
    37
  9
$ATTMODE
 70
     1
  9
$TEXTSIZE
 40
0.09
  9
$TRACEWID
 40
0.05
  9
$TEXTSTYLE
  7
STANDARD
  9
$CLAYER
  8
0
  9
$CELTYPE
  6
BYLAYER
  9
$CECOLOR
 62
   256
  9
$DIMSCALE
 40
1.0
  9
$DIMASZ
 40
0.156
  9
$DIMEXO
 40
0.05
  9
$DIMDLI
 40
0.38
  9
$DIMRND
 40
0.0
  9
$DIMDLE
 40
0.0
  9
$DIMEXE
 40
0.125
  9
$DIMTP
 40
0.0
  9
$DIMTM
 40
0.0
  9
$DIMTXT
 40
0.09
  9
$DIMCEN
 40
0.09
  9
$DIMTSZ
 40
0.0
  9
$DIMTOL
 70
     0
  9
$DIMLIM
 70
     0
  9
$DIMTIH
 70
     1
  9
$DIMTOH
 70
     1
  9
$DIMSE1
 70
     0
  9
$DIMSE2
 70
     0
  9
$DIMTAD
 70
     0
  9
$DIMZIN
 70
     0
  9
$DIMBLK
  1

  9
$DIMASO
 70
     1
  9
$DIMSHO
 70
     1
  9
$DIMPOST
  1

  9
$DIMAPOST
  1

  9
$DIMALT
 70
     0
  9
$DIMALTD
 70
     2
  9
$DIMALTF
 40
25.4
  9
$DIMLFAC
 40
0.25
  9
$DIMTOFL
 70
     0
  9
$DIMTVP
 40
0.0
  9
$DIMTIX
 70
     0
  9
$DIMSOXD
 70
     0
  9
$DIMSAH
 70
     0
  9
$DIMBLK1
  1

  9
$DIMBLK2
  1

  9
$DIMSTYLE
  2
STANDARD
  9
$DIMCLRD
 70
     0
  9
$DIMCLRE
 70
     0
  9
$DIMCLRT
 70
     0
  9
$DIMTFAC
 40
1.0
  9
$DIMGAP
 40
0.06
  9
$LUNITS
 70
     2
  9
$LUPREC
 70
     3
  9
$SKETCHINC
 40
0.1
  9
$FILLETRAD
 40
0.5
  9
$AUNITS
 70
     0
  9
$AUPREC
 70
     0
  9
$MENU
  1
.
  9
$ELEVATION
 40
0.0
  9
$PELEVATION
 40
0.0
  9
$THICKNESS
 40
0.0
  9
$LIMCHECK
 70
     0
  9
$CHAMFERA
 40
0.0
  9
$CHAMFERB
 40
0.0
  9
$SKPOLY
 70
     0
  9
$TDCREATE
 40
2457451.417555752
  9
$TDUPDATE
 40
2457451.417562766
  9
$TDINDWG
 40
0.0000000116
  9
$TDUSRTIMER
 40
0.0000000116
  9
$USRTIMER
 70
     1
  9
$ANGBASE
 50
0.0
  9
$ANGDIR
 70
     0
  9
$PDMODE
 70
     0
  9
$PDSIZE
 40
-1.0
  9
$PLINEWID
 40
0.0
  9
$COORDS
 70
     1
  9
$SPLFRAME
 70
     0
  9
$SPLINETYPE
 70
     6
  9
$SPLINESEGS
 70
     8
  9
$ATTDIA
 70
     0
  9
$ATTREQ
 70
     1
  9
$HANDLING
 70
     1
  9
$HANDSEED
  5
919
  9
$SURFTAB1
 70
     6
  9
$SURFTAB2
 70
     6
  9
$SURFTYPE
 70
     6
  9
$SURFU
 70
     6
  9
$SURFV
 70
     6
  9
$UCSNAME
  2

  9
$UCSORG
 10
0.0
 20
0.0
 30
0.0
  9
$UCSXDIR
 10
1.0
 20
0.0
 30
0.0
  9
$UCSYDIR
 10
0.0
 20
1.0
 30
0.0
  9
$PUCSNAME
  2

  9
$PUCSORG
 10
0.0
 20
0.0
 30
0.0
  9
$PUCSXDIR
 10
1.0
 20
0.0
 30
0.0
  9
$PUCSYDIR
 10
0.0
 20
1.0
 30
0.0
  9
$USERI1
 70
     0
  9
$USERI2
 70
     0
  9
$USERI3
 70
     0
  9
$USERI4
 70
     0
  9
$USERI5
 70
     0
  9
$USERR1
 40
0.0
  9
$USERR2
 40
0.0
  9
$USERR3
 40
0.0
  9
$USERR4
 40
0.0
  9
$USERR5
 40
0.0
  9
$WORLDVIEW
 70
     1
  9
$SHADEDGE
 70
     3
  9
$SHADEDIF
 70
    70
  9
$TILEMODE
 70
     1
  9
$MAXACTVP
 70
    64
  9
$PLIMCHECK
 70
     0
  9
$PEXTMIN
 10
1.0000000000E+20
 20
1.0000000000E+20
 30
1.0000000000E+20
  9
$PEXTMAX
 10
-1.0000000000E+20
 20
-1.0000000000E+20
 30
-1.0000000000E+20
  9
$PLIMMIN
 10
0.0
 20
0.0
  9
$PLIMMAX
 10
12.0
 20
9.0
  9
$UNITMODE
 70
     0
  9
$VISRETAIN
 70
     1
  9
$PLINEGEN
 70
     0
  9
$PSLTSCALE
 70
     1
  0
ENDSEC
  0
SECTION
  2
TABLES
  0
TABLE
  2
VPORT
 70
     1
  0
VPORT
  2
*ACTIVE
 70
     0
 10
0.0
 20
0.0
 11
1.0
 21
1.0
 12
5.5
 22
4.25
 13
0.0
 23
0.0
 14
0.5
 24
0.5
 15
0.5
 25
0.5
 16
0.0
 26
0.0
 36
1.0
 17
0.0
 27
0.0
 37
0.0
 40
8.5
 41
1.2941176471
 42
50.0
 43
0.0
 44
0.0
 50
0.0
 51
0.0
 71
     0
 72
  2000
 73
     1
 74
     3
 75
     0
 76
     0
 77
     0
 78
     0
  0
ENDTAB
  0
TABLE
  2
LTYPE
 70
     6
  0
LTYPE
  2
CONTINUOUS
 70
     0
  3
Solid line
 72
    65
 73
     0
 40
0.0
  0
LTYPE
  2
HIDDEN
 70
     0
  3
Hidden __ __ __ __ __ __ __ __ __ __ __ __ __ __
 72
    65
 73
     2
 40
0.075
 49
0.05
 49
-0.025
  0
LTYPE
  2
PHANTOM
 70
     0
  3
Phantom ______  __  __  ______  __  __  ______
 72
    65
 73
     6
 40
0.5
 49
0.25
 49
-0.05
 49
0.05
 49
-0.05
 49
0.05
 49
-0.05
  0
LTYPE
  2
CENTER
 70
     0
  3
Center ____ _ ____ _ ____ _ ____ _ ____ _ ____
 72
    65
 73
     4
 40
0.4
 49
0.25
 49
-0.05
 49
0.05
 49
-0.05
  0
LTYPE
  2
CENTERX2
 70
     0
  3
Center (2x) ________  __  ________  __  _____
 72
    65
 73
     4
 40
0.8
 49
0.5
 49
-0.1
 49
0.1
 49
-0.1
  0
LTYPE
  2
DOT2
 70
     0
  3
Dot (.5x) ........................................
 72
    65
 73
     2
 40
0.025
 49
0.0
 49
-0.025
  0
ENDTAB
  0
TABLE
  2
LAYER
 70
     8
  0
LAYER
  2
0
 70
     0
 62
     7
  6
CONTINUOUS
  0
LAYER
  2
1
 70
     0
 62
     7
  6
CONTINUOUS
  0
LAYER
  2
LAYER0
 70
     0
 62
     7
  6
CONTINUOUS
  0
LAYER
  2
SLD-0
 70
     0
 62
     7
  6
CONTINUOUS
  0
LAYER
  2
1$SH1$0
 70
     0
 62
     7
  6
CONTINUOUS
  0
LAYER
  2
SLD-DEFPOINTS
 70
     0
 62
     7
  6
CONTINUOUS
  0
LAYER
  2
DIMS___NOTES
 70
     0
 62
     7
  6
CONTINUOUS
  0
LAYER
  2
MARKINGS
 70
     0
 62
    96
  6
CONTINUOUS
  0
ENDTAB
  0
TABLE
  2
STYLE
 70
     1
  0
STYLE
  2
STANDARD
 70
     0
 40
0.0
 41
1.0
 50
0.0
 71
     0
 42
0.09
  3
txt
  4

  0
ENDTAB
  0
TABLE
  2
VIEW
 70
     0
  0
ENDTAB
  0
TABLE
  2
UCS
 70
     0
  0
ENDTAB
  0
TABLE
  2
APPID
 70
     1
  0
APPID
  2
ACAD
 70
     0
  0
ENDTAB
  0
TABLE
  2
DIMSTYLE
 70
     1
  0
DIMSTYLE
  2
STANDARD
 70
     0
  3

  4

  5

  6

  7

 40
1.0
 41
0.18
 42
0.0625
 43
0.38
 44
0.18
 45
0.0
 46
0.0
 47
0.0
 48
0.0
140
0.18
141
0.09
142
0.0
143
25.4
144
1.0
145
0.0
146
1.0
147
0.09
 71
     0
 72
     0
 73
     1
 74
     1
 75
     0
 76
     0
 77
     0
 78
     0
170
     0
171
     2
172
     0
173
     0
174
     0
175
     0
176
     0
177
     0
178
     0
  0
ENDTAB
  0
ENDSEC
  0
SECTION
  2
BLOCKS
  0
BLOCK
  8
0
  2
$MODEL_SPACE
 70
     0
 10
0.0
 20
0.0
 30
0.0
  3
$MODEL_SPACE
  1

  0
ENDBLK
  5
21
  8
0
  0
BLOCK
 67
     1
  8
0
  2
$PAPER_SPACE
 70
     0
 10
0.0
 20
0.0
 30
0.0
  3
$PAPER_SPACE
  1

  0
ENDBLK
  5
1D
 67
     1
  8
0
  0
BLOCK
  8
0
  2
SW_NOTE_0
 70
     0
 10
0.0
 20
0.0
 30
0.0
  3
SW_NOTE_0
  1

  0
TEXT
  5
122
  8
1
 62
     0
 10
0.0
 20
0.0317934056
 30
0.0
 40
0.09
  1
NOTES:
 41
0.7
 11
0.0
 21
0.0
 31
0.0
 73
     1
  0
TEXT
  5
123
  8
1
 62
     0
 10
0.0
 20
-0.2269467604
 30
0.0
 40
0.09
  1
1. CONFORMS TO EIA--310-D SPECIFICATIONS FOR
 41
0.6602272727
 11
0.0
 21
-0.258740166
 31
0.0
 73
     1
  0
TEXT
  5
124
  8
1
 62
     0
 10
0.0
 20
-0.3563168434
 30
0.0
 40
0.09
  1
    RACKS AND CABINETS.
 41
0.6086956522
 11
0.0
 21
-0.388110249
 31
0.0
 73
     1
  0
ENDBLK
  5
121
  8
0
  0
BLOCK
  8
0
  2
SW_NOTE_1
 70
     0
 10
0.0
 20
0.0
 30
0.0
  3
SW_NOTE_1
  1

  0
TEXT
  5
13A
  8
1
 62
     0
 10
0.0
 20
0.0441575077
 30
0.0
 40
0.125
  1
BONDING CAGE NUT KIT
 41
0.6475
 11
0.0
 21
0.0
 31
0.0
 73
     1
  0
TEXT
  5
13B
  8
1
 62
     0
 10
0.3616319691
 20
-0.1202125668
 30
0.0
 40
0.125
  1
(CNB4K, CNBK)
 41
0.7
 11
0.3616319691
 21
-0.1643700745
 31
0.0
 73
     1
  0
TEXT
  5
13C
  8
1
 62
     0
 10
0.0941841386
 20
-0.2845826413
 30
0.0
 40
0.125
  1
CUSTOMER DRAWING
 41
0.7
 11
0.0941841386
 21
-0.328740149
 31
0.0
 73
     1
  0
ENDBLK
  5
139
  8
0
  0
ENDSEC
  0
SECTION
  2
ENTITIES
  0
LINE
  5
76
  8
0
  6
CONTINUOUS
 62
     7
 10
0.25
 20
0.25
 30
0.0
 11
10.75
 21
0.25
 31
0.0
  0
LINE
  5
77
  8
0
  6
CONTINUOUS
 62
     7
 10
0.25
 20
8.25
 30
0.0
 11
0.25
 21
0.25
 31
0.0
  0
LINE
  5
78
  8
0
  6
CONTINUOUS
 62
     7
 10
0.25
 20
8.25
 30
0.0
 11
10.75
 21
8.25
 31
0.0
  0
LINE
  5
79
  8
0
  6
CONTINUOUS
 62
     7
 10
10.75
 20
8.25
 30
0.0
 11
10.75
 21
0.25
 31
0.0
  0
LINE
  5
7A
  8
0
  6
CONTINUOUS
 62
     7
 10
7.95
 20
0.25
 30
0.0
 11
7.95
 21
0.501
 31
0.0
  0
LINE
  5
7B
  8
0
  6
CONTINUOUS
 62
     7
 10
6.705
 20
1.075
 30
0.0
 11
6.705
 21
1.425
 31
0.0
  0
LINE
  5
7C
  8
0
  6
CONTINUOUS
 62
     7
 10
6.5
 20
0.25
 30
0.0
 11
6.5
 21
1.501
 31
0.0
  0
LINE
  5
7D
  8
0
  6
CONTINUOUS
 62
     7
 10
6.71
 20
1.075
 30
0.0
 11
6.71
 21
1.425
 31
0.0
  0
LINE
  5
7E
  8
0
  6
CONTINUOUS
 62
     7
 10
6.715
 20
1.075
 30
0.0
 11
6.715
 21
1.425
 31
0.0
  0
LINE
  5
7F
  8
0
  6
CONTINUOUS
 62
     7
 10
5.95
 20
0.25
 30
0.0
 11
5.95
 21
1.501
 31
0.0
  0
LINE
  5
80
  8
0
  6
CONTINUOUS
 62
     7
 10
1.82
 20
0.25
 30
0.0
 11
1.82
 21
1.501
 31
0.0
  0
LINE
  5
81
  8
0
  6
CONTINUOUS
 62
     7
 10
1.1
 20
0.25
 30
0.0
 11
1.1
 21
1.501
 31
0.0
  0
LINE
  5
82
  8
0
  6
CONTINUOUS
 62
     7
 10
0.55
 20
0.25
 30
0.0
 11
0.55
 21
1.501
 31
0.0
  0
LINE
  5
83
  8
0
  6
CONTINUOUS
 62
     7
 10
6.72
 20
1.075
 30
0.0
 11
6.72
 21
1.425
 31
0.0
  0
LINE
  5
84
  8
0
  6
CONTINUOUS
 62
     7
 10
6.725
 20
1.075
 30
0.0
 11
6.725
 21
1.425
 31
0.0
  0
LINE
  5
85
  8
0
  6
CONTINUOUS
 62
     7
 10
6.73
 20
1.075
 30
0.0
 11
6.73
 21
1.425
 31
0.0
  0
LINE
  5
86
  8
0
  6
CONTINUOUS
 62
     7
 10
6.735
 20
1.075
 30
0.0
 11
6.735
 21
1.425
 31
0.0
  0
LINE
  5
87
  8
0
  6
CONTINUOUS
 62
     7
 10
6.74
 20
1.075
 30
0.0
 11
6.74
 21
1.425
 31
0.0
  0
LINE
  5
88
  8
0
  6
CONTINUOUS
 62
     7
 10
10.75
 20
1.501
 30
0.0
 11
0.25
 21
1.501
 31
0.0
  0
LINE
  5
89
  8
0
  6
CONTINUOUS
 62
     7
 10
6.5
 20
1.251
 30
0.0
 11
0.25
 21
1.251
 31
0.0
  0
LINE
  5
8A
  8
0
  6
CONTINUOUS
 62
     7
 10
10.75
 20
1.001
 30
0.0
 11
0.25
 21
1.001
 31
0.0
  0
LINE
  5
8B
  8
0
  6
CONTINUOUS
 62
     7
 10
6.5
 20
0.751
 30
0.0
 11
0.25
 21
0.751
 31
0.0
  0
LINE
  5
8C
  8
0
  6
CONTINUOUS
 62
     7
 10
10.75
 20
0.501
 30
0.0
 11
0.25
 21
0.501
 31
0.0
  0
LINE
  5
8D
  8
0
  6
CONTINUOUS
 62
     7
 10
6.85
 20
1.265
 30
0.0
 11
6.85
 21
1.365
 31
0.0
  0
LINE
  5
8E
  8
0
  6
CONTINUOUS
 62
     7
 10
6.85
 20
1.365
 30
0.0
 11
6.88
 21
1.365
 31
0.0
  0
LINE
  5
8F
  8
0
  6
CONTINUOUS
 62
     7
 10
6.885
 20
1.363660254
 30
0.0
 11
6.885
 21
1.425
 31
0.0
  0
LINE
  5
90
  8
0
  6
CONTINUOUS
 62
     7
 10
6.85
 20
1.265
 30
0.0
 11
6.88
 21
1.265
 31
0.0
  0
LINE
  5
91
  8
0
  6
CONTINUOUS
 62
     7
 10
6.7
 20
1.425
 30
0.0
 11
6.92
 21
1.425
 31
0.0
  0
LINE
  5
92
  8
0
  6
CONTINUOUS
 62
     7
 10
6.85
 20
1.205
 30
0.0
 11
6.92
 21
1.205
 31
0.0
  0
LINE
  5
93
  8
0
  6
CONTINUOUS
 62
     7
 10
6.85
 20
1.205
 30
0.0
 11
6.85
 21
1.075
 31
0.0
  0
LINE
  5
94
  8
0
  6
CONTINUOUS
 62
     7
 10
6.85
 20
1.075
 30
0.0
 11
6.7
 21
1.075
 31
0.0
  0
LINE
  5
95
  8
0
  6
CONTINUOUS
 62
     7
 10
6.7
 20
1.075
 30
0.0
 11
6.7
 21
1.425
 31
0.0
  0
LINE
  5
96
  8
0
  6
CONTINUOUS
 62
     7
 10
7.06
 20
1.25
 30
0.0
 11
7.0308823813
 21
1.17
 31
0.0
  0
LINE
  5
97
  8
0
  6
CONTINUOUS
 62
     7
 10
7.0308823813
 20
1.17
 30
0.0
 11
7.0891176187
 21
1.17
 31
0.0
  0
LINE
  5
98
  8
0
  6
CONTINUOUS
 62
     7
 10
7.06
 20
1.25
 30
0.0
 11
7.0891176187
 21
1.17
 31
0.0
  0
LINE
  5
99
  8
0
  6
CONTINUOUS
 62
     7
 10
7.0999081856
 20
1.35
 30
0.0
 11
7.0242832681
 21
1.35
 31
0.0
  0
LINE
  5
9A
  8
0
  6
CONTINUOUS
 62
     7
 10
7.18
 20
1.1299495484
 30
0.0
 11
7.0999081856
 21
1.35
 31
0.0
  0
LINE
  5
9B
  8
0
  6
CONTINUOUS
 62
     7
 10
7.18
 20
1.35
 30
0.0
 11
7.18
 21
1.1299495484
 31
0.0
  0
LINE
  5
9C
  8
0
  6
CONTINUOUS
 62
     7
 10
7.245
 20
1.35
 30
0.0
 11
7.18
 21
1.35
 31
0.0
  0
LINE
  5
9D
  8
0
  6
CONTINUOUS
 62
     7
 10
7.3
 20
1.1988887419
 30
0.0
 11
7.245
 21
1.35
 31
0.0
  0
LINE
  5
9E
  8
0
  6
CONTINUOUS
 62
     7
 10
7.3
 20
1.35
 30
0.0
 11
7.3
 21
1.1988887419
 31
0.0
  0
LINE
  5
9F
  8
0
  6
CONTINUOUS
 62
     7
 10
7.36
 20
1.35
 30
0.0
 11
7.3
 21
1.35
 31
0.0
  0
LINE
  5
A0
  8
0
  6
CONTINUOUS
 62
     7
 10
7.36
 20
1.075
 30
0.0
 11
7.36
 21
1.35
 31
0.0
  0
LINE
  5
A1
  8
0
  6
CONTINUOUS
 62
     7
 10
7.285
 20
1.075
 30
0.0
 11
7.36
 21
1.075
 31
0.0
  0
LINE
  5
A2
  8
0
  6
CONTINUOUS
 62
     7
 10
7.24
 20
1.1986364839
 30
0.0
 11
7.285
 21
1.075
 31
0.0
  0
LINE
  5
A3
  8
0
  6
CONTINUOUS
 62
     7
 10
7.24
 20
1.075
 30
0.0
 11
7.24
 21
1.1986364839
 31
0.0
  0
LINE
  5
A4
  8
0
  6
CONTINUOUS
 62
     7
 10
7.123694791
 20
1.075
 30
0.0
 11
7.24
 21
1.075
 31
0.0
  0
LINE
  5
A5
  8
0
  6
CONTINUOUS
 62
     7
 10
7.1091359816
 20
1.115
 30
0.0
 11
7.123694791
 21
1.075
 31
0.0
  0
LINE
  5
A6
  8
0
  6
CONTINUOUS
 62
     7
 10
7.0108640184
 20
1.115
 30
0.0
 11
7.1091359816
 21
1.115
 31
0.0
  0
LINE
  5
A7
  8
0
  6
CONTINUOUS
 62
     7
 10
6.996305209
 20
1.075
 30
0.0
 11
7.0108640184
 21
1.115
 31
0.0
  0
LINE
  5
A8
  8
0
  6
CONTINUOUS
 62
     7
 10
6.92
 20
1.075
 30
0.0
 11
6.996305209
 21
1.075
 31
0.0
  0
LINE
  5
A9
  8
0
  6
CONTINUOUS
 62
     7
 10
6.9720896693
 20
1.2181151903
 30
0.0
 11
6.92
 21
1.075
 31
0.0
  0
LINE
  5
AA
  8
0
  6
CONTINUOUS
 62
     7
 10
6.85
 20
1.265
 30
0.0
 11
6.85
 21
1.365
 31
0.0
  0
LINE
  5
AB
  8
0
  6
CONTINUOUS
 62
     7
 10
6.85
 20
1.365
 30
0.0
 11
6.88
 21
1.365
 31
0.0
  0
LINE
  5
AC
  8
0
  6
CONTINUOUS
 62
     7
 10
6.89
 20
1.275
 30
0.0
 11
6.89
 21
1.355
 31
0.0
  0
LINE
  5
AD
  8
0
  6
CONTINUOUS
 62
     7
 10
6.85
 20
1.265
 30
0.0
 11
6.88
 21
1.265
 31
0.0
  0
LINE
  5
AE
  8
0
  6
CONTINUOUS
 62
     7
 10
6.7
 20
1.425
 30
0.0
 11
6.92
 21
1.425
 31
0.0
  0
LINE
  5
AF
  8
0
  6
CONTINUOUS
 62
     7
 10
6.85
 20
1.205
 30
0.0
 11
6.92
 21
1.205
 31
0.0
  0
LINE
  5
B0
  8
0
  6
CONTINUOUS
 62
     7
 10
6.85
 20
1.205
 30
0.0
 11
6.85
 21
1.075
 31
0.0
  0
LINE
  5
B1
  8
0
  6
CONTINUOUS
 62
     7
 10
6.85
 20
1.075
 30
0.0
 11
6.7
 21
1.075
 31
0.0
  0
LINE
  5
B2
  8
0
  6
CONTINUOUS
 62
     7
 10
6.7
 20
1.075
 30
0.0
 11
6.7
 21
1.425
 31
0.0
  0
LINE
  5
B3
  8
0
  6
CONTINUOUS
 62
     7
 10
8.13
 20
1.35
 30
0.0
 11
7.95
 21
1.35
 31
0.0
  0
LINE
  5
B4
  8
0
  6
CONTINUOUS
 62
     7
 10
8.13
 20
1.35
 30
0.0
 11
8.13
 21
1.29
 31
0.0
  0
LINE
  5
B5
  8
0
  6
CONTINUOUS
 62
     7
 10
8.13
 20
1.29
 30
0.0
 11
8.075
 21
1.29
 31
0.0
  0
LINE
  5
B6
  8
0
  6
CONTINUOUS
 62
     7
 10
8.075
 20
1.075
 30
0.0
 11
8.075
 21
1.29
 31
0.0
  0
LINE
  5
B7
  8
0
  6
CONTINUOUS
 62
     7
 10
8.075
 20
1.075
 30
0.0
 11
8.005
 21
1.075
 31
0.0
  0
LINE
  5
B8
  8
0
  6
CONTINUOUS
 62
     7
 10
8.005
 20
1.075
 30
0.0
 11
8.005
 21
1.29
 31
0.0
  0
LINE
  5
B9
  8
0
  6
CONTINUOUS
 62
     7
 10
7.95
 20
1.29
 30
0.0
 11
8.005
 21
1.29
 31
0.0
  0
LINE
  5
BA
  8
0
  6
CONTINUOUS
 62
     7
 10
7.95
 20
1.35
 30
0.0
 11
7.95
 21
1.29
 31
0.0
  0
LINE
  5
BB
  8
0
  6
CONTINUOUS
 62
     7
 10
7.91
 20
1.35
 30
0.0
 11
7.84
 21
1.35
 31
0.0
  0
LINE
  5
BC
  8
0
  6
CONTINUOUS
 62
     7
 10
7.91
 20
1.35
 30
0.0
 11
7.91
 21
1.075
 31
0.0
  0
LINE
  5
BD
  8
0
  6
CONTINUOUS
 62
     7
 10
7.91
 20
1.075
 30
0.0
 11
7.84
 21
1.075
 31
0.0
  0
LINE
  5
BE
  8
0
  6
CONTINUOUS
 62
     7
 10
7.84
 20
1.35
 30
0.0
 11
7.84
 21
1.075
 31
0.0
  0
LINE
  5
BF
  8
0
  6
CONTINUOUS
 62
     7
 10
7.62
 20
1.35
 30
0.0
 11
7.69
 21
1.35
 31
0.0
  0
LINE
  5
C0
  8
0
  6
CONTINUOUS
 62
     7
 10
7.69
 20
1.145
 30
0.0
 11
7.69
 21
1.35
 31
0.0
  0
LINE
  5
C1
  8
0
  6
CONTINUOUS
 62
     7
 10
7.7
 20
1.135
 30
0.0
 11
7.72
 21
1.135
 31
0.0
  0
LINE
  5
C2
  8
0
  6
CONTINUOUS
 62
     7
 10
7.73
 20
1.145
 30
0.0
 11
7.73
 21
1.35
 31
0.0
  0
LINE
  5
C3
  8
0
  6
CONTINUOUS
 62
     7
 10
7.8
 20
1.35
 30
0.0
 11
7.73
 21
1.35
 31
0.0
  0
LINE
  5
C4
  8
0
  6
CONTINUOUS
 62
     7
 10
7.8
 20
1.35
 30
0.0
 11
7.8
 21
1.115
 31
0.0
  0
LINE
  5
C5
  8
0
  6
CONTINUOUS
 62
     7
 10
7.66
 20
1.075
 30
0.0
 11
7.76
 21
1.075
 31
0.0
  0
LINE
  5
C6
  8
0
  6
CONTINUOUS
 62
     7
 10
7.62
 20
1.35
 30
0.0
 11
7.62
 21
1.115
 31
0.0
  0
LINE
  5
C7
  8
0
  6
CONTINUOUS
 62
     7
 10
7.47
 20
1.29
 30
0.0
 11
7.5
 21
1.29
 31
0.0
  0
LINE
  5
C8
  8
0
  6
CONTINUOUS
 62
     7
 10
7.51
 20
1.28
 30
0.0
 11
7.51
 21
1.145
 31
0.0
  0
LINE
  5
C9
  8
0
  6
CONTINUOUS
 62
     7
 10
7.47
 20
1.135
 30
0.0
 11
7.5
 21
1.135
 31
0.0
  0
LINE
  5
CA
  8
0
  6
CONTINUOUS
 62
     7
 10
7.47
 20
1.29
 30
0.0
 11
7.47
 21
1.135
 31
0.0
  0
LINE
  5
CB
  8
0
  6
CONTINUOUS
 62
     7
 10
7.4
 20
1.35
 30
0.0
 11
7.54
 21
1.35
 31
0.0
  0
LINE
  5
CC
  8
0
  6
CONTINUOUS
 62
     7
 10
7.58
 20
1.31
 30
0.0
 11
7.58
 21
1.115
 31
0.0
  0
LINE
  5
CD
  8
0
  6
CONTINUOUS
 62
     7
 10
7.4
 20
1.075
 30
0.0
 11
7.54
 21
1.075
 31
0.0
  0
LINE
  5
CE
  8
0
  6
CONTINUOUS
 62
     7
 10
7.4
 20
1.35
 30
0.0
 11
7.4
 21
1.075
 31
0.0
  0
LINE
  5
CF
  8
0
  6
CONTINUOUS
 62
     7
 10
1.46
 20
0.25
 30
0.0
 11
1.46
 21
1.501
 31
0.0
  0
LINE
  5
D0
  8
0
  6
CONTINUOUS
 62
     7
 10
6.745
 20
1.075
 30
0.0
 11
6.745
 21
1.425
 31
0.0
  0
LINE
  5
D1
  8
0
  6
CONTINUOUS
 62
     7
 10
6.75
 20
1.075
 30
0.0
 11
6.75
 21
1.425
 31
0.0
  0
LINE
  5
D2
  8
0
  6
CONTINUOUS
 62
     7
 10
6.755
 20
1.075
 30
0.0
 11
6.755
 21
1.425
 31
0.0
  0
LINE
  5
D3
  8
0
  6
CONTINUOUS
 62
     7
 10
6.76
 20
1.075
 30
0.0
 11
6.76
 21
1.425
 31
0.0
  0
LINE
  5
D4
  8
0
  6
CONTINUOUS
 62
     7
 10
6.765
 20
1.075
 30
0.0
 11
6.765
 21
1.425
 31
0.0
  0
LINE
  5
D5
  8
0
  6
CONTINUOUS
 62
     7
 10
6.77
 20
1.075
 30
0.0
 11
6.77
 21
1.425
 31
0.0
  0
LINE
  5
D6
  8
0
  6
CONTINUOUS
 62
     7
 10
6.775
 20
1.075
 30
0.0
 11
6.775
 21
1.425
 31
0.0
  0
LINE
  5
D7
  8
0
  6
CONTINUOUS
 62
     7
 10
6.78
 20
1.075
 30
0.0
 11
6.78
 21
1.425
 31
0.0
  0
LINE
  5
D8
  8
0
  6
CONTINUOUS
 62
     7
 10
6.785
 20
1.075
 30
0.0
 11
6.785
 21
1.425
 31
0.0
  0
LINE
  5
D9
  8
0
  6
CONTINUOUS
 62
     7
 10
6.79
 20
1.075
 30
0.0
 11
6.79
 21
1.425
 31
0.0
  0
LINE
  5
DA
  8
0
  6
CONTINUOUS
 62
     7
 10
6.795
 20
1.075
 30
0.0
 11
6.795
 21
1.425
 31
0.0
  0
LINE
  5
DB
  8
0
  6
CONTINUOUS
 62
     7
 10
6.8
 20
1.075
 30
0.0
 11
6.8
 21
1.425
 31
0.0
  0
LINE
  5
DC
  8
0
  6
CONTINUOUS
 62
     7
 10
6.805
 20
1.075
 30
0.0
 11
6.805
 21
1.425
 31
0.0
  0
LINE
  5
DD
  8
0
  6
CONTINUOUS
 62
     7
 10
6.81
 20
1.075
 30
0.0
 11
6.81
 21
1.425
 31
0.0
  0
LINE
  5
DE
  8
0
  6
CONTINUOUS
 62
     7
 10
6.815
 20
1.075
 30
0.0
 11
6.815
 21
1.425
 31
0.0
  0
LINE
  5
DF
  8
0
  6
CONTINUOUS
 62
     7
 10
6.82
 20
1.075
 30
0.0
 11
6.82
 21
1.425
 31
0.0
  0
LINE
  5
E0
  8
0
  6
CONTINUOUS
 62
     7
 10
6.825
 20
1.075
 30
0.0
 11
6.825
 21
1.425
 31
0.0
  0
LINE
  5
E1
  8
0
  6
CONTINUOUS
 62
     7
 10
6.83
 20
1.075
 30
0.0
 11
6.83
 21
1.425
 31
0.0
  0
LINE
  5
E2
  8
0
  6
CONTINUOUS
 62
     7
 10
6.835
 20
1.075
 30
0.0
 11
6.835
 21
1.425
 31
0.0
  0
LINE
  5
E3
  8
0
  6
CONTINUOUS
 62
     7
 10
6.84
 20
1.075
 30
0.0
 11
6.84
 21
1.425
 31
0.0
  0
LINE
  5
E4
  8
0
  6
CONTINUOUS
 62
     7
 10
6.845
 20
1.075
 30
0.0
 11
6.845
 21
1.425
 31
0.0
  0
LINE
  5
E5
  8
0
  6
CONTINUOUS
 62
     7
 10
6.855
 20
1.205
 30
0.0
 11
6.855
 21
1.265
 31
0.0
  0
LINE
  5
E6
  8
0
  6
CONTINUOUS
 62
     7
 10
6.86
 20
1.205
 30
0.0
 11
6.86
 21
1.265
 31
0.0
  0
LINE
  5
E7
  8
0
  6
CONTINUOUS
 62
     7
 10
6.865
 20
1.205
 30
0.0
 11
6.865
 21
1.265
 31
0.0
  0
LINE
  5
E8
  8
0
  6
CONTINUOUS
 62
     7
 10
6.87
 20
1.205
 30
0.0
 11
6.87
 21
1.265
 31
0.0
  0
LINE
  5
E9
  8
0
  6
CONTINUOUS
 62
     7
 10
6.875
 20
1.205
 30
0.0
 11
6.875
 21
1.265
 31
0.0
  0
LINE
  5
EA
  8
0
  6
CONTINUOUS
 62
     7
 10
6.88
 20
1.205
 30
0.0
 11
6.88
 21
1.265
 31
0.0
  0
LINE
  5
EB
  8
0
  6
CONTINUOUS
 62
     7
 10
6.885
 20
1.205
 30
0.0
 11
6.885
 21
1.266339746
 31
0.0
  0
LINE
  5
EC
  8
0
  6
CONTINUOUS
 62
     7
 10
6.895
 20
1.205
 30
0.0
 11
6.895
 21
1.425
 31
0.0
  0
LINE
  5
ED
  8
0
  6
CONTINUOUS
 62
     7
 10
6.9
 20
1.205
 30
0.0
 11
6.9
 21
1.425
 31
0.0
  0
LINE
  5
EE
  8
0
  6
CONTINUOUS
 62
     7
 10
6.905
 20
1.205
 30
0.0
 11
6.905
 21
1.425
 31
0.0
  0
LINE
  5
EF
  8
0
  6
CONTINUOUS
 62
     7
 10
6.91
 20
1.205
 30
0.0
 11
6.91
 21
1.425
 31
0.0
  0
LINE
  5
F0
  8
0
  6
CONTINUOUS
 62
     7
 10
6.915
 20
1.205
 30
0.0
 11
6.915
 21
1.425
 31
0.0
  0
LINE
  5
F1
  8
0
  6
CONTINUOUS
 62
     7
 10
6.92
 20
1.205
 30
0.0
 11
6.92
 21
1.425
 31
0.0
  0
LINE
  5
F2
  8
0
  6
CONTINUOUS
 62
     7
 10
6.855
 20
1.365
 30
0.0
 11
6.855
 21
1.425
 31
0.0
  0
LINE
  5
F3
  8
0
  6
CONTINUOUS
 62
     7
 10
6.86
 20
1.365
 30
0.0
 11
6.86
 21
1.425
 31
0.0
  0
LINE
  5
F4
  8
0
  6
CONTINUOUS
 62
     7
 10
6.865
 20
1.365
 30
0.0
 11
6.865
 21
1.425
 31
0.0
  0
LINE
  5
F5
  8
0
  6
CONTINUOUS
 62
     7
 10
6.87
 20
1.365
 30
0.0
 11
6.87
 21
1.425
 31
0.0
  0
LINE
  5
F6
  8
0
  6
CONTINUOUS
 62
     7
 10
6.875
 20
1.365
 30
0.0
 11
6.875
 21
1.425
 31
0.0
  0
LINE
  5
F7
  8
0
  6
CONTINUOUS
 62
     7
 10
6.88
 20
1.365
 30
0.0
 11
6.88
 21
1.425
 31
0.0
  0
LINE
  5
F8
  8
0
  6
CONTINUOUS
 62
     7
 10
6.85
 20
1.365
 30
0.0
 11
6.85
 21
1.425
 31
0.0
  0
LINE
  5
F9
  8
0
  6
CONTINUOUS
 62
     7
 10
6.85
 20
1.205
 30
0.0
 11
6.85
 21
1.265
 31
0.0
  0
LINE
  5
FA
  8
0
  6
CONTINUOUS
 62
     7
 10
6.89
 20
1.205
 30
0.0
 11
6.89
 21
1.275
 31
0.0
  0
LINE
  5
FB
  8
0
  6
CONTINUOUS
 62
     7
 10
6.89
 20
1.3506713121
 30
0.0
 11
6.89
 21
1.425
 31
0.0
  0
LINE
  5
FC
  8
0
  6
CONTINUOUS
 62
     7
 10
6.925
 20
1.2051136951
 30
0.0
 11
6.925
 21
1.425
 31
0.0
  0
LINE
  5
FD
  8
0
  6
CONTINUOUS
 62
     7
 10
6.93
 20
1.2054554885
 30
0.0
 11
6.93
 21
1.4245445115
 31
0.0
  0
LINE
  5
FE
  8
0
  6
CONTINUOUS
 62
     7
 10
6.935
 20
1.2060275264
 30
0.0
 11
6.935
 21
1.4239724736
 31
0.0
  0
LINE
  5
FF
  8
0
  6
CONTINUOUS
 62
     7
 10
6.94
 20
1.2068334617
 30
0.0
 11
6.94
 21
1.4231665383
 31
0.0
  0
LINE
  5
100
  8
0
  6
CONTINUOUS
 62
     7
 10
6.945
 20
1.2078785736
 30
0.0
 11
6.945
 21
1.4221214264
 31
0.0
  0
LINE
  5
101
  8
0
  6
CONTINUOUS
 62
     7
 10
6.95
 20
1.2091699476
 30
0.0
 11
6.95
 21
1.4208300524
 31
0.0
  0
LINE
  5
102
  8
0
  6
CONTINUOUS
 62
     7
 10
6.955
 20
1.2107167319
 30
0.0
 11
6.955
 21
1.4192832681
 31
0.0
  0
LINE
  5
103
  8
0
  6
CONTINUOUS
 62
     7
 10
6.96
 20
1.2125304923
 30
0.0
 11
6.96
 21
1.4174695077
 31
0.0
  0
LINE
  5
104
  8
0
  6
CONTINUOUS
 62
     7
 10
6.965
 20
1.2146257005
 30
0.0
 11
6.965
 21
1.4153742995
 31
0.0
  0
LINE
  5
105
  8
0
  6
CONTINUOUS
 62
     7
 10
6.97
 20
1.2170204103
 30
0.0
 11
6.97
 21
1.4129795897
 31
0.0
  0
LINE
  5
106
  8
0
  6
CONTINUOUS
 62
     7
 10
6.975
 20
1.2197372056
 30
0.0
 11
6.975
 21
1.4102627944
 31
0.0
  0
LINE
  5
107
  8
0
  6
CONTINUOUS
 62
     7
 10
6.98
 20
1.2228045554
 30
0.0
 11
6.98
 21
1.4071954446
 31
0.0
  0
LINE
  5
108
  8
0
  6
CONTINUOUS
 62
     7
 10
6.985
 20
1.2262588033
 30
0.0
 11
6.985
 21
1.4037411967
 31
0.0
  0
LINE
  5
109
  8
0
  6
CONTINUOUS
 62
     7
 10
6.99
 20
1.2301471863
 30
0.0
 11
6.99
 21
1.3998528137
 31
0.0
  0
LINE
  5
10A
  8
0
  6
CONTINUOUS
 62
     7
 10
6.995
 20
1.2345326153
 30
0.0
 11
6.995
 21
1.3954673847
 31
0.0
  0
LINE
  5
10B
  8
0
  6
CONTINUOUS
 62
     7
 10
7.0
 20
1.2395016556
 30
0.0
 11
7.0
 21
1.3904983444
 31
0.0
  0
LINE
  5
10C
  8
0
  6
CONTINUOUS
 62
     7
 10
7.005
 20
1.2451787998
 30
0.0
 11
7.005
 21
1.3848212002
 31
0.0
  0
LINE
  5
10D
  8
0
  6
CONTINUOUS
 62
     7
 10
7.01
 20
1.2517544468
 30
0.0
 11
7.01
 21
1.3782455532
 31
0.0
  0
LINE
  5
10E
  8
0
  6
CONTINUOUS
 62
     7
 10
7.015
 20
1.2595473175
 30
0.0
 11
7.015
 21
1.3704526825
 31
0.0
  0
LINE
  5
10F
  8
0
  6
CONTINUOUS
 62
     7
 10
7.02
 20
1.2691742431
 30
0.0
 11
7.02
 21
1.3608257569
 31
0.0
  0
LINE
  5
110
  8
0
  6
CONTINUOUS
 62
     7
 10
7.025
 20
1.2822128074
 30
0.0
 11
7.025
 21
1.35
 31
0.0
  0
ARC
  5
111
  8
0
  6
CONTINUOUS
 62
     7
 10
6.88
 20
1.355
 30
0.0
 40
0.0100000000000033
 50
0.0
 51
90.0
  0
ARC
  5
112
  8
0
  6
CONTINUOUS
 62
     7
 10
6.88
 20
1.275
 30
0.0
 40
0.0100000000000033
 50
270.0
 51
0.0
  0
ARC
  5
113
  8
0
  6
CONTINUOUS
 62
     7
 10
6.92
 20
1.315
 30
0.0
 40
0.1099999999996808
 50
270.0
 51
90.0
  0
ARC
  5
114
  8
0
  6
CONTINUOUS
 62
     7
 10
6.88
 20
1.355
 30
0.0
 40
0.0100000000000033
 50
0.0
 51
90.0
  0
ARC
  5
115
  8
0
  6
CONTINUOUS
 62
     7
 10
6.88
 20
1.275
 30
0.0
 40
0.0100000000000033
 50
270.0
 51
0.0
  0
ARC
  5
116
  8
0
  6
CONTINUOUS
 62
     7
 10
6.92
 20
1.315
 30
0.0
 40
0.1099999999996808
 50
270.0
 51
90.0
  0
ARC
  5
117
  8
0
  6
CONTINUOUS
 62
     7
 10
7.7
 20
1.145
 30
0.0
 40
0.0100000000000033
 50
180.0
 51
270.0
  0
ARC
  5
118
  8
0
  6
CONTINUOUS
 62
     7
 10
7.72
 20
1.145
 30
0.0
 40
0.01
 50
270.0
 51
0.0
  0
ARC
  5
119
  8
0
  6
CONTINUOUS
 62
     7
 10
7.76
 20
1.115
 30
0.0
 40
0.04
 50
270.0
 51
0.0
  0
ARC
  5
11A
  8
0
  6
CONTINUOUS
 62
     7
 10
7.66
 20
1.115
 30
0.0
 40
0.0400000000000009
 50
180.0
 51
270.0
  0
ARC
  5
11B
  8
0
  6
CONTINUOUS
 62
     7
 10
7.5
 20
1.28
 30
0.0
 40
0.01
 50
0.0
 51
90.0
  0
ARC
  5
11C
  8
0
  6
CONTINUOUS
 62
     7
 10
7.5
 20
1.145
 30
0.0
 40
0.01
 50
270.0
 51
0.0
  0
ARC
  5
11D
  8
0
  6
CONTINUOUS
 62
     7
 10
7.54
 20
1.31
 30
0.0
 40
0.0400000000000009
 50
0.0
 51
90.0
  0
ARC
  5
11E
  8
0
  6
CONTINUOUS
 62
     7
 10
7.54
 20
1.115
 30
0.0
 40
0.0400000000000009
 50
270.0
 51
0.0
  0
INSERT
  5
125
  8
1
 62
     7
  2
SW_NOTE_0
 10
7.60681
 20
7.788039917
 30
0.0
  0
TEXT
  5
126
  8
0
  6
CONTINUOUS
 62
     7
 10
0.2732991262
 20
0.3446872283
 30
0.0
 40
0.09
  1
REV
 41
0.7
 11
0.2732991262
 21
0.3128938227
 31
0.0
 73
     1
  0
TEXT
  5
127
  8
0
  6
CONTINUOUS
 62
     7
 10
0.6576144015
 20
0.348553761
 30
0.0
 40
0.09
  1
DATE
 41
0.7
 11
0.6576144015
 21
0.3167603555
 31
0.0
 73
     1
  0
TEXT
  5
128
  8
0
  6
CONTINUOUS
 62
     7
 10
1.1986899145
 20
0.3523192353
 30
0.0
 40
0.09
  1
BY
 41
0.7
 11
1.1986899145
 21
0.3205258297
 31
0.0
 73
     1
  0
TEXT
  5
129
  8
0
  6
CONTINUOUS
 62
     7
 10
1.5126744097
 20
0.3514264423
 30
0.0
 40
0.09
  1
CHK
 41
0.7
 11
1.5126744097
 21
0.3196330367
 31
0.0
 73
     1
  0
TEXT
  5
12A
  8
0
  6
CONTINUOUS
 62
     7
 10
3.4751422495
 20
0.3438086827
 30
0.0
 40
0.09
  1
DESCRIPTION
 41
0.7
 11
3.4751422495
 21
0.3120152771
 31
0.0
 73
     1
  0
TEXT
  5
12B
  8
0
  6
CONTINUOUS
 62
     7
 10
6.1139854277
 20
0.3443719026
 30
0.0
 40
0.09
  1
ECN
 41
0.7
 11
6.1139854277
 21
0.312578497
 31
0.0
 73
     1
  0
TEXT
  5
12C
  8
0
  6
CONTINUOUS
 62
     7
 10
8.2226958907
 20
1.0810840871
 30
0.0
 40
0.175
  1
CORP.
 41
0.7
 11
8.2226958907
 21
1.0192635762
 31
0.0
 73
     1
  0
TEXT
  5
12D
  8
0
  6
CONTINUOUS
 62
     7
 10
9.0478239187
 20
1.069815692
 30
0.0
 40
0.125
  1
TINLEY PARK, ILLINOIS
 41
0.6666666667
 11
9.0478239187
 21
1.0256581842
 31
0.0
 73
     1
  0
TEXT
  5
12E
  8
0
  6
CONTINUOUS
 62
     7
 10
7.9734250809
 20
0.4029666899
 30
0.0
 40
0.07
  1
DRAWING NO / CAD FILE
 41
0.6333333333
 11
7.9734250809
 21
0.3782384856
 31
0.0
 73
     1
  0
TEXT
  5
12F
  8
0
  6
CONTINUOUS
 62
     7
 10
6.5294107997
 20
0.4038556067
 30
0.0
 40
0.07
  1
SCALE
 41
0.7
 11
6.5294107997
 21
0.3791274023
 31
0.0
 73
     1
  0
TEXT
  5
130
  8
0
  6
CONTINUOUS
 62
     7
 10
0.301309703
 20
8.0942174551
 30
0.0
 40
0.08
  1
THIS COPY IS PROVIDED ON A RESTRICTED BASIS AND IS NOT TO BE USED IN ANY WAY DETRIMENTAL TO THE INTERESTS OF PANDUIT CORP.
 41
0.6340163934
 11
0.301309703
 21
8.0659566502
 31
0.0
 73
     1
  0
TEXT
  5
131
  8
DIMS___NOTES
 10
7.6148195792
 20
0.3177245704
 30
0.0
 40
0.09
  1
N/A
 41
0.7
 11
7.6148195792
 21
0.2859311648
 31
0.0
 73
     1
  0
TEXT
  5
132
  8
1
 62
     7
 10
0.3249399183
 20
0.5835901463
 30
0.0
 40
0.09
  1
00
 41
0.7
 11
0.3249399183
 21
0.5517967407
 31
0.0
 73
     1
  0
TEXT
  5
133
  8
1
 62
     7
 10
0.711516088
 20
0.5844167447
 30
0.0
 40
0.09
  1
4/08
 41
0.7
 11
0.711516088
 21
0.5526233391
 31
0.0
 73
     1
  0
TEXT
  5
134
  8
1
 62
     7
 10
3.5745382424
 20
0.5866324686
 30
0.0
 40
0.09
  1
RELEASED
 41
0.7
 11
3.5745382424
 21
0.554839063
 31
0.0
 73
     1
  0
TEXT
  5
135
  8
1
 62
     7
 10
1.1205155704
 20
0.5818552469
 30
0.0
 40
0.09
  1
JHNU
 41
0.7
 11
1.1205155704
 21
0.5500618413
 31
0.0
 73
     1
  0
TEXT
  5
136
  8
1
 62
     7
 10
1.4805155704
 20
0.5818552469
 30
0.0
 40
0.09
  1
JMAR
 41
0.7
 11
1.4805155704
 21
0.5500618413
 31
0.0
 73
     1
  0
INSERT
  5
13D
  8
1
 62
     7
  2
SW_NOTE_1
 10
7.7411477353
 20
0.8196466772
 30
0.0
  0
TEXT
  5
13E
  8
1
 62
     7
 10
9.7656163844
 20
0.3182373668
 30
0.0
 40
0.125
  1
C41747_01
 41
0.7
 11
9.7656163844
 21
0.2740798591
 31
0.0
 73
     1
  0
TEXT
  5
13F
  8
1
 62
     7
 10
1.1205155704
 20
0.8318552469
 30
0.0
 40
0.09
  1
JHNU
 41
0.7
 11
1.1205155704
 21
0.8000618413
 31
0.0
 73
     1
  0
TEXT
  5
140
  8
1
 62
     7
 10
0.3249399183
 20
0.8335901463
 30
0.0
 40
0.09
  1
01
 41
0.7
 11
0.3249399183
 21
0.8017967407
 31
0.0
 73
     1
  0
TEXT
  5
141
  8
1
 62
     7
 10
0.711516088
 20
0.8344167447
 30
0.0
 40
0.09
  1
7/08
 41
0.7
 11
0.711516088
 21
0.8026233391
 31
0.0
 73
     1
  0
TEXT
  5
142
  8
1
 62
     7
 10
1.4805155704
 20
0.8318552469
 30
0.0
 40
0.09
  1
JMAR
 41
0.7
 11
1.4805155704
 21
0.8000618413
 31
0.0
 73
     1
  0
TEXT
  5
143
  8
1
 62
     7
 10
1.8689602104
 20
0.8414313515
 30
0.0
 40
0.09
  1
REVISED SCREW VIEW AND DESCRIPTION
 41
0.6588235294
 11
1.8689602104
 21
0.809637946
 31
0.0
 73
     1
  0
ARC
  5
144
  8
0
  6
CONTINUOUS
 62
     7
 10
2.219113004
 20
5.1620252604
 30
0.0
 40
0.0272061727462559
 50
113.2828962817
 51
180.2335589927
  0
LINE
  5
145
  8
0
  6
CONTINUOUS
 62
     7
 10
2.1916430691
 20
5.1620272461
 30
0.0
 11
2.1916430691
 21
5.0572697105
 31
0.0
  0
LINE
  5
146
  8
0
  6
CONTINUOUS
 62
     7
 10
2.6191882347
 20
5.4241824452
 30
0.0
 11
2.2083591843
 21
5.1870158826
 31
0.0
  0
LINE
  5
147
  8
0
  6
CONTINUOUS
 62
     7
 10
2.8041873454
 20
5.3558134477
 30
0.0
 11
2.6857559489
 21
5.4241824377
 31
0.0
  0
ARC
  5
148
  8
0
  6
CONTINUOUS
 62
     7
 10
2.6524720848
 20
5.3617870041
 30
0.0
 40
0.0707177894700786
 50
61.9230096652
 51
118.0769774522
  0
LINE
  5
149
  8
0
  6
CONTINUOUS
 62
     7
 10
3.0508014554
 20
5.4981807303
 30
0.0
 11
2.5982530919
 21
5.2369301209
 31
0.0
  0
LINE
  5
14A
  8
0
  6
CONTINUOUS
 62
     7
 10
2.3746780092
 20
4.4818523456
 30
0.0
 11
2.547919161
 21
4.3818423575
 31
0.0
  0
LINE
  5
14B
  8
0
  6
CONTINUOUS
 62
     7
 10
2.6689092136
 20
4.412131231
 30
0.0
 11
3.2063103629
 21
4.7223663109
 31
0.0
  0
LINE
  5
14C
  8
0
  6
CONTINUOUS
 62
     7
 10
2.1585252936
 20
5.1924619292
 30
0.0
 11
2.6110736571
 21
5.4537125386
 31
0.0
  0
LINE
  5
14D
  8
0
  6
CONTINUOUS
 62
     7
 10
2.1314573124
 20
5.357969175
 30
0.0
 11
1.9995204999
 21
5.2818036744
 31
0.0
  0
LINE
  5
14E
  8
0
  6
CONTINUOUS
 62
     7
 10
1.9327362828
 20
4.7369798737
 30
0.0
 11
2.1059774346
 21
4.6369698856
 31
0.0
  0
LINE
  5
14F
  8
0
  6
CONTINUOUS
 62
     7
 10
1.9839026243
 20
5.047910309
 30
0.0
 11
1.9839026243
 21
4.9384785912
 31
0.0
  0
LINE
  5
150
  8
0
  6
CONTINUOUS
 62
     7
 10
1.9839026243
 20
5.047910309
 30
0.0
 11
2.1058785492
 21
4.9774951064
 31
0.0
  0
LINE
  5
151
  8
0
  6
CONTINUOUS
 62
     7
 10
2.1058785492
 20
5.0134229062
 30
0.0
 11
2.1058785492
 21
4.9774951064
 31
0.0
  0
LINE
  5
152
  8
0
  6
CONTINUOUS
 62
     7
 10
2.1058785492
 20
5.0134229062
 30
0.0
 11
2.1589115532
 21
4.9828076046
 31
0.0
  0
LINE
  5
153
  8
0
  6
CONTINUOUS
 62
     7
 10
2.1589115532
 20
4.9828076046
 30
0.0
 11
2.2897263121
 21
4.9072898518
 31
0.0
  0
LINE
  5
154
  8
0
  6
CONTINUOUS
 62
     7
 10
2.2897263121
 20
4.9072898518
 30
0.0
 11
2.420541071
 21
4.8317720989
 31
0.0
  0
LINE
  5
155
  8
0
  6
CONTINUOUS
 62
     7
 10
2.420541071
 20
4.8317720989
 30
0.0
 11
2.4735740751
 21
4.8011567973
 31
0.0
  0
LINE
  5
156
  8
0
  6
CONTINUOUS
 62
     7
 10
2.4735740751
 20
4.8011567973
 30
0.0
 11
2.4735740751
 21
4.7652289975
 31
0.0
  0
LINE
  5
157
  8
0
  6
CONTINUOUS
 62
     7
 10
2.4735740751
 20
4.7652289975
 30
0.0
 11
2.59555
 21
4.6948137949
 31
0.0
  0
LINE
  5
158
  8
0
  6
CONTINUOUS
 62
     7
 10
2.59555
 20
4.6948137949
 30
0.0
 11
2.59555
 21
4.4335207476
 31
0.0
  0
LINE
  5
159
  8
0
  6
CONTINUOUS
 62
     7
 10
2.1241541445
 20
4.7056517825
 30
0.0
 11
2.3635293044
 21
4.5674634442
 31
0.0
  0
LINE
  5
15A
  8
0
  6
CONTINUOUS
 62
     7
 10
2.5660958709
 20
4.4505242544
 30
0.0
 11
2.59555
 21
4.4335207476
 31
0.0
  0
LINE
  5
15B
  8
0
  6
CONTINUOUS
 62
     7
 10
2.4735740751
 20
4.7652289975
 30
0.0
 11
2.6699160737
 21
4.8785748206
 31
0.0
  0
LINE
  5
15C
  8
0
  6
CONTINUOUS
 62
     7
 10
2.4735740751
 20
4.8011567973
 30
0.0
 11
2.5739832378
 21
4.8591217731
 31
0.0
  0
LINE
  5
15D
  8
0
  6
CONTINUOUS
 62
     7
 10
2.59555
 20
4.6948137949
 30
0.0
 11
2.6729723295
 21
4.7395087543
 31
0.0
  0
LINE
  5
15E
  8
0
  6
CONTINUOUS
 62
     7
 10
2.59555
 20
4.4335207476
 30
0.0
 11
2.6512782401
 21
4.4656919758
 31
0.0
  0
ARC
  5
15F
  8
0
  6
CONTINUOUS
 62
     7
 10
2.8068674216
 20
4.9733649325
 30
0.0
 40
0.311196027288208
 50
192.6896267628
 51
202.8051100065
  0
LINE
  5
160
  8
0
  6
CONTINUOUS
 62
     7
 10
2.5199980276
 20
4.8527460362
 30
0.0
 11
2.420541071
 21
4.8317720989
 31
0.0
  0
LINE
  5
161
  8
0
  6
CONTINUOUS
 62
     7
 10
2.4855948977
 20
4.9797654862
 30
0.0
 11
2.420541071
 21
4.8317720989
 31
0.0
  0
LINE
  5
162
  8
0
  6
CONTINUOUS
 62
     7
 10
2.4855948977
 20
4.9797654862
 30
0.0
 11
2.5032725657
 21
4.905004631
 31
0.0
  0
ARC
  5
163
  8
0
  6
CONTINUOUS
 62
     7
 10
2.5386279154
 20
5.0370071433
 30
0.0
 40
0.0614808073210414
 50
242.6096434014
 51
297.3903414388
  0
ARC
  5
164
  8
0
  6
CONTINUOUS
 62
     7
 10
2.518624639
 20
4.9694727585
 30
0.0
 40
0.0153679587889941
 50
122.6052368327
 51
177.3946417242
  0
ARC
  5
165
  8
0
  6
CONTINUOUS
 62
     7
 10
2.5384299529
 20
4.928419658
 30
0.0
 40
0.077886025190443
 50
256.3109458799
 51
297.1600947389
  0
LINE
  5
166
  8
0
  6
CONTINUOUS
 62
     7
 10
2.5032725657
 20
4.9701713308
 30
0.0
 11
2.5032725657
 21
4.905004631
 31
0.0
  0
POLYLINE
  5
167
  8
0
  6
CONTINUOUS
 62
     7
 66
     1
 10
0.0
 20
0.0
 30
0.0
 70
   128
  0
VERTEX
  5
3E0
  8
0
  6
CONTINUOUS
 62
     7
 10
2.7174203406
 20
5.305723914
 30
0.0
  0
VERTEX
  5
3E1
  8
0
  6
CONTINUOUS
 62
     7
 10
2.6973565798
 20
5.3128090247
 30
0.0
  0
VERTEX
  5
3E2
  8
0
  6
CONTINUOUS
 62
     7
 10
2.6745914221
 20
5.3189372547
 30
0.0
  0
VERTEX
  5
3E3
  8
0
  6
CONTINUOUS
 62
     7
 10
2.6507478136
 20
5.3234983588
 30
0.0
  0
VERTEX
  5
3E4
  8
0
  6
CONTINUOUS
 62
     7
 10
2.6261481751
 20
5.3264306455
 30
0.0
  0
VERTEX
  5
3E5
  8
0
  6
CONTINUOUS
 62
     7
 10
2.601125195
 20
5.3276944552
 30
0.0
  0
VERTEX
  5
3E6
  8
0
  6
CONTINUOUS
 62
     7
 10
2.5760172458
 20
5.3272727101
 30
0.0
  0
VERTEX
  5
3E7
  8
0
  6
CONTINUOUS
 62
     7
 10
2.5511638992
 20
5.3251711016
 30
0.0
  0
VERTEX
  5
3E8
  8
0
  6
CONTINUOUS
 62
     7
 10
2.5269012269
 20
5.3214180638
 30
0.0
  0
VERTEX
  5
3E9
  8
0
  6
CONTINUOUS
 62
     7
 10
2.503557344
 20
5.3160643415
 30
0.0
  0
VERTEX
  5
3EA
  8
0
  6
CONTINUOUS
 62
     7
 10
2.4814479534
 20
5.3091823259
 30
0.0
  0
VERTEX
  5
3EB
  8
0
  6
CONTINUOUS
 62
     7
 10
2.4608720268
 20
5.3008651036
 30
0.0
  0
VERTEX
  5
3EC
  8
0
  6
CONTINUOUS
 62
     7
 10
2.4421078327
 20
5.2912251356
 30
0.0
  0
VERTEX
  5
3ED
  8
0
  6
CONTINUOUS
 62
     7
 10
2.4254091085
 20
5.2803927966
 30
0.0
  0
VERTEX
  5
3EE
  8
0
  6
CONTINUOUS
 62
     7
 10
2.4110016941
 20
5.2685145661
 30
0.0
  0
VERTEX
  5
3EF
  8
0
  6
CONTINUOUS
 62
     7
 10
2.3990804051
 20
5.2557510884
 30
0.0
  0
VERTEX
  5
3F0
  8
0
  6
CONTINUOUS
 62
     7
 10
2.3898064813
 20
5.2422749517
 30
0.0
  0
VERTEX
  5
3F1
  8
0
  6
CONTINUOUS
 62
     7
 10
2.3833053247
 20
5.2282684091
 30
0.0
  0
VERTEX
  5
3F2
  8
0
  6
CONTINUOUS
 62
     7
 10
2.379664831
 20
5.2139208738
 30
0.0
  0
VERTEX
  5
3F3
  8
0
  6
CONTINUOUS
 62
     7
 10
2.3789342744
 20
5.199426367
 30
0.0
  0
VERTEX
  5
3F4
  8
0
  6
CONTINUOUS
 62
     7
 10
2.3811234941
 20
5.184980908
 30
0.0
  0
VERTEX
  5
3F5
  8
0
  6
CONTINUOUS
 62
     7
 10
2.386202914
 20
5.170779839
 30
0.0
  0
VERTEX
  5
3F6
  8
0
  6
CONTINUOUS
 62
     7
 10
2.3941038342
 20
5.1570152168
 30
0.0
  0
VERTEX
  5
3F7
  8
0
  6
CONTINUOUS
 62
     7
 10
2.4047193902
 20
5.143873171
 30
0.0
  0
VERTEX
  5
3F8
  8
0
  6
CONTINUOUS
 62
     7
 10
2.417906052
 20
5.1315314375
 30
0.0
  0
VERTEX
  5
3F9
  8
0
  6
CONTINUOUS
 62
     7
 10
2.4334854796
 20
5.1201569102
 30
0.0
  0
VERTEX
  5
3FA
  8
0
  6
CONTINUOUS
 62
     7
 10
2.4512469881
 20
5.1099034097
 30
0.0
  0
VERTEX
  5
3FB
  8
0
  6
CONTINUOUS
 62
     7
 10
2.4709503829
 20
5.1009095971
 30
0.0
  0
VERTEX
  5
3FC
  8
0
  6
CONTINUOUS
 62
     7
 10
2.4923292088
 20
5.0932970992
 30
0.0
  0
VERTEX
  5
3FD
  8
0
  6
CONTINUOUS
 62
     7
 10
2.5150943665
 20
5.0871688692
 30
0.0
  0
VERTEX
  5
3FE
  8
0
  6
CONTINUOUS
 62
     7
 10
2.5389379751
 20
5.0826077651
 30
0.0
  0
VERTEX
  5
3FF
  8
0
  6
CONTINUOUS
 62
     7
 10
2.563537607
 20
5.0796754821
 30
0.0
  0
VERTEX
  5
400
  8
0
  6
CONTINUOUS
 62
     7
 10
2.5770384759
 20
5.0787832472
 30
0.0
  0
SEQEND
  5
8B2
  8
0
  6
CONTINUOUS
 62
     7
  0
LINE
  5
168
  8
0
  6
CONTINUOUS
 62
     7
 10
2.2133587946
 20
5.1538644822
 30
0.0
 11
2.5103436484
 21
4.9824187754
 31
0.0
  0
ARC
  5
169
  8
0
  6
CONTINUOUS
 62
     7
 10
2.2195558542
 20
5.1701926403
 30
0.0
 40
0.0174646011484696
 50
110.7834052515
 51
249.2166402375
  0
LINE
  5
16A
  8
0
  6
CONTINUOUS
 62
     7
 10
2.624187832
 20
5.423687356
 30
0.0
 11
2.2133587816
 21
5.1865207934
 31
0.0
  0
ARC
  5
16B
  8
0
  6
CONTINUOUS
 62
     7
 10
2.6524720846
 20
5.3690989806
 30
0.0
 40
0.0614808073210421
 50
62.6096434014
 51
117.3903414388
  0
LINE
  5
16C
  8
0
  6
CONTINUOUS
 62
     7
 10
2.5032725657
 20
4.9701713308
 30
0.0
 11
2.2062877118
 21
5.1416170376
 31
0.0
  0
ARC
  5
16D
  8
0
  6
CONTINUOUS
 62
     7
 10
2.2216397851
 20
5.1409184653
 30
0.0
 40
0.0153679587889928
 50
122.6052368327
 51
177.3946417242
  0
LINE
  5
16E
  8
0
  6
CONTINUOUS
 62
     7
 10
2.3850221749
 20
4.9273862707
 30
0.0
 11
2.4468747362
 21
4.891679547
 31
0.0
  0
LINE
  5
16F
  8
0
  6
CONTINUOUS
 62
     7
 10
2.3547801388
 20
5.0552832391
 30
0.0
 11
2.3850221749
 21
4.9273862707
 31
0.0
  0
LINE
  5
170
  8
0
  6
CONTINUOUS
 62
     7
 10
2.2542074224
 20
5.0029040198
 30
0.0
 11
2.3160599806
 21
4.967197298
 31
0.0
  0
LINE
  5
171
  8
0
  6
CONTINUOUS
 62
     7
 10
2.2239653799
 20
5.1308009919
 30
0.0
 11
2.2542074224
 21
5.0029040198
 31
0.0
  0
LINE
  5
172
  8
0
  6
CONTINUOUS
 62
     7
 10
2.3850221749
 20
4.9273862707
 30
0.0
 11
2.2897263121
 21
4.9072898518
 31
0.0
  0
LINE
  5
173
  8
0
  6
CONTINUOUS
 62
     7
 10
2.3547801388
 20
5.0552832391
 30
0.0
 11
2.2897263121
 21
4.9072898518
 31
0.0
  0
LINE
  5
174
  8
0
  6
CONTINUOUS
 62
     7
 10
2.2542074224
 20
5.0029040198
 30
0.0
 11
2.1589115532
 21
4.9828076046
 31
0.0
  0
LINE
  5
175
  8
0
  6
CONTINUOUS
 62
     7
 10
2.2239653799
 20
5.1308009919
 30
0.0
 11
2.1589115532
 21
4.9828076046
 31
0.0
  0
LINE
  5
176
  8
0
  6
CONTINUOUS
 62
     7
 10
2.1916430561
 20
5.0629337022
 30
0.0
 11
2.1058785492
 21
5.0134229062
 31
0.0
  0
LINE
  5
177
  8
0
  6
CONTINUOUS
 62
     7
 10
2.1928403756
 20
5.1685275054
 30
0.0
 11
1.9839026243
 21
5.047910309
 31
0.0
  0
LINE
  5
178
  8
0
  6
CONTINUOUS
 62
     7
 10
2.7283855312
 20
5.1632962311
 30
0.0
 11
2.7259203969
 21
5.1321819899
 31
0.0
  0
LINE
  5
179
  8
0
  6
CONTINUOUS
 62
     7
 10
2.7259203969
 20
5.1321819899
 30
0.0
 11
2.6238673361
 21
5.201406228
 31
0.0
  0
LINE
  5
17A
  8
0
  6
CONTINUOUS
 62
     7
 10
2.6263324704
 20
5.2325205291
 30
0.0
 11
2.6238673361
 21
5.201406228
 31
0.0
  0
LINE
  5
17B
  8
0
  6
CONTINUOUS
 62
     7
 10
2.7283855312
 20
5.1632962311
 30
0.0
 11
2.6263324704
 21
5.2325205291
 31
0.0
  0
LINE
  5
17C
  8
0
  6
CONTINUOUS
 62
     7
 10
2.6263324704
 20
5.2325205291
 30
0.0
 11
3.0788808339
 21
5.4937711384
 31
0.0
  0
LINE
  5
17D
  8
0
  6
CONTINUOUS
 62
     7
 10
3.1809338948
 20
5.4245468405
 30
0.0
 11
3.0788808339
 21
5.4937711384
 31
0.0
  0
LINE
  5
17E
  8
0
  6
CONTINUOUS
 62
     7
 10
2.7283855312
 20
5.1632962311
 30
0.0
 11
3.1809338948
 21
5.4245468405
 31
0.0
  0
LINE
  5
17F
  8
0
  6
CONTINUOUS
 62
     7
 10
2.7259203969
 20
5.1321819899
 30
0.0
 11
3.1784687604
 21
5.3934325993
 31
0.0
  0
LINE
  5
180
  8
0
  6
CONTINUOUS
 62
     7
 10
3.1784687604
 20
5.3934325993
 30
0.0
 11
3.1809338948
 21
5.4245468405
 31
0.0
  0
POLYLINE
  5
181
  8
0
  6
CONTINUOUS
 62
     7
 66
     1
 10
0.0
 20
0.0
 30
0.0
 70
   128
  0
VERTEX
  5
401
  8
0
  6
CONTINUOUS
 62
     7
 10
2.6238673361
 20
5.201406228
 30
0.0
  0
VERTEX
  5
402
  8
0
  6
CONTINUOUS
 62
     7
 10
2.6224812554
 20
5.2021889705
 30
0.0
  0
VERTEX
  5
403
  8
0
  6
CONTINUOUS
 62
     7
 10
2.6211247315
 20
5.2026426809
 30
0.0
  0
VERTEX
  5
404
  8
0
  6
CONTINUOUS
 62
     7
 10
2.6198499553
 20
5.2027499243
 30
0.0
  0
VERTEX
  5
405
  8
0
  6
CONTINUOUS
 62
     7
 10
2.6187058509
 20
5.2025066485
 30
0.0
  0
VERTEX
  5
406
  8
0
  6
CONTINUOUS
 62
     7
 10
2.6177364423
 20
5.2019221088
 30
0.0
  0
VERTEX
  5
407
  8
0
  6
CONTINUOUS
 62
     7
 10
2.6169789346
 20
5.2010188982
 30
0.0
  0
VERTEX
  5
408
  8
0
  6
CONTINUOUS
 62
     7
 10
2.6164624698
 20
5.1998315696
 30
0.0
  0
VERTEX
  5
409
  8
0
  6
CONTINUOUS
 62
     7
 10
2.6162068819
 20
5.1984058573
 30
0.0
  0
SEQEND
  5
8B3
  8
0
  6
CONTINUOUS
 62
     7
  0
LINE
  5
182
  8
0
  6
CONTINUOUS
 62
     7
 10
2.5880302514
 20
5.217518526
 30
0.0
 11
2.6162068819
 21
5.1984058573
 31
0.0
  0
POLYLINE
  5
183
  8
0
  6
CONTINUOUS
 62
     7
 66
     1
 10
0.0
 20
0.0
 30
0.0
 70
   128
  0
VERTEX
  5
40A
  8
0
  6
CONTINUOUS
 62
     7
 10
2.6263324704
 20
5.2325205291
 30
0.0
  0
VERTEX
  5
40B
  8
0
  6
CONTINUOUS
 62
     7
 10
2.6194020413
 20
5.2364340771
 30
0.0
  0
VERTEX
  5
40C
  8
0
  6
CONTINUOUS
 62
     7
 10
2.6126194996
 20
5.2387025841
 30
0.0
  0
VERTEX
  5
40D
  8
0
  6
CONTINUOUS
 62
     7
 10
2.6062455406
 20
5.2392389057
 30
0.0
  0
VERTEX
  5
40E
  8
0
  6
CONTINUOUS
 62
     7
 10
2.6005250704
 20
5.2380224367
 30
0.0
  0
VERTEX
  5
40F
  8
0
  6
CONTINUOUS
 62
     7
 10
2.5956779754
 20
5.2350998882
 30
0.0
  0
VERTEX
  5
410
  8
0
  6
CONTINUOUS
 62
     7
 10
2.5918904889
 20
5.2305835659
 30
0.0
  0
VERTEX
  5
411
  8
0
  6
CONTINUOUS
 62
     7
 10
2.5893081648
 20
5.2246471023
 30
0.0
  0
VERTEX
  5
412
  8
0
  6
CONTINUOUS
 62
     7
 10
2.5880302514
 20
5.217518526
 30
0.0
  0
SEQEND
  5
8B4
  8
0
  6
CONTINUOUS
 62
     7
  0
ARC
  5
184
  8
0
  6
CONTINUOUS
 62
     7
 10
3.0614496861
 20
5.4743798205
 30
0.0
 40
0.0260742808937689
 50
48.0471497835
 51
114.1031477295
  0
LINE
  5
185
  8
0
  6
CONTINUOUS
 62
     7
 10
2.6162068819
 20
5.1984058573
 30
0.0
 11
2.5979801589
 21
4.9683531197
 31
0.0
  0
LINE
  5
186
  8
0
  6
CONTINUOUS
 62
     7
 10
2.5698035154
 20
4.9874657959
 30
0.0
 11
2.5979801589
 21
4.9683531197
 31
0.0
  0
LINE
  5
187
  8
0
  6
CONTINUOUS
 62
     7
 10
2.5880302514
 20
5.217518526
 30
0.0
 11
2.5698035154
 21
4.9874657959
 31
0.0
  0
LINE
  5
188
  8
0
  6
CONTINUOUS
 62
     7
 10
2.5979801589
 20
4.9683531197
 30
0.0
 11
3.0505285224
 21
5.2296037291
 31
0.0
  0
LINE
  5
189
  8
0
  6
CONTINUOUS
 62
     7
 10
3.0579984135
 20
5.3238865744
 30
0.0
 11
3.0505285224
 21
5.2296037291
 31
0.0
  0
LINE
  5
18A
  8
0
  6
CONTINUOUS
 62
     7
 10
3.057994693
 20
4.745519589
 30
0.0
 11
3.0244524479
 21
4.7261560631
 31
0.0
  0
LINE
  5
18B
  8
0
  6
CONTINUOUS
 62
     7
 10
3.056572522
 20
4.7275690433
 30
0.0
 11
3.057994693
 21
4.745519589
 31
0.0
  0
LINE
  5
18C
  8
0
  6
CONTINUOUS
 62
     7
 10
3.0629183503
 20
4.731232412
 30
0.0
 11
3.056572522
 21
4.7275690433
 31
0.0
  0
LINE
  5
18D
  8
0
  6
CONTINUOUS
 62
     7
 10
3.0643405212
 20
4.7491829576
 30
0.0
 11
3.0629183503
 21
4.731232412
 31
0.0
  0
LINE
  5
18E
  8
0
  6
CONTINUOUS
 62
     7
 10
3.0724994469
 20
4.7538930052
 30
0.0
 11
3.0643405212
 21
4.7491829576
 31
0.0
  0
LINE
  5
18F
  8
0
  6
CONTINUOUS
 62
     7
 10
3.0731315459
 20
4.7618710088
 30
0.0
 11
3.0724994469
 21
4.7538930052
 31
0.0
  0
LINE
  5
190
  8
0
  6
CONTINUOUS
 62
     7
 10
3.0649726202
 20
4.7571609613
 30
0.0
 11
3.0731315459
 21
4.7618710088
 31
0.0
  0
LINE
  5
191
  8
0
  6
CONTINUOUS
 62
     7
 10
3.0692392108
 20
4.8110125533
 30
0.0
 11
3.0649726202
 21
4.7571609613
 31
0.0
  0
LINE
  5
192
  8
0
  6
CONTINUOUS
 62
     7
 10
3.0679502201
 20
4.8102684348
 30
0.0
 11
3.0692392108
 21
4.8110125533
 31
0.0
  0
LINE
  5
193
  8
0
  6
CONTINUOUS
 62
     7
 10
3.0244524479
 20
4.7261560631
 30
0.0
 11
3.0679502201
 21
4.8102684348
 31
0.0
  0
LINE
  5
194
  8
0
  6
CONTINUOUS
 62
     7
 10
2.9652524363
 20
4.6995937244
 30
0.0
 11
2.9380560219
 21
4.6838935686
 31
0.0
  0
LINE
  5
195
  8
0
  6
CONTINUOUS
 62
     7
 10
2.9658845353
 20
4.7075717281
 30
0.0
 11
2.9652524363
 21
4.6995937244
 31
0.0
  0
LINE
  5
196
  8
0
  6
CONTINUOUS
 62
     7
 10
2.9386881209
 20
4.6918715722
 30
0.0
 11
2.9658845353
 21
4.7075717281
 31
0.0
  0
LINE
  5
197
  8
0
  6
CONTINUOUS
 62
     7
 10
2.9380560219
 20
4.6838935686
 30
0.0
 11
2.9386881209
 21
4.6918715722
 31
0.0
  0
LINE
  5
198
  8
0
  6
CONTINUOUS
 62
     7
 10
2.8545039604
 20
4.6775321485
 30
0.0
 11
2.8436254014
 21
4.6712520901
 31
0.0
  0
LINE
  5
199
  8
0
  6
CONTINUOUS
 62
     7
 10
2.8489732236
 20
4.6077245193
 30
0.0
 11
2.8545039604
 21
4.6775321485
 31
0.0
  0
LINE
  5
19A
  8
0
  6
CONTINUOUS
 62
     7
 10
2.8553190518
 20
4.6113878879
 30
0.0
 11
2.8489732236
 21
4.6077245193
 31
0.0
  0
LINE
  5
19B
  8
0
  6
CONTINUOUS
 62
     7
 10
2.8614818876
 20
4.6891735208
 30
0.0
 11
2.8553190518
 21
4.6113878879
 31
0.0
  0
LINE
  5
19C
  8
0
  6
CONTINUOUS
 62
     7
 10
2.8484077827
 20
4.6816260007
 30
0.0
 11
2.8614818876
 21
4.6891735208
 31
0.0
  0
LINE
  5
19D
  8
0
  6
CONTINUOUS
 62
     7
 10
2.8436254014
 20
4.6712520901
 30
0.0
 11
2.8484077827
 21
4.6816260007
 31
0.0
  0
LINE
  5
19E
  8
0
  6
CONTINUOUS
 62
     7
 10
3.2427757872
 20
5.083966166
 30
0.0
 11
3.2155109038
 21
4.7398367545
 31
0.0
  0
LINE
  5
19F
  8
0
  6
CONTINUOUS
 62
     7
 10
3.2155109038
 20
4.7398367545
 30
0.0
 11
2.6781097545
 21
4.4296016746
 31
0.0
  0
LINE
  5
1A0
  8
0
  6
CONTINUOUS
 62
     7
 10
2.6781097545
 20
4.4296016746
 30
0.0
 11
2.7053746379
 21
4.7737310861
 31
0.0
  0
LINE
  5
1A1
  8
0
  6
CONTINUOUS
 62
     7
 10
2.7297255138
 20
4.7877885475
 30
0.0
 11
2.7053746379
 21
4.7737310861
 31
0.0
  0
ARC
  5
1A2
  8
0
  6
CONTINUOUS
 62
     7
 10
2.7061082495
 20
4.8252263518
 30
0.0
 40
0.0442647079216391
 50
302.2453681242
 51
346.2695410939
  0
LINE
  5
1A3
  8
0
  6
CONTINUOUS
 62
     7
 10
2.749253977
 20
4.8165620203
 30
0.0
 11
2.7491080083
 21
4.81471992
 31
0.0
  0
LINE
  5
1A4
  8
0
  6
CONTINUOUS
 62
     7
 10
3.2018023406
 20
5.0778126297
 30
0.0
 11
2.749253977
 21
4.8165620203
 31
0.0
  0
LINE
  5
1A5
  8
0
  6
CONTINUOUS
 62
     7
 10
3.2018023406
 20
5.0778126297
 30
0.0
 11
3.2016563718
 21
5.0759705294
 31
0.0
  0
POLYLINE
  5
1A6
  8
0
  6
CONTINUOUS
 62
     7
 66
     1
 10
0.0
 20
0.0
 30
0.0
 70
   128
  0
VERTEX
  5
413
  8
0
  6
CONTINUOUS
 62
     7
 10
3.2016563718
 20
5.0759705294
 30
0.0
  0
VERTEX
  5
414
  8
0
  6
CONTINUOUS
 62
     7
 10
3.2023825079
 20
5.0727262365
 30
0.0
  0
VERTEX
  5
415
  8
0
  6
CONTINUOUS
 62
     7
 10
3.2037938414
 20
5.0701614502
 30
0.0
  0
VERTEX
  5
416
  8
0
  6
CONTINUOUS
 62
     7
 10
3.2058355886
 20
5.0683757414
 30
0.0
  0
VERTEX
  5
417
  8
0
  6
CONTINUOUS
 62
     7
 10
3.208428491
 20
5.0674383842
 30
0.0
  0
VERTEX
  5
418
  8
0
  6
CONTINUOUS
 62
     7
 10
3.2114719259
 20
5.067385841
 30
0.0
  0
VERTEX
  5
419
  8
0
  6
CONTINUOUS
 62
     7
 10
3.2148477443
 20
5.0682200551
 30
0.0
  0
VERTEX
  5
41A
  8
0
  6
CONTINUOUS
 62
     7
 10
3.2184249114
 20
5.0699087046
 30
0.0
  0
SEQEND
  5
8B5
  8
0
  6
CONTINUOUS
 62
     7
  0
LINE
  5
1A7
  8
0
  6
CONTINUOUS
 62
     7
 10
3.2184249114
 20
5.0699087046
 30
0.0
 11
3.2427757872
 21
5.083966166
 31
0.0
  0
LINE
  5
1A8
  8
0
  6
CONTINUOUS
 62
     7
 10
2.9581811096
 20
4.8224050532
 30
0.0
 11
2.9518352798
 21
4.8187416836
 31
0.0
  0
LINE
  5
1A9
  8
0
  6
CONTINUOUS
 62
     7
 10
2.9610255034
 20
4.8583061145
 30
0.0
 11
2.9581811096
 21
4.8224050532
 31
0.0
  0
LINE
  5
1AA
  8
0
  6
CONTINUOUS
 62
     7
 10
2.9660823364
 20
4.8612253621
 30
0.0
 11
2.9610255034
 21
4.8583061145
 31
0.0
  0
POLYLINE
  5
1AB
  8
0
  6
CONTINUOUS
 62
     7
 66
     1
 10
0.0
 20
0.0
 30
0.0
 70
   128
  0
VERTEX
  5
41B
  8
0
  6
CONTINUOUS
 62
     7
 10
2.9841870403
 20
4.8728962598
 30
0.0
  0
VERTEX
  5
41C
  8
0
  6
CONTINUOUS
 62
     7
 10
2.9740435671
 20
4.8659648149
 30
0.0
  0
VERTEX
  5
41D
  8
0
  6
CONTINUOUS
 62
     7
 10
2.9660823364
 20
4.8612253621
 30
0.0
  0
SEQEND
  5
8B6
  8
0
  6
CONTINUOUS
 62
     7
  0
ARC
  5
1AC
  8
0
  6
CONTINUOUS
 62
     7
 10
2.9586787388
 20
4.9055791439
 30
0.0
 40
0.0414589479365439
 50
307.9712868125
 51
353.3571446189
  0
POLYLINE
  5
1AD
  8
0
  6
CONTINUOUS
 62
     7
 66
     1
 10
0.0
 20
0.0
 30
0.0
 70
   128
  0
VERTEX
  5
41E
  8
0
  6
CONTINUOUS
 62
     7
 10
2.9878782455
 20
4.912661545
 30
0.0
  0
VERTEX
  5
41F
  8
0
  6
CONTINUOUS
 62
     7
 10
2.9938022244
 20
4.9131457731
 30
0.0
  0
VERTEX
  5
420
  8
0
  6
CONTINUOUS
 62
     7
 10
2.9980506435
 20
4.9104565061
 30
0.0
  0
VERTEX
  5
421
  8
0
  6
CONTINUOUS
 62
     7
 10
2.9997022388
 20
4.9062586036
 30
0.0
  0
VERTEX
  5
422
  8
0
  6
CONTINUOUS
 62
     7
 10
2.9998593528
 20
4.9007831675
 30
0.0
  0
SEQEND
  5
8B7
  8
0
  6
CONTINUOUS
 62
     7
  0
POLYLINE
  5
1AE
  8
0
  6
CONTINUOUS
 62
     7
 66
     1
 10
0.0
 20
0.0
 30
0.0
 70
   128
  0
VERTEX
  5
423
  8
0
  6
CONTINUOUS
 62
     7
 10
2.9718654794
 20
4.9045327453
 30
0.0
  0
VERTEX
  5
424
  8
0
  6
CONTINUOUS
 62
     7
 10
2.9808982401
 20
4.9095225477
 30
0.0
  0
VERTEX
  5
425
  8
0
  6
CONTINUOUS
 62
     7
 10
2.9878782455
 20
4.912661545
 30
0.0
  0
SEQEND
  5
8B8
  8
0
  6
CONTINUOUS
 62
     7
  0
LINE
  5
1AF
  8
0
  6
CONTINUOUS
 62
     7
 10
2.9579981415
 20
4.8965273015
 30
0.0
 11
2.9718654794
 21
4.9045327453
 31
0.0
  0
LINE
  5
1B0
  8
0
  6
CONTINUOUS
 62
     7
 10
2.9518352798
 20
4.8187416836
 30
0.0
 11
2.9579981415
 21
4.8965273015
 31
0.0
  0
POLYLINE
  5
1B1
  8
0
  6
CONTINUOUS
 62
     7
 66
     1
 10
0.0
 20
0.0
 30
0.0
 70
   128
  0
VERTEX
  5
426
  8
0
  6
CONTINUOUS
 62
     7
 10
2.9268429648
 20
4.7061480155
 30
0.0
  0
VERTEX
  5
427
  8
0
  6
CONTINUOUS
 62
     7
 10
2.9258762201
 20
4.7121972536
 30
0.0
  0
VERTEX
  5
428
  8
0
  6
CONTINUOUS
 62
     7
 10
2.9220692819
 20
4.7151626994
 30
0.0
  0
VERTEX
  5
429
  8
0
  6
CONTINUOUS
 62
     7
 10
2.9177493142
 20
4.715160318
 30
0.0
  0
VERTEX
  5
42A
  8
0
  6
CONTINUOUS
 62
     7
 10
2.9127518299
 20
4.7130611956
 30
0.0
  0
SEQEND
  5
8B9
  8
0
  6
CONTINUOUS
 62
     7
  0
ARC
  5
1B2
  8
0
  6
CONTINUOUS
 62
     7
 10
2.8569290048
 20
4.7204848261
 30
0.0
 40
0.071368802276874
 50
319.977347212
 51
348.4113749789
  0
LINE
  5
1B3
  8
0
  6
CONTINUOUS
 62
     7
 10
2.8816089199
 20
4.6265647057
 30
0.0
 11
2.9115825375
 21
4.6745882325
 31
0.0
  0
LINE
  5
1B4
  8
0
  6
CONTINUOUS
 62
     7
 10
2.9296559221
 20
4.6543016497
 30
0.0
 11
2.8816089199
 21
4.6265647057
 31
0.0
  0
LINE
  5
1B5
  8
0
  6
CONTINUOUS
 62
     7
 10
2.9302879952
 20
4.6622796683
 30
0.0
 11
2.9296559221
 21
4.6543016497
 31
0.0
  0
LINE
  5
1B6
  8
0
  6
CONTINUOUS
 62
     7
 10
2.8973831674
 20
4.6432841156
 30
0.0
 11
2.9302879952
 21
4.6622796683
 31
0.0
  0
LINE
  5
1B7
  8
0
  6
CONTINUOUS
 62
     7
 10
2.9167206625
 20
4.6742682748
 30
0.0
 11
2.8973831674
 21
4.6432841156
 31
0.0
  0
ARC
  5
1B8
  8
0
  6
CONTINUOUS
 62
     7
 10
2.8486649281
 20
4.7272049321
 30
0.0
 40
0.0862199087503206
 50
322.1226981872
 51
348.7841617412
  0
POLYLINE
  5
1B9
  8
0
  6
CONTINUOUS
 62
     7
 66
     1
 10
0.0
 20
0.0
 30
0.0
 70
   128
  0
VERTEX
  5
42B
  8
0
  6
CONTINUOUS
 62
     7
 10
2.9137097173
 20
4.7212272878
 30
0.0
  0
VERTEX
  5
42C
  8
0
  6
CONTINUOUS
 62
     7
 10
2.9226940209
 20
4.7245554132
 30
0.0
  0
VERTEX
  5
42D
  8
0
  6
CONTINUOUS
 62
     7
 10
2.9295608609
 20
4.7225700533
 30
0.0
  0
VERTEX
  5
42E
  8
0
  6
CONTINUOUS
 62
     7
 10
2.9326626866
 20
4.7176928626
 30
0.0
  0
VERTEX
  5
42F
  8
0
  6
CONTINUOUS
 62
     7
 10
2.9332381595
 20
4.7104346848
 30
0.0
  0
SEQEND
  5
8BA
  8
0
  6
CONTINUOUS
 62
     7
  0
ARC
  5
1BA
  8
0
  6
CONTINUOUS
 62
     7
 10
2.9421352749
 20
4.675377394
 30
0.0
 40
0.0539465020096869
 50
121.7976702785
 51
172.9630683456
  0
LINE
  5
1BB
  8
0
  6
CONTINUOUS
 62
     7
 10
2.894940959
 20
4.6856496997
 30
0.0
 11
2.8885951308
 21
4.681986331
 31
0.0
  0
ARC
  5
1BC
  8
0
  6
CONTINUOUS
 62
     7
 10
2.9327742424
 20
4.680559313
 30
0.0
 40
0.038174197761165
 50
121.6346702922
 51
172.3369966699
  0
POLYLINE
  5
1BD
  8
0
  6
CONTINUOUS
 62
     7
 66
     1
 10
0.0
 20
0.0
 30
0.0
 70
   128
  0
VERTEX
  5
430
  8
0
  6
CONTINUOUS
 62
     7
 10
3.0138714915
 20
4.7563885145
 30
0.0
  0
VERTEX
  5
431
  8
0
  6
CONTINUOUS
 62
     7
 10
3.0129047468
 20
4.7624377526
 30
0.0
  0
VERTEX
  5
432
  8
0
  6
CONTINUOUS
 62
     7
 10
3.0090978086
 20
4.7654031984
 30
0.0
  0
VERTEX
  5
433
  8
0
  6
CONTINUOUS
 62
     7
 10
3.0047778409
 20
4.7654008171
 30
0.0
  0
VERTEX
  5
434
  8
0
  6
CONTINUOUS
 62
     7
 10
2.9997803567
 20
4.7633016946
 30
0.0
  0
SEQEND
  5
8BB
  8
0
  6
CONTINUOUS
 62
     7
  0
ARC
  5
1BE
  8
0
  6
CONTINUOUS
 62
     7
 10
2.9439575759
 20
4.7707253037
 30
0.0
 40
0.0713687544681451
 50
319.9773374879
 51
348.411384703
  0
LINE
  5
1BF
  8
0
  6
CONTINUOUS
 62
     7
 10
2.9686374498
 20
4.6768052067
 30
0.0
 11
2.9986110642
 21
4.7248287316
 31
0.0
  0
LINE
  5
1C0
  8
0
  6
CONTINUOUS
 62
     7
 10
3.0166844488
 20
4.7045421488
 30
0.0
 11
2.9686374498
 21
4.6768052067
 31
0.0
  0
LINE
  5
1C1
  8
0
  6
CONTINUOUS
 62
     7
 10
3.0173165219
 20
4.7125201674
 30
0.0
 11
3.0166844488
 21
4.7045421488
 31
0.0
  0
LINE
  5
1C2
  8
0
  6
CONTINUOUS
 62
     7
 10
2.9844116941
 20
4.6935246147
 30
0.0
 11
3.0173165219
 21
4.7125201674
 31
0.0
  0
LINE
  5
1C3
  8
0
  6
CONTINUOUS
 62
     7
 10
3.0037491892
 20
4.7245087739
 30
0.0
 11
2.9844116941
 21
4.6935246147
 31
0.0
  0
ARC
  5
1C4
  8
0
  6
CONTINUOUS
 62
     7
 10
2.9356934368
 20
4.777445436
 30
0.0
 40
0.086219925988026
 50
322.122702986
 51
348.7841600705
  0
POLYLINE
  5
1C5
  8
0
  6
CONTINUOUS
 62
     7
 66
     1
 10
0.0
 20
0.0
 30
0.0
 70
   128
  0
VERTEX
  5
435
  8
0
  6
CONTINUOUS
 62
     7
 10
3.000738244
 20
4.7714677868
 30
0.0
  0
VERTEX
  5
436
  8
0
  6
CONTINUOUS
 62
     7
 10
3.0097225476
 20
4.7747959123
 30
0.0
  0
VERTEX
  5
437
  8
0
  6
CONTINUOUS
 62
     7
 10
3.0165893876
 20
4.7728105523
 30
0.0
  0
VERTEX
  5
438
  8
0
  6
CONTINUOUS
 62
     7
 10
3.01969121
 20
4.7679333598
 30
0.0
  0
VERTEX
  5
439
  8
0
  6
CONTINUOUS
 62
     7
 10
3.0202666846
 20
4.760675183
 30
0.0
  0
SEQEND
  5
8BC
  8
0
  6
CONTINUOUS
 62
     7
  0
ARC
  5
1C6
  8
0
  6
CONTINUOUS
 62
     7
 10
3.0291638148
 20
4.7256178826
 30
0.0
 40
0.0539465178938606
 50
121.7976763186
 51
172.9630601888
  0
LINE
  5
1C7
  8
0
  6
CONTINUOUS
 62
     7
 10
2.9819694857
 20
4.7358901988
 30
0.0
 11
2.9756236559
 21
4.7322268292
 31
0.0
  0
ARC
  5
1C8
  8
0
  6
CONTINUOUS
 62
     7
 10
3.0198027749
 20
4.7307998083
 30
0.0
 40
0.0381742039130381
 50
121.6346746668
 51
172.3369922952
  0
ARC
  5
1C9
  8
0
  6
CONTINUOUS
 62
     7
 10
2.6729780061
 20
4.8171338456
 30
0.0
 40
0.076278114348411
 50
359.57047335
 51
54.6459586407
  0
LINE
  5
1CA
  8
0
  6
CONTINUOUS
 62
     7
 10
3.1696629574
 20
5.1405962895
 30
0.0
 11
2.7171145938
 21
4.8793456801
 31
0.0
  0
ARC
  5
1CB
  8
0
  6
CONTINUOUS
 62
     7
 10
3.1255263696
 20
5.078384455
 30
0.0
 40
0.076278114348415
 50
359.57047335
 51
54.6459586407
  0
LINE
  5
1CC
  8
0
  6
CONTINUOUS
 62
     7
 10
2.7210773206
 20
4.8356747039
 30
0.0
 11
2.749253977
 21
4.8165620203
 31
0.0
  0
ARC
  5
1CD
  8
0
  6
CONTINUOUS
 62
     7
 10
2.7058220876
 20
4.835789063
 30
0.0
 40
0.0152556616446584
 50
359.5704968585
 51
54.6458115573
  0
LINE
  5
1CE
  8
0
  6
CONTINUOUS
 62
     7
 10
2.7146494595
 20
4.8482314389
 30
0.0
 11
2.7171145938
 21
4.8793456801
 31
0.0
  0
LINE
  5
1CF
  8
0
  6
CONTINUOUS
 62
     7
 10
2.6781097545
 20
4.4296016746
 30
0.0
 11
2.649933124
 21
4.4487143433
 31
0.0
  0
LINE
  5
1D0
  8
0
  6
CONTINUOUS
 62
     7
 10
2.649933124
 20
4.4487143433
 30
0.0
 11
2.6771979815
 21
4.7928437697
 31
0.0
  0
LINE
  5
1D1
  8
0
  6
CONTINUOUS
 62
     7
 10
2.6771979815
 20
4.7928437697
 30
0.0
 11
2.7053746379
 21
4.7737310861
 31
0.0
  0
LINE
  5
1D2
  8
0
  6
CONTINUOUS
 62
     7
 10
2.7015488573
 20
4.8069012311
 30
0.0
 11
2.6771979815
 21
4.7928437697
 31
0.0
  0
LINE
  5
1D3
  8
0
  6
CONTINUOUS
 62
     7
 10
2.7015488573
 20
4.8069012311
 30
0.0
 11
2.7297255138
 21
4.7877885475
 31
0.0
  0
ARC
  5
1D4
  8
0
  6
CONTINUOUS
 62
     7
 10
2.6779314407
 20
4.8443391924
 30
0.0
 40
0.0442649218859518
 50
302.2454265613
 51
346.2693797877
  0
LINE
  5
1D5
  8
0
  6
CONTINUOUS
 62
     7
 10
2.7209313778
 20
4.8338325887
 30
0.0
 11
2.7491080083
 21
4.81471992
 31
0.0
  0
LINE
  5
1D6
  8
0
  6
CONTINUOUS
 62
     7
 10
2.60440802
 20
4.9557963848
 30
0.0
 11
2.7171145938
 21
4.8793456801
 31
0.0
  0
LINE
  5
1D7
  8
0
  6
CONTINUOUS
 62
     7
 10
2.60440802
 20
4.9557963848
 30
0.0
 11
3.0569563835
 21
5.2170469942
 31
0.0
  0
LINE
  5
1D8
  8
0
  6
CONTINUOUS
 62
     7
 10
3.0569563835
 20
5.2170469942
 30
0.0
 11
3.1696629574
 21
5.1405962895
 31
0.0
  0
LINE
  5
1D9
  8
0
  6
CONTINUOUS
 62
     7
 10
2.6019428856
 20
4.9246821436
 30
0.0
 11
2.60440802
 21
4.9557963848
 31
0.0
  0
LINE
  5
1DA
  8
0
  6
CONTINUOUS
 62
     7
 10
2.6019428856
 20
4.9246821436
 30
0.0
 11
2.7146494595
 21
4.8482314389
 31
0.0
  0
LINE
  5
1DB
  8
0
  6
CONTINUOUS
 62
     7
 10
2.7210773206
 20
4.8356747039
 30
0.0
 11
2.7209313778
 21
4.8338325887
 31
0.0
  0
ARC
  5
1DC
  8
0
  6
CONTINUOUS
 62
     7
 10
2.6132353561
 20
4.9682387423
 30
0.0
 40
0.0152556259771537
 50
179.5704270129
 51
234.6458814028
  0
ARC
  5
1DD
  8
0
  6
CONTINUOUS
 62
     7
 10
2.6460794147
 20
4.9868939322
 30
0.0
 40
0.0762780429584476
 50
179.5704441099
 51
234.6459746733
  0
ARC
  5
1DE
  8
0
  6
CONTINUOUS
 62
     7
 10
3.0657837196
 20
5.2294893517
 30
0.0
 40
0.0152556259771523
 50
179.5704270129
 51
234.6458814028
  0
LINE
  5
1DF
  8
0
  6
CONTINUOUS
 62
     7
 10
2.3880961906
 20
4.705142613
 30
0.0
 11
2.5613373424
 21
4.6051326248
 31
0.0
  0
LINE
  5
1E0
  8
0
  6
CONTINUOUS
 62
     7
 10
2.5613373424
 20
4.6051326248
 30
0.0
 11
2.5330703046
 21
4.5876745403
 31
0.0
  0
LINE
  5
1E1
  8
0
  6
CONTINUOUS
 62
     7
 10
2.3598291528
 20
4.6876845284
 30
0.0
 11
2.5330703046
 21
4.5876745403
 31
0.0
  0
LINE
  5
1E2
  8
0
  6
CONTINUOUS
 62
     7
 10
2.3880961906
 20
4.705142613
 30
0.0
 11
2.3598291528
 21
4.6876845284
 31
0.0
  0
LINE
  5
1E3
  8
0
  6
CONTINUOUS
 62
     7
 10
2.567090662
 20
4.4182026942
 30
0.0
 11
2.5613373424
 21
4.6051326248
 31
0.0
  0
ARC
  5
1E4
  8
0
  6
CONTINUOUS
 62
     7
 10
2.5688122475
 20
4.4180155962
 30
0.0
 40
0.0017317222677951
 50
173.7975678152
 51
309.6551923676
  0
LINE
  5
1E5
  8
0
  6
CONTINUOUS
 62
     7
 10
2.6344408645
 20
4.4539309637
 30
0.0
 11
2.5699173736
 21
4.4166823452
 31
0.0
  0
LINE
  5
1E6
  8
0
  6
CONTINUOUS
 62
     7
 10
2.6344408645
 20
4.4212693295
 30
0.0
 11
2.6344408645
 21
4.4539309637
 31
0.0
  0
LINE
  5
1E7
  8
0
  6
CONTINUOUS
 62
     7
 10
2.5699173736
 20
4.3840207111
 30
0.0
 11
2.6344408645
 21
4.4212693295
 31
0.0
  0
ARC
  5
1E8
  8
0
  6
CONTINUOUS
 62
     7
 10
2.55776107
 20
4.3986865468
 30
0.0
 40
0.019048948967657
 50
173.7976253894
 51
309.654854769
  0
LINE
  5
1E9
  8
0
  6
CONTINUOUS
 62
     7
 10
2.5330703046
 20
4.5876745403
 30
0.0
 11
2.5388236243
 21
4.4007446059
 31
0.0
  0
LINE
  5
1EA
  8
0
  6
CONTINUOUS
 62
     7
 10
2.3655824725
 20
4.5007545941
 30
0.0
 11
2.5388236243
 21
4.4007446059
 31
0.0
  0
LINE
  5
1EB
  8
0
  6
CONTINUOUS
 62
     7
 10
2.3598291528
 20
4.6876845284
 30
0.0
 11
2.3655824725
 21
4.5007545941
 31
0.0
  0
LINE
  5
1EC
  8
0
  6
CONTINUOUS
 62
     7
 10
3.2196239032
 20
4.7917499412
 30
0.0
 11
3.2363655046
 21
4.801414662
 31
0.0
  0
LINE
  5
1ED
  8
0
  6
CONTINUOUS
 62
     7
 10
2.6344408645
 20
4.4539309637
 30
0.0
 11
2.6464110257
 21
4.4470207366
 31
0.0
  0
POLYLINE
  5
1EE
  8
0
  6
CONTINUOUS
 62
     7
 66
     1
 10
0.0
 20
0.0
 30
0.0
 70
   128
  0
VERTEX
  5
43A
  8
0
  6
CONTINUOUS
 62
     7
 10
2.3641878035
 20
4.5460686299
 30
0.0
  0
VERTEX
  5
43B
  8
0
  6
CONTINUOUS
 62
     7
 10
2.3577357785
 20
4.5462700001
 30
0.0
  0
VERTEX
  5
43C
  8
0
  6
CONTINUOUS
 62
     7
 10
2.3471787462
 20
4.5452666179
 30
0.0
  0
SEQEND
  5
8BD
  8
0
  6
CONTINUOUS
 62
     7
  0
LINE
  5
1EF
  8
0
  6
CONTINUOUS
 62
     7
 10
2.3161458474
 20
4.5273517067
 30
0.0
 11
2.3471787462
 21
4.5452666179
 31
0.0
  0
LINE
  5
1F0
  8
0
  6
CONTINUOUS
 62
     7
 10
2.146440224
 20
4.6253206778
 30
0.0
 11
2.3161458474
 21
4.5273517067
 31
0.0
  0
LINE
  5
1F1
  8
0
  6
CONTINUOUS
 62
     7
 10
2.146440224
 20
4.6253206778
 30
0.0
 11
2.1774731228
 21
4.6432355889
 31
0.0
  0
POLYLINE
  5
1F2
  8
0
  6
CONTINUOUS
 62
     7
 66
     1
 10
0.0
 20
0.0
 30
0.0
 70
   128
  0
VERTEX
  5
43D
  8
0
  6
CONTINUOUS
 62
     7
 10
2.1774731228
 20
4.6432355889
 30
0.0
  0
VERTEX
  5
43E
  8
0
  6
CONTINUOUS
 62
     7
 10
2.1792112201
 20
4.649330034
 30
0.0
  0
VERTEX
  5
43F
  8
0
  6
CONTINUOUS
 62
     7
 10
2.1780596163
 20
4.6554706607
 30
0.0
  0
VERTEX
  5
440
  8
0
  6
CONTINUOUS
 62
     7
 10
2.1741023407
 20
4.6612091532
 30
0.0
  0
VERTEX
  5
441
  8
0
  6
CONTINUOUS
 62
     7
 10
2.1676283102
 20
4.666126584
 30
0.0
  0
VERTEX
  5
442
  8
0
  6
CONTINUOUS
 62
     7
 10
2.1591101407
 20
4.669863966
 30
0.0
  0
VERTEX
  5
443
  8
0
  6
CONTINUOUS
 62
     7
 10
2.1491697095
 20
4.6721484489
 30
0.0
  0
VERTEX
  5
444
  8
0
  6
CONTINUOUS
 62
     7
 10
2.1385326731
 20
4.6728132593
 30
0.0
  0
VERTEX
  5
445
  8
0
  6
CONTINUOUS
 62
     7
 10
2.1279756472
 20
4.6718098734
 30
0.0
  0
SEQEND
  5
8BE
  8
0
  6
CONTINUOUS
 62
     7
  0
POLYLINE
  5
1F3
  8
0
  6
CONTINUOUS
 62
     7
 66
     1
 10
0.0
 20
0.0
 30
0.0
 70
   128
  0
VERTEX
  5
446
  8
0
  6
CONTINUOUS
 62
     7
 10
2.9959518764
 20
4.9117914269
 30
0.0
  0
VERTEX
  5
447
  8
0
  6
CONTINUOUS
 62
     7
 10
2.9979097564
 20
4.9105520896
 30
0.0
  0
VERTEX
  5
448
  8
0
  6
CONTINUOUS
 62
     7
 10
2.9995613517
 20
4.9063541572
 30
0.0
  0
VERTEX
  5
449
  8
0
  6
CONTINUOUS
 62
     7
 10
2.9997184658
 20
4.900878751
 30
0.0
  0
SEQEND
  5
8BF
  8
0
  6
CONTINUOUS
 62
     7
  0
ARC
  5
1F4
  8
0
  6
CONTINUOUS
 62
     7
 10
2.9585378705
 20
4.9056746818
 30
0.0
 40
0.0414589240520393
 50
307.9712797335
 51
353.3572042423
  0
POLYLINE
  5
1F5
  8
0
  6
CONTINUOUS
 62
     7
 66
     1
 10
0.0
 20
0.0
 30
0.0
 70
   128
  0
VERTEX
  5
44A
  8
0
  6
CONTINUOUS
 62
     7
 10
2.9840461533
 20
4.8729918134
 30
0.0
  0
VERTEX
  5
44B
  8
0
  6
CONTINUOUS
 62
     7
 10
2.9739026801
 20
4.8660603984
 30
0.0
  0
VERTEX
  5
44C
  8
0
  6
CONTINUOUS
 62
     7
 10
2.9659414494
 20
4.8613209157
 30
0.0
  0
SEQEND
  5
8C0
  8
0
  6
CONTINUOUS
 62
     7
  0
LINE
  5
1F6
  8
0
  6
CONTINUOUS
 62
     7
 10
2.9659414494
 20
4.8613209157
 30
0.0
 11
2.9608846163
 21
4.8584016681
 31
0.0
  0
LINE
  5
1F7
  8
0
  6
CONTINUOUS
 62
     7
 10
2.9608846163
 20
4.8584016681
 30
0.0
 11
2.9580402485
 21
4.8225005918
 31
0.0
  0
LINE
  5
1F8
  8
0
  6
CONTINUOUS
 62
     7
 10
2.9580402485
 20
4.8225005918
 30
0.0
 11
2.9518499885
 21
4.8189270308
 31
0.0
  0
LINE
  5
1F9
  8
0
  6
CONTINUOUS
 62
     7
 10
2.9765034468
 20
4.8997739722
 30
0.0
 11
2.9635709853
 21
4.8923082211
 31
0.0
  0
LINE
  5
1FA
  8
0
  6
CONTINUOUS
 62
     7
 10
2.9635709853
 20
4.8923082211
 30
0.0
 11
2.9615167153
 21
4.8663796718
 31
0.0
  0
POLYLINE
  5
1FB
  8
0
  6
CONTINUOUS
 62
     7
 66
     1
 10
0.0
 20
0.0
 30
0.0
 70
   128
  0
VERTEX
  5
44D
  8
0
  6
CONTINUOUS
 62
     7
 10
2.9914883674
 20
4.9033310786
 30
0.0
  0
VERTEX
  5
44E
  8
0
  6
CONTINUOUS
 62
     7
 10
2.990583008
 20
4.9041517714
 30
0.0
  0
VERTEX
  5
44F
  8
0
  6
CONTINUOUS
 62
     7
 10
2.9882769793
 20
4.9046841117
 30
0.0
  0
VERTEX
  5
450
  8
0
  6
CONTINUOUS
 62
     7
 10
2.9825534376
 20
4.9029736849
 30
0.0
  0
VERTEX
  5
451
  8
0
  6
CONTINUOUS
 62
     7
 10
2.9765034468
 20
4.8997739722
 30
0.0
  0
SEQEND
  5
8C1
  8
0
  6
CONTINUOUS
 62
     7
  0
ARC
  5
1FC
  8
0
  6
CONTINUOUS
 62
     7
 10
2.3869920731
 20
4.4994171826
 30
0.0
 40
0.0214513325456737
 50
176.4255012465
 51
234.9671097334
  0
LINE
  5
1FD
  8
0
  6
CONTINUOUS
 62
     7
 10
2.9635709853
 20
4.8923082211
 30
0.0
 11
2.9637118723
 21
4.8922126674
 31
0.0
  0
LINE
  5
1FE
  8
0
  6
CONTINUOUS
 62
     7
 10
2.9765034468
 20
4.8997739722
 30
0.0
 11
2.9766443338
 21
4.8996784185
 31
0.0
  0
LINE
  5
1FF
  8
0
  6
CONTINUOUS
 62
     7
 10
2.9766443338
 20
4.8996784185
 30
0.0
 11
2.9637118723
 21
4.8922126674
 31
0.0
  0
LINE
  5
200
  8
0
  6
CONTINUOUS
 62
     7
 10
2.9615167153
 20
4.8663796718
 30
0.0
 11
2.9616576024
 21
4.8662841182
 31
0.0
  0
LINE
  5
201
  8
0
  6
CONTINUOUS
 62
     7
 10
2.9637118723
 20
4.8922126674
 30
0.0
 11
2.9616576024
 21
4.8662841182
 31
0.0
  0
POLYLINE
  5
202
  8
0
  6
CONTINUOUS
 62
     7
 66
     1
 10
0.0
 20
0.0
 30
0.0
 70
   128
  0
VERTEX
  5
452
  8
0
  6
CONTINUOUS
 62
     7
 10
2.9935110356
 20
4.8970886615
 30
0.0
  0
VERTEX
  5
453
  8
0
  6
CONTINUOUS
 62
     7
 10
2.9924059934
 20
4.9025313884
 30
0.0
  0
VERTEX
  5
454
  8
0
  6
CONTINUOUS
 62
     7
 10
2.9907238951
 20
4.9040562178
 30
0.0
  0
VERTEX
  5
455
  8
0
  6
CONTINUOUS
 62
     7
 10
2.9884178663
 20
4.9045885281
 30
0.0
  0
VERTEX
  5
456
  8
0
  6
CONTINUOUS
 62
     7
 10
2.9826943246
 20
4.9028781014
 30
0.0
  0
VERTEX
  5
457
  8
0
  6
CONTINUOUS
 62
     7
 10
2.9766443338
 20
4.8996784185
 30
0.0
  0
SEQEND
  5
8C2
  8
0
  6
CONTINUOUS
 62
     7
  0
ARC
  5
203
  8
0
  6
CONTINUOUS
 62
     7
 10
2.9611876393
 20
4.9036395192
 30
0.0
 40
0.0329805349607435
 50
292.9054610254
 51
348.5432603482
  0
LINE
  5
204
  8
0
  6
CONTINUOUS
 62
     7
 10
2.9616576024
 20
4.8662841182
 30
0.0
 11
2.974024051
 21
4.8732595551
 31
0.0
  0
LINE
  5
205
  8
0
  6
CONTINUOUS
 62
     7
 10
2.9997184658
 20
4.900878751
 30
0.0
 11
2.9998593528
 21
4.9007831675
 31
0.0
  0
ARC
  5
206
  8
0
  6
CONTINUOUS
 62
     7
 10
2.0739971391
 20
5.4627178272
 30
0.0
 40
0.0768782492177012
 50
5.5005523014
 51
59.1235020324
  0
LINE
  5
207
  8
0
  6
CONTINUOUS
 62
     7
 10
2.565998593
 20
5.789951153
 30
0.0
 11
2.1134502295
 21
5.5287005436
 31
0.0
  0
ARC
  5
208
  8
0
  6
CONTINUOUS
 62
     7
 10
2.5265455026
 20
5.7239684366
 30
0.0
 40
0.0768782492177045
 50
5.5005523014
 51
59.1235020324
  0
LINE
  5
209
  8
0
  6
CONTINUOUS
 62
     7
 10
2.6030697486
 20
5.7313376279
 30
0.0
 11
2.1505213851
 21
5.4700870185
 31
0.0
  0
LINE
  5
20A
  8
0
  6
CONTINUOUS
 62
     7
 10
2.1223447546
 20
5.4835063949
 30
0.0
 11
2.1505213851
 21
5.4700870185
 31
0.0
  0
ARC
  5
20B
  8
0
  6
CONTINUOUS
 62
     7
 10
2.1070400359
 20
5.4820326123
 30
0.0
 40
0.0153755146369607
 50
5.5003923875
 51
59.1237447307
  0
LINE
  5
20C
  8
0
  6
CONTINUOUS
 62
     7
 10
2.1149305286
 20
5.495229073
 30
0.0
 11
2.1134502295
 21
5.5287005436
 31
0.0
  0
LINE
  5
20D
  8
0
  6
CONTINUOUS
 62
     7
 10
2.9608846163
 20
4.8584016681
 30
0.0
 11
2.9610255034
 21
4.8583061145
 31
0.0
  0
LINE
  5
20E
  8
0
  6
CONTINUOUS
 62
     7
 10
2.9659414494
 20
4.8613209157
 30
0.0
 11
2.9660823364
 21
4.8612253621
 31
0.0
  0
LINE
  5
20F
  8
0
  6
CONTINUOUS
 62
     7
 10
2.9580402485
 20
4.8225005918
 30
0.0
 11
2.9581811096
 21
4.8224050532
 31
0.0
  0
LINE
  5
210
  8
0
  6
CONTINUOUS
 62
     7
 10
2.9840461533
 20
4.8729918134
 30
0.0
 11
2.9841870403
 21
4.8728962598
 31
0.0
  0
LINE
  5
211
  8
0
  6
CONTINUOUS
 62
     7
 10
2.8613263
 20
4.6890837177
 30
0.0
 11
2.8551781647
 21
4.6114834565
 31
0.0
  0
LINE
  5
212
  8
0
  6
CONTINUOUS
 62
     7
 10
2.8551781647
 20
4.6114834565
 30
0.0
 11
2.8489879047
 21
4.6079098955
 31
0.0
  0
LINE
  5
213
  8
0
  6
CONTINUOUS
 62
     7
 10
2.8543630733
 20
4.6776277171
 30
0.0
 11
2.8437365113
 21
4.6714931334
 31
0.0
  0
LINE
  5
214
  8
0
  6
CONTINUOUS
 62
     7
 10
2.6464110257
 20
4.4143591025
 30
0.0
 11
2.6464110257
 21
4.4470207366
 31
0.0
  0
ARC
  5
215
  8
0
  6
CONTINUOUS
 62
     7
 10
2.6477931849
 20
4.4486554962
 30
0.0
 40
0.0021407481247642
 50
229.7860949741
 51
1.5752047357
  0
POLYLINE
  5
216
  8
0
  6
CONTINUOUS
 62
     7
 66
     1
 10
0.0
 20
0.0
 30
0.0
 70
   128
  0
VERTEX
  5
458
  8
0
  6
CONTINUOUS
 62
     7
 10
2.6464110257
 20
4.4143591025
 30
0.0
  0
VERTEX
  5
459
  8
0
  6
CONTINUOUS
 62
     7
 10
2.6522779832
 20
4.4116021629
 30
0.0
  0
VERTEX
  5
45A
  8
0
  6
CONTINUOUS
 62
     7
 10
2.6579437476
 20
4.4101997303
 30
0.0
  0
VERTEX
  5
45B
  8
0
  6
CONTINUOUS
 62
     7
 10
2.6632140481
 20
4.4101998899
 30
0.0
  0
VERTEX
  5
45C
  8
0
  6
CONTINUOUS
 62
     7
 10
2.6679081741
 20
4.411602634
 30
0.0
  0
VERTEX
  5
45D
  8
0
  6
CONTINUOUS
 62
     7
 10
2.671865171
 20
4.4143598555
 30
0.0
  0
VERTEX
  5
45E
  8
0
  6
CONTINUOUS
 62
     7
 10
2.6749493372
 20
4.4183770169
 30
0.0
  0
VERTEX
  5
45F
  8
0
  6
CONTINUOUS
 62
     7
 10
2.6770549425
 20
4.4235163606
 30
0.0
  0
VERTEX
  5
460
  8
0
  6
CONTINUOUS
 62
     7
 10
2.6781097545
 20
4.4296016746
 30
0.0
  0
SEQEND
  5
8C3
  8
0
  6
CONTINUOUS
 62
     7
  0
LINE
  5
217
  8
0
  6
CONTINUOUS
 62
     7
 10
2.168748134
 20
5.2189901394
 30
0.0
 11
2.1505213851
 21
5.4700870185
 31
0.0
  0
LINE
  5
218
  8
0
  6
CONTINUOUS
 62
     7
 10
2.6212964976
 20
5.4802407488
 30
0.0
 11
2.6030697486
 21
5.7313376279
 31
0.0
  0
LINE
  5
219
  8
0
  6
CONTINUOUS
 62
     7
 10
2.6212964976
 20
5.4802407488
 30
0.0
 11
2.168748134
 21
5.2189901394
 31
0.0
  0
LINE
  5
21A
  8
0
  6
CONTINUOUS
 62
     7
 10
2.1405715035
 20
5.2324095158
 30
0.0
 11
2.168748134
 21
5.2189901394
 31
0.0
  0
LINE
  5
21B
  8
0
  6
CONTINUOUS
 62
     7
 10
2.1405715035
 20
5.2324095158
 30
0.0
 11
2.1223447546
 21
5.4835063949
 31
0.0
  0
ARC
  5
21C
  8
0
  6
CONTINUOUS
 62
     7
 10
3.1945669536
 20
4.7397086807
 30
0.0
 40
0.0209443417963628
 50
304.1039466504
 51
0.350363649
  0
LINE
  5
21D
  8
0
  6
CONTINUOUS
 62
     7
 10
2.8543630733
 20
4.6776277171
 30
0.0
 11
2.8545039604
 21
4.6775321485
 31
0.0
  0
LINE
  5
21E
  8
0
  6
CONTINUOUS
 62
     7
 10
2.8551781647
 20
4.6114834565
 30
0.0
 11
2.8553190518
 21
4.6113878879
 31
0.0
  0
LINE
  5
21F
  8
0
  6
CONTINUOUS
 62
     7
 10
2.1134502295
 20
5.5287005436
 30
0.0
 11
2.0104082889
 21
5.5819494144
 31
0.0
  0
LINE
  5
220
  8
0
  6
CONTINUOUS
 62
     7
 10
2.1149305286
 20
5.495229073
 30
0.0
 11
2.0118885621
 21
5.5484780186
 31
0.0
  0
LINE
  5
221
  8
0
  6
CONTINUOUS
 62
     7
 10
2.0118885621
 20
5.5484780186
 30
0.0
 11
2.0104082889
 21
5.5819494144
 31
0.0
  0
LINE
  5
222
  8
0
  6
CONTINUOUS
 62
     7
 10
2.4629566524
 20
5.8432000238
 30
0.0
 11
2.0104082889
 21
5.5819494144
 31
0.0
  0
LINE
  5
223
  8
0
  6
CONTINUOUS
 62
     7
 10
2.565998593
 20
5.789951153
 30
0.0
 11
2.4629566524
 21
5.8432000238
 31
0.0
  0
LINE
  5
224
  8
0
  6
CONTINUOUS
 62
     7
 10
2.6344408645
 20
4.4212693295
 30
0.0
 11
2.6464110257
 21
4.4143591025
 31
0.0
  0
LINE
  5
225
  8
0
  6
CONTINUOUS
 62
     7
 10
2.8948000719
 20
4.6857452533
 30
0.0
 11
2.8884542437
 21
4.6820818847
 31
0.0
  0
POLYLINE
  5
226
  8
0
  6
CONTINUOUS
 62
     7
 66
     1
 10
0.0
 20
0.0
 30
0.0
 70
   128
  0
VERTEX
  5
461
  8
0
  6
CONTINUOUS
 62
     7
 10
2.9285062142
 20
4.7229298068
 30
0.0
  0
VERTEX
  5
462
  8
0
  6
CONTINUOUS
 62
     7
 10
2.9294199998
 20
4.7226656069
 30
0.0
  0
VERTEX
  5
463
  8
0
  6
CONTINUOUS
 62
     7
 10
2.9325217995
 20
4.7177884312
 30
0.0
  0
VERTEX
  5
464
  8
0
  6
CONTINUOUS
 62
     7
 10
2.9330972725
 20
4.7105302384
 30
0.0
  0
SEQEND
  5
8C4
  8
0
  6
CONTINUOUS
 62
     7
  0
ARC
  5
227
  8
0
  6
CONTINUOUS
 62
     7
 10
2.8485245087
 20
4.7273002721
 30
0.0
 40
0.0862194084468258
 50
322.1226194065
 51
348.7842405219
  0
LINE
  5
228
  8
0
  6
CONTINUOUS
 62
     7
 10
2.9165797755
 20
4.6743638285
 30
0.0
 11
2.8972422804
 21
4.6433796842
 31
0.0
  0
LINE
  5
229
  8
0
  6
CONTINUOUS
 62
     7
 10
2.9301324335
 20
4.6621898503
 30
0.0
 11
2.929515035
 21
4.6543972183
 31
0.0
  0
LINE
  5
22A
  8
0
  6
CONTINUOUS
 62
     7
 10
2.929515035
 20
4.6543972183
 30
0.0
 11
2.8817815156
 21
4.6268412441
 31
0.0
  0
POLYLINE
  5
22B
  8
0
  6
CONTINUOUS
 62
     7
 66
     1
 10
0.0
 20
0.0
 30
0.0
 70
   128
  0
VERTEX
  5
465
  8
0
  6
CONTINUOUS
 62
     7
 10
2.9235478375
 20
4.7139967874
 30
0.0
  0
VERTEX
  5
466
  8
0
  6
CONTINUOUS
 62
     7
 10
2.9219283949
 20
4.7152582679
 30
0.0
  0
VERTEX
  5
467
  8
0
  6
CONTINUOUS
 62
     7
 10
2.9176084272
 20
4.7152558866
 30
0.0
  0
VERTEX
  5
468
  8
0
  6
CONTINUOUS
 62
     7
 10
2.9126109429
 20
4.7131567641
 30
0.0
  0
SEQEND
  5
8C5
  8
0
  6
CONTINUOUS
 62
     7
  0
ARC
  5
22C
  8
0
  6
CONTINUOUS
 62
     7
 10
2.9326334337
 20
4.6806548335
 30
0.0
 40
0.0381742797554662
 50
121.6347324709
 51
172.3369630822
  0
LINE
  5
22D
  8
0
  6
CONTINUOUS
 62
     7
 10
2.8948000719
 20
4.6857452533
 30
0.0
 11
2.894940959
 21
4.6856496997
 31
0.0
  0
LINE
  5
22E
  8
0
  6
CONTINUOUS
 62
     7
 10
2.9126109429
 20
4.7131567641
 30
0.0
 11
2.9127518299
 21
4.7130611956
 31
0.0
  0
LINE
  5
22F
  8
0
  6
CONTINUOUS
 62
     7
 10
2.9330972725
 20
4.7105302384
 30
0.0
 11
2.9332381595
 21
4.7104346848
 31
0.0
  0
LINE
  5
230
  8
0
  6
CONTINUOUS
 62
     7
 10
2.9165797755
 20
4.6743638285
 30
0.0
 11
2.9167206625
 21
4.6742682748
 31
0.0
  0
LINE
  5
231
  8
0
  6
CONTINUOUS
 62
     7
 10
2.8972422804
 20
4.6433796842
 30
0.0
 11
2.8973831674
 21
4.6432841156
 31
0.0
  0
LINE
  5
232
  8
0
  6
CONTINUOUS
 62
     7
 10
2.929515035
 20
4.6543972183
 30
0.0
 11
2.9296559221
 21
4.6543016497
 31
0.0
  0
LINE
  5
233
  8
0
  6
CONTINUOUS
 62
     7
 10
2.9818285987
 20
4.7359857524
 30
0.0
 11
2.9754827688
 21
4.7323223828
 31
0.0
  0
POLYLINE
  5
234
  8
0
  6
CONTINUOUS
 62
     7
 66
     1
 10
0.0
 20
0.0
 30
0.0
 70
   128
  0
VERTEX
  5
469
  8
0
  6
CONTINUOUS
 62
     7
 10
3.0155347441
 20
4.7731703077
 30
0.0
  0
VERTEX
  5
46A
  8
0
  6
CONTINUOUS
 62
     7
 10
3.0164485265
 20
4.772906106
 30
0.0
  0
VERTEX
  5
46B
  8
0
  6
CONTINUOUS
 62
     7
 10
3.019550323
 20
4.7680289284
 30
0.0
  0
VERTEX
  5
46C
  8
0
  6
CONTINUOUS
 62
     7
 10
3.0201257976
 20
4.7607707366
 30
0.0
  0
SEQEND
  5
8C6
  8
0
  6
CONTINUOUS
 62
     7
  0
ARC
  5
235
  8
0
  6
CONTINUOUS
 62
     7
 10
2.9355530174
 20
4.777540776
 30
0.0
 40
0.0862194256835354
 50
322.1226242052
 51
348.7842388513
  0
LINE
  5
236
  8
0
  6
CONTINUOUS
 62
     7
 10
3.0036083022
 20
4.7246043275
 30
0.0
 11
2.9842708071
 21
4.6936201833
 31
0.0
  0
LINE
  5
237
  8
0
  6
CONTINUOUS
 62
     7
 10
3.0171609602
 20
4.7124303493
 30
0.0
 11
3.0165435617
 21
4.7046377174
 31
0.0
  0
LINE
  5
238
  8
0
  6
CONTINUOUS
 62
     7
 10
3.0165435617
 20
4.7046377174
 30
0.0
 11
2.9688100407
 21
4.6770817422
 31
0.0
  0
POLYLINE
  5
239
  8
0
  6
CONTINUOUS
 62
     7
 66
     1
 10
0.0
 20
0.0
 30
0.0
 70
   128
  0
VERTEX
  5
46D
  8
0
  6
CONTINUOUS
 62
     7
 10
3.0105763642
 20
4.7642372865
 30
0.0
  0
VERTEX
  5
46E
  8
0
  6
CONTINUOUS
 62
     7
 10
3.0089569216
 20
4.765498767
 30
0.0
  0
VERTEX
  5
46F
  8
0
  6
CONTINUOUS
 62
     7
 10
3.0046369539
 20
4.7654963857
 30
0.0
  0
VERTEX
  5
470
  8
0
  6
CONTINUOUS
 62
     7
 10
2.9996394696
 20
4.7633972632
 30
0.0
  0
SEQEND
  5
8C7
  8
0
  6
CONTINUOUS
 62
     7
  0
ARC
  5
23A
  8
0
  6
CONTINUOUS
 62
     7
 10
3.0196619661
 20
4.7308953288
 30
0.0
 40
0.0381742859073223
 50
121.6347368455
 51
172.3369587076
  0
LINE
  5
23B
  8
0
  6
CONTINUOUS
 62
     7
 10
2.9657289477
 20
4.707481925
 30
0.0
 11
2.9651115492
 21
4.699689293
 31
0.0
  0
LINE
  5
23C
  8
0
  6
CONTINUOUS
 62
     7
 10
2.9651115492
 20
4.699689293
 30
0.0
 11
2.9380707046
 21
4.6840789457
 31
0.0
  0
LINE
  5
23D
  8
0
  6
CONTINUOUS
 62
     7
 10
2.9818285987
 20
4.7359857524
 30
0.0
 11
2.9819694857
 21
4.7358901988
 31
0.0
  0
LINE
  5
23E
  8
0
  6
CONTINUOUS
 62
     7
 10
2.9996394696
 20
4.7633972632
 30
0.0
 11
2.9997803567
 21
4.7633016946
 31
0.0
  0
LINE
  5
23F
  8
0
  6
CONTINUOUS
 62
     7
 10
2.9651115492
 20
4.699689293
 30
0.0
 11
2.9652524363
 21
4.6995937244
 31
0.0
  0
LINE
  5
240
  8
0
  6
CONTINUOUS
 62
     7
 10
3.0201257976
 20
4.7607707366
 30
0.0
 11
3.0202666846
 21
4.760675183
 31
0.0
  0
LINE
  5
241
  8
0
  6
CONTINUOUS
 62
     7
 10
2.3471787462
 20
4.5126049837
 30
0.0
 11
2.3471787462
 21
4.5452666179
 31
0.0
  0
POLYLINE
  5
242
  8
0
  6
CONTINUOUS
 62
     7
 66
     1
 10
0.0
 20
0.0
 30
0.0
 70
   128
  0
VERTEX
  5
471
  8
0
  6
CONTINUOUS
 62
     7
 10
2.3651957396
 20
4.5133199159
 30
0.0
  0
VERTEX
  5
472
  8
0
  6
CONTINUOUS
 62
     7
 10
2.3577357785
 20
4.5136083659
 30
0.0
  0
VERTEX
  5
473
  8
0
  6
CONTINUOUS
 62
     7
 10
2.3471787462
 20
4.5126049837
 30
0.0
  0
SEQEND
  5
8C8
  8
0
  6
CONTINUOUS
 62
     7
  0
LINE
  5
243
  8
0
  6
CONTINUOUS
 62
     7
 10
2.3161458474
 20
4.5273517067
 30
0.0
 11
2.3171335604
 21
4.4952602672
 31
0.0
  0
LINE
  5
244
  8
0
  6
CONTINUOUS
 62
     7
 10
2.3171335604
 20
4.4952602672
 30
0.0
 11
2.3471787462
 21
4.5126049837
 31
0.0
  0
LINE
  5
245
  8
0
  6
CONTINUOUS
 62
     7
 10
2.1474279371
 20
4.5932292382
 30
0.0
 11
2.146440224
 21
4.6253206778
 31
0.0
  0
LINE
  5
246
  8
0
  6
CONTINUOUS
 62
     7
 10
2.3171335604
 20
4.4952602672
 30
0.0
 11
2.1474279371
 21
4.5932292382
 31
0.0
  0
LINE
  5
247
  8
0
  6
CONTINUOUS
 62
     7
 10
3.2145991308
 20
5.1030788497
 30
0.0
 11
3.2427757872
 21
5.083966166
 31
0.0
  0
LINE
  5
248
  8
0
  6
CONTINUOUS
 62
     7
 10
3.2002357306
 20
5.0947870352
 30
0.0
 11
3.2145991308
 21
5.1030788497
 31
0.0
  0
LINE
  5
249
  8
0
  6
CONTINUOUS
 62
     7
 10
3.0690836232
 20
4.8109227501
 30
0.0
 11
3.0648317332
 21
4.7572565298
 31
0.0
  0
LINE
  5
24A
  8
0
  6
CONTINUOUS
 62
     7
 10
3.0729759842
 20
4.7617811907
 30
0.0
 11
3.0723585858
 21
4.7539885588
 31
0.0
  0
LINE
  5
24B
  8
0
  6
CONTINUOUS
 62
     7
 10
3.0723585858
 20
4.7539885588
 30
0.0
 11
3.0641996601
 21
4.7492785112
 31
0.0
  0
LINE
  5
24C
  8
0
  6
CONTINUOUS
 62
     7
 10
3.0641996601
 20
4.7492785112
 30
0.0
 11
3.0627774632
 21
4.7313279806
 31
0.0
  0
LINE
  5
24D
  8
0
  6
CONTINUOUS
 62
     7
 10
3.0627774632
 20
4.7313279806
 30
0.0
 11
3.0565872097
 21
4.7277544233
 31
0.0
  0
LINE
  5
24E
  8
0
  6
CONTINUOUS
 62
     7
 10
3.0578538319
 20
4.7456151426
 30
0.0
 11
3.0245828799
 21
4.7264082309
 31
0.0
  0
LINE
  5
24F
  8
0
  6
CONTINUOUS
 62
     7
 10
3.0611623958
 20
4.7873750602
 30
0.0
 11
3.0374086824
 21
4.7414255396
 31
0.0
  0
LINE
  5
250
  8
0
  6
CONTINUOUS
 62
     7
 10
3.0036083022
 20
4.7246043275
 30
0.0
 11
3.0037491892
 21
4.7245087739
 31
0.0
  0
LINE
  5
251
  8
0
  6
CONTINUOUS
 62
     7
 10
2.9842708071
 20
4.6936201833
 30
0.0
 11
2.9844116941
 21
4.6935246147
 31
0.0
  0
LINE
  5
252
  8
0
  6
CONTINUOUS
 62
     7
 10
3.0165435617
 20
4.7046377174
 30
0.0
 11
3.0166844488
 21
4.7045421488
 31
0.0
  0
POLYLINE
  5
253
  8
0
  6
CONTINUOUS
 62
     7
 66
     1
 10
0.0
 20
0.0
 30
0.0
 70
   128
  0
VERTEX
  5
474
  8
0
  6
CONTINUOUS
 62
     7
 10
2.1366087508
 20
5.1933138216
 30
0.0
  0
VERTEX
  5
475
  8
0
  6
CONTINUOUS
 62
     7
 10
2.1434207715
 20
5.190857013
 30
0.0
  0
VERTEX
  5
476
  8
0
  6
CONTINUOUS
 62
     7
 10
2.1498525994
 20
5.1901259704
 30
0.0
  0
VERTEX
  5
477
  8
0
  6
CONTINUOUS
 62
     7
 10
2.155657073
 20
5.1911487688
 30
0.0
  0
VERTEX
  5
478
  8
0
  6
CONTINUOUS
 62
     7
 10
2.1606110907
 20
5.1938861216
 30
0.0
  0
VERTEX
  5
479
  8
0
  6
CONTINUOUS
 62
     7
 10
2.164524297
 20
5.1982328636
 30
0.0
  0
VERTEX
  5
47A
  8
0
  6
CONTINUOUS
 62
     7
 10
2.1672463155
 20
5.2040218882
 30
0.0
  0
VERTEX
  5
47B
  8
0
  6
CONTINUOUS
 62
     7
 10
2.1686725311
 20
5.2110307804
 30
0.0
  0
VERTEX
  5
47C
  8
0
  6
CONTINUOUS
 62
     7
 10
2.168748134
 20
5.2189901394
 30
0.0
  0
SEQEND
  5
8C9
  8
0
  6
CONTINUOUS
 62
     7
  0
ARC
  5
254
  8
0
  6
CONTINUOUS
 62
     7
 10
2.5949196412
 20
5.4751714356
 30
0.0
 40
0.026859569786569
 50
306.9720217643
 51
10.8789093733
  0
LINE
  5
255
  8
0
  6
CONTINUOUS
 62
     7
 10
2.1341436165
 20
5.2272742463
 30
0.0
 11
2.1366087508
 21
5.1933138216
 31
0.0
  0
POLYLINE
  5
256
  8
0
  6
CONTINUOUS
 62
     7
 66
     1
 10
0.0
 20
0.0
 30
0.0
 70
   128
  0
VERTEX
  5
47D
  8
0
  6
CONTINUOUS
 62
     7
 10
2.1341436165
 20
5.2272742463
 30
0.0
  0
VERTEX
  5
47E
  8
0
  6
CONTINUOUS
 62
     7
 10
2.1355060258
 20
5.2267828876
 30
0.0
  0
VERTEX
  5
47F
  8
0
  6
CONTINUOUS
 62
     7
 10
2.1367923914
 20
5.226636679
 30
0.0
  0
VERTEX
  5
480
  8
0
  6
CONTINUOUS
 62
     7
 10
2.1379532706
 20
5.2268412597
 30
0.0
  0
VERTEX
  5
481
  8
0
  6
CONTINUOUS
 62
     7
 10
2.1389440949
 20
5.2273887063
 30
0.0
  0
VERTEX
  5
482
  8
0
  6
CONTINUOUS
 62
     7
 10
2.1397267257
 20
5.2282580727
 30
0.0
  0
VERTEX
  5
483
  8
0
  6
CONTINUOUS
 62
     7
 10
2.1402711398
 20
5.2294158536
 30
0.0
  0
VERTEX
  5
484
  8
0
  6
CONTINUOUS
 62
     7
 10
2.1405563622
 20
5.230817662
 30
0.0
  0
VERTEX
  5
485
  8
0
  6
CONTINUOUS
 62
     7
 10
2.1405715035
 20
5.2324095158
 30
0.0
  0
SEQEND
  5
8CA
  8
0
  6
CONTINUOUS
 62
     7
  0
LINE
  5
257
  8
0
  6
CONTINUOUS
 62
     7
 10
3.0374086824
 20
4.7414255396
 30
0.0
 11
3.0375495694
 21
4.741329971
 31
0.0
  0
LINE
  5
258
  8
0
  6
CONTINUOUS
 62
     7
 10
3.0611623958
 20
4.7873750602
 30
0.0
 11
3.0613032828
 21
4.7872794916
 31
0.0
  0
LINE
  5
259
  8
0
  6
CONTINUOUS
 62
     7
 10
3.0613032828
 20
4.7872794916
 30
0.0
 11
3.0375495694
 21
4.741329971
 31
0.0
  0
LINE
  5
25A
  8
0
  6
CONTINUOUS
 62
     7
 10
3.058626792
 20
4.7534975926
 30
0.0
 11
3.0613032828
 21
4.7872794916
 31
0.0
  0
LINE
  5
25B
  8
0
  6
CONTINUOUS
 62
     7
 10
3.0375495694
 20
4.741329971
 30
0.0
 11
3.058626792
 21
4.7534975926
 31
0.0
  0
LINE
  5
25C
  8
0
  6
CONTINUOUS
 62
     7
 10
1.9178874264
 20
4.9428120565
 30
0.0
 11
2.0911285782
 21
4.8428020684
 31
0.0
  0
LINE
  5
25D
  8
0
  6
CONTINUOUS
 62
     7
 10
1.9178874264
 20
4.9428120565
 30
0.0
 11
1.9461544642
 21
4.9602701411
 31
0.0
  0
LINE
  5
25E
  8
0
  6
CONTINUOUS
 62
     7
 10
1.9461544642
 20
4.9602701411
 30
0.0
 11
2.119395616
 21
4.860260153
 31
0.0
  0
LINE
  5
25F
  8
0
  6
CONTINUOUS
 62
     7
 10
2.119395616
 20
4.860260153
 30
0.0
 11
2.0911285782
 21
4.8428020684
 31
0.0
  0
LINE
  5
260
  8
0
  6
CONTINUOUS
 62
     7
 10
2.0911285782
 20
4.8428020684
 30
0.0
 11
2.0968818978
 21
4.655872134
 31
0.0
  0
LINE
  5
261
  8
0
  6
CONTINUOUS
 62
     7
 10
2.119395616
 20
4.860260153
 30
0.0
 11
2.1251489356
 21
4.6733302223
 31
0.0
  0
LINE
  5
262
  8
0
  6
CONTINUOUS
 62
     7
 10
2.1251489356
 20
4.6733302223
 30
0.0
 11
2.0968818978
 21
4.655872134
 31
0.0
  0
LINE
  5
263
  8
0
  6
CONTINUOUS
 62
     7
 10
3.0648317332
 20
4.7572565298
 30
0.0
 11
3.0649726202
 21
4.7571609613
 31
0.0
  0
LINE
  5
264
  8
0
  6
CONTINUOUS
 62
     7
 10
1.9236407461
 20
4.7558821222
 30
0.0
 11
2.0968818978
 21
4.655872134
 31
0.0
  0
LINE
  5
265
  8
0
  6
CONTINUOUS
 62
     7
 10
1.9236407461
 20
4.7558821222
 30
0.0
 11
1.9178874264
 21
4.9428120565
 31
0.0
  0
LINE
  5
266
  8
0
  6
CONTINUOUS
 62
     7
 10
3.0578538319
 20
4.7456151426
 30
0.0
 11
3.057994693
 21
4.745519589
 31
0.0
  0
LINE
  5
267
  8
0
  6
CONTINUOUS
 62
     7
 10
2.023902177
 20
5.2469913573
 30
0.0
 11
2.1366087508
 21
5.1933138216
 31
0.0
  0
LINE
  5
268
  8
0
  6
CONTINUOUS
 62
     7
 10
2.0214370426
 20
5.280951782
 30
0.0
 11
2.023902177
 21
5.2469913573
 31
0.0
  0
LINE
  5
269
  8
0
  6
CONTINUOUS
 62
     7
 10
2.0214370426
 20
5.280951782
 30
0.0
 11
2.1341436165
 21
5.2272742463
 31
0.0
  0
LINE
  5
26A
  8
0
  6
CONTINUOUS
 62
     7
 10
3.0627774632
 20
4.7313279806
 30
0.0
 11
3.0629183503
 21
4.731232412
 31
0.0
  0
LINE
  5
26B
  8
0
  6
CONTINUOUS
 62
     7
 10
3.0641996601
 20
4.7492785112
 30
0.0
 11
3.0643405212
 21
4.7491829576
 31
0.0
  0
LINE
  5
26C
  8
0
  6
CONTINUOUS
 62
     7
 10
3.0723585858
 20
4.7539885588
 30
0.0
 11
3.0724994469
 21
4.7538930052
 31
0.0
  0
LINE
  5
26D
  8
0
  6
CONTINUOUS
 62
     7
 10
1.9765008692
 20
5.1973476025
 30
0.0
 11
1.9872097104
 21
5.0498194502
 31
0.0
  0
LINE
  5
26E
  8
0
  6
CONTINUOUS
 62
     7
 10
1.9765008692
 20
5.1973476025
 30
0.0
 11
2.000851745
 21
5.2114050639
 31
0.0
  0
ARC
  5
26F
  8
0
  6
CONTINUOUS
 62
     7
 10
1.9799790664
 20
5.2428752093
 30
0.0
 40
0.0377629283850542
 50
303.5544595674
 51
355.3981619766
  0
LINE
  5
270
  8
0
  6
CONTINUOUS
 62
     7
 10
2.0176202587
 20
5.2398454555
 30
0.0
 11
2.0174743159
 21
5.2418560728
 31
0.0
  0
LINE
  5
271
  8
0
  6
CONTINUOUS
 62
     7
 10
2.5239469483
 20
5.3692008155
 30
0.0
 11
2.5215632505
 21
5.4020392806
 31
0.0
  0
LINE
  5
272
  8
0
  6
CONTINUOUS
 62
     7
 10
1.9483242128
 20
5.2107669939
 30
0.0
 11
1.9673975803
 21
4.9480067594
 31
0.0
  0
LINE
  5
273
  8
0
  6
CONTINUOUS
 62
     7
 10
1.9765008692
 20
5.1973476025
 30
0.0
 11
1.9483242128
 21
5.2107669939
 31
0.0
  0
LINE
  5
274
  8
0
  6
CONTINUOUS
 62
     7
 10
2.1279756472
 20
4.6718098734
 30
0.0
 11
2.1279756472
 21
4.6391482392
 31
0.0
  0
ARC
  5
275
  8
0
  6
CONTINUOUS
 62
     7
 10
2.1396235131
 20
4.5773189768
 30
0.0
 40
0.0629168536252174
 50
67.339514924
 51
100.6687755211
  0
POLYLINE
  5
276
  8
0
  6
CONTINUOUS
 62
     7
 66
     1
 10
0.0
 20
0.0
 30
0.0
 70
   128
  0
VERTEX
  5
486
  8
0
  6
CONTINUOUS
 62
     7
 10
2.0174743159
 20
5.2418560728
 30
0.0
  0
VERTEX
  5
487
  8
0
  6
CONTINUOUS
 62
     7
 10
2.0174894313
 20
5.2434479416
 30
0.0
  0
VERTEX
  5
488
  8
0
  6
CONTINUOUS
 62
     7
 10
2.0177746796
 20
5.244849735
 30
0.0
  0
VERTEX
  5
489
  8
0
  6
CONTINUOUS
 62
     7
 10
2.0183190677
 20
5.2460075309
 30
0.0
  0
VERTEX
  5
48A
  8
0
  6
CONTINUOUS
 62
     7
 10
2.0191017245
 20
5.2468768823
 30
0.0
  0
VERTEX
  5
48B
  8
0
  6
CONTINUOUS
 62
     7
 10
2.0200925229
 20
5.2474243439
 30
0.0
  0
VERTEX
  5
48C
  8
0
  6
CONTINUOUS
 62
     7
 10
2.021253428
 20
5.2476289096
 30
0.0
  0
VERTEX
  5
48D
  8
0
  6
CONTINUOUS
 62
     7
 10
2.0225397936
 20
5.247482701
 30
0.0
  0
VERTEX
  5
48E
  8
0
  6
CONTINUOUS
 62
     7
 10
2.023902177
 20
5.2469913573
 30
0.0
  0
SEQEND
  5
8CB
  8
0
  6
CONTINUOUS
 62
     7
  0
LINE
  5
277
  8
0
  6
CONTINUOUS
 62
     7
 10
2.0174743159
 20
5.2418560728
 30
0.0
 11
1.9892976594
 21
5.2552754642
 31
0.0
  0
POLYLINE
  5
278
  8
0
  6
CONTINUOUS
 62
     7
 66
     1
 10
0.0
 20
0.0
 30
0.0
 70
   128
  0
VERTEX
  5
48F
  8
0
  6
CONTINUOUS
 62
     7
 10
1.9892976594
 20
5.2552754642
 30
0.0
  0
VERTEX
  5
490
  8
0
  6
CONTINUOUS
 62
     7
 10
1.9893732624
 20
5.2632348531
 30
0.0
  0
VERTEX
  5
491
  8
0
  6
CONTINUOUS
 62
     7
 10
1.990799478
 20
5.2702437153
 30
0.0
  0
VERTEX
  5
492
  8
0
  6
CONTINUOUS
 62
     7
 10
1.9935214965
 20
5.27603274
 30
0.0
  0
VERTEX
  5
493
  8
0
  6
CONTINUOUS
 62
     7
 10
1.9974347028
 20
5.280379482
 30
0.0
  0
VERTEX
  5
494
  8
0
  6
CONTINUOUS
 62
     7
 10
2.0023887464
 20
5.2831168198
 30
0.0
  0
VERTEX
  5
495
  8
0
  6
CONTINUOUS
 62
     7
 10
2.008193194
 20
5.2841396332
 30
0.0
  0
VERTEX
  5
496
  8
0
  6
CONTINUOUS
 62
     7
 10
2.0146250219
 20
5.2834085906
 30
0.0
  0
VERTEX
  5
497
  8
0
  6
CONTINUOUS
 62
     7
 10
2.0214370426
 20
5.280951782
 30
0.0
  0
SEQEND
  5
8CC
  8
0
  6
CONTINUOUS
 62
     7
  0
LINE
  5
279
  8
0
  6
CONTINUOUS
 62
     7
 10
2.000851745
 20
5.2114050639
 30
0.0
 11
1.9726750886
 21
5.2248244553
 31
0.0
  0
LINE
  5
27A
  8
0
  6
CONTINUOUS
 62
     7
 10
1.9483242128
 20
5.2107669939
 30
0.0
 11
1.9726750886
 21
5.2248244553
 31
0.0
  0
ARC
  5
27B
  8
0
  6
CONTINUOUS
 62
     7
 10
2.1158193435
 20
4.653814075
 30
0.0
 40
0.0190489489676579
 50
173.7976253894
 51
309.654854769
  0
ARC
  5
27C
  8
0
  6
CONTINUOUS
 62
     7
 10
2.126870521
 20
4.6731431244
 30
0.0
 40
0.0017317222677955
 50
173.7975678152
 51
309.6551923676
  0
ARC
  5
27D
  8
0
  6
CONTINUOUS
 62
     7
 10
1.9450503467
 20
4.7545447107
 30
0.0
 40
0.0214513325456708
 50
176.4255012465
 51
234.9671097334
  0
LINE
  5
27E
  8
0
  6
CONTINUOUS
 62
     7
 10
2.0176202587
 20
5.2398454555
 30
0.0
 11
1.9894436282
 21
5.2532648319
 31
0.0
  0
ARC
  5
27F
  8
0
  6
CONTINUOUS
 62
     7
 10
1.9518023139
 20
5.2562946932
 30
0.0
 40
0.0377630586253615
 50
303.5545034302
 51
355.3980142122
  0
LINE
  5
280
  8
0
  6
CONTINUOUS
 62
     7
 10
3.2732125736
 20
5.0149495774
 30
0.0
 11
3.2674592539
 21
4.8213770015
 31
0.0
  0
ARC
  5
281
  8
0
  6
CONTINUOUS
 62
     7
 10
3.1996592476
 20
4.8259396458
 30
0.0
 40
0.0679533558940463
 50
302.6951047348
 51
356.1500490245
  0
ARC
  5
282
  8
0
  6
CONTINUOUS
 62
     7
 10
3.233028594
 20
4.8066134414
 30
0.0
 40
0.0061775625678805
 50
302.6949544814
 51
356.1501058508
  0
LINE
  5
283
  8
0
  6
CONTINUOUS
 62
     7
 10
3.2391922162
 20
4.8061986627
 30
0.0
 11
3.2449455358
 21
4.9997712348
 31
0.0
  0
LINE
  5
284
  8
0
  6
CONTINUOUS
 62
     7
 10
3.2449455358
 20
4.9997712348
 30
0.0
 11
3.2732125736
 21
5.0149495774
 31
0.0
  0
LINE
  5
285
  8
0
  6
CONTINUOUS
 62
     7
 10
3.2363655046
 20
4.7687530278
 30
0.0
 11
3.2169121258
 21
4.7575228313
 31
0.0
  0
LINE
  5
286
  8
0
  6
CONTINUOUS
 62
     7
 10
1.9894436282
 20
5.2532648319
 30
0.0
 11
1.9892976594
 21
5.2552754642
 31
0.0
  0
LINE
  5
287
  8
0
  6
CONTINUOUS
 62
     7
 10
3.2449455358
 20
4.9997712348
 30
0.0
 11
3.2364917948
 21
5.0046514756
 31
0.0
  0
LINE
  5
288
  8
0
  6
CONTINUOUS
 62
     7
 10
3.2732125736
 20
5.0149495774
 30
0.0
 11
3.2388780593
 21
5.0347704705
 31
0.0
  0
LINE
  5
289
  8
0
  6
CONTINUOUS
 62
     8
 10
2.5739832378
 20
4.9619503677
 30
0.0
 11
2.5739832378
 21
4.8591217731
 31
0.0
  0
ARC
  5
28A
  8
0
  6
CONTINUOUS
 62
     8
 10
2.5603290423
 20
4.9714842804
 30
0.0
 40
0.012763250422346
 50
41.8962866797
 51
58.9498897222
  0
ARC
  5
28B
  8
0
  6
CONTINUOUS
 62
     8
 10
2.5387402523
 20
5.0389862879
 30
0.0
 40
0.0774174083890763
 50
242.7331203983
 51
295.2431686199
  0
LINE
  5
28C
  8
0
  6
CONTINUOUS
 62
     8
 10
2.8012587475
 20
5.3541227961
 30
0.0
 11
2.6807563516
 21
5.4236873485
 31
0.0
  0
LINE
  5
28D
  8
0
  6
CONTINUOUS
 62
     8
 10
2.566912168
 20
4.9824187679
 30
0.0
 11
2.5696689934
 21
4.9840102494
 31
0.0
  0
LINE
  5
28E
  8
0
  6
CONTINUOUS
 62
     8
 10
2.2062877118
 20
5.1416170376
 30
0.0
 11
2.2062877118
 21
5.0905853968
 31
0.0
  0
ARC
  5
28F
  8
0
  6
CONTINUOUS
 62
     8
 10
2.2166942469
 20
5.1645560426
 30
0.0
 40
0.0251891628418048
 50
186.0069651753
 51
245.5980510866
  0
ARC
  5
290
  8
0
  6
CONTINUOUS
 62
     8
 10
2.2104294155
 20
5.1824315864
 30
0.0
 40
0.0050301888786497
 50
54.383501479
 51
114.2917738984
  0
ARC
  5
291
  8
0
  6
CONTINUOUS
 62
     8
 10
2.6212586726
 20
5.4195987247
 30
0.0
 40
0.0050296004921243
 50
54.3815962206
 51
114.3135864046
  0
ARC
  5
292
  8
0
  6
CONTINUOUS
 62
     8
 10
2.6836855248
 20
5.4195987006
 30
0.0
 40
0.0050296220214116
 50
65.6865357002
 51
125.618422403
  0
LINE
  5
293
  8
0
  6
CONTINUOUS
 62
     8
 10
2.6162068819
 20
5.1984058573
 30
0.0
 11
2.6226359097
 21
5.2021172561
 31
0.0
  0
LINE
  5
294
  8
0
  6
CONTINUOUS
 62
     8
 10
3.221088361
 20
4.8102339693
 30
0.0
 11
3.2363655046
 21
4.801414662
 31
0.0
  0
LINE
  5
295
  8
0
  6
CONTINUOUS
 62
     8
 10
2.6499613066
 20
4.4490702701
 30
0.0
 11
2.6464110257
 21
4.4470207366
 31
0.0
  0
LINE
  5
296
  8
0
  6
CONTINUOUS
 62
     8
 10
2.5670871878
 20
4.4183161767
 30
0.0
 11
2.5699173736
 21
4.4166823452
 31
0.0
  0
LINE
  5
297
  8
0
  6
CONTINUOUS
 62
     8
 10
2.1251454484
 20
4.6734437123
 30
0.0
 11
2.1279756472
 21
4.6718098734
 31
0.0
  0
LINE
  5
298
  8
0
  6
CONTINUOUS
 62
     8
 10
3.2019364088
 20
5.0810931175
 30
0.0
 11
3.2184249114
 21
5.0699087046
 31
0.0
  0
LINE
  5
299
  8
0
  6
CONTINUOUS
 62
     8
 10
2.1405713998
 20
5.2309849266
 30
0.0
 11
2.1341436165
 21
5.2272742463
 31
0.0
  0
LINE
  5
29A
  8
0
  6
CONTINUOUS
 62
     8
 10
2.0214370426
 20
5.280951782
 30
0.0
 11
2.1323981236
 21
5.3450082505
 31
0.0
  0
LINE
  5
29B
  8
0
  6
CONTINUOUS
 62
     8
 10
2.0174743159
 20
5.2418560728
 30
0.0
 11
2.0252543451
 21
5.2463473881
 31
0.0
  0
LINE
  5
29C
  8
0
  6
CONTINUOUS
 62
     8
 10
3.2215744653
 20
4.8163691738
 30
0.0
 11
3.2391922162
 21
4.8061986627
 31
0.0
  0
LINE
  5
29D
  8
0
  6
CONTINUOUS
 62
     7
 10
2.0118807312
 20
2.9030704087
 30
0.0
 11
1.9178144327
 21
2.811103436
 31
0.0
  0
LINE
  5
29E
  8
0
  6
CONTINUOUS
 62
     7
 10
2.1254420166
 20
2.5987363422
 30
0.0
 11
2.2195083152
 21
2.6907033148
 31
0.0
  0
POLYLINE
  5
29F
  8
0
  6
CONTINUOUS
 62
     7
 66
     1
 10
0.0
 20
0.0
 30
0.0
 70
   128
  0
VERTEX
  5
498
  8
0
  6
CONTINUOUS
 62
     7
 10
2.6225583264
 20
3.0792228614
 30
0.0
  0
VERTEX
  5
499
  8
0
  6
CONTINUOUS
 62
     7
 10
2.640683543
 20
3.0778481351
 30
0.0
  0
VERTEX
  5
49A
  8
0
  6
CONTINUOUS
 62
     7
 10
2.6586929164
 20
3.0764793883
 30
0.0
  0
SEQEND
  5
8CD
  8
0
  6
CONTINUOUS
 62
     7
  0
POLYLINE
  5
2A0
  8
0
  6
CONTINUOUS
 62
     7
 66
     1
 10
0.0
 20
0.0
 30
0.0
 70
   128
  0
VERTEX
  5
49B
  8
0
  6
CONTINUOUS
 62
     7
 10
2.5763420451
 20
3.0341101929
 30
0.0
  0
VERTEX
  5
49C
  8
0
  6
CONTINUOUS
 62
     7
 10
2.5944561544
 20
3.0327363111
 30
0.0
  0
VERTEX
  5
49D
  8
0
  6
CONTINUOUS
 62
     7
 10
2.6124536118
 20
3.0313685503
 30
0.0
  0
SEQEND
  5
8CE
  8
0
  6
CONTINUOUS
 62
     7
  0
POLYLINE
  5
2A1
  8
0
  6
CONTINUOUS
 62
     7
 66
     1
 10
0.0
 20
0.0
 30
0.0
 70
   128
  0
VERTEX
  5
49E
  8
0
  6
CONTINUOUS
 62
     7
 10
2.530120834
 20
2.9889979498
 30
0.0
  0
VERTEX
  5
49F
  8
0
  6
CONTINUOUS
 62
     7
 10
2.5482606738
 20
2.9876220843
 30
0.0
  0
VERTEX
  5
4A0
  8
0
  6
CONTINUOUS
 62
     7
 10
2.5662899101
 20
2.9862518708
 30
0.0
  0
SEQEND
  5
8CF
  8
0
  6
CONTINUOUS
 62
     7
  0
POLYLINE
  5
2A2
  8
0
  6
CONTINUOUS
 62
     7
 66
     1
 10
0.0
 20
0.0
 30
0.0
 70
   128
  0
VERTEX
  5
4A1
  8
0
  6
CONTINUOUS
 62
     7
 10
2.4840346304
 20
2.9438752799
 30
0.0
  0
VERTEX
  5
4A2
  8
0
  6
CONTINUOUS
 62
     7
 10
2.502191927
 20
2.9424981017
 30
0.0
  0
VERTEX
  5
4A3
  8
0
  6
CONTINUOUS
 62
     7
 10
2.5202407045
 20
2.9411263492
 30
0.0
  0
SEQEND
  5
8D0
  8
0
  6
CONTINUOUS
 62
     7
  0
POLYLINE
  5
2A3
  8
0
  6
CONTINUOUS
 62
     7
 66
     1
 10
0.0
 20
0.0
 30
0.0
 70
   128
  0
VERTEX
  5
4A4
  8
0
  6
CONTINUOUS
 62
     7
 10
2.4379654982
 20
2.8987513582
 30
0.0
  0
VERTEX
  5
4A5
  8
0
  6
CONTINUOUS
 62
     7
 10
2.4561224477
 20
2.8973742209
 30
0.0
  0
VERTEX
  5
4A6
  8
0
  6
CONTINUOUS
 62
     7
 10
2.4741694009
 20
2.896002567
 30
0.0
  0
SEQEND
  5
8D1
  8
0
  6
CONTINUOUS
 62
     7
  0
POLYLINE
  5
2A4
  8
0
  6
CONTINUOUS
 62
     7
 66
     1
 10
0.0
 20
0.0
 30
0.0
 70
   128
  0
VERTEX
  5
4A7
  8
0
  6
CONTINUOUS
 62
     7
 10
2.3918571609
 20
2.8536304448
 30
0.0
  0
VERTEX
  5
4A8
  8
0
  6
CONTINUOUS
 62
     7
 10
2.4100097598
 20
2.8522536538
 30
0.0
  0
VERTEX
  5
4A9
  8
0
  6
CONTINUOUS
 62
     7
 10
2.428050859
 20
2.8508824355
 30
0.0
  0
SEQEND
  5
8D2
  8
0
  6
CONTINUOUS
 62
     7
  0
POLYLINE
  5
2A5
  8
0
  6
CONTINUOUS
 62
     7
 66
     1
 10
0.0
 20
0.0
 30
0.0
 70
   128
  0
VERTEX
  5
4AA
  8
0
  6
CONTINUOUS
 62
     7
 10
2.34573419
 20
2.8085106478
 30
0.0
  0
VERTEX
  5
4AB
  8
0
  6
CONTINUOUS
 62
     7
 10
2.3638778931
 20
2.8071345364
 30
0.0
  0
VERTEX
  5
4AC
  8
0
  6
CONTINUOUS
 62
     7
 10
2.3819079977
 20
2.8057641472
 30
0.0
  0
SEQEND
  5
8D3
  8
0
  6
CONTINUOUS
 62
     7
  0
POLYLINE
  5
2A6
  8
0
  6
CONTINUOUS
 62
     7
 66
     1
 10
0.0
 20
0.0
 30
0.0
 70
   128
  0
VERTEX
  5
4AD
  8
0
  6
CONTINUOUS
 62
     7
 10
2.2995720614
 20
2.7633938275
 30
0.0
  0
VERTEX
  5
4AE
  8
0
  6
CONTINUOUS
 62
     7
 10
2.3177108162
 20
2.7620180695
 30
0.0
  0
VERTEX
  5
4AF
  8
0
  6
CONTINUOUS
 62
     7
 10
2.3357353622
 20
2.7606481273
 30
0.0
  0
SEQEND
  5
8D4
  8
0
  6
CONTINUOUS
 62
     7
  0
LINE
  5
2A7
  8
0
  6
CONTINUOUS
 62
     7
 10
2.1841086232
 20
2.6262965312
 30
0.0
 11
2.195781116
 21
2.6254094924
 31
0.0
  0
POLYLINE
  5
2A8
  8
0
  6
CONTINUOUS
 62
     7
 66
     1
 10
0.0
 20
0.0
 30
0.0
 70
   128
  0
VERTEX
  5
4B0
  8
0
  6
CONTINUOUS
 62
     7
 10
1.9606570258
 20
2.8809680644
 30
0.0
  0
VERTEX
  5
4B1
  8
0
  6
CONTINUOUS
 62
     7
 10
1.9616322874
 20
2.8627129683
 30
0.0
  0
VERTEX
  5
4B2
  8
0
  6
CONTINUOUS
 62
     7
 10
1.9620764286
 20
2.854377621
 30
0.0
  0
SEQEND
  5
8D5
  8
0
  6
CONTINUOUS
 62
     7
  0
LINE
  5
2A9
  8
0
  6
CONTINUOUS
 62
     7
 10
2.6998254652
 20
3.1843452926
 30
0.0
 11
2.6970796452
 21
3.1915243805
 31
0.0
  0
POLYLINE
  5
2AA
  8
0
  6
CONTINUOUS
 62
     7
 66
     1
 10
0.0
 20
0.0
 30
0.0
 70
   128
  0
VERTEX
  5
4B3
  8
0
  6
CONTINUOUS
 62
     7
 10
2.696752535
 20
3.1923796162
 30
0.0
  0
VERTEX
  5
4B4
  8
0
  6
CONTINUOUS
 62
     7
 10
2.6961842733
 20
3.1938653723
 30
0.0
  0
VERTEX
  5
4B5
  8
0
  6
CONTINUOUS
 62
     7
 10
2.6924836346
 20
3.2035518479
 30
0.0
  0
SEQEND
  5
8D6
  8
0
  6
CONTINUOUS
 62
     7
  0
LINE
  5
2AB
  8
0
  6
CONTINUOUS
 62
     7
 10
2.6536663116
 20
3.1392570098
 30
0.0
 11
2.6509315967
 21
3.1464071363
 31
0.0
  0
POLYLINE
  5
2AC
  8
0
  6
CONTINUOUS
 62
     7
 66
     1
 10
0.0
 20
0.0
 30
0.0
 70
   128
  0
VERTEX
  5
4B6
  8
0
  6
CONTINUOUS
 62
     7
 10
2.6506048232
 20
3.1472615274
 30
0.0
  0
VERTEX
  5
4B7
  8
0
  6
CONTINUOUS
 62
     7
 10
2.6500193871
 20
3.1487921778
 30
0.0
  0
VERTEX
  5
4B8
  8
0
  6
CONTINUOUS
 62
     7
 10
2.6463142007
 20
3.1584905792
 30
0.0
  0
SEQEND
  5
8D7
  8
0
  6
CONTINUOUS
 62
     7
  0
LINE
  5
2AD
  8
0
  6
CONTINUOUS
 62
     7
 10
2.6075275987
 20
3.0941153203
 30
0.0
 11
2.6047835967
 21
3.1012897532
 31
0.0
  0
POLYLINE
  5
2AE
  8
0
  6
CONTINUOUS
 62
     7
 66
     1
 10
0.0
 20
0.0
 30
0.0
 70
   128
  0
VERTEX
  5
4B9
  8
0
  6
CONTINUOUS
 62
     7
 10
2.6044570757
 20
3.1021434761
 30
0.0
  0
VERTEX
  5
4BA
  8
0
  6
CONTINUOUS
 62
     7
 10
2.6038288809
 20
3.1037859552
 30
0.0
  0
VERTEX
  5
4BB
  8
0
  6
CONTINUOUS
 62
     7
 10
2.6000810279
 20
3.1135957766
 30
0.0
  0
SEQEND
  5
8D8
  8
0
  6
CONTINUOUS
 62
     7
  0
LINE
  5
2AF
  8
0
  6
CONTINUOUS
 62
     7
 10
2.5613660114
 20
3.0490334098
 30
0.0
 11
2.5586358041
 21
3.056171769
 31
0.0
  0
POLYLINE
  5
2B0
  8
0
  6
CONTINUOUS
 62
     7
 66
     1
 10
0.0
 20
0.0
 30
0.0
 70
   128
  0
VERTEX
  5
4BC
  8
0
  6
CONTINUOUS
 62
     7
 10
2.5583092575
 20
3.0570255839
 30
0.0
  0
VERTEX
  5
4BD
  8
0
  6
CONTINUOUS
 62
     7
 10
2.5576864695
 20
3.0586539123
 30
0.0
  0
VERTEX
  5
4BE
  8
0
  6
CONTINUOUS
 62
     7
 10
2.5539546001
 20
3.0684221009
 30
0.0
  0
SEQEND
  5
8D9
  8
0
  6
CONTINUOUS
 62
     7
  0
LINE
  5
2B1
  8
0
  6
CONTINUOUS
 62
     7
 10
2.5152321404
 20
3.0038791023
 30
0.0
 11
2.5124884578
 21
3.0110525744
 31
0.0
  0
POLYLINE
  5
2B2
  8
0
  6
CONTINUOUS
 62
     7
 66
     1
 10
0.0
 20
0.0
 30
0.0
 70
   128
  0
VERTEX
  5
4BF
  8
0
  6
CONTINUOUS
 62
     7
 10
2.5121612561
 20
3.0119080354
 30
0.0
  0
VERTEX
  5
4C0
  8
0
  6
CONTINUOUS
 62
     7
 10
2.5115961049
 20
3.013385705
 30
0.0
  0
VERTEX
  5
4C1
  8
0
  6
CONTINUOUS
 62
     7
 10
2.5078996938
 20
3.0230610604
 30
0.0
  0
SEQEND
  5
8DA
  8
0
  6
CONTINUOUS
 62
     7
  0
LINE
  5
2B3
  8
0
  6
CONTINUOUS
 62
     7
 10
2.4690723935
 20
2.9587923632
 30
0.0
 11
2.4663403355
 21
2.9659355646
 31
0.0
  0
POLYLINE
  5
2B4
  8
0
  6
CONTINUOUS
 62
     7
 66
     1
 10
0.0
 20
0.0
 30
0.0
 70
   128
  0
VERTEX
  5
4C2
  8
0
  6
CONTINUOUS
 62
     7
 10
2.4660135836
 20
2.9667898747
 30
0.0
  0
VERTEX
  5
4C3
  8
0
  6
CONTINUOUS
 62
     7
 10
2.4654257744
 20
2.9683267589
 30
0.0
  0
VERTEX
  5
4C4
  8
0
  6
CONTINUOUS
 62
     7
 10
2.4617208867
 20
2.9780244303
 30
0.0
  0
SEQEND
  5
8DB
  8
0
  6
CONTINUOUS
 62
     7
  0
LINE
  5
2B5
  8
0
  6
CONTINUOUS
 62
     7
 10
2.4229326316
 20
2.9136533834
 30
0.0
 11
2.4201923401
 21
2.9208181796
 31
0.0
  0
POLYLINE
  5
2B6
  8
0
  6
CONTINUOUS
 62
     7
 66
     1
 10
0.0
 20
0.0
 30
0.0
 70
   128
  0
VERTEX
  5
4C5
  8
0
  6
CONTINUOUS
 62
     7
 10
2.4198658423
 20
2.9216718394
 30
0.0
  0
VERTEX
  5
4C6
  8
0
  6
CONTINUOUS
 62
     7
 10
2.4192539435
 20
2.9232717263
 30
0.0
  0
VERTEX
  5
4C7
  8
0
  6
CONTINUOUS
 62
     7
 10
2.4155225976
 20
2.9330385159
 30
0.0
  0
SEQEND
  5
8DC
  8
0
  6
CONTINUOUS
 62
     7
  0
LINE
  5
2B7
  8
0
  6
CONTINUOUS
 62
     7
 10
2.3767796555
 20
2.8685490675
 30
0.0
 11
2.3740445429
 21
2.8757001512
 31
0.0
  0
POLYLINE
  5
2B8
  8
0
  6
CONTINUOUS
 62
     7
 66
     1
 10
0.0
 20
0.0
 30
0.0
 70
   128
  0
VERTEX
  5
4C8
  8
0
  6
CONTINUOUS
 62
     7
 10
2.3737180099
 20
2.8765539516
 30
0.0
  0
VERTEX
  5
4C9
  8
0
  6
CONTINUOUS
 62
     7
 10
2.3730914196
 20
2.8781923339
 30
0.0
  0
VERTEX
  5
4CA
  8
0
  6
CONTINUOUS
 62
     7
 10
2.3693522694
 20
2.8879793499
 30
0.0
  0
SEQEND
  5
8DD
  8
0
  6
CONTINUOUS
 62
     7
  0
LINE
  5
2B9
  8
0
  6
CONTINUOUS
 62
     7
 10
2.330635544
 20
2.8234214031
 30
0.0
 11
2.3278970548
 21
2.8305813403
 31
0.0
  0
POLYLINE
  5
2BA
  8
0
  6
CONTINUOUS
 62
     7
 66
     1
 10
0.0
 20
0.0
 30
0.0
 70
   128
  0
VERTEX
  5
4CB
  8
0
  6
CONTINUOUS
 62
     7
 10
2.3275701044
 20
2.8314363068
 30
0.0
  0
VERTEX
  5
4CC
  8
0
  6
CONTINUOUS
 62
     7
 10
2.3269961879
 20
2.8329367788
 30
0.0
  0
VERTEX
  5
4CD
  8
0
  6
CONTINUOUS
 62
     7
 10
2.3232971307
 20
2.8426190819
 30
0.0
  0
SEQEND
  5
8DE
  8
0
  6
CONTINUOUS
 62
     7
  0
POLYLINE
  5
2BB
  8
0
  6
CONTINUOUS
 62
     7
 66
     1
 10
0.0
 20
0.0
 30
0.0
 70
   128
  0
VERTEX
  5
4CE
  8
0
  6
CONTINUOUS
 62
     7
 10
2.2835511282
 20
2.7807523633
 30
0.0
  0
VERTEX
  5
4CF
  8
0
  6
CONTINUOUS
 62
     7
 10
2.2808411173
 20
2.7878379053
 30
0.0
  0
VERTEX
  5
4D0
  8
0
  6
CONTINUOUS
 62
     7
 10
2.2771353068
 20
2.7975379823
 30
0.0
  0
SEQEND
  5
8DF
  8
0
  6
CONTINUOUS
 62
     7
  0
POLYLINE
  5
2BC
  8
0
  6
CONTINUOUS
 62
     7
 66
     1
 10
0.0
 20
0.0
 30
0.0
 70
   128
  0
VERTEX
  5
4D1
  8
0
  6
CONTINUOUS
 62
     7
 10
2.132552668
 20
2.9409821622
 30
0.0
  0
VERTEX
  5
4D2
  8
0
  6
CONTINUOUS
 62
     7
 10
2.1231555297
 20
2.9448137026
 30
0.0
  0
VERTEX
  5
4D3
  8
0
  6
CONTINUOUS
 62
     7
 10
2.1227672156
 20
2.9449722281
 30
0.0
  0
SEQEND
  5
8E0
  8
0
  6
CONTINUOUS
 62
     7
  0
POLYLINE
  5
2BD
  8
0
  6
CONTINUOUS
 62
     7
 66
     1
 10
0.0
 20
0.0
 30
0.0
 70
   128
  0
VERTEX
  5
4D4
  8
0
  6
CONTINUOUS
 62
     7
 10
2.1788054724
 20
2.9860572537
 30
0.0
  0
VERTEX
  5
4D5
  8
0
  6
CONTINUOUS
 62
     7
 10
2.1693739862
 20
2.9899027628
 30
0.0
  0
VERTEX
  5
4D6
  8
0
  6
CONTINUOUS
 62
     7
 10
2.1597952152
 20
2.9938132125
 30
0.0
  0
SEQEND
  5
8E1
  8
0
  6
CONTINUOUS
 62
     7
  0
POLYLINE
  5
2BE
  8
0
  6
CONTINUOUS
 62
     7
 66
     1
 10
0.0
 20
0.0
 30
0.0
 70
   128
  0
VERTEX
  5
4D7
  8
0
  6
CONTINUOUS
 62
     7
 10
2.2248504128
 20
3.0312171075
 30
0.0
  0
VERTEX
  5
4D8
  8
0
  6
CONTINUOUS
 62
     7
 10
2.2154555707
 20
3.0350477422
 30
0.0
  0
VERTEX
  5
4D9
  8
0
  6
CONTINUOUS
 62
     7
 10
2.2059209844
 20
3.0389401503
 30
0.0
  0
SEQEND
  5
8E2
  8
0
  6
CONTINUOUS
 62
     7
  0
POLYLINE
  5
2BF
  8
0
  6
CONTINUOUS
 62
     7
 66
     1
 10
0.0
 20
0.0
 30
0.0
 70
   128
  0
VERTEX
  5
4DA
  8
0
  6
CONTINUOUS
 62
     7
 10
2.2710859322
 20
3.0762992613
 30
0.0
  0
VERTEX
  5
4DB
  8
0
  6
CONTINUOUS
 62
     7
 10
2.261652961
 20
3.0801453527
 30
0.0
  0
VERTEX
  5
4DC
  8
0
  6
CONTINUOUS
 62
     7
 10
2.2520727566
 20
3.0840564647
 30
0.0
  0
SEQEND
  5
8E3
  8
0
  6
CONTINUOUS
 62
     7
  0
POLYLINE
  5
2C0
  8
0
  6
CONTINUOUS
 62
     7
 66
     1
 10
0.0
 20
0.0
 30
0.0
 70
   128
  0
VERTEX
  5
4DD
  8
0
  6
CONTINUOUS
 62
     7
 10
2.3171463392
 20
3.1214527976
 30
0.0
  0
VERTEX
  5
4DE
  8
0
  6
CONTINUOUS
 62
     7
 10
2.307753336
 20
3.1252826554
 30
0.0
  0
VERTEX
  5
4DF
  8
0
  6
CONTINUOUS
 62
     7
 10
2.2982209051
 20
3.1291741837
 30
0.0
  0
SEQEND
  5
8E4
  8
0
  6
CONTINUOUS
 62
     7
  0
POLYLINE
  5
2C1
  8
0
  6
CONTINUOUS
 62
     7
 66
     1
 10
0.0
 20
0.0
 30
0.0
 70
   128
  0
VERTEX
  5
4E0
  8
0
  6
CONTINUOUS
 62
     7
 10
2.3633723939
 20
3.1665388144
 30
0.0
  0
VERTEX
  5
4E1
  8
0
  6
CONTINUOUS
 62
     7
 10
2.3539408504
 20
3.1703843501
 30
0.0
  0
VERTEX
  5
4E2
  8
0
  6
CONTINUOUS
 62
     7
 10
2.3443623998
 20
3.1742946979
 30
0.0
  0
SEQEND
  5
8E5
  8
0
  6
CONTINUOUS
 62
     7
  0
POLYLINE
  5
2C2
  8
0
  6
CONTINUOUS
 62
     7
 66
     1
 10
0.0
 20
0.0
 30
0.0
 70
   128
  0
VERTEX
  5
4E3
  8
0
  6
CONTINUOUS
 62
     7
 10
2.4094469562
 20
3.2116865786
 30
0.0
  0
VERTEX
  5
4E4
  8
0
  6
CONTINUOUS
 62
     7
 10
2.4000564752
 20
3.2155154022
 30
0.0
  0
VERTEX
  5
4E5
  8
0
  6
CONTINUOUS
 62
     7
 10
2.3905269349
 20
3.2194057596
 30
0.0
  0
SEQEND
  5
8E6
  8
0
  6
CONTINUOUS
 62
     7
  0
POLYLINE
  5
2C3
  8
0
  6
CONTINUOUS
 62
     7
 66
     1
 10
0.0
 20
0.0
 30
0.0
 70
   128
  0
VERTEX
  5
4E6
  8
0
  6
CONTINUOUS
 62
     7
 10
2.4556579861
 20
3.2567787114
 30
0.0
  0
VERTEX
  5
4E7
  8
0
  6
CONTINUOUS
 62
     7
 10
2.4462275834
 20
3.2606237891
 30
0.0
  0
VERTEX
  5
4E8
  8
0
  6
CONTINUOUS
 62
     7
 10
2.4366506171
 20
3.2645335276
 30
0.0
  0
SEQEND
  5
8E7
  8
0
  6
CONTINUOUS
 62
     7
  0
POLYLINE
  5
2C4
  8
0
  6
CONTINUOUS
 62
     7
 66
     1
 10
0.0
 20
0.0
 30
0.0
 70
   128
  0
VERTEX
  5
4E9
  8
0
  6
CONTINUOUS
 62
     7
 10
2.5017455668
 20
3.3019211824
 30
0.0
  0
VERTEX
  5
4EA
  8
0
  6
CONTINUOUS
 62
     7
 10
2.492357308
 20
3.3057490825
 30
0.0
  0
VERTEX
  5
4EB
  8
0
  6
CONTINUOUS
 62
     7
 10
2.4828303195
 20
3.3096384007
 30
0.0
  0
SEQEND
  5
8E8
  8
0
  6
CONTINUOUS
 62
     7
  0
POLYLINE
  5
2C5
  8
0
  6
CONTINUOUS
 62
     7
 66
     1
 10
0.0
 20
0.0
 30
0.0
 70
   128
  0
VERTEX
  5
4EC
  8
0
  6
CONTINUOUS
 62
     7
 10
2.5479477811
 20
3.347016898
 30
0.0
  0
VERTEX
  5
4ED
  8
0
  6
CONTINUOUS
 62
     7
 10
2.5385189325
 20
3.3508613576
 30
0.0
  0
VERTEX
  5
4EE
  8
0
  6
CONTINUOUS
 62
     7
 10
2.528943838
 20
3.3547703246
 30
0.0
  0
SEQEND
  5
8E9
  8
0
  6
CONTINUOUS
 62
     7
  0
POLYLINE
  5
2C6
  8
0
  6
CONTINUOUS
 62
     7
 66
     1
 10
0.0
 20
0.0
 30
0.0
 70
   128
  0
VERTEX
  5
4EF
  8
0
  6
CONTINUOUS
 62
     7
 10
2.5940455825
 20
3.392155201
 30
0.0
  0
VERTEX
  5
4F0
  8
0
  6
CONTINUOUS
 62
     7
 10
2.5846596451
 20
3.3959821665
 30
0.0
  0
VERTEX
  5
4F1
  8
0
  6
CONTINUOUS
 62
     7
 10
2.5751352725
 20
3.3998703992
 30
0.0
  0
SEQEND
  5
8EA
  8
0
  6
CONTINUOUS
 62
     7
  0
LINE
  5
2C7
  8
0
  6
CONTINUOUS
 62
     7
 10
1.9952544676
 20
2.9798169059
 30
0.0
 11
1.9934852636
 21
2.9780871861
 31
0.0
  0
LINE
  5
2C8
  8
0
  6
CONTINUOUS
 62
     7
 10
2.0414022439
 20
3.0249347785
 30
0.0
 11
2.0396330804
 21
3.0232050984
 31
0.0
  0
LINE
  5
2C9
  8
0
  6
CONTINUOUS
 62
     7
 10
2.0875500607
 20
3.0700526909
 30
0.0
 11
2.0857808567
 21
3.0683229711
 31
0.0
  0
LINE
  5
2CA
  8
0
  6
CONTINUOUS
 62
     7
 10
2.1336978776
 20
3.1151706032
 30
0.0
 11
2.1319286939
 21
3.1134409033
 31
0.0
  0
LINE
  5
2CB
  8
0
  6
CONTINUOUS
 62
     7
 10
2.1798456945
 20
3.1602885155
 30
0.0
 11
2.1780764904
 21
3.1585587958
 31
0.0
  0
LINE
  5
2CC
  8
0
  6
CONTINUOUS
 62
     7
 10
2.2259935113
 20
3.2054064279
 30
0.0
 11
2.2242243073
 21
3.2036767081
 31
0.0
  0
LINE
  5
2CD
  8
0
  6
CONTINUOUS
 62
     7
 10
2.272141318
 20
3.2505243303
 30
0.0
 11
2.2703721242
 21
3.2487946204
 31
0.0
  0
LINE
  5
2CE
  8
0
  6
CONTINUOUS
 62
     7
 10
2.3182891349
 20
3.2956422426
 30
0.0
 11
2.3165199309
 21
3.2939125228
 31
0.0
  0
LINE
  5
2CF
  8
0
  6
CONTINUOUS
 62
     7
 10
2.3644369416
 20
3.340760145
 30
0.0
 11
2.3626677427
 21
3.3390304302
 31
0.0
  0
LINE
  5
2D0
  8
0
  6
CONTINUOUS
 62
     7
 10
2.4105847534
 20
3.3858780524
 30
0.0
 11
2.4088155545
 21
3.3841483376
 31
0.0
  0
LINE
  5
2D1
  8
0
  6
CONTINUOUS
 62
     7
 10
2.7324950679
 20
3.0992397748
 30
0.0
 11
2.7342642669
 21
3.1009694896
 31
0.0
  0
LINE
  5
2D2
  8
0
  6
CONTINUOUS
 62
     7
 10
2.6863472593
 20
3.0541218705
 30
0.0
 11
2.6881164532
 21
3.0558515804
 31
0.0
  0
LINE
  5
2D3
  8
0
  6
CONTINUOUS
 62
     7
 10
2.6401994475
 20
3.0090039632
 30
0.0
 11
2.6419686414
 21
3.010733673
 31
0.0
  0
LINE
  5
2D4
  8
0
  6
CONTINUOUS
 62
     7
 10
2.5940516306
 20
2.9638860508
 30
0.0
 11
2.5958208347
 21
2.9656157706
 31
0.0
  0
LINE
  5
2D5
  8
0
  6
CONTINUOUS
 62
     7
 10
2.5479038239
 20
2.9187681484
 30
0.0
 11
2.5496730279
 21
2.9204978682
 31
0.0
  0
LINE
  5
2D6
  8
0
  6
CONTINUOUS
 62
     7
 10
2.5017560071
 20
2.8736502361
 30
0.0
 11
2.5035252111
 21
2.8753799559
 31
0.0
  0
LINE
  5
2D7
  8
0
  6
CONTINUOUS
 62
     7
 10
2.4556081902
 20
2.8285323238
 30
0.0
 11
2.4573773942
 21
2.8302620435
 31
0.0
  0
LINE
  5
2D8
  8
0
  6
CONTINUOUS
 62
     7
 10
2.4094603936
 20
2.7834144313
 30
0.0
 11
2.4112295774
 21
2.7851441312
 31
0.0
  0
LINE
  5
2D9
  8
0
  6
CONTINUOUS
 62
     7
 10
2.3633125971
 20
2.7382965388
 30
0.0
 11
2.3650817605
 21
2.7400262189
 31
0.0
  0
LINE
  5
2DA
  8
0
  6
CONTINUOUS
 62
     7
 10
2.3171647802
 20
2.6931786264
 30
0.0
 11
2.3189339842
 21
2.6949083462
 31
0.0
  0
LINE
  5
2DB
  8
0
  6
CONTINUOUS
 62
     7
 10
2.2430865497
 20
2.6326929634
 30
0.0
 11
2.2491040561
 21
2.6354752283
 31
0.0
  0
LINE
  5
2DC
  8
0
  6
CONTINUOUS
 62
     7
 10
2.8921648449
 20
2.9546639423
 30
0.0
 11
2.9258595441
 21
2.9876066596
 31
0.0
  0
LINE
  5
2DD
  8
0
  6
CONTINUOUS
 62
     7
 10
2.3246483278
 20
3.6025416913
 30
0.0
 11
2.2909536285
 21
3.5695989739
 31
0.0
  0
LINE
  5
2DE
  8
0
  6
CONTINUOUS
 62
     7
 10
3.0394902914
 20
3.4284161879
 30
0.0
 11
3.0356202765
 21
3.4388316944
 31
0.0
  0
ARC
  5
2DF
  8
0
  6
CONTINUOUS
 62
     7
 10
2.0727290071
 20
2.8146025285
 30
0.0
 40
0.1073735465678281
 50
47.5086147437
 51
124.5202231478
  0
POLYLINE
  5
2E0
  8
0
  6
CONTINUOUS
 62
     7
 66
     1
 10
0.0
 20
0.0
 30
0.0
 70
   128
  0
VERTEX
  5
4F2
  8
0
  6
CONTINUOUS
 62
     7
 10
2.2195083152
 20
2.6907033148
 30
0.0
  0
VERTEX
  5
4F3
  8
0
  6
CONTINUOUS
 62
     7
 10
2.2262147398
 20
2.6984951452
 30
0.0
  0
VERTEX
  5
4F4
  8
0
  6
CONTINUOUS
 62
     7
 10
2.2317393126
 20
2.7077266919
 30
0.0
  0
VERTEX
  5
4F5
  8
0
  6
CONTINUOUS
 62
     7
 10
2.2358045532
 20
2.7180794813
 30
0.0
  0
VERTEX
  5
4F6
  8
0
  6
CONTINUOUS
 62
     7
 10
2.2383593461
 20
2.7294233154
 30
0.0
  0
VERTEX
  5
4F7
  8
0
  6
CONTINUOUS
 62
     7
 10
2.2393715557
 20
2.7416155435
 30
0.0
  0
VERTEX
  5
4F8
  8
0
  6
CONTINUOUS
 62
     7
 10
2.2388284542
 20
2.7545028407
 30
0.0
  0
VERTEX
  5
4F9
  8
0
  6
CONTINUOUS
 62
     7
 10
2.2367368675
 20
2.7679231475
 30
0.0
  0
VERTEX
  5
4FA
  8
0
  6
CONTINUOUS
 62
     7
 10
2.2331231051
 20
2.7817076831
 30
0.0
  0
VERTEX
  5
4FB
  8
0
  6
CONTINUOUS
 62
     7
 10
2.2280326132
 20
2.7956831048
 30
0.0
  0
VERTEX
  5
4FC
  8
0
  6
CONTINUOUS
 62
     7
 10
2.2215294055
 20
2.8096736678
 30
0.0
  0
VERTEX
  5
4FD
  8
0
  6
CONTINUOUS
 62
     7
 10
2.2136952587
 20
2.8235034288
 30
0.0
  0
VERTEX
  5
4FE
  8
0
  6
CONTINUOUS
 62
     7
 10
2.2046286998
 20
2.8369984683
 30
0.0
  0
VERTEX
  5
4FF
  8
0
  6
CONTINUOUS
 62
     7
 10
2.194443744
 20
2.8499890825
 30
0.0
  0
VERTEX
  5
500
  8
0
  6
CONTINUOUS
 62
     7
 10
2.1832684661
 20
2.8623119119
 30
0.0
  0
VERTEX
  5
501
  8
0
  6
CONTINUOUS
 62
     7
 10
2.1712434086
 20
2.873811977
 30
0.0
  0
VERTEX
  5
502
  8
0
  6
CONTINUOUS
 62
     7
 10
2.1585197912
 20
2.8843446638
 30
0.0
  0
VERTEX
  5
503
  8
0
  6
CONTINUOUS
 62
     7
 10
2.1452576201
 20
2.8937775169
 30
0.0
  0
SEQEND
  5
8EB
  8
0
  6
CONTINUOUS
 62
     7
  0
POLYLINE
  5
2E1
  8
0
  6
CONTINUOUS
 62
     7
 66
     1
 10
0.0
 20
0.0
 30
0.0
 70
   128
  0
VERTEX
  5
504
  8
0
  6
CONTINUOUS
 62
     7
 10
2.0511913216
 20
2.8018105443
 30
0.0
  0
VERTEX
  5
505
  8
0
  6
CONTINUOUS
 62
     7
 10
2.0375573788
 20
2.8100249458
 30
0.0
  0
VERTEX
  5
506
  8
0
  6
CONTINUOUS
 62
     7
 10
2.0237231179
 20
2.8169175883
 30
0.0
  0
VERTEX
  5
507
  8
0
  6
CONTINUOUS
 62
     7
 10
2.0098625125
 20
2.822401794
 30
0.0
  0
VERTEX
  5
508
  8
0
  6
CONTINUOUS
 62
     7
 10
1.9961498633
 20
2.8264085945
 30
0.0
  0
VERTEX
  5
509
  8
0
  6
CONTINUOUS
 62
     7
 10
1.9827576259
 20
2.828887603
 30
0.0
  0
VERTEX
  5
50A
  8
0
  6
CONTINUOUS
 62
     7
 10
1.9698542082
 20
2.8298076486
 30
0.0
  0
VERTEX
  5
50B
  8
0
  6
CONTINUOUS
 62
     7
 10
1.9576018747
 20
2.8291571607
 30
0.0
  0
VERTEX
  5
50C
  8
0
  6
CONTINUOUS
 62
     7
 10
1.9461547122
 20
2.8269443123
 30
0.0
  0
VERTEX
  5
50D
  8
0
  6
CONTINUOUS
 62
     7
 10
1.935656674
 20
2.8231969392
 30
0.0
  0
VERTEX
  5
50E
  8
0
  6
CONTINUOUS
 62
     7
 10
1.9262397755
 20
2.8179621663
 30
0.0
  0
VERTEX
  5
50F
  8
0
  6
CONTINUOUS
 62
     7
 10
1.9180224373
 20
2.8113058188
 30
0.0
  0
VERTEX
  5
510
  8
0
  6
CONTINUOUS
 62
     7
 10
1.911108008
 20
2.8033116057
 30
0.0
  0
VERTEX
  5
511
  8
0
  6
CONTINUOUS
 62
     7
 10
1.9055834352
 20
2.7940800589
 30
0.0
  0
VERTEX
  5
512
  8
0
  6
CONTINUOUS
 62
     7
 10
1.9015181946
 20
2.7837272696
 30
0.0
  0
VERTEX
  5
513
  8
0
  6
CONTINUOUS
 62
     7
 10
1.8989634017
 20
2.7723834354
 30
0.0
  0
VERTEX
  5
514
  8
0
  6
CONTINUOUS
 62
     7
 10
1.8979511921
 20
2.7601912074
 30
0.0
  0
VERTEX
  5
515
  8
0
  6
CONTINUOUS
 62
     7
 10
1.8984942937
 20
2.7473039102
 30
0.0
  0
VERTEX
  5
516
  8
0
  6
CONTINUOUS
 62
     7
 10
1.9005858803
 20
2.7338836033
 30
0.0
  0
VERTEX
  5
517
  8
0
  6
CONTINUOUS
 62
     7
 10
1.9041996427
 20
2.7200990678
 30
0.0
  0
VERTEX
  5
518
  8
0
  6
CONTINUOUS
 62
     7
 10
1.9092901347
 20
2.7061236461
 30
0.0
  0
VERTEX
  5
519
  8
0
  6
CONTINUOUS
 62
     7
 10
1.9157933424
 20
2.692133083
 30
0.0
  0
VERTEX
  5
51A
  8
0
  6
CONTINUOUS
 62
     7
 10
1.9236274891
 20
2.678303322
 30
0.0
  0
VERTEX
  5
51B
  8
0
  6
CONTINUOUS
 62
     7
 10
1.932694048
 20
2.6648082825
 30
0.0
  0
VERTEX
  5
51C
  8
0
  6
CONTINUOUS
 62
     7
 10
1.9428790038
 20
2.6518176684
 30
0.0
  0
VERTEX
  5
51D
  8
0
  6
CONTINUOUS
 62
     7
 10
1.9540542817
 20
2.639494839
 30
0.0
  0
VERTEX
  5
51E
  8
0
  6
CONTINUOUS
 62
     7
 10
1.9660793392
 20
2.6279947738
 30
0.0
  0
VERTEX
  5
51F
  8
0
  6
CONTINUOUS
 62
     7
 10
1.9788029566
 20
2.6174620871
 30
0.0
  0
VERTEX
  5
520
  8
0
  6
CONTINUOUS
 62
     7
 10
1.9920651277
 20
2.6080292339
 30
0.0
  0
VERTEX
  5
521
  8
0
  6
CONTINUOUS
 62
     7
 10
2.0056990705
 20
2.5998148325
 30
0.0
  0
VERTEX
  5
522
  8
0
  6
CONTINUOUS
 62
     7
 10
2.0195333314
 20
2.5929221899
 30
0.0
  0
VERTEX
  5
523
  8
0
  6
CONTINUOUS
 62
     7
 10
2.0333939368
 20
2.5874379842
 30
0.0
  0
VERTEX
  5
524
  8
0
  6
CONTINUOUS
 62
     7
 10
2.047106586
 20
2.5834311837
 30
0.0
  0
VERTEX
  5
525
  8
0
  6
CONTINUOUS
 62
     7
 10
2.0604988235
 20
2.5809521752
 30
0.0
  0
VERTEX
  5
526
  8
0
  6
CONTINUOUS
 62
     7
 10
2.0734022411
 20
2.5800321297
 30
0.0
  0
VERTEX
  5
527
  8
0
  6
CONTINUOUS
 62
     7
 10
2.0856545746
 20
2.5806826176
 30
0.0
  0
VERTEX
  5
528
  8
0
  6
CONTINUOUS
 62
     7
 10
2.0971017371
 20
2.5828954659
 30
0.0
  0
VERTEX
  5
529
  8
0
  6
CONTINUOUS
 62
     7
 10
2.1075997753
 20
2.5866428391
 30
0.0
  0
VERTEX
  5
52A
  8
0
  6
CONTINUOUS
 62
     7
 10
2.1170166738
 20
2.5918776119
 30
0.0
  0
VERTEX
  5
52B
  8
0
  6
CONTINUOUS
 62
     7
 10
2.125234012
 20
2.5985339594
 30
0.0
  0
VERTEX
  5
52C
  8
0
  6
CONTINUOUS
 62
     7
 10
2.1321484413
 20
2.6065281726
 30
0.0
  0
VERTEX
  5
52D
  8
0
  6
CONTINUOUS
 62
     7
 10
2.1376730141
 20
2.6157597193
 30
0.0
  0
VERTEX
  5
52E
  8
0
  6
CONTINUOUS
 62
     7
 10
2.1417382547
 20
2.6261125086
 30
0.0
  0
VERTEX
  5
52F
  8
0
  6
CONTINUOUS
 62
     7
 10
2.1442930476
 20
2.6374563428
 30
0.0
  0
VERTEX
  5
530
  8
0
  6
CONTINUOUS
 62
     7
 10
2.1453052572
 20
2.6496485708
 30
0.0
  0
VERTEX
  5
531
  8
0
  6
CONTINUOUS
 62
     7
 10
2.1447621557
 20
2.662535868
 30
0.0
  0
VERTEX
  5
532
  8
0
  6
CONTINUOUS
 62
     7
 10
2.142670569
 20
2.6759561749
 30
0.0
  0
VERTEX
  5
533
  8
0
  6
CONTINUOUS
 62
     7
 10
2.1390568066
 20
2.6897407105
 30
0.0
  0
VERTEX
  5
534
  8
0
  6
CONTINUOUS
 62
     7
 10
2.1339663147
 20
2.7037161322
 30
0.0
  0
VERTEX
  5
535
  8
0
  6
CONTINUOUS
 62
     7
 10
2.1274631069
 20
2.7177066952
 30
0.0
  0
VERTEX
  5
536
  8
0
  6
CONTINUOUS
 62
     7
 10
2.1196289602
 20
2.7315364562
 30
0.0
  0
VERTEX
  5
537
  8
0
  6
CONTINUOUS
 62
     7
 10
2.1105624013
 20
2.7450314957
 30
0.0
  0
VERTEX
  5
538
  8
0
  6
CONTINUOUS
 62
     7
 10
2.1003774455
 20
2.7580221099
 30
0.0
  0
VERTEX
  5
539
  8
0
  6
CONTINUOUS
 62
     7
 10
2.0892021676
 20
2.7703449393
 30
0.0
  0
VERTEX
  5
53A
  8
0
  6
CONTINUOUS
 62
     7
 10
2.0771771101
 20
2.7818450044
 30
0.0
  0
VERTEX
  5
53B
  8
0
  6
CONTINUOUS
 62
     7
 10
2.0644534927
 20
2.7923776911
 30
0.0
  0
VERTEX
  5
53C
  8
0
  6
CONTINUOUS
 62
     7
 10
2.0511913216
 20
2.8018105443
 30
0.0
  0
SEQEND
  5
8EC
  8
0
  6
CONTINUOUS
 62
     7
  0
ARC
  5
2E2
  8
0
  6
CONTINUOUS
 62
     7
 10
2.5190630257
 20
3.3079606208
 30
0.0
 40
0.1160385997725634
 50
69.6561823573
 51
112.275936044
  0
ARC
  5
2E3
  8
0
  6
CONTINUOUS
 62
     7
 10
2.4884091292
 20
3.1830510891
 30
0.0
 40
0.2442242459491819
 50
44.7385495152
 51
63.9753724091
  0
LINE
  5
2E4
  8
0
  6
CONTINUOUS
 62
     7
 10
2.6772511633
 20
3.3387178469
 30
0.0
 11
2.6873573753
 21
3.3272265787
 31
0.0
  0
ARC
  5
2E5
  8
0
  6
CONTINUOUS
 62
     7
 10
2.0355363712
 20
2.6986634564
 30
0.0
 40
0.2607036741335103
 50
22.305119672
 51
68.1589813677
  0
ARC
  5
2E6
  8
0
  6
CONTINUOUS
 62
     7
 10
2.0816685866
 20
2.7437732521
 30
0.0
 40
0.2607196051816572
 50
22.2969482026
 51
68.1319576614
  0
ARC
  5
2E7
  8
0
  6
CONTINUOUS
 62
     7
 10
2.1277873111
 20
2.7888381843
 30
0.0
 40
0.2607770430615038
 50
22.3614501253
 51
68.1543568837
  0
ARC
  5
2E8
  8
0
  6
CONTINUOUS
 62
     7
 10
2.1739285102
 20
2.833958
 30
0.0
 40
0.2607798909296992
 50
22.3468820895
 51
68.132419203
  0
ARC
  5
2E9
  8
0
  6
CONTINUOUS
 62
     7
 10
2.2201238549
 20
2.8791302919
 30
0.0
 40
0.2607095964879153
 50
22.3092477576
 51
68.158020615
  0
ARC
  5
2EA
  8
0
  6
CONTINUOUS
 62
     7
 10
2.2662719385
 20
2.9242581837
 30
0.0
 40
0.2607021068578037
 50
22.2883620149
 51
68.13904619
  0
ARC
  5
2EB
  8
0
  6
CONTINUOUS
 62
     7
 10
2.3123836963
 20
2.9693175643
 30
0.0
 40
0.2607680779083846
 50
22.3536311122
 51
68.1535123678
  0
ARC
  5
2EC
  8
0
  6
CONTINUOUS
 62
     7
 10
2.3585054263
 20
3.0144075326
 30
0.0
 40
0.2608052593513598
 50
22.3699925033
 51
68.1357959772
  0
ARC
  5
2ED
  8
0
  6
CONTINUOUS
 62
     7
 10
2.4047146014
 20
3.0596021908
 30
0.0
 40
0.260709716602864
 50
22.307872154
 51
68.156011767
  0
ARC
  5
2EE
  8
0
  6
CONTINUOUS
 62
     7
 10
2.4508625086
 20
3.1047269904
 30
0.0
 40
0.2607046046817867
 50
22.2933074696
 51
68.142845766
  0
ARC
  5
2EF
  8
0
  6
CONTINUOUS
 62
     7
 10
2.5072818289
 20
3.1708617269
 30
0.0
 40
0.2373798640228503
 50
47.9466703774
 51
68.5679962844
  0
LINE
  5
2F0
  8
0
  6
CONTINUOUS
 62
     7
 10
2.6747154608
 20
3.339276506
 30
0.0
 11
2.6873573753
 21
3.3272265787
 31
0.0
  0
ARC
  5
2F1
  8
0
  6
CONTINUOUS
 62
     7
 10
2.1939086153
 20
2.7307217732
 30
0.0
 40
0.1058811326678784
 50
250.4112205459
 51
319.5066138435
  0
ARC
  5
2F2
  8
0
  6
CONTINUOUS
 62
     7
 10
2.0487675354
 20
2.860627647
 30
0.0
 40
0.0865205446177714
 50
153.6031489078
 51
183.9016544996
  0
ARC
  5
2F3
  8
0
  6
CONTINUOUS
 62
     7
 10
2.2090362328
 20
2.7004788288
 30
0.0
 40
0.0758908314454114
 50
259.9550956484
 51
329.5047770799
  0
POLYLINE
  5
2F4
  8
0
  6
CONTINUOUS
 62
     7
 66
     1
 10
0.0
 20
0.0
 30
0.0
 70
   128
  0
VERTEX
  5
53D
  8
0
  6
CONTINUOUS
 62
     7
 10
1.9608605335
 20
2.8809005033
 30
0.0
  0
VERTEX
  5
53E
  8
0
  6
CONTINUOUS
 62
     7
 10
1.960526571
 20
2.8838405959
 30
0.0
  0
VERTEX
  5
53F
  8
0
  6
CONTINUOUS
 62
     7
 10
1.9617573732
 20
2.9108109402
 30
0.0
  0
VERTEX
  5
540
  8
0
  6
CONTINUOUS
 62
     7
 10
1.9675845534
 20
2.9358564493
 30
0.0
  0
VERTEX
  5
541
  8
0
  6
CONTINUOUS
 62
     7
 10
1.9778722533
 20
2.9579753594
 30
0.0
  0
VERTEX
  5
542
  8
0
  6
CONTINUOUS
 62
     7
 10
1.9921473584
 20
2.9763869901
 30
0.0
  0
VERTEX
  5
543
  8
0
  6
CONTINUOUS
 62
     7
 10
2.0096676493
 20
2.9906205001
 30
0.0
  0
VERTEX
  5
544
  8
0
  6
CONTINUOUS
 62
     7
 10
2.0299524288
 20
3.0007237484
 30
0.0
  0
VERTEX
  5
545
  8
0
  6
CONTINUOUS
 62
     7
 10
2.0536553377
 20
3.0070057614
 30
0.0
  0
VERTEX
  5
546
  8
0
  6
CONTINUOUS
 62
     7
 10
2.0802465668
 20
3.0089711398
 30
0.0
  0
VERTEX
  5
547
  8
0
  6
CONTINUOUS
 62
     7
 10
2.1088265066
 20
3.0063486759
 30
0.0
  0
VERTEX
  5
548
  8
0
  6
CONTINUOUS
 62
     7
 10
2.1383123685
 20
2.9992095662
 30
0.0
  0
VERTEX
  5
549
  8
0
  6
CONTINUOUS
 62
     7
 10
2.1675715682
 20
2.987962153
 30
0.0
  0
VERTEX
  5
54A
  8
0
  6
CONTINUOUS
 62
     7
 10
2.1955607841
 20
2.973285802
 30
0.0
  0
VERTEX
  5
54B
  8
0
  6
CONTINUOUS
 62
     7
 10
2.222554045
 20
2.9553453821
 30
0.0
  0
VERTEX
  5
54C
  8
0
  6
CONTINUOUS
 62
     7
 10
2.2487322403
 20
2.9340001333
 30
0.0
  0
VERTEX
  5
54D
  8
0
  6
CONTINUOUS
 62
     7
 10
2.2730231814
 20
2.9098350918
 30
0.0
  0
VERTEX
  5
54E
  8
0
  6
CONTINUOUS
 62
     7
 10
2.2944270579
 20
2.8836936617
 30
0.0
  0
VERTEX
  5
54F
  8
0
  6
CONTINUOUS
 62
     7
 10
2.3121469712
 20
2.8565840212
 30
0.0
  0
VERTEX
  5
550
  8
0
  6
CONTINUOUS
 62
     7
 10
2.3256854159
 20
2.8295529197
 30
0.0
  0
VERTEX
  5
551
  8
0
  6
CONTINUOUS
 62
     7
 10
2.3349242802
 20
2.8034539825
 30
0.0
  0
VERTEX
  5
552
  8
0
  6
CONTINUOUS
 62
     7
 10
2.3402723163
 20
2.7777939135
 30
0.0
  0
VERTEX
  5
553
  8
0
  6
CONTINUOUS
 62
     7
 10
2.3414058631
 20
2.7531351518
 30
0.0
  0
VERTEX
  5
554
  8
0
  6
CONTINUOUS
 62
     7
 10
2.3380357912
 20
2.7304919144
 30
0.0
  0
VERTEX
  5
555
  8
0
  6
CONTINUOUS
 62
     7
 10
2.3302052807
 20
2.7107753555
 30
0.0
  0
VERTEX
  5
556
  8
0
  6
CONTINUOUS
 62
     7
 10
2.3182945246
 20
2.6946753073
 30
0.0
  0
VERTEX
  5
557
  8
0
  6
CONTINUOUS
 62
     7
 10
2.3029641416
 20
2.6825828319
 30
0.0
  0
VERTEX
  5
558
  8
0
  6
CONTINUOUS
 62
     7
 10
2.2876010168
 20
2.6757665204
 30
0.0
  0
SEQEND
  5
8ED
  8
0
  6
CONTINUOUS
 62
     7
  0
POLYLINE
  5
2F5
  8
0
  6
CONTINUOUS
 62
     7
 66
     1
 10
0.0
 20
0.0
 30
0.0
 70
   128
  0
VERTEX
  5
559
  8
0
  6
CONTINUOUS
 62
     7
 10
2.0214791938
 20
2.9976302697
 30
0.0
  0
VERTEX
  5
55A
  8
0
  6
CONTINUOUS
 62
     7
 10
2.0240200702
 20
3.0030932717
 30
0.0
  0
VERTEX
  5
55B
  8
0
  6
CONTINUOUS
 62
     7
 10
2.0382951753
 20
3.0215049025
 30
0.0
  0
VERTEX
  5
55C
  8
0
  6
CONTINUOUS
 62
     7
 10
2.0558154256
 20
3.0357383727
 30
0.0
  0
VERTEX
  5
55D
  8
0
  6
CONTINUOUS
 62
     7
 10
2.0761002456
 20
3.0458416608
 30
0.0
  0
VERTEX
  5
55E
  8
0
  6
CONTINUOUS
 62
     7
 10
2.0998031139
 20
3.0521236341
 30
0.0
  0
VERTEX
  5
55F
  8
0
  6
CONTINUOUS
 62
     7
 10
2.1263943837
 20
3.0540890522
 30
0.0
  0
VERTEX
  5
560
  8
0
  6
CONTINUOUS
 62
     7
 10
2.1549743235
 20
3.0514665882
 30
0.0
  0
VERTEX
  5
561
  8
0
  6
CONTINUOUS
 62
     7
 10
2.1844601853
 20
3.0443274785
 30
0.0
  0
VERTEX
  5
562
  8
0
  6
CONTINUOUS
 62
     7
 10
2.2137193851
 20
3.0330800654
 30
0.0
  0
VERTEX
  5
563
  8
0
  6
CONTINUOUS
 62
     7
 10
2.241708601
 20
3.0184037143
 30
0.0
  0
VERTEX
  5
564
  8
0
  6
CONTINUOUS
 62
     7
 10
2.2687018618
 20
3.0004632945
 30
0.0
  0
VERTEX
  5
565
  8
0
  6
CONTINUOUS
 62
     7
 10
2.2948800571
 20
2.9791180457
 30
0.0
  0
VERTEX
  5
566
  8
0
  6
CONTINUOUS
 62
     7
 10
2.3191709983
 20
2.9549530042
 30
0.0
  0
VERTEX
  5
567
  8
0
  6
CONTINUOUS
 62
     7
 10
2.3405748747
 20
2.9288115741
 30
0.0
  0
VERTEX
  5
568
  8
0
  6
CONTINUOUS
 62
     7
 10
2.3582947881
 20
2.9017019336
 30
0.0
  0
VERTEX
  5
569
  8
0
  6
CONTINUOUS
 62
     7
 10
2.3718332328
 20
2.874670832
 30
0.0
  0
VERTEX
  5
56A
  8
0
  6
CONTINUOUS
 62
     7
 10
2.381072097
 20
2.8485718949
 30
0.0
  0
VERTEX
  5
56B
  8
0
  6
CONTINUOUS
 62
     7
 10
2.3864201331
 20
2.8229118258
 30
0.0
  0
VERTEX
  5
56C
  8
0
  6
CONTINUOUS
 62
     7
 10
2.3875536394
 20
2.7982530244
 30
0.0
  0
VERTEX
  5
56D
  8
0
  6
CONTINUOUS
 62
     7
 10
2.384183608
 20
2.7756098267
 30
0.0
  0
VERTEX
  5
56E
  8
0
  6
CONTINUOUS
 62
     7
 10
2.3763530976
 20
2.7558932678
 30
0.0
  0
VERTEX
  5
56F
  8
0
  6
CONTINUOUS
 62
     7
 10
2.3644423415
 20
2.7397932196
 30
0.0
  0
VERTEX
  5
570
  8
0
  6
CONTINUOUS
 62
     7
 10
2.3491119584
 20
2.7277007442
 30
0.0
  0
VERTEX
  5
571
  8
0
  6
CONTINUOUS
 62
     7
 10
2.3359524536
 20
2.7218621348
 30
0.0
  0
SEQEND
  5
8EE
  8
0
  6
CONTINUOUS
 62
     7
  0
POLYLINE
  5
2F6
  8
0
  6
CONTINUOUS
 62
     7
 66
     1
 10
0.0
 20
0.0
 30
0.0
 70
   128
  0
VERTEX
  5
572
  8
0
  6
CONTINUOUS
 62
     7
 10
2.0676270107
 20
3.042748182
 30
0.0
  0
VERTEX
  5
573
  8
0
  6
CONTINUOUS
 62
     7
 10
2.0701678871
 20
3.048211184
 30
0.0
  0
VERTEX
  5
574
  8
0
  6
CONTINUOUS
 62
     7
 10
2.0844429921
 20
3.0666228148
 30
0.0
  0
VERTEX
  5
575
  8
0
  6
CONTINUOUS
 62
     7
 10
2.1019632424
 20
3.080856285
 30
0.0
  0
VERTEX
  5
576
  8
0
  6
CONTINUOUS
 62
     7
 10
2.1222480625
 20
3.0909595731
 30
0.0
  0
VERTEX
  5
577
  8
0
  6
CONTINUOUS
 62
     7
 10
2.1459509308
 20
3.0972415464
 30
0.0
  0
VERTEX
  5
578
  8
0
  6
CONTINUOUS
 62
     7
 10
2.17254216
 20
3.0992069248
 30
0.0
  0
VERTEX
  5
579
  8
0
  6
CONTINUOUS
 62
     7
 10
2.2011220997
 20
3.0965844609
 30
0.0
  0
VERTEX
  5
57A
  8
0
  6
CONTINUOUS
 62
     7
 10
2.2306080022
 20
3.0894453908
 30
0.0
  0
VERTEX
  5
57B
  8
0
  6
CONTINUOUS
 62
     7
 10
2.2598672019
 20
3.0781979777
 30
0.0
  0
VERTEX
  5
57C
  8
0
  6
CONTINUOUS
 62
     7
 10
2.2878564178
 20
3.0635216266
 30
0.0
  0
VERTEX
  5
57D
  8
0
  6
CONTINUOUS
 62
     7
 10
2.3148496787
 20
3.0455812068
 30
0.0
  0
VERTEX
  5
57E
  8
0
  6
CONTINUOUS
 62
     7
 10
2.341027874
 20
3.024235958
 30
0.0
  0
VERTEX
  5
57F
  8
0
  6
CONTINUOUS
 62
     7
 10
2.3653188151
 20
3.0000709165
 30
0.0
  0
VERTEX
  5
580
  8
0
  6
CONTINUOUS
 62
     7
 10
2.3867226916
 20
2.9739294864
 30
0.0
  0
VERTEX
  5
581
  8
0
  6
CONTINUOUS
 62
     7
 10
2.4044426049
 20
2.9468198459
 30
0.0
  0
VERTEX
  5
582
  8
0
  6
CONTINUOUS
 62
     7
 10
2.4179810496
 20
2.9197887443
 30
0.0
  0
VERTEX
  5
583
  8
0
  6
CONTINUOUS
 62
     7
 10
2.4272199139
 20
2.8936898072
 30
0.0
  0
VERTEX
  5
584
  8
0
  6
CONTINUOUS
 62
     7
 10
2.43256795
 20
2.8680297382
 30
0.0
  0
VERTEX
  5
585
  8
0
  6
CONTINUOUS
 62
     7
 10
2.4337014765
 20
2.8433709566
 30
0.0
  0
VERTEX
  5
586
  8
0
  6
CONTINUOUS
 62
     7
 10
2.4303314249
 20
2.820727739
 30
0.0
  0
VERTEX
  5
587
  8
0
  6
CONTINUOUS
 62
     7
 10
2.4225009144
 20
2.8010111801
 30
0.0
  0
VERTEX
  5
588
  8
0
  6
CONTINUOUS
 62
     7
 10
2.4105901381
 20
2.7849111121
 30
0.0
  0
VERTEX
  5
589
  8
0
  6
CONTINUOUS
 62
     7
 10
2.3952597753
 20
2.7728186566
 30
0.0
  0
VERTEX
  5
58A
  8
0
  6
CONTINUOUS
 62
     7
 10
2.3821002502
 20
2.7669800273
 30
0.0
  0
SEQEND
  5
8EF
  8
0
  6
CONTINUOUS
 62
     7
  0
POLYLINE
  5
2F7
  8
0
  6
CONTINUOUS
 62
     7
 66
     1
 10
0.0
 20
0.0
 30
0.0
 70
   128
  0
VERTEX
  5
58B
  8
0
  6
CONTINUOUS
 62
     7
 10
2.1137748275
 20
3.0878660943
 30
0.0
  0
VERTEX
  5
58C
  8
0
  6
CONTINUOUS
 62
     7
 10
2.1163157039
 20
3.0933290964
 30
0.0
  0
VERTEX
  5
58D
  8
0
  6
CONTINUOUS
 62
     7
 10
2.1305907887
 20
3.1117407073
 30
0.0
  0
VERTEX
  5
58E
  8
0
  6
CONTINUOUS
 62
     7
 10
2.1481110593
 20
3.1259741974
 30
0.0
  0
VERTEX
  5
58F
  8
0
  6
CONTINUOUS
 62
     7
 10
2.1683958794
 20
3.1360774854
 30
0.0
  0
VERTEX
  5
590
  8
0
  6
CONTINUOUS
 62
     7
 10
2.1920987477
 20
3.1423594588
 30
0.0
  0
VERTEX
  5
591
  8
0
  6
CONTINUOUS
 62
     7
 10
2.2186899971
 20
3.144324857
 30
0.0
  0
VERTEX
  5
592
  8
0
  6
CONTINUOUS
 62
     7
 10
2.2472699369
 20
3.141702393
 30
0.0
  0
VERTEX
  5
593
  8
0
  6
CONTINUOUS
 62
     7
 10
2.2767557987
 20
3.1345632833
 30
0.0
  0
VERTEX
  5
594
  8
0
  6
CONTINUOUS
 62
     7
 10
2.3060150188
 20
3.12331589
 30
0.0
  0
VERTEX
  5
595
  8
0
  6
CONTINUOUS
 62
     7
 10
2.3340042144
 20
3.1086395191
 30
0.0
  0
VERTEX
  5
596
  8
0
  6
CONTINUOUS
 62
     7
 10
2.3609974955
 20
3.0906991191
 30
0.0
  0
VERTEX
  5
597
  8
0
  6
CONTINUOUS
 62
     7
 10
2.3871756706
 20
3.0693538505
 30
0.0
  0
VERTEX
  5
598
  8
0
  6
CONTINUOUS
 62
     7
 10
2.411466632
 20
3.0451888288
 30
0.0
  0
VERTEX
  5
599
  8
0
  6
CONTINUOUS
 62
     7
 10
2.4328705085
 20
3.0190473987
 30
0.0
  0
VERTEX
  5
59A
  8
0
  6
CONTINUOUS
 62
     7
 10
2.4505904218
 20
2.9919377582
 30
0.0
  0
VERTEX
  5
59B
  8
0
  6
CONTINUOUS
 62
     7
 10
2.4641288665
 20
2.9649066567
 30
0.0
  0
VERTEX
  5
59C
  8
0
  6
CONTINUOUS
 62
     7
 10
2.4733677308
 20
2.9388077195
 30
0.0
  0
VERTEX
  5
59D
  8
0
  6
CONTINUOUS
 62
     7
 10
2.4787157466
 20
2.9131476306
 30
0.0
  0
VERTEX
  5
59E
  8
0
  6
CONTINUOUS
 62
     7
 10
2.4798492731
 20
2.8884888491
 30
0.0
  0
VERTEX
  5
59F
  8
0
  6
CONTINUOUS
 62
     7
 10
2.4764792418
 20
2.8658456514
 30
0.0
  0
VERTEX
  5
5A0
  8
0
  6
CONTINUOUS
 62
     7
 10
2.4686487313
 20
2.8461290925
 30
0.0
  0
VERTEX
  5
5A1
  8
0
  6
CONTINUOUS
 62
     7
 10
2.4567379549
 20
2.8300290244
 30
0.0
  0
VERTEX
  5
5A2
  8
0
  6
CONTINUOUS
 62
     7
 10
2.4414075922
 20
2.8179365689
 30
0.0
  0
VERTEX
  5
5A3
  8
0
  6
CONTINUOUS
 62
     7
 10
2.428248067
 20
2.8120979397
 30
0.0
  0
SEQEND
  5
8F0
  8
0
  6
CONTINUOUS
 62
     7
  0
POLYLINE
  5
2F8
  8
0
  6
CONTINUOUS
 62
     7
 66
     1
 10
0.0
 20
0.0
 30
0.0
 70
   128
  0
VERTEX
  5
5A4
  8
0
  6
CONTINUOUS
 62
     7
 10
2.1599226241
 20
3.1329839868
 30
0.0
  0
VERTEX
  5
5A5
  8
0
  6
CONTINUOUS
 62
     7
 10
2.1624635208
 20
3.1384470087
 30
0.0
  0
VERTEX
  5
5A6
  8
0
  6
CONTINUOUS
 62
     7
 10
2.1767386055
 20
3.1568586196
 30
0.0
  0
VERTEX
  5
5A7
  8
0
  6
CONTINUOUS
 62
     7
 10
2.1942588762
 20
3.1710921097
 30
0.0
  0
VERTEX
  5
5A8
  8
0
  6
CONTINUOUS
 62
     7
 10
2.2145436962
 20
3.1811953978
 30
0.0
  0
VERTEX
  5
5A9
  8
0
  6
CONTINUOUS
 62
     7
 10
2.2382465645
 20
3.1874773711
 30
0.0
  0
VERTEX
  5
5AA
  8
0
  6
CONTINUOUS
 62
     7
 10
2.2648377937
 20
3.1894427495
 30
0.0
  0
VERTEX
  5
5AB
  8
0
  6
CONTINUOUS
 62
     7
 10
2.2934177335
 20
3.1868202855
 30
0.0
  0
VERTEX
  5
5AC
  8
0
  6
CONTINUOUS
 62
     7
 10
2.3229036156
 20
3.1796811957
 30
0.0
  0
VERTEX
  5
5AD
  8
0
  6
CONTINUOUS
 62
     7
 10
2.3521628356
 20
3.1684338024
 30
0.0
  0
VERTEX
  5
5AE
  8
0
  6
CONTINUOUS
 62
     7
 10
2.3801520313
 20
3.1537574315
 30
0.0
  0
VERTEX
  5
5AF
  8
0
  6
CONTINUOUS
 62
     7
 10
2.4071453124
 20
3.1358170315
 30
0.0
  0
VERTEX
  5
5B0
  8
0
  6
CONTINUOUS
 62
     7
 10
2.4333234874
 20
3.1144717628
 30
0.0
  0
VERTEX
  5
5B1
  8
0
  6
CONTINUOUS
 62
     7
 10
2.4576144286
 20
3.0903067213
 30
0.0
  0
VERTEX
  5
5B2
  8
0
  6
CONTINUOUS
 62
     7
 10
2.479018305
 20
3.0641652912
 30
0.0
  0
VERTEX
  5
5B3
  8
0
  6
CONTINUOUS
 62
     7
 10
2.4967382386
 20
3.0370556705
 30
0.0
  0
VERTEX
  5
5B4
  8
0
  6
CONTINUOUS
 62
     7
 10
2.5102766834
 20
3.010024569
 30
0.0
  0
VERTEX
  5
5B5
  8
0
  6
CONTINUOUS
 62
     7
 10
2.5195155476
 20
2.9839256319
 30
0.0
  0
VERTEX
  5
5B6
  8
0
  6
CONTINUOUS
 62
     7
 10
2.5248635634
 20
2.958265543
 30
0.0
  0
VERTEX
  5
5B7
  8
0
  6
CONTINUOUS
 62
     7
 10
2.5259970899
 20
2.9336067614
 30
0.0
  0
VERTEX
  5
5B8
  8
0
  6
CONTINUOUS
 62
     7
 10
2.5226270586
 20
2.9109635637
 30
0.0
  0
VERTEX
  5
5B9
  8
0
  6
CONTINUOUS
 62
     7
 10
2.5147965279
 20
2.891246985
 30
0.0
  0
VERTEX
  5
5BA
  8
0
  6
CONTINUOUS
 62
     7
 10
2.5028857718
 20
2.8751469368
 30
0.0
  0
VERTEX
  5
5BB
  8
0
  6
CONTINUOUS
 62
     7
 10
2.487555409
 20
2.8630544812
 30
0.0
  0
VERTEX
  5
5BC
  8
0
  6
CONTINUOUS
 62
     7
 10
2.4743958636
 20
2.8572158322
 30
0.0
  0
SEQEND
  5
8F1
  8
0
  6
CONTINUOUS
 62
     7
  0
POLYLINE
  5
2F9
  8
0
  6
CONTINUOUS
 62
     7
 66
     1
 10
0.0
 20
0.0
 30
0.0
 70
   128
  0
VERTEX
  5
5BD
  8
0
  6
CONTINUOUS
 62
     7
 10
2.206070441
 20
3.1781018992
 30
0.0
  0
VERTEX
  5
5BE
  8
0
  6
CONTINUOUS
 62
     7
 10
2.2086113174
 20
3.1835649012
 30
0.0
  0
VERTEX
  5
5BF
  8
0
  6
CONTINUOUS
 62
     7
 10
2.2228864021
 20
3.2019765121
 30
0.0
  0
VERTEX
  5
5C0
  8
0
  6
CONTINUOUS
 62
     7
 10
2.240406693
 20
3.216210022
 30
0.0
  0
VERTEX
  5
5C1
  8
0
  6
CONTINUOUS
 62
     7
 10
2.2606915131
 20
3.2263133101
 30
0.0
  0
VERTEX
  5
5C2
  8
0
  6
CONTINUOUS
 62
     7
 10
2.2843943814
 20
3.2325952834
 30
0.0
  0
VERTEX
  5
5C3
  8
0
  6
CONTINUOUS
 62
     7
 10
2.3109856105
 20
3.2345606618
 30
0.0
  0
VERTEX
  5
5C4
  8
0
  6
CONTINUOUS
 62
     7
 10
2.3395655503
 20
3.2319381978
 30
0.0
  0
VERTEX
  5
5C5
  8
0
  6
CONTINUOUS
 62
     7
 10
2.3690514325
 20
3.224799108
 30
0.0
  0
VERTEX
  5
5C6
  8
0
  6
CONTINUOUS
 62
     7
 10
2.3983106525
 20
3.2135517147
 30
0.0
  0
VERTEX
  5
5C7
  8
0
  6
CONTINUOUS
 62
     7
 10
2.4262998481
 20
3.1988753438
 30
0.0
  0
VERTEX
  5
5C8
  8
0
  6
CONTINUOUS
 62
     7
 10
2.4532931293
 20
3.1809349438
 30
0.0
  0
VERTEX
  5
5C9
  8
0
  6
CONTINUOUS
 62
     7
 10
2.4794713043
 20
3.1595896752
 30
0.0
  0
VERTEX
  5
5CA
  8
0
  6
CONTINUOUS
 62
     7
 10
2.5037622454
 20
3.1354246337
 30
0.0
  0
VERTEX
  5
5CB
  8
0
  6
CONTINUOUS
 62
     7
 10
2.5251661219
 20
3.1092832036
 30
0.0
  0
VERTEX
  5
5CC
  8
0
  6
CONTINUOUS
 62
     7
 10
2.5428860352
 20
3.082173563
 30
0.0
  0
VERTEX
  5
5CD
  8
0
  6
CONTINUOUS
 62
     7
 10
2.5564245002
 20
3.0551424813
 30
0.0
  0
VERTEX
  5
5CE
  8
0
  6
CONTINUOUS
 62
     7
 10
2.5656633442
 20
3.0290435244
 30
0.0
  0
VERTEX
  5
5CF
  8
0
  6
CONTINUOUS
 62
     7
 10
2.5710113803
 20
3.0033834553
 30
0.0
  0
VERTEX
  5
5D0
  8
0
  6
CONTINUOUS
 62
     7
 10
2.5721449068
 20
2.9787246738
 30
0.0
  0
VERTEX
  5
5D1
  8
0
  6
CONTINUOUS
 62
     7
 10
2.5687748755
 20
2.956081476
 30
0.0
  0
VERTEX
  5
5D2
  8
0
  6
CONTINUOUS
 62
     7
 10
2.5609443447
 20
2.9363648973
 30
0.0
  0
VERTEX
  5
5D3
  8
0
  6
CONTINUOUS
 62
     7
 10
2.5490335684
 20
2.9202648293
 30
0.0
  0
VERTEX
  5
5D4
  8
0
  6
CONTINUOUS
 62
     7
 10
2.5337032259
 20
2.9081723936
 30
0.0
  0
VERTEX
  5
5D5
  8
0
  6
CONTINUOUS
 62
     7
 10
2.5205436805
 20
2.9023337445
 30
0.0
  0
SEQEND
  5
8F2
  8
0
  6
CONTINUOUS
 62
     7
  0
POLYLINE
  5
2FA
  8
0
  6
CONTINUOUS
 62
     7
 66
     1
 10
0.0
 20
0.0
 30
0.0
 70
   128
  0
VERTEX
  5
5D6
  8
0
  6
CONTINUOUS
 62
     7
 10
2.2522182578
 20
3.2232198115
 30
0.0
  0
VERTEX
  5
5D7
  8
0
  6
CONTINUOUS
 62
     7
 10
2.2547591342
 20
3.2286828135
 30
0.0
  0
VERTEX
  5
5D8
  8
0
  6
CONTINUOUS
 62
     7
 10
2.269034219
 20
3.2470944245
 30
0.0
  0
VERTEX
  5
5D9
  8
0
  6
CONTINUOUS
 62
     7
 10
2.2865544997
 20
3.2613279245
 30
0.0
  0
VERTEX
  5
5DA
  8
0
  6
CONTINUOUS
 62
     7
 10
2.3068393198
 20
3.2714312125
 30
0.0
  0
VERTEX
  5
5DB
  8
0
  6
CONTINUOUS
 62
     7
 10
2.3305421881
 20
3.2777131858
 30
0.0
  0
VERTEX
  5
5DC
  8
0
  6
CONTINUOUS
 62
     7
 10
2.3571334173
 20
3.2796785642
 30
0.0
  0
VERTEX
  5
5DD
  8
0
  6
CONTINUOUS
 62
     7
 10
2.385713357
 20
3.2770561003
 30
0.0
  0
VERTEX
  5
5DE
  8
0
  6
CONTINUOUS
 62
     7
 10
2.4151992392
 20
3.2699170104
 30
0.0
  0
VERTEX
  5
5DF
  8
0
  6
CONTINUOUS
 62
     7
 10
2.4444584592
 20
3.2586696171
 30
0.0
  0
VERTEX
  5
5E0
  8
0
  6
CONTINUOUS
 62
     7
 10
2.4724476548
 20
3.2439932462
 30
0.0
  0
VERTEX
  5
5E1
  8
0
  6
CONTINUOUS
 62
     7
 10
2.499440936
 20
3.2260528462
 30
0.0
  0
VERTEX
  5
5E2
  8
0
  6
CONTINUOUS
 62
     7
 10
2.5256191009
 20
3.2047075676
 30
0.0
  0
VERTEX
  5
5E3
  8
0
  6
CONTINUOUS
 62
     7
 10
2.5499100623
 20
3.180542546
 30
0.0
  0
VERTEX
  5
5E4
  8
0
  6
CONTINUOUS
 62
     7
 10
2.5713139388
 20
3.1544011159
 30
0.0
  0
VERTEX
  5
5E5
  8
0
  6
CONTINUOUS
 62
     7
 10
2.5890338521
 20
3.1272914754
 30
0.0
  0
VERTEX
  5
5E6
  8
0
  6
CONTINUOUS
 62
     7
 10
2.6025722968
 20
3.1002603738
 30
0.0
  0
VERTEX
  5
5E7
  8
0
  6
CONTINUOUS
 62
     7
 10
2.6118111611
 20
3.0741614367
 30
0.0
  0
VERTEX
  5
5E8
  8
0
  6
CONTINUOUS
 62
     7
 10
2.617159187
 20
3.0485013577
 30
0.0
  0
VERTEX
  5
5E9
  8
0
  6
CONTINUOUS
 62
     7
 10
2.6182927135
 20
3.0238425762
 30
0.0
  0
VERTEX
  5
5EA
  8
0
  6
CONTINUOUS
 62
     7
 10
2.614922672
 20
3.0011993685
 30
0.0
  0
VERTEX
  5
5EB
  8
0
  6
CONTINUOUS
 62
     7
 10
2.6070921616
 20
2.9814828096
 30
0.0
  0
VERTEX
  5
5EC
  8
0
  6
CONTINUOUS
 62
     7
 10
2.5951813852
 20
2.9653827416
 30
0.0
  0
VERTEX
  5
5ED
  8
0
  6
CONTINUOUS
 62
     7
 10
2.5798510326
 20
2.953290296
 30
0.0
  0
VERTEX
  5
5EE
  8
0
  6
CONTINUOUS
 62
     7
 10
2.5666914973
 20
2.9474516568
 30
0.0
  0
SEQEND
  5
8F3
  8
0
  6
CONTINUOUS
 62
     7
  0
POLYLINE
  5
2FB
  8
0
  6
CONTINUOUS
 62
     7
 66
     1
 10
0.0
 20
0.0
 30
0.0
 70
   128
  0
VERTEX
  5
5EF
  8
0
  6
CONTINUOUS
 62
     7
 10
2.2983660645
 20
3.2683377139
 30
0.0
  0
VERTEX
  5
5F0
  8
0
  6
CONTINUOUS
 62
     7
 10
2.3009069511
 20
3.2738007258
 30
0.0
  0
VERTEX
  5
5F1
  8
0
  6
CONTINUOUS
 62
     7
 10
2.3151820358
 20
3.2922123368
 30
0.0
  0
VERTEX
  5
5F2
  8
0
  6
CONTINUOUS
 62
     7
 10
2.3327023065
 20
3.3064458269
 30
0.0
  0
VERTEX
  5
5F3
  8
0
  6
CONTINUOUS
 62
     7
 10
2.3529871265
 20
3.3165491149
 30
0.0
  0
VERTEX
  5
5F4
  8
0
  6
CONTINUOUS
 62
     7
 10
2.3766899948
 20
3.3228310883
 30
0.0
  0
VERTEX
  5
5F5
  8
0
  6
CONTINUOUS
 62
     7
 10
2.4032812341
 20
3.3247964766
 30
0.0
  0
VERTEX
  5
5F6
  8
0
  6
CONTINUOUS
 62
     7
 10
2.4318611739
 20
3.3221740126
 30
0.0
  0
VERTEX
  5
5F7
  8
0
  6
CONTINUOUS
 62
     7
 10
2.4613470459
 20
3.3150349128
 30
0.0
  0
VERTEX
  5
5F8
  8
0
  6
CONTINUOUS
 62
     7
 10
2.4906062659
 20
3.3037875195
 30
0.0
  0
VERTEX
  5
5F9
  8
0
  6
CONTINUOUS
 62
     7
 10
2.5185954616
 20
3.2891111486
 30
0.0
  0
VERTEX
  5
5FA
  8
0
  6
CONTINUOUS
 62
     7
 10
2.5455887427
 20
3.2711707486
 30
0.0
  0
VERTEX
  5
5FB
  8
0
  6
CONTINUOUS
 62
     7
 10
2.5717669177
 20
3.24982548
 30
0.0
  0
VERTEX
  5
5FC
  8
0
  6
CONTINUOUS
 62
     7
 10
2.596057869
 20
3.2256604484
 30
0.0
  0
VERTEX
  5
5FD
  8
0
  6
CONTINUOUS
 62
     7
 10
2.6174617455
 20
3.1995190183
 30
0.0
  0
VERTEX
  5
5FE
  8
0
  6
CONTINUOUS
 62
     7
 10
2.6351816689
 20
3.1724093877
 30
0.0
  0
VERTEX
  5
5FF
  8
0
  6
CONTINUOUS
 62
     7
 10
2.6487201137
 20
3.1453782862
 30
0.0
  0
VERTEX
  5
600
  8
0
  6
CONTINUOUS
 62
     7
 10
2.6579589779
 20
3.119279349
 30
0.0
  0
VERTEX
  5
601
  8
0
  6
CONTINUOUS
 62
     7
 10
2.6633069937
 20
3.0936192601
 30
0.0
  0
VERTEX
  5
602
  8
0
  6
CONTINUOUS
 62
     7
 10
2.6644405304
 20
3.0689604885
 30
0.0
  0
VERTEX
  5
603
  8
0
  6
CONTINUOUS
 62
     7
 10
2.6610704889
 20
3.0463172809
 30
0.0
  0
VERTEX
  5
604
  8
0
  6
CONTINUOUS
 62
     7
 10
2.6532399683
 20
3.0266007121
 30
0.0
  0
VERTEX
  5
605
  8
0
  6
CONTINUOUS
 62
     7
 10
2.6413291919
 20
3.010500644
 30
0.0
  0
VERTEX
  5
606
  8
0
  6
CONTINUOUS
 62
     7
 10
2.6259988393
 20
2.9984081984
 30
0.0
  0
VERTEX
  5
607
  8
0
  6
CONTINUOUS
 62
     7
 10
2.612839304
 20
2.9925695592
 30
0.0
  0
SEQEND
  5
8F4
  8
0
  6
CONTINUOUS
 62
     7
  0
POLYLINE
  5
2FC
  8
0
  6
CONTINUOUS
 62
     7
 66
     1
 10
0.0
 20
0.0
 30
0.0
 70
   128
  0
VERTEX
  5
608
  8
0
  6
CONTINUOUS
 62
     7
 10
2.3445138763
 20
3.3134556213
 30
0.0
  0
VERTEX
  5
609
  8
0
  6
CONTINUOUS
 62
     7
 10
2.3470547578
 20
3.3189186283
 30
0.0
  0
VERTEX
  5
60A
  8
0
  6
CONTINUOUS
 62
     7
 10
2.3613298426
 20
3.3373302392
 30
0.0
  0
VERTEX
  5
60B
  8
0
  6
CONTINUOUS
 62
     7
 10
2.3788501233
 20
3.3515637392
 30
0.0
  0
VERTEX
  5
60C
  8
0
  6
CONTINUOUS
 62
     7
 10
2.3991349383
 20
3.3616670223
 30
0.0
  0
VERTEX
  5
60D
  8
0
  6
CONTINUOUS
 62
     7
 10
2.4228378117
 20
3.3679490006
 30
0.0
  0
VERTEX
  5
60E
  8
0
  6
CONTINUOUS
 62
     7
 10
2.4494290459
 20
3.3699143839
 30
0.0
  0
VERTEX
  5
60F
  8
0
  6
CONTINUOUS
 62
     7
 10
2.4780089857
 20
3.36729192
 30
0.0
  0
VERTEX
  5
610
  8
0
  6
CONTINUOUS
 62
     7
 10
2.5074948577
 20
3.3601528202
 30
0.0
  0
VERTEX
  5
611
  8
0
  6
CONTINUOUS
 62
     7
 10
2.5367540777
 20
3.3489054269
 30
0.0
  0
VERTEX
  5
612
  8
0
  6
CONTINUOUS
 62
     7
 10
2.5647432733
 20
3.334229056
 30
0.0
  0
VERTEX
  5
613
  8
0
  6
CONTINUOUS
 62
     7
 10
2.5917365545
 20
3.316288656
 30
0.0
  0
VERTEX
  5
614
  8
0
  6
CONTINUOUS
 62
     7
 10
2.6179147295
 20
3.2949433874
 30
0.0
  0
VERTEX
  5
615
  8
0
  6
CONTINUOUS
 62
     7
 10
2.6422056808
 20
3.2707783558
 30
0.0
  0
VERTEX
  5
616
  8
0
  6
CONTINUOUS
 62
     7
 10
2.6636095573
 20
3.2446369257
 30
0.0
  0
VERTEX
  5
617
  8
0
  6
CONTINUOUS
 62
     7
 10
2.6813294757
 20
3.2175272901
 30
0.0
  0
VERTEX
  5
618
  8
0
  6
CONTINUOUS
 62
     7
 10
2.6948679254
 20
3.1904961935
 30
0.0
  0
VERTEX
  5
619
  8
0
  6
CONTINUOUS
 62
     7
 10
2.7041067846
 20
3.1643972514
 30
0.0
  0
VERTEX
  5
61A
  8
0
  6
CONTINUOUS
 62
     7
 10
2.7094548106
 20
3.1387371725
 30
0.0
  0
VERTEX
  5
61B
  8
0
  6
CONTINUOUS
 62
     7
 10
2.7105883371
 20
3.1140783909
 30
0.0
  0
VERTEX
  5
61C
  8
0
  6
CONTINUOUS
 62
     7
 10
2.7072183007
 20
3.0914351882
 30
0.0
  0
VERTEX
  5
61D
  8
0
  6
CONTINUOUS
 62
     7
 10
2.6993877801
 20
3.0717186194
 30
0.0
  0
VERTEX
  5
61E
  8
0
  6
CONTINUOUS
 62
     7
 10
2.6874770088
 20
3.0556185564
 30
0.0
  0
VERTEX
  5
61F
  8
0
  6
CONTINUOUS
 62
     7
 10
2.6721466511
 20
3.0435261058
 30
0.0
  0
VERTEX
  5
620
  8
0
  6
CONTINUOUS
 62
     7
 10
2.6589871158
 20
3.0376874666
 30
0.0
  0
SEQEND
  5
8F5
  8
0
  6
CONTINUOUS
 62
     7
  0
POLYLINE
  5
2FD
  8
0
  6
CONTINUOUS
 62
     7
 66
     1
 10
0.0
 20
0.0
 30
0.0
 70
   128
  0
VERTEX
  5
621
  8
0
  6
CONTINUOUS
 62
     7
 10
2.3906616881
 20
3.3585735287
 30
0.0
  0
VERTEX
  5
622
  8
0
  6
CONTINUOUS
 62
     7
 10
2.3932025696
 20
3.3640365356
 30
0.0
  0
VERTEX
  5
623
  8
0
  6
CONTINUOUS
 62
     7
 10
2.4074776543
 20
3.3824481466
 30
0.0
  0
VERTEX
  5
624
  8
0
  6
CONTINUOUS
 62
     7
 10
2.4249979326
 20
3.3966816441
 30
0.0
  0
VERTEX
  5
625
  8
0
  6
CONTINUOUS
 62
     7
 10
2.4452827501
 20
3.4067849297
 30
0.0
  0
VERTEX
  5
626
  8
0
  6
CONTINUOUS
 62
     7
 10
2.4689856209
 20
3.4130669055
 30
0.0
  0
VERTEX
  5
627
  8
0
  6
CONTINUOUS
 62
     7
 10
2.4955768552
 20
3.4150322888
 30
0.0
  0
VERTEX
  5
628
  8
0
  6
CONTINUOUS
 62
     7
 10
2.5241567949
 20
3.4124098249
 30
0.0
  0
VERTEX
  5
629
  8
0
  6
CONTINUOUS
 62
     7
 10
2.553642672
 20
3.40527073
 30
0.0
  0
VERTEX
  5
62A
  8
0
  6
CONTINUOUS
 62
     7
 10
2.5829018895
 20
3.3940233343
 30
0.0
  0
VERTEX
  5
62B
  8
0
  6
CONTINUOUS
 62
     7
 10
2.6108910851
 20
3.3793469634
 30
0.0
  0
VERTEX
  5
62C
  8
0
  6
CONTINUOUS
 62
     7
 10
2.6378843663
 20
3.3614065634
 30
0.0
  0
VERTEX
  5
62D
  8
0
  6
CONTINUOUS
 62
     7
 10
2.66406254
 20
3.3400612935
 30
0.0
  0
VERTEX
  5
62E
  8
0
  6
CONTINUOUS
 62
     7
 10
2.6883534939
 20
3.3158962644
 30
0.0
  0
VERTEX
  5
62F
  8
0
  6
CONTINUOUS
 62
     7
 10
2.7097573716
 20
3.2897548355
 30
0.0
  0
VERTEX
  5
630
  8
0
  6
CONTINUOUS
 62
     7
 10
2.7274772887
 20
3.2626451987
 30
0.0
  0
VERTEX
  5
631
  8
0
  6
CONTINUOUS
 62
     7
 10
2.741015736
 20
3.2356140997
 30
0.0
  0
VERTEX
  5
632
  8
0
  6
CONTINUOUS
 62
     7
 10
2.7502545977
 20
3.2095151601
 30
0.0
  0
VERTEX
  5
633
  8
0
  6
CONTINUOUS
 62
     7
 10
2.7545081561
 20
3.1891063738
 30
0.0
  0
SEQEND
  5
8F6
  8
0
  6
CONTINUOUS
 62
     7
  0
POLYLINE
  5
2FE
  8
0
  6
CONTINUOUS
 62
     7
 66
     1
 10
0.0
 20
0.0
 30
0.0
 70
   128
  0
VERTEX
  5
634
  8
0
  6
CONTINUOUS
 62
     7
 10
2.7558508344
 20
3.1784554494
 30
0.0
  0
VERTEX
  5
635
  8
0
  6
CONTINUOUS
 62
     7
 10
2.7567361489
 20
3.1591962983
 30
0.0
  0
VERTEX
  5
636
  8
0
  6
CONTINUOUS
 62
     7
 10
2.7536172371
 20
3.1382404197
 30
0.0
  0
SEQEND
  5
8F7
  8
0
  6
CONTINUOUS
 62
     7
  0
ARC
  5
2FF
  8
0
  6
CONTINUOUS
 62
     7
 10
2.6817298368
 20
3.1518038178
 30
0.0
 40
0.0728600269792787
 50
288.7375459446
 51
346.0165869124
  0
POLYLINE
  5
300
  8
0
  6
CONTINUOUS
 62
     7
 66
     1
 10
0.0
 20
0.0
 30
0.0
 70
   128
  0
VERTEX
  5
637
  8
0
  6
CONTINUOUS
 62
     7
 10
2.6873573753
 20
3.3272265787
 30
0.0
  0
VERTEX
  5
638
  8
0
  6
CONTINUOUS
 62
     7
 10
2.7039255927
 20
3.3078170257
 30
0.0
  0
VERTEX
  5
639
  8
0
  6
CONTINUOUS
 62
     7
 10
2.7076606372
 20
3.3025242657
 30
0.0
  0
SEQEND
  5
8F8
  8
0
  6
CONTINUOUS
 62
     7
  0
POLYLINE
  5
301
  8
0
  6
CONTINUOUS
 62
     7
 66
     1
 10
0.0
 20
0.0
 30
0.0
 70
   128
  0
VERTEX
  5
63A
  8
0
  6
CONTINUOUS
 62
     7
 10
2.73021735
 20
3.2662859827
 30
0.0
  0
VERTEX
  5
63B
  8
0
  6
CONTINUOUS
 62
     7
 10
2.7327474761
 20
3.2617603003
 30
0.0
  0
VERTEX
  5
63C
  8
0
  6
CONTINUOUS
 62
     7
 10
2.7397725225
 20
3.2445085051
 30
0.0
  0
SEQEND
  5
8F9
  8
0
  6
CONTINUOUS
 62
     7
  0
POLYLINE
  5
302
  8
0
  6
CONTINUOUS
 62
     7
 66
     1
 10
0.0
 20
0.0
 30
0.0
 70
   128
  0
VERTEX
  5
63D
  8
0
  6
CONTINUOUS
 62
     7
 10
2.2464276982
 20
2.846164231
 30
0.0
  0
VERTEX
  5
63E
  8
0
  6
CONTINUOUS
 62
     7
 10
2.2651001662
 20
2.8185234279
 30
0.0
  0
VERTEX
  5
63F
  8
0
  6
CONTINUOUS
 62
     7
 10
2.2800354793
 20
2.7893768743
 30
0.0
  0
VERTEX
  5
640
  8
0
  6
CONTINUOUS
 62
     7
 10
2.2899923195
 20
2.7611860787
 30
0.0
  0
VERTEX
  5
641
  8
0
  6
CONTINUOUS
 62
     7
 10
2.295432732
 20
2.7332675685
 30
0.0
  0
VERTEX
  5
642
  8
0
  6
CONTINUOUS
 62
     7
 10
2.2959394755
 20
2.7077241277
 30
0.0
  0
VERTEX
  5
643
  8
0
  6
CONTINUOUS
 62
     7
 10
2.2914522091
 20
2.6840999101
 30
0.0
  0
VERTEX
  5
644
  8
0
  6
CONTINUOUS
 62
     7
 10
2.2822885789
 20
2.6642711399
 30
0.0
  0
VERTEX
  5
645
  8
0
  6
CONTINUOUS
 62
     7
 10
2.2681942949
 20
2.647797371
 30
0.0
  0
VERTEX
  5
646
  8
0
  6
CONTINUOUS
 62
     7
 10
2.2503564178
 20
2.6360661457
 30
0.0
  0
VERTEX
  5
647
  8
0
  6
CONTINUOUS
 62
     7
 10
2.2490407998
 20
2.6356309338
 30
0.0
  0
SEQEND
  5
8FA
  8
0
  6
CONTINUOUS
 62
     7
  0
POLYLINE
  5
303
  8
0
  6
CONTINUOUS
 62
     7
 66
     1
 10
0.0
 20
0.0
 30
0.0
 70
   128
  0
VERTEX
  5
648
  8
0
  6
CONTINUOUS
 62
     7
 10
1.9712679519
 20
2.8990934657
 30
0.0
  0
VERTEX
  5
649
  8
0
  6
CONTINUOUS
 62
     7
 10
1.9773222912
 20
2.9151519584
 30
0.0
  0
VERTEX
  5
64A
  8
0
  6
CONTINUOUS
 62
     7
 10
1.986434244
 20
2.9292771337
 30
0.0
  0
VERTEX
  5
64B
  8
0
  6
CONTINUOUS
 62
     7
 10
2.0002330698
 20
2.9422434056
 30
0.0
  0
VERTEX
  5
64C
  8
0
  6
CONTINUOUS
 62
     7
 10
2.0177054395
 20
2.951773761
 30
0.0
  0
VERTEX
  5
64D
  8
0
  6
CONTINUOUS
 62
     7
 10
2.0379901965
 20
2.9574039523
 30
0.0
  0
VERTEX
  5
64E
  8
0
  6
CONTINUOUS
 62
     7
 10
2.0611371599
 20
2.9589370553
 30
0.0
  0
VERTEX
  5
64F
  8
0
  6
CONTINUOUS
 62
     7
 10
2.0864889907
 20
2.9560375806
 30
0.0
  0
VERTEX
  5
650
  8
0
  6
CONTINUOUS
 62
     7
 10
2.1137270346
 20
2.9484419945
 30
0.0
  0
VERTEX
  5
651
  8
0
  6
CONTINUOUS
 62
     7
 10
2.1405650681
 20
2.9367901021
 30
0.0
  0
VERTEX
  5
652
  8
0
  6
CONTINUOUS
 62
     7
 10
2.1677721274
 20
2.9207817958
 30
0.0
  0
VERTEX
  5
653
  8
0
  6
CONTINUOUS
 62
     7
 10
2.1935615751
 20
2.9015814399
 30
0.0
  0
VERTEX
  5
654
  8
0
  6
CONTINUOUS
 62
     7
 10
2.2182414314
 20
2.8789206079
 30
0.0
  0
VERTEX
  5
655
  8
0
  6
CONTINUOUS
 62
     7
 10
2.232846639
 20
2.8630497619
 30
0.0
  0
VERTEX
  5
656
  8
0
  6
CONTINUOUS
 62
     7
 10
2.2464276982
 20
2.846164231
 30
0.0
  0
SEQEND
  5
8FB
  8
0
  6
CONTINUOUS
 62
     7
  0
POLYLINE
  5
304
  8
0
  6
CONTINUOUS
 62
     7
 66
     1
 10
0.0
 20
0.0
 30
0.0
 70
   128
  0
VERTEX
  5
657
  8
0
  6
CONTINUOUS
 62
     7
 10
1.9606648517
 20
2.8808214362
 30
0.0
  0
VERTEX
  5
658
  8
0
  6
CONTINUOUS
 62
     7
 10
1.9603129815
 20
2.8839176127
 30
0.0
  0
VERTEX
  5
659
  8
0
  6
CONTINUOUS
 62
     7
 10
1.9615438533
 20
2.9109188654
 30
0.0
  0
VERTEX
  5
65A
  8
0
  6
CONTINUOUS
 62
     7
 10
1.967376543
 20
2.9359929305
 30
0.0
  0
VERTEX
  5
65B
  8
0
  6
CONTINUOUS
 62
     7
 10
1.9776750906
 20
2.9581368938
 30
0.0
  0
VERTEX
  5
65C
  8
0
  6
CONTINUOUS
 62
     7
 10
1.9919658646
 20
2.9765691979
 30
0.0
  0
VERTEX
  5
65D
  8
0
  6
CONTINUOUS
 62
     7
 10
2.0095058422
 20
2.9908184677
 30
0.0
  0
VERTEX
  5
65E
  8
0
  6
CONTINUOUS
 62
     7
 10
2.0298136646
 20
3.0009326107
 30
0.0
  0
VERTEX
  5
65F
  8
0
  6
CONTINUOUS
 62
     7
 10
2.0535436117
 20
3.0072208224
 30
0.0
  0
VERTEX
  5
660
  8
0
  6
CONTINUOUS
 62
     7
 10
2.080165248
 20
3.0091871384
 30
0.0
  0
VERTEX
  5
661
  8
0
  6
CONTINUOUS
 62
     7
 10
2.1087779351
 20
3.0065600998
 30
0.0
  0
VERTEX
  5
662
  8
0
  6
CONTINUOUS
 62
     7
 10
2.1382976566
 20
2.9994110055
 30
0.0
  0
VERTEX
  5
663
  8
0
  6
CONTINUOUS
 62
     7
 10
2.1675905152
 20
2.9881487722
 30
0.0
  0
VERTEX
  5
664
  8
0
  6
CONTINUOUS
 62
     7
 10
2.1956119824
 20
2.9734536003
 30
0.0
  0
VERTEX
  5
665
  8
0
  6
CONTINUOUS
 62
     7
 10
2.2226363048
 20
2.9554904601
 30
0.0
  0
VERTEX
  5
666
  8
0
  6
CONTINUOUS
 62
     7
 10
2.2488444655
 20
2.9341182859
 30
0.0
  0
VERTEX
  5
667
  8
0
  6
CONTINUOUS
 62
     7
 10
2.2731630471
 20
2.9099228772
 30
0.0
  0
VERTEX
  5
668
  8
0
  6
CONTINUOUS
 62
     7
 10
2.2945910721
 20
2.8837486907
 30
0.0
  0
VERTEX
  5
669
  8
0
  6
CONTINUOUS
 62
     7
 10
2.3123307719
 20
2.8566051793
 30
0.0
  0
VERTEX
  5
66A
  8
0
  6
CONTINUOUS
 62
     7
 10
2.3258840829
 20
2.8295403844
 30
0.0
  0
VERTEX
  5
66B
  8
0
  6
CONTINUOUS
 62
     7
 10
2.3351327636
 20
2.8034089927
 30
0.0
  0
VERTEX
  5
66C
  8
0
  6
CONTINUOUS
 62
     7
 10
2.3404859058
 20
2.7777168966
 30
0.0
  0
VERTEX
  5
66D
  8
0
  6
CONTINUOUS
 62
     7
 10
2.3416193829
 20
2.7530272265
 30
0.0
  0
VERTEX
  5
66E
  8
0
  6
CONTINUOUS
 62
     7
 10
2.3382438016
 20
2.7303554332
 30
0.0
  0
VERTEX
  5
66F
  8
0
  6
CONTINUOUS
 62
     7
 10
2.3304024434
 20
2.710613821
 30
0.0
  0
VERTEX
  5
670
  8
0
  6
CONTINUOUS
 62
     7
 10
2.3184760185
 20
2.6944930995
 30
0.0
  0
VERTEX
  5
671
  8
0
  6
CONTINUOUS
 62
     7
 10
2.3031259487
 20
2.6823848643
 30
0.0
  0
VERTEX
  5
672
  8
0
  6
CONTINUOUS
 62
     7
 10
2.2874438642
 20
2.6754264627
 30
0.0
  0
SEQEND
  5
8FC
  8
0
  6
CONTINUOUS
 62
     7
  0
POLYLINE
  5
305
  8
0
  6
CONTINUOUS
 62
     7
 66
     1
 10
0.0
 20
0.0
 30
0.0
 70
   128
  0
VERTEX
  5
673
  8
0
  6
CONTINUOUS
 62
     7
 10
2.0211250908
 20
2.9974539291
 30
0.0
  0
VERTEX
  5
674
  8
0
  6
CONTINUOUS
 62
     7
 10
2.0238229075
 20
3.0032548062
 30
0.0
  0
VERTEX
  5
675
  8
0
  6
CONTINUOUS
 62
     7
 10
2.0381136814
 20
3.0216871103
 30
0.0
  0
VERTEX
  5
676
  8
0
  6
CONTINUOUS
 62
     7
 10
2.0556536185
 20
3.0359363403
 30
0.0
  0
VERTEX
  5
677
  8
0
  6
CONTINUOUS
 62
     7
 10
2.0759614815
 20
3.046050523
 30
0.0
  0
VERTEX
  5
678
  8
0
  6
CONTINUOUS
 62
     7
 10
2.099691388
 20
3.0523386951
 30
0.0
  0
VERTEX
  5
679
  8
0
  6
CONTINUOUS
 62
     7
 10
2.1263130649
 20
3.0543050507
 30
0.0
  0
VERTEX
  5
67A
  8
0
  6
CONTINUOUS
 62
     7
 10
2.154925752
 20
3.0516780121
 30
0.0
  0
VERTEX
  5
67B
  8
0
  6
CONTINUOUS
 62
     7
 10
2.1844454734
 20
3.0445289178
 30
0.0
  0
VERTEX
  5
67C
  8
0
  6
CONTINUOUS
 62
     7
 10
2.2137383321
 20
3.0332666846
 30
0.0
  0
VERTEX
  5
67D
  8
0
  6
CONTINUOUS
 62
     7
 10
2.2417597993
 20
3.0185715126
 30
0.0
  0
VERTEX
  5
67E
  8
0
  6
CONTINUOUS
 62
     7
 10
2.2687841216
 20
3.0006083724
 30
0.0
  0
VERTEX
  5
67F
  8
0
  6
CONTINUOUS
 62
     7
 10
2.2949922823
 20
2.9792361982
 30
0.0
  0
VERTEX
  5
680
  8
0
  6
CONTINUOUS
 62
     7
 10
2.3193108639
 20
2.9550407895
 30
0.0
  0
VERTEX
  5
681
  8
0
  6
CONTINUOUS
 62
     7
 10
2.340738889
 20
2.9288666031
 30
0.0
  0
VERTEX
  5
682
  8
0
  6
CONTINUOUS
 62
     7
 10
2.3584785887
 20
2.9017230917
 30
0.0
  0
VERTEX
  5
683
  8
0
  6
CONTINUOUS
 62
     7
 10
2.3720318998
 20
2.8746582967
 30
0.0
  0
VERTEX
  5
684
  8
0
  6
CONTINUOUS
 62
     7
 10
2.3812805804
 20
2.8485269051
 30
0.0
  0
VERTEX
  5
685
  8
0
  6
CONTINUOUS
 62
     7
 10
2.3866337226
 20
2.822834809
 30
0.0
  0
VERTEX
  5
686
  8
0
  6
CONTINUOUS
 62
     7
 10
2.3877671592
 20
2.7981450992
 30
0.0
  0
VERTEX
  5
687
  8
0
  6
CONTINUOUS
 62
     7
 10
2.3843916184
 20
2.7754733456
 30
0.0
  0
VERTEX
  5
688
  8
0
  6
CONTINUOUS
 62
     7
 10
2.3765502603
 20
2.7557317333
 30
0.0
  0
VERTEX
  5
689
  8
0
  6
CONTINUOUS
 62
     7
 10
2.3646238353
 20
2.7396110118
 30
0.0
  0
VERTEX
  5
68A
  8
0
  6
CONTINUOUS
 62
     7
 10
2.3492737655
 20
2.7275027766
 30
0.0
  0
VERTEX
  5
68B
  8
0
  6
CONTINUOUS
 62
     7
 10
2.3358221199
 20
2.7215340545
 30
0.0
  0
SEQEND
  5
8FD
  8
0
  6
CONTINUOUS
 62
     7
  0
POLYLINE
  5
306
  8
0
  6
CONTINUOUS
 62
     7
 66
     1
 10
0.0
 20
0.0
 30
0.0
 70
   128
  0
VERTEX
  5
68C
  8
0
  6
CONTINUOUS
 62
     7
 10
2.0672728671
 20
3.0425718018
 30
0.0
  0
VERTEX
  5
68D
  8
0
  6
CONTINUOUS
 62
     7
 10
2.0699707243
 20
3.0483727185
 30
0.0
  0
VERTEX
  5
68E
  8
0
  6
CONTINUOUS
 62
     7
 10
2.0842614983
 20
3.0668050226
 30
0.0
  0
VERTEX
  5
68F
  8
0
  6
CONTINUOUS
 62
     7
 10
2.1018014353
 20
3.0810542527
 30
0.0
  0
VERTEX
  5
690
  8
0
  6
CONTINUOUS
 62
     7
 10
2.1221092984
 20
3.0911684353
 30
0.0
  0
VERTEX
  5
691
  8
0
  6
CONTINUOUS
 62
     7
 10
2.1458392049
 20
3.0974566074
 30
0.0
  0
VERTEX
  5
692
  8
0
  6
CONTINUOUS
 62
     7
 10
2.1724608412
 20
3.0994229233
 30
0.0
  0
VERTEX
  5
693
  8
0
  6
CONTINUOUS
 62
     7
 10
2.2010735283
 20
3.0967958848
 30
0.0
  0
VERTEX
  5
694
  8
0
  6
CONTINUOUS
 62
     7
 10
2.2305932903
 20
3.0896468302
 30
0.0
  0
VERTEX
  5
695
  8
0
  6
CONTINUOUS
 62
     7
 10
2.2598861489
 20
3.0783845969
 30
0.0
  0
VERTEX
  5
696
  8
0
  6
CONTINUOUS
 62
     7
 10
2.2879076162
 20
3.063689425
 30
0.0
  0
VERTEX
  5
697
  8
0
  6
CONTINUOUS
 62
     7
 10
2.3149319385
 20
3.0457262848
 30
0.0
  0
VERTEX
  5
698
  8
0
  6
CONTINUOUS
 62
     7
 10
2.3411400992
 20
3.0243541106
 30
0.0
  0
VERTEX
  5
699
  8
0
  6
CONTINUOUS
 62
     7
 10
2.3654586808
 20
3.0001587018
 30
0.0
  0
VERTEX
  5
69A
  8
0
  6
CONTINUOUS
 62
     7
 10
2.3868867058
 20
2.9739845154
 30
0.0
  0
VERTEX
  5
69B
  8
0
  6
CONTINUOUS
 62
     7
 10
2.4046264056
 20
2.946841004
 30
0.0
  0
VERTEX
  5
69C
  8
0
  6
CONTINUOUS
 62
     7
 10
2.4181797167
 20
2.919776209
 30
0.0
  0
VERTEX
  5
69D
  8
0
  6
CONTINUOUS
 62
     7
 10
2.4274283973
 20
2.8936448174
 30
0.0
  0
VERTEX
  5
69E
  8
0
  6
CONTINUOUS
 62
     7
 10
2.4327815395
 20
2.8679527213
 30
0.0
  0
VERTEX
  5
69F
  8
0
  6
CONTINUOUS
 62
     7
 10
2.4339149964
 20
2.8432630313
 30
0.0
  0
VERTEX
  5
6A0
  8
0
  6
CONTINUOUS
 62
     7
 10
2.4305394353
 20
2.8205912579
 30
0.0
  0
VERTEX
  5
6A1
  8
0
  6
CONTINUOUS
 62
     7
 10
2.4226980772
 20
2.8008496457
 30
0.0
  0
VERTEX
  5
6A2
  8
0
  6
CONTINUOUS
 62
     7
 10
2.4107716319
 20
2.7847289043
 30
0.0
  0
VERTEX
  5
6A3
  8
0
  6
CONTINUOUS
 62
     7
 10
2.3954215824
 20
2.772620689
 30
0.0
  0
VERTEX
  5
6A4
  8
0
  6
CONTINUOUS
 62
     7
 10
2.3819699367
 20
2.7666519669
 30
0.0
  0
SEQEND
  5
8FE
  8
0
  6
CONTINUOUS
 62
     7
  0
POLYLINE
  5
307
  8
0
  6
CONTINUOUS
 62
     7
 66
     1
 10
0.0
 20
0.0
 30
0.0
 70
   128
  0
VERTEX
  5
6A5
  8
0
  6
CONTINUOUS
 62
     7
 10
2.1134206839
 20
3.0876897141
 30
0.0
  0
VERTEX
  5
6A6
  8
0
  6
CONTINUOUS
 62
     7
 10
2.1161185412
 20
3.0934906308
 30
0.0
  0
VERTEX
  5
6A7
  8
0
  6
CONTINUOUS
 62
     7
 10
2.1304092949
 20
3.1119229151
 30
0.0
  0
VERTEX
  5
6A8
  8
0
  6
CONTINUOUS
 62
     7
 10
2.1479492522
 20
3.126172165
 30
0.0
  0
VERTEX
  5
6A9
  8
0
  6
CONTINUOUS
 62
     7
 10
2.1682571152
 20
3.1362863477
 30
0.0
  0
VERTEX
  5
6AA
  8
0
  6
CONTINUOUS
 62
     7
 10
2.1919870217
 20
3.1425745197
 30
0.0
  0
VERTEX
  5
6AB
  8
0
  6
CONTINUOUS
 62
     7
 10
2.2186086783
 20
3.1445408555
 30
0.0
  0
VERTEX
  5
6AC
  8
0
  6
CONTINUOUS
 62
     7
 10
2.2472213654
 20
3.1419138169
 30
0.0
  0
VERTEX
  5
6AD
  8
0
  6
CONTINUOUS
 62
     7
 10
2.2767410869
 20
3.1347647227
 30
0.0
  0
VERTEX
  5
6AE
  8
0
  6
CONTINUOUS
 62
     7
 10
2.3060339658
 20
3.1235025092
 30
0.0
  0
VERTEX
  5
6AF
  8
0
  6
CONTINUOUS
 62
     7
 10
2.3340554127
 20
3.1088073175
 30
0.0
  0
VERTEX
  5
6B0
  8
0
  6
CONTINUOUS
 62
     7
 10
2.3610797554
 20
3.0908441971
 30
0.0
  0
VERTEX
  5
6B1
  8
0
  6
CONTINUOUS
 62
     7
 10
2.3872878958
 20
3.0694720031
 30
0.0
  0
VERTEX
  5
6B2
  8
0
  6
CONTINUOUS
 62
     7
 10
2.4116064977
 20
3.0452766142
 30
0.0
  0
VERTEX
  5
6B3
  8
0
  6
CONTINUOUS
 62
     7
 10
2.4330345227
 20
3.0191024277
 30
0.0
  0
VERTEX
  5
6B4
  8
0
  6
CONTINUOUS
 62
     7
 10
2.4507742224
 20
2.9919589163
 30
0.0
  0
VERTEX
  5
6B5
  8
0
  6
CONTINUOUS
 62
     7
 10
2.4643275335
 20
2.9648941214
 30
0.0
  0
VERTEX
  5
6B6
  8
0
  6
CONTINUOUS
 62
     7
 10
2.4735762142
 20
2.9387627297
 30
0.0
  0
VERTEX
  5
6B7
  8
0
  6
CONTINUOUS
 62
     7
 10
2.4789293361
 20
2.9130706138
 30
0.0
  0
VERTEX
  5
6B8
  8
0
  6
CONTINUOUS
 62
     7
 10
2.4800627929
 20
2.8883809238
 30
0.0
  0
VERTEX
  5
6B9
  8
0
  6
CONTINUOUS
 62
     7
 10
2.4766872521
 20
2.8657091702
 30
0.0
  0
VERTEX
  5
6BA
  8
0
  6
CONTINUOUS
 62
     7
 10
2.468845894
 20
2.845967558
 30
0.0
  0
VERTEX
  5
6BB
  8
0
  6
CONTINUOUS
 62
     7
 10
2.4569194488
 20
2.8298468167
 30
0.0
  0
VERTEX
  5
6BC
  8
0
  6
CONTINUOUS
 62
     7
 10
2.4415693993
 20
2.8177386013
 30
0.0
  0
VERTEX
  5
6BD
  8
0
  6
CONTINUOUS
 62
     7
 10
2.4281177536
 20
2.8117698792
 30
0.0
  0
SEQEND
  5
8FF
  8
0
  6
CONTINUOUS
 62
     7
  0
POLYLINE
  5
308
  8
0
  6
CONTINUOUS
 62
     7
 66
     1
 10
0.0
 20
0.0
 30
0.0
 70
   128
  0
VERTEX
  5
6BE
  8
0
  6
CONTINUOUS
 62
     7
 10
2.1595685008
 20
3.1328076265
 30
0.0
  0
VERTEX
  5
6BF
  8
0
  6
CONTINUOUS
 62
     7
 10
2.1622663581
 20
3.1386085432
 30
0.0
  0
VERTEX
  5
6C0
  8
0
  6
CONTINUOUS
 62
     7
 10
2.1765571117
 20
3.1570408274
 30
0.0
  0
VERTEX
  5
6C1
  8
0
  6
CONTINUOUS
 62
     7
 10
2.1940970691
 20
3.1712900773
 30
0.0
  0
VERTEX
  5
6C2
  8
0
  6
CONTINUOUS
 62
     7
 10
2.2144049321
 20
3.18140426
 30
0.0
  0
VERTEX
  5
6C3
  8
0
  6
CONTINUOUS
 62
     7
 10
2.2381348386
 20
3.1876924321
 30
0.0
  0
VERTEX
  5
6C4
  8
0
  6
CONTINUOUS
 62
     7
 10
2.2647564749
 20
3.189658748
 30
0.0
  0
VERTEX
  5
6C5
  8
0
  6
CONTINUOUS
 62
     7
 10
2.293369162
 20
3.1870317094
 30
0.0
  0
VERTEX
  5
6C6
  8
0
  6
CONTINUOUS
 62
     7
 10
2.3228889037
 20
3.179882635
 30
0.0
  0
VERTEX
  5
6C7
  8
0
  6
CONTINUOUS
 62
     7
 10
2.3521817826
 20
3.1686204216
 30
0.0
  0
VERTEX
  5
6C8
  8
0
  6
CONTINUOUS
 62
     7
 10
2.3802032296
 20
3.1539252298
 30
0.0
  0
VERTEX
  5
6C9
  8
0
  6
CONTINUOUS
 62
     7
 10
2.4072275722
 20
3.1359621094
 30
0.0
  0
VERTEX
  5
6CA
  8
0
  6
CONTINUOUS
 62
     7
 10
2.4334357126
 20
3.1145899154
 30
0.0
  0
VERTEX
  5
6CB
  8
0
  6
CONTINUOUS
 62
     7
 10
2.4577542942
 20
3.0903945067
 30
0.0
  0
VERTEX
  5
6CC
  8
0
  6
CONTINUOUS
 62
     7
 10
2.4791823193
 20
3.0642203202
 30
0.0
  0
VERTEX
  5
6CD
  8
0
  6
CONTINUOUS
 62
     7
 10
2.4969220393
 20
3.0370768287
 30
0.0
  0
VERTEX
  5
6CE
  8
0
  6
CONTINUOUS
 62
     7
 10
2.5104753504
 20
3.0100120337
 30
0.0
  0
VERTEX
  5
6CF
  8
0
  6
CONTINUOUS
 62
     7
 10
2.519724031
 20
2.9838806421
 30
0.0
  0
VERTEX
  5
6D0
  8
0
  6
CONTINUOUS
 62
     7
 10
2.5250771529
 20
2.9581885261
 30
0.0
  0
VERTEX
  5
6D1
  8
0
  6
CONTINUOUS
 62
     7
 10
2.5262106098
 20
2.9334988362
 30
0.0
  0
VERTEX
  5
6D2
  8
0
  6
CONTINUOUS
 62
     7
 10
2.522835069
 20
2.9108270826
 30
0.0
  0
VERTEX
  5
6D3
  8
0
  6
CONTINUOUS
 62
     7
 10
2.5149936906
 20
2.8910854505
 30
0.0
  0
VERTEX
  5
6D4
  8
0
  6
CONTINUOUS
 62
     7
 10
2.5030672656
 20
2.874964729
 30
0.0
  0
VERTEX
  5
6D5
  8
0
  6
CONTINUOUS
 62
     7
 10
2.4877172161
 20
2.8628565136
 30
0.0
  0
VERTEX
  5
6D6
  8
0
  6
CONTINUOUS
 62
     7
 10
2.4742655502
 20
2.8568877717
 30
0.0
  0
SEQEND
  5
900
  8
0
  6
CONTINUOUS
 62
     7
  0
POLYLINE
  5
309
  8
0
  6
CONTINUOUS
 62
     7
 66
     1
 10
0.0
 20
0.0
 30
0.0
 70
   128
  0
VERTEX
  5
6D7
  8
0
  6
CONTINUOUS
 62
     7
 10
2.2057163177
 20
3.1779255388
 30
0.0
  0
VERTEX
  5
6D8
  8
0
  6
CONTINUOUS
 62
     7
 10
2.2084141546
 20
3.1837264357
 30
0.0
  0
VERTEX
  5
6D9
  8
0
  6
CONTINUOUS
 62
     7
 10
2.2227049083
 20
3.2021587199
 30
0.0
  0
VERTEX
  5
6DA
  8
0
  6
CONTINUOUS
 62
     7
 10
2.2402448859
 20
3.2164079897
 30
0.0
  0
VERTEX
  5
6DB
  8
0
  6
CONTINUOUS
 62
     7
 10
2.2605527489
 20
3.2265221723
 30
0.0
  0
VERTEX
  5
6DC
  8
0
  6
CONTINUOUS
 62
     7
 10
2.2842826555
 20
3.2328103444
 30
0.0
  0
VERTEX
  5
6DD
  8
0
  6
CONTINUOUS
 62
     7
 10
2.3109042917
 20
3.2347766603
 30
0.0
  0
VERTEX
  5
6DE
  8
0
  6
CONTINUOUS
 62
     7
 10
2.3395169788
 20
3.2321496218
 30
0.0
  0
VERTEX
  5
6DF
  8
0
  6
CONTINUOUS
 62
     7
 10
2.3690367206
 20
3.2250005473
 30
0.0
  0
VERTEX
  5
6E0
  8
0
  6
CONTINUOUS
 62
     7
 10
2.3983295995
 20
3.2137383339
 30
0.0
  0
VERTEX
  5
6E1
  8
0
  6
CONTINUOUS
 62
     7
 10
2.4263510464
 20
3.1990431421
 30
0.0
  0
VERTEX
  5
6E2
  8
0
  6
CONTINUOUS
 62
     7
 10
2.4533753891
 20
3.1810800218
 30
0.0
  0
VERTEX
  5
6E3
  8
0
  6
CONTINUOUS
 62
     7
 10
2.4795835295
 20
3.1597078277
 30
0.0
  0
VERTEX
  5
6E4
  8
0
  6
CONTINUOUS
 62
     7
 10
2.5039021111
 20
3.135512419
 30
0.0
  0
VERTEX
  5
6E5
  8
0
  6
CONTINUOUS
 62
     7
 10
2.5253301361
 20
3.1093382326
 30
0.0
  0
VERTEX
  5
6E6
  8
0
  6
CONTINUOUS
 62
     7
 10
2.5430698359
 20
3.0821947212
 30
0.0
  0
VERTEX
  5
6E7
  8
0
  6
CONTINUOUS
 62
     7
 10
2.5566231672
 20
3.055129946
 30
0.0
  0
VERTEX
  5
6E8
  8
0
  6
CONTINUOUS
 62
     7
 10
2.5658718276
 20
3.0289985346
 30
0.0
  0
VERTEX
  5
6E9
  8
0
  6
CONTINUOUS
 62
     7
 10
2.5712249698
 20
3.0033064385
 30
0.0
  0
VERTEX
  5
6EA
  8
0
  6
CONTINUOUS
 62
     7
 10
2.5723584267
 20
2.9786167485
 30
0.0
  0
VERTEX
  5
6EB
  8
0
  6
CONTINUOUS
 62
     7
 10
2.5689828859
 20
2.9559449949
 30
0.0
  0
VERTEX
  5
6EC
  8
0
  6
CONTINUOUS
 62
     7
 10
2.5611415074
 20
2.9362033628
 30
0.0
  0
VERTEX
  5
6ED
  8
0
  6
CONTINUOUS
 62
     7
 10
2.5492150622
 20
2.9200826215
 30
0.0
  0
VERTEX
  5
6EE
  8
0
  6
CONTINUOUS
 62
     7
 10
2.533865033
 20
2.9079744259
 30
0.0
  0
VERTEX
  5
6EF
  8
0
  6
CONTINUOUS
 62
     7
 10
2.520413367
 20
2.902005684
 30
0.0
  0
SEQEND
  5
901
  8
0
  6
CONTINUOUS
 62
     7
  0
POLYLINE
  5
30A
  8
0
  6
CONTINUOUS
 62
     7
 66
     1
 10
0.0
 20
0.0
 30
0.0
 70
   128
  0
VERTEX
  5
6F0
  8
0
  6
CONTINUOUS
 62
     7
 10
2.2518641345
 20
3.2230434511
 30
0.0
  0
VERTEX
  5
6F1
  8
0
  6
CONTINUOUS
 62
     7
 10
2.2545619715
 20
3.228844348
 30
0.0
  0
VERTEX
  5
6F2
  8
0
  6
CONTINUOUS
 62
     7
 10
2.2688527252
 20
3.2472766323
 30
0.0
  0
VERTEX
  5
6F3
  8
0
  6
CONTINUOUS
 62
     7
 10
2.2863926926
 20
3.2615258921
 30
0.0
  0
VERTEX
  5
6F4
  8
0
  6
CONTINUOUS
 62
     7
 10
2.3067005557
 20
3.2716400747
 30
0.0
  0
VERTEX
  5
6F5
  8
0
  6
CONTINUOUS
 62
     7
 10
2.3304304622
 20
3.2779282468
 30
0.0
  0
VERTEX
  5
6F6
  8
0
  6
CONTINUOUS
 62
     7
 10
2.3570520984
 20
3.2798945628
 30
0.0
  0
VERTEX
  5
6F7
  8
0
  6
CONTINUOUS
 62
     7
 10
2.3856647856
 20
3.2772675242
 30
0.0
  0
VERTEX
  5
6F8
  8
0
  6
CONTINUOUS
 62
     7
 10
2.4151845273
 20
3.2701184498
 30
0.0
  0
VERTEX
  5
6F9
  8
0
  6
CONTINUOUS
 62
     7
 10
2.4444774062
 20
3.2588562363
 30
0.0
  0
VERTEX
  5
6FA
  8
0
  6
CONTINUOUS
 62
     7
 10
2.4724988532
 20
3.2441610445
 30
0.0
  0
VERTEX
  5
6FB
  8
0
  6
CONTINUOUS
 62
     7
 10
2.4995231958
 20
3.2261979242
 30
0.0
  0
VERTEX
  5
6FC
  8
0
  6
CONTINUOUS
 62
     7
 10
2.525731326
 20
3.2048257202
 30
0.0
  0
VERTEX
  5
6FD
  8
0
  6
CONTINUOUS
 62
     7
 10
2.5500499279
 20
3.1806303313
 30
0.0
  0
VERTEX
  5
6FE
  8
0
  6
CONTINUOUS
 62
     7
 10
2.571477953
 20
3.1544561449
 30
0.0
  0
VERTEX
  5
6FF
  8
0
  6
CONTINUOUS
 62
     7
 10
2.5892176527
 20
3.1273126335
 30
0.0
  0
VERTEX
  5
700
  8
0
  6
CONTINUOUS
 62
     7
 10
2.6027709638
 20
3.1002478385
 30
0.0
  0
VERTEX
  5
701
  8
0
  6
CONTINUOUS
 62
     7
 10
2.6120196445
 20
3.0741164469
 30
0.0
  0
VERTEX
  5
702
  8
0
  6
CONTINUOUS
 62
     7
 10
2.6173727765
 20
3.0484243409
 30
0.0
  0
VERTEX
  5
703
  8
0
  6
CONTINUOUS
 62
     7
 10
2.6185062334
 20
3.0237346509
 30
0.0
  0
VERTEX
  5
704
  8
0
  6
CONTINUOUS
 62
     7
 10
2.6151306824
 20
3.0010628874
 30
0.0
  0
VERTEX
  5
705
  8
0
  6
CONTINUOUS
 62
     7
 10
2.6072893243
 20
2.9813212751
 30
0.0
  0
VERTEX
  5
706
  8
0
  6
CONTINUOUS
 62
     7
 10
2.595362879
 20
2.9652005338
 30
0.0
  0
VERTEX
  5
707
  8
0
  6
CONTINUOUS
 62
     7
 10
2.5800128397
 20
2.9530923284
 30
0.0
  0
VERTEX
  5
708
  8
0
  6
CONTINUOUS
 62
     7
 10
2.5668303268
 20
2.9472430088
 30
0.0
  0
SEQEND
  5
902
  8
0
  6
CONTINUOUS
 62
     7
  0
POLYLINE
  5
30B
  8
0
  6
CONTINUOUS
 62
     7
 66
     1
 10
0.0
 20
0.0
 30
0.0
 70
   128
  0
VERTEX
  5
709
  8
0
  6
CONTINUOUS
 62
     7
 10
2.2980119412
 20
3.2681613535
 30
0.0
  0
VERTEX
  5
70A
  8
0
  6
CONTINUOUS
 62
     7
 10
2.3007097884
 20
3.2739622603
 30
0.0
  0
VERTEX
  5
70B
  8
0
  6
CONTINUOUS
 62
     7
 10
2.315000542
 20
3.2923945446
 30
0.0
  0
VERTEX
  5
70C
  8
0
  6
CONTINUOUS
 62
     7
 10
2.3325404994
 20
3.3066437945
 30
0.0
  0
VERTEX
  5
70D
  8
0
  6
CONTINUOUS
 62
     7
 10
2.3528483624
 20
3.3167579771
 30
0.0
  0
VERTEX
  5
70E
  8
0
  6
CONTINUOUS
 62
     7
 10
2.3765782689
 20
3.3230461492
 30
0.0
  0
VERTEX
  5
70F
  8
0
  6
CONTINUOUS
 62
     7
 10
2.4031999153
 20
3.3250124751
 30
0.0
  0
VERTEX
  5
710
  8
0
  6
CONTINUOUS
 62
     7
 10
2.4318126024
 20
3.3223854365
 30
0.0
  0
VERTEX
  5
711
  8
0
  6
CONTINUOUS
 62
     7
 10
2.461332334
 20
3.3152363522
 30
0.0
  0
VERTEX
  5
712
  8
0
  6
CONTINUOUS
 62
     7
 10
2.4906252129
 20
3.3039741387
 30
0.0
  0
VERTEX
  5
713
  8
0
  6
CONTINUOUS
 62
     7
 10
2.5186466599
 20
3.2892789469
 30
0.0
  0
VERTEX
  5
714
  8
0
  6
CONTINUOUS
 62
     7
 10
2.5456710025
 20
3.2713158266
 30
0.0
  0
VERTEX
  5
715
  8
0
  6
CONTINUOUS
 62
     7
 10
2.5718791429
 20
3.2499436326
 30
0.0
  0
VERTEX
  5
716
  8
0
  6
CONTINUOUS
 62
     7
 10
2.5961977347
 20
3.2257482337
 30
0.0
  0
VERTEX
  5
717
  8
0
  6
CONTINUOUS
 62
     7
 10
2.6176257597
 20
3.1995740473
 30
0.0
  0
VERTEX
  5
718
  8
0
  6
CONTINUOUS
 62
     7
 10
2.6353654696
 20
3.1724305458
 30
0.0
  0
VERTEX
  5
719
  8
0
  6
CONTINUOUS
 62
     7
 10
2.6489187807
 20
3.1453657508
 30
0.0
  0
VERTEX
  5
71A
  8
0
  6
CONTINUOUS
 62
     7
 10
2.6581674613
 20
3.1192343592
 30
0.0
  0
VERTEX
  5
71B
  8
0
  6
CONTINUOUS
 62
     7
 10
2.6635205832
 20
3.0935422433
 30
0.0
  0
VERTEX
  5
71C
  8
0
  6
CONTINUOUS
 62
     7
 10
2.6646540502
 20
3.0688525632
 30
0.0
  0
VERTEX
  5
71D
  8
0
  6
CONTINUOUS
 62
     7
 10
2.6612784993
 20
3.0461807997
 30
0.0
  0
VERTEX
  5
71E
  8
0
  6
CONTINUOUS
 62
     7
 10
2.653437131
 20
3.0264391776
 30
0.0
  0
VERTEX
  5
71F
  8
0
  6
CONTINUOUS
 62
     7
 10
2.6415106858
 20
3.0103184362
 30
0.0
  0
VERTEX
  5
720
  8
0
  6
CONTINUOUS
 62
     7
 10
2.6261606464
 20
2.9982102308
 30
0.0
  0
VERTEX
  5
721
  8
0
  6
CONTINUOUS
 62
     7
 10
2.6127089906
 20
2.9922414988
 30
0.0
  0
SEQEND
  5
903
  8
0
  6
CONTINUOUS
 62
     7
  0
POLYLINE
  5
30C
  8
0
  6
CONTINUOUS
 62
     7
 66
     1
 10
0.0
 20
0.0
 30
0.0
 70
   128
  0
VERTEX
  5
722
  8
0
  6
CONTINUOUS
 62
     7
 10
2.344159753
 20
3.3132792609
 30
0.0
  0
VERTEX
  5
723
  8
0
  6
CONTINUOUS
 62
     7
 10
2.3468575951
 20
3.3190801627
 30
0.0
  0
VERTEX
  5
724
  8
0
  6
CONTINUOUS
 62
     7
 10
2.3611483487
 20
3.337512447
 30
0.0
  0
VERTEX
  5
725
  8
0
  6
CONTINUOUS
 62
     7
 10
2.3786883162
 20
3.3517617068
 30
0.0
  0
VERTEX
  5
726
  8
0
  6
CONTINUOUS
 62
     7
 10
2.3989961742
 20
3.3618758845
 30
0.0
  0
VERTEX
  5
727
  8
0
  6
CONTINUOUS
 62
     7
 10
2.4227260858
 20
3.3681640615
 30
0.0
  0
VERTEX
  5
728
  8
0
  6
CONTINUOUS
 62
     7
 10
2.4493477271
 20
3.3701303825
 30
0.0
  0
VERTEX
  5
729
  8
0
  6
CONTINUOUS
 62
     7
 10
2.4779604142
 20
3.3675033439
 30
0.0
  0
VERTEX
  5
72A
  8
0
  6
CONTINUOUS
 62
     7
 10
2.5074801458
 20
3.3603542595
 30
0.0
  0
VERTEX
  5
72B
  8
0
  6
CONTINUOUS
 62
     7
 10
2.5367730247
 20
3.3490920461
 30
0.0
  0
VERTEX
  5
72C
  8
0
  6
CONTINUOUS
 62
     7
 10
2.5647944717
 20
3.3343968543
 30
0.0
  0
VERTEX
  5
72D
  8
0
  6
CONTINUOUS
 62
     7
 10
2.5918188143
 20
3.316433734
 30
0.0
  0
VERTEX
  5
72E
  8
0
  6
CONTINUOUS
 62
     7
 10
2.6180269547
 20
3.2950615399
 30
0.0
  0
VERTEX
  5
72F
  8
0
  6
CONTINUOUS
 62
     7
 10
2.6423455464
 20
3.2708661411
 30
0.0
  0
VERTEX
  5
730
  8
0
  6
CONTINUOUS
 62
     7
 10
2.6637735715
 20
3.2446919547
 30
0.0
  0
VERTEX
  5
731
  8
0
  6
CONTINUOUS
 62
     7
 10
2.6815132763
 20
3.2175484482
 30
0.0
  0
VERTEX
  5
732
  8
0
  6
CONTINUOUS
 62
     7
 10
2.6950665925
 20
3.1904836582
 30
0.0
  0
VERTEX
  5
733
  8
0
  6
CONTINUOUS
 62
     7
 10
2.704315268
 20
3.1643522616
 30
0.0
  0
VERTEX
  5
734
  8
0
  6
CONTINUOUS
 62
     7
 10
2.7096684001
 20
3.1386601556
 30
0.0
  0
VERTEX
  5
735
  8
0
  6
CONTINUOUS
 62
     7
 10
2.710801857
 20
3.1139704656
 30
0.0
  0
VERTEX
  5
736
  8
0
  6
CONTINUOUS
 62
     7
 10
2.7074263111
 20
3.0912987071
 30
0.0
  0
VERTEX
  5
737
  8
0
  6
CONTINUOUS
 62
     7
 10
2.6995849428
 20
3.0715570849
 30
0.0
  0
VERTEX
  5
738
  8
0
  6
CONTINUOUS
 62
     7
 10
2.6876585026
 20
3.0554363486
 30
0.0
  0
VERTEX
  5
739
  8
0
  6
CONTINUOUS
 62
     7
 10
2.6723084582
 20
3.0433281381
 30
0.0
  0
VERTEX
  5
73A
  8
0
  6
CONTINUOUS
 62
     7
 10
2.6588568024
 20
3.0373594061
 30
0.0
  0
SEQEND
  5
904
  8
0
  6
CONTINUOUS
 62
     7
  0
POLYLINE
  5
30D
  8
0
  6
CONTINUOUS
 62
     7
 66
     1
 10
0.0
 20
0.0
 30
0.0
 70
   128
  0
VERTEX
  5
73B
  8
0
  6
CONTINUOUS
 62
     7
 10
2.3903075623
 20
3.3583971658
 30
0.0
  0
VERTEX
  5
73C
  8
0
  6
CONTINUOUS
 62
     7
 10
2.3930054069
 20
3.3641980701
 30
0.0
  0
VERTEX
  5
73D
  8
0
  6
CONTINUOUS
 62
     7
 10
2.4072961605
 20
3.3826303544
 30
0.0
  0
VERTEX
  5
73E
  8
0
  6
CONTINUOUS
 62
     7
 10
2.4248361255
 20
3.3968796117
 30
0.0
  0
VERTEX
  5
73F
  8
0
  6
CONTINUOUS
 62
     7
 10
2.445143986
 20
3.4069937919
 30
0.0
  0
VERTEX
  5
740
  8
0
  6
CONTINUOUS
 62
     7
 10
2.468873895
 20
3.4132819664
 30
0.0
  0
VERTEX
  5
741
  8
0
  6
CONTINUOUS
 62
     7
 10
2.4954955363
 20
3.4152482874
 30
0.0
  0
VERTEX
  5
742
  8
0
  6
CONTINUOUS
 62
     7
 10
2.5241082235
 20
3.4126212488
 30
0.0
  0
VERTEX
  5
743
  8
0
  6
CONTINUOUS
 62
     7
 10
2.5536279601
 20
3.4054721694
 30
0.0
  0
VERTEX
  5
744
  8
0
  6
CONTINUOUS
 62
     7
 10
2.5829208365
 20
3.3942099535
 30
0.0
  0
VERTEX
  5
745
  8
0
  6
CONTINUOUS
 62
     7
 10
2.6109422835
 20
3.3795147617
 30
0.0
  0
VERTEX
  5
746
  8
0
  6
CONTINUOUS
 62
     7
 10
2.6379666261
 20
3.3615516413
 30
0.0
  0
VERTEX
  5
747
  8
0
  6
CONTINUOUS
 62
     7
 10
2.6641747652
 20
3.3401794461
 30
0.0
  0
VERTEX
  5
748
  8
0
  6
CONTINUOUS
 62
     7
 10
2.6884933595
 20
3.3159840497
 30
0.0
  0
VERTEX
  5
749
  8
0
  6
CONTINUOUS
 62
     7
 10
2.7099213858
 20
3.2898098645
 30
0.0
  0
VERTEX
  5
74A
  8
0
  6
CONTINUOUS
 62
     7
 10
2.7276610894
 20
3.2626663569
 30
0.0
  0
VERTEX
  5
74B
  8
0
  6
CONTINUOUS
 62
     7
 10
2.741214403
 20
3.2356015644
 30
0.0
  0
VERTEX
  5
74C
  8
0
  6
CONTINUOUS
 62
     7
 10
2.7504630811
 20
3.2094701702
 30
0.0
  0
VERTEX
  5
74D
  8
0
  6
CONTINUOUS
 62
     7
 10
2.7545554109
 20
3.1898291793
 30
0.0
  0
SEQEND
  5
905
  8
0
  6
CONTINUOUS
 62
     7
  0
POLYLINE
  5
30E
  8
0
  6
CONTINUOUS
 62
     7
 66
     1
 10
0.0
 20
0.0
 30
0.0
 70
   128
  0
VERTEX
  5
74E
  8
0
  6
CONTINUOUS
 62
     7
 10
2.7560675259
 20
3.1783038499
 30
0.0
  0
VERTEX
  5
74F
  8
0
  6
CONTINUOUS
 62
     7
 10
2.7569496687
 20
3.159088373
 30
0.0
  0
VERTEX
  5
750
  8
0
  6
CONTINUOUS
 62
     7
 10
2.7539222155
 20
3.1387545976
 30
0.0
  0
SEQEND
  5
906
  8
0
  6
CONTINUOUS
 62
     7
  0
ARC
  5
30F
  8
0
  6
CONTINUOUS
 62
     7
 10
2.6823084168
 20
3.1509118344
 30
0.0
 40
0.072099938923941
 50
288.3480159234
 51
345.2010929623
  0
ARC
  5
310
  8
0
  6
CONTINUOUS
 62
     7
 10
2.1137926344
 20
2.7317740834
 30
0.0
 40
0.175148982323401
 50
336.5118361272
 51
40.7758884011
  0
ARC
  5
311
  8
0
  6
CONTINUOUS
 62
     7
 10
2.7037796992
 20
3.1388710309
 30
0.0
 40
0.0484197661987277
 50
308.7951576438
 51
343.9297155098
  0
POLYLINE
  5
312
  8
0
  6
CONTINUOUS
 62
     7
 66
     1
 10
0.0
 20
0.0
 30
0.0
 70
   128
  0
VERTEX
  5
751
  8
0
  6
CONTINUOUS
 62
     7
 10
2.7559404834
 20
3.142157171
 30
0.0
  0
VERTEX
  5
752
  8
0
  6
CONTINUOUS
 62
     7
 10
2.7587188677
 20
3.1608180878
 30
0.0
  0
VERTEX
  5
753
  8
0
  6
CONTINUOUS
 62
     7
 10
2.7579774648
 20
3.1769676505
 30
0.0
  0
SEQEND
  5
907
  8
0
  6
CONTINUOUS
 62
     7
  0
POLYLINE
  5
313
  8
0
  6
CONTINUOUS
 62
     7
 66
     1
 10
0.0
 20
0.0
 30
0.0
 70
   128
  0
VERTEX
  5
754
  8
0
  6
CONTINUOUS
 62
     7
 10
2.7550640712
 20
3.1976088316
 30
0.0
  0
VERTEX
  5
755
  8
0
  6
CONTINUOUS
 62
     7
 10
2.75223228
 20
3.2111998851
 30
0.0
  0
VERTEX
  5
756
  8
0
  6
CONTINUOUS
 62
     7
 10
2.7429836019
 20
3.2373312792
 30
0.0
  0
VERTEX
  5
757
  8
0
  6
CONTINUOUS
 62
     7
 10
2.7294302883
 20
3.2643960717
 30
0.0
  0
VERTEX
  5
758
  8
0
  6
CONTINUOUS
 62
     7
 10
2.7116905835
 20
3.2915395781
 30
0.0
  0
VERTEX
  5
759
  8
0
  6
CONTINUOUS
 62
     7
 10
2.6902625585
 20
3.3177137646
 30
0.0
  0
VERTEX
  5
75A
  8
0
  6
CONTINUOUS
 62
     7
 10
2.6659439629
 20
3.3419091597
 30
0.0
  0
VERTEX
  5
75B
  8
0
  6
CONTINUOUS
 62
     7
 10
2.639735825
 20
3.3632813562
 30
0.0
  0
VERTEX
  5
75C
  8
0
  6
CONTINUOUS
 62
     7
 10
2.6127114824
 20
3.3812444765
 30
0.0
  0
VERTEX
  5
75D
  8
0
  6
CONTINUOUS
 62
     7
 10
2.5846900355
 20
3.3959396683
 30
0.0
  0
VERTEX
  5
75E
  8
0
  6
CONTINUOUS
 62
     7
 10
2.5553971565
 20
3.4072018817
 30
0.0
  0
VERTEX
  5
75F
  8
0
  6
CONTINUOUS
 62
     7
 10
2.5258774224
 20
3.4143509636
 30
0.0
  0
VERTEX
  5
760
  8
0
  6
CONTINUOUS
 62
     7
 10
2.4972647353
 20
3.4169780022
 30
0.0
  0
VERTEX
  5
761
  8
0
  6
CONTINUOUS
 62
     7
 10
2.470643094
 20
3.4150116813
 30
0.0
  0
VERTEX
  5
762
  8
0
  6
CONTINUOUS
 62
     7
 10
2.4469131849
 20
3.4087235067
 30
0.0
  0
VERTEX
  5
763
  8
0
  6
CONTINUOUS
 62
     7
 10
2.4266053244
 20
3.3986093265
 30
0.0
  0
VERTEX
  5
764
  8
0
  6
CONTINUOUS
 62
     7
 10
2.4107325003
 20
3.3857144373
 30
0.0
  0
SEQEND
  5
908
  8
0
  6
CONTINUOUS
 62
     7
  0
POLYLINE
  5
314
  8
0
  6
CONTINUOUS
 62
     7
 66
     1
 10
0.0
 20
0.0
 30
0.0
 70
   128
  0
VERTEX
  5
765
  8
0
  6
CONTINUOUS
 62
     7
 10
2.6879687063
 20
3.0560151956
 30
0.0
  0
VERTEX
  5
766
  8
0
  6
CONTINUOUS
 62
     7
 10
2.6894277016
 20
3.0571660634
 30
0.0
  0
VERTEX
  5
767
  8
0
  6
CONTINUOUS
 62
     7
 10
2.7013541418
 20
3.0732867998
 30
0.0
  0
VERTEX
  5
768
  8
0
  6
CONTINUOUS
 62
     7
 10
2.70919551
 20
3.0930284219
 30
0.0
  0
VERTEX
  5
769
  8
0
  6
CONTINUOUS
 62
     7
 10
2.7125710559
 20
3.1157001805
 30
0.0
  0
VERTEX
  5
76A
  8
0
  6
CONTINUOUS
 62
     7
 10
2.711437599
 20
3.1403898704
 30
0.0
  0
VERTEX
  5
76B
  8
0
  6
CONTINUOUS
 62
     7
 10
2.706084467
 20
3.1660819765
 30
0.0
  0
VERTEX
  5
76C
  8
0
  6
CONTINUOUS
 62
     7
 10
2.6968357914
 20
3.192213373
 30
0.0
  0
VERTEX
  5
76D
  8
0
  6
CONTINUOUS
 62
     7
 10
2.6832824753
 20
3.2192781631
 30
0.0
  0
VERTEX
  5
76E
  8
0
  6
CONTINUOUS
 62
     7
 10
2.6655427704
 20
3.2464216695
 30
0.0
  0
VERTEX
  5
76F
  8
0
  6
CONTINUOUS
 62
     7
 10
2.6441147454
 20
3.2725958559
 30
0.0
  0
VERTEX
  5
770
  8
0
  6
CONTINUOUS
 62
     7
 10
2.6197961536
 20
3.2967912548
 30
0.0
  0
VERTEX
  5
771
  8
0
  6
CONTINUOUS
 62
     7
 10
2.5935880133
 20
3.3181634488
 30
0.0
  0
VERTEX
  5
772
  8
0
  6
CONTINUOUS
 62
     7
 10
2.5665636706
 20
3.3361265691
 30
0.0
  0
VERTEX
  5
773
  8
0
  6
CONTINUOUS
 62
     7
 10
2.5385422237
 20
3.3508217609
 30
0.0
  0
VERTEX
  5
774
  8
0
  6
CONTINUOUS
 62
     7
 10
2.5092493448
 20
3.3620839744
 30
0.0
  0
VERTEX
  5
775
  8
0
  6
CONTINUOUS
 62
     7
 10
2.4797296132
 20
3.3692330587
 30
0.0
  0
VERTEX
  5
776
  8
0
  6
CONTINUOUS
 62
     7
 10
2.451116926
 20
3.3718600973
 30
0.0
  0
VERTEX
  5
777
  8
0
  6
CONTINUOUS
 62
     7
 10
2.4244952847
 20
3.3698937764
 30
0.0
  0
VERTEX
  5
778
  8
0
  6
CONTINUOUS
 62
     7
 10
2.4007653731
 20
3.3636055993
 30
0.0
  0
VERTEX
  5
779
  8
0
  6
CONTINUOUS
 62
     7
 10
2.3804575152
 20
3.3534914217
 30
0.0
  0
VERTEX
  5
77A
  8
0
  6
CONTINUOUS
 62
     7
 10
2.3645846885
 20
3.3405965299
 30
0.0
  0
SEQEND
  5
909
  8
0
  6
CONTINUOUS
 62
     7
  0
POLYLINE
  5
315
  8
0
  6
CONTINUOUS
 62
     7
 66
     1
 10
0.0
 20
0.0
 30
0.0
 70
   128
  0
VERTEX
  5
77B
  8
0
  6
CONTINUOUS
 62
     7
 10
2.6418208945
 20
3.0108972882
 30
0.0
  0
VERTEX
  5
77C
  8
0
  6
CONTINUOUS
 62
     7
 10
2.6432798898
 20
3.012048156
 30
0.0
  0
VERTEX
  5
77D
  8
0
  6
CONTINUOUS
 62
     7
 10
2.655206335
 20
3.0281688973
 30
0.0
  0
VERTEX
  5
77E
  8
0
  6
CONTINUOUS
 62
     7
 10
2.6630476932
 20
3.0479105096
 30
0.0
  0
VERTEX
  5
77F
  8
0
  6
CONTINUOUS
 62
     7
 10
2.6664232441
 20
3.0705822731
 30
0.0
  0
VERTEX
  5
780
  8
0
  6
CONTINUOUS
 62
     7
 10
2.6652897872
 20
3.0952719631
 30
0.0
  0
VERTEX
  5
781
  8
0
  6
CONTINUOUS
 62
     7
 10
2.6599366552
 20
3.1209640691
 30
0.0
  0
VERTEX
  5
782
  8
0
  6
CONTINUOUS
 62
     7
 10
2.6506879746
 20
3.1470954607
 30
0.0
  0
VERTEX
  5
783
  8
0
  6
CONTINUOUS
 62
     7
 10
2.6371346635
 20
3.1741602557
 30
0.0
  0
VERTEX
  5
784
  8
0
  6
CONTINUOUS
 62
     7
 10
2.6193949637
 20
3.2013037671
 30
0.0
  0
VERTEX
  5
785
  8
0
  6
CONTINUOUS
 62
     7
 10
2.5979669387
 20
3.2274779535
 30
0.0
  0
VERTEX
  5
786
  8
0
  6
CONTINUOUS
 62
     7
 10
2.5736483368
 20
3.2516733424
 30
0.0
  0
VERTEX
  5
787
  8
0
  6
CONTINUOUS
 62
     7
 10
2.5474402065
 20
3.2730455464
 30
0.0
  0
VERTEX
  5
788
  8
0
  6
CONTINUOUS
 62
     7
 10
2.5204158639
 20
3.2910086667
 30
0.0
  0
VERTEX
  5
789
  8
0
  6
CONTINUOUS
 62
     7
 10
2.4923944068
 20
3.3057038486
 30
0.0
  0
VERTEX
  5
78A
  8
0
  6
CONTINUOUS
 62
     7
 10
2.463101538
 20
3.316966072
 30
0.0
  0
VERTEX
  5
78B
  8
0
  6
CONTINUOUS
 62
     7
 10
2.4335817963
 20
3.3241151464
 30
0.0
  0
VERTEX
  5
78C
  8
0
  6
CONTINUOUS
 62
     7
 10
2.4049691092
 20
3.326742185
 30
0.0
  0
VERTEX
  5
78D
  8
0
  6
CONTINUOUS
 62
     7
 10
2.3783474729
 20
3.324775869
 30
0.0
  0
VERTEX
  5
78E
  8
0
  6
CONTINUOUS
 62
     7
 10
2.3546175664
 20
3.3184876969
 30
0.0
  0
VERTEX
  5
78F
  8
0
  6
CONTINUOUS
 62
     7
 10
2.3343097034
 20
3.3083735143
 30
0.0
  0
VERTEX
  5
790
  8
0
  6
CONTINUOUS
 62
     7
 10
2.3184368818
 20
3.2954786275
 30
0.0
  0
SEQEND
  5
90A
  8
0
  6
CONTINUOUS
 62
     7
  0
POLYLINE
  5
316
  8
0
  6
CONTINUOUS
 62
     7
 66
     1
 10
0.0
 20
0.0
 30
0.0
 70
   128
  0
VERTEX
  5
791
  8
0
  6
CONTINUOUS
 62
     7
 10
2.5956730878
 20
2.9657793858
 30
0.0
  0
VERTEX
  5
792
  8
0
  6
CONTINUOUS
 62
     7
 10
2.5971320729
 20
2.9669302437
 30
0.0
  0
VERTEX
  5
793
  8
0
  6
CONTINUOUS
 62
     7
 10
2.6090585182
 20
2.983050985
 30
0.0
  0
VERTEX
  5
794
  8
0
  6
CONTINUOUS
 62
     7
 10
2.6168998864
 20
3.0027926072
 30
0.0
  0
VERTEX
  5
795
  8
0
  6
CONTINUOUS
 62
     7
 10
2.6202754374
 20
3.0254643707
 30
0.0
  0
VERTEX
  5
796
  8
0
  6
CONTINUOUS
 62
     7
 10
2.6191419704
 20
3.0501540507
 30
0.0
  0
VERTEX
  5
797
  8
0
  6
CONTINUOUS
 62
     7
 10
2.6137888485
 20
3.0758461667
 30
0.0
  0
VERTEX
  5
798
  8
0
  6
CONTINUOUS
 62
     7
 10
2.6045401678
 20
3.1019775583
 30
0.0
  0
VERTEX
  5
799
  8
0
  6
CONTINUOUS
 62
     7
 10
2.5909868568
 20
3.1290423533
 30
0.0
  0
VERTEX
  5
79A
  8
0
  6
CONTINUOUS
 62
     7
 10
2.5732471469
 20
3.1561858548
 30
0.0
  0
VERTEX
  5
79B
  8
0
  6
CONTINUOUS
 62
     7
 10
2.5518191218
 20
3.1823600412
 30
0.0
  0
VERTEX
  5
79C
  8
0
  6
CONTINUOUS
 62
     7
 10
2.5275005301
 20
3.20655544
 30
0.0
  0
VERTEX
  5
79D
  8
0
  6
CONTINUOUS
 62
     7
 10
2.5012923897
 20
3.227927634
 30
0.0
  0
VERTEX
  5
79E
  8
0
  6
CONTINUOUS
 62
     7
 10
2.474268047
 20
3.2458907544
 30
0.0
  0
VERTEX
  5
79F
  8
0
  6
CONTINUOUS
 62
     7
 10
2.4462466001
 20
3.2605859462
 30
0.0
  0
VERTEX
  5
7A0
  8
0
  6
CONTINUOUS
 62
     7
 10
2.4169537212
 20
3.2718481596
 30
0.0
  0
VERTEX
  5
7A1
  8
0
  6
CONTINUOUS
 62
     7
 10
2.3874339896
 20
3.278997244
 30
0.0
  0
VERTEX
  5
7A2
  8
0
  6
CONTINUOUS
 62
     7
 10
2.3588213025
 20
3.2816242825
 30
0.0
  0
VERTEX
  5
7A3
  8
0
  6
CONTINUOUS
 62
     7
 10
2.3321996561
 20
3.2796579567
 30
0.0
  0
VERTEX
  5
7A4
  8
0
  6
CONTINUOUS
 62
     7
 10
2.3084697495
 20
3.2733697846
 30
0.0
  0
VERTEX
  5
7A5
  8
0
  6
CONTINUOUS
 62
     7
 10
2.2881618865
 20
3.2632556019
 30
0.0
  0
VERTEX
  5
7A6
  8
0
  6
CONTINUOUS
 62
     7
 10
2.2722890649
 20
3.2503607151
 30
0.0
  0
SEQEND
  5
90B
  8
0
  6
CONTINUOUS
 62
     7
  0
POLYLINE
  5
317
  8
0
  6
CONTINUOUS
 62
     7
 66
     1
 10
0.0
 20
0.0
 30
0.0
 70
   128
  0
VERTEX
  5
7A7
  8
0
  6
CONTINUOUS
 62
     7
 10
2.549525281
 20
2.9206614834
 30
0.0
  0
VERTEX
  5
7A8
  8
0
  6
CONTINUOUS
 62
     7
 10
2.5509842662
 20
2.9218123413
 30
0.0
  0
VERTEX
  5
7A9
  8
0
  6
CONTINUOUS
 62
     7
 10
2.5629107115
 20
2.9379330826
 30
0.0
  0
VERTEX
  5
7AA
  8
0
  6
CONTINUOUS
 62
     7
 10
2.5707520696
 20
2.9576746949
 30
0.0
  0
VERTEX
  5
7AB
  8
0
  6
CONTINUOUS
 62
     7
 10
2.5741276307
 20
2.9803464683
 30
0.0
  0
VERTEX
  5
7AC
  8
0
  6
CONTINUOUS
 62
     7
 10
2.5729941535
 20
3.0050361384
 30
0.0
  0
VERTEX
  5
7AD
  8
0
  6
CONTINUOUS
 62
     7
 10
2.5676410316
 20
3.0307282543
 30
0.0
  0
VERTEX
  5
7AE
  8
0
  6
CONTINUOUS
 62
     7
 10
2.558392351
 20
3.056859646
 30
0.0
  0
VERTEX
  5
7AF
  8
0
  6
CONTINUOUS
 62
     7
 10
2.5448390399
 20
3.083924441
 30
0.0
  0
VERTEX
  5
7B0
  8
0
  6
CONTINUOUS
 62
     7
 10
2.5270993401
 20
3.1110679524
 30
0.0
  0
VERTEX
  5
7B1
  8
0
  6
CONTINUOUS
 62
     7
 10
2.5056713151
 20
3.1372421388
 30
0.0
  0
VERTEX
  5
7B2
  8
0
  6
CONTINUOUS
 62
     7
 10
2.4813527132
 20
3.1614375277
 30
0.0
  0
VERTEX
  5
7B3
  8
0
  6
CONTINUOUS
 62
     7
 10
2.4551445728
 20
3.1828097217
 30
0.0
  0
VERTEX
  5
7B4
  8
0
  6
CONTINUOUS
 62
     7
 10
2.4281202302
 20
3.2007728421
 30
0.0
  0
VERTEX
  5
7B5
  8
0
  6
CONTINUOUS
 62
     7
 10
2.4000987832
 20
3.2154680338
 30
0.0
  0
VERTEX
  5
7B6
  8
0
  6
CONTINUOUS
 62
     7
 10
2.3708059043
 20
3.2267302473
 30
0.0
  0
VERTEX
  5
7B7
  8
0
  6
CONTINUOUS
 62
     7
 10
2.3412861829
 20
3.2338793416
 30
0.0
  0
VERTEX
  5
7B8
  8
0
  6
CONTINUOUS
 62
     7
 10
2.3126734958
 20
3.2365063801
 30
0.0
  0
VERTEX
  5
7B9
  8
0
  6
CONTINUOUS
 62
     7
 10
2.2860518392
 20
3.2345400443
 30
0.0
  0
VERTEX
  5
7BA
  8
0
  6
CONTINUOUS
 62
     7
 10
2.2623219327
 20
3.2282518723
 30
0.0
  0
VERTEX
  5
7BB
  8
0
  6
CONTINUOUS
 62
     7
 10
2.2420140697
 20
3.2181376896
 30
0.0
  0
VERTEX
  5
7BC
  8
0
  6
CONTINUOUS
 62
     7
 10
2.2261412582
 20
3.2052428127
 30
0.0
  0
SEQEND
  5
90C
  8
0
  6
CONTINUOUS
 62
     7
  0
POLYLINE
  5
318
  8
0
  6
CONTINUOUS
 62
     7
 66
     1
 10
0.0
 20
0.0
 30
0.0
 70
   128
  0
VERTEX
  5
7BD
  8
0
  6
CONTINUOUS
 62
     7
 10
2.5033774642
 20
2.875543571
 30
0.0
  0
VERTEX
  5
7BE
  8
0
  6
CONTINUOUS
 62
     7
 10
2.5048364493
 20
2.8766944289
 30
0.0
  0
VERTEX
  5
7BF
  8
0
  6
CONTINUOUS
 62
     7
 10
2.5167628946
 20
2.8928151703
 30
0.0
  0
VERTEX
  5
7C0
  8
0
  6
CONTINUOUS
 62
     7
 10
2.524604273
 20
2.9125568024
 30
0.0
  0
VERTEX
  5
7C1
  8
0
  6
CONTINUOUS
 62
     7
 10
2.5279798138
 20
2.9352285559
 30
0.0
  0
VERTEX
  5
7C2
  8
0
  6
CONTINUOUS
 62
     7
 10
2.5268463569
 20
2.9599182459
 30
0.0
  0
VERTEX
  5
7C3
  8
0
  6
CONTINUOUS
 62
     7
 10
2.5214932148
 20
2.985610342
 30
0.0
  0
VERTEX
  5
7C4
  8
0
  6
CONTINUOUS
 62
     7
 10
2.5122445544
 20
3.0117417535
 30
0.0
  0
VERTEX
  5
7C5
  8
0
  6
CONTINUOUS
 62
     7
 10
2.498691223
 20
3.0388065286
 30
0.0
  0
VERTEX
  5
7C6
  8
0
  6
CONTINUOUS
 62
     7
 10
2.4809515233
 20
3.06595004
 30
0.0
  0
VERTEX
  5
7C7
  8
0
  6
CONTINUOUS
 62
     7
 10
2.4595234982
 20
3.0921242264
 30
0.0
  0
VERTEX
  5
7C8
  8
0
  6
CONTINUOUS
 62
     7
 10
2.4352048963
 20
3.1163196154
 30
0.0
  0
VERTEX
  5
7C9
  8
0
  6
CONTINUOUS
 62
     7
 10
2.4089967762
 20
3.1376918292
 30
0.0
  0
VERTEX
  5
7CA
  8
0
  6
CONTINUOUS
 62
     7
 10
2.3819724336
 20
3.1556549496
 30
0.0
  0
VERTEX
  5
7CB
  8
0
  6
CONTINUOUS
 62
     7
 10
2.3539509867
 20
3.1703501413
 30
0.0
  0
VERTEX
  5
7CC
  8
0
  6
CONTINUOUS
 62
     7
 10
2.3246581078
 20
3.1816123548
 30
0.0
  0
VERTEX
  5
7CD
  8
0
  6
CONTINUOUS
 62
     7
 10
2.295138366
 20
3.1887614292
 30
0.0
  0
VERTEX
  5
7CE
  8
0
  6
CONTINUOUS
 62
     7
 10
2.2665256789
 20
3.1913884678
 30
0.0
  0
VERTEX
  5
7CF
  8
0
  6
CONTINUOUS
 62
     7
 10
2.2399040426
 20
3.1894221518
 30
0.0
  0
VERTEX
  5
7D0
  8
0
  6
CONTINUOUS
 62
     7
 10
2.2161741361
 20
3.1831339798
 30
0.0
  0
VERTEX
  5
7D1
  8
0
  6
CONTINUOUS
 62
     7
 10
2.1958662731
 20
3.1730197971
 30
0.0
  0
VERTEX
  5
7D2
  8
0
  6
CONTINUOUS
 62
     7
 10
2.1799934414
 20
3.1601249004
 30
0.0
  0
SEQEND
  5
90D
  8
0
  6
CONTINUOUS
 62
     7
  0
POLYLINE
  5
319
  8
0
  6
CONTINUOUS
 62
     7
 66
     1
 10
0.0
 20
0.0
 30
0.0
 70
   128
  0
VERTEX
  5
7D3
  8
0
  6
CONTINUOUS
 62
     7
 10
2.4572296473
 20
2.8304256587
 30
0.0
  0
VERTEX
  5
7D4
  8
0
  6
CONTINUOUS
 62
     7
 10
2.4586886528
 20
2.8315765364
 30
0.0
  0
VERTEX
  5
7D5
  8
0
  6
CONTINUOUS
 62
     7
 10
2.4706150777
 20
2.8476972579
 30
0.0
  0
VERTEX
  5
7D6
  8
0
  6
CONTINUOUS
 62
     7
 10
2.4784564562
 20
2.86743889
 30
0.0
  0
VERTEX
  5
7D7
  8
0
  6
CONTINUOUS
 62
     7
 10
2.481831997
 20
2.8901106436
 30
0.0
  0
VERTEX
  5
7D8
  8
0
  6
CONTINUOUS
 62
     7
 10
2.4806985401
 20
2.9148003336
 30
0.0
  0
VERTEX
  5
7D9
  8
0
  6
CONTINUOUS
 62
     7
 10
2.4753454182
 20
2.9404924495
 30
0.0
  0
VERTEX
  5
7DA
  8
0
  6
CONTINUOUS
 62
     7
 10
2.4660967375
 20
2.9666238411
 30
0.0
  0
VERTEX
  5
7DB
  8
0
  6
CONTINUOUS
 62
     7
 10
2.4525434265
 20
2.9936886361
 30
0.0
  0
VERTEX
  5
7DC
  8
0
  6
CONTINUOUS
 62
     7
 10
2.4348037064
 20
3.0208321277
 30
0.0
  0
VERTEX
  5
7DD
  8
0
  6
CONTINUOUS
 62
     7
 10
2.4133756814
 20
3.0470063141
 30
0.0
  0
VERTEX
  5
7DE
  8
0
  6
CONTINUOUS
 62
     7
 10
2.3890570998
 20
3.0712017229
 30
0.0
  0
VERTEX
  5
7DF
  8
0
  6
CONTINUOUS
 62
     7
 10
2.3628489594
 20
3.0925739169
 30
0.0
  0
VERTEX
  5
7E0
  8
0
  6
CONTINUOUS
 62
     7
 10
2.3358246167
 20
3.1105370372
 30
0.0
  0
VERTEX
  5
7E1
  8
0
  6
CONTINUOUS
 62
     7
 10
2.3078031698
 20
3.125232229
 30
0.0
  0
VERTEX
  5
7E2
  8
0
  6
CONTINUOUS
 62
     7
 10
2.2785102909
 20
3.1364944425
 30
0.0
  0
VERTEX
  5
7E3
  8
0
  6
CONTINUOUS
 62
     7
 10
2.2489905491
 20
3.1436435169
 30
0.0
  0
VERTEX
  5
7E4
  8
0
  6
CONTINUOUS
 62
     7
 10
2.220377862
 20
3.1462705555
 30
0.0
  0
VERTEX
  5
7E5
  8
0
  6
CONTINUOUS
 62
     7
 10
2.1937562258
 20
3.1443042395
 30
0.0
  0
VERTEX
  5
7E6
  8
0
  6
CONTINUOUS
 62
     7
 10
2.1700263192
 20
3.1380160674
 30
0.0
  0
VERTEX
  5
7E7
  8
0
  6
CONTINUOUS
 62
     7
 10
2.1497184562
 20
3.1279018848
 30
0.0
  0
VERTEX
  5
7E8
  8
0
  6
CONTINUOUS
 62
     7
 10
2.1338456245
 20
3.1150069881
 30
0.0
  0
SEQEND
  5
90E
  8
0
  6
CONTINUOUS
 62
     7
  0
POLYLINE
  5
31A
  8
0
  6
CONTINUOUS
 62
     7
 66
     1
 10
0.0
 20
0.0
 30
0.0
 70
   128
  0
VERTEX
  5
7E9
  8
0
  6
CONTINUOUS
 62
     7
 10
2.4110818305
 20
2.7853077464
 30
0.0
  0
VERTEX
  5
7EA
  8
0
  6
CONTINUOUS
 62
     7
 10
2.4125408359
 20
2.7864586241
 30
0.0
  0
VERTEX
  5
7EB
  8
0
  6
CONTINUOUS
 62
     7
 10
2.4244672812
 20
2.8025793654
 30
0.0
  0
VERTEX
  5
7EC
  8
0
  6
CONTINUOUS
 62
     7
 10
2.4323086393
 20
2.8223209777
 30
0.0
  0
VERTEX
  5
7ED
  8
0
  6
CONTINUOUS
 62
     7
 10
2.4356841801
 20
2.8449927313
 30
0.0
  0
VERTEX
  5
7EE
  8
0
  6
CONTINUOUS
 62
     7
 10
2.4345507232
 20
2.8696824212
 30
0.0
  0
VERTEX
  5
7EF
  8
0
  6
CONTINUOUS
 62
     7
 10
2.4291976013
 20
2.8953745372
 30
0.0
  0
VERTEX
  5
7F0
  8
0
  6
CONTINUOUS
 62
     7
 10
2.4199489207
 20
2.9215059288
 30
0.0
  0
VERTEX
  5
7F1
  8
0
  6
CONTINUOUS
 62
     7
 10
2.4063956096
 20
2.9485707238
 30
0.0
  0
VERTEX
  5
7F2
  8
0
  6
CONTINUOUS
 62
     7
 10
2.3886559099
 20
2.9757142352
 30
0.0
  0
VERTEX
  5
7F3
  8
0
  6
CONTINUOUS
 62
     7
 10
2.3672278848
 20
3.0018884216
 30
0.0
  0
VERTEX
  5
7F4
  8
0
  6
CONTINUOUS
 62
     7
 10
2.3429093032
 20
3.0260838304
 30
0.0
  0
VERTEX
  5
7F5
  8
0
  6
CONTINUOUS
 62
     7
 10
2.3167011425
 20
3.0474560046
 30
0.0
  0
VERTEX
  5
7F6
  8
0
  6
CONTINUOUS
 62
     7
 10
2.2896768202
 20
3.0654191447
 30
0.0
  0
VERTEX
  5
7F7
  8
0
  6
CONTINUOUS
 62
     7
 10
2.2616553529
 20
3.0801143167
 30
0.0
  0
VERTEX
  5
7F8
  8
0
  6
CONTINUOUS
 62
     7
 10
2.2323624943
 20
3.09137655
 30
0.0
  0
VERTEX
  5
7F9
  8
0
  6
CONTINUOUS
 62
     7
 10
2.2028427323
 20
3.0985256046
 30
0.0
  0
VERTEX
  5
7FA
  8
0
  6
CONTINUOUS
 62
     7
 10
2.1742300452
 20
3.1011526431
 30
0.0
  0
VERTEX
  5
7FB
  8
0
  6
CONTINUOUS
 62
     7
 10
2.1476084089
 20
3.0991863272
 30
0.0
  0
VERTEX
  5
7FC
  8
0
  6
CONTINUOUS
 62
     7
 10
2.1238785024
 20
3.0928981551
 30
0.0
  0
VERTEX
  5
7FD
  8
0
  6
CONTINUOUS
 62
     7
 10
2.1035706394
 20
3.0827839725
 30
0.0
  0
VERTEX
  5
7FE
  8
0
  6
CONTINUOUS
 62
     7
 10
2.0876978076
 20
3.0698890757
 30
0.0
  0
SEQEND
  5
90F
  8
0
  6
CONTINUOUS
 62
     7
  0
POLYLINE
  5
31B
  8
0
  6
CONTINUOUS
 62
     7
 66
     1
 10
0.0
 20
0.0
 30
0.0
 70
   128
  0
VERTEX
  5
7FF
  8
0
  6
CONTINUOUS
 62
     7
 10
2.3649340136
 20
2.740189834
 30
0.0
  0
VERTEX
  5
800
  8
0
  6
CONTINUOUS
 62
     7
 10
2.3663930393
 20
2.7413407316
 30
0.0
  0
VERTEX
  5
801
  8
0
  6
CONTINUOUS
 62
     7
 10
2.3783194643
 20
2.7574614531
 30
0.0
  0
VERTEX
  5
802
  8
0
  6
CONTINUOUS
 62
     7
 10
2.3861608224
 20
2.7772030654
 30
0.0
  0
VERTEX
  5
803
  8
0
  6
CONTINUOUS
 62
     7
 10
2.3895363632
 20
2.7998748189
 30
0.0
  0
VERTEX
  5
804
  8
0
  6
CONTINUOUS
 62
     7
 10
2.3884029266
 20
2.8245645288
 30
0.0
  0
VERTEX
  5
805
  8
0
  6
CONTINUOUS
 62
     7
 10
2.3830497845
 20
2.8502566248
 30
0.0
  0
VERTEX
  5
806
  8
0
  6
CONTINUOUS
 62
     7
 10
2.3738011038
 20
2.8763880165
 30
0.0
  0
VERTEX
  5
807
  8
0
  6
CONTINUOUS
 62
     7
 10
2.3602477927
 20
2.9034528115
 30
0.0
  0
VERTEX
  5
808
  8
0
  6
CONTINUOUS
 62
     7
 10
2.342508093
 20
2.9305963229
 30
0.0
  0
VERTEX
  5
809
  8
0
  6
CONTINUOUS
 62
     7
 10
2.321080068
 20
2.9567705093
 30
0.0
  0
VERTEX
  5
80A
  8
0
  6
CONTINUOUS
 62
     7
 10
2.2967614863
 20
2.980965918
 30
0.0
  0
VERTEX
  5
80B
  8
0
  6
CONTINUOUS
 62
     7
 10
2.2705533257
 20
3.0023380922
 30
0.0
  0
VERTEX
  5
80C
  8
0
  6
CONTINUOUS
 62
     7
 10
2.2435290033
 20
3.0203012324
 30
0.0
  0
VERTEX
  5
80D
  8
0
  6
CONTINUOUS
 62
     7
 10
2.2155075361
 20
3.0349964043
 30
0.0
  0
VERTEX
  5
80E
  8
0
  6
CONTINUOUS
 62
     7
 10
2.1862146775
 20
3.0462586376
 30
0.0
  0
VERTEX
  5
80F
  8
0
  6
CONTINUOUS
 62
     7
 10
2.1566949154
 20
3.0534076922
 30
0.0
  0
VERTEX
  5
810
  8
0
  6
CONTINUOUS
 62
     7
 10
2.1280822283
 20
3.0560347308
 30
0.0
  0
VERTEX
  5
811
  8
0
  6
CONTINUOUS
 62
     7
 10
2.101460592
 20
3.0540684148
 30
0.0
  0
VERTEX
  5
812
  8
0
  6
CONTINUOUS
 62
     7
 10
2.0777306855
 20
3.0477802428
 30
0.0
  0
VERTEX
  5
813
  8
0
  6
CONTINUOUS
 62
     7
 10
2.0574228225
 20
3.0376660601
 30
0.0
  0
VERTEX
  5
814
  8
0
  6
CONTINUOUS
 62
     7
 10
2.0415499908
 20
3.0247711634
 30
0.0
  0
SEQEND
  5
910
  8
0
  6
CONTINUOUS
 62
     7
  0
POLYLINE
  5
31C
  8
0
  6
CONTINUOUS
 62
     7
 66
     1
 10
0.0
 20
0.0
 30
0.0
 70
   128
  0
VERTEX
  5
815
  8
0
  6
CONTINUOUS
 62
     7
 10
2.3187862373
 20
2.6950719614
 30
0.0
  0
VERTEX
  5
816
  8
0
  6
CONTINUOUS
 62
     7
 10
2.3202452225
 20
2.6962228193
 30
0.0
  0
VERTEX
  5
817
  8
0
  6
CONTINUOUS
 62
     7
 10
2.3321716475
 20
2.7123435408
 30
0.0
  0
VERTEX
  5
818
  8
0
  6
CONTINUOUS
 62
     7
 10
2.3400130056
 20
2.732085153
 30
0.0
  0
VERTEX
  5
819
  8
0
  6
CONTINUOUS
 62
     7
 10
2.3433885464
 20
2.7547569066
 30
0.0
  0
VERTEX
  5
81A
  8
0
  6
CONTINUOUS
 62
     7
 10
2.3422551098
 20
2.7794466164
 30
0.0
  0
VERTEX
  5
81B
  8
0
  6
CONTINUOUS
 62
     7
 10
2.3369019676
 20
2.8051387125
 30
0.0
  0
VERTEX
  5
81C
  8
0
  6
CONTINUOUS
 62
     7
 10
2.327653287
 20
2.8312701041
 30
0.0
  0
VERTEX
  5
81D
  8
0
  6
CONTINUOUS
 62
     7
 10
2.3140999759
 20
2.8583348991
 30
0.0
  0
VERTEX
  5
81E
  8
0
  6
CONTINUOUS
 62
     7
 10
2.2963602761
 20
2.8854784105
 30
0.0
  0
VERTEX
  5
81F
  8
0
  6
CONTINUOUS
 62
     7
 10
2.2749322511
 20
2.911652597
 30
0.0
  0
VERTEX
  5
820
  8
0
  6
CONTINUOUS
 62
     7
 10
2.2506136695
 20
2.9358480057
 30
0.0
  0
VERTEX
  5
821
  8
0
  6
CONTINUOUS
 62
     7
 10
2.2244055088
 20
2.9572201799
 30
0.0
  0
VERTEX
  5
822
  8
0
  6
CONTINUOUS
 62
     7
 10
2.1973811865
 20
2.9751833201
 30
0.0
  0
VERTEX
  5
823
  8
0
  6
CONTINUOUS
 62
     7
 10
2.1693597192
 20
2.989878492
 30
0.0
  0
VERTEX
  5
824
  8
0
  6
CONTINUOUS
 62
     7
 10
2.1400668606
 20
3.0011407253
 30
0.0
  0
VERTEX
  5
825
  8
0
  6
CONTINUOUS
 62
     7
 10
2.1105471391
 20
3.0082898196
 30
0.0
  0
VERTEX
  5
826
  8
0
  6
CONTINUOUS
 62
     7
 10
2.081934452
 20
3.0109168581
 30
0.0
  0
VERTEX
  5
827
  8
0
  6
CONTINUOUS
 62
     7
 10
2.0553127752
 20
3.0089505025
 30
0.0
  0
VERTEX
  5
828
  8
0
  6
CONTINUOUS
 62
     7
 10
2.0315828687
 20
3.0026623304
 30
0.0
  0
VERTEX
  5
829
  8
0
  6
CONTINUOUS
 62
     7
 10
2.0112750056
 20
2.9925481478
 30
0.0
  0
VERTEX
  5
82A
  8
0
  6
CONTINUOUS
 62
     7
 10
1.9954022145
 20
2.9796532907
 30
0.0
  0
SEQEND
  5
911
  8
0
  6
CONTINUOUS
 62
     7
  0
ARC
  5
31D
  8
0
  6
CONTINUOUS
 62
     7
 10
2.7365652993
 20
3.4604035902
 30
0.0
 40
0.5090368145124744
 50
199.7712573045
 51
204.2791459897
  0
POLYLINE
  5
31E
  8
0
  6
CONTINUOUS
 62
     7
 66
     1
 10
0.0
 20
0.0
 30
0.0
 70
   128
  0
VERTEX
  5
82B
  8
0
  6
CONTINUOUS
 62
     7
 10
2.2375661993
 20
3.3650483535
 30
0.0
  0
VERTEX
  5
82C
  8
0
  6
CONTINUOUS
 62
     7
 10
2.236838506
 20
3.3698815437
 30
0.0
  0
VERTEX
  5
82D
  8
0
  6
CONTINUOUS
 62
     7
 10
2.2343351369
 20
3.3924617467
 30
0.0
  0
VERTEX
  5
82E
  8
0
  6
CONTINUOUS
 62
     7
 10
2.2333938171
 20
3.4144720579
 30
0.0
  0
VERTEX
  5
82F
  8
0
  6
CONTINUOUS
 62
     7
 10
2.2340186996
 20
3.4358161992
 30
0.0
  0
VERTEX
  5
830
  8
0
  6
CONTINUOUS
 62
     7
 10
2.2362069817
 20
3.4564008772
 30
0.0
  0
VERTEX
  5
831
  8
0
  6
CONTINUOUS
 62
     7
 10
2.239949134
 20
3.4761360653
 30
0.0
  0
VERTEX
  5
832
  8
0
  6
CONTINUOUS
 62
     7
 10
2.2452287908
 20
3.4949354633
 30
0.0
  0
VERTEX
  5
833
  8
0
  6
CONTINUOUS
 62
     7
 10
2.2520228636
 20
3.5127168679
 30
0.0
  0
VERTEX
  5
834
  8
0
  6
CONTINUOUS
 62
     7
 10
2.2603016484
 20
3.5294025242
 30
0.0
  0
VERTEX
  5
835
  8
0
  6
CONTINUOUS
 62
     7
 10
2.2700289307
 20
3.5449194712
 30
0.0
  0
VERTEX
  5
836
  8
0
  6
CONTINUOUS
 62
     7
 10
2.2811621609
 20
3.5591998825
 30
0.0
  0
VERTEX
  5
837
  8
0
  6
CONTINUOUS
 62
     7
 10
2.2936527246
 20
3.5721812515
 30
0.0
  0
VERTEX
  5
838
  8
0
  6
CONTINUOUS
 62
     7
 10
2.3074459121
 20
3.5838068762
 30
0.0
  0
VERTEX
  5
839
  8
0
  6
CONTINUOUS
 62
     7
 10
2.3224814945
 20
3.5940258798
 30
0.0
  0
VERTEX
  5
83A
  8
0
  6
CONTINUOUS
 62
     7
 10
2.3386936663
 20
3.6027936066
 30
0.0
  0
VERTEX
  5
83B
  8
0
  6
CONTINUOUS
 62
     7
 10
2.356011565
 20
3.6100716911
 30
0.0
  0
VERTEX
  5
83C
  8
0
  6
CONTINUOUS
 62
     7
 10
2.3743594287
 20
3.6158283417
 30
0.0
  0
VERTEX
  5
83D
  8
0
  6
CONTINUOUS
 62
     7
 10
2.3936570659
 20
3.6200383628
 30
0.0
  0
VERTEX
  5
83E
  8
0
  6
CONTINUOUS
 62
     7
 10
2.413820087
 20
3.6226833328
 30
0.0
  0
VERTEX
  5
83F
  8
0
  6
CONTINUOUS
 62
     7
 10
2.4347603079
 20
3.623751699
 30
0.0
  0
VERTEX
  5
840
  8
0
  6
CONTINUOUS
 62
     7
 10
2.4563861892
 20
3.6232388185
 30
0.0
  0
VERTEX
  5
841
  8
0
  6
CONTINUOUS
 62
     7
 10
2.4786031285
 20
3.6211468678
 30
0.0
  0
VERTEX
  5
842
  8
0
  6
CONTINUOUS
 62
     7
 10
2.5013139964
 20
3.6174850794
 30
0.0
  0
VERTEX
  5
843
  8
0
  6
CONTINUOUS
 62
     7
 10
2.5244194919
 20
3.6122693938
 30
0.0
  0
VERTEX
  5
844
  8
0
  6
CONTINUOUS
 62
     7
 10
2.5478185638
 20
3.6055226423
 30
0.0
  0
VERTEX
  5
845
  8
0
  6
CONTINUOUS
 62
     7
 10
2.5714089065
 20
3.5972743366
 30
0.0
  0
VERTEX
  5
846
  8
0
  6
CONTINUOUS
 62
     7
 10
2.5950873605
 20
3.5875605211
 30
0.0
  0
VERTEX
  5
847
  8
0
  6
CONTINUOUS
 62
     7
 10
2.6187503928
 20
3.5764237158
 30
0.0
  0
VERTEX
  5
848
  8
0
  6
CONTINUOUS
 62
     7
 10
2.6422945162
 20
3.5639125551
 30
0.0
  0
VERTEX
  5
849
  8
0
  6
CONTINUOUS
 62
     7
 10
2.6656167923
 20
3.5500818025
 30
0.0
  0
VERTEX
  5
84A
  8
0
  6
CONTINUOUS
 62
     7
 10
2.6886152325
 20
3.5349919152
 30
0.0
  0
VERTEX
  5
84B
  8
0
  6
CONTINUOUS
 62
     7
 10
2.7111892716
 20
3.5187088764
 30
0.0
  0
VERTEX
  5
84C
  8
0
  6
CONTINUOUS
 62
     7
 10
2.7332402058
 20
3.501303909
 30
0.0
  0
VERTEX
  5
84D
  8
0
  6
CONTINUOUS
 62
     7
 10
2.754671593
 20
3.482853068
 30
0.0
  0
VERTEX
  5
84E
  8
0
  6
CONTINUOUS
 62
     7
 10
2.7753897422
 20
3.4634370932
 30
0.0
  0
VERTEX
  5
84F
  8
0
  6
CONTINUOUS
 62
     7
 10
2.7953040402
 20
3.4431408487
 30
0.0
  0
VERTEX
  5
850
  8
0
  6
CONTINUOUS
 62
     7
 10
2.8143274154
 20
3.4220531061
 30
0.0
  0
VERTEX
  5
851
  8
0
  6
CONTINUOUS
 62
     7
 10
2.832376687
 20
3.4002660561
 30
0.0
  0
VERTEX
  5
852
  8
0
  6
CONTINUOUS
 62
     7
 10
2.8493729063
 20
3.37787497
 30
0.0
  0
VERTEX
  5
853
  8
0
  6
CONTINUOUS
 62
     7
 10
2.865241795
 20
3.3549777975
 30
0.0
  0
VERTEX
  5
854
  8
0
  6
CONTINUOUS
 62
     7
 10
2.8799139321
 20
3.3316745841
 30
0.0
  0
VERTEX
  5
855
  8
0
  6
CONTINUOUS
 62
     7
 10
2.8933251688
 20
3.3080673144
 30
0.0
  0
VERTEX
  5
856
  8
0
  6
CONTINUOUS
 62
     7
 10
2.9054168642
 20
3.2842591682
 30
0.0
  0
VERTEX
  5
857
  8
0
  6
CONTINUOUS
 62
     7
 10
2.9161361269
 20
3.260354262
 30
0.0
  0
VERTEX
  5
858
  8
0
  6
CONTINUOUS
 62
     7
 10
2.9254360866
 20
3.2364571402
 30
0.0
  0
VERTEX
  5
859
  8
0
  6
CONTINUOUS
 62
     7
 10
2.9332761148
 20
3.2126722717
 30
0.0
  0
VERTEX
  5
85A
  8
0
  6
CONTINUOUS
 62
     7
 10
2.9396218884
 20
3.1891036779
 30
0.0
  0
VERTEX
  5
85B
  8
0
  6
CONTINUOUS
 62
     7
 10
2.9444456919
 20
3.1658544038
 30
0.0
  0
VERTEX
  5
85C
  8
0
  6
CONTINUOUS
 62
     7
 10
2.9477263781
 20
3.1430261571
 30
0.0
  0
VERTEX
  5
85D
  8
0
  6
CONTINUOUS
 62
     7
 10
2.9494496789
 20
3.1207186942
 30
0.0
  0
VERTEX
  5
85E
  8
0
  6
CONTINUOUS
 62
     7
 10
2.949607966
 20
3.0990296185
 30
0.0
  0
VERTEX
  5
85F
  8
0
  6
CONTINUOUS
 62
     7
 10
2.9482006243
 20
3.0780537375
 30
0.0
  0
VERTEX
  5
860
  8
0
  6
CONTINUOUS
 62
     7
 10
2.9452337852
 20
3.0578827725
 30
0.0
  0
VERTEX
  5
861
  8
0
  6
CONTINUOUS
 62
     7
 10
2.9407204124
 20
3.0386049401
 30
0.0
  0
VERTEX
  5
862
  8
0
  6
CONTINUOUS
 62
     7
 10
2.9346802455
 20
3.020304533
 30
0.0
  0
VERTEX
  5
863
  8
0
  6
CONTINUOUS
 62
     7
 10
2.9271396944
 20
3.0030615752
 30
0.0
  0
VERTEX
  5
864
  8
0
  6
CONTINUOUS
 62
     7
 10
2.9181317325
 20
2.9869514703
 30
0.0
  0
VERTEX
  5
865
  8
0
  6
CONTINUOUS
 62
     7
 10
2.9076957829
 20
2.9720446307
 30
0.0
  0
VERTEX
  5
866
  8
0
  6
CONTINUOUS
 62
     7
 10
2.8958774128
 20
2.9584062909
 30
0.0
  0
VERTEX
  5
867
  8
0
  6
CONTINUOUS
 62
     7
 10
2.8827283421
 20
2.9460960693
 30
0.0
  0
VERTEX
  5
868
  8
0
  6
CONTINUOUS
 62
     7
 10
2.8683060649
 20
2.9351677786
 30
0.0
  0
VERTEX
  5
869
  8
0
  6
CONTINUOUS
 62
     7
 10
2.8526736454
 20
2.9256692224
 30
0.0
  0
VERTEX
  5
86A
  8
0
  6
CONTINUOUS
 62
     7
 10
2.8358994527
 20
2.9176419096
 30
0.0
  0
VERTEX
  5
86B
  8
0
  6
CONTINUOUS
 62
     7
 10
2.8180568172
 20
2.9111209788
 30
0.0
  0
VERTEX
  5
86C
  8
0
  6
CONTINUOUS
 62
     7
 10
2.7992237694
 20
2.9061349242
 30
0.0
  0
VERTEX
  5
86D
  8
0
  6
CONTINUOUS
 62
     7
 10
2.7794826366
 20
2.9027055588
 30
0.0
  0
VERTEX
  5
86E
  8
0
  6
CONTINUOUS
 62
     7
 10
2.7589197703
 20
2.9008478777
 30
0.0
  0
VERTEX
  5
86F
  8
0
  6
CONTINUOUS
 62
     7
 10
2.7376250768
 20
2.9005699783
 30
0.0
  0
VERTEX
  5
870
  8
0
  6
CONTINUOUS
 62
     7
 10
2.7243152228
 20
2.9011770598
 30
0.0
  0
SEQEND
  5
912
  8
0
  6
CONTINUOUS
 62
     7
  0
ARC
  5
31F
  8
0
  6
CONTINUOUS
 62
     7
 10
2.770942232
 20
3.3466876966
 30
0.0
 40
0.4489219304266628
 50
246.4034211119
 51
257.0739452038
  0
LINE
  5
320
  8
0
  6
CONTINUOUS
 62
     7
 10
2.2497003673
 20
3.4143316061
 30
0.0
 11
2.265876807
 21
3.4037178144
 31
0.0
  0
LINE
  5
321
  8
0
  6
CONTINUOUS
 62
     7
 10
2.2863606954
 20
3.5344828613
 30
0.0
 11
2.3025371351
 21
3.5238690696
 31
0.0
  0
LINE
  5
322
  8
0
  6
CONTINUOUS
 62
     7
 10
2.2807879329
 20
3.2660964615
 30
0.0
 11
2.2939867075
 21
3.2696811711
 31
0.0
  0
LINE
  5
323
  8
0
  6
CONTINUOUS
 62
     7
 10
2.662600543
 20
2.9261839921
 30
0.0
 11
2.6626728053
 21
2.9300471055
 31
0.0
  0
LINE
  5
324
  8
0
  6
CONTINUOUS
 62
     7
 10
2.8973251081
 20
2.9905657405
 30
0.0
 11
2.8921167063
 21
2.9967380879
 31
0.0
  0
LINE
  5
325
  8
0
  6
CONTINUOUS
 62
     7
 10
2.7996705274
 20
2.9247152281
 30
0.0
 11
2.7868236044
 21
2.9399397703
 31
0.0
  0
LINE
  5
326
  8
0
  6
CONTINUOUS
 62
     7
 10
2.9333966921
 20
3.1087874346
 30
0.0
 11
2.9018017387
 21
3.2594419988
 31
0.0
  0
LINE
  5
327
  8
0
  6
CONTINUOUS
 62
     7
 10
2.9018017387
 20
3.2594419988
 30
0.0
 11
2.885499747
 21
3.2633428336
 31
0.0
  0
LINE
  5
328
  8
0
  6
CONTINUOUS
 62
     7
 10
2.9333966921
 20
3.1087874346
 30
0.0
 11
2.9170947005
 21
3.1126882694
 31
0.0
  0
LINE
  5
329
  8
0
  6
CONTINUOUS
 62
     7
 10
2.80971229
 20
3.4083308246
 30
0.0
 11
2.6726594276
 21
3.5303434748
 31
0.0
  0
LINE
  5
32A
  8
0
  6
CONTINUOUS
 62
     7
 10
2.6726594276
 20
3.5303434748
 30
0.0
 11
2.6651780964
 21
3.5199831903
 31
0.0
  0
LINE
  5
32B
  8
0
  6
CONTINUOUS
 62
     7
 10
2.80971229
 20
3.4083308246
 30
0.0
 11
2.8022309723
 21
3.3979705313
 31
0.0
  0
LINE
  5
32C
  8
0
  6
CONTINUOUS
 62
     7
 10
2.5217541853
 20
3.5977830914
 30
0.0
 11
2.3824470087
 21
3.5992758465
 31
0.0
  0
LINE
  5
32D
  8
0
  6
CONTINUOUS
 62
     7
 10
2.3824470087
 20
3.5992758465
 30
0.0
 11
2.3894199619
 21
3.5824559307
 31
0.0
  0
LINE
  5
32E
  8
0
  6
CONTINUOUS
 62
     7
 10
2.5217541853
 20
3.5977830914
 30
0.0
 11
2.5287271124
 21
3.580963207
 31
0.0
  0
POLYLINE
  5
32F
  8
0
  6
CONTINUOUS
 62
     7
 66
     1
 10
0.0
 20
0.0
 30
0.0
 70
   128
  0
VERTEX
  5
871
  8
0
  6
CONTINUOUS
 62
     7
 10
2.3246483278
 20
3.6025416913
 30
0.0
  0
VERTEX
  5
872
  8
0
  6
CONTINUOUS
 62
     7
 10
2.3273474238
 20
3.6051239688
 30
0.0
  0
VERTEX
  5
873
  8
0
  6
CONTINUOUS
 62
     7
 10
2.3411406114
 20
3.6167495935
 30
0.0
  0
VERTEX
  5
874
  8
0
  6
CONTINUOUS
 62
     7
 10
2.3561761937
 20
3.6269685971
 30
0.0
  0
VERTEX
  5
875
  8
0
  6
CONTINUOUS
 62
     7
 10
2.3723883655
 20
3.6357363239
 30
0.0
  0
VERTEX
  5
876
  8
0
  6
CONTINUOUS
 62
     7
 10
2.3897062642
 20
3.6430144084
 30
0.0
  0
VERTEX
  5
877
  8
0
  6
CONTINUOUS
 62
     7
 10
2.408054128
 20
3.648771059
 30
0.0
  0
VERTEX
  5
878
  8
0
  6
CONTINUOUS
 62
     7
 10
2.4273517651
 20
3.6529810801
 30
0.0
  0
VERTEX
  5
879
  8
0
  6
CONTINUOUS
 62
     7
 10
2.4475147862
 20
3.6556260502
 30
0.0
  0
VERTEX
  5
87A
  8
0
  6
CONTINUOUS
 62
     7
 10
2.4684550072
 20
3.6566944163
 30
0.0
  0
VERTEX
  5
87B
  8
0
  6
CONTINUOUS
 62
     7
 10
2.4900808884
 20
3.6561815358
 30
0.0
  0
VERTEX
  5
87C
  8
0
  6
CONTINUOUS
 62
     7
 10
2.5122978278
 20
3.6540895851
 30
0.0
  0
VERTEX
  5
87D
  8
0
  6
CONTINUOUS
 62
     7
 10
2.5350086957
 20
3.6504277967
 30
0.0
  0
VERTEX
  5
87E
  8
0
  6
CONTINUOUS
 62
     7
 10
2.5581141912
 20
3.6452121111
 30
0.0
  0
VERTEX
  5
87F
  8
0
  6
CONTINUOUS
 62
     7
 10
2.581513263
 20
3.6384653596
 30
0.0
  0
VERTEX
  5
880
  8
0
  6
CONTINUOUS
 62
     7
 10
2.6051036057
 20
3.6302170539
 30
0.0
  0
VERTEX
  5
881
  8
0
  6
CONTINUOUS
 62
     7
 10
2.6287820598
 20
3.6205032384
 30
0.0
  0
VERTEX
  5
882
  8
0
  6
CONTINUOUS
 62
     7
 10
2.652445092
 20
3.6093664331
 30
0.0
  0
VERTEX
  5
883
  8
0
  6
CONTINUOUS
 62
     7
 10
2.6759892154
 20
3.5968552724
 30
0.0
  0
VERTEX
  5
884
  8
0
  6
CONTINUOUS
 62
     7
 10
2.6993114915
 20
3.5830245198
 30
0.0
  0
VERTEX
  5
885
  8
0
  6
CONTINUOUS
 62
     7
 10
2.7223099317
 20
3.5679346325
 30
0.0
  0
VERTEX
  5
886
  8
0
  6
CONTINUOUS
 62
     7
 10
2.7448839708
 20
3.5516515938
 30
0.0
  0
VERTEX
  5
887
  8
0
  6
CONTINUOUS
 62
     7
 10
2.766934905
 20
3.5342466263
 30
0.0
  0
VERTEX
  5
888
  8
0
  6
CONTINUOUS
 62
     7
 10
2.7883662923
 20
3.5157957854
 30
0.0
  0
VERTEX
  5
889
  8
0
  6
CONTINUOUS
 62
     7
 10
2.8090844414
 20
3.4963798105
 30
0.0
  0
VERTEX
  5
88A
  8
0
  6
CONTINUOUS
 62
     7
 10
2.8289987394
 20
3.476083566
 30
0.0
  0
VERTEX
  5
88B
  8
0
  6
CONTINUOUS
 62
     7
 10
2.8480221147
 20
3.4549958234
 30
0.0
  0
VERTEX
  5
88C
  8
0
  6
CONTINUOUS
 62
     7
 10
2.8660713862
 20
3.4332087734
 30
0.0
  0
VERTEX
  5
88D
  8
0
  6
CONTINUOUS
 62
     7
 10
2.8830676055
 20
3.4108176873
 30
0.0
  0
VERTEX
  5
88E
  8
0
  6
CONTINUOUS
 62
     7
 10
2.8989364942
 20
3.3879205148
 30
0.0
  0
VERTEX
  5
88F
  8
0
  6
CONTINUOUS
 62
     7
 10
2.9136086314
 20
3.3646173014
 30
0.0
  0
VERTEX
  5
890
  8
0
  6
CONTINUOUS
 62
     7
 10
2.9270198681
 20
3.3410100317
 30
0.0
  0
VERTEX
  5
891
  8
0
  6
CONTINUOUS
 62
     7
 10
2.9391115635
 20
3.3172018855
 30
0.0
  0
VERTEX
  5
892
  8
0
  6
CONTINUOUS
 62
     7
 10
2.9498308261
 20
3.2932969793
 30
0.0
  0
VERTEX
  5
893
  8
0
  6
CONTINUOUS
 62
     7
 10
2.9591307858
 20
3.2693998575
 30
0.0
  0
VERTEX
  5
894
  8
0
  6
CONTINUOUS
 62
     7
 10
2.966970814
 20
3.2456149891
 30
0.0
  0
VERTEX
  5
895
  8
0
  6
CONTINUOUS
 62
     7
 10
2.9733165876
 20
3.2220463952
 30
0.0
  0
VERTEX
  5
896
  8
0
  6
CONTINUOUS
 62
     7
 10
2.9781403912
 20
3.1987971211
 30
0.0
  0
VERTEX
  5
897
  8
0
  6
CONTINUOUS
 62
     7
 10
2.9814210774
 20
3.1759688744
 30
0.0
  0
VERTEX
  5
898
  8
0
  6
CONTINUOUS
 62
     7
 10
2.9831443781
 20
3.1536614115
 30
0.0
  0
VERTEX
  5
899
  8
0
  6
CONTINUOUS
 62
     7
 10
2.9833026653
 20
3.1319723358
 30
0.0
  0
VERTEX
  5
89A
  8
0
  6
CONTINUOUS
 62
     7
 10
2.9818953236
 20
3.1109964548
 30
0.0
  0
VERTEX
  5
89B
  8
0
  6
CONTINUOUS
 62
     7
 10
2.9789284844
 20
3.0908254899
 30
0.0
  0
VERTEX
  5
89C
  8
0
  6
CONTINUOUS
 62
     7
 10
2.9744151116
 20
3.0715476574
 30
0.0
  0
VERTEX
  5
89D
  8
0
  6
CONTINUOUS
 62
     7
 10
2.9683749447
 20
3.0532472503
 30
0.0
  0
VERTEX
  5
89E
  8
0
  6
CONTINUOUS
 62
     7
 10
2.9608343937
 20
3.0360042925
 30
0.0
  0
VERTEX
  5
89F
  8
0
  6
CONTINUOUS
 62
     7
 10
2.9518264317
 20
3.0198941876
 30
0.0
  0
VERTEX
  5
8A0
  8
0
  6
CONTINUOUS
 62
     7
 10
2.9413904821
 20
3.004987348
 30
0.0
  0
VERTEX
  5
8A1
  8
0
  6
CONTINUOUS
 62
     7
 10
2.9295721121
 20
2.9913490082
 30
0.0
  0
VERTEX
  5
8A2
  8
0
  6
CONTINUOUS
 62
     7
 10
2.9258595441
 20
2.9876066596
 30
0.0
  0
SEQEND
  5
913
  8
0
  6
CONTINUOUS
 62
     7
  0
LINE
  5
330
  8
0
  6
CONTINUOUS
 62
     7
 10
2.7314654029
 20
3.4255701163
 30
0.0
 11
2.80971229
 21
3.4083308246
 31
0.0
  0
LINE
  5
331
  8
0
  6
CONTINUOUS
 62
     7
 10
2.6726594276
 20
3.5303434748
 30
0.0
 11
2.7314654029
 21
3.4255701163
 31
0.0
  0
LINE
  5
332
  8
0
  6
CONTINUOUS
 62
     7
 10
2.8570986063
 20
3.2728349143
 30
0.0
 11
2.8185503838
 21
3.3257167831
 31
0.0
  0
LINE
  5
333
  8
0
  6
CONTINUOUS
 62
     7
 10
2.8185503838
 20
3.3257167831
 30
0.0
 11
2.8150393418
 21
3.3983581635
 31
0.0
  0
LINE
  5
334
  8
0
  6
CONTINUOUS
 62
     7
 10
2.8150393418
 20
3.3983581635
 30
0.0
 11
2.8963576165
 21
3.2668840317
 31
0.0
  0
LINE
  5
335
  8
0
  6
CONTINUOUS
 62
     7
 10
2.8963576165
 20
3.2668840317
 30
0.0
 11
2.8570986063
 21
3.2728349143
 31
0.0
  0
LINE
  5
336
  8
0
  6
CONTINUOUS
 62
     7
 10
2.7314654029
 20
3.4255701163
 30
0.0
 11
2.7239840703
 21
3.4152098326
 31
0.0
  0
LINE
  5
337
  8
0
  6
CONTINUOUS
 62
     7
 10
2.6651780964
 20
3.5199831903
 30
0.0
 11
2.7239840703
 21
3.4152098326
 31
0.0
  0
LINE
  5
338
  8
0
  6
CONTINUOUS
 62
     7
 10
2.7239840703
 20
3.4152098326
 30
0.0
 11
2.8022309723
 21
3.3979705313
 31
0.0
  0
LINE
  5
339
  8
0
  6
CONTINUOUS
 62
     7
 10
2.8150393418
 20
3.3983581635
 30
0.0
 11
2.8018406005
 21
3.3947734464
 31
0.0
  0
LINE
  5
33A
  8
0
  6
CONTINUOUS
 62
     7
 10
2.8185503838
 20
3.3257167831
 30
0.0
 11
2.8053516425
 21
3.322132066
 31
0.0
  0
LINE
  5
33B
  8
0
  6
CONTINUOUS
 62
     7
 10
2.8053516425
 20
3.322132066
 30
0.0
 11
2.8018406005
 21
3.3947734464
 31
0.0
  0
LINE
  5
33C
  8
0
  6
CONTINUOUS
 62
     7
 10
2.6701187704
 20
3.340289242
 30
0.0
 11
2.7239840703
 21
3.4152098326
 31
0.0
  0
LINE
  5
33D
  8
0
  6
CONTINUOUS
 62
     7
 10
2.6391945541
 20
3.3953862842
 30
0.0
 11
2.6701187704
 21
3.340289242
 31
0.0
  0
LINE
  5
33E
  8
0
  6
CONTINUOUS
 62
     7
 10
2.6391945541
 20
3.3953862842
 30
0.0
 11
2.6651780964
 21
3.5199831903
 31
0.0
  0
LINE
  5
33F
  8
0
  6
CONTINUOUS
 62
     7
 10
2.7725202511
 20
3.3761697731
 30
0.0
 11
2.8022309723
 21
3.3979705313
 31
0.0
  0
LINE
  5
340
  8
0
  6
CONTINUOUS
 62
     7
 10
2.7076384905
 20
3.3320229347
 30
0.0
 11
2.7654774052
 21
3.3717010996
 31
0.0
  0
LINE
  5
341
  8
0
  6
CONTINUOUS
 62
     7
 10
2.6701187704
 20
3.340289242
 30
0.0
 11
2.7076384905
 21
3.3320229347
 31
0.0
  0
LINE
  5
342
  8
0
  6
CONTINUOUS
 62
     7
 10
2.8570986063
 20
3.2728349143
 30
0.0
 11
2.8438998465
 21
3.269250195
 31
0.0
  0
LINE
  5
343
  8
0
  6
CONTINUOUS
 62
     7
 10
2.8438998465
 20
3.269250195
 30
0.0
 11
2.8053516425
 21
3.322132066
 31
0.0
  0
LINE
  5
344
  8
0
  6
CONTINUOUS
 62
     7
 10
2.7654774052
 20
3.3717010996
 30
0.0
 11
2.8018406005
 21
3.3947734464
 31
0.0
  0
LINE
  5
345
  8
0
  6
CONTINUOUS
 62
     7
 10
2.7079346944
 20
3.2968541482
 30
0.0
 11
2.8053516425
 21
3.322132066
 31
0.0
  0
LINE
  5
346
  8
0
  6
CONTINUOUS
 62
     7
 10
2.7079346944
 20
3.2968541482
 30
0.0
 11
2.7062197435
 21
3.3323355139
 31
0.0
  0
LINE
  5
347
  8
0
  6
CONTINUOUS
 62
     7
 10
2.7413713328
 20
3.2509845255
 30
0.0
 11
2.8438998465
 21
3.269250195
 31
0.0
  0
LINE
  5
348
  8
0
  6
CONTINUOUS
 62
     7
 10
2.7413713328
 20
3.2509845255
 30
0.0
 11
2.7079346944
 21
3.2968541482
 31
0.0
  0
LINE
  5
349
  8
0
  6
CONTINUOUS
 62
     7
 10
2.6141570189
 20
3.5241310357
 30
0.0
 11
2.5533132061
 21
3.5461375412
 31
0.0
  0
LINE
  5
34A
  8
0
  6
CONTINUOUS
 62
     7
 10
2.5533132061
 20
3.5461375412
 30
0.0
 11
2.5310749868
 21
3.592845176
 31
0.0
  0
LINE
  5
34B
  8
0
  6
CONTINUOUS
 62
     7
 10
2.5310749868
 20
3.592845176
 30
0.0
 11
2.6643296978
 21
3.5332936001
 31
0.0
  0
LINE
  5
34C
  8
0
  6
CONTINUOUS
 62
     7
 10
2.6643296978
 20
3.5332936001
 30
0.0
 11
2.6141570189
 21
3.5241310357
 31
0.0
  0
LINE
  5
34D
  8
0
  6
CONTINUOUS
 62
     7
 10
2.6141570189
 20
3.5241310357
 30
0.0
 11
2.6138748798
 21
3.50904717
 31
0.0
  0
LINE
  5
34E
  8
0
  6
CONTINUOUS
 62
     7
 10
2.6643296978
 20
3.5332936001
 30
0.0
 11
2.6640475578
 21
3.5182097351
 31
0.0
  0
LINE
  5
34F
  8
0
  6
CONTINUOUS
 62
     7
 10
2.6640475578
 20
3.5182097351
 30
0.0
 11
2.6138748798
 21
3.50904717
 31
0.0
  0
LINE
  5
350
  8
0
  6
CONTINUOUS
 62
     7
 10
2.8937644706
 20
3.1365142805
 30
0.0
 11
2.9333966921
 21
3.1087874346
 31
0.0
  0
LINE
  5
351
  8
0
  6
CONTINUOUS
 62
     7
 10
2.9018017387
 20
3.2594419988
 30
0.0
 11
2.8937644706
 21
3.1365142805
 31
0.0
  0
LINE
  5
352
  8
0
  6
CONTINUOUS
 62
     7
 10
2.8937644706
 20
3.1365142805
 30
0.0
 11
2.8774624475
 21
3.1404151288
 31
0.0
  0
LINE
  5
353
  8
0
  6
CONTINUOUS
 62
     7
 10
2.885499747
 20
3.2633428336
 30
0.0
 11
2.8774624475
 21
3.1404151288
 31
0.0
  0
LINE
  5
354
  8
0
  6
CONTINUOUS
 62
     7
 10
2.5533132061
 20
3.5461375412
 30
0.0
 11
2.553031067
 21
3.5310536755
 31
0.0
  0
LINE
  5
355
  8
0
  6
CONTINUOUS
 62
     7
 10
2.6138748798
 20
3.50904717
 30
0.0
 11
2.553031067
 21
3.5310536755
 31
0.0
  0
LINE
  5
356
  8
0
  6
CONTINUOUS
 62
     7
 10
2.8831588567
 20
3.2632993123
 30
0.0
 11
2.8438998465
 21
3.269250195
 31
0.0
  0
LINE
  5
357
  8
0
  6
CONTINUOUS
 62
     7
 10
2.8963576165
 20
3.2668840317
 30
0.0
 11
2.8831588567
 21
3.2632993123
 31
0.0
  0
LINE
  5
358
  8
0
  6
CONTINUOUS
 62
     7
 10
2.6356169253
 20
3.4004164201
 30
0.0
 11
2.6640475578
 21
3.5182097351
 31
0.0
  0
LINE
  5
359
  8
0
  6
CONTINUOUS
 62
     7
 10
2.6356169253
 20
3.4004164201
 30
0.0
 11
2.6128529579
 21
3.396259258
 31
0.0
  0
LINE
  5
35A
  8
0
  6
CONTINUOUS
 62
     7
 10
2.6128529579
 20
3.396259258
 30
0.0
 11
2.6138748798
 21
3.50904717
 31
0.0
  0
LINE
  5
35B
  8
0
  6
CONTINUOUS
 62
     7
 10
2.6128529579
 20
3.396259258
 30
0.0
 11
2.5600771478
 21
3.4153476569
 31
0.0
  0
LINE
  5
35C
  8
0
  6
CONTINUOUS
 62
     7
 10
2.5600771478
 20
3.4153476569
 30
0.0
 11
2.553031067
 21
3.5310536755
 31
0.0
  0
LINE
  5
35D
  8
0
  6
CONTINUOUS
 62
     7
 10
2.7539009716
 20
3.1798195798
 30
0.0
 11
2.8774624475
 21
3.1404151288
 31
0.0
  0
LINE
  5
35E
  8
0
  6
CONTINUOUS
 62
     7
 10
2.7581275181
 20
3.2444634164
 30
0.0
 11
2.7539009716
 21
3.1798195798
 31
0.0
  0
LINE
  5
35F
  8
0
  6
CONTINUOUS
 62
     7
 10
2.7581275181
 20
3.2444634164
 30
0.0
 11
2.885499747
 21
3.2633428336
 31
0.0
  0
LINE
  5
360
  8
0
  6
CONTINUOUS
 62
     7
 10
2.912844184
 20
3.6159930558
 30
0.0
 11
3.0185634111
 21
3.477901899
 31
0.0
  0
POLYLINE
  5
361
  8
0
  6
CONTINUOUS
 62
     7
 66
     1
 10
0.0
 20
0.0
 30
0.0
 70
   128
  0
VERTEX
  5
8A3
  8
0
  6
CONTINUOUS
 62
     7
 10
3.0185634111
 20
3.477901899
 30
0.0
  0
VERTEX
  5
8A4
  8
0
  6
CONTINUOUS
 62
     7
 10
3.0363203049
 20
3.4367767121
 30
0.0
  0
VERTEX
  5
8A5
  8
0
  6
CONTINUOUS
 62
     7
 10
3.0532380608
 20
3.3877009909
 30
0.0
  0
SEQEND
  5
914
  8
0
  6
CONTINUOUS
 62
     7
  0
LINE
  5
362
  8
0
  6
CONTINUOUS
 62
     7
 10
3.0532380608
 20
3.3877009909
 30
0.0
 11
2.9518002801
 21
3.2885270492
 31
0.0
  0
LINE
  5
363
  8
0
  6
CONTINUOUS
 62
     7
 10
2.8390728438
 20
3.6676104537
 30
0.0
 11
2.7309373338
 21
3.5618882595
 31
0.0
  0
POLYLINE
  5
364
  8
0
  6
CONTINUOUS
 62
     7
 66
     1
 10
0.0
 20
0.0
 30
0.0
 70
   128
  0
VERTEX
  5
8A6
  8
0
  6
CONTINUOUS
 62
     7
 10
2.8390728438
 20
3.6676104537
 30
0.0
  0
VERTEX
  5
8A7
  8
0
  6
CONTINUOUS
 62
     7
 10
2.876494996
 20
3.6437847572
 30
0.0
  0
VERTEX
  5
8A8
  8
0
  6
CONTINUOUS
 62
     7
 10
2.912844184
 20
3.6159930558
 30
0.0
  0
SEQEND
  5
915
  8
0
  6
CONTINUOUS
 62
     7
  0
LINE
  5
365
  8
0
  6
CONTINUOUS
 62
     7
 10
2.7591836506
 20
3.248284529
 30
0.0
 11
2.7413713328
 21
3.2509845255
 31
0.0
  0
LINE
  5
366
  8
0
  6
CONTINUOUS
 62
     7
 10
2.7591836506
 20
3.248284529
 30
0.0
 11
2.8831588567
 21
3.2632993123
 31
0.0
  0
LINE
  5
367
  8
0
  6
CONTINUOUS
 62
     7
 10
2.553031067
 20
3.5310536755
 30
0.0
 11
2.5307928477
 21
3.5777613103
 31
0.0
  0
LINE
  5
368
  8
0
  6
CONTINUOUS
 62
     7
 10
2.5310749868
 20
3.592845176
 30
0.0
 11
2.5307928477
 21
3.5777613103
 31
0.0
  0
LINE
  5
369
  8
0
  6
CONTINUOUS
 62
     7
 10
2.5600771478
 20
3.4153476569
 30
0.0
 11
2.5487321345
 21
3.4391759263
 31
0.0
  0
LINE
  5
36A
  8
0
  6
CONTINUOUS
 62
     7
 10
2.5493205321
 20
3.4393760282
 30
0.0
 11
2.5375930509
 21
3.5251384459
 31
0.0
  0
LINE
  5
36B
  8
0
  6
CONTINUOUS
 62
     7
 10
2.5375930509
 20
3.5251384459
 30
0.0
 11
2.5307928477
 21
3.5777613103
 31
0.0
  0
LINE
  5
36C
  8
0
  6
CONTINUOUS
 62
     7
 10
2.5114050133
 20
3.4264819228
 30
0.0
 11
2.4496547701
 21
3.5540727065
 31
0.0
  0
LINE
  5
36D
  8
0
  6
CONTINUOUS
 62
     7
 10
2.4496547701
 20
3.5540727065
 30
0.0
 11
2.5287271124
 21
3.580963207
 31
0.0
  0
LINE
  5
36E
  8
0
  6
CONTINUOUS
 62
     7
 10
2.5352711653
 20
3.5431061247
 30
0.0
 11
2.5287271124
 21
3.580963207
 31
0.0
  0
LINE
  5
36F
  8
0
  6
CONTINUOUS
 62
     7
 10
2.5114050133
 20
3.4264819228
 30
0.0
 11
2.5493205321
 21
3.4393760282
 31
0.0
  0
LINE
  5
370
  8
0
  6
CONTINUOUS
 62
     7
 10
2.4426818503
 20
3.5708926148
 30
0.0
 11
2.4496547701
 21
3.5540727065
 31
0.0
  0
LINE
  5
371
  8
0
  6
CONTINUOUS
 62
     7
 10
2.4426818503
 20
3.5708926148
 30
0.0
 11
2.5217541853
 21
3.5977830914
 31
0.0
  0
LINE
  5
372
  8
0
  6
CONTINUOUS
 62
     7
 10
2.3824470087
 20
3.5992758465
 30
0.0
 11
2.4426818503
 21
3.5708926148
 31
0.0
  0
LINE
  5
373
  8
0
  6
CONTINUOUS
 62
     7
 10
2.8774624475
 20
3.1404151288
 30
0.0
 11
2.9170947005
 21
3.1126882694
 31
0.0
  0
LINE
  5
374
  8
0
  6
CONTINUOUS
 62
     7
 10
2.772904797
 20
3.1665244386
 30
0.0
 11
2.8603538938
 21
3.1337572854
 31
0.0
  0
LINE
  5
375
  8
0
  6
CONTINUOUS
 62
     7
 10
2.7539009716
 20
3.1798195798
 30
0.0
 11
2.772904797
 21
3.1665244386
 31
0.0
  0
LINE
  5
376
  8
0
  6
CONTINUOUS
 62
     7
 10
2.8633366929
 20
3.1325335033
 30
0.0
 11
2.9170947005
 21
3.1126882694
 31
0.0
  0
LINE
  5
377
  8
0
  6
CONTINUOUS
 62
     7
 10
2.4797293933
 20
3.4414077736
 30
0.0
 11
2.5114050133
 21
3.4264819228
 31
0.0
  0
LINE
  5
378
  8
0
  6
CONTINUOUS
 62
     7
 10
2.3894199619
 20
3.5824559307
 30
0.0
 11
2.4496547701
 21
3.5540727065
 31
0.0
  0
LINE
  5
379
  8
0
  6
CONTINUOUS
 62
     7
 10
2.4797293933
 20
3.4414077736
 30
0.0
 11
2.3894199619
 21
3.5824559307
 31
0.0
  0
LINE
  5
37A
  8
0
  6
CONTINUOUS
 62
     7
 10
2.6460177138
 20
3.7220332058
 30
0.0
 11
2.78660994
 21
3.6987147844
 31
0.0
  0
POLYLINE
  5
37B
  8
0
  6
CONTINUOUS
 62
     7
 66
     1
 10
0.0
 20
0.0
 30
0.0
 70
   128
  0
VERTEX
  5
8A9
  8
0
  6
CONTINUOUS
 62
     7
 10
2.78660994
 20
3.6987147844
 30
0.0
  0
VERTEX
  5
8AA
  8
0
  6
CONTINUOUS
 62
     7
 10
2.8125827967
 20
3.685526575
 30
0.0
  0
VERTEX
  5
8AB
  8
0
  6
CONTINUOUS
 62
     7
 10
2.8390728438
 20
3.6676104537
 30
0.0
  0
SEQEND
  5
916
  8
0
  6
CONTINUOUS
 62
     7
  0
LINE
  5
37C
  8
0
  6
CONTINUOUS
 62
     7
 10
2.5540906908
 20
3.7147941429
 30
0.0
 11
2.4938852878
 21
3.6559323749
 31
0.0
  0
POLYLINE
  5
37D
  8
0
  6
CONTINUOUS
 62
     7
 66
     1
 10
0.0
 20
0.0
 30
0.0
 70
   128
  0
VERTEX
  5
8AC
  8
0
  6
CONTINUOUS
 62
     7
 10
2.5540906908
 20
3.7147941429
 30
0.0
  0
VERTEX
  5
8AD
  8
0
  6
CONTINUOUS
 62
     7
 10
2.6003807337
 20
3.719710068
 30
0.0
  0
VERTEX
  5
8AE
  8
0
  6
CONTINUOUS
 62
     7
 10
2.6460177138
 20
3.7220332058
 30
0.0
  0
SEQEND
  5
917
  8
0
  6
CONTINUOUS
 62
     7
  0
LINE
  5
37E
  8
0
  6
CONTINUOUS
 62
     7
 10
2.9304459954
 20
3.1010231021
 30
0.0
 11
2.9142695557
 21
3.1116368938
 31
0.0
  0
LINE
  5
37F
  8
0
  6
CONTINUOUS
 62
     7
 10
2.8931500455
 20
3.0381462558
 30
0.0
 11
2.9304459954
 21
3.1010231021
 31
0.0
  0
LINE
  5
380
  8
0
  6
CONTINUOUS
 62
     7
 10
2.8931500455
 20
3.0381462558
 30
0.0
 11
2.8769736058
 21
3.0487600475
 31
0.0
  0
LINE
  5
381
  8
0
  6
CONTINUOUS
 62
     7
 10
2.8769736058
 20
3.0487600475
 30
0.0
 11
2.9142695557
 21
3.1116368938
 31
0.0
  0
LINE
  5
382
  8
0
  6
CONTINUOUS
 62
     7
 10
2.8831156011
 20
2.9968895289
 30
0.0
 11
2.8931500455
 21
3.0381462558
 31
0.0
  0
LINE
  5
383
  8
0
  6
CONTINUOUS
 62
     7
 10
2.9304459954
 20
3.1010231021
 30
0.0
 11
2.8985935002
 21
2.9966291298
 31
0.0
  0
LINE
  5
384
  8
0
  6
CONTINUOUS
 62
     7
 10
2.8985935002
 20
2.9966291298
 30
0.0
 11
2.8831156011
 21
2.9968895289
 31
0.0
  0
LINE
  5
385
  8
0
  6
CONTINUOUS
 62
     7
 10
2.8603538938
 20
3.1337572854
 30
0.0
 11
2.9142695557
 21
3.1116368938
 31
0.0
  0
LINE
  5
386
  8
0
  6
CONTINUOUS
 62
     7
 10
2.7532726538
 20
3.1376594818
 30
0.0
 11
2.8769736058
 21
3.0487600475
 31
0.0
  0
LINE
  5
387
  8
0
  6
CONTINUOUS
 62
     7
 10
2.7532726538
 20
3.1376594818
 30
0.0
 11
2.7711304607
 21
3.1677657693
 31
0.0
  0
LINE
  5
388
  8
0
  6
CONTINUOUS
 62
     7
 10
2.9768996213
 20
3.2055001684
 30
0.0
 11
3.0264034722
 21
3.2538992164
 31
0.0
  0
LINE
  5
389
  8
0
  6
CONTINUOUS
 62
     7
 10
3.0264034722
 20
3.2538992164
 30
0.0
 11
3.0203388051
 21
3.2339401695
 31
0.0
  0
POLYLINE
  5
38A
  8
0
  6
CONTINUOUS
 62
     7
 66
     1
 10
0.0
 20
0.0
 30
0.0
 70
   128
  0
VERTEX
  5
8AF
  8
0
  6
CONTINUOUS
 62
     7
 10
3.0203388051
 20
3.2339401695
 30
0.0
  0
VERTEX
  5
8B0
  8
0
  6
CONTINUOUS
 62
     7
 10
3.0025587367
 20
3.1953158718
 30
0.0
  0
VERTEX
  5
8B1
  8
0
  6
CONTINUOUS
 62
     7
 10
2.9824211831
 20
3.1549753117
 30
0.0
  0
SEQEND
  5
918
  8
0
  6
CONTINUOUS
 62
     7
  0
ARC
  5
38B
  8
0
  6
CONTINUOUS
 62
     7
 10
2.922801777
 20
3.3622489917
 30
0.0
 40
0.1328963069208937
 50
353.7013523727
 51
11.0413705309
  0
LINE
  5
38C
  8
0
  6
CONTINUOUS
 62
     7
 10
3.0548958614
 20
3.3476688249
 30
0.0
 11
3.0486232605
 21
3.3270254921
 31
0.0
  0
LINE
  5
38D
  8
0
  6
CONTINUOUS
 62
     7
 10
2.9666031593
 20
3.2468358757
 30
0.0
 11
3.0486232605
 21
3.3270254921
 31
0.0
  0
LINE
  5
38E
  8
0
  6
CONTINUOUS
 62
     7
 10
2.4739394071
 20
3.4435925682
 30
0.0
 11
2.390078428
 21
3.5800214277
 31
0.0
  0
LINE
  5
38F
  8
0
  6
CONTINUOUS
 62
     7
 10
2.4739394071
 20
3.4435925682
 30
0.0
 11
2.4557906045
 21
3.4283028408
 31
0.0
  0
LINE
  5
390
  8
0
  6
CONTINUOUS
 62
     7
 10
2.4557906045
 20
3.4283028408
 30
0.0
 11
2.3500777559
 21
3.5463222656
 31
0.0
  0
LINE
  5
391
  8
0
  6
CONTINUOUS
 62
     7
 10
2.390078428
 20
3.5800214277
 30
0.0
 11
2.3500777559
 21
3.5463222656
 31
0.0
  0
LINE
  5
392
  8
0
  6
CONTINUOUS
 62
     7
 10
2.8831156011
 20
2.9968895289
 30
0.0
 11
2.8669391613
 21
3.0075033206
 31
0.0
  0
LINE
  5
393
  8
0
  6
CONTINUOUS
 62
     7
 10
2.8669391613
 20
3.0075033206
 30
0.0
 11
2.8769736058
 21
3.0487600475
 31
0.0
  0
LINE
  5
394
  8
0
  6
CONTINUOUS
 62
     7
 10
2.7445687972
 20
3.1018734764
 30
0.0
 11
2.8669391613
 21
3.0075033206
 31
0.0
  0
LINE
  5
395
  8
0
  6
CONTINUOUS
 62
     7
 10
2.7445687972
 20
3.1018734764
 30
0.0
 11
2.7532726538
 21
3.1376594818
 31
0.0
  0
LINE
  5
396
  8
0
  6
CONTINUOUS
 62
     7
 10
2.4557906045
 20
3.4283028408
 30
0.0
 11
2.4210397623
 21
3.4039119617
 31
0.0
  0
LINE
  5
397
  8
0
  6
CONTINUOUS
 62
     7
 10
2.4210397623
 20
3.4039119617
 30
0.0
 11
2.3100144546
 21
3.5182026709
 31
0.0
  0
LINE
  5
398
  8
0
  6
CONTINUOUS
 62
     7
 10
2.3500777559
 20
3.5463222656
 30
0.0
 11
2.3100144546
 21
3.5182026709
 31
0.0
  0
LINE
  5
399
  8
0
  6
CONTINUOUS
 62
     7
 10
2.3372308329
 20
3.5615468078
 30
0.0
 11
2.3500777559
 21
3.5463222656
 31
0.0
  0
LINE
  5
39A
  8
0
  6
CONTINUOUS
 62
     7
 10
2.3772314938
 20
3.5952459916
 30
0.0
 11
2.3372308329
 21
3.5615468078
 31
0.0
  0
LINE
  5
39B
  8
0
  6
CONTINUOUS
 62
     7
 10
2.3772314938
 20
3.5952459916
 30
0.0
 11
2.390078428
 21
3.5800214277
 31
0.0
  0
LINE
  5
39C
  8
0
  6
CONTINUOUS
 62
     7
 10
2.3372308329
 20
3.5615468078
 30
0.0
 11
2.2971675038
 21
3.5334272386
 31
0.0
  0
LINE
  5
39D
  8
0
  6
CONTINUOUS
 62
     7
 10
2.2971675038
 20
3.5334272386
 30
0.0
 11
2.2923838395
 21
3.5380314723
 31
0.0
  0
LINE
  5
39E
  8
0
  6
CONTINUOUS
 62
     7
 10
2.2923838395
 20
3.5380314723
 30
0.0
 11
2.3772314938
 21
3.5952459916
 31
0.0
  0
LINE
  5
39F
  8
0
  6
CONTINUOUS
 62
     7
 10
2.2971675038
 20
3.5334272386
 30
0.0
 11
2.3100144546
 21
3.5182026709
 31
0.0
  0
LINE
  5
3A0
  8
0
  6
CONTINUOUS
 62
     7
 10
2.6996618964
 20
3.0659098533
 30
0.0
 11
2.794517599
 21
2.936614629
 31
0.0
  0
LINE
  5
3A1
  8
0
  6
CONTINUOUS
 62
     7
 10
2.7454987356
 20
3.1011563211
 30
0.0
 11
2.6996618964
 21
3.0659098533
 31
0.0
  0
LINE
  5
3A2
  8
0
  6
CONTINUOUS
 62
     7
 10
2.8776050585
 20
3.0005051427
 30
0.0
 11
2.794517599
 21
2.936614629
 31
0.0
  0
LINE
  5
3A3
  8
0
  6
CONTINUOUS
 62
     7
 10
2.3100144546
 20
3.5182026709
 30
0.0
 11
2.3052307922
 21
3.5228069107
 31
0.0
  0
LINE
  5
3A4
  8
0
  6
CONTINUOUS
 62
     7
 10
2.4171675625
 20
3.4077446454
 30
0.0
 11
2.4176924623
 21
3.407192555
 31
0.0
  0
LINE
  5
3A5
  8
0
  6
CONTINUOUS
 62
     7
 10
2.4171675625
 20
3.4077446454
 30
0.0
 11
2.3483024223
 21
3.4785278348
 31
0.0
  0
LINE
  5
3A6
  8
0
  6
CONTINUOUS
 62
     7
 10
2.4210397623
 20
3.4039119617
 30
0.0
 11
2.4185903089
 21
3.4062695364
 31
0.0
  0
LINE
  5
3A7
  8
0
  6
CONTINUOUS
 62
     7
 10
2.4185903089
 20
3.4062695364
 30
0.0
 11
2.4176924623
 21
3.407192555
 31
0.0
  0
LINE
  5
3A8
  8
0
  6
CONTINUOUS
 62
     7
 10
2.3483024223
 20
3.4785278348
 30
0.0
 11
2.3052307922
 21
3.5228069107
 31
0.0
  0
ARC
  5
3A9
  8
0
  6
CONTINUOUS
 62
     7
 10
2.6046931268
 20
3.2834295103
 30
0.0
 40
0.4533823837321468
 50
47.182026539
 51
66.3440504268
  0
LINE
  5
3AA
  8
0
  6
CONTINUOUS
 62
     7
 10
2.8973251081
 20
2.9905657405
 30
0.0
 11
2.8073645183
 21
2.9213900749
 31
0.0
  0
LINE
  5
3AB
  8
0
  6
CONTINUOUS
 62
     7
 10
2.8073645183
 20
2.9213900749
 30
0.0
 11
2.794517599
 21
2.936614629
 31
0.0
  0
LINE
  5
3AC
  8
0
  6
CONTINUOUS
 62
     7
 10
2.2923838395
 20
3.5380314723
 30
0.0
 11
2.3052307922
 21
3.5228069107
 31
0.0
  0
LINE
  5
3AD
  8
0
  6
CONTINUOUS
 62
     7
 10
2.397274374
 20
3.3734927616
 30
0.0
 11
2.2610501433
 21
3.4524372011
 31
0.0
  0
LINE
  5
3AE
  8
0
  6
CONTINUOUS
 62
     7
 10
2.2610501433
 20
3.4524372011
 30
0.0
 11
2.3025371351
 21
3.5238690696
 31
0.0
  0
LINE
  5
3AF
  8
0
  6
CONTINUOUS
 62
     7
 10
2.3309240112
 20
3.4963934133
 30
0.0
 11
2.3025371351
 21
3.5238690696
 31
0.0
  0
LINE
  5
3B0
  8
0
  6
CONTINUOUS
 62
     7
 10
2.397274374
 20
3.3734927616
 30
0.0
 11
2.4171675625
 21
3.4077446454
 31
0.0
  0
ARC
  5
3B1
  8
0
  6
CONTINUOUS
 62
     7
 10
2.6718283691
 20
3.3032695473
 30
0.0
 40
0.3882288597918481
 50
20.437230487
 51
26.7320113308
  0
LINE
  5
3B2
  8
0
  6
CONTINUOUS
 62
     7
 10
2.6996618964
 20
3.0659098533
 30
0.0
 11
2.6959725875
 21
3.0675042802
 31
0.0
  0
LINE
  5
3B3
  8
0
  6
CONTINUOUS
 62
     7
 10
2.6959725875
 20
3.0675042802
 30
0.0
 11
2.6981946085
 21
3.069302388
 31
0.0
  0
LINE
  5
3B4
  8
0
  6
CONTINUOUS
 62
     7
 10
2.6987574074
 20
3.0697768601
 30
0.0
 11
2.7454024556
 21
3.1012305687
 31
0.0
  0
LINE
  5
3B5
  8
0
  6
CONTINUOUS
 62
     7
 10
2.794517599
 20
2.936614629
 30
0.0
 11
2.7868236044
 21
2.9399397703
 31
0.0
  0
LINE
  5
3B6
  8
0
  6
CONTINUOUS
 62
     7
 10
2.6959725875
 20
3.0675042802
 30
0.0
 11
2.7507786149
 21
2.9904835222
 31
0.0
  0
LINE
  5
3B7
  8
0
  6
CONTINUOUS
 62
     7
 10
2.7514860473
 20
2.9894231359
 30
0.0
 11
2.7868236044
 21
2.9399397703
 31
0.0
  0
LINE
  5
3B8
  8
0
  6
CONTINUOUS
 62
     7
 10
2.3976071811
 20
3.3701334707
 30
0.0
 11
2.397274374
 21
3.3734927616
 31
0.0
  0
LINE
  5
3B9
  8
0
  6
CONTINUOUS
 62
     7
 10
2.4178596633
 20
3.4070206641
 30
0.0
 11
2.4115651368
 21
3.3863908632
 31
0.0
  0
LINE
  5
3BA
  8
0
  6
CONTINUOUS
 62
     7
 10
2.2448737036
 20
3.4630509928
 30
0.0
 11
2.2610501433
 21
3.4524372011
 31
0.0
  0
LINE
  5
3BB
  8
0
  6
CONTINUOUS
 62
     7
 10
2.2448737036
 20
3.4630509928
 30
0.0
 11
2.2863606954
 21
3.5344828613
 31
0.0
  0
LINE
  5
3BC
  8
0
  6
CONTINUOUS
 62
     7
 10
2.7507786149
 20
2.9904835222
 30
0.0
 11
2.7834184244
 21
2.9415592615
 31
0.0
  0
LINE
  5
3BD
  8
0
  6
CONTINUOUS
 62
     7
 10
2.7139641772
 20
2.9167923452
 30
0.0
 11
2.7834184244
 21
2.9415592615
 31
0.0
  0
LINE
  5
3BE
  8
0
  6
CONTINUOUS
 62
     7
 10
2.6679501473
 20
3.0413942735
 30
0.0
 11
2.7139641772
 21
2.9167923452
 31
0.0
  0
LINE
  5
3BF
  8
0
  6
CONTINUOUS
 62
     7
 10
2.265876807
 20
3.4037178144
 30
0.0
 11
2.2610501433
 21
3.4524372011
 31
0.0
  0
LINE
  5
3C0
  8
0
  6
CONTINUOUS
 62
     7
 10
2.3831367651
 20
3.3548258066
 30
0.0
 11
2.265876807
 21
3.4037178144
 31
0.0
  0
LINE
  5
3C1
  8
0
  6
CONTINUOUS
 62
     7
 10
2.8073645183
 20
2.9213900749
 30
0.0
 11
2.7996705274
 21
2.9247152281
 31
0.0
  0
LINE
  5
3C2
  8
0
  6
CONTINUOUS
 62
     7
 10
2.6375863448
 20
3.0072228952
 30
0.0
 11
2.6656437638
 21
2.9209072953
 31
0.0
  0
LINE
  5
3C3
  8
0
  6
CONTINUOUS
 62
     7
 10
2.6656437638
 20
2.9209072953
 30
0.0
 11
2.7139641772
 21
2.9167923452
 31
0.0
  0
LINE
  5
3C4
  8
0
  6
CONTINUOUS
 62
     7
 10
2.2497003673
 20
3.4143316061
 30
0.0
 11
2.2448737036
 21
3.4630509928
 31
0.0
  0
LINE
  5
3C5
  8
0
  6
CONTINUOUS
 62
     7
 10
2.3554762934
 20
3.330196586
 30
0.0
 11
2.2511530881
 21
3.3530065425
 31
0.0
  0
LINE
  5
3C6
  8
0
  6
CONTINUOUS
 62
     7
 10
2.3093709131
 20
3.2851334115
 30
0.0
 11
2.2592982249
 21
3.2932561184
 31
0.0
  0
LINE
  5
3C7
  8
0
  6
CONTINUOUS
 62
     7
 10
2.2511530881
 20
3.3530065425
 30
0.0
 11
2.2592982249
 21
3.2932561184
 31
0.0
  0
LINE
  5
3C8
  8
0
  6
CONTINUOUS
 62
     7
 10
2.9878315017
 20
3.2430458081
 30
0.0
 11
2.9728085498
 21
3.2529027658
 31
0.0
  0
LINE
  5
3C9
  8
0
  6
CONTINUOUS
 62
     7
 10
2.9878315017
 20
3.2430458081
 30
0.0
 11
3.0099647508
 21
3.2646850981
 31
0.0
  0
LINE
  5
3CA
  8
0
  6
CONTINUOUS
 62
     7
 10
3.0264034722
 20
3.2538992164
 30
0.0
 11
3.0099647508
 21
3.2646850981
 31
0.0
  0
LINE
  5
3CB
  8
0
  6
CONTINUOUS
 62
     7
 10
2.3793847437
 20
3.3526199066
 30
0.0
 11
2.2675558092
 21
3.4021889541
 31
0.0
  0
LINE
  5
3CC
  8
0
  6
CONTINUOUS
 62
     7
 10
2.2675558092
 20
3.4021889541
 30
0.0
 11
2.2511530881
 21
3.3530065425
 31
0.0
  0
LINE
  5
3CD
  8
0
  6
CONTINUOUS
 62
     7
 10
2.7903913663
 20
2.9247393674
 30
0.0
 11
2.7834184244
 21
2.9415592615
 31
0.0
  0
LINE
  5
3CE
  8
0
  6
CONTINUOUS
 62
     7
 10
2.7209371155
 20
2.899972439
 30
0.0
 11
2.7903913663
 21
2.9247393674
 31
0.0
  0
LINE
  5
3CF
  8
0
  6
CONTINUOUS
 62
     7
 10
2.7209371155
 20
2.899972439
 30
0.0
 11
2.7139641772
 21
2.9167923452
 31
0.0
  0
LINE
  5
3D0
  8
0
  6
CONTINUOUS
 62
     7
 10
2.6588582823
 20
2.941782059
 30
0.0
 11
2.577849908
 21
2.9521325982
 31
0.0
  0
LINE
  5
3D1
  8
0
  6
CONTINUOUS
 62
     7
 10
2.2592982249
 20
3.2932561184
 30
0.0
 11
2.2950072492
 21
3.2712920311
 31
0.0
  0
LINE
  5
3D2
  8
0
  6
CONTINUOUS
 62
     7
 10
2.2992776733
 20
3.2708829355
 30
0.0
 11
2.2950072492
 21
3.2712920311
 31
0.0
  0
LINE
  5
3D3
  8
0
  6
CONTINUOUS
 62
     7
 10
2.2942412545
 20
3.2662833887
 30
0.0
 11
2.2939867075
 21
3.2696811711
 31
0.0
  0
LINE
  5
3D4
  8
0
  6
CONTINUOUS
 62
     7
 10
2.2986280661
 20
3.2694861269
 30
0.0
 11
2.2939867075
 21
3.2696811711
 31
0.0
  0
LINE
  5
3D5
  8
0
  6
CONTINUOUS
 62
     7
 10
2.6726166985
 20
2.9040873772
 30
0.0
 11
2.6656437638
 21
2.9209072953
 31
0.0
  0
LINE
  5
3D6
  8
0
  6
CONTINUOUS
 62
     7
 10
2.6726166985
 20
2.9040873772
 30
0.0
 11
2.7209371155
 21
2.899972439
 31
0.0
  0
LINE
  5
3D7
  8
0
  6
CONTINUOUS
 62
     7
 10
2.2348510965
 20
3.3569073773
 30
0.0
 11
2.2511530881
 21
3.3530065425
 31
0.0
  0
LINE
  5
3D8
  8
0
  6
CONTINUOUS
 62
     7
 10
2.2512538158
 20
3.4060897829
 30
0.0
 11
2.2675558092
 21
3.4021889541
 31
0.0
  0
LINE
  5
3D9
  8
0
  6
CONTINUOUS
 62
     7
 10
2.2512538158
 20
3.4060897829
 30
0.0
 11
2.2348510965
 21
3.3569073773
 31
0.0
  0
LINE
  5
3DA
  8
0
  6
CONTINUOUS
 62
     7
 10
2.2429962297
 20
3.2971569412
 30
0.0
 11
2.2592982249
 21
3.2932561184
 31
0.0
  0
LINE
  5
3DB
  8
0
  6
CONTINUOUS
 62
     7
 10
2.2348510965
 20
3.3569073773
 30
0.0
 11
2.2429962297
 21
3.2971569412
 31
0.0
  0
LINE
  5
3DC
  8
0
  6
CONTINUOUS
 62
     7
 10
2.662600543
 20
2.9261839921
 30
0.0
 11
2.5632843397
 21
2.9388737352
 31
0.0
  0
LINE
  5
3DD
  8
0
  6
CONTINUOUS
 62
     7
 10
2.2787052539
 20
3.2751928539
 30
0.0
 11
2.2950072492
 21
3.2712920311
 31
0.0
  0
LINE
  5
3DE
  8
0
  6
CONTINUOUS
 62
     7
 10
2.2429962297
 20
3.2971569412
 30
0.0
 11
2.2787052539
 21
3.2751928539
 31
0.0
  0
LINE
  5
3DF
  8
0
  6
CONTINUOUS
 62
     7
 10
2.281411614
 20
3.2577717652
 30
0.0
 11
2.2807879329
 21
3.2660964615
 31
0.0
  0
ENDSEC
  0
EOF
