  0
SECTION
  2
HEADER
  9
$ACADVER
  1
AC1012
  9
$DWGCODEPAGE
  3
ANSI_1252
  9
$INSBASE
 10
0.0
 20
0.0
 30
0.0
  9
$EXTMIN
 10
-1.711486790459005
 20
2.225143456162353
 30
-0.0000000349181948
  9
$EXTMAX
 10
7.26800539352466
 20
7.471115131479589
 30
0.0000000814935746
  9
$LIMMIN
 10
0.0
 20
0.0
  9
$LIMMAX
 10
12.0
 20
9.0
  9
$ORTHOMODE
 70
     0
  9
$REGENMODE
 70
     1
  9
$FILLMODE
 70
     1
  9
$QTEXTMODE
 70
     0
  9
$MIRRTEXT
 70
     1
  9
$DRAGMODE
 70
     2
  9
$LTSCALE
 40
1.0
  9
$OSMODE
 70
    33
  9
$ATTMODE
 70
     1
  9
$TEXTSIZE
 40
0.2
  9
$TRACEWID
 40
0.05
  9
$TEXTSTYLE
  7
STANDARD
  9
$CLAYER
  8
0
  9
$CELTYPE
  6
BYLAYER
  9
$CECOLOR
 62
   256
  9
$CELTSCALE
 40
1.0
  9
$DELOBJ
 70
     1
  9
$DISPSILH
 70
     0
  9
$DIMSCALE
 40
1.0
  9
$DIMASZ
 40
0.18
  9
$DIMEXO
 40
0.0625
  9
$DIMDLI
 40
0.38
  9
$DIMRND
 40
0.0
  9
$DIMDLE
 40
0.0
  9
$DIMEXE
 40
0.18
  9
$DIMTP
 40
0.0
  9
$DIMTM
 40
0.0
  9
$DIMTXT
 40
0.18
  9
$DIMCEN
 40
0.09
  9
$DIMTSZ
 40
0.0
  9
$DIMTOL
 70
     0
  9
$DIMLIM
 70
     0
  9
$DIMTIH
 70
     1
  9
$DIMTOH
 70
     1
  9
$DIMSE1
 70
     0
  9
$DIMSE2
 70
     0
  9
$DIMTAD
 70
     0
  9
$DIMZIN
 70
     0
  9
$DIMBLK
  1

  9
$DIMASO
 70
     1
  9
$DIMSHO
 70
     1
  9
$DIMPOST
  1

  9
$DIMAPOST
  1

  9
$DIMALT
 70
     0
  9
$DIMALTD
 70
     2
  9
$DIMALTF
 40
25.4
  9
$DIMLFAC
 40
1.0
  9
$DIMTOFL
 70
     0
  9
$DIMTVP
 40
0.0
  9
$DIMTIX
 70
     0
  9
$DIMSOXD
 70
     0
  9
$DIMSAH
 70
     0
  9
$DIMBLK1
  1

  9
$DIMBLK2
  1

  9
$DIMSTYLE
  2
STANDARD
  9
$DIMCLRD
 70
     0
  9
$DIMCLRE
 70
     0
  9
$DIMCLRT
 70
     0
  9
$DIMTFAC
 40
1.0
  9
$DIMGAP
 40
0.09
  9
$DIMJUST
 70
     0
  9
$DIMSD1
 70
     0
  9
$DIMSD2
 70
     0
  9
$DIMTOLJ
 70
     1
  9
$DIMTZIN
 70
     0
  9
$DIMALTZ
 70
     0
  9
$DIMALTTZ
 70
     0
  9
$DIMFIT
 70
     5
  9
$DIMUPT
 70
     0
  9
$DIMUNIT
 70
     2
  9
$DIMDEC
 70
     4
  9
$DIMTDEC
 70
     4
  9
$DIMALTU
 70
     2
  9
$DIMALTTD
 70
     2
  9
$DIMTXSTY
  7
STANDARD
  9
$DIMAUNIT
 70
     0
  9
$LUNITS
 70
     2
  9
$LUPREC
 70
     4
  9
$SKETCHINC
 40
0.1
  9
$FILLETRAD
 40
0.0
  9
$AUNITS
 70
     0
  9
$AUPREC
 70
     0
  9
$MENU
  1
acad
  9
$ELEVATION
 40
0.0
  9
$PELEVATION
 40
0.0
  9
$THICKNESS
 40
0.0
  9
$LIMCHECK
 70
     0
  9
$BLIPMODE
 70
     0
  9
$CHAMFERA
 40
0.0
  9
$CHAMFERB
 40
0.0
  9
$CHAMFERC
 40
0.0
  9
$CHAMFERD
 40
0.0
  9
$SKPOLY
 70
     0
  9
$TDCREATE
 40
2452255.288703704
  9
$TDUPDATE
 40
2452339.338636458
  9
$TDINDWG
 40
0.0019831481
  9
$TDUSRTIMER
 40
0.0019831481
  9
$USRTIMER
 70
     1
  9
$ANGBASE
 50
0.0
  9
$ANGDIR
 70
     0
  9
$PDMODE
 70
     0
  9
$PDSIZE
 40
0.0
  9
$PLINEWID
 40
0.0
  9
$COORDS
 70
     2
  9
$SPLFRAME
 70
     0
  9
$SPLINETYPE
 70
     6
  9
$SPLINESEGS
 70
     8
  9
$ATTDIA
 70
     0
  9
$ATTREQ
 70
     1
  9
$HANDLING
 70
  4097
  9
$HANDSEED
  5
4252
  9
$SURFTAB1
 70
     6
  9
$SURFTAB2
 70
     6
  9
$SURFTYPE
 70
     6
  9
$SURFU
 70
     6
  9
$SURFV
 70
     6
  9
$UCSNAME
  2

  9
$UCSORG
 10
0.0
 20
0.0
 30
0.0
  9
$UCSXDIR
 10
1.0
 20
0.0
 30
0.0
  9
$UCSYDIR
 10
0.0
 20
1.0
 30
0.0
  9
$PUCSNAME
  2

  9
$PUCSORG
 10
0.0
 20
0.0
 30
0.0
  9
$PUCSXDIR
 10
1.0
 20
0.0
 30
0.0
  9
$PUCSYDIR
 10
0.0
 20
1.0
 30
0.0
  9
$USERI1
 70
     0
  9
$USERI2
 70
     0
  9
$USERI3
 70
     0
  9
$USERI4
 70
     0
  9
$USERI5
 70
     0
  9
$USERR1
 40
0.0
  9
$USERR2
 40
0.0
  9
$USERR3
 40
0.0
  9
$USERR4
 40
0.0
  9
$USERR5
 40
0.0
  9
$WORLDVIEW
 70
     1
  9
$SHADEDGE
 70
     3
  9
$SHADEDIF
 70
    70
  9
$TILEMODE
 70
     1
  9
$MAXACTVP
 70
    16
  9
$PINSBASE
 10
0.0
 20
0.0
 30
0.0
  9
$PLIMCHECK
 70
     0
  9
$PEXTMIN
 10
1.000000000000000E+20
 20
1.000000000000000E+20
 30
1.000000000000000E+20
  9
$PEXTMAX
 10
-1.000000000000000E+20
 20
-1.000000000000000E+20
 30
-1.000000000000000E+20
  9
$PLIMMIN
 10
0.0
 20
0.0
  9
$PLIMMAX
 10
12.0
 20
9.0
  9
$UNITMODE
 70
     0
  9
$VISRETAIN
 70
     0
  9
$PLINEGEN
 70
     0
  9
$PSLTSCALE
 70
     1
  9
$TREEDEPTH
 70
  3020
  9
$PICKSTYLE
 70
     1
  9
$CMLSTYLE
  2
STANDARD
  9
$CMLJUST
 70
     0
  9
$CMLSCALE
 40
1.0
  9
$SAVEIMAGES
 70
     1
  0
ENDSEC
  0
SECTION
  2
CLASSES
  0
CLASS
  1
ACDBDICTIONARYWDFLT
  2
AcDbDictionaryWithDefault
  3
AutoCAD 2000
 90
    32768
280
     0
281
     0
  0
CLASS
  1
ACDBPLACEHOLDER
  2
AcDbPlaceHolder
  3
AutoCAD 2000
 90
    32768
280
     0
281
     0
  0
CLASS
  1
LAYOUT
  2
AcDbLayout
  3
AutoCAD 2000
 90
    32768
280
     0
281
     0
  0
CLASS
  1
LONG_TRANSACTION
  2
AcDbLongTransaction
  3
AutoCAD 2000
 90
    32768
280
     0
281
     0
  0
CLASS
  1
LWPOLYLINE
  2
AcDbPolyline
  3
AutoCAD 2000
 90
    32768
280
     0
281
     1
  0
CLASS
  1
HATCH
  2
AcDbHatch
  3
AutoCAD 2000
 90
    32768
280
     0
281
     1
  0
CLASS
  1
XRECORD
  2
AcDbXrecord
  3
AutoCAD 2000
 90
    32768
280
     0
281
     0
  0
CLASS
  1
LONG_TRANSACTION
  2
AcDbLongTransaction
  3
AutoCAD 2000
 90
    32768
280
     0
281
     0
  0
CLASS
  1
LWPOLYLINE
  2
AcDbPolyline
  3
AutoCAD 2000
 90
    32768
280
     0
281
     1
  0
CLASS
  1
HATCH
  2
AcDbHatch
  3
AutoCAD 2000
 90
    32768
280
     0
281
     1
  0
CLASS
  1
XRECORD
  2
AcDbXrecord
  3
AutoCAD 2000
 90
    32768
280
     0
281
     0
  0
ENDSEC
  0
SECTION
  2
TABLES
  0
TABLE
  2
VPORT
  5
8
330
0
100
AcDbSymbolTable
 70
     3
  0
VPORT
  5
424F
330
8
100
AcDbSymbolTableRecord
100
AcDbViewportTableRecord
  2
*ACTIVE
 70
     0
 10
0.0
 20
0.0
 11
1.0
 21
1.0
 12
2.778259301532826
 22
4.848129293820971
 13
0.0
 23
0.0
 14
1.0
 24
1.0
 15
0.0
 25
0.0
 16
0.0
 26
0.0
 36
1.0
 17
0.0
 27
0.0
 37
0.0
 40
5.633292727713399
 41
1.601839684625492
 42
50.0
 43
0.0
 44
0.0
 50
0.0
 51
0.0
 71
     0
 72
   100
 73
     1
 74
     1
 75
     0
 76
     0
 77
     0
 78
     0
  0
ENDTAB
  0
TABLE
  2
LTYPE
  5
5
330
0
100
AcDbSymbolTable
 70
    25
  0
LTYPE
  5
13
330
5
100
AcDbSymbolTableRecord
100
AcDbLinetypeTableRecord
  2
BYBLOCK
 70
     0
  3

 72
    65
 73
     0
 40
0.0
  0
LTYPE
  5
14
330
5
100
AcDbSymbolTableRecord
100
AcDbLinetypeTableRecord
  2
BYLAYER
 70
     0
  3

 72
    65
 73
     0
 40
0.0
  0
LTYPE
  5
15
330
5
100
AcDbSymbolTableRecord
100
AcDbLinetypeTableRecord
  2
CONTINUOUS
 70
     0
  3
Solid line
 72
    65
 73
     0
 40
0.0
  0
LTYPE
  5
22
330
5
100
AcDbSymbolTableRecord
100
AcDbLinetypeTableRecord
  2
BORDER
 70
     0
  3
__ __ . __ __ . __ __ . __ __ . __ __ . __ __ .
 72
    65
 73
     6
 40
1.75
 49
0.5
 74
     0
 49
-0.25
 74
     0
 49
0.5
 74
     0
 49
-0.25
 74
     0
 49
0.5
 74
     0
 49
-0.25
 74
     0
  0
LTYPE
  5
23
330
5
100
AcDbSymbolTableRecord
100
AcDbLinetypeTableRecord
  2
BORDER2
 70
     0
  3
__.__.__.__.__.__.__.__.__.__.__.__.__.__.__.__
 72
    65
 73
     6
 40
0.875
 49
0.25
 74
     0
 49
-0.125
 74
     0
 49
0.25
 74
     0
 49
-0.125
 74
     0
 49
0.25
 74
     0
 49
-0.125
 74
     0
  0
LTYPE
  5
24
330
5
100
AcDbSymbolTableRecord
100
AcDbLinetypeTableRecord
  2
BORDERX2
 70
     0
  3
____  ____  .  ____  ____  .  
 72
    65
 73
     6
 40
3.5
 49
1.0
 74
     0
 49
-0.5
 74
     0
 49
1.0
 74
     0
 49
-0.5
 74
     0
 49
1.0
 74
     0
 49
-0.5
 74
     0
  0
LTYPE
  5
25
330
5
100
AcDbSymbolTableRecord
100
AcDbLinetypeTableRecord
  2
CENTER
 70
     0
  3
____ _ ____ _ ____ _ ____ _ ____ _ ____ _ ____
 72
    65
 73
     4
 40
2.0
 49
1.25
 74
     0
 49
-0.25
 74
     0
 49
0.25
 74
     0
 49
-0.25
 74
     0
  0
LTYPE
  5
26
330
5
100
AcDbSymbolTableRecord
100
AcDbLinetypeTableRecord
  2
CENTER2
 70
     0
  3
____ _ ____ _ ____ _ ____ _ ____ _ ____ _ ____
 72
    65
 73
     4
 40
1.125
 49
0.75
 74
     0
 49
-0.125
 74
     0
 49
0.125
 74
     0
 49
-0.125
 74
     0
  0
LTYPE
  5
27
330
5
100
AcDbSymbolTableRecord
100
AcDbLinetypeTableRecord
  2
CENTERX2
 70
     0
  3
________  __  ________  __  ________  __  
 72
    65
 73
     4
 40
4.0
 49
2.5
 74
     0
 49
-0.5
 74
     0
 49
0.5
 74
     0
 49
-0.5
 74
     0
  0
LTYPE
  5
28
330
5
100
AcDbSymbolTableRecord
100
AcDbLinetypeTableRecord
  2
DASHDOT
 70
     0
  3
__ . __ . __ . __ . __ . __ . __ . 
 72
    65
 73
     4
 40
1.0
 49
0.5
 74
     0
 49
-0.25
 74
     0
 49
0.0
 74
     0
 49
-0.25
 74
     0
  0
LTYPE
  5
29
330
5
100
AcDbSymbolTableRecord
100
AcDbLinetypeTableRecord
  2
DASHDOT2
 70
     0
  3
_._._._._._._._._._._._._._._._.
 72
    65
 73
     4
 40
0.5
 49
0.25
 74
     0
 49
-0.125
 74
     0
 49
0.0
 74
     0
 49
-0.125
 74
     0
  0
LTYPE
  5
2A
330
5
100
AcDbSymbolTableRecord
100
AcDbLinetypeTableRecord
  2
DASHDOTX2
 70
     0
  3
____  .  ____  .  ____  .  ____  .  
 72
    65
 73
     4
 40
2.0
 49
1.0
 74
     0
 49
-0.5
 74
     0
 49
0.0
 74
     0
 49
-0.5
 74
     0
  0
LTYPE
  5
2B
330
5
100
AcDbSymbolTableRecord
100
AcDbLinetypeTableRecord
  2
DASHED
 70
     0
  3
__ __ __ __ __ __ __ __ __ __ __ __ 
 72
    65
 73
     2
 40
0.75
 49
0.5
 74
     0
 49
-0.25
 74
     0
  0
LTYPE
  5
2C
330
5
100
AcDbSymbolTableRecord
100
AcDbLinetypeTableRecord
  2
DASHED2
 70
     0
  3
_ _ _ _ _ _ _ _ _ _ _ _ _ _ _ _ _ _ 
 72
    65
 73
     2
 40
0.375
 49
0.25
 74
     0
 49
-0.125
 74
     0
  0
LTYPE
  5
2D
330
5
100
AcDbSymbolTableRecord
100
AcDbLinetypeTableRecord
  2
DASHEDX2
 70
     0
  3
____  ____  ____  ____  ____  ____  
 72
    65
 73
     2
 40
1.5
 49
1.0
 74
     0
 49
-0.5
 74
     0
  0
LTYPE
  5
2E
330
5
100
AcDbSymbolTableRecord
100
AcDbLinetypeTableRecord
  2
DIVIDE
 70
     0
  3
____ . . ____ . . ____ . . ____ . . 
 72
    65
 73
     6
 40
1.25
 49
0.5
 74
     0
 49
-0.25
 74
     0
 49
0.0
 74
     0
 49
-0.25
 74
     0
 49
0.0
 74
     0
 49
-0.25
 74
     0
  0
LTYPE
  5
2F
330
5
100
AcDbSymbolTableRecord
100
AcDbLinetypeTableRecord
  2
DIVIDE2
 70
     0
  3
__..__..__..__..__..__..__..__..__..
 72
    65
 73
     6
 40
0.625
 49
0.25
 74
     0
 49
-0.125
 74
     0
 49
0.0
 74
     0
 49
-0.125
 74
     0
 49
0.0
 74
     0
 49
-0.125
 74
     0
  0
LTYPE
  5
30
330
5
100
AcDbSymbolTableRecord
100
AcDbLinetypeTableRecord
  2
DIVIDEX2
 70
     0
  3
________  .  .  ________  .  .  ________  .  . 
 72
    65
 73
     6
 40
2.5
 49
1.0
 74
     0
 49
-0.5
 74
     0
 49
0.0
 74
     0
 49
-0.5
 74
     0
 49
0.0
 74
     0
 49
-0.5
 74
     0
  0
LTYPE
  5
31
330
5
100
AcDbSymbolTableRecord
100
AcDbLinetypeTableRecord
  2
DOT
 70
     0
  3
. . . . . . . . . . . . . . . . . . 
 72
    65
 73
     2
 40
0.25
 49
0.0
 74
     0
 49
-0.25
 74
     0
  0
LTYPE
  5
32
330
5
100
AcDbSymbolTableRecord
100
AcDbLinetypeTableRecord
  2
DOT2
 70
     0
  3
....................................
 72
    65
 73
     2
 40
0.125
 49
0.0
 74
     0
 49
-0.125
 74
     0
  0
LTYPE
  5
33
330
5
100
AcDbSymbolTableRecord
100
AcDbLinetypeTableRecord
  2
DOTX2
 70
     0
  3
.  .  .  .  .  .  .  .  .  .  .  .  .  
 72
    65
 73
     2
 40
0.5
 49
0.0
 74
     0
 49
-0.5
 74
     0
  0
LTYPE
  5
34
330
5
100
AcDbSymbolTableRecord
100
AcDbLinetypeTableRecord
  2
HIDDEN
 70
     0
  3
__ __ __ __ __ __ __ __ __ __ __ __ 
 72
    65
 73
     2
 40
0.375
 49
0.25
 74
     0
 49
-0.125
 74
     0
  0
LTYPE
  5
35
330
5
100
AcDbSymbolTableRecord
100
AcDbLinetypeTableRecord
  2
HIDDEN2
 70
     0
  3
_ _ _ _ _ _ _ _ _ _ _ _ _ _ _ _ _ _ 
 72
    65
 73
     2
 40
0.1875
 49
0.125
 74
     0
 49
-0.0625
 74
     0
  0
LTYPE
  5
36
330
5
100
AcDbSymbolTableRecord
100
AcDbLinetypeTableRecord
  2
HIDDENX2
 70
     0
  3
____ ____ ____ ____ ____ ____ ____ 
 72
    65
 73
     2
 40
0.75
 49
0.5
 74
     0
 49
-0.25
 74
     0
  0
LTYPE
  5
37
330
5
100
AcDbSymbolTableRecord
100
AcDbLinetypeTableRecord
  2
PHANTOM
 70
     0
  3
______  __  __  ______  __  __  
 72
    65
 73
     6
 40
2.5
 49
1.25
 74
     0
 49
-0.25
 74
     0
 49
0.25
 74
     0
 49
-0.25
 74
     0
 49
0.25
 74
     0
 49
-0.25
 74
     0
  0
LTYPE
  5
38
330
5
100
AcDbSymbolTableRecord
100
AcDbLinetypeTableRecord
  2
PHANTOM2
 70
     0
  3
___ _ _ ___ _ _ ___ _ _ ___ _ _ 
 72
    65
 73
     6
 40
1.25
 49
0.625
 74
     0
 49
-0.125
 74
     0
 49
0.125
 74
     0
 49
-0.125
 74
     0
 49
0.125
 74
     0
 49
-0.125
 74
     0
  0
LTYPE
  5
39
330
5
100
AcDbSymbolTableRecord
100
AcDbLinetypeTableRecord
  2
PHANTOMX2
 70
     0
  3
___ _ _ ___ _ _ ___ _ _ ___ _ _ 
 72
    65
 73
     6
 40
5.0
 49
2.5
 74
     0
 49
-0.5
 74
     0
 49
0.5
 74
     0
 49
-0.5
 74
     0
 49
0.5
 74
     0
 49
-0.5
 74
     0
  0
ENDTAB
  0
TABLE
  2
LAYER
  5
2
330
0
100
AcDbSymbolTable
 70
   257
  0
LAYER
  5
10
330
2
100
AcDbSymbolTableRecord
100
AcDbLayerTableRecord
  2
0
 70
     0
 62
     7
  6
CONTINUOUS
  0
LAYER
  5
3A
330
2
100
AcDbSymbolTableRecord
100
AcDbLayerTableRecord
  2
1
 70
     0
 62
     1
  6
CONTINUOUS
  0
LAYER
  5
3B
330
2
100
AcDbSymbolTableRecord
100
AcDbLayerTableRecord
  2
2
 70
     0
 62
     2
  6
CONTINUOUS
  0
LAYER
  5
3C
330
2
100
AcDbSymbolTableRecord
100
AcDbLayerTableRecord
  2
3
 70
     0
 62
     3
  6
CONTINUOUS
  0
LAYER
  5
3D
330
2
100
AcDbSymbolTableRecord
100
AcDbLayerTableRecord
  2
4
 70
     0
 62
     4
  6
CONTINUOUS
  0
LAYER
  5
3E
330
2
100
AcDbSymbolTableRecord
100
AcDbLayerTableRecord
  2
5
 70
     0
 62
     5
  6
CONTINUOUS
  0
LAYER
  5
3F
330
2
100
AcDbSymbolTableRecord
100
AcDbLayerTableRecord
  2
6
 70
     0
 62
     6
  6
CONTINUOUS
  0
LAYER
  5
40
330
2
100
AcDbSymbolTableRecord
100
AcDbLayerTableRecord
  2
7
 70
     0
 62
     7
  6
CONTINUOUS
  0
LAYER
  5
41
330
2
100
AcDbSymbolTableRecord
100
AcDbLayerTableRecord
  2
8
 70
     0
 62
     8
  6
CONTINUOUS
  0
LAYER
  5
42
330
2
100
AcDbSymbolTableRecord
100
AcDbLayerTableRecord
  2
9
 70
     0
 62
     9
  6
CONTINUOUS
  0
LAYER
  5
43
330
2
100
AcDbSymbolTableRecord
100
AcDbLayerTableRecord
  2
10
 70
     0
 62
    10
  6
CONTINUOUS
  0
LAYER
  5
44
330
2
100
AcDbSymbolTableRecord
100
AcDbLayerTableRecord
  2
11
 70
     0
 62
    11
  6
CONTINUOUS
  0
LAYER
  5
45
330
2
100
AcDbSymbolTableRecord
100
AcDbLayerTableRecord
  2
12
 70
     0
 62
    12
  6
CONTINUOUS
  0
LAYER
  5
46
330
2
100
AcDbSymbolTableRecord
100
AcDbLayerTableRecord
  2
13
 70
     0
 62
    13
  6
CONTINUOUS
  0
LAYER
  5
47
330
2
100
AcDbSymbolTableRecord
100
AcDbLayerTableRecord
  2
14
 70
     0
 62
    14
  6
CONTINUOUS
  0
LAYER
  5
48
330
2
100
AcDbSymbolTableRecord
100
AcDbLayerTableRecord
  2
15
 70
     0
 62
    15
  6
CONTINUOUS
  0
LAYER
  5
49
330
2
100
AcDbSymbolTableRecord
100
AcDbLayerTableRecord
  2
16
 70
     0
 62
    16
  6
CONTINUOUS
  0
LAYER
  5
4A
330
2
100
AcDbSymbolTableRecord
100
AcDbLayerTableRecord
  2
17
 70
     0
 62
    17
  6
CONTINUOUS
  0
LAYER
  5
4B
330
2
100
AcDbSymbolTableRecord
100
AcDbLayerTableRecord
  2
18
 70
     0
 62
    18
  6
CONTINUOUS
  0
LAYER
  5
4C
330
2
100
AcDbSymbolTableRecord
100
AcDbLayerTableRecord
  2
19
 70
     0
 62
    19
  6
CONTINUOUS
  0
LAYER
  5
4D
330
2
100
AcDbSymbolTableRecord
100
AcDbLayerTableRecord
  2
20
 70
     0
 62
    20
  6
CONTINUOUS
  0
LAYER
  5
4E
330
2
100
AcDbSymbolTableRecord
100
AcDbLayerTableRecord
  2
21
 70
     0
 62
    21
  6
CONTINUOUS
  0
LAYER
  5
4F
330
2
100
AcDbSymbolTableRecord
100
AcDbLayerTableRecord
  2
22
 70
     0
 62
    22
  6
CONTINUOUS
  0
LAYER
  5
50
330
2
100
AcDbSymbolTableRecord
100
AcDbLayerTableRecord
  2
23
 70
     0
 62
    23
  6
CONTINUOUS
  0
LAYER
  5
51
330
2
100
AcDbSymbolTableRecord
100
AcDbLayerTableRecord
  2
24
 70
     0
 62
    24
  6
CONTINUOUS
  0
LAYER
  5
52
330
2
100
AcDbSymbolTableRecord
100
AcDbLayerTableRecord
  2
25
 70
     0
 62
    25
  6
CONTINUOUS
  0
LAYER
  5
53
330
2
100
AcDbSymbolTableRecord
100
AcDbLayerTableRecord
  2
26
 70
     0
 62
    26
  6
CONTINUOUS
  0
LAYER
  5
54
330
2
100
AcDbSymbolTableRecord
100
AcDbLayerTableRecord
  2
27
 70
     0
 62
    27
  6
CONTINUOUS
  0
LAYER
  5
55
330
2
100
AcDbSymbolTableRecord
100
AcDbLayerTableRecord
  2
28
 70
     0
 62
    28
  6
CONTINUOUS
  0
LAYER
  5
56
330
2
100
AcDbSymbolTableRecord
100
AcDbLayerTableRecord
  2
29
 70
     0
 62
    29
  6
CONTINUOUS
  0
LAYER
  5
57
330
2
100
AcDbSymbolTableRecord
100
AcDbLayerTableRecord
  2
30
 70
     0
 62
    30
  6
CONTINUOUS
  0
LAYER
  5
58
330
2
100
AcDbSymbolTableRecord
100
AcDbLayerTableRecord
  2
31
 70
     0
 62
    31
  6
CONTINUOUS
  0
LAYER
  5
59
330
2
100
AcDbSymbolTableRecord
100
AcDbLayerTableRecord
  2
32
 70
     0
 62
    32
  6
CONTINUOUS
  0
LAYER
  5
5A
330
2
100
AcDbSymbolTableRecord
100
AcDbLayerTableRecord
  2
33
 70
     0
 62
    33
  6
CONTINUOUS
  0
LAYER
  5
5B
330
2
100
AcDbSymbolTableRecord
100
AcDbLayerTableRecord
  2
34
 70
     0
 62
    34
  6
CONTINUOUS
  0
LAYER
  5
5C
330
2
100
AcDbSymbolTableRecord
100
AcDbLayerTableRecord
  2
35
 70
     0
 62
    35
  6
CONTINUOUS
  0
LAYER
  5
5D
330
2
100
AcDbSymbolTableRecord
100
AcDbLayerTableRecord
  2
36
 70
     0
 62
    36
  6
CONTINUOUS
  0
LAYER
  5
5E
330
2
100
AcDbSymbolTableRecord
100
AcDbLayerTableRecord
  2
37
 70
     0
 62
    37
  6
CONTINUOUS
  0
LAYER
  5
5F
330
2
100
AcDbSymbolTableRecord
100
AcDbLayerTableRecord
  2
38
 70
     0
 62
    38
  6
CONTINUOUS
  0
LAYER
  5
60
330
2
100
AcDbSymbolTableRecord
100
AcDbLayerTableRecord
  2
39
 70
     0
 62
    39
  6
CONTINUOUS
  0
LAYER
  5
61
330
2
100
AcDbSymbolTableRecord
100
AcDbLayerTableRecord
  2
40
 70
     0
 62
    40
  6
CONTINUOUS
  0
LAYER
  5
62
330
2
100
AcDbSymbolTableRecord
100
AcDbLayerTableRecord
  2
41
 70
     0
 62
    41
  6
CONTINUOUS
  0
LAYER
  5
63
330
2
100
AcDbSymbolTableRecord
100
AcDbLayerTableRecord
  2
42
 70
     0
 62
    42
  6
CONTINUOUS
  0
LAYER
  5
64
330
2
100
AcDbSymbolTableRecord
100
AcDbLayerTableRecord
  2
43
 70
     0
 62
    43
  6
CONTINUOUS
  0
LAYER
  5
65
330
2
100
AcDbSymbolTableRecord
100
AcDbLayerTableRecord
  2
44
 70
     0
 62
    44
  6
CONTINUOUS
  0
LAYER
  5
66
330
2
100
AcDbSymbolTableRecord
100
AcDbLayerTableRecord
  2
45
 70
     0
 62
    45
  6
CONTINUOUS
  0
LAYER
  5
67
330
2
100
AcDbSymbolTableRecord
100
AcDbLayerTableRecord
  2
46
 70
     0
 62
    46
  6
CONTINUOUS
  0
LAYER
  5
68
330
2
100
AcDbSymbolTableRecord
100
AcDbLayerTableRecord
  2
47
 70
     0
 62
    47
  6
CONTINUOUS
  0
LAYER
  5
69
330
2
100
AcDbSymbolTableRecord
100
AcDbLayerTableRecord
  2
48
 70
     0
 62
    48
  6
CONTINUOUS
  0
LAYER
  5
6A
330
2
100
AcDbSymbolTableRecord
100
AcDbLayerTableRecord
  2
49
 70
     0
 62
    49
  6
CONTINUOUS
  0
LAYER
  5
6B
330
2
100
AcDbSymbolTableRecord
100
AcDbLayerTableRecord
  2
50
 70
     0
 62
    50
  6
CONTINUOUS
  0
LAYER
  5
6C
330
2
100
AcDbSymbolTableRecord
100
AcDbLayerTableRecord
  2
51
 70
     0
 62
    51
  6
CONTINUOUS
  0
LAYER
  5
6D
330
2
100
AcDbSymbolTableRecord
100
AcDbLayerTableRecord
  2
52
 70
     0
 62
    52
  6
CONTINUOUS
  0
LAYER
  5
6E
330
2
100
AcDbSymbolTableRecord
100
AcDbLayerTableRecord
  2
53
 70
     0
 62
    53
  6
CONTINUOUS
  0
LAYER
  5
6F
330
2
100
AcDbSymbolTableRecord
100
AcDbLayerTableRecord
  2
54
 70
     0
 62
    54
  6
CONTINUOUS
  0
LAYER
  5
70
330
2
100
AcDbSymbolTableRecord
100
AcDbLayerTableRecord
  2
55
 70
     0
 62
    55
  6
CONTINUOUS
  0
LAYER
  5
71
330
2
100
AcDbSymbolTableRecord
100
AcDbLayerTableRecord
  2
56
 70
     0
 62
    56
  6
CONTINUOUS
  0
LAYER
  5
72
330
2
100
AcDbSymbolTableRecord
100
AcDbLayerTableRecord
  2
57
 70
     0
 62
    57
  6
CONTINUOUS
  0
LAYER
  5
73
330
2
100
AcDbSymbolTableRecord
100
AcDbLayerTableRecord
  2
58
 70
     0
 62
    58
  6
CONTINUOUS
  0
LAYER
  5
74
330
2
100
AcDbSymbolTableRecord
100
AcDbLayerTableRecord
  2
59
 70
     0
 62
    59
  6
CONTINUOUS
  0
LAYER
  5
75
330
2
100
AcDbSymbolTableRecord
100
AcDbLayerTableRecord
  2
60
 70
     0
 62
    60
  6
CONTINUOUS
  0
LAYER
  5
76
330
2
100
AcDbSymbolTableRecord
100
AcDbLayerTableRecord
  2
61
 70
     0
 62
    61
  6
CONTINUOUS
  0
LAYER
  5
77
330
2
100
AcDbSymbolTableRecord
100
AcDbLayerTableRecord
  2
62
 70
     0
 62
    62
  6
CONTINUOUS
  0
LAYER
  5
78
330
2
100
AcDbSymbolTableRecord
100
AcDbLayerTableRecord
  2
63
 70
     0
 62
    63
  6
CONTINUOUS
  0
LAYER
  5
79
330
2
100
AcDbSymbolTableRecord
100
AcDbLayerTableRecord
  2
64
 70
     0
 62
    64
  6
CONTINUOUS
  0
LAYER
  5
7A
330
2
100
AcDbSymbolTableRecord
100
AcDbLayerTableRecord
  2
65
 70
     0
 62
    65
  6
CONTINUOUS
  0
LAYER
  5
7B
330
2
100
AcDbSymbolTableRecord
100
AcDbLayerTableRecord
  2
66
 70
     0
 62
    66
  6
CONTINUOUS
  0
LAYER
  5
7C
330
2
100
AcDbSymbolTableRecord
100
AcDbLayerTableRecord
  2
67
 70
     0
 62
    67
  6
CONTINUOUS
  0
LAYER
  5
7D
330
2
100
AcDbSymbolTableRecord
100
AcDbLayerTableRecord
  2
68
 70
     0
 62
    68
  6
CONTINUOUS
  0
LAYER
  5
7E
330
2
100
AcDbSymbolTableRecord
100
AcDbLayerTableRecord
  2
69
 70
     0
 62
    69
  6
CONTINUOUS
  0
LAYER
  5
7F
330
2
100
AcDbSymbolTableRecord
100
AcDbLayerTableRecord
  2
70
 70
     0
 62
    70
  6
CONTINUOUS
  0
LAYER
  5
80
330
2
100
AcDbSymbolTableRecord
100
AcDbLayerTableRecord
  2
71
 70
     0
 62
    71
  6
CONTINUOUS
  0
LAYER
  5
81
330
2
100
AcDbSymbolTableRecord
100
AcDbLayerTableRecord
  2
72
 70
     0
 62
    72
  6
CONTINUOUS
  0
LAYER
  5
82
330
2
100
AcDbSymbolTableRecord
100
AcDbLayerTableRecord
  2
73
 70
     0
 62
    73
  6
CONTINUOUS
  0
LAYER
  5
83
330
2
100
AcDbSymbolTableRecord
100
AcDbLayerTableRecord
  2
74
 70
     0
 62
    74
  6
CONTINUOUS
  0
LAYER
  5
84
330
2
100
AcDbSymbolTableRecord
100
AcDbLayerTableRecord
  2
75
 70
     0
 62
    75
  6
CONTINUOUS
  0
LAYER
  5
85
330
2
100
AcDbSymbolTableRecord
100
AcDbLayerTableRecord
  2
76
 70
     0
 62
    76
  6
CONTINUOUS
  0
LAYER
  5
86
330
2
100
AcDbSymbolTableRecord
100
AcDbLayerTableRecord
  2
77
 70
     0
 62
    77
  6
CONTINUOUS
  0
LAYER
  5
87
330
2
100
AcDbSymbolTableRecord
100
AcDbLayerTableRecord
  2
78
 70
     0
 62
    78
  6
CONTINUOUS
  0
LAYER
  5
88
330
2
100
AcDbSymbolTableRecord
100
AcDbLayerTableRecord
  2
79
 70
     0
 62
    79
  6
CONTINUOUS
  0
LAYER
  5
89
330
2
100
AcDbSymbolTableRecord
100
AcDbLayerTableRecord
  2
80
 70
     0
 62
    80
  6
CONTINUOUS
  0
LAYER
  5
8A
330
2
100
AcDbSymbolTableRecord
100
AcDbLayerTableRecord
  2
81
 70
     0
 62
    81
  6
CONTINUOUS
  0
LAYER
  5
8B
330
2
100
AcDbSymbolTableRecord
100
AcDbLayerTableRecord
  2
82
 70
     0
 62
    82
  6
CONTINUOUS
  0
LAYER
  5
8C
330
2
100
AcDbSymbolTableRecord
100
AcDbLayerTableRecord
  2
83
 70
     0
 62
    83
  6
CONTINUOUS
  0
LAYER
  5
8D
330
2
100
AcDbSymbolTableRecord
100
AcDbLayerTableRecord
  2
84
 70
     0
 62
    84
  6
CONTINUOUS
  0
LAYER
  5
8E
330
2
100
AcDbSymbolTableRecord
100
AcDbLayerTableRecord
  2
85
 70
     0
 62
    85
  6
CONTINUOUS
  0
LAYER
  5
8F
330
2
100
AcDbSymbolTableRecord
100
AcDbLayerTableRecord
  2
86
 70
     0
 62
    86
  6
CONTINUOUS
  0
LAYER
  5
90
330
2
100
AcDbSymbolTableRecord
100
AcDbLayerTableRecord
  2
87
 70
     0
 62
    87
  6
CONTINUOUS
  0
LAYER
  5
91
330
2
100
AcDbSymbolTableRecord
100
AcDbLayerTableRecord
  2
88
 70
     0
 62
    88
  6
CONTINUOUS
  0
LAYER
  5
92
330
2
100
AcDbSymbolTableRecord
100
AcDbLayerTableRecord
  2
89
 70
     0
 62
    89
  6
CONTINUOUS
  0
LAYER
  5
93
330
2
100
AcDbSymbolTableRecord
100
AcDbLayerTableRecord
  2
90
 70
     0
 62
    90
  6
CONTINUOUS
  0
LAYER
  5
94
330
2
100
AcDbSymbolTableRecord
100
AcDbLayerTableRecord
  2
91
 70
     0
 62
    91
  6
CONTINUOUS
  0
LAYER
  5
95
330
2
100
AcDbSymbolTableRecord
100
AcDbLayerTableRecord
  2
92
 70
     0
 62
    92
  6
CONTINUOUS
  0
LAYER
  5
96
330
2
100
AcDbSymbolTableRecord
100
AcDbLayerTableRecord
  2
93
 70
     0
 62
    93
  6
CONTINUOUS
  0
LAYER
  5
97
330
2
100
AcDbSymbolTableRecord
100
AcDbLayerTableRecord
  2
94
 70
     0
 62
    94
  6
CONTINUOUS
  0
LAYER
  5
98
330
2
100
AcDbSymbolTableRecord
100
AcDbLayerTableRecord
  2
95
 70
     0
 62
    95
  6
CONTINUOUS
  0
LAYER
  5
99
330
2
100
AcDbSymbolTableRecord
100
AcDbLayerTableRecord
  2
96
 70
     0
 62
    96
  6
CONTINUOUS
  0
LAYER
  5
9A
330
2
100
AcDbSymbolTableRecord
100
AcDbLayerTableRecord
  2
97
 70
     0
 62
    97
  6
CONTINUOUS
  0
LAYER
  5
9B
330
2
100
AcDbSymbolTableRecord
100
AcDbLayerTableRecord
  2
98
 70
     0
 62
    98
  6
CONTINUOUS
  0
LAYER
  5
9C
330
2
100
AcDbSymbolTableRecord
100
AcDbLayerTableRecord
  2
99
 70
     0
 62
    99
  6
CONTINUOUS
  0
LAYER
  5
9D
330
2
100
AcDbSymbolTableRecord
100
AcDbLayerTableRecord
  2
100
 70
     0
 62
   100
  6
CONTINUOUS
  0
LAYER
  5
9E
330
2
100
AcDbSymbolTableRecord
100
AcDbLayerTableRecord
  2
101
 70
     0
 62
   101
  6
CONTINUOUS
  0
LAYER
  5
9F
330
2
100
AcDbSymbolTableRecord
100
AcDbLayerTableRecord
  2
102
 70
     0
 62
   102
  6
CONTINUOUS
  0
LAYER
  5
A0
330
2
100
AcDbSymbolTableRecord
100
AcDbLayerTableRecord
  2
103
 70
     0
 62
   103
  6
CONTINUOUS
  0
LAYER
  5
A1
330
2
100
AcDbSymbolTableRecord
100
AcDbLayerTableRecord
  2
104
 70
     0
 62
   104
  6
CONTINUOUS
  0
LAYER
  5
A2
330
2
100
AcDbSymbolTableRecord
100
AcDbLayerTableRecord
  2
105
 70
     0
 62
   105
  6
CONTINUOUS
  0
LAYER
  5
A3
330
2
100
AcDbSymbolTableRecord
100
AcDbLayerTableRecord
  2
106
 70
     0
 62
   106
  6
CONTINUOUS
  0
LAYER
  5
A4
330
2
100
AcDbSymbolTableRecord
100
AcDbLayerTableRecord
  2
107
 70
     0
 62
   107
  6
CONTINUOUS
  0
LAYER
  5
A5
330
2
100
AcDbSymbolTableRecord
100
AcDbLayerTableRecord
  2
108
 70
     0
 62
   108
  6
CONTINUOUS
  0
LAYER
  5
A6
330
2
100
AcDbSymbolTableRecord
100
AcDbLayerTableRecord
  2
109
 70
     0
 62
   109
  6
CONTINUOUS
  0
LAYER
  5
A7
330
2
100
AcDbSymbolTableRecord
100
AcDbLayerTableRecord
  2
110
 70
     0
 62
   110
  6
CONTINUOUS
  0
LAYER
  5
A8
330
2
100
AcDbSymbolTableRecord
100
AcDbLayerTableRecord
  2
111
 70
     0
 62
   111
  6
CONTINUOUS
  0
LAYER
  5
A9
330
2
100
AcDbSymbolTableRecord
100
AcDbLayerTableRecord
  2
112
 70
     0
 62
   112
  6
CONTINUOUS
  0
LAYER
  5
AA
330
2
100
AcDbSymbolTableRecord
100
AcDbLayerTableRecord
  2
113
 70
     0
 62
   113
  6
CONTINUOUS
  0
LAYER
  5
AB
330
2
100
AcDbSymbolTableRecord
100
AcDbLayerTableRecord
  2
114
 70
     0
 62
   114
  6
CONTINUOUS
  0
LAYER
  5
AC
330
2
100
AcDbSymbolTableRecord
100
AcDbLayerTableRecord
  2
115
 70
     0
 62
   115
  6
CONTINUOUS
  0
LAYER
  5
AD
330
2
100
AcDbSymbolTableRecord
100
AcDbLayerTableRecord
  2
116
 70
     0
 62
   116
  6
CONTINUOUS
  0
LAYER
  5
AE
330
2
100
AcDbSymbolTableRecord
100
AcDbLayerTableRecord
  2
117
 70
     0
 62
   117
  6
CONTINUOUS
  0
LAYER
  5
AF
330
2
100
AcDbSymbolTableRecord
100
AcDbLayerTableRecord
  2
118
 70
     0
 62
   118
  6
CONTINUOUS
  0
LAYER
  5
B0
330
2
100
AcDbSymbolTableRecord
100
AcDbLayerTableRecord
  2
119
 70
     0
 62
   119
  6
CONTINUOUS
  0
LAYER
  5
B1
330
2
100
AcDbSymbolTableRecord
100
AcDbLayerTableRecord
  2
120
 70
     0
 62
   120
  6
CONTINUOUS
  0
LAYER
  5
B2
330
2
100
AcDbSymbolTableRecord
100
AcDbLayerTableRecord
  2
121
 70
     0
 62
   121
  6
CONTINUOUS
  0
LAYER
  5
B3
330
2
100
AcDbSymbolTableRecord
100
AcDbLayerTableRecord
  2
122
 70
     0
 62
   122
  6
CONTINUOUS
  0
LAYER
  5
B4
330
2
100
AcDbSymbolTableRecord
100
AcDbLayerTableRecord
  2
123
 70
     0
 62
   123
  6
CONTINUOUS
  0
LAYER
  5
B5
330
2
100
AcDbSymbolTableRecord
100
AcDbLayerTableRecord
  2
124
 70
     0
 62
   124
  6
CONTINUOUS
  0
LAYER
  5
B6
330
2
100
AcDbSymbolTableRecord
100
AcDbLayerTableRecord
  2
125
 70
     0
 62
   125
  6
CONTINUOUS
  0
LAYER
  5
B7
330
2
100
AcDbSymbolTableRecord
100
AcDbLayerTableRecord
  2
126
 70
     0
 62
   126
  6
CONTINUOUS
  0
LAYER
  5
B8
330
2
100
AcDbSymbolTableRecord
100
AcDbLayerTableRecord
  2
127
 70
     0
 62
   127
  6
CONTINUOUS
  0
LAYER
  5
B9
330
2
100
AcDbSymbolTableRecord
100
AcDbLayerTableRecord
  2
128
 70
     0
 62
   128
  6
CONTINUOUS
  0
LAYER
  5
BA
330
2
100
AcDbSymbolTableRecord
100
AcDbLayerTableRecord
  2
129
 70
     0
 62
   129
  6
CONTINUOUS
  0
LAYER
  5
BB
330
2
100
AcDbSymbolTableRecord
100
AcDbLayerTableRecord
  2
130
 70
     0
 62
   130
  6
CONTINUOUS
  0
LAYER
  5
BC
330
2
100
AcDbSymbolTableRecord
100
AcDbLayerTableRecord
  2
131
 70
     0
 62
   131
  6
CONTINUOUS
  0
LAYER
  5
BD
330
2
100
AcDbSymbolTableRecord
100
AcDbLayerTableRecord
  2
132
 70
     0
 62
   132
  6
CONTINUOUS
  0
LAYER
  5
BE
330
2
100
AcDbSymbolTableRecord
100
AcDbLayerTableRecord
  2
133
 70
     0
 62
   133
  6
CONTINUOUS
  0
LAYER
  5
BF
330
2
100
AcDbSymbolTableRecord
100
AcDbLayerTableRecord
  2
134
 70
     0
 62
   134
  6
CONTINUOUS
  0
LAYER
  5
C0
330
2
100
AcDbSymbolTableRecord
100
AcDbLayerTableRecord
  2
135
 70
     0
 62
   135
  6
CONTINUOUS
  0
LAYER
  5
C1
330
2
100
AcDbSymbolTableRecord
100
AcDbLayerTableRecord
  2
136
 70
     0
 62
   136
  6
CONTINUOUS
  0
LAYER
  5
C2
330
2
100
AcDbSymbolTableRecord
100
AcDbLayerTableRecord
  2
137
 70
     0
 62
   137
  6
CONTINUOUS
  0
LAYER
  5
C3
330
2
100
AcDbSymbolTableRecord
100
AcDbLayerTableRecord
  2
138
 70
     0
 62
   138
  6
CONTINUOUS
  0
LAYER
  5
C4
330
2
100
AcDbSymbolTableRecord
100
AcDbLayerTableRecord
  2
139
 70
     0
 62
   139
  6
CONTINUOUS
  0
LAYER
  5
C5
330
2
100
AcDbSymbolTableRecord
100
AcDbLayerTableRecord
  2
140
 70
     0
 62
   140
  6
CONTINUOUS
  0
LAYER
  5
C6
330
2
100
AcDbSymbolTableRecord
100
AcDbLayerTableRecord
  2
141
 70
     0
 62
   141
  6
CONTINUOUS
  0
LAYER
  5
C7
330
2
100
AcDbSymbolTableRecord
100
AcDbLayerTableRecord
  2
142
 70
     0
 62
   142
  6
CONTINUOUS
  0
LAYER
  5
C8
330
2
100
AcDbSymbolTableRecord
100
AcDbLayerTableRecord
  2
143
 70
     0
 62
   143
  6
CONTINUOUS
  0
LAYER
  5
C9
330
2
100
AcDbSymbolTableRecord
100
AcDbLayerTableRecord
  2
144
 70
     0
 62
   144
  6
CONTINUOUS
  0
LAYER
  5
CA
330
2
100
AcDbSymbolTableRecord
100
AcDbLayerTableRecord
  2
145
 70
     0
 62
   145
  6
CONTINUOUS
  0
LAYER
  5
CB
330
2
100
AcDbSymbolTableRecord
100
AcDbLayerTableRecord
  2
146
 70
     0
 62
   146
  6
CONTINUOUS
  0
LAYER
  5
CC
330
2
100
AcDbSymbolTableRecord
100
AcDbLayerTableRecord
  2
147
 70
     0
 62
   147
  6
CONTINUOUS
  0
LAYER
  5
CD
330
2
100
AcDbSymbolTableRecord
100
AcDbLayerTableRecord
  2
148
 70
     0
 62
   148
  6
CONTINUOUS
  0
LAYER
  5
CE
330
2
100
AcDbSymbolTableRecord
100
AcDbLayerTableRecord
  2
149
 70
     0
 62
   149
  6
CONTINUOUS
  0
LAYER
  5
CF
330
2
100
AcDbSymbolTableRecord
100
AcDbLayerTableRecord
  2
150
 70
     0
 62
   150
  6
CONTINUOUS
  0
LAYER
  5
D0
330
2
100
AcDbSymbolTableRecord
100
AcDbLayerTableRecord
  2
151
 70
     0
 62
   151
  6
CONTINUOUS
  0
LAYER
  5
D1
330
2
100
AcDbSymbolTableRecord
100
AcDbLayerTableRecord
  2
152
 70
     0
 62
   152
  6
CONTINUOUS
  0
LAYER
  5
D2
330
2
100
AcDbSymbolTableRecord
100
AcDbLayerTableRecord
  2
153
 70
     0
 62
   153
  6
CONTINUOUS
  0
LAYER
  5
D3
330
2
100
AcDbSymbolTableRecord
100
AcDbLayerTableRecord
  2
154
 70
     0
 62
   154
  6
CONTINUOUS
  0
LAYER
  5
D4
330
2
100
AcDbSymbolTableRecord
100
AcDbLayerTableRecord
  2
155
 70
     0
 62
   155
  6
CONTINUOUS
  0
LAYER
  5
D5
330
2
100
AcDbSymbolTableRecord
100
AcDbLayerTableRecord
  2
156
 70
     0
 62
   156
  6
CONTINUOUS
  0
LAYER
  5
D6
330
2
100
AcDbSymbolTableRecord
100
AcDbLayerTableRecord
  2
157
 70
     0
 62
   157
  6
CONTINUOUS
  0
LAYER
  5
D7
330
2
100
AcDbSymbolTableRecord
100
AcDbLayerTableRecord
  2
158
 70
     0
 62
   158
  6
CONTINUOUS
  0
LAYER
  5
D8
330
2
100
AcDbSymbolTableRecord
100
AcDbLayerTableRecord
  2
159
 70
     0
 62
   159
  6
CONTINUOUS
  0
LAYER
  5
D9
330
2
100
AcDbSymbolTableRecord
100
AcDbLayerTableRecord
  2
160
 70
     0
 62
   160
  6
CONTINUOUS
  0
LAYER
  5
DA
330
2
100
AcDbSymbolTableRecord
100
AcDbLayerTableRecord
  2
161
 70
     0
 62
   161
  6
CONTINUOUS
  0
LAYER
  5
DB
330
2
100
AcDbSymbolTableRecord
100
AcDbLayerTableRecord
  2
162
 70
     0
 62
   162
  6
CONTINUOUS
  0
LAYER
  5
DC
330
2
100
AcDbSymbolTableRecord
100
AcDbLayerTableRecord
  2
163
 70
     0
 62
   163
  6
CONTINUOUS
  0
LAYER
  5
DD
330
2
100
AcDbSymbolTableRecord
100
AcDbLayerTableRecord
  2
164
 70
     0
 62
   164
  6
CONTINUOUS
  0
LAYER
  5
DE
330
2
100
AcDbSymbolTableRecord
100
AcDbLayerTableRecord
  2
165
 70
     0
 62
   165
  6
CONTINUOUS
  0
LAYER
  5
DF
330
2
100
AcDbSymbolTableRecord
100
AcDbLayerTableRecord
  2
166
 70
     0
 62
   166
  6
CONTINUOUS
  0
LAYER
  5
E0
330
2
100
AcDbSymbolTableRecord
100
AcDbLayerTableRecord
  2
167
 70
     0
 62
   167
  6
CONTINUOUS
  0
LAYER
  5
E1
330
2
100
AcDbSymbolTableRecord
100
AcDbLayerTableRecord
  2
168
 70
     0
 62
   168
  6
CONTINUOUS
  0
LAYER
  5
E2
330
2
100
AcDbSymbolTableRecord
100
AcDbLayerTableRecord
  2
169
 70
     0
 62
   169
  6
CONTINUOUS
  0
LAYER
  5
E3
330
2
100
AcDbSymbolTableRecord
100
AcDbLayerTableRecord
  2
170
 70
     0
 62
   170
  6
CONTINUOUS
  0
LAYER
  5
E4
330
2
100
AcDbSymbolTableRecord
100
AcDbLayerTableRecord
  2
171
 70
     0
 62
   171
  6
CONTINUOUS
  0
LAYER
  5
E5
330
2
100
AcDbSymbolTableRecord
100
AcDbLayerTableRecord
  2
172
 70
     0
 62
   172
  6
CONTINUOUS
  0
LAYER
  5
E6
330
2
100
AcDbSymbolTableRecord
100
AcDbLayerTableRecord
  2
173
 70
     0
 62
   173
  6
CONTINUOUS
  0
LAYER
  5
E7
330
2
100
AcDbSymbolTableRecord
100
AcDbLayerTableRecord
  2
174
 70
     0
 62
   174
  6
CONTINUOUS
  0
LAYER
  5
E8
330
2
100
AcDbSymbolTableRecord
100
AcDbLayerTableRecord
  2
175
 70
     0
 62
   175
  6
CONTINUOUS
  0
LAYER
  5
E9
330
2
100
AcDbSymbolTableRecord
100
AcDbLayerTableRecord
  2
176
 70
     0
 62
   176
  6
CONTINUOUS
  0
LAYER
  5
EA
330
2
100
AcDbSymbolTableRecord
100
AcDbLayerTableRecord
  2
177
 70
     0
 62
   177
  6
CONTINUOUS
  0
LAYER
  5
EB
330
2
100
AcDbSymbolTableRecord
100
AcDbLayerTableRecord
  2
178
 70
     0
 62
   178
  6
CONTINUOUS
  0
LAYER
  5
EC
330
2
100
AcDbSymbolTableRecord
100
AcDbLayerTableRecord
  2
179
 70
     0
 62
   179
  6
CONTINUOUS
  0
LAYER
  5
ED
330
2
100
AcDbSymbolTableRecord
100
AcDbLayerTableRecord
  2
180
 70
     0
 62
   180
  6
CONTINUOUS
  0
LAYER
  5
EE
330
2
100
AcDbSymbolTableRecord
100
AcDbLayerTableRecord
  2
181
 70
     0
 62
   181
  6
CONTINUOUS
  0
LAYER
  5
EF
330
2
100
AcDbSymbolTableRecord
100
AcDbLayerTableRecord
  2
182
 70
     0
 62
   182
  6
CONTINUOUS
  0
LAYER
  5
F0
330
2
100
AcDbSymbolTableRecord
100
AcDbLayerTableRecord
  2
183
 70
     0
 62
   183
  6
CONTINUOUS
  0
LAYER
  5
F1
330
2
100
AcDbSymbolTableRecord
100
AcDbLayerTableRecord
  2
184
 70
     0
 62
   184
  6
CONTINUOUS
  0
LAYER
  5
F2
330
2
100
AcDbSymbolTableRecord
100
AcDbLayerTableRecord
  2
185
 70
     0
 62
   185
  6
CONTINUOUS
  0
LAYER
  5
F3
330
2
100
AcDbSymbolTableRecord
100
AcDbLayerTableRecord
  2
186
 70
     0
 62
   186
  6
CONTINUOUS
  0
LAYER
  5
F4
330
2
100
AcDbSymbolTableRecord
100
AcDbLayerTableRecord
  2
187
 70
     0
 62
   187
  6
CONTINUOUS
  0
LAYER
  5
F5
330
2
100
AcDbSymbolTableRecord
100
AcDbLayerTableRecord
  2
188
 70
     0
 62
   188
  6
CONTINUOUS
  0
LAYER
  5
F6
330
2
100
AcDbSymbolTableRecord
100
AcDbLayerTableRecord
  2
189
 70
     0
 62
   189
  6
CONTINUOUS
  0
LAYER
  5
F7
330
2
100
AcDbSymbolTableRecord
100
AcDbLayerTableRecord
  2
190
 70
     0
 62
   190
  6
CONTINUOUS
  0
LAYER
  5
F8
330
2
100
AcDbSymbolTableRecord
100
AcDbLayerTableRecord
  2
191
 70
     0
 62
   191
  6
CONTINUOUS
  0
LAYER
  5
F9
330
2
100
AcDbSymbolTableRecord
100
AcDbLayerTableRecord
  2
192
 70
     0
 62
   192
  6
CONTINUOUS
  0
LAYER
  5
FA
330
2
100
AcDbSymbolTableRecord
100
AcDbLayerTableRecord
  2
193
 70
     0
 62
   193
  6
CONTINUOUS
  0
LAYER
  5
FB
330
2
100
AcDbSymbolTableRecord
100
AcDbLayerTableRecord
  2
194
 70
     0
 62
   194
  6
CONTINUOUS
  0
LAYER
  5
FC
330
2
100
AcDbSymbolTableRecord
100
AcDbLayerTableRecord
  2
195
 70
     0
 62
   195
  6
CONTINUOUS
  0
LAYER
  5
FD
330
2
100
AcDbSymbolTableRecord
100
AcDbLayerTableRecord
  2
196
 70
     0
 62
   196
  6
CONTINUOUS
  0
LAYER
  5
FE
330
2
100
AcDbSymbolTableRecord
100
AcDbLayerTableRecord
  2
197
 70
     0
 62
   197
  6
CONTINUOUS
  0
LAYER
  5
FF
330
2
100
AcDbSymbolTableRecord
100
AcDbLayerTableRecord
  2
198
 70
     0
 62
   198
  6
CONTINUOUS
  0
LAYER
  5
100
330
2
100
AcDbSymbolTableRecord
100
AcDbLayerTableRecord
  2
199
 70
     0
 62
   199
  6
CONTINUOUS
  0
LAYER
  5
101
330
2
100
AcDbSymbolTableRecord
100
AcDbLayerTableRecord
  2
200
 70
     0
 62
   200
  6
CONTINUOUS
  0
LAYER
  5
102
330
2
100
AcDbSymbolTableRecord
100
AcDbLayerTableRecord
  2
201
 70
     0
 62
   201
  6
CONTINUOUS
  0
LAYER
  5
103
330
2
100
AcDbSymbolTableRecord
100
AcDbLayerTableRecord
  2
202
 70
     0
 62
   202
  6
CONTINUOUS
  0
LAYER
  5
104
330
2
100
AcDbSymbolTableRecord
100
AcDbLayerTableRecord
  2
203
 70
     0
 62
   203
  6
CONTINUOUS
  0
LAYER
  5
105
330
2
100
AcDbSymbolTableRecord
100
AcDbLayerTableRecord
  2
204
 70
     0
 62
   204
  6
CONTINUOUS
  0
LAYER
  5
106
330
2
100
AcDbSymbolTableRecord
100
AcDbLayerTableRecord
  2
205
 70
     0
 62
   205
  6
CONTINUOUS
  0
LAYER
  5
107
330
2
100
AcDbSymbolTableRecord
100
AcDbLayerTableRecord
  2
206
 70
     0
 62
   206
  6
CONTINUOUS
  0
LAYER
  5
108
330
2
100
AcDbSymbolTableRecord
100
AcDbLayerTableRecord
  2
207
 70
     0
 62
   207
  6
CONTINUOUS
  0
LAYER
  5
109
330
2
100
AcDbSymbolTableRecord
100
AcDbLayerTableRecord
  2
208
 70
     0
 62
   208
  6
CONTINUOUS
  0
LAYER
  5
10A
330
2
100
AcDbSymbolTableRecord
100
AcDbLayerTableRecord
  2
209
 70
     0
 62
   209
  6
CONTINUOUS
  0
LAYER
  5
10B
330
2
100
AcDbSymbolTableRecord
100
AcDbLayerTableRecord
  2
210
 70
     0
 62
   210
  6
CONTINUOUS
  0
LAYER
  5
10C
330
2
100
AcDbSymbolTableRecord
100
AcDbLayerTableRecord
  2
211
 70
     0
 62
   211
  6
CONTINUOUS
  0
LAYER
  5
10D
330
2
100
AcDbSymbolTableRecord
100
AcDbLayerTableRecord
  2
212
 70
     0
 62
   212
  6
CONTINUOUS
  0
LAYER
  5
10E
330
2
100
AcDbSymbolTableRecord
100
AcDbLayerTableRecord
  2
213
 70
     0
 62
   213
  6
CONTINUOUS
  0
LAYER
  5
10F
330
2
100
AcDbSymbolTableRecord
100
AcDbLayerTableRecord
  2
214
 70
     0
 62
   214
  6
CONTINUOUS
  0
LAYER
  5
110
330
2
100
AcDbSymbolTableRecord
100
AcDbLayerTableRecord
  2
215
 70
     0
 62
   215
  6
CONTINUOUS
  0
LAYER
  5
111
330
2
100
AcDbSymbolTableRecord
100
AcDbLayerTableRecord
  2
216
 70
     0
 62
   216
  6
CONTINUOUS
  0
LAYER
  5
112
330
2
100
AcDbSymbolTableRecord
100
AcDbLayerTableRecord
  2
217
 70
     0
 62
   217
  6
CONTINUOUS
  0
LAYER
  5
113
330
2
100
AcDbSymbolTableRecord
100
AcDbLayerTableRecord
  2
218
 70
     0
 62
   218
  6
CONTINUOUS
  0
LAYER
  5
114
330
2
100
AcDbSymbolTableRecord
100
AcDbLayerTableRecord
  2
219
 70
     0
 62
   219
  6
CONTINUOUS
  0
LAYER
  5
115
330
2
100
AcDbSymbolTableRecord
100
AcDbLayerTableRecord
  2
220
 70
     0
 62
   220
  6
CONTINUOUS
  0
LAYER
  5
116
330
2
100
AcDbSymbolTableRecord
100
AcDbLayerTableRecord
  2
221
 70
     0
 62
   221
  6
CONTINUOUS
  0
LAYER
  5
117
330
2
100
AcDbSymbolTableRecord
100
AcDbLayerTableRecord
  2
222
 70
     0
 62
   222
  6
CONTINUOUS
  0
LAYER
  5
118
330
2
100
AcDbSymbolTableRecord
100
AcDbLayerTableRecord
  2
223
 70
     0
 62
   223
  6
CONTINUOUS
  0
LAYER
  5
119
330
2
100
AcDbSymbolTableRecord
100
AcDbLayerTableRecord
  2
224
 70
     0
 62
   224
  6
CONTINUOUS
  0
LAYER
  5
11A
330
2
100
AcDbSymbolTableRecord
100
AcDbLayerTableRecord
  2
225
 70
     0
 62
   225
  6
CONTINUOUS
  0
LAYER
  5
11B
330
2
100
AcDbSymbolTableRecord
100
AcDbLayerTableRecord
  2
226
 70
     0
 62
   226
  6
CONTINUOUS
  0
LAYER
  5
11C
330
2
100
AcDbSymbolTableRecord
100
AcDbLayerTableRecord
  2
227
 70
     0
 62
   227
  6
CONTINUOUS
  0
LAYER
  5
11D
330
2
100
AcDbSymbolTableRecord
100
AcDbLayerTableRecord
  2
228
 70
     0
 62
   228
  6
CONTINUOUS
  0
LAYER
  5
11E
330
2
100
AcDbSymbolTableRecord
100
AcDbLayerTableRecord
  2
229
 70
     0
 62
   229
  6
CONTINUOUS
  0
LAYER
  5
11F
330
2
100
AcDbSymbolTableRecord
100
AcDbLayerTableRecord
  2
230
 70
     0
 62
   230
  6
CONTINUOUS
  0
LAYER
  5
120
330
2
100
AcDbSymbolTableRecord
100
AcDbLayerTableRecord
  2
231
 70
     0
 62
   231
  6
CONTINUOUS
  0
LAYER
  5
121
330
2
100
AcDbSymbolTableRecord
100
AcDbLayerTableRecord
  2
232
 70
     0
 62
   232
  6
CONTINUOUS
  0
LAYER
  5
122
330
2
100
AcDbSymbolTableRecord
100
AcDbLayerTableRecord
  2
233
 70
     0
 62
   233
  6
CONTINUOUS
  0
LAYER
  5
123
330
2
100
AcDbSymbolTableRecord
100
AcDbLayerTableRecord
  2
234
 70
     0
 62
   234
  6
CONTINUOUS
  0
LAYER
  5
124
330
2
100
AcDbSymbolTableRecord
100
AcDbLayerTableRecord
  2
235
 70
     0
 62
   235
  6
CONTINUOUS
  0
LAYER
  5
125
330
2
100
AcDbSymbolTableRecord
100
AcDbLayerTableRecord
  2
236
 70
     0
 62
   236
  6
CONTINUOUS
  0
LAYER
  5
126
330
2
100
AcDbSymbolTableRecord
100
AcDbLayerTableRecord
  2
237
 70
     0
 62
   237
  6
CONTINUOUS
  0
LAYER
  5
127
330
2
100
AcDbSymbolTableRecord
100
AcDbLayerTableRecord
  2
238
 70
     0
 62
   238
  6
CONTINUOUS
  0
LAYER
  5
128
330
2
100
AcDbSymbolTableRecord
100
AcDbLayerTableRecord
  2
239
 70
     0
 62
   239
  6
CONTINUOUS
  0
LAYER
  5
129
330
2
100
AcDbSymbolTableRecord
100
AcDbLayerTableRecord
  2
240
 70
     0
 62
   240
  6
CONTINUOUS
  0
LAYER
  5
12A
330
2
100
AcDbSymbolTableRecord
100
AcDbLayerTableRecord
  2
241
 70
     0
 62
   241
  6
CONTINUOUS
  0
LAYER
  5
12B
330
2
100
AcDbSymbolTableRecord
100
AcDbLayerTableRecord
  2
242
 70
     0
 62
   242
  6
CONTINUOUS
  0
LAYER
  5
12C
330
2
100
AcDbSymbolTableRecord
100
AcDbLayerTableRecord
  2
243
 70
     0
 62
   243
  6
CONTINUOUS
  0
LAYER
  5
12D
330
2
100
AcDbSymbolTableRecord
100
AcDbLayerTableRecord
  2
244
 70
     0
 62
   244
  6
CONTINUOUS
  0
LAYER
  5
12E
330
2
100
AcDbSymbolTableRecord
100
AcDbLayerTableRecord
  2
245
 70
     0
 62
   245
  6
CONTINUOUS
  0
LAYER
  5
12F
330
2
100
AcDbSymbolTableRecord
100
AcDbLayerTableRecord
  2
246
 70
     0
 62
   246
  6
CONTINUOUS
  0
LAYER
  5
130
330
2
100
AcDbSymbolTableRecord
100
AcDbLayerTableRecord
  2
247
 70
     0
 62
   247
  6
CONTINUOUS
  0
LAYER
  5
131
330
2
100
AcDbSymbolTableRecord
100
AcDbLayerTableRecord
  2
248
 70
     0
 62
   248
  6
CONTINUOUS
  0
LAYER
  5
132
330
2
100
AcDbSymbolTableRecord
100
AcDbLayerTableRecord
  2
249
 70
     0
 62
   249
  6
CONTINUOUS
  0
LAYER
  5
133
330
2
100
AcDbSymbolTableRecord
100
AcDbLayerTableRecord
  2
250
 70
     0
 62
   250
  6
CONTINUOUS
  0
LAYER
  5
134
330
2
100
AcDbSymbolTableRecord
100
AcDbLayerTableRecord
  2
251
 70
     0
 62
   251
  6
CONTINUOUS
  0
LAYER
  5
135
330
2
100
AcDbSymbolTableRecord
100
AcDbLayerTableRecord
  2
252
 70
     0
 62
   252
  6
CONTINUOUS
  0
LAYER
  5
136
330
2
100
AcDbSymbolTableRecord
100
AcDbLayerTableRecord
  2
253
 70
     0
 62
   253
  6
CONTINUOUS
  0
LAYER
  5
137
330
2
100
AcDbSymbolTableRecord
100
AcDbLayerTableRecord
  2
254
 70
     0
 62
   254
  6
CONTINUOUS
  0
LAYER
  5
138
330
2
100
AcDbSymbolTableRecord
100
AcDbLayerTableRecord
  2
255
 70
     0
 62
   255
  6
CONTINUOUS
  0
LAYER
  5
4203
330
2
100
AcDbSymbolTableRecord
100
AcDbLayerTableRecord
  2
DEFPOINTS
 70
     0
 62
     7
  6
CONTINUOUS
  0
ENDTAB
  0
TABLE
  2
STYLE
  5
3
330
0
100
AcDbSymbolTable
 70
     1
  0
STYLE
  5
11
330
3
100
AcDbSymbolTableRecord
100
AcDbTextStyleTableRecord
  2
STANDARD
 70
     0
 40
0.0
 41
1.0
 50
0.0
 71
     0
 42
0.2
  3
monotxt
  4

  0
ENDTAB
  0
TABLE
  2
VIEW
  5
6
330
0
100
AcDbSymbolTable
 70
     0
  0
ENDTAB
  0
TABLE
  2
UCS
  5
7
330
0
100
AcDbSymbolTable
 70
     0
  0
ENDTAB
  0
TABLE
  2
APPID
  5
9
330
0
100
AcDbSymbolTable
 70
     1
  0
APPID
  5
12
330
9
100
AcDbSymbolTableRecord
100
AcDbRegAppTableRecord
  2
ACAD
 70
     0
  0
ENDTAB
  0
TABLE
  2
DIMSTYLE
  5
A
330
0
100
AcDbSymbolTable
 70
     1
  0
DIMSTYLE
105
2C58
102
{ACAD_REACTORS
330
4202
102
}
330
A
100
AcDbSymbolTableRecord
100
AcDbDimStyleTableRecord
  2
STANDARD
 70
     0
  3

  4

  5

  6

  7

 40
1.0
 41
0.18
 42
0.0625
 43
0.38
 44
0.18
 45
0.0
 46
0.0
 47
0.0
 48
0.0
140
0.18
141
0.09
142
0.0
143
25.4
144
1.0
145
0.0
146
1.0
147
0.09
 71
     0
 72
     0
 73
     1
 74
     1
 75
     0
 76
     0
 77
     0
 78
     0
170
     0
171
     2
172
     0
173
     0
174
     0
175
     0
176
     0
177
     0
178
     0
270
     2
271
     4
272
     4
273
     2
274
     2
340
11
275
     0
280
     0
281
     0
282
     0
283
     1
284
     0
285
     0
286
     0
287
     3
288
     0
  0
ENDTAB
  0
TABLE
  2
BLOCK_RECORD
  5
1
330
0
100
AcDbSymbolTable
 70
     1
  0
BLOCK_RECORD
  5
1E
102
{ACAD_XDICTIONARY
360
41CC
102
}
330
1
100
AcDbSymbolTableRecord
100
AcDbBlockTableRecord
  2
*MODEL_SPACE
  0
BLOCK_RECORD
  5
1A
102
{ACAD_XDICTIONARY
360
41CE
102
}
330
1
100
AcDbSymbolTableRecord
100
AcDbBlockTableRecord
  2
*PAPER_SPACE
  0
BLOCK_RECORD
  5
4204
330
1
100
AcDbSymbolTableRecord
100
AcDbBlockTableRecord
  2
*D0
  0
ENDTAB
  0
ENDSEC
  0
SECTION
  2
BLOCKS
  0
BLOCK
  5
13B
330
1E
100
AcDbEntity
  8
0
100
AcDbBlockBegin
  2
*MODEL_SPACE
 70
     0
 10
0.0
 20
0.0
 30
0.0
  3
*MODEL_SPACE
  1

  0
ENDBLK
  5
13C
330
1E
100
AcDbEntity
  8
0
100
AcDbBlockEnd
  0
BLOCK
  5
139
330
1A
100
AcDbEntity
 67
     1
  8
0
100
AcDbBlockBegin
  2
*PAPER_SPACE
 70
     0
 10
0.0
 20
0.0
 30
0.0
  3
*PAPER_SPACE
  1

  0
ENDBLK
  5
13A
330
1A
100
AcDbEntity
 67
     1
  8
0
100
AcDbBlockEnd
  0
BLOCK
  5
420F
330
4204
100
AcDbEntity
  8
0
100
AcDbBlockBegin
  2
*D0
 70
     1
 10
0.0
 20
0.0
 30
0.0
  3
*D0
  1

  0
LINE
  5
4211
330
4204
100
AcDbEntity
  8
0
 62
     0
100
AcDbLine
 10
-1.710835714466375
 20
8.825863409723268
 30
0.0
 11
-1.710835714466375
 21
9.444145353314235
 31
0.0
  0
LINE
  5
4212
330
4204
100
AcDbEntity
  8
0
 62
     0
100
AcDbLine
 10
2.789169533639922
 20
8.825863409723268
 30
0.0
 11
2.789169533639922
 21
9.444145353314235
 31
0.0
  0
LINE
  5
4213
330
4204
100
AcDbEntity
  8
0
 62
     0
100
AcDbLine
 10
-1.530835714466375
 20
9.264145353314235
 30
0.0
 11
-0.0608330904132267
 21
9.264145353314235
 31
0.0
  0
LINE
  5
4214
330
4204
100
AcDbEntity
  8
0
 62
     0
100
AcDbLine
 10
2.609169533639922
 20
9.264145353314235
 30
0.0
 11
1.139166909586773
 21
9.264145353314235
 31
0.0
  0
SOLID
  5
4215
330
4204
100
AcDbEntity
  8
0
 62
     0
100
AcDbTrace
 10
-1.530835714466375
 20
9.294145353314235
 30
0.0
 11
-1.530835714466375
 21
9.234145353314236
 31
0.0
 12
-1.710835714466375
 22
9.264145353314235
 32
0.0
 13
-1.710835714466375
 23
9.264145353314235
 33
0.0
  0
SOLID
  5
4216
330
4204
100
AcDbEntity
  8
0
 62
     0
100
AcDbTrace
 10
2.609169533639922
 20
9.294145353314235
 30
0.0
 11
2.609169533639922
 21
9.234145353314236
 31
0.0
 12
2.789169533639922
 22
9.264145353314235
 32
0.0
 13
2.789169533639922
 23
9.264145353314235
 33
0.0
  0
MTEXT
  5
4217
330
4204
100
AcDbEntity
  8
0
 62
     0
100
AcDbMText
 10
0.5391669095867734
 20
9.264145353314235
 30
0.0
 40
0.18
 41
0.0
 71
     5
 72
     1
  1
\A1;4.5000
1001
ACAD
1000
MTEXTBEGIN
1070
    73
1070
     1
1070
    44
1040
1.0
1070
    74
1070
     0
1000
MTEXTEND
  0
POINT
  5
4218
330
4204
100
AcDbEntity
  8
DEFPOINTS
 62
     0
100
AcDbPoint
 10
-1.710835714466375
 20
8.763363409723268
 30
0.0
  0
POINT
  5
4219
330
4204
100
AcDbEntity
  8
DEFPOINTS
 62
     0
100
AcDbPoint
 10
2.789169533639922
 20
8.763363409723268
 30
0.0
  0
POINT
  5
421A
330
4204
100
AcDbEntity
  8
DEFPOINTS
 62
     0
100
AcDbPoint
 10
2.789169533639922
 20
9.264145353314235
 30
0.0
  0
ENDBLK
  5
4210
330
4204
100
AcDbEntity
  8
0
100
AcDbBlockEnd
  0
ENDSEC
  0
SECTION
  2
ENTITIES
  0
LINE
  5
28A5
330
1E
100
AcDbEntity
  8
7
100
AcDbLine
 10
0.9025468448603959
 20
5.6512562439713
 30
0.0
 11
0.8894225131123643
 21
5.674223824530355
 31
0.0
  0
LINE
  5
28A6
330
1E
100
AcDbEntity
  8
7
100
AcDbLine
 10
0.8746576398958287
 20
5.67586436599886
 30
0.0
 11
0.8861414301753566
 21
5.67586436599886
 31
0.0
  0
LINE
  5
28A7
330
1E
100
AcDbEntity
  8
7
100
AcDbLine
 10
0.8861414301753566
 20
5.67586436599886
 30
0.0
 11
0.8894225131123643
 21
5.674223824530355
 31
0.0
  0
LINE
  5
28A8
330
1E
100
AcDbEntity
  8
7
100
AcDbLine
 10
0.8648143910848048
 20
5.67586436599886
 30
0.0
 11
0.8746576398958287
 21
5.67586436599886
 31
0.0
  0
LINE
  5
28A9
330
1E
100
AcDbEntity
  8
7
100
AcDbLine
 10
0.8287224787777184
 20
5.674223824530355
 30
0.0
 11
0.8648143910848048
 21
5.67586436599886
 31
0.0
  0
LINE
  5
28AA
330
1E
100
AcDbEntity
  8
7
100
AcDbLine
 10
0.8238008543722061
 20
5.674223824530355
 30
0.0
 11
0.8287224787777184
 21
5.674223824530355
 31
0.0
  0
LINE
  5
28AB
330
1E
100
AcDbEntity
  8
7
100
AcDbLine
 10
0.7942711079391356
 20
5.674223824530355
 30
0.0
 11
0.8238008543722061
 21
5.674223824530355
 31
0.0
  0
LINE
  5
28AC
330
1E
100
AcDbEntity
  8
7
100
AcDbLine
 10
0.8894225131123643
 20
5.880932049561852
 30
0.0
 11
0.9025468448603959
 21
5.905540171589411
 31
0.0
  0
LINE
  5
28AD
330
1E
100
AcDbEntity
  8
7
100
AcDbLine
 10
0.7942711079391356
 20
5.880932049561852
 30
0.0
 11
0.8238008543722061
 21
5.880932049561852
 31
0.0
  0
LINE
  5
28AE
330
1E
100
AcDbEntity
  8
7
100
AcDbLine
 10
0.8287224787777184
 20
5.880932049561852
 30
0.0
 11
0.8238008543722061
 21
5.880932049561852
 31
0.0
  0
LINE
  5
28AF
330
1E
100
AcDbEntity
  8
7
100
AcDbLine
 10
0.8648143910848048
 20
5.880932049561852
 30
0.0
 11
0.8287224787777184
 21
5.880932049561852
 31
0.0
  0
LINE
  5
28B0
330
1E
100
AcDbEntity
  8
7
100
AcDbLine
 10
0.8648143910848048
 20
5.880932049561852
 30
0.0
 11
0.8746576398958287
 21
5.880932049561852
 31
0.0
  0
LINE
  5
28B6
330
1E
100
AcDbEntity
  8
7
100
AcDbLine
 10
0.9025468448603959
 20
5.6512562439713
 30
0.0
 11
0.9025468448603959
 21
5.533137258239017
 31
0.0
  0
LINE
  5
28B7
330
1E
100
AcDbEntity
  8
7
100
AcDbLine
 10
0.9041873863288994
 20
5.531496716770512
 30
0.0
 11
0.9025468448603959
 21
5.533137258239017
 31
0.0
  0
LINE
  5
28B8
330
1E
100
AcDbEntity
  8
7
100
AcDbLine
 10
0.9041873863288994
 20
6.023659157321694
 30
0.0
 11
0.9041873863288994
 21
5.531496716770512
 31
0.0
  0
LINE
  5
28B9
330
1E
100
AcDbEntity
  8
7
100
AcDbLine
 10
0.9025468448603959
 20
6.02201861585319
 30
0.0
 11
0.9041873863288994
 21
6.023659157321694
 31
0.0
  0
LINE
  5
28BA
330
1E
100
AcDbEntity
  8
7
100
AcDbLine
 10
0.9025468448603959
 20
6.02201861585319
 30
0.0
 11
0.9025468448603959
 21
5.905540171589411
 31
0.0
  0
LINE
  5
28BB
330
1E
100
AcDbEntity
  8
7
100
AcDbLine
 10
0.8894225131123643
 20
5.674223824530355
 30
0.0
 11
0.8894225131123643
 21
5.880932049561852
 31
0.0
  0
LINE
  5
28BC
330
1E
100
AcDbEntity
  8
7
100
AcDbLine
 10
0.8746576398958287
 20
5.880932049561852
 30
0.0
 11
0.8746576398958287
 21
5.67586436599886
 31
0.0
  0
LINE
  5
28BD
330
1E
100
AcDbEntity
  8
7
100
AcDbLine
 10
0.8648143910848048
 20
5.880932049561852
 30
0.0
 11
0.8648143910848048
 21
5.67586436599886
 31
0.0
  0
LINE
  5
28BE
330
1E
100
AcDbEntity
  8
7
100
AcDbLine
 10
0.8287224787777184
 20
5.674223824530355
 30
0.0
 11
0.8287224787777184
 21
5.880932049561852
 31
0.0
  0
LINE
  5
28BF
330
1E
100
AcDbEntity
  8
7
100
AcDbLine
 10
0.8238008543722061
 20
5.880932049561852
 30
0.0
 11
0.8238008543722061
 21
5.674223824530355
 31
0.0
  0
LINE
  5
28C0
330
1E
100
AcDbEntity
  8
7
100
AcDbLine
 10
0.7942711079391356
 20
5.880932049561852
 30
0.0
 11
0.7942711079391356
 21
5.674223824530355
 31
0.0
  0
LINE
  5
28C1
330
1E
100
AcDbEntity
  8
7
100
AcDbLine
 10
0.7942711079391356
 20
6.309113372841379
 30
0.0
 11
0.7942711079391356
 21
6.515821597872876
 31
0.0
  0
LINE
  5
28C2
330
1E
100
AcDbEntity
  8
7
100
AcDbLine
 10
0.7942711079391356
 20
6.309113372841379
 30
0.0
 11
0.8238008543722061
 21
6.309113372841379
 31
0.0
  0
LINE
  5
28C3
330
1E
100
AcDbEntity
  8
7
100
AcDbLine
 10
0.8238008543722061
 20
6.309113372841379
 30
0.0
 11
0.8238008543722061
 21
6.515821597872876
 31
0.0
  0
LINE
  5
28C4
330
1E
100
AcDbEntity
  8
7
100
AcDbLine
 10
0.7942711079391356
 20
6.515821597872876
 30
0.0
 11
0.8238008543722061
 21
6.515821597872876
 31
0.0
  0
LINE
  5
28C5
330
1E
100
AcDbEntity
  8
7
100
AcDbLine
 10
0.8287224787777184
 20
6.515821597872876
 30
0.0
 11
0.8287224787777184
 21
6.309113372841379
 31
0.0
  0
LINE
  5
28C6
330
1E
100
AcDbEntity
  8
7
100
AcDbLine
 10
0.8238008543722061
 20
6.515821597872876
 30
0.0
 11
0.8287224787777184
 21
6.515821597872876
 31
0.0
  0
LINE
  5
28C7
330
1E
100
AcDbEntity
  8
7
100
AcDbLine
 10
0.8287224787777184
 20
6.309113372841379
 30
0.0
 11
0.8238008543722061
 21
6.309113372841379
 31
0.0
  0
LINE
  5
28C8
330
1E
100
AcDbEntity
  8
7
100
AcDbLine
 10
0.8648143910848048
 20
6.310753914309883
 30
0.0
 11
0.8648143910848048
 21
6.515821597872876
 31
0.0
  0
LINE
  5
28C9
330
1E
100
AcDbEntity
  8
7
100
AcDbLine
 10
0.8287224787777184
 20
6.515821597872876
 30
0.0
 11
0.8648143910848048
 21
6.515821597872876
 31
0.0
  0
LINE
  5
28CA
330
1E
100
AcDbEntity
  8
7
100
AcDbLine
 10
0.8648143910848048
 20
6.310753914309883
 30
0.0
 11
0.8287224787777184
 21
6.309113372841379
 31
0.0
  0
LINE
  5
28CB
330
1E
100
AcDbEntity
  8
7
100
AcDbLine
 10
0.8746576398958287
 20
6.310753914309883
 30
0.0
 11
0.8746576398958287
 21
6.515821597872876
 31
0.0
  0
LINE
  5
28CC
330
1E
100
AcDbEntity
  8
7
100
AcDbLine
 10
0.8648143910848048
 20
6.515821597872876
 30
0.0
 11
0.8746576398958287
 21
6.515821597872876
 31
0.0
  0
LINE
  5
28CD
330
1E
100
AcDbEntity
  8
7
100
AcDbLine
 10
0.8648143910848048
 20
6.310753914309883
 30
0.0
 11
0.8746576398958287
 21
6.310753914309883
 31
0.0
  0
LINE
  5
28D3
330
1E
100
AcDbEntity
  8
7
100
AcDbLine
 10
0.8894225131123643
 20
6.515821597872876
 30
0.0
 11
0.8894225131123643
 21
6.309113372841379
 31
0.0
  0
LINE
  5
28D9
330
1E
100
AcDbEntity
  8
7
100
AcDbLine
 10
0.8385657275887421
 20
6.658548705632719
 30
0.0
 11
0.8369251861202378
 21
6.658548705632719
 31
0.0
  0
LINE
  5
28DA
330
1E
100
AcDbEntity
  8
7
100
AcDbLine
 10
0.8385657275887421
 20
6.658548705632719
 30
0.0
 11
0.8385657275887421
 21
6.725810905841379
 31
0.0
  0
LINE
  5
28DB
330
1E
100
AcDbEntity
  8
7
100
AcDbLine
 10
0.8369251861202378
 20
6.725810905841379
 30
0.0
 11
0.8385657275887421
 21
6.725810905841379
 31
0.0
  0
LINE
  5
28DC
330
1E
100
AcDbEntity
  8
7
100
AcDbLine
 10
0.8369251861202378
 20
6.658548705632719
 30
0.0
 11
0.8369251861202378
 21
6.725810905841379
 31
0.0
  0
LINE
  5
28DD
330
1E
100
AcDbEntity
  8
7
100
AcDbLine
 10
0.8369251861202378
 20
6.658548705632719
 30
0.0
 11
0.9025468448603959
 21
6.658548705632719
 31
0.0
  0
LINE
  5
28DE
330
1E
100
AcDbEntity
  8
7
100
AcDbLine
 10
0.9041873863288994
 20
6.658548705632719
 30
0.0
 11
0.9025468448603959
 21
6.658548705632719
 31
0.0
  0
LINE
  5
28DF
330
1E
100
AcDbEntity
  8
7
100
AcDbLine
 10
0.9041873863288994
 20
6.658548705632719
 30
0.0
 11
0.8385657275887421
 21
6.658548705632719
 31
0.0
  0
LINE
  5
28E0
330
1E
100
AcDbEntity
  8
7
100
AcDbLine
 10
0.9025468448603959
 20
6.168026806550041
 30
0.0
 11
0.8369251861202378
 21
6.168026806550041
 31
0.0
  0
LINE
  5
28E1
330
1E
100
AcDbEntity
  8
7
100
AcDbLine
 10
0.8385657275887421
 20
6.166386265081537
 30
0.0
 11
0.8369251861202378
 21
6.168026806550041
 31
0.0
  0
LINE
  5
28E2
330
1E
100
AcDbEntity
  8
7
100
AcDbLine
 10
0.8385657275887421
 20
6.166386265081537
 30
0.0
 11
0.9041873863288994
 21
6.166386265081537
 31
0.0
  0
LINE
  5
28E3
330
1E
100
AcDbEntity
  8
7
100
AcDbLine
 10
0.9025468448603959
 20
6.168026806550041
 30
0.0
 11
0.9041873863288994
 21
6.166386265081537
 31
0.0
  0
LINE
  5
28E4
330
1E
100
AcDbEntity
  8
7
100
AcDbLine
 10
0.9025468448603959
 20
6.286145792282324
 30
0.0
 11
0.9025468448603959
 21
6.168026806550041
 31
0.0
  0
LINE
  5
28E5
330
1E
100
AcDbEntity
  8
7
100
AcDbLine
 10
0.1757869743131515
 20
6.725810905841379
 30
0.0
 11
0.8385657275887421
 21
6.725810905841379
 31
0.0
  0
LINE
  5
28E6
330
1E
100
AcDbEntity
  8
7
100
AcDbLine
 10
0.1757869743131515
 20
6.725810905841379
 30
0.0
 11
0.1774275157816545
 21
6.725810905841379
 31
0.0
  0
LINE
  5
28E7
330
1E
100
AcDbEntity
  8
7
100
AcDbLine
 10
0.8369251861202378
 20
6.725810905841379
 30
0.0
 11
0.1774275157816545
 21
6.725810905841379
 31
0.0
  0
LINE
  5
28E8
330
1E
100
AcDbEntity
  8
7
100
AcDbLine
 10
0.1774275157816545
 20
6.325518787526418
 30
0.0
 11
0.1774275157816545
 21
6.501056724656339
 31
0.0
  0
LINE
  5
28E9
330
1E
100
AcDbEntity
  8
7
100
AcDbLine
 10
0.1774275157816545
 20
6.325518787526418
 30
0.0
 11
0.2151599695572459
 21
6.325518787526418
 31
0.0
  0
LINE
  5
28EA
330
1E
100
AcDbEntity
  8
7
100
AcDbLine
 10
0.2151599695572459
 20
6.325518787526418
 30
0.0
 11
0.2151599695572459
 21
6.501056724656339
 31
0.0
  0
LINE
  5
28EB
330
1E
100
AcDbEntity
  8
7
100
AcDbLine
 10
0.1774275157816545
 20
6.501056724656339
 30
0.0
 11
0.2151599695572459
 21
6.501056724656339
 31
0.0
  0
LINE
  5
28EC
330
1E
100
AcDbEntity
  8
7
100
AcDbLine
 10
0.1774275157816545
 20
6.501056724656339
 30
0.0
 11
0.1774275157816545
 21
6.725810905841379
 31
0.0
  0
LINE
  5
28F5
330
1E
100
AcDbEntity
  8
7
100
AcDbLine
 10
0.8369251861202378
 20
6.02201861585319
 30
0.0
 11
0.8369251861202378
 21
6.168026806550041
 31
0.0
  0
LINE
  5
28F6
330
1E
100
AcDbEntity
  8
7
100
AcDbLine
 10
0.8385657275887421
 20
6.023659157321694
 30
0.0
 11
0.8369251861202378
 21
6.02201861585319
 31
0.0
  0
LINE
  5
28F7
330
1E
100
AcDbEntity
  8
7
100
AcDbLine
 10
0.8385657275887421
 20
6.023659157321694
 30
0.0
 11
0.8385657275887421
 21
6.166386265081537
 31
0.0
  0
LINE
  5
28F8
330
1E
100
AcDbEntity
  8
7
100
AcDbLine
 10
0.8894225131123643
 20
6.515821597872876
 30
0.0
 11
0.9025468448603959
 21
6.540429719900433
 31
0.0
  0
LINE
  5
28F9
330
1E
100
AcDbEntity
  8
7
100
AcDbLine
 10
0.9025468448603959
 20
6.286145792282324
 30
0.0
 11
0.8894225131123643
 21
6.309113372841379
 31
0.0
  0
LINE
  5
28FA
330
1E
100
AcDbEntity
  8
7
100
AcDbLine
 10
0.9041873863288994
 20
6.166386265081537
 30
0.0
 11
0.9041873863288994
 21
6.658548705632719
 31
0.0
  0
LINE
  5
28FB
330
1E
100
AcDbEntity
  8
7
100
AcDbLine
 10
0.9025468448603959
 20
6.658548705632719
 30
0.0
 11
0.9025468448603959
 21
6.540429719900433
 31
0.0
  0
LINE
  5
28FC
330
1E
100
AcDbEntity
  8
7
100
AcDbLine
 10
0.2151599695572459
 20
5.690629239215395
 30
0.0
 11
0.2151599695572459
 21
5.864526634876813
 31
0.0
  0
LINE
  5
28FD
330
1E
100
AcDbEntity
  8
7
100
AcDbLine
 10
0.1774275157816545
 20
5.690629239215395
 30
0.0
 11
0.2151599695572459
 21
5.690629239215395
 31
0.0
  0
LINE
  5
28FE
330
1E
100
AcDbEntity
  8
7
100
AcDbLine
 10
0.1774275157816545
 20
5.864526634876813
 30
0.0
 11
0.2151599695572459
 21
5.864526634876813
 31
0.0
  0
LINE
  5
28FF
330
1E
100
AcDbEntity
  8
7
100
AcDbLine
 10
0.8369251861202378
 20
6.02201861585319
 30
0.0
 11
0.9025468448603959
 21
6.02201861585319
 31
0.0
  0
LINE
  5
2900
330
1E
100
AcDbEntity
  8
7
100
AcDbLine
 10
0.1774275157816545
 20
5.465875058030356
 30
0.0
 11
0.8369251861202378
 21
5.465875058030356
 31
0.0
  0
LINE
  5
2901
330
1E
100
AcDbEntity
  8
7
100
AcDbLine
 10
0.9025468448603959
 20
5.533137258239017
 30
0.0
 11
0.8369251861202378
 21
5.533137258239017
 31
0.0
  0
LINE
  5
2902
330
1E
100
AcDbEntity
  8
7
100
AcDbLine
 10
0.8385657275887421
 20
5.531496716770512
 30
0.0
 11
0.8369251861202378
 21
5.533137258239017
 31
0.0
  0
LINE
  5
2903
330
1E
100
AcDbEntity
  8
7
100
AcDbLine
 10
0.9041873863288994
 20
5.531496716770512
 30
0.0
 11
0.8385657275887421
 21
5.531496716770512
 31
0.0
  0
LINE
  5
2904
330
1E
100
AcDbEntity
  8
7
100
AcDbLine
 10
0.8385657275887421
 20
6.023659157321694
 30
0.0
 11
0.9041873863288994
 21
6.023659157321694
 31
0.0
  0
LINE
  5
2905
330
1E
100
AcDbEntity
  8
7
100
AcDbLine
 10
0.8369251861202378
 20
5.465875058030356
 30
0.0
 11
0.8369251861202378
 21
5.533137258239017
 31
0.0
  0
LINE
  5
2906
330
1E
100
AcDbEntity
  8
7
100
AcDbLine
 10
0.1757869743131515
 20
5.464234516561852
 30
0.0
 11
0.8385657275887421
 21
5.464234516561852
 31
0.0
  0
LINE
  5
2907
330
1E
100
AcDbEntity
  8
7
100
AcDbLine
 10
0.8369251861202378
 20
5.465875058030356
 30
0.0
 11
0.8385657275887421
 21
5.464234516561852
 31
0.0
  0
LINE
  5
2908
330
1E
100
AcDbEntity
  8
7
100
AcDbLine
 10
0.8385657275887421
 20
5.531496716770512
 30
0.0
 11
0.8385657275887421
 21
5.464234516561852
 31
0.0
  0
LINE
  5
2914
330
1E
100
AcDbEntity
  8
7
100
AcDbLine
 10
-1.118600244336454
 20
6.168026806550041
 30
0.0
 11
-1.14977053223803
 21
6.151621391865002
 31
0.0
  0
LINE
  5
2921
330
1E
100
AcDbEntity
  8
7
100
AcDbLine
 10
2.730110040773781
 20
7.470616732542167
 30
0.0
 11
-1.65013568013173
 21
7.470616732542167
 31
0.0
  0
LINE
  5
2922
330
1E
100
AcDbEntity
  8
7
100
AcDbLine
 10
2.789169533639922
 20
4.78012872419571
 30
0.0
 11
2.789169533639922
 21
7.409916698207521
 31
0.0
  0
LINE
  5
2923
330
1E
100
AcDbEntity
  8
7
100
AcDbLine
 10
-1.65013568013173
 20
4.719428689861064
 30
0.0
 11
2.730110040773781
 21
4.719428689861064
 31
0.0
  0
LINE
  5
2924
330
1E
100
AcDbEntity
  8
7
100
AcDbLine
 10
-1.710835714466376
 20
7.409916698207521
 30
0.0
 11
-1.710835714466376
 21
4.78012872419571
 31
0.0
  0
LINE
  5
299C
330
1E
100
AcDbEntity
  8
7
100
AcDbLine
 10
2.615272137978505
 20
7.281954463664213
 30
0.0
 11
2.564415352454883
 21
7.245862551357127
 31
0.0
  0
LINE
  5
29D6
330
1E
100
AcDbEntity
  8
7
100
AcDbLine
 10
2.22974489288008
 20
6.040064572006734
 30
0.0
 11
2.22974489288008
 21
6.151621391865002
 31
0.0
  0
LINE
  5
29D7
330
1E
100
AcDbEntity
  8
7
100
AcDbLine
 10
2.129671863301339
 20
6.151621391865002
 30
0.0
 11
2.129671863301339
 21
6.040064572006734
 31
0.0
  0
LINE
  5
29D8
330
1E
100
AcDbEntity
  8
7
100
AcDbLine
 10
-1.051338044127793
 20
6.040064572006734
 30
0.0
 11
-1.051338044127793
 21
6.151621391865002
 31
0.0
  0
LINE
  5
29D9
330
1E
100
AcDbEntity
  8
7
100
AcDbLine
 10
-1.151411073706533
 20
6.151621391865002
 30
0.0
 11
-1.151411073706533
 21
6.040064572006734
 31
0.0
  0
LINE
  5
2B34
330
1E
100
AcDbEntity
  8
7
100
AcDbLine
 10
2.697299211403702
 20
2.685157268916182
 30
0.0
 11
2.730110040773781
 21
2.685157268916182
 31
0.0
  0
LINE
  5
2B35
330
1E
100
AcDbEntity
  8
7
100
AcDbLine
 10
2.789169533639922
 20
2.685157268916182
 30
0.0
 11
2.780966826297403
 21
2.685157268916182
 31
0.0
  0
LINE
  5
2B5A
330
1E
100
AcDbEntity
  8
7
100
AcDbLine
 10
0.894344137517876
 20
2.567038283183899
 30
0.0
 11
0.8894225131123643
 21
2.401343594865002
 31
0.0
  0
LINE
  5
2B60
330
1E
100
AcDbEntity
  8
7
100
AcDbLine
 10
0.8648143910848048
 20
2.386578721648466
 30
0.0
 11
0.8746576398958287
 21
2.386578721648466
 31
0.0
  0
LINE
  5
2B61
330
1E
100
AcDbEntity
  8
7
100
AcDbLine
 10
0.8287224787777184
 20
2.39642197045949
 30
0.0
 11
0.8648143910848048
 21
2.386578721648466
 31
0.0
  0
LINE
  5
2B62
330
1E
100
AcDbEntity
  8
7
100
AcDbLine
 10
0.8238008543722061
 20
2.399703053396497
 30
0.0
 11
0.8287224787777184
 21
2.39642197045949
 31
0.0
  0
LINE
  5
2B63
330
1E
100
AcDbEntity
  8
7
100
AcDbLine
 10
0.7942711079391356
 20
2.399703053396497
 30
0.0
 11
0.8238008543722061
 21
2.399703053396497
 31
0.0
  0
LINE
  5
2B64
330
1E
100
AcDbEntity
  8
7
100
AcDbLine
 10
0.7942711079391356
 20
2.399703053396497
 30
0.0
 11
0.79591164940764
 21
2.38001655577445
 31
0.0
  0
LINE
  5
2B6A
330
1E
100
AcDbEntity
  8
7
100
AcDbLine
 10
0.9074684692659072
 20
2.235648906546104
 30
0.0
 11
0.8238008543722061
 21
2.317675979971301
 31
0.0
  0
LINE
  5
2B72
330
1E
100
AcDbEntity
  8
7
100
AcDbLine
 10
1.009182040313151
 20
2.567038283183899
 30
0.0
 11
0.9993387915021276
 21
2.320957062908308
 31
0.0
  0
LINE
  5
2B78
330
1E
100
AcDbEntity
  8
7
100
AcDbLine
 10
0.9599657962580332
 20
2.301270565286261
 30
0.0
 11
0.9796522938800805
 21
2.301270565286261
 31
0.0
  0
LINE
  5
2B79
330
1E
100
AcDbEntity
  8
7
100
AcDbLine
 10
-0.04568612393488
 20
2.685157268916182
 30
0.0
 11
-0.0424050409978731
 21
2.567038283183899
 31
0.0
  0
LINE
  5
2B7A
330
1E
100
AcDbEntity
  8
7
100
AcDbLine
 10
1.128941567513938
 20
2.567038283183899
 30
0.0
 11
-0.0424050409978731
 21
2.567038283183899
 31
0.0
  0
LINE
  5
2B7B
330
1E
100
AcDbEntity
  8
7
100
AcDbLine
 10
1.128941567513938
 20
2.567038283183899
 30
0.0
 11
1.132222650450946
 21
2.685157268916182
 31
0.0
  0
LINE
  5
2B7C
330
1E
100
AcDbEntity
  8
7
100
AcDbLine
 10
1.137144274856458
 20
2.567038283183899
 30
0.0
 11
1.128941567513938
 21
2.567038283183899
 31
0.0
  0
LINE
  5
2B82
330
1E
100
AcDbEntity
  8
7
100
AcDbLine
 10
1.138784816324962
 20
2.685157268916182
 30
0.0
 11
1.137144274856458
 21
2.567038283183899
 31
0.0
  0
LINE
  5
2B89
330
1E
100
AcDbEntity
  8
7
100
AcDbLine
 10
-1.65013568013173
 20
2.685157268916182
 30
0.0
 11
2.730110040773781
 21
2.685157268916182
 31
0.0
  0
LINE
  5
2B90
330
1E
100
AcDbEntity
  8
7
100
AcDbLine
 10
-1.486081533281335
 20
2.909911450101223
 30
0.0
 11
2.564415352454883
 21
2.909911450101223
 31
0.0
  0
LINE
  5
2B9A
330
1E
100
AcDbEntity
  8
7
100
AcDbLine
 10
-1.646854597194722
 20
2.736014054439805
 30
0.0
 11
-1.65013568013173
 21
2.685157268916182
 31
0.0
  0
LINE
  5
2BBA
330
1E
100
AcDbEntity
  8
7
100
AcDbLine
 10
5.481298083454882
 20
2.225805657735081
 30
0.0
 11
5.669960352332836
 21
2.225805657735081
 31
0.0
  0
LINE
  5
2BBB
330
1E
100
AcDbEntity
  8
7
100
AcDbLine
 10
6.116187631765905
 20
2.225805657735081
 30
0.0
 11
6.304849900643858
 21
2.225805657735081
 31
0.0
  0
LINE
  5
2BC2
330
1E
100
AcDbEntity
  8
7
100
AcDbLine
 10
5.671600893801339
 20
2.253694862699648
 30
0.0
 11
5.688006308486379
 21
2.567038283183899
 31
0.0
  0
LINE
  5
2BC8
330
1E
100
AcDbEntity
  8
7
100
AcDbLine
 10
5.668319810864332
 20
2.567038283183899
 30
0.0
 11
5.665038727927323
 21
2.320957062908308
 31
0.0
  0
LINE
  5
2BC9
330
1E
100
AcDbEntity
  8
7
100
AcDbLine
 10
5.619103566809213
 20
2.567038283183899
 30
0.0
 11
5.624025191214725
 21
2.320957062908308
 31
0.0
  0
LINE
  5
2BCA
330
1E
100
AcDbEntity
  8
7
100
AcDbLine
 10
5.665038727927323
 20
2.320957062908308
 30
0.0
 11
5.624025191214725
 21
2.320957062908308
 31
0.0
  0
LINE
  5
2BD0
330
1E
100
AcDbEntity
  8
7
100
AcDbLine
 10
5.663398186458819
 20
2.301270565286261
 30
0.0
 11
5.624025191214725
 21
2.301270565286261
 31
0.0
  0
LINE
  5
2BD6
330
1E
100
AcDbEntity
  8
7
100
AcDbLine
 10
5.532154868978505
 20
2.567038283183899
 30
0.0
 11
5.527233244572993
 21
2.320957062908308
 31
0.0
  0
LINE
  5
2BD7
330
1E
100
AcDbEntity
  8
7
100
AcDbLine
 10
5.482938624923386
 20
2.567038283183899
 30
0.0
 11
5.487860249328899
 21
2.320957062908308
 31
0.0
  0
LINE
  5
2BD8
330
1E
100
AcDbEntity
  8
7
100
AcDbLine
 10
5.527233244572993
 20
2.320957062908308
 30
0.0
 11
5.487860249328899
 21
2.320957062908308
 31
0.0
  0
LINE
  5
2BDE
330
1E
100
AcDbEntity
  8
7
100
AcDbLine
 10
5.527233244572993
 20
2.301270565286261
 30
0.0
 11
5.487860249328899
 21
2.301270565286261
 31
0.0
  0
LINE
  5
2BE4
330
1E
100
AcDbEntity
  8
7
100
AcDbLine
 10
5.671600893801339
 20
2.253694862699648
 30
0.0
 11
5.479657541986379
 21
2.253694862699648
 31
0.0
  0
LINE
  5
2BE5
330
1E
100
AcDbEntity
  8
7
100
AcDbLine
 10
5.210608741151732
 20
2.567038283183899
 30
0.0
 11
5.208968199683229
 21
2.685157268916182
 31
0.0
  0
LINE
  5
2BEC
330
1E
100
AcDbEntity
  8
7
100
AcDbLine
 10
6.116187631765905
 20
2.253694862699648
 30
0.0
 11
6.098141675612364
 21
2.567038283183899
 31
0.0
  0
LINE
  5
2BF2
330
1E
100
AcDbEntity
  8
7
100
AcDbLine
 10
6.568977077072993
 20
2.567038283183899
 30
0.0
 11
6.570617618541496
 21
2.685157268916182
 31
0.0
  0
LINE
  5
2BF3
330
1E
100
AcDbEntity
  8
7
100
AcDbLine
 10
5.215530365557245
 20
2.685157268916182
 30
0.0
 11
5.218811448494253
 21
2.567038283183899
 31
0.0
  0
LINE
  5
2BF4
330
1E
100
AcDbEntity
  8
7
100
AcDbLine
 10
6.578820325884016
 20
2.685157268916182
 30
0.0
 11
6.575539242947009
 21
2.567038283183899
 31
0.0
  0
LINE
  5
2BFA
330
1E
100
AcDbEntity
  8
7
100
AcDbLine
 10
6.167044417289528
 20
2.567038283183899
 30
0.0
 11
6.162122792884018
 21
2.320957062908308
 31
0.0
  0
LINE
  5
2C0B
330
1E
100
AcDbEntity
  8
7
100
AcDbLine
 10
6.303209359175355
 20
2.567038283183899
 30
0.0
 11
6.299928276238348
 21
2.320957062908308
 31
0.0
  0
LINE
  5
2C27
330
1E
100
AcDbEntity
  8
7
100
AcDbLine
 10
4.579000275777717
 20
2.685157268916182
 30
0.0
 11
7.208788249789527
 21
2.685157268916182
 31
0.0
  0
LINE
  5
2C2E
330
1E
100
AcDbEntity
  8
7
100
AcDbLine
 10
4.743054422628111
 20
2.909911450101223
 30
0.0
 11
7.04309356147063
 21
2.909911450101223
 31
0.0
  0
LINE
  5
2C5B
330
1E
100
AcDbEntity
  8
7
100
AcDbLine
 10
7.085747639651732
 20
2.906630367164214
 30
0.0
 11
7.134963883706851
 21
2.890224952479175
 31
0.0
  0
LINE
  5
2C5C
330
1E
100
AcDbEntity
  8
7
100
AcDbLine
 10
7.134963883706851
 20
2.890224952479175
 30
0.0
 11
7.179258503356457
 21
2.863976288983112
 31
0.0
  0
LINE
  5
2C5D
330
1E
100
AcDbEntity
  8
7
100
AcDbLine
 10
7.179258503356457
 20
2.863976288983112
 30
0.0
 11
7.216990957132049
 21
2.827884376676025
 31
0.0
  0
LINE
  5
2C5E
330
1E
100
AcDbEntity
  8
7
100
AcDbLine
 10
7.216990957132049
 20
2.827884376676025
 30
0.0
 11
7.244880162096615
 21
2.785230298494924
 31
0.0
  0
LINE
  5
2C5F
330
1E
100
AcDbEntity
  8
7
100
AcDbLine
 10
7.244880162096615
 20
2.785230298494924
 30
0.0
 11
7.262926118250159
 21
2.736014054439805
 31
0.0
  0
LINE
  5
2C60
330
1E
100
AcDbEntity
  8
7
100
AcDbLine
 10
7.262926118250159
 20
2.736014054439805
 30
0.0
 11
7.26784774265567
 21
2.685157268916182
 31
0.0
  0
LINE
  5
2C61
330
1E
100
AcDbEntity
  8
7
100
AcDbLine
 10
4.743054422628111
 20
2.909911450101223
 30
0.0
 11
4.706962510321025
 21
2.904989825695711
 31
0.0
  0
LINE
  5
2C62
330
1E
100
AcDbEntity
  8
7
100
AcDbLine
 10
4.706962510321025
 20
2.904989825695711
 30
0.0
 11
4.670870598013938
 21
2.888584411010672
 31
0.0
  0
LINE
  5
2C63
330
1E
100
AcDbEntity
  8
7
100
AcDbLine
 10
4.670870598013938
 20
2.888584411010672
 30
0.0
 11
4.639700310112363
 21
2.860695206046104
 31
0.0
  0
LINE
  5
2C64
330
1E
100
AcDbEntity
  8
7
100
AcDbLine
 10
4.639700310112363
 20
2.860695206046104
 30
0.0
 11
4.613451646616301
 21
2.826243835207522
 31
0.0
  0
LINE
  5
2C65
330
1E
100
AcDbEntity
  8
7
100
AcDbLine
 10
4.613451646616301
 20
2.826243835207522
 30
0.0
 11
4.593765148994253
 21
2.783589757026418
 31
0.0
  0
LINE
  5
2C66
330
1E
100
AcDbEntity
  8
7
100
AcDbLine
 10
4.593765148994253
 20
2.783589757026418
 30
0.0
 11
4.582281358714725
 21
2.736014054439805
 31
0.0
  0
LINE
  5
2C67
330
1E
100
AcDbEntity
  8
7
100
AcDbLine
 10
4.582281358714725
 20
2.736014054439805
 30
0.0
 11
4.579000275777717
 21
2.685157268916182
 31
0.0
  0
LINE
  5
2C68
330
1E
100
AcDbEntity
  8
7
100
AcDbLine
 10
7.115277386084803
 20
2.888584411010672
 30
0.0
 11
7.080826015246222
 21
2.904989825695711
 31
0.0
  0
LINE
  5
2C69
330
1E
100
AcDbEntity
  8
7
100
AcDbLine
 10
7.080826015246222
 20
2.904989825695711
 30
0.0
 11
7.04309356147063
 21
2.909911450101223
 31
0.0
  0
LINE
  5
2C6A
330
1E
100
AcDbEntity
  8
7
100
AcDbLine
 10
7.208788249789527
 20
2.685157268916182
 30
0.0
 11
7.203866625384018
 21
2.736014054439805
 31
0.0
  0
LINE
  5
2C6B
330
1E
100
AcDbEntity
  8
7
100
AcDbLine
 10
7.203866625384018
 20
2.736014054439805
 30
0.0
 11
7.192382835104488
 21
2.783589757026418
 31
0.0
  0
LINE
  5
2C6C
330
1E
100
AcDbEntity
  8
7
100
AcDbLine
 10
7.192382835104488
 20
2.783589757026418
 30
0.0
 11
7.172696337482442
 21
2.826243835207522
 31
0.0
  0
LINE
  5
2C6D
330
1E
100
AcDbEntity
  8
7
100
AcDbLine
 10
7.172696337482442
 20
2.826243835207522
 30
0.0
 11
7.146447673986379
 21
2.860695206046104
 31
0.0
  0
LINE
  5
2C6E
330
1E
100
AcDbEntity
  8
7
100
AcDbLine
 10
7.146447673986379
 20
2.860695206046104
 30
0.0
 11
7.115277386084803
 21
2.888584411010672
 31
0.0
  0
LINE
  5
2C6F
330
1E
100
AcDbEntity
  8
7
100
AcDbLine
 10
4.518300241443071
 20
2.685157268916182
 30
0.0
 11
4.524862407317088
 21
2.737654595908308
 31
0.0
  0
LINE
  5
2C70
330
1E
100
AcDbEntity
  8
7
100
AcDbLine
 10
4.524862407317088
 20
2.737654595908308
 30
0.0
 11
4.541267822002128
 21
2.785230298494924
 31
0.0
  0
LINE
  5
2C71
330
1E
100
AcDbEntity
  8
7
100
AcDbLine
 10
4.541267822002128
 20
2.785230298494924
 30
0.0
 11
4.570797568435198
 21
2.829524918144528
 31
0.0
  0
LINE
  5
2C72
330
1E
100
AcDbEntity
  8
7
100
AcDbLine
 10
4.570797568435198
 20
2.829524918144528
 30
0.0
 11
4.606889480742284
 21
2.865616830451616
 31
0.0
  0
LINE
  5
2C73
330
1E
100
AcDbEntity
  8
7
100
AcDbLine
 10
4.606889480742284
 20
2.865616830451616
 30
0.0
 11
4.652824641860395
 21
2.891865493947679
 31
0.0
  0
LINE
  5
2C74
330
1E
100
AcDbEntity
  8
7
100
AcDbLine
 10
4.652824641860395
 20
2.891865493947679
 30
0.0
 11
4.702040885915512
 21
2.906630367164214
 31
0.0
  0
LINE
  5
2C75
330
1E
100
AcDbEntity
  8
7
100
AcDbLine
 10
4.579000275777717
 20
2.685157268916182
 30
0.0
 11
4.547829987876143
 21
2.685157268916182
 31
0.0
  0
LINE
  5
2C76
330
1E
100
AcDbEntity
  8
7
100
AcDbLine
 10
4.547829987876143
 20
2.685157268916182
 30
0.0
 11
4.526502948785591
 21
2.685157268916182
 31
0.0
  0
LINE
  5
2C77
330
1E
100
AcDbEntity
  8
7
100
AcDbLine
 10
4.526502948785591
 20
2.685157268916182
 30
0.0
 11
4.518300241443071
 21
2.685157268916182
 31
0.0
  0
LINE
  5
2C78
330
1E
100
AcDbEntity
  8
7
100
AcDbLine
 10
7.26784774265567
 20
2.685157268916182
 30
0.0
 11
7.25964503531315
 21
2.685157268916182
 31
0.0
  0
LINE
  5
2C79
330
1E
100
AcDbEntity
  8
7
100
AcDbLine
 10
7.25964503531315
 20
2.685157268916182
 30
0.0
 11
7.238317996222599
 21
2.685157268916182
 31
0.0
  0
LINE
  5
2C7A
330
1E
100
AcDbEntity
  8
7
100
AcDbLine
 10
7.238317996222599
 20
2.685157268916182
 30
0.0
 11
7.208788249789527
 21
2.685157268916182
 31
0.0
  0
LINE
  5
2C7B
330
1E
100
AcDbEntity
  8
7
100
AcDbLine
 10
6.304849900643858
 20
2.225805657735081
 30
0.0
 11
6.304849900643858
 21
2.2340083650776
 31
0.0
  0
LINE
  5
2C7C
330
1E
100
AcDbEntity
  8
7
100
AcDbLine
 10
6.304849900643858
 20
2.2340083650776
 30
0.0
 11
6.306490442112363
 21
2.253694862699648
 31
0.0
  0
LINE
  5
2C7D
330
1E
100
AcDbEntity
  8
7
100
AcDbLine
 10
6.116187631765905
 20
2.225805657735081
 30
0.0
 11
6.116187631765905
 21
2.2340083650776
 31
0.0
  0
LINE
  5
2C7E
330
1E
100
AcDbEntity
  8
7
100
AcDbLine
 10
6.116187631765905
 20
2.2340083650776
 30
0.0
 11
6.116187631765905
 21
2.253694862699648
 31
0.0
  0
LINE
  5
2C7F
330
1E
100
AcDbEntity
  8
7
100
AcDbLine
 10
6.258914739525748
 20
2.301270565286261
 30
0.0
 11
6.298287734769843
 21
2.301270565286261
 31
0.0
  0
LINE
  5
2C80
330
1E
100
AcDbEntity
  8
7
100
AcDbLine
 10
6.298287734769843
 20
2.301270565286261
 30
0.0
 11
6.298287734769843
 21
2.306192189691773
 31
0.0
  0
LINE
  5
2C81
330
1E
100
AcDbEntity
  8
7
100
AcDbLine
 10
6.298287734769843
 20
2.306192189691773
 30
0.0
 11
6.299928276238348
 21
2.320957062908308
 31
0.0
  0
LINE
  5
2C82
330
1E
100
AcDbEntity
  8
7
100
AcDbLine
 10
6.258914739525748
 20
2.301270565286261
 30
0.0
 11
6.258914739525748
 21
2.306192189691773
 31
0.0
  0
LINE
  5
2C83
330
1E
100
AcDbEntity
  8
7
100
AcDbLine
 10
6.258914739525748
 20
2.306192189691773
 30
0.0
 11
6.258914739525748
 21
2.320957062908308
 31
0.0
  0
LINE
  5
2C84
330
1E
100
AcDbEntity
  8
7
100
AcDbLine
 10
6.253993115120238
 20
2.567038283183899
 30
0.0
 11
6.258914739525748
 21
2.320957062908308
 31
0.0
  0
LINE
  5
2C85
330
1E
100
AcDbEntity
  8
7
100
AcDbLine
 10
6.258914739525748
 20
2.320957062908308
 30
0.0
 11
6.299928276238348
 21
2.320957062908308
 31
0.0
  0
LINE
  5
2C86
330
1E
100
AcDbEntity
  8
7
100
AcDbLine
 10
6.122749797639921
 20
2.301270565286261
 30
0.0
 11
6.162122792884018
 21
2.301270565286261
 31
0.0
  0
LINE
  5
2C87
330
1E
100
AcDbEntity
  8
7
100
AcDbLine
 10
6.162122792884018
 20
2.301270565286261
 30
0.0
 11
6.162122792884018
 21
2.306192189691773
 31
0.0
  0
LINE
  5
2C88
330
1E
100
AcDbEntity
  8
7
100
AcDbLine
 10
6.162122792884018
 20
2.306192189691773
 30
0.0
 11
6.162122792884018
 21
2.320957062908308
 31
0.0
  0
LINE
  5
2C89
330
1E
100
AcDbEntity
  8
7
100
AcDbLine
 10
6.122749797639921
 20
2.301270565286261
 30
0.0
 11
6.122749797639921
 21
2.306192189691773
 31
0.0
  0
LINE
  5
2C8A
330
1E
100
AcDbEntity
  8
7
100
AcDbLine
 10
6.122749797639921
 20
2.306192189691773
 30
0.0
 11
6.122749797639921
 21
2.320957062908308
 31
0.0
  0
LINE
  5
2C8B
330
1E
100
AcDbEntity
  8
7
100
AcDbLine
 10
6.117828173234411
 20
2.567038283183899
 30
0.0
 11
6.122749797639921
 21
2.320957062908308
 31
0.0
  0
LINE
  5
2C8C
330
1E
100
AcDbEntity
  8
7
100
AcDbLine
 10
6.122749797639921
 20
2.320957062908308
 30
0.0
 11
6.162122792884018
 21
2.320957062908308
 31
0.0
  0
LINE
  5
2C8D
330
1E
100
AcDbEntity
  8
7
100
AcDbLine
 10
6.116187631765905
 20
2.253694862699648
 30
0.0
 11
6.306490442112363
 21
2.253694862699648
 31
0.0
  0
LINE
  5
2C8E
330
1E
100
AcDbEntity
  8
7
100
AcDbLine
 10
6.306490442112363
 20
2.253694862699648
 30
0.0
 11
6.322895856797401
 21
2.567038283183899
 31
0.0
  0
LINE
  5
2C8F
330
1E
100
AcDbEntity
  8
7
100
AcDbLine
 10
6.575539242947009
 20
2.567038283183899
 30
0.0
 11
6.568977077072993
 21
2.567038283183899
 31
0.0
  0
LINE
  5
2C90
330
1E
100
AcDbEntity
  8
7
100
AcDbLine
 10
6.568977077072993
 20
2.567038283183899
 30
0.0
 11
5.218811448494253
 21
2.567038283183899
 31
0.0
  0
LINE
  5
2C91
330
1E
100
AcDbEntity
  8
7
100
AcDbLine
 10
5.218811448494253
 20
2.567038283183899
 30
0.0
 11
5.210608741151732
 21
2.567038283183899
 31
0.0
  0
LINE
  5
2C92
330
1E
100
AcDbEntity
  8
7
100
AcDbLine
 10
5.527233244572993
 20
2.301270565286261
 30
0.0
 11
5.527233244572993
 21
2.306192189691773
 31
0.0
  0
LINE
  5
2C93
330
1E
100
AcDbEntity
  8
7
100
AcDbLine
 10
5.527233244572993
 20
2.306192189691773
 30
0.0
 11
5.527233244572993
 21
2.320957062908308
 31
0.0
  0
LINE
  5
2C94
330
1E
100
AcDbEntity
  8
7
100
AcDbLine
 10
5.487860249328899
 20
2.301270565286261
 30
0.0
 11
5.487860249328899
 21
2.306192189691773
 31
0.0
  0
LINE
  5
2C95
330
1E
100
AcDbEntity
  8
7
100
AcDbLine
 10
5.487860249328899
 20
2.306192189691773
 30
0.0
 11
5.487860249328899
 21
2.320957062908308
 31
0.0
  0
LINE
  5
2C96
330
1E
100
AcDbEntity
  8
7
100
AcDbLine
 10
5.663398186458819
 20
2.301270565286261
 30
0.0
 11
5.663398186458819
 21
2.306192189691773
 31
0.0
  0
LINE
  5
2C97
330
1E
100
AcDbEntity
  8
7
100
AcDbLine
 10
5.663398186458819
 20
2.306192189691773
 30
0.0
 11
5.665038727927323
 21
2.320957062908308
 31
0.0
  0
LINE
  5
2C98
330
1E
100
AcDbEntity
  8
7
100
AcDbLine
 10
5.624025191214725
 20
2.301270565286261
 30
0.0
 11
5.624025191214725
 21
2.306192189691773
 31
0.0
  0
LINE
  5
2C99
330
1E
100
AcDbEntity
  8
7
100
AcDbLine
 10
5.624025191214725
 20
2.306192189691773
 30
0.0
 11
5.624025191214725
 21
2.320957062908308
 31
0.0
  0
LINE
  5
2C9A
330
1E
100
AcDbEntity
  8
7
100
AcDbLine
 10
5.669960352332836
 20
2.225805657735081
 30
0.0
 11
5.669960352332836
 21
2.2340083650776
 31
0.0
  0
LINE
  5
2C9B
330
1E
100
AcDbEntity
  8
7
100
AcDbLine
 10
5.669960352332836
 20
2.2340083650776
 30
0.0
 11
5.671600893801339
 21
2.253694862699648
 31
0.0
  0
LINE
  5
2C9C
330
1E
100
AcDbEntity
  8
7
100
AcDbLine
 10
5.481298083454882
 20
2.225805657735081
 30
0.0
 11
5.481298083454882
 21
2.2340083650776
 31
0.0
  0
LINE
  5
2C9D
330
1E
100
AcDbEntity
  8
7
100
AcDbLine
 10
5.481298083454882
 20
2.2340083650776
 30
0.0
 11
5.479657541986379
 21
2.253694862699648
 31
0.0
  0
LINE
  5
2C9E
330
1E
100
AcDbEntity
  8
7
100
AcDbLine
 10
5.479657541986379
 20
2.253694862699648
 30
0.0
 11
5.463252127301339
 21
2.567038283183899
 31
0.0
  0
LINE
  5
2C9F
330
1E
100
AcDbEntity
  8
7
100
AcDbLine
 10
2.607069430635985
 20
2.906630367164214
 30
0.0
 11
2.656285674691103
 21
2.890224952479175
 31
0.0
  0
LINE
  5
2CA0
330
1E
100
AcDbEntity
  8
7
100
AcDbLine
 10
2.656285674691103
 20
2.890224952479175
 30
0.0
 11
2.70058029434071
 21
2.863976288983112
 31
0.0
  0
LINE
  5
2CA1
330
1E
100
AcDbEntity
  8
7
100
AcDbLine
 10
2.70058029434071
 20
2.863976288983112
 30
0.0
 11
2.7383127481163
 21
2.829524918144528
 31
0.0
  0
LINE
  5
2CA2
330
1E
100
AcDbEntity
  8
7
100
AcDbLine
 10
2.7383127481163
 20
2.829524918144528
 30
0.0
 11
2.766201953080867
 21
2.785230298494924
 31
0.0
  0
LINE
  5
2CA3
330
1E
100
AcDbEntity
  8
7
100
AcDbLine
 10
2.766201953080867
 20
2.785230298494924
 30
0.0
 11
2.784247909234411
 21
2.736014054439805
 31
0.0
  0
LINE
  5
2CA4
330
1E
100
AcDbEntity
  8
7
100
AcDbLine
 10
2.784247909234411
 20
2.736014054439805
 30
0.0
 11
2.789169533639922
 21
2.685157268916182
 31
0.0
  0
LINE
  5
2CA5
330
1E
100
AcDbEntity
  8
7
100
AcDbLine
 10
-1.65833838747425
 20
2.829524918144528
 30
0.0
 11
-1.62060593369866
 21
2.865616830451616
 31
0.0
  0
LINE
  5
2CA6
330
1E
100
AcDbEntity
  8
7
100
AcDbLine
 10
-1.62060593369866
 20
2.865616830451616
 30
0.0
 11
-1.576311314049053
 21
2.891865493947679
 31
0.0
  0
LINE
  5
2CA7
330
1E
100
AcDbEntity
  8
7
100
AcDbLine
 10
-1.576311314049053
 20
2.891865493947679
 30
0.0
 11
-1.527095069993935
 21
2.906630367164214
 31
0.0
  0
LINE
  5
2CA8
330
1E
100
AcDbEntity
  8
7
100
AcDbLine
 10
-1.710835714466376
 20
2.685157268916182
 30
0.0
 11
-1.70427354859236
 21
2.737654595908308
 31
0.0
  0
LINE
  5
2CA9
330
1E
100
AcDbEntity
  8
7
100
AcDbLine
 10
-1.70427354859236
 20
2.737654595908308
 30
0.0
 11
-1.686227592438816
 21
2.785230298494924
 31
0.0
  0
LINE
  5
2CAA
330
1E
100
AcDbEntity
  8
7
100
AcDbLine
 10
-1.686227592438816
 20
2.785230298494924
 30
0.0
 11
-1.65833838747425
 21
2.829524918144528
 31
0.0
  0
LINE
  5
2CB1
330
1E
100
AcDbEntity
  8
7
100
AcDbLine
 10
2.602147806230474
 20
2.904989825695711
 30
0.0
 11
2.564415352454883
 21
2.909911450101223
 31
0.0
  0
LINE
  5
2CB2
330
1E
100
AcDbEntity
  8
7
100
AcDbLine
 10
-1.486081533281335
 20
2.909911450101223
 30
0.0
 11
-1.522173445588423
 21
2.904989825695711
 31
0.0
  0
LINE
  5
2CB3
330
1E
100
AcDbEntity
  8
7
100
AcDbLine
 10
-1.522173445588423
 20
2.904989825695711
 30
0.0
 11
-1.556624816427006
 21
2.888584411010672
 31
0.0
  0
LINE
  5
2CB4
330
1E
100
AcDbEntity
  8
7
100
AcDbLine
 10
-1.556624816427006
 20
2.888584411010672
 30
0.0
 11
-1.587795104328581
 21
2.860695206046104
 31
0.0
  0
LINE
  5
2CB5
330
1E
100
AcDbEntity
  8
7
100
AcDbLine
 10
-1.587795104328581
 20
2.860695206046104
 30
0.0
 11
-1.614043767824643
 21
2.826243835207522
 31
0.0
  0
LINE
  5
2CB6
330
1E
100
AcDbEntity
  8
7
100
AcDbLine
 10
-1.614043767824643
 20
2.826243835207522
 30
0.0
 11
-1.633730265446691
 21
2.783589757026418
 31
0.0
  0
LINE
  5
2CB7
330
1E
100
AcDbEntity
  8
7
100
AcDbLine
 10
-1.633730265446691
 20
2.783589757026418
 30
0.0
 11
-1.646854597194722
 21
2.736014054439805
 31
0.0
  0
LINE
  5
2CB8
330
1E
100
AcDbEntity
  8
7
100
AcDbLine
 10
-1.65013568013173
 20
2.685157268916182
 30
0.0
 11
-1.681305968033305
 21
2.685157268916182
 31
0.0
  0
LINE
  5
2CB9
330
1E
100
AcDbEntity
  8
7
100
AcDbLine
 10
-1.681305968033305
 20
2.685157268916182
 30
0.0
 11
-1.702633007123856
 21
2.685157268916182
 31
0.0
  0
LINE
  5
2CBA
330
1E
100
AcDbEntity
  8
7
100
AcDbLine
 10
-1.702633007123856
 20
2.685157268916182
 30
0.0
 11
-1.710835714466376
 21
2.685157268916182
 31
0.0
  0
LINE
  5
2CBB
330
1E
100
AcDbEntity
  8
7
100
AcDbLine
 10
2.789169533639922
 20
2.685157268916182
 30
0.0
 11
2.780966826297403
 21
2.685157268916182
 31
0.0
  0
LINE
  5
2CBC
330
1E
100
AcDbEntity
  8
7
100
AcDbLine
 10
2.780966826297403
 20
2.685157268916182
 30
0.0
 11
2.759639787206852
 21
2.685157268916182
 31
0.0
  0
LINE
  5
2CBD
330
1E
100
AcDbEntity
  8
7
100
AcDbLine
 10
2.759639787206852
 20
2.685157268916182
 30
0.0
 11
2.730110040773781
 21
2.685157268916182
 31
0.0
  0
LINE
  5
2CBE
330
1E
100
AcDbEntity
  8
7
100
AcDbLine
 10
-0.0424050409978731
 20
2.567038283183899
 30
0.0
 11
-0.0506077483403926
 21
2.567038283183899
 31
0.0
  0
LINE
  5
2CBF
330
1E
100
AcDbEntity
  8
7
100
AcDbLine
 10
-0.0506077483403926
 20
2.567038283183899
 30
0.0
 11
-0.0538888312773995
 21
2.685157268916182
 31
0.0
  0
LINE
  5
2CC0
330
1E
100
AcDbEntity
  8
7
100
AcDbLine
 10
0.9796522938800805
 20
2.301270565286261
 30
0.0
 11
0.9944171670966159
 21
2.306192189691773
 31
0.0
  0
LINE
  5
2CC1
330
1E
100
AcDbEntity
  8
7
100
AcDbLine
 10
0.9944171670966159
 20
2.306192189691773
 30
0.0
 11
0.9993387915021276
 21
2.320957062908308
 31
0.0
  0
LINE
  5
2CC2
330
1E
100
AcDbEntity
  8
7
100
AcDbLine
 10
0.9074684692659072
 20
2.235648906546104
 30
0.0
 11
0.9271549668879544
 21
2.225805657735081
 31
0.0
  0
LINE
  5
2CC3
330
1E
100
AcDbEntity
  8
7
100
AcDbLine
 10
0.9271549668879544
 20
2.225805657735081
 30
0.0
 11
0.9468414645100015
 21
2.2340083650776
 31
0.0
  0
LINE
  5
2CC4
330
1E
100
AcDbEntity
  8
7
100
AcDbLine
 10
0.9468414645100015
 20
2.2340083650776
 30
0.0
 11
0.9566847133210254
 21
2.253694862699648
 31
0.0
  0
LINE
  5
2CC5
330
1E
100
AcDbEntity
  8
7
100
AcDbLine
 10
0.9566847133210254
 20
2.253694862699648
 30
0.0
 11
0.9796522938800805
 21
2.567038283183899
 31
0.0
  0
LINE
  5
2CC6
330
1E
100
AcDbEntity
  8
7
100
AcDbLine
 10
0.79591164940764
 20
2.38001655577445
 30
0.0
 11
0.8041143567501588
 21
2.347205726404371
 31
0.0
  0
LINE
  5
2CC7
330
1E
100
AcDbEntity
  8
7
100
AcDbLine
 10
0.8041143567501588
 20
2.347205726404371
 30
0.0
 11
0.8238008543722061
 21
2.317675979971301
 31
0.0
  0
LINE
  5
2CC8
330
1E
100
AcDbEntity
  8
7
100
AcDbLine
 10
0.8746576398958287
 20
2.386578721648466
 30
0.0
 11
0.8861414301753566
 21
2.391500346053978
 31
0.0
  0
LINE
  5
2CC9
330
1E
100
AcDbEntity
  8
7
100
AcDbLine
 10
0.8861414301753566
 20
2.391500346053978
 30
0.0
 11
0.8894225131123643
 21
2.401343594865002
 31
0.0
  0
LINE
  5
2CD0
330
1E
100
AcDbEntity
  8
7
100
AcDbLine
 10
2.739953289584804
 20
2.826243835207522
 30
0.0
 11
2.767842494549371
 21
2.783589757026418
 31
0.0
  0
LINE
  5
2CD1
330
1E
100
AcDbEntity
  8
7
100
AcDbLine
 10
2.767842494549371
 20
2.783589757026418
 30
0.0
 11
2.784247909234411
 21
2.736014054439805
 31
0.0
  0
LINE
  5
2CD2
330
1E
100
AcDbEntity
  8
7
100
AcDbLine
 10
2.784247909234411
 20
2.736014054439805
 30
0.0
 11
2.789169533639922
 21
2.685157268916182
 31
0.0
  0
LINE
  5
2CD3
330
1E
100
AcDbEntity
  8
7
100
AcDbLine
 10
2.564415352454883
 20
2.909911450101223
 30
0.0
 11
2.615272137978505
 21
2.904989825695711
 31
0.0
  0
LINE
  5
2CD4
330
1E
100
AcDbEntity
  8
7
100
AcDbLine
 10
2.615272137978505
 20
2.904989825695711
 30
0.0
 11
2.662847840565119
 21
2.888584411010672
 31
0.0
  0
LINE
  5
2CD5
330
1E
100
AcDbEntity
  8
7
100
AcDbLine
 10
2.662847840565119
 20
2.888584411010672
 30
0.0
 11
2.705501918746221
 21
2.860695206046104
 31
0.0
  0
LINE
  5
2CD6
330
1E
100
AcDbEntity
  8
7
100
AcDbLine
 10
2.705501918746221
 20
2.860695206046104
 30
0.0
 11
2.739953289584804
 21
2.826243835207522
 31
0.0
  0
LINE
  5
2CD7
330
1E
100
AcDbEntity
  8
7
100
AcDbLine
 10
2.589023474482442
 20
2.685157268916182
 30
0.0
 11
2.641520801474568
 21
2.685157268916182
 31
0.0
  0
LINE
  5
2CD8
330
1E
100
AcDbEntity
  8
7
100
AcDbLine
 10
2.641520801474568
 20
2.685157268916182
 30
0.0
 11
2.689096504061182
 21
2.685157268916182
 31
0.0
  0
LINE
  5
2CD9
330
1E
100
AcDbEntity
  8
7
100
AcDbLine
 10
2.689096504061182
 20
2.685157268916182
 30
0.0
 11
2.731750582242284
 21
2.685157268916182
 31
0.0
  0
LINE
  5
2CDA
330
1E
100
AcDbEntity
  8
7
100
AcDbLine
 10
2.731750582242284
 20
2.685157268916182
 30
0.0
 11
2.762920870143859
 21
2.685157268916182
 31
0.0
  0
LINE
  5
2CDB
330
1E
100
AcDbEntity
  8
7
100
AcDbLine
 10
2.762920870143859
 20
2.685157268916182
 30
0.0
 11
2.782607367765907
 21
2.685157268916182
 31
0.0
  0
LINE
  5
2CDC
330
1E
100
AcDbEntity
  8
7
100
AcDbLine
 10
2.782607367765907
 20
2.685157268916182
 30
0.0
 11
2.789169533639922
 21
2.685157268916182
 31
0.0
  0
LINE
  5
2CDD
330
1E
100
AcDbEntity
  8
7
100
AcDbLine
 10
2.780966826297403
 20
2.685157268916182
 30
0.0
 11
2.759639787206852
 21
2.685157268916182
 31
0.0
  0
LINE
  5
2CDE
330
1E
100
AcDbEntity
  8
7
100
AcDbLine
 10
2.759639787206852
 20
2.685157268916182
 30
0.0
 11
2.730110040773781
 21
2.685157268916182
 31
0.0
  0
LINE
  5
2D8F
330
1E
100
AcDbEntity
  8
7
100
AcDbLine
 10
-1.14977053223803
 20
6.151621391865002
 30
0.0
 11
-1.171097571328581
 21
6.115529479557914
 31
0.0
  0
LINE
  5
2D90
330
1E
100
AcDbEntity
  8
7
100
AcDbLine
 10
-1.171097571328581
 20
6.115529479557914
 30
0.0
 11
-1.171097571328581
 21
6.07615648431382
 31
0.0
  0
LINE
  5
2D91
330
1E
100
AcDbEntity
  8
7
100
AcDbLine
 10
-1.171097571328581
 20
6.07615648431382
 30
0.0
 11
-1.14977053223803
 21
6.040064572006734
 31
0.0
  0
LINE
  5
2D92
330
1E
100
AcDbEntity
  8
7
100
AcDbLine
 10
-1.051338044127793
 20
6.040064572006734
 30
0.0
 11
-1.030011005037241
 21
6.07615648431382
 31
0.0
  0
LINE
  5
2D93
330
1E
100
AcDbEntity
  8
7
100
AcDbLine
 10
-1.030011005037241
 20
6.07615648431382
 30
0.0
 11
-1.030011005037241
 21
6.115529479557914
 31
0.0
  0
LINE
  5
2D94
330
1E
100
AcDbEntity
  8
7
100
AcDbLine
 10
-1.030011005037241
 20
6.115529479557914
 30
0.0
 11
-1.051338044127793
 21
6.151621391865002
 31
0.0
  0
LINE
  5
2D95
330
1E
100
AcDbEntity
  8
7
100
AcDbLine
 10
2.131312404769844
 20
6.151621391865002
 30
0.0
 11
2.109985365679292
 21
6.115529479557914
 31
0.0
  0
LINE
  5
2D96
330
1E
100
AcDbEntity
  8
7
100
AcDbLine
 10
2.109985365679292
 20
6.115529479557914
 30
0.0
 11
2.109985365679292
 21
6.07615648431382
 31
0.0
  0
LINE
  5
2D97
330
1E
100
AcDbEntity
  8
7
100
AcDbLine
 10
2.109985365679292
 20
6.07615648431382
 30
0.0
 11
2.131312404769844
 21
6.040064572006734
 31
0.0
  0
LINE
  5
2D98
330
1E
100
AcDbEntity
  8
7
100
AcDbLine
 10
2.22974489288008
 20
6.040064572006734
 30
0.0
 11
2.251071931970631
 21
6.07615648431382
 31
0.0
  0
LINE
  5
2D99
330
1E
100
AcDbEntity
  8
7
100
AcDbLine
 10
2.251071931970631
 20
6.07615648431382
 30
0.0
 11
2.251071931970631
 21
6.115529479557914
 31
0.0
  0
LINE
  5
2D9A
330
1E
100
AcDbEntity
  8
7
100
AcDbLine
 10
2.251071931970631
 20
6.115529479557914
 30
0.0
 11
2.22974489288008
 21
6.151621391865002
 31
0.0
  0
LINE
  5
2D9B
330
1E
100
AcDbEntity
  8
7
100
AcDbLine
 10
-1.65013568013173
 20
7.470616732542167
 30
0.0
 11
-1.646854597194722
 21
7.46405456666815
 31
0.0
  0
LINE
  5
2D9C
330
1E
100
AcDbEntity
  8
7
100
AcDbLine
 10
-1.646854597194722
 20
7.46405456666815
 30
0.0
 11
-1.633730265446691
 21
7.447649151983112
 31
0.0
  0
LINE
  5
2D9D
330
1E
100
AcDbEntity
  8
7
100
AcDbLine
 10
-1.633730265446691
 20
7.447649151983112
 30
0.0
 11
-1.614043767824643
 21
7.421400488487049
 31
0.0
  0
LINE
  5
2D9E
330
1E
100
AcDbEntity
  8
7
100
AcDbLine
 10
-1.614043767824643
 20
7.421400488487049
 30
0.0
 11
-1.587795104328581
 21
7.385308576179962
 31
0.0
  0
LINE
  5
2D9F
330
1E
100
AcDbEntity
  8
7
100
AcDbLine
 10
-1.587795104328581
 20
7.385308576179962
 30
0.0
 11
-1.556624816427006
 21
7.34265449799886
 31
0.0
  0
LINE
  5
2DA0
330
1E
100
AcDbEntity
  8
7
100
AcDbLine
 10
-1.556624816427006
 20
7.34265449799886
 30
0.0
 11
-1.522173445588423
 21
7.295078795412245
 31
0.0
  0
LINE
  5
2DA1
330
1E
100
AcDbEntity
  8
7
100
AcDbLine
 10
-1.522173445588423
 20
7.295078795412245
 30
0.0
 11
-1.486081533281335
 21
7.245862551357127
 31
0.0
  0
LINE
  5
2DA2
330
1E
100
AcDbEntity
  8
7
100
AcDbLine
 10
2.636599177069056
 20
7.34265449799886
 30
0.0
 11
2.667769464970631
 21
7.385308576179962
 31
0.0
  0
LINE
  5
2DA3
330
1E
100
AcDbEntity
  8
7
100
AcDbLine
 10
2.667769464970631
 20
7.385308576179962
 30
0.0
 11
2.694018128466694
 21
7.421400488487049
 31
0.0
  0
LINE
  5
2DA4
330
1E
100
AcDbEntity
  8
7
100
AcDbLine
 10
2.694018128466694
 20
7.421400488487049
 30
0.0
 11
2.713704626088741
 21
7.447649151983112
 31
0.0
  0
LINE
  5
2DA5
330
1E
100
AcDbEntity
  8
7
100
AcDbLine
 10
2.713704626088741
 20
7.447649151983112
 30
0.0
 11
2.725188416368268
 21
7.46405456666815
 31
0.0
  0
LINE
  5
2DA6
330
1E
100
AcDbEntity
  8
7
100
AcDbLine
 10
2.725188416368268
 20
7.46405456666815
 30
0.0
 11
2.730110040773781
 21
7.470616732542167
 31
0.0
  0
LINE
  5
2DA7
330
1E
100
AcDbEntity
  8
7
100
AcDbLine
 10
2.564415352454883
 20
7.245862551357127
 30
0.0
 11
2.602147806230474
 21
7.295078795412245
 31
0.0
  0
LINE
  5
2DA8
330
1E
100
AcDbEntity
  8
7
100
AcDbLine
 10
2.602147806230474
 20
7.295078795412245
 30
0.0
 11
2.636599177069056
 21
7.34265449799886
 31
0.0
  0
LINE
  5
2DA9
330
1E
100
AcDbEntity
  8
7
100
AcDbLine
 10
2.564415352454883
 20
4.945823412514608
 30
0.0
 11
2.615272137978505
 21
4.908090958739018
 31
0.0
  0
LINE
  5
2DAA
330
1E
100
AcDbEntity
  8
7
100
AcDbLine
 10
2.615272137978505
 20
4.908090958739018
 30
0.0
 11
2.662847840565119
 21
4.873639587900434
 31
0.0
  0
LINE
  5
2DAB
330
1E
100
AcDbEntity
  8
7
100
AcDbLine
 10
2.662847840565119
 20
4.873639587900434
 30
0.0
 11
2.705501918746221
 21
4.84246929999886
 31
0.0
  0
LINE
  5
2DAC
330
1E
100
AcDbEntity
  8
7
100
AcDbLine
 10
2.705501918746221
 20
4.84246929999886
 30
0.0
 11
2.739953289584804
 21
4.816220636502798
 31
0.0
  0
LINE
  5
2DAD
330
1E
100
AcDbEntity
  8
7
100
AcDbLine
 10
2.739953289584804
 20
4.816220636502798
 30
0.0
 11
2.767842494549371
 21
4.79653413888075
 31
0.0
  0
LINE
  5
2DAE
330
1E
100
AcDbEntity
  8
7
100
AcDbLine
 10
2.767842494549371
 20
4.79653413888075
 30
0.0
 11
2.784247909234411
 21
4.785050348601222
 31
0.0
  0
LINE
  5
2DAF
330
1E
100
AcDbEntity
  8
7
100
AcDbLine
 10
2.784247909234411
 20
4.785050348601222
 30
0.0
 11
2.789169533639922
 21
4.78012872419571
 31
0.0
  0
LINE
  5
2DB0
330
1E
100
AcDbEntity
  8
7
100
AcDbLine
 10
2.789169533639922
 20
7.409916698207521
 30
0.0
 11
2.784247909234411
 21
7.406635615270513
 31
0.0
  0
LINE
  5
2DB1
330
1E
100
AcDbEntity
  8
7
100
AcDbLine
 10
2.784247909234411
 20
7.406635615270513
 30
0.0
 11
2.767842494549371
 21
7.393511283522481
 31
0.0
  0
LINE
  5
2DB2
330
1E
100
AcDbEntity
  8
7
100
AcDbLine
 10
2.767842494549371
 20
7.393511283522481
 30
0.0
 11
2.739953289584804
 21
7.373824785900434
 31
0.0
  0
LINE
  5
2DB3
330
1E
100
AcDbEntity
  8
7
100
AcDbLine
 10
2.739953289584804
 20
7.373824785900434
 30
0.0
 11
2.705501918746221
 21
7.347576122404371
 31
0.0
  0
LINE
  5
2DB4
330
1E
100
AcDbEntity
  8
7
100
AcDbLine
 10
2.705501918746221
 20
7.347576122404371
 30
0.0
 11
2.662847840565119
 21
7.316405834502797
 31
0.0
  0
LINE
  5
2DB5
330
1E
100
AcDbEntity
  8
7
100
AcDbLine
 10
2.662847840565119
 20
7.316405834502797
 30
0.0
 11
2.615272137978505
 21
7.281954463664213
 31
0.0
  0
LINE
  5
2DB6
330
1E
100
AcDbEntity
  8
7
100
AcDbLine
 10
-1.68786813390732
 20
4.79653413888075
 30
0.0
 11
-1.661619470411257
 21
4.816220636502798
 31
0.0
  0
LINE
  5
2DB7
330
1E
100
AcDbEntity
  8
7
100
AcDbLine
 10
-1.661619470411257
 20
4.816220636502798
 30
0.0
 11
-1.625527558104171
 21
4.84246929999886
 31
0.0
  0
LINE
  5
2DB8
330
1E
100
AcDbEntity
  8
7
100
AcDbLine
 10
-1.625527558104171
 20
4.84246929999886
 30
0.0
 11
-1.582873479923068
 21
4.873639587900434
 31
0.0
  0
LINE
  5
2DB9
330
1E
100
AcDbEntity
  8
7
100
AcDbLine
 10
-1.582873479923068
 20
4.873639587900434
 30
0.0
 11
-1.535297777336455
 21
4.908090958739018
 31
0.0
  0
LINE
  5
2DBA
330
1E
100
AcDbEntity
  8
7
100
AcDbLine
 10
-1.535297777336455
 20
4.908090958739018
 30
0.0
 11
-1.486081533281335
 21
4.945823412514608
 31
0.0
  0
LINE
  5
2DBB
330
1E
100
AcDbEntity
  8
7
100
AcDbLine
 10
-1.710835714466376
 20
4.78012872419571
 30
0.0
 11
-1.70427354859236
 21
4.785050348601222
 31
0.0
  0
LINE
  5
2DBC
330
1E
100
AcDbEntity
  8
7
100
AcDbLine
 10
-1.70427354859236
 20
4.785050348601222
 30
0.0
 11
-1.68786813390732
 21
4.79653413888075
 31
0.0
  0
LINE
  5
2DBD
330
1E
100
AcDbEntity
  8
7
100
AcDbLine
 10
-1.486081533281335
 20
7.245862551357127
 30
0.0
 11
-1.535297777336455
 21
7.281954463664213
 31
0.0
  0
LINE
  5
2DBE
330
1E
100
AcDbEntity
  8
7
100
AcDbLine
 10
-1.535297777336455
 20
7.281954463664213
 30
0.0
 11
-1.582873479923068
 21
7.316405834502797
 31
0.0
  0
LINE
  5
2DBF
330
1E
100
AcDbEntity
  8
7
100
AcDbLine
 10
-1.582873479923068
 20
7.316405834502797
 30
0.0
 11
-1.625527558104171
 21
7.347576122404371
 31
0.0
  0
LINE
  5
2DC0
330
1E
100
AcDbEntity
  8
7
100
AcDbLine
 10
-1.625527558104171
 20
7.347576122404371
 30
0.0
 11
-1.661619470411257
 21
7.373824785900434
 31
0.0
  0
LINE
  5
2DC1
330
1E
100
AcDbEntity
  8
7
100
AcDbLine
 10
-1.661619470411257
 20
7.373824785900434
 30
0.0
 11
-1.68786813390732
 21
7.393511283522481
 31
0.0
  0
LINE
  5
2DC2
330
1E
100
AcDbEntity
  8
7
100
AcDbLine
 10
-1.68786813390732
 20
7.393511283522481
 30
0.0
 11
-1.70427354859236
 21
7.406635615270513
 31
0.0
  0
LINE
  5
2DC3
330
1E
100
AcDbEntity
  8
7
100
AcDbLine
 10
-1.70427354859236
 20
7.406635615270513
 30
0.0
 11
-1.710835714466376
 21
7.409916698207521
 31
0.0
  0
LINE
  5
2DC4
330
1E
100
AcDbEntity
  8
7
100
AcDbLine
 10
2.636599177069056
 20
4.847390924404371
 30
0.0
 11
2.602147806230474
 21
4.894966626990986
 31
0.0
  0
LINE
  5
2DC5
330
1E
100
AcDbEntity
  8
7
100
AcDbLine
 10
2.602147806230474
 20
4.894966626990986
 30
0.0
 11
2.564415352454883
 21
4.945823412514608
 31
0.0
  0
LINE
  5
2DC6
330
1E
100
AcDbEntity
  8
7
100
AcDbLine
 10
2.730110040773781
 20
4.719428689861064
 30
0.0
 11
2.725188416368268
 21
4.725990855735081
 31
0.0
  0
LINE
  5
2DC7
330
1E
100
AcDbEntity
  8
7
100
AcDbLine
 10
2.725188416368268
 20
4.725990855735081
 30
0.0
 11
2.713704626088741
 21
4.742396270420119
 31
0.0
  0
LINE
  5
2DC8
330
1E
100
AcDbEntity
  8
7
100
AcDbLine
 10
2.713704626088741
 20
4.742396270420119
 30
0.0
 11
2.694018128466694
 21
4.768644933916182
 31
0.0
  0
LINE
  5
2DC9
330
1E
100
AcDbEntity
  8
7
100
AcDbLine
 10
2.694018128466694
 20
4.768644933916182
 30
0.0
 11
2.667769464970631
 21
4.80473684622327
 31
0.0
  0
LINE
  5
2DCA
330
1E
100
AcDbEntity
  8
7
100
AcDbLine
 10
2.667769464970631
 20
4.80473684622327
 30
0.0
 11
2.636599177069056
 21
4.847390924404371
 31
0.0
  0
LINE
  5
2DCB
330
1E
100
AcDbEntity
  8
7
100
AcDbLine
 10
-1.486081533281335
 20
4.945823412514608
 30
0.0
 11
-1.522173445588423
 21
4.894966626990986
 31
0.0
  0
LINE
  5
2DCC
330
1E
100
AcDbEntity
  8
7
100
AcDbLine
 10
-1.522173445588423
 20
4.894966626990986
 30
0.0
 11
-1.556624816427006
 21
4.847390924404371
 31
0.0
  0
LINE
  5
2DCD
330
1E
100
AcDbEntity
  8
7
100
AcDbLine
 10
-1.556624816427006
 20
4.847390924404371
 30
0.0
 11
-1.587795104328581
 21
4.80473684622327
 31
0.0
  0
LINE
  5
2DCE
330
1E
100
AcDbEntity
  8
7
100
AcDbLine
 10
-1.587795104328581
 20
4.80473684622327
 30
0.0
 11
-1.614043767824643
 21
4.768644933916182
 31
0.0
  0
LINE
  5
2DCF
330
1E
100
AcDbEntity
  8
7
100
AcDbLine
 10
-1.614043767824643
 20
4.768644933916182
 30
0.0
 11
-1.633730265446691
 21
4.742396270420119
 31
0.0
  0
LINE
  5
2DD0
330
1E
100
AcDbEntity
  8
7
100
AcDbLine
 10
-1.633730265446691
 20
4.742396270420119
 30
0.0
 11
-1.646854597194722
 21
4.725990855735081
 31
0.0
  0
LINE
  5
2DD1
330
1E
100
AcDbEntity
  8
7
100
AcDbLine
 10
-1.646854597194722
 20
4.725990855735081
 30
0.0
 11
-1.65013568013173
 21
4.719428689861064
 31
0.0
  0
LINE
  5
2DD2
330
1E
100
AcDbEntity
  8
7
100
AcDbLine
 10
2.564415352454883
 20
4.945823412514608
 30
0.0
 11
2.564415352454883
 21
7.245862551357127
 31
0.0
  0
LINE
  5
2DD3
330
1E
100
AcDbEntity
  8
7
100
AcDbLine
 10
2.564415352454883
 20
7.245862551357127
 30
0.0
 11
-1.486081533281335
 21
7.245862551357127
 31
0.0
  0
LINE
  5
2DD4
330
1E
100
AcDbEntity
  8
7
100
AcDbLine
 10
-1.486081533281335
 20
7.245862551357127
 30
0.0
 11
-1.486081533281335
 21
4.945823412514608
 31
0.0
  0
LINE
  5
2DD5
330
1E
100
AcDbEntity
  8
7
100
AcDbLine
 10
-1.486081533281335
 20
4.945823412514608
 30
0.0
 11
2.564415352454883
 21
4.945823412514608
 31
0.0
  0
LINE
  5
2DD6
330
1E
100
AcDbEntity
  8
7
100
AcDbLine
 10
2.147717819454883
 20
5.948194249770512
 30
0.0
 11
2.19201243910449
 21
5.944913166833505
 31
0.0
  0
LINE
  5
2DD7
330
1E
100
AcDbEntity
  8
7
100
AcDbLine
 10
2.19201243910449
 20
5.944913166833505
 30
0.0
 11
2.236307058754095
 21
5.954756415644528
 31
0.0
  0
LINE
  5
2DD8
330
1E
100
AcDbEntity
  8
7
100
AcDbLine
 10
2.236307058754095
 20
5.954756415644528
 30
0.0
 11
2.274039512529686
 21
5.977723996203584
 31
0.0
  0
LINE
  5
2DD9
330
1E
100
AcDbEntity
  8
7
100
AcDbLine
 10
2.274039512529686
 20
5.977723996203584
 30
0.0
 11
2.305209800431261
 21
6.010534825573663
 31
0.0
  0
LINE
  5
2DDA
330
1E
100
AcDbEntity
  8
7
100
AcDbLine
 10
2.305209800431261
 20
6.010534825573663
 30
0.0
 11
2.324896298053308
 21
6.05154836228626
 31
0.0
  0
LINE
  5
2DDB
330
1E
100
AcDbEntity
  8
7
100
AcDbLine
 10
2.324896298053308
 20
6.05154836228626
 30
0.0
 11
2.331458463927324
 21
6.095842981935867
 31
0.0
  0
LINE
  5
2DDC
330
1E
100
AcDbEntity
  8
7
100
AcDbLine
 10
2.305209800431261
 20
6.181151138298072
 30
0.0
 11
2.274039512529686
 21
6.213961967668151
 31
0.0
  0
LINE
  5
2DDD
330
1E
100
AcDbEntity
  8
7
100
AcDbLine
 10
2.274039512529686
 20
6.213961967668151
 30
0.0
 11
2.236307058754095
 21
6.236929548227206
 31
0.0
  0
LINE
  5
2DDE
330
1E
100
AcDbEntity
  8
7
100
AcDbLine
 10
2.236307058754095
 20
6.236929548227206
 30
0.0
 11
2.19201243910449
 21
6.24677279703823
 31
0.0
  0
LINE
  5
2DDF
330
1E
100
AcDbEntity
  8
7
100
AcDbLine
 10
2.19201243910449
 20
6.24677279703823
 30
0.0
 11
2.147717819454883
 21
6.243491714101222
 31
0.0
  0
LINE
  5
2DE0
330
1E
100
AcDbEntity
  8
7
100
AcDbLine
 10
2.147717819454883
 20
6.243491714101222
 30
0.0
 11
2.105063741273781
 21
6.227086299416182
 31
0.0
  0
LINE
  5
2DE1
330
1E
100
AcDbEntity
  8
7
100
AcDbLine
 10
2.105063741273781
 20
6.227086299416182
 30
0.0
 11
2.070612370435198
 21
6.199197094451616
 31
0.0
  0
LINE
  5
2DE2
330
1E
100
AcDbEntity
  8
7
100
AcDbLine
 10
2.070612370435198
 20
6.199197094451616
 30
0.0
 11
2.044363706939135
 21
6.161464640676024
 31
0.0
  0
LINE
  5
2DE3
330
1E
100
AcDbEntity
  8
7
100
AcDbLine
 10
2.044363706939135
 20
6.161464640676024
 30
0.0
 11
2.031239375191103
 21
6.118810562494923
 31
0.0
  0
LINE
  5
2DE4
330
1E
100
AcDbEntity
  8
7
100
AcDbLine
 10
2.031239375191103
 20
6.118810562494923
 30
0.0
 11
2.031239375191103
 21
6.072875401376813
 31
0.0
  0
LINE
  5
2DE5
330
1E
100
AcDbEntity
  8
7
100
AcDbLine
 10
2.031239375191103
 20
6.072875401376813
 30
0.0
 11
2.044363706939135
 21
6.03022132319571
 31
0.0
  0
LINE
  5
2DE6
330
1E
100
AcDbEntity
  8
7
100
AcDbLine
 10
2.044363706939135
 20
6.03022132319571
 30
0.0
 11
2.070612370435198
 21
5.992488869420119
 31
0.0
  0
LINE
  5
2DE7
330
1E
100
AcDbEntity
  8
7
100
AcDbLine
 10
2.070612370435198
 20
5.992488869420119
 30
0.0
 11
2.105063741273781
 21
5.964599664455553
 31
0.0
  0
LINE
  5
2DE8
330
1E
100
AcDbEntity
  8
7
100
AcDbLine
 10
2.105063741273781
 20
5.964599664455553
 30
0.0
 11
2.147717819454883
 21
5.948194249770512
 31
0.0
  0
LINE
  5
2DE9
330
1E
100
AcDbEntity
  8
7
100
AcDbLine
 10
2.331458463927324
 20
6.095842981935867
 30
0.0
 11
2.324896298053308
 21
6.140137601585474
 31
0.0
  0
LINE
  5
2DEA
330
1E
100
AcDbEntity
  8
7
100
AcDbLine
 10
2.324896298053308
 20
6.140137601585474
 30
0.0
 11
2.305209800431261
 21
6.181151138298072
 31
0.0
  0
LINE
  5
2DEB
330
1E
100
AcDbEntity
  8
7
100
AcDbLine
 10
-1.236719230068738
 20
6.03022132319571
 30
0.0
 11
-1.210470566572675
 21
5.992488869420119
 31
0.0
  0
LINE
  5
2DEC
330
1E
100
AcDbEntity
  8
7
100
AcDbLine
 10
-1.210470566572675
 20
5.992488869420119
 30
0.0
 11
-1.176019195734093
 21
5.964599664455553
 31
0.0
  0
LINE
  5
2DED
330
1E
100
AcDbEntity
  8
7
100
AcDbLine
 10
-1.176019195734093
 20
5.964599664455553
 30
0.0
 11
-1.133365117552989
 21
5.948194249770512
 31
0.0
  0
LINE
  5
2DEE
330
1E
100
AcDbEntity
  8
7
100
AcDbLine
 10
-1.133365117552989
 20
5.948194249770512
 30
0.0
 11
-1.089070497903383
 21
5.944913166833505
 31
0.0
  0
LINE
  5
2DEF
330
1E
100
AcDbEntity
  8
7
100
AcDbLine
 10
-1.089070497903383
 20
5.944913166833505
 30
0.0
 11
-1.044775878253777
 21
5.954756415644528
 31
0.0
  0
LINE
  5
2DF0
330
1E
100
AcDbEntity
  8
7
100
AcDbLine
 10
-1.044775878253777
 20
5.954756415644528
 30
0.0
 11
-1.007043424478188
 21
5.977723996203584
 31
0.0
  0
LINE
  5
2DF1
330
1E
100
AcDbEntity
  8
7
100
AcDbLine
 10
-1.007043424478188
 20
5.977723996203584
 30
0.0
 11
-0.9758731365766122
 21
6.010534825573663
 31
0.0
  0
LINE
  5
2DF2
330
1E
100
AcDbEntity
  8
7
100
AcDbLine
 10
-0.9758731365766122
 20
6.010534825573663
 30
0.0
 11
-0.9561866389545654
 21
6.05154836228626
 31
0.0
  0
LINE
  5
2DF3
330
1E
100
AcDbEntity
  8
7
100
AcDbLine
 10
-0.9561866389545654
 20
6.05154836228626
 30
0.0
 11
-0.9496244730805498
 21
6.095842981935867
 31
0.0
  0
LINE
  5
2DF4
330
1E
100
AcDbEntity
  8
7
100
AcDbLine
 10
-0.9496244730805498
 20
6.095842981935867
 30
0.0
 11
-0.9561866389545654
 21
6.140137601585474
 31
0.0
  0
LINE
  5
2DF5
330
1E
100
AcDbEntity
  8
7
100
AcDbLine
 10
-0.9561866389545654
 20
6.140137601585474
 30
0.0
 11
-0.9758731365766122
 21
6.181151138298072
 31
0.0
  0
LINE
  5
2DF6
330
1E
100
AcDbEntity
  8
7
100
AcDbLine
 10
-0.9758731365766122
 20
6.181151138298072
 30
0.0
 11
-1.007043424478188
 21
6.213961967668151
 31
0.0
  0
LINE
  5
2DF7
330
1E
100
AcDbEntity
  8
7
100
AcDbLine
 10
-1.007043424478188
 20
6.213961967668151
 30
0.0
 11
-1.044775878253777
 21
6.236929548227206
 31
0.0
  0
LINE
  5
2DF8
330
1E
100
AcDbEntity
  8
7
100
AcDbLine
 10
-1.044775878253777
 20
6.236929548227206
 30
0.0
 11
-1.089070497903383
 21
6.24677279703823
 31
0.0
  0
LINE
  5
2DF9
330
1E
100
AcDbEntity
  8
7
100
AcDbLine
 10
-1.089070497903383
 20
6.24677279703823
 30
0.0
 11
-1.133365117552989
 21
6.243491714101222
 31
0.0
  0
LINE
  5
2DFA
330
1E
100
AcDbEntity
  8
7
100
AcDbLine
 10
-1.133365117552989
 20
6.243491714101222
 30
0.0
 11
-1.176019195734093
 21
6.227086299416182
 31
0.0
  0
LINE
  5
2DFB
330
1E
100
AcDbEntity
  8
7
100
AcDbLine
 10
-1.176019195734093
 20
6.227086299416182
 30
0.0
 11
-1.210470566572675
 21
6.199197094451616
 31
0.0
  0
LINE
  5
2DFC
330
1E
100
AcDbEntity
  8
7
100
AcDbLine
 10
-1.210470566572675
 20
6.199197094451616
 30
0.0
 11
-1.236719230068738
 21
6.161464640676024
 31
0.0
  0
LINE
  5
2DFD
330
1E
100
AcDbEntity
  8
7
100
AcDbLine
 10
-1.236719230068738
 20
6.161464640676024
 30
0.0
 11
-1.24984356181677
 21
6.118810562494923
 31
0.0
  0
LINE
  5
2DFE
330
1E
100
AcDbEntity
  8
7
100
AcDbLine
 10
-1.24984356181677
 20
6.118810562494923
 30
0.0
 11
-1.24984356181677
 21
6.072875401376813
 31
0.0
  0
LINE
  5
2DFF
330
1E
100
AcDbEntity
  8
7
100
AcDbLine
 10
-1.24984356181677
 20
6.072875401376813
 30
0.0
 11
-1.236719230068738
 21
6.03022132319571
 31
0.0
  0
LINE
  5
2E00
330
1E
100
AcDbEntity
  8
7
100
AcDbLine
 10
2.22974489288008
 20
6.151621391865002
 30
0.0
 11
2.198574604978505
 21
6.168026806550041
 31
0.0
  0
LINE
  5
2E01
330
1E
100
AcDbEntity
  8
7
100
AcDbLine
 10
2.198574604978505
 20
6.168026806550041
 30
0.0
 11
2.162482692671419
 21
6.168026806550041
 31
0.0
  0
LINE
  5
2E02
330
1E
100
AcDbEntity
  8
7
100
AcDbLine
 10
2.162482692671419
 20
6.168026806550041
 30
0.0
 11
2.131312404769844
 21
6.151621391865002
 31
0.0
  0
LINE
  5
2E03
330
1E
100
AcDbEntity
  8
7
100
AcDbLine
 10
2.131312404769844
 20
6.040064572006734
 30
0.0
 11
2.162482692671419
 21
6.023659157321694
 31
0.0
  0
LINE
  5
2E04
330
1E
100
AcDbEntity
  8
7
100
AcDbLine
 10
2.162482692671419
 20
6.023659157321694
 30
0.0
 11
2.198574604978505
 21
6.023659157321694
 31
0.0
  0
LINE
  5
2E05
330
1E
100
AcDbEntity
  8
7
100
AcDbLine
 10
2.198574604978505
 20
6.023659157321694
 30
0.0
 11
2.22974489288008
 21
6.040064572006734
 31
0.0
  0
LINE
  5
2E06
330
1E
100
AcDbEntity
  8
7
100
AcDbLine
 10
-1.051338044127793
 20
6.151621391865002
 30
0.0
 11
-1.082508332029368
 21
6.168026806550041
 31
0.0
  0
LINE
  5
2E07
330
1E
100
AcDbEntity
  8
7
100
AcDbLine
 10
-1.082508332029368
 20
6.168026806550041
 30
0.0
 11
-1.118600244336454
 21
6.168026806550041
 31
0.0
  0
LINE
  5
2E08
330
1E
100
AcDbEntity
  8
7
100
AcDbLine
 10
-1.14977053223803
 20
6.040064572006734
 30
0.0
 11
-1.118600244336454
 21
6.023659157321694
 31
0.0
  0
LINE
  5
2E09
330
1E
100
AcDbEntity
  8
7
100
AcDbLine
 10
-1.118600244336454
 20
6.023659157321694
 30
0.0
 11
-1.082508332029368
 21
6.023659157321694
 31
0.0
  0
LINE
  5
2E0A
330
1E
100
AcDbEntity
  8
7
100
AcDbLine
 10
-1.082508332029368
 20
6.023659157321694
 30
0.0
 11
-1.051338044127793
 21
6.040064572006734
 31
0.0
  0
LINE
  5
2E0B
330
1E
100
AcDbEntity
  8
7
100
AcDbLine
 10
0.1757869743131515
 20
6.725810905841379
 30
0.0
 11
0.1757869743131515
 21
5.464234516561852
 31
0.0
  0
LINE
  5
2E0C
330
1E
100
AcDbEntity
  8
7
100
AcDbLine
 10
0.1757869743131515
 20
5.464234516561852
 30
0.0
 11
0.1774275157816545
 21
5.465875058030356
 31
0.0
  0
LINE
  5
2E0D
330
1E
100
AcDbEntity
  8
7
100
AcDbLine
 10
0.1774275157816545
 20
5.465875058030356
 30
0.0
 11
0.1774275157816545
 21
5.690629239215395
 31
0.0
  0
LINE
  5
2E0E
330
1E
100
AcDbEntity
  8
7
100
AcDbLine
 10
0.1774275157816545
 20
5.690629239215395
 30
0.0
 11
0.1774275157816545
 21
5.864526634876813
 31
0.0
  0
LINE
  5
2E0F
330
1E
100
AcDbEntity
  8
7
100
AcDbLine
 10
0.1774275157816545
 20
5.864526634876813
 30
0.0
 11
0.1774275157816545
 21
6.325518787526418
 31
0.0
  0
LINE
  5
2E10
330
1E
100
AcDbEntity
  8
7
100
AcDbLine
 10
0.8746576398958287
 20
6.515821597872876
 30
0.0
 11
0.8861414301753566
 21
6.515821597872876
 31
0.0
  0
LINE
  5
2E11
330
1E
100
AcDbEntity
  8
7
100
AcDbLine
 10
0.8861414301753566
 20
6.515821597872876
 30
0.0
 11
0.8894225131123643
 21
6.515821597872876
 31
0.0
  0
LINE
  5
2E12
330
1E
100
AcDbEntity
  8
7
100
AcDbLine
 10
0.8894225131123643
 20
6.309113372841379
 30
0.0
 11
0.8861414301753566
 21
6.310753914309883
 31
0.0
  0
LINE
  5
2E13
330
1E
100
AcDbEntity
  8
7
100
AcDbLine
 10
0.8861414301753566
 20
6.310753914309883
 30
0.0
 11
0.8746576398958287
 21
6.310753914309883
 31
0.0
  0
LINE
  5
2E14
330
1E
100
AcDbEntity
  8
7
100
AcDbLine
 10
0.8894225131123643
 20
5.880932049561852
 30
0.0
 11
0.8861414301753566
 21
5.880932049561852
 31
0.0
  0
LINE
  5
2E15
330
1E
100
AcDbEntity
  8
7
100
AcDbLine
 10
0.8861414301753566
 20
5.880932049561852
 30
0.0
 11
0.8746576398958287
 21
5.880932049561852
 31
0.0
  0
LINE
  5
2E16
330
1E
100
AcDbEntity
  8
7
100
AcDbLine
 10
2.726828957836773
 20
4.724350314266576
 30
0.0
 11
2.733391123710789
 21
4.724350314266576
 31
0.0
  0
LINE
  5
2E17
330
1E
100
AcDbEntity
  8
7
100
AcDbLine
 10
2.733391123710789
 20
4.724350314266576
 30
0.0
 11
2.741593831053308
 21
4.724350314266576
 31
0.0
  0
LINE
  5
2E18
330
1E
100
AcDbEntity
  8
7
100
AcDbLine
 10
2.741593831053308
 20
4.724350314266576
 30
0.0
 11
2.748155996927324
 21
4.725990855735081
 31
0.0
  0
LINE
  5
2E19
330
1E
100
AcDbEntity
  8
7
100
AcDbLine
 10
2.748155996927324
 20
4.725990855735081
 30
0.0
 11
2.769483036017875
 21
4.740755728951616
 31
0.0
  0
LINE
  5
2E1A
330
1E
100
AcDbEntity
  8
7
100
AcDbLine
 10
2.769483036017875
 20
4.740755728951616
 30
0.0
 11
2.784247909234411
 21
4.762082768042167
 31
0.0
  0
LINE
  5
2E1B
330
1E
100
AcDbEntity
  8
7
100
AcDbLine
 10
2.784247909234411
 20
4.762082768042167
 30
0.0
 11
2.787528992171419
 21
4.776847641258703
 31
0.0
  0
LINE
  5
2E1C
330
1E
100
AcDbEntity
  8
7
100
AcDbLine
 10
2.787528992171419
 20
4.776847641258703
 30
0.0
 11
2.787528992171419
 21
4.781769265664213
 31
0.0
  0
LINE
  5
2E1D
330
1E
100
AcDbEntity
  8
7
100
AcDbLine
 10
-1.691149216844329
 20
4.740755728951616
 30
0.0
 11
-1.668181636285273
 21
4.725990855735081
 31
0.0
  0
LINE
  5
2E1E
330
1E
100
AcDbEntity
  8
7
100
AcDbLine
 10
-1.668181636285273
 20
4.725990855735081
 30
0.0
 11
-1.661619470411257
 21
4.724350314266576
 31
0.0
  0
LINE
  5
2E1F
330
1E
100
AcDbEntity
  8
7
100
AcDbLine
 10
-1.661619470411257
 20
4.724350314266576
 30
0.0
 11
-1.653416763068737
 21
4.724350314266576
 31
0.0
  0
LINE
  5
2E20
330
1E
100
AcDbEntity
  8
7
100
AcDbLine
 10
-1.653416763068737
 20
4.724350314266576
 30
0.0
 11
-1.646854597194722
 21
4.724350314266576
 31
0.0
  0
LINE
  5
2E21
330
1E
100
AcDbEntity
  8
7
100
AcDbLine
 10
-1.70427354859236
 20
4.783409807132718
 30
0.0
 11
-1.70427354859236
 21
4.778488182727206
 31
0.0
  0
LINE
  5
2E22
330
1E
100
AcDbEntity
  8
7
100
AcDbLine
 10
-1.70427354859236
 20
4.778488182727206
 30
0.0
 11
-1.702633007123856
 21
4.775207099790198
 31
0.0
  0
LINE
  5
2E23
330
1E
100
AcDbEntity
  8
7
100
AcDbLine
 10
-1.702633007123856
 20
4.775207099790198
 30
0.0
 11
-1.702633007123856
 21
4.771926016853191
 31
0.0
  0
LINE
  5
2E24
330
1E
100
AcDbEntity
  8
7
100
AcDbLine
 10
-1.702633007123856
 20
4.771926016853191
 30
0.0
 11
-1.700992465655351
 21
4.768644933916182
 31
0.0
  0
LINE
  5
2E25
330
1E
100
AcDbEntity
  8
7
100
AcDbLine
 10
-1.700992465655351
 20
4.768644933916182
 30
0.0
 11
-1.700992465655351
 21
4.763723309510671
 31
0.0
  0
LINE
  5
2E26
330
1E
100
AcDbEntity
  8
7
100
AcDbLine
 10
-1.700992465655351
 20
4.763723309510671
 30
0.0
 11
-1.697711382718344
 21
4.75059897776264
 31
0.0
  0
LINE
  5
2E27
330
1E
100
AcDbEntity
  8
7
100
AcDbLine
 10
-1.697711382718344
 20
4.75059897776264
 30
0.0
 11
-1.694430299781336
 21
4.745677353357128
 31
0.0
  0
LINE
  5
2E28
330
1E
100
AcDbEntity
  8
7
100
AcDbLine
 10
-1.694430299781336
 20
4.745677353357128
 30
0.0
 11
-1.691149216844329
 21
4.740755728951616
 31
0.0
  0
LINE
  5
2E29
330
1E
100
AcDbEntity
  8
7
100
AcDbLine
 10
-1.691149216844329
 20
7.437805903172088
 30
0.0
 11
-1.692789758312832
 21
7.436165361703584
 31
0.0
  0
LINE
  5
2E2A
330
1E
100
AcDbEntity
  8
7
100
AcDbLine
 10
-1.692789758312832
 20
7.436165361703584
 30
0.0
 11
-1.694430299781336
 21
7.432884278766575
 31
0.0
  0
LINE
  5
2E2B
330
1E
100
AcDbEntity
  8
7
100
AcDbLine
 10
-1.694430299781336
 20
7.432884278766575
 30
0.0
 11
-1.696070841249841
 21
7.431243737298071
 31
0.0
  0
LINE
  5
2E2C
330
1E
100
AcDbEntity
  8
7
100
AcDbLine
 10
-1.696070841249841
 20
7.431243737298071
 30
0.0
 11
-1.700992465655351
 21
7.42632211289256
 31
0.0
  0
LINE
  5
2E2D
330
1E
100
AcDbEntity
  8
7
100
AcDbLine
 10
-1.700992465655351
 20
7.42632211289256
 30
0.0
 11
-1.70427354859236
 21
7.421400488487049
 31
0.0
  0
LINE
  5
2E2E
330
1E
100
AcDbEntity
  8
7
100
AcDbLine
 10
-1.70427354859236
 20
7.421400488487049
 30
0.0
 11
-1.707554631529367
 21
7.413197781144528
 31
0.0
  0
LINE
  5
2E2F
330
1E
100
AcDbEntity
  8
7
100
AcDbLine
 10
-1.707554631529367
 20
7.413197781144528
 30
0.0
 11
-1.707554631529367
 21
7.408276156739018
 31
0.0
  0
LINE
  5
2E30
330
1E
100
AcDbEntity
  8
7
100
AcDbLine
 10
-1.646854597194722
 20
7.465695108136656
 30
0.0
 11
-1.653416763068737
 21
7.465695108136656
 31
0.0
  0
LINE
  5
2E31
330
1E
100
AcDbEntity
  8
7
100
AcDbLine
 10
-1.653416763068737
 20
7.465695108136656
 30
0.0
 11
-1.661619470411257
 21
7.465695108136656
 31
0.0
  0
LINE
  5
2E32
330
1E
100
AcDbEntity
  8
7
100
AcDbLine
 10
-1.661619470411257
 20
7.465695108136656
 30
0.0
 11
-1.66654109481677
 21
7.465695108136656
 31
0.0
  0
LINE
  5
2E33
330
1E
100
AcDbEntity
  8
7
100
AcDbLine
 10
-1.66654109481677
 20
7.465695108136656
 30
0.0
 11
-1.668181636285273
 21
7.46405456666815
 31
0.0
  0
LINE
  5
2E34
330
1E
100
AcDbEntity
  8
7
100
AcDbLine
 10
-1.668181636285273
 20
7.46405456666815
 30
0.0
 11
-1.674743802159289
 21
7.460773483731143
 31
0.0
  0
LINE
  5
2E35
330
1E
100
AcDbEntity
  8
7
100
AcDbLine
 10
-1.674743802159289
 20
7.460773483731143
 30
0.0
 11
-1.679665426564801
 21
7.457492400794135
 31
0.0
  0
LINE
  5
2E36
330
1E
100
AcDbEntity
  8
7
100
AcDbLine
 10
-1.679665426564801
 20
7.457492400794135
 30
0.0
 11
-1.68786813390732
 21
7.447649151983112
 31
0.0
  0
LINE
  5
2E37
330
1E
100
AcDbEntity
  8
7
100
AcDbLine
 10
-1.68786813390732
 20
7.447649151983112
 30
0.0
 11
-1.689508675375824
 21
7.441086986109096
 31
0.0
  0
LINE
  5
2E38
330
1E
100
AcDbEntity
  8
7
100
AcDbLine
 10
-1.689508675375824
 20
7.441086986109096
 30
0.0
 11
-1.691149216844329
 21
7.437805903172088
 31
0.0
  0
LINE
  5
2E39
330
1E
100
AcDbEntity
  8
7
100
AcDbLine
 10
2.753077621332836
 20
7.454211317857128
 30
0.0
 11
2.749796538395828
 21
7.455851859325631
 31
0.0
  0
LINE
  5
2E3A
330
1E
100
AcDbEntity
  8
7
100
AcDbLine
 10
2.749796538395828
 20
7.455851859325631
 30
0.0
 11
2.744874913990316
 21
7.460773483731143
 31
0.0
  0
LINE
  5
2E3B
330
1E
100
AcDbEntity
  8
7
100
AcDbLine
 10
2.744874913990316
 20
7.460773483731143
 30
0.0
 11
2.739953289584804
 21
7.46405456666815
 31
0.0
  0
LINE
  5
2E3C
330
1E
100
AcDbEntity
  8
7
100
AcDbLine
 10
2.739953289584804
 20
7.46405456666815
 30
0.0
 11
2.736672206647797
 21
7.465695108136656
 31
0.0
  0
LINE
  5
2E3D
330
1E
100
AcDbEntity
  8
7
100
AcDbLine
 10
2.736672206647797
 20
7.465695108136656
 30
0.0
 11
2.731750582242284
 21
7.465695108136656
 31
0.0
  0
LINE
  5
2E3E
330
1E
100
AcDbEntity
  8
7
100
AcDbLine
 10
2.731750582242284
 20
7.465695108136656
 30
0.0
 11
2.725188416368268
 21
7.465695108136656
 31
0.0
  0
LINE
  5
2E3F
330
1E
100
AcDbEntity
  8
7
100
AcDbLine
 10
2.787528992171419
 20
7.408276156739018
 30
0.0
 11
2.787528992171419
 21
7.414838322613033
 31
0.0
  0
LINE
  5
2E40
330
1E
100
AcDbEntity
  8
7
100
AcDbLine
 10
2.787528992171419
 20
7.414838322613033
 30
0.0
 11
2.784247909234411
 21
7.427962654361064
 31
0.0
  0
LINE
  5
2E41
330
1E
100
AcDbEntity
  8
7
100
AcDbLine
 10
2.784247909234411
 20
7.427962654361064
 30
0.0
 11
2.780966826297403
 21
7.434524820235081
 31
0.0
  0
LINE
  5
2E42
330
1E
100
AcDbEntity
  8
7
100
AcDbLine
 10
2.780966826297403
 20
7.434524820235081
 30
0.0
 11
2.776045201891891
 21
7.439446444640591
 31
0.0
  0
LINE
  5
2E43
330
1E
100
AcDbEntity
  8
7
100
AcDbLine
 10
2.776045201891891
 20
7.439446444640591
 30
0.0
 11
2.766201953080867
 21
7.447649151983112
 31
0.0
  0
LINE
  5
2E44
330
1E
100
AcDbEntity
  8
7
100
AcDbLine
 10
2.766201953080867
 20
7.447649151983112
 30
0.0
 11
2.759639787206852
 21
7.449289693451616
 31
0.0
  0
LINE
  5
2E45
330
1E
100
AcDbEntity
  8
7
100
AcDbLine
 10
2.759639787206852
 20
7.449289693451616
 30
0.0
 11
2.757999245738347
 21
7.450930234920119
 31
0.0
  0
LINE
  5
2E46
330
1E
100
AcDbEntity
  8
7
100
AcDbLine
 10
2.757999245738347
 20
7.450930234920119
 30
0.0
 11
2.754718162801339
 21
7.452570776388623
 31
0.0
  0
LINE
  5
2E47
330
1E
100
AcDbEntity
  8
7
100
AcDbLine
 10
2.754718162801339
 20
7.452570776388623
 30
0.0
 11
2.753077621332836
 21
7.454211317857128
 31
0.0
  0
ENDSEC
  0
SECTION
  2
OBJECTS
  0
DICTIONARY
  5
C
330
0
100
AcDbDictionary
  3
ACAD_GROUP
350
D
  3
ACAD_LAYOUT
350
19
  3
ACAD_MLINESTYLE
350
16
  3
ACAD_PLOTSETTINGS
350
18
1001
ACAD
1000
TREAT_AS_HARD
1070
     0
  0
DICTIONARY
  5
41CC
330
1E
100
AcDbDictionary
  3
ACAD_LAYOUTSELFREF
350
4251
1001
ACAD
1000
TREAT_AS_HARD
1070
     1
  0
DICTIONARY
  5
41CE
330
1A
100
AcDbDictionary
  3
ACAD_LAYOUTSELFREF
350
4250
1001
ACAD
1000
TREAT_AS_HARD
1070
     1
  0
DICTIONARY
  5
D
102
{ACAD_REACTORS
330
C
102
}
330
C
100
AcDbDictionary
1001
ACAD
1000
TREAT_AS_HARD
1070
     0
  0
DICTIONARY
  5
19
102
{ACAD_REACTORS
330
C
102
}
330
C
100
AcDbDictionary
1001
ACAD
1000
TREAT_AS_HARD
1070
     0
  0
DICTIONARY
  5
16
102
{ACAD_REACTORS
330
C
102
}
330
C
100
AcDbDictionary
  3
STANDARD
350
17
1001
ACAD
1000
TREAT_AS_HARD
1070
     0
  0
DICTIONARY
  5
18
102
{ACAD_REACTORS
330
C
102
}
330
C
100
AcDbDictionary
1001
ACAD
1000
TREAT_AS_HARD
1070
     0
  0
XRECORD
  5
4251
102
{ACAD_REACTORS
330
41CC
102
}
330
41CC
100
AcDbXrecord
340
1E
  0
XRECORD
  5
4250
102
{ACAD_REACTORS
330
41CE
102
}
330
41CE
100
AcDbXrecord
340
1A
  0
MLINESTYLE
  5
17
102
{ACAD_REACTORS
330
16
102
}
330
16
100
AcDbMlineStyle
  2
STANDARD
 70
     0
  3

 62
   256
 51
90.0
 52
90.0
 71
     2
 49
0.5
 62
   256
  6
BYLAYER
 49
-0.5
 62
   256
  6
BYLAYER
  0
ENDSEC
  0
EOF
