  0
SECTION
  2
HEADER
  9
$ACADVER
  1
AC1014
  9
$ACADMAINTVER
 70
     9
  9
$DWGCODEPAGE
  3
ANSI_1252
  9
$INSBASE
 10
0.0
 20
0.0
 30
0.0
  9
$EXTMIN
 10
34.43927971977984
 20
25.90569623714768
 30
-0.0015258207003583
  9
$EXTMAX
 10
74.03091056005667
 20
48.57401409191846
 30
0.0000000349246037
  9
$LIMMIN
 10
0.0
 20
0.0
  9
$LIMMAX
 10
12.0
 20
9.0
  9
$ORTHOMODE
 70
     0
  9
$REGENMODE
 70
     1
  9
$FILLMODE
 70
     1
  9
$QTEXTMODE
 70
     0
  9
$MIRRTEXT
 70
     1
  9
$DRAGMODE
 70
     2
  9
$LTSCALE
 40
1.0
  9
$OSMODE
 70
    37
  9
$ATTMODE
 70
     1
  9
$TEXTSIZE
 40
0.2
  9
$TRACEWID
 40
0.05
  9
$TEXTSTYLE
  7
STANDARD
  9
$CLAYER
  8
0
  9
$CELTYPE
  6
BYLAYER
  9
$CECOLOR
 62
   256
  9
$CELTSCALE
 40
1.0
  9
$DELOBJ
 70
     1
  9
$DISPSILH
 70
     0
  9
$DIMSCALE
 40
1.0
  9
$DIMASZ
 40
0.18
  9
$DIMEXO
 40
0.0625
  9
$DIMDLI
 40
0.38
  9
$DIMRND
 40
0.0
  9
$DIMDLE
 40
0.0
  9
$DIMEXE
 40
0.18
  9
$DIMTP
 40
0.0
  9
$DIMTM
 40
0.0
  9
$DIMTXT
 40
0.18
  9
$DIMCEN
 40
0.09
  9
$DIMTSZ
 40
0.0
  9
$DIMTOL
 70
     0
  9
$DIMLIM
 70
     0
  9
$DIMTIH
 70
     1
  9
$DIMTOH
 70
     1
  9
$DIMSE1
 70
     0
  9
$DIMSE2
 70
     0
  9
$DIMTAD
 70
     0
  9
$DIMZIN
 70
     0
  9
$DIMBLK
  1

  9
$DIMASO
 70
     1
  9
$DIMSHO
 70
     1
  9
$DIMPOST
  1

  9
$DIMAPOST
  1

  9
$DIMALT
 70
     0
  9
$DIMALTD
 70
     2
  9
$DIMALTF
 40
25.4
  9
$DIMLFAC
 40
1.0
  9
$DIMTOFL
 70
     0
  9
$DIMTVP
 40
0.0
  9
$DIMTIX
 70
     0
  9
$DIMSOXD
 70
     0
  9
$DIMSAH
 70
     0
  9
$DIMBLK1
  1

  9
$DIMBLK2
  1

  9
$DIMSTYLE
  2
STANDARD
  9
$DIMCLRD
 70
     0
  9
$DIMCLRE
 70
     0
  9
$DIMCLRT
 70
     0
  9
$DIMTFAC
 40
1.0
  9
$DIMGAP
 40
0.09
  9
$DIMJUST
 70
     0
  9
$DIMSD1
 70
     0
  9
$DIMSD2
 70
     0
  9
$DIMTOLJ
 70
     1
  9
$DIMTZIN
 70
     0
  9
$DIMALTZ
 70
     0
  9
$DIMALTTZ
 70
     0
  9
$DIMFIT
 70
     5
  9
$DIMUPT
 70
     0
  9
$DIMUNIT
 70
     2
  9
$DIMDEC
 70
     4
  9
$DIMTDEC
 70
     4
  9
$DIMALTU
 70
     2
  9
$DIMALTTD
 70
     2
  9
$DIMTXSTY
  7
STANDARD
  9
$DIMAUNIT
 70
     0
  9
$LUNITS
 70
     2
  9
$LUPREC
 70
     4
  9
$SKETCHINC
 40
0.1
  9
$FILLETRAD
 40
0.0
  9
$AUNITS
 70
     0
  9
$AUPREC
 70
     0
  9
$MENU
  1
acad
  9
$ELEVATION
 40
0.0
  9
$PELEVATION
 40
0.0
  9
$THICKNESS
 40
0.0
  9
$LIMCHECK
 70
     0
  9
$BLIPMODE
 70
     0
  9
$CHAMFERA
 40
0.0
  9
$CHAMFERB
 40
0.0
  9
$CHAMFERC
 40
0.0
  9
$CHAMFERD
 40
0.0
  9
$SKPOLY
 70
     0
  9
$TDCREATE
 40
2452374.582152777
  9
$TDUPDATE
 40
2452374.614432326
  9
$TDINDWG
 40
0.0046656134
  9
$TDUSRTIMER
 40
0.0046656134
  9
$USRTIMER
 70
     1
  9
$ANGBASE
 50
0.0
  9
$ANGDIR
 70
     0
  9
$PDMODE
 70
     0
  9
$PDSIZE
 40
0.0
  9
$PLINEWID
 40
0.0
  9
$COORDS
 70
     2
  9
$SPLFRAME
 70
     0
  9
$SPLINETYPE
 70
     6
  9
$SPLINESEGS
 70
     8
  9
$ATTDIA
 70
     0
  9
$ATTREQ
 70
     1
  9
$HANDLING
 70
-16383
  9
$HANDSEED
  5
49CB
  9
$SURFTAB1
 70
     6
  9
$SURFTAB2
 70
     6
  9
$SURFTYPE
 70
     6
  9
$SURFU
 70
     6
  9
$SURFV
 70
     6
  9
$UCSNAME
  2

  9
$UCSORG
 10
0.0
 20
0.0
 30
0.0
  9
$UCSXDIR
 10
1.0
 20
0.0
 30
0.0
  9
$UCSYDIR
 10
0.0
 20
1.0
 30
0.0
  9
$PUCSNAME
  2

  9
$PUCSORG
 10
0.0
 20
0.0
 30
0.0
  9
$PUCSXDIR
 10
1.0
 20
0.0
 30
0.0
  9
$PUCSYDIR
 10
0.0
 20
1.0
 30
0.0
  9
$USERI1
 70
     0
  9
$USERI2
 70
     0
  9
$USERI3
 70
     0
  9
$USERI4
 70
     0
  9
$USERI5
 70
     0
  9
$USERR1
 40
0.0
  9
$USERR2
 40
0.0
  9
$USERR3
 40
0.0
  9
$USERR4
 40
0.0
  9
$USERR5
 40
0.0
  9
$WORLDVIEW
 70
     1
  9
$SHADEDGE
 70
     3
  9
$SHADEDIF
 70
    70
  9
$TILEMODE
 70
     1
  9
$MAXACTVP
 70
    16
  9
$PINSBASE
 10
0.0
 20
0.0
 30
0.0
  9
$PLIMCHECK
 70
     0
  9
$PEXTMIN
 10
1.000000000000000E+20
 20
1.000000000000000E+20
 30
1.000000000000000E+20
  9
$PEXTMAX
 10
-1.000000000000000E+20
 20
-1.000000000000000E+20
 30
-1.000000000000000E+20
  9
$PLIMMIN
 10
0.0
 20
0.0
  9
$PLIMMAX
 10
12.0
 20
9.0
  9
$UNITMODE
 70
     0
  9
$VISRETAIN
 70
     0
  9
$PLINEGEN
 70
     0
  9
$PSLTSCALE
 70
     1
  9
$TREEDEPTH
 70
  3020
  9
$PICKSTYLE
 70
     0
  9
$CMLSTYLE
  2
STANDARD
  9
$CMLJUST
 70
     0
  9
$CMLSCALE
 40
1.0
  9
$PROXYGRAPHICS
 70
     1
  9
$MEASUREMENT
 70
     0
  0
ENDSEC
  0
SECTION
  2
CLASSES
  0
CLASS
  1
ACDBDICTIONARYWDFLT
  2
AcDbDictionaryWithDefault
  3
AutoCAD 2000
 90
        0
280
     0
281
     0
  0
CLASS
  1
ACDBPLACEHOLDER
  2
AcDbPlaceHolder
  3
AutoCAD 2000
 90
        0
280
     0
281
     0
  0
CLASS
  1
LAYOUT
  2
AcDbLayout
  3
AutoCAD 2000
 90
        0
280
     0
281
     0
  0
CLASS
  1
LONG_TRANSACTION
  2
AcDbLongTransaction
  3
AutoCAD 2000
 90
        0
280
     0
281
     0
  0
CLASS
  1
LWPOLYLINE
  2
AcDbPolyline
  3
AutoCAD 2000
 90
        0
280
     0
281
     1
  0
CLASS
  1
HATCH
  2
AcDbHatch
  3
AutoCAD 2000
 90
        0
280
     0
281
     1
  0
CLASS
  1
XRECORD
  2
AcDbXrecord
  3
AutoCAD 2000
 90
        0
280
     0
281
     0
  0
ENDSEC
  0
SECTION
  2
TABLES
  0
TABLE
  2
VPORT
  5
8
330
0
100
AcDbSymbolTable
 70
     3
  0
VPORT
  5
49A5
330
8
100
AcDbSymbolTableRecord
100
AcDbViewportTableRecord
  2
*ACTIVE
 70
     0
 10
0.0
 20
0.0
 11
1.0
 21
1.0
 12
54.23509513991826
 22
37.23985516453307
 13
0.0
 23
0.0
 14
1.0
 24
1.0
 15
0.0
 25
0.0
 16
0.0
 26
0.0
 36
1.0
 17
0.0
 27
0.0
 37
0.0
 40
24.91424738091585
 41
1.597475455820476
 42
50.0
 43
0.0
 44
0.0
 50
0.0
 51
0.0
 71
     0
 72
   100
 73
     1
 74
     1
 75
     0
 76
     0
 77
     0
 78
     0
  0
ENDTAB
  0
TABLE
  2
LTYPE
  5
5
330
0
100
AcDbSymbolTable
 70
    25
  0
LTYPE
  5
13
330
5
100
AcDbSymbolTableRecord
100
AcDbLinetypeTableRecord
  2
BYBLOCK
 70
     0
  3

 72
    65
 73
     0
 40
0.0
  0
LTYPE
  5
14
330
5
100
AcDbSymbolTableRecord
100
AcDbLinetypeTableRecord
  2
BYLAYER
 70
     0
  3

 72
    65
 73
     0
 40
0.0
  0
LTYPE
  5
15
330
5
100
AcDbSymbolTableRecord
100
AcDbLinetypeTableRecord
  2
CONTINUOUS
 70
     0
  3
Solid line
 72
    65
 73
     0
 40
0.0
  0
LTYPE
  5
22
330
5
100
AcDbSymbolTableRecord
100
AcDbLinetypeTableRecord
  2
BORDER
 70
     0
  3
__ __ . __ __ . __ __ . __ __ . __ __ . __ __ .
 72
    65
 73
     6
 40
1.75
 49
0.5
 74
     0
 49
-0.25
 74
     0
 49
0.5
 74
     0
 49
-0.25
 74
     0
 49
0.5
 74
     0
 49
-0.25
 74
     0
  0
LTYPE
  5
23
330
5
100
AcDbSymbolTableRecord
100
AcDbLinetypeTableRecord
  2
BORDER2
 70
     0
  3
__.__.__.__.__.__.__.__.__.__.__.__.__.__.__.__
 72
    65
 73
     6
 40
0.875
 49
0.25
 74
     0
 49
-0.125
 74
     0
 49
0.25
 74
     0
 49
-0.125
 74
     0
 49
0.25
 74
     0
 49
-0.125
 74
     0
  0
LTYPE
  5
24
330
5
100
AcDbSymbolTableRecord
100
AcDbLinetypeTableRecord
  2
BORDERX2
 70
     0
  3
____  ____  .  ____  ____  .  
 72
    65
 73
     6
 40
3.5
 49
1.0
 74
     0
 49
-0.5
 74
     0
 49
1.0
 74
     0
 49
-0.5
 74
     0
 49
1.0
 74
     0
 49
-0.5
 74
     0
  0
LTYPE
  5
25
330
5
100
AcDbSymbolTableRecord
100
AcDbLinetypeTableRecord
  2
CENTER
 70
     0
  3
____ _ ____ _ ____ _ ____ _ ____ _ ____ _ ____
 72
    65
 73
     4
 40
2.0
 49
1.25
 74
     0
 49
-0.25
 74
     0
 49
0.25
 74
     0
 49
-0.25
 74
     0
  0
LTYPE
  5
26
330
5
100
AcDbSymbolTableRecord
100
AcDbLinetypeTableRecord
  2
CENTER2
 70
     0
  3
____ _ ____ _ ____ _ ____ _ ____ _ ____ _ ____
 72
    65
 73
     4
 40
1.125
 49
0.75
 74
     0
 49
-0.125
 74
     0
 49
0.125
 74
     0
 49
-0.125
 74
     0
  0
LTYPE
  5
27
330
5
100
AcDbSymbolTableRecord
100
AcDbLinetypeTableRecord
  2
CENTERX2
 70
     0
  3
________  __  ________  __  ________  __  
 72
    65
 73
     4
 40
4.0
 49
2.5
 74
     0
 49
-0.5
 74
     0
 49
0.5
 74
     0
 49
-0.5
 74
     0
  0
LTYPE
  5
28
330
5
100
AcDbSymbolTableRecord
100
AcDbLinetypeTableRecord
  2
DASHDOT
 70
     0
  3
__ . __ . __ . __ . __ . __ . __ . 
 72
    65
 73
     4
 40
1.0
 49
0.5
 74
     0
 49
-0.25
 74
     0
 49
0.0
 74
     0
 49
-0.25
 74
     0
  0
LTYPE
  5
29
330
5
100
AcDbSymbolTableRecord
100
AcDbLinetypeTableRecord
  2
DASHDOT2
 70
     0
  3
_._._._._._._._._._._._._._._._.
 72
    65
 73
     4
 40
0.5
 49
0.25
 74
     0
 49
-0.125
 74
     0
 49
0.0
 74
     0
 49
-0.125
 74
     0
  0
LTYPE
  5
2A
330
5
100
AcDbSymbolTableRecord
100
AcDbLinetypeTableRecord
  2
DASHDOTX2
 70
     0
  3
____  .  ____  .  ____  .  ____  .  
 72
    65
 73
     4
 40
2.0
 49
1.0
 74
     0
 49
-0.5
 74
     0
 49
0.0
 74
     0
 49
-0.5
 74
     0
  0
LTYPE
  5
2B
330
5
100
AcDbSymbolTableRecord
100
AcDbLinetypeTableRecord
  2
DASHED
 70
     0
  3
__ __ __ __ __ __ __ __ __ __ __ __ 
 72
    65
 73
     2
 40
0.75
 49
0.5
 74
     0
 49
-0.25
 74
     0
  0
LTYPE
  5
2C
330
5
100
AcDbSymbolTableRecord
100
AcDbLinetypeTableRecord
  2
DASHED2
 70
     0
  3
_ _ _ _ _ _ _ _ _ _ _ _ _ _ _ _ _ _ 
 72
    65
 73
     2
 40
0.375
 49
0.25
 74
     0
 49
-0.125
 74
     0
  0
LTYPE
  5
2D
330
5
100
AcDbSymbolTableRecord
100
AcDbLinetypeTableRecord
  2
DASHEDX2
 70
     0
  3
____  ____  ____  ____  ____  ____  
 72
    65
 73
     2
 40
1.5
 49
1.0
 74
     0
 49
-0.5
 74
     0
  0
LTYPE
  5
2E
330
5
100
AcDbSymbolTableRecord
100
AcDbLinetypeTableRecord
  2
DIVIDE
 70
     0
  3
____ . . ____ . . ____ . . ____ . . 
 72
    65
 73
     6
 40
1.25
 49
0.5
 74
     0
 49
-0.25
 74
     0
 49
0.0
 74
     0
 49
-0.25
 74
     0
 49
0.0
 74
     0
 49
-0.25
 74
     0
  0
LTYPE
  5
2F
330
5
100
AcDbSymbolTableRecord
100
AcDbLinetypeTableRecord
  2
DIVIDE2
 70
     0
  3
__..__..__..__..__..__..__..__..__..
 72
    65
 73
     6
 40
0.625
 49
0.25
 74
     0
 49
-0.125
 74
     0
 49
0.0
 74
     0
 49
-0.125
 74
     0
 49
0.0
 74
     0
 49
-0.125
 74
     0
  0
LTYPE
  5
30
330
5
100
AcDbSymbolTableRecord
100
AcDbLinetypeTableRecord
  2
DIVIDEX2
 70
     0
  3
________  .  .  ________  .  .  ________  .  . 
 72
    65
 73
     6
 40
2.5
 49
1.0
 74
     0
 49
-0.5
 74
     0
 49
0.0
 74
     0
 49
-0.5
 74
     0
 49
0.0
 74
     0
 49
-0.5
 74
     0
  0
LTYPE
  5
31
330
5
100
AcDbSymbolTableRecord
100
AcDbLinetypeTableRecord
  2
DOT
 70
     0
  3
. . . . . . . . . . . . . . . . . . 
 72
    65
 73
     2
 40
0.25
 49
0.0
 74
     0
 49
-0.25
 74
     0
  0
LTYPE
  5
32
330
5
100
AcDbSymbolTableRecord
100
AcDbLinetypeTableRecord
  2
DOT2
 70
     0
  3
....................................
 72
    65
 73
     2
 40
0.125
 49
0.0
 74
     0
 49
-0.125
 74
     0
  0
LTYPE
  5
33
330
5
100
AcDbSymbolTableRecord
100
AcDbLinetypeTableRecord
  2
DOTX2
 70
     0
  3
.  .  .  .  .  .  .  .  .  .  .  .  .  
 72
    65
 73
     2
 40
0.5
 49
0.0
 74
     0
 49
-0.5
 74
     0
  0
LTYPE
  5
34
330
5
100
AcDbSymbolTableRecord
100
AcDbLinetypeTableRecord
  2
HIDDEN
 70
     0
  3
__ __ __ __ __ __ __ __ __ __ __ __ 
 72
    65
 73
     2
 40
0.375
 49
0.25
 74
     0
 49
-0.125
 74
     0
  0
LTYPE
  5
35
330
5
100
AcDbSymbolTableRecord
100
AcDbLinetypeTableRecord
  2
HIDDEN2
 70
     0
  3
_ _ _ _ _ _ _ _ _ _ _ _ _ _ _ _ _ _ 
 72
    65
 73
     2
 40
0.1875
 49
0.125
 74
     0
 49
-0.0625
 74
     0
  0
LTYPE
  5
36
330
5
100
AcDbSymbolTableRecord
100
AcDbLinetypeTableRecord
  2
HIDDENX2
 70
     0
  3
____ ____ ____ ____ ____ ____ ____ 
 72
    65
 73
     2
 40
0.75
 49
0.5
 74
     0
 49
-0.25
 74
     0
  0
LTYPE
  5
37
330
5
100
AcDbSymbolTableRecord
100
AcDbLinetypeTableRecord
  2
PHANTOM
 70
     0
  3
______  __  __  ______  __  __  
 72
    65
 73
     6
 40
2.5
 49
1.25
 74
     0
 49
-0.25
 74
     0
 49
0.25
 74
     0
 49
-0.25
 74
     0
 49
0.25
 74
     0
 49
-0.25
 74
     0
  0
LTYPE
  5
38
330
5
100
AcDbSymbolTableRecord
100
AcDbLinetypeTableRecord
  2
PHANTOM2
 70
     0
  3
___ _ _ ___ _ _ ___ _ _ ___ _ _ 
 72
    65
 73
     6
 40
1.25
 49
0.625
 74
     0
 49
-0.125
 74
     0
 49
0.125
 74
     0
 49
-0.125
 74
     0
 49
0.125
 74
     0
 49
-0.125
 74
     0
  0
LTYPE
  5
39
330
5
100
AcDbSymbolTableRecord
100
AcDbLinetypeTableRecord
  2
PHANTOMX2
 70
     0
  3
___ _ _ ___ _ _ ___ _ _ ___ _ _ 
 72
    65
 73
     6
 40
5.0
 49
2.5
 74
     0
 49
-0.5
 74
     0
 49
0.5
 74
     0
 49
-0.5
 74
     0
 49
0.5
 74
     0
 49
-0.5
 74
     0
  0
ENDTAB
  0
TABLE
  2
LAYER
  5
2
330
0
100
AcDbSymbolTable
 70
   256
  0
LAYER
  5
10
330
2
100
AcDbSymbolTableRecord
100
AcDbLayerTableRecord
  2
0
 70
     0
 62
     7
  6
CONTINUOUS
  0
LAYER
  5
3A
330
2
100
AcDbSymbolTableRecord
100
AcDbLayerTableRecord
  2
1
 70
     0
 62
     1
  6
CONTINUOUS
  0
LAYER
  5
3B
330
2
100
AcDbSymbolTableRecord
100
AcDbLayerTableRecord
  2
2
 70
     0
 62
     2
  6
CONTINUOUS
  0
LAYER
  5
3C
330
2
100
AcDbSymbolTableRecord
100
AcDbLayerTableRecord
  2
3
 70
     0
 62
     3
  6
CONTINUOUS
  0
LAYER
  5
3D
330
2
100
AcDbSymbolTableRecord
100
AcDbLayerTableRecord
  2
4
 70
     0
 62
     4
  6
CONTINUOUS
  0
LAYER
  5
3E
330
2
100
AcDbSymbolTableRecord
100
AcDbLayerTableRecord
  2
5
 70
     0
 62
     5
  6
CONTINUOUS
  0
LAYER
  5
3F
330
2
100
AcDbSymbolTableRecord
100
AcDbLayerTableRecord
  2
6
 70
     0
 62
     6
  6
CONTINUOUS
  0
LAYER
  5
40
330
2
100
AcDbSymbolTableRecord
100
AcDbLayerTableRecord
  2
7
 70
     0
 62
     7
  6
CONTINUOUS
  0
LAYER
  5
41
330
2
100
AcDbSymbolTableRecord
100
AcDbLayerTableRecord
  2
8
 70
     0
 62
     8
  6
CONTINUOUS
  0
LAYER
  5
42
330
2
100
AcDbSymbolTableRecord
100
AcDbLayerTableRecord
  2
9
 70
     0
 62
     9
  6
CONTINUOUS
  0
LAYER
  5
43
330
2
100
AcDbSymbolTableRecord
100
AcDbLayerTableRecord
  2
10
 70
     0
 62
    10
  6
CONTINUOUS
  0
LAYER
  5
44
330
2
100
AcDbSymbolTableRecord
100
AcDbLayerTableRecord
  2
11
 70
     0
 62
    11
  6
CONTINUOUS
  0
LAYER
  5
45
330
2
100
AcDbSymbolTableRecord
100
AcDbLayerTableRecord
  2
12
 70
     0
 62
    12
  6
CONTINUOUS
  0
LAYER
  5
46
330
2
100
AcDbSymbolTableRecord
100
AcDbLayerTableRecord
  2
13
 70
     0
 62
    13
  6
CONTINUOUS
  0
LAYER
  5
47
330
2
100
AcDbSymbolTableRecord
100
AcDbLayerTableRecord
  2
14
 70
     0
 62
    14
  6
CONTINUOUS
  0
LAYER
  5
48
330
2
100
AcDbSymbolTableRecord
100
AcDbLayerTableRecord
  2
15
 70
     0
 62
    15
  6
CONTINUOUS
  0
LAYER
  5
49
330
2
100
AcDbSymbolTableRecord
100
AcDbLayerTableRecord
  2
16
 70
     0
 62
    16
  6
CONTINUOUS
  0
LAYER
  5
4A
330
2
100
AcDbSymbolTableRecord
100
AcDbLayerTableRecord
  2
17
 70
     0
 62
    17
  6
CONTINUOUS
  0
LAYER
  5
4B
330
2
100
AcDbSymbolTableRecord
100
AcDbLayerTableRecord
  2
18
 70
     0
 62
    18
  6
CONTINUOUS
  0
LAYER
  5
4C
330
2
100
AcDbSymbolTableRecord
100
AcDbLayerTableRecord
  2
19
 70
     0
 62
    19
  6
CONTINUOUS
  0
LAYER
  5
4D
330
2
100
AcDbSymbolTableRecord
100
AcDbLayerTableRecord
  2
20
 70
     0
 62
    20
  6
CONTINUOUS
  0
LAYER
  5
4E
330
2
100
AcDbSymbolTableRecord
100
AcDbLayerTableRecord
  2
21
 70
     0
 62
    21
  6
CONTINUOUS
  0
LAYER
  5
4F
330
2
100
AcDbSymbolTableRecord
100
AcDbLayerTableRecord
  2
22
 70
     0
 62
    22
  6
CONTINUOUS
  0
LAYER
  5
50
330
2
100
AcDbSymbolTableRecord
100
AcDbLayerTableRecord
  2
23
 70
     0
 62
    23
  6
CONTINUOUS
  0
LAYER
  5
51
330
2
100
AcDbSymbolTableRecord
100
AcDbLayerTableRecord
  2
24
 70
     0
 62
    24
  6
CONTINUOUS
  0
LAYER
  5
52
330
2
100
AcDbSymbolTableRecord
100
AcDbLayerTableRecord
  2
25
 70
     0
 62
    25
  6
CONTINUOUS
  0
LAYER
  5
53
330
2
100
AcDbSymbolTableRecord
100
AcDbLayerTableRecord
  2
26
 70
     0
 62
    26
  6
CONTINUOUS
  0
LAYER
  5
54
330
2
100
AcDbSymbolTableRecord
100
AcDbLayerTableRecord
  2
27
 70
     0
 62
    27
  6
CONTINUOUS
  0
LAYER
  5
55
330
2
100
AcDbSymbolTableRecord
100
AcDbLayerTableRecord
  2
28
 70
     0
 62
    28
  6
CONTINUOUS
  0
LAYER
  5
56
330
2
100
AcDbSymbolTableRecord
100
AcDbLayerTableRecord
  2
29
 70
     0
 62
    29
  6
CONTINUOUS
  0
LAYER
  5
57
330
2
100
AcDbSymbolTableRecord
100
AcDbLayerTableRecord
  2
30
 70
     0
 62
    30
  6
CONTINUOUS
  0
LAYER
  5
58
330
2
100
AcDbSymbolTableRecord
100
AcDbLayerTableRecord
  2
31
 70
     0
 62
    31
  6
CONTINUOUS
  0
LAYER
  5
59
330
2
100
AcDbSymbolTableRecord
100
AcDbLayerTableRecord
  2
32
 70
     0
 62
    32
  6
CONTINUOUS
  0
LAYER
  5
5A
330
2
100
AcDbSymbolTableRecord
100
AcDbLayerTableRecord
  2
33
 70
     0
 62
    33
  6
CONTINUOUS
  0
LAYER
  5
5B
330
2
100
AcDbSymbolTableRecord
100
AcDbLayerTableRecord
  2
34
 70
     0
 62
    34
  6
CONTINUOUS
  0
LAYER
  5
5C
330
2
100
AcDbSymbolTableRecord
100
AcDbLayerTableRecord
  2
35
 70
     0
 62
    35
  6
CONTINUOUS
  0
LAYER
  5
5D
330
2
100
AcDbSymbolTableRecord
100
AcDbLayerTableRecord
  2
36
 70
     0
 62
    36
  6
CONTINUOUS
  0
LAYER
  5
5E
330
2
100
AcDbSymbolTableRecord
100
AcDbLayerTableRecord
  2
37
 70
     0
 62
    37
  6
CONTINUOUS
  0
LAYER
  5
5F
330
2
100
AcDbSymbolTableRecord
100
AcDbLayerTableRecord
  2
38
 70
     0
 62
    38
  6
CONTINUOUS
  0
LAYER
  5
60
330
2
100
AcDbSymbolTableRecord
100
AcDbLayerTableRecord
  2
39
 70
     0
 62
    39
  6
CONTINUOUS
  0
LAYER
  5
61
330
2
100
AcDbSymbolTableRecord
100
AcDbLayerTableRecord
  2
40
 70
     0
 62
    40
  6
CONTINUOUS
  0
LAYER
  5
62
330
2
100
AcDbSymbolTableRecord
100
AcDbLayerTableRecord
  2
41
 70
     0
 62
    41
  6
CONTINUOUS
  0
LAYER
  5
63
330
2
100
AcDbSymbolTableRecord
100
AcDbLayerTableRecord
  2
42
 70
     0
 62
    42
  6
CONTINUOUS
  0
LAYER
  5
64
330
2
100
AcDbSymbolTableRecord
100
AcDbLayerTableRecord
  2
43
 70
     0
 62
    43
  6
CONTINUOUS
  0
LAYER
  5
65
330
2
100
AcDbSymbolTableRecord
100
AcDbLayerTableRecord
  2
44
 70
     0
 62
    44
  6
CONTINUOUS
  0
LAYER
  5
66
330
2
100
AcDbSymbolTableRecord
100
AcDbLayerTableRecord
  2
45
 70
     0
 62
    45
  6
CONTINUOUS
  0
LAYER
  5
67
330
2
100
AcDbSymbolTableRecord
100
AcDbLayerTableRecord
  2
46
 70
     0
 62
    46
  6
CONTINUOUS
  0
LAYER
  5
68
330
2
100
AcDbSymbolTableRecord
100
AcDbLayerTableRecord
  2
47
 70
     0
 62
    47
  6
CONTINUOUS
  0
LAYER
  5
69
330
2
100
AcDbSymbolTableRecord
100
AcDbLayerTableRecord
  2
48
 70
     0
 62
    48
  6
CONTINUOUS
  0
LAYER
  5
6A
330
2
100
AcDbSymbolTableRecord
100
AcDbLayerTableRecord
  2
49
 70
     0
 62
    49
  6
CONTINUOUS
  0
LAYER
  5
6B
330
2
100
AcDbSymbolTableRecord
100
AcDbLayerTableRecord
  2
50
 70
     0
 62
    50
  6
CONTINUOUS
  0
LAYER
  5
6C
330
2
100
AcDbSymbolTableRecord
100
AcDbLayerTableRecord
  2
51
 70
     0
 62
    51
  6
CONTINUOUS
  0
LAYER
  5
6D
330
2
100
AcDbSymbolTableRecord
100
AcDbLayerTableRecord
  2
52
 70
     0
 62
    52
  6
CONTINUOUS
  0
LAYER
  5
6E
330
2
100
AcDbSymbolTableRecord
100
AcDbLayerTableRecord
  2
53
 70
     0
 62
    53
  6
CONTINUOUS
  0
LAYER
  5
6F
330
2
100
AcDbSymbolTableRecord
100
AcDbLayerTableRecord
  2
54
 70
     0
 62
    54
  6
CONTINUOUS
  0
LAYER
  5
70
330
2
100
AcDbSymbolTableRecord
100
AcDbLayerTableRecord
  2
55
 70
     0
 62
    55
  6
CONTINUOUS
  0
LAYER
  5
71
330
2
100
AcDbSymbolTableRecord
100
AcDbLayerTableRecord
  2
56
 70
     0
 62
    56
  6
CONTINUOUS
  0
LAYER
  5
72
330
2
100
AcDbSymbolTableRecord
100
AcDbLayerTableRecord
  2
57
 70
     0
 62
    57
  6
CONTINUOUS
  0
LAYER
  5
73
330
2
100
AcDbSymbolTableRecord
100
AcDbLayerTableRecord
  2
58
 70
     0
 62
    58
  6
CONTINUOUS
  0
LAYER
  5
74
330
2
100
AcDbSymbolTableRecord
100
AcDbLayerTableRecord
  2
59
 70
     0
 62
    59
  6
CONTINUOUS
  0
LAYER
  5
75
330
2
100
AcDbSymbolTableRecord
100
AcDbLayerTableRecord
  2
60
 70
     0
 62
    60
  6
CONTINUOUS
  0
LAYER
  5
76
330
2
100
AcDbSymbolTableRecord
100
AcDbLayerTableRecord
  2
61
 70
     0
 62
    61
  6
CONTINUOUS
  0
LAYER
  5
77
330
2
100
AcDbSymbolTableRecord
100
AcDbLayerTableRecord
  2
62
 70
     0
 62
    62
  6
CONTINUOUS
  0
LAYER
  5
78
330
2
100
AcDbSymbolTableRecord
100
AcDbLayerTableRecord
  2
63
 70
     0
 62
    63
  6
CONTINUOUS
  0
LAYER
  5
79
330
2
100
AcDbSymbolTableRecord
100
AcDbLayerTableRecord
  2
64
 70
     0
 62
    64
  6
CONTINUOUS
  0
LAYER
  5
7A
330
2
100
AcDbSymbolTableRecord
100
AcDbLayerTableRecord
  2
65
 70
     0
 62
    65
  6
CONTINUOUS
  0
LAYER
  5
7B
330
2
100
AcDbSymbolTableRecord
100
AcDbLayerTableRecord
  2
66
 70
     0
 62
    66
  6
CONTINUOUS
  0
LAYER
  5
7C
330
2
100
AcDbSymbolTableRecord
100
AcDbLayerTableRecord
  2
67
 70
     0
 62
    67
  6
CONTINUOUS
  0
LAYER
  5
7D
330
2
100
AcDbSymbolTableRecord
100
AcDbLayerTableRecord
  2
68
 70
     0
 62
    68
  6
CONTINUOUS
  0
LAYER
  5
7E
330
2
100
AcDbSymbolTableRecord
100
AcDbLayerTableRecord
  2
69
 70
     0
 62
    69
  6
CONTINUOUS
  0
LAYER
  5
7F
330
2
100
AcDbSymbolTableRecord
100
AcDbLayerTableRecord
  2
70
 70
     0
 62
    70
  6
CONTINUOUS
  0
LAYER
  5
80
330
2
100
AcDbSymbolTableRecord
100
AcDbLayerTableRecord
  2
71
 70
     0
 62
    71
  6
CONTINUOUS
  0
LAYER
  5
81
330
2
100
AcDbSymbolTableRecord
100
AcDbLayerTableRecord
  2
72
 70
     0
 62
    72
  6
CONTINUOUS
  0
LAYER
  5
82
330
2
100
AcDbSymbolTableRecord
100
AcDbLayerTableRecord
  2
73
 70
     0
 62
    73
  6
CONTINUOUS
  0
LAYER
  5
83
330
2
100
AcDbSymbolTableRecord
100
AcDbLayerTableRecord
  2
74
 70
     0
 62
    74
  6
CONTINUOUS
  0
LAYER
  5
84
330
2
100
AcDbSymbolTableRecord
100
AcDbLayerTableRecord
  2
75
 70
     0
 62
    75
  6
CONTINUOUS
  0
LAYER
  5
85
330
2
100
AcDbSymbolTableRecord
100
AcDbLayerTableRecord
  2
76
 70
     0
 62
    76
  6
CONTINUOUS
  0
LAYER
  5
86
330
2
100
AcDbSymbolTableRecord
100
AcDbLayerTableRecord
  2
77
 70
     0
 62
    77
  6
CONTINUOUS
  0
LAYER
  5
87
330
2
100
AcDbSymbolTableRecord
100
AcDbLayerTableRecord
  2
78
 70
     0
 62
    78
  6
CONTINUOUS
  0
LAYER
  5
88
330
2
100
AcDbSymbolTableRecord
100
AcDbLayerTableRecord
  2
79
 70
     0
 62
    79
  6
CONTINUOUS
  0
LAYER
  5
89
330
2
100
AcDbSymbolTableRecord
100
AcDbLayerTableRecord
  2
80
 70
     0
 62
    80
  6
CONTINUOUS
  0
LAYER
  5
8A
330
2
100
AcDbSymbolTableRecord
100
AcDbLayerTableRecord
  2
81
 70
     0
 62
    81
  6
CONTINUOUS
  0
LAYER
  5
8B
330
2
100
AcDbSymbolTableRecord
100
AcDbLayerTableRecord
  2
82
 70
     0
 62
    82
  6
CONTINUOUS
  0
LAYER
  5
8C
330
2
100
AcDbSymbolTableRecord
100
AcDbLayerTableRecord
  2
83
 70
     0
 62
    83
  6
CONTINUOUS
  0
LAYER
  5
8D
330
2
100
AcDbSymbolTableRecord
100
AcDbLayerTableRecord
  2
84
 70
     0
 62
    84
  6
CONTINUOUS
  0
LAYER
  5
8E
330
2
100
AcDbSymbolTableRecord
100
AcDbLayerTableRecord
  2
85
 70
     0
 62
    85
  6
CONTINUOUS
  0
LAYER
  5
8F
330
2
100
AcDbSymbolTableRecord
100
AcDbLayerTableRecord
  2
86
 70
     0
 62
    86
  6
CONTINUOUS
  0
LAYER
  5
90
330
2
100
AcDbSymbolTableRecord
100
AcDbLayerTableRecord
  2
87
 70
     0
 62
    87
  6
CONTINUOUS
  0
LAYER
  5
91
330
2
100
AcDbSymbolTableRecord
100
AcDbLayerTableRecord
  2
88
 70
     0
 62
    88
  6
CONTINUOUS
  0
LAYER
  5
92
330
2
100
AcDbSymbolTableRecord
100
AcDbLayerTableRecord
  2
89
 70
     0
 62
    89
  6
CONTINUOUS
  0
LAYER
  5
93
330
2
100
AcDbSymbolTableRecord
100
AcDbLayerTableRecord
  2
90
 70
     0
 62
    90
  6
CONTINUOUS
  0
LAYER
  5
94
330
2
100
AcDbSymbolTableRecord
100
AcDbLayerTableRecord
  2
91
 70
     0
 62
    91
  6
CONTINUOUS
  0
LAYER
  5
95
330
2
100
AcDbSymbolTableRecord
100
AcDbLayerTableRecord
  2
92
 70
     0
 62
    92
  6
CONTINUOUS
  0
LAYER
  5
96
330
2
100
AcDbSymbolTableRecord
100
AcDbLayerTableRecord
  2
93
 70
     0
 62
    93
  6
CONTINUOUS
  0
LAYER
  5
97
330
2
100
AcDbSymbolTableRecord
100
AcDbLayerTableRecord
  2
94
 70
     0
 62
    94
  6
CONTINUOUS
  0
LAYER
  5
98
330
2
100
AcDbSymbolTableRecord
100
AcDbLayerTableRecord
  2
95
 70
     0
 62
    95
  6
CONTINUOUS
  0
LAYER
  5
99
330
2
100
AcDbSymbolTableRecord
100
AcDbLayerTableRecord
  2
96
 70
     0
 62
    96
  6
CONTINUOUS
  0
LAYER
  5
9A
330
2
100
AcDbSymbolTableRecord
100
AcDbLayerTableRecord
  2
97
 70
     0
 62
    97
  6
CONTINUOUS
  0
LAYER
  5
9B
330
2
100
AcDbSymbolTableRecord
100
AcDbLayerTableRecord
  2
98
 70
     0
 62
    98
  6
CONTINUOUS
  0
LAYER
  5
9C
330
2
100
AcDbSymbolTableRecord
100
AcDbLayerTableRecord
  2
99
 70
     0
 62
    99
  6
CONTINUOUS
  0
LAYER
  5
9D
330
2
100
AcDbSymbolTableRecord
100
AcDbLayerTableRecord
  2
100
 70
     0
 62
   100
  6
CONTINUOUS
  0
LAYER
  5
9E
330
2
100
AcDbSymbolTableRecord
100
AcDbLayerTableRecord
  2
101
 70
     0
 62
   101
  6
CONTINUOUS
  0
LAYER
  5
9F
330
2
100
AcDbSymbolTableRecord
100
AcDbLayerTableRecord
  2
102
 70
     0
 62
   102
  6
CONTINUOUS
  0
LAYER
  5
A0
330
2
100
AcDbSymbolTableRecord
100
AcDbLayerTableRecord
  2
103
 70
     0
 62
   103
  6
CONTINUOUS
  0
LAYER
  5
A1
330
2
100
AcDbSymbolTableRecord
100
AcDbLayerTableRecord
  2
104
 70
     0
 62
   104
  6
CONTINUOUS
  0
LAYER
  5
A2
330
2
100
AcDbSymbolTableRecord
100
AcDbLayerTableRecord
  2
105
 70
     0
 62
   105
  6
CONTINUOUS
  0
LAYER
  5
A3
330
2
100
AcDbSymbolTableRecord
100
AcDbLayerTableRecord
  2
106
 70
     0
 62
   106
  6
CONTINUOUS
  0
LAYER
  5
A4
330
2
100
AcDbSymbolTableRecord
100
AcDbLayerTableRecord
  2
107
 70
     0
 62
   107
  6
CONTINUOUS
  0
LAYER
  5
A5
330
2
100
AcDbSymbolTableRecord
100
AcDbLayerTableRecord
  2
108
 70
     0
 62
   108
  6
CONTINUOUS
  0
LAYER
  5
A6
330
2
100
AcDbSymbolTableRecord
100
AcDbLayerTableRecord
  2
109
 70
     0
 62
   109
  6
CONTINUOUS
  0
LAYER
  5
A7
330
2
100
AcDbSymbolTableRecord
100
AcDbLayerTableRecord
  2
110
 70
     0
 62
   110
  6
CONTINUOUS
  0
LAYER
  5
A8
330
2
100
AcDbSymbolTableRecord
100
AcDbLayerTableRecord
  2
111
 70
     0
 62
   111
  6
CONTINUOUS
  0
LAYER
  5
A9
330
2
100
AcDbSymbolTableRecord
100
AcDbLayerTableRecord
  2
112
 70
     0
 62
   112
  6
CONTINUOUS
  0
LAYER
  5
AA
330
2
100
AcDbSymbolTableRecord
100
AcDbLayerTableRecord
  2
113
 70
     0
 62
   113
  6
CONTINUOUS
  0
LAYER
  5
AB
330
2
100
AcDbSymbolTableRecord
100
AcDbLayerTableRecord
  2
114
 70
     0
 62
   114
  6
CONTINUOUS
  0
LAYER
  5
AC
330
2
100
AcDbSymbolTableRecord
100
AcDbLayerTableRecord
  2
115
 70
     0
 62
   115
  6
CONTINUOUS
  0
LAYER
  5
AD
330
2
100
AcDbSymbolTableRecord
100
AcDbLayerTableRecord
  2
116
 70
     0
 62
   116
  6
CONTINUOUS
  0
LAYER
  5
AE
330
2
100
AcDbSymbolTableRecord
100
AcDbLayerTableRecord
  2
117
 70
     0
 62
   117
  6
CONTINUOUS
  0
LAYER
  5
AF
330
2
100
AcDbSymbolTableRecord
100
AcDbLayerTableRecord
  2
118
 70
     0
 62
   118
  6
CONTINUOUS
  0
LAYER
  5
B0
330
2
100
AcDbSymbolTableRecord
100
AcDbLayerTableRecord
  2
119
 70
     0
 62
   119
  6
CONTINUOUS
  0
LAYER
  5
B1
330
2
100
AcDbSymbolTableRecord
100
AcDbLayerTableRecord
  2
120
 70
     0
 62
   120
  6
CONTINUOUS
  0
LAYER
  5
B2
330
2
100
AcDbSymbolTableRecord
100
AcDbLayerTableRecord
  2
121
 70
     0
 62
   121
  6
CONTINUOUS
  0
LAYER
  5
B3
330
2
100
AcDbSymbolTableRecord
100
AcDbLayerTableRecord
  2
122
 70
     0
 62
   122
  6
CONTINUOUS
  0
LAYER
  5
B4
330
2
100
AcDbSymbolTableRecord
100
AcDbLayerTableRecord
  2
123
 70
     0
 62
   123
  6
CONTINUOUS
  0
LAYER
  5
B5
330
2
100
AcDbSymbolTableRecord
100
AcDbLayerTableRecord
  2
124
 70
     0
 62
   124
  6
CONTINUOUS
  0
LAYER
  5
B6
330
2
100
AcDbSymbolTableRecord
100
AcDbLayerTableRecord
  2
125
 70
     0
 62
   125
  6
CONTINUOUS
  0
LAYER
  5
B7
330
2
100
AcDbSymbolTableRecord
100
AcDbLayerTableRecord
  2
126
 70
     0
 62
   126
  6
CONTINUOUS
  0
LAYER
  5
B8
330
2
100
AcDbSymbolTableRecord
100
AcDbLayerTableRecord
  2
127
 70
     0
 62
   127
  6
CONTINUOUS
  0
LAYER
  5
B9
330
2
100
AcDbSymbolTableRecord
100
AcDbLayerTableRecord
  2
128
 70
     0
 62
   128
  6
CONTINUOUS
  0
LAYER
  5
BA
330
2
100
AcDbSymbolTableRecord
100
AcDbLayerTableRecord
  2
129
 70
     0
 62
   129
  6
CONTINUOUS
  0
LAYER
  5
BB
330
2
100
AcDbSymbolTableRecord
100
AcDbLayerTableRecord
  2
130
 70
     0
 62
   130
  6
CONTINUOUS
  0
LAYER
  5
BC
330
2
100
AcDbSymbolTableRecord
100
AcDbLayerTableRecord
  2
131
 70
     0
 62
   131
  6
CONTINUOUS
  0
LAYER
  5
BD
330
2
100
AcDbSymbolTableRecord
100
AcDbLayerTableRecord
  2
132
 70
     0
 62
   132
  6
CONTINUOUS
  0
LAYER
  5
BE
330
2
100
AcDbSymbolTableRecord
100
AcDbLayerTableRecord
  2
133
 70
     0
 62
   133
  6
CONTINUOUS
  0
LAYER
  5
BF
330
2
100
AcDbSymbolTableRecord
100
AcDbLayerTableRecord
  2
134
 70
     0
 62
   134
  6
CONTINUOUS
  0
LAYER
  5
C0
330
2
100
AcDbSymbolTableRecord
100
AcDbLayerTableRecord
  2
135
 70
     0
 62
   135
  6
CONTINUOUS
  0
LAYER
  5
C1
330
2
100
AcDbSymbolTableRecord
100
AcDbLayerTableRecord
  2
136
 70
     0
 62
   136
  6
CONTINUOUS
  0
LAYER
  5
C2
330
2
100
AcDbSymbolTableRecord
100
AcDbLayerTableRecord
  2
137
 70
     0
 62
   137
  6
CONTINUOUS
  0
LAYER
  5
C3
330
2
100
AcDbSymbolTableRecord
100
AcDbLayerTableRecord
  2
138
 70
     0
 62
   138
  6
CONTINUOUS
  0
LAYER
  5
C4
330
2
100
AcDbSymbolTableRecord
100
AcDbLayerTableRecord
  2
139
 70
     0
 62
   139
  6
CONTINUOUS
  0
LAYER
  5
C5
330
2
100
AcDbSymbolTableRecord
100
AcDbLayerTableRecord
  2
140
 70
     0
 62
   140
  6
CONTINUOUS
  0
LAYER
  5
C6
330
2
100
AcDbSymbolTableRecord
100
AcDbLayerTableRecord
  2
141
 70
     0
 62
   141
  6
CONTINUOUS
  0
LAYER
  5
C7
330
2
100
AcDbSymbolTableRecord
100
AcDbLayerTableRecord
  2
142
 70
     0
 62
   142
  6
CONTINUOUS
  0
LAYER
  5
C8
330
2
100
AcDbSymbolTableRecord
100
AcDbLayerTableRecord
  2
143
 70
     0
 62
   143
  6
CONTINUOUS
  0
LAYER
  5
C9
330
2
100
AcDbSymbolTableRecord
100
AcDbLayerTableRecord
  2
144
 70
     0
 62
   144
  6
CONTINUOUS
  0
LAYER
  5
CA
330
2
100
AcDbSymbolTableRecord
100
AcDbLayerTableRecord
  2
145
 70
     0
 62
   145
  6
CONTINUOUS
  0
LAYER
  5
CB
330
2
100
AcDbSymbolTableRecord
100
AcDbLayerTableRecord
  2
146
 70
     0
 62
   146
  6
CONTINUOUS
  0
LAYER
  5
CC
330
2
100
AcDbSymbolTableRecord
100
AcDbLayerTableRecord
  2
147
 70
     0
 62
   147
  6
CONTINUOUS
  0
LAYER
  5
CD
330
2
100
AcDbSymbolTableRecord
100
AcDbLayerTableRecord
  2
148
 70
     0
 62
   148
  6
CONTINUOUS
  0
LAYER
  5
CE
330
2
100
AcDbSymbolTableRecord
100
AcDbLayerTableRecord
  2
149
 70
     0
 62
   149
  6
CONTINUOUS
  0
LAYER
  5
CF
330
2
100
AcDbSymbolTableRecord
100
AcDbLayerTableRecord
  2
150
 70
     0
 62
   150
  6
CONTINUOUS
  0
LAYER
  5
D0
330
2
100
AcDbSymbolTableRecord
100
AcDbLayerTableRecord
  2
151
 70
     0
 62
   151
  6
CONTINUOUS
  0
LAYER
  5
D1
330
2
100
AcDbSymbolTableRecord
100
AcDbLayerTableRecord
  2
152
 70
     0
 62
   152
  6
CONTINUOUS
  0
LAYER
  5
D2
330
2
100
AcDbSymbolTableRecord
100
AcDbLayerTableRecord
  2
153
 70
     0
 62
   153
  6
CONTINUOUS
  0
LAYER
  5
D3
330
2
100
AcDbSymbolTableRecord
100
AcDbLayerTableRecord
  2
154
 70
     0
 62
   154
  6
CONTINUOUS
  0
LAYER
  5
D4
330
2
100
AcDbSymbolTableRecord
100
AcDbLayerTableRecord
  2
155
 70
     0
 62
   155
  6
CONTINUOUS
  0
LAYER
  5
D5
330
2
100
AcDbSymbolTableRecord
100
AcDbLayerTableRecord
  2
156
 70
     0
 62
   156
  6
CONTINUOUS
  0
LAYER
  5
D6
330
2
100
AcDbSymbolTableRecord
100
AcDbLayerTableRecord
  2
157
 70
     0
 62
   157
  6
CONTINUOUS
  0
LAYER
  5
D7
330
2
100
AcDbSymbolTableRecord
100
AcDbLayerTableRecord
  2
158
 70
     0
 62
   158
  6
CONTINUOUS
  0
LAYER
  5
D8
330
2
100
AcDbSymbolTableRecord
100
AcDbLayerTableRecord
  2
159
 70
     0
 62
   159
  6
CONTINUOUS
  0
LAYER
  5
D9
330
2
100
AcDbSymbolTableRecord
100
AcDbLayerTableRecord
  2
160
 70
     0
 62
   160
  6
CONTINUOUS
  0
LAYER
  5
DA
330
2
100
AcDbSymbolTableRecord
100
AcDbLayerTableRecord
  2
161
 70
     0
 62
   161
  6
CONTINUOUS
  0
LAYER
  5
DB
330
2
100
AcDbSymbolTableRecord
100
AcDbLayerTableRecord
  2
162
 70
     0
 62
   162
  6
CONTINUOUS
  0
LAYER
  5
DC
330
2
100
AcDbSymbolTableRecord
100
AcDbLayerTableRecord
  2
163
 70
     0
 62
   163
  6
CONTINUOUS
  0
LAYER
  5
DD
330
2
100
AcDbSymbolTableRecord
100
AcDbLayerTableRecord
  2
164
 70
     0
 62
   164
  6
CONTINUOUS
  0
LAYER
  5
DE
330
2
100
AcDbSymbolTableRecord
100
AcDbLayerTableRecord
  2
165
 70
     0
 62
   165
  6
CONTINUOUS
  0
LAYER
  5
DF
330
2
100
AcDbSymbolTableRecord
100
AcDbLayerTableRecord
  2
166
 70
     0
 62
   166
  6
CONTINUOUS
  0
LAYER
  5
E0
330
2
100
AcDbSymbolTableRecord
100
AcDbLayerTableRecord
  2
167
 70
     0
 62
   167
  6
CONTINUOUS
  0
LAYER
  5
E1
330
2
100
AcDbSymbolTableRecord
100
AcDbLayerTableRecord
  2
168
 70
     0
 62
   168
  6
CONTINUOUS
  0
LAYER
  5
E2
330
2
100
AcDbSymbolTableRecord
100
AcDbLayerTableRecord
  2
169
 70
     0
 62
   169
  6
CONTINUOUS
  0
LAYER
  5
E3
330
2
100
AcDbSymbolTableRecord
100
AcDbLayerTableRecord
  2
170
 70
     0
 62
   170
  6
CONTINUOUS
  0
LAYER
  5
E4
330
2
100
AcDbSymbolTableRecord
100
AcDbLayerTableRecord
  2
171
 70
     0
 62
   171
  6
CONTINUOUS
  0
LAYER
  5
E5
330
2
100
AcDbSymbolTableRecord
100
AcDbLayerTableRecord
  2
172
 70
     0
 62
   172
  6
CONTINUOUS
  0
LAYER
  5
E6
330
2
100
AcDbSymbolTableRecord
100
AcDbLayerTableRecord
  2
173
 70
     0
 62
   173
  6
CONTINUOUS
  0
LAYER
  5
E7
330
2
100
AcDbSymbolTableRecord
100
AcDbLayerTableRecord
  2
174
 70
     0
 62
   174
  6
CONTINUOUS
  0
LAYER
  5
E8
330
2
100
AcDbSymbolTableRecord
100
AcDbLayerTableRecord
  2
175
 70
     0
 62
   175
  6
CONTINUOUS
  0
LAYER
  5
E9
330
2
100
AcDbSymbolTableRecord
100
AcDbLayerTableRecord
  2
176
 70
     0
 62
   176
  6
CONTINUOUS
  0
LAYER
  5
EA
330
2
100
AcDbSymbolTableRecord
100
AcDbLayerTableRecord
  2
177
 70
     0
 62
   177
  6
CONTINUOUS
  0
LAYER
  5
EB
330
2
100
AcDbSymbolTableRecord
100
AcDbLayerTableRecord
  2
178
 70
     0
 62
   178
  6
CONTINUOUS
  0
LAYER
  5
EC
330
2
100
AcDbSymbolTableRecord
100
AcDbLayerTableRecord
  2
179
 70
     0
 62
   179
  6
CONTINUOUS
  0
LAYER
  5
ED
330
2
100
AcDbSymbolTableRecord
100
AcDbLayerTableRecord
  2
180
 70
     0
 62
   180
  6
CONTINUOUS
  0
LAYER
  5
EE
330
2
100
AcDbSymbolTableRecord
100
AcDbLayerTableRecord
  2
181
 70
     0
 62
   181
  6
CONTINUOUS
  0
LAYER
  5
EF
330
2
100
AcDbSymbolTableRecord
100
AcDbLayerTableRecord
  2
182
 70
     0
 62
   182
  6
CONTINUOUS
  0
LAYER
  5
F0
330
2
100
AcDbSymbolTableRecord
100
AcDbLayerTableRecord
  2
183
 70
     0
 62
   183
  6
CONTINUOUS
  0
LAYER
  5
F1
330
2
100
AcDbSymbolTableRecord
100
AcDbLayerTableRecord
  2
184
 70
     0
 62
   184
  6
CONTINUOUS
  0
LAYER
  5
F2
330
2
100
AcDbSymbolTableRecord
100
AcDbLayerTableRecord
  2
185
 70
     0
 62
   185
  6
CONTINUOUS
  0
LAYER
  5
F3
330
2
100
AcDbSymbolTableRecord
100
AcDbLayerTableRecord
  2
186
 70
     0
 62
   186
  6
CONTINUOUS
  0
LAYER
  5
F4
330
2
100
AcDbSymbolTableRecord
100
AcDbLayerTableRecord
  2
187
 70
     0
 62
   187
  6
CONTINUOUS
  0
LAYER
  5
F5
330
2
100
AcDbSymbolTableRecord
100
AcDbLayerTableRecord
  2
188
 70
     0
 62
   188
  6
CONTINUOUS
  0
LAYER
  5
F6
330
2
100
AcDbSymbolTableRecord
100
AcDbLayerTableRecord
  2
189
 70
     0
 62
   189
  6
CONTINUOUS
  0
LAYER
  5
F7
330
2
100
AcDbSymbolTableRecord
100
AcDbLayerTableRecord
  2
190
 70
     0
 62
   190
  6
CONTINUOUS
  0
LAYER
  5
F8
330
2
100
AcDbSymbolTableRecord
100
AcDbLayerTableRecord
  2
191
 70
     0
 62
   191
  6
CONTINUOUS
  0
LAYER
  5
F9
330
2
100
AcDbSymbolTableRecord
100
AcDbLayerTableRecord
  2
192
 70
     0
 62
   192
  6
CONTINUOUS
  0
LAYER
  5
FA
330
2
100
AcDbSymbolTableRecord
100
AcDbLayerTableRecord
  2
193
 70
     0
 62
   193
  6
CONTINUOUS
  0
LAYER
  5
FB
330
2
100
AcDbSymbolTableRecord
100
AcDbLayerTableRecord
  2
194
 70
     0
 62
   194
  6
CONTINUOUS
  0
LAYER
  5
FC
330
2
100
AcDbSymbolTableRecord
100
AcDbLayerTableRecord
  2
195
 70
     0
 62
   195
  6
CONTINUOUS
  0
LAYER
  5
FD
330
2
100
AcDbSymbolTableRecord
100
AcDbLayerTableRecord
  2
196
 70
     0
 62
   196
  6
CONTINUOUS
  0
LAYER
  5
FE
330
2
100
AcDbSymbolTableRecord
100
AcDbLayerTableRecord
  2
197
 70
     0
 62
   197
  6
CONTINUOUS
  0
LAYER
  5
FF
330
2
100
AcDbSymbolTableRecord
100
AcDbLayerTableRecord
  2
198
 70
     0
 62
   198
  6
CONTINUOUS
  0
LAYER
  5
100
330
2
100
AcDbSymbolTableRecord
100
AcDbLayerTableRecord
  2
199
 70
     0
 62
   199
  6
CONTINUOUS
  0
LAYER
  5
101
330
2
100
AcDbSymbolTableRecord
100
AcDbLayerTableRecord
  2
200
 70
     0
 62
   200
  6
CONTINUOUS
  0
LAYER
  5
102
330
2
100
AcDbSymbolTableRecord
100
AcDbLayerTableRecord
  2
201
 70
     0
 62
   201
  6
CONTINUOUS
  0
LAYER
  5
103
330
2
100
AcDbSymbolTableRecord
100
AcDbLayerTableRecord
  2
202
 70
     0
 62
   202
  6
CONTINUOUS
  0
LAYER
  5
104
330
2
100
AcDbSymbolTableRecord
100
AcDbLayerTableRecord
  2
203
 70
     0
 62
   203
  6
CONTINUOUS
  0
LAYER
  5
105
330
2
100
AcDbSymbolTableRecord
100
AcDbLayerTableRecord
  2
204
 70
     0
 62
   204
  6
CONTINUOUS
  0
LAYER
  5
106
330
2
100
AcDbSymbolTableRecord
100
AcDbLayerTableRecord
  2
205
 70
     0
 62
   205
  6
CONTINUOUS
  0
LAYER
  5
107
330
2
100
AcDbSymbolTableRecord
100
AcDbLayerTableRecord
  2
206
 70
     0
 62
   206
  6
CONTINUOUS
  0
LAYER
  5
108
330
2
100
AcDbSymbolTableRecord
100
AcDbLayerTableRecord
  2
207
 70
     0
 62
   207
  6
CONTINUOUS
  0
LAYER
  5
109
330
2
100
AcDbSymbolTableRecord
100
AcDbLayerTableRecord
  2
208
 70
     0
 62
   208
  6
CONTINUOUS
  0
LAYER
  5
10A
330
2
100
AcDbSymbolTableRecord
100
AcDbLayerTableRecord
  2
209
 70
     0
 62
   209
  6
CONTINUOUS
  0
LAYER
  5
10B
330
2
100
AcDbSymbolTableRecord
100
AcDbLayerTableRecord
  2
210
 70
     0
 62
   210
  6
CONTINUOUS
  0
LAYER
  5
10C
330
2
100
AcDbSymbolTableRecord
100
AcDbLayerTableRecord
  2
211
 70
     0
 62
   211
  6
CONTINUOUS
  0
LAYER
  5
10D
330
2
100
AcDbSymbolTableRecord
100
AcDbLayerTableRecord
  2
212
 70
     0
 62
   212
  6
CONTINUOUS
  0
LAYER
  5
10E
330
2
100
AcDbSymbolTableRecord
100
AcDbLayerTableRecord
  2
213
 70
     0
 62
   213
  6
CONTINUOUS
  0
LAYER
  5
10F
330
2
100
AcDbSymbolTableRecord
100
AcDbLayerTableRecord
  2
214
 70
     0
 62
   214
  6
CONTINUOUS
  0
LAYER
  5
110
330
2
100
AcDbSymbolTableRecord
100
AcDbLayerTableRecord
  2
215
 70
     0
 62
   215
  6
CONTINUOUS
  0
LAYER
  5
111
330
2
100
AcDbSymbolTableRecord
100
AcDbLayerTableRecord
  2
216
 70
     0
 62
   216
  6
CONTINUOUS
  0
LAYER
  5
112
330
2
100
AcDbSymbolTableRecord
100
AcDbLayerTableRecord
  2
217
 70
     0
 62
   217
  6
CONTINUOUS
  0
LAYER
  5
113
330
2
100
AcDbSymbolTableRecord
100
AcDbLayerTableRecord
  2
218
 70
     0
 62
   218
  6
CONTINUOUS
  0
LAYER
  5
114
330
2
100
AcDbSymbolTableRecord
100
AcDbLayerTableRecord
  2
219
 70
     0
 62
   219
  6
CONTINUOUS
  0
LAYER
  5
115
330
2
100
AcDbSymbolTableRecord
100
AcDbLayerTableRecord
  2
220
 70
     0
 62
   220
  6
CONTINUOUS
  0
LAYER
  5
116
330
2
100
AcDbSymbolTableRecord
100
AcDbLayerTableRecord
  2
221
 70
     0
 62
   221
  6
CONTINUOUS
  0
LAYER
  5
117
330
2
100
AcDbSymbolTableRecord
100
AcDbLayerTableRecord
  2
222
 70
     0
 62
   222
  6
CONTINUOUS
  0
LAYER
  5
118
330
2
100
AcDbSymbolTableRecord
100
AcDbLayerTableRecord
  2
223
 70
     0
 62
   223
  6
CONTINUOUS
  0
LAYER
  5
119
330
2
100
AcDbSymbolTableRecord
100
AcDbLayerTableRecord
  2
224
 70
     0
 62
   224
  6
CONTINUOUS
  0
LAYER
  5
11A
330
2
100
AcDbSymbolTableRecord
100
AcDbLayerTableRecord
  2
225
 70
     0
 62
   225
  6
CONTINUOUS
  0
LAYER
  5
11B
330
2
100
AcDbSymbolTableRecord
100
AcDbLayerTableRecord
  2
226
 70
     0
 62
   226
  6
CONTINUOUS
  0
LAYER
  5
11C
330
2
100
AcDbSymbolTableRecord
100
AcDbLayerTableRecord
  2
227
 70
     0
 62
   227
  6
CONTINUOUS
  0
LAYER
  5
11D
330
2
100
AcDbSymbolTableRecord
100
AcDbLayerTableRecord
  2
228
 70
     0
 62
   228
  6
CONTINUOUS
  0
LAYER
  5
11E
330
2
100
AcDbSymbolTableRecord
100
AcDbLayerTableRecord
  2
229
 70
     0
 62
   229
  6
CONTINUOUS
  0
LAYER
  5
11F
330
2
100
AcDbSymbolTableRecord
100
AcDbLayerTableRecord
  2
230
 70
     0
 62
   230
  6
CONTINUOUS
  0
LAYER
  5
120
330
2
100
AcDbSymbolTableRecord
100
AcDbLayerTableRecord
  2
231
 70
     0
 62
   231
  6
CONTINUOUS
  0
LAYER
  5
121
330
2
100
AcDbSymbolTableRecord
100
AcDbLayerTableRecord
  2
232
 70
     0
 62
   232
  6
CONTINUOUS
  0
LAYER
  5
122
330
2
100
AcDbSymbolTableRecord
100
AcDbLayerTableRecord
  2
233
 70
     0
 62
   233
  6
CONTINUOUS
  0
LAYER
  5
123
330
2
100
AcDbSymbolTableRecord
100
AcDbLayerTableRecord
  2
234
 70
     0
 62
   234
  6
CONTINUOUS
  0
LAYER
  5
124
330
2
100
AcDbSymbolTableRecord
100
AcDbLayerTableRecord
  2
235
 70
     0
 62
   235
  6
CONTINUOUS
  0
LAYER
  5
125
330
2
100
AcDbSymbolTableRecord
100
AcDbLayerTableRecord
  2
236
 70
     0
 62
   236
  6
CONTINUOUS
  0
LAYER
  5
126
330
2
100
AcDbSymbolTableRecord
100
AcDbLayerTableRecord
  2
237
 70
     0
 62
   237
  6
CONTINUOUS
  0
LAYER
  5
127
330
2
100
AcDbSymbolTableRecord
100
AcDbLayerTableRecord
  2
238
 70
     0
 62
   238
  6
CONTINUOUS
  0
LAYER
  5
128
330
2
100
AcDbSymbolTableRecord
100
AcDbLayerTableRecord
  2
239
 70
     0
 62
   239
  6
CONTINUOUS
  0
LAYER
  5
129
330
2
100
AcDbSymbolTableRecord
100
AcDbLayerTableRecord
  2
240
 70
     0
 62
   240
  6
CONTINUOUS
  0
LAYER
  5
12A
330
2
100
AcDbSymbolTableRecord
100
AcDbLayerTableRecord
  2
241
 70
     0
 62
   241
  6
CONTINUOUS
  0
LAYER
  5
12B
330
2
100
AcDbSymbolTableRecord
100
AcDbLayerTableRecord
  2
242
 70
     0
 62
   242
  6
CONTINUOUS
  0
LAYER
  5
12C
330
2
100
AcDbSymbolTableRecord
100
AcDbLayerTableRecord
  2
243
 70
     0
 62
   243
  6
CONTINUOUS
  0
LAYER
  5
12D
330
2
100
AcDbSymbolTableRecord
100
AcDbLayerTableRecord
  2
244
 70
     0
 62
   244
  6
CONTINUOUS
  0
LAYER
  5
12E
330
2
100
AcDbSymbolTableRecord
100
AcDbLayerTableRecord
  2
245
 70
     0
 62
   245
  6
CONTINUOUS
  0
LAYER
  5
12F
330
2
100
AcDbSymbolTableRecord
100
AcDbLayerTableRecord
  2
246
 70
     0
 62
   246
  6
CONTINUOUS
  0
LAYER
  5
130
330
2
100
AcDbSymbolTableRecord
100
AcDbLayerTableRecord
  2
247
 70
     0
 62
   247
  6
CONTINUOUS
  0
LAYER
  5
131
330
2
100
AcDbSymbolTableRecord
100
AcDbLayerTableRecord
  2
248
 70
     0
 62
   248
  6
CONTINUOUS
  0
LAYER
  5
132
330
2
100
AcDbSymbolTableRecord
100
AcDbLayerTableRecord
  2
249
 70
     0
 62
   249
  6
CONTINUOUS
  0
LAYER
  5
133
330
2
100
AcDbSymbolTableRecord
100
AcDbLayerTableRecord
  2
250
 70
     0
 62
   250
  6
CONTINUOUS
  0
LAYER
  5
134
330
2
100
AcDbSymbolTableRecord
100
AcDbLayerTableRecord
  2
251
 70
     0
 62
   251
  6
CONTINUOUS
  0
LAYER
  5
135
330
2
100
AcDbSymbolTableRecord
100
AcDbLayerTableRecord
  2
252
 70
     0
 62
   252
  6
CONTINUOUS
  0
LAYER
  5
136
330
2
100
AcDbSymbolTableRecord
100
AcDbLayerTableRecord
  2
253
 70
     0
 62
   253
  6
CONTINUOUS
  0
LAYER
  5
137
330
2
100
AcDbSymbolTableRecord
100
AcDbLayerTableRecord
  2
254
 70
     0
 62
   254
  6
CONTINUOUS
  0
LAYER
  5
138
330
2
100
AcDbSymbolTableRecord
100
AcDbLayerTableRecord
  2
255
 70
     0
 62
   255
  6
CONTINUOUS
  0
ENDTAB
  0
TABLE
  2
STYLE
  5
3
330
0
100
AcDbSymbolTable
 70
     1
  0
STYLE
  5
11
330
3
100
AcDbSymbolTableRecord
100
AcDbTextStyleTableRecord
  2
STANDARD
 70
     0
 40
0.0
 41
1.0
 50
0.0
 71
     0
 42
0.2
  3
monotxt
  4

  0
ENDTAB
  0
TABLE
  2
VIEW
  5
6
330
0
100
AcDbSymbolTable
 70
     0
  0
ENDTAB
  0
TABLE
  2
UCS
  5
7
330
0
100
AcDbSymbolTable
 70
     0
  0
ENDTAB
  0
TABLE
  2
APPID
  5
9
330
0
100
AcDbSymbolTable
 70
     1
  0
APPID
  5
12
330
9
100
AcDbSymbolTableRecord
100
AcDbRegAppTableRecord
  2
ACAD
 70
     0
  0
ENDTAB
  0
TABLE
  2
DIMSTYLE
  5
A
330
0
100
AcDbSymbolTable
 70
     1
  0
DIMSTYLE
105
44D9
330
A
100
AcDbSymbolTableRecord
100
AcDbDimStyleTableRecord
  2
STANDARD
 70
     0
  3

  4

  5

  6

  7

 40
1.0
 41
0.18
 42
0.0625
 43
0.38
 44
0.18
 45
0.0
 46
0.0
 47
0.0
 48
0.0
140
0.18
141
0.09
142
0.0
143
25.4
144
1.0
145
0.0
146
1.0
147
0.09
 71
     0
 72
     0
 73
     1
 74
     1
 75
     0
 76
     0
 77
     0
 78
     0
170
     0
171
     2
172
     0
173
     0
174
     0
175
     0
176
     0
177
     0
178
     0
270
     2
271
     4
272
     4
273
     2
274
     2
340
11
275
     0
280
     0
281
     0
282
     0
283
     1
284
     0
285
     0
286
     0
287
     3
288
     0
  0
ENDTAB
  0
TABLE
  2
BLOCK_RECORD
  5
1
330
0
100
AcDbSymbolTable
 70
     0
  0
BLOCK_RECORD
  5
1E
102
{ACAD_XDICTIONARY
360
49C9
102
}
330
1
100
AcDbSymbolTableRecord
100
AcDbBlockTableRecord
  2
*MODEL_SPACE
  0
BLOCK_RECORD
  5
1A
102
{ACAD_XDICTIONARY
360
49C7
102
}
330
1
100
AcDbSymbolTableRecord
100
AcDbBlockTableRecord
  2
*PAPER_SPACE
  0
ENDTAB
  0
ENDSEC
  0
SECTION
  2
BLOCKS
  0
BLOCK
  5
13B
330
1E
100
AcDbEntity
  8
0
100
AcDbBlockBegin
  2
*MODEL_SPACE
 70
     0
 10
0.0
 20
0.0
 30
0.0
  3
*MODEL_SPACE
  1

  0
ENDBLK
  5
13C
330
1E
100
AcDbEntity
  8
0
100
AcDbBlockEnd
  0
BLOCK
  5
139
330
1A
100
AcDbEntity
 67
     1
  8
0
100
AcDbBlockBegin
  2
*PAPER_SPACE
 70
     0
 10
0.0
 20
0.0
 30
0.0
  3
*PAPER_SPACE
  1

  0
ENDBLK
  5
13A
330
1A
100
AcDbEntity
 67
     1
  8
0
100
AcDbBlockEnd
  0
ENDSEC
  0
SECTION
  2
ENTITIES
  0
LINE
  5
2293
330
1E
100
AcDbEntity
  8
7
100
AcDbLine
 10
35.64280655501969
 20
32.85791360167321
 30
0.0
 11
35.51588384478344
 21
32.85791360167321
 31
0.0
  0
LINE
  5
2294
330
1E
100
AcDbEntity
  8
7
100
AcDbLine
 10
35.51588384478344
 20
32.73099089143699
 30
0.0
 11
35.64280655501969
 21
32.73099089143699
 31
0.0
  0
LINE
  5
2295
330
1E
100
AcDbEntity
  8
7
100
AcDbLine
 10
53.26919793907482
 20
32.92137495679134
 30
0.0
 11
52.76150709812993
 21
32.92137495679134
 31
0.0
  0
LINE
  5
2296
330
1E
100
AcDbEntity
  8
7
100
AcDbLine
 10
52.76150709812993
 20
32.66752953631889
 30
0.0
 11
53.26919793907482
 21
32.66752953631889
 31
0.0
  0
LINE
  5
2297
330
1E
100
AcDbEntity
  8
7
100
AcDbLine
 10
36.15049739596457
 20
32.92137495679134
 30
0.0
 11
35.64280655501969
 21
32.92137495679134
 31
0.0
  0
LINE
  5
2298
330
1E
100
AcDbEntity
  8
7
100
AcDbLine
 10
35.64280655501969
 20
32.66752953631889
 30
0.0
 11
36.15049739596457
 21
32.66752953631889
 31
0.0
  0
LINE
  5
2299
330
1E
100
AcDbEntity
  8
7
100
AcDbLine
 10
34.88920296299213
 20
32.66752953631889
 30
0.0
 11
35.51588384478344
 21
32.66752953631889
 31
0.0
  0
LINE
  5
229A
330
1E
100
AcDbEntity
  8
7
100
AcDbLine
 10
52.13482621633857
 20
32.66752953631889
 30
0.0
 11
52.76150709812993
 21
32.66752953631889
 31
0.0
  0
LINE
  5
22AF
330
1E
100
AcDbEntity
  8
7
100
AcDbLine
 10
34.44497347716535
 20
26.01995258769684
 30
0.0
 11
34.44497347716535
 21
26.11514462037401
 31
0.0
  0
LINE
  5
22B8
330
1E
100
AcDbEntity
  8
7
100
AcDbLine
 10
53.72136009429136
 20
25.97235657135827
 30
0.0
 11
53.7134274249016
 21
25.97235657135827
 31
0.0
  0
LINE
  5
22C1
330
1E
100
AcDbEntity
  8
7
100
AcDbLine
 10
53.8403501351378
 20
26.11514462037401
 30
0.0
 11
53.83241746574803
 21
26.01995258769684
 31
0.0
  0
LINE
  5
22C7
330
1E
100
AcDbEntity
  8
7
100
AcDbLine
 10
53.72929276368112
 20
26.12307728976378
 30
0.0
 11
53.72136009429136
 21
26.25
 31
0.0
  0
LINE
  5
22C8
330
1E
100
AcDbEntity
  8
7
100
AcDbLine
 10
53.72136009429136
 20
26.25
 30
0.0
 11
53.7134274249016
 21
26.32139402450786
 31
0.0
  0
LINE
  5
22C9
330
1E
100
AcDbEntity
  8
7
100
AcDbLine
 10
53.72929276368112
 20
26.11514462037401
 30
0.0
 11
53.7134274249016
 21
26.11514462037401
 31
0.0
  0
LINE
  5
22CA
330
1E
100
AcDbEntity
  8
7
100
AcDbLine
 10
53.72929276368112
 20
26.11514462037401
 30
0.0
 11
53.72929276368112
 21
26.12307728976378
 31
0.0
  0
LINE
  5
22D5
330
1E
100
AcDbEntity
  8
7
100
AcDbLine
 10
34.55603084862202
 20
26.11514462037401
 30
0.0
 11
34.5718961874016
 21
26.11514462037401
 31
0.0
  0
LINE
  5
22DB
330
1E
100
AcDbEntity
  8
7
100
AcDbLine
 10
34.55603084862202
 20
26.12307728976378
 30
0.0
 11
34.55603084862202
 21
26.11514462037401
 31
0.0
  0
LINE
  5
2338
330
1E
100
AcDbEntity
  8
7
100
AcDbLine
 10
34.45290614655511
 20
26.01995258769684
 30
0.0
 11
34.46877148533463
 21
25.9882219101378
 31
0.0
  0
LINE
  5
2339
330
1E
100
AcDbEntity
  8
7
100
AcDbLine
 10
34.46877148533463
 20
25.9882219101378
 30
0.0
 11
34.50050216289369
 21
25.97235657135827
 31
0.0
  0
LINE
  5
233A
330
1E
100
AcDbEntity
  8
7
100
AcDbLine
 10
44.19422415718505
 20
32.04084865452756
 30
0.0
 11
44.25768551230315
 21
32.10431000964566
 31
0.0
  0
LINE
  5
233B
330
1E
100
AcDbEntity
  8
7
100
AcDbLine
 10
44.79710703080708
 20
32.34229009133857
 30
0.0
 11
44.79710703080708
 21
32.04084865452756
 31
0.0
  0
LINE
  5
233C
330
1E
100
AcDbEntity
  8
7
100
AcDbLine
 10
44.52739627155511
 20
32.04084865452756
 30
0.0
 11
44.59085762667321
 21
32.10431000964566
 31
0.0
  0
LINE
  5
233D
330
1E
100
AcDbEntity
  8
7
100
AcDbLine
 10
45.24926918602362
 20
32.34229009133857
 30
0.0
 11
45.0112891043307
 21
32.34229009133857
 31
0.0
  0
LINE
  5
233E
330
1E
100
AcDbEntity
  8
7
100
AcDbLine
 10
44.3528775449803
 20
32.34229009133857
 30
0.0
 11
44.3528775449803
 21
32.10431000964566
 31
0.0
  0
LINE
  5
233F
330
1E
100
AcDbEntity
  8
7
100
AcDbLine
 10
44.01970543061023
 20
32.34229009133857
 30
0.0
 11
44.01970543061023
 21
32.04084865452756
 31
0.0
  0
LINE
  5
2340
330
1E
100
AcDbEntity
  8
7
100
AcDbLine
 10
43.36129387125981
 20
32.04084865452756
 30
0.0
 11
43.4802839121063
 21
32.34229009133857
 31
0.0
  0
LINE
  5
2341
330
1E
100
AcDbEntity
  8
7
100
AcDbLine
 10
44.59085762667321
 20
32.10431000964566
 30
0.0
 11
44.59085762667321
 21
32.34229009133857
 31
0.0
  0
LINE
  5
2342
330
1E
100
AcDbEntity
  8
7
100
AcDbLine
 10
43.42475522637797
 20
32.19156937293306
 30
0.0
 11
43.5437452672244
 21
32.19156937293306
 31
0.0
  0
LINE
  5
2343
330
1E
100
AcDbEntity
  8
7
100
AcDbLine
 10
43.03605442627952
 20
32.04084865452756
 30
0.0
 11
43.03605442627952
 21
32.34229009133857
 31
0.0
  0
LINE
  5
2344
330
1E
100
AcDbEntity
  8
7
100
AcDbLine
 10
44.01970543061023
 20
32.04084865452756
 30
0.0
 11
44.19422415718505
 21
32.04084865452756
 31
0.0
  0
LINE
  5
2345
330
1E
100
AcDbEntity
  8
7
100
AcDbLine
 10
43.69446598562993
 20
32.04084865452756
 30
0.0
 11
43.69446598562993
 21
32.34229009133857
 31
0.0
  0
LINE
  5
2346
330
1E
100
AcDbEntity
  8
7
100
AcDbLine
 10
43.27403450797244
 20
32.22330005049211
 30
0.0
 11
43.21057315285433
 21
32.19156937293306
 31
0.0
  0
LINE
  5
2347
330
1E
100
AcDbEntity
  8
7
100
AcDbLine
 10
44.76537635324802
 20
32.34229009133857
 30
0.0
 11
44.82883770836612
 21
32.34229009133857
 31
0.0
  0
LINE
  5
2348
330
1E
100
AcDbEntity
  8
7
100
AcDbLine
 10
44.40840623070868
 20
32.04084865452756
 30
0.0
 11
44.52739627155511
 21
32.04084865452756
 31
0.0
  0
LINE
  5
2349
330
1E
100
AcDbEntity
  8
7
100
AcDbLine
 10
44.25768551230315
 20
32.10431000964566
 30
0.0
 11
44.25768551230315
 21
32.27882873622047
 31
0.0
  0
LINE
  5
234A
330
1E
100
AcDbEntity
  8
7
100
AcDbLine
 10
43.27403450797244
 20
32.31055941377952
 30
0.0
 11
43.27403450797244
 21
32.22330005049211
 31
0.0
  0
LINE
  5
234B
330
1E
100
AcDbEntity
  8
7
100
AcDbLine
 10
45.13027914517714
 20
32.34229009133857
 30
0.0
 11
45.13027914517714
 21
32.04084865452756
 31
0.0
  0
LINE
  5
234C
330
1E
100
AcDbEntity
  8
7
100
AcDbLine
 10
43.4802839121063
 20
32.34229009133857
 30
0.0
 11
43.59927395295273
 21
32.04084865452756
 31
0.0
  0
LINE
  5
234D
330
1E
100
AcDbEntity
  8
7
100
AcDbLine
 10
43.69446598562993
 20
32.34229009133857
 30
0.0
 11
43.93244606732285
 21
32.04084865452756
 31
0.0
  0
LINE
  5
234E
330
1E
100
AcDbEntity
  8
7
100
AcDbLine
 10
44.3528775449803
 20
32.10431000964566
 30
0.0
 11
44.40840623070868
 21
32.04084865452756
 31
0.0
  0
LINE
  5
234F
330
1E
100
AcDbEntity
  8
7
100
AcDbLine
 10
43.03605442627952
 20
32.34229009133857
 30
0.0
 11
43.21057315285433
 21
32.34229009133857
 31
0.0
  0
LINE
  5
2350
330
1E
100
AcDbEntity
  8
7
100
AcDbLine
 10
43.21057315285433
 20
32.19156937293306
 30
0.0
 11
43.03605442627952
 21
32.19156937293306
 31
0.0
  0
LINE
  5
2351
330
1E
100
AcDbEntity
  8
7
100
AcDbLine
 10
43.93244606732285
 20
32.04084865452756
 30
0.0
 11
43.93244606732285
 21
32.34229009133857
 31
0.0
  0
LINE
  5
2352
330
1E
100
AcDbEntity
  8
7
100
AcDbLine
 10
43.21057315285433
 20
32.34229009133857
 30
0.0
 11
43.27403450797244
 21
32.31055941377952
 31
0.0
  0
LINE
  5
2353
330
1E
100
AcDbEntity
  8
7
100
AcDbLine
 10
44.76537635324802
 20
32.04084865452756
 30
0.0
 11
44.82883770836612
 21
32.04084865452756
 31
0.0
  0
LINE
  5
2359
330
1E
100
AcDbEntity
  8
7
100
AcDbLine
 10
36.15049739596457
 20
32.64373152814958
 30
0.0
 11
36.36467946948821
 21
32.64373152814958
 31
0.0
  0
LINE
  5
235A
330
1E
100
AcDbEntity
  8
7
100
AcDbLine
 10
51.03218517116142
 20
32.64373152814958
 30
0.0
 11
52.76150709812993
 21
32.64373152814958
 31
0.0
  0
LINE
  5
235B
330
1E
100
AcDbEntity
  8
7
100
AcDbLine
 10
53.26919793907482
 20
32.64373152814958
 30
0.0
 11
53.64996606978344
 21
32.64373152814958
 31
0.0
  0
LINE
  5
235C
330
1E
100
AcDbEntity
  8
7
100
AcDbLine
 10
34.5718961874016
 20
31.80286857283464
 30
0.0
 11
34.5718961874016
 21
26.12307728976378
 31
0.0
  0
LINE
  5
235D
330
1E
100
AcDbEntity
  8
7
100
AcDbLine
 10
53.7134274249016
 20
32.58027017303148
 30
0.0
 11
53.7134274249016
 21
26.12307728976378
 31
0.0
  0
LINE
  5
2363
330
1E
100
AcDbEntity
  8
7
100
AcDbLine
 10
53.26919793907482
 20
32.64373152814958
 30
0.0
 11
53.26919793907482
 21
32.66752953631889
 31
0.0
  0
LINE
  5
2364
330
1E
100
AcDbEntity
  8
7
100
AcDbLine
 10
52.76150709812993
 20
32.64373152814958
 30
0.0
 11
52.76150709812993
 21
32.66752953631889
 31
0.0
  0
LINE
  5
236A
330
1E
100
AcDbEntity
  8
7
100
AcDbLine
 10
50.96872381604332
 20
32.78651957716535
 30
0.0
 11
50.96872381604332
 21
32.70719288326771
 31
0.0
  0
LINE
  5
2370
330
1E
100
AcDbEntity
  8
7
100
AcDbLine
 10
36.4916021797244
 20
32.84204826289369
 30
0.0
 11
50.91319513031493
 21
32.84204826289369
 31
0.0
  0
LINE
  5
2376
330
1E
100
AcDbEntity
  8
7
100
AcDbLine
 10
36.4281408246063
 20
32.70719288326771
 30
0.0
 11
36.4281408246063
 21
32.78651957716535
 31
0.0
  0
LINE
  5
237C
330
1E
100
AcDbEntity
  8
7
100
AcDbLine
 10
36.15049739596457
 20
32.64373152814958
 30
0.0
 11
36.15049739596457
 21
32.66752953631889
 31
0.0
  0
LINE
  5
237D
330
1E
100
AcDbEntity
  8
7
100
AcDbLine
 10
35.64280655501969
 20
32.64373152814958
 30
0.0
 11
35.64280655501969
 21
32.66752953631889
 31
0.0
  0
LINE
  5
237E
330
1E
100
AcDbEntity
  8
7
100
AcDbLine
 10
34.96059698749999
 20
32.64373152814958
 30
0.0
 11
35.64280655501969
 21
32.64373152814958
 31
0.0
  0
LINE
  5
237F
330
1E
100
AcDbEntity
  8
7
100
AcDbLine
 10
34.96059698749999
 20
32.63579885875982
 30
0.0
 11
34.92093364055118
 21
32.6199335199803
 31
0.0
  0
LINE
  5
2380
330
1E
100
AcDbEntity
  8
7
100
AcDbLine
 10
34.92093364055118
 20
32.6199335199803
 30
0.0
 11
34.90506830177166
 21
32.58027017303148
 31
0.0
  0
LINE
  5
2381
330
1E
100
AcDbEntity
  8
7
100
AcDbLine
 10
34.90506830177166
 20
31.80286857283464
 30
0.0
 11
34.90506830177166
 21
32.58027017303148
 31
0.0
  0
LINE
  5
2387
330
1E
100
AcDbEntity
  8
7
100
AcDbLine
 10
34.5718961874016
 20
31.80286857283464
 30
0.0
 11
34.80987626909445
 21
31.80286857283464
 31
0.0
  0
LINE
  5
2388
330
1E
100
AcDbEntity
  8
7
100
AcDbLine
 10
34.5718961874016
 20
31.80286857283464
 30
0.0
 11
34.5718961874016
 21
31.8108012422244
 31
0.0
  0
LINE
  5
2390
330
1E
100
AcDbEntity
  8
7
100
AcDbLine
 10
34.80987626909445
 20
32.76272156899607
 30
0.0
 11
34.80987626909445
 21
32.75478889960631
 31
0.0
  0
LINE
  5
2391
330
1E
100
AcDbEntity
  8
7
100
AcDbLine
 10
34.80987626909445
 20
31.8108012422244
 30
0.0
 11
34.80987626909445
 21
32.75478889960631
 31
0.0
  0
LINE
  5
23A5
330
1E
100
AcDbEntity
  8
7
100
AcDbLine
 10
34.75434758336612
 20
32.81031758533464
 30
0.0
 11
34.75434758336612
 21
32.8182502547244
 31
0.0
  0
LINE
  5
23A6
330
1E
100
AcDbEntity
  8
7
100
AcDbLine
 10
34.62742487312993
 20
32.8182502547244
 30
0.0
 11
34.62742487312993
 21
32.81031758533464
 31
0.0
  0
LINE
  5
23BC
330
1E
100
AcDbEntity
  8
7
100
AcDbLine
 10
53.7134274249016
 20
25.90889521624015
 30
0.0
 11
34.5718961874016
 21
25.90889521624015
 31
0.0
  0
LINE
  5
23C7
330
1E
100
AcDbEntity
  8
7
100
AcDbLine
 10
53.7134274249016
 20
25.99615457952756
 30
0.0
 11
34.5718961874016
 21
25.99615457952756
 31
0.0
  0
LINE
  5
23C8
330
1E
100
AcDbEntity
  8
7
100
AcDbLine
 10
53.7134274249016
 20
25.99615457952756
 30
0.0
 11
53.7134274249016
 21
26.12307728976378
 31
0.0
  0
LINE
  5
23C9
330
1E
100
AcDbEntity
  8
7
100
AcDbLine
 10
34.5718961874016
 20
25.99615457952756
 30
0.0
 11
34.5718961874016
 21
26.12307728976378
 31
0.0
  0
LINE
  5
23CF
330
1E
100
AcDbEntity
  8
7
100
AcDbLine
 10
53.58650471466535
 20
26.25
 30
0.0
 11
34.69881889763779
 21
26.25
 31
0.0
  0
LINE
  5
23D5
330
1E
100
AcDbEntity
  8
7
100
AcDbLine
 10
34.5718961874016
 20
32.92137495679134
 30
0.0
 11
34.5718961874016
 21
32.85791360167321
 31
0.0
  0
LINE
  5
23D6
330
1E
100
AcDbEntity
  8
7
100
AcDbLine
 10
53.7134274249016
 20
32.85791360167321
 30
0.0
 11
53.7134274249016
 21
32.92137495679134
 31
0.0
  0
LINE
  5
23DF
330
1E
100
AcDbEntity
  8
7
100
AcDbLine
 10
53.7134274249016
 20
32.85791360167321
 30
0.0
 11
53.26919793907482
 21
32.85791360167321
 31
0.0
  0
LINE
  5
23E0
330
1E
100
AcDbEntity
  8
7
100
AcDbLine
 10
52.13482621633857
 20
32.85791360167321
 30
0.0
 11
36.15049739596457
 21
32.85791360167321
 31
0.0
  0
LINE
  5
23E1
330
1E
100
AcDbEntity
  8
7
100
AcDbLine
 10
35.64280655501969
 20
32.85791360167321
 30
0.0
 11
35.51588384478344
 21
32.85791360167321
 31
0.0
  0
LINE
  5
23E2
330
1E
100
AcDbEntity
  8
7
100
AcDbLine
 10
34.88920296299213
 20
32.85791360167321
 30
0.0
 11
34.5718961874016
 21
32.85791360167321
 31
0.0
  0
LINE
  5
23E3
330
1E
100
AcDbEntity
  8
7
100
AcDbLine
 10
53.7134274249016
 20
32.58027017303148
 30
0.0
 11
53.7134274249016
 21
32.83411559350393
 31
0.0
  0
LINE
  5
23E4
330
1E
100
AcDbEntity
  8
7
100
AcDbLine
 10
53.26919793907482
 20
32.83411559350393
 30
0.0
 11
53.7134274249016
 21
32.83411559350393
 31
0.0
  0
LINE
  5
23E5
330
1E
100
AcDbEntity
  8
7
100
AcDbLine
 10
34.5718961874016
 20
32.83411559350393
 30
0.0
 11
34.5718961874016
 21
32.76272156899607
 31
0.0
  0
LINE
  5
23E6
330
1E
100
AcDbEntity
  8
7
100
AcDbLine
 10
35.39689380393701
 20
32.66752953631889
 30
0.0
 11
35.39689380393701
 21
32.64373152814958
 31
0.0
  0
LINE
  5
23E7
330
1E
100
AcDbEntity
  8
7
100
AcDbLine
 10
34.88920296299213
 20
32.83411559350393
 30
0.0
 11
34.5718961874016
 21
32.83411559350393
 31
0.0
  0
LINE
  5
23F2
330
1E
100
AcDbEntity
  8
7
100
AcDbLine
 10
34.84160694665356
 20
32.1836367035433
 30
0.0
 11
34.90506830177166
 21
32.1836367035433
 31
0.0
  0
LINE
  5
23F3
330
1E
100
AcDbEntity
  8
7
100
AcDbLine
 10
34.90506830177166
 20
31.93772395246062
 30
0.0
 11
34.84160694665356
 21
31.93772395246062
 31
0.0
  0
LINE
  5
23F4
330
1E
100
AcDbEntity
  8
7
100
AcDbLine
 10
35.4841531672244
 20
32.66752953631889
 30
0.0
 11
35.4841531672244
 21
32.64373152814958
 31
0.0
  0
LINE
  5
23F5
330
1E
100
AcDbEntity
  8
7
100
AcDbLine
 10
36.15049739596457
 20
32.83411559350393
 30
0.0
 11
36.45193883277558
 21
32.83411559350393
 31
0.0
  0
LINE
  5
23F6
330
1E
100
AcDbEntity
  8
7
100
AcDbLine
 10
50.9528584772638
 20
32.83411559350393
 30
0.0
 11
52.13482621633857
 21
32.83411559350393
 31
0.0
  0
LINE
  5
23F7
330
1E
100
AcDbEntity
  8
7
100
AcDbLine
 10
52.72184375118112
 20
32.66752953631889
 30
0.0
 11
52.72184375118112
 21
32.64373152814958
 31
0.0
  0
LINE
  5
23F8
330
1E
100
AcDbEntity
  8
7
100
AcDbLine
 10
35.5793451999016
 20
32.85791360167321
 30
0.0
 11
35.57141253051183
 21
32.85791360167321
 31
0.0
  0
LINE
  5
23F9
330
1E
100
AcDbEntity
  8
7
100
AcDbLine
 10
35.49208583661416
 20
32.66752953631889
 30
0.0
 11
35.49208583661416
 21
32.64373152814958
 31
0.0
  0
LINE
  5
23FA
330
1E
100
AcDbEntity
  8
7
100
AcDbLine
 10
35.55554719173226
 20
32.73099089143699
 30
0.0
 11
35.55554719173226
 21
32.64373152814958
 31
0.0
  0
LINE
  5
2402
330
1E
100
AcDbEntity
  8
7
100
AcDbLine
 10
35.51588384478344
 20
32.92137495679134
 30
0.0
 11
35.51588384478344
 21
32.88964427923226
 31
0.0
  0
LINE
  5
2417
330
1E
100
AcDbEntity
  8
7
100
AcDbLine
 10
35.64280655501969
 20
40.83024633838583
 30
0.0
 11
35.51588384478344
 21
40.83024633838583
 31
0.0
  0
LINE
  5
2418
330
1E
100
AcDbEntity
  8
7
100
AcDbLine
 10
35.51588384478344
 20
40.71125629753934
 30
0.0
 11
35.64280655501969
 21
40.71125629753934
 31
0.0
  0
LINE
  5
2419
330
1E
100
AcDbEntity
  8
7
100
AcDbLine
 10
52.76150709812993
 20
40.64779494242125
 30
0.0
 11
53.26919793907482
 21
40.64779494242125
 31
0.0
  0
LINE
  5
241A
330
1E
100
AcDbEntity
  8
7
100
AcDbLine
 10
35.64280655501969
 20
40.64779494242125
 30
0.0
 11
36.15049739596457
 21
40.64779494242125
 31
0.0
  0
LINE
  5
241B
330
1E
100
AcDbEntity
  8
7
100
AcDbLine
 10
34.88920296299213
 20
40.63986227303149
 30
0.0
 11
35.51588384478344
 21
40.63986227303149
 31
0.0
  0
LINE
  5
241C
330
1E
100
AcDbEntity
  8
7
100
AcDbLine
 10
52.13482621633857
 20
40.63986227303149
 30
0.0
 11
52.76150709812993
 21
40.63986227303149
 31
0.0
  0
LINE
  5
241D
330
1E
100
AcDbEntity
  8
7
100
AcDbLine
 10
53.8165521269685
 20
46.86700774399606
 30
0.0
 11
53.8403501351378
 21
46.86700774399606
 31
0.0
  0
LINE
  5
242A
330
1E
100
AcDbEntity
  8
7
100
AcDbLine
 10
34.44497347716535
 20
46.86700774399606
 30
0.0
 11
34.46877148533463
 21
46.86700774399606
 31
0.0
  0
LINE
  5
2450
330
1E
100
AcDbEntity
  8
7
100
AcDbLine
 10
45.46345125954725
 20
45.48672327017714
 30
0.0
 11
45.46345125954725
 21
43.0672591062992
 31
0.0
  0
LINE
  5
2451
330
1E
100
AcDbEntity
  8
7
100
AcDbLine
 10
45.46345125954725
 20
43.0672591062992
 30
0.0
 11
45.46345125954725
 21
45.48672327017714
 31
0.0
  0
LINE
  5
2470
330
1E
100
AcDbEntity
  8
7
100
AcDbLine
 10
37.53078186978344
 20
43.0672591062992
 30
0.0
 11
37.53078186978344
 21
45.48672327017714
 31
0.0
  0
LINE
  5
2471
330
1E
100
AcDbEntity
  8
7
100
AcDbLine
 10
37.53078186978344
 20
45.48672327017714
 30
0.0
 11
37.53078186978344
 21
43.0672591062992
 31
0.0
  0
LINE
  5
2477
330
1E
100
AcDbEntity
  8
7
100
AcDbLine
 10
37.15001373907481
 20
43.0672591062992
 30
0.0
 11
37.15001373907481
 21
45.48672327017714
 31
0.0
  0
LINE
  5
2478
330
1E
100
AcDbEntity
  8
7
100
AcDbLine
 10
37.02309102883856
 20
45.47879060078737
 30
0.0
 11
37.02309102883856
 21
43.0672591062992
 31
0.0
  0
LINE
  5
2479
330
1E
100
AcDbEntity
  8
7
100
AcDbLine
 10
38.91899901299213
 20
43.0672591062992
 30
0.0
 11
38.91899901299213
 21
45.48672327017714
 31
0.0
  0
LINE
  5
247A
330
1E
100
AcDbEntity
  8
7
100
AcDbLine
 10
38.79207630275589
 20
45.48672327017714
 30
0.0
 11
38.79207630275589
 21
43.0672591062992
 31
0.0
  0
LINE
  5
247B
330
1E
100
AcDbEntity
  8
7
100
AcDbLine
 10
40.55312890728345
 20
45.22494518031494
 30
0.0
 11
40.55312890728345
 21
43.32110452677163
 31
0.0
  0
LINE
  5
247C
330
1E
100
AcDbEntity
  8
7
100
AcDbLine
 10
42.44110422204726
 20
43.09898978385827
 30
0.0
 11
42.44110422204726
 21
45.44705992322834
 31
0.0
  0
LINE
  5
247D
330
1E
100
AcDbEntity
  8
7
100
AcDbLine
 10
42.31418151181101
 20
45.37566589872047
 30
0.0
 11
42.31418151181101
 21
43.17831647775589
 31
0.0
  0
LINE
  5
247E
330
1E
100
AcDbEntity
  8
7
100
AcDbLine
 10
44.20215682657481
 20
43.0672591062992
 30
0.0
 11
44.20215682657481
 21
45.48672327017714
 31
0.0
  0
LINE
  5
247F
330
1E
100
AcDbEntity
  8
7
100
AcDbLine
 10
44.07523411633856
 20
45.48672327017714
 30
0.0
 11
44.07523411633856
 21
43.0672591062992
 31
0.0
  0
LINE
  5
2480
330
1E
100
AcDbEntity
  8
7
100
AcDbLine
 10
45.97114210049213
 20
43.17831647775589
 30
0.0
 11
45.97114210049213
 21
45.37566589872047
 31
0.0
  0
LINE
  5
2481
330
1E
100
AcDbEntity
  8
7
100
AcDbLine
 10
45.84421939025588
 20
45.44705992322834
 30
0.0
 11
45.84421939025588
 21
43.09898978385827
 31
0.0
  0
LINE
  5
2482
330
1E
100
AcDbEntity
  8
7
100
AcDbLine
 10
47.73219470501969
 20
43.32110452677163
 30
0.0
 11
47.73219470501969
 21
45.22494518031494
 31
0.0
  0
LINE
  5
2483
330
1E
100
AcDbEntity
  8
7
100
AcDbLine
 10
49.49324730954725
 20
43.0672591062992
 30
0.0
 11
49.49324730954725
 21
45.48672327017714
 31
0.0
  0
LINE
  5
2484
330
1E
100
AcDbEntity
  8
7
100
AcDbLine
 10
49.366324599311
 20
45.48672327017714
 30
0.0
 11
49.366324599311
 21
43.0672591062992
 31
0.0
  0
LINE
  5
2485
330
1E
100
AcDbEntity
  8
7
100
AcDbLine
 10
51.25429991407481
 20
43.0672591062992
 30
0.0
 11
51.25429991407481
 21
45.47879060078737
 31
0.0
  0
LINE
  5
2486
330
1E
100
AcDbEntity
  8
7
100
AcDbLine
 10
51.12737720383856
 20
45.48672327017714
 30
0.0
 11
51.12737720383856
 21
43.0672591062992
 31
0.0
  0
LINE
  5
2491
330
1E
100
AcDbEntity
  8
7
100
AcDbLine
 10
53.72929276368112
 20
46.23239419281493
 30
0.0
 11
53.7134274249016
 21
46.23239419281493
 31
0.0
  0
LINE
  5
2492
330
1E
100
AcDbEntity
  8
7
100
AcDbLine
 10
34.55603084862202
 20
46.23239419281493
 30
0.0
 11
34.5718961874016
 21
46.23239419281493
 31
0.0
  0
LINE
  5
24CA
330
1E
100
AcDbEntity
  8
7
100
AcDbLine
 10
53.77688878001969
 20
46.86700774399606
 30
0.0
 11
53.8165521269685
 21
46.86700774399606
 31
0.0
  0
LINE
  5
24D2
330
1E
100
AcDbEntity
  8
7
100
AcDbLine
 10
34.54016550984249
 20
46.2403268622047
 30
0.0
 11
34.55603084862202
 21
46.23239419281493
 31
0.0
  0
LINE
  5
24F1
330
1E
100
AcDbEntity
  8
7
100
AcDbLine
 10
34.46877148533463
 20
46.81941172765746
 30
0.0
 11
34.50843483228345
 21
46.86700774399606
 31
0.0
  0
LINE
  5
24F2
330
1E
100
AcDbEntity
  8
7
100
AcDbLine
 10
34.46877148533463
 20
46.86700774399606
 30
0.0
 11
34.50843483228345
 21
46.86700774399606
 31
0.0
  0
LINE
  5
24F3
330
1E
100
AcDbEntity
  8
7
100
AcDbLine
 10
44.19422415718505
 20
40.89370769350392
 30
0.0
 11
44.25768551230315
 21
40.89370769350392
 31
0.0
  0
LINE
  5
24F4
330
1E
100
AcDbEntity
  8
7
100
AcDbLine
 10
44.52739627155511
 20
40.89370769350392
 30
0.0
 11
44.59085762667321
 21
40.89370769350392
 31
0.0
  0
LINE
  5
24F5
330
1E
100
AcDbEntity
  8
7
100
AcDbLine
 10
45.24926918602362
 20
40.89370769350392
 30
0.0
 11
45.0112891043307
 21
40.89370769350392
 31
0.0
  0
LINE
  5
24F6
330
1E
100
AcDbEntity
  8
7
100
AcDbLine
 10
43.36129387125981
 20
40.89370769350392
 30
0.0
 11
43.4802839121063
 21
40.89370769350392
 31
0.0
  0
LINE
  5
24F7
330
1E
100
AcDbEntity
  8
7
100
AcDbLine
 10
43.42475522637797
 20
40.89370769350392
 30
0.0
 11
43.5437452672244
 21
40.89370769350392
 31
0.0
  0
LINE
  5
24F8
330
1E
100
AcDbEntity
  8
7
100
AcDbLine
 10
44.01970543061023
 20
40.89370769350392
 30
0.0
 11
44.19422415718505
 21
40.89370769350392
 31
0.0
  0
LINE
  5
24F9
330
1E
100
AcDbEntity
  8
7
100
AcDbLine
 10
43.27403450797244
 20
40.89370769350392
 30
0.0
 11
43.21057315285433
 21
40.89370769350392
 31
0.0
  0
LINE
  5
24FA
330
1E
100
AcDbEntity
  8
7
100
AcDbLine
 10
44.76537635324802
 20
40.89370769350392
 30
0.0
 11
44.82883770836612
 21
40.89370769350392
 31
0.0
  0
LINE
  5
24FB
330
1E
100
AcDbEntity
  8
7
100
AcDbLine
 10
44.40840623070868
 20
40.89370769350392
 30
0.0
 11
44.52739627155511
 21
40.89370769350392
 31
0.0
  0
LINE
  5
24FC
330
1E
100
AcDbEntity
  8
7
100
AcDbLine
 10
43.4802839121063
 20
40.89370769350392
 30
0.0
 11
43.59927395295273
 21
40.89370769350392
 31
0.0
  0
LINE
  5
24FD
330
1E
100
AcDbEntity
  8
7
100
AcDbLine
 10
43.69446598562993
 20
40.89370769350392
 30
0.0
 11
43.93244606732285
 21
40.89370769350392
 31
0.0
  0
LINE
  5
24FE
330
1E
100
AcDbEntity
  8
7
100
AcDbLine
 10
44.3528775449803
 20
40.89370769350392
 30
0.0
 11
44.40840623070868
 21
40.89370769350392
 31
0.0
  0
LINE
  5
2504
330
1E
100
AcDbEntity
  8
7
100
AcDbLine
 10
43.21057315285433
 20
40.89370769350392
 30
0.0
 11
43.27403450797244
 21
40.89370769350392
 31
0.0
  0
LINE
  5
2505
330
1E
100
AcDbEntity
  8
7
100
AcDbLine
 10
44.76537635324802
 20
40.89370769350392
 30
0.0
 11
44.82883770836612
 21
40.89370769350392
 31
0.0
  0
LINE
  5
251F
330
1E
100
AcDbEntity
  8
7
100
AcDbLine
 10
51.03218517116142
 20
40.83817900777559
 30
0.0
 11
50.99252182421261
 21
40.83817900777559
 31
0.0
  0
LINE
  5
2526
330
1E
100
AcDbEntity
  8
7
100
AcDbLine
 10
36.4916021797244
 20
40.83817900777559
 30
0.0
 11
50.91319513031493
 21
40.83817900777559
 31
0.0
  0
LINE
  5
252E
330
1E
100
AcDbEntity
  8
7
100
AcDbLine
 10
35.51588384478344
 20
40.83817900777559
 30
0.0
 11
35.64280655501969
 21
40.83817900777559
 31
0.0
  0
LINE
  5
2534
330
1E
100
AcDbEntity
  8
7
100
AcDbLine
 10
53.7134274249016
 20
40.89370769350392
 30
0.0
 11
53.7134274249016
 21
40.83817900777559
 31
0.0
  0
LINE
  5
2535
330
1E
100
AcDbEntity
  8
7
100
AcDbLine
 10
34.5718961874016
 20
40.89370769350392
 30
0.0
 11
34.80987626909445
 21
40.89370769350392
 31
0.0
  0
LINE
  5
2536
330
1E
100
AcDbEntity
  8
7
100
AcDbLine
 10
34.5718961874016
 20
40.71918896692913
 30
0.0
 11
34.5718961874016
 21
40.78265032204723
 31
0.0
  0
LINE
  5
2537
330
1E
100
AcDbEntity
  8
7
100
AcDbLine
 10
34.5718961874016
 20
40.89370769350392
 30
0.0
 11
34.5718961874016
 21
40.78265032204723
 31
0.0
  0
LINE
  5
2550
330
1E
100
AcDbEntity
  8
7
100
AcDbLine
 10
34.75434758336612
 20
40.71125629753934
 30
0.0
 11
34.75434758336612
 21
40.77471765265747
 31
0.0
  0
LINE
  5
2551
330
1E
100
AcDbEntity
  8
7
100
AcDbLine
 10
34.62742487312993
 20
40.77471765265747
 30
0.0
 11
34.62742487312993
 21
40.71125629753934
 31
0.0
  0
LINE
  5
256C
330
1E
100
AcDbEntity
  8
7
100
AcDbLine
 10
34.80987626909445
 20
40.80644833021652
 30
0.0
 11
34.88920296299213
 21
40.80644833021652
 31
0.0
  0
LINE
  5
256D
330
1E
100
AcDbEntity
  8
7
100
AcDbLine
 10
36.15049739596457
 20
40.80644833021652
 30
0.0
 11
52.13482621633857
 21
40.80644833021652
 31
0.0
  0
LINE
  5
257F
330
1E
100
AcDbEntity
  8
7
100
AcDbLine
 10
53.7134274249016
 20
40.52087223218502
 30
0.0
 11
53.7134274249016
 21
40.46534354645666
 31
0.0
  0
LINE
  5
2580
330
1E
100
AcDbEntity
  8
7
100
AcDbLine
 10
34.5718961874016
 20
40.46534354645666
 30
0.0
 11
34.5718961874016
 21
40.52087223218502
 31
0.0
  0
LINE
  5
2594
330
1E
100
AcDbEntity
  8
7
100
AcDbLine
 10
53.58650471466535
 20
40.46534354645666
 30
0.0
 11
53.58650471466535
 21
40.52087223218502
 31
0.0
  0
LINE
  5
2595
330
1E
100
AcDbEntity
  8
7
100
AcDbLine
 10
34.69881889763779
 20
40.52087223218502
 30
0.0
 11
34.69881889763779
 21
40.46534354645666
 31
0.0
  0
LINE
  5
2596
330
1E
100
AcDbEntity
  8
7
100
AcDbLine
 10
36.4281408246063
 20
40.83817900777559
 30
0.0
 11
36.4281408246063
 21
40.89370769350392
 31
0.0
  0
LINE
  5
2597
330
1E
100
AcDbEntity
  8
7
100
AcDbLine
 10
36.4916021797244
 20
40.89370769350392
 30
0.0
 11
36.4916021797244
 21
40.83817900777559
 31
0.0
  0
LINE
  5
2598
330
1E
100
AcDbEntity
  8
7
100
AcDbLine
 10
50.91319513031493
 20
40.83817900777559
 30
0.0
 11
50.91319513031493
 21
40.89370769350392
 31
0.0
  0
LINE
  5
2599
330
1E
100
AcDbEntity
  8
7
100
AcDbLine
 10
50.96872381604332
 20
40.89370769350392
 30
0.0
 11
50.96872381604332
 21
40.83817900777559
 31
0.0
  0
LINE
  5
259A
330
1E
100
AcDbEntity
  8
7
100
AcDbLine
 10
34.5718961874016
 20
47.00186312362202
 30
0.0
 11
34.5718961874016
 21
40.89370769350392
 31
0.0
  0
LINE
  5
259B
330
1E
100
AcDbEntity
  8
7
100
AcDbLine
 10
53.7134274249016
 20
47.00186312362202
 30
0.0
 11
53.7134274249016
 21
40.89370769350392
 31
0.0
  0
LINE
  5
259C
330
1E
100
AcDbEntity
  8
7
100
AcDbLine
 10
37.08655238395672
 20
43.0672591062992
 30
0.0
 11
40.10889942145672
 21
43.0672591062992
 31
0.0
  0
LINE
  5
25A3
330
1E
100
AcDbEntity
  8
7
100
AcDbLine
 10
36.89616831860238
 20
43.10692245324803
 30
0.0
 11
37.08655238395672
 21
43.0672591062992
 31
0.0
  0
LINE
  5
25A4
330
1E
100
AcDbEntity
  8
7
100
AcDbLine
 10
36.5867942124016
 20
44.97903242923226
 30
0.0
 11
36.5867942124016
 21
43.56701727785432
 31
0.0
  0
LINE
  5
25AC
330
1E
100
AcDbEntity
  8
7
100
AcDbLine
 10
40.10889942145672
 20
45.48672327017714
 30
0.0
 11
37.08655238395672
 21
45.48672327017714
 31
0.0
  0
LINE
  5
25B4
330
1E
100
AcDbEntity
  8
7
100
AcDbLine
 10
40.61659026240159
 20
44.97903242923226
 30
0.0
 11
40.61659026240159
 21
43.56701727785432
 31
0.0
  0
LINE
  5
25B5
330
1E
100
AcDbEntity
  8
7
100
AcDbLine
 10
40.10889942145672
 20
43.0672591062992
 30
0.0
 11
40.299283486811
 21
43.10692245324803
 31
0.0
  0
LINE
  5
25BC
330
1E
100
AcDbEntity
  8
7
100
AcDbLine
 10
42.6314882874016
 20
43.0672591062992
 30
0.0
 11
45.6538353249016
 21
43.0672591062992
 31
0.0
  0
LINE
  5
25C4
330
1E
100
AcDbEntity
  8
7
100
AcDbLine
 10
42.12379744645672
 20
44.97903242923226
 30
0.0
 11
42.12379744645672
 21
43.56701727785432
 31
0.0
  0
LINE
  5
25CC
330
1E
100
AcDbEntity
  8
7
100
AcDbLine
 10
45.6538353249016
 20
45.48672327017714
 30
0.0
 11
42.6314882874016
 21
45.48672327017714
 31
0.0
  0
LINE
  5
25D4
330
1E
100
AcDbEntity
  8
7
100
AcDbLine
 10
46.15359349645672
 20
44.97903242923226
 30
0.0
 11
46.15359349645672
 21
43.56701727785432
 31
0.0
  0
LINE
  5
25DC
330
1E
100
AcDbEntity
  8
7
100
AcDbLine
 10
48.16849152145671
 20
43.0672591062992
 30
0.0
 11
51.19083855895672
 21
43.0672591062992
 31
0.0
  0
LINE
  5
25E4
330
1E
100
AcDbEntity
  8
7
100
AcDbLine
 10
47.6687333499016
 20
44.97903242923226
 30
0.0
 11
47.6687333499016
 21
43.56701727785432
 31
0.0
  0
LINE
  5
25EC
330
1E
100
AcDbEntity
  8
7
100
AcDbLine
 10
51.19083855895672
 20
45.48672327017714
 30
0.0
 11
48.16849152145671
 21
45.48672327017714
 31
0.0
  0
LINE
  5
25F7
330
1E
100
AcDbEntity
  8
7
100
AcDbLine
 10
51.6985293999016
 20
44.97903242923226
 30
0.0
 11
51.6985293999016
 21
43.56701727785432
 31
0.0
  0
LINE
  5
2605
330
1E
100
AcDbEntity
  8
7
100
AcDbLine
 10
35.51588384478344
 20
40.89370769350392
 30
0.0
 11
35.51588384478344
 21
40.77471765265747
 31
0.0
  0
LINE
  5
260C
330
1E
100
AcDbEntity
  8
7
100
AcDbLine
 10
52.76150709812993
 20
40.89370769350392
 30
0.0
 11
52.76150709812993
 21
40.77471765265747
 31
0.0
  0
LINE
  5
260D
330
1E
100
AcDbEntity
  8
7
100
AcDbLine
 10
52.76150709812993
 20
40.89370769350392
 30
0.0
 11
53.7134274249016
 21
40.89370769350392
 31
0.0
  0
LINE
  5
260E
330
1E
100
AcDbEntity
  8
7
100
AcDbLine
 10
52.64251705728344
 20
47.00186312362202
 30
0.0
 11
53.7134274249016
 21
47.00186312362202
 31
0.0
  0
LINE
  5
2614
330
1E
100
AcDbEntity
  8
7
100
AcDbLine
 10
52.58698837155511
 20
47.15258384202756
 30
0.0
 11
52.58698837155511
 21
47.06532447874015
 31
0.0
  0
LINE
  5
261A
330
1E
100
AcDbEntity
  8
7
100
AcDbLine
 10
52.64251705728344
 20
47.21604519714565
 30
0.0
 11
52.7059784124016
 21
47.21604519714565
 31
0.0
  0
LINE
  5
261B
330
1E
100
AcDbEntity
  8
7
100
AcDbLine
 10
52.7059784124016
 20
48.47733963011809
 30
0.0
 11
52.7059784124016
 21
47.21604519714565
 31
0.0
  0
LINE
  5
261C
330
1E
100
AcDbEntity
  8
7
100
AcDbLine
 10
52.7059784124016
 20
48.47733963011809
 30
0.0
 11
52.68218040423225
 21
48.47733963011809
 31
0.0
  0
LINE
  5
261D
330
1E
100
AcDbEntity
  8
7
100
AcDbLine
 10
35.59521053868112
 20
48.47733963011809
 30
0.0
 11
52.68218040423225
 21
48.47733963011809
 31
0.0
  0
LINE
  5
2629
330
1E
100
AcDbEntity
  8
7
100
AcDbLine
 10
35.69833524074803
 20
47.15258384202756
 30
0.0
 11
35.69833524074803
 21
47.06532447874015
 31
0.0
  0
LINE
  5
262F
330
1E
100
AcDbEntity
  8
7
100
AcDbLine
 10
34.5718961874016
 20
47.00186312362202
 30
0.0
 11
35.63487388562993
 21
47.00186312362202
 31
0.0
  0
LINE
  5
2630
330
1E
100
AcDbEntity
  8
7
100
AcDbLine
 10
53.7134274249016
 20
47.00186312362202
 30
0.0
 11
53.7134274249016
 21
47.06532447874015
 31
0.0
  0
LINE
  5
2631
330
1E
100
AcDbEntity
  8
7
100
AcDbLine
 10
52.88842980836612
 20
47.06532447874015
 30
0.0
 11
53.7134274249016
 21
47.06532447874015
 31
0.0
  0
LINE
  5
263C
330
1E
100
AcDbEntity
  8
7
100
AcDbLine
 10
52.79323777568897
 20
48.47733963011809
 30
0.0
 11
52.79323777568897
 21
47.09705515629919
 31
0.0
  0
LINE
  5
263D
330
1E
100
AcDbEntity
  8
7
100
AcDbLine
 10
52.85669913080708
 20
48.47733963011809
 30
0.0
 11
52.85669913080708
 21
47.09705515629919
 31
0.0
  0
LINE
  5
2648
330
1E
100
AcDbEntity
  8
7
100
AcDbLine
 10
34.5718961874016
 20
47.06532447874015
 30
0.0
 11
34.5718961874016
 21
47.00186312362202
 31
0.0
  0
LINE
  5
2649
330
1E
100
AcDbEntity
  8
7
100
AcDbLine
 10
35.39689380393701
 20
47.06532447874015
 30
0.0
 11
34.5718961874016
 21
47.06532447874015
 31
0.0
  0
LINE
  5
2654
330
1E
100
AcDbEntity
  8
7
100
AcDbLine
 10
35.4206918121063
 20
48.47733963011809
 30
0.0
 11
35.4206918121063
 21
47.09705515629919
 31
0.0
  0
LINE
  5
2655
330
1E
100
AcDbEntity
  8
7
100
AcDbLine
 10
35.4841531672244
 20
48.47733963011809
 30
0.0
 11
35.4841531672244
 21
47.09705515629919
 31
0.0
  0
LINE
  5
2660
330
1E
100
AcDbEntity
  8
7
100
AcDbLine
 10
35.59521053868112
 20
48.57253166279527
 30
0.0
 11
35.51588384478344
 21
48.57253166279527
 31
0.0
  0
LINE
  5
2661
330
1E
100
AcDbEntity
  8
7
100
AcDbLine
 10
52.68218040423225
 20
48.57253166279527
 30
0.0
 11
35.59521053868112
 21
48.57253166279527
 31
0.0
  0
LINE
  5
2662
330
1E
100
AcDbEntity
  8
7
100
AcDbLine
 10
52.76150709812993
 20
48.57253166279527
 30
0.0
 11
52.68218040423225
 21
48.57253166279527
 31
0.0
  0
LINE
  5
2663
330
1E
100
AcDbEntity
  8
7
100
AcDbLine
 10
35.51588384478344
 20
48.50907030767714
 30
0.0
 11
35.59521053868112
 21
48.50907030767714
 31
0.0
  0
LINE
  5
2664
330
1E
100
AcDbEntity
  8
7
100
AcDbLine
 10
52.68218040423225
 20
48.50907030767714
 30
0.0
 11
52.76150709812993
 21
48.50907030767714
 31
0.0
  0
LINE
  5
266F
330
1E
100
AcDbEntity
  8
7
100
AcDbLine
 10
52.76150709812993
 20
48.57253166279527
 30
0.0
 11
52.76150709812993
 21
48.50907030767714
 31
0.0
  0
LINE
  5
2670
330
1E
100
AcDbEntity
  8
7
100
AcDbLine
 10
52.79323777568897
 20
48.47733963011809
 30
0.0
 11
52.85669913080708
 21
48.47733963011809
 31
0.0
  0
LINE
  5
2671
330
1E
100
AcDbEntity
  8
7
100
AcDbLine
 10
52.79323777568897
 20
47.09705515629919
 30
0.0
 11
52.85669913080708
 21
47.09705515629919
 31
0.0
  0
LINE
  5
2672
330
1E
100
AcDbEntity
  8
7
100
AcDbLine
 10
52.88842980836612
 20
47.00186312362202
 30
0.0
 11
52.88842980836612
 21
47.06532447874015
 31
0.0
  0
LINE
  5
2673
330
1E
100
AcDbEntity
  8
7
100
AcDbLine
 10
35.51588384478344
 20
48.57253166279527
 30
0.0
 11
35.51588384478344
 21
48.50907030767714
 31
0.0
  0
LINE
  5
2674
330
1E
100
AcDbEntity
  8
7
100
AcDbLine
 10
35.4206918121063
 20
48.47733963011809
 30
0.0
 11
35.4841531672244
 21
48.47733963011809
 31
0.0
  0
LINE
  5
2675
330
1E
100
AcDbEntity
  8
7
100
AcDbLine
 10
35.4206918121063
 20
47.09705515629919
 30
0.0
 11
35.4841531672244
 21
47.09705515629919
 31
0.0
  0
LINE
  5
2676
330
1E
100
AcDbEntity
  8
7
100
AcDbLine
 10
35.39689380393701
 20
47.06532447874015
 30
0.0
 11
35.39689380393701
 21
47.00186312362202
 31
0.0
  0
LINE
  5
2681
330
1E
100
AcDbEntity
  8
7
100
AcDbLine
 10
52.78530510629922
 20
47.21604519714565
 30
0.0
 11
52.78530510629922
 21
48.47733963011809
 31
0.0
  0
LINE
  5
2682
330
1E
100
AcDbEntity
  8
7
100
AcDbLine
 10
35.5793451999016
 20
48.47733963011809
 30
0.0
 11
35.51588384478344
 21
48.47733963011809
 31
0.0
  0
LINE
  5
2683
330
1E
100
AcDbEntity
  8
7
100
AcDbLine
 10
35.51588384478344
 20
48.47733963011809
 30
0.0
 11
35.49208583661416
 21
48.47733963011809
 31
0.0
  0
LINE
  5
2689
330
1E
100
AcDbEntity
  8
7
100
AcDbLine
 10
35.49208583661416
 20
48.47733963011809
 30
0.0
 11
35.49208583661416
 21
47.21604519714565
 31
0.0
  0
LINE
  5
4227
330
1E
100
AcDbEntity
  8
7
100
AcDbLine
 10
71.71265427027558
 20
26.40865338779526
 30
0.0
 11
71.72058693966535
 21
26.61490279192913
 31
0.0
  0
LINE
  5
4228
330
1E
100
AcDbEntity
  8
7
100
AcDbLine
 10
72.32346981328737
 20
26.81321952667321
 30
0.0
 11
72.32346981328737
 21
26.11514462037401
 31
0.0
  0
LINE
  5
4240
330
1E
100
AcDbEntity
  8
7
100
AcDbLine
 10
71.74438494783465
 20
25.97235657135827
 30
0.0
 11
71.73645227844487
 21
25.97235657135827
 31
0.0
  0
LINE
  5
424C
330
1E
100
AcDbEntity
  8
7
100
AcDbLine
 10
72.09342240098422
 20
26.97980558385827
 30
0.0
 11
72.31553714389761
 21
26.97980558385827
 31
0.0
  0
LINE
  5
424D
330
1E
100
AcDbEntity
  8
7
100
AcDbLine
 10
72.32346981328737
 20
26.11514462037401
 30
0.0
 11
72.32346981328737
 21
26.01995258769684
 31
0.0
  0
LINE
  5
4253
330
1E
100
AcDbEntity
  8
7
100
AcDbLine
 10
72.44245985413385
 20
26.8846135511811
 30
0.0
 11
72.46625786230314
 21
26.8846135511811
 31
0.0
  0
LINE
  5
4254
330
1E
100
AcDbEntity
  8
7
100
AcDbLine
 10
72.34726782145671
 20
26.96394024507875
 30
0.0
 11
72.41072917657482
 21
26.90047888996062
 31
0.0
  0
LINE
  5
425D
330
1E
100
AcDbEntity
  8
7
100
AcDbLine
 10
67.27035941200785
 20
26.47211474291339
 30
0.0
 11
71.37948215590552
 21
26.47211474291339
 31
0.0
  0
LINE
  5
425E
330
1E
100
AcDbEntity
  8
7
100
AcDbLine
 10
66.95305263641731
 20
28.50287810669291
 30
0.0
 11
67.01651399153542
 21
26.71009482460631
 31
0.0
  0
LINE
  5
4266
330
1E
100
AcDbEntity
  8
7
100
AcDbLine
 10
66.60401518326773
 20
26.09927928159446
 30
0.0
 11
66.60401518326773
 21
26.11514462037401
 31
0.0
  0
LINE
  5
42A3
330
1E
100
AcDbEntity
  8
7
100
AcDbLine
 10
72.32346981328737
 20
26.97980558385827
 30
0.0
 11
72.31553714389761
 21
26.97980558385827
 31
0.0
  0
LINE
  5
42C3
330
1E
100
AcDbEntity
  8
7
100
AcDbLine
 10
71.69678893149606
 20
26.12307728976378
 30
0.0
 11
71.63332757637798
 21
26.11514462037401
 31
0.0
  0
LINE
  5
42D7
330
1E
100
AcDbEntity
  8
7
100
AcDbLine
 10
71.69678893149606
 20
26.11514462037401
 30
0.0
 11
71.69678893149606
 21
26.12307728976378
 31
0.0
  0
LINE
  5
430E
330
1E
100
AcDbEntity
  8
7
100
AcDbLine
 10
72.31553714389761
 20
26.97980558385827
 30
0.0
 11
72.32346981328737
 21
26.97980558385827
 31
0.0
  0
LINE
  5
430F
330
1E
100
AcDbEntity
  8
7
100
AcDbLine
 10
72.32346981328737
 20
26.93220956751967
 30
0.0
 11
72.28380646633858
 21
26.86081554301178
 31
0.0
  0
LINE
  5
4310
330
1E
100
AcDbEntity
  8
7
100
AcDbLine
 10
72.32346981328737
 20
26.93220956751967
 30
0.0
 11
72.32346981328737
 21
26.81321952667321
 31
0.0
  0
LINE
  5
431B
330
1E
100
AcDbEntity
  8
7
100
AcDbLine
 10
66.60401518326773
 20
26.11514462037401
 30
0.0
 11
66.65161119960631
 21
26.11514462037401
 31
0.0
  0
LINE
  5
4326
330
1E
100
AcDbEntity
  8
7
100
AcDbLine
 10
66.73093789350392
 20
26.01995258769684
 30
0.0
 11
66.73093789350392
 21
25.9882219101378
 31
0.0
  0
LINE
  5
4327
330
1E
100
AcDbEntity
  8
7
100
AcDbLine
 10
66.73093789350392
 20
25.9882219101378
 30
0.0
 11
66.73093789350392
 21
25.97235657135827
 31
0.0
  0
LINE
  5
4341
330
1E
100
AcDbEntity
  8
7
100
AcDbLine
 10
66.48502514242125
 20
27.15432431043306
 30
0.0
 11
66.49295781181101
 21
27.17812231860235
 31
0.0
  0
LINE
  5
4342
330
1E
100
AcDbEntity
  8
7
100
AcDbLine
 10
66.62781319143701
 20
27.1463916410433
 30
0.0
 11
66.63574586082678
 21
27.13052630226377
 31
0.0
  0
LINE
  5
4343
330
1E
100
AcDbEntity
  8
7
100
AcDbLine
 10
66.63574586082678
 20
26.97187291446851
 30
0.0
 11
66.45329446486219
 21
26.97187291446851
 31
0.0
  0
LINE
  5
4344
330
1E
100
AcDbEntity
  8
7
100
AcDbLine
 10
66.45329446486219
 20
26.20240398366139
 30
0.0
 11
66.60401518326773
 21
26.20240398366139
 31
0.0
  0
LINE
  5
4345
330
1E
100
AcDbEntity
  8
7
100
AcDbLine
 10
66.63574586082678
 20
27.13052630226377
 30
0.0
 11
66.62781319143701
 21
27.1463916410433
 31
0.0
  0
LINE
  5
4350
330
1E
100
AcDbEntity
  8
7
100
AcDbLine
 10
66.45329446486219
 20
27.10672829409446
 30
0.0
 11
66.63574586082678
 21
27.02740160019684
 31
0.0
  0
LINE
  5
4351
330
1E
100
AcDbEntity
  8
7
100
AcDbLine
 10
66.45329446486219
 20
27.07499761653541
 30
0.0
 11
66.53262115875981
 21
27.07499761653541
 31
0.0
  0
LINE
  5
4352
330
1E
100
AcDbEntity
  8
7
100
AcDbLine
 10
66.47709247303149
 20
26.10721195098422
 30
0.0
 11
66.46915980364171
 21
26.13100995915354
 31
0.0
  0
LINE
  5
4353
330
1E
100
AcDbEntity
  8
7
100
AcDbLine
 10
66.45329446486219
 20
26.97187291446851
 30
0.0
 11
66.63574586082678
 21
26.97187291446851
 31
0.0
  0
LINE
  5
4354
330
1E
100
AcDbEntity
  8
7
100
AcDbLine
 10
66.49295781181101
 20
27.17812231860235
 30
0.0
 11
66.50882315059053
 21
27.17018964921258
 31
0.0
  0
LINE
  5
435D
330
1E
100
AcDbEntity
  8
7
100
AcDbLine
 10
66.60401518326773
 20
26.12307728976378
 30
0.0
 11
66.51675581998029
 21
26.08341394281494
 31
0.0
  0
LINE
  5
435E
330
1E
100
AcDbEntity
  8
7
100
AcDbLine
 10
66.50882315059053
 20
26.09927928159446
 30
0.0
 11
66.49295781181101
 21
26.09927928159446
 31
0.0
  0
LINE
  5
435F
330
1E
100
AcDbEntity
  8
7
100
AcDbLine
 10
66.53262115875981
 20
27.07499761653541
 30
0.0
 11
66.45329446486219
 21
27.07499761653541
 31
0.0
  0
LINE
  5
4360
330
1E
100
AcDbEntity
  8
7
100
AcDbLine
 10
66.45329446486219
 20
26.16274063671259
 30
0.0
 11
66.53262115875981
 21
26.20240398366139
 31
0.0
  0
LINE
  5
4361
330
1E
100
AcDbEntity
  8
7
100
AcDbLine
 10
66.51675581998029
 20
26.08341394281494
 30
0.0
 11
66.50882315059053
 21
26.09927928159446
 31
0.0
  0
LINE
  5
436C
330
1E
100
AcDbEntity
  8
7
100
AcDbLine
 10
66.3898331097441
 20
26.17860597549211
 30
0.0
 11
66.3898331097441
 21
26.17067330610235
 31
0.0
  0
LINE
  5
436D
330
1E
100
AcDbEntity
  8
7
100
AcDbLine
 10
66.60401518326773
 20
26.20240398366139
 30
0.0
 11
66.45329446486219
 21
26.20240398366139
 31
0.0
  0
LINE
  5
436E
330
1E
100
AcDbEntity
  8
7
100
AcDbLine
 10
66.50882315059053
 20
27.17018964921258
 30
0.0
 11
66.51675581998029
 21
27.18605498799211
 31
0.0
  0
LINE
  5
436F
330
1E
100
AcDbEntity
  8
7
100
AcDbLine
 10
66.35810243218505
 20
27.10672829409446
 30
0.0
 11
66.3898331097441
 21
27.10672829409446
 31
0.0
  0
LINE
  5
4370
330
1E
100
AcDbEntity
  8
7
100
AcDbLine
 10
66.47709247303149
 20
27.16225697982283
 30
0.0
 11
66.48502514242125
 21
27.15432431043306
 31
0.0
  0
LINE
  5
4371
330
1E
100
AcDbEntity
  8
7
100
AcDbLine
 10
66.53262115875981
 20
26.20240398366139
 30
0.0
 11
66.45329446486219
 21
26.16274063671259
 31
0.0
  0
LINE
  5
4372
330
1E
100
AcDbEntity
  8
7
100
AcDbLine
 10
66.45329446486219
 20
26.12307728976378
 30
0.0
 11
66.46915980364171
 21
26.13100995915354
 31
0.0
  0
LINE
  5
437C
330
1E
100
AcDbEntity
  8
7
100
AcDbLine
 10
66.45329446486219
 20
27.15432431043306
 30
0.0
 11
66.46915980364171
 21
27.1463916410433
 31
0.0
  0
LINE
  5
437D
330
1E
100
AcDbEntity
  8
7
100
AcDbLine
 10
66.49295781181101
 20
26.09927928159446
 30
0.0
 11
66.48502514242125
 21
26.11514462037401
 31
0.0
  0
LINE
  5
437E
330
1E
100
AcDbEntity
  8
7
100
AcDbLine
 10
66.51675581998029
 20
27.18605498799211
 30
0.0
 11
66.62781319143701
 21
27.1463916410433
 31
0.0
  0
LINE
  5
437F
330
1E
100
AcDbEntity
  8
7
100
AcDbLine
 10
66.3898331097441
 20
26.17067330610235
 30
0.0
 11
66.35810243218505
 21
26.17067330610235
 31
0.0
  0
LINE
  5
4386
330
1E
100
AcDbEntity
  8
7
100
AcDbLine
 10
66.46915980364171
 20
26.13100995915354
 30
0.0
 11
66.45329446486219
 21
26.12307728976378
 31
0.0
  0
LINE
  5
4387
330
1E
100
AcDbEntity
  8
7
100
AcDbLine
 10
66.46915980364171
 20
27.1463916410433
 30
0.0
 11
66.47709247303149
 21
27.16225697982283
 31
0.0
  0
LINE
  5
4388
330
1E
100
AcDbEntity
  8
7
100
AcDbLine
 10
66.63574586082678
 20
27.02740160019684
 30
0.0
 11
66.45329446486219
 21
27.10672829409446
 31
0.0
  0
LINE
  5
4389
330
1E
100
AcDbEntity
  8
7
100
AcDbLine
 10
66.48502514242125
 20
26.11514462037401
 30
0.0
 11
66.47709247303149
 21
26.10721195098422
 31
0.0
  0
LINE
  5
438A
330
1E
100
AcDbEntity
  8
7
100
AcDbLine
 10
66.3898331097441
 20
27.10672829409446
 30
0.0
 11
66.35810243218505
 21
27.10672829409446
 31
0.0
  0
LINE
  5
4393
330
1E
100
AcDbEntity
  8
7
100
AcDbLine
 10
66.35810243218505
 20
32.04084865452756
 30
0.0
 11
66.35810243218505
 21
32.10431000964566
 31
0.0
  0
LINE
  5
4399
330
1E
100
AcDbEntity
  8
7
100
AcDbLine
 10
66.35810243218505
 20
32.34229009133857
 30
0.0
 11
66.35810243218505
 21
32.10431000964566
 31
0.0
  0
LINE
  5
439F
330
1E
100
AcDbEntity
  8
7
100
AcDbLine
 10
66.35810243218505
 20
32.10431000964566
 30
0.0
 11
66.35810243218505
 21
32.34229009133857
 31
0.0
  0
LINE
  5
43A0
330
1E
100
AcDbEntity
  8
7
100
AcDbLine
 10
66.35810243218505
 20
32.04084865452756
 30
0.0
 11
66.35810243218505
 21
32.34229009133857
 31
0.0
  0
LINE
  5
43A1
330
1E
100
AcDbEntity
  8
7
100
AcDbLine
 10
66.35810243218505
 20
32.04084865452756
 30
0.0
 11
66.35810243218505
 21
32.34229009133857
 31
0.0
  0
LINE
  5
43A2
330
1E
100
AcDbEntity
  8
7
100
AcDbLine
 10
66.35810243218505
 20
32.22330005049211
 30
0.0
 11
66.35810243218505
 21
32.19156937293306
 31
0.0
  0
LINE
  5
43A3
330
1E
100
AcDbEntity
  8
7
100
AcDbLine
 10
66.35810243218505
 20
32.10431000964566
 30
0.0
 11
66.35810243218505
 21
32.27882873622047
 31
0.0
  0
LINE
  5
43A4
330
1E
100
AcDbEntity
  8
7
100
AcDbLine
 10
66.35810243218505
 20
32.31055941377952
 30
0.0
 11
66.35810243218505
 21
32.22330005049211
 31
0.0
  0
LINE
  5
43A5
330
1E
100
AcDbEntity
  8
7
100
AcDbLine
 10
66.35810243218505
 20
32.34229009133857
 30
0.0
 11
66.35810243218505
 21
32.04084865452756
 31
0.0
  0
LINE
  5
43A6
330
1E
100
AcDbEntity
  8
7
100
AcDbLine
 10
66.35810243218505
 20
32.34229009133857
 30
0.0
 11
66.35810243218505
 21
32.04084865452756
 31
0.0
  0
LINE
  5
43A7
330
1E
100
AcDbEntity
  8
7
100
AcDbLine
 10
66.35810243218505
 20
32.34229009133857
 30
0.0
 11
66.35810243218505
 21
32.04084865452756
 31
0.0
  0
LINE
  5
43A8
330
1E
100
AcDbEntity
  8
7
100
AcDbLine
 10
66.35810243218505
 20
32.10431000964566
 30
0.0
 11
66.35810243218505
 21
32.04084865452756
 31
0.0
  0
LINE
  5
43AE
330
1E
100
AcDbEntity
  8
7
100
AcDbLine
 10
66.35810243218505
 20
32.27882873622047
 30
0.0
 11
66.35810243218505
 21
32.34229009133857
 31
0.0
  0
LINE
  5
43B8
330
1E
100
AcDbEntity
  8
7
100
AcDbLine
 10
66.30257374645672
 20
32.64373152814958
 30
0.0
 11
66.35810243218505
 21
32.64373152814958
 31
0.0
  0
LINE
  5
43BE
330
1E
100
AcDbEntity
  8
7
100
AcDbLine
 10
66.35810243218505
 20
32.64373152814958
 30
0.0
 11
66.35810243218505
 21
32.79445224655511
 31
0.0
  0
LINE
  5
43C5
330
1E
100
AcDbEntity
  8
7
100
AcDbLine
 10
66.30257374645672
 20
32.58027017303148
 30
0.0
 11
66.30257374645672
 21
25.99615457952756
 31
0.0
  0
LINE
  5
43CC
330
1E
100
AcDbEntity
  8
7
100
AcDbLine
 10
66.35810243218505
 20
32.58027017303148
 30
0.0
 11
66.30257374645672
 21
32.58027017303148
 31
0.0
  0
LINE
  5
43CD
330
1E
100
AcDbEntity
  8
7
100
AcDbLine
 10
66.35810243218505
 20
25.99615457952756
 30
0.0
 11
66.30257374645672
 21
25.99615457952756
 31
0.0
  0
LINE
  5
43CE
330
1E
100
AcDbEntity
  8
7
100
AcDbLine
 10
66.30257374645672
 20
31.8108012422244
 30
0.0
 11
66.29464107706695
 21
31.8108012422244
 31
0.0
  0
LINE
  5
43CF
330
1E
100
AcDbEntity
  8
7
100
AcDbLine
 10
66.29464107706695
 20
31.80286857283464
 30
0.0
 11
66.29464107706695
 21
31.8108012422244
 31
0.0
  0
LINE
  5
43D0
330
1E
100
AcDbEntity
  8
7
100
AcDbLine
 10
66.30257374645672
 20
32.30262674438976
 30
0.0
 11
66.25497773011808
 21
32.66752953631889
 31
0.0
  0
LINE
  5
43D1
330
1E
100
AcDbEntity
  8
7
100
AcDbLine
 10
66.29464107706695
 20
31.8108012422244
 30
0.0
 11
66.19151637499999
 21
32.67546220570866
 31
0.0
  0
LINE
  5
43D2
330
1E
100
AcDbEntity
  8
7
100
AcDbLine
 10
66.30257374645672
 20
32.79445224655511
 30
0.0
 11
66.35810243218505
 21
32.79445224655511
 31
0.0
  0
LINE
  5
43DF
330
1E
100
AcDbEntity
  8
7
100
AcDbLine
 10
66.25497773011808
 20
32.66752953631889
 30
0.0
 11
66.24704506072832
 21
32.73099089143699
 31
0.0
  0
LINE
  5
43E7
330
1E
100
AcDbEntity
  8
7
100
AcDbLine
 10
66.27084306889762
 20
25.97235657135827
 30
0.0
 11
66.28670840767719
 21
25.98028924074803
 31
0.0
  0
LINE
  5
43E8
330
1E
100
AcDbEntity
  8
7
100
AcDbLine
 10
66.28670840767719
 20
25.98028924074803
 30
0.0
 11
66.29464107706695
 21
25.99615457952756
 31
0.0
  0
LINE
  5
43E9
330
1E
100
AcDbEntity
  8
7
100
AcDbLine
 10
66.27084306889762
 20
25.97235657135827
 30
0.0
 11
66.27084306889762
 21
25.90889521624015
 31
0.0
  0
LINE
  5
43F4
330
1E
100
AcDbEntity
  8
7
100
AcDbLine
 10
66.27084306889762
 20
25.90889521624015
 30
0.0
 11
66.01699764842518
 21
25.90889521624015
 31
0.0
  0
LINE
  5
43FA
330
1E
100
AcDbEntity
  8
7
100
AcDbLine
 10
65.98526697086612
 20
25.99615457952756
 30
0.0
 11
65.92973828513779
 21
25.99615457952756
 31
0.0
  0
LINE
  5
4410
330
1E
100
AcDbEntity
  8
7
100
AcDbLine
 10
65.92973828513779
 20
26.25
 30
0.0
 11
65.98526697086612
 21
26.25
 31
0.0
  0
LINE
  5
4411
330
1E
100
AcDbEntity
  8
7
100
AcDbLine
 10
66.35016976279529
 20
32.84204826289369
 30
0.0
 11
66.35810243218505
 21
32.84204826289369
 31
0.0
  0
LINE
  5
4417
330
1E
100
AcDbEntity
  8
7
100
AcDbLine
 10
67.34175343651577
 20
25.90889521624015
 30
0.0
 11
66.48502514242125
 21
25.90889521624015
 31
0.0
  0
LINE
  5
4418
330
1E
100
AcDbEntity
  8
7
100
AcDbLine
 10
72.46625786230314
 20
25.90889521624015
 30
0.0
 11
67.58766618759844
 21
25.90889521624015
 31
0.0
  0
LINE
  5
4419
330
1E
100
AcDbEntity
  8
7
100
AcDbLine
 10
72.46625786230314
 20
25.97235657135827
 30
0.0
 11
72.46625786230314
 21
25.90889521624015
 31
0.0
  0
LINE
  5
441A
330
1E
100
AcDbEntity
  8
7
100
AcDbLine
 10
72.46625786230314
 20
25.97235657135827
 30
0.0
 11
72.32346981328737
 21
25.97235657135827
 31
0.0
  0
LINE
  5
441B
330
1E
100
AcDbEntity
  8
7
100
AcDbLine
 10
71.7523176172244
 20
25.97235657135827
 30
0.0
 11
71.74438494783465
 21
25.97235657135827
 31
0.0
  0
LINE
  5
441C
330
1E
100
AcDbEntity
  8
7
100
AcDbLine
 10
71.73645227844487
 20
25.97235657135827
 30
0.0
 11
67.58766618759844
 21
25.97235657135827
 31
0.0
  0
LINE
  5
4422
330
1E
100
AcDbEntity
  8
7
100
AcDbLine
 10
67.53213750187005
 20
25.97235657135827
 30
0.0
 11
67.39728212224409
 21
25.97235657135827
 31
0.0
  0
LINE
  5
442D
330
1E
100
AcDbEntity
  8
7
100
AcDbLine
 10
72.61697858070869
 20
25.97235657135827
 30
0.0
 11
72.52178654803149
 21
25.97235657135827
 31
0.0
  0
LINE
  5
4444
330
1E
100
AcDbEntity
  8
7
100
AcDbLine
 10
72.46625786230314
 20
32.92137495679134
 30
0.0
 11
66.35810243218505
 21
32.92137495679134
 31
0.0
  0
LINE
  5
4445
330
1E
100
AcDbEntity
  8
7
100
AcDbLine
 10
66.35810243218505
 20
32.85791360167321
 30
0.0
 11
66.35810243218505
 21
32.92137495679134
 31
0.0
  0
LINE
  5
4446
330
1E
100
AcDbEntity
  8
7
100
AcDbLine
 10
72.46625786230314
 20
32.85791360167321
 30
0.0
 11
66.35810243218505
 21
32.85791360167321
 31
0.0
  0
LINE
  5
4447
330
1E
100
AcDbEntity
  8
7
100
AcDbLine
 10
72.46625786230314
 20
32.92137495679134
 30
0.0
 11
72.46625786230314
 21
32.85791360167321
 31
0.0
  0
LINE
  5
4448
330
1E
100
AcDbEntity
  8
7
100
AcDbLine
 10
66.35810243218505
 20
32.92137495679134
 30
0.0
 11
66.2311797219488
 21
32.92137495679134
 31
0.0
  0
LINE
  5
444E
330
1E
100
AcDbEntity
  8
7
100
AcDbLine
 10
72.61697858070869
 20
32.92137495679134
 30
0.0
 11
72.52178654803149
 21
32.92137495679134
 31
0.0
  0
LINE
  5
4454
330
1E
100
AcDbEntity
  8
7
100
AcDbLine
 10
73.93380169940946
 20
32.92137495679134
 30
0.0
 11
72.68043993582677
 21
32.92137495679134
 31
0.0
  0
LINE
  5
4455
330
1E
100
AcDbEntity
  8
7
100
AcDbLine
 10
66.35810243218505
 20
32.85791360167321
 30
0.0
 11
66.34223709340552
 21
32.85791360167321
 31
0.0
  0
LINE
  5
445B
330
1E
100
AcDbEntity
  8
7
100
AcDbLine
 10
72.52178654803149
 20
32.85791360167321
 30
0.0
 11
72.61697858070869
 21
32.85791360167321
 31
0.0
  0
LINE
  5
4461
330
1E
100
AcDbEntity
  8
7
100
AcDbLine
 10
72.68043993582677
 20
25.9882219101378
 30
0.0
 11
72.68043993582677
 21
26.00408724891732
 31
0.0
  0
LINE
  5
4462
330
1E
100
AcDbEntity
  8
7
100
AcDbLine
 10
73.93380169940946
 20
25.9882219101378
 30
0.0
 11
73.93380169940946
 21
26.00408724891732
 31
0.0
  0
LINE
  5
4468
330
1E
100
AcDbEntity
  8
7
100
AcDbLine
 10
73.93380169940946
 20
25.9882219101378
 30
0.0
 11
72.68043993582677
 21
25.9882219101378
 31
0.0
  0
LINE
  5
4469
330
1E
100
AcDbEntity
  8
7
100
AcDbLine
 10
73.93380169940946
 20
25.90889521624015
 30
0.0
 11
73.93380169940946
 21
25.93269322440943
 31
0.0
  0
LINE
  5
446A
330
1E
100
AcDbEntity
  8
7
100
AcDbLine
 10
73.93380169940946
 20
25.93269322440943
 30
0.0
 11
73.93380169940946
 21
25.9882219101378
 31
0.0
  0
LINE
  5
446B
330
1E
100
AcDbEntity
  8
7
100
AcDbLine
 10
72.61697858070869
 20
25.90889521624015
 30
0.0
 11
72.61697858070869
 21
25.97235657135827
 31
0.0
  0
LINE
  5
446C
330
1E
100
AcDbEntity
  8
7
100
AcDbLine
 10
72.52178654803149
 20
25.97235657135827
 30
0.0
 11
72.52178654803149
 21
25.90889521624015
 31
0.0
  0
LINE
  5
4480
330
1E
100
AcDbEntity
  8
7
100
AcDbLine
 10
72.52971921742124
 20
32.83411559350393
 30
0.0
 11
72.52971921742124
 21
26.00408724891732
 31
0.0
  0
LINE
  5
4481
330
1E
100
AcDbEntity
  8
7
100
AcDbLine
 10
72.46625786230314
 20
32.83411559350393
 30
0.0
 11
72.52971921742124
 21
32.83411559350393
 31
0.0
  0
LINE
  5
4482
330
1E
100
AcDbEntity
  8
7
100
AcDbLine
 10
72.46625786230314
 20
26.00408724891732
 30
0.0
 11
72.46625786230314
 21
32.83411559350393
 31
0.0
  0
LINE
  5
4483
330
1E
100
AcDbEntity
  8
7
100
AcDbLine
 10
72.55351722559052
 20
32.83411559350393
 30
0.0
 11
72.55351722559052
 21
26.00408724891732
 31
0.0
  0
LINE
  5
4489
330
1E
100
AcDbEntity
  8
7
100
AcDbLine
 10
73.93380169940946
 20
32.83411559350393
 30
0.0
 11
73.93380169940946
 21
26.00408724891732
 31
0.0
  0
LINE
  5
448A
330
1E
100
AcDbEntity
  8
7
100
AcDbLine
 10
73.93380169940946
 20
32.83411559350393
 30
0.0
 11
72.55351722559052
 21
32.83411559350393
 31
0.0
  0
LINE
  5
4491
330
1E
100
AcDbEntity
  8
7
100
AcDbLine
 10
72.61697858070869
 20
32.85791360167321
 30
0.0
 11
72.61697858070869
 21
32.92137495679134
 31
0.0
  0
LINE
  5
4492
330
1E
100
AcDbEntity
  8
7
100
AcDbLine
 10
72.52178654803149
 20
32.92137495679134
 30
0.0
 11
72.52178654803149
 21
32.85791360167321
 31
0.0
  0
LINE
  5
44A7
330
1E
100
AcDbEntity
  8
7
100
AcDbLine
 10
72.68043993582677
 20
32.84204826289369
 30
0.0
 11
73.93380169940946
 21
32.84204826289369
 31
0.0
  0
LINE
  5
44A8
330
1E
100
AcDbEntity
  8
7
100
AcDbLine
 10
72.68043993582677
 20
32.84204826289369
 30
0.0
 11
72.68043993582677
 21
32.83411559350393
 31
0.0
  0
LINE
  5
44A9
330
1E
100
AcDbEntity
  8
7
100
AcDbLine
 10
73.93380169940946
 20
32.84204826289369
 30
0.0
 11
73.93380169940946
 21
32.83411559350393
 31
0.0
  0
LINE
  5
44AA
330
1E
100
AcDbEntity
  8
7
100
AcDbLine
 10
66.3898331097441
 20
27.2574490125
 30
0.0
 11
66.45329446486219
 21
27.2574490125
 31
0.0
  0
LINE
  5
44B0
330
1E
100
AcDbEntity
  8
7
100
AcDbLine
 10
66.3898331097441
 20
26.00408724891732
 30
0.0
 11
66.3898331097441
 21
27.10672829409446
 31
0.0
  0
LINE
  5
44B1
330
1E
100
AcDbEntity
  8
7
100
AcDbLine
 10
66.45329446486219
 20
26.00408724891732
 30
0.0
 11
66.3898331097441
 21
26.00408724891732
 31
0.0
  0
LINE
  5
44B7
330
1E
100
AcDbEntity
  8
7
100
AcDbLine
 10
66.3898331097441
 20
27.10672829409446
 30
0.0
 11
66.3898331097441
 21
27.21778566555119
 31
0.0
  0
LINE
  5
44B8
330
1E
100
AcDbEntity
  8
7
100
AcDbLine
 10
66.3898331097441
 20
27.21778566555119
 30
0.0
 11
66.3898331097441
 21
27.2574490125
 31
0.0
  0
LINE
  5
44D5
330
1E
100
AcDbEntity
  8
7
100
AcDbLine
 10
67.34175343651577
 20
25.90889521624015
 30
0.0
 11
67.34175343651577
 21
25.97235657135827
 31
0.0
  0
LINE
  5
44D6
330
1E
100
AcDbEntity
  8
7
100
AcDbLine
 10
67.58766618759844
 20
25.97235657135827
 30
0.0
 11
67.58766618759844
 21
25.90889521624015
 31
0.0
  0
LINE
  5
44D7
330
1E
100
AcDbEntity
  8
7
100
AcDbLine
 10
67.39728212224409
 20
25.97235657135827
 30
0.0
 11
67.39728212224409
 21
25.90889521624015
 31
0.0
  0
LINE
  5
44D8
330
1E
100
AcDbEntity
  8
7
100
AcDbLine
 10
67.53213750187005
 20
25.90889521624015
 30
0.0
 11
67.53213750187005
 21
25.97235657135827
 31
0.0
  0
LINE
  5
44DC
330
1E
100
AcDbEntity
  8
7
100
AcDbLine
 10
35.51588384478344
 20
40.89370769350392
 30
0.0
 11
52.13482621633857
 21
40.89370769350392
 31
0.0
  0
LINE
  5
44DD
330
1E
100
AcDbEntity
  8
7
100
AcDbLine
 10
52.13482621633857
 20
40.89370769350392
 30
0.0
 11
52.13482621633857
 21
40.77471765265747
 31
0.0
  0
LINE
  5
44DE
330
1E
100
AcDbEntity
  8
7
100
AcDbLine
 10
52.13482621633857
 20
40.77471765265747
 30
0.0
 11
52.76150709812993
 21
40.77471765265747
 31
0.0
  0
LINE
  5
44DF
330
1E
100
AcDbEntity
  8
7
100
AcDbLine
 10
34.69881889763779
 20
40.52087223218502
 30
0.0
 11
53.58650471466535
 21
40.52087223218502
 31
0.0
  0
LINE
  5
44E0
330
1E
100
AcDbEntity
  8
7
100
AcDbLine
 10
53.58650471466535
 20
40.52087223218502
 30
0.0
 11
53.67376407795273
 21
40.52087223218502
 31
0.0
  0
LINE
  5
44E1
330
1E
100
AcDbEntity
  8
7
100
AcDbLine
 10
53.67376407795273
 20
40.52087223218502
 30
0.0
 11
53.7134274249016
 21
40.52087223218502
 31
0.0
  0
LINE
  5
44E2
330
1E
100
AcDbEntity
  8
7
100
AcDbLine
 10
53.7134274249016
 20
40.46534354645666
 30
0.0
 11
53.67376407795273
 21
40.46534354645666
 31
0.0
  0
LINE
  5
44E3
330
1E
100
AcDbEntity
  8
7
100
AcDbLine
 10
53.67376407795273
 20
40.46534354645666
 30
0.0
 11
53.58650471466535
 21
40.46534354645666
 31
0.0
  0
LINE
  5
44E4
330
1E
100
AcDbEntity
  8
7
100
AcDbLine
 10
53.58650471466535
 20
40.46534354645666
 30
0.0
 11
34.69881889763779
 21
40.46534354645666
 31
0.0
  0
LINE
  5
44E5
330
1E
100
AcDbEntity
  8
7
100
AcDbLine
 10
34.69881889763779
 20
40.46534354645666
 30
0.0
 11
34.60362686496064
 21
40.46534354645666
 31
0.0
  0
LINE
  5
44E6
330
1E
100
AcDbEntity
  8
7
100
AcDbLine
 10
34.60362686496064
 20
40.46534354645666
 30
0.0
 11
34.5718961874016
 21
40.46534354645666
 31
0.0
  0
LINE
  5
44E7
330
1E
100
AcDbEntity
  8
7
100
AcDbLine
 10
34.5718961874016
 20
40.71918896692913
 30
0.0
 11
34.5718961874016
 21
40.55260290974408
 31
0.0
  0
LINE
  5
44E8
330
1E
100
AcDbEntity
  8
7
100
AcDbLine
 10
34.5718961874016
 20
40.55260290974408
 30
0.0
 11
53.7134274249016
 21
40.55260290974408
 31
0.0
  0
LINE
  5
44E9
330
1E
100
AcDbEntity
  8
7
100
AcDbLine
 10
53.7134274249016
 20
40.55260290974408
 30
0.0
 11
53.7134274249016
 21
40.53673757096455
 31
0.0
  0
LINE
  5
44EA
330
1E
100
AcDbEntity
  8
7
100
AcDbLine
 10
53.7134274249016
 20
40.53673757096455
 30
0.0
 11
53.7134274249016
 21
40.52087223218502
 31
0.0
  0
LINE
  5
44EB
330
1E
100
AcDbEntity
  8
7
100
AcDbLine
 10
34.5718961874016
 20
32.92137495679134
 30
0.0
 11
34.88920296299213
 21
32.92137495679134
 31
0.0
  0
LINE
  5
44EC
330
1E
100
AcDbEntity
  8
7
100
AcDbLine
 10
34.88920296299213
 20
32.92137495679134
 30
0.0
 11
35.51588384478344
 21
32.92137495679134
 31
0.0
  0
LINE
  5
44ED
330
1E
100
AcDbEntity
  8
7
100
AcDbLine
 10
35.51588384478344
 20
32.92137495679134
 30
0.0
 11
52.13482621633857
 21
32.92137495679134
 31
0.0
  0
LINE
  5
44EE
330
1E
100
AcDbEntity
  8
7
100
AcDbLine
 10
52.13482621633857
 20
32.92137495679134
 30
0.0
 11
52.76150709812993
 21
32.92137495679134
 31
0.0
  0
LINE
  5
44EF
330
1E
100
AcDbEntity
  8
7
100
AcDbLine
 10
52.76150709812993
 20
32.92137495679134
 30
0.0
 11
53.7134274249016
 21
32.92137495679134
 31
0.0
  0
LINE
  5
44FF
330
1E
100
AcDbEntity
  8
7
100
AcDbLine
 10
34.80987626909445
 20
31.80286857283464
 30
0.0
 11
34.80987626909445
 21
31.8108012422244
 31
0.0
  0
LINE
  5
4500
330
1E
100
AcDbEntity
  8
7
100
AcDbLine
 10
34.80987626909445
 20
31.8108012422244
 30
0.0
 11
34.5718961874016
 21
31.8108012422244
 31
0.0
  0
LINE
  5
4501
330
1E
100
AcDbEntity
  8
7
100
AcDbLine
 10
34.5718961874016
 20
31.8108012422244
 30
0.0
 11
34.5718961874016
 21
32.75478889960631
 31
0.0
  0
LINE
  5
4502
330
1E
100
AcDbEntity
  8
7
100
AcDbLine
 10
34.5718961874016
 20
32.75478889960631
 30
0.0
 11
34.5718961874016
 21
32.76272156899607
 31
0.0
  0
LINE
  5
452D
330
1E
100
AcDbEntity
  8
7
100
AcDbLine
 10
34.5718961874016
 20
26.97187291446851
 30
0.0
 11
34.50843483228345
 21
26.93220956751967
 31
0.0
  0
LINE
  5
452E
330
1E
100
AcDbEntity
  8
7
100
AcDbLine
 10
34.50843483228345
 20
26.93220956751967
 30
0.0
 11
34.4767041547244
 21
26.86081554301178
 31
0.0
  0
LINE
  5
452F
330
1E
100
AcDbEntity
  8
7
100
AcDbLine
 10
34.69881889763779
 20
26.24206733061023
 30
0.0
 11
34.61155953435041
 21
26.21033665305119
 31
0.0
  0
LINE
  5
4530
330
1E
100
AcDbEntity
  8
7
100
AcDbLine
 10
34.61155953435041
 20
26.21033665305119
 30
0.0
 11
34.57982885679136
 21
26.12307728976378
 31
0.0
  0
LINE
  5
4531
330
1E
100
AcDbEntity
  8
7
100
AcDbLine
 10
34.5718961874016
 20
25.90889521624015
 30
0.0
 11
34.5718961874016
 21
25.93269322440943
 31
0.0
  0
LINE
  5
4532
330
1E
100
AcDbEntity
  8
7
100
AcDbLine
 10
34.5718961874016
 20
25.93269322440943
 30
0.0
 11
34.5718961874016
 21
25.99615457952756
 31
0.0
  0
LINE
  5
4533
330
1E
100
AcDbEntity
  8
7
100
AcDbLine
 10
34.56396351801183
 20
25.97235657135827
 30
0.0
 11
34.55603084862202
 21
25.9882219101378
 31
0.0
  0
LINE
  5
4534
330
1E
100
AcDbEntity
  8
7
100
AcDbLine
 10
34.55603084862202
 20
25.9882219101378
 30
0.0
 11
34.55603084862202
 21
26.01995258769684
 31
0.0
  0
LINE
  5
4535
330
1E
100
AcDbEntity
  8
7
100
AcDbLine
 10
34.5718961874016
 20
26.32139402450786
 30
0.0
 11
34.56396351801183
 21
26.28173067755904
 31
0.0
  0
LINE
  5
4536
330
1E
100
AcDbEntity
  8
7
100
AcDbLine
 10
34.56396351801183
 20
26.28173067755904
 30
0.0
 11
34.55603084862202
 21
26.16274063671259
 31
0.0
  0
LINE
  5
4537
330
1E
100
AcDbEntity
  8
7
100
AcDbLine
 10
34.55603084862202
 20
26.16274063671259
 30
0.0
 11
34.55603084862202
 21
26.12307728976378
 31
0.0
  0
LINE
  5
4538
330
1E
100
AcDbEntity
  8
7
100
AcDbLine
 10
34.55603084862202
 20
26.11514462037401
 30
0.0
 11
34.55603084862202
 21
26.01995258769684
 31
0.0
  0
LINE
  5
4539
330
1E
100
AcDbEntity
  8
7
100
AcDbLine
 10
34.55603084862202
 20
26.01995258769684
 30
0.0
 11
34.5718961874016
 21
26.01995258769684
 31
0.0
  0
LINE
  5
453D
330
1E
100
AcDbEntity
  8
7
100
AcDbLine
 10
34.45290614655511
 20
26.40865338779526
 30
0.0
 11
34.48463682411416
 21
26.40865338779526
 31
0.0
  0
LINE
  5
453E
330
1E
100
AcDbEntity
  8
7
100
AcDbLine
 10
34.48463682411416
 20
26.40865338779526
 30
0.0
 11
34.5718961874016
 21
26.40865338779526
 31
0.0
  0
LINE
  5
453F
330
1E
100
AcDbEntity
  8
7
100
AcDbLine
 10
34.44497347716535
 20
26.12307728976378
 30
0.0
 11
34.4767041547244
 21
26.12307728976378
 31
0.0
  0
LINE
  5
4540
330
1E
100
AcDbEntity
  8
7
100
AcDbLine
 10
34.4767041547244
 20
26.12307728976378
 30
0.0
 11
34.55603084862202
 21
26.12307728976378
 31
0.0
  0
LINE
  5
4541
330
1E
100
AcDbEntity
  8
7
100
AcDbLine
 10
34.44497347716535
 20
26.11514462037401
 30
0.0
 11
34.45290614655511
 21
26.11514462037401
 31
0.0
  0
LINE
  5
4542
330
1E
100
AcDbEntity
  8
7
100
AcDbLine
 10
34.45290614655511
 20
26.11514462037401
 30
0.0
 11
34.46877148533463
 21
26.11514462037401
 31
0.0
  0
LINE
  5
4543
330
1E
100
AcDbEntity
  8
7
100
AcDbLine
 10
34.46877148533463
 20
26.11514462037401
 30
0.0
 11
34.50050216289369
 21
26.11514462037401
 31
0.0
  0
LINE
  5
4544
330
1E
100
AcDbEntity
  8
7
100
AcDbLine
 10
34.50050216289369
 20
26.11514462037401
 30
0.0
 11
34.54016550984249
 21
26.11514462037401
 31
0.0
  0
LINE
  5
4545
330
1E
100
AcDbEntity
  8
7
100
AcDbLine
 10
34.54016550984249
 20
26.11514462037401
 30
0.0
 11
34.55603084862202
 21
26.11514462037401
 31
0.0
  0
LINE
  5
4546
330
1E
100
AcDbEntity
  8
7
100
AcDbLine
 10
34.44497347716535
 20
26.01995258769684
 30
0.0
 11
34.45290614655511
 21
26.01995258769684
 31
0.0
  0
LINE
  5
4547
330
1E
100
AcDbEntity
  8
7
100
AcDbLine
 10
34.45290614655511
 20
26.01995258769684
 30
0.0
 11
34.4767041547244
 21
26.01995258769684
 31
0.0
  0
LINE
  5
4548
330
1E
100
AcDbEntity
  8
7
100
AcDbLine
 10
34.4767041547244
 20
26.01995258769684
 30
0.0
 11
34.50843483228345
 21
26.01995258769684
 31
0.0
  0
LINE
  5
4549
330
1E
100
AcDbEntity
  8
7
100
AcDbLine
 10
34.50843483228345
 20
26.01995258769684
 30
0.0
 11
34.54809817923225
 21
26.01995258769684
 31
0.0
  0
LINE
  5
454A
330
1E
100
AcDbEntity
  8
7
100
AcDbLine
 10
34.54809817923225
 20
26.01995258769684
 30
0.0
 11
34.55603084862202
 21
26.01995258769684
 31
0.0
  0
LINE
  5
454B
330
1E
100
AcDbEntity
  8
7
100
AcDbLine
 10
34.55603084862202
 20
26.12307728976378
 30
0.0
 11
34.56396351801183
 21
26.12307728976378
 31
0.0
  0
LINE
  5
454C
330
1E
100
AcDbEntity
  8
7
100
AcDbLine
 10
34.56396351801183
 20
26.12307728976378
 30
0.0
 11
34.5718961874016
 21
26.12307728976378
 31
0.0
  0
LINE
  5
454D
330
1E
100
AcDbEntity
  8
7
100
AcDbLine
 10
34.5718961874016
 20
25.97235657135827
 30
0.0
 11
34.56396351801183
 21
25.97235657135827
 31
0.0
  0
LINE
  5
454E
330
1E
100
AcDbEntity
  8
7
100
AcDbLine
 10
34.56396351801183
 20
25.97235657135827
 30
0.0
 11
34.54016550984249
 21
25.97235657135827
 31
0.0
  0
LINE
  5
454F
330
1E
100
AcDbEntity
  8
7
100
AcDbLine
 10
34.54016550984249
 20
25.97235657135827
 30
0.0
 11
34.5163675016732
 21
25.97235657135827
 31
0.0
  0
LINE
  5
4550
330
1E
100
AcDbEntity
  8
7
100
AcDbLine
 10
34.5163675016732
 20
25.97235657135827
 30
0.0
 11
34.50843483228345
 21
25.97235657135827
 31
0.0
  0
LINE
  5
4551
330
1E
100
AcDbEntity
  8
7
100
AcDbLine
 10
34.50843483228345
 20
25.97235657135827
 30
0.0
 11
34.50050216289369
 21
25.97235657135827
 31
0.0
  0
LINE
  5
4552
330
1E
100
AcDbEntity
  8
7
100
AcDbLine
 10
34.46083881594487
 20
26.61490279192913
 30
0.0
 11
34.49256949350392
 21
26.61490279192913
 31
0.0
  0
LINE
  5
4553
330
1E
100
AcDbEntity
  8
7
100
AcDbLine
 10
34.49256949350392
 20
26.61490279192913
 30
0.0
 11
34.5718961874016
 21
26.61490279192913
 31
0.0
  0
LINE
  5
4554
330
1E
100
AcDbEntity
  8
7
100
AcDbLine
 10
34.44497347716535
 20
26.11514462037401
 30
0.0
 11
34.44497347716535
 21
26.12307728976378
 31
0.0
  0
LINE
  5
4555
330
1E
100
AcDbEntity
  8
7
100
AcDbLine
 10
34.44497347716535
 20
26.12307728976378
 30
0.0
 11
34.45290614655511
 21
26.26586533877952
 31
0.0
  0
LINE
  5
4556
330
1E
100
AcDbEntity
  8
7
100
AcDbLine
 10
34.45290614655511
 20
26.26586533877952
 30
0.0
 11
34.45290614655511
 21
26.40865338779526
 31
0.0
  0
LINE
  5
4557
330
1E
100
AcDbEntity
  8
7
100
AcDbLine
 10
34.45290614655511
 20
26.40865338779526
 30
0.0
 11
34.46083881594487
 21
26.61490279192913
 31
0.0
  0
LINE
  5
4558
330
1E
100
AcDbEntity
  8
7
100
AcDbLine
 10
34.46083881594487
 20
26.61490279192913
 30
0.0
 11
34.46877148533463
 21
26.73389283277559
 31
0.0
  0
LINE
  5
4559
330
1E
100
AcDbEntity
  8
7
100
AcDbLine
 10
34.46877148533463
 20
26.73389283277559
 30
0.0
 11
34.46877148533463
 21
26.82908486545274
 31
0.0
  0
LINE
  5
455A
330
1E
100
AcDbEntity
  8
7
100
AcDbLine
 10
34.46877148533463
 20
26.82908486545274
 30
0.0
 11
34.46877148533463
 21
26.86081554301178
 31
0.0
  0
LINE
  5
457C
330
1E
100
AcDbEntity
  8
7
100
AcDbLine
 10
34.80987626909445
 20
31.93772395246062
 30
0.0
 11
34.82574160787404
 21
31.93772395246062
 31
0.0
  0
LINE
  5
457D
330
1E
100
AcDbEntity
  8
7
100
AcDbLine
 10
34.82574160787404
 20
31.93772395246062
 30
0.0
 11
34.84160694665356
 21
31.93772395246062
 31
0.0
  0
LINE
  5
457E
330
1E
100
AcDbEntity
  8
7
100
AcDbLine
 10
34.81780893848422
 20
31.80286857283464
 30
0.0
 11
34.85747228543309
 21
31.76320522588583
 31
0.0
  0
LINE
  5
457F
330
1E
100
AcDbEntity
  8
7
100
AcDbLine
 10
34.85747228543309
 20
31.76320522588583
 30
0.0
 11
34.89713563238189
 21
31.80286857283464
 31
0.0
  0
LINE
  5
45DC
330
1E
100
AcDbEntity
  8
7
100
AcDbLine
 10
34.80987626909445
 20
32.75478889960631
 30
0.0
 11
34.79401093031494
 21
32.79445224655511
 31
0.0
  0
LINE
  5
45DD
330
1E
100
AcDbEntity
  8
7
100
AcDbLine
 10
34.79401093031494
 20
32.79445224655511
 30
0.0
 11
34.75434758336612
 21
32.81031758533464
 31
0.0
  0
LINE
  5
45DE
330
1E
100
AcDbEntity
  8
7
100
AcDbLine
 10
34.75434758336612
 20
32.81031758533464
 30
0.0
 11
34.62742487312993
 21
32.81031758533464
 31
0.0
  0
LINE
  5
45DF
330
1E
100
AcDbEntity
  8
7
100
AcDbLine
 10
34.62742487312993
 20
32.81031758533464
 30
0.0
 11
34.58776152618112
 21
32.79445224655511
 31
0.0
  0
LINE
  5
45E0
330
1E
100
AcDbEntity
  8
7
100
AcDbLine
 10
34.58776152618112
 20
32.79445224655511
 30
0.0
 11
34.5718961874016
 21
32.75478889960631
 31
0.0
  0
LINE
  5
45E1
330
1E
100
AcDbEntity
  8
7
100
AcDbLine
 10
34.5718961874016
 20
32.76272156899607
 30
0.0
 11
34.58776152618112
 21
32.80238491594488
 31
0.0
  0
LINE
  5
45E2
330
1E
100
AcDbEntity
  8
7
100
AcDbLine
 10
34.58776152618112
 20
32.80238491594488
 30
0.0
 11
34.62742487312993
 21
32.8182502547244
 31
0.0
  0
LINE
  5
45E3
330
1E
100
AcDbEntity
  8
7
100
AcDbLine
 10
34.84160694665356
 20
32.17570403415354
 30
0.0
 11
34.82574160787404
 21
32.17570403415354
 31
0.0
  0
LINE
  5
45E4
330
1E
100
AcDbEntity
  8
7
100
AcDbLine
 10
34.82574160787404
 20
32.17570403415354
 30
0.0
 11
34.80987626909445
 21
32.17570403415354
 31
0.0
  0
LINE
  5
45E5
330
1E
100
AcDbEntity
  8
7
100
AcDbLine
 10
35.51588384478344
 20
32.88964427923226
 30
0.0
 11
35.51588384478344
 21
32.79445224655511
 31
0.0
  0
LINE
  5
45E6
330
1E
100
AcDbEntity
  8
7
100
AcDbLine
 10
35.51588384478344
 20
32.79445224655511
 30
0.0
 11
35.51588384478344
 21
32.70719288326771
 31
0.0
  0
LINE
  5
45E7
330
1E
100
AcDbEntity
  8
7
100
AcDbLine
 10
35.51588384478344
 20
32.70719288326771
 30
0.0
 11
35.51588384478344
 21
32.66752953631889
 31
0.0
  0
LINE
  5
45E8
330
1E
100
AcDbEntity
  8
7
100
AcDbLine
 10
34.88920296299213
 20
32.92137495679134
 30
0.0
 11
34.88920296299213
 21
32.88964427923226
 31
0.0
  0
LINE
  5
45E9
330
1E
100
AcDbEntity
  8
7
100
AcDbLine
 10
34.88920296299213
 20
32.88964427923226
 30
0.0
 11
34.88920296299213
 21
32.79445224655511
 31
0.0
  0
LINE
  5
45EA
330
1E
100
AcDbEntity
  8
7
100
AcDbLine
 10
34.88920296299213
 20
32.79445224655511
 30
0.0
 11
34.88920296299213
 21
32.70719288326771
 31
0.0
  0
LINE
  5
45EB
330
1E
100
AcDbEntity
  8
7
100
AcDbLine
 10
34.88920296299213
 20
32.70719288326771
 30
0.0
 11
34.88920296299213
 21
32.66752953631889
 31
0.0
  0
LINE
  5
45EC
330
1E
100
AcDbEntity
  8
7
100
AcDbLine
 10
36.15049739596457
 20
32.92137495679134
 30
0.0
 11
36.15049739596457
 21
32.8817116098425
 31
0.0
  0
LINE
  5
45ED
330
1E
100
AcDbEntity
  8
7
100
AcDbLine
 10
36.15049739596457
 20
32.8817116098425
 30
0.0
 11
36.15049739596457
 21
32.79445224655511
 31
0.0
  0
LINE
  5
45EE
330
1E
100
AcDbEntity
  8
7
100
AcDbLine
 10
36.15049739596457
 20
32.79445224655511
 30
0.0
 11
36.15049739596457
 21
32.70719288326771
 31
0.0
  0
LINE
  5
45EF
330
1E
100
AcDbEntity
  8
7
100
AcDbLine
 10
36.15049739596457
 20
32.70719288326771
 30
0.0
 11
36.15049739596457
 21
32.66752953631889
 31
0.0
  0
LINE
  5
45F0
330
1E
100
AcDbEntity
  8
7
100
AcDbLine
 10
35.64280655501969
 20
32.92137495679134
 30
0.0
 11
35.64280655501969
 21
32.8817116098425
 31
0.0
  0
LINE
  5
45F1
330
1E
100
AcDbEntity
  8
7
100
AcDbLine
 10
35.64280655501969
 20
32.8817116098425
 30
0.0
 11
35.64280655501969
 21
32.79445224655511
 31
0.0
  0
LINE
  5
45F2
330
1E
100
AcDbEntity
  8
7
100
AcDbLine
 10
35.64280655501969
 20
32.79445224655511
 30
0.0
 11
35.64280655501969
 21
32.70719288326771
 31
0.0
  0
LINE
  5
45F3
330
1E
100
AcDbEntity
  8
7
100
AcDbLine
 10
35.64280655501969
 20
32.70719288326771
 30
0.0
 11
35.64280655501969
 21
32.66752953631889
 31
0.0
  0
LINE
  5
45F4
330
1E
100
AcDbEntity
  8
7
100
AcDbLine
 10
34.62742487312993
 20
32.8182502547244
 30
0.0
 11
34.75434758336612
 21
32.8182502547244
 31
0.0
  0
LINE
  5
45F5
330
1E
100
AcDbEntity
  8
7
100
AcDbLine
 10
34.75434758336612
 20
32.8182502547244
 30
0.0
 11
34.79401093031494
 21
32.80238491594488
 31
0.0
  0
LINE
  5
45F6
330
1E
100
AcDbEntity
  8
7
100
AcDbLine
 10
34.79401093031494
 20
32.80238491594488
 30
0.0
 11
34.80987626909445
 21
32.76272156899607
 31
0.0
  0
LINE
  5
45F7
330
1E
100
AcDbEntity
  8
7
100
AcDbLine
 10
36.36467946948821
 20
32.65166419753934
 30
0.0
 11
36.40434281643701
 21
32.66752953631889
 31
0.0
  0
LINE
  5
45F8
330
1E
100
AcDbEntity
  8
7
100
AcDbLine
 10
36.40434281643701
 20
32.66752953631889
 30
0.0
 11
36.42020815521654
 21
32.70719288326771
 31
0.0
  0
LINE
  5
45F9
330
1E
100
AcDbEntity
  8
7
100
AcDbLine
 10
36.4916021797244
 20
32.84204826289369
 30
0.0
 11
36.45193883277558
 21
32.82618292411416
 31
0.0
  0
LINE
  5
45FA
330
1E
100
AcDbEntity
  8
7
100
AcDbLine
 10
36.45193883277558
 20
32.82618292411416
 30
0.0
 11
36.43607349399607
 21
32.78651957716535
 31
0.0
  0
LINE
  5
45FB
330
1E
100
AcDbEntity
  8
7
100
AcDbLine
 10
34.5718961874016
 20
40.89370769350392
 30
0.0
 11
34.88920296299213
 21
40.89370769350392
 31
0.0
  0
LINE
  5
45FC
330
1E
100
AcDbEntity
  8
7
100
AcDbLine
 10
34.88920296299213
 20
40.89370769350392
 30
0.0
 11
34.88920296299213
 21
40.77471765265747
 31
0.0
  0
LINE
  5
45FD
330
1E
100
AcDbEntity
  8
7
100
AcDbLine
 10
34.88920296299213
 20
40.77471765265747
 30
0.0
 11
35.51588384478344
 21
40.77471765265747
 31
0.0
  0
LINE
  5
45FE
330
1E
100
AcDbEntity
  8
7
100
AcDbLine
 10
34.5718961874016
 20
40.52087223218502
 30
0.0
 11
34.60362686496064
 21
40.52087223218502
 31
0.0
  0
LINE
  5
45FF
330
1E
100
AcDbEntity
  8
7
100
AcDbLine
 10
34.60362686496064
 20
40.52087223218502
 30
0.0
 11
34.69881889763779
 21
40.52087223218502
 31
0.0
  0
LINE
  5
4600
330
1E
100
AcDbEntity
  8
7
100
AcDbLine
 10
34.5718961874016
 20
40.55260290974408
 30
0.0
 11
34.5718961874016
 21
40.53673757096455
 31
0.0
  0
LINE
  5
4601
330
1E
100
AcDbEntity
  8
7
100
AcDbLine
 10
34.5718961874016
 20
40.53673757096455
 30
0.0
 11
34.5718961874016
 21
40.52087223218502
 31
0.0
  0
LINE
  5
4602
330
1E
100
AcDbEntity
  8
7
100
AcDbLine
 10
34.80987626909445
 20
40.71918896692913
 30
0.0
 11
34.79401093031494
 21
40.71918896692913
 31
0.0
  0
LINE
  5
4603
330
1E
100
AcDbEntity
  8
7
100
AcDbLine
 10
34.79401093031494
 20
40.71918896692913
 30
0.0
 11
34.75434758336612
 21
40.71125629753934
 31
0.0
  0
LINE
  5
4604
330
1E
100
AcDbEntity
  8
7
100
AcDbLine
 10
34.75434758336612
 20
40.71125629753934
 30
0.0
 11
34.62742487312993
 21
40.71125629753934
 31
0.0
  0
LINE
  5
4605
330
1E
100
AcDbEntity
  8
7
100
AcDbLine
 10
34.62742487312993
 20
40.71125629753934
 30
0.0
 11
34.58776152618112
 21
40.71918896692913
 31
0.0
  0
LINE
  5
4606
330
1E
100
AcDbEntity
  8
7
100
AcDbLine
 10
34.58776152618112
 20
40.71918896692913
 30
0.0
 11
34.5718961874016
 21
40.71918896692913
 31
0.0
  0
LINE
  5
4607
330
1E
100
AcDbEntity
  8
7
100
AcDbLine
 10
34.5718961874016
 20
40.78265032204723
 30
0.0
 11
34.58776152618112
 21
40.77471765265747
 31
0.0
  0
LINE
  5
4608
330
1E
100
AcDbEntity
  8
7
100
AcDbLine
 10
34.58776152618112
 20
40.77471765265747
 30
0.0
 11
34.62742487312993
 21
40.77471765265747
 31
0.0
  0
LINE
  5
4609
330
1E
100
AcDbEntity
  8
7
100
AcDbLine
 10
35.51588384478344
 20
40.77471765265747
 30
0.0
 11
35.51588384478344
 21
40.67952561998029
 31
0.0
  0
LINE
  5
460A
330
1E
100
AcDbEntity
  8
7
100
AcDbLine
 10
35.51588384478344
 20
40.67952561998029
 30
0.0
 11
35.51588384478344
 21
40.63986227303149
 31
0.0
  0
LINE
  5
460B
330
1E
100
AcDbEntity
  8
7
100
AcDbLine
 10
34.88920296299213
 20
40.77471765265747
 30
0.0
 11
34.88920296299213
 21
40.67952561998029
 31
0.0
  0
LINE
  5
460C
330
1E
100
AcDbEntity
  8
7
100
AcDbLine
 10
34.88920296299213
 20
40.67952561998029
 30
0.0
 11
34.88920296299213
 21
40.63986227303149
 31
0.0
  0
LINE
  5
460D
330
1E
100
AcDbEntity
  8
7
100
AcDbLine
 10
36.15049739596457
 20
40.89370769350392
 30
0.0
 11
36.15049739596457
 21
40.86197701594488
 31
0.0
  0
LINE
  5
460E
330
1E
100
AcDbEntity
  8
7
100
AcDbLine
 10
36.15049739596457
 20
40.86197701594488
 30
0.0
 11
36.15049739596457
 21
40.77471765265747
 31
0.0
  0
LINE
  5
460F
330
1E
100
AcDbEntity
  8
7
100
AcDbLine
 10
36.15049739596457
 20
40.77471765265747
 30
0.0
 11
36.15049739596457
 21
40.67952561998029
 31
0.0
  0
LINE
  5
4610
330
1E
100
AcDbEntity
  8
7
100
AcDbLine
 10
36.15049739596457
 20
40.67952561998029
 30
0.0
 11
36.15049739596457
 21
40.64779494242125
 31
0.0
  0
LINE
  5
4611
330
1E
100
AcDbEntity
  8
7
100
AcDbLine
 10
35.64280655501969
 20
40.89370769350392
 30
0.0
 11
35.64280655501969
 21
40.86197701594488
 31
0.0
  0
LINE
  5
4612
330
1E
100
AcDbEntity
  8
7
100
AcDbLine
 10
35.64280655501969
 20
40.86197701594488
 30
0.0
 11
35.64280655501969
 21
40.77471765265747
 31
0.0
  0
LINE
  5
4613
330
1E
100
AcDbEntity
  8
7
100
AcDbLine
 10
35.64280655501969
 20
40.77471765265747
 30
0.0
 11
35.64280655501969
 21
40.67952561998029
 31
0.0
  0
LINE
  5
4614
330
1E
100
AcDbEntity
  8
7
100
AcDbLine
 10
35.64280655501969
 20
40.67952561998029
 30
0.0
 11
35.64280655501969
 21
40.64779494242125
 31
0.0
  0
LINE
  5
4615
330
1E
100
AcDbEntity
  8
7
100
AcDbLine
 10
34.62742487312993
 20
40.77471765265747
 30
0.0
 11
34.75434758336612
 21
40.77471765265747
 31
0.0
  0
LINE
  5
4616
330
1E
100
AcDbEntity
  8
7
100
AcDbLine
 10
34.75434758336612
 20
40.77471765265747
 30
0.0
 11
34.79401093031494
 21
40.77471765265747
 31
0.0
  0
LINE
  5
4617
330
1E
100
AcDbEntity
  8
7
100
AcDbLine
 10
34.79401093031494
 20
40.77471765265747
 30
0.0
 11
34.80987626909445
 21
40.78265032204723
 31
0.0
  0
LINE
  5
4618
330
1E
100
AcDbEntity
  8
7
100
AcDbLine
 10
34.80987626909445
 20
40.89370769350392
 30
0.0
 11
34.80987626909445
 21
40.78265032204723
 31
0.0
  0
LINE
  5
4619
330
1E
100
AcDbEntity
  8
7
100
AcDbLine
 10
34.80987626909445
 20
40.78265032204723
 30
0.0
 11
34.80987626909445
 21
40.71918896692913
 31
0.0
  0
LINE
  5
461A
330
1E
100
AcDbEntity
  8
7
100
AcDbLine
 10
34.88920296299213
 20
40.83817900777559
 30
0.0
 11
34.84160694665356
 21
40.83817900777559
 31
0.0
  0
LINE
  5
461B
330
1E
100
AcDbEntity
  8
7
100
AcDbLine
 10
34.84160694665356
 20
40.83817900777559
 30
0.0
 11
34.80987626909445
 21
40.83817900777559
 31
0.0
  0
LINE
  5
461C
330
1E
100
AcDbEntity
  8
7
100
AcDbLine
 10
36.4916021797244
 20
40.83817900777559
 30
0.0
 11
36.44400616338582
 21
40.83817900777559
 31
0.0
  0
LINE
  5
461D
330
1E
100
AcDbEntity
  8
7
100
AcDbLine
 10
36.44400616338582
 20
40.83817900777559
 30
0.0
 11
36.4281408246063
 21
40.83817900777559
 31
0.0
  0
LINE
  5
461E
330
1E
100
AcDbEntity
  8
7
100
AcDbLine
 10
36.4281408246063
 20
40.83817900777559
 30
0.0
 11
36.41227548582678
 21
40.83817900777559
 31
0.0
  0
LINE
  5
461F
330
1E
100
AcDbEntity
  8
7
100
AcDbLine
 10
36.41227548582678
 20
40.83817900777559
 30
0.0
 11
36.36467946948821
 21
40.83817900777559
 31
0.0
  0
LINE
  5
4620
330
1E
100
AcDbEntity
  8
7
100
AcDbLine
 10
36.15049739596457
 20
40.83817900777559
 30
0.0
 11
36.36467946948821
 21
40.83817900777559
 31
0.0
  0
LINE
  5
4621
330
1E
100
AcDbEntity
  8
7
100
AcDbLine
 10
36.36467946948821
 20
40.83817900777559
 30
0.0
 11
36.36467946948821
 21
40.89370769350392
 31
0.0
  0
LINE
  5
4622
330
1E
100
AcDbEntity
  8
7
100
AcDbLine
 10
44.25768551230315
 20
32.27882873622047
 30
0.0
 11
44.19422415718505
 21
32.34229009133857
 31
0.0
  0
LINE
  5
4623
330
1E
100
AcDbEntity
  8
7
100
AcDbLine
 10
44.19422415718505
 20
32.34229009133857
 30
0.0
 11
44.01970543061023
 21
32.34229009133857
 31
0.0
  0
LINE
  5
4624
330
1E
100
AcDbEntity
  8
7
100
AcDbLine
 10
44.25768551230315
 20
40.89370769350392
 30
0.0
 11
44.19422415718505
 21
40.89370769350392
 31
0.0
  0
LINE
  5
4625
330
1E
100
AcDbEntity
  8
7
100
AcDbLine
 10
44.19422415718505
 20
40.89370769350392
 30
0.0
 11
44.01970543061023
 21
40.89370769350392
 31
0.0
  0
LINE
  5
4626
330
1E
100
AcDbEntity
  8
7
100
AcDbLine
 10
43.03605442627952
 20
40.89370769350392
 30
0.0
 11
43.21057315285433
 21
40.89370769350392
 31
0.0
  0
LINE
  5
4627
330
1E
100
AcDbEntity
  8
7
100
AcDbLine
 10
43.21057315285433
 20
40.89370769350392
 30
0.0
 11
43.03605442627952
 21
40.89370769350392
 31
0.0
  0
LINE
  5
4628
330
1E
100
AcDbEntity
  8
7
100
AcDbLine
 10
34.44497347716535
 20
46.86700774399606
 30
0.0
 11
34.44497347716535
 21
46.35931690305119
 31
0.0
  0
LINE
  5
4629
330
1E
100
AcDbEntity
  8
7
100
AcDbLine
 10
34.44497347716535
 20
46.35931690305119
 30
0.0
 11
34.45290614655511
 21
46.36724957244095
 31
0.0
  0
LINE
  5
462A
330
1E
100
AcDbEntity
  8
7
100
AcDbLine
 10
34.45290614655511
 20
46.36724957244095
 30
0.0
 11
34.45290614655511
 21
46.37518224183071
 31
0.0
  0
LINE
  5
462B
330
1E
100
AcDbEntity
  8
7
100
AcDbLine
 10
34.45290614655511
 20
46.37518224183071
 30
0.0
 11
34.46083881594487
 21
46.38311491122047
 31
0.0
  0
LINE
  5
462C
330
1E
100
AcDbEntity
  8
7
100
AcDbLine
 10
34.46083881594487
 20
46.38311491122047
 30
0.0
 11
34.46877148533463
 21
46.41484558877952
 31
0.0
  0
LINE
  5
462D
330
1E
100
AcDbEntity
  8
7
100
AcDbLine
 10
34.46877148533463
 20
46.41484558877952
 30
0.0
 11
34.46877148533463
 21
46.51003762145666
 31
0.0
  0
LINE
  5
462E
330
1E
100
AcDbEntity
  8
7
100
AcDbLine
 10
34.46877148533463
 20
46.51003762145666
 30
0.0
 11
34.46877148533463
 21
46.63696033169292
 31
0.0
  0
LINE
  5
462F
330
1E
100
AcDbEntity
  8
7
100
AcDbLine
 10
34.46877148533463
 20
46.63696033169292
 30
0.0
 11
34.46877148533463
 21
46.81941172765746
 31
0.0
  0
LINE
  5
4630
330
1E
100
AcDbEntity
  8
7
100
AcDbLine
 10
34.46877148533463
 20
46.81941172765746
 30
0.0
 11
34.46877148533463
 21
46.86700774399606
 31
0.0
  0
LINE
  5
4631
330
1E
100
AcDbEntity
  8
7
100
AcDbLine
 10
34.46083881594487
 20
46.38311491122047
 30
0.0
 11
34.49256949350392
 21
46.29585554793306
 31
0.0
  0
LINE
  5
4632
330
1E
100
AcDbEntity
  8
7
100
AcDbLine
 10
34.49256949350392
 20
46.29585554793306
 30
0.0
 11
34.5718961874016
 21
46.25619220098423
 31
0.0
  0
LINE
  5
4633
330
1E
100
AcDbEntity
  8
7
100
AcDbLine
 10
34.45290614655511
 20
46.37518224183071
 30
0.0
 11
34.48463682411416
 21
46.2879228785433
 31
0.0
  0
LINE
  5
4634
330
1E
100
AcDbEntity
  8
7
100
AcDbLine
 10
34.48463682411416
 20
46.2879228785433
 30
0.0
 11
34.5718961874016
 21
46.24825953159446
 31
0.0
  0
LINE
  5
4635
330
1E
100
AcDbEntity
  8
7
100
AcDbLine
 10
34.5718961874016
 20
46.24825953159446
 30
0.0
 11
34.56396351801183
 21
46.2403268622047
 31
0.0
  0
LINE
  5
4636
330
1E
100
AcDbEntity
  8
7
100
AcDbLine
 10
34.56396351801183
 20
46.2403268622047
 30
0.0
 11
34.55603084862202
 21
46.2403268622047
 31
0.0
  0
LINE
  5
4637
330
1E
100
AcDbEntity
  8
7
100
AcDbLine
 10
34.55603084862202
 20
46.2403268622047
 30
0.0
 11
34.55603084862202
 21
46.23239419281493
 31
0.0
  0
LINE
  5
4638
330
1E
100
AcDbEntity
  8
7
100
AcDbLine
 10
34.44497347716535
 20
46.35931690305119
 30
0.0
 11
34.4767041547244
 21
46.27999020915353
 31
0.0
  0
LINE
  5
4639
330
1E
100
AcDbEntity
  8
7
100
AcDbLine
 10
34.4767041547244
 20
46.27999020915353
 30
0.0
 11
34.55603084862202
 21
46.23239419281493
 31
0.0
  0
LINE
  5
463A
330
1E
100
AcDbEntity
  8
7
100
AcDbLine
 10
34.44497347716535
 20
46.35931690305119
 30
0.0
 11
34.45290614655511
 21
46.31965355610235
 31
0.0
  0
LINE
  5
463B
330
1E
100
AcDbEntity
  8
7
100
AcDbLine
 10
34.45290614655511
 20
46.31965355610235
 30
0.0
 11
34.46877148533463
 21
46.27999020915353
 31
0.0
  0
LINE
  5
463C
330
1E
100
AcDbEntity
  8
7
100
AcDbLine
 10
34.46877148533463
 20
46.27999020915353
 30
0.0
 11
34.50050216289369
 21
46.25619220098423
 31
0.0
  0
LINE
  5
463D
330
1E
100
AcDbEntity
  8
7
100
AcDbLine
 10
34.50050216289369
 20
46.25619220098423
 30
0.0
 11
34.54016550984249
 21
46.2403268622047
 31
0.0
  0
LINE
  5
463E
330
1E
100
AcDbEntity
  8
7
100
AcDbLine
 10
34.55603084862202
 20
46.23239419281493
 30
0.0
 11
34.56396351801183
 21
46.23239419281493
 31
0.0
  0
LINE
  5
463F
330
1E
100
AcDbEntity
  8
7
100
AcDbLine
 10
34.56396351801183
 20
46.23239419281493
 30
0.0
 11
34.5718961874016
 21
46.23239419281493
 31
0.0
  0
LINE
  5
464D
330
1E
100
AcDbEntity
  8
7
100
AcDbLine
 10
37.08655238395672
 20
45.47879060078737
 30
0.0
 11
36.89616831860238
 21
45.43912725383857
 31
0.0
  0
LINE
  5
464E
330
1E
100
AcDbEntity
  8
7
100
AcDbLine
 10
36.89616831860238
 20
45.43912725383857
 30
0.0
 11
36.72958226141731
 21
45.33600255177163
 31
0.0
  0
LINE
  5
464F
330
1E
100
AcDbEntity
  8
7
100
AcDbLine
 10
36.72958226141731
 20
45.33600255177163
 30
0.0
 11
36.62645755935041
 21
45.16941649458661
 31
0.0
  0
LINE
  5
4650
330
1E
100
AcDbEntity
  8
7
100
AcDbLine
 10
36.62645755935041
 20
45.16941649458661
 30
0.0
 11
36.5867942124016
 21
44.97903242923226
 31
0.0
  0
LINE
  5
4651
330
1E
100
AcDbEntity
  8
7
100
AcDbLine
 10
36.5867942124016
 20
43.56701727785432
 30
0.0
 11
36.62645755935041
 21
43.37663321249999
 31
0.0
  0
LINE
  5
4652
330
1E
100
AcDbEntity
  8
7
100
AcDbLine
 10
36.62645755935041
 20
43.37663321249999
 30
0.0
 11
36.72958226141731
 21
43.21004715531493
 31
0.0
  0
LINE
  5
4653
330
1E
100
AcDbEntity
  8
7
100
AcDbLine
 10
36.72958226141731
 20
43.21004715531493
 30
0.0
 11
36.89616831860238
 21
43.10692245324803
 31
0.0
  0
LINE
  5
4654
330
1E
100
AcDbEntity
  8
7
100
AcDbLine
 10
36.6502555675197
 20
45.22494518031494
 30
0.0
 11
36.6502555675197
 21
43.32110452677163
 31
0.0
  0
LINE
  5
4655
330
1E
100
AcDbEntity
  8
7
100
AcDbLine
 10
36.6502555675197
 20
43.32110452677163
 30
0.0
 11
36.6502555675197
 21
45.22494518031494
 31
0.0
  0
LINE
  5
4656
330
1E
100
AcDbEntity
  8
7
100
AcDbLine
 10
34.50843483228345
 20
46.86700774399606
 30
0.0
 11
34.52430017106296
 21
46.86700774399606
 31
0.0
  0
LINE
  5
4657
330
1E
100
AcDbEntity
  8
7
100
AcDbLine
 10
34.52430017106296
 20
46.86700774399606
 30
0.0
 11
34.5718961874016
 21
46.86700774399606
 31
0.0
  0
LINE
  5
4658
330
1E
100
AcDbEntity
  8
7
100
AcDbLine
 10
34.46877148533463
 20
46.81941172765746
 30
0.0
 11
34.50050216289369
 21
46.84320973582675
 31
0.0
  0
LINE
  5
4659
330
1E
100
AcDbEntity
  8
7
100
AcDbLine
 10
34.50050216289369
 20
46.84320973582675
 30
0.0
 11
34.5718961874016
 21
46.85907507460631
 31
0.0
  0
LINE
  5
465A
330
1E
100
AcDbEntity
  8
7
100
AcDbLine
 10
34.46877148533463
 20
46.63696033169292
 30
0.0
 11
34.50050216289369
 21
46.63696033169292
 31
0.0
  0
LINE
  5
465B
330
1E
100
AcDbEntity
  8
7
100
AcDbLine
 10
34.50050216289369
 20
46.63696033169292
 30
0.0
 11
34.5718961874016
 21
46.63696033169292
 31
0.0
  0
LINE
  5
465C
330
1E
100
AcDbEntity
  8
7
100
AcDbLine
 10
35.5793451999016
 20
47.21604519714565
 30
0.0
 11
35.51588384478344
 21
47.21604519714565
 31
0.0
  0
LINE
  5
465D
330
1E
100
AcDbEntity
  8
7
100
AcDbLine
 10
35.51588384478344
 20
47.21604519714565
 30
0.0
 11
35.49208583661416
 21
47.21604519714565
 31
0.0
  0
LINE
  5
465E
330
1E
100
AcDbEntity
  8
7
100
AcDbLine
 10
35.59521053868112
 20
48.47733963011809
 30
0.0
 11
35.59521053868112
 21
48.54080098523621
 31
0.0
  0
LINE
  5
465F
330
1E
100
AcDbEntity
  8
7
100
AcDbLine
 10
35.59521053868112
 20
48.54080098523621
 30
0.0
 11
35.59521053868112
 21
48.57253166279527
 31
0.0
  0
LINE
  5
4660
330
1E
100
AcDbEntity
  8
7
100
AcDbLine
 10
35.51588384478344
 20
48.50113763828738
 30
0.0
 11
35.50001850600392
 21
48.49320496889761
 31
0.0
  0
LINE
  5
4661
330
1E
100
AcDbEntity
  8
7
100
AcDbLine
 10
35.50001850600392
 20
48.49320496889761
 30
0.0
 11
35.49208583661416
 21
48.47733963011809
 31
0.0
  0
LINE
  5
4662
330
1E
100
AcDbEntity
  8
7
100
AcDbLine
 10
35.51588384478344
 20
48.5645989934055
 30
0.0
 11
35.45242248966535
 21
48.54080098523621
 31
0.0
  0
LINE
  5
4663
330
1E
100
AcDbEntity
  8
7
100
AcDbLine
 10
35.45242248966535
 20
48.54080098523621
 30
0.0
 11
35.42862448149606
 21
48.47733963011809
 31
0.0
  0
LINE
  5
4664
330
1E
100
AcDbEntity
  8
7
100
AcDbLine
 10
35.39689380393701
 20
47.00979579301178
 30
0.0
 11
35.46035515905511
 21
47.0335938011811
 31
0.0
  0
LINE
  5
4665
330
1E
100
AcDbEntity
  8
7
100
AcDbLine
 10
35.46035515905511
 20
47.0335938011811
 30
0.0
 11
35.4841531672244
 21
47.09705515629919
 31
0.0
  0
LINE
  5
4666
330
1E
100
AcDbEntity
  8
7
100
AcDbLine
 10
35.39689380393701
 20
47.07325714812991
 30
0.0
 11
35.41275914271654
 21
47.08118981751967
 31
0.0
  0
LINE
  5
4667
330
1E
100
AcDbEntity
  8
7
100
AcDbLine
 10
35.41275914271654
 20
47.08118981751967
 30
0.0
 11
35.4206918121063
 21
47.09705515629919
 31
0.0
  0
LINE
  5
4668
330
1E
100
AcDbEntity
  8
7
100
AcDbLine
 10
35.63487388562993
 20
47.00979579301178
 30
0.0
 11
35.67453723257874
 21
47.02566113179133
 31
0.0
  0
LINE
  5
4669
330
1E
100
AcDbEntity
  8
7
100
AcDbLine
 10
35.67453723257874
 20
47.02566113179133
 30
0.0
 11
35.69040257135827
 21
47.06532447874015
 31
0.0
  0
LINE
  5
466A
330
1E
100
AcDbEntity
  8
7
100
AcDbLine
 10
35.69040257135827
 20
47.15258384202756
 30
0.0
 11
35.67453723257874
 21
47.19224718897637
 31
0.0
  0
LINE
  5
466B
330
1E
100
AcDbEntity
  8
7
100
AcDbLine
 10
35.67453723257874
 20
47.19224718897637
 30
0.0
 11
35.63487388562993
 21
47.20811252775589
 31
0.0
  0
LINE
  5
466C
330
1E
100
AcDbEntity
  8
7
100
AcDbLine
 10
35.59521053868112
 20
48.47733963011809
 30
0.0
 11
35.5793451999016
 21
48.47733963011809
 31
0.0
  0
LINE
  5
466D
330
1E
100
AcDbEntity
  8
7
100
AcDbLine
 10
35.5793451999016
 20
48.47733963011809
 30
0.0
 11
35.5793451999016
 21
47.21604519714565
 31
0.0
  0
LINE
  5
466E
330
1E
100
AcDbEntity
  8
7
100
AcDbLine
 10
35.5793451999016
 20
47.21604519714565
 30
0.0
 11
35.63487388562993
 21
47.21604519714565
 31
0.0
  0
LINE
  5
466F
330
1E
100
AcDbEntity
  8
7
100
AcDbLine
 10
40.299283486811
 20
43.10692245324803
 30
0.0
 11
40.46586954399606
 21
43.21004715531493
 31
0.0
  0
LINE
  5
4670
330
1E
100
AcDbEntity
  8
7
100
AcDbLine
 10
40.46586954399606
 20
43.21004715531493
 30
0.0
 11
40.56899424606297
 21
43.37663321249999
 31
0.0
  0
LINE
  5
4671
330
1E
100
AcDbEntity
  8
7
100
AcDbLine
 10
40.56899424606297
 20
43.37663321249999
 30
0.0
 11
40.60865759301184
 21
43.56701727785432
 31
0.0
  0
LINE
  5
4672
330
1E
100
AcDbEntity
  8
7
100
AcDbLine
 10
40.60865759301184
 20
44.97903242923226
 30
0.0
 11
40.56899424606297
 21
45.16941649458661
 31
0.0
  0
LINE
  5
4673
330
1E
100
AcDbEntity
  8
7
100
AcDbLine
 10
40.56899424606297
 20
45.16941649458661
 30
0.0
 11
40.46586954399606
 21
45.33600255177163
 31
0.0
  0
LINE
  5
4674
330
1E
100
AcDbEntity
  8
7
100
AcDbLine
 10
40.46586954399606
 20
45.33600255177163
 30
0.0
 11
40.299283486811
 21
45.43912725383857
 31
0.0
  0
LINE
  5
4675
330
1E
100
AcDbEntity
  8
7
100
AcDbLine
 10
40.299283486811
 20
45.43912725383857
 30
0.0
 11
40.10889942145672
 21
45.47879060078737
 31
0.0
  0
LINE
  5
4676
330
1E
100
AcDbEntity
  8
7
100
AcDbLine
 10
38.41130817204725
 20
45.48672327017714
 30
0.0
 11
38.41130817204725
 21
43.0672591062992
 31
0.0
  0
LINE
  5
4677
330
1E
100
AcDbEntity
  8
7
100
AcDbLine
 10
38.41130817204725
 20
43.0672591062992
 30
0.0
 11
38.41130817204725
 21
45.48672327017714
 31
0.0
  0
LINE
  5
4678
330
1E
100
AcDbEntity
  8
7
100
AcDbLine
 10
39.29183447431101
 20
43.0672591062992
 30
0.0
 11
39.29183447431101
 21
45.48672327017714
 31
0.0
  0
LINE
  5
4679
330
1E
100
AcDbEntity
  8
7
100
AcDbLine
 10
39.29183447431101
 20
45.48672327017714
 30
0.0
 11
39.29183447431101
 21
43.0672591062992
 31
0.0
  0
LINE
  5
467A
330
1E
100
AcDbEntity
  8
7
100
AcDbLine
 10
40.17236077657481
 20
45.47879060078737
 30
0.0
 11
40.17236077657481
 21
43.0672591062992
 31
0.0
  0
LINE
  5
467B
330
1E
100
AcDbEntity
  8
7
100
AcDbLine
 10
40.17236077657481
 20
43.0672591062992
 30
0.0
 11
40.17236077657481
 21
45.47879060078737
 31
0.0
  0
LINE
  5
467C
330
1E
100
AcDbEntity
  8
7
100
AcDbLine
 10
42.6314882874016
 20
45.47879060078737
 30
0.0
 11
42.44110422204726
 21
45.43912725383857
 31
0.0
  0
LINE
  5
467D
330
1E
100
AcDbEntity
  8
7
100
AcDbLine
 10
42.44110422204726
 20
45.43912725383857
 30
0.0
 11
42.2745181648622
 21
45.33600255177163
 31
0.0
  0
LINE
  5
467E
330
1E
100
AcDbEntity
  8
7
100
AcDbLine
 10
42.2745181648622
 20
45.33600255177163
 30
0.0
 11
42.17139346279529
 21
45.16941649458661
 31
0.0
  0
LINE
  5
467F
330
1E
100
AcDbEntity
  8
7
100
AcDbLine
 10
42.17139346279529
 20
45.16941649458661
 30
0.0
 11
42.13173011584648
 21
44.97903242923226
 31
0.0
  0
LINE
  5
4680
330
1E
100
AcDbEntity
  8
7
100
AcDbLine
 10
42.13173011584648
 20
43.56701727785432
 30
0.0
 11
42.17139346279529
 21
43.37663321249999
 31
0.0
  0
LINE
  5
4681
330
1E
100
AcDbEntity
  8
7
100
AcDbLine
 10
42.17139346279529
 20
43.37663321249999
 30
0.0
 11
42.2745181648622
 21
43.21004715531493
 31
0.0
  0
LINE
  5
4682
330
1E
100
AcDbEntity
  8
7
100
AcDbLine
 10
42.2745181648622
 20
43.21004715531493
 30
0.0
 11
42.44110422204726
 21
43.10692245324803
 31
0.0
  0
LINE
  5
4683
330
1E
100
AcDbEntity
  8
7
100
AcDbLine
 10
42.44110422204726
 20
43.10692245324803
 30
0.0
 11
42.6314882874016
 21
43.0672591062992
 31
0.0
  0
LINE
  5
4684
330
1E
100
AcDbEntity
  8
7
100
AcDbLine
 10
42.82187235275588
 20
43.0672591062992
 30
0.0
 11
42.82187235275588
 21
45.48672327017714
 31
0.0
  0
LINE
  5
4685
330
1E
100
AcDbEntity
  8
7
100
AcDbLine
 10
42.82187235275588
 20
45.48672327017714
 30
0.0
 11
42.82187235275588
 21
43.0672591062992
 31
0.0
  0
LINE
  5
4686
330
1E
100
AcDbEntity
  8
7
100
AcDbLine
 10
43.70239865501969
 20
45.48672327017714
 30
0.0
 11
43.70239865501969
 21
43.0672591062992
 31
0.0
  0
LINE
  5
4687
330
1E
100
AcDbEntity
  8
7
100
AcDbLine
 10
43.70239865501969
 20
43.0672591062992
 30
0.0
 11
43.70239865501969
 21
45.48672327017714
 31
0.0
  0
LINE
  5
4688
330
1E
100
AcDbEntity
  8
7
100
AcDbLine
 10
44.58292495728344
 20
43.0672591062992
 30
0.0
 11
44.58292495728344
 21
45.48672327017714
 31
0.0
  0
LINE
  5
4689
330
1E
100
AcDbEntity
  8
7
100
AcDbLine
 10
44.58292495728344
 20
45.48672327017714
 30
0.0
 11
44.58292495728344
 21
43.0672591062992
 31
0.0
  0
LINE
  5
468A
330
1E
100
AcDbEntity
  8
7
100
AcDbLine
 10
74.0289937320866
 20
26.00408724891732
 30
0.0
 11
74.00519572391733
 21
26.00408724891732
 31
0.0
  0
LINE
  5
468B
330
1E
100
AcDbEntity
  8
7
100
AcDbLine
 10
74.00519572391733
 20
26.00408724891732
 30
0.0
 11
73.93380169940946
 21
26.00408724891732
 31
0.0
  0
LINE
  5
468C
330
1E
100
AcDbEntity
  8
7
100
AcDbLine
 10
73.93380169940946
 20
26.00408724891732
 30
0.0
 11
72.55351722559052
 21
26.00408724891732
 31
0.0
  0
LINE
  5
468D
330
1E
100
AcDbEntity
  8
7
100
AcDbLine
 10
72.55351722559052
 20
26.00408724891732
 30
0.0
 11
72.537651886811
 21
26.00408724891732
 31
0.0
  0
LINE
  5
468E
330
1E
100
AcDbEntity
  8
7
100
AcDbLine
 10
72.537651886811
 20
26.00408724891732
 30
0.0
 11
72.52971921742124
 21
26.00408724891732
 31
0.0
  0
LINE
  5
468F
330
1E
100
AcDbEntity
  8
7
100
AcDbLine
 10
72.52971921742124
 20
26.00408724891732
 30
0.0
 11
72.46625786230314
 21
26.00408724891732
 31
0.0
  0
LINE
  5
4690
330
1E
100
AcDbEntity
  8
7
100
AcDbLine
 10
73.93380169940946
 20
25.90889521624015
 30
0.0
 11
72.68043993582677
 21
25.90889521624015
 31
0.0
  0
LINE
  5
4691
330
1E
100
AcDbEntity
  8
7
100
AcDbLine
 10
72.68043993582677
 20
25.90889521624015
 30
0.0
 11
72.65664192765749
 21
25.90889521624015
 31
0.0
  0
LINE
  5
4692
330
1E
100
AcDbEntity
  8
7
100
AcDbLine
 10
72.65664192765749
 20
25.90889521624015
 30
0.0
 11
72.61697858070869
 21
25.90889521624015
 31
0.0
  0
LINE
  5
4693
330
1E
100
AcDbEntity
  8
7
100
AcDbLine
 10
72.61697858070869
 20
25.90889521624015
 30
0.0
 11
72.52178654803149
 21
25.90889521624015
 31
0.0
  0
LINE
  5
4694
330
1E
100
AcDbEntity
  8
7
100
AcDbLine
 10
72.52178654803149
 20
25.90889521624015
 30
0.0
 11
72.48212320108267
 21
25.90889521624015
 31
0.0
  0
LINE
  5
4695
330
1E
100
AcDbEntity
  8
7
100
AcDbLine
 10
72.48212320108267
 20
25.90889521624015
 30
0.0
 11
72.46625786230314
 21
25.90889521624015
 31
0.0
  0
LINE
  5
4696
330
1E
100
AcDbEntity
  8
7
100
AcDbLine
 10
66.35810243218505
 20
32.64373152814958
 30
0.0
 11
66.35810243218505
 21
32.62786618937006
 31
0.0
  0
LINE
  5
4697
330
1E
100
AcDbEntity
  8
7
100
AcDbLine
 10
66.35810243218505
 20
32.62786618937006
 30
0.0
 11
66.35810243218505
 21
32.58027017303148
 31
0.0
  0
LINE
  5
4698
330
1E
100
AcDbEntity
  8
7
100
AcDbLine
 10
66.35810243218505
 20
32.58027017303148
 30
0.0
 11
66.35810243218505
 21
25.99615457952756
 31
0.0
  0
LINE
  5
4699
330
1E
100
AcDbEntity
  8
7
100
AcDbLine
 10
66.35810243218505
 20
32.04084865452756
 30
0.0
 11
66.35810243218505
 21
32.34229009133857
 31
0.0
  0
LINE
  5
469A
330
1E
100
AcDbEntity
  8
7
100
AcDbLine
 10
66.35810243218505
 20
32.34229009133857
 30
0.0
 11
66.35810243218505
 21
32.31055941377952
 31
0.0
  0
LINE
  5
469B
330
1E
100
AcDbEntity
  8
7
100
AcDbLine
 10
66.35810243218505
 20
32.34229009133857
 30
0.0
 11
66.35810243218505
 21
32.04084865452756
 31
0.0
  0
LINE
  5
469C
330
1E
100
AcDbEntity
  8
7
100
AcDbLine
 10
66.35810243218505
 20
32.04084865452756
 30
0.0
 11
66.35810243218505
 21
32.34229009133857
 31
0.0
  0
LINE
  5
469D
330
1E
100
AcDbEntity
  8
7
100
AcDbLine
 10
66.35810243218505
 20
32.34229009133857
 30
0.0
 11
66.35810243218505
 21
32.04084865452756
 31
0.0
  0
LINE
  5
469E
330
1E
100
AcDbEntity
  8
7
100
AcDbLine
 10
66.35810243218505
 20
32.04084865452756
 30
0.0
 11
66.35810243218505
 21
32.10431000964566
 31
0.0
  0
LINE
  5
46C3
330
1E
100
AcDbEntity
  8
7
100
AcDbLine
 10
53.70549475551183
 20
26.12307728976378
 30
0.0
 11
53.67376407795273
 21
26.21033665305119
 31
0.0
  0
LINE
  5
46C4
330
1E
100
AcDbEntity
  8
7
100
AcDbLine
 10
53.67376407795273
 20
26.21033665305119
 30
0.0
 11
53.58650471466535
 21
26.24206733061023
 31
0.0
  0
LINE
  5
46C5
330
1E
100
AcDbEntity
  8
7
100
AcDbLine
 10
53.7134274249016
 20
25.90889521624015
 30
0.0
 11
53.7134274249016
 21
25.93269322440943
 31
0.0
  0
LINE
  5
46C6
330
1E
100
AcDbEntity
  8
7
100
AcDbLine
 10
53.7134274249016
 20
25.93269322440943
 30
0.0
 11
53.7134274249016
 21
25.99615457952756
 31
0.0
  0
LINE
  5
46C7
330
1E
100
AcDbEntity
  8
7
100
AcDbLine
 10
53.78482144940946
 20
25.97235657135827
 30
0.0
 11
53.8165521269685
 21
25.9882219101378
 31
0.0
  0
LINE
  5
46C8
330
1E
100
AcDbEntity
  8
7
100
AcDbLine
 10
53.8165521269685
 20
25.9882219101378
 30
0.0
 11
53.83241746574803
 21
26.01995258769684
 31
0.0
  0
LINE
  5
46C9
330
1E
100
AcDbEntity
  8
7
100
AcDbLine
 10
53.72136009429136
 20
26.01995258769684
 30
0.0
 11
53.72136009429136
 21
25.9882219101378
 31
0.0
  0
LINE
  5
46CA
330
1E
100
AcDbEntity
  8
7
100
AcDbLine
 10
53.72136009429136
 20
25.9882219101378
 30
0.0
 11
53.72136009429136
 21
25.97235657135827
 31
0.0
  0
LINE
  5
46CB
330
1E
100
AcDbEntity
  8
7
100
AcDbLine
 10
53.80861945757875
 20
26.86081554301178
 30
0.0
 11
53.77688878001969
 21
26.93220956751967
 31
0.0
  0
LINE
  5
46CC
330
1E
100
AcDbEntity
  8
7
100
AcDbLine
 10
53.77688878001969
 20
26.93220956751967
 30
0.0
 11
53.7134274249016
 21
26.97187291446851
 31
0.0
  0
LINE
  5
46CD
330
1E
100
AcDbEntity
  8
7
100
AcDbLine
 10
53.7134274249016
 20
26.61490279192913
 30
0.0
 11
53.79275411879922
 21
26.61490279192913
 31
0.0
  0
LINE
  5
46CE
330
1E
100
AcDbEntity
  8
7
100
AcDbLine
 10
53.79275411879922
 20
26.61490279192913
 30
0.0
 11
53.82448479635826
 21
26.61490279192913
 31
0.0
  0
LINE
  5
46CF
330
1E
100
AcDbEntity
  8
7
100
AcDbLine
 10
53.7134274249016
 20
26.40865338779526
 30
0.0
 11
53.79275411879922
 21
26.40865338779526
 31
0.0
  0
LINE
  5
46D0
330
1E
100
AcDbEntity
  8
7
100
AcDbLine
 10
53.79275411879922
 20
26.40865338779526
 30
0.0
 11
53.82448479635826
 21
26.40865338779526
 31
0.0
  0
LINE
  5
46D1
330
1E
100
AcDbEntity
  8
7
100
AcDbLine
 10
53.72929276368112
 20
26.12307728976378
 30
0.0
 11
53.80861945757875
 21
26.12307728976378
 31
0.0
  0
LINE
  5
46D2
330
1E
100
AcDbEntity
  8
7
100
AcDbLine
 10
53.80861945757875
 20
26.12307728976378
 30
0.0
 11
53.8403501351378
 21
26.12307728976378
 31
0.0
  0
LINE
  5
46D3
330
1E
100
AcDbEntity
  8
7
100
AcDbLine
 10
53.72929276368112
 20
26.11514462037401
 30
0.0
 11
53.73722543307088
 21
26.11514462037401
 31
0.0
  0
LINE
  5
46D4
330
1E
100
AcDbEntity
  8
7
100
AcDbLine
 10
53.73722543307088
 20
26.11514462037401
 30
0.0
 11
53.77688878001969
 21
26.11514462037401
 31
0.0
  0
LINE
  5
46D5
330
1E
100
AcDbEntity
  8
7
100
AcDbLine
 10
53.77688878001969
 20
26.11514462037401
 30
0.0
 11
53.80861945757875
 21
26.11514462037401
 31
0.0
  0
LINE
  5
46D6
330
1E
100
AcDbEntity
  8
7
100
AcDbLine
 10
53.80861945757875
 20
26.11514462037401
 30
0.0
 11
53.83241746574803
 21
26.11514462037401
 31
0.0
  0
LINE
  5
46D7
330
1E
100
AcDbEntity
  8
7
100
AcDbLine
 10
53.83241746574803
 20
26.11514462037401
 30
0.0
 11
53.8403501351378
 21
26.11514462037401
 31
0.0
  0
LINE
  5
46D8
330
1E
100
AcDbEntity
  8
7
100
AcDbLine
 10
53.72136009429136
 20
26.01995258769684
 30
0.0
 11
53.76895611062993
 21
26.01995258769684
 31
0.0
  0
LINE
  5
46D9
330
1E
100
AcDbEntity
  8
7
100
AcDbLine
 10
53.76895611062993
 20
26.01995258769684
 30
0.0
 11
53.80068678818898
 21
26.01995258769684
 31
0.0
  0
LINE
  5
46DA
330
1E
100
AcDbEntity
  8
7
100
AcDbLine
 10
53.80068678818898
 20
26.01995258769684
 30
0.0
 11
53.82448479635826
 21
26.01995258769684
 31
0.0
  0
LINE
  5
46DB
330
1E
100
AcDbEntity
  8
7
100
AcDbLine
 10
53.82448479635826
 20
26.01995258769684
 30
0.0
 11
53.83241746574803
 21
26.01995258769684
 31
0.0
  0
LINE
  5
46DC
330
1E
100
AcDbEntity
  8
7
100
AcDbLine
 10
53.7134274249016
 20
26.01995258769684
 30
0.0
 11
53.72136009429136
 21
26.01995258769684
 31
0.0
  0
LINE
  5
46DD
330
1E
100
AcDbEntity
  8
7
100
AcDbLine
 10
53.72136009429136
 20
26.01995258769684
 30
0.0
 11
53.72929276368112
 21
26.11514462037401
 31
0.0
  0
LINE
  5
46DE
330
1E
100
AcDbEntity
  8
7
100
AcDbLine
 10
53.72929276368112
 20
26.12307728976378
 30
0.0
 11
53.72136009429136
 21
26.12307728976378
 31
0.0
  0
LINE
  5
46DF
330
1E
100
AcDbEntity
  8
7
100
AcDbLine
 10
53.72136009429136
 20
26.12307728976378
 30
0.0
 11
53.7134274249016
 21
26.12307728976378
 31
0.0
  0
LINE
  5
46E0
330
1E
100
AcDbEntity
  8
7
100
AcDbLine
 10
53.78482144940946
 20
25.97235657135827
 30
0.0
 11
53.77688878001969
 21
25.97235657135827
 31
0.0
  0
LINE
  5
46E1
330
1E
100
AcDbEntity
  8
7
100
AcDbLine
 10
53.77688878001969
 20
25.97235657135827
 30
0.0
 11
53.76895611062993
 21
25.97235657135827
 31
0.0
  0
LINE
  5
46E2
330
1E
100
AcDbEntity
  8
7
100
AcDbLine
 10
53.76895611062993
 20
25.97235657135827
 30
0.0
 11
53.74515810246065
 21
25.97235657135827
 31
0.0
  0
LINE
  5
46E3
330
1E
100
AcDbEntity
  8
7
100
AcDbLine
 10
53.74515810246065
 20
25.97235657135827
 30
0.0
 11
53.72929276368112
 21
25.97235657135827
 31
0.0
  0
LINE
  5
46E4
330
1E
100
AcDbEntity
  8
7
100
AcDbLine
 10
53.72929276368112
 20
25.97235657135827
 30
0.0
 11
53.72136009429136
 21
25.97235657135827
 31
0.0
  0
LINE
  5
46E5
330
1E
100
AcDbEntity
  8
7
100
AcDbLine
 10
53.80861945757875
 20
26.86081554301178
 30
0.0
 11
53.8165521269685
 21
26.82908486545274
 31
0.0
  0
LINE
  5
46E6
330
1E
100
AcDbEntity
  8
7
100
AcDbLine
 10
53.8165521269685
 20
26.82908486545274
 30
0.0
 11
53.8165521269685
 21
26.73389283277559
 31
0.0
  0
LINE
  5
46E7
330
1E
100
AcDbEntity
  8
7
100
AcDbLine
 10
53.8165521269685
 20
26.73389283277559
 30
0.0
 11
53.82448479635826
 21
26.61490279192913
 31
0.0
  0
LINE
  5
46E8
330
1E
100
AcDbEntity
  8
7
100
AcDbLine
 10
53.82448479635826
 20
26.61490279192913
 30
0.0
 11
53.82448479635826
 21
26.40865338779526
 31
0.0
  0
LINE
  5
46E9
330
1E
100
AcDbEntity
  8
7
100
AcDbLine
 10
53.82448479635826
 20
26.40865338779526
 30
0.0
 11
53.83241746574803
 21
26.26586533877952
 31
0.0
  0
LINE
  5
46EA
330
1E
100
AcDbEntity
  8
7
100
AcDbLine
 10
53.83241746574803
 20
26.26586533877952
 30
0.0
 11
53.8403501351378
 21
26.12307728976378
 31
0.0
  0
LINE
  5
46EB
330
1E
100
AcDbEntity
  8
7
100
AcDbLine
 10
53.8403501351378
 20
26.12307728976378
 30
0.0
 11
53.8403501351378
 21
26.11514462037401
 31
0.0
  0
LINE
  5
471B
330
1E
100
AcDbEntity
  8
7
100
AcDbLine
 10
65.98526697086612
 20
26.25
 30
0.0
 11
65.98526697086612
 21
26.21033665305119
 31
0.0
  0
LINE
  5
471C
330
1E
100
AcDbEntity
  8
7
100
AcDbLine
 10
65.98526697086612
 20
26.21033665305119
 30
0.0
 11
65.98526697086612
 21
26.12307728976378
 31
0.0
  0
LINE
  5
471D
330
1E
100
AcDbEntity
  8
7
100
AcDbLine
 10
65.92973828513779
 20
25.99615457952756
 30
0.0
 11
65.92973828513779
 21
26.12307728976378
 31
0.0
  0
LINE
  5
471E
330
1E
100
AcDbEntity
  8
7
100
AcDbLine
 10
65.92973828513779
 20
26.12307728976378
 30
0.0
 11
65.92973828513779
 21
26.21033665305119
 31
0.0
  0
LINE
  5
471F
330
1E
100
AcDbEntity
  8
7
100
AcDbLine
 10
65.92973828513779
 20
26.21033665305119
 30
0.0
 11
65.92973828513779
 21
26.25
 31
0.0
  0
LINE
  5
4720
330
1E
100
AcDbEntity
  8
7
100
AcDbLine
 10
65.98526697086612
 20
25.99615457952756
 30
0.0
 11
65.98526697086612
 21
26.12307728976378
 31
0.0
  0
LINE
  5
4721
330
1E
100
AcDbEntity
  8
7
100
AcDbLine
 10
65.98526697086612
 20
26.12307728976378
 30
0.0
 11
65.92973828513779
 21
26.12307728976378
 31
0.0
  0
LINE
  5
4722
330
1E
100
AcDbEntity
  8
7
100
AcDbLine
 10
65.92973828513779
 20
25.99615457952756
 30
0.0
 11
65.95353629330708
 21
25.93269322440943
 31
0.0
  0
LINE
  5
4723
330
1E
100
AcDbEntity
  8
7
100
AcDbLine
 10
65.95353629330708
 20
25.93269322440943
 30
0.0
 11
66.01699764842518
 21
25.90889521624015
 31
0.0
  0
LINE
  5
4726
330
1E
100
AcDbEntity
  8
7
100
AcDbLine
 10
66.60401518326773
 20
26.11514462037401
 30
0.0
 11
66.67540920777558
 21
28.11417730659446
 31
0.0
  0
LINE
  5
4727
330
1E
100
AcDbEntity
  8
7
100
AcDbLine
 10
66.67540920777558
 20
28.11417730659446
 30
0.0
 11
66.68334187716535
 21
28.51081077608268
 31
0.0
  0
LINE
  5
4728
330
1E
100
AcDbEntity
  8
7
100
AcDbLine
 10
66.68334187716535
 20
28.51081077608268
 30
0.0
 11
66.69127454655512
 21
28.6377334863189
 31
0.0
  0
LINE
  5
4729
330
1E
100
AcDbEntity
  8
7
100
AcDbLine
 10
66.69127454655512
 20
28.6377334863189
 30
0.0
 11
66.69127454655512
 21
28.69326217204723
 31
0.0
  0
LINE
  5
472A
330
1E
100
AcDbEntity
  8
7
100
AcDbLine
 10
66.72300522411416
 20
28.12210997598422
 30
0.0
 11
66.65161119960631
 21
26.11514462037401
 31
0.0
  0
LINE
  5
472B
330
1E
100
AcDbEntity
  8
7
100
AcDbLine
 10
66.65161119960631
 20
26.11514462037401
 30
0.0
 11
71.3239534701772
 21
26.11514462037401
 31
0.0
  0
LINE
  5
472C
330
1E
100
AcDbEntity
  8
7
100
AcDbLine
 10
71.3239534701772
 20
26.11514462037401
 30
0.0
 11
66.79439924862208
 21
26.11514462037401
 31
0.0
  0
LINE
  5
472D
330
1E
100
AcDbEntity
  8
7
100
AcDbLine
 10
66.79439924862208
 20
26.11514462037401
 30
0.0
 11
66.72300522411416
 21
28.12210997598422
 31
0.0
  0
LINE
  5
472E
330
1E
100
AcDbEntity
  8
7
100
AcDbLine
 10
66.65161119960631
 20
26.11514462037401
 30
0.0
 11
66.65161119960631
 21
26.09927928159446
 31
0.0
  0
LINE
  5
472F
330
1E
100
AcDbEntity
  8
7
100
AcDbLine
 10
66.65161119960631
 20
26.09927928159446
 30
0.0
 11
66.67540920777558
 21
26.04375059586613
 31
0.0
  0
LINE
  5
4730
330
1E
100
AcDbEntity
  8
7
100
AcDbLine
 10
66.67540920777558
 20
26.04375059586613
 30
0.0
 11
66.73093789350392
 21
26.01995258769684
 31
0.0
  0
LINE
  5
4731
330
1E
100
AcDbEntity
  8
7
100
AcDbLine
 10
66.73093789350392
 20
26.01995258769684
 30
0.0
 11
71.3239534701772
 21
26.01995258769684
 31
0.0
  0
LINE
  5
4732
330
1E
100
AcDbEntity
  8
7
100
AcDbLine
 10
71.3239534701772
 20
26.01995258769684
 30
0.0
 11
71.3239534701772
 21
26.11514462037401
 31
0.0
  0
LINE
  5
473A
330
1E
100
AcDbEntity
  8
7
100
AcDbLine
 10
66.39776577913386
 20
26.00408724891732
 30
0.0
 11
66.42156378730314
 21
25.9406258937992
 31
0.0
  0
LINE
  5
473B
330
1E
100
AcDbEntity
  8
7
100
AcDbLine
 10
66.42156378730314
 20
25.9406258937992
 30
0.0
 11
66.48502514242125
 21
25.91682788562991
 31
0.0
  0
LINE
  5
473C
330
1E
100
AcDbEntity
  8
7
100
AcDbLine
 10
66.46122713425196
 20
26.00408724891732
 30
0.0
 11
66.46915980364171
 21
25.9882219101378
 31
0.0
  0
LINE
  5
473D
330
1E
100
AcDbEntity
  8
7
100
AcDbLine
 10
66.46915980364171
 20
25.9882219101378
 30
0.0
 11
66.48502514242125
 21
25.98028924074803
 31
0.0
  0
LINE
  5
473E
330
1E
100
AcDbEntity
  8
7
100
AcDbLine
 10
66.45329446486219
 20
27.2574490125
 30
0.0
 11
66.45329446486219
 21
27.21778566555119
 31
0.0
  0
LINE
  5
473F
330
1E
100
AcDbEntity
  8
7
100
AcDbLine
 10
66.45329446486219
 20
27.21778566555119
 30
0.0
 11
66.45329446486219
 21
27.10672829409446
 31
0.0
  0
LINE
  5
4740
330
1E
100
AcDbEntity
  8
7
100
AcDbLine
 10
66.45329446486219
 20
26.00408724891732
 30
0.0
 11
66.45329446486219
 21
27.10672829409446
 31
0.0
  0
LINE
  5
4741
330
1E
100
AcDbEntity
  8
7
100
AcDbLine
 10
66.45329446486219
 20
27.10672829409446
 30
0.0
 11
66.3898331097441
 21
27.10672829409446
 31
0.0
  0
LINE
  5
4742
330
1E
100
AcDbEntity
  8
7
100
AcDbLine
 10
67.58766618759844
 20
25.90889521624015
 30
0.0
 11
67.57180084881887
 21
25.90889521624015
 31
0.0
  0
LINE
  5
4743
330
1E
100
AcDbEntity
  8
7
100
AcDbLine
 10
67.57180084881887
 20
25.90889521624015
 30
0.0
 11
67.53213750187005
 21
25.90889521624015
 31
0.0
  0
LINE
  5
4744
330
1E
100
AcDbEntity
  8
7
100
AcDbLine
 10
67.53213750187005
 20
25.90889521624015
 30
0.0
 11
67.39728212224409
 21
25.90889521624015
 31
0.0
  0
LINE
  5
4745
330
1E
100
AcDbEntity
  8
7
100
AcDbLine
 10
67.39728212224409
 20
25.90889521624015
 30
0.0
 11
67.3576187752953
 21
25.90889521624015
 31
0.0
  0
LINE
  5
4746
330
1E
100
AcDbEntity
  8
7
100
AcDbLine
 10
67.3576187752953
 20
25.90889521624015
 30
0.0
 11
67.34175343651577
 21
25.90889521624015
 31
0.0
  0
LINE
  5
4747
330
1E
100
AcDbEntity
  8
7
100
AcDbLine
 10
67.53213750187005
 20
25.97235657135827
 30
0.0
 11
67.57180084881887
 21
25.97235657135827
 31
0.0
  0
LINE
  5
4748
330
1E
100
AcDbEntity
  8
7
100
AcDbLine
 10
67.57180084881887
 20
25.97235657135827
 30
0.0
 11
67.58766618759844
 21
25.97235657135827
 31
0.0
  0
LINE
  5
4749
330
1E
100
AcDbEntity
  8
7
100
AcDbLine
 10
67.34175343651577
 20
25.97235657135827
 30
0.0
 11
67.3576187752953
 21
25.97235657135827
 31
0.0
  0
LINE
  5
474A
330
1E
100
AcDbEntity
  8
7
100
AcDbLine
 10
67.3576187752953
 20
25.97235657135827
 30
0.0
 11
67.39728212224409
 21
25.97235657135827
 31
0.0
  0
LINE
  5
474B
330
1E
100
AcDbEntity
  8
7
100
AcDbLine
 10
67.34175343651577
 20
25.97235657135827
 30
0.0
 11
66.48502514242125
 21
25.97235657135827
 31
0.0
  0
LINE
  5
474C
330
1E
100
AcDbEntity
  8
7
100
AcDbLine
 10
66.48502514242125
 20
25.97235657135827
 30
0.0
 11
66.48502514242125
 21
25.90889521624015
 31
0.0
  0
LINE
  5
474D
330
1E
100
AcDbEntity
  8
7
100
AcDbLine
 10
65.99319964025588
 20
25.99615457952756
 30
0.0
 11
66.00113230964564
 21
25.98028924074803
 31
0.0
  0
LINE
  5
474E
330
1E
100
AcDbEntity
  8
7
100
AcDbLine
 10
66.00113230964564
 20
25.98028924074803
 30
0.0
 11
66.01699764842518
 21
25.97235657135827
 31
0.0
  0
LINE
  5
474F
330
1E
100
AcDbEntity
  8
7
100
AcDbLine
 10
66.27084306889762
 20
25.97235657135827
 30
0.0
 11
66.01699764842518
 21
25.97235657135827
 31
0.0
  0
LINE
  5
4750
330
1E
100
AcDbEntity
  8
7
100
AcDbLine
 10
66.01699764842518
 20
25.97235657135827
 30
0.0
 11
66.01699764842518
 21
25.90889521624015
 31
0.0
  0
LINE
  5
4751
330
1E
100
AcDbEntity
  8
7
100
AcDbLine
 10
66.27084306889762
 20
25.90889521624015
 30
0.0
 11
66.33430442401577
 21
25.93269322440943
 31
0.0
  0
LINE
  5
4752
330
1E
100
AcDbEntity
  8
7
100
AcDbLine
 10
66.33430442401577
 20
25.93269322440943
 30
0.0
 11
66.35810243218505
 21
25.99615457952756
 31
0.0
  0
LINE
  5
4753
330
1E
100
AcDbEntity
  8
7
100
AcDbLine
 10
66.35810243218505
 20
27.07499761653541
 30
0.0
 11
66.3898331097441
 21
27.07499761653541
 31
0.0
  0
LINE
  5
4754
330
1E
100
AcDbEntity
  8
7
100
AcDbLine
 10
66.3898331097441
 20
27.07499761653541
 30
0.0
 11
66.3898331097441
 21
27.08293028592517
 31
0.0
  0
LINE
  5
4755
330
1E
100
AcDbEntity
  8
7
100
AcDbLine
 10
66.3898331097441
 20
27.08293028592517
 30
0.0
 11
66.3898331097441
 21
27.09086295531494
 31
0.0
  0
LINE
  5
4756
330
1E
100
AcDbEntity
  8
7
100
AcDbLine
 10
66.3898331097441
 20
27.09086295531494
 30
0.0
 11
66.3898331097441
 21
27.0987956247047
 31
0.0
  0
LINE
  5
4757
330
1E
100
AcDbEntity
  8
7
100
AcDbLine
 10
66.3898331097441
 20
27.0987956247047
 30
0.0
 11
66.3898331097441
 21
27.10672829409446
 31
0.0
  0
LINE
  5
4758
330
1E
100
AcDbEntity
  8
7
100
AcDbLine
 10
66.35810243218505
 20
26.20240398366139
 30
0.0
 11
66.3898331097441
 21
26.20240398366139
 31
0.0
  0
LINE
  5
4759
330
1E
100
AcDbEntity
  8
7
100
AcDbLine
 10
66.3898331097441
 20
26.20240398366139
 30
0.0
 11
66.3898331097441
 21
27.07499761653541
 31
0.0
  0
LINE
  5
475A
330
1E
100
AcDbEntity
  8
7
100
AcDbLine
 10
66.3898331097441
 20
27.07499761653541
 30
0.0
 11
66.35810243218505
 21
27.07499761653541
 31
0.0
  0
LINE
  5
475B
330
1E
100
AcDbEntity
  8
7
100
AcDbLine
 10
66.46915980364171
 20
26.13100995915354
 30
0.0
 11
66.47709247303149
 21
26.10721195098422
 31
0.0
  0
LINE
  5
475C
330
1E
100
AcDbEntity
  8
7
100
AcDbLine
 10
66.47709247303149
 20
26.10721195098422
 30
0.0
 11
66.48502514242125
 21
26.11514462037401
 31
0.0
  0
LINE
  5
475D
330
1E
100
AcDbEntity
  8
7
100
AcDbLine
 10
66.48502514242125
 20
26.11514462037401
 30
0.0
 11
66.49295781181101
 21
26.09927928159446
 31
0.0
  0
LINE
  5
475E
330
1E
100
AcDbEntity
  8
7
100
AcDbLine
 10
66.49295781181101
 20
26.09927928159446
 30
0.0
 11
66.50882315059053
 21
26.09927928159446
 31
0.0
  0
LINE
  5
475F
330
1E
100
AcDbEntity
  8
7
100
AcDbLine
 10
66.50882315059053
 20
26.09927928159446
 30
0.0
 11
66.51675581998029
 21
26.08341394281494
 31
0.0
  0
LINE
  5
4760
330
1E
100
AcDbEntity
  8
7
100
AcDbLine
 10
66.51675581998029
 20
26.08341394281494
 30
0.0
 11
66.60401518326773
 21
26.12307728976378
 31
0.0
  0
LINE
  5
4761
330
1E
100
AcDbEntity
  8
7
100
AcDbLine
 10
66.3898331097441
 20
27.10672829409446
 30
0.0
 11
66.3898331097441
 21
27.0987956247047
 31
0.0
  0
LINE
  5
4762
330
1E
100
AcDbEntity
  8
7
100
AcDbLine
 10
66.3898331097441
 20
27.0987956247047
 30
0.0
 11
66.3898331097441
 21
27.09086295531494
 31
0.0
  0
LINE
  5
4763
330
1E
100
AcDbEntity
  8
7
100
AcDbLine
 10
66.3898331097441
 20
27.09086295531494
 30
0.0
 11
66.3898331097441
 21
27.08293028592517
 31
0.0
  0
LINE
  5
4764
330
1E
100
AcDbEntity
  8
7
100
AcDbLine
 10
66.3898331097441
 20
27.08293028592517
 30
0.0
 11
66.3898331097441
 21
27.07499761653541
 31
0.0
  0
LINE
  5
4765
330
1E
100
AcDbEntity
  8
7
100
AcDbLine
 10
66.3898331097441
 20
27.07499761653541
 30
0.0
 11
66.3898331097441
 21
26.20240398366139
 31
0.0
  0
LINE
  5
4766
330
1E
100
AcDbEntity
  8
7
100
AcDbLine
 10
66.3898331097441
 20
26.20240398366139
 30
0.0
 11
66.3898331097441
 21
26.18653864488187
 31
0.0
  0
LINE
  5
4767
330
1E
100
AcDbEntity
  8
7
100
AcDbLine
 10
66.3898331097441
 20
26.18653864488187
 30
0.0
 11
66.3898331097441
 21
26.17860597549211
 31
0.0
  0
LINE
  5
4768
330
1E
100
AcDbEntity
  8
7
100
AcDbLine
 10
66.35810243218505
 20
26.17067330610235
 30
0.0
 11
66.3898331097441
 21
26.17067330610235
 31
0.0
  0
LINE
  5
4769
330
1E
100
AcDbEntity
  8
7
100
AcDbLine
 10
66.3898331097441
 20
26.17067330610235
 30
0.0
 11
66.3898331097441
 21
26.17860597549211
 31
0.0
  0
LINE
  5
476A
330
1E
100
AcDbEntity
  8
7
100
AcDbLine
 10
66.3898331097441
 20
26.17860597549211
 30
0.0
 11
66.3898331097441
 21
26.18653864488187
 31
0.0
  0
LINE
  5
476B
330
1E
100
AcDbEntity
  8
7
100
AcDbLine
 10
66.3898331097441
 20
26.18653864488187
 30
0.0
 11
66.3898331097441
 21
26.20240398366139
 31
0.0
  0
LINE
  5
476C
330
1E
100
AcDbEntity
  8
7
100
AcDbLine
 10
66.3898331097441
 20
26.20240398366139
 30
0.0
 11
66.35810243218505
 21
26.20240398366139
 31
0.0
  0
LINE
  5
476D
330
1E
100
AcDbEntity
  8
7
100
AcDbLine
 10
66.62781319143701
 20
27.1463916410433
 30
0.0
 11
66.51675581998029
 21
27.18605498799211
 31
0.0
  0
LINE
  5
476E
330
1E
100
AcDbEntity
  8
7
100
AcDbLine
 10
66.51675581998029
 20
27.18605498799211
 30
0.0
 11
66.50882315059053
 21
27.17018964921258
 31
0.0
  0
LINE
  5
476F
330
1E
100
AcDbEntity
  8
7
100
AcDbLine
 10
66.50882315059053
 20
27.17018964921258
 30
0.0
 11
66.49295781181101
 21
27.17812231860235
 31
0.0
  0
LINE
  5
4770
330
1E
100
AcDbEntity
  8
7
100
AcDbLine
 10
66.49295781181101
 20
27.17812231860235
 30
0.0
 11
66.48502514242125
 21
27.15432431043306
 31
0.0
  0
LINE
  5
4771
330
1E
100
AcDbEntity
  8
7
100
AcDbLine
 10
66.48502514242125
 20
27.15432431043306
 30
0.0
 11
66.47709247303149
 21
27.16225697982283
 31
0.0
  0
LINE
  5
4772
330
1E
100
AcDbEntity
  8
7
100
AcDbLine
 10
66.47709247303149
 20
27.16225697982283
 30
0.0
 11
66.46915980364171
 21
27.1463916410433
 31
0.0
  0
LINE
  5
4773
330
1E
100
AcDbEntity
  8
7
100
AcDbLine
 10
66.46915980364171
 20
27.1463916410433
 30
0.0
 11
66.45329446486219
 21
27.15432431043306
 31
0.0
  0
LINE
  5
4774
330
1E
100
AcDbEntity
  8
7
100
AcDbLine
 10
66.65161119960631
 20
26.09927928159446
 30
0.0
 11
66.61988052204725
 21
26.09927928159446
 31
0.0
  0
LINE
  5
4775
330
1E
100
AcDbEntity
  8
7
100
AcDbLine
 10
66.61988052204725
 20
26.09927928159446
 30
0.0
 11
66.60401518326773
 21
26.09927928159446
 31
0.0
  0
LINE
  5
4776
330
1E
100
AcDbEntity
  8
7
100
AcDbLine
 10
66.73093789350392
 20
25.97235657135827
 30
0.0
 11
66.63574586082678
 21
26.01201991830708
 31
0.0
  0
LINE
  5
4777
330
1E
100
AcDbEntity
  8
7
100
AcDbLine
 10
66.63574586082678
 20
26.01201991830708
 30
0.0
 11
66.60401518326773
 21
26.09927928159446
 31
0.0
  0
LINE
  5
4778
330
1E
100
AcDbEntity
  8
7
100
AcDbLine
 10
67.27035941200785
 20
26.47211474291339
 30
0.0
 11
67.14343670177166
 21
26.50384542047244
 31
0.0
  0
LINE
  5
4779
330
1E
100
AcDbEntity
  8
7
100
AcDbLine
 10
67.14343670177166
 20
26.50384542047244
 30
0.0
 11
67.05617733848422
 21
26.59110478375982
 31
0.0
  0
LINE
  5
477A
330
1E
100
AcDbEntity
  8
7
100
AcDbLine
 10
67.05617733848422
 20
26.59110478375982
 30
0.0
 11
67.01651399153542
 21
26.71009482460631
 31
0.0
  0
LINE
  5
477B
330
1E
100
AcDbEntity
  8
7
100
AcDbLine
 10
67.02444666092517
 20
26.71802749399607
 30
0.0
 11
67.06411000787397
 21
26.59903745314958
 31
0.0
  0
LINE
  5
477C
330
1E
100
AcDbEntity
  8
7
100
AcDbLine
 10
67.06411000787397
 20
26.59903745314958
 30
0.0
 11
67.15136937116142
 21
26.5117780898622
 31
0.0
  0
LINE
  5
477D
330
1E
100
AcDbEntity
  8
7
100
AcDbLine
 10
67.15136937116142
 20
26.5117780898622
 30
0.0
 11
67.27035941200785
 21
26.48004741230315
 31
0.0
  0
LINE
  5
477E
330
1E
100
AcDbEntity
  8
7
100
AcDbLine
 10
66.79439924862208
 20
26.11514462037401
 30
0.0
 11
66.91338928946851
 21
26.41658605718502
 31
0.0
  0
LINE
  5
477F
330
1E
100
AcDbEntity
  8
7
100
AcDbLine
 10
66.91338928946851
 20
26.41658605718502
 30
0.0
 11
66.98478331397637
 21
26.59903745314958
 31
0.0
  0
LINE
  5
4780
330
1E
100
AcDbEntity
  8
7
100
AcDbLine
 10
66.98478331397637
 20
26.59903745314958
 30
0.0
 11
67.00858132214566
 21
26.67836414704723
 31
0.0
  0
LINE
  5
4781
330
1E
100
AcDbEntity
  8
7
100
AcDbLine
 10
67.00858132214566
 20
26.67836414704723
 30
0.0
 11
67.01651399153542
 21
26.71009482460631
 31
0.0
  0
LINE
  5
4782
330
1E
100
AcDbEntity
  8
7
100
AcDbLine
 10
67.27035941200785
 20
26.47211474291339
 30
0.0
 11
67.26242674261809
 21
26.45624940413386
 31
0.0
  0
LINE
  5
4783
330
1E
100
AcDbEntity
  8
7
100
AcDbLine
 10
67.26242674261809
 20
26.45624940413386
 30
0.0
 11
67.22276339566929
 21
26.42451872657479
 31
0.0
  0
LINE
  5
4784
330
1E
100
AcDbEntity
  8
7
100
AcDbLine
 10
67.22276339566929
 20
26.42451872657479
 30
0.0
 11
67.1355040323819
 21
26.36105737145669
 31
0.0
  0
LINE
  5
4785
330
1E
100
AcDbEntity
  8
7
100
AcDbLine
 10
67.1355040323819
 20
26.36105737145669
 30
0.0
 11
66.94511996702755
 21
26.22620199183071
 31
0.0
  0
LINE
  5
4786
330
1E
100
AcDbEntity
  8
7
100
AcDbLine
 10
66.94511996702755
 20
26.22620199183071
 30
0.0
 11
66.79439924862208
 21
26.11514462037401
 31
0.0
  0
LINE
  5
479E
330
1E
100
AcDbEntity
  8
7
100
AcDbLine
 10
72.68043993582677
 20
25.90889521624015
 30
0.0
 11
72.68043993582677
 21
25.93269322440943
 31
0.0
  0
LINE
  5
479F
330
1E
100
AcDbEntity
  8
7
100
AcDbLine
 10
72.68043993582677
 20
25.93269322440943
 30
0.0
 11
72.68043993582677
 21
25.9882219101378
 31
0.0
  0
LINE
  5
47A0
330
1E
100
AcDbEntity
  8
7
100
AcDbLine
 10
72.61697858070869
 20
25.97235657135827
 30
0.0
 11
72.65664192765749
 21
25.97235657135827
 31
0.0
  0
LINE
  5
47A1
330
1E
100
AcDbEntity
  8
7
100
AcDbLine
 10
72.65664192765749
 20
25.97235657135827
 30
0.0
 11
72.68043993582677
 21
25.97235657135827
 31
0.0
  0
LINE
  5
47A2
330
1E
100
AcDbEntity
  8
7
100
AcDbLine
 10
72.46625786230314
 20
25.97235657135827
 30
0.0
 11
72.48212320108267
 21
25.97235657135827
 31
0.0
  0
LINE
  5
47A3
330
1E
100
AcDbEntity
  8
7
100
AcDbLine
 10
72.48212320108267
 20
25.97235657135827
 30
0.0
 11
72.52178654803149
 21
25.97235657135827
 31
0.0
  0
LINE
  5
47A4
330
1E
100
AcDbEntity
  8
7
100
AcDbLine
 10
72.32346981328737
 20
26.01995258769684
 30
0.0
 11
72.32346981328737
 21
25.9882219101378
 31
0.0
  0
LINE
  5
47A5
330
1E
100
AcDbEntity
  8
7
100
AcDbLine
 10
72.32346981328737
 20
25.9882219101378
 30
0.0
 11
72.32346981328737
 21
25.97235657135827
 31
0.0
  0
LINE
  5
47A6
330
1E
100
AcDbEntity
  8
7
100
AcDbLine
 10
71.82371164173225
 20
26.01995258769684
 30
0.0
 11
71.82371164173225
 21
25.9882219101378
 31
0.0
  0
LINE
  5
47A7
330
1E
100
AcDbEntity
  8
7
100
AcDbLine
 10
71.82371164173225
 20
25.9882219101378
 30
0.0
 11
71.82371164173225
 21
25.97235657135827
 31
0.0
  0
LINE
  5
47A8
330
1E
100
AcDbEntity
  8
7
100
AcDbLine
 10
71.70472160088582
 20
26.01995258769684
 30
0.0
 11
71.71265427027558
 21
25.9882219101378
 31
0.0
  0
LINE
  5
47A9
330
1E
100
AcDbEntity
  8
7
100
AcDbLine
 10
71.71265427027558
 20
25.9882219101378
 30
0.0
 11
71.7523176172244
 21
25.97235657135827
 31
0.0
  0
LINE
  5
47AA
330
1E
100
AcDbEntity
  8
7
100
AcDbLine
 10
71.3239534701772
 20
26.01995258769684
 30
0.0
 11
71.3239534701772
 21
25.9882219101378
 31
0.0
  0
LINE
  5
47AB
330
1E
100
AcDbEntity
  8
7
100
AcDbLine
 10
71.3239534701772
 20
25.9882219101378
 30
0.0
 11
71.3239534701772
 21
25.97235657135827
 31
0.0
  0
LINE
  5
47AC
330
1E
100
AcDbEntity
  8
7
100
AcDbLine
 10
72.32346981328737
 20
26.97980558385827
 30
0.0
 11
72.32346981328737
 21
26.97187291446851
 31
0.0
  0
LINE
  5
47AD
330
1E
100
AcDbEntity
  8
7
100
AcDbLine
 10
72.32346981328737
 20
26.97187291446851
 30
0.0
 11
72.32346981328737
 21
26.96394024507875
 31
0.0
  0
LINE
  5
47AE
330
1E
100
AcDbEntity
  8
7
100
AcDbLine
 10
72.32346981328737
 20
26.96394024507875
 30
0.0
 11
72.32346981328737
 21
26.94807490629919
 31
0.0
  0
LINE
  5
47AF
330
1E
100
AcDbEntity
  8
7
100
AcDbLine
 10
72.32346981328737
 20
26.94807490629919
 30
0.0
 11
72.32346981328737
 21
26.93220956751967
 31
0.0
  0
LINE
  5
47B0
330
1E
100
AcDbEntity
  8
7
100
AcDbLine
 10
72.31553714389761
 20
26.97980558385827
 30
0.0
 11
72.30760447450785
 21
26.94014223690943
 31
0.0
  0
LINE
  5
47B1
330
1E
100
AcDbEntity
  8
7
100
AcDbLine
 10
72.30760447450785
 20
26.94014223690943
 30
0.0
 11
72.28380646633858
 21
26.86081554301178
 31
0.0
  0
LINE
  5
47B2
330
1E
100
AcDbEntity
  8
7
100
AcDbLine
 10
72.09342240098422
 20
26.97980558385827
 30
0.0
 11
72.09342240098422
 21
26.94014223690943
 31
0.0
  0
LINE
  5
47B3
330
1E
100
AcDbEntity
  8
7
100
AcDbLine
 10
72.09342240098422
 20
26.94014223690943
 30
0.0
 11
72.09342240098422
 21
26.86081554301178
 31
0.0
  0
LINE
  5
47B4
330
1E
100
AcDbEntity
  8
7
100
AcDbLine
 10
71.72058693966535
 20
26.61490279192913
 30
0.0
 11
71.7523176172244
 21
26.61490279192913
 31
0.0
  0
LINE
  5
47B5
330
1E
100
AcDbEntity
  8
7
100
AcDbLine
 10
71.7523176172244
 20
26.61490279192913
 30
0.0
 11
71.84750964990161
 21
26.61490279192913
 31
0.0
  0
LINE
  5
47B6
330
1E
100
AcDbEntity
  8
7
100
AcDbLine
 10
71.71265427027558
 20
26.40865338779526
 30
0.0
 11
71.74438494783465
 21
26.40865338779526
 31
0.0
  0
LINE
  5
47B7
330
1E
100
AcDbEntity
  8
7
100
AcDbLine
 10
71.74438494783465
 20
26.40865338779526
 30
0.0
 11
71.83957698051184
 21
26.40865338779526
 31
0.0
  0
LINE
  5
47B8
330
1E
100
AcDbEntity
  8
7
100
AcDbLine
 10
71.69678893149606
 20
26.12307728976378
 30
0.0
 11
71.73645227844487
 21
26.12307728976378
 31
0.0
  0
LINE
  5
47B9
330
1E
100
AcDbEntity
  8
7
100
AcDbLine
 10
71.73645227844487
 20
26.12307728976378
 30
0.0
 11
71.82371164173225
 21
26.12307728976378
 31
0.0
  0
LINE
  5
47BA
330
1E
100
AcDbEntity
  8
7
100
AcDbLine
 10
71.69678893149606
 20
26.11514462037401
 30
0.0
 11
71.71265427027558
 21
26.11514462037401
 31
0.0
  0
LINE
  5
47BB
330
1E
100
AcDbEntity
  8
7
100
AcDbLine
 10
71.71265427027558
 20
26.11514462037401
 30
0.0
 11
71.74438494783465
 21
26.11514462037401
 31
0.0
  0
LINE
  5
47BC
330
1E
100
AcDbEntity
  8
7
100
AcDbLine
 10
71.74438494783465
 20
26.11514462037401
 30
0.0
 11
71.78404829478345
 21
26.11514462037401
 31
0.0
  0
LINE
  5
47BD
330
1E
100
AcDbEntity
  8
7
100
AcDbLine
 10
71.78404829478345
 20
26.11514462037401
 30
0.0
 11
71.82371164173225
 21
26.11514462037401
 31
0.0
  0
LINE
  5
47BE
330
1E
100
AcDbEntity
  8
7
100
AcDbLine
 10
71.70472160088582
 20
26.01995258769684
 30
0.0
 11
71.71265427027558
 21
26.01995258769684
 31
0.0
  0
LINE
  5
47BF
330
1E
100
AcDbEntity
  8
7
100
AcDbLine
 10
71.71265427027558
 20
26.01995258769684
 30
0.0
 11
71.73645227844487
 21
26.01995258769684
 31
0.0
  0
LINE
  5
47C0
330
1E
100
AcDbEntity
  8
7
100
AcDbLine
 10
71.73645227844487
 20
26.01995258769684
 30
0.0
 11
71.77611562539368
 21
26.01995258769684
 31
0.0
  0
LINE
  5
47C1
330
1E
100
AcDbEntity
  8
7
100
AcDbLine
 10
71.77611562539368
 20
26.01995258769684
 30
0.0
 11
71.81577897234248
 21
26.01995258769684
 31
0.0
  0
LINE
  5
47C2
330
1E
100
AcDbEntity
  8
7
100
AcDbLine
 10
71.81577897234248
 20
26.01995258769684
 30
0.0
 11
71.82371164173225
 21
26.01995258769684
 31
0.0
  0
LINE
  5
47C3
330
1E
100
AcDbEntity
  8
7
100
AcDbLine
 10
71.3239534701772
 20
26.01995258769684
 30
0.0
 11
71.49847219675194
 21
26.01995258769684
 31
0.0
  0
LINE
  5
47C4
330
1E
100
AcDbEntity
  8
7
100
AcDbLine
 10
71.49847219675194
 20
26.01995258769684
 30
0.0
 11
71.63332757637798
 21
26.01995258769684
 31
0.0
  0
LINE
  5
47C5
330
1E
100
AcDbEntity
  8
7
100
AcDbLine
 10
71.63332757637798
 20
26.01995258769684
 30
0.0
 11
71.70472160088582
 21
26.01995258769684
 31
0.0
  0
LINE
  5
47C6
330
1E
100
AcDbEntity
  8
7
100
AcDbLine
 10
71.70472160088582
 20
26.01995258769684
 30
0.0
 11
71.69678893149606
 21
26.11514462037401
 31
0.0
  0
LINE
  5
47C7
330
1E
100
AcDbEntity
  8
7
100
AcDbLine
 10
71.69678893149606
 20
26.11514462037401
 30
0.0
 11
71.6888562621063
 21
26.11514462037401
 31
0.0
  0
LINE
  5
47C8
330
1E
100
AcDbEntity
  8
7
100
AcDbLine
 10
71.6888562621063
 20
26.11514462037401
 30
0.0
 11
71.64126024576773
 21
26.11514462037401
 31
0.0
  0
LINE
  5
47C9
330
1E
100
AcDbEntity
  8
7
100
AcDbLine
 10
71.64126024576773
 20
26.11514462037401
 30
0.0
 11
71.56193355187006
 21
26.10721195098422
 31
0.0
  0
LINE
  5
47CA
330
1E
100
AcDbEntity
  8
7
100
AcDbLine
 10
71.56193355187006
 20
26.10721195098422
 30
0.0
 11
71.45087618041339
 21
26.11514462037401
 31
0.0
  0
LINE
  5
47CB
330
1E
100
AcDbEntity
  8
7
100
AcDbLine
 10
71.45087618041339
 20
26.11514462037401
 30
0.0
 11
71.3239534701772
 21
26.11514462037401
 31
0.0
  0
LINE
  5
47CC
330
1E
100
AcDbEntity
  8
7
100
AcDbLine
 10
71.69678893149606
 20
26.12307728976378
 30
0.0
 11
71.70472160088582
 21
26.25
 31
0.0
  0
LINE
  5
47CD
330
1E
100
AcDbEntity
  8
7
100
AcDbLine
 10
71.70472160088582
 20
26.25
 30
0.0
 11
71.71265427027558
 21
26.36899004084646
 31
0.0
  0
LINE
  5
47CE
330
1E
100
AcDbEntity
  8
7
100
AcDbLine
 10
71.71265427027558
 20
26.36899004084646
 30
0.0
 11
71.71265427027558
 21
26.40865338779526
 31
0.0
  0
LINE
  5
47CF
330
1E
100
AcDbEntity
  8
7
100
AcDbLine
 10
71.63332757637798
 20
26.11514462037401
 30
0.0
 11
71.49847219675194
 21
26.11514462037401
 31
0.0
  0
LINE
  5
47D0
330
1E
100
AcDbEntity
  8
7
100
AcDbLine
 10
71.49847219675194
 20
26.11514462037401
 30
0.0
 11
71.3239534701772
 21
26.11514462037401
 31
0.0
  0
LINE
  5
47D1
330
1E
100
AcDbEntity
  8
7
100
AcDbLine
 10
71.72058693966535
 20
26.61490279192913
 30
0.0
 11
71.66505825393702
 21
26.48798008169292
 31
0.0
  0
LINE
  5
47D2
330
1E
100
AcDbEntity
  8
7
100
AcDbLine
 10
71.66505825393702
 20
26.48798008169292
 30
0.0
 11
71.53020287431101
 21
26.39278804901574
 31
0.0
  0
LINE
  5
47D3
330
1E
100
AcDbEntity
  8
7
100
AcDbLine
 10
71.53020287431101
 20
26.39278804901574
 30
0.0
 11
71.33981880895672
 21
26.36105737145669
 31
0.0
  0
LINE
  5
47D4
330
1E
100
AcDbEntity
  8
7
100
AcDbLine
 10
71.37948215590552
 20
26.48004741230315
 30
0.0
 11
71.49053952736219
 21
26.49591275108267
 31
0.0
  0
LINE
  5
47D5
330
1E
100
AcDbEntity
  8
7
100
AcDbLine
 10
71.49053952736219
 20
26.49591275108267
 30
0.0
 11
71.59366422942909
 21
26.55144143681101
 31
0.0
  0
LINE
  5
47D6
330
1E
100
AcDbEntity
  8
7
100
AcDbLine
 10
71.83164431112207
 20
26.87668088179134
 30
0.0
 11
71.9506343519685
 21
26.94807490629919
 31
0.0
  0
LINE
  5
47D7
330
1E
100
AcDbEntity
  8
7
100
AcDbLine
 10
71.9506343519685
 20
26.94807490629919
 30
0.0
 11
72.09342240098422
 21
26.97980558385827
 31
0.0
  0
LINE
  5
47D8
330
1E
100
AcDbEntity
  8
7
100
AcDbLine
 10
71.72058693966535
 20
26.61490279192913
 30
0.0
 11
71.7523176172244
 21
26.75769084094488
 31
0.0
  0
LINE
  5
47D9
330
1E
100
AcDbEntity
  8
7
100
AcDbLine
 10
71.7523176172244
 20
26.75769084094488
 30
0.0
 11
71.83164431112207
 21
26.87668088179134
 31
0.0
  0
LINE
  5
47DA
330
1E
100
AcDbEntity
  8
7
100
AcDbLine
 10
72.41072917657482
 20
26.90047888996062
 30
0.0
 11
72.42659451535434
 21
26.89254622057086
 31
0.0
  0
LINE
  5
47DB
330
1E
100
AcDbEntity
  8
7
100
AcDbLine
 10
72.42659451535434
 20
26.89254622057086
 30
0.0
 11
72.44245985413385
 21
26.89254622057086
 31
0.0
  0
LINE
  5
47DC
330
1E
100
AcDbEntity
  8
7
100
AcDbLine
 10
72.34726782145671
 20
26.97187291446851
 30
0.0
 11
72.33140248267719
 21
26.97187291446851
 31
0.0
  0
LINE
  5
47DD
330
1E
100
AcDbEntity
  8
7
100
AcDbLine
 10
72.33140248267719
 20
26.97187291446851
 30
0.0
 11
72.32346981328737
 21
26.97980558385827
 31
0.0
  0
LINE
  5
47DE
330
1E
100
AcDbEntity
  8
7
100
AcDbLine
 10
71.33981880895672
 20
26.36105737145669
 30
0.0
 11
71.34775147834648
 21
26.4007207184055
 31
0.0
  0
LINE
  5
47DF
330
1E
100
AcDbEntity
  8
7
100
AcDbLine
 10
71.34775147834648
 20
26.4007207184055
 30
0.0
 11
71.35568414773624
 21
26.43245139596455
 31
0.0
  0
LINE
  5
47E0
330
1E
100
AcDbEntity
  8
7
100
AcDbLine
 10
71.35568414773624
 20
26.43245139596455
 30
0.0
 11
71.37154948651576
 21
26.45624940413386
 31
0.0
  0
LINE
  5
47E1
330
1E
100
AcDbEntity
  8
7
100
AcDbLine
 10
71.37154948651576
 20
26.45624940413386
 30
0.0
 11
71.37948215590552
 21
26.47211474291339
 31
0.0
  0
LINE
  5
47E2
330
1E
100
AcDbEntity
  8
7
100
AcDbLine
 10
71.3239534701772
 20
26.11514462037401
 30
0.0
 11
71.33188613956696
 21
26.25
 31
0.0
  0
LINE
  5
47E3
330
1E
100
AcDbEntity
  8
7
100
AcDbLine
 10
71.33188613956696
 20
26.25
 30
0.0
 11
71.33981880895672
 21
26.36105737145669
 31
0.0
  0
LINE
  5
47E4
330
1E
100
AcDbEntity
  8
7
100
AcDbLine
 10
71.82371164173225
 20
26.11514462037401
 30
0.0
 11
71.82371164173225
 21
26.01995258769684
 31
0.0
  0
LINE
  5
47E5
330
1E
100
AcDbEntity
  8
7
100
AcDbLine
 10
71.82371164173225
 20
26.01995258769684
 30
0.0
 11
72.32346981328737
 21
26.01995258769684
 31
0.0
  0
LINE
  5
47E6
330
1E
100
AcDbEntity
  8
7
100
AcDbLine
 10
72.32346981328737
 20
25.97235657135827
 30
0.0
 11
71.82371164173225
 21
25.97235657135827
 31
0.0
  0
LINE
  5
47E7
330
1E
100
AcDbEntity
  8
7
100
AcDbLine
 10
71.82371164173225
 20
25.97235657135827
 30
0.0
 11
71.79991363356297
 21
25.97235657135827
 31
0.0
  0
LINE
  5
47E8
330
1E
100
AcDbEntity
  8
7
100
AcDbLine
 10
71.79991363356297
 20
25.97235657135827
 30
0.0
 11
71.77611562539368
 21
25.97235657135827
 31
0.0
  0
LINE
  5
47E9
330
1E
100
AcDbEntity
  8
7
100
AcDbLine
 10
71.77611562539368
 20
25.97235657135827
 30
0.0
 11
71.76025028661417
 21
25.97235657135827
 31
0.0
  0
LINE
  5
47EA
330
1E
100
AcDbEntity
  8
7
100
AcDbLine
 10
71.76025028661417
 20
25.97235657135827
 30
0.0
 11
71.7523176172244
 21
25.97235657135827
 31
0.0
  0
LINE
  5
47EB
330
1E
100
AcDbEntity
  8
7
100
AcDbLine
 10
71.7523176172244
 20
25.97235657135827
 30
0.0
 11
71.69678893149606
 21
25.97235657135827
 31
0.0
  0
LINE
  5
47EC
330
1E
100
AcDbEntity
  8
7
100
AcDbLine
 10
71.69678893149606
 20
25.97235657135827
 30
0.0
 11
71.58573156003933
 21
25.97235657135827
 31
0.0
  0
LINE
  5
47ED
330
1E
100
AcDbEntity
  8
7
100
AcDbLine
 10
71.58573156003933
 20
25.97235657135827
 30
0.0
 11
71.43501084163387
 21
25.97235657135827
 31
0.0
  0
LINE
  5
47EE
330
1E
100
AcDbEntity
  8
7
100
AcDbLine
 10
71.84750964990161
 20
26.61490279192913
 30
0.0
 11
71.83957698051184
 21
26.40865338779526
 31
0.0
  0
LINE
  5
47EF
330
1E
100
AcDbEntity
  8
7
100
AcDbLine
 10
71.83957698051184
 20
26.40865338779526
 30
0.0
 11
71.83164431112207
 21
26.26586533877952
 31
0.0
  0
LINE
  5
47F0
330
1E
100
AcDbEntity
  8
7
100
AcDbLine
 10
71.83164431112207
 20
26.26586533877952
 30
0.0
 11
71.82371164173225
 21
26.12307728976378
 31
0.0
  0
LINE
  5
47F1
330
1E
100
AcDbEntity
  8
7
100
AcDbLine
 10
71.82371164173225
 20
26.12307728976378
 30
0.0
 11
71.82371164173225
 21
26.11514462037401
 31
0.0
  0
LINE
  5
47F2
330
1E
100
AcDbEntity
  8
7
100
AcDbLine
 10
71.82371164173225
 20
26.11514462037401
 30
0.0
 11
72.32346981328737
 21
26.11514462037401
 31
0.0
  0
LINE
  5
47F3
330
1E
100
AcDbEntity
  8
7
100
AcDbLine
 10
72.32346981328737
 20
26.81321952667321
 30
0.0
 11
72.28380646633858
 21
26.86081554301178
 31
0.0
  0
LINE
  5
47F4
330
1E
100
AcDbEntity
  8
7
100
AcDbLine
 10
72.28380646633858
 20
26.86081554301178
 30
0.0
 11
72.09342240098422
 21
26.86081554301178
 31
0.0
  0
LINE
  5
47F5
330
1E
100
AcDbEntity
  8
7
100
AcDbLine
 10
72.09342240098422
 20
26.86081554301178
 30
0.0
 11
71.97443236013779
 21
26.82908486545274
 31
0.0
  0
LINE
  5
47F6
330
1E
100
AcDbEntity
  8
7
100
AcDbLine
 10
71.97443236013779
 20
26.82908486545274
 30
0.0
 11
71.87924032746065
 21
26.73389283277559
 31
0.0
  0
LINE
  5
47F7
330
1E
100
AcDbEntity
  8
7
100
AcDbLine
 10
71.87924032746065
 20
26.73389283277559
 30
0.0
 11
71.84750964990161
 21
26.61490279192913
 31
0.0
  0
LINE
  5
47F8
330
1E
100
AcDbEntity
  8
7
100
AcDbLine
 10
71.65712558454726
 20
26.59110478375982
 30
0.0
 11
71.64126024576773
 21
26.57523944498029
 31
0.0
  0
LINE
  5
47F9
330
1E
100
AcDbEntity
  8
7
100
AcDbLine
 10
71.64126024576773
 20
26.57523944498029
 30
0.0
 11
71.61746223759845
 21
26.55937410620077
 31
0.0
  0
LINE
  5
47FA
330
1E
100
AcDbEntity
  8
7
100
AcDbLine
 10
71.61746223759845
 20
26.55937410620077
 30
0.0
 11
71.60159689881886
 21
26.54350876742125
 31
0.0
  0
LINE
  5
47FB
330
1E
100
AcDbEntity
  8
7
100
AcDbLine
 10
71.73645227844487
 20
26.72596016338583
 30
0.0
 11
71.73645227844487
 21
26.71802749399607
 31
0.0
  0
LINE
  5
47FC
330
1E
100
AcDbEntity
  8
7
100
AcDbLine
 10
71.73645227844487
 20
26.71802749399607
 30
0.0
 11
71.73645227844487
 21
26.71009482460631
 31
0.0
  0
LINE
  5
47FD
330
1E
100
AcDbEntity
  8
7
100
AcDbLine
 10
71.73645227844487
 20
26.71009482460631
 30
0.0
 11
71.72851960905511
 21
26.71009482460631
 31
0.0
  0
LINE
  5
47FE
330
1E
100
AcDbEntity
  8
7
100
AcDbLine
 10
71.72851960905511
 20
26.71009482460631
 30
0.0
 11
71.72851960905511
 21
26.70216215521652
 31
0.0
  0
LINE
  5
47FF
330
1E
100
AcDbEntity
  8
7
100
AcDbLine
 10
71.72851960905511
 20
26.70216215521652
 30
0.0
 11
71.72058693966535
 21
26.68629681643699
 31
0.0
  0
LINE
  5
4800
330
1E
100
AcDbEntity
  8
7
100
AcDbLine
 10
71.72058693966535
 20
26.68629681643699
 30
0.0
 11
71.72058693966535
 21
26.67836414704723
 31
0.0
  0
LINE
  5
4801
330
1E
100
AcDbEntity
  8
7
100
AcDbLine
 10
71.72058693966535
 20
26.67836414704723
 30
0.0
 11
71.71265427027558
 21
26.66249880826771
 31
0.0
  0
LINE
  5
4802
330
1E
100
AcDbEntity
  8
7
100
AcDbLine
 10
71.71265427027558
 20
26.66249880826771
 30
0.0
 11
71.69678893149606
 21
26.64663346948818
 31
0.0
  0
LINE
  5
4803
330
1E
100
AcDbEntity
  8
7
100
AcDbLine
 10
71.69678893149606
 20
26.64663346948818
 30
0.0
 11
71.6888562621063
 21
26.63076813070865
 31
0.0
  0
LINE
  5
4804
330
1E
100
AcDbEntity
  8
7
100
AcDbLine
 10
71.6888562621063
 20
26.63076813070865
 30
0.0
 11
71.67299092332678
 21
26.60697012253934
 31
0.0
  0
LINE
  5
4805
330
1E
100
AcDbEntity
  8
7
100
AcDbLine
 10
71.67299092332678
 20
26.60697012253934
 30
0.0
 11
71.65712558454726
 21
26.59110478375982
 31
0.0
  0
LINE
  5
4806
330
1E
100
AcDbEntity
  8
7
100
AcDbLine
 10
66.67540920777558
 20
28.11417730659446
 30
0.0
 11
66.68334187716535
 21
28.12210997598422
 31
0.0
  0
LINE
  5
4807
330
1E
100
AcDbEntity
  8
7
100
AcDbLine
 10
66.68334187716535
 20
28.12210997598422
 30
0.0
 11
66.72300522411416
 21
28.12210997598422
 31
0.0
  0
LINE
  5
4808
330
1E
100
AcDbEntity
  8
7
100
AcDbLine
 10
66.74680323228344
 20
28.51081077608268
 30
0.0
 11
66.69920721594488
 21
28.51081077608268
 31
0.0
  0
LINE
  5
4809
330
1E
100
AcDbEntity
  8
7
100
AcDbLine
 10
66.69920721594488
 20
28.51081077608268
 30
0.0
 11
66.68334187716535
 21
28.51081077608268
 31
0.0
  0
LINE
  5
480A
330
1E
100
AcDbEntity
  8
7
100
AcDbLine
 10
66.74680323228344
 20
28.73292551899607
 30
0.0
 11
66.70713988533464
 21
28.7249928496063
 31
0.0
  0
LINE
  5
480B
330
1E
100
AcDbEntity
  8
7
100
AcDbLine
 10
66.70713988533464
 20
28.7249928496063
 30
0.0
 11
66.69127454655512
 21
28.68532950265747
 31
0.0
  0
LINE
  5
480C
330
1E
100
AcDbEntity
  8
7
100
AcDbLine
 10
66.95305263641731
 20
28.50287810669291
 30
0.0
 11
66.89752395068899
 21
28.51081077608268
 31
0.0
  0
LINE
  5
480D
330
1E
100
AcDbEntity
  8
7
100
AcDbLine
 10
66.89752395068899
 20
28.51081077608268
 30
0.0
 11
66.74680323228344
 21
28.51081077608268
 31
0.0
  0
LINE
  5
480E
330
1E
100
AcDbEntity
  8
7
100
AcDbLine
 10
66.74680323228344
 20
28.51081077608268
 30
0.0
 11
66.72300522411416
 21
28.12210997598422
 31
0.0
  0
LINE
  5
480F
330
1E
100
AcDbEntity
  8
7
100
AcDbLine
 10
66.7547359016732
 20
28.74085818838583
 30
0.0
 11
66.74680323228344
 21
28.66946416387794
 31
0.0
  0
LINE
  5
4810
330
1E
100
AcDbEntity
  8
7
100
AcDbLine
 10
66.74680323228344
 20
28.66946416387794
 30
0.0
 11
66.74680323228344
 21
28.51081077608268
 31
0.0
  0
LINE
  5
4811
330
1E
100
AcDbEntity
  8
7
100
AcDbLine
 10
66.95305263641731
 20
28.50287810669291
 30
0.0
 11
66.88959128129922
 21
28.65359882509842
 31
0.0
  0
LINE
  5
4812
330
1E
100
AcDbEntity
  8
7
100
AcDbLine
 10
66.88959128129922
 20
28.65359882509842
 30
0.0
 11
66.74680323228344
 21
28.74085818838583
 31
0.0
  0
LINE
  5
4824
330
1E
100
AcDbEntity
  8
7
100
AcDbLine
 10
51.03218517116142
 20
40.89370769350392
 30
0.0
 11
51.03218517116142
 21
40.83817900777559
 31
0.0
  0
LINE
  5
4825
330
1E
100
AcDbEntity
  8
7
100
AcDbLine
 10
51.03218517116142
 20
40.83817900777559
 30
0.0
 11
52.13482621633857
 21
40.83817900777559
 31
0.0
  0
LINE
  5
4828
330
1E
100
AcDbEntity
  8
7
100
AcDbLine
 10
50.96872381604332
 20
32.78651957716535
 30
0.0
 11
50.9528584772638
 21
32.82618292411416
 31
0.0
  0
LINE
  5
4829
330
1E
100
AcDbEntity
  8
7
100
AcDbLine
 10
50.9528584772638
 20
32.82618292411416
 30
0.0
 11
50.91319513031493
 21
32.84204826289369
 31
0.0
  0
LINE
  5
482A
330
1E
100
AcDbEntity
  8
7
100
AcDbLine
 10
50.97665648543308
 20
32.70719288326771
 30
0.0
 11
50.99252182421261
 21
32.66752953631889
 31
0.0
  0
LINE
  5
482B
330
1E
100
AcDbEntity
  8
7
100
AcDbLine
 10
50.99252182421261
 20
32.66752953631889
 30
0.0
 11
51.03218517116142
 21
32.65166419753934
 31
0.0
  0
LINE
  5
482F
330
1E
100
AcDbEntity
  8
7
100
AcDbLine
 10
50.99252182421261
 20
40.83817900777559
 30
0.0
 11
50.96872381604332
 21
40.83817900777559
 31
0.0
  0
LINE
  5
4830
330
1E
100
AcDbEntity
  8
7
100
AcDbLine
 10
50.96872381604332
 20
40.83817900777559
 30
0.0
 11
50.9528584772638
 21
40.83817900777559
 31
0.0
  0
LINE
  5
4831
330
1E
100
AcDbEntity
  8
7
100
AcDbLine
 10
50.9528584772638
 20
40.83817900777559
 30
0.0
 11
50.91319513031493
 21
40.83817900777559
 31
0.0
  0
LINE
  5
4834
330
1E
100
AcDbEntity
  8
7
100
AcDbLine
 10
52.76150709812993
 20
32.92137495679134
 30
0.0
 11
52.76150709812993
 21
32.88964427923226
 31
0.0
  0
LINE
  5
4835
330
1E
100
AcDbEntity
  8
7
100
AcDbLine
 10
52.76150709812993
 20
32.88964427923226
 30
0.0
 11
52.76150709812993
 21
32.79445224655511
 31
0.0
  0
LINE
  5
4836
330
1E
100
AcDbEntity
  8
7
100
AcDbLine
 10
52.76150709812993
 20
32.79445224655511
 30
0.0
 11
52.76150709812993
 21
32.70719288326771
 31
0.0
  0
LINE
  5
4837
330
1E
100
AcDbEntity
  8
7
100
AcDbLine
 10
52.76150709812993
 20
32.70719288326771
 30
0.0
 11
52.76150709812993
 21
32.66752953631889
 31
0.0
  0
LINE
  5
4838
330
1E
100
AcDbEntity
  8
7
100
AcDbLine
 10
52.13482621633857
 20
32.92137495679134
 30
0.0
 11
52.13482621633857
 21
32.88964427923226
 31
0.0
  0
LINE
  5
4839
330
1E
100
AcDbEntity
  8
7
100
AcDbLine
 10
52.13482621633857
 20
32.88964427923226
 30
0.0
 11
52.13482621633857
 21
32.79445224655511
 31
0.0
  0
LINE
  5
483A
330
1E
100
AcDbEntity
  8
7
100
AcDbLine
 10
52.13482621633857
 20
32.79445224655511
 30
0.0
 11
52.13482621633857
 21
32.70719288326771
 31
0.0
  0
LINE
  5
483B
330
1E
100
AcDbEntity
  8
7
100
AcDbLine
 10
52.13482621633857
 20
32.70719288326771
 30
0.0
 11
52.13482621633857
 21
32.66752953631889
 31
0.0
  0
LINE
  5
483C
330
1E
100
AcDbEntity
  8
7
100
AcDbLine
 10
53.26919793907482
 20
32.92137495679134
 30
0.0
 11
53.26919793907482
 21
32.8817116098425
 31
0.0
  0
LINE
  5
483D
330
1E
100
AcDbEntity
  8
7
100
AcDbLine
 10
53.26919793907482
 20
32.8817116098425
 30
0.0
 11
53.26919793907482
 21
32.79445224655511
 31
0.0
  0
LINE
  5
483E
330
1E
100
AcDbEntity
  8
7
100
AcDbLine
 10
53.26919793907482
 20
32.79445224655511
 30
0.0
 11
53.26919793907482
 21
32.70719288326771
 31
0.0
  0
LINE
  5
483F
330
1E
100
AcDbEntity
  8
7
100
AcDbLine
 10
53.26919793907482
 20
32.70719288326771
 30
0.0
 11
53.26919793907482
 21
32.66752953631889
 31
0.0
  0
LINE
  5
4840
330
1E
100
AcDbEntity
  8
7
100
AcDbLine
 10
53.70549475551183
 20
32.58027017303148
 30
0.0
 11
53.68962941673226
 21
32.6199335199803
 31
0.0
  0
LINE
  5
4841
330
1E
100
AcDbEntity
  8
7
100
AcDbLine
 10
53.68962941673226
 20
32.6199335199803
 30
0.0
 11
53.64996606978344
 21
32.63579885875982
 31
0.0
  0
LINE
  5
484D
330
1E
100
AcDbEntity
  8
7
100
AcDbLine
 10
52.76150709812993
 20
40.77471765265747
 30
0.0
 11
52.76150709812993
 21
40.67952561998029
 31
0.0
  0
LINE
  5
484E
330
1E
100
AcDbEntity
  8
7
100
AcDbLine
 10
52.76150709812993
 20
40.67952561998029
 30
0.0
 11
52.76150709812993
 21
40.63986227303149
 31
0.0
  0
LINE
  5
484F
330
1E
100
AcDbEntity
  8
7
100
AcDbLine
 10
52.13482621633857
 20
40.77471765265747
 30
0.0
 11
52.13482621633857
 21
40.67952561998029
 31
0.0
  0
LINE
  5
4850
330
1E
100
AcDbEntity
  8
7
100
AcDbLine
 10
52.13482621633857
 20
40.67952561998029
 30
0.0
 11
52.13482621633857
 21
40.63986227303149
 31
0.0
  0
LINE
  5
4851
330
1E
100
AcDbEntity
  8
7
100
AcDbLine
 10
53.26919793907482
 20
40.80644833021652
 30
0.0
 11
53.7134274249016
 21
40.80644833021652
 31
0.0
  0
LINE
  5
4852
330
1E
100
AcDbEntity
  8
7
100
AcDbLine
 10
53.7134274249016
 20
40.80644833021652
 30
0.0
 11
53.7134274249016
 21
40.55260290974408
 31
0.0
  0
LINE
  5
4853
330
1E
100
AcDbEntity
  8
7
100
AcDbLine
 10
53.7134274249016
 20
40.83817900777559
 30
0.0
 11
53.7134274249016
 21
40.83024633838583
 31
0.0
  0
LINE
  5
4854
330
1E
100
AcDbEntity
  8
7
100
AcDbLine
 10
53.7134274249016
 20
40.83024633838583
 30
0.0
 11
53.7134274249016
 21
40.80644833021652
 31
0.0
  0
LINE
  5
4855
330
1E
100
AcDbEntity
  8
7
100
AcDbLine
 10
53.26919793907482
 20
40.89370769350392
 30
0.0
 11
53.26919793907482
 21
40.86197701594488
 31
0.0
  0
LINE
  5
4856
330
1E
100
AcDbEntity
  8
7
100
AcDbLine
 10
53.26919793907482
 20
40.86197701594488
 30
0.0
 11
53.26919793907482
 21
40.77471765265747
 31
0.0
  0
LINE
  5
4857
330
1E
100
AcDbEntity
  8
7
100
AcDbLine
 10
53.26919793907482
 20
40.77471765265747
 30
0.0
 11
53.26919793907482
 21
40.67952561998029
 31
0.0
  0
LINE
  5
4858
330
1E
100
AcDbEntity
  8
7
100
AcDbLine
 10
53.26919793907482
 20
40.67952561998029
 30
0.0
 11
53.26919793907482
 21
40.64779494242125
 31
0.0
  0
LINE
  5
4859
330
1E
100
AcDbEntity
  8
7
100
AcDbLine
 10
53.7134274249016
 20
40.83817900777559
 30
0.0
 11
53.69756208612201
 21
40.83817900777559
 31
0.0
  0
LINE
  5
485A
330
1E
100
AcDbEntity
  8
7
100
AcDbLine
 10
53.69756208612201
 20
40.83817900777559
 30
0.0
 11
53.64996606978344
 21
40.83817900777559
 31
0.0
  0
LINE
  5
485B
330
1E
100
AcDbEntity
  8
7
100
AcDbLine
 10
53.26919793907482
 20
40.83817900777559
 30
0.0
 11
53.64996606978344
 21
40.83817900777559
 31
0.0
  0
LINE
  5
485C
330
1E
100
AcDbEntity
  8
7
100
AcDbLine
 10
53.64996606978344
 20
40.83817900777559
 30
0.0
 11
53.64996606978344
 21
40.89370769350392
 31
0.0
  0
LINE
  5
4862
330
1E
100
AcDbEntity
  8
7
100
AcDbLine
 10
48.16849152145671
 20
45.47879060078737
 30
0.0
 11
47.97810745610237
 21
45.43912725383857
 31
0.0
  0
LINE
  5
4863
330
1E
100
AcDbEntity
  8
7
100
AcDbLine
 10
47.97810745610237
 20
45.43912725383857
 30
0.0
 11
47.81152139891731
 21
45.33600255177163
 31
0.0
  0
LINE
  5
4864
330
1E
100
AcDbEntity
  8
7
100
AcDbLine
 10
47.81152139891731
 20
45.33600255177163
 30
0.0
 11
47.70839669685041
 21
45.16941649458661
 31
0.0
  0
LINE
  5
4865
330
1E
100
AcDbEntity
  8
7
100
AcDbLine
 10
47.70839669685041
 20
45.16941649458661
 30
0.0
 11
47.6687333499016
 21
44.97903242923226
 31
0.0
  0
LINE
  5
4866
330
1E
100
AcDbEntity
  8
7
100
AcDbLine
 10
47.6687333499016
 20
43.56701727785432
 30
0.0
 11
47.70839669685041
 21
43.37663321249999
 31
0.0
  0
LINE
  5
4867
330
1E
100
AcDbEntity
  8
7
100
AcDbLine
 10
47.70839669685041
 20
43.37663321249999
 30
0.0
 11
47.81152139891731
 21
43.21004715531493
 31
0.0
  0
LINE
  5
4868
330
1E
100
AcDbEntity
  8
7
100
AcDbLine
 10
47.81152139891731
 20
43.21004715531493
 30
0.0
 11
47.97810745610237
 21
43.10692245324803
 31
0.0
  0
LINE
  5
4869
330
1E
100
AcDbEntity
  8
7
100
AcDbLine
 10
47.97810745610237
 20
43.10692245324803
 30
0.0
 11
48.16849152145671
 21
43.0672591062992
 31
0.0
  0
LINE
  5
486A
330
1E
100
AcDbEntity
  8
7
100
AcDbLine
 10
45.6538353249016
 20
43.0672591062992
 30
0.0
 11
45.84421939025588
 21
43.10692245324803
 31
0.0
  0
LINE
  5
486B
330
1E
100
AcDbEntity
  8
7
100
AcDbLine
 10
45.84421939025588
 20
43.10692245324803
 30
0.0
 11
46.01080544744094
 21
43.21004715531493
 31
0.0
  0
LINE
  5
486C
330
1E
100
AcDbEntity
  8
7
100
AcDbLine
 10
46.01080544744094
 20
43.21004715531493
 30
0.0
 11
46.11393014950785
 21
43.37663321249999
 31
0.0
  0
LINE
  5
486D
330
1E
100
AcDbEntity
  8
7
100
AcDbLine
 10
46.11393014950785
 20
43.37663321249999
 30
0.0
 11
46.15359349645672
 21
43.56701727785432
 31
0.0
  0
LINE
  5
486E
330
1E
100
AcDbEntity
  8
7
100
AcDbLine
 10
46.15359349645672
 20
44.97903242923226
 30
0.0
 11
46.11393014950785
 21
45.16941649458661
 31
0.0
  0
LINE
  5
486F
330
1E
100
AcDbEntity
  8
7
100
AcDbLine
 10
46.11393014950785
 20
45.16941649458661
 30
0.0
 11
46.01080544744094
 21
45.33600255177163
 31
0.0
  0
LINE
  5
4870
330
1E
100
AcDbEntity
  8
7
100
AcDbLine
 10
46.01080544744094
 20
45.33600255177163
 30
0.0
 11
45.84421939025588
 21
45.43912725383857
 31
0.0
  0
LINE
  5
4871
330
1E
100
AcDbEntity
  8
7
100
AcDbLine
 10
45.84421939025588
 20
45.43912725383857
 30
0.0
 11
45.6538353249016
 21
45.47879060078737
 31
0.0
  0
LINE
  5
4872
330
1E
100
AcDbEntity
  8
7
100
AcDbLine
 10
48.10503016633856
 20
43.0672591062992
 30
0.0
 11
48.10503016633856
 21
45.47879060078737
 31
0.0
  0
LINE
  5
4873
330
1E
100
AcDbEntity
  8
7
100
AcDbLine
 10
48.10503016633856
 20
45.47879060078737
 30
0.0
 11
48.10503016633856
 21
43.0672591062992
 31
0.0
  0
LINE
  5
4874
330
1E
100
AcDbEntity
  8
7
100
AcDbLine
 10
51.19083855895672
 20
43.0672591062992
 30
0.0
 11
51.381222624311
 21
43.10692245324803
 31
0.0
  0
LINE
  5
4875
330
1E
100
AcDbEntity
  8
7
100
AcDbLine
 10
51.381222624311
 20
43.10692245324803
 30
0.0
 11
51.54780868149607
 21
43.21004715531493
 31
0.0
  0
LINE
  5
4876
330
1E
100
AcDbEntity
  8
7
100
AcDbLine
 10
51.54780868149607
 20
43.21004715531493
 30
0.0
 11
51.65093338356297
 21
43.37663321249999
 31
0.0
  0
LINE
  5
4877
330
1E
100
AcDbEntity
  8
7
100
AcDbLine
 10
51.65093338356297
 20
43.37663321249999
 30
0.0
 11
51.69059673051184
 21
43.56701727785432
 31
0.0
  0
LINE
  5
4878
330
1E
100
AcDbEntity
  8
7
100
AcDbLine
 10
51.54780868149607
 20
45.33600255177163
 30
0.0
 11
51.381222624311
 21
45.43912725383857
 31
0.0
  0
LINE
  5
4879
330
1E
100
AcDbEntity
  8
7
100
AcDbLine
 10
51.381222624311
 20
45.43912725383857
 30
0.0
 11
51.19083855895672
 21
45.47879060078737
 31
0.0
  0
LINE
  5
487A
330
1E
100
AcDbEntity
  8
7
100
AcDbLine
 10
51.69059673051184
 20
44.97903242923226
 30
0.0
 11
51.65093338356297
 21
45.16941649458661
 31
0.0
  0
LINE
  5
487B
330
1E
100
AcDbEntity
  8
7
100
AcDbLine
 10
51.65093338356297
 20
45.16941649458661
 30
0.0
 11
51.54780868149607
 21
45.33600255177163
 31
0.0
  0
LINE
  5
487C
330
1E
100
AcDbEntity
  8
7
100
AcDbLine
 10
48.99348913799213
 20
45.48672327017714
 30
0.0
 11
48.99348913799213
 21
43.0672591062992
 31
0.0
  0
LINE
  5
487D
330
1E
100
AcDbEntity
  8
7
100
AcDbLine
 10
48.99348913799213
 20
43.0672591062992
 30
0.0
 11
48.99348913799213
 21
45.48672327017714
 31
0.0
  0
LINE
  5
487E
330
1E
100
AcDbEntity
  8
7
100
AcDbLine
 10
49.87401544025589
 20
43.0672591062992
 30
0.0
 11
49.87401544025589
 21
45.48672327017714
 31
0.0
  0
LINE
  5
487F
330
1E
100
AcDbEntity
  8
7
100
AcDbLine
 10
49.87401544025589
 20
45.48672327017714
 30
0.0
 11
49.87401544025589
 21
43.0672591062992
 31
0.0
  0
LINE
  5
4880
330
1E
100
AcDbEntity
  8
7
100
AcDbLine
 10
50.75454174251969
 20
45.48672327017714
 30
0.0
 11
50.75454174251969
 21
43.0672591062992
 31
0.0
  0
LINE
  5
4881
330
1E
100
AcDbEntity
  8
7
100
AcDbLine
 10
50.75454174251969
 20
43.0672591062992
 30
0.0
 11
50.75454174251969
 21
45.48672327017714
 31
0.0
  0
LINE
  5
4882
330
1E
100
AcDbEntity
  8
7
100
AcDbLine
 10
51.63506804478345
 20
43.32110452677163
 30
0.0
 11
51.63506804478345
 21
45.22494518031494
 31
0.0
  0
LINE
  5
4883
330
1E
100
AcDbEntity
  8
7
100
AcDbLine
 10
51.63506804478345
 20
45.22494518031494
 30
0.0
 11
51.63506804478345
 21
43.32110452677163
 31
0.0
  0
LINE
  5
4884
330
1E
100
AcDbEntity
  8
7
100
AcDbLine
 10
53.8165521269685
 20
46.86700774399606
 30
0.0
 11
53.80861945757875
 21
46.81941172765746
 31
0.0
  0
LINE
  5
4885
330
1E
100
AcDbEntity
  8
7
100
AcDbLine
 10
53.80861945757875
 20
46.81941172765746
 30
0.0
 11
53.80861945757875
 21
46.63696033169292
 31
0.0
  0
LINE
  5
4886
330
1E
100
AcDbEntity
  8
7
100
AcDbLine
 10
53.80861945757875
 20
46.63696033169292
 30
0.0
 11
53.8165521269685
 21
46.51003762145666
 31
0.0
  0
LINE
  5
4887
330
1E
100
AcDbEntity
  8
7
100
AcDbLine
 10
53.8165521269685
 20
46.51003762145666
 30
0.0
 11
53.8165521269685
 21
46.41484558877952
 31
0.0
  0
LINE
  5
4888
330
1E
100
AcDbEntity
  8
7
100
AcDbLine
 10
53.8165521269685
 20
46.41484558877952
 30
0.0
 11
53.82448479635826
 21
46.38311491122047
 31
0.0
  0
LINE
  5
4889
330
1E
100
AcDbEntity
  8
7
100
AcDbLine
 10
53.82448479635826
 20
46.38311491122047
 30
0.0
 11
53.82448479635826
 21
46.37518224183071
 31
0.0
  0
LINE
  5
488A
330
1E
100
AcDbEntity
  8
7
100
AcDbLine
 10
53.82448479635826
 20
46.37518224183071
 30
0.0
 11
53.83241746574803
 21
46.36724957244095
 31
0.0
  0
LINE
  5
488B
330
1E
100
AcDbEntity
  8
7
100
AcDbLine
 10
53.83241746574803
 20
46.36724957244095
 30
0.0
 11
53.8403501351378
 21
46.35931690305119
 31
0.0
  0
LINE
  5
488C
330
1E
100
AcDbEntity
  8
7
100
AcDbLine
 10
53.8403501351378
 20
46.35931690305119
 30
0.0
 11
53.8403501351378
 21
46.86700774399606
 31
0.0
  0
LINE
  5
4897
330
1E
100
AcDbEntity
  8
7
100
AcDbLine
 10
53.7134274249016
 20
46.25619220098423
 30
0.0
 11
53.79275411879922
 21
46.29585554793306
 31
0.0
  0
LINE
  5
4898
330
1E
100
AcDbEntity
  8
7
100
AcDbLine
 10
53.79275411879922
 20
46.29585554793306
 30
0.0
 11
53.82448479635826
 21
46.38311491122047
 31
0.0
  0
LINE
  5
4899
330
1E
100
AcDbEntity
  8
7
100
AcDbLine
 10
53.7134274249016
 20
46.24825953159446
 30
0.0
 11
53.79275411879922
 21
46.2879228785433
 31
0.0
  0
LINE
  5
489A
330
1E
100
AcDbEntity
  8
7
100
AcDbLine
 10
53.79275411879922
 20
46.2879228785433
 30
0.0
 11
53.82448479635826
 21
46.37518224183071
 31
0.0
  0
LINE
  5
489B
330
1E
100
AcDbEntity
  8
7
100
AcDbLine
 10
53.72929276368112
 20
46.23239419281493
 30
0.0
 11
53.80861945757875
 21
46.27999020915353
 31
0.0
  0
LINE
  5
489C
330
1E
100
AcDbEntity
  8
7
100
AcDbLine
 10
53.80861945757875
 20
46.27999020915353
 30
0.0
 11
53.8403501351378
 21
46.35931690305119
 31
0.0
  0
LINE
  5
489D
330
1E
100
AcDbEntity
  8
7
100
AcDbLine
 10
53.80861945757875
 20
46.27999020915353
 30
0.0
 11
53.83241746574803
 21
46.31965355610235
 31
0.0
  0
LINE
  5
489E
330
1E
100
AcDbEntity
  8
7
100
AcDbLine
 10
53.83241746574803
 20
46.31965355610235
 30
0.0
 11
53.8403501351378
 21
46.35931690305119
 31
0.0
  0
LINE
  5
489F
330
1E
100
AcDbEntity
  8
7
100
AcDbLine
 10
53.72929276368112
 20
46.23239419281493
 30
0.0
 11
53.73722543307088
 21
46.2403268622047
 31
0.0
  0
LINE
  5
48A0
330
1E
100
AcDbEntity
  8
7
100
AcDbLine
 10
53.73722543307088
 20
46.2403268622047
 30
0.0
 11
53.77688878001969
 21
46.25619220098423
 31
0.0
  0
LINE
  5
48A1
330
1E
100
AcDbEntity
  8
7
100
AcDbLine
 10
53.77688878001969
 20
46.25619220098423
 30
0.0
 11
53.80861945757875
 21
46.27999020915353
 31
0.0
  0
LINE
  5
48A2
330
1E
100
AcDbEntity
  8
7
100
AcDbLine
 10
53.72929276368112
 20
46.23239419281493
 30
0.0
 11
53.72136009429136
 21
46.2403268622047
 31
0.0
  0
LINE
  5
48A3
330
1E
100
AcDbEntity
  8
7
100
AcDbLine
 10
53.72136009429136
 20
46.2403268622047
 30
0.0
 11
53.7134274249016
 21
46.24825953159446
 31
0.0
  0
LINE
  5
48A4
330
1E
100
AcDbEntity
  8
7
100
AcDbLine
 10
53.72929276368112
 20
46.23239419281493
 30
0.0
 11
53.72136009429136
 21
46.23239419281493
 31
0.0
  0
LINE
  5
48A5
330
1E
100
AcDbEntity
  8
7
100
AcDbLine
 10
53.72136009429136
 20
46.23239419281493
 30
0.0
 11
53.7134274249016
 21
46.23239419281493
 31
0.0
  0
LINE
  5
48BA
330
1E
100
AcDbEntity
  8
7
100
AcDbLine
 10
52.7059784124016
 20
48.47733963011809
 30
0.0
 11
52.76150709812993
 21
48.47733963011809
 31
0.0
  0
LINE
  5
48BB
330
1E
100
AcDbEntity
  8
7
100
AcDbLine
 10
52.76150709812993
 20
48.47733963011809
 30
0.0
 11
52.78530510629922
 21
48.47733963011809
 31
0.0
  0
LINE
  5
48BC
330
1E
100
AcDbEntity
  8
7
100
AcDbLine
 10
52.7059784124016
 20
47.21604519714565
 30
0.0
 11
52.76150709812993
 21
47.21604519714565
 31
0.0
  0
LINE
  5
48BD
330
1E
100
AcDbEntity
  8
7
100
AcDbLine
 10
52.76150709812993
 20
47.21604519714565
 30
0.0
 11
52.78530510629922
 21
47.21604519714565
 31
0.0
  0
LINE
  5
48BE
330
1E
100
AcDbEntity
  8
7
100
AcDbLine
 10
52.68218040423225
 20
48.57253166279527
 30
0.0
 11
52.68218040423225
 21
48.54080098523621
 31
0.0
  0
LINE
  5
48BF
330
1E
100
AcDbEntity
  8
7
100
AcDbLine
 10
52.68218040423225
 20
48.54080098523621
 30
0.0
 11
52.68218040423225
 21
48.47733963011809
 31
0.0
  0
LINE
  5
48C0
330
1E
100
AcDbEntity
  8
7
100
AcDbLine
 10
52.84876646141731
 20
48.47733963011809
 30
0.0
 11
52.82496845324804
 21
48.54080098523621
 31
0.0
  0
LINE
  5
48C1
330
1E
100
AcDbEntity
  8
7
100
AcDbLine
 10
52.82496845324804
 20
48.54080098523621
 30
0.0
 11
52.76150709812993
 21
48.5645989934055
 31
0.0
  0
LINE
  5
48C2
330
1E
100
AcDbEntity
  8
7
100
AcDbLine
 10
52.78530510629922
 20
48.47733963011809
 30
0.0
 11
52.77737243690946
 21
48.49320496889761
 31
0.0
  0
LINE
  5
48C3
330
1E
100
AcDbEntity
  8
7
100
AcDbLine
 10
52.77737243690946
 20
48.49320496889761
 30
0.0
 11
52.76150709812993
 21
48.50113763828738
 31
0.0
  0
LINE
  5
48C4
330
1E
100
AcDbEntity
  8
7
100
AcDbLine
 10
52.80117044507874
 20
47.09705515629919
 30
0.0
 11
52.82496845324804
 21
47.0335938011811
 31
0.0
  0
LINE
  5
48C5
330
1E
100
AcDbEntity
  8
7
100
AcDbLine
 10
52.82496845324804
 20
47.0335938011811
 30
0.0
 11
52.88842980836612
 21
47.00979579301178
 31
0.0
  0
LINE
  5
48C6
330
1E
100
AcDbEntity
  8
7
100
AcDbLine
 10
52.86463180019683
 20
47.09705515629919
 30
0.0
 11
52.87256446958661
 21
47.08118981751967
 31
0.0
  0
LINE
  5
48C7
330
1E
100
AcDbEntity
  8
7
100
AcDbLine
 10
52.87256446958661
 20
47.08118981751967
 30
0.0
 11
52.88842980836612
 21
47.07325714812991
 31
0.0
  0
LINE
  5
48C8
330
1E
100
AcDbEntity
  8
7
100
AcDbLine
 10
52.64251705728344
 20
47.20811252775589
 30
0.0
 11
52.60285371033464
 21
47.19224718897637
 31
0.0
  0
LINE
  5
48C9
330
1E
100
AcDbEntity
  8
7
100
AcDbLine
 10
52.60285371033464
 20
47.19224718897637
 30
0.0
 11
52.58698837155511
 21
47.15258384202756
 31
0.0
  0
LINE
  5
48CA
330
1E
100
AcDbEntity
  8
7
100
AcDbLine
 10
52.58698837155511
 20
47.06532447874015
 30
0.0
 11
52.60285371033464
 21
47.02566113179133
 31
0.0
  0
LINE
  5
48CB
330
1E
100
AcDbEntity
  8
7
100
AcDbLine
 10
52.60285371033464
 20
47.02566113179133
 30
0.0
 11
52.64251705728344
 21
47.00979579301178
 31
0.0
  0
LINE
  5
48CC
330
1E
100
AcDbEntity
  8
7
100
AcDbLine
 10
53.7134274249016
 20
46.86700774399606
 30
0.0
 11
53.72929276368112
 21
46.86700774399606
 31
0.0
  0
LINE
  5
48CD
330
1E
100
AcDbEntity
  8
7
100
AcDbLine
 10
53.72929276368112
 20
46.86700774399606
 30
0.0
 11
53.74515810246065
 21
46.86700774399606
 31
0.0
  0
LINE
  5
48CE
330
1E
100
AcDbEntity
  8
7
100
AcDbLine
 10
53.74515810246065
 20
46.86700774399606
 30
0.0
 11
53.76102344124017
 21
46.86700774399606
 31
0.0
  0
LINE
  5
48CF
330
1E
100
AcDbEntity
  8
7
100
AcDbLine
 10
53.76102344124017
 20
46.86700774399606
 30
0.0
 11
53.77688878001969
 21
46.86700774399606
 31
0.0
  0
LINE
  5
48D0
330
1E
100
AcDbEntity
  8
7
100
AcDbLine
 10
53.77688878001969
 20
46.86700774399606
 30
0.0
 11
53.80861945757875
 21
46.81941172765746
 31
0.0
  0
LINE
  5
48D1
330
1E
100
AcDbEntity
  8
7
100
AcDbLine
 10
53.7134274249016
 20
46.85907507460631
 30
0.0
 11
53.78482144940946
 21
46.84320973582675
 31
0.0
  0
LINE
  5
48D2
330
1E
100
AcDbEntity
  8
7
100
AcDbLine
 10
53.78482144940946
 20
46.84320973582675
 30
0.0
 11
53.80861945757875
 21
46.81941172765746
 31
0.0
  0
LINE
  5
48D3
330
1E
100
AcDbEntity
  8
7
100
AcDbLine
 10
53.7134274249016
 20
46.63696033169292
 30
0.0
 11
53.78482144940946
 21
46.63696033169292
 31
0.0
  0
LINE
  5
48D4
330
1E
100
AcDbEntity
  8
7
100
AcDbLine
 10
53.78482144940946
 20
46.63696033169292
 30
0.0
 11
53.80861945757875
 21
46.63696033169292
 31
0.0
  0
LINE
  5
4912
330
1E
100
AcDbEntity
  8
7
100
AcDbLine
 10
66.23911239133857
 20
32.73099089143699
 30
0.0
 11
66.27877573828738
 21
32.75478889960631
 31
0.0
  0
LINE
  5
4913
330
1E
100
AcDbEntity
  8
7
100
AcDbLine
 10
66.27877573828738
 20
32.75478889960631
 30
0.0
 11
66.29464107706695
 21
32.79445224655511
 31
0.0
  0
LINE
  5
4914
330
1E
100
AcDbEntity
  8
7
100
AcDbLine
 10
66.35810243218505
 20
32.77065423838583
 30
0.0
 11
66.35810243218505
 21
32.79445224655511
 31
0.0
  0
LINE
  5
4915
330
1E
100
AcDbEntity
  8
7
100
AcDbLine
 10
66.35810243218505
 20
32.79445224655511
 30
0.0
 11
66.35810243218505
 21
32.8182502547244
 31
0.0
  0
LINE
  5
4916
330
1E
100
AcDbEntity
  8
7
100
AcDbLine
 10
66.2311797219488
 20
32.92137495679134
 30
0.0
 11
66.14392035866142
 21
32.88964427923226
 31
0.0
  0
LINE
  5
4917
330
1E
100
AcDbEntity
  8
7
100
AcDbLine
 10
66.14392035866142
 20
32.88964427923226
 30
0.0
 11
66.1042570117126
 21
32.81031758533464
 31
0.0
  0
LINE
  5
4918
330
1E
100
AcDbEntity
  8
7
100
AcDbLine
 10
66.1042570117126
 20
32.81031758533464
 30
0.0
 11
66.1280550198819
 21
32.72305822204723
 31
0.0
  0
LINE
  5
4919
330
1E
100
AcDbEntity
  8
7
100
AcDbLine
 10
66.1280550198819
 20
32.72305822204723
 30
0.0
 11
66.20738171377951
 21
32.66752953631889
 31
0.0
  0
LINE
  5
491A
330
1E
100
AcDbEntity
  8
7
100
AcDbLine
 10
66.20738171377951
 20
32.66752953631889
 30
0.0
 11
66.29464107706695
 21
32.68339487509842
 31
0.0
  0
LINE
  5
491B
330
1E
100
AcDbEntity
  8
7
100
AcDbLine
 10
66.29464107706695
 20
32.79445224655511
 30
0.0
 11
66.25497773011808
 21
32.85791360167321
 31
0.0
  0
LINE
  5
491C
330
1E
100
AcDbEntity
  8
7
100
AcDbLine
 10
66.25497773011808
 20
32.85791360167321
 30
0.0
 11
66.18358370561023
 21
32.83411559350393
 31
0.0
  0
LINE
  5
491D
330
1E
100
AcDbEntity
  8
7
100
AcDbLine
 10
66.18358370561023
 20
32.83411559350393
 30
0.0
 11
66.17565103622047
 21
32.76272156899607
 31
0.0
  0
LINE
  5
491E
330
1E
100
AcDbEntity
  8
7
100
AcDbLine
 10
66.17565103622047
 20
32.76272156899607
 30
0.0
 11
66.23911239133857
 21
32.73099089143699
 31
0.0
  0
LINE
  5
491F
330
1E
100
AcDbEntity
  8
7
100
AcDbLine
 10
66.11218968110238
 20
32.77858690777559
 30
0.0
 11
66.15978569744095
 21
32.69926021387794
 31
0.0
  0
LINE
  5
4920
330
1E
100
AcDbEntity
  8
7
100
AcDbLine
 10
66.15978569744095
 20
32.69926021387794
 30
0.0
 11
66.25497773011808
 21
32.67546220570866
 31
0.0
  0
LINE
  5
4921
330
1E
100
AcDbEntity
  8
7
100
AcDbLine
 10
66.35016976279529
 20
32.79445224655511
 30
0.0
 11
66.31050641584647
 21
32.8817116098425
 31
0.0
  0
LINE
  5
4922
330
1E
100
AcDbEntity
  8
7
100
AcDbLine
 10
66.31050641584647
 20
32.8817116098425
 30
0.0
 11
66.22324705255905
 21
32.91344228740157
 31
0.0
  0
LINE
  5
4923
330
1E
100
AcDbEntity
  8
7
100
AcDbLine
 10
66.22324705255905
 20
32.91344228740157
 30
0.0
 11
66.14392035866142
 21
32.87377894045274
 31
0.0
  0
LINE
  5
4924
330
1E
100
AcDbEntity
  8
7
100
AcDbLine
 10
66.14392035866142
 20
32.87377894045274
 30
0.0
 11
66.11218968110238
 21
32.77858690777559
 31
0.0
  0
LINE
  5
4925
330
1E
100
AcDbEntity
  8
7
100
AcDbLine
 10
66.30257374645672
 20
32.58027017303148
 30
0.0
 11
66.30257374645672
 21
32.62786618937006
 31
0.0
  0
LINE
  5
4926
330
1E
100
AcDbEntity
  8
7
100
AcDbLine
 10
66.30257374645672
 20
32.62786618937006
 30
0.0
 11
66.30257374645672
 21
32.64373152814958
 31
0.0
  0
LINE
  5
4927
330
1E
100
AcDbEntity
  8
7
100
AcDbLine
 10
66.30257374645672
 20
32.64373152814958
 30
0.0
 11
66.30257374645672
 21
32.79445224655511
 31
0.0
  0
LINE
  5
4928
330
1E
100
AcDbEntity
  8
7
100
AcDbLine
 10
66.35810243218505
 20
32.84204826289369
 30
0.0
 11
66.35810243218505
 21
32.83411559350393
 31
0.0
  0
LINE
  5
4929
330
1E
100
AcDbEntity
  8
7
100
AcDbLine
 10
66.35810243218505
 20
32.83411559350393
 30
0.0
 11
66.35810243218505
 21
32.8182502547244
 31
0.0
  0
LINE
  5
492A
330
1E
100
AcDbEntity
  8
7
100
AcDbLine
 10
66.17565103622047
 20
32.79445224655511
 30
0.0
 11
66.19944904438975
 21
32.74685623021651
 31
0.0
  0
LINE
  5
492B
330
1E
100
AcDbEntity
  8
7
100
AcDbLine
 10
66.19944904438975
 20
32.74685623021651
 30
0.0
 11
66.25497773011808
 21
32.74685623021651
 31
0.0
  0
LINE
  5
492C
330
1E
100
AcDbEntity
  8
7
100
AcDbLine
 10
66.25497773011808
 20
32.74685623021651
 30
0.0
 11
66.28670840767719
 21
32.79445224655511
 31
0.0
  0
LINE
  5
492D
330
1E
100
AcDbEntity
  8
7
100
AcDbLine
 10
66.28670840767719
 20
32.79445224655511
 30
0.0
 11
66.26291039950785
 21
32.84204826289369
 31
0.0
  0
LINE
  5
492E
330
1E
100
AcDbEntity
  8
7
100
AcDbLine
 10
66.26291039950785
 20
32.84204826289369
 30
0.0
 11
66.20738171377951
 21
32.84204826289369
 31
0.0
  0
LINE
  5
492F
330
1E
100
AcDbEntity
  8
7
100
AcDbLine
 10
66.20738171377951
 20
32.84204826289369
 30
0.0
 11
66.17565103622047
 21
32.79445224655511
 31
0.0
  0
LINE
  5
4930
330
1E
100
AcDbEntity
  8
7
100
AcDbLine
 10
72.68043993582677
 20
32.92137495679134
 30
0.0
 11
72.68043993582677
 21
32.89757694862202
 31
0.0
  0
LINE
  5
4931
330
1E
100
AcDbEntity
  8
7
100
AcDbLine
 10
72.68043993582677
 20
32.89757694862202
 30
0.0
 11
72.68043993582677
 21
32.84204826289369
 31
0.0
  0
LINE
  5
4932
330
1E
100
AcDbEntity
  8
7
100
AcDbLine
 10
72.55351722559052
 20
32.83411559350393
 30
0.0
 11
72.537651886811
 21
32.83411559350393
 31
0.0
  0
LINE
  5
4933
330
1E
100
AcDbEntity
  8
7
100
AcDbLine
 10
72.537651886811
 20
32.83411559350393
 30
0.0
 11
72.52971921742124
 21
32.83411559350393
 31
0.0
  0
LINE
  5
4934
330
1E
100
AcDbEntity
  8
7
100
AcDbLine
 10
72.52178654803149
 20
32.85791360167321
 30
0.0
 11
72.48212320108267
 21
32.85791360167321
 31
0.0
  0
LINE
  5
4935
330
1E
100
AcDbEntity
  8
7
100
AcDbLine
 10
72.48212320108267
 20
32.85791360167321
 30
0.0
 11
72.46625786230314
 21
32.85791360167321
 31
0.0
  0
LINE
  5
4936
330
1E
100
AcDbEntity
  8
7
100
AcDbLine
 10
72.68043993582677
 20
32.85791360167321
 30
0.0
 11
72.65664192765749
 21
32.85791360167321
 31
0.0
  0
LINE
  5
4937
330
1E
100
AcDbEntity
  8
7
100
AcDbLine
 10
72.65664192765749
 20
32.85791360167321
 30
0.0
 11
72.61697858070869
 21
32.85791360167321
 31
0.0
  0
LINE
  5
4938
330
1E
100
AcDbEntity
  8
7
100
AcDbLine
 10
72.61697858070869
 20
32.92137495679134
 30
0.0
 11
72.65664192765749
 21
32.92137495679134
 31
0.0
  0
LINE
  5
4939
330
1E
100
AcDbEntity
  8
7
100
AcDbLine
 10
72.65664192765749
 20
32.92137495679134
 30
0.0
 11
72.68043993582677
 21
32.92137495679134
 31
0.0
  0
LINE
  5
493A
330
1E
100
AcDbEntity
  8
7
100
AcDbLine
 10
72.46625786230314
 20
32.92137495679134
 30
0.0
 11
72.48212320108267
 21
32.92137495679134
 31
0.0
  0
LINE
  5
493B
330
1E
100
AcDbEntity
  8
7
100
AcDbLine
 10
72.48212320108267
 20
32.92137495679134
 30
0.0
 11
72.52178654803149
 21
32.92137495679134
 31
0.0
  0
LINE
  5
495F
330
1E
100
AcDbEntity
  8
7
100
AcDbLine
 10
74.0289937320866
 20
26.00408724891732
 30
0.0
 11
74.0289937320866
 21
32.83411559350393
 31
0.0
  0
LINE
  5
4960
330
1E
100
AcDbEntity
  8
7
100
AcDbLine
 10
74.0289937320866
 20
32.83411559350393
 30
0.0
 11
74.00519572391733
 21
32.83411559350393
 31
0.0
  0
LINE
  5
4961
330
1E
100
AcDbEntity
  8
7
100
AcDbLine
 10
74.00519572391733
 20
32.83411559350393
 30
0.0
 11
73.93380169940946
 21
32.83411559350393
 31
0.0
  0
LINE
  5
4962
330
1E
100
AcDbEntity
  8
7
100
AcDbLine
 10
73.93380169940946
 20
25.91682788562991
 30
0.0
 11
73.99726305452755
 21
25.9406258937992
 31
0.0
  0
LINE
  5
4963
330
1E
100
AcDbEntity
  8
7
100
AcDbLine
 10
73.99726305452755
 20
25.9406258937992
 30
0.0
 11
74.02106106269684
 21
26.00408724891732
 31
0.0
  0
LINE
  5
4964
330
1E
100
AcDbEntity
  8
7
100
AcDbLine
 10
73.93380169940946
 20
25.98028924074803
 30
0.0
 11
73.94966703818898
 21
25.9882219101378
 31
0.0
  0
LINE
  5
4965
330
1E
100
AcDbEntity
  8
7
100
AcDbLine
 10
73.94966703818898
 20
25.9882219101378
 30
0.0
 11
73.95759970757874
 21
26.00408724891732
 31
0.0
  0
LINE
  5
4966
330
1E
100
AcDbEntity
  8
7
100
AcDbLine
 10
73.93380169940946
 20
25.98028924074803
 30
0.0
 11
73.94173436879921
 21
25.9882219101378
 31
0.0
  0
LINE
  5
4967
330
1E
100
AcDbEntity
  8
7
100
AcDbLine
 10
73.94173436879921
 20
25.9882219101378
 30
0.0
 11
73.94966703818898
 21
26.00408724891732
 31
0.0
  0
LINE
  5
496B
330
1E
100
AcDbEntity
  8
7
100
AcDbLine
 10
73.93380169940946
 20
32.92137495679134
 30
0.0
 11
73.93380169940946
 21
32.89757694862202
 31
0.0
  0
LINE
  5
496C
330
1E
100
AcDbEntity
  8
7
100
AcDbLine
 10
73.93380169940946
 20
32.89757694862202
 30
0.0
 11
73.93380169940946
 21
32.84204826289369
 31
0.0
  0
LINE
  5
496D
330
1E
100
AcDbEntity
  8
7
100
AcDbLine
 10
73.95759970757874
 20
32.83411559350393
 30
0.0
 11
73.94966703818898
 21
32.84998093228345
 31
0.0
  0
LINE
  5
496E
330
1E
100
AcDbEntity
  8
7
100
AcDbLine
 10
73.94966703818898
 20
32.84998093228345
 30
0.0
 11
73.93380169940946
 21
32.85791360167321
 31
0.0
  0
LINE
  5
496F
330
1E
100
AcDbEntity
  8
7
100
AcDbLine
 10
74.02106106269684
 20
32.83411559350393
 30
0.0
 11
73.99726305452755
 21
32.89757694862202
 31
0.0
  0
LINE
  5
4970
330
1E
100
AcDbEntity
  8
7
100
AcDbLine
 10
73.99726305452755
 20
32.89757694862202
 30
0.0
 11
73.93380169940946
 21
32.92137495679134
 31
0.0
  0
ENDSEC
  0
SECTION
  2
OBJECTS
  0
DICTIONARY
  5
C
330
0
100
AcDbDictionary
  3
ACAD_GROUP
350
D
  3
ACAD_LAYOUT
350
19
  3
ACAD_MLINESTYLE
350
16
  3
ACAD_PLOTSETTINGS
350
18
  3
ACAD_PLOTSTYLENAME
350
E
  3
ACDBHEADERROUNDTRIPXREC
350
49A6
  0
DICTIONARY
  5
49C9
330
1E
100
AcDbDictionary
280
     1
  3
ACAD_LAYOUTSELFREF
360
49CA
  0
DICTIONARY
  5
49C7
330
1A
100
AcDbDictionary
280
     1
  3
ACAD_LAYOUTSELFREF
360
49C8
  0
DICTIONARY
  5
D
102
{ACAD_REACTORS
330
C
102
}
330
C
100
AcDbDictionary
  0
DICTIONARY
  5
19
102
{ACAD_REACTORS
330
C
102
}
330
C
100
AcDbDictionary
  0
DICTIONARY
  5
16
102
{ACAD_REACTORS
330
C
102
}
330
C
100
AcDbDictionary
  3
STANDARD
350
17
  0
DICTIONARY
  5
18
102
{ACAD_REACTORS
330
C
102
}
330
C
100
AcDbDictionary
  0
ACDBDICTIONARYWDFLT
  5
E
102
{ACAD_REACTORS
330
C
102
}
330
C
100
AcDbDictionary
281
     1
  3
Normal
350
F
100
AcDbDictionaryWithDefault
340
F
  0
DICTIONARY
  5
49A6
102
{ACAD_REACTORS
330
C
102
}
330
C
100
AcDbDictionary
  3
CEPSNTYPE
350
49B0
  3
DIMSTYLEDATA
350
49B4
  3
FINGERPRINTGUID
350
49B1
  3
HYPERLINKBASE
350
49A9
  3
INSUNITS
350
49AF
  3
LAYOUTDICT
350
49AB
  3
LWETCUNION
350
49AE
  3
PLOTSETDICT
350
49AC
  3
PLOTSTYLNAMDICT
350
49AD
  3
PSVPSCALE
350
49B3
  3
PUCSBASE
350
49B7
  3
PUCSORGBACK
350
49BD
  3
PUCSORGBOTTOM
350
49B9
  3
PUCSORGFRONT
350
49BC
  3
PUCSORGLEFT
350
49BA
  3
PUCSORGRIGHT
350
49BB
  3
PUCSORGTOP
350
49B8
  3
PUCSORTHOREF
350
49B5
  3
PUCSORTHOVIEW
350
49B6
  3
STYLESHEET
350
49AA
  3
TSTACKALIGN
350
49A7
  3
TSTACKSIZE
350
49A8
  3
UCSBASE
350
49C0
  3
UCSORGBACK
350
49C6
  3
UCSORGBOTTOM
350
49C2
  3
UCSORGFRONT
350
49C5
  3
UCSORGLEFT
350
49C3
  3
UCSORGRIGHT
350
49C4
  3
UCSORGTOP
350
49C1
  3
UCSORTHOREF
350
49BE
  3
UCSORTHOVIEW
350
49BF
  3
VERSIONGUID
350
49B2
  0
XRECORD
  5
49CA
102
{ACAD_REACTORS
330
49C9
102
}
330
49C9
100
AcDbXrecord
340
1E
  0
XRECORD
  5
49C8
102
{ACAD_REACTORS
330
49C7
102
}
330
49C7
100
AcDbXrecord
340
1A
  0
MLINESTYLE
  5
17
102
{ACAD_REACTORS
330
16
102
}
330
16
100
AcDbMlineStyle
  2
STANDARD
 70
     0
  3

 62
   256
 51
90.0
 52
90.0
 71
     2
 49
0.5
 62
   256
  6
BYLAYER
 49
-0.5
 62
   256
  6
BYLAYER
  0
ACDBPLACEHOLDER
  5
F
102
{ACAD_REACTORS
330
E
102
}
330
E
100
AcDbPlaceHolder
280
     0
  0
XRECORD
  5
49B0
102
{ACAD_REACTORS
330
49A6
102
}
330
49A6
100
AcDbXrecord
 90
        0
  0
XRECORD
  5
49B4
102
{ACAD_REACTORS
330
49A6
102
}
330
49A6
100
AcDbXrecord
1000
DSTYLE
1002
{
1070
   279
 70
     2
1002
}
  0
XRECORD
  5
49B1
102
{ACAD_REACTORS
330
49A6
102
}
330
49A6
100
AcDbXrecord
  1
{4E731618-4BF1-11D6-B7C2-00B0D0207C23}
  0
XRECORD
  5
49A9
102
{ACAD_REACTORS
330
49A6
102
}
330
49A6
100
AcDbXrecord
  1

  0
XRECORD
  5
49AF
102
{ACAD_REACTORS
330
49A6
102
}
330
49A6
100
AcDbXrecord
 90
        0
  0
XRECORD
  5
49AB
102
{ACAD_REACTORS
330
49A6
102
}
330
49A6
100
AcDbXrecord
340
19
  0
XRECORD
  5
49AE
102
{ACAD_REACTORS
330
49A6
102
}
330
49A6
100
AcDbXrecord
 90
    14877
  0
XRECORD
  5
49AC
102
{ACAD_REACTORS
330
49A6
102
}
330
49A6
100
AcDbXrecord
340
18
  0
XRECORD
  5
49AD
102
{ACAD_REACTORS
330
49A6
102
}
330
49A6
100
AcDbXrecord
340
E
  0
XRECORD
  5
49B3
102
{ACAD_REACTORS
330
49A6
102
}
330
49A6
100
AcDbXrecord
 40
0.0
  0
XRECORD
  5
49B7
102
{ACAD_REACTORS
330
49A6
102
}
330
49A6
100
AcDbXrecord
340
0
  0
XRECORD
  5
49BD
102
{ACAD_REACTORS
330
49A6
102
}
330
49A6
100
AcDbXrecord
 10
0.0
 20
0.0
 30
0.0
  0
XRECORD
  5
49B9
102
{ACAD_REACTORS
330
49A6
102
}
330
49A6
100
AcDbXrecord
 10
0.0
 20
0.0
 30
0.0
  0
XRECORD
  5
49BC
102
{ACAD_REACTORS
330
49A6
102
}
330
49A6
100
AcDbXrecord
 10
0.0
 20
0.0
 30
0.0
  0
XRECORD
  5
49BA
102
{ACAD_REACTORS
330
49A6
102
}
330
49A6
100
AcDbXrecord
 10
0.0
 20
0.0
 30
0.0
  0
XRECORD
  5
49BB
102
{ACAD_REACTORS
330
49A6
102
}
330
49A6
100
AcDbXrecord
 10
0.0
 20
0.0
 30
0.0
  0
XRECORD
  5
49B8
102
{ACAD_REACTORS
330
49A6
102
}
330
49A6
100
AcDbXrecord
 10
0.0
 20
0.0
 30
0.0
  0
XRECORD
  5
49B5
102
{ACAD_REACTORS
330
49A6
102
}
330
49A6
100
AcDbXrecord
340
0
  0
XRECORD
  5
49B6
102
{ACAD_REACTORS
330
49A6
102
}
330
49A6
100
AcDbXrecord
 70
     0
  0
XRECORD
  5
49AA
102
{ACAD_REACTORS
330
49A6
102
}
330
49A6
100
AcDbXrecord
  1

  0
XRECORD
  5
49A7
102
{ACAD_REACTORS
330
49A6
102
}
330
49A6
100
AcDbXrecord
 90
        1
  0
XRECORD
  5
49A8
102
{ACAD_REACTORS
330
49A6
102
}
330
49A6
100
AcDbXrecord
 90
       70
  0
XRECORD
  5
49C0
102
{ACAD_REACTORS
330
49A6
102
}
330
49A6
100
AcDbXrecord
340
0
  0
XRECORD
  5
49C6
102
{ACAD_REACTORS
330
49A6
102
}
330
49A6
100
AcDbXrecord
 10
0.0
 20
0.0
 30
0.0
  0
XRECORD
  5
49C2
102
{ACAD_REACTORS
330
49A6
102
}
330
49A6
100
AcDbXrecord
 10
0.0
 20
0.0
 30
0.0
  0
XRECORD
  5
49C5
102
{ACAD_REACTORS
330
49A6
102
}
330
49A6
100
AcDbXrecord
 10
0.0
 20
0.0
 30
0.0
  0
XRECORD
  5
49C3
102
{ACAD_REACTORS
330
49A6
102
}
330
49A6
100
AcDbXrecord
 10
0.0
 20
0.0
 30
0.0
  0
XRECORD
  5
49C4
102
{ACAD_REACTORS
330
49A6
102
}
330
49A6
100
AcDbXrecord
 10
0.0
 20
0.0
 30
0.0
  0
XRECORD
  5
49C1
102
{ACAD_REACTORS
330
49A6
102
}
330
49A6
100
AcDbXrecord
 10
0.0
 20
0.0
 30
0.0
  0
XRECORD
  5
49BE
102
{ACAD_REACTORS
330
49A6
102
}
330
49A6
100
AcDbXrecord
340
0
  0
XRECORD
  5
49BF
102
{ACAD_REACTORS
330
49A6
102
}
330
49A6
100
AcDbXrecord
 70
     0
  0
XRECORD
  5
49B2
102
{ACAD_REACTORS
330
49A6
102
}
330
49A6
100
AcDbXrecord
  1
{4E73161C-4BF1-11D6-B7C2-00B0D0207C23}
  0
ENDSEC
  0
EOF
