  0
SECTION
  2
HEADER
  9
$ACADVER
  1
AC1014
  9
$ACADMAINTVER
 70
     9
  9
$DWGCODEPAGE
  3
ANSI_1252
  9
$INSBASE
 10
0.0
 20
0.0
 30
0.0
  9
$EXTMIN
 10
1.69702151429027
 20
4.193069483843945
 30
-0.0015258207003583
  9
$EXTMAX
 10
4.298034686942159
 20
7.206756610664022
 30
0.0000000349246037
  9
$LIMMIN
 10
0.0
 20
0.0
  9
$LIMMAX
 10
12.0
 20
9.0
  9
$ORTHOMODE
 70
     0
  9
$REGENMODE
 70
     1
  9
$FILLMODE
 70
     1
  9
$QTEXTMODE
 70
     0
  9
$MIRRTEXT
 70
     1
  9
$DRAGMODE
 70
     2
  9
$LTSCALE
 40
1.0
  9
$OSMODE
 70
    37
  9
$ATTMODE
 70
     1
  9
$TEXTSIZE
 40
0.2
  9
$TRACEWID
 40
0.05
  9
$TEXTSTYLE
  7
STANDARD
  9
$CLAYER
  8
0
  9
$CELTYPE
  6
BYLAYER
  9
$CECOLOR
 62
   256
  9
$CELTSCALE
 40
1.0
  9
$DELOBJ
 70
     1
  9
$DISPSILH
 70
     0
  9
$DIMSCALE
 40
1.0
  9
$DIMASZ
 40
0.18
  9
$DIMEXO
 40
0.0625
  9
$DIMDLI
 40
0.38
  9
$DIMRND
 40
0.0
  9
$DIMDLE
 40
0.0
  9
$DIMEXE
 40
0.18
  9
$DIMTP
 40
0.0
  9
$DIMTM
 40
0.0
  9
$DIMTXT
 40
0.18
  9
$DIMCEN
 40
0.09
  9
$DIMTSZ
 40
0.0
  9
$DIMTOL
 70
     0
  9
$DIMLIM
 70
     0
  9
$DIMTIH
 70
     1
  9
$DIMTOH
 70
     1
  9
$DIMSE1
 70
     0
  9
$DIMSE2
 70
     0
  9
$DIMTAD
 70
     0
  9
$DIMZIN
 70
     0
  9
$DIMBLK
  1

  9
$DIMASO
 70
     1
  9
$DIMSHO
 70
     1
  9
$DIMPOST
  1

  9
$DIMAPOST
  1

  9
$DIMALT
 70
     0
  9
$DIMALTD
 70
     2
  9
$DIMALTF
 40
25.4
  9
$DIMLFAC
 40
1.0
  9
$DIMTOFL
 70
     0
  9
$DIMTVP
 40
0.0
  9
$DIMTIX
 70
     0
  9
$DIMSOXD
 70
     0
  9
$DIMSAH
 70
     0
  9
$DIMBLK1
  1

  9
$DIMBLK2
  1

  9
$DIMSTYLE
  2
STANDARD
  9
$DIMCLRD
 70
     0
  9
$DIMCLRE
 70
     0
  9
$DIMCLRT
 70
     0
  9
$DIMTFAC
 40
1.0
  9
$DIMGAP
 40
0.09
  9
$DIMJUST
 70
     0
  9
$DIMSD1
 70
     0
  9
$DIMSD2
 70
     0
  9
$DIMTOLJ
 70
     1
  9
$DIMTZIN
 70
     0
  9
$DIMALTZ
 70
     0
  9
$DIMALTTZ
 70
     0
  9
$DIMFIT
 70
     5
  9
$DIMUPT
 70
     0
  9
$DIMUNIT
 70
     2
  9
$DIMDEC
 70
     4
  9
$DIMTDEC
 70
     4
  9
$DIMALTU
 70
     2
  9
$DIMALTTD
 70
     2
  9
$DIMTXSTY
  7
STANDARD
  9
$DIMAUNIT
 70
     0
  9
$LUNITS
 70
     2
  9
$LUPREC
 70
     4
  9
$SKETCHINC
 40
0.1
  9
$FILLETRAD
 40
0.0
  9
$AUNITS
 70
     0
  9
$AUPREC
 70
     0
  9
$MENU
  1
acad
  9
$ELEVATION
 40
0.0
  9
$PELEVATION
 40
0.0
  9
$THICKNESS
 40
0.0
  9
$LIMCHECK
 70
     0
  9
$BLIPMODE
 70
     0
  9
$CHAMFERA
 40
0.0
  9
$CHAMFERB
 40
0.0
  9
$CHAMFERC
 40
0.0
  9
$CHAMFERD
 40
0.0
  9
$SKPOLY
 70
     0
  9
$TDCREATE
 40
2452397.640034722
  9
$TDUPDATE
 40
2452397.649170277
  9
$TDINDWG
 40
0.0028171991
  9
$TDUSRTIMER
 40
0.0028171991
  9
$USRTIMER
 70
     1
  9
$ANGBASE
 50
0.0
  9
$ANGDIR
 70
     0
  9
$PDMODE
 70
     0
  9
$PDSIZE
 40
0.0
  9
$PLINEWID
 40
0.0
  9
$COORDS
 70
     2
  9
$SPLFRAME
 70
     0
  9
$SPLINETYPE
 70
     6
  9
$SPLINESEGS
 70
     8
  9
$ATTDIA
 70
     0
  9
$ATTREQ
 70
     1
  9
$HANDLING
 70
-16383
  9
$HANDSEED
  5
2C0C
  9
$SURFTAB1
 70
     6
  9
$SURFTAB2
 70
     6
  9
$SURFTYPE
 70
     6
  9
$SURFU
 70
     6
  9
$SURFV
 70
     6
  9
$UCSNAME
  2

  9
$UCSORG
 10
0.0
 20
0.0
 30
0.0
  9
$UCSXDIR
 10
1.0
 20
0.0
 30
0.0
  9
$UCSYDIR
 10
0.0
 20
1.0
 30
0.0
  9
$PUCSNAME
  2

  9
$PUCSORG
 10
0.0
 20
0.0
 30
0.0
  9
$PUCSXDIR
 10
1.0
 20
0.0
 30
0.0
  9
$PUCSYDIR
 10
0.0
 20
1.0
 30
0.0
  9
$USERI1
 70
     0
  9
$USERI2
 70
     0
  9
$USERI3
 70
     0
  9
$USERI4
 70
     0
  9
$USERI5
 70
     0
  9
$USERR1
 40
0.0
  9
$USERR2
 40
0.0
  9
$USERR3
 40
0.0
  9
$USERR4
 40
0.0
  9
$USERR5
 40
0.0
  9
$WORLDVIEW
 70
     1
  9
$SHADEDGE
 70
     3
  9
$SHADEDIF
 70
    70
  9
$TILEMODE
 70
     1
  9
$MAXACTVP
 70
    16
  9
$PINSBASE
 10
0.0
 20
0.0
 30
0.0
  9
$PLIMCHECK
 70
     0
  9
$PEXTMIN
 10
1.000000000000000E+20
 20
1.000000000000000E+20
 30
1.000000000000000E+20
  9
$PEXTMAX
 10
-1.000000000000000E+20
 20
-1.000000000000000E+20
 30
-1.000000000000000E+20
  9
$PLIMMIN
 10
0.0
 20
0.0
  9
$PLIMMAX
 10
12.0
 20
9.0
  9
$UNITMODE
 70
     0
  9
$VISRETAIN
 70
     0
  9
$PLINEGEN
 70
     0
  9
$PSLTSCALE
 70
     1
  9
$TREEDEPTH
 70
  3020
  9
$PICKSTYLE
 70
     0
  9
$CMLSTYLE
  2
STANDARD
  9
$CMLJUST
 70
     0
  9
$CMLSCALE
 40
1.0
  9
$PROXYGRAPHICS
 70
     1
  9
$MEASUREMENT
 70
     0
  0
ENDSEC
  0
SECTION
  2
CLASSES
  0
CLASS
  1
ACDBDICTIONARYWDFLT
  2
AcDbDictionaryWithDefault
  3
AutoCAD 2000
 90
        0
280
     0
281
     0
  0
CLASS
  1
ACDBPLACEHOLDER
  2
AcDbPlaceHolder
  3
AutoCAD 2000
 90
        0
280
     0
281
     0
  0
CLASS
  1
LAYOUT
  2
AcDbLayout
  3
AutoCAD 2000
 90
        0
280
     0
281
     0
  0
CLASS
  1
LONG_TRANSACTION
  2
AcDbLongTransaction
  3
AutoCAD 2000
 90
        0
280
     0
281
     0
  0
CLASS
  1
LWPOLYLINE
  2
AcDbPolyline
  3
AutoCAD 2000
 90
        0
280
     0
281
     1
  0
CLASS
  1
HATCH
  2
AcDbHatch
  3
AutoCAD 2000
 90
        0
280
     0
281
     1
  0
CLASS
  1
XRECORD
  2
AcDbXrecord
  3
AutoCAD 2000
 90
        0
280
     0
281
     0
  0
ENDSEC
  0
SECTION
  2
TABLES
  0
TABLE
  2
VPORT
  5
8
330
0
100
AcDbSymbolTable
 70
     3
  0
VPORT
  5
2BE6
330
8
100
AcDbSymbolTableRecord
100
AcDbViewportTableRecord
  2
*ACTIVE
 70
     0
 10
0.0
 20
0.0
 11
1.0
 21
1.0
 12
2.997528100616215
 22
5.699913047253984
 13
0.0
 23
0.0
 14
1.0
 24
1.0
 15
0.0
 25
0.0
 16
0.0
 26
0.0
 36
1.0
 17
0.0
 27
0.0
 37
0.0
 40
3.037893449123853
 41
1.498659517426273
 42
50.0
 43
0.0
 44
0.0
 50
0.0
 51
0.0
 71
     0
 72
   100
 73
     1
 74
     1
 75
     0
 76
     0
 77
     0
 78
     0
  0
ENDTAB
  0
TABLE
  2
LTYPE
  5
5
330
0
100
AcDbSymbolTable
 70
    25
  0
LTYPE
  5
13
330
5
100
AcDbSymbolTableRecord
100
AcDbLinetypeTableRecord
  2
BYBLOCK
 70
     0
  3

 72
    65
 73
     0
 40
0.0
  0
LTYPE
  5
14
330
5
100
AcDbSymbolTableRecord
100
AcDbLinetypeTableRecord
  2
BYLAYER
 70
     0
  3

 72
    65
 73
     0
 40
0.0
  0
LTYPE
  5
15
330
5
100
AcDbSymbolTableRecord
100
AcDbLinetypeTableRecord
  2
CONTINUOUS
 70
     0
  3
Solid line
 72
    65
 73
     0
 40
0.0
  0
LTYPE
  5
22
330
5
100
AcDbSymbolTableRecord
100
AcDbLinetypeTableRecord
  2
BORDER
 70
     0
  3
__ __ . __ __ . __ __ . __ __ . __ __ . __ __ .
 72
    65
 73
     6
 40
1.75
 49
0.5
 74
     0
 49
-0.25
 74
     0
 49
0.5
 74
     0
 49
-0.25
 74
     0
 49
0.5
 74
     0
 49
-0.25
 74
     0
  0
LTYPE
  5
23
330
5
100
AcDbSymbolTableRecord
100
AcDbLinetypeTableRecord
  2
BORDER2
 70
     0
  3
__.__.__.__.__.__.__.__.__.__.__.__.__.__.__.__
 72
    65
 73
     6
 40
0.875
 49
0.25
 74
     0
 49
-0.125
 74
     0
 49
0.25
 74
     0
 49
-0.125
 74
     0
 49
0.25
 74
     0
 49
-0.125
 74
     0
  0
LTYPE
  5
24
330
5
100
AcDbSymbolTableRecord
100
AcDbLinetypeTableRecord
  2
BORDERX2
 70
     0
  3
____  ____  .  ____  ____  .  
 72
    65
 73
     6
 40
3.5
 49
1.0
 74
     0
 49
-0.5
 74
     0
 49
1.0
 74
     0
 49
-0.5
 74
     0
 49
1.0
 74
     0
 49
-0.5
 74
     0
  0
LTYPE
  5
25
330
5
100
AcDbSymbolTableRecord
100
AcDbLinetypeTableRecord
  2
CENTER
 70
     0
  3
____ _ ____ _ ____ _ ____ _ ____ _ ____ _ ____
 72
    65
 73
     4
 40
2.0
 49
1.25
 74
     0
 49
-0.25
 74
     0
 49
0.25
 74
     0
 49
-0.25
 74
     0
  0
LTYPE
  5
26
330
5
100
AcDbSymbolTableRecord
100
AcDbLinetypeTableRecord
  2
CENTER2
 70
     0
  3
____ _ ____ _ ____ _ ____ _ ____ _ ____ _ ____
 72
    65
 73
     4
 40
1.125
 49
0.75
 74
     0
 49
-0.125
 74
     0
 49
0.125
 74
     0
 49
-0.125
 74
     0
  0
LTYPE
  5
27
330
5
100
AcDbSymbolTableRecord
100
AcDbLinetypeTableRecord
  2
CENTERX2
 70
     0
  3
________  __  ________  __  ________  __  
 72
    65
 73
     4
 40
4.0
 49
2.5
 74
     0
 49
-0.5
 74
     0
 49
0.5
 74
     0
 49
-0.5
 74
     0
  0
LTYPE
  5
28
330
5
100
AcDbSymbolTableRecord
100
AcDbLinetypeTableRecord
  2
DASHDOT
 70
     0
  3
__ . __ . __ . __ . __ . __ . __ . 
 72
    65
 73
     4
 40
1.0
 49
0.5
 74
     0
 49
-0.25
 74
     0
 49
0.0
 74
     0
 49
-0.25
 74
     0
  0
LTYPE
  5
29
330
5
100
AcDbSymbolTableRecord
100
AcDbLinetypeTableRecord
  2
DASHDOT2
 70
     0
  3
_._._._._._._._._._._._._._._._.
 72
    65
 73
     4
 40
0.5
 49
0.25
 74
     0
 49
-0.125
 74
     0
 49
0.0
 74
     0
 49
-0.125
 74
     0
  0
LTYPE
  5
2A
330
5
100
AcDbSymbolTableRecord
100
AcDbLinetypeTableRecord
  2
DASHDOTX2
 70
     0
  3
____  .  ____  .  ____  .  ____  .  
 72
    65
 73
     4
 40
2.0
 49
1.0
 74
     0
 49
-0.5
 74
     0
 49
0.0
 74
     0
 49
-0.5
 74
     0
  0
LTYPE
  5
2B
330
5
100
AcDbSymbolTableRecord
100
AcDbLinetypeTableRecord
  2
DASHED
 70
     0
  3
__ __ __ __ __ __ __ __ __ __ __ __ 
 72
    65
 73
     2
 40
0.75
 49
0.5
 74
     0
 49
-0.25
 74
     0
  0
LTYPE
  5
2C
330
5
100
AcDbSymbolTableRecord
100
AcDbLinetypeTableRecord
  2
DASHED2
 70
     0
  3
_ _ _ _ _ _ _ _ _ _ _ _ _ _ _ _ _ _ 
 72
    65
 73
     2
 40
0.375
 49
0.25
 74
     0
 49
-0.125
 74
     0
  0
LTYPE
  5
2D
330
5
100
AcDbSymbolTableRecord
100
AcDbLinetypeTableRecord
  2
DASHEDX2
 70
     0
  3
____  ____  ____  ____  ____  ____  
 72
    65
 73
     2
 40
1.5
 49
1.0
 74
     0
 49
-0.5
 74
     0
  0
LTYPE
  5
2E
330
5
100
AcDbSymbolTableRecord
100
AcDbLinetypeTableRecord
  2
DIVIDE
 70
     0
  3
____ . . ____ . . ____ . . ____ . . 
 72
    65
 73
     6
 40
1.25
 49
0.5
 74
     0
 49
-0.25
 74
     0
 49
0.0
 74
     0
 49
-0.25
 74
     0
 49
0.0
 74
     0
 49
-0.25
 74
     0
  0
LTYPE
  5
2F
330
5
100
AcDbSymbolTableRecord
100
AcDbLinetypeTableRecord
  2
DIVIDE2
 70
     0
  3
__..__..__..__..__..__..__..__..__..
 72
    65
 73
     6
 40
0.625
 49
0.25
 74
     0
 49
-0.125
 74
     0
 49
0.0
 74
     0
 49
-0.125
 74
     0
 49
0.0
 74
     0
 49
-0.125
 74
     0
  0
LTYPE
  5
30
330
5
100
AcDbSymbolTableRecord
100
AcDbLinetypeTableRecord
  2
DIVIDEX2
 70
     0
  3
________  .  .  ________  .  .  ________  .  . 
 72
    65
 73
     6
 40
2.5
 49
1.0
 74
     0
 49
-0.5
 74
     0
 49
0.0
 74
     0
 49
-0.5
 74
     0
 49
0.0
 74
     0
 49
-0.5
 74
     0
  0
LTYPE
  5
31
330
5
100
AcDbSymbolTableRecord
100
AcDbLinetypeTableRecord
  2
DOT
 70
     0
  3
. . . . . . . . . . . . . . . . . . 
 72
    65
 73
     2
 40
0.25
 49
0.0
 74
     0
 49
-0.25
 74
     0
  0
LTYPE
  5
32
330
5
100
AcDbSymbolTableRecord
100
AcDbLinetypeTableRecord
  2
DOT2
 70
     0
  3
....................................
 72
    65
 73
     2
 40
0.125
 49
0.0
 74
     0
 49
-0.125
 74
     0
  0
LTYPE
  5
33
330
5
100
AcDbSymbolTableRecord
100
AcDbLinetypeTableRecord
  2
DOTX2
 70
     0
  3
.  .  .  .  .  .  .  .  .  .  .  .  .  
 72
    65
 73
     2
 40
0.5
 49
0.0
 74
     0
 49
-0.5
 74
     0
  0
LTYPE
  5
34
330
5
100
AcDbSymbolTableRecord
100
AcDbLinetypeTableRecord
  2
HIDDEN
 70
     0
  3
__ __ __ __ __ __ __ __ __ __ __ __ 
 72
    65
 73
     2
 40
0.375
 49
0.25
 74
     0
 49
-0.125
 74
     0
  0
LTYPE
  5
35
330
5
100
AcDbSymbolTableRecord
100
AcDbLinetypeTableRecord
  2
HIDDEN2
 70
     0
  3
_ _ _ _ _ _ _ _ _ _ _ _ _ _ _ _ _ _ 
 72
    65
 73
     2
 40
0.1875
 49
0.125
 74
     0
 49
-0.0625
 74
     0
  0
LTYPE
  5
36
330
5
100
AcDbSymbolTableRecord
100
AcDbLinetypeTableRecord
  2
HIDDENX2
 70
     0
  3
____ ____ ____ ____ ____ ____ ____ 
 72
    65
 73
     2
 40
0.75
 49
0.5
 74
     0
 49
-0.25
 74
     0
  0
LTYPE
  5
37
330
5
100
AcDbSymbolTableRecord
100
AcDbLinetypeTableRecord
  2
PHANTOM
 70
     0
  3
______  __  __  ______  __  __  
 72
    65
 73
     6
 40
2.5
 49
1.25
 74
     0
 49
-0.25
 74
     0
 49
0.25
 74
     0
 49
-0.25
 74
     0
 49
0.25
 74
     0
 49
-0.25
 74
     0
  0
LTYPE
  5
38
330
5
100
AcDbSymbolTableRecord
100
AcDbLinetypeTableRecord
  2
PHANTOM2
 70
     0
  3
___ _ _ ___ _ _ ___ _ _ ___ _ _ 
 72
    65
 73
     6
 40
1.25
 49
0.625
 74
     0
 49
-0.125
 74
     0
 49
0.125
 74
     0
 49
-0.125
 74
     0
 49
0.125
 74
     0
 49
-0.125
 74
     0
  0
LTYPE
  5
39
330
5
100
AcDbSymbolTableRecord
100
AcDbLinetypeTableRecord
  2
PHANTOMX2
 70
     0
  3
___ _ _ ___ _ _ ___ _ _ ___ _ _ 
 72
    65
 73
     6
 40
5.0
 49
2.5
 74
     0
 49
-0.5
 74
     0
 49
0.5
 74
     0
 49
-0.5
 74
     0
 49
0.5
 74
     0
 49
-0.5
 74
     0
  0
ENDTAB
  0
TABLE
  2
LAYER
  5
2
330
0
100
AcDbSymbolTable
 70
   256
  0
LAYER
  5
10
330
2
100
AcDbSymbolTableRecord
100
AcDbLayerTableRecord
  2
0
 70
     0
 62
     7
  6
CONTINUOUS
  0
LAYER
  5
3A
330
2
100
AcDbSymbolTableRecord
100
AcDbLayerTableRecord
  2
1
 70
     0
 62
     1
  6
CONTINUOUS
  0
LAYER
  5
3B
330
2
100
AcDbSymbolTableRecord
100
AcDbLayerTableRecord
  2
2
 70
     0
 62
     2
  6
CONTINUOUS
  0
LAYER
  5
3C
330
2
100
AcDbSymbolTableRecord
100
AcDbLayerTableRecord
  2
3
 70
     0
 62
     3
  6
CONTINUOUS
  0
LAYER
  5
3D
330
2
100
AcDbSymbolTableRecord
100
AcDbLayerTableRecord
  2
4
 70
     0
 62
     4
  6
CONTINUOUS
  0
LAYER
  5
3E
330
2
100
AcDbSymbolTableRecord
100
AcDbLayerTableRecord
  2
5
 70
     0
 62
     5
  6
CONTINUOUS
  0
LAYER
  5
3F
330
2
100
AcDbSymbolTableRecord
100
AcDbLayerTableRecord
  2
6
 70
     0
 62
     6
  6
CONTINUOUS
  0
LAYER
  5
40
330
2
100
AcDbSymbolTableRecord
100
AcDbLayerTableRecord
  2
7
 70
     0
 62
     7
  6
CONTINUOUS
  0
LAYER
  5
41
330
2
100
AcDbSymbolTableRecord
100
AcDbLayerTableRecord
  2
8
 70
     0
 62
     8
  6
CONTINUOUS
  0
LAYER
  5
42
330
2
100
AcDbSymbolTableRecord
100
AcDbLayerTableRecord
  2
9
 70
     0
 62
     9
  6
CONTINUOUS
  0
LAYER
  5
43
330
2
100
AcDbSymbolTableRecord
100
AcDbLayerTableRecord
  2
10
 70
     0
 62
    10
  6
CONTINUOUS
  0
LAYER
  5
44
330
2
100
AcDbSymbolTableRecord
100
AcDbLayerTableRecord
  2
11
 70
     0
 62
    11
  6
CONTINUOUS
  0
LAYER
  5
45
330
2
100
AcDbSymbolTableRecord
100
AcDbLayerTableRecord
  2
12
 70
     0
 62
    12
  6
CONTINUOUS
  0
LAYER
  5
46
330
2
100
AcDbSymbolTableRecord
100
AcDbLayerTableRecord
  2
13
 70
     0
 62
    13
  6
CONTINUOUS
  0
LAYER
  5
47
330
2
100
AcDbSymbolTableRecord
100
AcDbLayerTableRecord
  2
14
 70
     0
 62
    14
  6
CONTINUOUS
  0
LAYER
  5
48
330
2
100
AcDbSymbolTableRecord
100
AcDbLayerTableRecord
  2
15
 70
     0
 62
    15
  6
CONTINUOUS
  0
LAYER
  5
49
330
2
100
AcDbSymbolTableRecord
100
AcDbLayerTableRecord
  2
16
 70
     0
 62
    16
  6
CONTINUOUS
  0
LAYER
  5
4A
330
2
100
AcDbSymbolTableRecord
100
AcDbLayerTableRecord
  2
17
 70
     0
 62
    17
  6
CONTINUOUS
  0
LAYER
  5
4B
330
2
100
AcDbSymbolTableRecord
100
AcDbLayerTableRecord
  2
18
 70
     0
 62
    18
  6
CONTINUOUS
  0
LAYER
  5
4C
330
2
100
AcDbSymbolTableRecord
100
AcDbLayerTableRecord
  2
19
 70
     0
 62
    19
  6
CONTINUOUS
  0
LAYER
  5
4D
330
2
100
AcDbSymbolTableRecord
100
AcDbLayerTableRecord
  2
20
 70
     0
 62
    20
  6
CONTINUOUS
  0
LAYER
  5
4E
330
2
100
AcDbSymbolTableRecord
100
AcDbLayerTableRecord
  2
21
 70
     0
 62
    21
  6
CONTINUOUS
  0
LAYER
  5
4F
330
2
100
AcDbSymbolTableRecord
100
AcDbLayerTableRecord
  2
22
 70
     0
 62
    22
  6
CONTINUOUS
  0
LAYER
  5
50
330
2
100
AcDbSymbolTableRecord
100
AcDbLayerTableRecord
  2
23
 70
     0
 62
    23
  6
CONTINUOUS
  0
LAYER
  5
51
330
2
100
AcDbSymbolTableRecord
100
AcDbLayerTableRecord
  2
24
 70
     0
 62
    24
  6
CONTINUOUS
  0
LAYER
  5
52
330
2
100
AcDbSymbolTableRecord
100
AcDbLayerTableRecord
  2
25
 70
     0
 62
    25
  6
CONTINUOUS
  0
LAYER
  5
53
330
2
100
AcDbSymbolTableRecord
100
AcDbLayerTableRecord
  2
26
 70
     0
 62
    26
  6
CONTINUOUS
  0
LAYER
  5
54
330
2
100
AcDbSymbolTableRecord
100
AcDbLayerTableRecord
  2
27
 70
     0
 62
    27
  6
CONTINUOUS
  0
LAYER
  5
55
330
2
100
AcDbSymbolTableRecord
100
AcDbLayerTableRecord
  2
28
 70
     0
 62
    28
  6
CONTINUOUS
  0
LAYER
  5
56
330
2
100
AcDbSymbolTableRecord
100
AcDbLayerTableRecord
  2
29
 70
     0
 62
    29
  6
CONTINUOUS
  0
LAYER
  5
57
330
2
100
AcDbSymbolTableRecord
100
AcDbLayerTableRecord
  2
30
 70
     0
 62
    30
  6
CONTINUOUS
  0
LAYER
  5
58
330
2
100
AcDbSymbolTableRecord
100
AcDbLayerTableRecord
  2
31
 70
     0
 62
    31
  6
CONTINUOUS
  0
LAYER
  5
59
330
2
100
AcDbSymbolTableRecord
100
AcDbLayerTableRecord
  2
32
 70
     0
 62
    32
  6
CONTINUOUS
  0
LAYER
  5
5A
330
2
100
AcDbSymbolTableRecord
100
AcDbLayerTableRecord
  2
33
 70
     0
 62
    33
  6
CONTINUOUS
  0
LAYER
  5
5B
330
2
100
AcDbSymbolTableRecord
100
AcDbLayerTableRecord
  2
34
 70
     0
 62
    34
  6
CONTINUOUS
  0
LAYER
  5
5C
330
2
100
AcDbSymbolTableRecord
100
AcDbLayerTableRecord
  2
35
 70
     0
 62
    35
  6
CONTINUOUS
  0
LAYER
  5
5D
330
2
100
AcDbSymbolTableRecord
100
AcDbLayerTableRecord
  2
36
 70
     0
 62
    36
  6
CONTINUOUS
  0
LAYER
  5
5E
330
2
100
AcDbSymbolTableRecord
100
AcDbLayerTableRecord
  2
37
 70
     0
 62
    37
  6
CONTINUOUS
  0
LAYER
  5
5F
330
2
100
AcDbSymbolTableRecord
100
AcDbLayerTableRecord
  2
38
 70
     0
 62
    38
  6
CONTINUOUS
  0
LAYER
  5
60
330
2
100
AcDbSymbolTableRecord
100
AcDbLayerTableRecord
  2
39
 70
     0
 62
    39
  6
CONTINUOUS
  0
LAYER
  5
61
330
2
100
AcDbSymbolTableRecord
100
AcDbLayerTableRecord
  2
40
 70
     0
 62
    40
  6
CONTINUOUS
  0
LAYER
  5
62
330
2
100
AcDbSymbolTableRecord
100
AcDbLayerTableRecord
  2
41
 70
     0
 62
    41
  6
CONTINUOUS
  0
LAYER
  5
63
330
2
100
AcDbSymbolTableRecord
100
AcDbLayerTableRecord
  2
42
 70
     0
 62
    42
  6
CONTINUOUS
  0
LAYER
  5
64
330
2
100
AcDbSymbolTableRecord
100
AcDbLayerTableRecord
  2
43
 70
     0
 62
    43
  6
CONTINUOUS
  0
LAYER
  5
65
330
2
100
AcDbSymbolTableRecord
100
AcDbLayerTableRecord
  2
44
 70
     0
 62
    44
  6
CONTINUOUS
  0
LAYER
  5
66
330
2
100
AcDbSymbolTableRecord
100
AcDbLayerTableRecord
  2
45
 70
     0
 62
    45
  6
CONTINUOUS
  0
LAYER
  5
67
330
2
100
AcDbSymbolTableRecord
100
AcDbLayerTableRecord
  2
46
 70
     0
 62
    46
  6
CONTINUOUS
  0
LAYER
  5
68
330
2
100
AcDbSymbolTableRecord
100
AcDbLayerTableRecord
  2
47
 70
     0
 62
    47
  6
CONTINUOUS
  0
LAYER
  5
69
330
2
100
AcDbSymbolTableRecord
100
AcDbLayerTableRecord
  2
48
 70
     0
 62
    48
  6
CONTINUOUS
  0
LAYER
  5
6A
330
2
100
AcDbSymbolTableRecord
100
AcDbLayerTableRecord
  2
49
 70
     0
 62
    49
  6
CONTINUOUS
  0
LAYER
  5
6B
330
2
100
AcDbSymbolTableRecord
100
AcDbLayerTableRecord
  2
50
 70
     0
 62
    50
  6
CONTINUOUS
  0
LAYER
  5
6C
330
2
100
AcDbSymbolTableRecord
100
AcDbLayerTableRecord
  2
51
 70
     0
 62
    51
  6
CONTINUOUS
  0
LAYER
  5
6D
330
2
100
AcDbSymbolTableRecord
100
AcDbLayerTableRecord
  2
52
 70
     0
 62
    52
  6
CONTINUOUS
  0
LAYER
  5
6E
330
2
100
AcDbSymbolTableRecord
100
AcDbLayerTableRecord
  2
53
 70
     0
 62
    53
  6
CONTINUOUS
  0
LAYER
  5
6F
330
2
100
AcDbSymbolTableRecord
100
AcDbLayerTableRecord
  2
54
 70
     0
 62
    54
  6
CONTINUOUS
  0
LAYER
  5
70
330
2
100
AcDbSymbolTableRecord
100
AcDbLayerTableRecord
  2
55
 70
     0
 62
    55
  6
CONTINUOUS
  0
LAYER
  5
71
330
2
100
AcDbSymbolTableRecord
100
AcDbLayerTableRecord
  2
56
 70
     0
 62
    56
  6
CONTINUOUS
  0
LAYER
  5
72
330
2
100
AcDbSymbolTableRecord
100
AcDbLayerTableRecord
  2
57
 70
     0
 62
    57
  6
CONTINUOUS
  0
LAYER
  5
73
330
2
100
AcDbSymbolTableRecord
100
AcDbLayerTableRecord
  2
58
 70
     0
 62
    58
  6
CONTINUOUS
  0
LAYER
  5
74
330
2
100
AcDbSymbolTableRecord
100
AcDbLayerTableRecord
  2
59
 70
     0
 62
    59
  6
CONTINUOUS
  0
LAYER
  5
75
330
2
100
AcDbSymbolTableRecord
100
AcDbLayerTableRecord
  2
60
 70
     0
 62
    60
  6
CONTINUOUS
  0
LAYER
  5
76
330
2
100
AcDbSymbolTableRecord
100
AcDbLayerTableRecord
  2
61
 70
     0
 62
    61
  6
CONTINUOUS
  0
LAYER
  5
77
330
2
100
AcDbSymbolTableRecord
100
AcDbLayerTableRecord
  2
62
 70
     0
 62
    62
  6
CONTINUOUS
  0
LAYER
  5
78
330
2
100
AcDbSymbolTableRecord
100
AcDbLayerTableRecord
  2
63
 70
     0
 62
    63
  6
CONTINUOUS
  0
LAYER
  5
79
330
2
100
AcDbSymbolTableRecord
100
AcDbLayerTableRecord
  2
64
 70
     0
 62
    64
  6
CONTINUOUS
  0
LAYER
  5
7A
330
2
100
AcDbSymbolTableRecord
100
AcDbLayerTableRecord
  2
65
 70
     0
 62
    65
  6
CONTINUOUS
  0
LAYER
  5
7B
330
2
100
AcDbSymbolTableRecord
100
AcDbLayerTableRecord
  2
66
 70
     0
 62
    66
  6
CONTINUOUS
  0
LAYER
  5
7C
330
2
100
AcDbSymbolTableRecord
100
AcDbLayerTableRecord
  2
67
 70
     0
 62
    67
  6
CONTINUOUS
  0
LAYER
  5
7D
330
2
100
AcDbSymbolTableRecord
100
AcDbLayerTableRecord
  2
68
 70
     0
 62
    68
  6
CONTINUOUS
  0
LAYER
  5
7E
330
2
100
AcDbSymbolTableRecord
100
AcDbLayerTableRecord
  2
69
 70
     0
 62
    69
  6
CONTINUOUS
  0
LAYER
  5
7F
330
2
100
AcDbSymbolTableRecord
100
AcDbLayerTableRecord
  2
70
 70
     0
 62
    70
  6
CONTINUOUS
  0
LAYER
  5
80
330
2
100
AcDbSymbolTableRecord
100
AcDbLayerTableRecord
  2
71
 70
     0
 62
    71
  6
CONTINUOUS
  0
LAYER
  5
81
330
2
100
AcDbSymbolTableRecord
100
AcDbLayerTableRecord
  2
72
 70
     0
 62
    72
  6
CONTINUOUS
  0
LAYER
  5
82
330
2
100
AcDbSymbolTableRecord
100
AcDbLayerTableRecord
  2
73
 70
     0
 62
    73
  6
CONTINUOUS
  0
LAYER
  5
83
330
2
100
AcDbSymbolTableRecord
100
AcDbLayerTableRecord
  2
74
 70
     0
 62
    74
  6
CONTINUOUS
  0
LAYER
  5
84
330
2
100
AcDbSymbolTableRecord
100
AcDbLayerTableRecord
  2
75
 70
     0
 62
    75
  6
CONTINUOUS
  0
LAYER
  5
85
330
2
100
AcDbSymbolTableRecord
100
AcDbLayerTableRecord
  2
76
 70
     0
 62
    76
  6
CONTINUOUS
  0
LAYER
  5
86
330
2
100
AcDbSymbolTableRecord
100
AcDbLayerTableRecord
  2
77
 70
     0
 62
    77
  6
CONTINUOUS
  0
LAYER
  5
87
330
2
100
AcDbSymbolTableRecord
100
AcDbLayerTableRecord
  2
78
 70
     0
 62
    78
  6
CONTINUOUS
  0
LAYER
  5
88
330
2
100
AcDbSymbolTableRecord
100
AcDbLayerTableRecord
  2
79
 70
     0
 62
    79
  6
CONTINUOUS
  0
LAYER
  5
89
330
2
100
AcDbSymbolTableRecord
100
AcDbLayerTableRecord
  2
80
 70
     0
 62
    80
  6
CONTINUOUS
  0
LAYER
  5
8A
330
2
100
AcDbSymbolTableRecord
100
AcDbLayerTableRecord
  2
81
 70
     0
 62
    81
  6
CONTINUOUS
  0
LAYER
  5
8B
330
2
100
AcDbSymbolTableRecord
100
AcDbLayerTableRecord
  2
82
 70
     0
 62
    82
  6
CONTINUOUS
  0
LAYER
  5
8C
330
2
100
AcDbSymbolTableRecord
100
AcDbLayerTableRecord
  2
83
 70
     0
 62
    83
  6
CONTINUOUS
  0
LAYER
  5
8D
330
2
100
AcDbSymbolTableRecord
100
AcDbLayerTableRecord
  2
84
 70
     0
 62
    84
  6
CONTINUOUS
  0
LAYER
  5
8E
330
2
100
AcDbSymbolTableRecord
100
AcDbLayerTableRecord
  2
85
 70
     0
 62
    85
  6
CONTINUOUS
  0
LAYER
  5
8F
330
2
100
AcDbSymbolTableRecord
100
AcDbLayerTableRecord
  2
86
 70
     0
 62
    86
  6
CONTINUOUS
  0
LAYER
  5
90
330
2
100
AcDbSymbolTableRecord
100
AcDbLayerTableRecord
  2
87
 70
     0
 62
    87
  6
CONTINUOUS
  0
LAYER
  5
91
330
2
100
AcDbSymbolTableRecord
100
AcDbLayerTableRecord
  2
88
 70
     0
 62
    88
  6
CONTINUOUS
  0
LAYER
  5
92
330
2
100
AcDbSymbolTableRecord
100
AcDbLayerTableRecord
  2
89
 70
     0
 62
    89
  6
CONTINUOUS
  0
LAYER
  5
93
330
2
100
AcDbSymbolTableRecord
100
AcDbLayerTableRecord
  2
90
 70
     0
 62
    90
  6
CONTINUOUS
  0
LAYER
  5
94
330
2
100
AcDbSymbolTableRecord
100
AcDbLayerTableRecord
  2
91
 70
     0
 62
    91
  6
CONTINUOUS
  0
LAYER
  5
95
330
2
100
AcDbSymbolTableRecord
100
AcDbLayerTableRecord
  2
92
 70
     0
 62
    92
  6
CONTINUOUS
  0
LAYER
  5
96
330
2
100
AcDbSymbolTableRecord
100
AcDbLayerTableRecord
  2
93
 70
     0
 62
    93
  6
CONTINUOUS
  0
LAYER
  5
97
330
2
100
AcDbSymbolTableRecord
100
AcDbLayerTableRecord
  2
94
 70
     0
 62
    94
  6
CONTINUOUS
  0
LAYER
  5
98
330
2
100
AcDbSymbolTableRecord
100
AcDbLayerTableRecord
  2
95
 70
     0
 62
    95
  6
CONTINUOUS
  0
LAYER
  5
99
330
2
100
AcDbSymbolTableRecord
100
AcDbLayerTableRecord
  2
96
 70
     0
 62
    96
  6
CONTINUOUS
  0
LAYER
  5
9A
330
2
100
AcDbSymbolTableRecord
100
AcDbLayerTableRecord
  2
97
 70
     0
 62
    97
  6
CONTINUOUS
  0
LAYER
  5
9B
330
2
100
AcDbSymbolTableRecord
100
AcDbLayerTableRecord
  2
98
 70
     0
 62
    98
  6
CONTINUOUS
  0
LAYER
  5
9C
330
2
100
AcDbSymbolTableRecord
100
AcDbLayerTableRecord
  2
99
 70
     0
 62
    99
  6
CONTINUOUS
  0
LAYER
  5
9D
330
2
100
AcDbSymbolTableRecord
100
AcDbLayerTableRecord
  2
100
 70
     0
 62
   100
  6
CONTINUOUS
  0
LAYER
  5
9E
330
2
100
AcDbSymbolTableRecord
100
AcDbLayerTableRecord
  2
101
 70
     0
 62
   101
  6
CONTINUOUS
  0
LAYER
  5
9F
330
2
100
AcDbSymbolTableRecord
100
AcDbLayerTableRecord
  2
102
 70
     0
 62
   102
  6
CONTINUOUS
  0
LAYER
  5
A0
330
2
100
AcDbSymbolTableRecord
100
AcDbLayerTableRecord
  2
103
 70
     0
 62
   103
  6
CONTINUOUS
  0
LAYER
  5
A1
330
2
100
AcDbSymbolTableRecord
100
AcDbLayerTableRecord
  2
104
 70
     0
 62
   104
  6
CONTINUOUS
  0
LAYER
  5
A2
330
2
100
AcDbSymbolTableRecord
100
AcDbLayerTableRecord
  2
105
 70
     0
 62
   105
  6
CONTINUOUS
  0
LAYER
  5
A3
330
2
100
AcDbSymbolTableRecord
100
AcDbLayerTableRecord
  2
106
 70
     0
 62
   106
  6
CONTINUOUS
  0
LAYER
  5
A4
330
2
100
AcDbSymbolTableRecord
100
AcDbLayerTableRecord
  2
107
 70
     0
 62
   107
  6
CONTINUOUS
  0
LAYER
  5
A5
330
2
100
AcDbSymbolTableRecord
100
AcDbLayerTableRecord
  2
108
 70
     0
 62
   108
  6
CONTINUOUS
  0
LAYER
  5
A6
330
2
100
AcDbSymbolTableRecord
100
AcDbLayerTableRecord
  2
109
 70
     0
 62
   109
  6
CONTINUOUS
  0
LAYER
  5
A7
330
2
100
AcDbSymbolTableRecord
100
AcDbLayerTableRecord
  2
110
 70
     0
 62
   110
  6
CONTINUOUS
  0
LAYER
  5
A8
330
2
100
AcDbSymbolTableRecord
100
AcDbLayerTableRecord
  2
111
 70
     0
 62
   111
  6
CONTINUOUS
  0
LAYER
  5
A9
330
2
100
AcDbSymbolTableRecord
100
AcDbLayerTableRecord
  2
112
 70
     0
 62
   112
  6
CONTINUOUS
  0
LAYER
  5
AA
330
2
100
AcDbSymbolTableRecord
100
AcDbLayerTableRecord
  2
113
 70
     0
 62
   113
  6
CONTINUOUS
  0
LAYER
  5
AB
330
2
100
AcDbSymbolTableRecord
100
AcDbLayerTableRecord
  2
114
 70
     0
 62
   114
  6
CONTINUOUS
  0
LAYER
  5
AC
330
2
100
AcDbSymbolTableRecord
100
AcDbLayerTableRecord
  2
115
 70
     0
 62
   115
  6
CONTINUOUS
  0
LAYER
  5
AD
330
2
100
AcDbSymbolTableRecord
100
AcDbLayerTableRecord
  2
116
 70
     0
 62
   116
  6
CONTINUOUS
  0
LAYER
  5
AE
330
2
100
AcDbSymbolTableRecord
100
AcDbLayerTableRecord
  2
117
 70
     0
 62
   117
  6
CONTINUOUS
  0
LAYER
  5
AF
330
2
100
AcDbSymbolTableRecord
100
AcDbLayerTableRecord
  2
118
 70
     0
 62
   118
  6
CONTINUOUS
  0
LAYER
  5
B0
330
2
100
AcDbSymbolTableRecord
100
AcDbLayerTableRecord
  2
119
 70
     0
 62
   119
  6
CONTINUOUS
  0
LAYER
  5
B1
330
2
100
AcDbSymbolTableRecord
100
AcDbLayerTableRecord
  2
120
 70
     0
 62
   120
  6
CONTINUOUS
  0
LAYER
  5
B2
330
2
100
AcDbSymbolTableRecord
100
AcDbLayerTableRecord
  2
121
 70
     0
 62
   121
  6
CONTINUOUS
  0
LAYER
  5
B3
330
2
100
AcDbSymbolTableRecord
100
AcDbLayerTableRecord
  2
122
 70
     0
 62
   122
  6
CONTINUOUS
  0
LAYER
  5
B4
330
2
100
AcDbSymbolTableRecord
100
AcDbLayerTableRecord
  2
123
 70
     0
 62
   123
  6
CONTINUOUS
  0
LAYER
  5
B5
330
2
100
AcDbSymbolTableRecord
100
AcDbLayerTableRecord
  2
124
 70
     0
 62
   124
  6
CONTINUOUS
  0
LAYER
  5
B6
330
2
100
AcDbSymbolTableRecord
100
AcDbLayerTableRecord
  2
125
 70
     0
 62
   125
  6
CONTINUOUS
  0
LAYER
  5
B7
330
2
100
AcDbSymbolTableRecord
100
AcDbLayerTableRecord
  2
126
 70
     0
 62
   126
  6
CONTINUOUS
  0
LAYER
  5
B8
330
2
100
AcDbSymbolTableRecord
100
AcDbLayerTableRecord
  2
127
 70
     0
 62
   127
  6
CONTINUOUS
  0
LAYER
  5
B9
330
2
100
AcDbSymbolTableRecord
100
AcDbLayerTableRecord
  2
128
 70
     0
 62
   128
  6
CONTINUOUS
  0
LAYER
  5
BA
330
2
100
AcDbSymbolTableRecord
100
AcDbLayerTableRecord
  2
129
 70
     0
 62
   129
  6
CONTINUOUS
  0
LAYER
  5
BB
330
2
100
AcDbSymbolTableRecord
100
AcDbLayerTableRecord
  2
130
 70
     0
 62
   130
  6
CONTINUOUS
  0
LAYER
  5
BC
330
2
100
AcDbSymbolTableRecord
100
AcDbLayerTableRecord
  2
131
 70
     0
 62
   131
  6
CONTINUOUS
  0
LAYER
  5
BD
330
2
100
AcDbSymbolTableRecord
100
AcDbLayerTableRecord
  2
132
 70
     0
 62
   132
  6
CONTINUOUS
  0
LAYER
  5
BE
330
2
100
AcDbSymbolTableRecord
100
AcDbLayerTableRecord
  2
133
 70
     0
 62
   133
  6
CONTINUOUS
  0
LAYER
  5
BF
330
2
100
AcDbSymbolTableRecord
100
AcDbLayerTableRecord
  2
134
 70
     0
 62
   134
  6
CONTINUOUS
  0
LAYER
  5
C0
330
2
100
AcDbSymbolTableRecord
100
AcDbLayerTableRecord
  2
135
 70
     0
 62
   135
  6
CONTINUOUS
  0
LAYER
  5
C1
330
2
100
AcDbSymbolTableRecord
100
AcDbLayerTableRecord
  2
136
 70
     0
 62
   136
  6
CONTINUOUS
  0
LAYER
  5
C2
330
2
100
AcDbSymbolTableRecord
100
AcDbLayerTableRecord
  2
137
 70
     0
 62
   137
  6
CONTINUOUS
  0
LAYER
  5
C3
330
2
100
AcDbSymbolTableRecord
100
AcDbLayerTableRecord
  2
138
 70
     0
 62
   138
  6
CONTINUOUS
  0
LAYER
  5
C4
330
2
100
AcDbSymbolTableRecord
100
AcDbLayerTableRecord
  2
139
 70
     0
 62
   139
  6
CONTINUOUS
  0
LAYER
  5
C5
330
2
100
AcDbSymbolTableRecord
100
AcDbLayerTableRecord
  2
140
 70
     0
 62
   140
  6
CONTINUOUS
  0
LAYER
  5
C6
330
2
100
AcDbSymbolTableRecord
100
AcDbLayerTableRecord
  2
141
 70
     0
 62
   141
  6
CONTINUOUS
  0
LAYER
  5
C7
330
2
100
AcDbSymbolTableRecord
100
AcDbLayerTableRecord
  2
142
 70
     0
 62
   142
  6
CONTINUOUS
  0
LAYER
  5
C8
330
2
100
AcDbSymbolTableRecord
100
AcDbLayerTableRecord
  2
143
 70
     0
 62
   143
  6
CONTINUOUS
  0
LAYER
  5
C9
330
2
100
AcDbSymbolTableRecord
100
AcDbLayerTableRecord
  2
144
 70
     0
 62
   144
  6
CONTINUOUS
  0
LAYER
  5
CA
330
2
100
AcDbSymbolTableRecord
100
AcDbLayerTableRecord
  2
145
 70
     0
 62
   145
  6
CONTINUOUS
  0
LAYER
  5
CB
330
2
100
AcDbSymbolTableRecord
100
AcDbLayerTableRecord
  2
146
 70
     0
 62
   146
  6
CONTINUOUS
  0
LAYER
  5
CC
330
2
100
AcDbSymbolTableRecord
100
AcDbLayerTableRecord
  2
147
 70
     0
 62
   147
  6
CONTINUOUS
  0
LAYER
  5
CD
330
2
100
AcDbSymbolTableRecord
100
AcDbLayerTableRecord
  2
148
 70
     0
 62
   148
  6
CONTINUOUS
  0
LAYER
  5
CE
330
2
100
AcDbSymbolTableRecord
100
AcDbLayerTableRecord
  2
149
 70
     0
 62
   149
  6
CONTINUOUS
  0
LAYER
  5
CF
330
2
100
AcDbSymbolTableRecord
100
AcDbLayerTableRecord
  2
150
 70
     0
 62
   150
  6
CONTINUOUS
  0
LAYER
  5
D0
330
2
100
AcDbSymbolTableRecord
100
AcDbLayerTableRecord
  2
151
 70
     0
 62
   151
  6
CONTINUOUS
  0
LAYER
  5
D1
330
2
100
AcDbSymbolTableRecord
100
AcDbLayerTableRecord
  2
152
 70
     0
 62
   152
  6
CONTINUOUS
  0
LAYER
  5
D2
330
2
100
AcDbSymbolTableRecord
100
AcDbLayerTableRecord
  2
153
 70
     0
 62
   153
  6
CONTINUOUS
  0
LAYER
  5
D3
330
2
100
AcDbSymbolTableRecord
100
AcDbLayerTableRecord
  2
154
 70
     0
 62
   154
  6
CONTINUOUS
  0
LAYER
  5
D4
330
2
100
AcDbSymbolTableRecord
100
AcDbLayerTableRecord
  2
155
 70
     0
 62
   155
  6
CONTINUOUS
  0
LAYER
  5
D5
330
2
100
AcDbSymbolTableRecord
100
AcDbLayerTableRecord
  2
156
 70
     0
 62
   156
  6
CONTINUOUS
  0
LAYER
  5
D6
330
2
100
AcDbSymbolTableRecord
100
AcDbLayerTableRecord
  2
157
 70
     0
 62
   157
  6
CONTINUOUS
  0
LAYER
  5
D7
330
2
100
AcDbSymbolTableRecord
100
AcDbLayerTableRecord
  2
158
 70
     0
 62
   158
  6
CONTINUOUS
  0
LAYER
  5
D8
330
2
100
AcDbSymbolTableRecord
100
AcDbLayerTableRecord
  2
159
 70
     0
 62
   159
  6
CONTINUOUS
  0
LAYER
  5
D9
330
2
100
AcDbSymbolTableRecord
100
AcDbLayerTableRecord
  2
160
 70
     0
 62
   160
  6
CONTINUOUS
  0
LAYER
  5
DA
330
2
100
AcDbSymbolTableRecord
100
AcDbLayerTableRecord
  2
161
 70
     0
 62
   161
  6
CONTINUOUS
  0
LAYER
  5
DB
330
2
100
AcDbSymbolTableRecord
100
AcDbLayerTableRecord
  2
162
 70
     0
 62
   162
  6
CONTINUOUS
  0
LAYER
  5
DC
330
2
100
AcDbSymbolTableRecord
100
AcDbLayerTableRecord
  2
163
 70
     0
 62
   163
  6
CONTINUOUS
  0
LAYER
  5
DD
330
2
100
AcDbSymbolTableRecord
100
AcDbLayerTableRecord
  2
164
 70
     0
 62
   164
  6
CONTINUOUS
  0
LAYER
  5
DE
330
2
100
AcDbSymbolTableRecord
100
AcDbLayerTableRecord
  2
165
 70
     0
 62
   165
  6
CONTINUOUS
  0
LAYER
  5
DF
330
2
100
AcDbSymbolTableRecord
100
AcDbLayerTableRecord
  2
166
 70
     0
 62
   166
  6
CONTINUOUS
  0
LAYER
  5
E0
330
2
100
AcDbSymbolTableRecord
100
AcDbLayerTableRecord
  2
167
 70
     0
 62
   167
  6
CONTINUOUS
  0
LAYER
  5
E1
330
2
100
AcDbSymbolTableRecord
100
AcDbLayerTableRecord
  2
168
 70
     0
 62
   168
  6
CONTINUOUS
  0
LAYER
  5
E2
330
2
100
AcDbSymbolTableRecord
100
AcDbLayerTableRecord
  2
169
 70
     0
 62
   169
  6
CONTINUOUS
  0
LAYER
  5
E3
330
2
100
AcDbSymbolTableRecord
100
AcDbLayerTableRecord
  2
170
 70
     0
 62
   170
  6
CONTINUOUS
  0
LAYER
  5
E4
330
2
100
AcDbSymbolTableRecord
100
AcDbLayerTableRecord
  2
171
 70
     0
 62
   171
  6
CONTINUOUS
  0
LAYER
  5
E5
330
2
100
AcDbSymbolTableRecord
100
AcDbLayerTableRecord
  2
172
 70
     0
 62
   172
  6
CONTINUOUS
  0
LAYER
  5
E6
330
2
100
AcDbSymbolTableRecord
100
AcDbLayerTableRecord
  2
173
 70
     0
 62
   173
  6
CONTINUOUS
  0
LAYER
  5
E7
330
2
100
AcDbSymbolTableRecord
100
AcDbLayerTableRecord
  2
174
 70
     0
 62
   174
  6
CONTINUOUS
  0
LAYER
  5
E8
330
2
100
AcDbSymbolTableRecord
100
AcDbLayerTableRecord
  2
175
 70
     0
 62
   175
  6
CONTINUOUS
  0
LAYER
  5
E9
330
2
100
AcDbSymbolTableRecord
100
AcDbLayerTableRecord
  2
176
 70
     0
 62
   176
  6
CONTINUOUS
  0
LAYER
  5
EA
330
2
100
AcDbSymbolTableRecord
100
AcDbLayerTableRecord
  2
177
 70
     0
 62
   177
  6
CONTINUOUS
  0
LAYER
  5
EB
330
2
100
AcDbSymbolTableRecord
100
AcDbLayerTableRecord
  2
178
 70
     0
 62
   178
  6
CONTINUOUS
  0
LAYER
  5
EC
330
2
100
AcDbSymbolTableRecord
100
AcDbLayerTableRecord
  2
179
 70
     0
 62
   179
  6
CONTINUOUS
  0
LAYER
  5
ED
330
2
100
AcDbSymbolTableRecord
100
AcDbLayerTableRecord
  2
180
 70
     0
 62
   180
  6
CONTINUOUS
  0
LAYER
  5
EE
330
2
100
AcDbSymbolTableRecord
100
AcDbLayerTableRecord
  2
181
 70
     0
 62
   181
  6
CONTINUOUS
  0
LAYER
  5
EF
330
2
100
AcDbSymbolTableRecord
100
AcDbLayerTableRecord
  2
182
 70
     0
 62
   182
  6
CONTINUOUS
  0
LAYER
  5
F0
330
2
100
AcDbSymbolTableRecord
100
AcDbLayerTableRecord
  2
183
 70
     0
 62
   183
  6
CONTINUOUS
  0
LAYER
  5
F1
330
2
100
AcDbSymbolTableRecord
100
AcDbLayerTableRecord
  2
184
 70
     0
 62
   184
  6
CONTINUOUS
  0
LAYER
  5
F2
330
2
100
AcDbSymbolTableRecord
100
AcDbLayerTableRecord
  2
185
 70
     0
 62
   185
  6
CONTINUOUS
  0
LAYER
  5
F3
330
2
100
AcDbSymbolTableRecord
100
AcDbLayerTableRecord
  2
186
 70
     0
 62
   186
  6
CONTINUOUS
  0
LAYER
  5
F4
330
2
100
AcDbSymbolTableRecord
100
AcDbLayerTableRecord
  2
187
 70
     0
 62
   187
  6
CONTINUOUS
  0
LAYER
  5
F5
330
2
100
AcDbSymbolTableRecord
100
AcDbLayerTableRecord
  2
188
 70
     0
 62
   188
  6
CONTINUOUS
  0
LAYER
  5
F6
330
2
100
AcDbSymbolTableRecord
100
AcDbLayerTableRecord
  2
189
 70
     0
 62
   189
  6
CONTINUOUS
  0
LAYER
  5
F7
330
2
100
AcDbSymbolTableRecord
100
AcDbLayerTableRecord
  2
190
 70
     0
 62
   190
  6
CONTINUOUS
  0
LAYER
  5
F8
330
2
100
AcDbSymbolTableRecord
100
AcDbLayerTableRecord
  2
191
 70
     0
 62
   191
  6
CONTINUOUS
  0
LAYER
  5
F9
330
2
100
AcDbSymbolTableRecord
100
AcDbLayerTableRecord
  2
192
 70
     0
 62
   192
  6
CONTINUOUS
  0
LAYER
  5
FA
330
2
100
AcDbSymbolTableRecord
100
AcDbLayerTableRecord
  2
193
 70
     0
 62
   193
  6
CONTINUOUS
  0
LAYER
  5
FB
330
2
100
AcDbSymbolTableRecord
100
AcDbLayerTableRecord
  2
194
 70
     0
 62
   194
  6
CONTINUOUS
  0
LAYER
  5
FC
330
2
100
AcDbSymbolTableRecord
100
AcDbLayerTableRecord
  2
195
 70
     0
 62
   195
  6
CONTINUOUS
  0
LAYER
  5
FD
330
2
100
AcDbSymbolTableRecord
100
AcDbLayerTableRecord
  2
196
 70
     0
 62
   196
  6
CONTINUOUS
  0
LAYER
  5
FE
330
2
100
AcDbSymbolTableRecord
100
AcDbLayerTableRecord
  2
197
 70
     0
 62
   197
  6
CONTINUOUS
  0
LAYER
  5
FF
330
2
100
AcDbSymbolTableRecord
100
AcDbLayerTableRecord
  2
198
 70
     0
 62
   198
  6
CONTINUOUS
  0
LAYER
  5
100
330
2
100
AcDbSymbolTableRecord
100
AcDbLayerTableRecord
  2
199
 70
     0
 62
   199
  6
CONTINUOUS
  0
LAYER
  5
101
330
2
100
AcDbSymbolTableRecord
100
AcDbLayerTableRecord
  2
200
 70
     0
 62
   200
  6
CONTINUOUS
  0
LAYER
  5
102
330
2
100
AcDbSymbolTableRecord
100
AcDbLayerTableRecord
  2
201
 70
     0
 62
   201
  6
CONTINUOUS
  0
LAYER
  5
103
330
2
100
AcDbSymbolTableRecord
100
AcDbLayerTableRecord
  2
202
 70
     0
 62
   202
  6
CONTINUOUS
  0
LAYER
  5
104
330
2
100
AcDbSymbolTableRecord
100
AcDbLayerTableRecord
  2
203
 70
     0
 62
   203
  6
CONTINUOUS
  0
LAYER
  5
105
330
2
100
AcDbSymbolTableRecord
100
AcDbLayerTableRecord
  2
204
 70
     0
 62
   204
  6
CONTINUOUS
  0
LAYER
  5
106
330
2
100
AcDbSymbolTableRecord
100
AcDbLayerTableRecord
  2
205
 70
     0
 62
   205
  6
CONTINUOUS
  0
LAYER
  5
107
330
2
100
AcDbSymbolTableRecord
100
AcDbLayerTableRecord
  2
206
 70
     0
 62
   206
  6
CONTINUOUS
  0
LAYER
  5
108
330
2
100
AcDbSymbolTableRecord
100
AcDbLayerTableRecord
  2
207
 70
     0
 62
   207
  6
CONTINUOUS
  0
LAYER
  5
109
330
2
100
AcDbSymbolTableRecord
100
AcDbLayerTableRecord
  2
208
 70
     0
 62
   208
  6
CONTINUOUS
  0
LAYER
  5
10A
330
2
100
AcDbSymbolTableRecord
100
AcDbLayerTableRecord
  2
209
 70
     0
 62
   209
  6
CONTINUOUS
  0
LAYER
  5
10B
330
2
100
AcDbSymbolTableRecord
100
AcDbLayerTableRecord
  2
210
 70
     0
 62
   210
  6
CONTINUOUS
  0
LAYER
  5
10C
330
2
100
AcDbSymbolTableRecord
100
AcDbLayerTableRecord
  2
211
 70
     0
 62
   211
  6
CONTINUOUS
  0
LAYER
  5
10D
330
2
100
AcDbSymbolTableRecord
100
AcDbLayerTableRecord
  2
212
 70
     0
 62
   212
  6
CONTINUOUS
  0
LAYER
  5
10E
330
2
100
AcDbSymbolTableRecord
100
AcDbLayerTableRecord
  2
213
 70
     0
 62
   213
  6
CONTINUOUS
  0
LAYER
  5
10F
330
2
100
AcDbSymbolTableRecord
100
AcDbLayerTableRecord
  2
214
 70
     0
 62
   214
  6
CONTINUOUS
  0
LAYER
  5
110
330
2
100
AcDbSymbolTableRecord
100
AcDbLayerTableRecord
  2
215
 70
     0
 62
   215
  6
CONTINUOUS
  0
LAYER
  5
111
330
2
100
AcDbSymbolTableRecord
100
AcDbLayerTableRecord
  2
216
 70
     0
 62
   216
  6
CONTINUOUS
  0
LAYER
  5
112
330
2
100
AcDbSymbolTableRecord
100
AcDbLayerTableRecord
  2
217
 70
     0
 62
   217
  6
CONTINUOUS
  0
LAYER
  5
113
330
2
100
AcDbSymbolTableRecord
100
AcDbLayerTableRecord
  2
218
 70
     0
 62
   218
  6
CONTINUOUS
  0
LAYER
  5
114
330
2
100
AcDbSymbolTableRecord
100
AcDbLayerTableRecord
  2
219
 70
     0
 62
   219
  6
CONTINUOUS
  0
LAYER
  5
115
330
2
100
AcDbSymbolTableRecord
100
AcDbLayerTableRecord
  2
220
 70
     0
 62
   220
  6
CONTINUOUS
  0
LAYER
  5
116
330
2
100
AcDbSymbolTableRecord
100
AcDbLayerTableRecord
  2
221
 70
     0
 62
   221
  6
CONTINUOUS
  0
LAYER
  5
117
330
2
100
AcDbSymbolTableRecord
100
AcDbLayerTableRecord
  2
222
 70
     0
 62
   222
  6
CONTINUOUS
  0
LAYER
  5
118
330
2
100
AcDbSymbolTableRecord
100
AcDbLayerTableRecord
  2
223
 70
     0
 62
   223
  6
CONTINUOUS
  0
LAYER
  5
119
330
2
100
AcDbSymbolTableRecord
100
AcDbLayerTableRecord
  2
224
 70
     0
 62
   224
  6
CONTINUOUS
  0
LAYER
  5
11A
330
2
100
AcDbSymbolTableRecord
100
AcDbLayerTableRecord
  2
225
 70
     0
 62
   225
  6
CONTINUOUS
  0
LAYER
  5
11B
330
2
100
AcDbSymbolTableRecord
100
AcDbLayerTableRecord
  2
226
 70
     0
 62
   226
  6
CONTINUOUS
  0
LAYER
  5
11C
330
2
100
AcDbSymbolTableRecord
100
AcDbLayerTableRecord
  2
227
 70
     0
 62
   227
  6
CONTINUOUS
  0
LAYER
  5
11D
330
2
100
AcDbSymbolTableRecord
100
AcDbLayerTableRecord
  2
228
 70
     0
 62
   228
  6
CONTINUOUS
  0
LAYER
  5
11E
330
2
100
AcDbSymbolTableRecord
100
AcDbLayerTableRecord
  2
229
 70
     0
 62
   229
  6
CONTINUOUS
  0
LAYER
  5
11F
330
2
100
AcDbSymbolTableRecord
100
AcDbLayerTableRecord
  2
230
 70
     0
 62
   230
  6
CONTINUOUS
  0
LAYER
  5
120
330
2
100
AcDbSymbolTableRecord
100
AcDbLayerTableRecord
  2
231
 70
     0
 62
   231
  6
CONTINUOUS
  0
LAYER
  5
121
330
2
100
AcDbSymbolTableRecord
100
AcDbLayerTableRecord
  2
232
 70
     0
 62
   232
  6
CONTINUOUS
  0
LAYER
  5
122
330
2
100
AcDbSymbolTableRecord
100
AcDbLayerTableRecord
  2
233
 70
     0
 62
   233
  6
CONTINUOUS
  0
LAYER
  5
123
330
2
100
AcDbSymbolTableRecord
100
AcDbLayerTableRecord
  2
234
 70
     0
 62
   234
  6
CONTINUOUS
  0
LAYER
  5
124
330
2
100
AcDbSymbolTableRecord
100
AcDbLayerTableRecord
  2
235
 70
     0
 62
   235
  6
CONTINUOUS
  0
LAYER
  5
125
330
2
100
AcDbSymbolTableRecord
100
AcDbLayerTableRecord
  2
236
 70
     0
 62
   236
  6
CONTINUOUS
  0
LAYER
  5
126
330
2
100
AcDbSymbolTableRecord
100
AcDbLayerTableRecord
  2
237
 70
     0
 62
   237
  6
CONTINUOUS
  0
LAYER
  5
127
330
2
100
AcDbSymbolTableRecord
100
AcDbLayerTableRecord
  2
238
 70
     0
 62
   238
  6
CONTINUOUS
  0
LAYER
  5
128
330
2
100
AcDbSymbolTableRecord
100
AcDbLayerTableRecord
  2
239
 70
     0
 62
   239
  6
CONTINUOUS
  0
LAYER
  5
129
330
2
100
AcDbSymbolTableRecord
100
AcDbLayerTableRecord
  2
240
 70
     0
 62
   240
  6
CONTINUOUS
  0
LAYER
  5
12A
330
2
100
AcDbSymbolTableRecord
100
AcDbLayerTableRecord
  2
241
 70
     0
 62
   241
  6
CONTINUOUS
  0
LAYER
  5
12B
330
2
100
AcDbSymbolTableRecord
100
AcDbLayerTableRecord
  2
242
 70
     0
 62
   242
  6
CONTINUOUS
  0
LAYER
  5
12C
330
2
100
AcDbSymbolTableRecord
100
AcDbLayerTableRecord
  2
243
 70
     0
 62
   243
  6
CONTINUOUS
  0
LAYER
  5
12D
330
2
100
AcDbSymbolTableRecord
100
AcDbLayerTableRecord
  2
244
 70
     0
 62
   244
  6
CONTINUOUS
  0
LAYER
  5
12E
330
2
100
AcDbSymbolTableRecord
100
AcDbLayerTableRecord
  2
245
 70
     0
 62
   245
  6
CONTINUOUS
  0
LAYER
  5
12F
330
2
100
AcDbSymbolTableRecord
100
AcDbLayerTableRecord
  2
246
 70
     0
 62
   246
  6
CONTINUOUS
  0
LAYER
  5
130
330
2
100
AcDbSymbolTableRecord
100
AcDbLayerTableRecord
  2
247
 70
     0
 62
   247
  6
CONTINUOUS
  0
LAYER
  5
131
330
2
100
AcDbSymbolTableRecord
100
AcDbLayerTableRecord
  2
248
 70
     0
 62
   248
  6
CONTINUOUS
  0
LAYER
  5
132
330
2
100
AcDbSymbolTableRecord
100
AcDbLayerTableRecord
  2
249
 70
     0
 62
   249
  6
CONTINUOUS
  0
LAYER
  5
133
330
2
100
AcDbSymbolTableRecord
100
AcDbLayerTableRecord
  2
250
 70
     0
 62
   250
  6
CONTINUOUS
  0
LAYER
  5
134
330
2
100
AcDbSymbolTableRecord
100
AcDbLayerTableRecord
  2
251
 70
     0
 62
   251
  6
CONTINUOUS
  0
LAYER
  5
135
330
2
100
AcDbSymbolTableRecord
100
AcDbLayerTableRecord
  2
252
 70
     0
 62
   252
  6
CONTINUOUS
  0
LAYER
  5
136
330
2
100
AcDbSymbolTableRecord
100
AcDbLayerTableRecord
  2
253
 70
     0
 62
   253
  6
CONTINUOUS
  0
LAYER
  5
137
330
2
100
AcDbSymbolTableRecord
100
AcDbLayerTableRecord
  2
254
 70
     0
 62
   254
  6
CONTINUOUS
  0
LAYER
  5
138
330
2
100
AcDbSymbolTableRecord
100
AcDbLayerTableRecord
  2
255
 70
     0
 62
   255
  6
CONTINUOUS
  0
ENDTAB
  0
TABLE
  2
STYLE
  5
3
330
0
100
AcDbSymbolTable
 70
     1
  0
STYLE
  5
11
330
3
100
AcDbSymbolTableRecord
100
AcDbTextStyleTableRecord
  2
STANDARD
 70
     0
 40
0.0
 41
1.0
 50
0.0
 71
     0
 42
0.2
  3
monotxt
  4

  0
ENDTAB
  0
TABLE
  2
VIEW
  5
6
330
0
100
AcDbSymbolTable
 70
     0
  0
ENDTAB
  0
TABLE
  2
UCS
  5
7
330
0
100
AcDbSymbolTable
 70
     0
  0
ENDTAB
  0
TABLE
  2
APPID
  5
9
330
0
100
AcDbSymbolTable
 70
     1
  0
APPID
  5
12
330
9
100
AcDbSymbolTableRecord
100
AcDbRegAppTableRecord
  2
ACAD
 70
     0
  0
ENDTAB
  0
TABLE
  2
DIMSTYLE
  5
A
330
0
100
AcDbSymbolTable
 70
     1
  0
DIMSTYLE
105
2A8D
330
A
100
AcDbSymbolTableRecord
100
AcDbDimStyleTableRecord
  2
STANDARD
 70
     0
  3

  4

  5

  6

  7

 40
1.0
 41
0.18
 42
0.0625
 43
0.38
 44
0.18
 45
0.0
 46
0.0
 47
0.0
 48
0.0
140
0.18
141
0.09
142
0.0
143
25.4
144
1.0
145
0.0
146
1.0
147
0.09
 71
     0
 72
     0
 73
     1
 74
     1
 75
     0
 76
     0
 77
     0
 78
     0
170
     0
171
     2
172
     0
173
     0
174
     0
175
     0
176
     0
177
     0
178
     0
270
     2
271
     4
272
     4
273
     2
274
     2
340
11
275
     0
280
     0
281
     0
282
     0
283
     1
284
     0
285
     0
286
     0
287
     3
288
     0
  0
ENDTAB
  0
TABLE
  2
BLOCK_RECORD
  5
1
330
0
100
AcDbSymbolTable
 70
     0
  0
BLOCK_RECORD
  5
1E
102
{ACAD_XDICTIONARY
360
2C0A
102
}
330
1
100
AcDbSymbolTableRecord
100
AcDbBlockTableRecord
  2
*MODEL_SPACE
  0
BLOCK_RECORD
  5
1A
102
{ACAD_XDICTIONARY
360
2C08
102
}
330
1
100
AcDbSymbolTableRecord
100
AcDbBlockTableRecord
  2
*PAPER_SPACE
  0
ENDTAB
  0
ENDSEC
  0
SECTION
  2
BLOCKS
  0
BLOCK
  5
13B
330
1E
100
AcDbEntity
  8
0
100
AcDbBlockBegin
  2
*MODEL_SPACE
 70
     0
 10
0.0
 20
0.0
 30
0.0
  3
*MODEL_SPACE
  1

  0
ENDBLK
  5
13C
330
1E
100
AcDbEntity
  8
0
100
AcDbBlockEnd
  0
BLOCK
  5
139
330
1A
100
AcDbEntity
 67
     1
  8
0
100
AcDbBlockBegin
  2
*PAPER_SPACE
 70
     0
 10
0.0
 20
0.0
 30
0.0
  3
*PAPER_SPACE
  1

  0
ENDBLK
  5
13A
330
1A
100
AcDbEntity
 67
     1
  8
0
100
AcDbBlockEnd
  0
ENDSEC
  0
SECTION
  2
ENTITIES
  0
LINE
  5
27D6
330
1E
100
AcDbEntity
  8
7
100
AcDbLine
 10
1.757635699617059
 20
7.206560358449034
 30
0.0
 11
2.866838937929067
 21
7.206560358449034
 31
0.0
  0
LINE
  5
27F7
330
1E
100
AcDbEntity
  8
7
100
AcDbLine
 10
3.081777876553083
 20
6.996551211995295
 30
0.0
 11
3.128117922953673
 21
6.991621419825019
 31
0.0
  0
LINE
  5
27FE
330
1E
100
AcDbEntity
  8
7
100
AcDbLine
 10
3.128117922953673
 20
6.990635461390964
 30
0.0
 11
4.237321161265681
 21
6.990635461390964
 31
0.0
  0
LINE
  5
27FF
330
1E
100
AcDbEntity
  8
7
100
AcDbLine
 10
3.128117922953673
 20
7.099090889137027
 30
0.0
 11
4.237321161265681
 21
7.099090889137027
 31
0.0
  0
LINE
  5
280F
330
1E
100
AcDbEntity
  8
7
100
AcDbLine
 10
2.866838937929067
 20
5.91692672670494
 30
0.0
 11
1.757635699617059
 21
5.91692672670494
 31
0.0
  0
LINE
  5
2810
330
1E
100
AcDbEntity
  8
7
100
AcDbLine
 10
1.983420181015682
 20
5.195205152976592
 30
0.0
 11
2.102721151536351
 21
5.195205152976592
 31
0.0
  0
LINE
  5
2824
330
1E
100
AcDbEntity
  8
7
100
AcDbLine
 10
1.983420181015682
 20
4.91519295770494
 30
0.0
 11
2.102721151536351
 21
4.91519295770494
 31
0.0
  0
LINE
  5
2838
330
1E
100
AcDbEntity
  8
7
100
AcDbLine
 10
1.983420181015682
 20
4.569121547351592
 30
0.0
 11
2.102721151536351
 21
4.569121547351592
 31
0.0
  0
LINE
  5
2849
330
1E
100
AcDbEntity
  8
7
100
AcDbLine
 10
1.983420181015682
 20
4.28910935207994
 30
0.0
 11
2.102721151536351
 21
4.28910935207994
 31
0.0
  0
LINE
  5
285D
330
1E
100
AcDbEntity
  8
7
100
AcDbLine
 10
1.983420181015682
 20
5.821288758601593
 30
0.0
 11
2.102721151536351
 21
5.821288758601593
 31
0.0
  0
LINE
  5
2871
330
1E
100
AcDbEntity
  8
7
100
AcDbLine
 10
1.983420181015682
 20
5.54127656332994
 30
0.0
 11
2.102721151536351
 21
5.54127656332994
 31
0.0
  0
LINE
  5
2885
330
1E
100
AcDbEntity
  8
7
100
AcDbLine
 10
1.697492235139697
 20
4.253614848453955
 30
0.0
 11
1.697492235139697
 21
5.856783262227578
 31
0.0
  0
LINE
  5
289E
330
1E
100
AcDbEntity
  8
7
100
AcDbLine
 10
2.931912194576705
 20
5.91692672670494
 30
0.0
 11
2.959519030730248
 21
5.91692672670494
 31
0.0
  0
LINE
  5
28AD
330
1E
100
AcDbEntity
  8
7
100
AcDbLine
 10
2.959519030730248
 20
5.91692672670494
 30
0.0
 11
2.995013534356233
 21
5.91692672670494
 31
0.0
  0
LINE
  5
28B4
330
1E
100
AcDbEntity
  8
7
100
AcDbLine
 10
3.128117922953673
 20
4.193471383976593
 30
0.0
 11
3.128117922953673
 21
5.91692672670494
 31
0.0
  0
LINE
  5
28B5
330
1E
100
AcDbEntity
  8
7
100
AcDbLine
 10
3.128117922953673
 20
4.193471383976593
 30
0.0
 11
4.237321161265681
 21
4.193471383976593
 31
0.0
  0
LINE
  5
28B6
330
1E
100
AcDbEntity
  8
7
100
AcDbLine
 10
3.128117922953673
 20
5.91692672670494
 30
0.0
 11
4.237321161265681
 21
5.91692672670494
 31
0.0
  0
LINE
  5
28D4
330
1E
100
AcDbEntity
  8
7
100
AcDbLine
 10
4.047031183493043
 20
4.946743627594704
 30
0.0
 11
4.076609936514698
 21
4.950687461330923
 31
0.0
  0
LINE
  5
2918
330
1E
100
AcDbEntity
  8
7
100
AcDbLine
 10
4.297464625743043
 20
4.253614848453955
 30
0.0
 11
4.297464625743043
 21
5.856783262227578
 31
0.0
  0
LINE
  5
2A90
330
1E
100
AcDbEntity
  8
7
100
AcDbLine
 10
3.97900005154324
 20
4.512921916610451
 30
0.0
 11
3.958294924428083
 21
4.491230831061238
 31
0.0
  0
LINE
  5
2A91
330
1E
100
AcDbEntity
  8
7
100
AcDbLine
 10
3.958294924428083
 20
4.491230831061238
 30
0.0
 11
3.944491506351312
 21
4.465595911775805
 31
0.0
  0
LINE
  5
2A92
330
1E
100
AcDbEntity
  8
7
100
AcDbLine
 10
3.944491506351312
 20
4.465595911775805
 30
0.0
 11
3.938575755746981
 21
4.437003117188208
 31
0.0
  0
LINE
  5
2A93
330
1E
100
AcDbEntity
  8
7
100
AcDbLine
 10
3.938575755746981
 20
4.437003117188208
 30
0.0
 11
3.940547672615091
 21
4.407424364166555
 31
0.0
  0
LINE
  5
2A94
330
1E
100
AcDbEntity
  8
7
100
AcDbLine
 10
3.940547672615091
 20
4.407424364166555
 30
0.0
 11
3.950407256955642
 21
4.378831569578956
 31
0.0
  0
LINE
  5
2A95
330
1E
100
AcDbEntity
  8
7
100
AcDbLine
 10
3.950407256955642
 20
4.378831569578956
 30
0.0
 11
3.968154508768634
 21
4.355168567161632
 31
0.0
  0
LINE
  5
2A96
330
1E
100
AcDbEntity
  8
7
100
AcDbLine
 10
3.968154508768634
 20
4.355168567161632
 30
0.0
 11
3.990831552751902
 21
4.336435356914586
 31
0.0
  0
LINE
  5
2A97
330
1E
100
AcDbEntity
  8
7
100
AcDbLine
 10
3.990831552751902
 20
4.336435356914586
 30
0.0
 11
4.017452430471389
 21
4.324603855705923
 31
0.0
  0
LINE
  5
2A98
330
1E
100
AcDbEntity
  8
7
100
AcDbLine
 10
4.017452430471389
 20
4.324603855705923
 30
0.0
 11
4.047031183493043
 21
4.320660021969704
 31
0.0
  0
LINE
  5
2A99
330
1E
100
AcDbEntity
  8
7
100
AcDbLine
 10
4.047031183493043
 20
4.320660021969704
 30
0.0
 11
4.076609936514698
 21
4.324603855705923
 31
0.0
  0
LINE
  5
2A9A
330
1E
100
AcDbEntity
  8
7
100
AcDbLine
 10
4.076609936514698
 20
4.324603855705923
 30
0.0
 11
4.103230814234185
 21
4.336435356914586
 31
0.0
  0
LINE
  5
2A9B
330
1E
100
AcDbEntity
  8
7
100
AcDbLine
 10
4.103230814234185
 20
4.336435356914586
 30
0.0
 11
4.125907858217453
 21
4.355168567161632
 31
0.0
  0
LINE
  5
2A9C
330
1E
100
AcDbEntity
  8
7
100
AcDbLine
 10
4.125907858217453
 20
4.355168567161632
 30
0.0
 11
4.143655110030445
 21
4.378831569578956
 31
0.0
  0
LINE
  5
2A9D
330
1E
100
AcDbEntity
  8
7
100
AcDbLine
 10
4.143655110030445
 20
4.378831569578956
 30
0.0
 11
4.153514694370995
 21
4.407424364166555
 31
0.0
  0
LINE
  5
2A9E
330
1E
100
AcDbEntity
  8
7
100
AcDbLine
 10
4.153514694370995
 20
4.407424364166555
 30
0.0
 11
4.155486611239107
 21
4.437003117188208
 31
0.0
  0
LINE
  5
2A9F
330
1E
100
AcDbEntity
  8
7
100
AcDbLine
 10
4.155486611239107
 20
4.437003117188208
 30
0.0
 11
4.149570860634776
 21
4.465595911775805
 31
0.0
  0
LINE
  5
2AA0
330
1E
100
AcDbEntity
  8
7
100
AcDbLine
 10
4.149570860634776
 20
4.465595911775805
 30
0.0
 11
4.135767442558004
 21
4.491230831061238
 31
0.0
  0
LINE
  5
2AA1
330
1E
100
AcDbEntity
  8
7
100
AcDbLine
 10
4.135767442558004
 20
4.491230831061238
 30
0.0
 11
4.115062315442846
 21
4.512921916610451
 31
0.0
  0
LINE
  5
2AA2
330
1E
100
AcDbEntity
  8
7
100
AcDbLine
 10
4.115062315442846
 20
4.512921916610451
 30
0.0
 11
4.090413354591468
 21
4.528697251555333
 31
0.0
  0
LINE
  5
2AA3
330
1E
100
AcDbEntity
  8
7
100
AcDbLine
 10
4.090413354591468
 20
4.528697251555333
 30
0.0
 11
4.06182056000387
 21
4.536584919027774
 31
0.0
  0
LINE
  5
2AA4
330
1E
100
AcDbEntity
  8
7
100
AcDbLine
 10
4.06182056000387
 20
4.536584919027774
 30
0.0
 11
4.032241806982217
 21
4.536584919027774
 31
0.0
  0
LINE
  5
2AA5
330
1E
100
AcDbEntity
  8
7
100
AcDbLine
 10
4.032241806982217
 20
4.536584919027774
 30
0.0
 11
4.003649012394619
 21
4.528697251555333
 31
0.0
  0
LINE
  5
2AA6
330
1E
100
AcDbEntity
  8
7
100
AcDbLine
 10
4.003649012394619
 20
4.528697251555333
 30
0.0
 11
3.97900005154324
 21
4.512921916610451
 31
0.0
  0
LINE
  5
2AA7
330
1E
100
AcDbEntity
  8
7
100
AcDbLine
 10
2.866838937929067
 20
4.193471383976593
 30
0.0
 11
2.900361524686941
 21
4.193471383976593
 31
0.0
  0
LINE
  5
2AA8
330
1E
100
AcDbEntity
  8
7
100
AcDbLine
 10
2.900361524686941
 20
4.193471383976593
 30
0.0
 11
2.931912194576705
 21
4.193471383976593
 31
0.0
  0
LINE
  5
2AA9
330
1E
100
AcDbEntity
  8
7
100
AcDbLine
 10
2.931912194576705
 20
4.193471383976593
 30
0.0
 11
2.959519030730248
 21
4.193471383976593
 31
0.0
  0
LINE
  5
2AAA
330
1E
100
AcDbEntity
  8
7
100
AcDbLine
 10
2.959519030730248
 20
4.193471383976593
 30
0.0
 11
2.959519030730248
 21
5.91692672670494
 31
0.0
  0
LINE
  5
2AAB
330
1E
100
AcDbEntity
  8
7
100
AcDbLine
 10
1.757635699617059
 20
4.193471383976593
 30
0.0
 11
2.866838937929067
 21
4.193471383976593
 31
0.0
  0
LINE
  5
2AAC
330
1E
100
AcDbEntity
  8
7
100
AcDbLine
 10
2.866838937929067
 20
4.193471383976593
 30
0.0
 11
2.866838937929067
 21
5.91692672670494
 31
0.0
  0
LINE
  5
2AAD
330
1E
100
AcDbEntity
  8
7
100
AcDbLine
 10
1.983420181015682
 20
4.569121547351592
 30
0.0
 11
1.949897594257808
 21
4.565177713615373
 31
0.0
  0
LINE
  5
2AAE
330
1E
100
AcDbEntity
  8
7
100
AcDbLine
 10
1.949897594257808
 20
4.565177713615373
 30
0.0
 11
1.918346924368043
 21
4.553346212406711
 31
0.0
  0
LINE
  5
2AAF
330
1E
100
AcDbEntity
  8
7
100
AcDbLine
 10
1.918346924368043
 20
4.553346212406711
 30
0.0
 11
1.8907400882145
 21
4.533627043725609
 31
0.0
  0
LINE
  5
2AB0
330
1E
100
AcDbEntity
  8
7
100
AcDbLine
 10
1.8907400882145
 20
4.533627043725609
 30
0.0
 11
1.868063044231233
 21
4.508978082874231
 31
0.0
  0
LINE
  5
2AB1
330
1E
100
AcDbEntity
  8
7
100
AcDbLine
 10
1.868063044231233
 20
4.508978082874231
 30
0.0
 11
1.852287709286351
 21
4.478413371418523
 31
0.0
  0
LINE
  5
2AB2
330
1E
100
AcDbEntity
  8
7
100
AcDbLine
 10
1.852287709286351
 20
4.478413371418523
 30
0.0
 11
1.84440004181391
 21
4.445876743094704
 31
0.0
  0
LINE
  5
2AB3
330
1E
100
AcDbEntity
  8
7
100
AcDbLine
 10
1.84440004181391
 20
4.445876743094704
 30
0.0
 11
1.84440004181391
 21
4.412354156336829
 31
0.0
  0
LINE
  5
2AB4
330
1E
100
AcDbEntity
  8
7
100
AcDbLine
 10
2.102721151536351
 20
4.28910935207994
 30
0.0
 11
2.136243738294225
 21
4.29305318581616
 31
0.0
  0
LINE
  5
2AB5
330
1E
100
AcDbEntity
  8
7
100
AcDbLine
 10
2.136243738294225
 20
4.29305318581616
 30
0.0
 11
2.167794408183989
 21
4.304884687024822
 31
0.0
  0
LINE
  5
2AB6
330
1E
100
AcDbEntity
  8
7
100
AcDbLine
 10
2.167794408183989
 20
4.304884687024822
 30
0.0
 11
2.195401244337532
 21
4.324603855705923
 31
0.0
  0
LINE
  5
2AB7
330
1E
100
AcDbEntity
  8
7
100
AcDbLine
 10
2.195401244337532
 20
4.324603855705923
 30
0.0
 11
2.218078288320799
 21
4.349252816557301
 31
0.0
  0
LINE
  5
2AB8
330
1E
100
AcDbEntity
  8
7
100
AcDbLine
 10
2.218078288320799
 20
4.349252816557301
 30
0.0
 11
2.233853623265681
 21
4.37981752801301
 31
0.0
  0
LINE
  5
2AB9
330
1E
100
AcDbEntity
  8
7
100
AcDbLine
 10
2.233853623265681
 20
4.37981752801301
 30
0.0
 11
2.241741290738122
 21
4.412354156336829
 31
0.0
  0
LINE
  5
2ABA
330
1E
100
AcDbEntity
  8
7
100
AcDbLine
 10
2.241741290738122
 20
4.412354156336829
 30
0.0
 11
2.241741290738122
 21
4.445876743094704
 31
0.0
  0
LINE
  5
2ABB
330
1E
100
AcDbEntity
  8
7
100
AcDbLine
 10
2.241741290738122
 20
4.445876743094704
 30
0.0
 11
2.233853623265681
 21
4.478413371418523
 31
0.0
  0
LINE
  5
2ABC
330
1E
100
AcDbEntity
  8
7
100
AcDbLine
 10
2.233853623265681
 20
4.478413371418523
 30
0.0
 11
2.218078288320799
 21
4.508978082874231
 31
0.0
  0
LINE
  5
2ABD
330
1E
100
AcDbEntity
  8
7
100
AcDbLine
 10
2.218078288320799
 20
4.508978082874231
 30
0.0
 11
2.195401244337532
 21
4.533627043725609
 31
0.0
  0
LINE
  5
2ABE
330
1E
100
AcDbEntity
  8
7
100
AcDbLine
 10
2.195401244337532
 20
4.533627043725609
 30
0.0
 11
2.167794408183989
 21
4.553346212406711
 31
0.0
  0
LINE
  5
2ABF
330
1E
100
AcDbEntity
  8
7
100
AcDbLine
 10
2.167794408183989
 20
4.553346212406711
 30
0.0
 11
2.136243738294225
 21
4.565177713615373
 31
0.0
  0
LINE
  5
2AC0
330
1E
100
AcDbEntity
  8
7
100
AcDbLine
 10
2.136243738294225
 20
4.565177713615373
 30
0.0
 11
2.102721151536351
 21
4.569121547351592
 31
0.0
  0
LINE
  5
2AC1
330
1E
100
AcDbEntity
  8
7
100
AcDbLine
 10
1.698478193573752
 20
4.253614848453955
 30
0.0
 11
1.703407985744028
 21
4.230937804470688
 31
0.0
  0
LINE
  5
2AC2
330
1E
100
AcDbEntity
  8
7
100
AcDbLine
 10
1.703407985744028
 20
4.230937804470688
 30
0.0
 11
1.716225445386744
 21
4.21220459422364
 31
0.0
  0
LINE
  5
2AC3
330
1E
100
AcDbEntity
  8
7
100
AcDbLine
 10
1.716225445386744
 20
4.21220459422364
 30
0.0
 11
1.734958655633792
 21
4.199387134580923
 31
0.0
  0
LINE
  5
2AC4
330
1E
100
AcDbEntity
  8
7
100
AcDbLine
 10
1.734958655633792
 20
4.199387134580923
 30
0.0
 11
1.757635699617059
 21
4.194457342410649
 31
0.0
  0
LINE
  5
2AC5
330
1E
100
AcDbEntity
  8
7
100
AcDbLine
 10
1.84440004181391
 20
4.412354156336829
 30
0.0
 11
1.852287709286351
 21
4.37981752801301
 31
0.0
  0
LINE
  5
2AC6
330
1E
100
AcDbEntity
  8
7
100
AcDbLine
 10
1.852287709286351
 20
4.37981752801301
 30
0.0
 11
1.868063044231233
 21
4.349252816557301
 31
0.0
  0
LINE
  5
2AC7
330
1E
100
AcDbEntity
  8
7
100
AcDbLine
 10
1.868063044231233
 20
4.349252816557301
 30
0.0
 11
1.8907400882145
 21
4.324603855705923
 31
0.0
  0
LINE
  5
2AC8
330
1E
100
AcDbEntity
  8
7
100
AcDbLine
 10
1.8907400882145
 20
4.324603855705923
 30
0.0
 11
1.918346924368043
 21
4.304884687024822
 31
0.0
  0
LINE
  5
2AC9
330
1E
100
AcDbEntity
  8
7
100
AcDbLine
 10
1.918346924368043
 20
4.304884687024822
 30
0.0
 11
1.949897594257808
 21
4.29305318581616
 31
0.0
  0
LINE
  5
2ACA
330
1E
100
AcDbEntity
  8
7
100
AcDbLine
 10
1.949897594257808
 20
4.29305318581616
 30
0.0
 11
1.983420181015682
 21
4.28910935207994
 31
0.0
  0
LINE
  5
2ACB
330
1E
100
AcDbEntity
  8
7
100
AcDbLine
 10
2.959519030730248
 20
4.193471383976593
 30
0.0
 11
2.995013534356233
 21
4.193471383976593
 31
0.0
  0
LINE
  5
2ACC
330
1E
100
AcDbEntity
  8
7
100
AcDbLine
 10
2.995013534356233
 20
4.193471383976593
 30
0.0
 11
3.036423788586548
 21
4.193471383976593
 31
0.0
  0
LINE
  5
2ACD
330
1E
100
AcDbEntity
  8
7
100
AcDbLine
 10
3.036423788586548
 20
4.193471383976593
 30
0.0
 11
3.080791918119028
 21
4.193471383976593
 31
0.0
  0
LINE
  5
2ACE
330
1E
100
AcDbEntity
  8
7
100
AcDbLine
 10
3.080791918119028
 20
4.193471383976593
 30
0.0
 11
3.128117922953673
 21
4.193471383976593
 31
0.0
  0
LINE
  5
2ACF
330
1E
100
AcDbEntity
  8
7
100
AcDbLine
 10
4.237321161265681
 20
4.194457342410649
 30
0.0
 11
4.259998205248948
 21
4.199387134580923
 31
0.0
  0
LINE
  5
2AD0
330
1E
100
AcDbEntity
  8
7
100
AcDbLine
 10
4.259998205248948
 20
4.199387134580923
 30
0.0
 11
4.278731415495996
 21
4.21220459422364
 31
0.0
  0
LINE
  5
2AD1
330
1E
100
AcDbEntity
  8
7
100
AcDbLine
 10
4.278731415495996
 20
4.21220459422364
 30
0.0
 11
4.291548875138714
 21
4.230937804470688
 31
0.0
  0
LINE
  5
2AD2
330
1E
100
AcDbEntity
  8
7
100
AcDbLine
 10
4.291548875138714
 20
4.230937804470688
 30
0.0
 11
4.296478667308988
 21
4.253614848453955
 31
0.0
  0
LINE
  5
2AD3
330
1E
100
AcDbEntity
  8
7
100
AcDbLine
 10
2.866838937929067
 20
7.099090889137027
 30
0.0
 11
1.757635699617059
 21
7.099090889137027
 31
0.0
  0
LINE
  5
2AD4
330
1E
100
AcDbEntity
  8
7
100
AcDbLine
 10
1.757635699617059
 20
7.099090889137027
 30
0.0
 11
1.734958655633792
 21
7.099090889137027
 31
0.0
  0
LINE
  5
2AD5
330
1E
100
AcDbEntity
  8
7
100
AcDbLine
 10
1.734958655633792
 20
7.099090889137027
 30
0.0
 11
1.715239486952689
 21
7.099090889137027
 31
0.0
  0
LINE
  5
2AD6
330
1E
100
AcDbEntity
  8
7
100
AcDbLine
 10
1.715239486952689
 20
7.099090889137027
 30
0.0
 11
1.702422027309973
 21
7.099090889137027
 31
0.0
  0
LINE
  5
2AD7
330
1E
100
AcDbEntity
  8
7
100
AcDbLine
 10
1.702422027309973
 20
7.099090889137027
 30
0.0
 11
1.697492235139697
 21
7.099090889137027
 31
0.0
  0
LINE
  5
2AD8
330
1E
100
AcDbEntity
  8
7
100
AcDbLine
 10
1.697492235139697
 20
7.099090889137027
 30
0.0
 11
1.697492235139697
 21
7.206560358449034
 31
0.0
  0
LINE
  5
2AD9
330
1E
100
AcDbEntity
  8
7
100
AcDbLine
 10
1.697492235139697
 20
7.206560358449034
 30
0.0
 11
1.702422027309973
 21
7.206560358449034
 31
0.0
  0
LINE
  5
2ADA
330
1E
100
AcDbEntity
  8
7
100
AcDbLine
 10
1.702422027309973
 20
7.206560358449034
 30
0.0
 11
1.715239486952689
 21
7.206560358449034
 31
0.0
  0
LINE
  5
2ADB
330
1E
100
AcDbEntity
  8
7
100
AcDbLine
 10
1.715239486952689
 20
7.206560358449034
 30
0.0
 11
1.734958655633792
 21
7.206560358449034
 31
0.0
  0
LINE
  5
2ADC
330
1E
100
AcDbEntity
  8
7
100
AcDbLine
 10
1.734958655633792
 20
7.206560358449034
 30
0.0
 11
1.757635699617059
 21
7.206560358449034
 31
0.0
  0
LINE
  5
2ADD
330
1E
100
AcDbEntity
  8
7
100
AcDbLine
 10
1.757635699617059
 20
5.915940768270885
 30
0.0
 11
1.734958655633792
 21
5.911010976100609
 31
0.0
  0
LINE
  5
2ADE
330
1E
100
AcDbEntity
  8
7
100
AcDbLine
 10
1.734958655633792
 20
5.911010976100609
 30
0.0
 11
1.716225445386744
 21
5.898193516457892
 31
0.0
  0
LINE
  5
2ADF
330
1E
100
AcDbEntity
  8
7
100
AcDbLine
 10
1.716225445386744
 20
5.898193516457892
 30
0.0
 11
1.703407985744028
 21
5.879460306210845
 31
0.0
  0
LINE
  5
2AE0
330
1E
100
AcDbEntity
  8
7
100
AcDbLine
 10
1.703407985744028
 20
5.879460306210845
 30
0.0
 11
1.698478193573752
 21
5.856783262227578
 31
0.0
  0
LINE
  5
2AE1
330
1E
100
AcDbEntity
  8
7
100
AcDbLine
 10
1.983420181015682
 20
5.195205152976592
 30
0.0
 11
1.949897594257808
 21
5.191261319240373
 31
0.0
  0
LINE
  5
2AE2
330
1E
100
AcDbEntity
  8
7
100
AcDbLine
 10
1.949897594257808
 20
5.191261319240373
 30
0.0
 11
1.918346924368043
 21
5.17942981803171
 31
0.0
  0
LINE
  5
2AE3
330
1E
100
AcDbEntity
  8
7
100
AcDbLine
 10
1.918346924368043
 20
5.17942981803171
 30
0.0
 11
1.8907400882145
 21
5.159710649350609
 31
0.0
  0
LINE
  5
2AE4
330
1E
100
AcDbEntity
  8
7
100
AcDbLine
 10
2.195401244337532
 20
5.159710649350609
 30
0.0
 11
2.167794408183989
 21
5.17942981803171
 31
0.0
  0
LINE
  5
2AE5
330
1E
100
AcDbEntity
  8
7
100
AcDbLine
 10
2.167794408183989
 20
5.17942981803171
 30
0.0
 11
2.136243738294225
 21
5.191261319240373
 31
0.0
  0
LINE
  5
2AE6
330
1E
100
AcDbEntity
  8
7
100
AcDbLine
 10
2.136243738294225
 20
5.191261319240373
 30
0.0
 11
2.102721151536351
 21
5.195205152976592
 31
0.0
  0
LINE
  5
2AE7
330
1E
100
AcDbEntity
  8
7
100
AcDbLine
 10
1.8907400882145
 20
5.159710649350609
 30
0.0
 11
1.868063044231233
 21
5.135061688499232
 31
0.0
  0
LINE
  5
2AE8
330
1E
100
AcDbEntity
  8
7
100
AcDbLine
 10
1.868063044231233
 20
5.135061688499232
 30
0.0
 11
1.852287709286351
 21
5.104496977043522
 31
0.0
  0
LINE
  5
2AE9
330
1E
100
AcDbEntity
  8
7
100
AcDbLine
 10
1.852287709286351
 20
5.104496977043522
 30
0.0
 11
1.84440004181391
 21
5.071960348719704
 31
0.0
  0
LINE
  5
2AEA
330
1E
100
AcDbEntity
  8
7
100
AcDbLine
 10
1.84440004181391
 20
5.071960348719704
 30
0.0
 11
1.84440004181391
 21
5.038437761961828
 31
0.0
  0
LINE
  5
2AEB
330
1E
100
AcDbEntity
  8
7
100
AcDbLine
 10
1.84440004181391
 20
5.038437761961828
 30
0.0
 11
1.852287709286351
 21
5.00590113363801
 31
0.0
  0
LINE
  5
2AEC
330
1E
100
AcDbEntity
  8
7
100
AcDbLine
 10
1.852287709286351
 20
5.00590113363801
 30
0.0
 11
1.868063044231233
 21
4.975336422182301
 31
0.0
  0
LINE
  5
2AED
330
1E
100
AcDbEntity
  8
7
100
AcDbLine
 10
1.868063044231233
 20
4.975336422182301
 30
0.0
 11
1.8907400882145
 21
4.950687461330923
 31
0.0
  0
LINE
  5
2AEE
330
1E
100
AcDbEntity
  8
7
100
AcDbLine
 10
1.8907400882145
 20
4.950687461330923
 30
0.0
 11
1.918346924368043
 21
4.930968292649822
 31
0.0
  0
LINE
  5
2AEF
330
1E
100
AcDbEntity
  8
7
100
AcDbLine
 10
1.918346924368043
 20
4.930968292649822
 30
0.0
 11
1.949897594257808
 21
4.91913679144116
 31
0.0
  0
LINE
  5
2AF0
330
1E
100
AcDbEntity
  8
7
100
AcDbLine
 10
1.949897594257808
 20
4.91913679144116
 30
0.0
 11
1.983420181015682
 21
4.91519295770494
 31
0.0
  0
LINE
  5
2AF1
330
1E
100
AcDbEntity
  8
7
100
AcDbLine
 10
2.102721151536351
 20
4.91519295770494
 30
0.0
 11
2.136243738294225
 21
4.91913679144116
 31
0.0
  0
LINE
  5
2AF2
330
1E
100
AcDbEntity
  8
7
100
AcDbLine
 10
2.136243738294225
 20
4.91913679144116
 30
0.0
 11
2.167794408183989
 21
4.930968292649822
 31
0.0
  0
LINE
  5
2AF3
330
1E
100
AcDbEntity
  8
7
100
AcDbLine
 10
2.167794408183989
 20
4.930968292649822
 30
0.0
 11
2.195401244337532
 21
4.950687461330923
 31
0.0
  0
LINE
  5
2AF4
330
1E
100
AcDbEntity
  8
7
100
AcDbLine
 10
2.195401244337532
 20
4.950687461330923
 30
0.0
 11
2.218078288320799
 21
4.975336422182301
 31
0.0
  0
LINE
  5
2AF5
330
1E
100
AcDbEntity
  8
7
100
AcDbLine
 10
2.218078288320799
 20
4.975336422182301
 30
0.0
 11
2.233853623265681
 21
5.00590113363801
 31
0.0
  0
LINE
  5
2AF6
330
1E
100
AcDbEntity
  8
7
100
AcDbLine
 10
2.233853623265681
 20
5.00590113363801
 30
0.0
 11
2.241741290738122
 21
5.038437761961828
 31
0.0
  0
LINE
  5
2AF7
330
1E
100
AcDbEntity
  8
7
100
AcDbLine
 10
2.241741290738122
 20
5.038437761961828
 30
0.0
 11
2.241741290738122
 21
5.071960348719704
 31
0.0
  0
LINE
  5
2AF8
330
1E
100
AcDbEntity
  8
7
100
AcDbLine
 10
2.241741290738122
 20
5.071960348719704
 30
0.0
 11
2.233853623265681
 21
5.104496977043522
 31
0.0
  0
LINE
  5
2AF9
330
1E
100
AcDbEntity
  8
7
100
AcDbLine
 10
2.233853623265681
 20
5.104496977043522
 30
0.0
 11
2.218078288320799
 21
5.135061688499232
 31
0.0
  0
LINE
  5
2AFA
330
1E
100
AcDbEntity
  8
7
100
AcDbLine
 10
2.218078288320799
 20
5.135061688499232
 30
0.0
 11
2.195401244337532
 21
5.159710649350609
 31
0.0
  0
LINE
  5
2AFB
330
1E
100
AcDbEntity
  8
7
100
AcDbLine
 10
1.918346924368043
 20
5.557051898274822
 30
0.0
 11
1.949897594257808
 21
5.545220397066159
 31
0.0
  0
LINE
  5
2AFC
330
1E
100
AcDbEntity
  8
7
100
AcDbLine
 10
1.949897594257808
 20
5.545220397066159
 30
0.0
 11
1.983420181015682
 21
5.54127656332994
 31
0.0
  0
LINE
  5
2AFD
330
1E
100
AcDbEntity
  8
7
100
AcDbLine
 10
2.102721151536351
 20
5.54127656332994
 30
0.0
 11
2.136243738294225
 21
5.545220397066159
 31
0.0
  0
LINE
  5
2AFE
330
1E
100
AcDbEntity
  8
7
100
AcDbLine
 10
2.136243738294225
 20
5.545220397066159
 30
0.0
 11
2.167794408183989
 21
5.557051898274822
 31
0.0
  0
LINE
  5
2AFF
330
1E
100
AcDbEntity
  8
7
100
AcDbLine
 10
1.983420181015682
 20
5.821288758601593
 30
0.0
 11
1.949897594257808
 21
5.817344924865373
 31
0.0
  0
LINE
  5
2B00
330
1E
100
AcDbEntity
  8
7
100
AcDbLine
 10
1.949897594257808
 20
5.817344924865373
 30
0.0
 11
1.918346924368043
 21
5.80551342365671
 31
0.0
  0
LINE
  5
2B01
330
1E
100
AcDbEntity
  8
7
100
AcDbLine
 10
1.918346924368043
 20
5.80551342365671
 30
0.0
 11
1.8907400882145
 21
5.785794254975609
 31
0.0
  0
LINE
  5
2B02
330
1E
100
AcDbEntity
  8
7
100
AcDbLine
 10
1.8907400882145
 20
5.785794254975609
 30
0.0
 11
1.868063044231233
 21
5.761145294124231
 31
0.0
  0
LINE
  5
2B03
330
1E
100
AcDbEntity
  8
7
100
AcDbLine
 10
1.868063044231233
 20
5.761145294124231
 30
0.0
 11
1.852287709286351
 21
5.730580582668522
 31
0.0
  0
LINE
  5
2B04
330
1E
100
AcDbEntity
  8
7
100
AcDbLine
 10
1.852287709286351
 20
5.730580582668522
 30
0.0
 11
1.84440004181391
 21
5.698043954344704
 31
0.0
  0
LINE
  5
2B05
330
1E
100
AcDbEntity
  8
7
100
AcDbLine
 10
1.84440004181391
 20
5.698043954344704
 30
0.0
 11
1.84440004181391
 21
5.664521367586829
 31
0.0
  0
LINE
  5
2B06
330
1E
100
AcDbEntity
  8
7
100
AcDbLine
 10
1.84440004181391
 20
5.664521367586829
 30
0.0
 11
1.852287709286351
 21
5.63198473926301
 31
0.0
  0
LINE
  5
2B07
330
1E
100
AcDbEntity
  8
7
100
AcDbLine
 10
1.852287709286351
 20
5.63198473926301
 30
0.0
 11
1.868063044231233
 21
5.601420027807302
 31
0.0
  0
LINE
  5
2B08
330
1E
100
AcDbEntity
  8
7
100
AcDbLine
 10
1.868063044231233
 20
5.601420027807302
 30
0.0
 11
1.8907400882145
 21
5.576771066955924
 31
0.0
  0
LINE
  5
2B09
330
1E
100
AcDbEntity
  8
7
100
AcDbLine
 10
1.8907400882145
 20
5.576771066955924
 30
0.0
 11
1.918346924368043
 21
5.557051898274822
 31
0.0
  0
LINE
  5
2B0A
330
1E
100
AcDbEntity
  8
7
100
AcDbLine
 10
2.167794408183989
 20
5.557051898274822
 30
0.0
 11
2.195401244337532
 21
5.576771066955924
 31
0.0
  0
LINE
  5
2B0B
330
1E
100
AcDbEntity
  8
7
100
AcDbLine
 10
2.195401244337532
 20
5.576771066955924
 30
0.0
 11
2.218078288320799
 21
5.601420027807302
 31
0.0
  0
LINE
  5
2B0C
330
1E
100
AcDbEntity
  8
7
100
AcDbLine
 10
2.218078288320799
 20
5.601420027807302
 30
0.0
 11
2.233853623265681
 21
5.63198473926301
 31
0.0
  0
LINE
  5
2B0D
330
1E
100
AcDbEntity
  8
7
100
AcDbLine
 10
2.233853623265681
 20
5.63198473926301
 30
0.0
 11
2.241741290738122
 21
5.664521367586829
 31
0.0
  0
LINE
  5
2B0E
330
1E
100
AcDbEntity
  8
7
100
AcDbLine
 10
2.241741290738122
 20
5.664521367586829
 30
0.0
 11
2.241741290738122
 21
5.698043954344704
 31
0.0
  0
LINE
  5
2B0F
330
1E
100
AcDbEntity
  8
7
100
AcDbLine
 10
2.241741290738122
 20
5.698043954344704
 30
0.0
 11
2.233853623265681
 21
5.730580582668522
 31
0.0
  0
LINE
  5
2B10
330
1E
100
AcDbEntity
  8
7
100
AcDbLine
 10
2.233853623265681
 20
5.730580582668522
 30
0.0
 11
2.218078288320799
 21
5.761145294124231
 31
0.0
  0
LINE
  5
2B11
330
1E
100
AcDbEntity
  8
7
100
AcDbLine
 10
2.218078288320799
 20
5.761145294124231
 30
0.0
 11
2.195401244337532
 21
5.785794254975609
 31
0.0
  0
LINE
  5
2B12
330
1E
100
AcDbEntity
  8
7
100
AcDbLine
 10
2.195401244337532
 20
5.785794254975609
 30
0.0
 11
2.167794408183989
 21
5.80551342365671
 31
0.0
  0
LINE
  5
2B13
330
1E
100
AcDbEntity
  8
7
100
AcDbLine
 10
2.167794408183989
 20
5.80551342365671
 30
0.0
 11
2.136243738294225
 21
5.817344924865373
 31
0.0
  0
LINE
  5
2B14
330
1E
100
AcDbEntity
  8
7
100
AcDbLine
 10
2.136243738294225
 20
5.817344924865373
 30
0.0
 11
2.102721151536351
 21
5.821288758601593
 31
0.0
  0
LINE
  5
2B18
330
1E
100
AcDbEntity
  8
7
100
AcDbLine
 10
4.125907858217453
 20
5.607335778411632
 30
0.0
 11
4.143655110030445
 21
5.630998780828956
 31
0.0
  0
LINE
  5
2B19
330
1E
100
AcDbEntity
  8
7
100
AcDbLine
 10
4.143655110030445
 20
5.630998780828956
 30
0.0
 11
4.153514694370995
 21
5.659591575416555
 31
0.0
  0
LINE
  5
2B1A
330
1E
100
AcDbEntity
  8
7
100
AcDbLine
 10
4.153514694370995
 20
5.659591575416555
 30
0.0
 11
4.155486611239107
 21
5.689170328438208
 31
0.0
  0
LINE
  5
2B1B
330
1E
100
AcDbEntity
  8
7
100
AcDbLine
 10
4.155486611239107
 20
5.689170328438208
 30
0.0
 11
4.149570860634776
 21
5.717763123025806
 31
0.0
  0
LINE
  5
2B1C
330
1E
100
AcDbEntity
  8
7
100
AcDbLine
 10
4.149570860634776
 20
5.717763123025806
 30
0.0
 11
4.135767442558004
 21
5.743398042311238
 31
0.0
  0
LINE
  5
2B1D
330
1E
100
AcDbEntity
  8
7
100
AcDbLine
 10
4.135767442558004
 20
5.743398042311238
 30
0.0
 11
4.115062315442846
 21
5.765089127860451
 31
0.0
  0
LINE
  5
2B1E
330
1E
100
AcDbEntity
  8
7
100
AcDbLine
 10
4.115062315442846
 20
5.765089127860451
 30
0.0
 11
4.090413354591468
 21
5.780864462805333
 31
0.0
  0
LINE
  5
2B1F
330
1E
100
AcDbEntity
  8
7
100
AcDbLine
 10
4.090413354591468
 20
5.780864462805333
 30
0.0
 11
4.06182056000387
 21
5.788752130277774
 31
0.0
  0
LINE
  5
2B20
330
1E
100
AcDbEntity
  8
7
100
AcDbLine
 10
4.06182056000387
 20
5.788752130277774
 30
0.0
 11
4.032241806982217
 21
5.788752130277774
 31
0.0
  0
LINE
  5
2B21
330
1E
100
AcDbEntity
  8
7
100
AcDbLine
 10
4.032241806982217
 20
5.788752130277774
 30
0.0
 11
4.003649012394619
 21
5.780864462805333
 31
0.0
  0
LINE
  5
2B22
330
1E
100
AcDbEntity
  8
7
100
AcDbLine
 10
4.003649012394619
 20
5.780864462805333
 30
0.0
 11
3.97900005154324
 21
5.765089127860451
 31
0.0
  0
LINE
  5
2B23
330
1E
100
AcDbEntity
  8
7
100
AcDbLine
 10
3.97900005154324
 20
5.765089127860451
 30
0.0
 11
3.958294924428083
 21
5.743398042311238
 31
0.0
  0
LINE
  5
2B24
330
1E
100
AcDbEntity
  8
7
100
AcDbLine
 10
3.958294924428083
 20
5.743398042311238
 30
0.0
 11
3.944491506351312
 21
5.717763123025806
 31
0.0
  0
LINE
  5
2B25
330
1E
100
AcDbEntity
  8
7
100
AcDbLine
 10
3.944491506351312
 20
5.717763123025806
 30
0.0
 11
3.938575755746981
 21
5.689170328438208
 31
0.0
  0
LINE
  5
2B26
330
1E
100
AcDbEntity
  8
7
100
AcDbLine
 10
4.076609936514698
 20
4.950687461330923
 30
0.0
 11
4.103230814234185
 21
4.962518962539586
 31
0.0
  0
LINE
  5
2B27
330
1E
100
AcDbEntity
  8
7
100
AcDbLine
 10
4.103230814234185
 20
4.962518962539586
 30
0.0
 11
4.125907858217453
 21
4.981252172786632
 31
0.0
  0
LINE
  5
2B28
330
1E
100
AcDbEntity
  8
7
100
AcDbLine
 10
4.125907858217453
 20
4.981252172786632
 30
0.0
 11
4.143655110030445
 21
5.004915175203955
 31
0.0
  0
LINE
  5
2B29
330
1E
100
AcDbEntity
  8
7
100
AcDbLine
 10
4.143655110030445
 20
5.004915175203955
 30
0.0
 11
4.153514694370995
 21
5.033507969791554
 31
0.0
  0
LINE
  5
2B2A
330
1E
100
AcDbEntity
  8
7
100
AcDbLine
 10
4.153514694370995
 20
5.033507969791554
 30
0.0
 11
4.155486611239107
 21
5.063086722813208
 31
0.0
  0
LINE
  5
2B2B
330
1E
100
AcDbEntity
  8
7
100
AcDbLine
 10
4.155486611239107
 20
5.063086722813208
 30
0.0
 11
4.149570860634776
 21
5.091679517400805
 31
0.0
  0
LINE
  5
2B2C
330
1E
100
AcDbEntity
  8
7
100
AcDbLine
 10
4.149570860634776
 20
5.091679517400805
 30
0.0
 11
4.135767442558004
 21
5.117314436686238
 31
0.0
  0
LINE
  5
2B2D
330
1E
100
AcDbEntity
  8
7
100
AcDbLine
 10
4.135767442558004
 20
5.117314436686238
 30
0.0
 11
4.115062315442846
 21
5.139005522235452
 31
0.0
  0
LINE
  5
2B2E
330
1E
100
AcDbEntity
  8
7
100
AcDbLine
 10
4.115062315442846
 20
5.139005522235452
 30
0.0
 11
4.090413354591468
 21
5.154780857180333
 31
0.0
  0
LINE
  5
2B2F
330
1E
100
AcDbEntity
  8
7
100
AcDbLine
 10
4.090413354591468
 20
5.154780857180333
 30
0.0
 11
4.06182056000387
 21
5.162668524652774
 31
0.0
  0
LINE
  5
2B30
330
1E
100
AcDbEntity
  8
7
100
AcDbLine
 10
4.06182056000387
 20
5.162668524652774
 30
0.0
 11
4.032241806982217
 21
5.162668524652774
 31
0.0
  0
LINE
  5
2B31
330
1E
100
AcDbEntity
  8
7
100
AcDbLine
 10
4.032241806982217
 20
5.162668524652774
 30
0.0
 11
4.003649012394619
 21
5.154780857180333
 31
0.0
  0
LINE
  5
2B32
330
1E
100
AcDbEntity
  8
7
100
AcDbLine
 10
4.003649012394619
 20
5.154780857180333
 30
0.0
 11
3.97900005154324
 21
5.139005522235452
 31
0.0
  0
LINE
  5
2B33
330
1E
100
AcDbEntity
  8
7
100
AcDbLine
 10
3.97900005154324
 20
5.139005522235452
 30
0.0
 11
3.958294924428083
 21
5.117314436686238
 31
0.0
  0
LINE
  5
2B34
330
1E
100
AcDbEntity
  8
7
100
AcDbLine
 10
3.958294924428083
 20
5.117314436686238
 30
0.0
 11
3.944491506351312
 21
5.091679517400805
 31
0.0
  0
LINE
  5
2B35
330
1E
100
AcDbEntity
  8
7
100
AcDbLine
 10
3.944491506351312
 20
5.091679517400805
 30
0.0
 11
3.938575755746981
 21
5.063086722813208
 31
0.0
  0
LINE
  5
2B36
330
1E
100
AcDbEntity
  8
7
100
AcDbLine
 10
3.938575755746981
 20
5.063086722813208
 30
0.0
 11
3.940547672615091
 21
5.033507969791554
 31
0.0
  0
LINE
  5
2B37
330
1E
100
AcDbEntity
  8
7
100
AcDbLine
 10
3.940547672615091
 20
5.033507969791554
 30
0.0
 11
3.950407256955642
 21
5.004915175203955
 31
0.0
  0
LINE
  5
2B38
330
1E
100
AcDbEntity
  8
7
100
AcDbLine
 10
3.950407256955642
 20
5.004915175203955
 30
0.0
 11
3.968154508768634
 21
4.981252172786632
 31
0.0
  0
LINE
  5
2B39
330
1E
100
AcDbEntity
  8
7
100
AcDbLine
 10
3.968154508768634
 20
4.981252172786632
 30
0.0
 11
3.990831552751902
 21
4.962518962539586
 31
0.0
  0
LINE
  5
2B3A
330
1E
100
AcDbEntity
  8
7
100
AcDbLine
 10
3.990831552751902
 20
4.962518962539586
 30
0.0
 11
4.017452430471389
 21
4.950687461330923
 31
0.0
  0
LINE
  5
2B3B
330
1E
100
AcDbEntity
  8
7
100
AcDbLine
 10
4.017452430471389
 20
4.950687461330923
 30
0.0
 11
4.047031183493043
 21
4.946743627594704
 31
0.0
  0
LINE
  5
2B3C
330
1E
100
AcDbEntity
  8
7
100
AcDbLine
 10
3.938575755746981
 20
5.689170328438208
 30
0.0
 11
3.940547672615091
 21
5.659591575416555
 31
0.0
  0
LINE
  5
2B3D
330
1E
100
AcDbEntity
  8
7
100
AcDbLine
 10
3.940547672615091
 20
5.659591575416555
 30
0.0
 11
3.950407256955642
 21
5.630998780828956
 31
0.0
  0
LINE
  5
2B3E
330
1E
100
AcDbEntity
  8
7
100
AcDbLine
 10
3.950407256955642
 20
5.630998780828956
 30
0.0
 11
3.968154508768634
 21
5.607335778411632
 31
0.0
  0
LINE
  5
2B3F
330
1E
100
AcDbEntity
  8
7
100
AcDbLine
 10
3.968154508768634
 20
5.607335778411632
 30
0.0
 11
3.990831552751902
 21
5.588602568164586
 31
0.0
  0
LINE
  5
2B40
330
1E
100
AcDbEntity
  8
7
100
AcDbLine
 10
3.990831552751902
 20
5.588602568164586
 30
0.0
 11
4.017452430471389
 21
5.576771066955924
 31
0.0
  0
LINE
  5
2B41
330
1E
100
AcDbEntity
  8
7
100
AcDbLine
 10
4.017452430471389
 20
5.576771066955924
 30
0.0
 11
4.047031183493043
 21
5.572827233219705
 31
0.0
  0
LINE
  5
2B42
330
1E
100
AcDbEntity
  8
7
100
AcDbLine
 10
4.047031183493043
 20
5.572827233219705
 30
0.0
 11
4.076609936514698
 21
5.576771066955924
 31
0.0
  0
LINE
  5
2B43
330
1E
100
AcDbEntity
  8
7
100
AcDbLine
 10
4.076609936514698
 20
5.576771066955924
 30
0.0
 11
4.103230814234185
 21
5.588602568164586
 31
0.0
  0
LINE
  5
2B44
330
1E
100
AcDbEntity
  8
7
100
AcDbLine
 10
4.103230814234185
 20
5.588602568164586
 30
0.0
 11
4.125907858217453
 21
5.607335778411632
 31
0.0
  0
LINE
  5
2B45
330
1E
100
AcDbEntity
  8
7
100
AcDbLine
 10
2.866838937929067
 20
5.91692672670494
 30
0.0
 11
2.900361524686941
 21
5.91692672670494
 31
0.0
  0
LINE
  5
2B46
330
1E
100
AcDbEntity
  8
7
100
AcDbLine
 10
2.900361524686941
 20
5.91692672670494
 30
0.0
 11
2.931912194576705
 21
5.91692672670494
 31
0.0
  0
LINE
  5
2B47
330
1E
100
AcDbEntity
  8
7
100
AcDbLine
 10
2.995013534356233
 20
5.91692672670494
 30
0.0
 11
3.036423788586548
 21
5.91692672670494
 31
0.0
  0
LINE
  5
2B48
330
1E
100
AcDbEntity
  8
7
100
AcDbLine
 10
3.036423788586548
 20
5.91692672670494
 30
0.0
 11
3.080791918119028
 21
5.91692672670494
 31
0.0
  0
LINE
  5
2B49
330
1E
100
AcDbEntity
  8
7
100
AcDbLine
 10
3.080791918119028
 20
5.91692672670494
 30
0.0
 11
3.128117922953673
 21
5.91692672670494
 31
0.0
  0
LINE
  5
2B4A
330
1E
100
AcDbEntity
  8
7
100
AcDbLine
 10
3.034451871718438
 20
7.13655730963112
 30
0.0
 11
2.998957368092453
 21
7.166136062652774
 31
0.0
  0
LINE
  5
2B4B
330
1E
100
AcDbEntity
  8
7
100
AcDbLine
 10
2.998957368092453
 20
7.166136062652774
 30
0.0
 11
2.957547113862138
 21
7.188813106636042
 31
0.0
  0
LINE
  5
2B4C
330
1E
100
AcDbEntity
  8
7
100
AcDbLine
 10
2.957547113862138
 20
7.188813106636042
 30
0.0
 11
2.913178984329658
 21
7.201630566278759
 31
0.0
  0
LINE
  5
2B4D
330
1E
100
AcDbEntity
  8
7
100
AcDbLine
 10
2.913178984329658
 20
7.201630566278759
 30
0.0
 11
2.866838937929067
 21
7.206560358449034
 31
0.0
  0
LINE
  5
2B4E
330
1E
100
AcDbEntity
  8
7
100
AcDbLine
 10
2.958533072296193
 20
7.060638510208877
 30
0.0
 11
2.931912194576705
 21
7.081343637324033
 31
0.0
  0
LINE
  5
2B4F
330
1E
100
AcDbEntity
  8
7
100
AcDbLine
 10
2.931912194576705
 20
7.081343637324033
 30
0.0
 11
2.900361524686941
 21
7.095147055400806
 31
0.0
  0
LINE
  5
2B50
330
1E
100
AcDbEntity
  8
7
100
AcDbLine
 10
2.900361524686941
 20
7.095147055400806
 30
0.0
 11
2.866838937929067
 21
7.099090889137027
 31
0.0
  0
LINE
  5
2B51
330
1E
100
AcDbEntity
  8
7
100
AcDbLine
 10
3.036423788586548
 20
7.137543268065177
 30
0.0
 11
3.063044666306036
 21
7.116838140950019
 31
0.0
  0
LINE
  5
2B52
330
1E
100
AcDbEntity
  8
7
100
AcDbLine
 10
3.063044666306036
 20
7.116838140950019
 30
0.0
 11
3.0945953361958
 21
7.103034722873247
 31
0.0
  0
LINE
  5
2B53
330
1E
100
AcDbEntity
  8
7
100
AcDbLine
 10
3.0945953361958
 20
7.103034722873247
 30
0.0
 11
3.128117922953673
 21
7.099090889137027
 31
0.0
  0
LINE
  5
2B54
330
1E
100
AcDbEntity
  8
7
100
AcDbLine
 10
2.960504989164304
 20
7.061624468642932
 30
0.0
 11
2.995999492790288
 21
7.032045715621278
 31
0.0
  0
LINE
  5
2B55
330
1E
100
AcDbEntity
  8
7
100
AcDbLine
 10
2.995999492790288
 20
7.032045715621278
 30
0.0
 11
3.037409747020603
 21
7.009368671638011
 31
0.0
  0
LINE
  5
2B56
330
1E
100
AcDbEntity
  8
7
100
AcDbLine
 10
3.037409747020603
 20
7.009368671638011
 30
0.0
 11
3.081777876553083
 21
6.996551211995295
 31
0.0
  0
LINE
  5
2B57
330
1E
100
AcDbEntity
  8
7
100
AcDbLine
 10
4.296478667308988
 20
5.856783262227578
 30
0.0
 11
4.291548875138714
 21
5.879460306210845
 31
0.0
  0
LINE
  5
2B58
330
1E
100
AcDbEntity
  8
7
100
AcDbLine
 10
4.291548875138714
 20
5.879460306210845
 30
0.0
 11
4.278731415495996
 21
5.898193516457892
 31
0.0
  0
LINE
  5
2B59
330
1E
100
AcDbEntity
  8
7
100
AcDbLine
 10
4.278731415495996
 20
5.898193516457892
 30
0.0
 11
4.259998205248948
 21
5.911010976100609
 31
0.0
  0
LINE
  5
2B5A
330
1E
100
AcDbEntity
  8
7
100
AcDbLine
 10
4.259998205248948
 20
5.911010976100609
 30
0.0
 11
4.237321161265681
 21
5.915940768270885
 31
0.0
  0
LINE
  5
2B5B
330
1E
100
AcDbEntity
  8
7
100
AcDbLine
 10
4.237321161265681
 20
7.099090889137027
 30
0.0
 11
4.259998205248948
 21
7.099090889137027
 31
0.0
  0
LINE
  5
2B5C
330
1E
100
AcDbEntity
  8
7
100
AcDbLine
 10
4.259998205248948
 20
7.099090889137027
 30
0.0
 11
4.279717373930051
 21
7.099090889137027
 31
0.0
  0
LINE
  5
2B5D
330
1E
100
AcDbEntity
  8
7
100
AcDbLine
 10
4.279717373930051
 20
7.099090889137027
 30
0.0
 11
4.292534833572767
 21
7.099090889137027
 31
0.0
  0
LINE
  5
2B5E
330
1E
100
AcDbEntity
  8
7
100
AcDbLine
 10
4.292534833572767
 20
7.099090889137027
 30
0.0
 11
4.297464625743043
 21
7.099090889137027
 31
0.0
  0
LINE
  5
2B5F
330
1E
100
AcDbEntity
  8
7
100
AcDbLine
 10
4.297464625743043
 20
7.099090889137027
 30
0.0
 11
4.297464625743043
 21
6.990635461390964
 31
0.0
  0
LINE
  5
2B60
330
1E
100
AcDbEntity
  8
7
100
AcDbLine
 10
4.297464625743043
 20
6.990635461390964
 30
0.0
 11
4.292534833572767
 21
6.990635461390964
 31
0.0
  0
LINE
  5
2B61
330
1E
100
AcDbEntity
  8
7
100
AcDbLine
 10
4.292534833572767
 20
6.990635461390964
 30
0.0
 11
4.279717373930051
 21
6.990635461390964
 31
0.0
  0
LINE
  5
2B62
330
1E
100
AcDbEntity
  8
7
100
AcDbLine
 10
4.279717373930051
 20
6.990635461390964
 30
0.0
 11
4.259998205248948
 21
6.990635461390964
 31
0.0
  0
LINE
  5
2B63
330
1E
100
AcDbEntity
  8
7
100
AcDbLine
 10
4.259998205248948
 20
6.990635461390964
 30
0.0
 11
4.237321161265681
 21
6.990635461390964
 31
0.0
  0
ENDSEC
  0
SECTION
  2
OBJECTS
  0
DICTIONARY
  5
C
330
0
100
AcDbDictionary
  3
ACAD_GROUP
350
D
  3
ACAD_LAYOUT
350
19
  3
ACAD_MLINESTYLE
350
16
  3
ACAD_PLOTSETTINGS
350
18
  3
ACAD_PLOTSTYLENAME
350
E
  3
ACDBHEADERROUNDTRIPXREC
350
2BE7
  0
DICTIONARY
  5
2C0A
330
1E
100
AcDbDictionary
280
     1
  3
ACAD_LAYOUTSELFREF
360
2C0B
  0
DICTIONARY
  5
2C08
330
1A
100
AcDbDictionary
280
     1
  3
ACAD_LAYOUTSELFREF
360
2C09
  0
DICTIONARY
  5
D
102
{ACAD_REACTORS
330
C
102
}
330
C
100
AcDbDictionary
  0
DICTIONARY
  5
19
102
{ACAD_REACTORS
330
C
102
}
330
C
100
AcDbDictionary
  0
DICTIONARY
  5
16
102
{ACAD_REACTORS
330
C
102
}
330
C
100
AcDbDictionary
  3
STANDARD
350
17
  0
DICTIONARY
  5
18
102
{ACAD_REACTORS
330
C
102
}
330
C
100
AcDbDictionary
  0
ACDBDICTIONARYWDFLT
  5
E
102
{ACAD_REACTORS
330
C
102
}
330
C
100
AcDbDictionary
281
     1
  3
Normal
350
F
100
AcDbDictionaryWithDefault
340
F
  0
DICTIONARY
  5
2BE7
102
{ACAD_REACTORS
330
C
102
}
330
C
100
AcDbDictionary
  3
CEPSNTYPE
350
2BF1
  3
DIMSTYLEDATA
350
2BF5
  3
FINGERPRINTGUID
350
2BF2
  3
HYPERLINKBASE
350
2BEA
  3
INSUNITS
350
2BF0
  3
LAYOUTDICT
350
2BEC
  3
LWETCUNION
350
2BEF
  3
PLOTSETDICT
350
2BED
  3
PLOTSTYLNAMDICT
350
2BEE
  3
PSVPSCALE
350
2BF4
  3
PUCSBASE
350
2BF8
  3
PUCSORGBACK
350
2BFE
  3
PUCSORGBOTTOM
350
2BFA
  3
PUCSORGFRONT
350
2BFD
  3
PUCSORGLEFT
350
2BFB
  3
PUCSORGRIGHT
350
2BFC
  3
PUCSORGTOP
350
2BF9
  3
PUCSORTHOREF
350
2BF6
  3
PUCSORTHOVIEW
350
2BF7
  3
STYLESHEET
350
2BEB
  3
TSTACKALIGN
350
2BE8
  3
TSTACKSIZE
350
2BE9
  3
UCSBASE
350
2C01
  3
UCSORGBACK
350
2C07
  3
UCSORGBOTTOM
350
2C03
  3
UCSORGFRONT
350
2C06
  3
UCSORGLEFT
350
2C04
  3
UCSORGRIGHT
350
2C05
  3
UCSORGTOP
350
2C02
  3
UCSORTHOREF
350
2BFF
  3
UCSORTHOVIEW
350
2C00
  3
VERSIONGUID
350
2BF3
  0
XRECORD
  5
2C0B
102
{ACAD_REACTORS
330
2C0A
102
}
330
2C0A
100
AcDbXrecord
340
1E
  0
XRECORD
  5
2C09
102
{ACAD_REACTORS
330
2C08
102
}
330
2C08
100
AcDbXrecord
340
1A
  0
MLINESTYLE
  5
17
102
{ACAD_REACTORS
330
16
102
}
330
16
100
AcDbMlineStyle
  2
STANDARD
 70
     0
  3

 62
   256
 51
90.0
 52
90.0
 71
     2
 49
0.5
 62
   256
  6
BYLAYER
 49
-0.5
 62
   256
  6
BYLAYER
  0
ACDBPLACEHOLDER
  5
F
102
{ACAD_REACTORS
330
E
102
}
330
E
100
AcDbPlaceHolder
280
     0
  0
XRECORD
  5
2BF1
102
{ACAD_REACTORS
330
2BE7
102
}
330
2BE7
100
AcDbXrecord
 90
        0
  0
XRECORD
  5
2BF5
102
{ACAD_REACTORS
330
2BE7
102
}
330
2BE7
100
AcDbXrecord
1000
DSTYLE
1002
{
1070
   279
 70
     2
1002
}
  0
XRECORD
  5
2BF2
102
{ACAD_REACTORS
330
2BE7
102
}
330
2BE7
100
AcDbXrecord
  1
{3A7EC144-5DFF-11D6-B7D2-00B0D0207C23}
  0
XRECORD
  5
2BEA
102
{ACAD_REACTORS
330
2BE7
102
}
330
2BE7
100
AcDbXrecord
  1

  0
XRECORD
  5
2BF0
102
{ACAD_REACTORS
330
2BE7
102
}
330
2BE7
100
AcDbXrecord
 90
        0
  0
XRECORD
  5
2BEC
102
{ACAD_REACTORS
330
2BE7
102
}
330
2BE7
100
AcDbXrecord
340
19
  0
XRECORD
  5
2BEF
102
{ACAD_REACTORS
330
2BE7
102
}
330
2BE7
100
AcDbXrecord
 90
    14877
  0
XRECORD
  5
2BED
102
{ACAD_REACTORS
330
2BE7
102
}
330
2BE7
100
AcDbXrecord
340
18
  0
XRECORD
  5
2BEE
102
{ACAD_REACTORS
330
2BE7
102
}
330
2BE7
100
AcDbXrecord
340
E
  0
XRECORD
  5
2BF4
102
{ACAD_REACTORS
330
2BE7
102
}
330
2BE7
100
AcDbXrecord
 40
0.0
  0
XRECORD
  5
2BF8
102
{ACAD_REACTORS
330
2BE7
102
}
330
2BE7
100
AcDbXrecord
340
0
  0
XRECORD
  5
2BFE
102
{ACAD_REACTORS
330
2BE7
102
}
330
2BE7
100
AcDbXrecord
 10
0.0
 20
0.0
 30
0.0
  0
XRECORD
  5
2BFA
102
{ACAD_REACTORS
330
2BE7
102
}
330
2BE7
100
AcDbXrecord
 10
0.0
 20
0.0
 30
0.0
  0
XRECORD
  5
2BFD
102
{ACAD_REACTORS
330
2BE7
102
}
330
2BE7
100
AcDbXrecord
 10
0.0
 20
0.0
 30
0.0
  0
XRECORD
  5
2BFB
102
{ACAD_REACTORS
330
2BE7
102
}
330
2BE7
100
AcDbXrecord
 10
0.0
 20
0.0
 30
0.0
  0
XRECORD
  5
2BFC
102
{ACAD_REACTORS
330
2BE7
102
}
330
2BE7
100
AcDbXrecord
 10
0.0
 20
0.0
 30
0.0
  0
XRECORD
  5
2BF9
102
{ACAD_REACTORS
330
2BE7
102
}
330
2BE7
100
AcDbXrecord
 10
0.0
 20
0.0
 30
0.0
  0
XRECORD
  5
2BF6
102
{ACAD_REACTORS
330
2BE7
102
}
330
2BE7
100
AcDbXrecord
340
0
  0
XRECORD
  5
2BF7
102
{ACAD_REACTORS
330
2BE7
102
}
330
2BE7
100
AcDbXrecord
 70
     0
  0
XRECORD
  5
2BEB
102
{ACAD_REACTORS
330
2BE7
102
}
330
2BE7
100
AcDbXrecord
  1

  0
XRECORD
  5
2BE8
102
{ACAD_REACTORS
330
2BE7
102
}
330
2BE7
100
AcDbXrecord
 90
        1
  0
XRECORD
  5
2BE9
102
{ACAD_REACTORS
330
2BE7
102
}
330
2BE7
100
AcDbXrecord
 90
       70
  0
XRECORD
  5
2C01
102
{ACAD_REACTORS
330
2BE7
102
}
330
2BE7
100
AcDbXrecord
340
0
  0
XRECORD
  5
2C07
102
{ACAD_REACTORS
330
2BE7
102
}
330
2BE7
100
AcDbXrecord
 10
0.0
 20
0.0
 30
0.0
  0
XRECORD
  5
2C03
102
{ACAD_REACTORS
330
2BE7
102
}
330
2BE7
100
AcDbXrecord
 10
0.0
 20
0.0
 30
0.0
  0
XRECORD
  5
2C06
102
{ACAD_REACTORS
330
2BE7
102
}
330
2BE7
100
AcDbXrecord
 10
0.0
 20
0.0
 30
0.0
  0
XRECORD
  5
2C04
102
{ACAD_REACTORS
330
2BE7
102
}
330
2BE7
100
AcDbXrecord
 10
0.0
 20
0.0
 30
0.0
  0
XRECORD
  5
2C05
102
{ACAD_REACTORS
330
2BE7
102
}
330
2BE7
100
AcDbXrecord
 10
0.0
 20
0.0
 30
0.0
  0
XRECORD
  5
2C02
102
{ACAD_REACTORS
330
2BE7
102
}
330
2BE7
100
AcDbXrecord
 10
0.0
 20
0.0
 30
0.0
  0
XRECORD
  5
2BFF
102
{ACAD_REACTORS
330
2BE7
102
}
330
2BE7
100
AcDbXrecord
340
0
  0
XRECORD
  5
2C00
102
{ACAD_REACTORS
330
2BE7
102
}
330
2BE7
100
AcDbXrecord
 70
     0
  0
XRECORD
  5
2BF3
102
{ACAD_REACTORS
330
2BE7
102
}
330
2BE7
100
AcDbXrecord
  1
{3A7EC146-5DFF-11D6-B7D2-00B0D0207C23}
  0
ENDSEC
  0
EOF
