  0
SECTION
  2
HEADER
  9
$ACADVER
  1
AC1012
  9
$DWGCODEPAGE
  3
ANSI_1252
  9
$INSBASE
 10
0.0
 20
0.0
 30
0.0
  9
$EXTMIN
 10
-13.31726501443007
 20
-13.97099955544444
 30
-2.625891417768126
  9
$EXTMAX
 10
-6.84046786615687
 20
-9.470249802350608
 30
0.5640522631578247
  9
$LIMMIN
 10
0.0
 20
0.0
  9
$LIMMAX
 10
12.0
 20
9.0
  9
$ORTHOMODE
 70
     1
  9
$REGENMODE
 70
     1
  9
$FILLMODE
 70
     1
  9
$QTEXTMODE
 70
     0
  9
$MIRRTEXT
 70
     1
  9
$DRAGMODE
 70
     2
  9
$LTSCALE
 40
0.1929692547654676
  9
$OSMODE
 70
   547
  9
$ATTMODE
 70
     1
  9
$TEXTSIZE
 40
0.2
  9
$TRACEWID
 40
0.05
  9
$TEXTSTYLE
  7
STANDARD
  9
$CLAYER
  8
0
  9
$CELTYPE
  6
BYLAYER
  9
$CECOLOR
 62
   256
  9
$CELTSCALE
 40
1.0
  9
$DELOBJ
 70
     1
  9
$DISPSILH
 70
     0
  9
$DIMSCALE
 40
1.0
  9
$DIMASZ
 40
0.18
  9
$DIMEXO
 40
0.0625
  9
$DIMDLI
 40
0.38
  9
$DIMRND
 40
0.0
  9
$DIMDLE
 40
0.0
  9
$DIMEXE
 40
0.18
  9
$DIMTP
 40
0.0
  9
$DIMTM
 40
0.0
  9
$DIMTXT
 40
0.18
  9
$DIMCEN
 40
0.09
  9
$DIMTSZ
 40
0.0
  9
$DIMTOL
 70
     0
  9
$DIMLIM
 70
     0
  9
$DIMTIH
 70
     1
  9
$DIMTOH
 70
     1
  9
$DIMSE1
 70
     0
  9
$DIMSE2
 70
     0
  9
$DIMTAD
 70
     0
  9
$DIMZIN
 70
     0
  9
$DIMBLK
  1

  9
$DIMASO
 70
     1
  9
$DIMSHO
 70
     1
  9
$DIMPOST
  1

  9
$DIMAPOST
  1

  9
$DIMALT
 70
     1
  9
$DIMALTD
 70
     1
  9
$DIMALTF
 40
25.4
  9
$DIMLFAC
 40
1.0
  9
$DIMTOFL
 70
     0
  9
$DIMTVP
 40
0.0
  9
$DIMTIX
 70
     0
  9
$DIMSOXD
 70
     0
  9
$DIMSAH
 70
     0
  9
$DIMBLK1
  1

  9
$DIMBLK2
  1

  9
$DIMSTYLE
  2
STANDARD
  9
$DIMCLRD
 70
     0
  9
$DIMCLRE
 70
     0
  9
$DIMCLRT
 70
     0
  9
$DIMTFAC
 40
1.0
  9
$DIMGAP
 40
0.09
  9
$DIMJUST
 70
     0
  9
$DIMSD1
 70
     0
  9
$DIMSD2
 70
     0
  9
$DIMTOLJ
 70
     1
  9
$DIMTZIN
 70
     0
  9
$DIMALTZ
 70
     0
  9
$DIMALTTZ
 70
     0
  9
$DIMFIT
 70
     3
  9
$DIMUPT
 70
     0
  9
$DIMUNIT
 70
     2
  9
$DIMDEC
 70
     4
  9
$DIMTDEC
 70
     4
  9
$DIMALTU
 70
     2
  9
$DIMALTTD
 70
     2
  9
$DIMTXSTY
  7
STANDARD
  9
$DIMAUNIT
 70
     0
  9
$LUNITS
 70
     2
  9
$LUPREC
 70
     4
  9
$SKETCHINC
 40
0.1
  9
$FILLETRAD
 40
0.0
  9
$AUNITS
 70
     0
  9
$AUPREC
 70
     0
  9
$MENU
  1
acad
  9
$ELEVATION
 40
0.0
  9
$PELEVATION
 40
0.0
  9
$THICKNESS
 40
0.0
  9
$LIMCHECK
 70
     0
  9
$BLIPMODE
 70
     0
  9
$CHAMFERA
 40
0.0
  9
$CHAMFERB
 40
0.0
  9
$CHAMFERC
 40
0.0
  9
$CHAMFERD
 40
0.0
  9
$SKPOLY
 70
     0
  9
$TDCREATE
 40
2450409.624922407
  9
$TDUPDATE
 40
2453944.473402766
  9
$TDINDWG
 40
0.0018063310
  9
$TDUSRTIMER
 40
0.0018057870
  9
$USRTIMER
 70
     1
  9
$ANGBASE
 50
0.0
  9
$ANGDIR
 70
     0
  9
$PDMODE
 70
     0
  9
$PDSIZE
 40
0.0
  9
$PLINEWID
 40
0.0
  9
$COORDS
 70
     1
  9
$SPLFRAME
 70
     0
  9
$SPLINETYPE
 70
     6
  9
$SPLINESEGS
 70
     8
  9
$ATTDIA
 70
     0
  9
$ATTREQ
 70
     1
  9
$HANDLING
 70
  4097
  9
$HANDSEED
  5
A42
  9
$SURFTAB1
 70
     6
  9
$SURFTAB2
 70
     6
  9
$SURFTYPE
 70
     6
  9
$SURFU
 70
     6
  9
$SURFV
 70
     6
  9
$UCSNAME
  2

  9
$UCSORG
 10
0.0
 20
0.0
 30
0.0
  9
$UCSXDIR
 10
1.0
 20
0.0
 30
0.0
  9
$UCSYDIR
 10
0.0
 20
1.0
 30
0.0
  9
$PUCSNAME
  2

  9
$PUCSORG
 10
0.0
 20
0.0
 30
0.0
  9
$PUCSXDIR
 10
1.0
 20
0.0
 30
0.0
  9
$PUCSYDIR
 10
0.0
 20
1.0
 30
0.0
  9
$USERI1
 70
     0
  9
$USERI2
 70
     0
  9
$USERI3
 70
     0
  9
$USERI4
 70
     0
  9
$USERI5
 70
     0
  9
$USERR1
 40
0.0
  9
$USERR2
 40
0.0
  9
$USERR3
 40
0.0
  9
$USERR4
 40
0.0
  9
$USERR5
 40
0.0
  9
$WORLDVIEW
 70
     1
  9
$SHADEDGE
 70
     3
  9
$SHADEDIF
 70
    70
  9
$TILEMODE
 70
     1
  9
$MAXACTVP
 70
    16
  9
$PINSBASE
 10
0.0
 20
0.0
 30
0.0
  9
$PLIMCHECK
 70
     0
  9
$PEXTMIN
 10
1.000000000000000E+20
 20
1.000000000000000E+20
 30
1.000000000000000E+20
  9
$PEXTMAX
 10
-1.000000000000000E+20
 20
-1.000000000000000E+20
 30
-1.000000000000000E+20
  9
$PLIMMIN
 10
0.0
 20
0.0
  9
$PLIMMAX
 10
12.0
 20
9.0
  9
$UNITMODE
 70
     0
  9
$VISRETAIN
 70
     0
  9
$PLINEGEN
 70
     0
  9
$PSLTSCALE
 70
     1
  9
$TREEDEPTH
 70
  3020
  9
$PICKSTYLE
 70
     1
  9
$CMLSTYLE
  2
STANDARD
  9
$CMLJUST
 70
     0
  9
$CMLSCALE
 40
1.0
  9
$SAVEIMAGES
 70
     1
  0
ENDSEC
  0
SECTION
  2
CLASSES
  0
CLASS
  1
ACDBDICTIONARYWDFLT
  2
AcDbDictionaryWithDefault
  3
AutoCAD 2000
 90
    32768
280
     0
281
     0
  0
CLASS
  1
ACDBPLACEHOLDER
  2
AcDbPlaceHolder
  3
AutoCAD 2000
 90
    32768
280
     0
281
     0
  0
CLASS
  1
LAYOUT
  2
AcDbLayout
  3
AutoCAD 2000
 90
    32768
280
     0
281
     0
  0
CLASS
  1
LONG_TRANSACTION
  2
AcDbLongTransaction
  3
AutoCAD 2000
 90
    32768
280
     0
281
     0
  0
CLASS
  1
LWPOLYLINE
  2
AcDbPolyline
  3
AutoCAD 2000
 90
    32768
280
     0
281
     1
  0
CLASS
  1
HATCH
  2
AcDbHatch
  3
AutoCAD 2000
 90
    32768
280
     0
281
     1
  0
CLASS
  1
XRECORD
  2
AcDbXrecord
  3
AutoCAD 2000
 90
    32768
280
     0
281
     0
  0
CLASS
  1
LONG_TRANSACTION
  2
AcDbLongTransaction
  3
AutoCAD 2000
 90
    32768
280
     0
281
     0
  0
CLASS
  1
LWPOLYLINE
  2
AcDbPolyline
  3
AutoCAD 2000
 90
    32768
280
     0
281
     1
  0
CLASS
  1
HATCH
  2
AcDbHatch
  3
AutoCAD 2000
 90
    32768
280
     0
281
     1
  0
CLASS
  1
XRECORD
  2
AcDbXrecord
  3
AutoCAD 2000
 90
    32768
280
     0
281
     0
  0
ENDSEC
  0
SECTION
  2
TABLES
  0
TABLE
  2
VPORT
  5
9C2
330
0
100
AcDbSymbolTable
 70
     3
  0
VPORT
  5
A3F
330
9C2
100
AcDbSymbolTableRecord
100
AcDbViewportTableRecord
  2
*ACTIVE
 70
     0
 10
0.0
 20
0.0
 11
1.0
 21
1.0
 12
-10.07886644029347
 22
-11.72062467889752
 13
0.0
 23
0.0
 14
1.0
 24
1.0
 15
0.0
 25
0.0
 16
0.0
 26
0.0
 36
1.0
 17
0.0
 27
0.0
 37
0.0
 40
4.547551310318382
 41
1.647569444444444
 42
50.0
 43
0.0
 44
0.0
 50
0.0
 51
0.0
 71
     0
 72
   100
 73
     1
 74
     1
 75
     0
 76
     0
 77
     0
 78
     0
  0
ENDTAB
  0
TABLE
  2
LTYPE
  5
9BF
330
0
100
AcDbSymbolTable
 70
     1
  0
LTYPE
  5
9CC
330
9BF
100
AcDbSymbolTableRecord
100
AcDbLinetypeTableRecord
  2
BYBLOCK
 70
     0
  3

 72
    65
 73
     0
 40
0.0
  0
LTYPE
  5
9CD
330
9BF
100
AcDbSymbolTableRecord
100
AcDbLinetypeTableRecord
  2
BYLAYER
 70
     0
  3

 72
    65
 73
     0
 40
0.0
  0
LTYPE
  5
9CE
330
9BF
100
AcDbSymbolTableRecord
100
AcDbLinetypeTableRecord
  2
CONTINUOUS
 70
     0
  3
Solid line
 72
    65
 73
     0
 40
0.0
  0
ENDTAB
  0
TABLE
  2
LAYER
  5
9BC
330
0
100
AcDbSymbolTable
 70
     5
  0
LAYER
  5
9C9
330
9BC
100
AcDbSymbolTableRecord
100
AcDbLayerTableRecord
  2
0
 70
     0
 62
     7
  6
CONTINUOUS
  0
LAYER
  5
9E4
330
9BC
100
AcDbSymbolTableRecord
100
AcDbLayerTableRecord
  2
IGES_FRZ
 70
     1
 62
     7
  6
CONTINUOUS
  0
LAYER
  5
9E5
330
9BC
100
AcDbSymbolTableRecord
100
AcDbLayerTableRecord
  2
1
 70
     0
 62
     7
  6
CONTINUOUS
  0
LAYER
  5
9E6
330
9BC
100
AcDbSymbolTableRecord
100
AcDbLayerTableRecord
  2
1_TOP
 70
     0
 62
     7
  6
CONTINUOUS
  0
LAYER
  5
9E7
330
9BC
100
AcDbSymbolTableRecord
100
AcDbLayerTableRecord
  2
DEFPOINTS
 70
     0
 62
     7
  6
CONTINUOUS
  0
ENDTAB
  0
TABLE
  2
STYLE
  5
9BD
330
0
100
AcDbSymbolTable
 70
     1
  0
STYLE
  5
9CA
330
9BD
100
AcDbSymbolTableRecord
100
AcDbTextStyleTableRecord
  2
STANDARD
 70
     0
 40
0.0
 41
1.0
 50
0.0
 71
     0
 42
0.2
  3
txt
  4

  0
ENDTAB
  0
TABLE
  2
VIEW
  5
9C0
330
0
100
AcDbSymbolTable
 70
     7
  0
VIEW
  5
9DA
330
9C0
100
AcDbSymbolTableRecord
100
AcDbViewTableRecord
  2
FRONT
 70
     0
 40
10.97756723927014
 10
0.0
 20
0.0
 41
13.72303149606298
 11
0.0
 21
-1.0
 31
0.0
 12
0.0
 22
0.0
 32
0.0
 42
50.0
 43
0.0
 44
0.0
 50
0.0
 71
    16
  0
VIEW
  5
9DB
330
9C0
100
AcDbSymbolTableRecord
100
AcDbViewTableRecord
  2
RIGHT
 70
     0
 40
10.97756723927014
 10
0.0
 20
0.0
 41
10.97756723927014
 11
1.0
 21
0.0
 31
0.0
 12
0.0
 22
0.0
 32
0.0
 42
50.0
 43
0.0
 44
0.0
 50
0.0
 71
    16
  0
VIEW
  5
9DC
330
9C0
100
AcDbSymbolTableRecord
100
AcDbViewTableRecord
  2
BACK
 70
     0
 40
10.97756723927014
 10
0.0
 20
0.0
 41
13.72303149606298
 11
0.0
 21
1.0
 31
0.0
 12
0.0
 22
0.0
 32
0.0
 42
50.0
 43
0.0
 44
0.0
 50
0.0
 71
    16
  0
VIEW
  5
9DD
330
9C0
100
AcDbSymbolTableRecord
100
AcDbViewTableRecord
  2
BOTTOM
 70
     0
 40
10.97756723927014
 10
0.0
 20
0.0
 41
13.72303149606298
 11
0.0
 21
0.0
 31
-1.0
 12
0.0
 22
0.0
 32
0.0
 42
50.0
 43
0.0
 44
0.0
 50
180.0
 71
    16
  0
VIEW
  5
9DE
330
9C0
100
AcDbSymbolTableRecord
100
AcDbViewTableRecord
  2
LEFT
 70
     0
 40
10.97756723927014
 10
0.0
 20
0.0
 41
10.97756723927014
 11
-1.0
 21
0.0
 31
0.0
 12
0.0
 22
0.0
 32
0.0
 42
50.0
 43
0.0
 44
0.0
 50
0.0
 71
    16
  0
VIEW
  5
9DF
330
9C0
100
AcDbSymbolTableRecord
100
AcDbViewTableRecord
  2
TFR-ISO
 70
     0
 40
19.04712332490191
 10
0.0
 20
0.0
 41
17.46596086512193
 11
0.577350269189626
 21
-0.577350269189626
 31
0.577350269189626
 12
0.0
 22
0.0
 32
0.0
 42
50.0
 43
0.0
 44
0.0
 50
0.0
 71
    16
  0
VIEW
  5
9E0
330
9C0
100
AcDbSymbolTableRecord
100
AcDbViewTableRecord
  2
TFR-TRI
 70
     0
 40
16.77181742002173
 10
0.0
 20
0.0
 41
17.17649070187811
 11
0.7188730927569429
 21
-0.5850486126764432
 31
0.375419228750255
 12
0.0
 22
0.0
 32
0.0
 42
50.0
 43
0.0
 44
0.0
 50
0.0000000000000095
 71
    16
  0
ENDTAB
  0
TABLE
  2
UCS
  5
9C1
330
0
100
AcDbSymbolTable
 70
     0
  0
ENDTAB
  0
TABLE
  2
APPID
  5
9C3
330
0
100
AcDbSymbolTable
 70
     2
  0
APPID
  5
9CB
330
9C3
100
AcDbSymbolTableRecord
100
AcDbRegAppTableRecord
  2
ACAD
 70
     0
  0
APPID
  5
9E2
330
9C3
100
AcDbSymbolTableRecord
100
AcDbRegAppTableRecord
  2
ACADIGES
 70
     0
  0
ENDTAB
  0
TABLE
  2
DIMSTYLE
  5
9C4
330
0
100
AcDbSymbolTable
 70
     1
  0
DIMSTYLE
105
9E3
330
9C4
100
AcDbSymbolTableRecord
100
AcDbDimStyleTableRecord
  2
STANDARD
 70
     0
  3

  4

  5

  6

  7

 40
1.0
 41
0.18
 42
0.0625
 43
0.38
 44
0.18
 45
0.0
 46
0.0
 47
0.0
 48
0.0
140
0.18
141
0.09
142
0.0
143
25.4
144
1.0
145
0.0
146
1.0
147
0.09
 71
     0
 72
     0
 73
     1
 74
     1
 75
     0
 76
     0
 77
     0
 78
     0
170
     1
171
     1
172
     0
173
     0
174
     0
175
     0
176
     0
177
     0
178
     0
270
     2
271
     4
272
     4
273
     2
274
     1
340
9CA
275
     0
280
     0
281
     0
282
     0
283
     1
284
     0
285
     0
286
     0
287
     5
288
     0
  0
ENDTAB
  0
TABLE
  2
BLOCK_RECORD
  5
9BB
330
0
100
AcDbSymbolTable
 70
     4
  0
BLOCK_RECORD
  5
9D2
102
{ACAD_XDICTIONARY
360
A25
102
}
330
9BB
100
AcDbSymbolTableRecord
100
AcDbBlockTableRecord
  2
*MODEL_SPACE
  0
BLOCK_RECORD
  5
9CF
102
{ACAD_XDICTIONARY
360
A23
102
}
330
9BB
100
AcDbSymbolTableRecord
100
AcDbBlockTableRecord
  2
*PAPER_SPACE
  0
BLOCK_RECORD
  5
9D6
330
9BB
100
AcDbSymbolTableRecord
100
AcDbBlockTableRecord
  2
DVIEWBLOCK
  0
ENDTAB
  0
ENDSEC
  0
SECTION
  2
BLOCKS
  0
BLOCK
  5
9EA
330
9D2
100
AcDbEntity
  8
0
100
AcDbBlockBegin
  2
*MODEL_SPACE
 70
     0
 10
0.0
 20
0.0
 30
0.0
  3
*MODEL_SPACE
  1

  0
ENDBLK
  5
9EB
330
9D2
100
AcDbEntity
  8
0
100
AcDbBlockEnd
  0
BLOCK
  5
9E8
330
9CF
100
AcDbEntity
 67
     1
  8
0
100
AcDbBlockBegin
  2
*PAPER_SPACE
 70
     0
 10
0.0
 20
0.0
 30
0.0
  3
*PAPER_SPACE
  1

  0
ENDBLK
  5
9E9
330
9CF
100
AcDbEntity
 67
     1
  8
0
100
AcDbBlockEnd
  0
BLOCK
  5
4D4
330
9D6
100
AcDbEntity
  8
0
100
AcDbBlockBegin
  2
DVIEWBLOCK
 70
     0
 10
0.0
 20
0.0
 30
0.0
  3
DVIEWBLOCK
  1

  0
3DFACE
  5
4D5
330
9D6
100
AcDbEntity
  8
IGES_FRZ
 62
     4
100
AcDbFace
 10
0.1
 20
0.1
 30
0.0
 11
0.9
 21
0.1
 31
0.0
 12
0.9
 22
0.9
 32
0.0
 13
0.1
 23
0.9
 33
0.0
  0
3DFACE
  5
4D6
330
9D6
100
AcDbEntity
  8
IGES_FRZ
 62
     4
100
AcDbFace
 10
0.1
 20
0.1
 30
0.0
 11
0.1
 21
0.1
 31
0.595
 12
0.2
 22
0.1
 32
0.4
 13
0.2
 23
0.1
 33
0.0
 70
    10
  0
3DFACE
  5
4D7
330
9D6
100
AcDbEntity
  8
IGES_FRZ
 62
     4
100
AcDbFace
 10
0.2
 20
0.1
 30
0.4
 11
0.1
 21
0.1
 31
0.595
 12
0.9
 22
0.1
 32
0.595
 13
0.4
 23
0.1
 33
0.4
 70
     5
  0
3DFACE
  5
4D8
330
9D6
100
AcDbEntity
  8
IGES_FRZ
 62
     4
100
AcDbFace
 10
0.4
 20
0.1
 30
0.0
 11
0.4
 21
0.1
 31
0.4
 12
0.9
 22
0.1
 32
0.595
 13
0.9
 23
0.1
 33
0.0
 70
    14
  0
3DFACE
  5
4D9
330
9D6
100
AcDbEntity
  8
IGES_FRZ
 62
     7
100
AcDbFace
 10
0.2
 20
0.1
 30
0.005
 11
0.2
 21
0.1
 31
0.4
 12
0.34
 22
0.24
 32
0.4
 13
0.34
 23
0.24
 33
0.005
 70
     1
  0
3DFACE
  5
4DA
330
9D6
100
AcDbEntity
  8
IGES_FRZ
 62
     4
100
AcDbFace
 10
0.9
 20
0.1
 30
0.0
 11
0.9
 21
0.1
 31
0.595
 12
0.9
 22
0.5
 32
0.9949999999999999
 13
0.9
 23
0.3
 33
0.4
 70
    12
  0
3DFACE
  5
4DB
330
9D6
100
AcDbEntity
  8
IGES_FRZ
 62
     4
100
AcDbFace
 10
0.9
 20
0.3
 30
0.4
 11
0.9
 21
0.5
 31
0.9949999999999999
 12
0.9
 22
0.9
 32
0.595
 13
0.9
 23
0.7000000000000001
 33
0.4
 70
     5
  0
3DFACE
  5
4DC
330
9D6
100
AcDbEntity
  8
IGES_FRZ
 62
     4
100
AcDbFace
 10
0.9
 20
0.7000000000000001
 30
0.4
 11
0.9
 21
0.9
 31
0.595
 12
0.9
 22
0.9
 32
0.0
 13
0.9
 23
0.7000000000000001
 33
0.2
 70
     7
  0
3DFACE
  5
4DD
330
9D6
100
AcDbEntity
  8
IGES_FRZ
 62
     4
100
AcDbFace
 10
0.9
 20
0.7000000000000001
 30
0.2
 11
0.9
 21
0.9
 31
0.0
 12
0.9
 22
0.1
 32
0.0
 13
0.9
 23
0.3
 33
0.2
 70
     7
  0
3DFACE
  5
4DE
330
9D6
100
AcDbEntity
  8
IGES_FRZ
 62
     4
100
AcDbFace
 10
0.9
 20
0.3
 30
0.2
 11
0.9
 21
0.3
 31
0.2
 12
0.9
 22
0.1
 32
0.0
 13
0.9
 23
0.3
 33
0.4
 70
     7
  0
3DFACE
  5
4DF
330
9D6
100
AcDbEntity
  8
IGES_FRZ
 62
     4
100
AcDbFace
 10
0.9
 20
0.9
 30
0.0
 11
0.9
 21
0.9
 31
0.595
 12
0.1
 22
0.9
 32
0.595
 13
0.1
 23
0.9
 33
0.0
 70
    12
  0
3DFACE
  5
4E0
330
9D6
100
AcDbEntity
  8
IGES_FRZ
 62
     4
100
AcDbFace
 10
0.1
 20
0.9
 30
0.0
 11
0.1
 21
0.9
 31
0.595
 12
0.1
 22
0.5
 32
0.9949999999999999
 13
0.1
 23
0.5
 33
0.0
 70
    12
  0
3DFACE
  5
4E1
330
9D6
100
AcDbEntity
  8
IGES_FRZ
 62
     4
100
AcDbFace
 10
0.1
 20
0.5
 30
0.0
 11
0.1
 21
0.5
 31
0.9949999999999999
 12
0.1
 22
0.1
 32
0.595
 13
0.1
 23
0.1
 33
0.0
 70
    13
  0
3DFACE
  5
4E2
330
9D6
100
AcDbEntity
  8
IGES_FRZ
 62
     1
100
AcDbFace
 10
0.2
 20
0.6
 30
0.9
 11
0.2
 21
0.6
 31
1.0
 12
0.3
 22
0.6
 32
1.0
 13
0.3
 23
0.6
 33
0.9
 70
     4
  0
3DFACE
  5
4E3
330
9D6
100
AcDbEntity
  8
IGES_FRZ
 62
     1
100
AcDbFace
 10
0.3
 20
0.6
 30
0.9
 11
0.3
 21
0.6
 31
1.0
 12
0.3
 22
0.7000000000000001
 32
1.0
 13
0.3
 23
0.7000000000000001
 33
0.8
 70
     4
  0
3DFACE
  5
4E4
330
9D6
100
AcDbEntity
  8
IGES_FRZ
 62
     1
100
AcDbFace
 10
0.3
 20
0.7000000000000001
 30
0.8
 11
0.3
 21
0.7000000000000001
 31
1.0
 12
0.2
 22
0.7000000000000001
 32
1.0
 13
0.2
 23
0.7000000000000001
 33
0.8
 70
     4
  0
3DFACE
  5
4E5
330
9D6
100
AcDbEntity
  8
IGES_FRZ
 62
     1
100
AcDbFace
 10
0.2
 20
0.7000000000000001
 30
0.8
 11
0.2
 21
0.7000000000000001
 31
1.0
 12
0.2
 22
0.6
 32
1.0
 13
0.2
 23
0.6
 33
0.9
 70
     4
  0
3DFACE
  5
4E6
330
9D6
100
AcDbEntity
  8
IGES_FRZ
 62
     4
100
AcDbFace
 10
0.0
 20
0.0
 30
0.5
 11
1.0
 21
0.0
 31
0.5
 12
1.0
 22
0.5
 32
1.0
 13
0.0
 23
0.5
 33
1.0
  0
3DFACE
  5
4E7
330
9D6
100
AcDbEntity
  8
IGES_FRZ
 62
     4
100
AcDbFace
 10
0.0
 20
0.5
 30
1.0
 11
1.0
 21
0.5
 31
1.0
 12
1.0
 22
1.0
 32
0.5
 13
0.0
 23
1.0
 33
0.5
 70
     1
  0
ENDBLK
  5
4E8
330
9D6
100
AcDbEntity
  8
0
100
AcDbBlockEnd
  0
ENDSEC
  0
SECTION
  2
ENTITIES
  0
LINE
  5
2C
330
9D2
100
AcDbEntity
  8
1_TOP
  6
CONTINUOUS
 62
     7
100
AcDbLine
 10
-10.11062893350983
 20
-10.03114372752019
 30
0.148613244104384
 11
-10.21062893350983
 21
-10.03114372752019
 31
0.148613244104384
  0
LINE
  5
2D
330
9D2
100
AcDbEntity
  8
1_TOP
  6
CONTINUOUS
 62
     7
100
AcDbLine
 10
-10.11062893350983
 20
-10.00312644898943
 30
0.148613244104384
 11
-10.09812893350936
 21
-10.00312644898943
 31
0.148613244104384
  0
LINE
  5
2E
330
9D2
100
AcDbEntity
  8
1_TOP
  6
CONTINUOUS
 62
     7
100
AcDbLine
 10
-10.21062893350983
 20
-10.00312644898943
 30
0.148613244104384
 11
-10.22312893351033
 21
-10.00312644898943
 31
0.148613244104384
  0
LINE
  5
2F
330
9D2
100
AcDbEntity
  8
1_TOP
  6
CONTINUOUS
 62
     7
100
AcDbLine
 10
-10.22312893351033
 20
-10.15716100605094
 30
0.148613244104384
 11
-10.21062893350983
 21
-10.15716100605094
 31
0.148613244104384
  0
LINE
  5
30
330
9D2
100
AcDbEntity
  8
1_TOP
  6
CONTINUOUS
 62
     7
100
AcDbLine
 10
-10.21062893350983
 20
-10.15716100605094
 30
0.148613244104384
 11
-10.11062893350983
 21
-10.15716100605094
 31
0.148613244104384
  0
LINE
  5
31
330
9D2
100
AcDbEntity
  8
1_TOP
  6
CONTINUOUS
 62
     7
100
AcDbLine
 10
-10.09812893350936
 20
-10.15716100605094
 30
0.148613244104384
 11
-10.11062893350983
 21
-10.15716100605094
 31
0.148613244104384
  0
LINE
  5
32
330
9D2
100
AcDbEntity
  8
1_TOP
  6
CONTINUOUS
 62
     7
100
AcDbLine
 10
-10.11062893350983
 20
-10.00312644898943
 30
0.148613244104384
 11
-10.21062893350983
 21
-10.00312644898943
 31
0.148613244104384
  0
LINE
  5
33
330
9D2
100
AcDbEntity
  8
1_TOP
  6
CONTINUOUS
 62
     7
100
AcDbLine
 10
-10.11062893350983
 20
-13.31214372752018
 30
0.148613244104384
 11
-10.21062893350983
 21
-13.31214372752018
 31
0.148613244104384
  0
LINE
  5
34
330
9D2
100
AcDbEntity
  8
1_TOP
  6
CONTINUOUS
 62
     7
100
AcDbLine
 10
-10.11062893350983
 20
-13.31214372752018
 30
0.148613244104384
 11
-10.11062893350983
 21
-13.28412644898949
 31
0.148613244104384
  0
LINE
  5
35
330
9D2
100
AcDbEntity
  8
1_TOP
  6
CONTINUOUS
 62
     7
100
AcDbLine
 10
-10.21062893350983
 20
-13.31214372752018
 30
0.148613244104384
 11
-10.21062893350983
 21
-13.28412644898949
 31
0.148613244104384
  0
LINE
  5
36
330
9D2
100
AcDbEntity
  8
1_TOP
  6
CONTINUOUS
 62
     7
100
AcDbLine
 10
-10.11062893350983
 20
-13.41014372752018
 30
0.148613244104384
 11
-10.11062893350983
 21
-13.43816100605099
 31
0.148613244104384
  0
LINE
  5
37
330
9D2
100
AcDbEntity
  8
1_TOP
  6
CONTINUOUS
 62
     7
100
AcDbLine
 10
-10.11062893350983
 20
-13.41014372752018
 30
0.148613244104384
 11
-10.21062893350983
 21
-13.41014372752018
 31
0.148613244104384
  0
LINE
  5
38
330
9D2
100
AcDbEntity
  8
1_TOP
  6
CONTINUOUS
 62
     7
100
AcDbLine
 10
-10.21062893350983
 20
-13.41014372752018
 30
0.148613244104384
 11
-10.21062893350983
 21
-13.43816100605099
 31
0.148613244104384
  0
LINE
  5
39
330
9D2
100
AcDbEntity
  8
1_TOP
  6
CONTINUOUS
 62
     7
100
AcDbLine
 10
-10.22312893351033
 20
-13.28412644898949
 30
0.148613244104384
 11
-10.21062893350983
 21
-13.28412644898949
 31
0.148613244104384
  0
LINE
  5
3A
330
9D2
100
AcDbEntity
  8
1_TOP
  6
CONTINUOUS
 62
     7
100
AcDbLine
 10
-10.21062893350983
 20
-13.28412644898949
 30
0.148613244104384
 11
-10.11062893350983
 21
-13.28412644898949
 31
0.148613244104384
  0
LINE
  5
3B
330
9D2
100
AcDbEntity
  8
1_TOP
  6
CONTINUOUS
 62
     7
100
AcDbLine
 10
-10.09812893350936
 20
-13.28412644898949
 30
0.148613244104384
 11
-10.11062893350983
 21
-13.28412644898949
 31
0.148613244104384
  0
LINE
  5
3C
330
9D2
100
AcDbEntity
  8
1_TOP
  6
CONTINUOUS
 62
     7
100
AcDbLine
 10
-10.11062893350983
 20
-13.43816100605099
 30
0.148613244104384
 11
-10.21062893350983
 21
-13.43816100605099
 31
0.148613244104384
  0
LINE
  5
3D
330
9D2
100
AcDbEntity
  8
1_TOP
  6
CONTINUOUS
 62
     7
100
AcDbLine
 10
-10.21062893350983
 20
-13.43816100605099
 30
0.148613244104384
 11
-10.22312893351033
 21
-13.43816100605099
 31
0.148613244104384
  0
LINE
  5
3E
330
9D2
100
AcDbEntity
  8
1_TOP
  6
CONTINUOUS
 62
     7
100
AcDbLine
 10
-10.11062893350983
 20
-13.43816100605099
 30
0.148613244104384
 11
-10.09812893350936
 21
-13.43816100605099
 31
0.148613244104384
  0
LINE
  5
3F
330
9D2
100
AcDbEntity
  8
1_TOP
  6
CONTINUOUS
 62
     7
100
AcDbLine
 10
-10.09812893350936
 20
-9.92674459709773
 30
0.3480434344787029
 11
-10.22312893351033
 21
-9.92674459709773
 31
0.3480434344787029
  0
LINE
  5
40
330
9D2
100
AcDbEntity
  8
1_TOP
  6
CONTINUOUS
 62
     7
100
AcDbLine
 10
-10.22312893351033
 20
-10.23354285794267
 30
0.3480434344787029
 11
-10.09812893350936
 21
-10.23354285794265
 31
0.348043434478553
  0
LINE
  5
41
330
9D2
100
AcDbEntity
  8
1_TOP
  6
CONTINUOUS
 62
     7
100
AcDbLine
 10
-10.21062893350983
 20
-10.03114372752019
 30
0.148613244104384
 11
-10.21062893350983
 21
-10.00312644898943
 31
0.148613244104384
  0
LINE
  5
42
330
9D2
100
AcDbEntity
  8
1_TOP
  6
CONTINUOUS
 62
     7
100
AcDbLine
 10
-10.11062893350983
 20
-10.03114372752019
 30
0.148613244104384
 11
-10.11062893350983
 21
-10.00312644898943
 31
0.148613244104384
  0
LINE
  5
43
330
9D2
100
AcDbEntity
  8
1_TOP
  6
CONTINUOUS
 62
     7
100
AcDbLine
 10
-10.21062893350983
 20
-10.1291437275202
 30
0.148613244104384
 11
-10.21062893350983
 21
-10.15716100605094
 31
0.148613244104384
  0
LINE
  5
44
330
9D2
100
AcDbEntity
  8
1_TOP
  6
CONTINUOUS
 62
     7
100
AcDbLine
 10
-10.11062893350983
 20
-10.1291437275202
 30
0.148613244104384
 11
-10.11062893350983
 21
-10.15716100605094
 31
0.148613244104384
  0
LINE
  5
45
330
9D2
100
AcDbEntity
  8
1_TOP
  6
CONTINUOUS
 62
     7
100
AcDbLine
 10
-10.11062893350983
 20
-10.1291437275202
 30
0.148613244104384
 11
-10.21062893350983
 21
-10.1291437275202
 31
0.148613244104384
  0
LINE
  5
46
330
9D2
100
AcDbEntity
  8
1_TOP
  6
CONTINUOUS
 62
     7
100
AcDbLine
 10
-10.09812893350936
 20
-13.51454285794268
 30
0.3480434344787029
 11
-10.22312893351033
 21
-13.51454285794268
 31
0.3480434344787029
  0
LINE
  5
47
330
9D2
100
AcDbEntity
  8
1_TOP
  6
CONTINUOUS
 62
     7
100
AcDbLine
 10
-10.22312893351033
 20
-13.20774459709779
 30
0.3480434344787029
 11
-10.09812893350936
 21
-13.20774459709779
 31
0.348043434478553
  0
LINE
  5
48
330
9D2
100
AcDbEntity
  8
1_TOP
  6
CONTINUOUS
 62
     7
100
AcDbLine
 10
-7.398950782617209
 20
-9.492021628769338
 30
-0.0213779012491349
 11
-7.093232551584382
 21
-9.470643727520206
 31
0.0
  0
LINE
  5
49
330
9D2
100
AcDbEntity
  8
1_TOP
  6
CONTINUOUS
 62
     7
100
AcDbLine
 10
-7.093232551584382
 20
-13.97064372752018
 30
0.0
 11
-7.39895078261719
 21
-13.9492658262711
 31
-0.0213779012491338
  0
LINE
  5
4A
330
9D2
100
AcDbEntity
  8
1_TOP
  6
CONTINUOUS
 62
     7
100
AcDbLine
 10
-7.093232551584382
 20
-13.93946985094959
 30
0.0311738765706199
 11
-7.093232551584382
 21
-9.501817604090827
 31
0.0311738765706199
  0
LINE
  5
4B
330
9D2
100
AcDbEntity
  8
1_TOP
  6
CONTINUOUS
 62
     7
100
AcDbLine
 10
-7.093232551584382
 20
-13.84646985094959
 30
-2.625826123429378
 11
-7.093232551584385
 21
-12.12553346786839
 31
-2.625826123429378
  0
LINE
  5
4C
330
9D2
100
AcDbEntity
  8
1_TOP
  6
CONTINUOUS
 62
     7
100
AcDbLine
 10
-7.093232551584382
 20
-11.87167803751999
 30
-0.9178368502081108
 11
-6.85622963895691
 21
-11.88825089562139
 31
-0.9302576465425287
  0
LINE
  5
4D
330
9D2
100
AcDbEntity
  8
1_TOP
  6
CONTINUOUS
 62
     7
100
AcDbLine
 10
-6.972275986063084
 20
-11.97163639147478
 30
-0.9241759151967857
 11
-6.972275986063082
 21
-11.94132915541919
 31
-0.9241759151967857
  0
LINE
  5
4E
330
9D2
100
AcDbEntity
  8
1_TOP
  6
CONTINUOUS
 62
     7
100
AcDbLine
 10
-6.947635057550009
 20
-12.01794920144469
 30
-0.9254672915396279
 11
-6.989779832444468
 21
-12.02163639147478
 31
-0.9232585774790258
  0
LINE
  5
4F
330
9D2
100
AcDbEntity
  8
1_TOP
  6
CONTINUOUS
 62
     7
100
AcDbLine
 10
-6.989779832444468
 20
-12.01187366851749
 30
-0.9232585774790258
 11
-6.989779832444468
 21
-12.02163639147478
 31
-0.9232585774790258
  0
LINE
  5
50
330
9D2
100
AcDbEntity
  8
1_TOP
  6
CONTINUOUS
 62
     7
100
AcDbLine
 10
-6.860614096550216
 20
-11.94675023335398
 30
-0.9300278668567031
 11
-6.947635057550009
 21
-12.01794920144469
 31
-0.9254672915396279
  0
LINE
  5
51
330
9D2
100
AcDbEntity
  8
1_TOP
  6
CONTINUOUS
 62
     7
100
AcDbLine
 10
-6.972275986063082
 20
-11.94132915541919
 30
-0.9241759151967857
 11
-7.093232551584382
 21
-11.93921785071448
 31
-0.9178368502081108
  0
LINE
  5
53
330
9D2
100
AcDbEntity
  8
1_TOP
  6
CONTINUOUS
 62
     7
100
AcDbLine
 10
-6.947635057550009
 20
-10.8674845901631
 30
-0.9254672915396279
 11
-6.989779832444468
 21
-10.87117178019328
 31
-0.9232585774790258
  0
LINE
  5
54
330
9D2
100
AcDbEntity
  8
1_TOP
  6
CONTINUOUS
 62
     7
100
AcDbLine
 10
-6.989779832444468
 20
-10.86140905723588
 30
-0.9232585774790258
 11
-6.989779832444468
 21
-10.87117178019328
 31
-0.9232585774790258
  0
LINE
  5
55
330
9D2
100
AcDbEntity
  8
1_TOP
  6
CONTINUOUS
 62
     7
100
AcDbLine
 10
-6.860614096550216
 20
-10.79628562207239
 30
-0.930027866856704
 11
-6.947635057550009
 21
-10.8674845901631
 31
-0.9254672915396279
  0
LINE
  5
56
330
9D2
100
AcDbEntity
  8
1_TOP
  6
CONTINUOUS
 62
     7
100
AcDbLine
 10
-6.972275986063084
 20
-10.82117178019329
 30
-0.9241759151967857
 11
-6.972275986063082
 21
-10.79086454413759
 31
-0.9241759151967857
  0
LINE
  5
57
330
9D2
100
AcDbEntity
  8
1_TOP
  6
CONTINUOUS
 62
     7
100
AcDbLine
 10
-6.972275986063082
 20
-10.79086454413759
 30
-0.9241759151967857
 11
-7.093232551584382
 21
-10.78875323943289
 31
-0.9178368502081108
  0
LINE
  5
58
330
9D2
100
AcDbEntity
  8
1_TOP
  6
CONTINUOUS
 62
     7
100
AcDbLine
 10
-7.093232551584382
 20
-10.7212134262385
 30
-0.9178368502081108
 11
-6.85622963895691
 21
-10.7377862843398
 31
-0.9302576465425287
  0
LINE
  5
59
330
9D2
100
AcDbEntity
  8
1_TOP
  6
CONTINUOUS
 62
     7
100
AcDbLine
 10
-9.668976737867266
 20
-10.25440336543902
 30
0.3780434344787019
 11
-9.666878933508966
 21
-10.25492701738687
 31
0.4080434344787029
  0
LINE
  5
5A
330
9D2
100
AcDbEntity
  8
1_TOP
  6
CONTINUOUS
 62
     7
100
AcDbLine
 10
-9.666878933508966
 20
-9.905360437653467
 30
0.4080434344787029
 11
-9.668976737867266
 21
-9.905884089601318
 31
0.3780434344787019
  0
LINE
  5
5B
330
9D2
100
AcDbEntity
  8
1_TOP
  6
CONTINUOUS
 62
     7
100
AcDbLine
 10
-9.666878933508966
 20
-10.25492701738687
 30
0.4080434344787029
 11
-9.666878933508966
 21
-9.905360437653467
 31
0.4080434344787029
  0
LINE
  5
5C
330
9D2
100
AcDbEntity
  8
1_TOP
  6
CONTINUOUS
 62
     7
100
AcDbLine
 10
-9.698167105600786
 20
-10.28614372752016
 30
0.4080434344787029
 11
-9.700264909959086
 21
-10.28562007557233
 31
0.3780434344787019
  0
LINE
  5
5D
330
9D2
100
AcDbEntity
  8
1_TOP
  6
CONTINUOUS
 62
     7
100
AcDbLine
 10
-12.43559076141892
 20
-10.28614372752016
 30
0.4080434344787029
 11
-9.698167105600786
 21
-10.28614372752016
 31
0.4080434344787029
  0
LINE
  5
5E
330
9D2
100
AcDbEntity
  8
1_TOP
  6
CONTINUOUS
 62
     7
100
AcDbLine
 10
-12.43559076141892
 20
-9.87414372752017
 30
0.4080434344787029
 11
-12.43349295706061
 21
-9.874667379468018
 31
0.3780434344787019
  0
LINE
  5
5F
330
9D2
100
AcDbEntity
  8
1_TOP
  6
CONTINUOUS
 62
     7
100
AcDbLine
 10
-9.700264909959086
 20
-9.874667379468018
 30
0.3780434344787019
 11
-9.698167105600786
 21
-9.87414372752017
 31
0.4080434344787029
  0
LINE
  5
60
330
9D2
100
AcDbEntity
  8
1_TOP
  6
CONTINUOUS
 62
     7
100
AcDbLine
 10
-12.43559076141892
 20
-9.87414372752017
 30
0.4080434344787029
 11
-9.698167105600786
 21
-9.87414372752017
 31
0.4080434344787029
  0
LINE
  5
61
330
9D2
100
AcDbEntity
  8
1_TOP
  6
CONTINUOUS
 62
     7
100
AcDbLine
 10
-12.46687893351074
 20
-10.25492701738687
 30
0.4080434344787029
 11
-12.46687893351074
 21
-9.905360437653467
 31
0.4080434344787029
  0
LINE
  5
62
330
9D2
100
AcDbEntity
  8
1_TOP
  6
CONTINUOUS
 62
     7
100
AcDbLine
 10
-12.46687893351074
 20
-13.18636043765349
 30
0.4080434344787029
 11
-12.46687893351074
 21
-13.5359270173869
 31
0.4080434344787029
  0
LINE
  5
63
330
9D2
100
AcDbEntity
  8
1_TOP
  6
CONTINUOUS
 62
     7
100
AcDbLine
 10
-9.698167105600786
 20
-13.15514372752018
 30
0.4080434344787029
 11
-12.43559076141892
 21
-13.15514372752018
 31
0.408043434478702
  0
LINE
  5
64
330
9D2
100
AcDbEntity
  8
1_TOP
  6
CONTINUOUS
 62
     7
100
AcDbLine
 10
-9.698167105600786
 20
-13.56714372752019
 30
0.4080434344787029
 11
-9.700264909959086
 21
-13.5666200755724
 31
0.3780434344787019
  0
LINE
  5
65
330
9D2
100
AcDbEntity
  8
1_TOP
  6
CONTINUOUS
 62
     7
100
AcDbLine
 10
-9.698167105600786
 20
-13.56714372752019
 30
0.4080434344787029
 11
-12.43559076141892
 21
-13.56714372752019
 31
0.4080434344787029
  0
LINE
  5
66
330
9D2
100
AcDbEntity
  8
1_TOP
  6
CONTINUOUS
 62
     7
100
AcDbLine
 10
-9.666878933508966
 20
-13.18636043765349
 30
0.4080434344787029
 11
-9.666878933508966
 21
-13.5359270173869
 31
0.4080434344787029
  0
LINE
  5
67
330
9D2
100
AcDbEntity
  8
1_TOP
  6
CONTINUOUS
 62
     7
100
AcDbLine
 10
-9.731954424786875
 20
-10.28509642362448
 30
0.348043434478702
 11
-9.729329764881095
 21
-10.28562007557233
 31
0.3780434344787019
  0
LINE
  5
68
330
9D2
100
AcDbEntity
  8
1_TOP
  6
CONTINUOUS
 62
     7
100
AcDbLine
 10
-9.731954424786875
 20
-9.875191031415866
 30
0.3480434344787029
 11
-9.729329764881095
 21
-9.874667379468018
 31
0.3780434344787019
  0
LINE
  5
69
330
9D2
100
AcDbEntity
  8
1_TOP
  6
CONTINUOUS
 62
     7
100
AcDbLine
 10
-9.729329764881095
 20
-9.874667379468018
 30
0.3780434344787019
 11
-9.700264909959086
 21
-9.874667379468018
 31
0.3780434344787019
  0
LINE
  5
6A
330
9D2
100
AcDbEntity
  8
1_TOP
  6
CONTINUOUS
 62
     7
100
AcDbLine
 10
-9.731954424786875
 20
-9.875191031415866
 30
0.3480434344787029
 11
-9.731954424786875
 21
-10.28509642362448
 31
0.348043434478702
  0
LINE
  5
6B
330
9D2
100
AcDbEntity
  8
1_TOP
  6
CONTINUOUS
 62
     7
100
AcDbLine
 10
-9.698167105600786
 20
-9.87414372752017
 30
0.4080434344787029
 11
-9.210285671964406
 21
-9.874143727520225
 31
0.4080434344787029
  0
LINE
  5
6C
330
9D2
100
AcDbEntity
  8
1_TOP
  6
CONTINUOUS
 62
     7
100
AcDbLine
 10
-12.40180344223283
 20
-10.28509642362448
 30
0.3480434344787029
 11
-12.4044281021386
 21
-10.28562007557233
 31
0.3780434344787019
  0
LINE
  5
6D
330
9D2
100
AcDbEntity
  8
1_TOP
  6
CONTINUOUS
 62
     7
100
AcDbLine
 10
-12.40180344223283
 20
-9.875191031415866
 30
0.3480434344787029
 11
-12.4044281021386
 21
-9.874667379468018
 31
0.3780434344787019
  0
LINE
  5
6E
330
9D2
100
AcDbEntity
  8
1_TOP
  6
CONTINUOUS
 62
     7
100
AcDbLine
 10
-12.4044281021386
 20
-9.874667379468018
 30
0.3780434344787019
 11
-12.43349295706061
 21
-9.874667379468018
 31
0.3780434344787019
  0
LINE
  5
6F
330
9D2
100
AcDbEntity
  8
1_TOP
  6
CONTINUOUS
 62
     7
100
AcDbLine
 10
-12.40180344223283
 20
-9.875191031415866
 30
0.3480434344787029
 11
-12.40180344223283
 21
-10.28509642362448
 31
0.3480434344787029
  0
LINE
  5
70
330
9D2
100
AcDbEntity
  8
1_TOP
  6
CONTINUOUS
 62
     7
100
AcDbLine
 10
-8.848052810080476
 20
-9.470643727520206
 30
0.0
 11
-13.28570505693923
 21
-9.470643727520206
 31
0.0
  0
LINE
  5
71
330
9D2
100
AcDbEntity
  8
1_TOP
  6
CONTINUOUS
 62
     7
100
AcDbLine
 10
-12.43559076141892
 20
-9.87414372752017
 30
0.4080434344787029
 11
-12.9234721950553
 21
-9.874143727520225
 31
0.4080434344787029
  0
LINE
  5
72
330
9D2
100
AcDbEntity
  8
1_TOP
  6
CONTINUOUS
 62
     7
100
AcDbLine
 10
-12.40180344223283
 20
-13.1561910314159
 30
0.348043434478702
 11
-12.4044281021386
 21
-13.15566737946809
 31
0.3780434344787019
  0
LINE
  5
73
330
9D2
100
AcDbEntity
  8
1_TOP
  6
CONTINUOUS
 62
     7
100
AcDbLine
 10
-12.40180344223283
 20
-13.56609642362458
 30
0.3480434344787029
 11
-12.4044281021386
 21
-13.5666200755724
 31
0.3780434344787019
  0
LINE
  5
74
330
9D2
100
AcDbEntity
  8
1_TOP
  6
CONTINUOUS
 62
     7
100
AcDbLine
 10
-12.4044281021386
 20
-13.5666200755724
 30
0.3780434344787019
 11
-12.43349295706061
 21
-13.5666200755724
 31
0.3780434344787019
  0
LINE
  5
75
330
9D2
100
AcDbEntity
  8
1_TOP
  6
CONTINUOUS
 62
     7
100
AcDbLine
 10
-12.40180344223283
 20
-13.56609642362458
 30
0.3480434344787029
 11
-12.40180344223283
 21
-13.1561910314159
 31
0.348043434478702
  0
LINE
  5
76
330
9D2
100
AcDbEntity
  8
1_TOP
  6
CONTINUOUS
 62
     7
100
AcDbLine
 10
-13.31687893350985
 20
-9.501817604090827
 30
0.0
 11
-13.31687893350985
 21
-13.93946985094959
 31
0.0
  0
LINE
  5
77
330
9D2
100
AcDbEntity
  8
1_TOP
  6
CONTINUOUS
 62
     7
100
AcDbLine
 10
-12.43559076141892
 20
-13.56714372752019
 30
0.4080434344787029
 11
-12.9234721950553
 21
-13.56714372752019
 31
0.4080434344787029
  0
LINE
  5
78
330
9D2
100
AcDbEntity
  8
1_TOP
  6
CONTINUOUS
 62
     7
100
AcDbLine
 10
-12.92756125891672
 20
-9.87559939002385
 30
0.4080434344787029
 11
-12.92756125891672
 21
-13.56568806501659
 31
0.408043434478702
  0
LINE
  5
79
330
9D2
100
AcDbEntity
  8
1_TOP
  6
CONTINUOUS
 62
     7
100
AcDbLine
 10
-12.9431268010744
 20
-10.03436105869103
 30
0.4223066259982712
 11
-12.9431268010744
 21
-13.40692639634939
 31
0.4223066259982712
  0
LINE
  5
7A
330
9D2
100
AcDbEntity
  8
1_TOP
  6
CONTINUOUS
 62
     7
100
AcDbLine
 10
-9.731954424786875
 20
-13.1561910314159
 30
0.3480434344787029
 11
-9.729329764881095
 21
-13.15566737946809
 31
0.3780434344787019
  0
LINE
  5
7B
330
9D2
100
AcDbEntity
  8
1_TOP
  6
CONTINUOUS
 62
     7
100
AcDbLine
 10
-9.731954424786875
 20
-13.56609642362458
 30
0.3480434344787029
 11
-9.729329764881095
 21
-13.5666200755724
 31
0.3780434344787019
  0
LINE
  5
7C
330
9D2
100
AcDbEntity
  8
1_TOP
  6
CONTINUOUS
 62
     7
100
AcDbLine
 10
-9.729329764881095
 20
-13.5666200755724
 30
0.3780434344787019
 11
-9.700264909959086
 21
-13.5666200755724
 31
0.3780434344787019
  0
LINE
  5
7D
330
9D2
100
AcDbEntity
  8
1_TOP
  6
CONTINUOUS
 62
     7
100
AcDbLine
 10
-9.731954424786875
 20
-13.56609642362458
 30
0.3480434344787029
 11
-9.731954424786875
 21
-13.1561910314159
 31
0.3480434344787029
  0
LINE
  5
7E
330
9D2
100
AcDbEntity
  8
1_TOP
  6
CONTINUOUS
 62
     7
100
AcDbLine
 10
-8.816878933509855
 20
-9.501817604090827
 30
0.0
 11
-8.816878933509855
 21
-13.93946985094959
 31
0.0
  0
LINE
  5
7F
330
9D2
100
AcDbEntity
  8
1_TOP
  6
CONTINUOUS
 62
     7
100
AcDbLine
 10
-13.28570505693923
 20
-13.97064372752018
 30
0.0
 11
-8.848052810080476
 21
-13.97064372752018
 31
0.0
  0
LINE
  5
80
330
9D2
100
AcDbEntity
  8
1_TOP
  6
CONTINUOUS
 62
     7
100
AcDbLine
 10
-9.698167105600786
 20
-13.56714372752019
 30
0.4080434344787029
 11
-9.210285671964406
 21
-13.56714372752019
 31
0.4080434344787029
  0
LINE
  5
81
330
9D2
100
AcDbEntity
  8
1_TOP
  6
CONTINUOUS
 62
     7
100
AcDbLine
 10
-9.206196608102986
 20
-9.87559939002385
 30
0.4080434344787029
 11
-9.206196608102986
 21
-13.56568806501659
 31
0.4080434344787029
  0
LINE
  5
82
330
9D2
100
AcDbEntity
  8
1_TOP
  6
CONTINUOUS
 62
     7
100
AcDbLine
 10
-9.190631065945296
 20
-10.03436105869103
 30
0.4223066259982712
 11
-9.190631065945296
 21
-13.40692639634939
 31
0.4223066259982712
  0
LINE
  5
83
330
9D2
100
AcDbEntity
  8
1_TOP
  6
CONTINUOUS
 62
     7
100
AcDbLine
 10
-10.09812893350936
 20
-13.28412644898949
 30
0.148613244104384
 11
-10.11062893350983
 21
-13.28412644898949
 31
0.148613244104384
  0
LINE
  5
84
330
9D2
100
AcDbEntity
  8
1_TOP
  6
CONTINUOUS
 62
     7
100
AcDbLine
 10
-10.11062893350983
 20
-13.28412644898949
 30
0.148613244104384
 11
-10.21062893350983
 21
-13.28412644898949
 31
0.148613244104384
  0
LINE
  5
85
330
9D2
100
AcDbEntity
  8
1_TOP
  6
CONTINUOUS
 62
     7
100
AcDbLine
 10
-10.22312893351033
 20
-13.28412644898949
 30
0.148613244104384
 11
-10.21062893350983
 21
-13.28412644898949
 31
0.148613244104384
  0
LINE
  5
86
330
9D2
100
AcDbEntity
  8
1_TOP
  6
CONTINUOUS
 62
     7
100
AcDbLine
 10
-10.21062893350983
 20
-13.43816100605099
 30
0.148613244104384
 11
-10.11062893350983
 21
-13.43816100605099
 31
0.148613244104384
  0
LINE
  5
87
330
9D2
100
AcDbEntity
  8
1_TOP
  6
CONTINUOUS
 62
     7
100
AcDbLine
 10
-10.11062893350983
 20
-13.43816100605099
 30
0.148613244104384
 11
-10.09812893350936
 21
-13.43816100605099
 31
0.148613244104384
  0
LINE
  5
88
330
9D2
100
AcDbEntity
  8
1_TOP
  6
CONTINUOUS
 62
     7
100
AcDbLine
 10
-10.21062893350983
 20
-13.43816100605099
 30
0.148613244104384
 11
-10.22312893351033
 21
-13.43816100605099
 31
0.148613244104384
  0
LINE
  5
89
330
9D2
100
AcDbEntity
  8
1_TOP
  6
CONTINUOUS
 62
     7
100
AcDbLine
 10
-10.21062893350983
 20
-13.31214372752018
 30
0.148613244104384
 11
-10.11062893350984
 21
-13.31214372752018
 31
0.148613244104384
  0
LINE
  5
8A
330
9D2
100
AcDbEntity
  8
1_TOP
  6
CONTINUOUS
 62
     7
100
AcDbLine
 10
-10.21062893350983
 20
-13.31214372752018
 30
0.148613244104384
 11
-10.21062893350983
 21
-13.28412644898949
 31
0.148613244104384
  0
LINE
  5
8B
330
9D2
100
AcDbEntity
  8
1_TOP
  6
CONTINUOUS
 62
     7
100
AcDbLine
 10
-10.11062893350984
 20
-13.31214372752018
 30
0.148613244104384
 11
-10.11062893350983
 21
-13.28412644898949
 31
0.148613244104384
  0
LINE
  5
8C
330
9D2
100
AcDbEntity
  8
1_TOP
  6
CONTINUOUS
 62
     7
100
AcDbLine
 10
-10.21062893350983
 20
-13.41014372752018
 30
0.148613244104384
 11
-10.21062893350983
 21
-13.43816100605099
 31
0.148613244104384
  0
LINE
  5
8D
330
9D2
100
AcDbEntity
  8
1_TOP
  6
CONTINUOUS
 62
     7
100
AcDbLine
 10
-10.21062893350983
 20
-13.41014372752018
 30
0.148613244104384
 11
-10.11062893350983
 21
-13.41014372752018
 31
0.148613244104384
  0
LINE
  5
8E
330
9D2
100
AcDbEntity
  8
1_TOP
  6
CONTINUOUS
 62
     7
100
AcDbLine
 10
-10.11062893350983
 20
-13.41014372752018
 30
0.148613244104384
 11
-10.11062893350983
 21
-13.43816100605099
 31
0.148613244104384
  0
LINE
  5
8F
330
9D2
100
AcDbEntity
  8
1_TOP
  6
CONTINUOUS
 62
     7
100
AcDbLine
 10
-10.22312893351033
 20
-13.51454285794268
 30
0.3480434344787029
 11
-10.09812893350936
 21
-13.51454285794268
 31
0.3480434344787029
  0
LINE
  5
90
330
9D2
100
AcDbEntity
  8
1_TOP
  6
CONTINUOUS
 62
     7
100
AcDbLine
 10
-10.09812893350936
 20
-13.20774459709779
 30
0.348043434478553
 11
-10.22312893351033
 21
-13.20774459709779
 31
0.3480434344787029
  0
LINE
  5
91
330
9D2
100
AcDbEntity
  8
1_TOP
  6
CONTINUOUS
 62
     7
100
AcDbLine
 10
-12.02312893350985
 20
-13.43816100605099
 30
0.148613244104534
 11
-11.92312893350985
 21
-13.43816100605099
 31
0.148613244104534
  0
LINE
  5
92
330
9D2
100
AcDbEntity
  8
1_TOP
  6
CONTINUOUS
 62
     7
100
AcDbLine
 10
-11.92312893350985
 20
-13.43816100605099
 30
0.148613244104534
 11
-11.91062893350935
 21
-13.43816100605099
 31
0.148613244104533
  0
LINE
  5
93
330
9D2
100
AcDbEntity
  8
1_TOP
  6
CONTINUOUS
 62
     7
100
AcDbLine
 10
-12.02312893350985
 20
-13.43816100605099
 30
0.148613244104534
 11
-12.03562893351032
 21
-13.43816100605099
 31
0.148613244104533
  0
LINE
  5
94
330
9D2
100
AcDbEntity
  8
1_TOP
  6
CONTINUOUS
 62
     7
100
AcDbLine
 10
-11.91062893350935
 20
-13.28412644898949
 30
0.148613244104534
 11
-11.92312893350985
 21
-13.28412644898949
 31
0.148613244104533
  0
LINE
  5
95
330
9D2
100
AcDbEntity
  8
1_TOP
  6
CONTINUOUS
 62
     7
100
AcDbLine
 10
-11.92312893350985
 20
-13.28412644898949
 30
0.148613244104533
 11
-12.02312893350985
 21
-13.28412644898949
 31
0.148613244104533
  0
LINE
  5
96
330
9D2
100
AcDbEntity
  8
1_TOP
  6
CONTINUOUS
 62
     7
100
AcDbLine
 10
-12.02312893350985
 20
-13.31214372752018
 30
0.148613244104533
 11
-11.92312893350985
 21
-13.31214372752018
 31
0.148613244104533
  0
LINE
  5
97
330
9D2
100
AcDbEntity
  8
1_TOP
  6
CONTINUOUS
 62
     7
100
AcDbLine
 10
-12.02312893350985
 20
-13.31214372752018
 30
0.148613244104533
 11
-12.02312893350985
 21
-13.28412644898949
 31
0.148613244104533
  0
LINE
  5
98
330
9D2
100
AcDbEntity
  8
1_TOP
  6
CONTINUOUS
 62
     7
100
AcDbLine
 10
-11.92312893350985
 20
-13.31214372752018
 30
0.148613244104533
 11
-11.92312893350985
 21
-13.28412644898949
 31
0.148613244104533
  0
LINE
  5
99
330
9D2
100
AcDbEntity
  8
1_TOP
  6
CONTINUOUS
 62
     7
100
AcDbLine
 10
-12.02312893350985
 20
-13.41014372752018
 30
0.148613244104533
 11
-12.02312893350985
 21
-13.43816100605099
 31
0.148613244104534
  0
LINE
  5
9A
330
9D2
100
AcDbEntity
  8
1_TOP
  6
CONTINUOUS
 62
     7
100
AcDbLine
 10
-12.02312893350985
 20
-13.41014372752018
 30
0.148613244104533
 11
-11.92312893350985
 21
-13.41014372752018
 31
0.148613244104533
  0
LINE
  5
9B
330
9D2
100
AcDbEntity
  8
1_TOP
  6
CONTINUOUS
 62
     7
100
AcDbLine
 10
-11.92312893350985
 20
-13.41014372752018
 30
0.148613244104533
 11
-11.92312893350985
 21
-13.43816100605099
 31
0.148613244104534
  0
LINE
  5
9C
330
9D2
100
AcDbEntity
  8
1_TOP
  6
CONTINUOUS
 62
     7
100
AcDbLine
 10
-12.03562893351032
 20
-13.51454285794268
 30
0.3480434344788519
 11
-11.91062893350935
 21
-13.51454285794268
 31
0.3480434344788519
  0
LINE
  5
9D
330
9D2
100
AcDbEntity
  8
1_TOP
  6
CONTINUOUS
 62
     7
100
AcDbLine
 10
-11.91062893350935
 20
-13.20774459709779
 30
0.3480434344787029
 11
-12.03562893351032
 21
-13.20774459709779
 31
0.3480434344788519
  0
LINE
  5
9E
330
9D2
100
AcDbEntity
  8
1_TOP
  6
CONTINUOUS
 62
     7
100
AcDbLine
 10
-12.02312893350985
 20
-10.15716100605094
 30
0.148613244104534
 11
-11.92312893350985
 21
-10.15716100605094
 31
0.148613244104534
  0
LINE
  5
9F
330
9D2
100
AcDbEntity
  8
1_TOP
  6
CONTINUOUS
 62
     7
100
AcDbLine
 10
-11.92312893350985
 20
-10.15716100605094
 30
0.148613244104534
 11
-11.91062893350935
 21
-10.15716100605094
 31
0.148613244104534
  0
LINE
  5
A0
330
9D2
100
AcDbEntity
  8
1_TOP
  6
CONTINUOUS
 62
     7
100
AcDbLine
 10
-12.02312893350985
 20
-10.15716100605094
 30
0.148613244104534
 11
-12.03562893351032
 21
-10.15716100605094
 31
0.148613244104534
  0
LINE
  5
A1
330
9D2
100
AcDbEntity
  8
1_TOP
  6
CONTINUOUS
 62
     7
100
AcDbLine
 10
-11.91062893350935
 20
-10.00312644898943
 30
0.148613244104534
 11
-11.92312893350985
 21
-10.00312644898943
 31
0.148613244104533
  0
LINE
  5
A2
330
9D2
100
AcDbEntity
  8
1_TOP
  6
CONTINUOUS
 62
     7
100
AcDbLine
 10
-11.92312893350985
 20
-10.00312644898943
 30
0.148613244104533
 11
-12.02312893350985
 21
-10.00312644898943
 31
0.148613244104533
  0
LINE
  5
A3
330
9D2
100
AcDbEntity
  8
1_TOP
  6
CONTINUOUS
 62
     7
100
AcDbLine
 10
-12.03562893351032
 20
-10.00312644898943
 30
0.148613244104534
 11
-12.02312893350985
 21
-10.00312644898943
 31
0.148613244104533
  0
LINE
  5
A4
330
9D2
100
AcDbEntity
  8
1_TOP
  6
CONTINUOUS
 62
     7
100
AcDbLine
 10
-11.91062893350935
 20
-10.15716100605094
 30
0.148613244104534
 11
-11.91062893350935
 21
-10.15762478380309
 31
0.175183053730283
  0
LINE
  5
A5
330
9D2
100
AcDbEntity
  8
1_TOP
  6
CONTINUOUS
 62
     7
100
AcDbLine
 10
-12.02312893350985
 20
-10.00312644898943
 30
0.148613244104533
 11
-12.02281464658442
 21
-10.00281216206402
 31
0.139613244104533
  0
LINE
  5
A6
330
9D2
100
AcDbEntity
  8
1_TOP
  6
CONTINUOUS
 62
     7
100
AcDbLine
 10
-12.02312893350985
 20
-10.03114372752019
 30
0.148613244104533
 11
-11.92312893350985
 21
-10.03114372752019
 31
0.148613244104533
  0
LINE
  5
A7
330
9D2
100
AcDbEntity
  8
1_TOP
  6
CONTINUOUS
 62
     7
100
AcDbLine
 10
-12.02312893350985
 20
-10.03114372752019
 30
0.148613244104533
 11
-12.02312893350985
 21
-10.00312644898943
 31
0.148613244104533
  0
LINE
  5
A8
330
9D2
100
AcDbEntity
  8
1_TOP
  6
CONTINUOUS
 62
     7
100
AcDbLine
 10
-11.92312893350985
 20
-10.03114372752019
 30
0.148613244104533
 11
-11.92312893350985
 21
-10.00312644898943
 31
0.148613244104533
  0
LINE
  5
A9
330
9D2
100
AcDbEntity
  8
1_TOP
  6
CONTINUOUS
 62
     7
100
AcDbLine
 10
-12.02312893350985
 20
-10.1291437275202
 30
0.148613244104533
 11
-12.02312893350985
 21
-10.15716100605094
 31
0.148613244104534
  0
LINE
  5
AA
330
9D2
100
AcDbEntity
  8
1_TOP
  6
CONTINUOUS
 62
     7
100
AcDbLine
 10
-12.02312893350985
 20
-10.1291437275202
 30
0.148613244104533
 11
-11.92312893350985
 21
-10.1291437275202
 31
0.148613244104533
  0
LINE
  5
AB
330
9D2
100
AcDbEntity
  8
1_TOP
  6
CONTINUOUS
 62
     7
100
AcDbLine
 10
-11.92312893350985
 20
-10.1291437275202
 30
0.148613244104533
 11
-11.92312893350985
 21
-10.15716100605094
 31
0.148613244104534
  0
LINE
  5
AC
330
9D2
100
AcDbEntity
  8
1_TOP
  6
CONTINUOUS
 62
     7
100
AcDbLine
 10
-12.03562893351032
 20
-10.23354285794267
 30
0.3480434344788519
 11
-11.91062893350935
 21
-10.23354285794267
 31
0.3480434344788519
  0
LINE
  5
AD
330
9D2
100
AcDbEntity
  8
1_TOP
  6
CONTINUOUS
 62
     7
100
AcDbLine
 10
-11.91062893350935
 20
-9.926744597097735
 30
0.3480434344787029
 11
-12.03562893351032
 21
-9.92674459709773
 31
0.3480434344788519
  0
LINE
  5
AE
330
9D2
100
AcDbEntity
  8
1_TOP
  6
CONTINUOUS
 62
     7
100
AcDbLine
 10
-10.21062893350983
 20
-10.15716100605094
 30
0.148613244104384
 11
-10.11062893350984
 21
-10.15716100605094
 31
0.148613244104384
  0
LINE
  5
AF
330
9D2
100
AcDbEntity
  8
1_TOP
  6
CONTINUOUS
 62
     7
100
AcDbLine
 10
-10.11062893350984
 20
-10.15716100605094
 30
0.148613244104384
 11
-10.09812893350936
 21
-10.15716100605094
 31
0.148613244104384
  0
LINE
  5
B0
330
9D2
100
AcDbEntity
  8
1_TOP
  6
CONTINUOUS
 62
     7
100
AcDbLine
 10
-10.21062893350983
 20
-10.15716100605094
 30
0.148613244104384
 11
-10.22312893351033
 21
-10.15716100605094
 31
0.148613244104384
  0
LINE
  5
B1
330
9D2
100
AcDbEntity
  8
1_TOP
  6
CONTINUOUS
 62
     7
100
AcDbLine
 10
-10.11094322043527
 20
-10.15747529297638
 30
0.139613244104384
 11
-10.11062893350984
 21
-10.15716100605094
 31
0.148613244104384
  0
LINE
  5
B2
330
9D2
100
AcDbEntity
  8
1_TOP
  6
CONTINUOUS
 62
     7
100
AcDbLine
 10
-10.09812893350936
 20
-10.00312644898943
 30
0.148613244104384
 11
-10.11062893350984
 21
-10.00312644898943
 31
0.148613244104384
  0
LINE
  5
B3
330
9D2
100
AcDbEntity
  8
1_TOP
  6
CONTINUOUS
 62
     7
100
AcDbLine
 10
-10.11062893350984
 20
-10.00312644898943
 30
0.148613244104384
 11
-10.21062893350983
 21
-10.00312644898943
 31
0.148613244104384
  0
LINE
  5
B4
330
9D2
100
AcDbEntity
  8
1_TOP
  6
CONTINUOUS
 62
     7
100
AcDbLine
 10
-10.22312893351033
 20
-10.00312644898943
 30
0.148613244104384
 11
-10.21062893350983
 21
-10.00312644898943
 31
0.148613244104384
  0
LINE
  5
B5
330
9D2
100
AcDbEntity
  8
1_TOP
  6
CONTINUOUS
 62
     7
100
AcDbLine
 10
-10.21062893350983
 20
-10.03114372752019
 30
0.148613244104384
 11
-10.11062893350983
 21
-10.03114372752019
 31
0.148613244104384
  0
LINE
  5
B6
330
9D2
100
AcDbEntity
  8
1_TOP
  6
CONTINUOUS
 62
     7
100
AcDbLine
 10
-10.21062893350983
 20
-10.03114372752019
 30
0.148613244104384
 11
-10.21062893350983
 21
-10.00312644898943
 31
0.148613244104384
  0
LINE
  5
B7
330
9D2
100
AcDbEntity
  8
1_TOP
  6
CONTINUOUS
 62
     7
100
AcDbLine
 10
-10.11062893350983
 20
-10.03114372752019
 30
0.148613244104384
 11
-10.11062893350984
 21
-10.00312644898943
 31
0.148613244104384
  0
LINE
  5
B8
330
9D2
100
AcDbEntity
  8
1_TOP
  6
CONTINUOUS
 62
     7
100
AcDbLine
 10
-10.21062893350983
 20
-10.1291437275202
 30
0.148613244104384
 11
-10.21062893350983
 21
-10.15716100605094
 31
0.148613244104384
  0
LINE
  5
B9
330
9D2
100
AcDbEntity
  8
1_TOP
  6
CONTINUOUS
 62
     7
100
AcDbLine
 10
-10.21062893350983
 20
-10.1291437275202
 30
0.148613244104384
 11
-10.11062893350983
 21
-10.1291437275202
 31
0.148613244104384
  0
LINE
  5
BA
330
9D2
100
AcDbEntity
  8
1_TOP
  6
CONTINUOUS
 62
     7
100
AcDbLine
 10
-10.11062893350983
 20
-10.1291437275202
 30
0.148613244104384
 11
-10.11062893350984
 21
-10.15716100605094
 31
0.148613244104384
  0
LINE
  5
BB
330
9D2
100
AcDbEntity
  8
1_TOP
  6
CONTINUOUS
 62
     7
100
AcDbLine
 10
-10.22312893351033
 20
-10.23354285794267
 30
0.3480434344787029
 11
-10.09812893350936
 21
-10.23354285794267
 31
0.3480434344787029
  0
LINE
  5
BC
330
9D2
100
AcDbEntity
  8
1_TOP
  6
CONTINUOUS
 62
     7
100
AcDbLine
 10
-10.09812893350936
 20
-9.926744597097735
 30
0.348043434478553
 11
-10.22312893351033
 21
-9.92674459709773
 31
0.3480434344787029
  0
LINE
  5
BD
330
9D2
100
AcDbEntity
  8
1_TOP
  6
CONTINUOUS
 62
     7
100
AcDbLine
 10
-12.42381793436903
 20
-11.48954400552088
 30
0.3592049781759199
 11
-12.24993993265065
 21
-11.48954400552088
 31
0.3592049781759199
  0
LINE
  5
BE
330
9D2
100
AcDbEntity
  8
1_TOP
  6
CONTINUOUS
 62
     7
100
AcDbLine
 10
-12.42381793436903
 20
-11.48954400552088
 30
0.3592049781759199
 11
-12.42381793436903
 21
-11.5083395505425
 31
0.3592049781759199
  0
LINE
  5
BF
330
9D2
100
AcDbEntity
  8
1_TOP
  6
CONTINUOUS
 62
     7
100
AcDbLine
 10
-11.80402914174244
 20
-10.82117178019329
 30
-0.120956565521297
 11
-11.80402914174244
 21
-10.79086454413759
 31
-0.120956565521297
  0
LINE
  5
C0
330
9D2
100
AcDbEntity
  8
1_TOP
  6
CONTINUOUS
 62
     7
100
AcDbLine
 10
-11.80494647946019
 20
-10.86140905723588
 30
-0.10345271913991
 11
-11.80494647946019
 21
-10.87117178019328
 31
-0.103452719139911
  0
LINE
  5
C1
330
9D2
100
AcDbEntity
  8
1_TOP
  6
CONTINUOUS
 62
     7
100
AcDbLine
 10
-11.59881138755949
 20
-10.87117178019328
 30
-0.103452719139911
 11
-11.80494647946019
 21
-10.87117178019328
 31
-0.103452719139911
  0
LINE
  5
C2
330
9D2
100
AcDbEntity
  8
1_TOP
  6
CONTINUOUS
 62
     7
100
AcDbLine
 10
-11.59881138755949
 20
-10.86140905723588
 30
-0.10345271913991
 11
-11.80494647946019
 21
-10.86140905723588
 31
-0.10345271913991
  0
LINE
  5
C3
330
9D2
100
AcDbEntity
  8
1_TOP
  6
CONTINUOUS
 62
     7
100
AcDbLine
 10
-11.59972872527725
 20
-10.79086454413759
 30
-0.120956565521297
 11
-11.80402914174244
 21
-10.79086454413759
 31
-0.120956565521297
  0
LINE
  5
C4
330
9D2
100
AcDbEntity
  8
1_TOP
  6
CONTINUOUS
 62
     7
100
AcDbLine
 10
-11.59972872527725
 20
-10.82117178019329
 30
-0.120956565521297
 11
-11.80402914174244
 21
-10.82117178019329
 31
-0.120956565521297
  0
LINE
  5
C5
330
9D2
100
AcDbEntity
  8
1_TOP
  6
CONTINUOUS
 62
     7
100
AcDbLine
 10
-11.59889478189747
 20
-10.85775112295928
 30
-0.105043977901855
 11
-11.80486308512222
 21
-10.85775112295928
 31
-0.105043977901855
  0
LINE
  5
C6
330
9D2
100
AcDbEntity
  8
1_TOP
  6
CONTINUOUS
 62
     7
100
AcDbLine
 10
-11.59881138755949
 20
-10.86140905723588
 30
-0.10345271913991
 11
-11.59881138755949
 21
-10.87117178019328
 31
-0.103452719139911
  0
LINE
  5
C7
330
9D2
100
AcDbEntity
  8
1_TOP
  6
CONTINUOUS
 62
     7
100
AcDbLine
 10
-11.59972872527725
 20
-10.82117178019329
 30
-0.120956565521297
 11
-11.59972872527725
 21
-10.79086454413759
 31
-0.120956565521297
  0
LINE
  5
C8
330
9D2
100
AcDbEntity
  8
1_TOP
  6
CONTINUOUS
 62
     7
100
AcDbLine
 10
-12.43902914174245
 20
-10.79086454413759
 30
-0.120956565521297
 11
-12.46360539513539
 21
-10.78267911623858
 31
0.347986284741868
  0
LINE
  5
C9
330
9D2
100
AcDbEntity
  8
1_TOP
  6
CONTINUOUS
 62
     7
100
AcDbLine
 10
-12.23472872527725
 20
-10.79086454413759
 30
-0.120956565521297
 11
-12.2101524718843
 21
-10.78267911623858
 31
0.347986284741868
  0
LINE
  5
CA
330
9D2
100
AcDbEntity
  8
1_TOP
  6
CONTINUOUS
 62
     7
100
AcDbLine
 10
-12.65042723495791
 20
-11.5091920289683
 30
0.408043434478702
 11
-9.483330632061797
 21
-11.5091920289683
 31
0.408043434478702
  0
LINE
  5
CB
330
9D2
100
AcDbEntity
  8
1_TOP
  6
CONTINUOUS
 62
     7
100
AcDbLine
 10
-12.43902914174245
 20
-10.82117178019329
 30
-0.120956565521297
 11
-12.43902914174245
 21
-10.79086454413759
 31
-0.120956565521297
  0
LINE
  5
CC
330
9D2
100
AcDbEntity
  8
1_TOP
  6
CONTINUOUS
 62
     7
100
AcDbLine
 10
-12.43994647946019
 20
-10.86140905723588
 30
-0.103452719139911
 11
-12.43994647946019
 21
-10.87117178019328
 31
-0.103452719139911
  0
LINE
  5
CD
330
9D2
100
AcDbEntity
  8
1_TOP
  6
CONTINUOUS
 62
     7
100
AcDbLine
 10
-12.43986308512222
 20
-10.85775112295928
 30
-0.105043977901855
 11
-12.23389478189747
 21
-10.85775112295928
 31
-0.105043977901855
  0
LINE
  5
CE
330
9D2
100
AcDbEntity
  8
1_TOP
  6
CONTINUOUS
 62
     7
100
AcDbLine
 10
-12.43902914174245
 20
-10.82117178019329
 30
-0.120956565521297
 11
-12.23472872527725
 21
-10.82117178019329
 31
-0.120956565521297
  0
LINE
  5
CF
330
9D2
100
AcDbEntity
  8
1_TOP
  6
CONTINUOUS
 62
     7
100
AcDbLine
 10
-12.43902914174245
 20
-10.79086454413759
 30
-0.120956565521297
 11
-12.23472872527725
 21
-10.79086454413759
 31
-0.120956565521297
  0
LINE
  5
D0
330
9D2
100
AcDbEntity
  8
1_TOP
  6
CONTINUOUS
 62
     7
100
AcDbLine
 10
-12.43994647946019
 20
-10.86140905723588
 30
-0.103452719139911
 11
-12.23381138755949
 21
-10.86140905723588
 31
-0.103452719139911
  0
LINE
  5
D1
330
9D2
100
AcDbEntity
  8
1_TOP
  6
CONTINUOUS
 62
     7
100
AcDbLine
 10
-12.43994647946019
 20
-10.87117178019328
 30
-0.103452719139911
 11
-12.23381138755949
 21
-10.87117178019328
 31
-0.103452719139911
  0
LINE
  5
D2
330
9D2
100
AcDbEntity
  8
1_TOP
  6
CONTINUOUS
 62
     7
100
AcDbLine
 10
-11.80402914174244
 20
-10.79086454413759
 30
-0.120956565521297
 11
-11.82860539513539
 21
-10.78267911623858
 31
0.347986284741868
  0
LINE
  5
D3
330
9D2
100
AcDbEntity
  8
1_TOP
  6
CONTINUOUS
 62
     7
100
AcDbLine
 10
-11.59972872527725
 20
-10.79086454413759
 30
-0.120956565521297
 11
-11.5751524718843
 21
-10.78267911623858
 31
0.347986284741868
  0
LINE
  5
D4
330
9D2
100
AcDbEntity
  8
1_TOP
  6
CONTINUOUS
 62
     7
100
AcDbLine
 10
-12.23381138755949
 20
-10.86140905723588
 30
-0.103452719139911
 11
-12.23381138755949
 21
-10.87117178019328
 31
-0.103452719139911
  0
LINE
  5
D5
330
9D2
100
AcDbEntity
  8
1_TOP
  6
CONTINUOUS
 62
     7
100
AcDbLine
 10
-12.23472872527725
 20
-10.82117178019329
 30
-0.120956565521297
 11
-12.23472872527725
 21
-10.79086454413759
 31
-0.120956565521297
  0
LINE
  5
D6
330
9D2
100
AcDbEntity
  8
1_TOP
  6
CONTINUOUS
 62
     7
100
AcDbLine
 10
-11.31292723495791
 20
-10.84709542607219
 30
0.408043434478702
 11
-11.45583063206178
 21
-10.84709542607219
 31
0.4080434344787029
  0
LINE
  5
D7
330
9D2
100
AcDbEntity
  8
1_TOP
  6
CONTINUOUS
 62
     7
100
AcDbLine
 10
-11.9479272349579
 20
-10.78163081479059
 30
0.4080434344787029
 11
-11.45583063206178
 21
-10.78163081479059
 31
0.4080434344787029
  0
LINE
  5
D8
330
9D2
100
AcDbEntity
  8
1_TOP
  6
CONTINUOUS
 62
     7
100
AcDbLine
 10
-11.78881793436904
 20
-11.48954400552088
 30
0.3592049781759199
 11
-11.78881793436904
 21
-11.5083395505425
 31
0.3592049781759199
  0
LINE
  5
D9
330
9D2
100
AcDbEntity
  8
1_TOP
  6
CONTINUOUS
 62
     7
100
AcDbLine
 10
-11.61493993265064
 20
-11.5083395505425
 30
0.3592049781759199
 11
-11.78881793436904
 21
-11.5083395505425
 31
0.3592049781759199
  0
LINE
  5
DA
330
9D2
100
AcDbEntity
  8
1_TOP
  6
CONTINUOUS
 62
     7
100
AcDbLine
 10
-11.61493993265064
 20
-11.47954552856928
 30
0.3493795022402919
 11
-11.78881793436904
 21
-11.47954552856928
 31
0.3493795022402919
  0
LINE
  5
DB
330
9D2
100
AcDbEntity
  8
1_TOP
  6
CONTINUOUS
 62
     7
100
AcDbLine
 10
-11.61493993265064
 20
-11.48954400552088
 30
0.3592049781759199
 11
-11.61493993265064
 21
-11.5083395505425
 31
0.3592049781759199
  0
LINE
  5
DC
330
9D2
100
AcDbEntity
  8
1_TOP
  6
CONTINUOUS
 62
     7
100
AcDbLine
 10
-11.61493993265064
 20
-11.48954400552088
 30
0.3592049781759199
 11
-11.78881793436904
 21
-11.48954400552088
 31
0.3592049781759199
  0
LINE
  5
DD
330
9D2
100
AcDbEntity
  8
1_TOP
  6
CONTINUOUS
 62
     7
100
AcDbLine
 10
-12.42381793436903
 20
-11.47954552856928
 30
0.3493795022402919
 11
-12.24993993265065
 21
-11.47954552856928
 31
0.3493795022402919
  0
LINE
  5
DE
330
9D2
100
AcDbEntity
  8
1_TOP
  6
CONTINUOUS
 62
     7
100
AcDbLine
 10
-12.42381793436903
 20
-11.5083395505425
 30
0.3592049781759199
 11
-12.24993993265065
 21
-11.5083395505425
 31
0.3592049781759199
  0
LINE
  5
DF
330
9D2
100
AcDbEntity
  8
1_TOP
  6
CONTINUOUS
 62
     7
100
AcDbLine
 10
-12.24993993265065
 20
-11.48954400552088
 30
0.3592049781759199
 11
-12.24993993265065
 21
-11.5083395505425
 31
0.3592049781759199
  0
LINE
  5
E0
330
9D2
100
AcDbEntity
  8
1_TOP
  6
CONTINUOUS
 62
     7
100
AcDbLine
 10
-12.58292723495791
 20
-10.78163081479059
 30
0.4080434344787029
 11
-12.58187893350985
 21
-10.78267911623858
 31
0.347986284741868
  0
LINE
  5
E1
330
9D2
100
AcDbEntity
  8
1_TOP
  6
CONTINUOUS
 62
     7
100
AcDbLine
 10
-12.09083063206178
 20
-10.78163081479059
 30
0.4080434344787029
 11
-12.58292723495791
 21
-10.78163081479059
 31
0.4080434344787029
  0
LINE
  5
E2
330
9D2
100
AcDbEntity
  8
1_TOP
  6
CONTINUOUS
 62
     7
100
AcDbLine
 10
-12.09083063206178
 20
-10.84709542607219
 30
0.4080434344787029
 11
-12.09083063206178
 21
-10.78163081479059
 31
0.4080434344787029
  0
LINE
  5
E3
330
9D2
100
AcDbEntity
  8
1_TOP
  6
CONTINUOUS
 62
     7
100
AcDbLine
 10
-12.65042723495791
 20
-10.84709542607219
 30
0.408043434478702
 11
-12.58292723495791
 21
-10.84709542607219
 31
0.408043434478702
  0
LINE
  5
E4
330
9D2
100
AcDbEntity
  8
1_TOP
  6
CONTINUOUS
 62
     7
100
AcDbLine
 10
-12.65042723495791
 20
-10.84709542607219
 30
0.408043434478702
 11
-12.64937893350985
 21
-10.84814372752018
 31
0.347986284741868
  0
LINE
  5
E5
330
9D2
100
AcDbEntity
  8
1_TOP
  6
CONTINUOUS
 62
     7
100
AcDbLine
 10
-11.45583063206178
 20
-10.78163081479059
 30
0.4080434344787029
 11
-11.45583063206178
 21
-10.84709542607219
 31
0.4080434344787029
  0
LINE
  5
E6
330
9D2
100
AcDbEntity
  8
1_TOP
  6
CONTINUOUS
 62
     7
100
AcDbLine
 10
-11.9479272349579
 20
-10.84709542607219
 30
0.4080434344787029
 11
-11.9479272349579
 21
-10.78163081479059
 31
0.4080434344787029
  0
LINE
  5
E7
330
9D2
100
AcDbEntity
  8
1_TOP
  6
CONTINUOUS
 62
     7
100
AcDbLine
 10
-12.58292723495791
 20
-10.78163081479059
 30
0.4080434344787029
 11
-12.58292723495791
 21
-10.84709542607219
 31
0.408043434478702
  0
LINE
  5
E8
330
9D2
100
AcDbEntity
  8
1_TOP
  6
CONTINUOUS
 62
     7
100
AcDbLine
 10
-12.65042723495791
 20
-10.84709542607219
 30
0.408043434478702
 11
-12.65042723495791
 21
-11.5091920289683
 31
0.408043434478702
  0
LINE
  5
E9
330
9D2
100
AcDbEntity
  8
1_TOP
  6
CONTINUOUS
 62
     7
100
AcDbLine
 10
-12.09083063206178
 20
-10.84709542607219
 30
0.4080434344787029
 11
-11.9479272349579
 21
-10.84709542607219
 31
0.4080434344787029
  0
LINE
  5
EA
330
9D2
100
AcDbEntity
  8
1_TOP
  6
CONTINUOUS
 62
     7
100
AcDbLine
 10
-11.31292723495791
 20
-10.84709542607219
 30
0.4080434344787029
 11
-11.31292723495791
 21
-10.78163081479059
 31
0.408043434478702
  0
LINE
  5
EB
330
9D2
100
AcDbEntity
  8
1_TOP
  6
CONTINUOUS
 62
     7
100
AcDbLine
 10
-11.31292723495791
 20
-10.78163081479059
 30
0.4080434344787029
 11
-10.82083063206178
 21
-10.78163081479059
 31
0.4080434344787029
  0
LINE
  5
EC
330
9D2
100
AcDbEntity
  8
1_TOP
  6
CONTINUOUS
 62
     7
100
AcDbLine
 10
-11.15381793436903
 20
-11.48954400552088
 30
0.3592049781759199
 11
-11.15381793436903
 21
-11.5083395505425
 31
0.3592049781759199
  0
LINE
  5
ED
330
9D2
100
AcDbEntity
  8
1_TOP
  6
CONTINUOUS
 62
     7
100
AcDbLine
 10
-10.97993993265065
 20
-11.5083395505425
 30
0.3592049781759199
 11
-11.15381793436903
 21
-11.5083395505425
 31
0.3592049781759199
  0
LINE
  5
EE
330
9D2
100
AcDbEntity
  8
1_TOP
  6
CONTINUOUS
 62
     7
100
AcDbLine
 10
-10.97993993265065
 20
-11.47954552856928
 30
0.349379502240293
 11
-11.15381793436903
 21
-11.47954552856928
 31
0.349379502240293
  0
LINE
  5
EF
330
9D2
100
AcDbEntity
  8
1_TOP
  6
CONTINUOUS
 62
     7
100
AcDbLine
 10
-10.97993993265065
 20
-11.48954400552088
 30
0.3592049781759199
 11
-10.97993993265065
 21
-11.5083395505425
 31
0.3592049781759199
  0
LINE
  5
F0
330
9D2
100
AcDbEntity
  8
1_TOP
  6
CONTINUOUS
 62
     7
100
AcDbLine
 10
-10.97993993265065
 20
-11.48954400552088
 30
0.3592049781759199
 11
-11.15381793436903
 21
-11.48954400552088
 31
0.3592049781759199
  0
LINE
  5
F1
330
9D2
100
AcDbEntity
  8
1_TOP
  6
CONTINUOUS
 62
     7
100
AcDbLine
 10
-11.16902914174244
 20
-10.79086454413759
 30
-0.120956565521297
 11
-11.19360539513539
 21
-10.78267911623858
 31
0.347986284741868
  0
LINE
  5
F2
330
9D2
100
AcDbEntity
  8
1_TOP
  6
CONTINUOUS
 62
     7
100
AcDbLine
 10
-10.96472872527724
 20
-10.79086454413759
 30
-0.120956565521297
 11
-10.9401524718843
 21
-10.78267911623858
 31
0.347986284741868
  0
LINE
  5
F3
330
9D2
100
AcDbEntity
  8
1_TOP
  6
CONTINUOUS
 62
     7
100
AcDbLine
 10
-10.96472872527724
 20
-10.79086454413759
 30
-0.120956565521297
 11
-11.16902914174244
 21
-10.79086454413759
 31
-0.120956565521297
  0
LINE
  5
F4
330
9D2
100
AcDbEntity
  8
1_TOP
  6
CONTINUOUS
 62
     7
100
AcDbLine
 10
-10.96472872527724
 20
-10.82117178019329
 30
-0.120956565521297
 11
-11.16902914174244
 21
-10.82117178019329
 31
-0.120956565521297
  0
LINE
  5
F5
330
9D2
100
AcDbEntity
  8
1_TOP
  6
CONTINUOUS
 62
     7
100
AcDbLine
 10
-10.96389478189747
 20
-10.85775112295928
 30
-0.105043977901855
 11
-11.16986308512222
 21
-10.85775112295928
 31
-0.105043977901855
  0
LINE
  5
F6
330
9D2
100
AcDbEntity
  8
1_TOP
  6
CONTINUOUS
 62
     7
100
AcDbLine
 10
-10.96381138755949
 20
-10.86140905723588
 30
-0.103452719139911
 11
-10.96381138755949
 21
-10.87117178019328
 31
-0.103452719139911
  0
LINE
  5
F7
330
9D2
100
AcDbEntity
  8
1_TOP
  6
CONTINUOUS
 62
     7
100
AcDbLine
 10
-10.96472872527724
 20
-10.82117178019329
 30
-0.120956565521297
 11
-10.96472872527724
 21
-10.79086454413759
 31
-0.120956565521297
  0
LINE
  5
F8
330
9D2
100
AcDbEntity
  8
1_TOP
  6
CONTINUOUS
 62
     7
100
AcDbLine
 10
-11.16902914174244
 20
-10.82117178019329
 30
-0.120956565521297
 11
-11.16902914174244
 21
-10.79086454413759
 31
-0.120956565521297
  0
LINE
  5
F9
330
9D2
100
AcDbEntity
  8
1_TOP
  6
CONTINUOUS
 62
     7
100
AcDbLine
 10
-11.16994647946019
 20
-10.86140905723588
 30
-0.103452719139911
 11
-11.16994647946019
 21
-10.87117178019328
 31
-0.103452719139911
  0
LINE
  5
FA
330
9D2
100
AcDbEntity
  8
1_TOP
  6
CONTINUOUS
 62
     7
100
AcDbLine
 10
-10.96381138755949
 20
-10.87117178019328
 30
-0.103452719139911
 11
-11.16994647946019
 21
-10.87117178019328
 31
-0.103452719139911
  0
LINE
  5
FB
330
9D2
100
AcDbEntity
  8
1_TOP
  6
CONTINUOUS
 62
     7
100
AcDbLine
 10
-10.96381138755949
 20
-10.86140905723588
 30
-0.103452719139911
 11
-11.16994647946019
 21
-10.86140905723588
 31
-0.103452719139911
  0
LINE
  5
FC
330
9D2
100
AcDbEntity
  8
1_TOP
  6
CONTINUOUS
 62
     7
100
AcDbLine
 10
-10.82083063206178
 20
-10.84709542607219
 30
0.4080434344787029
 11
-10.82083063206178
 21
-10.78163081479059
 31
0.4080434344787029
  0
LINE
  5
FD
330
9D2
100
AcDbEntity
  8
1_TOP
  6
CONTINUOUS
 62
     7
100
AcDbLine
 10
-9.709939932650657
 20
-11.47954552856928
 30
0.3493795022402919
 11
-9.883817934369046
 21
-11.47954552856928
 31
0.3493795022402919
  0
LINE
  5
FE
330
9D2
100
AcDbEntity
  8
1_TOP
  6
CONTINUOUS
 62
     7
100
AcDbLine
 10
-9.709939932650657
 20
-11.5083395505425
 30
0.3592049781759199
 11
-9.883817934369046
 21
-11.5083395505425
 31
0.3592049781759199
  0
LINE
  5
FF
330
9D2
100
AcDbEntity
  8
1_TOP
  6
CONTINUOUS
 62
     7
100
AcDbLine
 10
-9.883817934369046
 20
-11.48954400552088
 30
0.3592049781759199
 11
-9.883817934369046
 21
-11.5083395505425
 31
0.3592049781759199
  0
LINE
  5
100
330
9D2
100
AcDbEntity
  8
1_TOP
  6
CONTINUOUS
 62
     7
100
AcDbLine
 10
-9.550830632061797
 20
-10.78163081479059
 30
0.4080434344787029
 11
-9.551878933509854
 21
-10.78267911623858
 31
0.347986284741868
  0
LINE
  5
101
330
9D2
100
AcDbEntity
  8
1_TOP
  6
CONTINUOUS
 62
     7
100
AcDbLine
 10
-10.04292723495791
 20
-10.78163081479059
 30
0.4080434344787029
 11
-9.550830632061797
 21
-10.78163081479059
 31
0.4080434344787029
  0
LINE
  5
102
330
9D2
100
AcDbEntity
  8
1_TOP
  6
CONTINUOUS
 62
     7
100
AcDbLine
 10
-10.04292723495791
 20
-10.84709542607219
 30
0.4080434344787029
 11
-10.04292723495791
 21
-10.78163081479059
 31
0.4080434344787029
  0
LINE
  5
103
330
9D2
100
AcDbEntity
  8
1_TOP
  6
CONTINUOUS
 62
     7
100
AcDbLine
 10
-9.483330632061797
 20
-10.84709542607219
 30
0.408043434478702
 11
-9.550830632061797
 21
-10.84709542607219
 31
0.4080434344787029
  0
LINE
  5
104
330
9D2
100
AcDbEntity
  8
1_TOP
  6
CONTINUOUS
 62
     7
100
AcDbLine
 10
-9.483330632061797
 20
-10.84709542607219
 30
0.408043434478702
 11
-9.484378933509855
 21
-10.84814372752018
 31
0.347986284741868
  0
LINE
  5
105
330
9D2
100
AcDbEntity
  8
1_TOP
  6
CONTINUOUS
 62
     7
100
AcDbLine
 10
-10.6779272349579
 20
-10.78163081479059
 30
0.4080434344787029
 11
-10.6779272349579
 21
-10.84709542607219
 31
0.4080434344787029
  0
LINE
  5
106
330
9D2
100
AcDbEntity
  8
1_TOP
  6
CONTINUOUS
 62
     7
100
AcDbLine
 10
-10.18583063206178
 20
-10.84709542607219
 30
0.4080434344787029
 11
-10.18583063206178
 21
-10.78163081479059
 31
0.408043434478702
  0
LINE
  5
107
330
9D2
100
AcDbEntity
  8
1_TOP
  6
CONTINUOUS
 62
     7
100
AcDbLine
 10
-9.550830632061797
 20
-10.78163081479059
 30
0.4080434344787029
 11
-9.550830632061797
 21
-10.84709542607219
 31
0.4080434344787029
  0
LINE
  5
108
330
9D2
100
AcDbEntity
  8
1_TOP
  6
CONTINUOUS
 62
     7
100
AcDbLine
 10
-9.483330632061797
 20
-10.84709542607219
 30
0.408043434478702
 11
-9.483330632061797
 21
-11.5091920289683
 31
0.408043434478702
  0
LINE
  5
109
330
9D2
100
AcDbEntity
  8
1_TOP
  6
CONTINUOUS
 62
     7
100
AcDbLine
 10
-10.04292723495791
 20
-10.84709542607219
 30
0.4080434344787029
 11
-10.18583063206178
 21
-10.84709542607219
 31
0.4080434344787029
  0
LINE
  5
10A
330
9D2
100
AcDbEntity
  8
1_TOP
  6
CONTINUOUS
 62
     7
100
AcDbLine
 10
-10.51881793436904
 20
-11.48954400552088
 30
0.3592049781759199
 11
-10.34493993265064
 21
-11.48954400552088
 31
0.3592049781759199
  0
LINE
  5
10B
330
9D2
100
AcDbEntity
  8
1_TOP
  6
CONTINUOUS
 62
     7
100
AcDbLine
 10
-9.899946479460206
 20
-10.86140905723588
 30
-0.103452719139911
 11
-9.899946479460206
 21
-10.87117178019328
 31
-0.103452719139911
  0
LINE
  5
10C
330
9D2
100
AcDbEntity
  8
1_TOP
  6
CONTINUOUS
 62
     7
100
AcDbLine
 10
-9.899029141742447
 20
-10.82117178019329
 30
-0.120956565521297
 11
-9.899029141742447
 21
-10.79086454413759
 31
-0.120956565521297
  0
LINE
  5
10D
330
9D2
100
AcDbEntity
  8
1_TOP
  6
CONTINUOUS
 62
     7
100
AcDbLine
 10
-10.82083063206178
 20
-10.84709542607219
 30
0.408043434478702
 11
-10.6779272349579
 21
-10.84709542607219
 31
0.4080434344787029
  0
LINE
  5
10E
330
9D2
100
AcDbEntity
  8
1_TOP
  6
CONTINUOUS
 62
     7
100
AcDbLine
 10
-10.18583063206178
 20
-10.78163081479059
 30
0.408043434478702
 11
-10.6779272349579
 21
-10.78163081479059
 31
0.4080434344787029
  0
LINE
  5
10F
330
9D2
100
AcDbEntity
  8
1_TOP
  6
CONTINUOUS
 62
     7
100
AcDbLine
 10
-10.34493993265064
 20
-11.48954400552088
 30
0.3592049781759199
 11
-10.34493993265064
 21
-11.5083395505425
 31
0.3592049781759191
  0
LINE
  5
110
330
9D2
100
AcDbEntity
  8
1_TOP
  6
CONTINUOUS
 62
     7
100
AcDbLine
 10
-10.51881793436904
 20
-11.5083395505425
 30
0.3592049781759199
 11
-10.34493993265064
 21
-11.5083395505425
 31
0.3592049781759191
  0
LINE
  5
111
330
9D2
100
AcDbEntity
  8
1_TOP
  6
CONTINUOUS
 62
     7
100
AcDbLine
 10
-10.51881793436904
 20
-11.47954552856928
 30
0.3493795022402919
 11
-10.34493993265064
 21
-11.47954552856928
 31
0.3493795022402919
  0
LINE
  5
112
330
9D2
100
AcDbEntity
  8
1_TOP
  6
CONTINUOUS
 62
     7
100
AcDbLine
 10
-10.51881793436904
 20
-11.48954400552088
 30
0.3592049781759199
 11
-10.51881793436904
 21
-11.5083395505425
 31
0.3592049781759199
  0
LINE
  5
113
330
9D2
100
AcDbEntity
  8
1_TOP
  6
CONTINUOUS
 62
     7
100
AcDbLine
 10
-9.694728725277256
 20
-10.82117178019329
 30
-0.120956565521297
 11
-9.899029141742447
 21
-10.82117178019329
 31
-0.120956565521297
  0
LINE
  5
114
330
9D2
100
AcDbEntity
  8
1_TOP
  6
CONTINUOUS
 62
     7
100
AcDbLine
 10
-9.694728725277256
 20
-10.79086454413759
 30
-0.120956565521297
 11
-9.899029141742447
 21
-10.79086454413759
 31
-0.120956565521297
  0
LINE
  5
115
330
9D2
100
AcDbEntity
  8
1_TOP
  6
CONTINUOUS
 62
     7
100
AcDbLine
 10
-9.693811387559495
 20
-10.86140905723588
 30
-0.103452719139911
 11
-9.899946479460206
 21
-10.86140905723588
 31
-0.103452719139911
  0
LINE
  5
116
330
9D2
100
AcDbEntity
  8
1_TOP
  6
CONTINUOUS
 62
     7
100
AcDbLine
 10
-9.693811387559495
 20
-10.87117178019328
 30
-0.103452719139911
 11
-9.899946479460206
 21
-10.87117178019328
 31
-0.103452719139911
  0
LINE
  5
117
330
9D2
100
AcDbEntity
  8
1_TOP
  6
CONTINUOUS
 62
     7
100
AcDbLine
 10
-10.32972872527724
 20
-10.79086454413759
 30
-0.120956565521297
 11
-10.3051524718843
 21
-10.78267911623858
 31
0.347986284741868
  0
LINE
  5
118
330
9D2
100
AcDbEntity
  8
1_TOP
  6
CONTINUOUS
 62
     7
100
AcDbLine
 10
-10.53402914174243
 20
-10.79086454413759
 30
-0.120956565521297
 11
-10.55860539513539
 21
-10.78267911623858
 31
0.347986284741868
  0
LINE
  5
119
330
9D2
100
AcDbEntity
  8
1_TOP
  6
CONTINUOUS
 62
     7
100
AcDbLine
 10
-9.694728725277256
 20
-10.79086454413759
 30
-0.120956565521297
 11
-9.670152471884307
 21
-10.78267911623858
 31
0.347986284741868
  0
LINE
  5
11A
330
9D2
100
AcDbEntity
  8
1_TOP
  6
CONTINUOUS
 62
     7
100
AcDbLine
 10
-9.899029141742447
 20
-10.79086454413759
 30
-0.120956565521297
 11
-9.923605395135396
 21
-10.78267911623858
 31
0.347986284741868
  0
LINE
  5
11B
330
9D2
100
AcDbEntity
  8
1_TOP
  6
CONTINUOUS
 62
     7
100
AcDbLine
 10
-9.694728725277256
 20
-10.82117178019329
 30
-0.120956565521297
 11
-9.694728725277256
 21
-10.79086454413759
 31
-0.120956565521297
  0
LINE
  5
11C
330
9D2
100
AcDbEntity
  8
1_TOP
  6
CONTINUOUS
 62
     7
100
AcDbLine
 10
-9.693811387559495
 20
-10.86140905723588
 30
-0.103452719139911
 11
-9.693811387559495
 21
-10.87117178019328
 31
-0.103452719139911
  0
LINE
  5
11D
330
9D2
100
AcDbEntity
  8
1_TOP
  6
CONTINUOUS
 62
     7
100
AcDbLine
 10
-9.693894781897476
 20
-10.85775112295928
 30
-0.105043977901855
 11
-9.899863085122227
 21
-10.85775112295928
 31
-0.105043977901855
  0
LINE
  5
11E
330
9D2
100
AcDbEntity
  8
1_TOP
  6
CONTINUOUS
 62
     7
100
AcDbLine
 10
-9.709939932650657
 20
-11.48954400552088
 30
0.3592049781759191
 11
-9.883817934369046
 21
-11.48954400552088
 31
0.3592049781759199
  0
LINE
  5
11F
330
9D2
100
AcDbEntity
  8
1_TOP
  6
CONTINUOUS
 62
     7
100
AcDbLine
 10
-9.709939932650657
 20
-11.48954400552088
 30
0.3592049781759191
 11
-9.709939932650657
 21
-11.5083395505425
 31
0.3592049781759199
  0
LINE
  5
120
330
9D2
100
AcDbEntity
  8
1_TOP
  6
CONTINUOUS
 62
     7
100
AcDbLine
 10
-10.32972872527724
 20
-10.82117178019329
 30
-0.120956565521297
 11
-10.32972872527724
 21
-10.79086454413759
 31
-0.120956565521297
  0
LINE
  5
121
330
9D2
100
AcDbEntity
  8
1_TOP
  6
CONTINUOUS
 62
     7
100
AcDbLine
 10
-10.32881138755949
 20
-10.86140905723588
 30
-0.103452719139911
 11
-10.32881138755949
 21
-10.87117178019328
 31
-0.103452719139911
  0
LINE
  5
122
330
9D2
100
AcDbEntity
  8
1_TOP
  6
CONTINUOUS
 62
     7
100
AcDbLine
 10
-10.53494647946019
 20
-10.87117178019328
 30
-0.103452719139911
 11
-10.32881138755949
 21
-10.87117178019328
 31
-0.103452719139911
  0
LINE
  5
123
330
9D2
100
AcDbEntity
  8
1_TOP
  6
CONTINUOUS
 62
     7
100
AcDbLine
 10
-10.53494647946019
 20
-10.86140905723588
 30
-0.103452719139911
 11
-10.32881138755949
 21
-10.86140905723588
 31
-0.103452719139911
  0
LINE
  5
124
330
9D2
100
AcDbEntity
  8
1_TOP
  6
CONTINUOUS
 62
     7
100
AcDbLine
 10
-10.53402914174243
 20
-10.79086454413759
 30
-0.120956565521297
 11
-10.32972872527724
 21
-10.79086454413759
 31
-0.120956565521297
  0
LINE
  5
125
330
9D2
100
AcDbEntity
  8
1_TOP
  6
CONTINUOUS
 62
     7
100
AcDbLine
 10
-10.53402914174243
 20
-10.82117178019329
 30
-0.120956565521297
 11
-10.32972872527724
 21
-10.82117178019329
 31
-0.120956565521297
  0
LINE
  5
126
330
9D2
100
AcDbEntity
  8
1_TOP
  6
CONTINUOUS
 62
     7
100
AcDbLine
 10
-10.53486308512222
 20
-10.85775112295928
 30
-0.105043977901855
 11
-10.32889478189747
 21
-10.85775112295928
 31
-0.105043977901855
  0
LINE
  5
127
330
9D2
100
AcDbEntity
  8
1_TOP
  6
CONTINUOUS
 62
     7
100
AcDbLine
 10
-10.53494647946019
 20
-10.86140905723588
 30
-0.103452719139911
 11
-10.53494647946019
 21
-10.87117178019328
 31
-0.103452719139911
  0
LINE
  5
128
330
9D2
100
AcDbEntity
  8
1_TOP
  6
CONTINUOUS
 62
     7
100
AcDbLine
 10
-10.53402914174243
 20
-10.82117178019329
 30
-0.120956565521297
 11
-10.53402914174243
 21
-10.79086454413759
 31
-0.120956565521297
  0
LINE
  5
129
330
9D2
100
AcDbEntity
  8
1_TOP
  6
CONTINUOUS
 62
     7
100
AcDbLine
 10
-10.53402914174243
 20
-11.97163639147478
 30
-0.120956565521297
 11
-10.53402914174243
 21
-11.94132915541919
 31
-0.120956565521297
  0
LINE
  5
12A
330
9D2
100
AcDbEntity
  8
1_TOP
  6
CONTINUOUS
 62
     7
100
AcDbLine
 10
-10.53494647946019
 20
-12.01187366851749
 30
-0.103452719139911
 11
-10.53494647946019
 21
-12.02163639147478
 31
-0.103452719139911
  0
LINE
  5
12B
330
9D2
100
AcDbEntity
  8
1_TOP
  6
CONTINUOUS
 62
     7
100
AcDbLine
 10
-10.53486308512222
 20
-12.00821573424089
 30
-0.105043977901855
 11
-10.32889478189747
 21
-12.00821573424089
 31
-0.105043977901855
  0
LINE
  5
12C
330
9D2
100
AcDbEntity
  8
1_TOP
  6
CONTINUOUS
 62
     7
100
AcDbLine
 10
-10.53402914174243
 20
-11.97163639147478
 30
-0.120956565521297
 11
-10.32972872527724
 21
-11.97163639147478
 31
-0.120956565521297
  0
LINE
  5
12D
330
9D2
100
AcDbEntity
  8
1_TOP
  6
CONTINUOUS
 62
     7
100
AcDbLine
 10
-10.53402914174243
 20
-11.94132915541919
 30
-0.120956565521297
 11
-10.32972872527724
 21
-11.94132915541919
 31
-0.120956565521297
  0
LINE
  5
12E
330
9D2
100
AcDbEntity
  8
1_TOP
  6
CONTINUOUS
 62
     7
100
AcDbLine
 10
-10.53494647946019
 20
-12.01187366851749
 30
-0.103452719139911
 11
-10.32881138755949
 21
-12.01187366851749
 31
-0.10345271913991
  0
LINE
  5
12F
330
9D2
100
AcDbEntity
  8
1_TOP
  6
CONTINUOUS
 62
     7
100
AcDbLine
 10
-10.53494647946019
 20
-12.02163639147478
 30
-0.103452719139911
 11
-10.32881138755949
 21
-12.02163639147478
 31
-0.10345271913991
  0
LINE
  5
130
330
9D2
100
AcDbEntity
  8
1_TOP
  6
CONTINUOUS
 62
     7
100
AcDbLine
 10
-10.32881138755949
 20
-12.01187366851749
 30
-0.10345271913991
 11
-10.32881138755949
 21
-12.02163639147478
 31
-0.10345271913991
  0
LINE
  5
131
330
9D2
100
AcDbEntity
  8
1_TOP
  6
CONTINUOUS
 62
     7
100
AcDbLine
 10
-10.32972872527724
 20
-11.97163639147478
 30
-0.120956565521297
 11
-10.32972872527724
 21
-11.94132915541919
 31
-0.120956565521297
  0
LINE
  5
132
330
9D2
100
AcDbEntity
  8
1_TOP
  6
CONTINUOUS
 62
     7
100
AcDbLine
 10
-9.709939932650657
 20
-12.64000861680239
 30
0.3592049781759199
 11
-9.709939932650657
 21
-12.6588041618241
 31
0.3592049781759199
  0
LINE
  5
133
330
9D2
100
AcDbEntity
  8
1_TOP
  6
CONTINUOUS
 62
     7
100
AcDbLine
 10
-9.709939932650657
 20
-12.64000861680239
 30
0.3592049781759199
 11
-9.883817934369046
 21
-12.64000861680239
 31
0.3592049781759199
  0
LINE
  5
134
330
9D2
100
AcDbEntity
  8
1_TOP
  6
CONTINUOUS
 62
     7
100
AcDbLine
 10
-9.693894781897476
 20
-12.00821573424089
 30
-0.105043977901855
 11
-9.899863085122227
 21
-12.00821573424089
 31
-0.105043977901855
  0
LINE
  5
135
330
9D2
100
AcDbEntity
  8
1_TOP
  6
CONTINUOUS
 62
     7
100
AcDbLine
 10
-9.693811387559495
 20
-12.01187366851749
 30
-0.103452719139911
 11
-9.693811387559495
 21
-12.02163639147478
 31
-0.103452719139911
  0
LINE
  5
136
330
9D2
100
AcDbEntity
  8
1_TOP
  6
CONTINUOUS
 62
     7
100
AcDbLine
 10
-9.694728725277256
 20
-11.97163639147478
 30
-0.120956565521297
 11
-9.694728725277256
 21
-11.94132915541919
 31
-0.120956565521297
  0
LINE
  5
137
330
9D2
100
AcDbEntity
  8
1_TOP
  6
CONTINUOUS
 62
     7
100
AcDbLine
 10
-9.899029141742447
 20
-11.94132915541919
 30
-0.120956565521297
 11
-9.923605395135396
 21
-11.93314372752019
 31
0.347986284741868
  0
LINE
  5
138
330
9D2
100
AcDbEntity
  8
1_TOP
  6
CONTINUOUS
 62
     7
100
AcDbLine
 10
-9.694728725277256
 20
-11.94132915541919
 30
-0.120956565521297
 11
-9.670152471884307
 21
-11.93314372752019
 31
0.347986284741868
  0
LINE
  5
139
330
9D2
100
AcDbEntity
  8
1_TOP
  6
CONTINUOUS
 62
     7
100
AcDbLine
 10
-10.53402914174243
 20
-11.94132915541919
 30
-0.120956565521297
 11
-10.55860539513539
 21
-11.93314372752019
 31
0.347986284741868
  0
LINE
  5
13A
330
9D2
100
AcDbEntity
  8
1_TOP
  6
CONTINUOUS
 62
     7
100
AcDbLine
 10
-10.32972872527724
 20
-11.94132915541919
 30
-0.120956565521297
 11
-10.3051524718843
 21
-11.93314372752019
 31
0.347986284741868
  0
LINE
  5
13B
330
9D2
100
AcDbEntity
  8
1_TOP
  6
CONTINUOUS
 62
     7
100
AcDbLine
 10
-9.693811387559495
 20
-12.02163639147478
 30
-0.103452719139911
 11
-9.899946479460206
 21
-12.02163639147478
 31
-0.103452719139911
  0
LINE
  5
13C
330
9D2
100
AcDbEntity
  8
1_TOP
  6
CONTINUOUS
 62
     7
100
AcDbLine
 10
-9.693811387559495
 20
-12.01187366851749
 30
-0.103452719139911
 11
-9.899946479460206
 21
-12.01187366851749
 31
-0.103452719139911
  0
LINE
  5
13D
330
9D2
100
AcDbEntity
  8
1_TOP
  6
CONTINUOUS
 62
     7
100
AcDbLine
 10
-9.694728725277256
 20
-11.94132915541919
 30
-0.120956565521297
 11
-9.899029141742447
 21
-11.94132915541919
 31
-0.120956565521297
  0
LINE
  5
13E
330
9D2
100
AcDbEntity
  8
1_TOP
  6
CONTINUOUS
 62
     7
100
AcDbLine
 10
-9.694728725277256
 20
-11.97163639147478
 30
-0.120956565521297
 11
-9.899029141742447
 21
-11.97163639147478
 31
-0.120956565521297
  0
LINE
  5
13F
330
9D2
100
AcDbEntity
  8
1_TOP
  6
CONTINUOUS
 62
     7
100
AcDbLine
 10
-10.51881793436904
 20
-12.64000861680239
 30
0.3592049781759199
 11
-10.51881793436904
 21
-12.6588041618241
 31
0.3592049781759199
  0
LINE
  5
140
330
9D2
100
AcDbEntity
  8
1_TOP
  6
CONTINUOUS
 62
     7
100
AcDbLine
 10
-10.51881793436904
 20
-12.6300101398509
 30
0.3493795022402919
 11
-10.34493993265064
 21
-12.6300101398509
 31
0.3493795022402919
  0
LINE
  5
141
330
9D2
100
AcDbEntity
  8
1_TOP
  6
CONTINUOUS
 62
     7
100
AcDbLine
 10
-10.51881793436904
 20
-12.6588041618241
 30
0.3592049781759199
 11
-10.34493993265064
 21
-12.6588041618241
 31
0.3592049781759199
  0
LINE
  5
142
330
9D2
100
AcDbEntity
  8
1_TOP
  6
CONTINUOUS
 62
     7
100
AcDbLine
 10
-10.34493993265064
 20
-12.64000861680239
 30
0.3592049781759199
 11
-10.34493993265064
 21
-12.6588041618241
 31
0.3592049781759199
  0
LINE
  5
143
330
9D2
100
AcDbEntity
  8
1_TOP
  6
CONTINUOUS
 62
     7
100
AcDbLine
 10
-10.18583063206178
 20
-11.9320954260721
 30
0.4080434344787029
 11
-10.6779272349579
 21
-11.9320954260721
 31
0.4080434344787029
  0
LINE
  5
144
330
9D2
100
AcDbEntity
  8
1_TOP
  6
CONTINUOUS
 62
     7
100
AcDbLine
 10
-10.82083063206178
 20
-11.99756003735368
 30
0.4080434344787029
 11
-10.6779272349579
 21
-11.99756003735368
 31
0.4080434344787029
  0
LINE
  5
145
330
9D2
100
AcDbEntity
  8
1_TOP
  6
CONTINUOUS
 62
     7
100
AcDbLine
 10
-10.96381138755949
 20
-12.02163639147478
 30
-0.103452719139911
 11
-11.16994647946019
 21
-12.02163639147478
 31
-0.103452719139911
  0
LINE
  5
146
330
9D2
100
AcDbEntity
  8
1_TOP
  6
CONTINUOUS
 62
     7
100
AcDbLine
 10
-10.96381138755949
 20
-12.01187366851749
 30
-0.103452719139911
 11
-11.16994647946019
 21
-12.01187366851749
 31
-0.103452719139911
  0
LINE
  5
147
330
9D2
100
AcDbEntity
  8
1_TOP
  6
CONTINUOUS
 62
     7
100
AcDbLine
 10
-10.96472872527724
 20
-11.94132915541919
 30
-0.120956565521297
 11
-11.16902914174244
 21
-11.94132915541919
 31
-0.120956565521297
  0
LINE
  5
148
330
9D2
100
AcDbEntity
  8
1_TOP
  6
CONTINUOUS
 62
     7
100
AcDbLine
 10
-10.96472872527724
 20
-11.97163639147478
 30
-0.120956565521297
 11
-11.16902914174244
 21
-11.97163639147478
 31
-0.120956565521297
  0
LINE
  5
149
330
9D2
100
AcDbEntity
  8
1_TOP
  6
CONTINUOUS
 62
     7
100
AcDbLine
 10
-10.96389478189747
 20
-12.00821573424089
 30
-0.105043977901855
 11
-11.16986308512222
 21
-12.00821573424089
 31
-0.105043977901855
  0
LINE
  5
14A
330
9D2
100
AcDbEntity
  8
1_TOP
  6
CONTINUOUS
 62
     7
100
AcDbLine
 10
-10.96381138755949
 20
-12.01187366851749
 30
-0.103452719139911
 11
-10.96381138755949
 21
-12.02163639147478
 31
-0.103452719139911
  0
LINE
  5
14B
330
9D2
100
AcDbEntity
  8
1_TOP
  6
CONTINUOUS
 62
     7
100
AcDbLine
 10
-10.96472872527724
 20
-11.97163639147478
 30
-0.120956565521297
 11
-10.96472872527724
 21
-11.94132915541919
 31
-0.120956565521297
  0
LINE
  5
14C
330
9D2
100
AcDbEntity
  8
1_TOP
  6
CONTINUOUS
 62
     7
100
AcDbLine
 10
-11.16902914174244
 20
-11.97163639147478
 30
-0.120956565521297
 11
-11.16902914174244
 21
-11.94132915541919
 31
-0.120956565521297
  0
LINE
  5
14D
330
9D2
100
AcDbEntity
  8
1_TOP
  6
CONTINUOUS
 62
     7
100
AcDbLine
 10
-11.16994647946019
 20
-12.01187366851749
 30
-0.103452719139911
 11
-11.16994647946019
 21
-12.02163639147478
 31
-0.103452719139911
  0
LINE
  5
14E
330
9D2
100
AcDbEntity
  8
1_TOP
  6
CONTINUOUS
 62
     7
100
AcDbLine
 10
-11.31292723495791
 20
-11.9320954260721
 30
0.4080434344787029
 11
-10.82083063206178
 21
-11.9320954260721
 31
0.4080434344787029
  0
LINE
  5
14F
330
9D2
100
AcDbEntity
  8
1_TOP
  6
CONTINUOUS
 62
     7
100
AcDbLine
 10
-9.899029141742447
 20
-11.97163639147478
 30
-0.120956565521297
 11
-9.899029141742447
 21
-11.94132915541919
 31
-0.120956565521297
  0
LINE
  5
150
330
9D2
100
AcDbEntity
  8
1_TOP
  6
CONTINUOUS
 62
     7
100
AcDbLine
 10
-11.15381793436903
 20
-12.64000861680239
 30
0.3592049781759199
 11
-11.15381793436903
 21
-12.6588041618241
 31
0.3592049781759199
  0
LINE
  5
151
330
9D2
100
AcDbEntity
  8
1_TOP
  6
CONTINUOUS
 62
     7
100
AcDbLine
 10
-10.97993993265065
 20
-12.6588041618241
 30
0.3592049781759199
 11
-11.15381793436903
 21
-12.6588041618241
 31
0.3592049781759199
  0
LINE
  5
152
330
9D2
100
AcDbEntity
  8
1_TOP
  6
CONTINUOUS
 62
     7
100
AcDbLine
 10
-10.97993993265065
 20
-12.6300101398509
 30
0.3493795022402919
 11
-11.15381793436903
 21
-12.6300101398509
 31
0.3493795022402919
  0
LINE
  5
153
330
9D2
100
AcDbEntity
  8
1_TOP
  6
CONTINUOUS
 62
     7
100
AcDbLine
 10
-10.97993993265065
 20
-12.64000861680239
 30
0.3592049781759199
 11
-10.97993993265065
 21
-12.6588041618241
 31
0.3592049781759199
  0
LINE
  5
154
330
9D2
100
AcDbEntity
  8
1_TOP
  6
CONTINUOUS
 62
     7
100
AcDbLine
 10
-10.97993993265065
 20
-12.64000861680239
 30
0.3592049781759199
 11
-11.15381793436903
 21
-12.64000861680239
 31
0.3592049781759199
  0
LINE
  5
155
330
9D2
100
AcDbEntity
  8
1_TOP
  6
CONTINUOUS
 62
     7
100
AcDbLine
 10
-11.16902914174244
 20
-11.94132915541919
 30
-0.120956565521297
 11
-11.19360539513539
 21
-11.93314372752019
 31
0.347986284741868
  0
LINE
  5
156
330
9D2
100
AcDbEntity
  8
1_TOP
  6
CONTINUOUS
 62
     7
100
AcDbLine
 10
-10.96472872527724
 20
-11.94132915541919
 30
-0.120956565521297
 11
-10.9401524718843
 21
-11.93314372752019
 31
0.347986284741868
  0
LINE
  5
157
330
9D2
100
AcDbEntity
  8
1_TOP
  6
CONTINUOUS
 62
     7
100
AcDbLine
 10
-9.899946479460206
 20
-12.01187366851749
 30
-0.103452719139911
 11
-9.899946479460206
 21
-12.02163639147478
 31
-0.103452719139911
  0
LINE
  5
158
330
9D2
100
AcDbEntity
  8
1_TOP
  6
CONTINUOUS
 62
     7
100
AcDbLine
 10
-11.31292723495791
 20
-11.99756003735368
 30
0.4080434344787029
 11
-11.31292723495791
 21
-11.9320954260721
 31
0.4080434344787029
  0
LINE
  5
159
330
9D2
100
AcDbEntity
  8
1_TOP
  6
CONTINUOUS
 62
     7
100
AcDbLine
 10
-10.51881793436904
 20
-12.64000861680239
 30
0.3592049781759199
 11
-10.34493993265064
 21
-12.64000861680239
 31
0.3592049781759199
  0
LINE
  5
15A
330
9D2
100
AcDbEntity
  8
1_TOP
  6
CONTINUOUS
 62
     7
100
AcDbLine
 10
-12.42381793436903
 20
-12.6300101398509
 30
0.3493795022402919
 11
-12.24993993265065
 21
-12.6300101398509
 31
0.3493795022402919
  0
LINE
  5
15B
330
9D2
100
AcDbEntity
  8
1_TOP
  6
CONTINUOUS
 62
     7
100
AcDbLine
 10
-12.42381793436903
 20
-12.6588041618241
 30
0.3592049781759191
 11
-12.24993993265065
 21
-12.6588041618241
 31
0.3592049781759199
  0
LINE
  5
15C
330
9D2
100
AcDbEntity
  8
1_TOP
  6
CONTINUOUS
 62
     7
100
AcDbLine
 10
-12.24993993265065
 20
-12.64000861680239
 30
0.3592049781759199
 11
-12.24993993265065
 21
-12.6588041618241
 31
0.3592049781759199
  0
LINE
  5
15D
330
9D2
100
AcDbEntity
  8
1_TOP
  6
CONTINUOUS
 62
     7
100
AcDbLine
 10
-12.58292723495791
 20
-11.9320954260721
 30
0.4080434344787029
 11
-12.58187893350985
 21
-11.93314372752019
 31
0.347986284741868
  0
LINE
  5
15E
330
9D2
100
AcDbEntity
  8
1_TOP
  6
CONTINUOUS
 62
     7
100
AcDbLine
 10
-12.09083063206178
 20
-11.9320954260721
 30
0.4080434344787029
 11
-12.58292723495791
 21
-11.9320954260721
 31
0.4080434344787029
  0
LINE
  5
15F
330
9D2
100
AcDbEntity
  8
1_TOP
  6
CONTINUOUS
 62
     7
100
AcDbLine
 10
-12.09083063206178
 20
-11.99756003735368
 30
0.4080434344787029
 11
-12.09083063206178
 21
-11.9320954260721
 31
0.4080434344787029
  0
LINE
  5
160
330
9D2
100
AcDbEntity
  8
1_TOP
  6
CONTINUOUS
 62
     7
100
AcDbLine
 10
-12.65042723495791
 20
-11.99756003735368
 30
0.408043434478702
 11
-12.58292723495791
 21
-11.99756003735368
 31
0.408043434478702
  0
LINE
  5
161
330
9D2
100
AcDbEntity
  8
1_TOP
  6
CONTINUOUS
 62
     7
100
AcDbLine
 10
-12.65042723495791
 20
-11.99756003735368
 30
0.408043434478702
 11
-12.64937893350985
 21
-11.99860833880179
 31
0.347986284741868
  0
LINE
  5
162
330
9D2
100
AcDbEntity
  8
1_TOP
  6
CONTINUOUS
 62
     7
100
AcDbLine
 10
-11.45583063206178
 20
-11.9320954260721
 30
0.4080434344787029
 11
-11.45583063206178
 21
-11.99756003735368
 31
0.4080434344787029
  0
LINE
  5
163
330
9D2
100
AcDbEntity
  8
1_TOP
  6
CONTINUOUS
 62
     7
100
AcDbLine
 10
-11.9479272349579
 20
-11.99756003735368
 30
0.4080434344787029
 11
-11.9479272349579
 21
-11.9320954260721
 31
0.4080434344787029
  0
LINE
  5
164
330
9D2
100
AcDbEntity
  8
1_TOP
  6
CONTINUOUS
 62
     7
100
AcDbLine
 10
-12.58292723495791
 20
-11.9320954260721
 30
0.4080434344787029
 11
-12.58292723495791
 21
-11.99756003735368
 31
0.408043434478702
  0
LINE
  5
165
330
9D2
100
AcDbEntity
  8
1_TOP
  6
CONTINUOUS
 62
     7
100
AcDbLine
 10
-12.65042723495791
 20
-11.99756003735368
 30
0.408043434478702
 11
-12.65042723495791
 21
-12.6596566402498
 31
0.4080434344787029
  0
LINE
  5
166
330
9D2
100
AcDbEntity
  8
1_TOP
  6
CONTINUOUS
 62
     7
100
AcDbLine
 10
-12.09083063206178
 20
-11.99756003735368
 30
0.4080434344787029
 11
-11.9479272349579
 21
-11.99756003735368
 31
0.408043434478702
  0
LINE
  5
167
330
9D2
100
AcDbEntity
  8
1_TOP
  6
CONTINUOUS
 62
     7
100
AcDbLine
 10
-11.61493993265064
 20
-12.64000861680239
 30
0.3592049781759199
 11
-11.78881793436904
 21
-12.64000861680239
 31
0.3592049781759199
  0
LINE
  5
168
330
9D2
100
AcDbEntity
  8
1_TOP
  6
CONTINUOUS
 62
     7
100
AcDbLine
 10
-12.23381138755949
 20
-12.01187366851749
 30
-0.103452719139911
 11
-12.23381138755949
 21
-12.02163639147478
 31
-0.103452719139911
  0
LINE
  5
169
330
9D2
100
AcDbEntity
  8
1_TOP
  6
CONTINUOUS
 62
     7
100
AcDbLine
 10
-12.23472872527725
 20
-11.97163639147478
 30
-0.120956565521297
 11
-12.23472872527725
 21
-11.94132915541919
 31
-0.120956565521297
  0
LINE
  5
16A
330
9D2
100
AcDbEntity
  8
1_TOP
  6
CONTINUOUS
 62
     7
100
AcDbLine
 10
-11.31292723495791
 20
-11.99756003735368
 30
0.4080434344787029
 11
-11.45583063206178
 21
-11.99756003735368
 31
0.4080434344787029
  0
LINE
  5
16B
330
9D2
100
AcDbEntity
  8
1_TOP
  6
CONTINUOUS
 62
     7
100
AcDbLine
 10
-11.9479272349579
 20
-11.9320954260721
 30
0.4080434344787029
 11
-11.45583063206178
 21
-11.9320954260721
 31
0.4080434344787029
  0
LINE
  5
16C
330
9D2
100
AcDbEntity
  8
1_TOP
  6
CONTINUOUS
 62
     7
100
AcDbLine
 10
-11.78881793436904
 20
-12.64000861680239
 30
0.3592049781759199
 11
-11.78881793436904
 21
-12.6588041618241
 31
0.3592049781759199
  0
LINE
  5
16D
330
9D2
100
AcDbEntity
  8
1_TOP
  6
CONTINUOUS
 62
     7
100
AcDbLine
 10
-11.61493993265064
 20
-12.6588041618241
 30
0.3592049781759199
 11
-11.78881793436904
 21
-12.6588041618241
 31
0.3592049781759199
  0
LINE
  5
16E
330
9D2
100
AcDbEntity
  8
1_TOP
  6
CONTINUOUS
 62
     7
100
AcDbLine
 10
-11.61493993265064
 20
-12.6300101398509
 30
0.3493795022402919
 11
-11.78881793436904
 21
-12.6300101398509
 31
0.3493795022402919
  0
LINE
  5
16F
330
9D2
100
AcDbEntity
  8
1_TOP
  6
CONTINUOUS
 62
     7
100
AcDbLine
 10
-11.61493993265064
 20
-12.64000861680239
 30
0.3592049781759199
 11
-11.61493993265064
 21
-12.6588041618241
 31
0.3592049781759199
  0
LINE
  5
170
330
9D2
100
AcDbEntity
  8
1_TOP
  6
CONTINUOUS
 62
     7
100
AcDbLine
 10
-12.43902914174245
 20
-11.97163639147478
 30
-0.120956565521297
 11
-12.23472872527725
 21
-11.97163639147478
 31
-0.120956565521297
  0
LINE
  5
171
330
9D2
100
AcDbEntity
  8
1_TOP
  6
CONTINUOUS
 62
     7
100
AcDbLine
 10
-12.43902914174245
 20
-11.94132915541919
 30
-0.120956565521297
 11
-12.23472872527725
 21
-11.94132915541919
 31
-0.120956565521297
  0
LINE
  5
172
330
9D2
100
AcDbEntity
  8
1_TOP
  6
CONTINUOUS
 62
     7
100
AcDbLine
 10
-12.43994647946019
 20
-12.01187366851749
 30
-0.103452719139911
 11
-12.23381138755949
 21
-12.01187366851749
 31
-0.103452719139911
  0
LINE
  5
173
330
9D2
100
AcDbEntity
  8
1_TOP
  6
CONTINUOUS
 62
     7
100
AcDbLine
 10
-12.43994647946019
 20
-12.02163639147478
 30
-0.103452719139911
 11
-12.23381138755949
 21
-12.02163639147478
 31
-0.103452719139911
  0
LINE
  5
174
330
9D2
100
AcDbEntity
  8
1_TOP
  6
CONTINUOUS
 62
     7
100
AcDbLine
 10
-11.80402914174244
 20
-11.94132915541919
 30
-0.120956565521297
 11
-11.82860539513539
 21
-11.93314372752019
 31
0.347986284741868
  0
LINE
  5
175
330
9D2
100
AcDbEntity
  8
1_TOP
  6
CONTINUOUS
 62
     7
100
AcDbLine
 10
-11.59972872527725
 20
-11.94132915541919
 30
-0.120956565521297
 11
-11.5751524718843
 21
-11.93314372752019
 31
0.347986284741868
  0
LINE
  5
176
330
9D2
100
AcDbEntity
  8
1_TOP
  6
CONTINUOUS
 62
     7
100
AcDbLine
 10
-12.43902914174245
 20
-11.94132915541919
 30
-0.120956565521297
 11
-12.46360539513539
 21
-11.93314372752019
 31
0.347986284741868
  0
LINE
  5
177
330
9D2
100
AcDbEntity
  8
1_TOP
  6
CONTINUOUS
 62
     7
100
AcDbLine
 10
-12.23472872527725
 20
-11.94132915541919
 30
-0.120956565521297
 11
-12.2101524718843
 21
-11.93314372752019
 31
0.347986284741868
  0
LINE
  5
178
330
9D2
100
AcDbEntity
  8
1_TOP
  6
CONTINUOUS
 62
     7
100
AcDbLine
 10
-12.65042723495791
 20
-12.6596566402498
 30
0.4080434344787029
 11
-9.483330632061797
 21
-12.6596566402498
 31
0.408043434478702
  0
LINE
  5
179
330
9D2
100
AcDbEntity
  8
1_TOP
  6
CONTINUOUS
 62
     7
100
AcDbLine
 10
-12.43902914174245
 20
-11.97163639147478
 30
-0.120956565521297
 11
-12.43902914174245
 21
-11.94132915541919
 31
-0.120956565521297
  0
LINE
  5
17A
330
9D2
100
AcDbEntity
  8
1_TOP
  6
CONTINUOUS
 62
     7
100
AcDbLine
 10
-12.43994647946019
 20
-12.01187366851749
 30
-0.103452719139911
 11
-12.43994647946019
 21
-12.02163639147478
 31
-0.103452719139911
  0
LINE
  5
17B
330
9D2
100
AcDbEntity
  8
1_TOP
  6
CONTINUOUS
 62
     7
100
AcDbLine
 10
-12.43986308512222
 20
-12.00821573424089
 30
-0.105043977901855
 11
-12.23389478189747
 21
-12.00821573424089
 31
-0.105043977901855
  0
LINE
  5
17C
330
9D2
100
AcDbEntity
  8
1_TOP
  6
CONTINUOUS
 62
     7
100
AcDbLine
 10
-10.04292723495791
 20
-11.99756003735368
 30
0.4080434344787029
 11
-10.18583063206178
 21
-11.99756003735368
 31
0.4080434344787029
  0
LINE
  5
17D
330
9D2
100
AcDbEntity
  8
1_TOP
  6
CONTINUOUS
 62
     7
100
AcDbLine
 10
-9.483330632061797
 20
-11.99756003735368
 30
0.4080434344787029
 11
-9.483330632061797
 21
-12.6596566402498
 31
0.408043434478702
  0
LINE
  5
17E
330
9D2
100
AcDbEntity
  8
1_TOP
  6
CONTINUOUS
 62
     7
100
AcDbLine
 10
-9.550830632061797
 20
-11.9320954260721
 30
0.4080434344787029
 11
-9.550830632061797
 21
-11.99756003735368
 31
0.4080434344787029
  0
LINE
  5
17F
330
9D2
100
AcDbEntity
  8
1_TOP
  6
CONTINUOUS
 62
     7
100
AcDbLine
 10
-10.18583063206178
 20
-11.99756003735368
 30
0.4080434344787029
 11
-10.18583063206178
 21
-11.9320954260721
 31
0.4080434344787029
  0
LINE
  5
180
330
9D2
100
AcDbEntity
  8
1_TOP
  6
CONTINUOUS
 62
     7
100
AcDbLine
 10
-10.6779272349579
 20
-11.9320954260721
 30
0.4080434344787029
 11
-10.6779272349579
 21
-11.99756003735368
 31
0.4080434344787029
  0
LINE
  5
181
330
9D2
100
AcDbEntity
  8
1_TOP
  6
CONTINUOUS
 62
     7
100
AcDbLine
 10
-9.483330632061797
 20
-11.99756003735368
 30
0.4080434344787029
 11
-9.484378933509855
 21
-11.99860833880179
 31
0.347986284741868
  0
LINE
  5
182
330
9D2
100
AcDbEntity
  8
1_TOP
  6
CONTINUOUS
 62
     7
100
AcDbLine
 10
-9.483330632061797
 20
-11.99756003735368
 30
0.4080434344787029
 11
-9.550830632061797
 21
-11.99756003735368
 31
0.4080434344787029
  0
LINE
  5
183
330
9D2
100
AcDbEntity
  8
1_TOP
  6
CONTINUOUS
 62
     7
100
AcDbLine
 10
-12.42381793436903
 20
-12.64000861680239
 30
0.3592049781759191
 11
-12.24993993265065
 21
-12.64000861680239
 31
0.3592049781759199
  0
LINE
  5
184
330
9D2
100
AcDbEntity
  8
1_TOP
  6
CONTINUOUS
 62
     7
100
AcDbLine
 10
-12.42381793436903
 20
-12.64000861680239
 30
0.3592049781759191
 11
-12.42381793436903
 21
-12.6588041618241
 31
0.3592049781759191
  0
LINE
  5
185
330
9D2
100
AcDbEntity
  8
1_TOP
  6
CONTINUOUS
 62
     7
100
AcDbLine
 10
-11.80402914174244
 20
-11.97163639147478
 30
-0.120956565521297
 11
-11.80402914174244
 21
-11.94132915541919
 31
-0.120956565521297
  0
LINE
  5
186
330
9D2
100
AcDbEntity
  8
1_TOP
  6
CONTINUOUS
 62
     7
100
AcDbLine
 10
-11.80494647946019
 20
-12.01187366851749
 30
-0.103452719139911
 11
-11.80494647946019
 21
-12.02163639147478
 31
-0.10345271913991
  0
LINE
  5
187
330
9D2
100
AcDbEntity
  8
1_TOP
  6
CONTINUOUS
 62
     7
100
AcDbLine
 10
-11.59881138755949
 20
-12.02163639147478
 30
-0.10345271913991
 11
-11.80494647946019
 21
-12.02163639147478
 31
-0.10345271913991
  0
LINE
  5
188
330
9D2
100
AcDbEntity
  8
1_TOP
  6
CONTINUOUS
 62
     7
100
AcDbLine
 10
-11.59881138755949
 20
-12.01187366851749
 30
-0.103452719139911
 11
-11.80494647946019
 21
-12.01187366851749
 31
-0.103452719139911
  0
LINE
  5
189
330
9D2
100
AcDbEntity
  8
1_TOP
  6
CONTINUOUS
 62
     7
100
AcDbLine
 10
-11.59972872527725
 20
-11.94132915541919
 30
-0.120956565521297
 11
-11.80402914174244
 21
-11.94132915541919
 31
-0.120956565521297
  0
LINE
  5
18A
330
9D2
100
AcDbEntity
  8
1_TOP
  6
CONTINUOUS
 62
     7
100
AcDbLine
 10
-11.59972872527725
 20
-11.97163639147478
 30
-0.120956565521297
 11
-11.80402914174244
 21
-11.97163639147478
 31
-0.120956565521297
  0
LINE
  5
18B
330
9D2
100
AcDbEntity
  8
1_TOP
  6
CONTINUOUS
 62
     7
100
AcDbLine
 10
-11.59889478189747
 20
-12.00821573424089
 30
-0.105043977901855
 11
-11.80486308512222
 21
-12.00821573424089
 31
-0.105043977901855
  0
LINE
  5
18C
330
9D2
100
AcDbEntity
  8
1_TOP
  6
CONTINUOUS
 62
     7
100
AcDbLine
 10
-11.59881138755949
 20
-12.01187366851749
 30
-0.103452719139911
 11
-11.59881138755949
 21
-12.02163639147478
 31
-0.10345271913991
  0
LINE
  5
18D
330
9D2
100
AcDbEntity
  8
1_TOP
  6
CONTINUOUS
 62
     7
100
AcDbLine
 10
-11.59972872527725
 20
-11.97163639147478
 30
-0.120956565521297
 11
-11.59972872527725
 21
-11.94132915541919
 31
-0.120956565521297
  0
LINE
  5
18E
330
9D2
100
AcDbEntity
  8
1_TOP
  6
CONTINUOUS
 62
     7
100
AcDbLine
 10
-10.04292723495791
 20
-11.99756003735368
 30
0.4080434344787029
 11
-10.04292723495791
 21
-11.9320954260721
 31
0.4080434344787029
  0
LINE
  5
18F
330
9D2
100
AcDbEntity
  8
1_TOP
  6
CONTINUOUS
 62
     7
100
AcDbLine
 10
-9.550830632061797
 20
-11.9320954260721
 30
0.4080434344787029
 11
-9.551878933509854
 21
-11.93314372752019
 31
0.347986284741868
  0
LINE
  5
190
330
9D2
100
AcDbEntity
  8
1_TOP
  6
CONTINUOUS
 62
     7
100
AcDbLine
 10
-9.883817934369046
 20
-12.64000861680239
 30
0.3592049781759199
 11
-9.883817934369046
 21
-12.6588041618241
 31
0.3592049781759199
  0
LINE
  5
191
330
9D2
100
AcDbEntity
  8
1_TOP
  6
CONTINUOUS
 62
     7
100
AcDbLine
 10
-9.709939932650657
 20
-12.6588041618241
 30
0.3592049781759199
 11
-9.883817934369046
 21
-12.6588041618241
 31
0.3592049781759199
  0
LINE
  5
192
330
9D2
100
AcDbEntity
  8
1_TOP
  6
CONTINUOUS
 62
     7
100
AcDbLine
 10
-9.709939932650657
 20
-12.6300101398509
 30
0.3493795022402919
 11
-9.883817934369046
 21
-12.6300101398509
 31
0.3493795022402919
  0
LINE
  5
193
330
9D2
100
AcDbEntity
  8
1_TOP
  6
CONTINUOUS
 62
     7
100
AcDbLine
 10
-10.82083063206178
 20
-11.99756003735368
 30
0.4080434344787029
 11
-10.82083063206178
 21
-11.9320954260721
 31
0.4080434344787029
  0
LINE
  5
194
330
9D2
100
AcDbEntity
  8
1_TOP
  6
CONTINUOUS
 62
     7
100
AcDbLine
 10
-10.04292723495791
 20
-11.9320954260721
 30
0.4080434344787029
 11
-9.550830632061797
 21
-11.9320954260721
 31
0.4080434344787029
  0
ARC
  5
355
330
9D2
100
AcDbEntity
  8
1_TOP
  6
CONTINUOUS
 62
     7
100
AcDbCircle
 10
-10.09812893350936
 20
-13.36114372752019
 30
0.148613244104384
 40
0.0770172785307501
100
AcDbArc
 50
270.0
 51
90.0
  0
ARC
  5
356
330
9D2
100
AcDbEntity
  8
1_TOP
  6
CONTINUOUS
 62
     7
100
AcDbCircle
 10
-10.22312893351033
 20
-13.36114372752019
 30
0.148613244104384
 40
0.0770172785307501
100
AcDbArc
 50
90.0
 51
270.0
  0
ARC
  5
357
330
9D2
100
AcDbEntity
  8
1_TOP
  6
CONTINUOUS
 62
     7
100
AcDbCircle
 10
-10.09812893350936
 20
-13.36114372752019
 30
0.348043434478553
 40
0.15339913042245
100
AcDbArc
 50
270.0
 51
90.0
  0
ARC
  5
358
330
9D2
100
AcDbEntity
  8
1_TOP
  6
CONTINUOUS
 62
     7
100
AcDbCircle
 10
-10.22312893351033
 20
-13.36114372752019
 30
0.3480434344787029
 40
0.15339913042245
100
AcDbArc
 50
90.0
 51
270.0
  0
ARC
  5
359
330
9D2
100
AcDbEntity
  8
1_TOP
  6
CONTINUOUS
 62
     7
100
AcDbCircle
 10
-10.09812893350936
 20
-10.08014372752018
 30
0.148613244104384
 40
0.0770172785307599
100
AcDbArc
 50
270.0
 51
90.0
  0
ARC
  5
35A
330
9D2
100
AcDbEntity
  8
1_TOP
  6
CONTINUOUS
 62
     7
100
AcDbCircle
 10
-10.22312893351033
 20
-10.08014372752018
 30
0.148613244104384
 40
0.0770172785307599
100
AcDbArc
 50
90.0
 51
270.0
  0
ARC
  5
35B
330
9D2
100
AcDbEntity
  8
1_TOP
  6
CONTINUOUS
 62
     7
100
AcDbCircle
 10
-10.09812893350936
 20
-10.08014372752018
 30
0.348043434478553
 40
0.1533991304224607
100
AcDbArc
 50
270.0
 51
90.0
  0
ARC
  5
35C
330
9D2
100
AcDbEntity
  8
1_TOP
  6
CONTINUOUS
 62
     7
100
AcDbCircle
 10
-10.22312893351033
 20
-10.08014372752018
 30
0.3480434344787029
 40
0.1533991304224695
100
AcDbArc
 50
90.0
 51
270.0
  0
ARC
  5
35D
330
9D2
100
AcDbEntity
  8
1_TOP
  6
CONTINUOUS
 62
     7
100
AcDbCircle
 10
-7.396770892812686
 20
-13.9180919497005
 30
-0.0213779012491336
 40
0.0312499999999871
100
AcDbArc
 50
192.7345062265205
 51
265.9999999999973
  0
ARC
  5
35E
330
9D2
100
AcDbEntity
  8
1_TOP
  6
CONTINUOUS
 62
     7
100
AcDbCircle
 10
-7.396770892812704
 20
-9.52319550533997
 30
-0.0213779012491353
 40
0.0312500000000004
100
AcDbArc
 50
94.00000000000018
 51
167.2654937734255
  0
ARC
  5
35F
330
9D2
100
AcDbEntity
  8
1_TOP
  6
CONTINUOUS
 62
     7
100
AcDbCircle
 10
9.324447987893332
 20
-1.256224829490902
 30
-9.824662470548656
 40
0.0156249999999989
210
-0.014774536627579
220
0.9855269542728976
230
-0.1688737264023811
100
AcDbArc
 50
5.073047543287786
 51
90.14505381436064
  0
ARC
  5
360
330
9D2
100
AcDbEntity
  8
1_TOP
  6
CONTINUOUS
 62
     7
100
AcDbCircle
 10
-12.80682306865858
 20
-1.312253950114302
 30
10.15167848686092
 40
0.0156250000000032
210
-0.014774536627579
220
-0.9855269542728976
230
0.1688737264023811
100
AcDbArc
 50
5.073047543284094
 51
90.1450538143248
  0
ARC
  5
361
330
9D2
100
AcDbEntity
  8
1_TOP
  6
CONTINUOUS
 62
     7
100
AcDbCircle
 10
-13.15820386718734
 20
2.64591884860077
 30
12.95034214294036
 40
0.0156249999999941
210
0.014774536627579
220
-0.9855269542728976
230
-0.1688737264023811
100
AcDbArc
 50
5.073047543286686
 51
90.14505381432492
  0
ARC
  5
362
330
9D2
100
AcDbEntity
  8
1_TOP
  6
CONTINUOUS
 62
     7
100
AcDbCircle
 10
8.973067189364554
 20
2.701947969224161
 30
-13.27735815925269
 40
0.015624999999999
210
0.014774536627579
220
0.9855269542728976
230
0.1688737264023811
100
AcDbArc
 50
5.073047543286974
 51
90.14505381436226
  0
ARC
  5
363
330
9D2
100
AcDbEntity
  8
1_TOP
  6
CONTINUOUS
 62
     7
100
AcDbCircle
 10
-10.22312893351033
 20
-13.36114372752019
 30
0.148613244104384
 40
0.0770172785307501
100
AcDbArc
 50
90.0
 51
270.0
  0
ARC
  5
364
330
9D2
100
AcDbEntity
  8
1_TOP
  6
CONTINUOUS
 62
     7
100
AcDbCircle
 10
-10.09812893350936
 20
-13.36114372752019
 30
0.148613244104384
 40
0.0770172785307501
100
AcDbArc
 50
270.0
 51
90.0
  0
ARC
  5
365
330
9D2
100
AcDbEntity
  8
1_TOP
  6
CONTINUOUS
 62
     7
100
AcDbCircle
 10
-10.09812893350936
 20
-13.36114372752019
 30
0.348043434478553
 40
0.15339913042245
100
AcDbArc
 50
270.0
 51
90.0
  0
ARC
  5
366
330
9D2
100
AcDbEntity
  8
1_TOP
  6
CONTINUOUS
 62
     7
100
AcDbCircle
 10
-10.22312893351033
 20
-13.36114372752019
 30
0.348043434478702
 40
0.15339913042245
100
AcDbArc
 50
90.0
 51
270.0
  0
ARC
  5
367
330
9D2
100
AcDbEntity
  8
1_TOP
  6
CONTINUOUS
 62
     7
100
AcDbCircle
 10
-12.03562893351032
 20
-13.36114372752019
 30
0.148613244104533
 40
0.0770172785307501
100
AcDbArc
 50
90.0
 51
270.0
  0
ARC
  5
368
330
9D2
100
AcDbEntity
  8
1_TOP
  6
CONTINUOUS
 62
     7
100
AcDbCircle
 10
-11.91062893350935
 20
-13.36114372752019
 30
0.148613244104534
 40
0.0770172785307501
100
AcDbArc
 50
270.0
 51
90.0
  0
ARC
  5
369
330
9D2
100
AcDbEntity
  8
1_TOP
  6
CONTINUOUS
 62
     7
100
AcDbCircle
 10
-11.91062893350935
 20
-13.36114372752019
 30
0.348043434478702
 40
0.15339913042245
100
AcDbArc
 50
270.0
 51
90.0
  0
ARC
  5
36A
330
9D2
100
AcDbEntity
  8
1_TOP
  6
CONTINUOUS
 62
     7
100
AcDbCircle
 10
-12.03562893351032
 20
-13.36114372752019
 30
0.3480434344788519
 40
0.15339913042245
100
AcDbArc
 50
90.0
 51
270.0
  0
ARC
  5
36B
330
9D2
100
AcDbEntity
  8
1_TOP
  6
CONTINUOUS
 62
     7
100
AcDbCircle
 10
-12.03562893351032
 20
-10.08014372752018
 30
0.148613244104533
 40
0.0770172785307599
100
AcDbArc
 50
90.0
 51
270.0
  0
ARC
  5
36C
330
9D2
100
AcDbEntity
  8
1_TOP
  6
CONTINUOUS
 62
     7
100
AcDbCircle
 10
-11.91062893350935
 20
-10.08014372752018
 30
0.148613244104533
 40
0.0770172785307599
100
AcDbArc
 50
270.0
 51
90.0
  0
ARC
  5
36D
330
9D2
100
AcDbEntity
  8
1_TOP
  6
CONTINUOUS
 62
     7
100
AcDbCircle
 10
-11.91062893350935
 20
-10.08014372752018
 30
0.3480434344787029
 40
0.1533991304224607
100
AcDbArc
 50
270.0
 51
90.0
  0
ARC
  5
36E
330
9D2
100
AcDbEntity
  8
1_TOP
  6
CONTINUOUS
 62
     7
100
AcDbCircle
 10
-12.03562893351032
 20
-10.08014372752018
 30
0.3480434344788519
 40
0.1533991304224695
100
AcDbArc
 50
90.0
 51
270.0
  0
ARC
  5
36F
330
9D2
100
AcDbEntity
  8
1_TOP
  6
CONTINUOUS
 62
     7
100
AcDbCircle
 10
-10.22312893351033
 20
-10.08014372752018
 30
0.148613244104384
 40
0.0770172785307599
100
AcDbArc
 50
90.0
 51
270.0
  0
ARC
  5
370
330
9D2
100
AcDbEntity
  8
1_TOP
  6
CONTINUOUS
 62
     7
100
AcDbCircle
 10
-10.09812893350936
 20
-10.08014372752018
 30
0.148613244104384
 40
0.0770172785307599
100
AcDbArc
 50
270.0
 51
90.0
  0
ARC
  5
371
330
9D2
100
AcDbEntity
  8
1_TOP
  6
CONTINUOUS
 62
     7
100
AcDbCircle
 10
-10.09812893350936
 20
-10.08014372752018
 30
0.348043434478553
 40
0.1533991304224607
100
AcDbArc
 50
270.0
 51
90.0
  0
ARC
  5
372
330
9D2
100
AcDbEntity
  8
1_TOP
  6
CONTINUOUS
 62
     7
100
AcDbCircle
 10
-10.22312893351033
 20
-10.08014372752018
 30
0.348043434478702
 40
0.1533991304224695
100
AcDbArc
 50
90.0
 51
270.0
  0
ARC
  5
373
330
9D2
100
AcDbEntity
  8
1_TOP
  6
CONTINUOUS
 62
     7
100
AcDbCircle
 10
-11.48954400552079
 20
0.3492049781759199
 30
-12.42381793436898
 40
0.0099999999999681
210
1.0
220
0.0
230
0.0
100
AcDbArc
 50
1.0000000000017
 51
90.0
  0
ARC
  5
374
330
9D2
100
AcDbEntity
  8
1_TOP
  6
CONTINUOUS
 62
     7
100
AcDbCircle
 10
-11.48954400552079
 20
0.3492049781759199
 30
-11.78881793436898
 40
0.0099999999999681
210
1.0
220
0.0
230
0.0
100
AcDbArc
 50
1.000000000007425
 51
90.0
  0
ARC
  5
375
330
9D2
100
AcDbEntity
  8
1_TOP
  6
CONTINUOUS
 62
     7
100
AcDbCircle
 10
-11.48954400552079
 20
0.3492049781759199
 30
-11.61493993265058
 40
0.0099999999999681
210
1.0
220
0.0
230
0.0
100
AcDbArc
 50
1.000000000007425
 51
90.0
  0
ARC
  5
376
330
9D2
100
AcDbEntity
  8
1_TOP
  6
CONTINUOUS
 62
     7
100
AcDbCircle
 10
-11.48954400552079
 20
0.3492049781759191
 30
-12.24993993265059
 40
0.0099999999999681
210
1.0
220
0.0
230
0.0
100
AcDbArc
 50
1.000000000006789
 51
90.0
  0
ARC
  5
377
330
9D2
100
AcDbEntity
  8
1_TOP
  6
CONTINUOUS
 62
     7
100
AcDbCircle
 10
-11.48954400552079
 20
0.3492049781759199
 30
-11.15381793436899
 40
0.0099999999999681
210
1.0
220
0.0
230
0.0
100
AcDbArc
 50
1.000000000007425
 51
90.0
  0
ARC
  5
378
330
9D2
100
AcDbEntity
  8
1_TOP
  6
CONTINUOUS
 62
     7
100
AcDbCircle
 10
-11.48954400552079
 20
0.3492049781759191
 30
-10.97993993265059
 40
0.0099999999999681
210
1.0
220
0.0
230
0.0
100
AcDbArc
 50
1.000000000006789
 51
90.0
  0
ARC
  5
379
330
9D2
100
AcDbEntity
  8
1_TOP
  6
CONTINUOUS
 62
     7
100
AcDbCircle
 10
-11.48954400552079
 20
0.3492049781759199
 30
-10.3449399326506
 40
0.0099999999999681
210
1.0
220
0.0
230
0.0
100
AcDbArc
 50
1.000000000007425
 51
90.0
  0
ARC
  5
37A
330
9D2
100
AcDbEntity
  8
1_TOP
  6
CONTINUOUS
 62
     7
100
AcDbCircle
 10
-11.48954400552079
 20
0.3492049781759191
 30
-10.518817934369
 40
0.0099999999999681
210
1.0
220
0.0
230
0.0
100
AcDbArc
 50
1.000000000006789
 51
90.0
  0
ARC
  5
37B
330
9D2
100
AcDbEntity
  8
1_TOP
  6
CONTINUOUS
 62
     7
100
AcDbCircle
 10
-11.48954400552079
 20
0.3492049781759199
 30
-9.883817934369004
 40
0.0099999999999681
210
1.0
220
0.0
230
0.0
100
AcDbArc
 50
1.0000000000017
 51
90.0
  0
ARC
  5
37C
330
9D2
100
AcDbEntity
  8
1_TOP
  6
CONTINUOUS
 62
     7
100
AcDbCircle
 10
-11.48954400552079
 20
0.3492049781759199
 30
-9.709939932650616
 40
0.0099999999999681
210
1.0
220
0.0
230
0.0
100
AcDbArc
 50
1.000000000007425
 51
90.0
  0
ARC
  5
37D
330
9D2
100
AcDbEntity
  8
1_TOP
  6
CONTINUOUS
 62
     7
100
AcDbCircle
 10
-12.64000861680239
 20
0.3492049781759199
 30
-11.78881793436898
 40
0.0100000000000169
210
1.0
220
0.0
230
0.0
100
AcDbArc
 50
0.9999999999976559
 51
90.0
  0
ARC
  5
37E
330
9D2
100
AcDbEntity
  8
1_TOP
  6
CONTINUOUS
 62
     7
100
AcDbCircle
 10
-12.64000861680239
 20
0.3492049781759199
 30
-11.61493993265058
 40
0.0100000000000169
210
1.0
220
0.0
230
0.0
100
AcDbArc
 50
0.9999999999976559
 51
90.0
  0
ARC
  5
37F
330
9D2
100
AcDbEntity
  8
1_TOP
  6
CONTINUOUS
 62
     7
100
AcDbCircle
 10
-12.64000861680239
 20
0.3492049781759199
 30
-12.24993993265059
 40
0.0100000000000169
210
1.0
220
0.0
230
0.0
100
AcDbArc
 50
0.9999999999976559
 51
90.0
  0
ARC
  5
380
330
9D2
100
AcDbEntity
  8
1_TOP
  6
CONTINUOUS
 62
     7
100
AcDbCircle
 10
-12.64000861680239
 20
0.3492049781759199
 30
-11.15381793436899
 40
0.0100000000000169
210
1.0
220
0.0
230
0.0
100
AcDbArc
 50
0.9999999999976559
 51
90.0
  0
ARC
  5
381
330
9D2
100
AcDbEntity
  8
1_TOP
  6
CONTINUOUS
 62
     7
100
AcDbCircle
 10
-12.64000861680239
 20
0.3492049781759199
 30
-10.97993993265059
 40
0.0100000000000169
210
1.0
220
0.0
230
0.0
100
AcDbArc
 50
0.9999999999976559
 51
90.0
  0
ARC
  5
382
330
9D2
100
AcDbEntity
  8
1_TOP
  6
CONTINUOUS
 62
     7
100
AcDbCircle
 10
-12.64000861680239
 20
0.3492049781759199
 30
-12.42381793436898
 40
0.0100000000000169
210
1.0
220
0.0
230
0.0
100
AcDbArc
 50
0.9999999999976559
 51
90.0
  0
ARC
  5
383
330
9D2
100
AcDbEntity
  8
1_TOP
  6
CONTINUOUS
 62
     7
100
AcDbCircle
 10
-12.64000861680239
 20
0.3492049781759199
 30
-10.518817934369
 40
0.0100000000000169
210
1.0
220
0.0
230
0.0
100
AcDbArc
 50
0.9999999999976559
 51
90.0
  0
ARC
  5
384
330
9D2
100
AcDbEntity
  8
1_TOP
  6
CONTINUOUS
 62
     7
100
AcDbCircle
 10
-12.64000861680239
 20
0.3492049781759199
 30
-9.883817934369004
 40
0.0100000000000169
210
1.0
220
0.0
230
0.0
100
AcDbArc
 50
0.9999999999919319
 51
90.0
  0
ARC
  5
385
330
9D2
100
AcDbEntity
  8
1_TOP
  6
CONTINUOUS
 62
     7
100
AcDbCircle
 10
-12.64000861680239
 20
0.3492049781759199
 30
-9.709939932650616
 40
0.0100000000000169
210
1.0
220
0.0
230
0.0
100
AcDbArc
 50
0.9999999999976559
 51
90.0
  0
ARC
  5
386
330
9D2
100
AcDbEntity
  8
1_TOP
  6
CONTINUOUS
 62
     7
100
AcDbCircle
 10
-12.64000861680239
 20
0.3492049781759199
 30
-10.3449399326506
 40
0.0100000000000169
210
1.0
220
0.0
230
0.0
100
AcDbArc
 50
0.9999999999976559
 51
90.0
  0
POLYLINE
  5
405
330
9D2
100
AcDbEntity
  8
1_TOP
  6
CONTINUOUS
 62
     7
100
AcDb3dPolyline
 66
     1
 10
0.0
 20
0.0
 30
0.0
 70
     8
  0
VERTEX
  5
53F
330
405
100
AcDbEntity
  8
1_TOP
  6
CONTINUOUS
 62
     7
100
AcDbVertex
100
AcDb3dPolylineVertex
 10
-7.093232551584366
 20
-9.501817604090811
 30
0.0311738765706205
 70
    32
1001
ACAD
1000
R13OBJECT
1002
{
1005
405
1002
}
  0
VERTEX
  5
540
330
405
100
AcDbEntity
  8
1_TOP
  6
CONTINUOUS
 62
     7
100
AcDbVertex
100
AcDb3dPolylineVertex
 10
-7.093232551584366
 20
-9.479765163376876
 30
0.0220524407139332
 70
    32
1001
ACAD
1000
R13OBJECT
1002
{
1005
405
1002
}
  0
VERTEX
  5
541
330
405
100
AcDbEntity
  8
1_TOP
  6
CONTINUOUS
 62
     7
100
AcDbVertex
100
AcDb3dPolylineVertex
 10
-7.093232551584366
 20
-9.470643727520192
 30
-0.0000000000000008
 70
    32
1001
ACAD
1000
R13OBJECT
1002
{
1005
405
1002
}
  0
SEQEND
  5
542
330
405
100
AcDbEntity
  8
1_TOP
  6
CONTINUOUS
 62
     7
  0
POLYLINE
  5
406
330
9D2
100
AcDbEntity
  8
1_TOP
  6
CONTINUOUS
 62
     7
100
AcDb3dPolyline
 66
     1
 10
0.0
 20
0.0
 30
0.0
 70
     8
  0
VERTEX
  5
543
330
406
100
AcDbEntity
  8
1_TOP
  6
CONTINUOUS
 62
     7
100
AcDbVertex
100
AcDb3dPolylineVertex
 10
-7.093232551584366
 20
-13.97064372752013
 30
0.000000000000002
 70
    32
1001
ACAD
1000
R13OBJECT
1002
{
1005
406
1002
}
  0
VERTEX
  5
544
330
406
100
AcDbEntity
  8
1_TOP
  6
CONTINUOUS
 62
     7
100
AcDbVertex
100
AcDb3dPolylineVertex
 10
-7.093232551584366
 20
-13.96152229166345
 30
0.0220524407139351
 70
    32
1001
ACAD
1000
R13OBJECT
1002
{
1005
406
1002
}
  0
VERTEX
  5
545
330
406
100
AcDbEntity
  8
1_TOP
  6
CONTINUOUS
 62
     7
100
AcDbVertex
100
AcDb3dPolylineVertex
 10
-7.093232551584366
 20
-13.93946985094951
 30
0.0311738765706216
 70
    32
1001
ACAD
1000
R13OBJECT
1002
{
1005
406
1002
}
  0
SEQEND
  5
546
330
406
100
AcDbEntity
  8
1_TOP
  6
CONTINUOUS
 62
     7
  0
POLYLINE
  5
407
330
9D2
100
AcDbEntity
  8
1_TOP
  6
CONTINUOUS
 62
     7
100
AcDb3dPolyline
 66
     1
 10
0.0
 20
0.0
 30
0.0
 70
     8
  0
VERTEX
  5
547
330
407
100
AcDbEntity
  8
1_TOP
  6
CONTINUOUS
 62
     7
100
AcDbVertex
100
AcDb3dPolylineVertex
 10
-7.427252204227249
 20
-13.92498050212102
 30
-0.0213779012491371
 70
    32
1001
ACAD
1000
R13OBJECT
1002
{
1005
407
1002
}
  0
VERTEX
  5
548
330
407
100
AcDbEntity
  8
1_TOP
  6
CONTINUOUS
 62
     7
100
AcDbVertex
100
AcDb3dPolylineVertex
 10
-7.611547210681029
 20
-12.82965307679811
 30
-0.034224791125501
 70
    32
1001
ACAD
1000
R13OBJECT
1002
{
1005
407
1002
}
  0
VERTEX
  5
549
330
407
100
AcDbEntity
  8
1_TOP
  6
CONTINUOUS
 62
     7
100
AcDbVertex
100
AcDb3dPolylineVertex
 10
-7.67323255158445
 20
-11.72064372752015
 30
-0.0385247707984227
 70
    32
1001
ACAD
1000
R13OBJECT
1002
{
1005
407
1002
}
  0
VERTEX
  5
54A
330
407
100
AcDbEntity
  8
1_TOP
  6
CONTINUOUS
 62
     7
100
AcDbVertex
100
AcDb3dPolylineVertex
 10
-7.611547210681038
 20
-10.61163437824218
 30
-0.0342247911255018
 70
    32
1001
ACAD
1000
R13OBJECT
1002
{
1005
407
1002
}
  0
VERTEX
  5
54B
330
407
100
AcDbEntity
  8
1_TOP
  6
CONTINUOUS
 62
     7
100
AcDbVertex
100
AcDb3dPolylineVertex
 10
-7.427252204227273
 20
-9.516306952919263
 30
-0.0213779012491388
 70
    32
1001
ACAD
1000
R13OBJECT
1002
{
1005
407
1002
}
  0
SEQEND
  5
54C
330
407
100
AcDbEntity
  8
1_TOP
  6
CONTINUOUS
 62
     7
  0
POLYLINE
  5
408
330
9D2
100
AcDbEntity
  8
1_TOP
  6
CONTINUOUS
 62
     7
100
AcDb3dPolyline
 66
     1
 10
0.0
 20
0.0
 30
0.0
 70
     8
  0
VERTEX
  5
54D
330
408
100
AcDbEntity
  8
1_TOP
  6
CONTINUOUS
 62
     7
100
AcDbVertex
100
AcDb3dPolylineVertex
 10
-6.988188573682515
 20
-12.00821573424087
 30
-0.9233419718169903
 70
    32
1001
ACAD
1000
R13OBJECT
1002
{
1005
408
1002
}
  0
VERTEX
  5
54E
330
408
100
AcDbEntity
  8
1_TOP
  6
CONTINUOUS
 62
     7
100
AcDbVertex
100
AcDb3dPolylineVertex
 10
-6.976426391631781
 20
-11.991581683914
 30
-0.9239584016577923
 70
    32
1001
ACAD
1000
R13OBJECT
1002
{
1005
408
1002
}
  0
VERTEX
  5
54F
330
408
100
AcDbEntity
  8
1_TOP
  6
CONTINUOUS
 62
     7
100
AcDbVertex
100
AcDb3dPolylineVertex
 10
-6.972275986063072
 20
-11.97163639147478
 30
-0.9241759151967723
 70
    32
1001
ACAD
1000
R13OBJECT
1002
{
1005
408
1002
}
  0
SEQEND
  5
550
330
408
100
AcDbEntity
  8
1_TOP
  6
CONTINUOUS
 62
     7
  0
POLYLINE
  5
409
330
9D2
100
AcDbEntity
  8
1_TOP
  6
CONTINUOUS
 62
     7
100
AcDb3dPolyline
 66
     1
 10
0.0
 20
0.0
 30
0.0
 70
     8
  0
VERTEX
  5
551
330
409
100
AcDbEntity
  8
1_TOP
  6
CONTINUOUS
 62
     7
100
AcDbVertex
100
AcDb3dPolylineVertex
 10
-6.988188573682516
 20
-12.00821573424089
 30
-0.9233419718169912
 70
    32
1001
ACAD
1000
R13OBJECT
1002
{
1005
409
1002
}
  0
VERTEX
  5
552
330
409
100
AcDbEntity
  8
1_TOP
  6
CONTINUOUS
 62
     7
100
AcDbVertex
100
AcDb3dPolylineVertex
 10
-6.989364791887589
 20
-12.00987913927358
 30
-0.9232803288329112
 70
    32
1001
ACAD
1000
R13OBJECT
1002
{
1005
409
1002
}
  0
VERTEX
  5
553
330
409
100
AcDbEntity
  8
1_TOP
  6
CONTINUOUS
 62
     7
100
AcDbVertex
100
AcDb3dPolylineVertex
 10
-6.98977983244446
 20
-12.01187366851749
 30
-0.9232585774790129
 70
    32
1001
ACAD
1000
R13OBJECT
1002
{
1005
409
1002
}
  0
SEQEND
  5
554
330
409
100
AcDbEntity
  8
1_TOP
  6
CONTINUOUS
 62
     7
  0
POLYLINE
  5
40A
330
9D2
100
AcDbEntity
  8
1_TOP
  6
CONTINUOUS
 62
     7
100
AcDb3dPolyline
 66
     1
 10
0.0
 20
0.0
 30
0.0
 70
     8
  0
VERTEX
  5
555
330
40A
100
AcDbEntity
  8
1_TOP
  6
CONTINUOUS
 62
     7
100
AcDbVertex
100
AcDb3dPolylineVertex
 10
-6.860614096550204
 20
-11.94675023335397
 30
-0.9300278668566903
 70
    32
1001
ACAD
1000
R13OBJECT
1002
{
1005
40A
1002
}
  0
VERTEX
  5
556
330
40A
100
AcDbEntity
  8
1_TOP
  6
CONTINUOUS
 62
     7
100
AcDbVertex
100
AcDb3dPolylineVertex
 10
-6.846444722266664
 20
-11.92803974588122
 30
-0.9307704522967208
 70
    32
1001
ACAD
1000
R13OBJECT
1002
{
1005
40A
1002
}
  0
VERTEX
  5
557
330
40A
100
AcDbEntity
  8
1_TOP
  6
CONTINUOUS
 62
     7
100
AcDbVertex
100
AcDb3dPolylineVertex
 10
-6.842373872977788
 20
-11.90492521159818
 30
-0.9309837964677466
 70
    32
1001
ACAD
1000
R13OBJECT
1002
{
1005
40A
1002
}
  0
SEQEND
  5
558
330
40A
100
AcDbEntity
  8
1_TOP
  6
CONTINUOUS
 62
     7
  0
POLYLINE
  5
40B
330
9D2
100
AcDbEntity
  8
1_TOP
  6
CONTINUOUS
 62
     7
100
AcDb3dPolyline
 66
     1
 10
0.0
 20
0.0
 30
0.0
 70
     8
  0
VERTEX
  5
559
330
40B
100
AcDbEntity
  8
1_TOP
  6
CONTINUOUS
 62
     7
100
AcDbVertex
100
AcDb3dPolylineVertex
 10
-6.842373872977789
 20
-11.90492521159818
 30
-0.9309837964677466
 70
    32
1001
ACAD
1000
R13OBJECT
1002
{
1005
40B
1002
}
  0
VERTEX
  5
55A
330
40B
100
AcDbEntity
  8
1_TOP
  6
CONTINUOUS
 62
     7
100
AcDbVertex
100
AcDb3dPolylineVertex
 10
-6.84360499163516
 20
-11.89704151980268
 30
-0.9309192762728802
 70
    32
1001
ACAD
1000
R13OBJECT
1002
{
1005
40B
1002
}
  0
VERTEX
  5
55B
330
40B
100
AcDbEntity
  8
1_TOP
  6
CONTINUOUS
 62
     7
100
AcDbVertex
100
AcDb3dPolylineVertex
 10
-6.8487045915539
 20
-11.89090455555773
 30
-0.930652017565907
 70
    32
1001
ACAD
1000
R13OBJECT
1002
{
1005
40B
1002
}
  0
VERTEX
  5
55C
330
40B
100
AcDbEntity
  8
1_TOP
  6
CONTINUOUS
 62
     7
100
AcDbVertex
100
AcDb3dPolylineVertex
 10
-6.856229638956902
 20
-11.8882508956214
 30
-0.9302576465425159
 70
    32
1001
ACAD
1000
R13OBJECT
1002
{
1005
40B
1002
}
  0
SEQEND
  5
55D
330
40B
100
AcDbEntity
  8
1_TOP
  6
CONTINUOUS
 62
     7
  0
POLYLINE
  5
40C
330
9D2
100
AcDbEntity
  8
1_TOP
  6
CONTINUOUS
 62
     7
100
AcDb3dPolyline
 66
     1
 10
0.0
 20
0.0
 30
0.0
 70
     8
  0
VERTEX
  5
55E
330
40C
100
AcDbEntity
  8
1_TOP
  6
CONTINUOUS
 62
     7
100
AcDbVertex
100
AcDb3dPolylineVertex
 10
-6.860614096550206
 20
-10.79628562207236
 30
-0.9300278668566953
 70
    32
1001
ACAD
1000
R13OBJECT
1002
{
1005
40C
1002
}
  0
VERTEX
  5
55F
330
40C
100
AcDbEntity
  8
1_TOP
  6
CONTINUOUS
 62
     7
100
AcDbVertex
100
AcDb3dPolylineVertex
 10
-6.846444722266666
 20
-10.77757513459961
 30
-0.9307704522967256
 70
    32
1001
ACAD
1000
R13OBJECT
1002
{
1005
40C
1002
}
  0
VERTEX
  5
560
330
40C
100
AcDbEntity
  8
1_TOP
  6
CONTINUOUS
 62
     7
100
AcDbVertex
100
AcDb3dPolylineVertex
 10
-6.842373872977788
 20
-10.75446060031657
 30
-0.9309837964677516
 70
    32
1001
ACAD
1000
R13OBJECT
1002
{
1005
40C
1002
}
  0
SEQEND
  5
561
330
40C
100
AcDbEntity
  8
1_TOP
  6
CONTINUOUS
 62
     7
  0
POLYLINE
  5
40D
330
9D2
100
AcDbEntity
  8
1_TOP
  6
CONTINUOUS
 62
     7
100
AcDb3dPolyline
 66
     1
 10
0.0
 20
0.0
 30
0.0
 70
     8
  0
VERTEX
  5
562
330
40D
100
AcDbEntity
  8
1_TOP
  6
CONTINUOUS
 62
     7
100
AcDbVertex
100
AcDb3dPolylineVertex
 10
-6.842373872977789
 20
-10.75446060031658
 30
-0.9309837964677514
 70
    32
1001
ACAD
1000
R13OBJECT
1002
{
1005
40D
1002
}
  0
VERTEX
  5
563
330
40D
100
AcDbEntity
  8
1_TOP
  6
CONTINUOUS
 62
     7
100
AcDbVertex
100
AcDb3dPolylineVertex
 10
-6.84360499163516
 20
-10.74657690852107
 30
-0.9309192762728848
 70
    32
1001
ACAD
1000
R13OBJECT
1002
{
1005
40D
1002
}
  0
VERTEX
  5
564
330
40D
100
AcDbEntity
  8
1_TOP
  6
CONTINUOUS
 62
     7
100
AcDbVertex
100
AcDb3dPolylineVertex
 10
-6.8487045915539
 20
-10.74043994427611
 30
-0.9306520175659118
 70
    32
1001
ACAD
1000
R13OBJECT
1002
{
1005
40D
1002
}
  0
VERTEX
  5
565
330
40D
100
AcDbEntity
  8
1_TOP
  6
CONTINUOUS
 62
     7
100
AcDbVertex
100
AcDb3dPolylineVertex
 10
-6.856229638956902
 20
-10.7377862843398
 30
-0.9302576465425207
 70
    32
1001
ACAD
1000
R13OBJECT
1002
{
1005
40D
1002
}
  0
SEQEND
  5
566
330
40D
100
AcDbEntity
  8
1_TOP
  6
CONTINUOUS
 62
     7
  0
POLYLINE
  5
40E
330
9D2
100
AcDbEntity
  8
1_TOP
  6
CONTINUOUS
 62
     7
100
AcDb3dPolyline
 66
     1
 10
0.0
 20
0.0
 30
0.0
 70
     8
  0
VERTEX
  5
567
330
40E
100
AcDbEntity
  8
1_TOP
  6
CONTINUOUS
 62
     7
100
AcDbVertex
100
AcDb3dPolylineVertex
 10
-6.988188573682515
 20
-10.85775112295926
 30
-0.9233419718169962
 70
    32
1001
ACAD
1000
R13OBJECT
1002
{
1005
40E
1002
}
  0
VERTEX
  5
568
330
40E
100
AcDbEntity
  8
1_TOP
  6
CONTINUOUS
 62
     7
100
AcDbVertex
100
AcDb3dPolylineVertex
 10
-6.976426391631781
 20
-10.84111707263242
 30
-0.9239584016577977
 70
    32
1001
ACAD
1000
R13OBJECT
1002
{
1005
40E
1002
}
  0
VERTEX
  5
569
330
40E
100
AcDbEntity
  8
1_TOP
  6
CONTINUOUS
 62
     7
100
AcDbVertex
100
AcDb3dPolylineVertex
 10
-6.972275986063072
 20
-10.82117178019319
 30
-0.9241759151967777
 70
    32
1001
ACAD
1000
R13OBJECT
1002
{
1005
40E
1002
}
  0
SEQEND
  5
56A
330
40E
100
AcDbEntity
  8
1_TOP
  6
CONTINUOUS
 62
     7
  0
POLYLINE
  5
40F
330
9D2
100
AcDbEntity
  8
1_TOP
  6
CONTINUOUS
 62
     7
100
AcDb3dPolyline
 66
     1
 10
0.0
 20
0.0
 30
0.0
 70
     8
  0
VERTEX
  5
56B
330
40F
100
AcDbEntity
  8
1_TOP
  6
CONTINUOUS
 62
     7
100
AcDbVertex
100
AcDb3dPolylineVertex
 10
-6.988188573682516
 20
-10.85775112295928
 30
-0.9233419718169958
 70
    32
1001
ACAD
1000
R13OBJECT
1002
{
1005
40F
1002
}
  0
VERTEX
  5
56C
330
40F
100
AcDbEntity
  8
1_TOP
  6
CONTINUOUS
 62
     7
100
AcDbVertex
100
AcDb3dPolylineVertex
 10
-6.989364791887589
 20
-10.85941452799197
 30
-0.9232803288329158
 70
    32
1001
ACAD
1000
R13OBJECT
1002
{
1005
40F
1002
}
  0
VERTEX
  5
56D
330
40F
100
AcDbEntity
  8
1_TOP
  6
CONTINUOUS
 62
     7
100
AcDbVertex
100
AcDb3dPolylineVertex
 10
-6.98977983244446
 20
-10.86140905723588
 30
-0.9232585774790178
 70
    32
1001
ACAD
1000
R13OBJECT
1002
{
1005
40F
1002
}
  0
SEQEND
  5
56E
330
40F
100
AcDbEntity
  8
1_TOP
  6
CONTINUOUS
 62
     7
  0
POLYLINE
  5
410
330
9D2
100
AcDbEntity
  8
1_TOP
  6
CONTINUOUS
 62
     7
100
AcDb3dPolyline
 66
     1
 10
0.0
 20
0.0
 30
0.0
 70
     8
  0
VERTEX
  5
56F
330
410
100
AcDbEntity
  8
1_TOP
  6
CONTINUOUS
 62
     7
100
AcDbVertex
100
AcDb3dPolylineVertex
 10
-9.666878933508961
 20
-9.905360437653476
 30
0.408043434478702
 70
    32
1001
ACAD
1000
R13OBJECT
1002
{
1005
410
1002
}
  0
VERTEX
  5
570
330
410
100
AcDbEntity
  8
1_TOP
  6
CONTINUOUS
 62
     7
100
AcDbVertex
100
AcDb3dPolylineVertex
 10
-9.676040717634494
 20
-9.883284586197103
 30
0.408043434478702
 70
    32
1001
ACAD
1000
R13OBJECT
1002
{
1005
410
1002
}
  0
VERTEX
  5
571
330
410
100
AcDbEntity
  8
1_TOP
  6
CONTINUOUS
 62
     7
100
AcDbVertex
100
AcDb3dPolylineVertex
 10
-9.698167105600779
 20
-9.874143727520175
 30
0.408043434478702
 70
    32
1001
ACAD
1000
R13OBJECT
1002
{
1005
410
1002
}
  0
SEQEND
  5
572
330
410
100
AcDbEntity
  8
1_TOP
  6
CONTINUOUS
 62
     7
  0
POLYLINE
  5
411
330
9D2
100
AcDbEntity
  8
1_TOP
  6
CONTINUOUS
 62
     7
100
AcDb3dPolyline
 66
     1
 10
0.0
 20
0.0
 30
0.0
 70
     8
  0
VERTEX
  5
573
330
411
100
AcDbEntity
  8
1_TOP
  6
CONTINUOUS
 62
     7
100
AcDbVertex
100
AcDb3dPolylineVertex
 10
-9.698167105600779
 20
-10.28614372752016
 30
0.408043434478702
 70
    32
1001
ACAD
1000
R13OBJECT
1002
{
1005
411
1002
}
  0
VERTEX
  5
574
330
411
100
AcDbEntity
  8
1_TOP
  6
CONTINUOUS
 62
     7
100
AcDbVertex
100
AcDb3dPolylineVertex
 10
-9.676040717634494
 20
-10.27700286884324
 30
0.408043434478702
 70
    32
1001
ACAD
1000
R13OBJECT
1002
{
1005
411
1002
}
  0
VERTEX
  5
575
330
411
100
AcDbEntity
  8
1_TOP
  6
CONTINUOUS
 62
     7
100
AcDbVertex
100
AcDb3dPolylineVertex
 10
-9.666878933508961
 20
-10.25492701738687
 30
0.408043434478702
 70
    32
1001
ACAD
1000
R13OBJECT
1002
{
1005
411
1002
}
  0
SEQEND
  5
576
330
411
100
AcDbEntity
  8
1_TOP
  6
CONTINUOUS
 62
     7
  0
POLYLINE
  5
412
330
9D2
100
AcDbEntity
  8
1_TOP
  6
CONTINUOUS
 62
     7
100
AcDb3dPolyline
 66
     1
 10
0.0
 20
0.0
 30
0.0
 70
     8
  0
VERTEX
  5
577
330
412
100
AcDbEntity
  8
1_TOP
  6
CONTINUOUS
 62
     7
100
AcDbVertex
100
AcDb3dPolylineVertex
 10
-12.46687893351074
 20
-10.25492701738687
 30
0.408043434478702
 70
    32
1001
ACAD
1000
R13OBJECT
1002
{
1005
412
1002
}
  0
VERTEX
  5
578
330
412
100
AcDbEntity
  8
1_TOP
  6
CONTINUOUS
 62
     7
100
AcDbVertex
100
AcDb3dPolylineVertex
 10
-12.45771714938521
 20
-10.27700286884324
 30
0.408043434478702
 70
    32
1001
ACAD
1000
R13OBJECT
1002
{
1005
412
1002
}
  0
VERTEX
  5
579
330
412
100
AcDbEntity
  8
1_TOP
  6
CONTINUOUS
 62
     7
100
AcDbVertex
100
AcDb3dPolylineVertex
 10
-12.43559076141892
 20
-10.28614372752016
 30
0.408043434478702
 70
    32
1001
ACAD
1000
R13OBJECT
1002
{
1005
412
1002
}
  0
SEQEND
  5
57A
330
412
100
AcDbEntity
  8
1_TOP
  6
CONTINUOUS
 62
     7
  0
POLYLINE
  5
413
330
9D2
100
AcDbEntity
  8
1_TOP
  6
CONTINUOUS
 62
     7
100
AcDb3dPolyline
 66
     1
 10
0.0
 20
0.0
 30
0.0
 70
     8
  0
VERTEX
  5
57B
330
413
100
AcDbEntity
  8
1_TOP
  6
CONTINUOUS
 62
     7
100
AcDbVertex
100
AcDb3dPolylineVertex
 10
-12.43559076141892
 20
-9.874143727520175
 30
0.408043434478702
 70
    32
1001
ACAD
1000
R13OBJECT
1002
{
1005
413
1002
}
  0
VERTEX
  5
57C
330
413
100
AcDbEntity
  8
1_TOP
  6
CONTINUOUS
 62
     7
100
AcDbVertex
100
AcDb3dPolylineVertex
 10
-12.45771714938521
 20
-9.883284586197099
 30
0.408043434478702
 70
    32
1001
ACAD
1000
R13OBJECT
1002
{
1005
413
1002
}
  0
VERTEX
  5
57D
330
413
100
AcDbEntity
  8
1_TOP
  6
CONTINUOUS
 62
     7
100
AcDbVertex
100
AcDb3dPolylineVertex
 10
-12.46687893351074
 20
-9.905360437653474
 30
0.408043434478702
 70
    32
1001
ACAD
1000
R13OBJECT
1002
{
1005
413
1002
}
  0
SEQEND
  5
57E
330
413
100
AcDbEntity
  8
1_TOP
  6
CONTINUOUS
 62
     7
  0
POLYLINE
  5
414
330
9D2
100
AcDbEntity
  8
1_TOP
  6
CONTINUOUS
 62
     7
100
AcDb3dPolyline
 66
     1
 10
0.0
 20
0.0
 30
0.0
 70
     8
  0
VERTEX
  5
57F
330
414
100
AcDbEntity
  8
1_TOP
  6
CONTINUOUS
 62
     7
100
AcDbVertex
100
AcDb3dPolylineVertex
 10
-12.43559076141892
 20
-13.15514372752022
 30
0.408043434478702
 70
    32
1001
ACAD
1000
R13OBJECT
1002
{
1005
414
1002
}
  0
VERTEX
  5
580
330
414
100
AcDbEntity
  8
1_TOP
  6
CONTINUOUS
 62
     7
100
AcDbVertex
100
AcDb3dPolylineVertex
 10
-12.45771714938521
 20
-13.16428458619715
 30
0.408043434478702
 70
    32
1001
ACAD
1000
R13OBJECT
1002
{
1005
414
1002
}
  0
VERTEX
  5
581
330
414
100
AcDbEntity
  8
1_TOP
  6
CONTINUOUS
 62
     7
100
AcDbVertex
100
AcDb3dPolylineVertex
 10
-12.46687893351074
 20
-13.18636043765351
 30
0.408043434478702
 70
    32
1001
ACAD
1000
R13OBJECT
1002
{
1005
414
1002
}
  0
SEQEND
  5
582
330
414
100
AcDbEntity
  8
1_TOP
  6
CONTINUOUS
 62
     7
  0
POLYLINE
  5
415
330
9D2
100
AcDbEntity
  8
1_TOP
  6
CONTINUOUS
 62
     7
100
AcDb3dPolyline
 66
     1
 10
0.0
 20
0.0
 30
0.0
 70
     8
  0
VERTEX
  5
583
330
415
100
AcDbEntity
  8
1_TOP
  6
CONTINUOUS
 62
     7
100
AcDbVertex
100
AcDb3dPolylineVertex
 10
-12.46687893351074
 20
-13.53592701738697
 30
0.408043434478702
 70
    32
1001
ACAD
1000
R13OBJECT
1002
{
1005
415
1002
}
  0
VERTEX
  5
584
330
415
100
AcDbEntity
  8
1_TOP
  6
CONTINUOUS
 62
     7
100
AcDbVertex
100
AcDb3dPolylineVertex
 10
-12.45771714938521
 20
-13.55800286884334
 30
0.408043434478702
 70
    32
1001
ACAD
1000
R13OBJECT
1002
{
1005
415
1002
}
  0
VERTEX
  5
585
330
415
100
AcDbEntity
  8
1_TOP
  6
CONTINUOUS
 62
     7
100
AcDbVertex
100
AcDb3dPolylineVertex
 10
-12.43559076141892
 20
-13.56714372752026
 30
0.408043434478702
 70
    32
1001
ACAD
1000
R13OBJECT
1002
{
1005
415
1002
}
  0
SEQEND
  5
586
330
415
100
AcDbEntity
  8
1_TOP
  6
CONTINUOUS
 62
     7
  0
POLYLINE
  5
416
330
9D2
100
AcDbEntity
  8
1_TOP
  6
CONTINUOUS
 62
     7
100
AcDb3dPolyline
 66
     1
 10
0.0
 20
0.0
 30
0.0
 70
     8
  0
VERTEX
  5
587
330
416
100
AcDbEntity
  8
1_TOP
  6
CONTINUOUS
 62
     7
100
AcDbVertex
100
AcDb3dPolylineVertex
 10
-9.666878933508961
 20
-13.18636043765351
 30
0.4080434344787029
 70
    32
1001
ACAD
1000
R13OBJECT
1002
{
1005
416
1002
}
  0
VERTEX
  5
588
330
416
100
AcDbEntity
  8
1_TOP
  6
CONTINUOUS
 62
     7
100
AcDbVertex
100
AcDb3dPolylineVertex
 10
-9.676040717634494
 20
-13.16428458619715
 30
0.4080434344787029
 70
    32
1001
ACAD
1000
R13OBJECT
1002
{
1005
416
1002
}
  0
VERTEX
  5
589
330
416
100
AcDbEntity
  8
1_TOP
  6
CONTINUOUS
 62
     7
100
AcDbVertex
100
AcDb3dPolylineVertex
 10
-9.698167105600779
 20
-13.15514372752022
 30
0.4080434344787029
 70
    32
1001
ACAD
1000
R13OBJECT
1002
{
1005
416
1002
}
  0
SEQEND
  5
58A
330
416
100
AcDbEntity
  8
1_TOP
  6
CONTINUOUS
 62
     7
  0
POLYLINE
  5
417
330
9D2
100
AcDbEntity
  8
1_TOP
  6
CONTINUOUS
 62
     7
100
AcDb3dPolyline
 66
     1
 10
0.0
 20
0.0
 30
0.0
 70
     8
  0
VERTEX
  5
58B
330
417
100
AcDbEntity
  8
1_TOP
  6
CONTINUOUS
 62
     7
100
AcDbVertex
100
AcDb3dPolylineVertex
 10
-9.698167105600779
 20
-13.56714372752026
 30
0.408043434478702
 70
    32
1001
ACAD
1000
R13OBJECT
1002
{
1005
417
1002
}
  0
VERTEX
  5
58C
330
417
100
AcDbEntity
  8
1_TOP
  6
CONTINUOUS
 62
     7
100
AcDbVertex
100
AcDb3dPolylineVertex
 10
-9.676040717634494
 20
-13.55800286884334
 30
0.408043434478702
 70
    32
1001
ACAD
1000
R13OBJECT
1002
{
1005
417
1002
}
  0
VERTEX
  5
58D
330
417
100
AcDbEntity
  8
1_TOP
  6
CONTINUOUS
 62
     7
100
AcDbVertex
100
AcDb3dPolylineVertex
 10
-9.666878933508961
 20
-13.53592701738697
 30
0.408043434478702
 70
    32
1001
ACAD
1000
R13OBJECT
1002
{
1005
417
1002
}
  0
SEQEND
  5
58E
330
417
100
AcDbEntity
  8
1_TOP
  6
CONTINUOUS
 62
     7
  0
POLYLINE
  5
418
330
9D2
100
AcDbEntity
  8
1_TOP
  6
CONTINUOUS
 62
     7
100
AcDb3dPolyline
 66
     1
 10
0.0
 20
0.0
 30
0.0
 70
     8
  0
VERTEX
  5
58F
330
418
100
AcDbEntity
  8
1_TOP
  6
CONTINUOUS
 62
     7
100
AcDbVertex
100
AcDb3dPolylineVertex
 10
-8.816878933509849
 20
-9.501817604090827
 30
0.0
 70
    32
1001
ACAD
1000
R13OBJECT
1002
{
1005
418
1002
}
  0
VERTEX
  5
590
330
418
100
AcDbEntity
  8
1_TOP
  6
CONTINUOUS
 62
     7
100
AcDbVertex
100
AcDb3dPolylineVertex
 10
-8.826000369366537
 20
-9.479765163376896
 30
0.0
 70
    32
1001
ACAD
1000
R13OBJECT
1002
{
1005
418
1002
}
  0
VERTEX
  5
591
330
418
100
AcDbEntity
  8
1_TOP
  6
CONTINUOUS
 62
     7
100
AcDbVertex
100
AcDb3dPolylineVertex
 10
-8.848052810080471
 20
-9.47064372752021
 30
0.0
 70
    32
1001
ACAD
1000
R13OBJECT
1002
{
1005
418
1002
}
  0
SEQEND
  5
592
330
418
100
AcDbEntity
  8
1_TOP
  6
CONTINUOUS
 62
     7
  0
POLYLINE
  5
419
330
9D2
100
AcDbEntity
  8
1_TOP
  6
CONTINUOUS
 62
     7
100
AcDb3dPolyline
 66
     1
 10
0.0
 20
0.0
 30
0.0
 70
     8
  0
VERTEX
  5
593
330
419
100
AcDbEntity
  8
1_TOP
  6
CONTINUOUS
 62
     7
100
AcDbVertex
100
AcDb3dPolylineVertex
 10
-13.28570505693923
 20
-9.47064372752021
 30
0.0
 70
    32
1001
ACAD
1000
R13OBJECT
1002
{
1005
419
1002
}
  0
VERTEX
  5
594
330
419
100
AcDbEntity
  8
1_TOP
  6
CONTINUOUS
 62
     7
100
AcDbVertex
100
AcDb3dPolylineVertex
 10
-13.30775749765316
 20
-9.479765163376896
 30
0.0
 70
    32
1001
ACAD
1000
R13OBJECT
1002
{
1005
419
1002
}
  0
VERTEX
  5
595
330
419
100
AcDbEntity
  8
1_TOP
  6
CONTINUOUS
 62
     7
100
AcDbVertex
100
AcDb3dPolylineVertex
 10
-13.31687893350985
 20
-9.501817604090827
 30
0.0
 70
    32
1001
ACAD
1000
R13OBJECT
1002
{
1005
419
1002
}
  0
SEQEND
  5
596
330
419
100
AcDbEntity
  8
1_TOP
  6
CONTINUOUS
 62
     7
  0
POLYLINE
  5
41A
330
9D2
100
AcDbEntity
  8
1_TOP
  6
CONTINUOUS
 62
     7
100
AcDb3dPolyline
 66
     1
 10
0.0
 20
0.0
 30
0.0
 70
     8
  0
VERTEX
  5
597
330
41A
100
AcDbEntity
  8
1_TOP
  6
CONTINUOUS
 62
     7
100
AcDbVertex
100
AcDb3dPolylineVertex
 10
-13.31687893350985
 20
-13.9394698509496
 30
0.0
 70
    32
1001
ACAD
1000
R13OBJECT
1002
{
1005
41A
1002
}
  0
VERTEX
  5
598
330
41A
100
AcDbEntity
  8
1_TOP
  6
CONTINUOUS
 62
     7
100
AcDbVertex
100
AcDb3dPolylineVertex
 10
-13.30775749765316
 20
-13.96152229166355
 30
0.0
 70
    32
1001
ACAD
1000
R13OBJECT
1002
{
1005
41A
1002
}
  0
VERTEX
  5
599
330
41A
100
AcDbEntity
  8
1_TOP
  6
CONTINUOUS
 62
     7
100
AcDbVertex
100
AcDb3dPolylineVertex
 10
-13.28570505693923
 20
-13.97064372752023
 30
0.0
 70
    32
1001
ACAD
1000
R13OBJECT
1002
{
1005
41A
1002
}
  0
SEQEND
  5
59A
330
41A
100
AcDbEntity
  8
1_TOP
  6
CONTINUOUS
 62
     7
  0
POLYLINE
  5
41B
330
9D2
100
AcDbEntity
  8
1_TOP
  6
CONTINUOUS
 62
     7
100
AcDb3dPolyline
 66
     1
 10
0.0
 20
0.0
 30
0.0
 70
     8
  0
VERTEX
  5
59B
330
41B
100
AcDbEntity
  8
1_TOP
  6
CONTINUOUS
 62
     7
100
AcDbVertex
100
AcDb3dPolylineVertex
 10
-12.958692343232
 20
-13.40956533636313
 30
0.4363453571384497
 70
    32
1001
ACAD
1000
R13OBJECT
1002
{
1005
41B
1002
}
  0
VERTEX
  5
59C
330
41B
100
AcDbEntity
  8
1_TOP
  6
CONTINUOUS
 62
     7
100
AcDbVertex
100
AcDb3dPolylineVertex
 10
-12.96984360033377
 20
-12.28602732697556
 30
0.5640042761142894
 70
    32
1001
ACAD
1000
R13OBJECT
1002
{
1005
41B
1002
}
  0
VERTEX
  5
59D
330
41B
100
AcDbEntity
  8
1_TOP
  6
CONTINUOUS
 62
     7
100
AcDbVertex
100
AcDb3dPolylineVertex
 10
-12.96984360033377
 20
-11.15526012806473
 30
0.5640042761142948
 70
    32
1001
ACAD
1000
R13OBJECT
1002
{
1005
41B
1002
}
  0
VERTEX
  5
59E
330
41B
100
AcDbEntity
  8
1_TOP
  6
CONTINUOUS
 62
     7
100
AcDbVertex
100
AcDb3dPolylineVertex
 10
-12.958692343232
 20
-10.03172211867716
 30
0.4363453571384657
 70
    32
1001
ACAD
1000
R13OBJECT
1002
{
1005
41B
1002
}
  0
SEQEND
  5
59F
330
41B
100
AcDbEntity
  8
1_TOP
  6
CONTINUOUS
 62
     7
  0
POLYLINE
  5
41C
330
9D2
100
AcDbEntity
  8
1_TOP
  6
CONTINUOUS
 62
     7
100
AcDb3dPolyline
 66
     1
 10
0.0
 20
0.0
 30
0.0
 70
     8
  0
VERTEX
  5
5A0
330
41C
100
AcDbEntity
  8
1_TOP
  6
CONTINUOUS
 62
     7
100
AcDbVertex
100
AcDb3dPolylineVertex
 10
-8.848052810080471
 20
-13.97064372752023
 30
0.0
 70
    32
1001
ACAD
1000
R13OBJECT
1002
{
1005
41C
1002
}
  0
VERTEX
  5
5A1
330
41C
100
AcDbEntity
  8
1_TOP
  6
CONTINUOUS
 62
     7
100
AcDbVertex
100
AcDb3dPolylineVertex
 10
-8.826000369366537
 20
-13.96152229166355
 30
0.0
 70
    32
1001
ACAD
1000
R13OBJECT
1002
{
1005
41C
1002
}
  0
VERTEX
  5
5A2
330
41C
100
AcDbEntity
  8
1_TOP
  6
CONTINUOUS
 62
     7
100
AcDbVertex
100
AcDb3dPolylineVertex
 10
-8.816878933509849
 20
-13.9394698509496
 30
0.0
 70
    32
1001
ACAD
1000
R13OBJECT
1002
{
1005
41C
1002
}
  0
SEQEND
  5
5A3
330
41C
100
AcDbEntity
  8
1_TOP
  6
CONTINUOUS
 62
     7
  0
POLYLINE
  5
41D
330
9D2
100
AcDbEntity
  8
1_TOP
  6
CONTINUOUS
 62
     7
100
AcDb3dPolyline
 66
     1
 10
0.0
 20
0.0
 30
0.0
 70
     8
  0
VERTEX
  5
5A4
330
41D
100
AcDbEntity
  8
1_TOP
  6
CONTINUOUS
 62
     7
100
AcDbVertex
100
AcDb3dPolylineVertex
 10
-9.175065523787562
 20
-13.40956533636313
 30
0.4363453571384392
 70
    32
1001
ACAD
1000
R13OBJECT
1002
{
1005
41D
1002
}
  0
VERTEX
  5
5A5
330
41D
100
AcDbEntity
  8
1_TOP
  6
CONTINUOUS
 62
     7
100
AcDbVertex
100
AcDb3dPolylineVertex
 10
-9.163914266685782
 20
-12.28602732697556
 30
0.5640042761142789
 70
    32
1001
ACAD
1000
R13OBJECT
1002
{
1005
41D
1002
}
  0
VERTEX
  5
5A6
330
41D
100
AcDbEntity
  8
1_TOP
  6
CONTINUOUS
 62
     7
100
AcDbVertex
100
AcDb3dPolylineVertex
 10
-9.163914266685782
 20
-11.15526012806473
 30
0.5640042761142841
 70
    32
1001
ACAD
1000
R13OBJECT
1002
{
1005
41D
1002
}
  0
VERTEX
  5
5A7
330
41D
100
AcDbEntity
  8
1_TOP
  6
CONTINUOUS
 62
     7
100
AcDbVertex
100
AcDb3dPolylineVertex
 10
-9.175065523787562
 20
-10.03172211867716
 30
0.4363453571384551
 70
    32
1001
ACAD
1000
R13OBJECT
1002
{
1005
41D
1002
}
  0
SEQEND
  5
5A8
330
41D
100
AcDbEntity
  8
1_TOP
  6
CONTINUOUS
 62
     7
  0
POLYLINE
  5
41E
330
9D2
100
AcDbEntity
  8
1_TOP
  6
CONTINUOUS
 62
     7
100
AcDb3dPolyline
 66
     1
 10
0.0
 20
0.0
 30
0.0
 70
     8
  0
VERTEX
  5
5A9
330
41E
100
AcDbEntity
  8
1_TOP
  6
CONTINUOUS
 62
     7
100
AcDbVertex
100
AcDb3dPolylineVertex
 10
-11.80486308512211
 20
-10.85775112295936
 30
-0.1050439779018514
 70
    32
1001
ACAD
1000
R13OBJECT
1002
{
1005
41E
1002
}
  0
VERTEX
  5
5AA
330
41E
100
AcDbEntity
  8
1_TOP
  6
CONTINUOUS
 62
     7
100
AcDbVertex
100
AcDb3dPolylineVertex
 10
-11.80424665528132
 20
-10.84111707263252
 30
-0.1168061599525848
 70
    32
1001
ACAD
1000
R13OBJECT
1002
{
1005
41E
1002
}
  0
VERTEX
  5
5AB
330
41E
100
AcDbEntity
  8
1_TOP
  6
CONTINUOUS
 62
     7
100
AcDbVertex
100
AcDb3dPolylineVertex
 10
-11.80402914174233
 20
-10.82117178019329
 30
-0.1209565655212927
 70
    32
1001
ACAD
1000
R13OBJECT
1002
{
1005
41E
1002
}
  0
SEQEND
  5
5AC
330
41E
100
AcDbEntity
  8
1_TOP
  6
CONTINUOUS
 62
     7
  0
POLYLINE
  5
41F
330
9D2
100
AcDbEntity
  8
1_TOP
  6
CONTINUOUS
 62
     7
100
AcDb3dPolyline
 66
     1
 10
0.0
 20
0.0
 30
0.0
 70
     8
  0
VERTEX
  5
5AD
330
41F
100
AcDbEntity
  8
1_TOP
  6
CONTINUOUS
 62
     7
100
AcDbVertex
100
AcDb3dPolylineVertex
 10
-11.59889478189736
 20
-10.85775112295926
 30
-0.1050439779018518
 70
    32
1001
ACAD
1000
R13OBJECT
1002
{
1005
41F
1002
}
  0
VERTEX
  5
5AE
330
41F
100
AcDbEntity
  8
1_TOP
  6
CONTINUOUS
 62
     7
100
AcDbVertex
100
AcDb3dPolylineVertex
 10
-11.59951121173816
 20
-10.84111707263242
 30
-0.1168061599525864
 70
    32
1001
ACAD
1000
R13OBJECT
1002
{
1005
41F
1002
}
  0
VERTEX
  5
5AF
330
41F
100
AcDbEntity
  8
1_TOP
  6
CONTINUOUS
 62
     7
100
AcDbVertex
100
AcDb3dPolylineVertex
 10
-11.59972872527714
 20
-10.82117178019319
 30
-0.1209565655212948
 70
    32
1001
ACAD
1000
R13OBJECT
1002
{
1005
41F
1002
}
  0
SEQEND
  5
5B0
330
41F
100
AcDbEntity
  8
1_TOP
  6
CONTINUOUS
 62
     7
  0
POLYLINE
  5
420
330
9D2
100
AcDbEntity
  8
1_TOP
  6
CONTINUOUS
 62
     7
100
AcDb3dPolyline
 66
     1
 10
0.0
 20
0.0
 30
0.0
 70
     8
  0
VERTEX
  5
5B1
330
420
100
AcDbEntity
  8
1_TOP
  6
CONTINUOUS
 62
     7
100
AcDbVertex
100
AcDb3dPolylineVertex
 10
-11.59889478189736
 20
-10.85775112295928
 30
-0.1050439779018506
 70
    32
1001
ACAD
1000
R13OBJECT
1002
{
1005
420
1002
}
  0
VERTEX
  5
5B2
330
420
100
AcDbEntity
  8
1_TOP
  6
CONTINUOUS
 62
     7
100
AcDbVertex
100
AcDb3dPolylineVertex
 10
-11.59883313891328
 20
-10.85941452799197
 30
-0.1038677596967775
 70
    32
1001
ACAD
1000
R13OBJECT
1002
{
1005
420
1002
}
  0
VERTEX
  5
5B3
330
420
100
AcDbEntity
  8
1_TOP
  6
CONTINUOUS
 62
     7
100
AcDbVertex
100
AcDb3dPolylineVertex
 10
-11.5988113875594
 20
-10.86140905723588
 30
-0.1034527191399068
 70
    32
1001
ACAD
1000
R13OBJECT
1002
{
1005
420
1002
}
  0
SEQEND
  5
5B4
330
420
100
AcDbEntity
  8
1_TOP
  6
CONTINUOUS
 62
     7
  0
POLYLINE
  5
421
330
9D2
100
AcDbEntity
  8
1_TOP
  6
CONTINUOUS
 62
     7
100
AcDb3dPolyline
 66
     1
 10
0.0
 20
0.0
 30
0.0
 70
     8
  0
VERTEX
  5
5B5
330
421
100
AcDbEntity
  8
1_TOP
  6
CONTINUOUS
 62
     7
100
AcDbVertex
100
AcDb3dPolylineVertex
 10
-12.4398630851221
 20
-10.85775112295928
 30
-0.1050439779018489
 70
    32
1001
ACAD
1000
R13OBJECT
1002
{
1005
421
1002
}
  0
VERTEX
  5
5B6
330
421
100
AcDbEntity
  8
1_TOP
  6
CONTINUOUS
 62
     7
100
AcDbVertex
100
AcDb3dPolylineVertex
 10
-12.43992472810618
 20
-10.85941452799197
 30
-0.1038677596967759
 70
    32
1001
ACAD
1000
R13OBJECT
1002
{
1005
421
1002
}
  0
VERTEX
  5
5B7
330
421
100
AcDbEntity
  8
1_TOP
  6
CONTINUOUS
 62
     7
100
AcDbVertex
100
AcDb3dPolylineVertex
 10
-12.43994647946008
 20
-10.86140905723588
 30
-0.1034527191399052
 70
    32
1001
ACAD
1000
R13OBJECT
1002
{
1005
421
1002
}
  0
SEQEND
  5
5B8
330
421
100
AcDbEntity
  8
1_TOP
  6
CONTINUOUS
 62
     7
  0
POLYLINE
  5
422
330
9D2
100
AcDbEntity
  8
1_TOP
  6
CONTINUOUS
 62
     7
100
AcDb3dPolyline
 66
     1
 10
0.0
 20
0.0
 30
0.0
 70
     8
  0
VERTEX
  5
5B9
330
422
100
AcDbEntity
  8
1_TOP
  6
CONTINUOUS
 62
     7
100
AcDbVertex
100
AcDb3dPolylineVertex
 10
-12.4398630851221
 20
-10.85775112295936
 30
-0.1050439779018509
 70
    32
1001
ACAD
1000
R13OBJECT
1002
{
1005
422
1002
}
  0
VERTEX
  5
5BA
330
422
100
AcDbEntity
  8
1_TOP
  6
CONTINUOUS
 62
     7
100
AcDbVertex
100
AcDb3dPolylineVertex
 10
-12.43924665528131
 20
-10.84111707263252
 30
-0.1168061599525842
 70
    32
1001
ACAD
1000
R13OBJECT
1002
{
1005
422
1002
}
  0
VERTEX
  5
5BB
330
422
100
AcDbEntity
  8
1_TOP
  6
CONTINUOUS
 62
     7
100
AcDbVertex
100
AcDb3dPolylineVertex
 10
-12.43902914174233
 20
-10.82117178019329
 30
-0.1209565655212921
 70
    32
1001
ACAD
1000
R13OBJECT
1002
{
1005
422
1002
}
  0
SEQEND
  5
5BC
330
422
100
AcDbEntity
  8
1_TOP
  6
CONTINUOUS
 62
     7
  0
POLYLINE
  5
423
330
9D2
100
AcDbEntity
  8
1_TOP
  6
CONTINUOUS
 62
     7
100
AcDb3dPolyline
 66
     1
 10
0.0
 20
0.0
 30
0.0
 70
     8
  0
VERTEX
  5
5BD
330
423
100
AcDbEntity
  8
1_TOP
  6
CONTINUOUS
 62
     7
100
AcDbVertex
100
AcDb3dPolylineVertex
 10
-12.23389478189736
 20
-10.85775112295926
 30
-0.1050439779018507
 70
    32
1001
ACAD
1000
R13OBJECT
1002
{
1005
423
1002
}
  0
VERTEX
  5
5BE
330
423
100
AcDbEntity
  8
1_TOP
  6
CONTINUOUS
 62
     7
100
AcDbVertex
100
AcDb3dPolylineVertex
 10
-12.23451121173817
 20
-10.84111707263242
 30
-0.1168061599525853
 70
    32
1001
ACAD
1000
R13OBJECT
1002
{
1005
423
1002
}
  0
VERTEX
  5
5BF
330
423
100
AcDbEntity
  8
1_TOP
  6
CONTINUOUS
 62
     7
100
AcDbVertex
100
AcDb3dPolylineVertex
 10
-12.23472872527715
 20
-10.82117178019319
 30
-0.1209565655212938
 70
    32
1001
ACAD
1000
R13OBJECT
1002
{
1005
423
1002
}
  0
SEQEND
  5
5C0
330
423
100
AcDbEntity
  8
1_TOP
  6
CONTINUOUS
 62
     7
  0
POLYLINE
  5
424
330
9D2
100
AcDbEntity
  8
1_TOP
  6
CONTINUOUS
 62
     7
100
AcDb3dPolyline
 66
     1
 10
0.0
 20
0.0
 30
0.0
 70
     8
  0
VERTEX
  5
5C1
330
424
100
AcDbEntity
  8
1_TOP
  6
CONTINUOUS
 62
     7
100
AcDbVertex
100
AcDb3dPolylineVertex
 10
-12.23389478189736
 20
-10.85775112295928
 30
-0.1050439779018506
 70
    32
1001
ACAD
1000
R13OBJECT
1002
{
1005
424
1002
}
  0
VERTEX
  5
5C2
330
424
100
AcDbEntity
  8
1_TOP
  6
CONTINUOUS
 62
     7
100
AcDbVertex
100
AcDb3dPolylineVertex
 10
-12.23383313891329
 20
-10.85941452799197
 30
-0.1038677596967776
 70
    32
1001
ACAD
1000
R13OBJECT
1002
{
1005
424
1002
}
  0
VERTEX
  5
5C3
330
424
100
AcDbEntity
  8
1_TOP
  6
CONTINUOUS
 62
     7
100
AcDbVertex
100
AcDb3dPolylineVertex
 10
-12.23381138755939
 20
-10.86140905723588
 30
-0.1034527191399069
 70
    32
1001
ACAD
1000
R13OBJECT
1002
{
1005
424
1002
}
  0
SEQEND
  5
5C4
330
424
100
AcDbEntity
  8
1_TOP
  6
CONTINUOUS
 62
     7
  0
POLYLINE
  5
425
330
9D2
100
AcDbEntity
  8
1_TOP
  6
CONTINUOUS
 62
     7
100
AcDb3dPolyline
 66
     1
 10
0.0
 20
0.0
 30
0.0
 70
     8
  0
VERTEX
  5
5C5
330
425
100
AcDbEntity
  8
1_TOP
  6
CONTINUOUS
 62
     7
100
AcDbVertex
100
AcDb3dPolylineVertex
 10
-11.80486308512211
 20
-10.85775112295928
 30
-0.1050439779018495
 70
    32
1001
ACAD
1000
R13OBJECT
1002
{
1005
425
1002
}
  0
VERTEX
  5
5C6
330
425
100
AcDbEntity
  8
1_TOP
  6
CONTINUOUS
 62
     7
100
AcDbVertex
100
AcDb3dPolylineVertex
 10
-11.80492472810619
 20
-10.85941452799197
 30
-0.1038677596967764
 70
    32
1001
ACAD
1000
R13OBJECT
1002
{
1005
425
1002
}
  0
VERTEX
  5
5C7
330
425
100
AcDbEntity
  8
1_TOP
  6
CONTINUOUS
 62
     7
100
AcDbVertex
100
AcDb3dPolylineVertex
 10
-11.80494647946009
 20
-10.86140905723588
 30
-0.1034527191399057
 70
    32
1001
ACAD
1000
R13OBJECT
1002
{
1005
425
1002
}
  0
SEQEND
  5
5C8
330
425
100
AcDbEntity
  8
1_TOP
  6
CONTINUOUS
 62
     7
  0
POLYLINE
  5
426
330
9D2
100
AcDbEntity
  8
1_TOP
  6
CONTINUOUS
 62
     7
100
AcDb3dPolyline
 66
     1
 10
0.0
 20
0.0
 30
0.0
 70
     8
  0
VERTEX
  5
5C9
330
426
100
AcDbEntity
  8
1_TOP
  6
CONTINUOUS
 62
     7
100
AcDbVertex
100
AcDb3dPolylineVertex
 10
-11.16986308512212
 20
-10.85775112295928
 30
-0.1050439779018496
 70
    32
1001
ACAD
1000
R13OBJECT
1002
{
1005
426
1002
}
  0
VERTEX
  5
5CA
330
426
100
AcDbEntity
  8
1_TOP
  6
CONTINUOUS
 62
     7
100
AcDbVertex
100
AcDb3dPolylineVertex
 10
-11.16992472810621
 20
-10.85941452799197
 30
-0.1038677596967765
 70
    32
1001
ACAD
1000
R13OBJECT
1002
{
1005
426
1002
}
  0
VERTEX
  5
5CB
330
426
100
AcDbEntity
  8
1_TOP
  6
CONTINUOUS
 62
     7
100
AcDbVertex
100
AcDb3dPolylineVertex
 10
-11.1699464794601
 20
-10.86140905723588
 30
-0.1034527191399058
 70
    32
1001
ACAD
1000
R13OBJECT
1002
{
1005
426
1002
}
  0
SEQEND
  5
5CC
330
426
100
AcDbEntity
  8
1_TOP
  6
CONTINUOUS
 62
     7
  0
POLYLINE
  5
427
330
9D2
100
AcDbEntity
  8
1_TOP
  6
CONTINUOUS
 62
     7
100
AcDb3dPolyline
 66
     1
 10
0.0
 20
0.0
 30
0.0
 70
     8
  0
VERTEX
  5
5CD
330
427
100
AcDbEntity
  8
1_TOP
  6
CONTINUOUS
 62
     7
100
AcDbVertex
100
AcDb3dPolylineVertex
 10
-10.96389478189738
 20
-10.85775112295926
 30
-0.1050439779018512
 70
    32
1001
ACAD
1000
R13OBJECT
1002
{
1005
427
1002
}
  0
VERTEX
  5
5CE
330
427
100
AcDbEntity
  8
1_TOP
  6
CONTINUOUS
 62
     7
100
AcDbVertex
100
AcDb3dPolylineVertex
 10
-10.96451121173818
 20
-10.84111707263242
 30
-0.1168061599525858
 70
    32
1001
ACAD
1000
R13OBJECT
1002
{
1005
427
1002
}
  0
VERTEX
  5
5CF
330
427
100
AcDbEntity
  8
1_TOP
  6
CONTINUOUS
 62
     7
100
AcDbVertex
100
AcDb3dPolylineVertex
 10
-10.96472872527716
 20
-10.82117178019319
 30
-0.1209565655212942
 70
    32
1001
ACAD
1000
R13OBJECT
1002
{
1005
427
1002
}
  0
SEQEND
  5
5D0
330
427
100
AcDbEntity
  8
1_TOP
  6
CONTINUOUS
 62
     7
  0
POLYLINE
  5
428
330
9D2
100
AcDbEntity
  8
1_TOP
  6
CONTINUOUS
 62
     7
100
AcDb3dPolyline
 66
     1
 10
0.0
 20
0.0
 30
0.0
 70
     8
  0
VERTEX
  5
5D1
330
428
100
AcDbEntity
  8
1_TOP
  6
CONTINUOUS
 62
     7
100
AcDbVertex
100
AcDb3dPolylineVertex
 10
-10.96389478189738
 20
-10.85775112295928
 30
-0.1050439779018509
 70
    32
1001
ACAD
1000
R13OBJECT
1002
{
1005
428
1002
}
  0
VERTEX
  5
5D2
330
428
100
AcDbEntity
  8
1_TOP
  6
CONTINUOUS
 62
     7
100
AcDbVertex
100
AcDb3dPolylineVertex
 10
-10.96383313891331
 20
-10.85941452799197
 30
-0.1038677596967778
 70
    32
1001
ACAD
1000
R13OBJECT
1002
{
1005
428
1002
}
  0
VERTEX
  5
5D3
330
428
100
AcDbEntity
  8
1_TOP
  6
CONTINUOUS
 62
     7
100
AcDbVertex
100
AcDb3dPolylineVertex
 10
-10.9638113875594
 20
-10.86140905723588
 30
-0.1034527191399071
 70
    32
1001
ACAD
1000
R13OBJECT
1002
{
1005
428
1002
}
  0
SEQEND
  5
5D4
330
428
100
AcDbEntity
  8
1_TOP
  6
CONTINUOUS
 62
     7
  0
POLYLINE
  5
429
330
9D2
100
AcDbEntity
  8
1_TOP
  6
CONTINUOUS
 62
     7
100
AcDb3dPolyline
 66
     1
 10
0.0
 20
0.0
 30
0.0
 70
     8
  0
VERTEX
  5
5D5
330
429
100
AcDbEntity
  8
1_TOP
  6
CONTINUOUS
 62
     7
100
AcDbVertex
100
AcDb3dPolylineVertex
 10
-11.16986308512212
 20
-10.85775112295936
 30
-0.1050439779018516
 70
    32
1001
ACAD
1000
R13OBJECT
1002
{
1005
429
1002
}
  0
VERTEX
  5
5D6
330
429
100
AcDbEntity
  8
1_TOP
  6
CONTINUOUS
 62
     7
100
AcDbVertex
100
AcDb3dPolylineVertex
 10
-11.16924665528132
 20
-10.84111707263252
 30
-0.1168061599525849
 70
    32
1001
ACAD
1000
R13OBJECT
1002
{
1005
429
1002
}
  0
VERTEX
  5
5D7
330
429
100
AcDbEntity
  8
1_TOP
  6
CONTINUOUS
 62
     7
100
AcDbVertex
100
AcDb3dPolylineVertex
 10
-11.16902914174235
 20
-10.82117178019329
 30
-0.1209565655212929
 70
    32
1001
ACAD
1000
R13OBJECT
1002
{
1005
429
1002
}
  0
SEQEND
  5
5D8
330
429
100
AcDbEntity
  8
1_TOP
  6
CONTINUOUS
 62
     7
  0
POLYLINE
  5
42A
330
9D2
100
AcDbEntity
  8
1_TOP
  6
CONTINUOUS
 62
     7
100
AcDb3dPolyline
 66
     1
 10
0.0
 20
0.0
 30
0.0
 70
     8
  0
VERTEX
  5
5D9
330
42A
100
AcDbEntity
  8
1_TOP
  6
CONTINUOUS
 62
     7
100
AcDbVertex
100
AcDb3dPolylineVertex
 10
-10.32889478189739
 20
-10.85775112295926
 30
-0.1050439779018512
 70
    32
1001
ACAD
1000
R13OBJECT
1002
{
1005
42A
1002
}
  0
VERTEX
  5
5DA
330
42A
100
AcDbEntity
  8
1_TOP
  6
CONTINUOUS
 62
     7
100
AcDbVertex
100
AcDb3dPolylineVertex
 10
-10.32951121173819
 20
-10.84111707263242
 30
-0.1168061599525858
 70
    32
1001
ACAD
1000
R13OBJECT
1002
{
1005
42A
1002
}
  0
VERTEX
  5
5DB
330
42A
100
AcDbEntity
  8
1_TOP
  6
CONTINUOUS
 62
     7
100
AcDbVertex
100
AcDb3dPolylineVertex
 10
-10.32972872527718
 20
-10.82117178019319
 30
-0.1209565655212942
 70
    32
1001
ACAD
1000
R13OBJECT
1002
{
1005
42A
1002
}
  0
SEQEND
  5
5DC
330
42A
100
AcDbEntity
  8
1_TOP
  6
CONTINUOUS
 62
     7
  0
POLYLINE
  5
42B
330
9D2
100
AcDbEntity
  8
1_TOP
  6
CONTINUOUS
 62
     7
100
AcDb3dPolyline
 66
     1
 10
0.0
 20
0.0
 30
0.0
 70
     8
  0
VERTEX
  5
5DD
330
42B
100
AcDbEntity
  8
1_TOP
  6
CONTINUOUS
 62
     7
100
AcDbVertex
100
AcDb3dPolylineVertex
 10
-10.53486308512215
 20
-10.85775112295936
 30
-0.1050439779018522
 70
    32
1001
ACAD
1000
R13OBJECT
1002
{
1005
42B
1002
}
  0
VERTEX
  5
5DE
330
42B
100
AcDbEntity
  8
1_TOP
  6
CONTINUOUS
 62
     7
100
AcDbVertex
100
AcDb3dPolylineVertex
 10
-10.53424665528134
 20
-10.84111707263252
 30
-0.1168061599525855
 70
    32
1001
ACAD
1000
R13OBJECT
1002
{
1005
42B
1002
}
  0
VERTEX
  5
5DF
330
42B
100
AcDbEntity
  8
1_TOP
  6
CONTINUOUS
 62
     7
100
AcDbVertex
100
AcDb3dPolylineVertex
 10
-10.53402914174235
 20
-10.82117178019329
 30
-0.1209565655212935
 70
    32
1001
ACAD
1000
R13OBJECT
1002
{
1005
42B
1002
}
  0
SEQEND
  5
5E0
330
42B
100
AcDbEntity
  8
1_TOP
  6
CONTINUOUS
 62
     7
  0
POLYLINE
  5
42C
330
9D2
100
AcDbEntity
  8
1_TOP
  6
CONTINUOUS
 62
     7
100
AcDb3dPolyline
 66
     1
 10
0.0
 20
0.0
 30
0.0
 70
     8
  0
VERTEX
  5
5E1
330
42C
100
AcDbEntity
  8
1_TOP
  6
CONTINUOUS
 62
     7
100
AcDbVertex
100
AcDb3dPolylineVertex
 10
-10.53486308512215
 20
-10.85775112295928
 30
-0.1050439779018492
 70
    32
1001
ACAD
1000
R13OBJECT
1002
{
1005
42C
1002
}
  0
VERTEX
  5
5E2
330
42C
100
AcDbEntity
  8
1_TOP
  6
CONTINUOUS
 62
     7
100
AcDbVertex
100
AcDb3dPolylineVertex
 10
-10.53492472810622
 20
-10.85941452799197
 30
-0.1038677596967762
 70
    32
1001
ACAD
1000
R13OBJECT
1002
{
1005
42C
1002
}
  0
VERTEX
  5
5E3
330
42C
100
AcDbEntity
  8
1_TOP
  6
CONTINUOUS
 62
     7
100
AcDbVertex
100
AcDb3dPolylineVertex
 10
-10.53494647946011
 20
-10.86140905723588
 30
-0.1034527191399055
 70
    32
1001
ACAD
1000
R13OBJECT
1002
{
1005
42C
1002
}
  0
SEQEND
  5
5E4
330
42C
100
AcDbEntity
  8
1_TOP
  6
CONTINUOUS
 62
     7
  0
POLYLINE
  5
42D
330
9D2
100
AcDbEntity
  8
1_TOP
  6
CONTINUOUS
 62
     7
100
AcDb3dPolyline
 66
     1
 10
0.0
 20
0.0
 30
0.0
 70
     8
  0
VERTEX
  5
5E5
330
42D
100
AcDbEntity
  8
1_TOP
  6
CONTINUOUS
 62
     7
100
AcDbVertex
100
AcDb3dPolylineVertex
 10
-9.693894781897412
 20
-10.85775112295928
 30
-0.1050439779018494
 70
    32
1001
ACAD
1000
R13OBJECT
1002
{
1005
42D
1002
}
  0
VERTEX
  5
5E6
330
42D
100
AcDbEntity
  8
1_TOP
  6
CONTINUOUS
 62
     7
100
AcDbVertex
100
AcDb3dPolylineVertex
 10
-9.69383313891333
 20
-10.85941452799197
 30
-0.1038677596967763
 70
    32
1001
ACAD
1000
R13OBJECT
1002
{
1005
42D
1002
}
  0
VERTEX
  5
5E7
330
42D
100
AcDbEntity
  8
1_TOP
  6
CONTINUOUS
 62
     7
100
AcDbVertex
100
AcDb3dPolylineVertex
 10
-9.693811387559431
 20
-10.86140905723588
 30
-0.1034527191399057
 70
    32
1001
ACAD
1000
R13OBJECT
1002
{
1005
42D
1002
}
  0
SEQEND
  5
5E8
330
42D
100
AcDbEntity
  8
1_TOP
  6
CONTINUOUS
 62
     7
  0
POLYLINE
  5
42E
330
9D2
100
AcDbEntity
  8
1_TOP
  6
CONTINUOUS
 62
     7
100
AcDb3dPolyline
 66
     1
 10
0.0
 20
0.0
 30
0.0
 70
     8
  0
VERTEX
  5
5E9
330
42E
100
AcDbEntity
  8
1_TOP
  6
CONTINUOUS
 62
     7
100
AcDbVertex
100
AcDb3dPolylineVertex
 10
-9.693894781897412
 20
-10.85775112295926
 30
-0.1050439779018496
 70
    32
1001
ACAD
1000
R13OBJECT
1002
{
1005
42E
1002
}
  0
VERTEX
  5
5EA
330
42E
100
AcDbEntity
  8
1_TOP
  6
CONTINUOUS
 62
     7
100
AcDbVertex
100
AcDb3dPolylineVertex
 10
-9.694511211738213
 20
-10.84111707263242
 30
-0.1168061599525842
 70
    32
1001
ACAD
1000
R13OBJECT
1002
{
1005
42E
1002
}
  0
VERTEX
  5
5EB
330
42E
100
AcDbEntity
  8
1_TOP
  6
CONTINUOUS
 62
     7
100
AcDbVertex
100
AcDb3dPolylineVertex
 10
-9.694728725277194
 20
-10.82117178019319
 30
-0.1209565655212927
 70
    32
1001
ACAD
1000
R13OBJECT
1002
{
1005
42E
1002
}
  0
SEQEND
  5
5EC
330
42E
100
AcDbEntity
  8
1_TOP
  6
CONTINUOUS
 62
     7
  0
POLYLINE
  5
42F
330
9D2
100
AcDbEntity
  8
1_TOP
  6
CONTINUOUS
 62
     7
100
AcDb3dPolyline
 66
     1
 10
0.0
 20
0.0
 30
0.0
 70
     8
  0
VERTEX
  5
5ED
330
42F
100
AcDbEntity
  8
1_TOP
  6
CONTINUOUS
 62
     7
100
AcDbVertex
100
AcDb3dPolylineVertex
 10
-9.899863085122152
 20
-10.85775112295926
 30
-0.1050439779018505
 70
    32
1001
ACAD
1000
R13OBJECT
1002
{
1005
42F
1002
}
  0
VERTEX
  5
5EE
330
42F
100
AcDbEntity
  8
1_TOP
  6
CONTINUOUS
 62
     7
100
AcDbVertex
100
AcDb3dPolylineVertex
 10
-9.899246655281348
 20
-10.84111707263242
 30
-0.1168061599525851
 70
    32
1001
ACAD
1000
R13OBJECT
1002
{
1005
42F
1002
}
  0
VERTEX
  5
5EF
330
42F
100
AcDbEntity
  8
1_TOP
  6
CONTINUOUS
 62
     7
100
AcDbVertex
100
AcDb3dPolylineVertex
 10
-9.899029141742373
 20
-10.82117178019319
 30
-0.1209565655212935
 70
    32
1001
ACAD
1000
R13OBJECT
1002
{
1005
42F
1002
}
  0
SEQEND
  5
5F0
330
42F
100
AcDbEntity
  8
1_TOP
  6
CONTINUOUS
 62
     7
  0
POLYLINE
  5
430
330
9D2
100
AcDbEntity
  8
1_TOP
  6
CONTINUOUS
 62
     7
100
AcDb3dPolyline
 66
     1
 10
0.0
 20
0.0
 30
0.0
 70
     8
  0
VERTEX
  5
5F1
330
430
100
AcDbEntity
  8
1_TOP
  6
CONTINUOUS
 62
     7
100
AcDbVertex
100
AcDb3dPolylineVertex
 10
-9.899863085122152
 20
-10.85775112295928
 30
-0.1050439779018496
 70
    32
1001
ACAD
1000
R13OBJECT
1002
{
1005
430
1002
}
  0
VERTEX
  5
5F2
330
430
100
AcDbEntity
  8
1_TOP
  6
CONTINUOUS
 62
     7
100
AcDbVertex
100
AcDb3dPolylineVertex
 10
-9.899924728106233
 20
-10.85941452799197
 30
-0.1038677596967765
 70
    32
1001
ACAD
1000
R13OBJECT
1002
{
1005
430
1002
}
  0
VERTEX
  5
5F3
330
430
100
AcDbEntity
  8
1_TOP
  6
CONTINUOUS
 62
     7
100
AcDbVertex
100
AcDb3dPolylineVertex
 10
-9.89994647946013
 20
-10.86140905723588
 30
-0.1034527191399058
 70
    32
1001
ACAD
1000
R13OBJECT
1002
{
1005
430
1002
}
  0
SEQEND
  5
5F4
330
430
100
AcDbEntity
  8
1_TOP
  6
CONTINUOUS
 62
     7
  0
POLYLINE
  5
431
330
9D2
100
AcDbEntity
  8
1_TOP
  6
CONTINUOUS
 62
     7
100
AcDb3dPolyline
 66
     1
 10
0.0
 20
0.0
 30
0.0
 70
     8
  0
VERTEX
  5
5F5
330
431
100
AcDbEntity
  8
1_TOP
  6
CONTINUOUS
 62
     7
100
AcDbVertex
100
AcDb3dPolylineVertex
 10
-10.32889478189739
 20
-10.85775112295928
 30
-0.105043977901851
 70
    32
1001
ACAD
1000
R13OBJECT
1002
{
1005
431
1002
}
  0
VERTEX
  5
5F6
330
431
100
AcDbEntity
  8
1_TOP
  6
CONTINUOUS
 62
     7
100
AcDbVertex
100
AcDb3dPolylineVertex
 10
-10.32883313891331
 20
-10.85941452799197
 30
-0.1038677596967779
 70
    32
1001
ACAD
1000
R13OBJECT
1002
{
1005
431
1002
}
  0
VERTEX
  5
5F7
330
431
100
AcDbEntity
  8
1_TOP
  6
CONTINUOUS
 62
     7
100
AcDbVertex
100
AcDb3dPolylineVertex
 10
-10.32881138755942
 20
-10.86140905723588
 30
-0.1034527191399072
 70
    32
1001
ACAD
1000
R13OBJECT
1002
{
1005
431
1002
}
  0
SEQEND
  5
5F8
330
431
100
AcDbEntity
  8
1_TOP
  6
CONTINUOUS
 62
     7
  0
POLYLINE
  5
432
330
9D2
100
AcDbEntity
  8
1_TOP
  6
CONTINUOUS
 62
     7
100
AcDb3dPolyline
 66
     1
 10
0.0
 20
0.0
 30
0.0
 70
     8
  0
VERTEX
  5
5F9
330
432
100
AcDbEntity
  8
1_TOP
  6
CONTINUOUS
 62
     7
100
AcDbVertex
100
AcDb3dPolylineVertex
 10
-11.16986308512212
 20
-12.00821573424089
 30
-0.1050439779018496
 70
    32
1001
ACAD
1000
R13OBJECT
1002
{
1005
432
1002
}
  0
VERTEX
  5
5FA
330
432
100
AcDbEntity
  8
1_TOP
  6
CONTINUOUS
 62
     7
100
AcDbVertex
100
AcDb3dPolylineVertex
 10
-11.16992472810621
 20
-12.00987913927358
 30
-0.1038677596967765
 70
    32
1001
ACAD
1000
R13OBJECT
1002
{
1005
432
1002
}
  0
VERTEX
  5
5FB
330
432
100
AcDbEntity
  8
1_TOP
  6
CONTINUOUS
 62
     7
100
AcDbVertex
100
AcDb3dPolylineVertex
 10
-11.1699464794601
 20
-12.01187366851749
 30
-0.1034527191399058
 70
    32
1001
ACAD
1000
R13OBJECT
1002
{
1005
432
1002
}
  0
SEQEND
  5
5FC
330
432
100
AcDbEntity
  8
1_TOP
  6
CONTINUOUS
 62
     7
  0
POLYLINE
  5
433
330
9D2
100
AcDbEntity
  8
1_TOP
  6
CONTINUOUS
 62
     7
100
AcDb3dPolyline
 66
     1
 10
0.0
 20
0.0
 30
0.0
 70
     8
  0
VERTEX
  5
5FD
330
433
100
AcDbEntity
  8
1_TOP
  6
CONTINUOUS
 62
     7
100
AcDbVertex
100
AcDb3dPolylineVertex
 10
-10.96389478189738
 20
-12.00821573424087
 30
-0.1050439779018502
 70
    32
1001
ACAD
1000
R13OBJECT
1002
{
1005
433
1002
}
  0
VERTEX
  5
5FE
330
433
100
AcDbEntity
  8
1_TOP
  6
CONTINUOUS
 62
     7
100
AcDbVertex
100
AcDb3dPolylineVertex
 10
-10.96451121173818
 20
-11.991581683914
 30
-0.1168061599525848
 70
    32
1001
ACAD
1000
R13OBJECT
1002
{
1005
433
1002
}
  0
VERTEX
  5
5FF
330
433
100
AcDbEntity
  8
1_TOP
  6
CONTINUOUS
 62
     7
100
AcDbVertex
100
AcDb3dPolylineVertex
 10
-10.96472872527716
 20
-11.97163639147478
 30
-0.1209565655212932
 70
    32
1001
ACAD
1000
R13OBJECT
1002
{
1005
433
1002
}
  0
SEQEND
  5
600
330
433
100
AcDbEntity
  8
1_TOP
  6
CONTINUOUS
 62
     7
  0
POLYLINE
  5
434
330
9D2
100
AcDbEntity
  8
1_TOP
  6
CONTINUOUS
 62
     7
100
AcDb3dPolyline
 66
     1
 10
0.0
 20
0.0
 30
0.0
 70
     8
  0
VERTEX
  5
601
330
434
100
AcDbEntity
  8
1_TOP
  6
CONTINUOUS
 62
     7
100
AcDbVertex
100
AcDb3dPolylineVertex
 10
-10.96389478189738
 20
-12.00821573424089
 30
-0.1050439779018499
 70
    32
1001
ACAD
1000
R13OBJECT
1002
{
1005
434
1002
}
  0
VERTEX
  5
602
330
434
100
AcDbEntity
  8
1_TOP
  6
CONTINUOUS
 62
     7
100
AcDbVertex
100
AcDb3dPolylineVertex
 10
-10.96383313891329
 20
-12.00987913927358
 30
-0.1038677596967768
 70
    32
1001
ACAD
1000
R13OBJECT
1002
{
1005
434
1002
}
  0
VERTEX
  5
603
330
434
100
AcDbEntity
  8
1_TOP
  6
CONTINUOUS
 62
     7
100
AcDbVertex
100
AcDb3dPolylineVertex
 10
-10.9638113875594
 20
-12.01187366851749
 30
-0.1034527191399061
 70
    32
1001
ACAD
1000
R13OBJECT
1002
{
1005
434
1002
}
  0
SEQEND
  5
604
330
434
100
AcDbEntity
  8
1_TOP
  6
CONTINUOUS
 62
     7
  0
POLYLINE
  5
435
330
9D2
100
AcDbEntity
  8
1_TOP
  6
CONTINUOUS
 62
     7
100
AcDb3dPolyline
 66
     1
 10
0.0
 20
0.0
 30
0.0
 70
     8
  0
VERTEX
  5
605
330
435
100
AcDbEntity
  8
1_TOP
  6
CONTINUOUS
 62
     7
100
AcDbVertex
100
AcDb3dPolylineVertex
 10
-11.16986308512212
 20
-12.00821573424087
 30
-0.1050439779018488
 70
    32
1001
ACAD
1000
R13OBJECT
1002
{
1005
435
1002
}
  0
VERTEX
  5
606
330
435
100
AcDbEntity
  8
1_TOP
  6
CONTINUOUS
 62
     7
100
AcDbVertex
100
AcDb3dPolylineVertex
 10
-11.16924665528132
 20
-11.991581683914
 30
-0.1168061599525834
 70
    32
1001
ACAD
1000
R13OBJECT
1002
{
1005
435
1002
}
  0
VERTEX
  5
607
330
435
100
AcDbEntity
  8
1_TOP
  6
CONTINUOUS
 62
     7
100
AcDbVertex
100
AcDb3dPolylineVertex
 10
-11.16902914174235
 20
-11.97163639147478
 30
-0.1209565655212919
 70
    32
1001
ACAD
1000
R13OBJECT
1002
{
1005
435
1002
}
  0
SEQEND
  5
608
330
435
100
AcDbEntity
  8
1_TOP
  6
CONTINUOUS
 62
     7
  0
POLYLINE
  5
436
330
9D2
100
AcDbEntity
  8
1_TOP
  6
CONTINUOUS
 62
     7
100
AcDb3dPolyline
 66
     1
 10
0.0
 20
0.0
 30
0.0
 70
     8
  0
VERTEX
  5
609
330
436
100
AcDbEntity
  8
1_TOP
  6
CONTINUOUS
 62
     7
100
AcDbVertex
100
AcDb3dPolylineVertex
 10
-11.80486308512211
 20
-12.00821573424087
 30
-0.1050439779018492
 70
    32
1001
ACAD
1000
R13OBJECT
1002
{
1005
436
1002
}
  0
VERTEX
  5
60A
330
436
100
AcDbEntity
  8
1_TOP
  6
CONTINUOUS
 62
     7
100
AcDbVertex
100
AcDb3dPolylineVertex
 10
-11.80424665528132
 20
-11.991581683914
 30
-0.1168061599525838
 70
    32
1001
ACAD
1000
R13OBJECT
1002
{
1005
436
1002
}
  0
VERTEX
  5
60B
330
436
100
AcDbEntity
  8
1_TOP
  6
CONTINUOUS
 62
     7
100
AcDbVertex
100
AcDb3dPolylineVertex
 10
-11.80402914174233
 20
-11.97163639147478
 30
-0.1209565655212922
 70
    32
1001
ACAD
1000
R13OBJECT
1002
{
1005
436
1002
}
  0
SEQEND
  5
60C
330
436
100
AcDbEntity
  8
1_TOP
  6
CONTINUOUS
 62
     7
  0
POLYLINE
  5
437
330
9D2
100
AcDbEntity
  8
1_TOP
  6
CONTINUOUS
 62
     7
100
AcDb3dPolyline
 66
     1
 10
0.0
 20
0.0
 30
0.0
 70
     8
  0
VERTEX
  5
60D
330
437
100
AcDbEntity
  8
1_TOP
  6
CONTINUOUS
 62
     7
100
AcDbVertex
100
AcDb3dPolylineVertex
 10
-11.59889478189737
 20
-12.00821573424087
 30
-0.1050439779018493
 70
    32
1001
ACAD
1000
R13OBJECT
1002
{
1005
437
1002
}
  0
VERTEX
  5
60E
330
437
100
AcDbEntity
  8
1_TOP
  6
CONTINUOUS
 62
     7
100
AcDbVertex
100
AcDb3dPolylineVertex
 10
-11.59951121173817
 20
-11.991581683914
 30
-0.1168061599525839
 70
    32
1001
ACAD
1000
R13OBJECT
1002
{
1005
437
1002
}
  0
VERTEX
  5
60F
330
437
100
AcDbEntity
  8
1_TOP
  6
CONTINUOUS
 62
     7
100
AcDbVertex
100
AcDb3dPolylineVertex
 10
-11.59972872527716
 20
-11.97163639147478
 30
-0.1209565655212923
 70
    32
1001
ACAD
1000
R13OBJECT
1002
{
1005
437
1002
}
  0
SEQEND
  5
610
330
437
100
AcDbEntity
  8
1_TOP
  6
CONTINUOUS
 62
     7
  0
POLYLINE
  5
438
330
9D2
100
AcDbEntity
  8
1_TOP
  6
CONTINUOUS
 62
     7
100
AcDb3dPolyline
 66
     1
 10
0.0
 20
0.0
 30
0.0
 70
     8
  0
VERTEX
  5
611
330
438
100
AcDbEntity
  8
1_TOP
  6
CONTINUOUS
 62
     7
100
AcDbVertex
100
AcDb3dPolylineVertex
 10
-11.59889478189736
 20
-12.00821573424079
 30
-0.1050439779018495
 70
    32
1001
ACAD
1000
R13OBJECT
1002
{
1005
438
1002
}
  0
VERTEX
  5
612
330
438
100
AcDbEntity
  8
1_TOP
  6
CONTINUOUS
 62
     7
100
AcDbVertex
100
AcDb3dPolylineVertex
 10
-11.59883313891328
 20
-12.00987913927347
 30
-0.1038677596967765
 70
    32
1001
ACAD
1000
R13OBJECT
1002
{
1005
438
1002
}
  0
VERTEX
  5
613
330
438
100
AcDbEntity
  8
1_TOP
  6
CONTINUOUS
 62
     7
100
AcDbVertex
100
AcDb3dPolylineVertex
 10
-11.59881138755939
 20
-12.0118736685174
 30
-0.1034527191399058
 70
    32
1001
ACAD
1000
R13OBJECT
1002
{
1005
438
1002
}
  0
SEQEND
  5
614
330
438
100
AcDbEntity
  8
1_TOP
  6
CONTINUOUS
 62
     7
  0
POLYLINE
  5
439
330
9D2
100
AcDbEntity
  8
1_TOP
  6
CONTINUOUS
 62
     7
100
AcDb3dPolyline
 66
     1
 10
0.0
 20
0.0
 30
0.0
 70
     8
  0
VERTEX
  5
615
330
439
100
AcDbEntity
  8
1_TOP
  6
CONTINUOUS
 62
     7
100
AcDbVertex
100
AcDb3dPolylineVertex
 10
-12.4398630851221
 20
-12.00821573424089
 30
-0.105043977901848
 70
    32
1001
ACAD
1000
R13OBJECT
1002
{
1005
439
1002
}
  0
VERTEX
  5
616
330
439
100
AcDbEntity
  8
1_TOP
  6
CONTINUOUS
 62
     7
100
AcDbVertex
100
AcDb3dPolylineVertex
 10
-12.43992472810618
 20
-12.00987913927358
 30
-0.1038677596967749
 70
    32
1001
ACAD
1000
R13OBJECT
1002
{
1005
439
1002
}
  0
VERTEX
  5
617
330
439
100
AcDbEntity
  8
1_TOP
  6
CONTINUOUS
 62
     7
100
AcDbVertex
100
AcDb3dPolylineVertex
 10
-12.43994647946008
 20
-12.01187366851749
 30
-0.1034527191399042
 70
    32
1001
ACAD
1000
R13OBJECT
1002
{
1005
439
1002
}
  0
SEQEND
  5
618
330
439
100
AcDbEntity
  8
1_TOP
  6
CONTINUOUS
 62
     7
  0
POLYLINE
  5
43A
330
9D2
100
AcDbEntity
  8
1_TOP
  6
CONTINUOUS
 62
     7
100
AcDb3dPolyline
 66
     1
 10
0.0
 20
0.0
 30
0.0
 70
     8
  0
VERTEX
  5
619
330
43A
100
AcDbEntity
  8
1_TOP
  6
CONTINUOUS
 62
     7
100
AcDbVertex
100
AcDb3dPolylineVertex
 10
-12.4398630851221
 20
-12.00821573424087
 30
-0.1050439779018481
 70
    32
1001
ACAD
1000
R13OBJECT
1002
{
1005
43A
1002
}
  0
VERTEX
  5
61A
330
43A
100
AcDbEntity
  8
1_TOP
  6
CONTINUOUS
 62
     7
100
AcDbVertex
100
AcDb3dPolylineVertex
 10
-12.43924665528131
 20
-11.991581683914
 30
-0.1168061599525827
 70
    32
1001
ACAD
1000
R13OBJECT
1002
{
1005
43A
1002
}
  0
VERTEX
  5
61B
330
43A
100
AcDbEntity
  8
1_TOP
  6
CONTINUOUS
 62
     7
100
AcDbVertex
100
AcDb3dPolylineVertex
 10
-12.43902914174233
 20
-11.97163639147478
 30
-0.1209565655212911
 70
    32
1001
ACAD
1000
R13OBJECT
1002
{
1005
43A
1002
}
  0
SEQEND
  5
61C
330
43A
100
AcDbEntity
  8
1_TOP
  6
CONTINUOUS
 62
     7
  0
POLYLINE
  5
43B
330
9D2
100
AcDbEntity
  8
1_TOP
  6
CONTINUOUS
 62
     7
100
AcDb3dPolyline
 66
     1
 10
0.0
 20
0.0
 30
0.0
 70
     8
  0
VERTEX
  5
61D
330
43B
100
AcDbEntity
  8
1_TOP
  6
CONTINUOUS
 62
     7
100
AcDbVertex
100
AcDb3dPolylineVertex
 10
-12.23389478189735
 20
-12.00821573424087
 30
-0.1050439779018498
 70
    32
1001
ACAD
1000
R13OBJECT
1002
{
1005
43B
1002
}
  0
VERTEX
  5
61E
330
43B
100
AcDbEntity
  8
1_TOP
  6
CONTINUOUS
 62
     7
100
AcDbVertex
100
AcDb3dPolylineVertex
 10
-12.23451121173817
 20
-11.991581683914
 30
-0.1168061599525844
 70
    32
1001
ACAD
1000
R13OBJECT
1002
{
1005
43B
1002
}
  0
VERTEX
  5
61F
330
43B
100
AcDbEntity
  8
1_TOP
  6
CONTINUOUS
 62
     7
100
AcDbVertex
100
AcDb3dPolylineVertex
 10
-12.23472872527715
 20
-11.97163639147478
 30
-0.1209565655212928
 70
    32
1001
ACAD
1000
R13OBJECT
1002
{
1005
43B
1002
}
  0
SEQEND
  5
620
330
43B
100
AcDbEntity
  8
1_TOP
  6
CONTINUOUS
 62
     7
  0
POLYLINE
  5
43C
330
9D2
100
AcDbEntity
  8
1_TOP
  6
CONTINUOUS
 62
     7
100
AcDb3dPolyline
 66
     1
 10
0.0
 20
0.0
 30
0.0
 70
     8
  0
VERTEX
  5
621
330
43C
100
AcDbEntity
  8
1_TOP
  6
CONTINUOUS
 62
     7
100
AcDbVertex
100
AcDb3dPolylineVertex
 10
-12.23389478189735
 20
-12.00821573424079
 30
-0.1050439779018495
 70
    32
1001
ACAD
1000
R13OBJECT
1002
{
1005
43C
1002
}
  0
VERTEX
  5
622
330
43C
100
AcDbEntity
  8
1_TOP
  6
CONTINUOUS
 62
     7
100
AcDbVertex
100
AcDb3dPolylineVertex
 10
-12.23383313891327
 20
-12.00987913927347
 30
-0.1038677596967764
 70
    32
1001
ACAD
1000
R13OBJECT
1002
{
1005
43C
1002
}
  0
VERTEX
  5
623
330
43C
100
AcDbEntity
  8
1_TOP
  6
CONTINUOUS
 62
     7
100
AcDbVertex
100
AcDb3dPolylineVertex
 10
-12.23381138755939
 20
-12.0118736685174
 30
-0.1034527191399057
 70
    32
1001
ACAD
1000
R13OBJECT
1002
{
1005
43C
1002
}
  0
SEQEND
  5
624
330
43C
100
AcDbEntity
  8
1_TOP
  6
CONTINUOUS
 62
     7
  0
POLYLINE
  5
43D
330
9D2
100
AcDbEntity
  8
1_TOP
  6
CONTINUOUS
 62
     7
100
AcDb3dPolyline
 66
     1
 10
0.0
 20
0.0
 30
0.0
 70
     8
  0
VERTEX
  5
625
330
43D
100
AcDbEntity
  8
1_TOP
  6
CONTINUOUS
 62
     7
100
AcDbVertex
100
AcDb3dPolylineVertex
 10
-11.80486308512211
 20
-12.00821573424089
 30
-0.105043977901849
 70
    32
1001
ACAD
1000
R13OBJECT
1002
{
1005
43D
1002
}
  0
VERTEX
  5
626
330
43D
100
AcDbEntity
  8
1_TOP
  6
CONTINUOUS
 62
     7
100
AcDbVertex
100
AcDb3dPolylineVertex
 10
-11.80492472810619
 20
-12.00987913927358
 30
-0.1038677596967759
 70
    32
1001
ACAD
1000
R13OBJECT
1002
{
1005
43D
1002
}
  0
VERTEX
  5
627
330
43D
100
AcDbEntity
  8
1_TOP
  6
CONTINUOUS
 62
     7
100
AcDbVertex
100
AcDb3dPolylineVertex
 10
-11.80494647946009
 20
-12.01187366851749
 30
-0.1034527191399053
 70
    32
1001
ACAD
1000
R13OBJECT
1002
{
1005
43D
1002
}
  0
SEQEND
  5
628
330
43D
100
AcDbEntity
  8
1_TOP
  6
CONTINUOUS
 62
     7
  0
POLYLINE
  5
43E
330
9D2
100
AcDbEntity
  8
1_TOP
  6
CONTINUOUS
 62
     7
100
AcDb3dPolyline
 66
     1
 10
0.0
 20
0.0
 30
0.0
 70
     8
  0
VERTEX
  5
629
330
43E
100
AcDbEntity
  8
1_TOP
  6
CONTINUOUS
 62
     7
100
AcDbVertex
100
AcDb3dPolylineVertex
 10
-10.32889478189739
 20
-12.00821573424087
 30
-0.1050439779018491
 70
    32
1001
ACAD
1000
R13OBJECT
1002
{
1005
43E
1002
}
  0
VERTEX
  5
62A
330
43E
100
AcDbEntity
  8
1_TOP
  6
CONTINUOUS
 62
     7
100
AcDbVertex
100
AcDb3dPolylineVertex
 10
-10.32951121173818
 20
-11.991581683914
 30
-0.1168061599525838
 70
    32
1001
ACAD
1000
R13OBJECT
1002
{
1005
43E
1002
}
  0
VERTEX
  5
62B
330
43E
100
AcDbEntity
  8
1_TOP
  6
CONTINUOUS
 62
     7
100
AcDbVertex
100
AcDb3dPolylineVertex
 10
-10.32972872527716
 20
-11.97163639147478
 30
-0.1209565655212922
 70
    32
1001
ACAD
1000
R13OBJECT
1002
{
1005
43E
1002
}
  0
SEQEND
  5
62C
330
43E
100
AcDbEntity
  8
1_TOP
  6
CONTINUOUS
 62
     7
  0
POLYLINE
  5
43F
330
9D2
100
AcDbEntity
  8
1_TOP
  6
CONTINUOUS
 62
     7
100
AcDb3dPolyline
 66
     1
 10
0.0
 20
0.0
 30
0.0
 70
     8
  0
VERTEX
  5
62D
330
43F
100
AcDbEntity
  8
1_TOP
  6
CONTINUOUS
 62
     7
100
AcDbVertex
100
AcDb3dPolylineVertex
 10
-10.53486308512214
 20
-12.00821573424087
 30
-0.1050439779018499
 70
    32
1001
ACAD
1000
R13OBJECT
1002
{
1005
43F
1002
}
  0
VERTEX
  5
62E
330
43F
100
AcDbEntity
  8
1_TOP
  6
CONTINUOUS
 62
     7
100
AcDbVertex
100
AcDb3dPolylineVertex
 10
-10.53424665528134
 20
-11.991581683914
 30
-0.1168061599525845
 70
    32
1001
ACAD
1000
R13OBJECT
1002
{
1005
43F
1002
}
  0
VERTEX
  5
62F
330
43F
100
AcDbEntity
  8
1_TOP
  6
CONTINUOUS
 62
     7
100
AcDbVertex
100
AcDb3dPolylineVertex
 10
-10.53402914174235
 20
-11.97163639147478
 30
-0.1209565655212929
 70
    32
1001
ACAD
1000
R13OBJECT
1002
{
1005
43F
1002
}
  0
SEQEND
  5
630
330
43F
100
AcDbEntity
  8
1_TOP
  6
CONTINUOUS
 62
     7
  0
POLYLINE
  5
440
330
9D2
100
AcDbEntity
  8
1_TOP
  6
CONTINUOUS
 62
     7
100
AcDb3dPolyline
 66
     1
 10
0.0
 20
0.0
 30
0.0
 70
     8
  0
VERTEX
  5
631
330
440
100
AcDbEntity
  8
1_TOP
  6
CONTINUOUS
 62
     7
100
AcDbVertex
100
AcDb3dPolylineVertex
 10
-10.53486308512214
 20
-12.00821573424089
 30
-0.1050439779018477
 70
    32
1001
ACAD
1000
R13OBJECT
1002
{
1005
440
1002
}
  0
VERTEX
  5
632
330
440
100
AcDbEntity
  8
1_TOP
  6
CONTINUOUS
 62
     7
100
AcDbVertex
100
AcDb3dPolylineVertex
 10
-10.53492472810622
 20
-12.00987913927358
 30
-0.1038677596967746
 70
    32
1001
ACAD
1000
R13OBJECT
1002
{
1005
440
1002
}
  0
VERTEX
  5
633
330
440
100
AcDbEntity
  8
1_TOP
  6
CONTINUOUS
 62
     7
100
AcDbVertex
100
AcDb3dPolylineVertex
 10
-10.5349464794601
 20
-12.01187366851749
 30
-0.1034527191399039
 70
    32
1001
ACAD
1000
R13OBJECT
1002
{
1005
440
1002
}
  0
SEQEND
  5
634
330
440
100
AcDbEntity
  8
1_TOP
  6
CONTINUOUS
 62
     7
  0
POLYLINE
  5
441
330
9D2
100
AcDbEntity
  8
1_TOP
  6
CONTINUOUS
 62
     7
100
AcDb3dPolyline
 66
     1
 10
0.0
 20
0.0
 30
0.0
 70
     8
  0
VERTEX
  5
635
330
441
100
AcDbEntity
  8
1_TOP
  6
CONTINUOUS
 62
     7
100
AcDbVertex
100
AcDb3dPolylineVertex
 10
-9.693894781897407
 20
-12.00821573424089
 30
-0.1050439779018484
 70
    32
1001
ACAD
1000
R13OBJECT
1002
{
1005
441
1002
}
  0
VERTEX
  5
636
330
441
100
AcDbEntity
  8
1_TOP
  6
CONTINUOUS
 62
     7
100
AcDbVertex
100
AcDb3dPolylineVertex
 10
-9.693833138913326
 20
-12.00987913927358
 30
-0.1038677596967754
 70
    32
1001
ACAD
1000
R13OBJECT
1002
{
1005
441
1002
}
  0
VERTEX
  5
637
330
441
100
AcDbEntity
  8
1_TOP
  6
CONTINUOUS
 62
     7
100
AcDbVertex
100
AcDb3dPolylineVertex
 10
-9.69381138755943
 20
-12.01187366851749
 30
-0.1034527191399047
 70
    32
1001
ACAD
1000
R13OBJECT
1002
{
1005
441
1002
}
  0
SEQEND
  5
638
330
441
100
AcDbEntity
  8
1_TOP
  6
CONTINUOUS
 62
     7
  0
POLYLINE
  5
442
330
9D2
100
AcDbEntity
  8
1_TOP
  6
CONTINUOUS
 62
     7
100
AcDb3dPolyline
 66
     1
 10
0.0
 20
0.0
 30
0.0
 70
     8
  0
VERTEX
  5
639
330
442
100
AcDbEntity
  8
1_TOP
  6
CONTINUOUS
 62
     7
100
AcDbVertex
100
AcDb3dPolylineVertex
 10
-9.693894781897407
 20
-12.00821573424087
 30
-0.1050439779018486
 70
    32
1001
ACAD
1000
R13OBJECT
1002
{
1005
442
1002
}
  0
VERTEX
  5
63A
330
442
100
AcDbEntity
  8
1_TOP
  6
CONTINUOUS
 62
     7
100
AcDbVertex
100
AcDb3dPolylineVertex
 10
-9.694511211738207
 20
-11.991581683914
 30
-0.1168061599525832
 70
    32
1001
ACAD
1000
R13OBJECT
1002
{
1005
442
1002
}
  0
VERTEX
  5
63B
330
442
100
AcDbEntity
  8
1_TOP
  6
CONTINUOUS
 62
     7
100
AcDbVertex
100
AcDb3dPolylineVertex
 10
-9.694728725277187
 20
-11.97163639147478
 30
-0.1209565655212917
 70
    32
1001
ACAD
1000
R13OBJECT
1002
{
1005
442
1002
}
  0
SEQEND
  5
63C
330
442
100
AcDbEntity
  8
1_TOP
  6
CONTINUOUS
 62
     7
  0
POLYLINE
  5
443
330
9D2
100
AcDbEntity
  8
1_TOP
  6
CONTINUOUS
 62
     7
100
AcDb3dPolyline
 66
     1
 10
0.0
 20
0.0
 30
0.0
 70
     8
  0
VERTEX
  5
63D
330
443
100
AcDbEntity
  8
1_TOP
  6
CONTINUOUS
 62
     7
100
AcDbVertex
100
AcDb3dPolylineVertex
 10
-10.32889478189739
 20
-12.00821573424089
 30
-0.10504397790185
 70
    32
1001
ACAD
1000
R13OBJECT
1002
{
1005
443
1002
}
  0
VERTEX
  5
63E
330
443
100
AcDbEntity
  8
1_TOP
  6
CONTINUOUS
 62
     7
100
AcDbVertex
100
AcDb3dPolylineVertex
 10
-10.32883313891331
 20
-12.00987913927358
 30
-0.1038677596967769
 70
    32
1001
ACAD
1000
R13OBJECT
1002
{
1005
443
1002
}
  0
VERTEX
  5
63F
330
443
100
AcDbEntity
  8
1_TOP
  6
CONTINUOUS
 62
     7
100
AcDbVertex
100
AcDb3dPolylineVertex
 10
-10.32881138755941
 20
-12.01187366851749
 30
-0.1034527191399062
 70
    32
1001
ACAD
1000
R13OBJECT
1002
{
1005
443
1002
}
  0
SEQEND
  5
640
330
443
100
AcDbEntity
  8
1_TOP
  6
CONTINUOUS
 62
     7
  0
POLYLINE
  5
444
330
9D2
100
AcDbEntity
  8
1_TOP
  6
CONTINUOUS
 62
     7
100
AcDb3dPolyline
 66
     1
 10
0.0
 20
0.0
 30
0.0
 70
     8
  0
VERTEX
  5
641
330
444
100
AcDbEntity
  8
1_TOP
  6
CONTINUOUS
 62
     7
100
AcDbVertex
100
AcDb3dPolylineVertex
 10
-9.899863085122158
 20
-12.00821573424087
 30
-0.1050439779018495
 70
    32
1001
ACAD
1000
R13OBJECT
1002
{
1005
444
1002
}
  0
VERTEX
  5
642
330
444
100
AcDbEntity
  8
1_TOP
  6
CONTINUOUS
 62
     7
100
AcDbVertex
100
AcDb3dPolylineVertex
 10
-9.899246655281356
 20
-11.991581683914
 30
-0.1168061599525841
 70
    32
1001
ACAD
1000
R13OBJECT
1002
{
1005
444
1002
}
  0
VERTEX
  5
643
330
444
100
AcDbEntity
  8
1_TOP
  6
CONTINUOUS
 62
     7
100
AcDbVertex
100
AcDb3dPolylineVertex
 10
-9.899029141742376
 20
-11.97163639147478
 30
-0.1209565655212925
 70
    32
1001
ACAD
1000
R13OBJECT
1002
{
1005
444
1002
}
  0
SEQEND
  5
644
330
444
100
AcDbEntity
  8
1_TOP
  6
CONTINUOUS
 62
     7
  0
POLYLINE
  5
445
330
9D2
100
AcDbEntity
  8
1_TOP
  6
CONTINUOUS
 62
     7
100
AcDb3dPolyline
 66
     1
 10
0.0
 20
0.0
 30
0.0
 70
     8
  0
VERTEX
  5
645
330
445
100
AcDbEntity
  8
1_TOP
  6
CONTINUOUS
 62
     7
100
AcDbVertex
100
AcDb3dPolylineVertex
 10
-9.899863085122158
 20
-12.00821573424089
 30
-0.105043977901849
 70
    32
1001
ACAD
1000
R13OBJECT
1002
{
1005
445
1002
}
  0
VERTEX
  5
646
330
445
100
AcDbEntity
  8
1_TOP
  6
CONTINUOUS
 62
     7
100
AcDbVertex
100
AcDb3dPolylineVertex
 10
-9.899924728106238
 20
-12.00987913927358
 30
-0.1038677596967759
 70
    32
1001
ACAD
1000
R13OBJECT
1002
{
1005
445
1002
}
  0
VERTEX
  5
647
330
445
100
AcDbEntity
  8
1_TOP
  6
CONTINUOUS
 62
     7
100
AcDbVertex
100
AcDb3dPolylineVertex
 10
-9.899946479460137
 20
-12.01187366851749
 30
-0.1034527191399052
 70
    32
1001
ACAD
1000
R13OBJECT
1002
{
1005
445
1002
}
  0
SEQEND
  5
648
330
445
100
AcDbEntity
  8
1_TOP
  6
CONTINUOUS
 62
     7
  0
POLYLINE
  5
46D
330
9D2
100
AcDbEntity
  8
1_TOP
  6
CONTINUOUS
 62
     7
100
AcDb3dPolyline
 66
     1
 10
0.0
 20
0.0
 30
0.0
 70
     8
  0
VERTEX
  5
6F7
330
46D
100
AcDbEntity
  8
1_TOP
  6
CONTINUOUS
 62
     7
100
AcDbVertex
100
AcDb3dPolylineVertex
 10
-9.190631065945296
 20
-10.03436105869103
 30
0.4223066259982712
 70
    32
1001
ACAD
1000
R13OBJECT
1002
{
1005
46D
1002
}
  0
VERTEX
  5
6F8
330
46D
100
AcDbEntity
  8
1_TOP
  6
CONTINUOUS
 62
     7
100
AcDbVertex
100
AcDb3dPolylineVertex
 10
-9.190666160169934
 20
-10.03022830200774
 30
0.4219520976822166
 70
    32
1001
ACAD
1000
R13OBJECT
1002
{
1005
46D
1002
}
  0
VERTEX
  5
6F9
330
46D
100
AcDbEntity
  8
1_TOP
  6
CONTINUOUS
 62
     7
100
AcDbVertex
100
AcDb3dPolylineVertex
 10
-9.190709565226617
 20
-10.02609570125718
 30
0.4215966893337344
 70
    32
1001
ACAD
1000
R13OBJECT
1002
{
1005
46D
1002
}
  0
VERTEX
  5
6FA
330
46D
100
AcDbEntity
  8
1_TOP
  6
CONTINUOUS
 62
     7
100
AcDbVertex
100
AcDb3dPolylineVertex
 10
-9.190761411799767
 20
-10.02196327354467
 30
0.4212404023369584
 70
    32
1001
ACAD
1000
R13OBJECT
1002
{
1005
46D
1002
}
  0
VERTEX
  5
6FB
330
46D
100
AcDbEntity
  8
1_TOP
  6
CONTINUOUS
 62
     7
100
AcDbVertex
100
AcDb3dPolylineVertex
 10
-9.190821846087656
 20
-10.01783103794432
 30
0.4208832382607035
 70
    32
1001
ACAD
1000
R13OBJECT
1002
{
1005
46D
1002
}
  0
VERTEX
  5
6FC
330
46D
100
AcDbEntity
  8
1_TOP
  6
CONTINUOUS
 62
     7
100
AcDbVertex
100
AcDb3dPolylineVertex
 10
-9.190891030860095
 20
-10.01369901529558
 30
0.4205251988429252
 70
    32
1001
ACAD
1000
R13OBJECT
1002
{
1005
46D
1002
}
  0
VERTEX
  5
6FD
330
46D
100
AcDbEntity
  8
1_TOP
  6
CONTINUOUS
 62
     7
100
AcDbVertex
100
AcDb3dPolylineVertex
 10
-9.190969146694694
 20
-10.00956722813588
 30
0.4201662859868332
 70
    32
1001
ACAD
1000
R13OBJECT
1002
{
1005
46D
1002
}
  0
VERTEX
  5
6FE
330
46D
100
AcDbEntity
  8
1_TOP
  6
CONTINUOUS
 62
     7
100
AcDbVertex
100
AcDb3dPolylineVertex
 10
-9.191056393449159
 20
-10.00543569931519
 30
0.4198065016418849
 70
    32
1001
ACAD
1000
R13OBJECT
1002
{
1005
46D
1002
}
  0
VERTEX
  5
6FF
330
46D
100
AcDbEntity
  8
1_TOP
  6
CONTINUOUS
 62
     7
100
AcDbVertex
100
AcDb3dPolylineVertex
 10
-9.191152991971659
 20
-10.00130445136034
 30
0.4194458477485899
 70
    32
1001
ACAD
1000
R13OBJECT
1002
{
1005
46D
1002
}
  0
VERTEX
  5
700
330
46D
100
AcDbEntity
  8
1_TOP
  6
CONTINUOUS
 62
     7
100
AcDbVertex
100
AcDb3dPolylineVertex
 10
-9.191259185748499
 20
-9.997173518869653
 30
0.419084327324226
 70
    32
1001
ACAD
1000
R13OBJECT
1002
{
1005
46D
1002
}
  0
VERTEX
  5
701
330
46D
100
AcDbEntity
  8
1_TOP
  6
CONTINUOUS
 62
     7
100
AcDbVertex
100
AcDb3dPolylineVertex
 10
-9.191375243743546
 20
-9.993042925294027
 30
0.4187219424363674
 70
    32
1001
ACAD
1000
R13OBJECT
1002
{
1005
46D
1002
}
  0
VERTEX
  5
702
330
46D
100
AcDbEntity
  8
1_TOP
  6
CONTINUOUS
 62
     7
100
AcDbVertex
100
AcDb3dPolylineVertex
 10
-9.19150146247866
 20
-9.988912706296016
 30
0.4183586962477568
 70
    32
1001
ACAD
1000
R13OBJECT
1002
{
1005
46D
1002
}
  0
VERTEX
  5
703
330
46D
100
AcDbEntity
  8
1_TOP
  6
CONTINUOUS
 62
     7
100
AcDbVertex
100
AcDb3dPolylineVertex
 10
-9.19163816946251
 20
-9.984782897199012
 30
0.4179945919217268
 70
    32
1001
ACAD
1000
R13OBJECT
1002
{
1005
46D
1002
}
  0
VERTEX
  5
704
330
46D
100
AcDbEntity
  8
1_TOP
  6
CONTINUOUS
 62
     7
100
AcDbVertex
100
AcDb3dPolylineVertex
 10
-9.191785726749561
 20
-9.980653536970862
 30
0.4176296329736381
 70
    32
1001
ACAD
1000
R13OBJECT
1002
{
1005
46D
1002
}
  0
VERTEX
  5
705
330
46D
100
AcDbEntity
  8
1_TOP
  6
CONTINUOUS
 62
     7
100
AcDbVertex
100
AcDb3dPolylineVertex
 10
-9.19194453522466
 20
-9.976524669078711
 30
0.4172638233524348
 70
    32
1001
ACAD
1000
R13OBJECT
1002
{
1005
46D
1002
}
  0
VERTEX
  5
706
330
46D
100
AcDbEntity
  8
1_TOP
  6
CONTINUOUS
 62
     7
100
AcDbVertex
100
AcDb3dPolylineVertex
 10
-9.192115039652238
 20
-9.972396343399198
 30
0.4168971676129149
 70
    32
1001
ACAD
1000
R13OBJECT
1002
{
1005
46D
1002
}
  0
VERTEX
  5
707
330
46D
100
AcDbEntity
  8
1_TOP
  6
CONTINUOUS
 62
     7
100
AcDbVertex
100
AcDb3dPolylineVertex
 10
-9.192297734852832
 20
-9.968268614410334
 30
0.4165296707638634
 70
    32
1001
ACAD
1000
R13OBJECT
1002
{
1005
46D
1002
}
  0
VERTEX
  5
708
330
46D
100
AcDbEntity
  8
1_TOP
  6
CONTINUOUS
 62
     7
100
AcDbVertex
100
AcDb3dPolylineVertex
 10
-9.192493172947367
 20
-9.96414154382184
 30
0.4161613385065072
 70
    32
1001
ACAD
1000
R13OBJECT
1002
{
1005
46D
1002
}
  0
VERTEX
  5
709
330
46D
100
AcDbEntity
  8
1_TOP
  6
CONTINUOUS
 62
     7
100
AcDbVertex
100
AcDb3dPolylineVertex
 10
-9.1927019724233
 20
-9.960015197152543
 30
0.4157921769364082
 70
    32
1001
ACAD
1000
R13OBJECT
1002
{
1005
46D
1002
}
  0
VERTEX
  5
70A
330
46D
100
AcDbEntity
  8
1_TOP
  6
CONTINUOUS
 62
     7
100
AcDbVertex
100
AcDb3dPolylineVertex
 10
-9.192924827908283
 20
-9.95588966434294
 30
0.415422194398308
 70
    32
1001
ACAD
1000
R13OBJECT
1002
{
1005
46D
1002
}
  0
VERTEX
  5
70B
330
46D
100
AcDbEntity
  8
1_TOP
  6
CONTINUOUS
 62
     7
100
AcDbVertex
100
AcDb3dPolylineVertex
 10
-9.193162524898424
 20
-9.951765032113335
 30
0.4150513990246397
 70
    32
1001
ACAD
1000
R13OBJECT
1002
{
1005
46D
1002
}
  0
VERTEX
  5
70C
330
46D
100
AcDbEntity
  8
1_TOP
  6
CONTINUOUS
 62
     7
100
AcDbVertex
100
AcDb3dPolylineVertex
 10
-9.193415954950957
 20
-9.947641410213572
 30
0.4146798011004258
 70
    32
1001
ACAD
1000
R13OBJECT
1002
{
1005
46D
1002
}
  0
VERTEX
  5
70D
330
46D
100
AcDbEntity
  8
1_TOP
  6
CONTINUOUS
 62
     7
100
AcDbVertex
100
AcDb3dPolylineVertex
 10
-9.193686136890324
 20
-9.943518923414508
 30
0.4143074123636621
 70
    32
1001
ACAD
1000
R13OBJECT
1002
{
1005
46D
1002
}
  0
VERTEX
  5
70E
330
46D
100
AcDbEntity
  8
1_TOP
  6
CONTINUOUS
 62
     7
100
AcDbVertex
100
AcDb3dPolylineVertex
 10
-9.193974242655626
 20
-9.939397721162563
 30
0.4139342468972333
 70
    32
1001
ACAD
1000
R13OBJECT
1002
{
1005
46D
1002
}
  0
VERTEX
  5
70F
330
46D
100
AcDbEntity
  8
1_TOP
  6
CONTINUOUS
 62
     7
100
AcDbVertex
100
AcDb3dPolylineVertex
 10
-9.194281631091296
 20
-9.935277981468551
 30
0.4135603215088642
 70
    32
1001
ACAD
1000
R13OBJECT
1002
{
1005
46D
1002
}
  0
VERTEX
  5
710
330
46D
100
AcDbEntity
  8
1_TOP
  6
CONTINUOUS
 62
     7
100
AcDbVertex
100
AcDb3dPolylineVertex
 10
-9.194609892126607
 20
-9.931159917057467
 30
0.4131856563219941
 70
    32
1001
ACAD
1000
R13OBJECT
1002
{
1005
46D
1002
}
  0
VERTEX
  5
711
330
46D
100
AcDbEntity
  8
1_TOP
  6
CONTINUOUS
 62
     7
100
AcDbVertex
100
AcDb3dPolylineVertex
 10
-9.194960904219467
 20
-9.927043799613224
 30
0.4128102770271834
 70
    32
1001
ACAD
1000
R13OBJECT
1002
{
1005
46D
1002
}
  0
VERTEX
  5
712
330
46D
100
AcDbEntity
  8
1_TOP
  6
CONTINUOUS
 62
     7
100
AcDbVertex
100
AcDb3dPolylineVertex
 10
-9.19533691547492
 20
-9.922929953695463
 30
0.4124342143889928
 70
    32
1001
ACAD
1000
R13OBJECT
1002
{
1005
46D
1002
}
  0
VERTEX
  5
713
330
46D
100
AcDbEntity
  8
1_TOP
  6
CONTINUOUS
 62
     7
100
AcDbVertex
100
AcDb3dPolylineVertex
 10
-9.195740652361042
 20
-9.918818796647819
 30
0.4120575079643133
 70
    32
1001
ACAD
1000
R13OBJECT
1002
{
1005
46D
1002
}
  0
VERTEX
  5
714
330
46D
100
AcDbEntity
  8
1_TOP
  6
CONTINUOUS
 62
     7
100
AcDbVertex
100
AcDb3dPolylineVertex
 10
-9.196175476593392
 20
-9.914710869869063
 30
0.4116802090776094
 70
    32
1001
ACAD
1000
R13OBJECT
1002
{
1005
46D
1002
}
  0
VERTEX
  5
715
330
46D
100
AcDbEntity
  8
1_TOP
  6
CONTINUOUS
 62
     7
100
AcDbVertex
100
AcDb3dPolylineVertex
 10
-9.196645616443262
 20
-9.910606881118647
 30
0.411302384854189
 70
    32
1001
ACAD
1000
R13OBJECT
1002
{
1005
46D
1002
}
  0
VERTEX
  5
716
330
46D
100
AcDbEntity
  8
1_TOP
  6
CONTINUOUS
 62
     7
100
AcDbVertex
100
AcDb3dPolylineVertex
 10
-9.197156514414675
 20
-9.906507815453656
 30
0.4109241286478984
 70
    32
1001
ACAD
1000
R13OBJECT
1002
{
1005
46D
1002
}
  0
VERTEX
  5
717
330
46D
100
AcDbEntity
  8
1_TOP
  6
CONTINUOUS
 62
     7
100
AcDbVertex
100
AcDb3dPolylineVertex
 10
-9.197715388699254
 20
-9.902415051775376
 30
0.4105455711316343
 70
    32
1001
ACAD
1000
R13OBJECT
1002
{
1005
46D
1002
}
  0
VERTEX
  5
718
330
46D
100
AcDbEntity
  8
1_TOP
  6
CONTINUOUS
 62
     7
100
AcDbVertex
100
AcDb3dPolylineVertex
 10
-9.198332172191516
 20
-9.898330634599851
 30
0.4101669059432222
 70
    32
1001
ACAD
1000
R13OBJECT
1002
{
1005
46D
1002
}
  0
VERTEX
  5
719
330
46D
100
AcDbEntity
  8
1_TOP
  6
CONTINUOUS
 62
     7
100
AcDbVertex
100
AcDb3dPolylineVertex
 10
-9.19902120907246
 20
-9.894257796784023
 30
0.4097884390265146
 70
    32
1001
ACAD
1000
R13OBJECT
1002
{
1005
46D
1002
}
  0
VERTEX
  5
71A
330
46D
100
AcDbEntity
  8
1_TOP
  6
CONTINUOUS
 62
     7
100
AcDbVertex
100
AcDb3dPolylineVertex
 10
-9.199804631138272
 20
-9.890202041431743
 30
0.4094106907763263
 70
    32
1001
ACAD
1000
R13OBJECT
1002
{
1005
46D
1002
}
  0
VERTEX
  5
71B
330
46D
100
AcDbEntity
  8
1_TOP
  6
CONTINUOUS
 62
     7
100
AcDbVertex
100
AcDb3dPolylineVertex
 10
-9.200719983191007
 20
-9.886173995827816
 30
0.4090346651558178
 70
    32
1001
ACAD
1000
R13OBJECT
1002
{
1005
46D
1002
}
  0
VERTEX
  5
71C
330
46D
100
AcDbEntity
  8
1_TOP
  6
CONTINUOUS
 62
     7
100
AcDbVertex
100
AcDb3dPolylineVertex
 10
-9.201841294906632
 20
-9.882198501718916
 30
0.408662706506968
 70
    32
1001
ACAD
1000
R13OBJECT
1002
{
1005
46D
1002
}
  0
VERTEX
  5
71D
330
46D
100
AcDbEntity
  8
1_TOP
  6
CONTINUOUS
 62
     7
100
AcDbVertex
100
AcDb3dPolylineVertex
 10
-9.20252850822689
 20
-9.880249998618674
 30
0.4084800945990767
 70
    32
1001
ACAD
1000
R13OBJECT
1002
{
1005
46D
1002
}
  0
VERTEX
  5
71E
330
46D
100
AcDbEntity
  8
1_TOP
  6
CONTINUOUS
 62
     7
100
AcDbVertex
100
AcDb3dPolylineVertex
 10
-9.203361482352805
 20
-9.878360285637491
 30
0.4083028011698961
 70
    32
1001
ACAD
1000
R13OBJECT
1002
{
1005
46D
1002
}
  0
VERTEX
  5
71F
330
46D
100
AcDbEntity
  8
1_TOP
  6
CONTINUOUS
 62
     7
100
AcDbVertex
100
AcDb3dPolylineVertex
 10
-9.203900529893232
 20
-9.877404511133537
 30
0.4082130583960069
 70
    32
1001
ACAD
1000
R13OBJECT
1002
{
1005
46D
1002
}
  0
VERTEX
  5
720
330
46D
100
AcDbEntity
  8
1_TOP
  6
CONTINUOUS
 62
     7
100
AcDbVertex
100
AcDb3dPolylineVertex
 10
-9.204562332987075
 20
-9.876511197944664
 30
0.4081291368804998
 70
    32
1001
ACAD
1000
R13OBJECT
1002
{
1005
46D
1002
}
  0
VERTEX
  5
721
330
46D
100
AcDbEntity
  8
1_TOP
  6
CONTINUOUS
 62
     7
100
AcDbVertex
100
AcDb3dPolylineVertex
 10
-9.205307506427152
 20
-9.875868690349276
 30
0.4080687510456956
 70
    32
1001
ACAD
1000
R13OBJECT
1002
{
1005
46D
1002
}
  0
VERTEX
  5
722
330
46D
100
AcDbEntity
  8
1_TOP
  6
CONTINUOUS
 62
     7
100
AcDbVertex
100
AcDb3dPolylineVertex
 10
-9.205736625370184
 20
-9.875671423635187
 30
0.4080502066379542
 70
    32
1001
ACAD
1000
R13OBJECT
1002
{
1005
46D
1002
}
  0
VERTEX
  5
723
330
46D
100
AcDbEntity
  8
1_TOP
  6
CONTINUOUS
 62
     7
100
AcDbVertex
100
AcDb3dPolylineVertex
 10
-9.206196608102986
 20
-9.87559939002385
 30
0.4080434344787029
 70
    32
1001
ACAD
1000
R13OBJECT
1002
{
1005
46D
1002
}
  0
SEQEND
  5
724
330
46D
100
AcDbEntity
  8
1_TOP
  6
CONTINUOUS
 62
     7
  0
POLYLINE
  5
46E
330
9D2
100
AcDbEntity
  8
1_TOP
  6
CONTINUOUS
 62
     7
100
AcDb3dPolyline
 66
     1
 10
0.0
 20
0.0
 30
0.0
 70
     8
  0
VERTEX
  5
725
330
46E
100
AcDbEntity
  8
1_TOP
  6
CONTINUOUS
 62
     7
100
AcDbVertex
100
AcDb3dPolylineVertex
 10
-9.206196608102986
 20
-9.87559939002385
 30
0.4080434344787029
 70
    32
1001
ACAD
1000
R13OBJECT
1002
{
1005
46E
1002
}
  0
VERTEX
  5
726
330
46E
100
AcDbEntity
  8
1_TOP
  6
CONTINUOUS
 62
     7
100
AcDbVertex
100
AcDb3dPolylineVertex
 10
-9.206399904735857
 20
-9.875409259157352
 30
0.4080434344787029
 70
    32
1001
ACAD
1000
R13OBJECT
1002
{
1005
46E
1002
}
  0
VERTEX
  5
727
330
46E
100
AcDbEntity
  8
1_TOP
  6
CONTINUOUS
 62
     7
100
AcDbVertex
100
AcDb3dPolylineVertex
 10
-9.206615290765183
 20
-9.875233032347066
 30
0.4080434344787029
 70
    32
1001
ACAD
1000
R13OBJECT
1002
{
1005
46E
1002
}
  0
VERTEX
  5
728
330
46E
100
AcDbEntity
  8
1_TOP
  6
CONTINUOUS
 62
     7
100
AcDbVertex
100
AcDb3dPolylineVertex
 10
-9.207077406812537
 20
-9.874923312106462
 30
0.4080434344787029
 70
    32
1001
ACAD
1000
R13OBJECT
1002
{
1005
46E
1002
}
  0
VERTEX
  5
729
330
46E
100
AcDbEntity
  8
1_TOP
  6
CONTINUOUS
 62
     7
100
AcDbVertex
100
AcDb3dPolylineVertex
 10
-9.207572820281152
 20
-9.874670089002385
 30
0.4080434344787029
 70
    32
1001
ACAD
1000
R13OBJECT
1002
{
1005
46E
1002
}
  0
VERTEX
  5
72A
330
46E
100
AcDbEntity
  8
1_TOP
  6
CONTINUOUS
 62
     7
100
AcDbVertex
100
AcDb3dPolylineVertex
 10
-9.208092393531156
 20
-9.874470939376694
 30
0.4080434344787029
 70
    32
1001
ACAD
1000
R13OBJECT
1002
{
1005
46E
1002
}
  0
VERTEX
  5
72B
330
46E
100
AcDbEntity
  8
1_TOP
  6
CONTINUOUS
 62
     7
100
AcDbVertex
100
AcDb3dPolylineVertex
 10
-9.208628755843689
 20
-9.874322420164663
 30
0.4080434344787029
 70
    32
1001
ACAD
1000
R13OBJECT
1002
{
1005
46E
1002
}
  0
VERTEX
  5
72C
330
46E
100
AcDbEntity
  8
1_TOP
  6
CONTINUOUS
 62
     7
100
AcDbVertex
100
AcDb3dPolylineVertex
 10
-9.209175921219069
 20
-9.87422083228564
 30
0.4080434344787029
 70
    32
1001
ACAD
1000
R13OBJECT
1002
{
1005
46E
1002
}
  0
VERTEX
  5
72D
330
46E
100
AcDbEntity
  8
1_TOP
  6
CONTINUOUS
 62
     7
100
AcDbVertex
100
AcDb3dPolylineVertex
 10
-9.209729399516662
 20
-9.874162445124984
 30
0.4080434344787029
 70
    32
1001
ACAD
1000
R13OBJECT
1002
{
1005
46E
1002
}
  0
VERTEX
  5
72E
330
46E
100
AcDbEntity
  8
1_TOP
  6
CONTINUOUS
 62
     7
100
AcDbVertex
100
AcDb3dPolylineVertex
 10
-9.210285671964406
 20
-9.874143727520225
 30
0.4080434344787029
 70
    32
1001
ACAD
1000
R13OBJECT
1002
{
1005
46E
1002
}
  0
SEQEND
  5
72F
330
46E
100
AcDbEntity
  8
1_TOP
  6
CONTINUOUS
 62
     7
  0
POLYLINE
  5
46F
330
9D2
100
AcDbEntity
  8
1_TOP
  6
CONTINUOUS
 62
     7
100
AcDb3dPolyline
 66
     1
 10
0.0
 20
0.0
 30
0.0
 70
     8
  0
VERTEX
  5
730
330
46F
100
AcDbEntity
  8
1_TOP
  6
CONTINUOUS
 62
     7
100
AcDbVertex
100
AcDb3dPolylineVertex
 10
-9.210285671964406
 20
-9.874143727520225
 30
0.4080434344787029
 70
    32
1001
ACAD
1000
R13OBJECT
1002
{
1005
46F
1002
}
  0
VERTEX
  5
731
330
46F
100
AcDbEntity
  8
1_TOP
  6
CONTINUOUS
 62
     7
100
AcDbVertex
100
AcDb3dPolylineVertex
 10
-9.208906896813992
 20
-9.87333932486714
 30
0.4078922686371783
 70
    32
1001
ACAD
1000
R13OBJECT
1002
{
1005
46F
1002
}
  0
VERTEX
  5
732
330
46F
100
AcDbEntity
  8
1_TOP
  6
CONTINUOUS
 62
     7
100
AcDbVertex
100
AcDb3dPolylineVertex
 10
-9.207389585622152
 20
-9.872833337241916
 30
0.4077971469490265
 70
    32
1001
ACAD
1000
R13OBJECT
1002
{
1005
46F
1002
}
  0
VERTEX
  5
733
330
46F
100
AcDbEntity
  8
1_TOP
  6
CONTINUOUS
 62
     7
100
AcDbVertex
100
AcDb3dPolylineVertex
 10
-9.205793576003806
 20
-9.872725840878644
 30
0.4077769350056986
 70
    32
1001
ACAD
1000
R13OBJECT
1002
{
1005
46F
1002
}
  0
VERTEX
  5
734
330
46F
100
AcDbEntity
  8
1_TOP
  6
CONTINUOUS
 62
     7
100
AcDbVertex
100
AcDb3dPolylineVertex
 10
-9.204224357164427
 20
-9.873043865308602
 30
0.4078367278437979
 70
    32
1001
ACAD
1000
R13OBJECT
1002
{
1005
46F
1002
}
  0
VERTEX
  5
735
330
46F
100
AcDbEntity
  8
1_TOP
  6
CONTINUOUS
 62
     7
100
AcDbVertex
100
AcDb3dPolylineVertex
 10
-9.202776154829447
 20
-9.873711588628683
 30
0.407962232969491
 70
    32
1001
ACAD
1000
R13OBJECT
1002
{
1005
46F
1002
}
  0
VERTEX
  5
736
330
46F
100
AcDbEntity
  8
1_TOP
  6
CONTINUOUS
 62
     7
100
AcDbVertex
100
AcDb3dPolylineVertex
 10
-9.201467854568996
 20
-9.87462979444693
 30
0.4081347446450481
 70
    32
1001
ACAD
1000
R13OBJECT
1002
{
1005
46F
1002
}
  0
VERTEX
  5
737
330
46F
100
AcDbEntity
  8
1_TOP
  6
CONTINUOUS
 62
     7
100
AcDbVertex
100
AcDb3dPolylineVertex
 10
-9.200296401408524
 20
-9.875708333941998
 30
0.4083372649457996
 70
    32
1001
ACAD
1000
R13OBJECT
1002
{
1005
46F
1002
}
  0
VERTEX
  5
738
330
46F
100
AcDbEntity
  8
1_TOP
  6
CONTINUOUS
 62
     7
100
AcDbVertex
100
AcDb3dPolylineVertex
 10
-9.199238894812904
 20
-9.876895071772386
 30
0.4085599603618407
 70
    32
1001
ACAD
1000
R13OBJECT
1002
{
1005
46F
1002
}
  0
VERTEX
  5
739
330
46F
100
AcDbEntity
  8
1_TOP
  6
CONTINUOUS
 62
     7
100
AcDbVertex
100
AcDb3dPolylineVertex
 10
-9.197388836479806
 20
-9.87947309943074
 30
0.4090432249665314
 70
    32
1001
ACAD
1000
R13OBJECT
1002
{
1005
46F
1002
}
  0
VERTEX
  5
73A
330
46F
100
AcDbEntity
  8
1_TOP
  6
CONTINUOUS
 62
     7
100
AcDbVertex
100
AcDb3dPolylineVertex
 10
-9.195801545842376
 20
-9.882216414412923
 30
0.4095567048784548
 70
    32
1001
ACAD
1000
R13OBJECT
1002
{
1005
46F
1002
}
  0
VERTEX
  5
73B
330
46F
100
AcDbEntity
  8
1_TOP
  6
CONTINUOUS
 62
     7
100
AcDbVertex
100
AcDb3dPolylineVertex
 10
-9.194405225366923
 20
-9.885058888179322
 30
0.4100879089447497
 70
    32
1001
ACAD
1000
R13OBJECT
1002
{
1005
46F
1002
}
  0
VERTEX
  5
73C
330
46F
100
AcDbEntity
  8
1_TOP
  6
CONTINUOUS
 62
     7
100
AcDbVertex
100
AcDb3dPolylineVertex
 10
-9.1931545885525
 20
-9.887966522857539
 30
0.4106304102793767
 70
    32
1001
ACAD
1000
R13OBJECT
1002
{
1005
46F
1002
}
  0
VERTEX
  5
73D
330
46F
100
AcDbEntity
  8
1_TOP
  6
CONTINUOUS
 62
     7
100
AcDbVertex
100
AcDb3dPolylineVertex
 10
-9.192019550445859
 20
-9.890919889113213
 30
0.4111805331386841
 70
    32
1001
ACAD
1000
R13OBJECT
1002
{
1005
46F
1002
}
  0
VERTEX
  5
73E
330
46F
100
AcDbEntity
  8
1_TOP
  6
CONTINUOUS
 62
     7
100
AcDbVertex
100
AcDb3dPolylineVertex
 10
-9.190979118819818
 20
-9.893906998174584
 30
0.41173600752479
 70
    32
1001
ACAD
1000
R13OBJECT
1002
{
1005
46F
1002
}
  0
VERTEX
  5
73F
330
46F
100
AcDbEntity
  8
1_TOP
  6
CONTINUOUS
 62
     7
100
AcDbVertex
100
AcDb3dPolylineVertex
 10
-9.190018073052804
 20
-9.8969198867004
 30
0.4122953247156537
 70
    32
1001
ACAD
1000
R13OBJECT
1002
{
1005
46F
1002
}
  0
VERTEX
  5
740
330
46F
100
AcDbEntity
  8
1_TOP
  6
CONTINUOUS
 62
     7
100
AcDbVertex
100
AcDb3dPolylineVertex
 10
-9.189124962749
 20
-9.899953098050831
 30
0.4128574499868682
 70
    32
1001
ACAD
1000
R13OBJECT
1002
{
1005
46F
1002
}
  0
VERTEX
  5
741
330
46F
100
AcDbEntity
  8
1_TOP
  6
CONTINUOUS
 62
     7
100
AcDbVertex
100
AcDb3dPolylineVertex
 10
-9.188290944266894
 20
-9.903002719190601
 30
0.4134216407534561
 70
    32
1001
ACAD
1000
R13OBJECT
1002
{
1005
46F
1002
}
  0
VERTEX
  5
742
330
46F
100
AcDbEntity
  8
1_TOP
  6
CONTINUOUS
 62
     7
100
AcDbVertex
100
AcDb3dPolylineVertex
 10
-9.187509027827831
 20
-9.906065850991305
 30
0.4139873464435419
 70
    32
1001
ACAD
1000
R13OBJECT
1002
{
1005
46F
1002
}
  0
VERTEX
  5
743
330
46F
100
AcDbEntity
  8
1_TOP
  6
CONTINUOUS
 62
     7
100
AcDbVertex
100
AcDb3dPolylineVertex
 10
-9.186773584948085
 20
-9.909140264758786
 30
0.4145541436510089
 70
    32
1001
ACAD
1000
R13OBJECT
1002
{
1005
46F
1002
}
  0
VERTEX
  5
744
330
46F
100
AcDbEntity
  8
1_TOP
  6
CONTINUOUS
 62
     7
100
AcDbVertex
100
AcDb3dPolylineVertex
 10
-9.18607999311871
 20
-9.912224263544493
 30
0.4151217095831418
 70
    32
1001
ACAD
1000
R13OBJECT
1002
{
1005
46F
1002
}
  0
VERTEX
  5
745
330
46F
100
AcDbEntity
  8
1_TOP
  6
CONTINUOUS
 62
     7
100
AcDbVertex
100
AcDb3dPolylineVertex
 10
-9.185424414873482
 20
-9.915316477891432
 30
0.4156897837288277
 70
    32
1001
ACAD
1000
R13OBJECT
1002
{
1005
46F
1002
}
  0
VERTEX
  5
746
330
46F
100
AcDbEntity
  8
1_TOP
  6
CONTINUOUS
 62
     7
100
AcDbVertex
100
AcDb3dPolylineVertex
 10
-9.18480361817258
 20
-9.918415807956536
 30
0.4162581567354684
 70
    32
1001
ACAD
1000
R13OBJECT
1002
{
1005
46F
1002
}
  0
VERTEX
  5
747
330
46F
100
AcDbEntity
  8
1_TOP
  6
CONTINUOUS
 62
     7
100
AcDbVertex
100
AcDb3dPolylineVertex
 10
-9.184214850973845
 20
-9.9215213593945
 30
0.4168266582526293
 70
    32
1001
ACAD
1000
R13OBJECT
1002
{
1005
46F
1002
}
  0
VERTEX
  5
748
330
46F
100
AcDbEntity
  8
1_TOP
  6
CONTINUOUS
 62
     7
100
AcDbVertex
100
AcDb3dPolylineVertex
 10
-9.183655747942305
 20
-9.924632393730783
 30
0.4173951475428589
 70
    32
1001
ACAD
1000
R13OBJECT
1002
{
1005
46F
1002
}
  0
VERTEX
  5
749
330
46F
100
AcDbEntity
  8
1_TOP
  6
CONTINUOUS
 62
     7
100
AcDbVertex
100
AcDb3dPolylineVertex
 10
-9.183124259800321
 20
-9.927748288342222
 30
0.4179635059383417
 70
    32
1001
ACAD
1000
R13OBJECT
1002
{
1005
46F
1002
}
  0
VERTEX
  5
74A
330
46F
100
AcDbEntity
  8
1_TOP
  6
CONTINUOUS
 62
     7
100
AcDbVertex
100
AcDb3dPolylineVertex
 10
-9.182618596374542
 20
-9.930868519161396
 30
0.4185316335083261
 70
    32
1001
ACAD
1000
R13OBJECT
1002
{
1005
46F
1002
}
  0
VERTEX
  5
74B
330
46F
100
AcDbEntity
  8
1_TOP
  6
CONTINUOUS
 62
     7
100
AcDbVertex
100
AcDb3dPolylineVertex
 10
-9.182137181848514
 20
-9.933992650668256
 30
0.4190994470827259
 70
    32
1001
ACAD
1000
R13OBJECT
1002
{
1005
46F
1002
}
  0
VERTEX
  5
74C
330
46F
100
AcDbEntity
  8
1_TOP
  6
CONTINUOUS
 62
     7
100
AcDbVertex
100
AcDb3dPolylineVertex
 10
-9.181678626969928
 20
-9.937120277054892
 30
0.4196668694443176
 70
    32
1001
ACAD
1000
R13OBJECT
1002
{
1005
46F
1002
}
  0
VERTEX
  5
74D
330
46F
100
AcDbEntity
  8
1_TOP
  6
CONTINUOUS
 62
     7
100
AcDbVertex
100
AcDb3dPolylineVertex
 10
-9.181241688706087
 20
-9.940251094976026
 30
0.4202338424441047
 70
    32
1001
ACAD
1000
R13OBJECT
1002
{
1005
46F
1002
}
  0
VERTEX
  5
74E
330
46F
100
AcDbEntity
  8
1_TOP
  6
CONTINUOUS
 62
     7
100
AcDbVertex
100
AcDb3dPolylineVertex
 10
-9.18082526398456
 20
-9.943384783006383
 30
0.4208003050638858
 70
    32
1001
ACAD
1000
R13OBJECT
1002
{
1005
46F
1002
}
  0
VERTEX
  5
74F
330
46F
100
AcDbEntity
  8
1_TOP
  6
CONTINUOUS
 62
     7
100
AcDbVertex
100
AcDb3dPolylineVertex
 10
-9.18042835486263
 20
-9.946521111712831
 30
0.4213662132897302
 70
    32
1001
ACAD
1000
R13OBJECT
1002
{
1005
46F
1002
}
  0
VERTEX
  5
750
330
46F
100
AcDbEntity
  8
1_TOP
  6
CONTINUOUS
 62
     7
100
AcDbVertex
100
AcDb3dPolylineVertex
 10
-9.180050064503452
 20
-9.949659858081645
 30
0.4219315245630652
 70
    32
1001
ACAD
1000
R13OBJECT
1002
{
1005
46F
1002
}
  0
VERTEX
  5
751
330
46F
100
AcDbEntity
  8
1_TOP
  6
CONTINUOUS
 62
     7
100
AcDbVertex
100
AcDb3dPolylineVertex
 10
-9.17968958392216
 20
-9.952800800040773
 30
0.4224961967867066
 70
    32
1001
ACAD
1000
R13OBJECT
1002
{
1005
46F
1002
}
  0
VERTEX
  5
752
330
46F
100
AcDbEntity
  8
1_TOP
  6
CONTINUOUS
 62
     7
100
AcDbVertex
100
AcDb3dPolylineVertex
 10
-9.17934617410858
 20
-9.95594377505688
 30
0.4230601988292129
 70
    32
1001
ACAD
1000
R13OBJECT
1002
{
1005
46F
1002
}
  0
VERTEX
  5
753
330
46F
100
AcDbEntity
  8
1_TOP
  6
CONTINUOUS
 62
     7
100
AcDbVertex
100
AcDb3dPolylineVertex
 10
-9.179019163093935
 20
-9.959088628266266
 30
0.4236235011449054
 70
    32
1001
ACAD
1000
R13OBJECT
1002
{
1005
46F
1002
}
  0
VERTEX
  5
754
330
46F
100
AcDbEntity
  8
1_TOP
  6
CONTINUOUS
 62
     7
100
AcDbVertex
100
AcDb3dPolylineVertex
 10
-9.178707935539973
 20
-9.962235236325607
 30
0.4241860800217803
 70
    32
1001
ACAD
1000
R13OBJECT
1002
{
1005
46F
1002
}
  0
VERTEX
  5
755
330
46F
100
AcDbEntity
  8
1_TOP
  6
CONTINUOUS
 62
     7
100
AcDbVertex
100
AcDb3dPolylineVertex
 10
-9.178411933577434
 20
-9.965383429728753
 30
0.4247479036792459
 70
    32
1001
ACAD
1000
R13OBJECT
1002
{
1005
46F
1002
}
  0
VERTEX
  5
756
330
46F
100
AcDbEntity
  8
1_TOP
  6
CONTINUOUS
 62
     7
100
AcDbVertex
100
AcDb3dPolylineVertex
 10
-9.178130639908648
 20
-9.96853310530971
 30
0.4253089523659438
 70
    32
1001
ACAD
1000
R13OBJECT
1002
{
1005
46F
1002
}
  0
VERTEX
  5
757
330
46F
100
AcDbEntity
  8
1_TOP
  6
CONTINUOUS
 62
     7
100
AcDbVertex
100
AcDb3dPolylineVertex
 10
-9.177863579870335
 20
-9.971684157493532
 30
0.4258692060382336
 70
    32
1001
ACAD
1000
R13OBJECT
1002
{
1005
46F
1002
}
  0
VERTEX
  5
758
330
46F
100
AcDbEntity
  8
1_TOP
  6
CONTINUOUS
 62
     7
100
AcDbVertex
100
AcDb3dPolylineVertex
 10
-9.177610315368156
 20
-9.9748364979495
 30
0.4264286478488479
 70
    32
1001
ACAD
1000
R13OBJECT
1002
{
1005
46F
1002
}
  0
VERTEX
  5
759
330
46F
100
AcDbEntity
  8
1_TOP
  6
CONTINUOUS
 62
     7
100
AcDbVertex
100
AcDb3dPolylineVertex
 10
-9.177370442977043
 20
-9.977990033949275
 30
0.4269872602884698
 70
    32
1001
ACAD
1000
R13OBJECT
1002
{
1005
46F
1002
}
  0
VERTEX
  5
75A
330
46F
100
AcDbEntity
  8
1_TOP
  6
CONTINUOUS
 62
     7
100
AcDbVertex
100
AcDb3dPolylineVertex
 10
-9.177143589740849
 20
-9.981144678925994
 30
0.4275450270582497
 70
    32
1001
ACAD
1000
R13OBJECT
1002
{
1005
46F
1002
}
  0
VERTEX
  5
75B
330
46F
100
AcDbEntity
  8
1_TOP
  6
CONTINUOUS
 62
     7
100
AcDbVertex
100
AcDb3dPolylineVertex
 10
-9.176929409633427
 20
-9.984300363537226
 30
0.4281019350102237
 70
    32
1001
ACAD
1000
R13OBJECT
1002
{
1005
46F
1002
}
  0
VERTEX
  5
75C
330
46F
100
AcDbEntity
  8
1_TOP
  6
CONTINUOUS
 62
     7
100
AcDbVertex
100
AcDb3dPolylineVertex
 10
-9.176727582489084
 20
-9.987457016865123
 30
0.4286579708104627
 70
    32
1001
ACAD
1000
R13OBJECT
1002
{
1005
46F
1002
}
  0
VERTEX
  5
75D
330
46F
100
AcDbEntity
  8
1_TOP
  6
CONTINUOUS
 62
     7
100
AcDbVertex
100
AcDb3dPolylineVertex
 10
-9.176537811394831
 20
-9.990614571695019
 30
0.4292131218689056
 70
    32
1001
ACAD
1000
R13OBJECT
1002
{
1005
46F
1002
}
  0
VERTEX
  5
75E
330
46F
100
AcDbEntity
  8
1_TOP
  6
CONTINUOUS
 62
     7
100
AcDbVertex
100
AcDb3dPolylineVertex
 10
-9.176359820376212
 20
-9.993772971610862
 30
0.4297673775772461
 70
    32
1001
ACAD
1000
R13OBJECT
1002
{
1005
46F
1002
}
  0
VERTEX
  5
75F
330
46F
100
AcDbEntity
  8
1_TOP
  6
CONTINUOUS
 62
     7
100
AcDbVertex
100
AcDb3dPolylineVertex
 10
-9.176193353487956
 20
-9.996932158046083
 30
0.4303207270251312
 70
    32
1001
ACAD
1000
R13OBJECT
1002
{
1005
46F
1002
}
  0
VERTEX
  5
760
330
46F
100
AcDbEntity
  8
1_TOP
  6
CONTINUOUS
 62
     7
100
AcDbVertex
100
AcDb3dPolylineVertex
 10
-9.176038172769446
 20
-10.00009207954348
 30
0.4308731606210662
 70
    32
1001
ACAD
1000
R13OBJECT
1002
{
1005
46F
1002
}
  0
VERTEX
  5
761
330
46F
100
AcDbEntity
  8
1_TOP
  6
CONTINUOUS
 62
     7
100
AcDbVertex
100
AcDb3dPolylineVertex
 10
-9.175894057228273
 20
-10.00325268610136
 30
0.4314246690950327
 70
    32
1001
ACAD
1000
R13OBJECT
1002
{
1005
46F
1002
}
  0
VERTEX
  5
762
330
46F
100
AcDbEntity
  8
1_TOP
  6
CONTINUOUS
 62
     7
100
AcDbVertex
100
AcDb3dPolylineVertex
 10
-9.175760801457652
 20
-10.00641393338411
 30
0.4319752442287428
 70
    32
1001
ACAD
1000
R13OBJECT
1002
{
1005
46F
1002
}
  0
VERTEX
  5
763
330
46F
100
AcDbEntity
  8
1_TOP
  6
CONTINUOUS
 62
     7
100
AcDbVertex
100
AcDb3dPolylineVertex
 10
-9.175638214959557
 20
-10.00957577385926
 30
0.4325248773070553
 70
    32
1001
ACAD
1000
R13OBJECT
1002
{
1005
46F
1002
}
  0
VERTEX
  5
764
330
46F
100
AcDbEntity
  8
1_TOP
  6
CONTINUOUS
 62
     7
100
AcDbVertex
100
AcDb3dPolylineVertex
 10
-9.175526120594902
 20
-10.01273817199832
 30
0.4330735617581451
 70
    32
1001
ACAD
1000
R13OBJECT
1002
{
1005
46F
1002
}
  0
VERTEX
  5
765
330
46F
100
AcDbEntity
  8
1_TOP
  6
CONTINUOUS
 62
     7
100
AcDbVertex
100
AcDb3dPolylineVertex
 10
-9.17542435461997
 20
-10.01590108086253
 30
0.433621289082836
 70
    32
1001
ACAD
1000
R13OBJECT
1002
{
1005
46F
1002
}
  0
VERTEX
  5
766
330
46F
100
AcDbEntity
  8
1_TOP
  6
CONTINUOUS
 62
     7
100
AcDbVertex
100
AcDb3dPolylineVertex
 10
-9.17533276489927
 20
-10.01906447207683
 30
0.4341680540492443
 70
    32
1001
ACAD
1000
R13OBJECT
1002
{
1005
46F
1002
}
  0
VERTEX
  5
767
330
46F
100
AcDbEntity
  8
1_TOP
  6
CONTINUOUS
 62
     7
100
AcDbVertex
100
AcDb3dPolylineVertex
 10
-9.175251211354655
 20
-10.02222830070428
 30
0.4347138486083694
 70
    32
1001
ACAD
1000
R13OBJECT
1002
{
1005
46F
1002
}
  0
VERTEX
  5
768
330
46F
100
AcDbEntity
  8
1_TOP
  6
CONTINUOUS
 62
     7
100
AcDbVertex
100
AcDb3dPolylineVertex
 10
-9.175179564322675
 20
-10.02539254126403
 30
0.4352586681170847
 70
    32
1001
ACAD
1000
R13OBJECT
1002
{
1005
46F
1002
}
  0
VERTEX
  5
769
330
46F
100
AcDbEntity
  8
1_TOP
  6
CONTINUOUS
 62
     7
100
AcDbVertex
100
AcDb3dPolylineVertex
 10
-9.175117704897903
 20
-10.02855715479405
 30
0.4358025056511616
 70
    32
1001
ACAD
1000
R13OBJECT
1002
{
1005
46F
1002
}
  0
VERTEX
  5
76A
330
46F
100
AcDbEntity
  8
1_TOP
  6
CONTINUOUS
 62
     7
100
AcDbVertex
100
AcDb3dPolylineVertex
 10
-9.175065523787617
 20
-10.03172211867721
 30
0.436345357138368
 70
    32
1001
ACAD
1000
R13OBJECT
1002
{
1005
46F
1002
}
  0
SEQEND
  5
76B
330
46F
100
AcDbEntity
  8
1_TOP
  6
CONTINUOUS
 62
     7
  0
POLYLINE
  5
470
330
9D2
100
AcDbEntity
  8
1_TOP
  6
CONTINUOUS
 62
     7
100
AcDb3dPolyline
 66
     1
 10
0.0
 20
0.0
 30
0.0
 70
     8
  0
VERTEX
  5
76C
330
470
100
AcDbEntity
  8
1_TOP
  6
CONTINUOUS
 62
     7
100
AcDbVertex
100
AcDb3dPolylineVertex
 10
-12.9431268010744
 20
-10.03436105869103
 30
0.4223066259982712
 70
    32
1001
ACAD
1000
R13OBJECT
1002
{
1005
470
1002
}
  0
VERTEX
  5
76D
330
470
100
AcDbEntity
  8
1_TOP
  6
CONTINUOUS
 62
     7
100
AcDbVertex
100
AcDb3dPolylineVertex
 10
-12.94309170684975
 20
-10.03022830200774
 30
0.4219520976822164
 70
    32
1001
ACAD
1000
R13OBJECT
1002
{
1005
470
1002
}
  0
VERTEX
  5
76E
330
470
100
AcDbEntity
  8
1_TOP
  6
CONTINUOUS
 62
     7
100
AcDbVertex
100
AcDb3dPolylineVertex
 10
-12.94304830179307
 20
-10.02609570125718
 30
0.4215966893337339
 70
    32
1001
ACAD
1000
R13OBJECT
1002
{
1005
470
1002
}
  0
VERTEX
  5
76F
330
470
100
AcDbEntity
  8
1_TOP
  6
CONTINUOUS
 62
     7
100
AcDbVertex
100
AcDb3dPolylineVertex
 10
-12.94299645521992
 20
-10.02196327354467
 30
0.4212404023369582
 70
    32
1001
ACAD
1000
R13OBJECT
1002
{
1005
470
1002
}
  0
VERTEX
  5
770
330
470
100
AcDbEntity
  8
1_TOP
  6
CONTINUOUS
 62
     7
100
AcDbVertex
100
AcDb3dPolylineVertex
 10
-12.94293602093205
 20
-10.01783103794432
 30
0.4208832382607035
 70
    32
1001
ACAD
1000
R13OBJECT
1002
{
1005
470
1002
}
  0
VERTEX
  5
771
330
470
100
AcDbEntity
  8
1_TOP
  6
CONTINUOUS
 62
     7
100
AcDbVertex
100
AcDb3dPolylineVertex
 10
-12.9428668361596
 20
-10.01369901529558
 30
0.4205251988429252
 70
    32
1001
ACAD
1000
R13OBJECT
1002
{
1005
470
1002
}
  0
VERTEX
  5
772
330
470
100
AcDbEntity
  8
1_TOP
  6
CONTINUOUS
 62
     7
100
AcDbVertex
100
AcDb3dPolylineVertex
 10
-12.942788720325
 20
-10.00956722813588
 30
0.4201662859868332
 70
    32
1001
ACAD
1000
R13OBJECT
1002
{
1005
470
1002
}
  0
VERTEX
  5
773
330
470
100
AcDbEntity
  8
1_TOP
  6
CONTINUOUS
 62
     7
100
AcDbVertex
100
AcDb3dPolylineVertex
 10
-12.94270147357054
 20
-10.00543569931519
 30
0.4198065016418849
 70
    32
1001
ACAD
1000
R13OBJECT
1002
{
1005
470
1002
}
  0
VERTEX
  5
774
330
470
100
AcDbEntity
  8
1_TOP
  6
CONTINUOUS
 62
     7
100
AcDbVertex
100
AcDb3dPolylineVertex
 10
-12.94260487504804
 20
-10.00130445136034
 30
0.4194458477485899
 70
    32
1001
ACAD
1000
R13OBJECT
1002
{
1005
470
1002
}
  0
VERTEX
  5
775
330
470
100
AcDbEntity
  8
1_TOP
  6
CONTINUOUS
 62
     7
100
AcDbVertex
100
AcDb3dPolylineVertex
 10
-12.9424986812712
 20
-9.997173518869653
 30
0.419084327324226
 70
    32
1001
ACAD
1000
R13OBJECT
1002
{
1005
470
1002
}
  0
VERTEX
  5
776
330
470
100
AcDbEntity
  8
1_TOP
  6
CONTINUOUS
 62
     7
100
AcDbVertex
100
AcDb3dPolylineVertex
 10
-12.94238262327616
 20
-9.993042925294027
 30
0.4187219424363674
 70
    32
1001
ACAD
1000
R13OBJECT
1002
{
1005
470
1002
}
  0
VERTEX
  5
777
330
470
100
AcDbEntity
  8
1_TOP
  6
CONTINUOUS
 62
     7
100
AcDbVertex
100
AcDb3dPolylineVertex
 10
-12.94225640454103
 20
-9.988912706296016
 30
0.4183586962477568
 70
    32
1001
ACAD
1000
R13OBJECT
1002
{
1005
470
1002
}
  0
VERTEX
  5
778
330
470
100
AcDbEntity
  8
1_TOP
  6
CONTINUOUS
 62
     7
100
AcDbVertex
100
AcDb3dPolylineVertex
 10
-12.94211969755719
 20
-9.984782897199012
 30
0.4179945919217268
 70
    32
1001
ACAD
1000
R13OBJECT
1002
{
1005
470
1002
}
  0
VERTEX
  5
779
330
470
100
AcDbEntity
  8
1_TOP
  6
CONTINUOUS
 62
     7
100
AcDbVertex
100
AcDb3dPolylineVertex
 10
-12.94197214027014
 20
-9.980653536970862
 30
0.4176296329736381
 70
    32
1001
ACAD
1000
R13OBJECT
1002
{
1005
470
1002
}
  0
VERTEX
  5
77A
330
470
100
AcDbEntity
  8
1_TOP
  6
CONTINUOUS
 62
     7
100
AcDbVertex
100
AcDb3dPolylineVertex
 10
-12.94181333179504
 20
-9.976524669078711
 30
0.4172638233524346
 70
    32
1001
ACAD
1000
R13OBJECT
1002
{
1005
470
1002
}
  0
VERTEX
  5
77B
330
470
100
AcDbEntity
  8
1_TOP
  6
CONTINUOUS
 62
     7
100
AcDbVertex
100
AcDb3dPolylineVertex
 10
-12.94164282736746
 20
-9.972396343399198
 30
0.4168971676129141
 70
    32
1001
ACAD
1000
R13OBJECT
1002
{
1005
470
1002
}
  0
VERTEX
  5
77C
330
470
100
AcDbEntity
  8
1_TOP
  6
CONTINUOUS
 62
     7
100
AcDbVertex
100
AcDb3dPolylineVertex
 10
-12.94146013216687
 20
-9.968268614410334
 30
0.416529670763863
 70
    32
1001
ACAD
1000
R13OBJECT
1002
{
1005
470
1002
}
  0
VERTEX
  5
77D
330
470
100
AcDbEntity
  8
1_TOP
  6
CONTINUOUS
 62
     7
100
AcDbVertex
100
AcDb3dPolylineVertex
 10
-12.94126469407234
 20
-9.96414154382184
 30
0.4161613385065064
 70
    32
1001
ACAD
1000
R13OBJECT
1002
{
1005
470
1002
}
  0
VERTEX
  5
77E
330
470
100
AcDbEntity
  8
1_TOP
  6
CONTINUOUS
 62
     7
100
AcDbVertex
100
AcDb3dPolylineVertex
 10
-12.9410558945964
 20
-9.960015197152543
 30
0.4157921769364079
 70
    32
1001
ACAD
1000
R13OBJECT
1002
{
1005
470
1002
}
  0
VERTEX
  5
77F
330
470
100
AcDbEntity
  8
1_TOP
  6
CONTINUOUS
 62
     7
100
AcDbVertex
100
AcDb3dPolylineVertex
 10
-12.94083303911142
 20
-9.95588966434294
 30
0.4154221943983075
 70
    32
1001
ACAD
1000
R13OBJECT
1002
{
1005
470
1002
}
  0
VERTEX
  5
780
330
470
100
AcDbEntity
  8
1_TOP
  6
CONTINUOUS
 62
     7
100
AcDbVertex
100
AcDb3dPolylineVertex
 10
-12.94059534212127
 20
-9.951765032113335
 30
0.4150513990246397
 70
    32
1001
ACAD
1000
R13OBJECT
1002
{
1005
470
1002
}
  0
VERTEX
  5
781
330
470
100
AcDbEntity
  8
1_TOP
  6
CONTINUOUS
 62
     7
100
AcDbVertex
100
AcDb3dPolylineVertex
 10
-12.94034191206875
 20
-9.947641410213572
 30
0.4146798011004258
 70
    32
1001
ACAD
1000
R13OBJECT
1002
{
1005
470
1002
}
  0
VERTEX
  5
782
330
470
100
AcDbEntity
  8
1_TOP
  6
CONTINUOUS
 62
     7
100
AcDbVertex
100
AcDb3dPolylineVertex
 10
-12.94007173012938
 20
-9.943518923414508
 30
0.4143074123636621
 70
    32
1001
ACAD
1000
R13OBJECT
1002
{
1005
470
1002
}
  0
VERTEX
  5
783
330
470
100
AcDbEntity
  8
1_TOP
  6
CONTINUOUS
 62
     7
100
AcDbVertex
100
AcDb3dPolylineVertex
 10
-12.93978362436408
 20
-9.939397721162563
 30
0.4139342468972333
 70
    32
1001
ACAD
1000
R13OBJECT
1002
{
1005
470
1002
}
  0
VERTEX
  5
784
330
470
100
AcDbEntity
  8
1_TOP
  6
CONTINUOUS
 62
     7
100
AcDbVertex
100
AcDb3dPolylineVertex
 10
-12.93947623592839
 20
-9.935277981468551
 30
0.4135603215088642
 70
    32
1001
ACAD
1000
R13OBJECT
1002
{
1005
470
1002
}
  0
VERTEX
  5
785
330
470
100
AcDbEntity
  8
1_TOP
  6
CONTINUOUS
 62
     7
100
AcDbVertex
100
AcDb3dPolylineVertex
 10
-12.93914797489309
 20
-9.931159917057467
 30
0.4131856563219941
 70
    32
1001
ACAD
1000
R13OBJECT
1002
{
1005
470
1002
}
  0
VERTEX
  5
786
330
470
100
AcDbEntity
  8
1_TOP
  6
CONTINUOUS
 62
     7
100
AcDbVertex
100
AcDb3dPolylineVertex
 10
-12.93879696280023
 20
-9.927043799613224
 30
0.4128102770271834
 70
    32
1001
ACAD
1000
R13OBJECT
1002
{
1005
470
1002
}
  0
VERTEX
  5
787
330
470
100
AcDbEntity
  8
1_TOP
  6
CONTINUOUS
 62
     7
100
AcDbVertex
100
AcDb3dPolylineVertex
 10
-12.93842095154478
 20
-9.922929953695463
 30
0.4124342143889928
 70
    32
1001
ACAD
1000
R13OBJECT
1002
{
1005
470
1002
}
  0
VERTEX
  5
788
330
470
100
AcDbEntity
  8
1_TOP
  6
CONTINUOUS
 62
     7
100
AcDbVertex
100
AcDb3dPolylineVertex
 10
-12.93801721465866
 20
-9.918818796647819
 30
0.4120575079643133
 70
    32
1001
ACAD
1000
R13OBJECT
1002
{
1005
470
1002
}
  0
VERTEX
  5
789
330
470
100
AcDbEntity
  8
1_TOP
  6
CONTINUOUS
 62
     7
100
AcDbVertex
100
AcDb3dPolylineVertex
 10
-12.93758239042631
 20
-9.914710869869063
 30
0.4116802090776094
 70
    32
1001
ACAD
1000
R13OBJECT
1002
{
1005
470
1002
}
  0
VERTEX
  5
78A
330
470
100
AcDbEntity
  8
1_TOP
  6
CONTINUOUS
 62
     7
100
AcDbVertex
100
AcDb3dPolylineVertex
 10
-12.93711225057643
 20
-9.910606881118647
 30
0.411302384854189
 70
    32
1001
ACAD
1000
R13OBJECT
1002
{
1005
470
1002
}
  0
VERTEX
  5
78B
330
470
100
AcDbEntity
  8
1_TOP
  6
CONTINUOUS
 62
     7
100
AcDbVertex
100
AcDb3dPolylineVertex
 10
-12.93660135260502
 20
-9.906507815453656
 30
0.4109241286478984
 70
    32
1001
ACAD
1000
R13OBJECT
1002
{
1005
470
1002
}
  0
VERTEX
  5
78C
330
470
100
AcDbEntity
  8
1_TOP
  6
CONTINUOUS
 62
     7
100
AcDbVertex
100
AcDb3dPolylineVertex
 10
-12.93604247832044
 20
-9.902415051775376
 30
0.4105455711316343
 70
    32
1001
ACAD
1000
R13OBJECT
1002
{
1005
470
1002
}
  0
VERTEX
  5
78D
330
470
100
AcDbEntity
  8
1_TOP
  6
CONTINUOUS
 62
     7
100
AcDbVertex
100
AcDb3dPolylineVertex
 10
-12.93542569482818
 20
-9.898330634599851
 30
0.4101669059432221
 70
    32
1001
ACAD
1000
R13OBJECT
1002
{
1005
470
1002
}
  0
VERTEX
  5
78E
330
470
100
AcDbEntity
  8
1_TOP
  6
CONTINUOUS
 62
     7
100
AcDbVertex
100
AcDb3dPolylineVertex
 10
-12.93473665794724
 20
-9.894257796784023
 30
0.4097884390265138
 70
    32
1001
ACAD
1000
R13OBJECT
1002
{
1005
470
1002
}
  0
VERTEX
  5
78F
330
470
100
AcDbEntity
  8
1_TOP
  6
CONTINUOUS
 62
     7
100
AcDbVertex
100
AcDb3dPolylineVertex
 10
-12.93395323588143
 20
-9.890202041431743
 30
0.4094106907763262
 70
    32
1001
ACAD
1000
R13OBJECT
1002
{
1005
470
1002
}
  0
VERTEX
  5
790
330
470
100
AcDbEntity
  8
1_TOP
  6
CONTINUOUS
 62
     7
100
AcDbVertex
100
AcDb3dPolylineVertex
 10
-12.93303788382869
 20
-9.886173995827816
 30
0.4090346651558178
 70
    32
1001
ACAD
1000
R13OBJECT
1002
{
1005
470
1002
}
  0
VERTEX
  5
791
330
470
100
AcDbEntity
  8
1_TOP
  6
CONTINUOUS
 62
     7
100
AcDbVertex
100
AcDb3dPolylineVertex
 10
-12.93191657211306
 20
-9.882198501718916
 30
0.408662706506968
 70
    32
1001
ACAD
1000
R13OBJECT
1002
{
1005
470
1002
}
  0
VERTEX
  5
792
330
470
100
AcDbEntity
  8
1_TOP
  6
CONTINUOUS
 62
     7
100
AcDbVertex
100
AcDb3dPolylineVertex
 10
-12.93122935879281
 20
-9.880249998618674
 30
0.4084800945990767
 70
    32
1001
ACAD
1000
R13OBJECT
1002
{
1005
470
1002
}
  0
VERTEX
  5
793
330
470
100
AcDbEntity
  8
1_TOP
  6
CONTINUOUS
 62
     7
100
AcDbVertex
100
AcDb3dPolylineVertex
 10
-12.93039638466689
 20
-9.878360285637491
 30
0.4083028011698961
 70
    32
1001
ACAD
1000
R13OBJECT
1002
{
1005
470
1002
}
  0
VERTEX
  5
794
330
470
100
AcDbEntity
  8
1_TOP
  6
CONTINUOUS
 62
     7
100
AcDbVertex
100
AcDb3dPolylineVertex
 10
-12.92985733712646
 20
-9.877404511133537
 30
0.4082130583960069
 70
    32
1001
ACAD
1000
R13OBJECT
1002
{
1005
470
1002
}
  0
VERTEX
  5
795
330
470
100
AcDbEntity
  8
1_TOP
  6
CONTINUOUS
 62
     7
100
AcDbVertex
100
AcDb3dPolylineVertex
 10
-12.92919553403262
 20
-9.876511197944664
 30
0.4081291368804998
 70
    32
1001
ACAD
1000
R13OBJECT
1002
{
1005
470
1002
}
  0
VERTEX
  5
796
330
470
100
AcDbEntity
  8
1_TOP
  6
CONTINUOUS
 62
     7
100
AcDbVertex
100
AcDb3dPolylineVertex
 10
-12.92845036059255
 20
-9.875868690349276
 30
0.4080687510456956
 70
    32
1001
ACAD
1000
R13OBJECT
1002
{
1005
470
1002
}
  0
VERTEX
  5
797
330
470
100
AcDbEntity
  8
1_TOP
  6
CONTINUOUS
 62
     7
100
AcDbVertex
100
AcDb3dPolylineVertex
 10
-12.92802124164952
 20
-9.875671423635187
 30
0.4080502066379542
 70
    32
1001
ACAD
1000
R13OBJECT
1002
{
1005
470
1002
}
  0
VERTEX
  5
798
330
470
100
AcDbEntity
  8
1_TOP
  6
CONTINUOUS
 62
     7
100
AcDbVertex
100
AcDb3dPolylineVertex
 10
-12.92756125891672
 20
-9.87559939002385
 30
0.4080434344787029
 70
    32
1001
ACAD
1000
R13OBJECT
1002
{
1005
470
1002
}
  0
SEQEND
  5
799
330
470
100
AcDbEntity
  8
1_TOP
  6
CONTINUOUS
 62
     7
  0
POLYLINE
  5
471
330
9D2
100
AcDbEntity
  8
1_TOP
  6
CONTINUOUS
 62
     7
100
AcDb3dPolyline
 66
     1
 10
0.0
 20
0.0
 30
0.0
 70
     8
  0
VERTEX
  5
79A
330
471
100
AcDbEntity
  8
1_TOP
  6
CONTINUOUS
 62
     7
100
AcDbVertex
100
AcDb3dPolylineVertex
 10
-12.92756125891672
 20
-9.87559939002385
 30
0.4080434344787029
 70
    32
1001
ACAD
1000
R13OBJECT
1002
{
1005
471
1002
}
  0
VERTEX
  5
79B
330
471
100
AcDbEntity
  8
1_TOP
  6
CONTINUOUS
 62
     7
100
AcDbVertex
100
AcDb3dPolylineVertex
 10
-12.92735796228373
 20
-9.875409259157262
 30
0.4080434344787029
 70
    32
1001
ACAD
1000
R13OBJECT
1002
{
1005
471
1002
}
  0
VERTEX
  5
79C
330
471
100
AcDbEntity
  8
1_TOP
  6
CONTINUOUS
 62
     7
100
AcDbVertex
100
AcDb3dPolylineVertex
 10
-12.92714257625431
 20
-9.875233032346912
 30
0.4080434344787029
 70
    32
1001
ACAD
1000
R13OBJECT
1002
{
1005
471
1002
}
  0
VERTEX
  5
79D
330
471
100
AcDbEntity
  8
1_TOP
  6
CONTINUOUS
 62
     7
100
AcDbVertex
100
AcDb3dPolylineVertex
 10
-12.92668046020698
 20
-9.874923312106352
 30
0.4080434344787023
 70
    32
1001
ACAD
1000
R13OBJECT
1002
{
1005
471
1002
}
  0
VERTEX
  5
79E
330
471
100
AcDbEntity
  8
1_TOP
  6
CONTINUOUS
 62
     7
100
AcDbVertex
100
AcDb3dPolylineVertex
 10
-12.92618504673838
 20
-9.874670089002314
 30
0.4080434344787028
 70
    32
1001
ACAD
1000
R13OBJECT
1002
{
1005
471
1002
}
  0
VERTEX
  5
79F
330
471
100
AcDbEntity
  8
1_TOP
  6
CONTINUOUS
 62
     7
100
AcDbVertex
100
AcDb3dPolylineVertex
 10
-12.92566547348841
 20
-9.874470939376648
 30
0.4080434344787029
 70
    32
1001
ACAD
1000
R13OBJECT
1002
{
1005
471
1002
}
  0
VERTEX
  5
7A0
330
471
100
AcDbEntity
  8
1_TOP
  6
CONTINUOUS
 62
     7
100
AcDbVertex
100
AcDb3dPolylineVertex
 10
-12.92512911117591
 20
-9.874322420164642
 30
0.4080434344787029
 70
    32
1001
ACAD
1000
R13OBJECT
1002
{
1005
471
1002
}
  0
VERTEX
  5
7A1
330
471
100
AcDbEntity
  8
1_TOP
  6
CONTINUOUS
 62
     7
100
AcDbVertex
100
AcDb3dPolylineVertex
 10
-12.92458194580055
 20
-9.874220832285626
 30
0.4080434344787029
 70
    32
1001
ACAD
1000
R13OBJECT
1002
{
1005
471
1002
}
  0
VERTEX
  5
7A2
330
471
100
AcDbEntity
  8
1_TOP
  6
CONTINUOUS
 62
     7
100
AcDbVertex
100
AcDb3dPolylineVertex
 10
-12.924028467503
 20
-9.874162445124973
 30
0.4080434344787029
 70
    32
1001
ACAD
1000
R13OBJECT
1002
{
1005
471
1002
}
  0
VERTEX
  5
7A3
330
471
100
AcDbEntity
  8
1_TOP
  6
CONTINUOUS
 62
     7
100
AcDbVertex
100
AcDb3dPolylineVertex
 10
-12.9234721950553
 20
-9.874143727520225
 30
0.4080434344787029
 70
    32
1001
ACAD
1000
R13OBJECT
1002
{
1005
471
1002
}
  0
SEQEND
  5
7A4
330
471
100
AcDbEntity
  8
1_TOP
  6
CONTINUOUS
 62
     7
  0
POLYLINE
  5
472
330
9D2
100
AcDbEntity
  8
1_TOP
  6
CONTINUOUS
 62
     7
100
AcDb3dPolyline
 66
     1
 10
0.0
 20
0.0
 30
0.0
 70
     8
  0
VERTEX
  5
7A5
330
472
100
AcDbEntity
  8
1_TOP
  6
CONTINUOUS
 62
     7
100
AcDbVertex
100
AcDb3dPolylineVertex
 10
-12.9234721950553
 20
-9.874143727520225
 30
0.4080434344787029
 70
    32
1001
ACAD
1000
R13OBJECT
1002
{
1005
472
1002
}
  0
VERTEX
  5
7A6
330
472
100
AcDbEntity
  8
1_TOP
  6
CONTINUOUS
 62
     7
100
AcDbVertex
100
AcDb3dPolylineVertex
 10
-12.92485097020571
 20
-9.87333932486714
 30
0.4078922686371783
 70
    32
1001
ACAD
1000
R13OBJECT
1002
{
1005
472
1002
}
  0
VERTEX
  5
7A7
330
472
100
AcDbEntity
  8
1_TOP
  6
CONTINUOUS
 62
     7
100
AcDbVertex
100
AcDb3dPolylineVertex
 10
-12.92636828139755
 20
-9.872833337241916
 30
0.4077971469490265
 70
    32
1001
ACAD
1000
R13OBJECT
1002
{
1005
472
1002
}
  0
VERTEX
  5
7A8
330
472
100
AcDbEntity
  8
1_TOP
  6
CONTINUOUS
 62
     7
100
AcDbVertex
100
AcDb3dPolylineVertex
 10
-12.92796429101588
 20
-9.872725840878644
 30
0.4077769350056986
 70
    32
1001
ACAD
1000
R13OBJECT
1002
{
1005
472
1002
}
  0
VERTEX
  5
7A9
330
472
100
AcDbEntity
  8
1_TOP
  6
CONTINUOUS
 62
     7
100
AcDbVertex
100
AcDb3dPolylineVertex
 10
-12.92953350985527
 20
-9.873043865308602
 30
0.4078367278437979
 70
    32
1001
ACAD
1000
R13OBJECT
1002
{
1005
472
1002
}
  0
VERTEX
  5
7AA
330
472
100
AcDbEntity
  8
1_TOP
  6
CONTINUOUS
 62
     7
100
AcDbVertex
100
AcDb3dPolylineVertex
 10
-12.93098171219025
 20
-9.873711588628683
 30
0.407962232969491
 70
    32
1001
ACAD
1000
R13OBJECT
1002
{
1005
472
1002
}
  0
VERTEX
  5
7AB
330
472
100
AcDbEntity
  8
1_TOP
  6
CONTINUOUS
 62
     7
100
AcDbVertex
100
AcDb3dPolylineVertex
 10
-12.9322900124507
 20
-9.87462979444693
 30
0.4081347446450481
 70
    32
1001
ACAD
1000
R13OBJECT
1002
{
1005
472
1002
}
  0
VERTEX
  5
7AC
330
472
100
AcDbEntity
  8
1_TOP
  6
CONTINUOUS
 62
     7
100
AcDbVertex
100
AcDb3dPolylineVertex
 10
-12.93346146561118
 20
-9.875708333941998
 30
0.4083372649457996
 70
    32
1001
ACAD
1000
R13OBJECT
1002
{
1005
472
1002
}
  0
VERTEX
  5
7AD
330
472
100
AcDbEntity
  8
1_TOP
  6
CONTINUOUS
 62
     7
100
AcDbVertex
100
AcDb3dPolylineVertex
 10
-12.9345189722068
 20
-9.876895071772386
 30
0.4085599603618407
 70
    32
1001
ACAD
1000
R13OBJECT
1002
{
1005
472
1002
}
  0
VERTEX
  5
7AE
330
472
100
AcDbEntity
  8
1_TOP
  6
CONTINUOUS
 62
     7
100
AcDbVertex
100
AcDb3dPolylineVertex
 10
-12.93636903053989
 20
-9.87947309943074
 30
0.4090432249665314
 70
    32
1001
ACAD
1000
R13OBJECT
1002
{
1005
472
1002
}
  0
VERTEX
  5
7AF
330
472
100
AcDbEntity
  8
1_TOP
  6
CONTINUOUS
 62
     7
100
AcDbVertex
100
AcDb3dPolylineVertex
 10
-12.93795632117732
 20
-9.882216414412923
 30
0.4095567048784548
 70
    32
1001
ACAD
1000
R13OBJECT
1002
{
1005
472
1002
}
  0
VERTEX
  5
7B0
330
472
100
AcDbEntity
  8
1_TOP
  6
CONTINUOUS
 62
     7
100
AcDbVertex
100
AcDb3dPolylineVertex
 10
-12.93935264165277
 20
-9.885058888179322
 30
0.4100879089447497
 70
    32
1001
ACAD
1000
R13OBJECT
1002
{
1005
472
1002
}
  0
VERTEX
  5
7B1
330
472
100
AcDbEntity
  8
1_TOP
  6
CONTINUOUS
 62
     7
100
AcDbVertex
100
AcDb3dPolylineVertex
 10
-12.94060327846719
 20
-9.887966522857539
 30
0.4106304102793767
 70
    32
1001
ACAD
1000
R13OBJECT
1002
{
1005
472
1002
}
  0
VERTEX
  5
7B2
330
472
100
AcDbEntity
  8
1_TOP
  6
CONTINUOUS
 62
     7
100
AcDbVertex
100
AcDb3dPolylineVertex
 10
-12.94173831657384
 20
-9.890919889113213
 30
0.4111805331386841
 70
    32
1001
ACAD
1000
R13OBJECT
1002
{
1005
472
1002
}
  0
VERTEX
  5
7B3
330
472
100
AcDbEntity
  8
1_TOP
  6
CONTINUOUS
 62
     7
100
AcDbVertex
100
AcDb3dPolylineVertex
 10
-12.94277874819989
 20
-9.893906998174584
 30
0.41173600752479
 70
    32
1001
ACAD
1000
R13OBJECT
1002
{
1005
472
1002
}
  0
VERTEX
  5
7B4
330
472
100
AcDbEntity
  8
1_TOP
  6
CONTINUOUS
 62
     7
100
AcDbVertex
100
AcDb3dPolylineVertex
 10
-12.9437397939669
 20
-9.8969198867004
 30
0.4122953247156537
 70
    32
1001
ACAD
1000
R13OBJECT
1002
{
1005
472
1002
}
  0
VERTEX
  5
7B5
330
472
100
AcDbEntity
  8
1_TOP
  6
CONTINUOUS
 62
     7
100
AcDbVertex
100
AcDb3dPolylineVertex
 10
-12.9446329042707
 20
-9.899953098050831
 30
0.4128574499868682
 70
    32
1001
ACAD
1000
R13OBJECT
1002
{
1005
472
1002
}
  0
VERTEX
  5
7B6
330
472
100
AcDbEntity
  8
1_TOP
  6
CONTINUOUS
 62
     7
100
AcDbVertex
100
AcDb3dPolylineVertex
 10
-12.94546692275281
 20
-9.903002719190601
 30
0.4134216407534561
 70
    32
1001
ACAD
1000
R13OBJECT
1002
{
1005
472
1002
}
  0
VERTEX
  5
7B7
330
472
100
AcDbEntity
  8
1_TOP
  6
CONTINUOUS
 62
     7
100
AcDbVertex
100
AcDb3dPolylineVertex
 10
-12.94624883919186
 20
-9.906065850991305
 30
0.4139873464435419
 70
    32
1001
ACAD
1000
R13OBJECT
1002
{
1005
472
1002
}
  0
VERTEX
  5
7B8
330
472
100
AcDbEntity
  8
1_TOP
  6
CONTINUOUS
 62
     7
100
AcDbVertex
100
AcDb3dPolylineVertex
 10
-12.94698428207162
 20
-9.909140264758786
 30
0.4145541436510089
 70
    32
1001
ACAD
1000
R13OBJECT
1002
{
1005
472
1002
}
  0
VERTEX
  5
7B9
330
472
100
AcDbEntity
  8
1_TOP
  6
CONTINUOUS
 62
     7
100
AcDbVertex
100
AcDb3dPolylineVertex
 10
-12.94767787390099
 20
-9.912224263544493
 30
0.4151217095831418
 70
    32
1001
ACAD
1000
R13OBJECT
1002
{
1005
472
1002
}
  0
VERTEX
  5
7BA
330
472
100
AcDbEntity
  8
1_TOP
  6
CONTINUOUS
 62
     7
100
AcDbVertex
100
AcDb3dPolylineVertex
 10
-12.94833345214622
 20
-9.915316477891432
 30
0.4156897837288277
 70
    32
1001
ACAD
1000
R13OBJECT
1002
{
1005
472
1002
}
  0
VERTEX
  5
7BB
330
472
100
AcDbEntity
  8
1_TOP
  6
CONTINUOUS
 62
     7
100
AcDbVertex
100
AcDb3dPolylineVertex
 10
-12.94895424884711
 20
-9.918415807956536
 30
0.4162581567354684
 70
    32
1001
ACAD
1000
R13OBJECT
1002
{
1005
472
1002
}
  0
VERTEX
  5
7BC
330
472
100
AcDbEntity
  8
1_TOP
  6
CONTINUOUS
 62
     7
100
AcDbVertex
100
AcDb3dPolylineVertex
 10
-12.94954301604585
 20
-9.9215213593945
 30
0.4168266582526293
 70
    32
1001
ACAD
1000
R13OBJECT
1002
{
1005
472
1002
}
  0
VERTEX
  5
7BD
330
472
100
AcDbEntity
  8
1_TOP
  6
CONTINUOUS
 62
     7
100
AcDbVertex
100
AcDb3dPolylineVertex
 10
-12.95010211907739
 20
-9.924632393730783
 30
0.4173951475428589
 70
    32
1001
ACAD
1000
R13OBJECT
1002
{
1005
472
1002
}
  0
VERTEX
  5
7BE
330
472
100
AcDbEntity
  8
1_TOP
  6
CONTINUOUS
 62
     7
100
AcDbVertex
100
AcDb3dPolylineVertex
 10
-12.95063360721938
 20
-9.927748288342222
 30
0.4179635059383417
 70
    32
1001
ACAD
1000
R13OBJECT
1002
{
1005
472
1002
}
  0
VERTEX
  5
7BF
330
472
100
AcDbEntity
  8
1_TOP
  6
CONTINUOUS
 62
     7
100
AcDbVertex
100
AcDb3dPolylineVertex
 10
-12.95113927064516
 20
-9.930868519161396
 30
0.4185316335083261
 70
    32
1001
ACAD
1000
R13OBJECT
1002
{
1005
472
1002
}
  0
VERTEX
  5
7C0
330
472
100
AcDbEntity
  8
1_TOP
  6
CONTINUOUS
 62
     7
100
AcDbVertex
100
AcDb3dPolylineVertex
 10
-12.95162068517119
 20
-9.933992650668256
 30
0.4190994470827259
 70
    32
1001
ACAD
1000
R13OBJECT
1002
{
1005
472
1002
}
  0
VERTEX
  5
7C1
330
472
100
AcDbEntity
  8
1_TOP
  6
CONTINUOUS
 62
     7
100
AcDbVertex
100
AcDb3dPolylineVertex
 10
-12.95207924004976
 20
-9.937120277054892
 30
0.4196668694443173
 70
    32
1001
ACAD
1000
R13OBJECT
1002
{
1005
472
1002
}
  0
VERTEX
  5
7C2
330
472
100
AcDbEntity
  8
1_TOP
  6
CONTINUOUS
 62
     7
100
AcDbVertex
100
AcDb3dPolylineVertex
 10
-12.95251617831361
 20
-9.940251094976026
 30
0.4202338424441041
 70
    32
1001
ACAD
1000
R13OBJECT
1002
{
1005
472
1002
}
  0
VERTEX
  5
7C3
330
472
100
AcDbEntity
  8
1_TOP
  6
CONTINUOUS
 62
     7
100
AcDbVertex
100
AcDb3dPolylineVertex
 10
-12.95293260303514
 20
-9.943384783006383
 30
0.4208003050638855
 70
    32
1001
ACAD
1000
R13OBJECT
1002
{
1005
472
1002
}
  0
VERTEX
  5
7C4
330
472
100
AcDbEntity
  8
1_TOP
  6
CONTINUOUS
 62
     7
100
AcDbVertex
100
AcDb3dPolylineVertex
 10
-12.95332951215707
 20
-9.946521111712831
 30
0.4213662132897302
 70
    32
1001
ACAD
1000
R13OBJECT
1002
{
1005
472
1002
}
  0
VERTEX
  5
7C5
330
472
100
AcDbEntity
  8
1_TOP
  6
CONTINUOUS
 62
     7
100
AcDbVertex
100
AcDb3dPolylineVertex
 10
-12.95370780251625
 20
-9.949659858081645
 30
0.4219315245630652
 70
    32
1001
ACAD
1000
R13OBJECT
1002
{
1005
472
1002
}
  0
VERTEX
  5
7C6
330
472
100
AcDbEntity
  8
1_TOP
  6
CONTINUOUS
 62
     7
100
AcDbVertex
100
AcDb3dPolylineVertex
 10
-12.95406828309753
 20
-9.952800800040773
 30
0.4224961967867066
 70
    32
1001
ACAD
1000
R13OBJECT
1002
{
1005
472
1002
}
  0
VERTEX
  5
7C7
330
472
100
AcDbEntity
  8
1_TOP
  6
CONTINUOUS
 62
     7
100
AcDbVertex
100
AcDb3dPolylineVertex
 10
-12.95441169291112
 20
-9.95594377505688
 30
0.4230601988292129
 70
    32
1001
ACAD
1000
R13OBJECT
1002
{
1005
472
1002
}
  0
VERTEX
  5
7C8
330
472
100
AcDbEntity
  8
1_TOP
  6
CONTINUOUS
 62
     7
100
AcDbVertex
100
AcDb3dPolylineVertex
 10
-12.95473870392576
 20
-9.959088628266266
 30
0.4236235011449053
 70
    32
1001
ACAD
1000
R13OBJECT
1002
{
1005
472
1002
}
  0
VERTEX
  5
7C9
330
472
100
AcDbEntity
  8
1_TOP
  6
CONTINUOUS
 62
     7
100
AcDbVertex
100
AcDb3dPolylineVertex
 10
-12.95504993147973
 20
-9.962235236325607
 30
0.4241860800217794
 70
    32
1001
ACAD
1000
R13OBJECT
1002
{
1005
472
1002
}
  0
VERTEX
  5
7CA
330
472
100
AcDbEntity
  8
1_TOP
  6
CONTINUOUS
 62
     7
100
AcDbVertex
100
AcDb3dPolylineVertex
 10
-12.95534593344227
 20
-9.965383429728753
 30
0.4247479036792451
 70
    32
1001
ACAD
1000
R13OBJECT
1002
{
1005
472
1002
}
  0
VERTEX
  5
7CB
330
472
100
AcDbEntity
  8
1_TOP
  6
CONTINUOUS
 62
     7
100
AcDbVertex
100
AcDb3dPolylineVertex
 10
-12.95562722711106
 20
-9.96853310530971
 30
0.4253089523659437
 70
    32
1001
ACAD
1000
R13OBJECT
1002
{
1005
472
1002
}
  0
VERTEX
  5
7CC
330
472
100
AcDbEntity
  8
1_TOP
  6
CONTINUOUS
 62
     7
100
AcDbVertex
100
AcDb3dPolylineVertex
 10
-12.95589428714936
 20
-9.971684157493532
 30
0.4258692060382336
 70
    32
1001
ACAD
1000
R13OBJECT
1002
{
1005
472
1002
}
  0
VERTEX
  5
7CD
330
472
100
AcDbEntity
  8
1_TOP
  6
CONTINUOUS
 62
     7
100
AcDbVertex
100
AcDb3dPolylineVertex
 10
-12.95614755165154
 20
-9.9748364979495
 30
0.4264286478488479
 70
    32
1001
ACAD
1000
R13OBJECT
1002
{
1005
472
1002
}
  0
VERTEX
  5
7CE
330
472
100
AcDbEntity
  8
1_TOP
  6
CONTINUOUS
 62
     7
100
AcDbVertex
100
AcDb3dPolylineVertex
 10
-12.95638742404266
 20
-9.977990033949275
 30
0.4269872602884698
 70
    32
1001
ACAD
1000
R13OBJECT
1002
{
1005
472
1002
}
  0
VERTEX
  5
7CF
330
472
100
AcDbEntity
  8
1_TOP
  6
CONTINUOUS
 62
     7
100
AcDbVertex
100
AcDb3dPolylineVertex
 10
-12.95661427727885
 20
-9.981144678925994
 30
0.4275450270582497
 70
    32
1001
ACAD
1000
R13OBJECT
1002
{
1005
472
1002
}
  0
VERTEX
  5
7D0
330
472
100
AcDbEntity
  8
1_TOP
  6
CONTINUOUS
 62
     7
100
AcDbVertex
100
AcDb3dPolylineVertex
 10
-12.95682845738628
 20
-9.984300363537226
 30
0.4281019350102237
 70
    32
1001
ACAD
1000
R13OBJECT
1002
{
1005
472
1002
}
  0
VERTEX
  5
7D1
330
472
100
AcDbEntity
  8
1_TOP
  6
CONTINUOUS
 62
     7
100
AcDbVertex
100
AcDb3dPolylineVertex
 10
-12.95703028453061
 20
-9.987457016865123
 30
0.4286579708104627
 70
    32
1001
ACAD
1000
R13OBJECT
1002
{
1005
472
1002
}
  0
VERTEX
  5
7D2
330
472
100
AcDbEntity
  8
1_TOP
  6
CONTINUOUS
 62
     7
100
AcDbVertex
100
AcDb3dPolylineVertex
 10
-12.95722005562486
 20
-9.990614571695019
 30
0.4292131218689056
 70
    32
1001
ACAD
1000
R13OBJECT
1002
{
1005
472
1002
}
  0
VERTEX
  5
7D3
330
472
100
AcDbEntity
  8
1_TOP
  6
CONTINUOUS
 62
     7
100
AcDbVertex
100
AcDb3dPolylineVertex
 10
-12.95739804664349
 20
-9.993772971610862
 30
0.4297673775772461
 70
    32
1001
ACAD
1000
R13OBJECT
1002
{
1005
472
1002
}
  0
VERTEX
  5
7D4
330
472
100
AcDbEntity
  8
1_TOP
  6
CONTINUOUS
 62
     7
100
AcDbVertex
100
AcDb3dPolylineVertex
 10
-12.95756451353175
 20
-9.996932158046083
 30
0.4303207270251312
 70
    32
1001
ACAD
1000
R13OBJECT
1002
{
1005
472
1002
}
  0
VERTEX
  5
7D5
330
472
100
AcDbEntity
  8
1_TOP
  6
CONTINUOUS
 62
     7
100
AcDbVertex
100
AcDb3dPolylineVertex
 10
-12.95771969425026
 20
-10.00009207954348
 30
0.4308731606210662
 70
    32
1001
ACAD
1000
R13OBJECT
1002
{
1005
472
1002
}
  0
VERTEX
  5
7D6
330
472
100
AcDbEntity
  8
1_TOP
  6
CONTINUOUS
 62
     7
100
AcDbVertex
100
AcDb3dPolylineVertex
 10
-12.95786380979143
 20
-10.00325268610136
 30
0.4314246690950327
 70
    32
1001
ACAD
1000
R13OBJECT
1002
{
1005
472
1002
}
  0
VERTEX
  5
7D7
330
472
100
AcDbEntity
  8
1_TOP
  6
CONTINUOUS
 62
     7
100
AcDbVertex
100
AcDb3dPolylineVertex
 10
-12.95799706556205
 20
-10.00641393338411
 30
0.4319752442287428
 70
    32
1001
ACAD
1000
R13OBJECT
1002
{
1005
472
1002
}
  0
VERTEX
  5
7D8
330
472
100
AcDbEntity
  8
1_TOP
  6
CONTINUOUS
 62
     7
100
AcDbVertex
100
AcDb3dPolylineVertex
 10
-12.95811965206015
 20
-10.00957577385926
 30
0.4325248773070553
 70
    32
1001
ACAD
1000
R13OBJECT
1002
{
1005
472
1002
}
  0
VERTEX
  5
7D9
330
472
100
AcDbEntity
  8
1_TOP
  6
CONTINUOUS
 62
     7
100
AcDbVertex
100
AcDb3dPolylineVertex
 10
-12.9582317464248
 20
-10.01273817199832
 30
0.4330735617581451
 70
    32
1001
ACAD
1000
R13OBJECT
1002
{
1005
472
1002
}
  0
VERTEX
  5
7DA
330
472
100
AcDbEntity
  8
1_TOP
  6
CONTINUOUS
 62
     7
100
AcDbVertex
100
AcDb3dPolylineVertex
 10
-12.95833351239973
 20
-10.01590108086253
 30
0.433621289082836
 70
    32
1001
ACAD
1000
R13OBJECT
1002
{
1005
472
1002
}
  0
VERTEX
  5
7DB
330
472
100
AcDbEntity
  8
1_TOP
  6
CONTINUOUS
 62
     7
100
AcDbVertex
100
AcDb3dPolylineVertex
 10
-12.95842510212043
 20
-10.01906447207683
 30
0.4341680540492443
 70
    32
1001
ACAD
1000
R13OBJECT
1002
{
1005
472
1002
}
  0
VERTEX
  5
7DC
330
472
100
AcDbEntity
  8
1_TOP
  6
CONTINUOUS
 62
     7
100
AcDbVertex
100
AcDb3dPolylineVertex
 10
-12.95850665566505
 20
-10.02222830070428
 30
0.4347138486083694
 70
    32
1001
ACAD
1000
R13OBJECT
1002
{
1005
472
1002
}
  0
VERTEX
  5
7DD
330
472
100
AcDbEntity
  8
1_TOP
  6
CONTINUOUS
 62
     7
100
AcDbVertex
100
AcDb3dPolylineVertex
 10
-12.95857830269703
 20
-10.02539254126403
 30
0.4352586681170847
 70
    32
1001
ACAD
1000
R13OBJECT
1002
{
1005
472
1002
}
  0
VERTEX
  5
7DE
330
472
100
AcDbEntity
  8
1_TOP
  6
CONTINUOUS
 62
     7
100
AcDbVertex
100
AcDb3dPolylineVertex
 10
-12.9586401621218
 20
-10.02855715479405
 30
0.4358025056511616
 70
    32
1001
ACAD
1000
R13OBJECT
1002
{
1005
472
1002
}
  0
VERTEX
  5
7DF
330
472
100
AcDbEntity
  8
1_TOP
  6
CONTINUOUS
 62
     7
100
AcDbVertex
100
AcDb3dPolylineVertex
 10
-12.95869234323208
 20
-10.03172211867721
 30
0.436345357138368
 70
    32
1001
ACAD
1000
R13OBJECT
1002
{
1005
472
1002
}
  0
SEQEND
  5
7E0
330
472
100
AcDbEntity
  8
1_TOP
  6
CONTINUOUS
 62
     7
  0
POLYLINE
  5
473
330
9D2
100
AcDbEntity
  8
1_TOP
  6
CONTINUOUS
 62
     7
100
AcDb3dPolyline
 66
     1
 10
0.0
 20
0.0
 30
0.0
 70
     8
  0
VERTEX
  5
7E1
330
473
100
AcDbEntity
  8
1_TOP
  6
CONTINUOUS
 62
     7
100
AcDbVertex
100
AcDb3dPolylineVertex
 10
-12.9431268010744
 20
-13.40692639634939
 30
0.4223066259982712
 70
    32
1001
ACAD
1000
R13OBJECT
1002
{
1005
473
1002
}
  0
VERTEX
  5
7E2
330
473
100
AcDbEntity
  8
1_TOP
  6
CONTINUOUS
 62
     7
100
AcDbVertex
100
AcDb3dPolylineVertex
 10
-12.94309170684975
 20
-13.41105915303268
 30
0.4219520976822165
 70
    32
1001
ACAD
1000
R13OBJECT
1002
{
1005
473
1002
}
  0
VERTEX
  5
7E3
330
473
100
AcDbEntity
  8
1_TOP
  6
CONTINUOUS
 62
     7
100
AcDbVertex
100
AcDb3dPolylineVertex
 10
-12.94304830179307
 20
-13.41519175378324
 30
0.4215966893337339
 70
    32
1001
ACAD
1000
R13OBJECT
1002
{
1005
473
1002
}
  0
VERTEX
  5
7E4
330
473
100
AcDbEntity
  8
1_TOP
  6
CONTINUOUS
 62
     7
100
AcDbVertex
100
AcDb3dPolylineVertex
 10
-12.94299645521992
 20
-13.41932418149576
 30
0.4212404023369582
 70
    32
1001
ACAD
1000
R13OBJECT
1002
{
1005
473
1002
}
  0
VERTEX
  5
7E5
330
473
100
AcDbEntity
  8
1_TOP
  6
CONTINUOUS
 62
     7
100
AcDbVertex
100
AcDb3dPolylineVertex
 10
-12.94293602093205
 20
-13.42345641709608
 30
0.4208832382607035
 70
    32
1001
ACAD
1000
R13OBJECT
1002
{
1005
473
1002
}
  0
VERTEX
  5
7E6
330
473
100
AcDbEntity
  8
1_TOP
  6
CONTINUOUS
 62
     7
100
AcDbVertex
100
AcDb3dPolylineVertex
 10
-12.9428668361596
 20
-13.42758843974481
 30
0.4205251988429253
 70
    32
1001
ACAD
1000
R13OBJECT
1002
{
1005
473
1002
}
  0
VERTEX
  5
7E7
330
473
100
AcDbEntity
  8
1_TOP
  6
CONTINUOUS
 62
     7
100
AcDbVertex
100
AcDb3dPolylineVertex
 10
-12.942788720325
 20
-13.43172022690451
 30
0.4201662859868332
 70
    32
1001
ACAD
1000
R13OBJECT
1002
{
1005
473
1002
}
  0
VERTEX
  5
7E8
330
473
100
AcDbEntity
  8
1_TOP
  6
CONTINUOUS
 62
     7
100
AcDbVertex
100
AcDb3dPolylineVertex
 10
-12.94270147357054
 20
-13.43585175572524
 30
0.4198065016418849
 70
    32
1001
ACAD
1000
R13OBJECT
1002
{
1005
473
1002
}
  0
VERTEX
  5
7E9
330
473
100
AcDbEntity
  8
1_TOP
  6
CONTINUOUS
 62
     7
100
AcDbVertex
100
AcDb3dPolylineVertex
 10
-12.94260487504804
 20
-13.43998300368006
 30
0.4194458477485899
 70
    32
1001
ACAD
1000
R13OBJECT
1002
{
1005
473
1002
}
  0
VERTEX
  5
7EA
330
473
100
AcDbEntity
  8
1_TOP
  6
CONTINUOUS
 62
     7
100
AcDbVertex
100
AcDb3dPolylineVertex
 10
-12.9424986812712
 20
-13.44411393617076
 30
0.419084327324226
 70
    32
1001
ACAD
1000
R13OBJECT
1002
{
1005
473
1002
}
  0
VERTEX
  5
7EB
330
473
100
AcDbEntity
  8
1_TOP
  6
CONTINUOUS
 62
     7
100
AcDbVertex
100
AcDb3dPolylineVertex
 10
-12.94238262327616
 20
-13.44824452974638
 30
0.4187219424363673
 70
    32
1001
ACAD
1000
R13OBJECT
1002
{
1005
473
1002
}
  0
VERTEX
  5
7EC
330
473
100
AcDbEntity
  8
1_TOP
  6
CONTINUOUS
 62
     7
100
AcDbVertex
100
AcDb3dPolylineVertex
 10
-12.94225640454103
 20
-13.4523747487444
 30
0.4183586962477568
 70
    32
1001
ACAD
1000
R13OBJECT
1002
{
1005
473
1002
}
  0
VERTEX
  5
7ED
330
473
100
AcDbEntity
  8
1_TOP
  6
CONTINUOUS
 62
     7
100
AcDbVertex
100
AcDb3dPolylineVertex
 10
-12.94211969755719
 20
-13.4565045578414
 30
0.4179945919217268
 70
    32
1001
ACAD
1000
R13OBJECT
1002
{
1005
473
1002
}
  0
VERTEX
  5
7EE
330
473
100
AcDbEntity
  8
1_TOP
  6
CONTINUOUS
 62
     7
100
AcDbVertex
100
AcDb3dPolylineVertex
 10
-12.94197214027014
 20
-13.46063391806953
 30
0.4176296329736381
 70
    32
1001
ACAD
1000
R13OBJECT
1002
{
1005
473
1002
}
  0
VERTEX
  5
7EF
330
473
100
AcDbEntity
  8
1_TOP
  6
CONTINUOUS
 62
     7
100
AcDbVertex
100
AcDb3dPolylineVertex
 10
-12.94181333179504
 20
-13.4647627859617
 30
0.4172638233524346
 70
    32
1001
ACAD
1000
R13OBJECT
1002
{
1005
473
1002
}
  0
VERTEX
  5
7F0
330
473
100
AcDbEntity
  8
1_TOP
  6
CONTINUOUS
 62
     7
100
AcDbVertex
100
AcDb3dPolylineVertex
 10
-12.94164282736746
 20
-13.46889111164122
 30
0.4168971676129141
 70
    32
1001
ACAD
1000
R13OBJECT
1002
{
1005
473
1002
}
  0
VERTEX
  5
7F1
330
473
100
AcDbEntity
  8
1_TOP
  6
CONTINUOUS
 62
     7
100
AcDbVertex
100
AcDb3dPolylineVertex
 10
-12.94146013216687
 20
-13.47301884063007
 30
0.416529670763863
 70
    32
1001
ACAD
1000
R13OBJECT
1002
{
1005
473
1002
}
  0
VERTEX
  5
7F2
330
473
100
AcDbEntity
  8
1_TOP
  6
CONTINUOUS
 62
     7
100
AcDbVertex
100
AcDb3dPolylineVertex
 10
-12.94126469407234
 20
-13.47714591121859
 30
0.4161613385065064
 70
    32
1001
ACAD
1000
R13OBJECT
1002
{
1005
473
1002
}
  0
VERTEX
  5
7F3
330
473
100
AcDbEntity
  8
1_TOP
  6
CONTINUOUS
 62
     7
100
AcDbVertex
100
AcDb3dPolylineVertex
 10
-12.9410558945964
 20
-13.48127225788786
 30
0.4157921769364079
 70
    32
1001
ACAD
1000
R13OBJECT
1002
{
1005
473
1002
}
  0
VERTEX
  5
7F4
330
473
100
AcDbEntity
  8
1_TOP
  6
CONTINUOUS
 62
     7
100
AcDbVertex
100
AcDb3dPolylineVertex
 10
-12.94083303911142
 20
-13.48539779069743
 30
0.4154221943983075
 70
    32
1001
ACAD
1000
R13OBJECT
1002
{
1005
473
1002
}
  0
VERTEX
  5
7F5
330
473
100
AcDbEntity
  8
1_TOP
  6
CONTINUOUS
 62
     7
100
AcDbVertex
100
AcDb3dPolylineVertex
 10
-12.94059534212127
 20
-13.48952242292703
 30
0.4150513990246397
 70
    32
1001
ACAD
1000
R13OBJECT
1002
{
1005
473
1002
}
  0
VERTEX
  5
7F6
330
473
100
AcDbEntity
  8
1_TOP
  6
CONTINUOUS
 62
     7
100
AcDbVertex
100
AcDb3dPolylineVertex
 10
-12.94034191206875
 20
-13.49364604482684
 30
0.4146798011004258
 70
    32
1001
ACAD
1000
R13OBJECT
1002
{
1005
473
1002
}
  0
VERTEX
  5
7F7
330
473
100
AcDbEntity
  8
1_TOP
  6
CONTINUOUS
 62
     7
100
AcDbVertex
100
AcDb3dPolylineVertex
 10
-12.94007173012938
 20
-13.49776853162588
 30
0.4143074123636621
 70
    32
1001
ACAD
1000
R13OBJECT
1002
{
1005
473
1002
}
  0
VERTEX
  5
7F8
330
473
100
AcDbEntity
  8
1_TOP
  6
CONTINUOUS
 62
     7
100
AcDbVertex
100
AcDb3dPolylineVertex
 10
-12.93978362436408
 20
-13.50188973387782
 30
0.4139342468972333
 70
    32
1001
ACAD
1000
R13OBJECT
1002
{
1005
473
1002
}
  0
VERTEX
  5
7F9
330
473
100
AcDbEntity
  8
1_TOP
  6
CONTINUOUS
 62
     7
100
AcDbVertex
100
AcDb3dPolylineVertex
 10
-12.93947623592839
 20
-13.50600947357185
 30
0.4135603215088642
 70
    32
1001
ACAD
1000
R13OBJECT
1002
{
1005
473
1002
}
  0
VERTEX
  5
7FA
330
473
100
AcDbEntity
  8
1_TOP
  6
CONTINUOUS
 62
     7
100
AcDbVertex
100
AcDb3dPolylineVertex
 10
-12.93914797489309
 20
-13.51012753798296
 30
0.4131856563219941
 70
    32
1001
ACAD
1000
R13OBJECT
1002
{
1005
473
1002
}
  0
VERTEX
  5
7FB
330
473
100
AcDbEntity
  8
1_TOP
  6
CONTINUOUS
 62
     7
100
AcDbVertex
100
AcDb3dPolylineVertex
 10
-12.93879696280023
 20
-13.51424365542722
 30
0.4128102770271834
 70
    32
1001
ACAD
1000
R13OBJECT
1002
{
1005
473
1002
}
  0
VERTEX
  5
7FC
330
473
100
AcDbEntity
  8
1_TOP
  6
CONTINUOUS
 62
     7
100
AcDbVertex
100
AcDb3dPolylineVertex
 10
-12.93842095154478
 20
-13.51835750134493
 30
0.4124342143889928
 70
    32
1001
ACAD
1000
R13OBJECT
1002
{
1005
473
1002
}
  0
VERTEX
  5
7FD
330
473
100
AcDbEntity
  8
1_TOP
  6
CONTINUOUS
 62
     7
100
AcDbVertex
100
AcDb3dPolylineVertex
 10
-12.93801721465866
 20
-13.52246865839258
 30
0.4120575079643133
 70
    32
1001
ACAD
1000
R13OBJECT
1002
{
1005
473
1002
}
  0
VERTEX
  5
7FE
330
473
100
AcDbEntity
  8
1_TOP
  6
CONTINUOUS
 62
     7
100
AcDbVertex
100
AcDb3dPolylineVertex
 10
-12.93758239042631
 20
-13.52657658517136
 30
0.4116802090776094
 70
    32
1001
ACAD
1000
R13OBJECT
1002
{
1005
473
1002
}
  0
VERTEX
  5
7FF
330
473
100
AcDbEntity
  8
1_TOP
  6
CONTINUOUS
 62
     7
100
AcDbVertex
100
AcDb3dPolylineVertex
 10
-12.93711225057643
 20
-13.53068057392174
 30
0.411302384854189
 70
    32
1001
ACAD
1000
R13OBJECT
1002
{
1005
473
1002
}
  0
VERTEX
  5
800
330
473
100
AcDbEntity
  8
1_TOP
  6
CONTINUOUS
 62
     7
100
AcDbVertex
100
AcDb3dPolylineVertex
 10
-12.93660135260501
 20
-13.53477963958672
 30
0.4109241286478984
 70
    32
1001
ACAD
1000
R13OBJECT
1002
{
1005
473
1002
}
  0
VERTEX
  5
801
330
473
100
AcDbEntity
  8
1_TOP
  6
CONTINUOUS
 62
     7
100
AcDbVertex
100
AcDb3dPolylineVertex
 10
-12.93604247832044
 20
-13.53887240326504
 30
0.4105455711316343
 70
    32
1001
ACAD
1000
R13OBJECT
1002
{
1005
473
1002
}
  0
VERTEX
  5
802
330
473
100
AcDbEntity
  8
1_TOP
  6
CONTINUOUS
 62
     7
100
AcDbVertex
100
AcDb3dPolylineVertex
 10
-12.93542569482818
 20
-13.54295682044056
 30
0.4101669059432222
 70
    32
1001
ACAD
1000
R13OBJECT
1002
{
1005
473
1002
}
  0
VERTEX
  5
803
330
473
100
AcDbEntity
  8
1_TOP
  6
CONTINUOUS
 62
     7
100
AcDbVertex
100
AcDb3dPolylineVertex
 10
-12.93473665794724
 20
-13.54702965825641
 30
0.4097884390265146
 70
    32
1001
ACAD
1000
R13OBJECT
1002
{
1005
473
1002
}
  0
VERTEX
  5
804
330
473
100
AcDbEntity
  8
1_TOP
  6
CONTINUOUS
 62
     7
100
AcDbVertex
100
AcDb3dPolylineVertex
 10
-12.93395323588143
 20
-13.55108541360869
 30
0.4094106907763263
 70
    32
1001
ACAD
1000
R13OBJECT
1002
{
1005
473
1002
}
  0
VERTEX
  5
805
330
473
100
AcDbEntity
  8
1_TOP
  6
CONTINUOUS
 62
     7
100
AcDbVertex
100
AcDb3dPolylineVertex
 10
-12.93303788382869
 20
-13.55511345921259
 30
0.4090346651558179
 70
    32
1001
ACAD
1000
R13OBJECT
1002
{
1005
473
1002
}
  0
VERTEX
  5
806
330
473
100
AcDbEntity
  8
1_TOP
  6
CONTINUOUS
 62
     7
100
AcDbVertex
100
AcDb3dPolylineVertex
 10
-12.93191657211306
 20
-13.55908895332152
 30
0.4086627065069682
 70
    32
1001
ACAD
1000
R13OBJECT
1002
{
1005
473
1002
}
  0
VERTEX
  5
807
330
473
100
AcDbEntity
  8
1_TOP
  6
CONTINUOUS
 62
     7
100
AcDbVertex
100
AcDb3dPolylineVertex
 10
-12.93122935879281
 20
-13.56103745642176
 30
0.4084800945990774
 70
    32
1001
ACAD
1000
R13OBJECT
1002
{
1005
473
1002
}
  0
VERTEX
  5
808
330
473
100
AcDbEntity
  8
1_TOP
  6
CONTINUOUS
 62
     7
100
AcDbVertex
100
AcDb3dPolylineVertex
 10
-12.93039638466689
 20
-13.56292716940293
 30
0.4083028011698961
 70
    32
1001
ACAD
1000
R13OBJECT
1002
{
1005
473
1002
}
  0
VERTEX
  5
809
330
473
100
AcDbEntity
  8
1_TOP
  6
CONTINUOUS
 62
     7
100
AcDbVertex
100
AcDb3dPolylineVertex
 10
-12.92985733712646
 20
-13.56388294390685
 30
0.4082130583960069
 70
    32
1001
ACAD
1000
R13OBJECT
1002
{
1005
473
1002
}
  0
VERTEX
  5
80A
330
473
100
AcDbEntity
  8
1_TOP
  6
CONTINUOUS
 62
     7
100
AcDbVertex
100
AcDb3dPolylineVertex
 10
-12.92919553403262
 20
-13.56477625709572
 30
0.4081291368804998
 70
    32
1001
ACAD
1000
R13OBJECT
1002
{
1005
473
1002
}
  0
VERTEX
  5
80B
330
473
100
AcDbEntity
  8
1_TOP
  6
CONTINUOUS
 62
     7
100
AcDbVertex
100
AcDb3dPolylineVertex
 10
-12.92845036059255
 20
-13.56541876469113
 30
0.4080687510456956
 70
    32
1001
ACAD
1000
R13OBJECT
1002
{
1005
473
1002
}
  0
VERTEX
  5
80C
330
473
100
AcDbEntity
  8
1_TOP
  6
CONTINUOUS
 62
     7
100
AcDbVertex
100
AcDb3dPolylineVertex
 10
-12.92802124164952
 20
-13.56561603140525
 30
0.4080502066379542
 70
    32
1001
ACAD
1000
R13OBJECT
1002
{
1005
473
1002
}
  0
VERTEX
  5
80D
330
473
100
AcDbEntity
  8
1_TOP
  6
CONTINUOUS
 62
     7
100
AcDbVertex
100
AcDb3dPolylineVertex
 10
-12.92756125891672
 20
-13.56568806501659
 30
0.408043434478702
 70
    32
1001
ACAD
1000
R13OBJECT
1002
{
1005
473
1002
}
  0
SEQEND
  5
80E
330
473
100
AcDbEntity
  8
1_TOP
  6
CONTINUOUS
 62
     7
  0
POLYLINE
  5
474
330
9D2
100
AcDbEntity
  8
1_TOP
  6
CONTINUOUS
 62
     7
100
AcDb3dPolyline
 66
     1
 10
0.0
 20
0.0
 30
0.0
 70
     8
  0
VERTEX
  5
80F
330
474
100
AcDbEntity
  8
1_TOP
  6
CONTINUOUS
 62
     7
100
AcDbVertex
100
AcDb3dPolylineVertex
 10
-12.92756125891672
 20
-13.56568806501659
 30
0.408043434478702
 70
    32
1001
ACAD
1000
R13OBJECT
1002
{
1005
474
1002
}
  0
VERTEX
  5
810
330
474
100
AcDbEntity
  8
1_TOP
  6
CONTINUOUS
 62
     7
100
AcDbVertex
100
AcDb3dPolylineVertex
 10
-12.92735796228384
 20
-13.56587819588309
 30
0.4080434344787023
 70
    32
1001
ACAD
1000
R13OBJECT
1002
{
1005
474
1002
}
  0
VERTEX
  5
811
330
474
100
AcDbEntity
  8
1_TOP
  6
CONTINUOUS
 62
     7
100
AcDbVertex
100
AcDb3dPolylineVertex
 10
-12.92714257625451
 20
-13.56605442269339
 30
0.4080434344787026
 70
    32
1001
ACAD
1000
R13OBJECT
1002
{
1005
474
1002
}
  0
VERTEX
  5
812
330
474
100
AcDbEntity
  8
1_TOP
  6
CONTINUOUS
 62
     7
100
AcDbVertex
100
AcDb3dPolylineVertex
 10
-12.92668046020716
 20
-13.56636414293398
 30
0.4080434344787029
 70
    32
1001
ACAD
1000
R13OBJECT
1002
{
1005
474
1002
}
  0
VERTEX
  5
813
330
474
100
AcDbEntity
  8
1_TOP
  6
CONTINUOUS
 62
     7
100
AcDbVertex
100
AcDb3dPolylineVertex
 10
-12.92618504673853
 20
-13.56661736603805
 30
0.4080434344787029
 70
    32
1001
ACAD
1000
R13OBJECT
1002
{
1005
474
1002
}
  0
VERTEX
  5
814
330
474
100
AcDbEntity
  8
1_TOP
  6
CONTINUOUS
 62
     7
100
AcDbVertex
100
AcDb3dPolylineVertex
 10
-12.92566547348853
 20
-13.56681651566373
 30
0.4080434344787029
 70
    32
1001
ACAD
1000
R13OBJECT
1002
{
1005
474
1002
}
  0
VERTEX
  5
815
330
474
100
AcDbEntity
  8
1_TOP
  6
CONTINUOUS
 62
     7
100
AcDbVertex
100
AcDb3dPolylineVertex
 10
-12.92512911117601
 20
-13.56696503487573
 30
0.4080434344787023
 70
    32
1001
ACAD
1000
R13OBJECT
1002
{
1005
474
1002
}
  0
VERTEX
  5
816
330
474
100
AcDbEntity
  8
1_TOP
  6
CONTINUOUS
 62
     7
100
AcDbVertex
100
AcDb3dPolylineVertex
 10
-12.92458194580064
 20
-13.5670666227548
 30
0.4080434344787023
 70
    32
1001
ACAD
1000
R13OBJECT
1002
{
1005
474
1002
}
  0
VERTEX
  5
817
330
474
100
AcDbEntity
  8
1_TOP
  6
CONTINUOUS
 62
     7
100
AcDbVertex
100
AcDb3dPolylineVertex
 10
-12.92402846750305
 20
-13.56712500991546
 30
0.4080434344787028
 70
    32
1001
ACAD
1000
R13OBJECT
1002
{
1005
474
1002
}
  0
VERTEX
  5
818
330
474
100
AcDbEntity
  8
1_TOP
  6
CONTINUOUS
 62
     7
100
AcDbVertex
100
AcDb3dPolylineVertex
 10
-12.9234721950553
 20
-13.56714372752019
 30
0.4080434344787029
 70
    32
1001
ACAD
1000
R13OBJECT
1002
{
1005
474
1002
}
  0
SEQEND
  5
819
330
474
100
AcDbEntity
  8
1_TOP
  6
CONTINUOUS
 62
     7
  0
POLYLINE
  5
475
330
9D2
100
AcDbEntity
  8
1_TOP
  6
CONTINUOUS
 62
     7
100
AcDb3dPolyline
 66
     1
 10
0.0
 20
0.0
 30
0.0
 70
     8
  0
VERTEX
  5
81A
330
475
100
AcDbEntity
  8
1_TOP
  6
CONTINUOUS
 62
     7
100
AcDbVertex
100
AcDb3dPolylineVertex
 10
-12.9234721950553
 20
-13.56714372752019
 30
0.4080434344787029
 70
    32
1001
ACAD
1000
R13OBJECT
1002
{
1005
475
1002
}
  0
VERTEX
  5
81B
330
475
100
AcDbEntity
  8
1_TOP
  6
CONTINUOUS
 62
     7
100
AcDbVertex
100
AcDb3dPolylineVertex
 10
-12.92485097020571
 20
-13.56794813017325
 30
0.4078922686371782
 70
    32
1001
ACAD
1000
R13OBJECT
1002
{
1005
475
1002
}
  0
VERTEX
  5
81C
330
475
100
AcDbEntity
  8
1_TOP
  6
CONTINUOUS
 62
     7
100
AcDbVertex
100
AcDb3dPolylineVertex
 10
-12.92636828139755
 20
-13.5684541177985
 30
0.4077971469490266
 70
    32
1001
ACAD
1000
R13OBJECT
1002
{
1005
475
1002
}
  0
VERTEX
  5
81D
330
475
100
AcDbEntity
  8
1_TOP
  6
CONTINUOUS
 62
     7
100
AcDbVertex
100
AcDb3dPolylineVertex
 10
-12.92796429101588
 20
-13.56856161416178
 30
0.4077769350056986
 70
    32
1001
ACAD
1000
R13OBJECT
1002
{
1005
475
1002
}
  0
VERTEX
  5
81E
330
475
100
AcDbEntity
  8
1_TOP
  6
CONTINUOUS
 62
     7
100
AcDbVertex
100
AcDb3dPolylineVertex
 10
-12.92953350985527
 20
-13.5682435897318
 30
0.4078367278437979
 70
    32
1001
ACAD
1000
R13OBJECT
1002
{
1005
475
1002
}
  0
VERTEX
  5
81F
330
475
100
AcDbEntity
  8
1_TOP
  6
CONTINUOUS
 62
     7
100
AcDbVertex
100
AcDb3dPolylineVertex
 10
-12.93098171219025
 20
-13.56757586641173
 30
0.4079622329694909
 70
    32
1001
ACAD
1000
R13OBJECT
1002
{
1005
475
1002
}
  0
VERTEX
  5
820
330
475
100
AcDbEntity
  8
1_TOP
  6
CONTINUOUS
 62
     7
100
AcDbVertex
100
AcDb3dPolylineVertex
 10
-12.9322900124507
 20
-13.5666576605935
 30
0.4081347446450481
 70
    32
1001
ACAD
1000
R13OBJECT
1002
{
1005
475
1002
}
  0
VERTEX
  5
821
330
475
100
AcDbEntity
  8
1_TOP
  6
CONTINUOUS
 62
     7
100
AcDbVertex
100
AcDb3dPolylineVertex
 10
-12.93346146561118
 20
-13.56557912109843
 30
0.4083372649457996
 70
    32
1001
ACAD
1000
R13OBJECT
1002
{
1005
475
1002
}
  0
VERTEX
  5
822
330
475
100
AcDbEntity
  8
1_TOP
  6
CONTINUOUS
 62
     7
100
AcDbVertex
100
AcDb3dPolylineVertex
 10
-12.9345189722068
 20
-13.56439238326805
 30
0.4085599603618407
 70
    32
1001
ACAD
1000
R13OBJECT
1002
{
1005
475
1002
}
  0
VERTEX
  5
823
330
475
100
AcDbEntity
  8
1_TOP
  6
CONTINUOUS
 62
     7
100
AcDbVertex
100
AcDb3dPolylineVertex
 10
-12.93636903053989
 20
-13.56181435560969
 30
0.4090432249665313
 70
    32
1001
ACAD
1000
R13OBJECT
1002
{
1005
475
1002
}
  0
VERTEX
  5
824
330
475
100
AcDbEntity
  8
1_TOP
  6
CONTINUOUS
 62
     7
100
AcDbVertex
100
AcDb3dPolylineVertex
 10
-12.93795632117732
 20
-13.55907104062751
 30
0.4095567048784542
 70
    32
1001
ACAD
1000
R13OBJECT
1002
{
1005
475
1002
}
  0
VERTEX
  5
825
330
475
100
AcDbEntity
  8
1_TOP
  6
CONTINUOUS
 62
     7
100
AcDbVertex
100
AcDb3dPolylineVertex
 10
-12.93935264165277
 20
-13.55622856686107
 30
0.4100879089447494
 70
    32
1001
ACAD
1000
R13OBJECT
1002
{
1005
475
1002
}
  0
VERTEX
  5
826
330
475
100
AcDbEntity
  8
1_TOP
  6
CONTINUOUS
 62
     7
100
AcDbVertex
100
AcDb3dPolylineVertex
 10
-12.94060327846719
 20
-13.55332093218286
 30
0.4106304102793767
 70
    32
1001
ACAD
1000
R13OBJECT
1002
{
1005
475
1002
}
  0
VERTEX
  5
827
330
475
100
AcDbEntity
  8
1_TOP
  6
CONTINUOUS
 62
     7
100
AcDbVertex
100
AcDb3dPolylineVertex
 10
-12.94173831657384
 20
-13.55036756592721
 30
0.4111805331386841
 70
    32
1001
ACAD
1000
R13OBJECT
1002
{
1005
475
1002
}
  0
VERTEX
  5
828
330
475
100
AcDbEntity
  8
1_TOP
  6
CONTINUOUS
 62
     7
100
AcDbVertex
100
AcDb3dPolylineVertex
 10
-12.94277874819989
 20
-13.54738045686584
 30
0.41173600752479
 70
    32
1001
ACAD
1000
R13OBJECT
1002
{
1005
475
1002
}
  0
VERTEX
  5
829
330
475
100
AcDbEntity
  8
1_TOP
  6
CONTINUOUS
 62
     7
100
AcDbVertex
100
AcDb3dPolylineVertex
 10
-12.9437397939669
 20
-13.54436756833999
 30
0.4122953247156538
 70
    32
1001
ACAD
1000
R13OBJECT
1002
{
1005
475
1002
}
  0
VERTEX
  5
82A
330
475
100
AcDbEntity
  8
1_TOP
  6
CONTINUOUS
 62
     7
100
AcDbVertex
100
AcDb3dPolylineVertex
 10
-12.9446329042707
 20
-13.54133435698955
 30
0.4128574499868682
 70
    32
1001
ACAD
1000
R13OBJECT
1002
{
1005
475
1002
}
  0
VERTEX
  5
82B
330
475
100
AcDbEntity
  8
1_TOP
  6
CONTINUOUS
 62
     7
100
AcDbVertex
100
AcDb3dPolylineVertex
 10
-12.94546692275281
 20
-13.53828473584977
 30
0.4134216407534561
 70
    32
1001
ACAD
1000
R13OBJECT
1002
{
1005
475
1002
}
  0
VERTEX
  5
82C
330
475
100
AcDbEntity
  8
1_TOP
  6
CONTINUOUS
 62
     7
100
AcDbVertex
100
AcDb3dPolylineVertex
 10
-12.94624883919186
 20
-13.53522160404907
 30
0.4139873464435419
 70
    32
1001
ACAD
1000
R13OBJECT
1002
{
1005
475
1002
}
  0
VERTEX
  5
82D
330
475
100
AcDbEntity
  8
1_TOP
  6
CONTINUOUS
 62
     7
100
AcDbVertex
100
AcDb3dPolylineVertex
 10
-12.94698428207162
 20
-13.53214719028164
 30
0.4145541436510089
 70
    32
1001
ACAD
1000
R13OBJECT
1002
{
1005
475
1002
}
  0
VERTEX
  5
82E
330
475
100
AcDbEntity
  8
1_TOP
  6
CONTINUOUS
 62
     7
100
AcDbVertex
100
AcDb3dPolylineVertex
 10
-12.94767787390099
 20
-13.52906319149592
 30
0.4151217095831419
 70
    32
1001
ACAD
1000
R13OBJECT
1002
{
1005
475
1002
}
  0
VERTEX
  5
82F
330
475
100
AcDbEntity
  8
1_TOP
  6
CONTINUOUS
 62
     7
100
AcDbVertex
100
AcDb3dPolylineVertex
 10
-12.94833345214622
 20
-13.52597097714899
 30
0.4156897837288283
 70
    32
1001
ACAD
1000
R13OBJECT
1002
{
1005
475
1002
}
  0
VERTEX
  5
830
330
475
100
AcDbEntity
  8
1_TOP
  6
CONTINUOUS
 62
     7
100
AcDbVertex
100
AcDb3dPolylineVertex
 10
-12.94895424884711
 20
-13.52287164708386
 30
0.4162581567354687
 70
    32
1001
ACAD
1000
R13OBJECT
1002
{
1005
475
1002
}
  0
VERTEX
  5
831
330
475
100
AcDbEntity
  8
1_TOP
  6
CONTINUOUS
 62
     7
100
AcDbVertex
100
AcDb3dPolylineVertex
 10
-12.94954301604585
 20
-13.51976609564593
 30
0.4168266582526293
 70
    32
1001
ACAD
1000
R13OBJECT
1002
{
1005
475
1002
}
  0
VERTEX
  5
832
330
475
100
AcDbEntity
  8
1_TOP
  6
CONTINUOUS
 62
     7
100
AcDbVertex
100
AcDb3dPolylineVertex
 10
-12.95010211907739
 20
-13.51665506130966
 30
0.4173951475428589
 70
    32
1001
ACAD
1000
R13OBJECT
1002
{
1005
475
1002
}
  0
VERTEX
  5
833
330
475
100
AcDbEntity
  8
1_TOP
  6
CONTINUOUS
 62
     7
100
AcDbVertex
100
AcDb3dPolylineVertex
 10
-12.95063360721938
 20
-13.51353916669817
 30
0.4179635059383417
 70
    32
1001
ACAD
1000
R13OBJECT
1002
{
1005
475
1002
}
  0
VERTEX
  5
834
330
475
100
AcDbEntity
  8
1_TOP
  6
CONTINUOUS
 62
     7
100
AcDbVertex
100
AcDb3dPolylineVertex
 10
-12.95113927064516
 20
-13.51041893587902
 30
0.4185316335083261
 70
    32
1001
ACAD
1000
R13OBJECT
1002
{
1005
475
1002
}
  0
VERTEX
  5
835
330
475
100
AcDbEntity
  8
1_TOP
  6
CONTINUOUS
 62
     7
100
AcDbVertex
100
AcDb3dPolylineVertex
 10
-12.95162068517119
 20
-13.50729480437216
 30
0.4190994470827259
 70
    32
1001
ACAD
1000
R13OBJECT
1002
{
1005
475
1002
}
  0
VERTEX
  5
836
330
475
100
AcDbEntity
  8
1_TOP
  6
CONTINUOUS
 62
     7
100
AcDbVertex
100
AcDb3dPolylineVertex
 10
-12.95207924004976
 20
-13.50416717798551
 30
0.4196668694443176
 70
    32
1001
ACAD
1000
R13OBJECT
1002
{
1005
475
1002
}
  0
VERTEX
  5
837
330
475
100
AcDbEntity
  8
1_TOP
  6
CONTINUOUS
 62
     7
100
AcDbVertex
100
AcDb3dPolylineVertex
 10
-12.95251617831361
 20
-13.50103636006435
 30
0.4202338424441047
 70
    32
1001
ACAD
1000
R13OBJECT
1002
{
1005
475
1002
}
  0
VERTEX
  5
838
330
475
100
AcDbEntity
  8
1_TOP
  6
CONTINUOUS
 62
     7
100
AcDbVertex
100
AcDb3dPolylineVertex
 10
-12.95293260303514
 20
-13.49790267203402
 30
0.4208003050638859
 70
    32
1001
ACAD
1000
R13OBJECT
1002
{
1005
475
1002
}
  0
VERTEX
  5
839
330
475
100
AcDbEntity
  8
1_TOP
  6
CONTINUOUS
 62
     7
100
AcDbVertex
100
AcDb3dPolylineVertex
 10
-12.95332951215707
 20
-13.49476634332756
 30
0.4213662132897308
 70
    32
1001
ACAD
1000
R13OBJECT
1002
{
1005
475
1002
}
  0
VERTEX
  5
83A
330
475
100
AcDbEntity
  8
1_TOP
  6
CONTINUOUS
 62
     7
100
AcDbVertex
100
AcDb3dPolylineVertex
 10
-12.95370780251625
 20
-13.49162759695876
 30
0.4219315245630654
 70
    32
1001
ACAD
1000
R13OBJECT
1002
{
1005
475
1002
}
  0
VERTEX
  5
83B
330
475
100
AcDbEntity
  8
1_TOP
  6
CONTINUOUS
 62
     7
100
AcDbVertex
100
AcDb3dPolylineVertex
 10
-12.95406828309753
 20
-13.48848665499967
 30
0.4224961967867066
 70
    32
1001
ACAD
1000
R13OBJECT
1002
{
1005
475
1002
}
  0
VERTEX
  5
83C
330
475
100
AcDbEntity
  8
1_TOP
  6
CONTINUOUS
 62
     7
100
AcDbVertex
100
AcDb3dPolylineVertex
 10
-12.95441169291112
 20
-13.48534367998357
 30
0.4230601988292129
 70
    32
1001
ACAD
1000
R13OBJECT
1002
{
1005
475
1002
}
  0
VERTEX
  5
83D
330
475
100
AcDbEntity
  8
1_TOP
  6
CONTINUOUS
 62
     7
100
AcDbVertex
100
AcDb3dPolylineVertex
 10
-12.95473870392576
 20
-13.48219882677417
 30
0.4236235011449053
 70
    32
1001
ACAD
1000
R13OBJECT
1002
{
1005
475
1002
}
  0
VERTEX
  5
83E
330
475
100
AcDbEntity
  8
1_TOP
  6
CONTINUOUS
 62
     7
100
AcDbVertex
100
AcDb3dPolylineVertex
 10
-12.95504993147973
 20
-13.47905221871477
 30
0.4241860800217794
 70
    32
1001
ACAD
1000
R13OBJECT
1002
{
1005
475
1002
}
  0
VERTEX
  5
83F
330
475
100
AcDbEntity
  8
1_TOP
  6
CONTINUOUS
 62
     7
100
AcDbVertex
100
AcDb3dPolylineVertex
 10
-12.95534593344227
 20
-13.47590402531164
 30
0.4247479036792451
 70
    32
1001
ACAD
1000
R13OBJECT
1002
{
1005
475
1002
}
  0
VERTEX
  5
840
330
475
100
AcDbEntity
  8
1_TOP
  6
CONTINUOUS
 62
     7
100
AcDbVertex
100
AcDb3dPolylineVertex
 10
-12.95562722711106
 20
-13.47275434973073
 30
0.4253089523659437
 70
    32
1001
ACAD
1000
R13OBJECT
1002
{
1005
475
1002
}
  0
VERTEX
  5
841
330
475
100
AcDbEntity
  8
1_TOP
  6
CONTINUOUS
 62
     7
100
AcDbVertex
100
AcDb3dPolylineVertex
 10
-12.95589428714936
 20
-13.46960329754689
 30
0.4258692060382336
 70
    32
1001
ACAD
1000
R13OBJECT
1002
{
1005
475
1002
}
  0
VERTEX
  5
842
330
475
100
AcDbEntity
  8
1_TOP
  6
CONTINUOUS
 62
     7
100
AcDbVertex
100
AcDb3dPolylineVertex
 10
-12.95614755165154
 20
-13.46645095709088
 30
0.4264286478488479
 70
    32
1001
ACAD
1000
R13OBJECT
1002
{
1005
475
1002
}
  0
VERTEX
  5
843
330
475
100
AcDbEntity
  8
1_TOP
  6
CONTINUOUS
 62
     7
100
AcDbVertex
100
AcDb3dPolylineVertex
 10
-12.95638742404266
 20
-13.46329742109112
 30
0.4269872602884698
 70
    32
1001
ACAD
1000
R13OBJECT
1002
{
1005
475
1002
}
  0
VERTEX
  5
844
330
475
100
AcDbEntity
  8
1_TOP
  6
CONTINUOUS
 62
     7
100
AcDbVertex
100
AcDb3dPolylineVertex
 10
-12.95661427727885
 20
-13.46014277611438
 30
0.4275450270582497
 70
    32
1001
ACAD
1000
R13OBJECT
1002
{
1005
475
1002
}
  0
VERTEX
  5
845
330
475
100
AcDbEntity
  8
1_TOP
  6
CONTINUOUS
 62
     7
100
AcDbVertex
100
AcDb3dPolylineVertex
 10
-12.95682845738628
 20
-13.45698709150318
 30
0.4281019350102237
 70
    32
1001
ACAD
1000
R13OBJECT
1002
{
1005
475
1002
}
  0
VERTEX
  5
846
330
475
100
AcDbEntity
  8
1_TOP
  6
CONTINUOUS
 62
     7
100
AcDbVertex
100
AcDb3dPolylineVertex
 10
-12.95703028453061
 20
-13.45383043817531
 30
0.4286579708104627
 70
    32
1001
ACAD
1000
R13OBJECT
1002
{
1005
475
1002
}
  0
VERTEX
  5
847
330
475
100
AcDbEntity
  8
1_TOP
  6
CONTINUOUS
 62
     7
100
AcDbVertex
100
AcDb3dPolylineVertex
 10
-12.95722005562486
 20
-13.45067288334538
 30
0.4292131218689056
 70
    32
1001
ACAD
1000
R13OBJECT
1002
{
1005
475
1002
}
  0
VERTEX
  5
848
330
475
100
AcDbEntity
  8
1_TOP
  6
CONTINUOUS
 62
     7
100
AcDbVertex
100
AcDb3dPolylineVertex
 10
-12.95739804664349
 20
-13.44751448342953
 30
0.4297673775772461
 70
    32
1001
ACAD
1000
R13OBJECT
1002
{
1005
475
1002
}
  0
VERTEX
  5
849
330
475
100
AcDbEntity
  8
1_TOP
  6
CONTINUOUS
 62
     7
100
AcDbVertex
100
AcDb3dPolylineVertex
 10
-12.95756451353175
 20
-13.44435529699429
 30
0.4303207270251312
 70
    32
1001
ACAD
1000
R13OBJECT
1002
{
1005
475
1002
}
  0
VERTEX
  5
84A
330
475
100
AcDbEntity
  8
1_TOP
  6
CONTINUOUS
 62
     7
100
AcDbVertex
100
AcDb3dPolylineVertex
 10
-12.95771969425026
 20
-13.44119537549689
 30
0.4308731606210662
 70
    32
1001
ACAD
1000
R13OBJECT
1002
{
1005
475
1002
}
  0
VERTEX
  5
84B
330
475
100
AcDbEntity
  8
1_TOP
  6
CONTINUOUS
 62
     7
100
AcDbVertex
100
AcDb3dPolylineVertex
 10
-12.95786380979143
 20
-13.43803476893903
 30
0.4314246690950327
 70
    32
1001
ACAD
1000
R13OBJECT
1002
{
1005
475
1002
}
  0
VERTEX
  5
84C
330
475
100
AcDbEntity
  8
1_TOP
  6
CONTINUOUS
 62
     7
100
AcDbVertex
100
AcDb3dPolylineVertex
 10
-12.95799706556205
 20
-13.4348735216563
 30
0.4319752442287428
 70
    32
1001
ACAD
1000
R13OBJECT
1002
{
1005
475
1002
}
  0
VERTEX
  5
84D
330
475
100
AcDbEntity
  8
1_TOP
  6
CONTINUOUS
 62
     7
100
AcDbVertex
100
AcDb3dPolylineVertex
 10
-12.95811965206015
 20
-13.43171168118113
 30
0.4325248773070553
 70
    32
1001
ACAD
1000
R13OBJECT
1002
{
1005
475
1002
}
  0
VERTEX
  5
84E
330
475
100
AcDbEntity
  8
1_TOP
  6
CONTINUOUS
 62
     7
100
AcDbVertex
100
AcDb3dPolylineVertex
 10
-12.9582317464248
 20
-13.42854928304205
 30
0.4330735617581451
 70
    32
1001
ACAD
1000
R13OBJECT
1002
{
1005
475
1002
}
  0
VERTEX
  5
84F
330
475
100
AcDbEntity
  8
1_TOP
  6
CONTINUOUS
 62
     7
100
AcDbVertex
100
AcDb3dPolylineVertex
 10
-12.95833351239973
 20
-13.42538637417785
 30
0.433621289082836
 70
    32
1001
ACAD
1000
R13OBJECT
1002
{
1005
475
1002
}
  0
VERTEX
  5
850
330
475
100
AcDbEntity
  8
1_TOP
  6
CONTINUOUS
 62
     7
100
AcDbVertex
100
AcDb3dPolylineVertex
 10
-12.95842510212043
 20
-13.42222298296356
 30
0.4341680540492443
 70
    32
1001
ACAD
1000
R13OBJECT
1002
{
1005
475
1002
}
  0
VERTEX
  5
851
330
475
100
AcDbEntity
  8
1_TOP
  6
CONTINUOUS
 62
     7
100
AcDbVertex
100
AcDb3dPolylineVertex
 10
-12.95850665566505
 20
-13.41905915433609
 30
0.4347138486083692
 70
    32
1001
ACAD
1000
R13OBJECT
1002
{
1005
475
1002
}
  0
VERTEX
  5
852
330
475
100
AcDbEntity
  8
1_TOP
  6
CONTINUOUS
 62
     7
100
AcDbVertex
100
AcDb3dPolylineVertex
 10
-12.95857830269703
 20
-13.41589491377634
 30
0.435258668117084
 70
    32
1001
ACAD
1000
R13OBJECT
1002
{
1005
475
1002
}
  0
VERTEX
  5
853
330
475
100
AcDbEntity
  8
1_TOP
  6
CONTINUOUS
 62
     7
100
AcDbVertex
100
AcDb3dPolylineVertex
 10
-12.9586401621218
 20
-13.41273030024637
 30
0.4358025056511616
 70
    32
1001
ACAD
1000
R13OBJECT
1002
{
1005
475
1002
}
  0
VERTEX
  5
854
330
475
100
AcDbEntity
  8
1_TOP
  6
CONTINUOUS
 62
     7
100
AcDbVertex
100
AcDb3dPolylineVertex
 10
-12.95869234323208
 20
-13.4095653363632
 30
0.436345357138368
 70
    32
1001
ACAD
1000
R13OBJECT
1002
{
1005
475
1002
}
  0
SEQEND
  5
855
330
475
100
AcDbEntity
  8
1_TOP
  6
CONTINUOUS
 62
     7
  0
POLYLINE
  5
476
330
9D2
100
AcDbEntity
  8
1_TOP
  6
CONTINUOUS
 62
     7
100
AcDb3dPolyline
 66
     1
 10
0.0
 20
0.0
 30
0.0
 70
     8
  0
VERTEX
  5
856
330
476
100
AcDbEntity
  8
1_TOP
  6
CONTINUOUS
 62
     7
100
AcDbVertex
100
AcDb3dPolylineVertex
 10
-9.190631065945296
 20
-13.40692639634939
 30
0.4223066259982712
 70
    32
1001
ACAD
1000
R13OBJECT
1002
{
1005
476
1002
}
  0
VERTEX
  5
857
330
476
100
AcDbEntity
  8
1_TOP
  6
CONTINUOUS
 62
     7
100
AcDbVertex
100
AcDb3dPolylineVertex
 10
-9.190666160169934
 20
-13.41105915303268
 30
0.4219520976822168
 70
    32
1001
ACAD
1000
R13OBJECT
1002
{
1005
476
1002
}
  0
VERTEX
  5
858
330
476
100
AcDbEntity
  8
1_TOP
  6
CONTINUOUS
 62
     7
100
AcDbVertex
100
AcDb3dPolylineVertex
 10
-9.190709565226622
 20
-13.41519175378324
 30
0.4215966893337346
 70
    32
1001
ACAD
1000
R13OBJECT
1002
{
1005
476
1002
}
  0
VERTEX
  5
859
330
476
100
AcDbEntity
  8
1_TOP
  6
CONTINUOUS
 62
     7
100
AcDbVertex
100
AcDb3dPolylineVertex
 10
-9.190761411799767
 20
-13.41932418149576
 30
0.4212404023369584
 70
    32
1001
ACAD
1000
R13OBJECT
1002
{
1005
476
1002
}
  0
VERTEX
  5
85A
330
476
100
AcDbEntity
  8
1_TOP
  6
CONTINUOUS
 62
     7
100
AcDbVertex
100
AcDb3dPolylineVertex
 10
-9.190821846087654
 20
-13.42345641709608
 30
0.4208832382607035
 70
    32
1001
ACAD
1000
R13OBJECT
1002
{
1005
476
1002
}
  0
VERTEX
  5
85B
330
476
100
AcDbEntity
  8
1_TOP
  6
CONTINUOUS
 62
     7
100
AcDbVertex
100
AcDb3dPolylineVertex
 10
-9.190891030860095
 20
-13.42758843974481
 30
0.4205251988429253
 70
    32
1001
ACAD
1000
R13OBJECT
1002
{
1005
476
1002
}
  0
VERTEX
  5
85C
330
476
100
AcDbEntity
  8
1_TOP
  6
CONTINUOUS
 62
     7
100
AcDbVertex
100
AcDb3dPolylineVertex
 10
-9.190969146694694
 20
-13.43172022690451
 30
0.4201662859868332
 70
    32
1001
ACAD
1000
R13OBJECT
1002
{
1005
476
1002
}
  0
VERTEX
  5
85D
330
476
100
AcDbEntity
  8
1_TOP
  6
CONTINUOUS
 62
     7
100
AcDbVertex
100
AcDb3dPolylineVertex
 10
-9.191056393449159
 20
-13.43585175572524
 30
0.4198065016418849
 70
    32
1001
ACAD
1000
R13OBJECT
1002
{
1005
476
1002
}
  0
VERTEX
  5
85E
330
476
100
AcDbEntity
  8
1_TOP
  6
CONTINUOUS
 62
     7
100
AcDbVertex
100
AcDb3dPolylineVertex
 10
-9.191152991971659
 20
-13.43998300368006
 30
0.4194458477485899
 70
    32
1001
ACAD
1000
R13OBJECT
1002
{
1005
476
1002
}
  0
VERTEX
  5
85F
330
476
100
AcDbEntity
  8
1_TOP
  6
CONTINUOUS
 62
     7
100
AcDbVertex
100
AcDb3dPolylineVertex
 10
-9.191259185748499
 20
-13.44411393617076
 30
0.419084327324226
 70
    32
1001
ACAD
1000
R13OBJECT
1002
{
1005
476
1002
}
  0
VERTEX
  5
860
330
476
100
AcDbEntity
  8
1_TOP
  6
CONTINUOUS
 62
     7
100
AcDbVertex
100
AcDb3dPolylineVertex
 10
-9.191375243743546
 20
-13.44824452974638
 30
0.4187219424363673
 70
    32
1001
ACAD
1000
R13OBJECT
1002
{
1005
476
1002
}
  0
VERTEX
  5
861
330
476
100
AcDbEntity
  8
1_TOP
  6
CONTINUOUS
 62
     7
100
AcDbVertex
100
AcDb3dPolylineVertex
 10
-9.19150146247866
 20
-13.4523747487444
 30
0.4183586962477568
 70
    32
1001
ACAD
1000
R13OBJECT
1002
{
1005
476
1002
}
  0
VERTEX
  5
862
330
476
100
AcDbEntity
  8
1_TOP
  6
CONTINUOUS
 62
     7
100
AcDbVertex
100
AcDb3dPolylineVertex
 10
-9.19163816946251
 20
-13.4565045578414
 30
0.4179945919217268
 70
    32
1001
ACAD
1000
R13OBJECT
1002
{
1005
476
1002
}
  0
VERTEX
  5
863
330
476
100
AcDbEntity
  8
1_TOP
  6
CONTINUOUS
 62
     7
100
AcDbVertex
100
AcDb3dPolylineVertex
 10
-9.191785726749561
 20
-13.46063391806953
 30
0.4176296329736381
 70
    32
1001
ACAD
1000
R13OBJECT
1002
{
1005
476
1002
}
  0
VERTEX
  5
864
330
476
100
AcDbEntity
  8
1_TOP
  6
CONTINUOUS
 62
     7
100
AcDbVertex
100
AcDb3dPolylineVertex
 10
-9.19194453522466
 20
-13.4647627859617
 30
0.4172638233524348
 70
    32
1001
ACAD
1000
R13OBJECT
1002
{
1005
476
1002
}
  0
VERTEX
  5
865
330
476
100
AcDbEntity
  8
1_TOP
  6
CONTINUOUS
 62
     7
100
AcDbVertex
100
AcDb3dPolylineVertex
 10
-9.192115039652238
 20
-13.46889111164122
 30
0.4168971676129149
 70
    32
1001
ACAD
1000
R13OBJECT
1002
{
1005
476
1002
}
  0
VERTEX
  5
866
330
476
100
AcDbEntity
  8
1_TOP
  6
CONTINUOUS
 62
     7
100
AcDbVertex
100
AcDb3dPolylineVertex
 10
-9.192297734852832
 20
-13.47301884063007
 30
0.4165296707638634
 70
    32
1001
ACAD
1000
R13OBJECT
1002
{
1005
476
1002
}
  0
VERTEX
  5
867
330
476
100
AcDbEntity
  8
1_TOP
  6
CONTINUOUS
 62
     7
100
AcDbVertex
100
AcDb3dPolylineVertex
 10
-9.192493172947367
 20
-13.47714591121859
 30
0.4161613385065072
 70
    32
1001
ACAD
1000
R13OBJECT
1002
{
1005
476
1002
}
  0
VERTEX
  5
868
330
476
100
AcDbEntity
  8
1_TOP
  6
CONTINUOUS
 62
     7
100
AcDbVertex
100
AcDb3dPolylineVertex
 10
-9.1927019724233
 20
-13.48127225788786
 30
0.415792176936408
 70
    32
1001
ACAD
1000
R13OBJECT
1002
{
1005
476
1002
}
  0
VERTEX
  5
869
330
476
100
AcDbEntity
  8
1_TOP
  6
CONTINUOUS
 62
     7
100
AcDbVertex
100
AcDb3dPolylineVertex
 10
-9.192924827908283
 20
-13.48539779069743
 30
0.4154221943983075
 70
    32
1001
ACAD
1000
R13OBJECT
1002
{
1005
476
1002
}
  0
VERTEX
  5
86A
330
476
100
AcDbEntity
  8
1_TOP
  6
CONTINUOUS
 62
     7
100
AcDbVertex
100
AcDb3dPolylineVertex
 10
-9.193162524898424
 20
-13.48952242292703
 30
0.4150513990246397
 70
    32
1001
ACAD
1000
R13OBJECT
1002
{
1005
476
1002
}
  0
VERTEX
  5
86B
330
476
100
AcDbEntity
  8
1_TOP
  6
CONTINUOUS
 62
     7
100
AcDbVertex
100
AcDb3dPolylineVertex
 10
-9.193415954950957
 20
-13.49364604482684
 30
0.4146798011004258
 70
    32
1001
ACAD
1000
R13OBJECT
1002
{
1005
476
1002
}
  0
VERTEX
  5
86C
330
476
100
AcDbEntity
  8
1_TOP
  6
CONTINUOUS
 62
     7
100
AcDbVertex
100
AcDb3dPolylineVertex
 10
-9.193686136890324
 20
-13.49776853162588
 30
0.4143074123636621
 70
    32
1001
ACAD
1000
R13OBJECT
1002
{
1005
476
1002
}
  0
VERTEX
  5
86D
330
476
100
AcDbEntity
  8
1_TOP
  6
CONTINUOUS
 62
     7
100
AcDbVertex
100
AcDb3dPolylineVertex
 10
-9.193974242655626
 20
-13.50188973387782
 30
0.4139342468972333
 70
    32
1001
ACAD
1000
R13OBJECT
1002
{
1005
476
1002
}
  0
VERTEX
  5
86E
330
476
100
AcDbEntity
  8
1_TOP
  6
CONTINUOUS
 62
     7
100
AcDbVertex
100
AcDb3dPolylineVertex
 10
-9.194281631091296
 20
-13.50600947357185
 30
0.4135603215088642
 70
    32
1001
ACAD
1000
R13OBJECT
1002
{
1005
476
1002
}
  0
VERTEX
  5
86F
330
476
100
AcDbEntity
  8
1_TOP
  6
CONTINUOUS
 62
     7
100
AcDbVertex
100
AcDb3dPolylineVertex
 10
-9.194609892126607
 20
-13.51012753798296
 30
0.4131856563219941
 70
    32
1001
ACAD
1000
R13OBJECT
1002
{
1005
476
1002
}
  0
VERTEX
  5
870
330
476
100
AcDbEntity
  8
1_TOP
  6
CONTINUOUS
 62
     7
100
AcDbVertex
100
AcDb3dPolylineVertex
 10
-9.194960904219467
 20
-13.51424365542722
 30
0.4128102770271834
 70
    32
1001
ACAD
1000
R13OBJECT
1002
{
1005
476
1002
}
  0
VERTEX
  5
871
330
476
100
AcDbEntity
  8
1_TOP
  6
CONTINUOUS
 62
     7
100
AcDbVertex
100
AcDb3dPolylineVertex
 10
-9.19533691547492
 20
-13.51835750134493
 30
0.4124342143889928
 70
    32
1001
ACAD
1000
R13OBJECT
1002
{
1005
476
1002
}
  0
VERTEX
  5
872
330
476
100
AcDbEntity
  8
1_TOP
  6
CONTINUOUS
 62
     7
100
AcDbVertex
100
AcDb3dPolylineVertex
 10
-9.195740652361042
 20
-13.52246865839258
 30
0.4120575079643133
 70
    32
1001
ACAD
1000
R13OBJECT
1002
{
1005
476
1002
}
  0
VERTEX
  5
873
330
476
100
AcDbEntity
  8
1_TOP
  6
CONTINUOUS
 62
     7
100
AcDbVertex
100
AcDb3dPolylineVertex
 10
-9.196175476593392
 20
-13.52657658517136
 30
0.4116802090776094
 70
    32
1001
ACAD
1000
R13OBJECT
1002
{
1005
476
1002
}
  0
VERTEX
  5
874
330
476
100
AcDbEntity
  8
1_TOP
  6
CONTINUOUS
 62
     7
100
AcDbVertex
100
AcDb3dPolylineVertex
 10
-9.196645616443262
 20
-13.53068057392174
 30
0.411302384854189
 70
    32
1001
ACAD
1000
R13OBJECT
1002
{
1005
476
1002
}
  0
VERTEX
  5
875
330
476
100
AcDbEntity
  8
1_TOP
  6
CONTINUOUS
 62
     7
100
AcDbVertex
100
AcDb3dPolylineVertex
 10
-9.197156514414675
 20
-13.53477963958672
 30
0.4109241286478988
 70
    32
1001
ACAD
1000
R13OBJECT
1002
{
1005
476
1002
}
  0
VERTEX
  5
876
330
476
100
AcDbEntity
  8
1_TOP
  6
CONTINUOUS
 62
     7
100
AcDbVertex
100
AcDb3dPolylineVertex
 10
-9.197715388699254
 20
-13.53887240326504
 30
0.4105455711316349
 70
    32
1001
ACAD
1000
R13OBJECT
1002
{
1005
476
1002
}
  0
VERTEX
  5
877
330
476
100
AcDbEntity
  8
1_TOP
  6
CONTINUOUS
 62
     7
100
AcDbVertex
100
AcDb3dPolylineVertex
 10
-9.198332172191516
 20
-13.54295682044056
 30
0.4101669059432224
 70
    32
1001
ACAD
1000
R13OBJECT
1002
{
1005
476
1002
}
  0
VERTEX
  5
878
330
476
100
AcDbEntity
  8
1_TOP
  6
CONTINUOUS
 62
     7
100
AcDbVertex
100
AcDb3dPolylineVertex
 10
-9.19902120907246
 20
-13.54702965825641
 30
0.4097884390265146
 70
    32
1001
ACAD
1000
R13OBJECT
1002
{
1005
476
1002
}
  0
VERTEX
  5
879
330
476
100
AcDbEntity
  8
1_TOP
  6
CONTINUOUS
 62
     7
100
AcDbVertex
100
AcDb3dPolylineVertex
 10
-9.199804631138272
 20
-13.55108541360869
 30
0.4094106907763263
 70
    32
1001
ACAD
1000
R13OBJECT
1002
{
1005
476
1002
}
  0
VERTEX
  5
87A
330
476
100
AcDbEntity
  8
1_TOP
  6
CONTINUOUS
 62
     7
100
AcDbVertex
100
AcDb3dPolylineVertex
 10
-9.200719983191007
 20
-13.55511345921259
 30
0.4090346651558179
 70
    32
1001
ACAD
1000
R13OBJECT
1002
{
1005
476
1002
}
  0
VERTEX
  5
87B
330
476
100
AcDbEntity
  8
1_TOP
  6
CONTINUOUS
 62
     7
100
AcDbVertex
100
AcDb3dPolylineVertex
 10
-9.201841294906632
 20
-13.55908895332152
 30
0.4086627065069682
 70
    32
1001
ACAD
1000
R13OBJECT
1002
{
1005
476
1002
}
  0
VERTEX
  5
87C
330
476
100
AcDbEntity
  8
1_TOP
  6
CONTINUOUS
 62
     7
100
AcDbVertex
100
AcDb3dPolylineVertex
 10
-9.20252850822689
 20
-13.56103745642176
 30
0.4084800945990774
 70
    32
1001
ACAD
1000
R13OBJECT
1002
{
1005
476
1002
}
  0
VERTEX
  5
87D
330
476
100
AcDbEntity
  8
1_TOP
  6
CONTINUOUS
 62
     7
100
AcDbVertex
100
AcDb3dPolylineVertex
 10
-9.203361482352805
 20
-13.56292716940293
 30
0.4083028011698961
 70
    32
1001
ACAD
1000
R13OBJECT
1002
{
1005
476
1002
}
  0
VERTEX
  5
87E
330
476
100
AcDbEntity
  8
1_TOP
  6
CONTINUOUS
 62
     7
100
AcDbVertex
100
AcDb3dPolylineVertex
 10
-9.20390052989323
 20
-13.56388294390685
 30
0.4082130583960069
 70
    32
1001
ACAD
1000
R13OBJECT
1002
{
1005
476
1002
}
  0
VERTEX
  5
87F
330
476
100
AcDbEntity
  8
1_TOP
  6
CONTINUOUS
 62
     7
100
AcDbVertex
100
AcDb3dPolylineVertex
 10
-9.204562332987075
 20
-13.56477625709572
 30
0.4081291368804998
 70
    32
1001
ACAD
1000
R13OBJECT
1002
{
1005
476
1002
}
  0
VERTEX
  5
880
330
476
100
AcDbEntity
  8
1_TOP
  6
CONTINUOUS
 62
     7
100
AcDbVertex
100
AcDb3dPolylineVertex
 10
-9.205307506427152
 20
-13.56541876469113
 30
0.4080687510456956
 70
    32
1001
ACAD
1000
R13OBJECT
1002
{
1005
476
1002
}
  0
VERTEX
  5
881
330
476
100
AcDbEntity
  8
1_TOP
  6
CONTINUOUS
 62
     7
100
AcDbVertex
100
AcDb3dPolylineVertex
 10
-9.205736625370184
 20
-13.56561603140525
 30
0.4080502066379542
 70
    32
1001
ACAD
1000
R13OBJECT
1002
{
1005
476
1002
}
  0
VERTEX
  5
882
330
476
100
AcDbEntity
  8
1_TOP
  6
CONTINUOUS
 62
     7
100
AcDbVertex
100
AcDb3dPolylineVertex
 10
-9.206196608102986
 20
-13.56568806501659
 30
0.4080434344787029
 70
    32
1001
ACAD
1000
R13OBJECT
1002
{
1005
476
1002
}
  0
SEQEND
  5
883
330
476
100
AcDbEntity
  8
1_TOP
  6
CONTINUOUS
 62
     7
  0
POLYLINE
  5
477
330
9D2
100
AcDbEntity
  8
1_TOP
  6
CONTINUOUS
 62
     7
100
AcDb3dPolyline
 66
     1
 10
0.0
 20
0.0
 30
0.0
 70
     8
  0
VERTEX
  5
884
330
477
100
AcDbEntity
  8
1_TOP
  6
CONTINUOUS
 62
     7
100
AcDbVertex
100
AcDb3dPolylineVertex
 10
-9.206196608102986
 20
-13.56568806501659
 30
0.4080434344787029
 70
    32
1001
ACAD
1000
R13OBJECT
1002
{
1005
477
1002
}
  0
VERTEX
  5
885
330
477
100
AcDbEntity
  8
1_TOP
  6
CONTINUOUS
 62
     7
100
AcDbVertex
100
AcDb3dPolylineVertex
 10
-9.206399904735967
 20
-13.56587819588316
 30
0.4080434344787029
 70
    32
1001
ACAD
1000
R13OBJECT
1002
{
1005
477
1002
}
  0
VERTEX
  5
886
330
477
100
AcDbEntity
  8
1_TOP
  6
CONTINUOUS
 62
     7
100
AcDbVertex
100
AcDb3dPolylineVertex
 10
-9.206615290765386
 20
-13.56605442269349
 30
0.4080434344787029
 70
    32
1001
ACAD
1000
R13OBJECT
1002
{
1005
477
1002
}
  0
VERTEX
  5
887
330
477
100
AcDbEntity
  8
1_TOP
  6
CONTINUOUS
 62
     7
100
AcDbVertex
100
AcDb3dPolylineVertex
 10
-9.207077406812725
 20
-13.56636414293407
 30
0.4080434344787029
 70
    32
1001
ACAD
1000
R13OBJECT
1002
{
1005
477
1002
}
  0
VERTEX
  5
888
330
477
100
AcDbEntity
  8
1_TOP
  6
CONTINUOUS
 62
     7
100
AcDbVertex
100
AcDb3dPolylineVertex
 10
-9.207572820281322
 20
-13.56661736603813
 30
0.4080434344787029
 70
    32
1001
ACAD
1000
R13OBJECT
1002
{
1005
477
1002
}
  0
VERTEX
  5
889
330
477
100
AcDbEntity
  8
1_TOP
  6
CONTINUOUS
 62
     7
100
AcDbVertex
100
AcDb3dPolylineVertex
 10
-9.208092393531297
 20
-13.56681651566375
 30
0.4080434344787029
 70
    32
1001
ACAD
1000
R13OBJECT
1002
{
1005
477
1002
}
  0
VERTEX
  5
88A
330
477
100
AcDbEntity
  8
1_TOP
  6
CONTINUOUS
 62
     7
100
AcDbVertex
100
AcDb3dPolylineVertex
 10
-9.2086287558438
 20
-13.56696503487579
 30
0.4080434344787029
 70
    32
1001
ACAD
1000
R13OBJECT
1002
{
1005
477
1002
}
  0
VERTEX
  5
88B
330
477
100
AcDbEntity
  8
1_TOP
  6
CONTINUOUS
 62
     7
100
AcDbVertex
100
AcDb3dPolylineVertex
 10
-9.209175921219136
 20
-13.56706662275481
 30
0.4080434344787029
 70
    32
1001
ACAD
1000
R13OBJECT
1002
{
1005
477
1002
}
  0
VERTEX
  5
88C
330
477
100
AcDbEntity
  8
1_TOP
  6
CONTINUOUS
 62
     7
100
AcDbVertex
100
AcDb3dPolylineVertex
 10
-9.209729399516696
 20
-13.56712500991546
 30
0.4080434344787029
 70
    32
1001
ACAD
1000
R13OBJECT
1002
{
1005
477
1002
}
  0
VERTEX
  5
88D
330
477
100
AcDbEntity
  8
1_TOP
  6
CONTINUOUS
 62
     7
100
AcDbVertex
100
AcDb3dPolylineVertex
 10
-9.210285671964406
 20
-13.56714372752019
 30
0.4080434344787029
 70
    32
1001
ACAD
1000
R13OBJECT
1002
{
1005
477
1002
}
  0
SEQEND
  5
88E
330
477
100
AcDbEntity
  8
1_TOP
  6
CONTINUOUS
 62
     7
  0
POLYLINE
  5
478
330
9D2
100
AcDbEntity
  8
1_TOP
  6
CONTINUOUS
 62
     7
100
AcDb3dPolyline
 66
     1
 10
0.0
 20
0.0
 30
0.0
 70
     8
  0
VERTEX
  5
88F
330
478
100
AcDbEntity
  8
1_TOP
  6
CONTINUOUS
 62
     7
100
AcDbVertex
100
AcDb3dPolylineVertex
 10
-9.210285671964406
 20
-13.56714372752019
 30
0.4080434344787029
 70
    32
1001
ACAD
1000
R13OBJECT
1002
{
1005
478
1002
}
  0
VERTEX
  5
890
330
478
100
AcDbEntity
  8
1_TOP
  6
CONTINUOUS
 62
     7
100
AcDbVertex
100
AcDb3dPolylineVertex
 10
-9.208906896813992
 20
-13.56794813017325
 30
0.4078922686371782
 70
    32
1001
ACAD
1000
R13OBJECT
1002
{
1005
478
1002
}
  0
VERTEX
  5
891
330
478
100
AcDbEntity
  8
1_TOP
  6
CONTINUOUS
 62
     7
100
AcDbVertex
100
AcDb3dPolylineVertex
 10
-9.207389585622152
 20
-13.5684541177985
 30
0.4077971469490266
 70
    32
1001
ACAD
1000
R13OBJECT
1002
{
1005
478
1002
}
  0
VERTEX
  5
892
330
478
100
AcDbEntity
  8
1_TOP
  6
CONTINUOUS
 62
     7
100
AcDbVertex
100
AcDb3dPolylineVertex
 10
-9.205793576003806
 20
-13.56856161416178
 30
0.4077769350056986
 70
    32
1001
ACAD
1000
R13OBJECT
1002
{
1005
478
1002
}
  0
VERTEX
  5
893
330
478
100
AcDbEntity
  8
1_TOP
  6
CONTINUOUS
 62
     7
100
AcDbVertex
100
AcDb3dPolylineVertex
 10
-9.204224357164427
 20
-13.5682435897318
 30
0.4078367278437979
 70
    32
1001
ACAD
1000
R13OBJECT
1002
{
1005
478
1002
}
  0
VERTEX
  5
894
330
478
100
AcDbEntity
  8
1_TOP
  6
CONTINUOUS
 62
     7
100
AcDbVertex
100
AcDb3dPolylineVertex
 10
-9.202776154829447
 20
-13.56757586641173
 30
0.4079622329694909
 70
    32
1001
ACAD
1000
R13OBJECT
1002
{
1005
478
1002
}
  0
VERTEX
  5
895
330
478
100
AcDbEntity
  8
1_TOP
  6
CONTINUOUS
 62
     7
100
AcDbVertex
100
AcDb3dPolylineVertex
 10
-9.201467854568996
 20
-13.5666576605935
 30
0.4081347446450481
 70
    32
1001
ACAD
1000
R13OBJECT
1002
{
1005
478
1002
}
  0
VERTEX
  5
896
330
478
100
AcDbEntity
  8
1_TOP
  6
CONTINUOUS
 62
     7
100
AcDbVertex
100
AcDb3dPolylineVertex
 10
-9.200296401408524
 20
-13.56557912109843
 30
0.4083372649457996
 70
    32
1001
ACAD
1000
R13OBJECT
1002
{
1005
478
1002
}
  0
VERTEX
  5
897
330
478
100
AcDbEntity
  8
1_TOP
  6
CONTINUOUS
 62
     7
100
AcDbVertex
100
AcDb3dPolylineVertex
 10
-9.199238894812911
 20
-13.56439238326805
 30
0.4085599603618407
 70
    32
1001
ACAD
1000
R13OBJECT
1002
{
1005
478
1002
}
  0
VERTEX
  5
898
330
478
100
AcDbEntity
  8
1_TOP
  6
CONTINUOUS
 62
     7
100
AcDbVertex
100
AcDb3dPolylineVertex
 10
-9.197388836479813
 20
-13.56181435560969
 30
0.4090432249665314
 70
    32
1001
ACAD
1000
R13OBJECT
1002
{
1005
478
1002
}
  0
VERTEX
  5
899
330
478
100
AcDbEntity
  8
1_TOP
  6
CONTINUOUS
 62
     7
100
AcDbVertex
100
AcDb3dPolylineVertex
 10
-9.195801545842382
 20
-13.55907104062751
 30
0.4095567048784548
 70
    32
1001
ACAD
1000
R13OBJECT
1002
{
1005
478
1002
}
  0
VERTEX
  5
89A
330
478
100
AcDbEntity
  8
1_TOP
  6
CONTINUOUS
 62
     7
100
AcDbVertex
100
AcDb3dPolylineVertex
 10
-9.194405225366923
 20
-13.55622856686107
 30
0.4100879089447497
 70
    32
1001
ACAD
1000
R13OBJECT
1002
{
1005
478
1002
}
  0
VERTEX
  5
89B
330
478
100
AcDbEntity
  8
1_TOP
  6
CONTINUOUS
 62
     7
100
AcDbVertex
100
AcDb3dPolylineVertex
 10
-9.1931545885525
 20
-13.55332093218286
 30
0.4106304102793767
 70
    32
1001
ACAD
1000
R13OBJECT
1002
{
1005
478
1002
}
  0
VERTEX
  5
89C
330
478
100
AcDbEntity
  8
1_TOP
  6
CONTINUOUS
 62
     7
100
AcDbVertex
100
AcDb3dPolylineVertex
 10
-9.192019550445856
 20
-13.55036756592721
 30
0.4111805331386841
 70
    32
1001
ACAD
1000
R13OBJECT
1002
{
1005
478
1002
}
  0
VERTEX
  5
89D
330
478
100
AcDbEntity
  8
1_TOP
  6
CONTINUOUS
 62
     7
100
AcDbVertex
100
AcDb3dPolylineVertex
 10
-9.19097911881982
 20
-13.54738045686584
 30
0.41173600752479
 70
    32
1001
ACAD
1000
R13OBJECT
1002
{
1005
478
1002
}
  0
VERTEX
  5
89E
330
478
100
AcDbEntity
  8
1_TOP
  6
CONTINUOUS
 62
     7
100
AcDbVertex
100
AcDb3dPolylineVertex
 10
-9.190018073052804
 20
-13.54436756833999
 30
0.4122953247156538
 70
    32
1001
ACAD
1000
R13OBJECT
1002
{
1005
478
1002
}
  0
VERTEX
  5
89F
330
478
100
AcDbEntity
  8
1_TOP
  6
CONTINUOUS
 62
     7
100
AcDbVertex
100
AcDb3dPolylineVertex
 10
-9.189124962749
 20
-13.54133435698955
 30
0.4128574499868682
 70
    32
1001
ACAD
1000
R13OBJECT
1002
{
1005
478
1002
}
  0
VERTEX
  5
8A0
330
478
100
AcDbEntity
  8
1_TOP
  6
CONTINUOUS
 62
     7
100
AcDbVertex
100
AcDb3dPolylineVertex
 10
-9.188290944266892
 20
-13.53828473584977
 30
0.4134216407534561
 70
    32
1001
ACAD
1000
R13OBJECT
1002
{
1005
478
1002
}
  0
VERTEX
  5
8A1
330
478
100
AcDbEntity
  8
1_TOP
  6
CONTINUOUS
 62
     7
100
AcDbVertex
100
AcDb3dPolylineVertex
 10
-9.187509027827831
 20
-13.53522160404907
 30
0.4139873464435419
 70
    32
1001
ACAD
1000
R13OBJECT
1002
{
1005
478
1002
}
  0
VERTEX
  5
8A2
330
478
100
AcDbEntity
  8
1_TOP
  6
CONTINUOUS
 62
     7
100
AcDbVertex
100
AcDb3dPolylineVertex
 10
-9.186773584948085
 20
-13.53214719028164
 30
0.4145541436510089
 70
    32
1001
ACAD
1000
R13OBJECT
1002
{
1005
478
1002
}
  0
VERTEX
  5
8A3
330
478
100
AcDbEntity
  8
1_TOP
  6
CONTINUOUS
 62
     7
100
AcDbVertex
100
AcDb3dPolylineVertex
 10
-9.186079993118715
 20
-13.52906319149592
 30
0.4151217095831419
 70
    32
1001
ACAD
1000
R13OBJECT
1002
{
1005
478
1002
}
  0
VERTEX
  5
8A4
330
478
100
AcDbEntity
  8
1_TOP
  6
CONTINUOUS
 62
     7
100
AcDbVertex
100
AcDb3dPolylineVertex
 10
-9.185424414873484
 20
-13.52597097714899
 30
0.4156897837288283
 70
    32
1001
ACAD
1000
R13OBJECT
1002
{
1005
478
1002
}
  0
VERTEX
  5
8A5
330
478
100
AcDbEntity
  8
1_TOP
  6
CONTINUOUS
 62
     7
100
AcDbVertex
100
AcDb3dPolylineVertex
 10
-9.18480361817258
 20
-13.52287164708386
 30
0.4162581567354687
 70
    32
1001
ACAD
1000
R13OBJECT
1002
{
1005
478
1002
}
  0
VERTEX
  5
8A6
330
478
100
AcDbEntity
  8
1_TOP
  6
CONTINUOUS
 62
     7
100
AcDbVertex
100
AcDb3dPolylineVertex
 10
-9.184214850973845
 20
-13.51976609564593
 30
0.4168266582526293
 70
    32
1001
ACAD
1000
R13OBJECT
1002
{
1005
478
1002
}
  0
VERTEX
  5
8A7
330
478
100
AcDbEntity
  8
1_TOP
  6
CONTINUOUS
 62
     7
100
AcDbVertex
100
AcDb3dPolylineVertex
 10
-9.183655747942305
 20
-13.51665506130966
 30
0.4173951475428589
 70
    32
1001
ACAD
1000
R13OBJECT
1002
{
1005
478
1002
}
  0
VERTEX
  5
8A8
330
478
100
AcDbEntity
  8
1_TOP
  6
CONTINUOUS
 62
     7
100
AcDbVertex
100
AcDb3dPolylineVertex
 10
-9.183124259800321
 20
-13.51353916669817
 30
0.4179635059383417
 70
    32
1001
ACAD
1000
R13OBJECT
1002
{
1005
478
1002
}
  0
VERTEX
  5
8A9
330
478
100
AcDbEntity
  8
1_TOP
  6
CONTINUOUS
 62
     7
100
AcDbVertex
100
AcDb3dPolylineVertex
 10
-9.182618596374542
 20
-13.51041893587902
 30
0.4185316335083261
 70
    32
1001
ACAD
1000
R13OBJECT
1002
{
1005
478
1002
}
  0
VERTEX
  5
8AA
330
478
100
AcDbEntity
  8
1_TOP
  6
CONTINUOUS
 62
     7
100
AcDbVertex
100
AcDb3dPolylineVertex
 10
-9.182137181848514
 20
-13.50729480437216
 30
0.4190994470827259
 70
    32
1001
ACAD
1000
R13OBJECT
1002
{
1005
478
1002
}
  0
VERTEX
  5
8AB
330
478
100
AcDbEntity
  8
1_TOP
  6
CONTINUOUS
 62
     7
100
AcDbVertex
100
AcDb3dPolylineVertex
 10
-9.181678626969928
 20
-13.50416717798551
 30
0.4196668694443176
 70
    32
1001
ACAD
1000
R13OBJECT
1002
{
1005
478
1002
}
  0
VERTEX
  5
8AC
330
478
100
AcDbEntity
  8
1_TOP
  6
CONTINUOUS
 62
     7
100
AcDbVertex
100
AcDb3dPolylineVertex
 10
-9.181241688706087
 20
-13.50103636006435
 30
0.4202338424441047
 70
    32
1001
ACAD
1000
R13OBJECT
1002
{
1005
478
1002
}
  0
VERTEX
  5
8AD
330
478
100
AcDbEntity
  8
1_TOP
  6
CONTINUOUS
 62
     7
100
AcDbVertex
100
AcDb3dPolylineVertex
 10
-9.18082526398456
 20
-13.49790267203402
 30
0.4208003050638859
 70
    32
1001
ACAD
1000
R13OBJECT
1002
{
1005
478
1002
}
  0
VERTEX
  5
8AE
330
478
100
AcDbEntity
  8
1_TOP
  6
CONTINUOUS
 62
     7
100
AcDbVertex
100
AcDb3dPolylineVertex
 10
-9.180428354862632
 20
-13.49476634332756
 30
0.4213662132897308
 70
    32
1001
ACAD
1000
R13OBJECT
1002
{
1005
478
1002
}
  0
VERTEX
  5
8AF
330
478
100
AcDbEntity
  8
1_TOP
  6
CONTINUOUS
 62
     7
100
AcDbVertex
100
AcDb3dPolylineVertex
 10
-9.180050064503452
 20
-13.49162759695876
 30
0.4219315245630654
 70
    32
1001
ACAD
1000
R13OBJECT
1002
{
1005
478
1002
}
  0
VERTEX
  5
8B0
330
478
100
AcDbEntity
  8
1_TOP
  6
CONTINUOUS
 62
     7
100
AcDbVertex
100
AcDb3dPolylineVertex
 10
-9.17968958392216
 20
-13.48848665499967
 30
0.4224961967867066
 70
    32
1001
ACAD
1000
R13OBJECT
1002
{
1005
478
1002
}
  0
VERTEX
  5
8B1
330
478
100
AcDbEntity
  8
1_TOP
  6
CONTINUOUS
 62
     7
100
AcDbVertex
100
AcDb3dPolylineVertex
 10
-9.17934617410858
 20
-13.48534367998357
 30
0.4230601988292129
 70
    32
1001
ACAD
1000
R13OBJECT
1002
{
1005
478
1002
}
  0
VERTEX
  5
8B2
330
478
100
AcDbEntity
  8
1_TOP
  6
CONTINUOUS
 62
     7
100
AcDbVertex
100
AcDb3dPolylineVertex
 10
-9.179019163093935
 20
-13.48219882677417
 30
0.4236235011449054
 70
    32
1001
ACAD
1000
R13OBJECT
1002
{
1005
478
1002
}
  0
VERTEX
  5
8B3
330
478
100
AcDbEntity
  8
1_TOP
  6
CONTINUOUS
 62
     7
100
AcDbVertex
100
AcDb3dPolylineVertex
 10
-9.178707935539973
 20
-13.47905221871477
 30
0.4241860800217801
 70
    32
1001
ACAD
1000
R13OBJECT
1002
{
1005
478
1002
}
  0
VERTEX
  5
8B4
330
478
100
AcDbEntity
  8
1_TOP
  6
CONTINUOUS
 62
     7
100
AcDbVertex
100
AcDb3dPolylineVertex
 10
-9.178411933577434
 20
-13.47590402531164
 30
0.4247479036792453
 70
    32
1001
ACAD
1000
R13OBJECT
1002
{
1005
478
1002
}
  0
VERTEX
  5
8B5
330
478
100
AcDbEntity
  8
1_TOP
  6
CONTINUOUS
 62
     7
100
AcDbVertex
100
AcDb3dPolylineVertex
 10
-9.178130639908648
 20
-13.47275434973073
 30
0.4253089523659437
 70
    32
1001
ACAD
1000
R13OBJECT
1002
{
1005
478
1002
}
  0
VERTEX
  5
8B6
330
478
100
AcDbEntity
  8
1_TOP
  6
CONTINUOUS
 62
     7
100
AcDbVertex
100
AcDb3dPolylineVertex
 10
-9.177863579870335
 20
-13.46960329754689
 30
0.4258692060382336
 70
    32
1001
ACAD
1000
R13OBJECT
1002
{
1005
478
1002
}
  0
VERTEX
  5
8B7
330
478
100
AcDbEntity
  8
1_TOP
  6
CONTINUOUS
 62
     7
100
AcDbVertex
100
AcDb3dPolylineVertex
 10
-9.177610315368156
 20
-13.46645095709088
 30
0.4264286478488479
 70
    32
1001
ACAD
1000
R13OBJECT
1002
{
1005
478
1002
}
  0
VERTEX
  5
8B8
330
478
100
AcDbEntity
  8
1_TOP
  6
CONTINUOUS
 62
     7
100
AcDbVertex
100
AcDb3dPolylineVertex
 10
-9.177370442977043
 20
-13.46329742109112
 30
0.4269872602884698
 70
    32
1001
ACAD
1000
R13OBJECT
1002
{
1005
478
1002
}
  0
VERTEX
  5
8B9
330
478
100
AcDbEntity
  8
1_TOP
  6
CONTINUOUS
 62
     7
100
AcDbVertex
100
AcDb3dPolylineVertex
 10
-9.177143589740852
 20
-13.46014277611438
 30
0.4275450270582497
 70
    32
1001
ACAD
1000
R13OBJECT
1002
{
1005
478
1002
}
  0
VERTEX
  5
8BA
330
478
100
AcDbEntity
  8
1_TOP
  6
CONTINUOUS
 62
     7
100
AcDbVertex
100
AcDb3dPolylineVertex
 10
-9.176929409633427
 20
-13.45698709150318
 30
0.4281019350102237
 70
    32
1001
ACAD
1000
R13OBJECT
1002
{
1005
478
1002
}
  0
VERTEX
  5
8BB
330
478
100
AcDbEntity
  8
1_TOP
  6
CONTINUOUS
 62
     7
100
AcDbVertex
100
AcDb3dPolylineVertex
 10
-9.176727582489084
 20
-13.45383043817531
 30
0.4286579708104627
 70
    32
1001
ACAD
1000
R13OBJECT
1002
{
1005
478
1002
}
  0
VERTEX
  5
8BC
330
478
100
AcDbEntity
  8
1_TOP
  6
CONTINUOUS
 62
     7
100
AcDbVertex
100
AcDb3dPolylineVertex
 10
-9.176537811394831
 20
-13.45067288334538
 30
0.4292131218689056
 70
    32
1001
ACAD
1000
R13OBJECT
1002
{
1005
478
1002
}
  0
VERTEX
  5
8BD
330
478
100
AcDbEntity
  8
1_TOP
  6
CONTINUOUS
 62
     7
100
AcDbVertex
100
AcDb3dPolylineVertex
 10
-9.176359820376212
 20
-13.44751448342953
 30
0.4297673775772461
 70
    32
1001
ACAD
1000
R13OBJECT
1002
{
1005
478
1002
}
  0
VERTEX
  5
8BE
330
478
100
AcDbEntity
  8
1_TOP
  6
CONTINUOUS
 62
     7
100
AcDbVertex
100
AcDb3dPolylineVertex
 10
-9.176193353487956
 20
-13.44435529699429
 30
0.4303207270251312
 70
    32
1001
ACAD
1000
R13OBJECT
1002
{
1005
478
1002
}
  0
VERTEX
  5
8BF
330
478
100
AcDbEntity
  8
1_TOP
  6
CONTINUOUS
 62
     7
100
AcDbVertex
100
AcDb3dPolylineVertex
 10
-9.176038172769446
 20
-13.44119537549689
 30
0.4308731606210664
 70
    32
1001
ACAD
1000
R13OBJECT
1002
{
1005
478
1002
}
  0
VERTEX
  5
8C0
330
478
100
AcDbEntity
  8
1_TOP
  6
CONTINUOUS
 62
     7
100
AcDbVertex
100
AcDb3dPolylineVertex
 10
-9.175894057228273
 20
-13.43803476893903
 30
0.4314246690950335
 70
    32
1001
ACAD
1000
R13OBJECT
1002
{
1005
478
1002
}
  0
VERTEX
  5
8C1
330
478
100
AcDbEntity
  8
1_TOP
  6
CONTINUOUS
 62
     7
100
AcDbVertex
100
AcDb3dPolylineVertex
 10
-9.175760801457652
 20
-13.4348735216563
 30
0.4319752442287437
 70
    32
1001
ACAD
1000
R13OBJECT
1002
{
1005
478
1002
}
  0
VERTEX
  5
8C2
330
478
100
AcDbEntity
  8
1_TOP
  6
CONTINUOUS
 62
     7
100
AcDbVertex
100
AcDb3dPolylineVertex
 10
-9.175638214959557
 20
-13.43171168118113
 30
0.4325248773070556
 70
    32
1001
ACAD
1000
R13OBJECT
1002
{
1005
478
1002
}
  0
VERTEX
  5
8C3
330
478
100
AcDbEntity
  8
1_TOP
  6
CONTINUOUS
 62
     7
100
AcDbVertex
100
AcDb3dPolylineVertex
 10
-9.175526120594902
 20
-13.42854928304205
 30
0.4330735617581455
 70
    32
1001
ACAD
1000
R13OBJECT
1002
{
1005
478
1002
}
  0
VERTEX
  5
8C4
330
478
100
AcDbEntity
  8
1_TOP
  6
CONTINUOUS
 62
     7
100
AcDbVertex
100
AcDb3dPolylineVertex
 10
-9.17542435461997
 20
-13.42538637417785
 30
0.4336212890828361
 70
    32
1001
ACAD
1000
R13OBJECT
1002
{
1005
478
1002
}
  0
VERTEX
  5
8C5
330
478
100
AcDbEntity
  8
1_TOP
  6
CONTINUOUS
 62
     7
100
AcDbVertex
100
AcDb3dPolylineVertex
 10
-9.17533276489927
 20
-13.42222298296356
 30
0.4341680540492443
 70
    32
1001
ACAD
1000
R13OBJECT
1002
{
1005
478
1002
}
  0
VERTEX
  5
8C6
330
478
100
AcDbEntity
  8
1_TOP
  6
CONTINUOUS
 62
     7
100
AcDbVertex
100
AcDb3dPolylineVertex
 10
-9.175251211354655
 20
-13.41905915433609
 30
0.4347138486083692
 70
    32
1001
ACAD
1000
R13OBJECT
1002
{
1005
478
1002
}
  0
VERTEX
  5
8C7
330
478
100
AcDbEntity
  8
1_TOP
  6
CONTINUOUS
 62
     7
100
AcDbVertex
100
AcDb3dPolylineVertex
 10
-9.175179564322675
 20
-13.41589491377634
 30
0.435258668117084
 70
    32
1001
ACAD
1000
R13OBJECT
1002
{
1005
478
1002
}
  0
VERTEX
  5
8C8
330
478
100
AcDbEntity
  8
1_TOP
  6
CONTINUOUS
 62
     7
100
AcDbVertex
100
AcDb3dPolylineVertex
 10
-9.175117704897903
 20
-13.41273030024637
 30
0.4358025056511616
 70
    32
1001
ACAD
1000
R13OBJECT
1002
{
1005
478
1002
}
  0
VERTEX
  5
8C9
330
478
100
AcDbEntity
  8
1_TOP
  6
CONTINUOUS
 62
     7
100
AcDbVertex
100
AcDb3dPolylineVertex
 10
-9.175065523787617
 20
-13.4095653363632
 30
0.436345357138368
 70
    32
1001
ACAD
1000
R13OBJECT
1002
{
1005
478
1002
}
  0
SEQEND
  5
8CA
330
478
100
AcDbEntity
  8
1_TOP
  6
CONTINUOUS
 62
     7
  0
ENDSEC
  0
SECTION
  2
OBJECTS
  0
DICTIONARY
  5
9C6
330
0
100
AcDbDictionary
  3
ACAD_GROUP
350
9C7
  3
ACAD_LAYOUT
350
9F5
  3
ACAD_MLINESTYLE
350
9C8
  3
ACAD_PLOTSETTINGS
350
9F6
1001
ACAD
1000
TREAT_AS_HARD
1070
     0
  0
DICTIONARY
  5
A25
330
9D2
100
AcDbDictionary
  3
ACAD_LAYOUTSELFREF
350
A41
1001
ACAD
1000
TREAT_AS_HARD
1070
     1
  0
DICTIONARY
  5
A23
330
9CF
100
AcDbDictionary
  3
ACAD_LAYOUTSELFREF
350
A40
1001
ACAD
1000
TREAT_AS_HARD
1070
     1
  0
DICTIONARY
  5
9C7
102
{ACAD_REACTORS
330
9C6
102
}
330
9C6
100
AcDbDictionary
1001
ACAD
1000
TREAT_AS_HARD
1070
     0
  0
DICTIONARY
  5
9F5
102
{ACAD_REACTORS
330
9C6
102
}
330
9C6
100
AcDbDictionary
1001
ACAD
1000
TREAT_AS_HARD
1070
     0
  0
DICTIONARY
  5
9C8
102
{ACAD_REACTORS
330
9C6
102
}
330
9C6
100
AcDbDictionary
  3
STANDARD
350
9D5
1001
ACAD
1000
TREAT_AS_HARD
1070
     0
  0
DICTIONARY
  5
9F6
102
{ACAD_REACTORS
330
9C6
102
}
330
9C6
100
AcDbDictionary
1001
ACAD
1000
TREAT_AS_HARD
1070
     0
  0
XRECORD
  5
A41
102
{ACAD_REACTORS
330
A25
102
}
330
A25
100
AcDbXrecord
340
9D2
  0
XRECORD
  5
A40
102
{ACAD_REACTORS
330
A23
102
}
330
A23
100
AcDbXrecord
340
9CF
  0
MLINESTYLE
  5
9D5
102
{ACAD_REACTORS
330
9C8
102
}
330
9C8
100
AcDbMlineStyle
  2
STANDARD
 70
     0
  3

 62
     0
 51
90.0
 52
90.0
 71
     2
 49
0.5
 62
   256
  6
BYLAYER
 49
-0.5
 62
   256
  6
BYLAYER
  0
ENDSEC
  0
EOF
