  0
SECTION
  2
HEADER
  9
$ACADVER
  1
AC1012
  9
$DWGCODEPAGE
  3
ANSI_1252
  9
$INSBASE
 10
0.0
 20
0.0
 30
0.0
  9
$EXTMIN
 10
0.1314697546552281
 20
1.975204491027636
 30
-0.0015258207003583
  9
$EXTMAX
 10
6.015563985816626
 20
8.041717549136045
 30
0.0000000349246037
  9
$LIMMIN
 10
0.0
 20
0.0
  9
$LIMMAX
 10
12.0
 20
9.0
  9
$ORTHOMODE
 70
     0
  9
$REGENMODE
 70
     1
  9
$FILLMODE
 70
     1
  9
$QTEXTMODE
 70
     0
  9
$MIRRTEXT
 70
     1
  9
$DRAGMODE
 70
     2
  9
$LTSCALE
 40
1.0
  9
$OSMODE
 70
   547
  9
$ATTMODE
 70
     1
  9
$TEXTSIZE
 40
0.2
  9
$TRACEWID
 40
0.05
  9
$TEXTSTYLE
  7
STANDARD
  9
$CLAYER
  8
0
  9
$CELTYPE
  6
BYLAYER
  9
$CECOLOR
 62
   256
  9
$CELTSCALE
 40
1.0
  9
$DELOBJ
 70
     1
  9
$DISPSILH
 70
     0
  9
$DIMSCALE
 40
1.0
  9
$DIMASZ
 40
0.18
  9
$DIMEXO
 40
0.0625
  9
$DIMDLI
 40
0.38
  9
$DIMRND
 40
0.0
  9
$DIMDLE
 40
0.0
  9
$DIMEXE
 40
0.18
  9
$DIMTP
 40
0.0
  9
$DIMTM
 40
0.0
  9
$DIMTXT
 40
0.18
  9
$DIMCEN
 40
0.09
  9
$DIMTSZ
 40
0.0
  9
$DIMTOL
 70
     0
  9
$DIMLIM
 70
     0
  9
$DIMTIH
 70
     1
  9
$DIMTOH
 70
     1
  9
$DIMSE1
 70
     0
  9
$DIMSE2
 70
     0
  9
$DIMTAD
 70
     0
  9
$DIMZIN
 70
     0
  9
$DIMBLK
  1

  9
$DIMASO
 70
     1
  9
$DIMSHO
 70
     1
  9
$DIMPOST
  1

  9
$DIMAPOST
  1

  9
$DIMALT
 70
     0
  9
$DIMALTD
 70
     2
  9
$DIMALTF
 40
25.4
  9
$DIMLFAC
 40
1.0
  9
$DIMTOFL
 70
     0
  9
$DIMTVP
 40
0.0
  9
$DIMTIX
 70
     0
  9
$DIMSOXD
 70
     0
  9
$DIMSAH
 70
     0
  9
$DIMBLK1
  1

  9
$DIMBLK2
  1

  9
$DIMSTYLE
  2
STANDARD
  9
$DIMCLRD
 70
     0
  9
$DIMCLRE
 70
     0
  9
$DIMCLRT
 70
     0
  9
$DIMTFAC
 40
1.0
  9
$DIMGAP
 40
0.09
  9
$DIMJUST
 70
     0
  9
$DIMSD1
 70
     0
  9
$DIMSD2
 70
     0
  9
$DIMTOLJ
 70
     1
  9
$DIMTZIN
 70
     0
  9
$DIMALTZ
 70
     0
  9
$DIMALTTZ
 70
     0
  9
$DIMFIT
 70
     5
  9
$DIMUPT
 70
     0
  9
$DIMUNIT
 70
     2
  9
$DIMDEC
 70
     4
  9
$DIMTDEC
 70
     4
  9
$DIMALTU
 70
     2
  9
$DIMALTTD
 70
     2
  9
$DIMTXSTY
  7
STANDARD
  9
$DIMAUNIT
 70
     0
  9
$LUNITS
 70
     2
  9
$LUPREC
 70
     4
  9
$SKETCHINC
 40
0.1
  9
$FILLETRAD
 40
0.0
  9
$AUNITS
 70
     0
  9
$AUPREC
 70
     0
  9
$MENU
  1
acad
  9
$ELEVATION
 40
0.0
  9
$PELEVATION
 40
0.0
  9
$THICKNESS
 40
0.0
  9
$LIMCHECK
 70
     0
  9
$BLIPMODE
 70
     0
  9
$CHAMFERA
 40
0.0
  9
$CHAMFERB
 40
0.0
  9
$CHAMFERC
 40
0.0
  9
$CHAMFERD
 40
0.0
  9
$SKPOLY
 70
     0
  9
$TDCREATE
 40
2454071.536574073
  9
$TDUPDATE
 40
2454071.538780139
  9
$TDINDWG
 40
0.0019371759
  9
$TDUSRTIMER
 40
0.0019371759
  9
$USRTIMER
 70
     1
  9
$ANGBASE
 50
0.0
  9
$ANGDIR
 70
     0
  9
$PDMODE
 70
     0
  9
$PDSIZE
 40
0.0
  9
$PLINEWID
 40
0.0
  9
$COORDS
 70
     1
  9
$SPLFRAME
 70
     0
  9
$SPLINETYPE
 70
     6
  9
$SPLINESEGS
 70
     8
  9
$ATTDIA
 70
     0
  9
$ATTREQ
 70
     1
  9
$HANDLING
 70
  4097
  9
$HANDSEED
  5
8C4
  9
$SURFTAB1
 70
     6
  9
$SURFTAB2
 70
     6
  9
$SURFTYPE
 70
     6
  9
$SURFU
 70
     6
  9
$SURFV
 70
     6
  9
$UCSNAME
  2

  9
$UCSORG
 10
0.0
 20
0.0
 30
0.0
  9
$UCSXDIR
 10
1.0
 20
0.0
 30
0.0
  9
$UCSYDIR
 10
0.0
 20
1.0
 30
0.0
  9
$PUCSNAME
  2

  9
$PUCSORG
 10
0.0
 20
0.0
 30
0.0
  9
$PUCSXDIR
 10
1.0
 20
0.0
 30
0.0
  9
$PUCSYDIR
 10
0.0
 20
1.0
 30
0.0
  9
$USERI1
 70
     0
  9
$USERI2
 70
     0
  9
$USERI3
 70
     0
  9
$USERI4
 70
     0
  9
$USERI5
 70
     0
  9
$USERR1
 40
0.0
  9
$USERR2
 40
0.0
  9
$USERR3
 40
0.0
  9
$USERR4
 40
0.0
  9
$USERR5
 40
0.0
  9
$WORLDVIEW
 70
     1
  9
$SHADEDGE
 70
     3
  9
$SHADEDIF
 70
    70
  9
$TILEMODE
 70
     1
  9
$MAXACTVP
 70
    16
  9
$PINSBASE
 10
0.0
 20
0.0
 30
0.0
  9
$PLIMCHECK
 70
     0
  9
$PEXTMIN
 10
1.000000000000000E+20
 20
1.000000000000000E+20
 30
1.000000000000000E+20
  9
$PEXTMAX
 10
-1.000000000000000E+20
 20
-1.000000000000000E+20
 30
-1.000000000000000E+20
  9
$PLIMMIN
 10
0.0
 20
0.0
  9
$PLIMMAX
 10
12.0
 20
9.0
  9
$UNITMODE
 70
     0
  9
$VISRETAIN
 70
     0
  9
$PLINEGEN
 70
     0
  9
$PSLTSCALE
 70
     1
  9
$TREEDEPTH
 70
  3020
  9
$PICKSTYLE
 70
     1
  9
$CMLSTYLE
  2
STANDARD
  9
$CMLJUST
 70
     0
  9
$CMLSCALE
 40
1.0
  9
$SAVEIMAGES
 70
     1
  0
ENDSEC
  0
SECTION
  2
CLASSES
  0
CLASS
  1
ACDBDICTIONARYWDFLT
  2
AcDbDictionaryWithDefault
  3
AutoCAD 2000
 90
    32768
280
     0
281
     0
  0
CLASS
  1
ACDBPLACEHOLDER
  2
AcDbPlaceHolder
  3
AutoCAD 2000
 90
    32768
280
     0
281
     0
  0
CLASS
  1
LAYOUT
  2
AcDbLayout
  3
AutoCAD 2000
 90
    32768
280
     0
281
     0
  0
CLASS
  1
LONG_TRANSACTION
  2
AcDbLongTransaction
  3
AutoCAD 2000
 90
    32768
280
     0
281
     0
  0
CLASS
  1
LWPOLYLINE
  2
AcDbPolyline
  3
AutoCAD 2000
 90
    32768
280
     0
281
     1
  0
CLASS
  1
HATCH
  2
AcDbHatch
  3
AutoCAD 2000
 90
    32768
280
     0
281
     1
  0
CLASS
  1
XRECORD
  2
AcDbXrecord
  3
AutoCAD 2000
 90
    32768
280
     0
281
     0
  0
ENDSEC
  0
SECTION
  2
TABLES
  0
TABLE
  2
VPORT
  5
8
330
0
100
AcDbSymbolTable
 70
     3
  0
VPORT
  5
61D
330
8
100
AcDbSymbolTableRecord
100
AcDbViewportTableRecord
  2
*ACTIVE
 70
     0
 10
0.0
 20
0.0
 11
1.0
 21
1.0
 12
3.073516870235927
 22
5.00846102008184
 13
0.0
 23
0.0
 14
1.0
 24
1.0
 15
0.0
 25
0.0
 16
0.0
 26
0.0
 36
1.0
 17
0.0
 27
0.0
 37
0.0
 40
6.134295326914089
 41
1.740671641791044
 42
50.0
 43
0.0
 44
0.0
 50
0.0
 51
0.0
 71
     0
 72
   100
 73
     1
 74
     1
 75
     0
 76
     0
 77
     0
 78
     0
  0
ENDTAB
  0
TABLE
  2
LTYPE
  5
5
330
0
100
AcDbSymbolTable
 70
    25
  0
LTYPE
  5
13
330
5
100
AcDbSymbolTableRecord
100
AcDbLinetypeTableRecord
  2
BYBLOCK
 70
     0
  3

 72
    65
 73
     0
 40
0.0
  0
LTYPE
  5
14
330
5
100
AcDbSymbolTableRecord
100
AcDbLinetypeTableRecord
  2
BYLAYER
 70
     0
  3

 72
    65
 73
     0
 40
0.0
  0
LTYPE
  5
15
330
5
100
AcDbSymbolTableRecord
100
AcDbLinetypeTableRecord
  2
CONTINUOUS
 70
     0
  3
Solid line
 72
    65
 73
     0
 40
0.0
  0
LTYPE
  5
22
330
5
100
AcDbSymbolTableRecord
100
AcDbLinetypeTableRecord
  2
BORDER
 70
     0
  3
__ __ . __ __ . __ __ . __ __ . __ __ . __ __ .
 72
    65
 73
     6
 40
1.75
 49
0.5
 74
     0
 49
-0.25
 74
     0
 49
0.5
 74
     0
 49
-0.25
 74
     0
 49
0.5
 74
     0
 49
-0.25
 74
     0
  0
LTYPE
  5
23
330
5
100
AcDbSymbolTableRecord
100
AcDbLinetypeTableRecord
  2
BORDER2
 70
     0
  3
__.__.__.__.__.__.__.__.
 72
    65
 73
     6
 40
0.875
 49
0.25
 74
     0
 49
-0.125
 74
     0
 49
0.25
 74
     0
 49
-0.125
 74
     0
 49
0.25
 74
     0
 49
-0.125
 74
     0
  0
LTYPE
  5
24
330
5
100
AcDbSymbolTableRecord
100
AcDbLinetypeTableRecord
  2
BORDERX2
 70
     0
  3
____  ____  .  
 72
    65
 73
     6
 40
3.5
 49
1.0
 74
     0
 49
-0.5
 74
     0
 49
1.0
 74
     0
 49
-0.5
 74
     0
 49
1.0
 74
     0
 49
-0.5
 74
     0
  0
LTYPE
  5
25
330
5
100
AcDbSymbolTableRecord
100
AcDbLinetypeTableRecord
  2
CENTER
 70
     0
  3
____ _ ____ _ ____ _ 
 72
    65
 73
     4
 40
2.0
 49
1.25
 74
     0
 49
-0.25
 74
     0
 49
0.25
 74
     0
 49
-0.25
 74
     0
  0
LTYPE
  5
26
330
5
100
AcDbSymbolTableRecord
100
AcDbLinetypeTableRecord
  2
CENTER2
 70
     0
  3
____ _ ____ _ ____ _ 
 72
    65
 73
     4
 40
1.125
 49
0.75
 74
     0
 49
-0.125
 74
     0
 49
0.125
 74
     0
 49
-0.125
 74
     0
  0
LTYPE
  5
27
330
5
100
AcDbSymbolTableRecord
100
AcDbLinetypeTableRecord
  2
CENTERX2
 70
     0
  3
________  __  
 72
    65
 73
     4
 40
4.0
 49
2.5
 74
     0
 49
-0.5
 74
     0
 49
0.5
 74
     0
 49
-0.5
 74
     0
  0
LTYPE
  5
28
330
5
100
AcDbSymbolTableRecord
100
AcDbLinetypeTableRecord
  2
DASHDOT
 70
     0
  3
__ . __ . __ . __ . 
 72
    65
 73
     4
 40
1.0
 49
0.5
 74
     0
 49
-0.25
 74
     0
 49
0.0
 74
     0
 49
-0.25
 74
     0
  0
LTYPE
  5
29
330
5
100
AcDbSymbolTableRecord
100
AcDbLinetypeTableRecord
  2
DASHDOT2
 70
     0
  3
_._._._._._._._._.
 72
    65
 73
     4
 40
0.5
 49
0.25
 74
     0
 49
-0.125
 74
     0
 49
0.0
 74
     0
 49
-0.125
 74
     0
  0
LTYPE
  5
2A
330
5
100
AcDbSymbolTableRecord
100
AcDbLinetypeTableRecord
  2
DASHDOTX2
 70
     0
  3
____  .  ____  .  
 72
    65
 73
     4
 40
2.0
 49
1.0
 74
     0
 49
-0.5
 74
     0
 49
0.0
 74
     0
 49
-0.5
 74
     0
  0
LTYPE
  5
2B
330
5
100
AcDbSymbolTableRecord
100
AcDbLinetypeTableRecord
  2
DASHED
 70
     0
  3
__ __ __ __ __ __ __ 
 72
    65
 73
     2
 40
0.75
 49
0.5
 74
     0
 49
-0.25
 74
     0
  0
LTYPE
  5
2C
330
5
100
AcDbSymbolTableRecord
100
AcDbLinetypeTableRecord
  2
DASHED2
 70
     0
  3
_ _ _ _ _ _ _ _ _ _ 
 72
    65
 73
     2
 40
0.375
 49
0.25
 74
     0
 49
-0.125
 74
     0
  0
LTYPE
  5
2D
330
5
100
AcDbSymbolTableRecord
100
AcDbLinetypeTableRecord
  2
DASHEDX2
 70
     0
  3
____  ____  ____  
 72
    65
 73
     2
 40
1.5
 49
1.0
 74
     0
 49
-0.5
 74
     0
  0
LTYPE
  5
2E
330
5
100
AcDbSymbolTableRecord
100
AcDbLinetypeTableRecord
  2
DIVIDE
 70
     0
  3
____ . . ____ . . 
 72
    65
 73
     6
 40
1.25
 49
0.5
 74
     0
 49
-0.25
 74
     0
 49
0.0
 74
     0
 49
-0.25
 74
     0
 49
0.0
 74
     0
 49
-0.25
 74
     0
  0
LTYPE
  5
2F
330
5
100
AcDbSymbolTableRecord
100
AcDbLinetypeTableRecord
  2
DIVIDE2
 70
     0
  3
__..__..__..__..__..
 72
    65
 73
     6
 40
0.625
 49
0.25
 74
     0
 49
-0.125
 74
     0
 49
0.0
 74
     0
 49
-0.125
 74
     0
 49
0.0
 74
     0
 49
-0.125
 74
     0
  0
LTYPE
  5
30
330
5
100
AcDbSymbolTableRecord
100
AcDbLinetypeTableRecord
  2
DIVIDEX2
 70
     0
  3
________  .  .  
 72
    65
 73
     6
 40
2.5
 49
1.0
 74
     0
 49
-0.5
 74
     0
 49
0.0
 74
     0
 49
-0.5
 74
     0
 49
0.0
 74
     0
 49
-0.5
 74
     0
  0
LTYPE
  5
31
330
5
100
AcDbSymbolTableRecord
100
AcDbLinetypeTableRecord
  2
DOT
 70
     0
  3
. . . . . . . . . 
 72
    65
 73
     2
 40
0.25
 49
0.0
 74
     0
 49
-0.25
 74
     0
  0
LTYPE
  5
32
330
5
100
AcDbSymbolTableRecord
100
AcDbLinetypeTableRecord
  2
DOT2
 70
     0
  3
..................
 72
    65
 73
     2
 40
0.125
 49
0.0
 74
     0
 49
-0.125
 74
     0
  0
LTYPE
  5
33
330
5
100
AcDbSymbolTableRecord
100
AcDbLinetypeTableRecord
  2
DOTX2
 70
     0
  3
.  .  .  .  .  .  
 72
    65
 73
     2
 40
0.5
 49
0.0
 74
     0
 49
-0.5
 74
     0
  0
LTYPE
  5
34
330
5
100
AcDbSymbolTableRecord
100
AcDbLinetypeTableRecord
  2
HIDDEN
 70
     0
  3
__ __ __ __ __ __ 
 72
    65
 73
     2
 40
0.375
 49
0.25
 74
     0
 49
-0.125
 74
     0
  0
LTYPE
  5
35
330
5
100
AcDbSymbolTableRecord
100
AcDbLinetypeTableRecord
  2
HIDDEN2
 70
     0
  3
_ _ _ _ _ _ _ _ _ 
 72
    65
 73
     2
 40
0.1875
 49
0.125
 74
     0
 49
-0.0625
 74
     0
  0
LTYPE
  5
36
330
5
100
AcDbSymbolTableRecord
100
AcDbLinetypeTableRecord
  2
HIDDENX2
 70
     0
  3
____ ____ ____ ____ 
 72
    65
 73
     2
 40
0.75
 49
0.5
 74
     0
 49
-0.25
 74
     0
  0
LTYPE
  5
37
330
5
100
AcDbSymbolTableRecord
100
AcDbLinetypeTableRecord
  2
PHANTOM
 70
     0
  3
______  __  __  
 72
    65
 73
     6
 40
2.5
 49
1.25
 74
     0
 49
-0.25
 74
     0
 49
0.25
 74
     0
 49
-0.25
 74
     0
 49
0.25
 74
     0
 49
-0.25
 74
     0
  0
LTYPE
  5
38
330
5
100
AcDbSymbolTableRecord
100
AcDbLinetypeTableRecord
  2
PHANTOM2
 70
     0
  3
___ _ _ ___ _ _ 
 72
    65
 73
     6
 40
1.25
 49
0.625
 74
     0
 49
-0.125
 74
     0
 49
0.125
 74
     0
 49
-0.125
 74
     0
 49
0.125
 74
     0
 49
-0.125
 74
     0
  0
LTYPE
  5
39
330
5
100
AcDbSymbolTableRecord
100
AcDbLinetypeTableRecord
  2
PHANTOMX2
 70
     0
  3
___ _ _ ___ _ _ 
 72
    65
 73
     6
 40
5.0
 49
2.5
 74
     0
 49
-0.5
 74
     0
 49
0.5
 74
     0
 49
-0.5
 74
     0
 49
0.5
 74
     0
 49
-0.5
 74
     0
  0
ENDTAB
  0
TABLE
  2
LAYER
  5
2
330
0
100
AcDbSymbolTable
 70
   257
  0
LAYER
  5
10
330
2
100
AcDbSymbolTableRecord
100
AcDbLayerTableRecord
  2
0
 70
     0
 62
     7
  6
CONTINUOUS
  0
LAYER
  5
3A
330
2
100
AcDbSymbolTableRecord
100
AcDbLayerTableRecord
  2
1
 70
     0
 62
     1
  6
CONTINUOUS
  0
LAYER
  5
3B
330
2
100
AcDbSymbolTableRecord
100
AcDbLayerTableRecord
  2
2
 70
     0
 62
     2
  6
CONTINUOUS
  0
LAYER
  5
3C
330
2
100
AcDbSymbolTableRecord
100
AcDbLayerTableRecord
  2
3
 70
     0
 62
     3
  6
CONTINUOUS
  0
LAYER
  5
3D
330
2
100
AcDbSymbolTableRecord
100
AcDbLayerTableRecord
  2
4
 70
     0
 62
     4
  6
CONTINUOUS
  0
LAYER
  5
3E
330
2
100
AcDbSymbolTableRecord
100
AcDbLayerTableRecord
  2
5
 70
     0
 62
     5
  6
CONTINUOUS
  0
LAYER
  5
3F
330
2
100
AcDbSymbolTableRecord
100
AcDbLayerTableRecord
  2
6
 70
     0
 62
     6
  6
CONTINUOUS
  0
LAYER
  5
40
330
2
100
AcDbSymbolTableRecord
100
AcDbLayerTableRecord
  2
7
 70
     0
 62
     7
  6
CONTINUOUS
  0
LAYER
  5
41
330
2
100
AcDbSymbolTableRecord
100
AcDbLayerTableRecord
  2
8
 70
     0
 62
     8
  6
CONTINUOUS
  0
LAYER
  5
42
330
2
100
AcDbSymbolTableRecord
100
AcDbLayerTableRecord
  2
9
 70
     0
 62
     9
  6
CONTINUOUS
  0
LAYER
  5
43
330
2
100
AcDbSymbolTableRecord
100
AcDbLayerTableRecord
  2
10
 70
     0
 62
    10
  6
CONTINUOUS
  0
LAYER
  5
44
330
2
100
AcDbSymbolTableRecord
100
AcDbLayerTableRecord
  2
11
 70
     0
 62
    11
  6
CONTINUOUS
  0
LAYER
  5
45
330
2
100
AcDbSymbolTableRecord
100
AcDbLayerTableRecord
  2
12
 70
     0
 62
    12
  6
CONTINUOUS
  0
LAYER
  5
46
330
2
100
AcDbSymbolTableRecord
100
AcDbLayerTableRecord
  2
13
 70
     0
 62
    13
  6
CONTINUOUS
  0
LAYER
  5
47
330
2
100
AcDbSymbolTableRecord
100
AcDbLayerTableRecord
  2
14
 70
     0
 62
    14
  6
CONTINUOUS
  0
LAYER
  5
48
330
2
100
AcDbSymbolTableRecord
100
AcDbLayerTableRecord
  2
15
 70
     0
 62
    15
  6
CONTINUOUS
  0
LAYER
  5
49
330
2
100
AcDbSymbolTableRecord
100
AcDbLayerTableRecord
  2
16
 70
     0
 62
    16
  6
CONTINUOUS
  0
LAYER
  5
4A
330
2
100
AcDbSymbolTableRecord
100
AcDbLayerTableRecord
  2
17
 70
     0
 62
    17
  6
CONTINUOUS
  0
LAYER
  5
4B
330
2
100
AcDbSymbolTableRecord
100
AcDbLayerTableRecord
  2
18
 70
     0
 62
    18
  6
CONTINUOUS
  0
LAYER
  5
4C
330
2
100
AcDbSymbolTableRecord
100
AcDbLayerTableRecord
  2
19
 70
     0
 62
    19
  6
CONTINUOUS
  0
LAYER
  5
4D
330
2
100
AcDbSymbolTableRecord
100
AcDbLayerTableRecord
  2
20
 70
     0
 62
    20
  6
CONTINUOUS
  0
LAYER
  5
4E
330
2
100
AcDbSymbolTableRecord
100
AcDbLayerTableRecord
  2
21
 70
     0
 62
    21
  6
CONTINUOUS
  0
LAYER
  5
4F
330
2
100
AcDbSymbolTableRecord
100
AcDbLayerTableRecord
  2
22
 70
     0
 62
    22
  6
CONTINUOUS
  0
LAYER
  5
50
330
2
100
AcDbSymbolTableRecord
100
AcDbLayerTableRecord
  2
23
 70
     0
 62
    23
  6
CONTINUOUS
  0
LAYER
  5
51
330
2
100
AcDbSymbolTableRecord
100
AcDbLayerTableRecord
  2
24
 70
     0
 62
    24
  6
CONTINUOUS
  0
LAYER
  5
52
330
2
100
AcDbSymbolTableRecord
100
AcDbLayerTableRecord
  2
25
 70
     0
 62
    25
  6
CONTINUOUS
  0
LAYER
  5
53
330
2
100
AcDbSymbolTableRecord
100
AcDbLayerTableRecord
  2
26
 70
     0
 62
    26
  6
CONTINUOUS
  0
LAYER
  5
54
330
2
100
AcDbSymbolTableRecord
100
AcDbLayerTableRecord
  2
27
 70
     0
 62
    27
  6
CONTINUOUS
  0
LAYER
  5
55
330
2
100
AcDbSymbolTableRecord
100
AcDbLayerTableRecord
  2
28
 70
     0
 62
    28
  6
CONTINUOUS
  0
LAYER
  5
56
330
2
100
AcDbSymbolTableRecord
100
AcDbLayerTableRecord
  2
29
 70
     0
 62
    29
  6
CONTINUOUS
  0
LAYER
  5
57
330
2
100
AcDbSymbolTableRecord
100
AcDbLayerTableRecord
  2
30
 70
     0
 62
    30
  6
CONTINUOUS
  0
LAYER
  5
58
330
2
100
AcDbSymbolTableRecord
100
AcDbLayerTableRecord
  2
31
 70
     0
 62
    31
  6
CONTINUOUS
  0
LAYER
  5
59
330
2
100
AcDbSymbolTableRecord
100
AcDbLayerTableRecord
  2
32
 70
     0
 62
    32
  6
CONTINUOUS
  0
LAYER
  5
5A
330
2
100
AcDbSymbolTableRecord
100
AcDbLayerTableRecord
  2
33
 70
     0
 62
    33
  6
CONTINUOUS
  0
LAYER
  5
5B
330
2
100
AcDbSymbolTableRecord
100
AcDbLayerTableRecord
  2
34
 70
     0
 62
    34
  6
CONTINUOUS
  0
LAYER
  5
5C
330
2
100
AcDbSymbolTableRecord
100
AcDbLayerTableRecord
  2
35
 70
     0
 62
    35
  6
CONTINUOUS
  0
LAYER
  5
5D
330
2
100
AcDbSymbolTableRecord
100
AcDbLayerTableRecord
  2
36
 70
     0
 62
    36
  6
CONTINUOUS
  0
LAYER
  5
5E
330
2
100
AcDbSymbolTableRecord
100
AcDbLayerTableRecord
  2
37
 70
     0
 62
    37
  6
CONTINUOUS
  0
LAYER
  5
5F
330
2
100
AcDbSymbolTableRecord
100
AcDbLayerTableRecord
  2
38
 70
     0
 62
    38
  6
CONTINUOUS
  0
LAYER
  5
60
330
2
100
AcDbSymbolTableRecord
100
AcDbLayerTableRecord
  2
39
 70
     0
 62
    39
  6
CONTINUOUS
  0
LAYER
  5
61
330
2
100
AcDbSymbolTableRecord
100
AcDbLayerTableRecord
  2
40
 70
     0
 62
    40
  6
CONTINUOUS
  0
LAYER
  5
62
330
2
100
AcDbSymbolTableRecord
100
AcDbLayerTableRecord
  2
41
 70
     0
 62
    41
  6
CONTINUOUS
  0
LAYER
  5
63
330
2
100
AcDbSymbolTableRecord
100
AcDbLayerTableRecord
  2
42
 70
     0
 62
    42
  6
CONTINUOUS
  0
LAYER
  5
64
330
2
100
AcDbSymbolTableRecord
100
AcDbLayerTableRecord
  2
43
 70
     0
 62
    43
  6
CONTINUOUS
  0
LAYER
  5
65
330
2
100
AcDbSymbolTableRecord
100
AcDbLayerTableRecord
  2
44
 70
     0
 62
    44
  6
CONTINUOUS
  0
LAYER
  5
66
330
2
100
AcDbSymbolTableRecord
100
AcDbLayerTableRecord
  2
45
 70
     0
 62
    45
  6
CONTINUOUS
  0
LAYER
  5
67
330
2
100
AcDbSymbolTableRecord
100
AcDbLayerTableRecord
  2
46
 70
     0
 62
    46
  6
CONTINUOUS
  0
LAYER
  5
68
330
2
100
AcDbSymbolTableRecord
100
AcDbLayerTableRecord
  2
47
 70
     0
 62
    47
  6
CONTINUOUS
  0
LAYER
  5
69
330
2
100
AcDbSymbolTableRecord
100
AcDbLayerTableRecord
  2
48
 70
     0
 62
    48
  6
CONTINUOUS
  0
LAYER
  5
6A
330
2
100
AcDbSymbolTableRecord
100
AcDbLayerTableRecord
  2
49
 70
     0
 62
    49
  6
CONTINUOUS
  0
LAYER
  5
6B
330
2
100
AcDbSymbolTableRecord
100
AcDbLayerTableRecord
  2
50
 70
     0
 62
    50
  6
CONTINUOUS
  0
LAYER
  5
6C
330
2
100
AcDbSymbolTableRecord
100
AcDbLayerTableRecord
  2
51
 70
     0
 62
    51
  6
CONTINUOUS
  0
LAYER
  5
6D
330
2
100
AcDbSymbolTableRecord
100
AcDbLayerTableRecord
  2
52
 70
     0
 62
    52
  6
CONTINUOUS
  0
LAYER
  5
6E
330
2
100
AcDbSymbolTableRecord
100
AcDbLayerTableRecord
  2
53
 70
     0
 62
    53
  6
CONTINUOUS
  0
LAYER
  5
6F
330
2
100
AcDbSymbolTableRecord
100
AcDbLayerTableRecord
  2
54
 70
     0
 62
    54
  6
CONTINUOUS
  0
LAYER
  5
70
330
2
100
AcDbSymbolTableRecord
100
AcDbLayerTableRecord
  2
55
 70
     0
 62
    55
  6
CONTINUOUS
  0
LAYER
  5
71
330
2
100
AcDbSymbolTableRecord
100
AcDbLayerTableRecord
  2
56
 70
     0
 62
    56
  6
CONTINUOUS
  0
LAYER
  5
72
330
2
100
AcDbSymbolTableRecord
100
AcDbLayerTableRecord
  2
57
 70
     0
 62
    57
  6
CONTINUOUS
  0
LAYER
  5
73
330
2
100
AcDbSymbolTableRecord
100
AcDbLayerTableRecord
  2
58
 70
     0
 62
    58
  6
CONTINUOUS
  0
LAYER
  5
74
330
2
100
AcDbSymbolTableRecord
100
AcDbLayerTableRecord
  2
59
 70
     0
 62
    59
  6
CONTINUOUS
  0
LAYER
  5
75
330
2
100
AcDbSymbolTableRecord
100
AcDbLayerTableRecord
  2
60
 70
     0
 62
    60
  6
CONTINUOUS
  0
LAYER
  5
76
330
2
100
AcDbSymbolTableRecord
100
AcDbLayerTableRecord
  2
61
 70
     0
 62
    61
  6
CONTINUOUS
  0
LAYER
  5
77
330
2
100
AcDbSymbolTableRecord
100
AcDbLayerTableRecord
  2
62
 70
     0
 62
    62
  6
CONTINUOUS
  0
LAYER
  5
78
330
2
100
AcDbSymbolTableRecord
100
AcDbLayerTableRecord
  2
63
 70
     0
 62
    63
  6
CONTINUOUS
  0
LAYER
  5
79
330
2
100
AcDbSymbolTableRecord
100
AcDbLayerTableRecord
  2
64
 70
     0
 62
    64
  6
CONTINUOUS
  0
LAYER
  5
7A
330
2
100
AcDbSymbolTableRecord
100
AcDbLayerTableRecord
  2
65
 70
     0
 62
    65
  6
CONTINUOUS
  0
LAYER
  5
7B
330
2
100
AcDbSymbolTableRecord
100
AcDbLayerTableRecord
  2
66
 70
     0
 62
    66
  6
CONTINUOUS
  0
LAYER
  5
7C
330
2
100
AcDbSymbolTableRecord
100
AcDbLayerTableRecord
  2
67
 70
     0
 62
    67
  6
CONTINUOUS
  0
LAYER
  5
7D
330
2
100
AcDbSymbolTableRecord
100
AcDbLayerTableRecord
  2
68
 70
     0
 62
    68
  6
CONTINUOUS
  0
LAYER
  5
7E
330
2
100
AcDbSymbolTableRecord
100
AcDbLayerTableRecord
  2
69
 70
     0
 62
    69
  6
CONTINUOUS
  0
LAYER
  5
7F
330
2
100
AcDbSymbolTableRecord
100
AcDbLayerTableRecord
  2
70
 70
     0
 62
    70
  6
CONTINUOUS
  0
LAYER
  5
80
330
2
100
AcDbSymbolTableRecord
100
AcDbLayerTableRecord
  2
71
 70
     0
 62
    71
  6
CONTINUOUS
  0
LAYER
  5
81
330
2
100
AcDbSymbolTableRecord
100
AcDbLayerTableRecord
  2
72
 70
     0
 62
    72
  6
CONTINUOUS
  0
LAYER
  5
82
330
2
100
AcDbSymbolTableRecord
100
AcDbLayerTableRecord
  2
73
 70
     0
 62
    73
  6
CONTINUOUS
  0
LAYER
  5
83
330
2
100
AcDbSymbolTableRecord
100
AcDbLayerTableRecord
  2
74
 70
     0
 62
    74
  6
CONTINUOUS
  0
LAYER
  5
84
330
2
100
AcDbSymbolTableRecord
100
AcDbLayerTableRecord
  2
75
 70
     0
 62
    75
  6
CONTINUOUS
  0
LAYER
  5
85
330
2
100
AcDbSymbolTableRecord
100
AcDbLayerTableRecord
  2
76
 70
     0
 62
    76
  6
CONTINUOUS
  0
LAYER
  5
86
330
2
100
AcDbSymbolTableRecord
100
AcDbLayerTableRecord
  2
77
 70
     0
 62
    77
  6
CONTINUOUS
  0
LAYER
  5
87
330
2
100
AcDbSymbolTableRecord
100
AcDbLayerTableRecord
  2
78
 70
     0
 62
    78
  6
CONTINUOUS
  0
LAYER
  5
88
330
2
100
AcDbSymbolTableRecord
100
AcDbLayerTableRecord
  2
79
 70
     0
 62
    79
  6
CONTINUOUS
  0
LAYER
  5
89
330
2
100
AcDbSymbolTableRecord
100
AcDbLayerTableRecord
  2
80
 70
     0
 62
    80
  6
CONTINUOUS
  0
LAYER
  5
8A
330
2
100
AcDbSymbolTableRecord
100
AcDbLayerTableRecord
  2
81
 70
     0
 62
    81
  6
CONTINUOUS
  0
LAYER
  5
8B
330
2
100
AcDbSymbolTableRecord
100
AcDbLayerTableRecord
  2
82
 70
     0
 62
    82
  6
CONTINUOUS
  0
LAYER
  5
8C
330
2
100
AcDbSymbolTableRecord
100
AcDbLayerTableRecord
  2
83
 70
     0
 62
    83
  6
CONTINUOUS
  0
LAYER
  5
8D
330
2
100
AcDbSymbolTableRecord
100
AcDbLayerTableRecord
  2
84
 70
     0
 62
    84
  6
CONTINUOUS
  0
LAYER
  5
8E
330
2
100
AcDbSymbolTableRecord
100
AcDbLayerTableRecord
  2
85
 70
     0
 62
    85
  6
CONTINUOUS
  0
LAYER
  5
8F
330
2
100
AcDbSymbolTableRecord
100
AcDbLayerTableRecord
  2
86
 70
     0
 62
    86
  6
CONTINUOUS
  0
LAYER
  5
90
330
2
100
AcDbSymbolTableRecord
100
AcDbLayerTableRecord
  2
87
 70
     0
 62
    87
  6
CONTINUOUS
  0
LAYER
  5
91
330
2
100
AcDbSymbolTableRecord
100
AcDbLayerTableRecord
  2
88
 70
     0
 62
    88
  6
CONTINUOUS
  0
LAYER
  5
92
330
2
100
AcDbSymbolTableRecord
100
AcDbLayerTableRecord
  2
89
 70
     0
 62
    89
  6
CONTINUOUS
  0
LAYER
  5
93
330
2
100
AcDbSymbolTableRecord
100
AcDbLayerTableRecord
  2
90
 70
     0
 62
    90
  6
CONTINUOUS
  0
LAYER
  5
94
330
2
100
AcDbSymbolTableRecord
100
AcDbLayerTableRecord
  2
91
 70
     0
 62
    91
  6
CONTINUOUS
  0
LAYER
  5
95
330
2
100
AcDbSymbolTableRecord
100
AcDbLayerTableRecord
  2
92
 70
     0
 62
    92
  6
CONTINUOUS
  0
LAYER
  5
96
330
2
100
AcDbSymbolTableRecord
100
AcDbLayerTableRecord
  2
93
 70
     0
 62
    93
  6
CONTINUOUS
  0
LAYER
  5
97
330
2
100
AcDbSymbolTableRecord
100
AcDbLayerTableRecord
  2
94
 70
     0
 62
    94
  6
CONTINUOUS
  0
LAYER
  5
98
330
2
100
AcDbSymbolTableRecord
100
AcDbLayerTableRecord
  2
95
 70
     0
 62
    95
  6
CONTINUOUS
  0
LAYER
  5
99
330
2
100
AcDbSymbolTableRecord
100
AcDbLayerTableRecord
  2
96
 70
     0
 62
    96
  6
CONTINUOUS
  0
LAYER
  5
9A
330
2
100
AcDbSymbolTableRecord
100
AcDbLayerTableRecord
  2
97
 70
     0
 62
    97
  6
CONTINUOUS
  0
LAYER
  5
9B
330
2
100
AcDbSymbolTableRecord
100
AcDbLayerTableRecord
  2
98
 70
     0
 62
    98
  6
CONTINUOUS
  0
LAYER
  5
9C
330
2
100
AcDbSymbolTableRecord
100
AcDbLayerTableRecord
  2
99
 70
     0
 62
    99
  6
CONTINUOUS
  0
LAYER
  5
9D
330
2
100
AcDbSymbolTableRecord
100
AcDbLayerTableRecord
  2
100
 70
     0
 62
   100
  6
CONTINUOUS
  0
LAYER
  5
9E
330
2
100
AcDbSymbolTableRecord
100
AcDbLayerTableRecord
  2
101
 70
     0
 62
   101
  6
CONTINUOUS
  0
LAYER
  5
9F
330
2
100
AcDbSymbolTableRecord
100
AcDbLayerTableRecord
  2
102
 70
     0
 62
   102
  6
CONTINUOUS
  0
LAYER
  5
A0
330
2
100
AcDbSymbolTableRecord
100
AcDbLayerTableRecord
  2
103
 70
     0
 62
   103
  6
CONTINUOUS
  0
LAYER
  5
A1
330
2
100
AcDbSymbolTableRecord
100
AcDbLayerTableRecord
  2
104
 70
     0
 62
   104
  6
CONTINUOUS
  0
LAYER
  5
A2
330
2
100
AcDbSymbolTableRecord
100
AcDbLayerTableRecord
  2
105
 70
     0
 62
   105
  6
CONTINUOUS
  0
LAYER
  5
A3
330
2
100
AcDbSymbolTableRecord
100
AcDbLayerTableRecord
  2
106
 70
     0
 62
   106
  6
CONTINUOUS
  0
LAYER
  5
A4
330
2
100
AcDbSymbolTableRecord
100
AcDbLayerTableRecord
  2
107
 70
     0
 62
   107
  6
CONTINUOUS
  0
LAYER
  5
A5
330
2
100
AcDbSymbolTableRecord
100
AcDbLayerTableRecord
  2
108
 70
     0
 62
   108
  6
CONTINUOUS
  0
LAYER
  5
A6
330
2
100
AcDbSymbolTableRecord
100
AcDbLayerTableRecord
  2
109
 70
     0
 62
   109
  6
CONTINUOUS
  0
LAYER
  5
A7
330
2
100
AcDbSymbolTableRecord
100
AcDbLayerTableRecord
  2
110
 70
     0
 62
   110
  6
CONTINUOUS
  0
LAYER
  5
A8
330
2
100
AcDbSymbolTableRecord
100
AcDbLayerTableRecord
  2
111
 70
     0
 62
   111
  6
CONTINUOUS
  0
LAYER
  5
A9
330
2
100
AcDbSymbolTableRecord
100
AcDbLayerTableRecord
  2
112
 70
     0
 62
   112
  6
CONTINUOUS
  0
LAYER
  5
AA
330
2
100
AcDbSymbolTableRecord
100
AcDbLayerTableRecord
  2
113
 70
     0
 62
   113
  6
CONTINUOUS
  0
LAYER
  5
AB
330
2
100
AcDbSymbolTableRecord
100
AcDbLayerTableRecord
  2
114
 70
     0
 62
   114
  6
CONTINUOUS
  0
LAYER
  5
AC
330
2
100
AcDbSymbolTableRecord
100
AcDbLayerTableRecord
  2
115
 70
     0
 62
   115
  6
CONTINUOUS
  0
LAYER
  5
AD
330
2
100
AcDbSymbolTableRecord
100
AcDbLayerTableRecord
  2
116
 70
     0
 62
   116
  6
CONTINUOUS
  0
LAYER
  5
AE
330
2
100
AcDbSymbolTableRecord
100
AcDbLayerTableRecord
  2
117
 70
     0
 62
   117
  6
CONTINUOUS
  0
LAYER
  5
AF
330
2
100
AcDbSymbolTableRecord
100
AcDbLayerTableRecord
  2
118
 70
     0
 62
   118
  6
CONTINUOUS
  0
LAYER
  5
B0
330
2
100
AcDbSymbolTableRecord
100
AcDbLayerTableRecord
  2
119
 70
     0
 62
   119
  6
CONTINUOUS
  0
LAYER
  5
B1
330
2
100
AcDbSymbolTableRecord
100
AcDbLayerTableRecord
  2
120
 70
     0
 62
   120
  6
CONTINUOUS
  0
LAYER
  5
B2
330
2
100
AcDbSymbolTableRecord
100
AcDbLayerTableRecord
  2
121
 70
     0
 62
   121
  6
CONTINUOUS
  0
LAYER
  5
B3
330
2
100
AcDbSymbolTableRecord
100
AcDbLayerTableRecord
  2
122
 70
     0
 62
   122
  6
CONTINUOUS
  0
LAYER
  5
B4
330
2
100
AcDbSymbolTableRecord
100
AcDbLayerTableRecord
  2
123
 70
     0
 62
   123
  6
CONTINUOUS
  0
LAYER
  5
B5
330
2
100
AcDbSymbolTableRecord
100
AcDbLayerTableRecord
  2
124
 70
     0
 62
   124
  6
CONTINUOUS
  0
LAYER
  5
B6
330
2
100
AcDbSymbolTableRecord
100
AcDbLayerTableRecord
  2
125
 70
     0
 62
   125
  6
CONTINUOUS
  0
LAYER
  5
B7
330
2
100
AcDbSymbolTableRecord
100
AcDbLayerTableRecord
  2
126
 70
     0
 62
   126
  6
CONTINUOUS
  0
LAYER
  5
B8
330
2
100
AcDbSymbolTableRecord
100
AcDbLayerTableRecord
  2
127
 70
     0
 62
   127
  6
CONTINUOUS
  0
LAYER
  5
B9
330
2
100
AcDbSymbolTableRecord
100
AcDbLayerTableRecord
  2
128
 70
     0
 62
   128
  6
CONTINUOUS
  0
LAYER
  5
BA
330
2
100
AcDbSymbolTableRecord
100
AcDbLayerTableRecord
  2
129
 70
     0
 62
   129
  6
CONTINUOUS
  0
LAYER
  5
BB
330
2
100
AcDbSymbolTableRecord
100
AcDbLayerTableRecord
  2
130
 70
     0
 62
   130
  6
CONTINUOUS
  0
LAYER
  5
BC
330
2
100
AcDbSymbolTableRecord
100
AcDbLayerTableRecord
  2
131
 70
     0
 62
   131
  6
CONTINUOUS
  0
LAYER
  5
BD
330
2
100
AcDbSymbolTableRecord
100
AcDbLayerTableRecord
  2
132
 70
     0
 62
   132
  6
CONTINUOUS
  0
LAYER
  5
BE
330
2
100
AcDbSymbolTableRecord
100
AcDbLayerTableRecord
  2
133
 70
     0
 62
   133
  6
CONTINUOUS
  0
LAYER
  5
BF
330
2
100
AcDbSymbolTableRecord
100
AcDbLayerTableRecord
  2
134
 70
     0
 62
   134
  6
CONTINUOUS
  0
LAYER
  5
C0
330
2
100
AcDbSymbolTableRecord
100
AcDbLayerTableRecord
  2
135
 70
     0
 62
   135
  6
CONTINUOUS
  0
LAYER
  5
C1
330
2
100
AcDbSymbolTableRecord
100
AcDbLayerTableRecord
  2
136
 70
     0
 62
   136
  6
CONTINUOUS
  0
LAYER
  5
C2
330
2
100
AcDbSymbolTableRecord
100
AcDbLayerTableRecord
  2
137
 70
     0
 62
   137
  6
CONTINUOUS
  0
LAYER
  5
C3
330
2
100
AcDbSymbolTableRecord
100
AcDbLayerTableRecord
  2
138
 70
     0
 62
   138
  6
CONTINUOUS
  0
LAYER
  5
C4
330
2
100
AcDbSymbolTableRecord
100
AcDbLayerTableRecord
  2
139
 70
     0
 62
   139
  6
CONTINUOUS
  0
LAYER
  5
C5
330
2
100
AcDbSymbolTableRecord
100
AcDbLayerTableRecord
  2
140
 70
     0
 62
   140
  6
CONTINUOUS
  0
LAYER
  5
C6
330
2
100
AcDbSymbolTableRecord
100
AcDbLayerTableRecord
  2
141
 70
     0
 62
   141
  6
CONTINUOUS
  0
LAYER
  5
C7
330
2
100
AcDbSymbolTableRecord
100
AcDbLayerTableRecord
  2
142
 70
     0
 62
   142
  6
CONTINUOUS
  0
LAYER
  5
C8
330
2
100
AcDbSymbolTableRecord
100
AcDbLayerTableRecord
  2
143
 70
     0
 62
   143
  6
CONTINUOUS
  0
LAYER
  5
C9
330
2
100
AcDbSymbolTableRecord
100
AcDbLayerTableRecord
  2
144
 70
     0
 62
   144
  6
CONTINUOUS
  0
LAYER
  5
CA
330
2
100
AcDbSymbolTableRecord
100
AcDbLayerTableRecord
  2
145
 70
     0
 62
   145
  6
CONTINUOUS
  0
LAYER
  5
CB
330
2
100
AcDbSymbolTableRecord
100
AcDbLayerTableRecord
  2
146
 70
     0
 62
   146
  6
CONTINUOUS
  0
LAYER
  5
CC
330
2
100
AcDbSymbolTableRecord
100
AcDbLayerTableRecord
  2
147
 70
     0
 62
   147
  6
CONTINUOUS
  0
LAYER
  5
CD
330
2
100
AcDbSymbolTableRecord
100
AcDbLayerTableRecord
  2
148
 70
     0
 62
   148
  6
CONTINUOUS
  0
LAYER
  5
CE
330
2
100
AcDbSymbolTableRecord
100
AcDbLayerTableRecord
  2
149
 70
     0
 62
   149
  6
CONTINUOUS
  0
LAYER
  5
CF
330
2
100
AcDbSymbolTableRecord
100
AcDbLayerTableRecord
  2
150
 70
     0
 62
   150
  6
CONTINUOUS
  0
LAYER
  5
D0
330
2
100
AcDbSymbolTableRecord
100
AcDbLayerTableRecord
  2
151
 70
     0
 62
   151
  6
CONTINUOUS
  0
LAYER
  5
D1
330
2
100
AcDbSymbolTableRecord
100
AcDbLayerTableRecord
  2
152
 70
     0
 62
   152
  6
CONTINUOUS
  0
LAYER
  5
D2
330
2
100
AcDbSymbolTableRecord
100
AcDbLayerTableRecord
  2
153
 70
     0
 62
   153
  6
CONTINUOUS
  0
LAYER
  5
D3
330
2
100
AcDbSymbolTableRecord
100
AcDbLayerTableRecord
  2
154
 70
     0
 62
   154
  6
CONTINUOUS
  0
LAYER
  5
D4
330
2
100
AcDbSymbolTableRecord
100
AcDbLayerTableRecord
  2
155
 70
     0
 62
   155
  6
CONTINUOUS
  0
LAYER
  5
D5
330
2
100
AcDbSymbolTableRecord
100
AcDbLayerTableRecord
  2
156
 70
     0
 62
   156
  6
CONTINUOUS
  0
LAYER
  5
D6
330
2
100
AcDbSymbolTableRecord
100
AcDbLayerTableRecord
  2
157
 70
     0
 62
   157
  6
CONTINUOUS
  0
LAYER
  5
D7
330
2
100
AcDbSymbolTableRecord
100
AcDbLayerTableRecord
  2
158
 70
     0
 62
   158
  6
CONTINUOUS
  0
LAYER
  5
D8
330
2
100
AcDbSymbolTableRecord
100
AcDbLayerTableRecord
  2
159
 70
     0
 62
   159
  6
CONTINUOUS
  0
LAYER
  5
D9
330
2
100
AcDbSymbolTableRecord
100
AcDbLayerTableRecord
  2
160
 70
     0
 62
   160
  6
CONTINUOUS
  0
LAYER
  5
DA
330
2
100
AcDbSymbolTableRecord
100
AcDbLayerTableRecord
  2
161
 70
     0
 62
   161
  6
CONTINUOUS
  0
LAYER
  5
DB
330
2
100
AcDbSymbolTableRecord
100
AcDbLayerTableRecord
  2
162
 70
     0
 62
   162
  6
CONTINUOUS
  0
LAYER
  5
DC
330
2
100
AcDbSymbolTableRecord
100
AcDbLayerTableRecord
  2
163
 70
     0
 62
   163
  6
CONTINUOUS
  0
LAYER
  5
DD
330
2
100
AcDbSymbolTableRecord
100
AcDbLayerTableRecord
  2
164
 70
     0
 62
   164
  6
CONTINUOUS
  0
LAYER
  5
DE
330
2
100
AcDbSymbolTableRecord
100
AcDbLayerTableRecord
  2
165
 70
     0
 62
   165
  6
CONTINUOUS
  0
LAYER
  5
DF
330
2
100
AcDbSymbolTableRecord
100
AcDbLayerTableRecord
  2
166
 70
     0
 62
   166
  6
CONTINUOUS
  0
LAYER
  5
E0
330
2
100
AcDbSymbolTableRecord
100
AcDbLayerTableRecord
  2
167
 70
     0
 62
   167
  6
CONTINUOUS
  0
LAYER
  5
E1
330
2
100
AcDbSymbolTableRecord
100
AcDbLayerTableRecord
  2
168
 70
     0
 62
   168
  6
CONTINUOUS
  0
LAYER
  5
E2
330
2
100
AcDbSymbolTableRecord
100
AcDbLayerTableRecord
  2
169
 70
     0
 62
   169
  6
CONTINUOUS
  0
LAYER
  5
E3
330
2
100
AcDbSymbolTableRecord
100
AcDbLayerTableRecord
  2
170
 70
     0
 62
   170
  6
CONTINUOUS
  0
LAYER
  5
E4
330
2
100
AcDbSymbolTableRecord
100
AcDbLayerTableRecord
  2
171
 70
     0
 62
   171
  6
CONTINUOUS
  0
LAYER
  5
E5
330
2
100
AcDbSymbolTableRecord
100
AcDbLayerTableRecord
  2
172
 70
     0
 62
   172
  6
CONTINUOUS
  0
LAYER
  5
E6
330
2
100
AcDbSymbolTableRecord
100
AcDbLayerTableRecord
  2
173
 70
     0
 62
   173
  6
CONTINUOUS
  0
LAYER
  5
E7
330
2
100
AcDbSymbolTableRecord
100
AcDbLayerTableRecord
  2
174
 70
     0
 62
   174
  6
CONTINUOUS
  0
LAYER
  5
E8
330
2
100
AcDbSymbolTableRecord
100
AcDbLayerTableRecord
  2
175
 70
     0
 62
   175
  6
CONTINUOUS
  0
LAYER
  5
E9
330
2
100
AcDbSymbolTableRecord
100
AcDbLayerTableRecord
  2
176
 70
     0
 62
   176
  6
CONTINUOUS
  0
LAYER
  5
EA
330
2
100
AcDbSymbolTableRecord
100
AcDbLayerTableRecord
  2
177
 70
     0
 62
   177
  6
CONTINUOUS
  0
LAYER
  5
EB
330
2
100
AcDbSymbolTableRecord
100
AcDbLayerTableRecord
  2
178
 70
     0
 62
   178
  6
CONTINUOUS
  0
LAYER
  5
EC
330
2
100
AcDbSymbolTableRecord
100
AcDbLayerTableRecord
  2
179
 70
     0
 62
   179
  6
CONTINUOUS
  0
LAYER
  5
ED
330
2
100
AcDbSymbolTableRecord
100
AcDbLayerTableRecord
  2
180
 70
     0
 62
   180
  6
CONTINUOUS
  0
LAYER
  5
EE
330
2
100
AcDbSymbolTableRecord
100
AcDbLayerTableRecord
  2
181
 70
     0
 62
   181
  6
CONTINUOUS
  0
LAYER
  5
EF
330
2
100
AcDbSymbolTableRecord
100
AcDbLayerTableRecord
  2
182
 70
     0
 62
   182
  6
CONTINUOUS
  0
LAYER
  5
F0
330
2
100
AcDbSymbolTableRecord
100
AcDbLayerTableRecord
  2
183
 70
     0
 62
   183
  6
CONTINUOUS
  0
LAYER
  5
F1
330
2
100
AcDbSymbolTableRecord
100
AcDbLayerTableRecord
  2
184
 70
     0
 62
   184
  6
CONTINUOUS
  0
LAYER
  5
F2
330
2
100
AcDbSymbolTableRecord
100
AcDbLayerTableRecord
  2
185
 70
     0
 62
   185
  6
CONTINUOUS
  0
LAYER
  5
F3
330
2
100
AcDbSymbolTableRecord
100
AcDbLayerTableRecord
  2
186
 70
     0
 62
   186
  6
CONTINUOUS
  0
LAYER
  5
F4
330
2
100
AcDbSymbolTableRecord
100
AcDbLayerTableRecord
  2
187
 70
     0
 62
   187
  6
CONTINUOUS
  0
LAYER
  5
F5
330
2
100
AcDbSymbolTableRecord
100
AcDbLayerTableRecord
  2
188
 70
     0
 62
   188
  6
CONTINUOUS
  0
LAYER
  5
F6
330
2
100
AcDbSymbolTableRecord
100
AcDbLayerTableRecord
  2
189
 70
     0
 62
   189
  6
CONTINUOUS
  0
LAYER
  5
F7
330
2
100
AcDbSymbolTableRecord
100
AcDbLayerTableRecord
  2
190
 70
     0
 62
   190
  6
CONTINUOUS
  0
LAYER
  5
F8
330
2
100
AcDbSymbolTableRecord
100
AcDbLayerTableRecord
  2
191
 70
     0
 62
   191
  6
CONTINUOUS
  0
LAYER
  5
F9
330
2
100
AcDbSymbolTableRecord
100
AcDbLayerTableRecord
  2
192
 70
     0
 62
   192
  6
CONTINUOUS
  0
LAYER
  5
FA
330
2
100
AcDbSymbolTableRecord
100
AcDbLayerTableRecord
  2
193
 70
     0
 62
   193
  6
CONTINUOUS
  0
LAYER
  5
FB
330
2
100
AcDbSymbolTableRecord
100
AcDbLayerTableRecord
  2
194
 70
     0
 62
   194
  6
CONTINUOUS
  0
LAYER
  5
FC
330
2
100
AcDbSymbolTableRecord
100
AcDbLayerTableRecord
  2
195
 70
     0
 62
   195
  6
CONTINUOUS
  0
LAYER
  5
FD
330
2
100
AcDbSymbolTableRecord
100
AcDbLayerTableRecord
  2
196
 70
     0
 62
   196
  6
CONTINUOUS
  0
LAYER
  5
FE
330
2
100
AcDbSymbolTableRecord
100
AcDbLayerTableRecord
  2
197
 70
     0
 62
   197
  6
CONTINUOUS
  0
LAYER
  5
FF
330
2
100
AcDbSymbolTableRecord
100
AcDbLayerTableRecord
  2
198
 70
     0
 62
   198
  6
CONTINUOUS
  0
LAYER
  5
100
330
2
100
AcDbSymbolTableRecord
100
AcDbLayerTableRecord
  2
199
 70
     0
 62
   199
  6
CONTINUOUS
  0
LAYER
  5
101
330
2
100
AcDbSymbolTableRecord
100
AcDbLayerTableRecord
  2
200
 70
     0
 62
   200
  6
CONTINUOUS
  0
LAYER
  5
102
330
2
100
AcDbSymbolTableRecord
100
AcDbLayerTableRecord
  2
201
 70
     0
 62
   201
  6
CONTINUOUS
  0
LAYER
  5
103
330
2
100
AcDbSymbolTableRecord
100
AcDbLayerTableRecord
  2
202
 70
     0
 62
   202
  6
CONTINUOUS
  0
LAYER
  5
104
330
2
100
AcDbSymbolTableRecord
100
AcDbLayerTableRecord
  2
203
 70
     0
 62
   203
  6
CONTINUOUS
  0
LAYER
  5
105
330
2
100
AcDbSymbolTableRecord
100
AcDbLayerTableRecord
  2
204
 70
     0
 62
   204
  6
CONTINUOUS
  0
LAYER
  5
106
330
2
100
AcDbSymbolTableRecord
100
AcDbLayerTableRecord
  2
205
 70
     0
 62
   205
  6
CONTINUOUS
  0
LAYER
  5
107
330
2
100
AcDbSymbolTableRecord
100
AcDbLayerTableRecord
  2
206
 70
     0
 62
   206
  6
CONTINUOUS
  0
LAYER
  5
108
330
2
100
AcDbSymbolTableRecord
100
AcDbLayerTableRecord
  2
207
 70
     0
 62
   207
  6
CONTINUOUS
  0
LAYER
  5
109
330
2
100
AcDbSymbolTableRecord
100
AcDbLayerTableRecord
  2
208
 70
     0
 62
   208
  6
CONTINUOUS
  0
LAYER
  5
10A
330
2
100
AcDbSymbolTableRecord
100
AcDbLayerTableRecord
  2
209
 70
     0
 62
   209
  6
CONTINUOUS
  0
LAYER
  5
10B
330
2
100
AcDbSymbolTableRecord
100
AcDbLayerTableRecord
  2
210
 70
     0
 62
   210
  6
CONTINUOUS
  0
LAYER
  5
10C
330
2
100
AcDbSymbolTableRecord
100
AcDbLayerTableRecord
  2
211
 70
     0
 62
   211
  6
CONTINUOUS
  0
LAYER
  5
10D
330
2
100
AcDbSymbolTableRecord
100
AcDbLayerTableRecord
  2
212
 70
     0
 62
   212
  6
CONTINUOUS
  0
LAYER
  5
10E
330
2
100
AcDbSymbolTableRecord
100
AcDbLayerTableRecord
  2
213
 70
     0
 62
   213
  6
CONTINUOUS
  0
LAYER
  5
10F
330
2
100
AcDbSymbolTableRecord
100
AcDbLayerTableRecord
  2
214
 70
     0
 62
   214
  6
CONTINUOUS
  0
LAYER
  5
110
330
2
100
AcDbSymbolTableRecord
100
AcDbLayerTableRecord
  2
215
 70
     0
 62
   215
  6
CONTINUOUS
  0
LAYER
  5
111
330
2
100
AcDbSymbolTableRecord
100
AcDbLayerTableRecord
  2
216
 70
     0
 62
   216
  6
CONTINUOUS
  0
LAYER
  5
112
330
2
100
AcDbSymbolTableRecord
100
AcDbLayerTableRecord
  2
217
 70
     0
 62
   217
  6
CONTINUOUS
  0
LAYER
  5
113
330
2
100
AcDbSymbolTableRecord
100
AcDbLayerTableRecord
  2
218
 70
     0
 62
   218
  6
CONTINUOUS
  0
LAYER
  5
114
330
2
100
AcDbSymbolTableRecord
100
AcDbLayerTableRecord
  2
219
 70
     0
 62
   219
  6
CONTINUOUS
  0
LAYER
  5
115
330
2
100
AcDbSymbolTableRecord
100
AcDbLayerTableRecord
  2
220
 70
     0
 62
   220
  6
CONTINUOUS
  0
LAYER
  5
116
330
2
100
AcDbSymbolTableRecord
100
AcDbLayerTableRecord
  2
221
 70
     0
 62
   221
  6
CONTINUOUS
  0
LAYER
  5
117
330
2
100
AcDbSymbolTableRecord
100
AcDbLayerTableRecord
  2
222
 70
     0
 62
   222
  6
CONTINUOUS
  0
LAYER
  5
118
330
2
100
AcDbSymbolTableRecord
100
AcDbLayerTableRecord
  2
223
 70
     0
 62
   223
  6
CONTINUOUS
  0
LAYER
  5
119
330
2
100
AcDbSymbolTableRecord
100
AcDbLayerTableRecord
  2
224
 70
     0
 62
   224
  6
CONTINUOUS
  0
LAYER
  5
11A
330
2
100
AcDbSymbolTableRecord
100
AcDbLayerTableRecord
  2
225
 70
     0
 62
   225
  6
CONTINUOUS
  0
LAYER
  5
11B
330
2
100
AcDbSymbolTableRecord
100
AcDbLayerTableRecord
  2
226
 70
     0
 62
   226
  6
CONTINUOUS
  0
LAYER
  5
11C
330
2
100
AcDbSymbolTableRecord
100
AcDbLayerTableRecord
  2
227
 70
     0
 62
   227
  6
CONTINUOUS
  0
LAYER
  5
11D
330
2
100
AcDbSymbolTableRecord
100
AcDbLayerTableRecord
  2
228
 70
     0
 62
   228
  6
CONTINUOUS
  0
LAYER
  5
11E
330
2
100
AcDbSymbolTableRecord
100
AcDbLayerTableRecord
  2
229
 70
     0
 62
   229
  6
CONTINUOUS
  0
LAYER
  5
11F
330
2
100
AcDbSymbolTableRecord
100
AcDbLayerTableRecord
  2
230
 70
     0
 62
   230
  6
CONTINUOUS
  0
LAYER
  5
120
330
2
100
AcDbSymbolTableRecord
100
AcDbLayerTableRecord
  2
231
 70
     0
 62
   231
  6
CONTINUOUS
  0
LAYER
  5
121
330
2
100
AcDbSymbolTableRecord
100
AcDbLayerTableRecord
  2
232
 70
     0
 62
   232
  6
CONTINUOUS
  0
LAYER
  5
122
330
2
100
AcDbSymbolTableRecord
100
AcDbLayerTableRecord
  2
233
 70
     0
 62
   233
  6
CONTINUOUS
  0
LAYER
  5
123
330
2
100
AcDbSymbolTableRecord
100
AcDbLayerTableRecord
  2
234
 70
     0
 62
   234
  6
CONTINUOUS
  0
LAYER
  5
124
330
2
100
AcDbSymbolTableRecord
100
AcDbLayerTableRecord
  2
235
 70
     0
 62
   235
  6
CONTINUOUS
  0
LAYER
  5
125
330
2
100
AcDbSymbolTableRecord
100
AcDbLayerTableRecord
  2
236
 70
     0
 62
   236
  6
CONTINUOUS
  0
LAYER
  5
126
330
2
100
AcDbSymbolTableRecord
100
AcDbLayerTableRecord
  2
237
 70
     0
 62
   237
  6
CONTINUOUS
  0
LAYER
  5
127
330
2
100
AcDbSymbolTableRecord
100
AcDbLayerTableRecord
  2
238
 70
     0
 62
   238
  6
CONTINUOUS
  0
LAYER
  5
128
330
2
100
AcDbSymbolTableRecord
100
AcDbLayerTableRecord
  2
239
 70
     0
 62
   239
  6
CONTINUOUS
  0
LAYER
  5
129
330
2
100
AcDbSymbolTableRecord
100
AcDbLayerTableRecord
  2
240
 70
     0
 62
   240
  6
CONTINUOUS
  0
LAYER
  5
12A
330
2
100
AcDbSymbolTableRecord
100
AcDbLayerTableRecord
  2
241
 70
     0
 62
   241
  6
CONTINUOUS
  0
LAYER
  5
12B
330
2
100
AcDbSymbolTableRecord
100
AcDbLayerTableRecord
  2
242
 70
     0
 62
   242
  6
CONTINUOUS
  0
LAYER
  5
12C
330
2
100
AcDbSymbolTableRecord
100
AcDbLayerTableRecord
  2
243
 70
     0
 62
   243
  6
CONTINUOUS
  0
LAYER
  5
12D
330
2
100
AcDbSymbolTableRecord
100
AcDbLayerTableRecord
  2
244
 70
     0
 62
   244
  6
CONTINUOUS
  0
LAYER
  5
12E
330
2
100
AcDbSymbolTableRecord
100
AcDbLayerTableRecord
  2
245
 70
     0
 62
   245
  6
CONTINUOUS
  0
LAYER
  5
12F
330
2
100
AcDbSymbolTableRecord
100
AcDbLayerTableRecord
  2
246
 70
     0
 62
   246
  6
CONTINUOUS
  0
LAYER
  5
130
330
2
100
AcDbSymbolTableRecord
100
AcDbLayerTableRecord
  2
247
 70
     0
 62
   247
  6
CONTINUOUS
  0
LAYER
  5
131
330
2
100
AcDbSymbolTableRecord
100
AcDbLayerTableRecord
  2
248
 70
     0
 62
   248
  6
CONTINUOUS
  0
LAYER
  5
132
330
2
100
AcDbSymbolTableRecord
100
AcDbLayerTableRecord
  2
249
 70
     0
 62
   249
  6
CONTINUOUS
  0
LAYER
  5
133
330
2
100
AcDbSymbolTableRecord
100
AcDbLayerTableRecord
  2
250
 70
     0
 62
   250
  6
CONTINUOUS
  0
LAYER
  5
134
330
2
100
AcDbSymbolTableRecord
100
AcDbLayerTableRecord
  2
251
 70
     0
 62
   251
  6
CONTINUOUS
  0
LAYER
  5
135
330
2
100
AcDbSymbolTableRecord
100
AcDbLayerTableRecord
  2
252
 70
     0
 62
   252
  6
CONTINUOUS
  0
LAYER
  5
136
330
2
100
AcDbSymbolTableRecord
100
AcDbLayerTableRecord
  2
253
 70
     0
 62
   253
  6
CONTINUOUS
  0
LAYER
  5
137
330
2
100
AcDbSymbolTableRecord
100
AcDbLayerTableRecord
  2
254
 70
     0
 62
   254
  6
CONTINUOUS
  0
LAYER
  5
138
330
2
100
AcDbSymbolTableRecord
100
AcDbLayerTableRecord
  2
255
 70
     0
 62
   255
  6
CONTINUOUS
  0
LAYER
  5
604
330
2
100
AcDbSymbolTableRecord
100
AcDbLayerTableRecord
  2
DEFPOINTS
 70
     0
 62
     7
  6
CONTINUOUS
  0
ENDTAB
  0
TABLE
  2
STYLE
  5
3
330
0
100
AcDbSymbolTable
 70
     1
  0
STYLE
  5
11
330
3
100
AcDbSymbolTableRecord
100
AcDbTextStyleTableRecord
  2
STANDARD
 70
     0
 40
0.0
 41
1.0
 50
0.0
 71
     0
 42
0.2
  3
txt
  4

  0
ENDTAB
  0
TABLE
  2
VIEW
  5
6
330
0
100
AcDbSymbolTable
 70
     0
  0
ENDTAB
  0
TABLE
  2
UCS
  5
7
330
0
100
AcDbSymbolTable
 70
     0
  0
ENDTAB
  0
TABLE
  2
APPID
  5
9
330
0
100
AcDbSymbolTable
 70
     1
  0
APPID
  5
12
330
9
100
AcDbSymbolTableRecord
100
AcDbRegAppTableRecord
  2
ACAD
 70
     0
  0
ENDTAB
  0
TABLE
  2
DIMSTYLE
  5
A
330
0
100
AcDbSymbolTable
 70
     1
  0
DIMSTYLE
105
600
102
{ACAD_REACTORS
330
603
102
}
330
A
100
AcDbSymbolTableRecord
100
AcDbDimStyleTableRecord
  2
STANDARD
 70
     0
  3

  4

  5

  6

  7

 40
1.0
 41
0.18
 42
0.0625
 43
0.38
 44
0.18
 45
0.0
 46
0.0
 47
0.0
 48
0.0
140
0.18
141
0.09
142
0.0
143
25.4
144
1.0
145
0.0
146
1.0
147
0.09
 71
     0
 72
     0
 73
     1
 74
     1
 75
     0
 76
     0
 77
     0
 78
     0
170
     0
171
     2
172
     0
173
     0
174
     0
175
     0
176
     0
177
     0
178
     0
270
     2
271
     4
272
     4
273
     2
274
     2
340
11
275
     0
280
     0
281
     0
282
     0
283
     1
284
     0
285
     0
286
     0
287
     3
288
     0
  0
ENDTAB
  0
TABLE
  2
BLOCK_RECORD
  5
1
330
0
100
AcDbSymbolTable
 70
     1
  0
BLOCK_RECORD
  5
1E
102
{ACAD_XDICTIONARY
360
620
102
}
330
1
100
AcDbSymbolTableRecord
100
AcDbBlockTableRecord
  2
*MODEL_SPACE
  0
BLOCK_RECORD
  5
1A
102
{ACAD_XDICTIONARY
360
61E
102
}
330
1
100
AcDbSymbolTableRecord
100
AcDbBlockTableRecord
  2
*PAPER_SPACE
  0
BLOCK_RECORD
  5
605
330
1
100
AcDbSymbolTableRecord
100
AcDbBlockTableRecord
  2
*D0
  0
ENDTAB
  0
ENDSEC
  0
SECTION
  2
BLOCKS
  0
BLOCK
  5
13B
330
1E
100
AcDbEntity
  8
0
100
AcDbBlockBegin
  2
*MODEL_SPACE
 70
     0
 10
0.0
 20
0.0
 30
0.0
  3
*MODEL_SPACE
  1

  0
ENDBLK
  5
13C
330
1E
100
AcDbEntity
  8
0
100
AcDbBlockEnd
  0
BLOCK
  5
139
330
1A
100
AcDbEntity
 67
     1
  8
0
100
AcDbBlockBegin
  2
*PAPER_SPACE
 70
     0
 10
0.0
 20
0.0
 30
0.0
  3
*PAPER_SPACE
  1

  0
ENDBLK
  5
13A
330
1A
100
AcDbEntity
 67
     1
  8
0
100
AcDbBlockEnd
  0
BLOCK
  5
610
330
605
100
AcDbEntity
  8
0
100
AcDbBlockBegin
  2
*D0
 70
     1
 10
0.0
 20
0.0
 30
0.0
  3
*D0
  1

  0
LINE
  5
612
330
605
100
AcDbEntity
  8
0
 62
     0
100
AcDbLine
 10
6.078029724409447
 20
8.041311393792248
 30
0.0
 11
7.157142371023835
 21
8.041311393792248
 31
0.0
  0
LINE
  5
613
330
605
100
AcDbEntity
  8
0
 62
     0
100
AcDbLine
 10
6.078029724409447
 20
3.447905881981224
 30
0.0
 11
7.157142371023834
 21
3.447905881981224
 31
0.0
  0
LINE
  5
614
330
605
100
AcDbEntity
  8
0
 62
     0
100
AcDbLine
 10
6.977142371023835
 20
7.861311393792249
 30
0.0
 11
6.977142371023834
 21
5.924608637886736
 31
0.0
  0
LINE
  5
615
330
605
100
AcDbEntity
  8
0
 62
     0
100
AcDbLine
 10
6.977142371023834
 20
3.627905881981225
 30
0.0
 11
6.977142371023834
 21
5.564608637886736
 31
0.0
  0
SOLID
  5
616
330
605
100
AcDbEntity
  8
0
 62
     0
100
AcDbTrace
 10
6.947142371023835
 20
7.861311393792249
 30
0.0
 11
7.007142371023835
 21
7.861311393792249
 31
0.0
 12
6.977142371023835
 22
8.041311393792248
 32
0.0
 13
6.977142371023835
 23
8.041311393792248
 33
0.0
  0
SOLID
  5
617
330
605
100
AcDbEntity
  8
0
 62
     0
100
AcDbTrace
 10
6.947142371023834
 20
3.627905881981225
 30
0.0
 11
7.007142371023834
 21
3.627905881981224
 31
0.0
 12
6.977142371023834
 22
3.447905881981224
 32
0.0
 13
6.977142371023834
 23
3.447905881981224
 33
0.0
  0
MTEXT
  5
618
330
605
100
AcDbEntity
  8
0
 62
     0
100
AcDbMText
 10
6.977142371023833
 20
5.744608637886738
 30
0.0
 40
0.18
 41
0.0
 71
     5
 72
     1
  1
\A1;4.5934
1001
ACAD
1000
MTEXTBEGIN
1070
    73
1070
     1
1070
    44
1040
1.0
1070
    74
1070
     0
1000
MTEXTEND
  0
POINT
  5
619
330
605
100
AcDbEntity
  8
DEFPOINTS
 62
     0
100
AcDbPoint
 10
6.015529724409447
 20
8.041311393792248
 30
0.0
  0
POINT
  5
61A
330
605
100
AcDbEntity
  8
DEFPOINTS
 62
     0
100
AcDbPoint
 10
6.015529724409447
 20
3.447905881981224
 30
0.0
  0
POINT
  5
61B
330
605
100
AcDbEntity
  8
DEFPOINTS
 62
     0
100
AcDbPoint
 10
6.977142371023834
 20
3.447905881981224
 30
0.0
  0
ENDBLK
  5
611
330
605
100
AcDbEntity
  8
0
100
AcDbBlockEnd
  0
ENDSEC
  0
SECTION
  2
ENTITIES
  0
LINE
  5
148
330
1E
100
AcDbEntity
  8
0
100
AcDbLine
 10
0.4338858267716539
 20
8.034749385918232
 30
0.0
 11
0.4338858267716539
 21
8.037374189067838
 31
0.0
  0
LINE
  5
149
330
1E
100
AcDbEntity
  8
0
100
AcDbLine
 10
0.4338858267716539
 20
8.037374189067838
 30
0.0
 11
0.8630411417322832
 21
8.037374189067838
 31
0.0
  0
LINE
  5
14A
330
1E
100
AcDbEntity
  8
0
100
AcDbLine
 10
0.8630411417322832
 20
8.037374189067838
 30
0.0
 11
0.8630411417322832
 21
8.034749385918232
 31
0.0
  0
LINE
  5
14B
330
1E
100
AcDbEntity
  8
0
100
AcDbLine
 10
3.088874212598425
 20
8.037374189067838
 30
0.0
 11
3.088874212598425
 21
8.034749385918232
 31
0.0
  0
LINE
  5
14C
330
1E
100
AcDbEntity
  8
0
100
AcDbLine
 10
3.519341929133858
 20
8.037374189067838
 30
0.0
 11
3.088874212598425
 21
8.037374189067838
 31
0.0
  0
LINE
  5
14D
330
1E
100
AcDbEntity
  8
0
100
AcDbLine
 10
3.519341929133858
 20
8.034749385918232
 30
0.0
 11
3.519341929133858
 21
8.037374189067838
 31
0.0
  0
LINE
  5
14E
330
1E
100
AcDbEntity
  8
0
100
AcDbLine
 10
3.815944685039369
 20
4.657940133949728
 30
0.0
 11
3.813319881889763
 21
4.657940133949728
 31
0.0
  0
LINE
  5
14F
330
1E
100
AcDbEntity
  8
0
100
AcDbLine
 10
3.815944685039369
 20
4.227472417414294
 30
0.0
 11
3.815944685039369
 21
4.657940133949728
 31
0.0
  0
LINE
  5
150
330
1E
100
AcDbEntity
  8
0
100
AcDbLine
 10
3.815944685039369
 20
4.227472417414294
 30
0.0
 11
3.813319881889763
 21
4.227472417414294
 31
0.0
  0
LINE
  5
151
330
1E
100
AcDbEntity
  8
0
100
AcDbLine
 10
3.518029527559055
 20
3.45446788985524
 30
0.0
 11
3.518029527559055
 21
3.447905881981224
 31
0.0
  0
LINE
  5
152
330
1E
100
AcDbEntity
  8
0
100
AcDbLine
 10
3.518029527559055
 20
3.447905881981224
 30
0.0
 11
0.4338858267716539
 21
3.447905881981224
 31
0.0
  0
LINE
  5
153
330
1E
100
AcDbEntity
  8
0
100
AcDbLine
 10
0.4338858267716539
 20
3.447905881981224
 30
0.0
 11
0.4338858267716539
 21
3.45446788985524
 31
0.0
  0
LINE
  5
154
330
1E
100
AcDbEntity
  8
0
100
AcDbLine
 10
0.1399078740157478
 20
4.227472417414294
 30
0.0
 11
0.1359706692913387
 21
4.227472417414294
 31
0.0
  0
LINE
  5
155
330
1E
100
AcDbEntity
  8
0
100
AcDbLine
 10
0.1359706692913387
 20
4.227472417414294
 30
0.0
 11
0.1359706692913387
 21
4.657940133949728
 31
0.0
  0
LINE
  5
156
330
1E
100
AcDbEntity
  8
0
100
AcDbLine
 10
0.1359706692913387
 20
4.657940133949728
 30
0.0
 11
0.1399078740157478
 21
4.657940133949728
 31
0.0
  0
POLYLINE
  5
157
330
1E
100
AcDbEntity
  8
0
100
AcDb2dPolyline
 66
     1
 10
0.0
 20
0.0
 30
0.0
  0
VERTEX
  5
622
330
157
100
AcDbEntity
  8
0
100
AcDbVertex
100
AcDb2dVertex
 10
2.031078543307086
 20
6.877211196941853
 30
0.0
  0
VERTEX
  5
623
330
157
100
AcDbEntity
  8
0
100
AcDbVertex
100
AcDb2dVertex
 10
2.025828937007874
 20
6.900834425288312
 30
0.0
  0
VERTEX
  5
624
330
157
100
AcDbEntity
  8
0
100
AcDbVertex
100
AcDb2dVertex
 10
2.010080118110236
 20
6.920520448910357
 30
0.0
  0
VERTEX
  5
625
330
157
100
AcDbEntity
  8
0
100
AcDbVertex
100
AcDb2dVertex
 10
1.987769291338582
 20
6.931019661508782
 30
0.0
  0
VERTEX
  5
626
330
157
100
AcDbEntity
  8
0
100
AcDbVertex
100
AcDb2dVertex
 10
1.964146062992126
 20
6.931019661508782
 30
0.0
  0
VERTEX
  5
627
330
157
100
AcDbEntity
  8
0
100
AcDbVertex
100
AcDb2dVertex
 10
1.941835236220472
 20
6.920520448910357
 30
0.0
  0
VERTEX
  5
628
330
157
100
AcDbEntity
  8
0
100
AcDbVertex
100
AcDb2dVertex
 10
1.926086417322835
 20
6.900834425288312
 30
0.0
  0
VERTEX
  5
629
330
157
100
AcDbEntity
  8
0
100
AcDbVertex
100
AcDb2dVertex
 10
1.920836811023622
 20
6.877211196941853
 30
0.0
  0
VERTEX
  5
62A
330
157
100
AcDbEntity
  8
0
100
AcDbVertex
100
AcDb2dVertex
 10
1.926086417322835
 20
6.853587968595398
 30
0.0
  0
VERTEX
  5
62B
330
157
100
AcDbEntity
  8
0
100
AcDbVertex
100
AcDb2dVertex
 10
1.941835236220472
 20
6.83390194497335
 30
0.0
  0
VERTEX
  5
62C
330
157
100
AcDbEntity
  8
0
100
AcDbVertex
100
AcDb2dVertex
 10
1.964146062992126
 20
6.823402732374926
 30
0.0
  0
VERTEX
  5
62D
330
157
100
AcDbEntity
  8
0
100
AcDbVertex
100
AcDb2dVertex
 10
1.987769291338582
 20
6.823402732374926
 30
0.0
  0
VERTEX
  5
62E
330
157
100
AcDbEntity
  8
0
100
AcDbVertex
100
AcDb2dVertex
 10
2.010080118110236
 20
6.83390194497335
 30
0.0
  0
VERTEX
  5
62F
330
157
100
AcDbEntity
  8
0
100
AcDbVertex
100
AcDb2dVertex
 10
2.025828937007874
 20
6.853587968595398
 30
0.0
  0
VERTEX
  5
630
330
157
100
AcDbEntity
  8
0
100
AcDbVertex
100
AcDb2dVertex
 10
2.031078543307086
 20
6.877211196941853
 30
0.0
  0
SEQEND
  5
631
330
157
100
AcDbEntity
  8
0
  0
LINE
  5
168
330
1E
100
AcDbEntity
  8
0
100
AcDbLine
 10
2.294871259842519
 20
6.78796788985524
 30
0.0
 11
2.297496062992125
 21
6.789280291430042
 31
0.0
  0
LINE
  5
169
330
1E
100
AcDbEntity
  8
0
100
AcDbLine
 10
1.657044094488188
 20
6.78796788985524
 30
0.0
 11
1.655731692913386
 21
6.789280291430042
 31
0.0
  0
LINE
  5
16A
330
1E
100
AcDbEntity
  8
0
100
AcDbLine
 10
2.899888385826771
 20
3.972866511902484
 30
0.0
 11
2.924824015748031
 21
3.958430094579649
 31
0.0
  0
LINE
  5
16B
330
1E
100
AcDbEntity
  8
0
100
AcDbLine
 10
1.05333937007874
 20
3.972866511902484
 30
0.0
 11
1.027091338582677
 21
3.958430094579649
 31
0.0
  0
LINE
  5
16C
330
1E
100
AcDbEntity
  8
0
100
AcDbLine
 10
2.294871259842519
 20
6.786655488280437
 30
0.0
 11
2.297496062992125
 21
6.78796788985524
 31
0.0
  0
LINE
  5
16D
330
1E
100
AcDbEntity
  8
0
100
AcDbLine
 10
1.655731692913386
 20
6.78796788985524
 30
0.0
 11
1.657044094488188
 21
6.786655488280437
 31
0.0
  0
LINE
  5
16E
330
1E
100
AcDbEntity
  8
0
100
AcDbLine
 10
3.487844291338582
 20
3.485965527650515
 30
0.0
 11
3.487844291338582
 21
3.485965527650515
 31
0.0
  0
LINE
  5
16F
330
1E
100
AcDbEntity
  8
0
100
AcDbLine
 10
3.518029527559055
 20
3.447905881981224
 30
0.0
 11
3.487844291338582
 21
3.485965527650515
 31
0.0
  0
LINE
  5
170
330
1E
100
AcDbEntity
  8
0
100
AcDbLine
 10
0.4338858267716539
 20
3.447905881981224
 30
0.0
 11
0.4653834645669295
 21
3.485965527650515
 31
0.0
  0
LINE
  5
171
330
1E
100
AcDbEntity
  8
0
100
AcDbLine
 10
3.243737598425196
 20
3.485965527650515
 30
0.0
 11
3.487844291338582
 21
3.485965527650515
 31
0.0
  0
LINE
  5
172
330
1E
100
AcDbEntity
  8
0
100
AcDbLine
 10
3.238487992125984
 20
3.461029897729255
 30
0.0
 11
3.243737598425196
 21
3.485965527650515
 31
0.0
  0
POLYLINE
  5
173
330
1E
100
AcDbEntity
  8
0
100
AcDb2dPolyline
 66
     1
 10
0.0
 20
0.0
 30
0.0
  0
VERTEX
  5
632
330
173
100
AcDbEntity
  8
0
100
AcDbVertex
100
AcDb2dVertex
 10
3.238487992125984
 20
3.461029897729255
 30
0.0
  0
VERTEX
  5
633
330
173
100
AcDbEntity
  8
0
100
AcDbVertex
100
AcDb2dVertex
 10
3.231925984251968
 20
3.461029897729255
 30
0.0
  0
VERTEX
  5
634
330
173
100
AcDbEntity
  8
0
100
AcDbVertex
100
AcDb2dVertex
 10
3.218801968503936
 20
3.459717496154452
 30
0.0
  0
SEQEND
  5
635
330
173
100
AcDbEntity
  8
0
  0
LINE
  5
178
330
1E
100
AcDbEntity
  8
0
100
AcDbLine
 10
0.734425787401575
 20
3.459717496154453
 30
0.0
 11
3.218801968503937
 21
3.459717496154453
 31
0.0
  0
POLYLINE
  5
179
330
1E
100
AcDbEntity
  8
0
100
AcDb2dPolyline
 66
     1
 10
0.0
 20
0.0
 30
0.0
  0
VERTEX
  5
636
330
179
100
AcDbEntity
  8
0
100
AcDbVertex
100
AcDb2dVertex
 10
0.734425787401575
 20
3.459717496154452
 30
0.0
  0
VERTEX
  5
637
330
179
100
AcDbEntity
  8
0
100
AcDbVertex
100
AcDb2dVertex
 10
0.7199893700787403
 20
3.461029897729255
 30
0.0
  0
VERTEX
  5
638
330
179
100
AcDbEntity
  8
0
100
AcDbVertex
100
AcDb2dVertex
 10
0.7134273622047245
 20
3.461029897729255
 30
0.0
  0
SEQEND
  5
639
330
179
100
AcDbEntity
  8
0
  0
LINE
  5
17E
330
1E
100
AcDbEntity
  8
0
100
AcDbLine
 10
0.7094901574803157
 20
3.485965527650515
 30
0.0
 11
0.7134273622047247
 21
3.461029897729255
 31
0.0
  0
LINE
  5
17F
330
1E
100
AcDbEntity
  8
0
100
AcDbLine
 10
0.4653834645669295
 20
3.485965527650515
 30
0.0
 11
0.7094901574803157
 21
3.485965527650515
 31
0.0
  0
LINE
  5
180
330
1E
100
AcDbEntity
  8
0
100
AcDbLine
 10
0.4653834645669295
 20
3.485965527650515
 30
0.0
 11
0.4653834645669295
 21
3.485965527650515
 31
0.0
  0
LINE
  5
181
330
1E
100
AcDbEntity
  8
0
100
AcDbLine
 10
3.813319881889763
 20
4.655315330800122
 30
0.0
 11
3.813319881889763
 21
4.655315330800122
 31
0.0
  0
LINE
  5
182
330
1E
100
AcDbEntity
  8
0
100
AcDbLine
 10
3.815944685039369
 20
4.657940133949728
 30
0.0
 11
3.813319881889763
 21
4.655315330800122
 31
0.0
  0
LINE
  5
183
330
1E
100
AcDbEntity
  8
0
100
AcDbLine
 10
3.815944685039369
 20
4.227472417414294
 30
0.0
 11
3.813319881889763
 21
4.230097220563902
 31
0.0
  0
LINE
  5
184
330
1E
100
AcDbEntity
  8
0
100
AcDbLine
 10
3.813319881889763
 20
4.230097220563902
 30
0.0
 11
3.813319881889763
 21
4.230097220563902
 31
0.0
  0
LINE
  5
185
330
1E
100
AcDbEntity
  8
0
100
AcDbLine
 10
0.1359706692913387
 20
4.657940133949728
 30
0.0
 11
0.138595472440945
 21
4.655315330800122
 31
0.0
  0
LINE
  5
186
330
1E
100
AcDbEntity
  8
0
100
AcDbLine
 10
0.1399078740157478
 20
4.655315330800122
 30
0.0
 11
0.138595472440945
 21
4.655315330800122
 31
0.0
  0
LINE
  5
187
330
1E
100
AcDbEntity
  8
0
100
AcDbLine
 10
0.138595472440945
 20
4.230097220563902
 30
0.0
 11
0.1399078740157478
 21
4.230097220563902
 31
0.0
  0
LINE
  5
188
330
1E
100
AcDbEntity
  8
0
100
AcDbLine
 10
0.1359706692913387
 20
4.227472417414294
 30
0.0
 11
0.138595472440945
 21
4.230097220563902
 31
0.0
  0
LINE
  5
189
330
1E
100
AcDbEntity
  8
0
100
AcDbLine
 10
3.218801968503937
 20
3.459717496154453
 30
0.0
 11
3.218801968503937
 21
3.485965527650515
 31
0.0
  0
LINE
  5
18A
330
1E
100
AcDbEntity
  8
0
100
AcDbLine
 10
0.734425787401575
 20
3.485965527650515
 30
0.0
 11
0.734425787401575
 21
3.459717496154453
 31
0.0
  0
LINE
  5
18B
330
1E
100
AcDbEntity
  8
0
100
AcDbLine
 10
3.238487992125984
 20
3.485965527650515
 30
0.0
 11
3.238487992125984
 21
3.461029897729255
 31
0.0
  0
LINE
  5
18C
330
1E
100
AcDbEntity
  8
0
100
AcDbLine
 10
3.243737598425196
 20
3.485965527650515
 30
0.0
 11
3.243737598425196
 21
3.485965527650515
 31
0.0
  0
LINE
  5
18D
330
1E
100
AcDbEntity
  8
0
100
AcDbLine
 10
0.7134273622047247
 20
3.461029897729255
 30
0.0
 11
0.7134273622047247
 21
3.485965527650515
 31
0.0
  0
LINE
  5
18E
330
1E
100
AcDbEntity
  8
0
100
AcDbLine
 10
0.7094901574803157
 20
3.485965527650515
 30
0.0
 11
0.7094901574803157
 21
3.485965527650515
 31
0.0
  0
LINE
  5
18F
330
1E
100
AcDbEntity
  8
0
100
AcDbLine
 10
3.090186614173227
 20
8.034749385918232
 30
0.0
 11
3.090186614173227
 21
8.034749385918232
 31
0.0
  0
LINE
  5
190
330
1E
100
AcDbEntity
  8
0
100
AcDbLine
 10
3.088874212598425
 20
8.037374189067838
 30
0.0
 11
3.090186614173227
 21
8.034749385918232
 31
0.0
  0
LINE
  5
191
330
1E
100
AcDbEntity
  8
0
100
AcDbLine
 10
0.8630411417322832
 20
8.037374189067838
 30
0.0
 11
0.8617287401574804
 21
8.034749385918232
 31
0.0
  0
LINE
  5
192
330
1E
100
AcDbEntity
  8
0
100
AcDbLine
 10
0.8617287401574804
 20
8.034749385918232
 30
0.0
 11
0.8617287401574804
 21
8.034749385918232
 31
0.0
  0
LINE
  5
193
330
1E
100
AcDbEntity
  8
0
100
AcDbLine
 10
0.4351982283464566
 20
8.034749385918232
 30
0.0
 11
0.4351982283464566
 21
8.034749385918232
 31
0.0
  0
LINE
  5
194
330
1E
100
AcDbEntity
  8
0
100
AcDbLine
 10
0.4338858267716539
 20
8.037374189067838
 30
0.0
 11
0.4351982283464566
 21
8.034749385918232
 31
0.0
  0
LINE
  5
195
330
1E
100
AcDbEntity
  8
0
100
AcDbLine
 10
3.519341929133858
 20
8.037374189067838
 30
0.0
 11
3.516717125984251
 21
8.034749385918232
 31
0.0
  0
LINE
  5
196
330
1E
100
AcDbEntity
  8
0
100
AcDbLine
 10
3.516717125984251
 20
8.034749385918232
 30
0.0
 11
3.516717125984251
 21
8.034749385918232
 31
0.0
  0
LINE
  5
197
330
1E
100
AcDbEntity
  8
0
100
AcDbLine
 10
0.138595472440945
 20
4.655315330800122
 30
0.0
 11
0.138595472440945
 21
4.230097220563902
 31
0.0
  0
LINE
  5
198
330
1E
100
AcDbEntity
  8
0
100
AcDbLine
 10
3.813319881889763
 20
4.655315330800122
 30
0.0
 11
3.813319881889763
 21
4.230097220563902
 31
0.0
  0
LINE
  5
199
330
1E
100
AcDbEntity
  8
0
100
AcDbLine
 10
0.8617287401574804
 20
8.034749385918232
 30
0.0
 11
0.4351982283464566
 21
8.034749385918232
 31
0.0
  0
LINE
  5
19A
330
1E
100
AcDbEntity
  8
0
100
AcDbLine
 10
3.090186614173227
 20
8.034749385918232
 30
0.0
 11
3.516717125984251
 21
8.034749385918232
 31
0.0
  0
POLYLINE
  5
19B
330
1E
100
AcDbEntity
  8
0
100
AcDb2dPolyline
 66
     1
 10
0.0
 20
0.0
 30
0.0
  0
VERTEX
  5
63A
330
19B
100
AcDbEntity
  8
0
100
AcDbVertex
100
AcDb2dVertex
 10
1.915587204724409
 20
6.877211196941853
 30
0.0
  0
VERTEX
  5
63B
330
19B
100
AcDbEntity
  8
0
100
AcDbVertex
100
AcDb2dVertex
 10
1.920836811023622
 20
6.902146826863114
 30
0.0
  0
VERTEX
  5
63C
330
19B
100
AcDbEntity
  8
0
100
AcDbVertex
100
AcDb2dVertex
 10
1.935273228346456
 20
6.923145252059965
 30
0.0
  0
VERTEX
  5
63D
330
19B
100
AcDbEntity
  8
0
100
AcDbVertex
100
AcDb2dVertex
 10
1.95758405511811
 20
6.936269267807995
 30
0.0
  0
VERTEX
  5
63E
330
19B
100
AcDbEntity
  8
0
100
AcDbVertex
100
AcDb2dVertex
 10
1.98251968503937
 20
6.938894070957601
 30
0.0
  0
VERTEX
  5
63F
330
19B
100
AcDbEntity
  8
0
100
AcDbVertex
100
AcDb2dVertex
 10
2.006142913385826
 20
6.931019661508782
 30
0.0
  0
VERTEX
  5
640
330
19B
100
AcDbEntity
  8
0
100
AcDbVertex
100
AcDb2dVertex
 10
2.025828937007874
 20
6.913958441036342
 30
0.0
  0
VERTEX
  5
641
330
19B
100
AcDbEntity
  8
0
100
AcDbVertex
100
AcDb2dVertex
 10
2.036328149606299
 20
6.890335212689887
 30
0.0
  0
VERTEX
  5
642
330
19B
100
AcDbEntity
  8
0
100
AcDbVertex
100
AcDb2dVertex
 10
2.036328149606299
 20
6.865399582768626
 30
0.0
  0
VERTEX
  5
643
330
19B
100
AcDbEntity
  8
0
100
AcDbVertex
100
AcDb2dVertex
 10
2.025828937007874
 20
6.841776354422169
 30
0.0
  0
VERTEX
  5
644
330
19B
100
AcDbEntity
  8
0
100
AcDbVertex
100
AcDb2dVertex
 10
2.006142913385826
 20
6.824715133949728
 30
0.0
  0
VERTEX
  5
645
330
19B
100
AcDbEntity
  8
0
100
AcDbVertex
100
AcDb2dVertex
 10
1.98251968503937
 20
6.816840724500909
 30
0.0
  0
VERTEX
  5
646
330
19B
100
AcDbEntity
  8
0
100
AcDbVertex
100
AcDb2dVertex
 10
1.95758405511811
 20
6.819465527650516
 30
0.0
  0
VERTEX
  5
647
330
19B
100
AcDbEntity
  8
0
100
AcDbVertex
100
AcDb2dVertex
 10
1.935273228346456
 20
6.832589543398547
 30
0.0
  0
VERTEX
  5
648
330
19B
100
AcDbEntity
  8
0
100
AcDbVertex
100
AcDb2dVertex
 10
1.920836811023622
 20
6.852275567020594
 30
0.0
  0
VERTEX
  5
649
330
19B
100
AcDbEntity
  8
0
100
AcDbVertex
100
AcDb2dVertex
 10
1.915587204724409
 20
6.877211196941853
 30
0.0
  0
SEQEND
  5
64A
330
19B
100
AcDbEntity
  8
0
  0
LINE
  5
1AD
330
1E
100
AcDbEntity
  8
0
100
AcDbLine
 10
3.245049999999999
 20
4.066047023713506
 30
0.0
 11
3.247674803149606
 21
4.069984228437917
 31
0.0
  0
LINE
  5
1AE
330
1E
100
AcDbEntity
  8
0
100
AcDbLine
 10
3.247674803149606
 20
4.080483441036342
 30
0.0
 11
3.245049999999999
 21
4.081795842611144
 31
0.0
  0
LINE
  5
1AF
330
1E
100
AcDbEntity
  8
0
100
AcDbLine
 10
3.273922834645669
 20
4.064734622138704
 30
0.0
 11
3.273922834645669
 21
4.064734622138704
 31
0.0
  0
LINE
  5
1B0
330
1E
100
AcDbEntity
  8
0
100
AcDbLine
 10
3.245049999999999
 20
4.081795842611144
 30
0.0
 11
3.247674803149606
 21
4.080483441036342
 31
0.0
  0
LINE
  5
1B1
330
1E
100
AcDbEntity
  8
0
100
AcDbLine
 10
2.926136417322834
 20
3.958430094579649
 30
0.0
 11
2.910387598425196
 21
3.967616905603271
 31
0.0
  0
LINE
  5
1B2
330
1E
100
AcDbEntity
  8
0
100
AcDbLine
 10
2.910387598425196
 20
3.967616905603271
 30
0.0
 11
2.898575984251968
 21
3.974178913477287
 31
0.0
  0
LINE
  5
1B3
330
1E
100
AcDbEntity
  8
0
100
AcDbLine
 10
2.893326377952755
 20
3.99648974024894
 30
0.0
 11
2.909075196850393
 21
4.024050173319806
 31
0.0
  0
LINE
  5
1B4
330
1E
100
AcDbEntity
  8
0
100
AcDbLine
 10
2.941885236220472
 20
3.961054897729255
 30
0.0
 11
2.964196062992126
 21
4.00042694497335
 31
0.0
  0
LINE
  5
1B5
330
1E
100
AcDbEntity
  8
0
100
AcDbLine
 10
2.910387598425196
 20
3.967616905603271
 30
0.0
 11
2.944510039370078
 21
4.026674976469413
 31
0.0
  0
LINE
  5
1B6
330
1E
100
AcDbEntity
  8
0
100
AcDbLine
 10
3.245049999999999
 20
3.886248007965476
 30
0.0
 11
3.247674803149606
 21
3.890185212689886
 31
0.0
  0
LINE
  5
1B7
330
1E
100
AcDbEntity
  8
0
100
AcDbLine
 10
3.267360826771653
 20
3.924307653634767
 30
0.0
 11
3.268673228346456
 21
3.926932456784374
 31
0.0
  0
LINE
  5
1B8
330
1E
100
AcDbEntity
  8
0
100
AcDbLine
 10
1.059901377952756
 20
3.99648974024894
 30
0.0
 11
1.042840157480315
 21
4.024050173319806
 31
0.0
  0
LINE
  5
1B9
330
1E
100
AcDbEntity
  8
0
100
AcDbLine
 10
1.011342519685039
 20
3.961054897729255
 30
0.0
 11
0.9877192913385828
 21
4.00042694497335
 31
0.0
  0
LINE
  5
1BA
330
1E
100
AcDbEntity
  8
0
100
AcDbLine
 10
1.025778937007874
 20
3.958430094579649
 30
0.0
 11
1.041527755905511
 21
3.967616905603271
 31
0.0
  0
LINE
  5
1BB
330
1E
100
AcDbEntity
  8
0
100
AcDbLine
 10
1.041527755905511
 20
3.967616905603271
 30
0.0
 11
1.00740531496063
 21
4.026674976469413
 31
0.0
  0
LINE
  5
1BC
330
1E
100
AcDbEntity
  8
0
100
AcDbLine
 10
1.041527755905511
 20
3.967616905603271
 30
0.0
 11
1.05333937007874
 21
3.974178913477287
 31
0.0
  0
LINE
  5
1BD
330
1E
100
AcDbEntity
  8
0
100
AcDbLine
 10
0.6779925196850401
 20
4.064734622138704
 30
0.0
 11
0.6779925196850401
 21
4.064734622138704
 31
0.0
  0
LINE
  5
1BE
330
1E
100
AcDbEntity
  8
0
100
AcDbLine
 10
0.7068653543307084
 20
4.066047023713506
 30
0.0
 11
0.7055529527559057
 21
4.069984228437917
 31
0.0
  0
LINE
  5
1BF
330
1E
100
AcDbEntity
  8
0
100
AcDbLine
 10
0.7055529527559057
 20
4.080483441036342
 30
0.0
 11
0.7068653543307084
 21
4.081795842611144
 31
0.0
  0
LINE
  5
1C0
330
1E
100
AcDbEntity
  8
0
100
AcDbLine
 10
0.7068653543307084
 20
4.081795842611144
 30
0.0
 11
0.7055529527559057
 21
4.080483441036342
 31
0.0
  0
LINE
  5
1C1
330
1E
100
AcDbEntity
  8
0
100
AcDbLine
 10
0.7068653543307084
 20
3.886248007965476
 30
0.0
 11
0.7055529527559057
 21
3.890185212689886
 31
0.0
  0
LINE
  5
1C2
330
1E
100
AcDbEntity
  8
0
100
AcDbLine
 10
0.6858669291338582
 20
3.924307653634767
 30
0.0
 11
0.6845545275590555
 21
3.926932456784374
 31
0.0
  0
POLYLINE
  5
1C3
330
1E
100
AcDbEntity
  8
0
100
AcDb2dPolyline
 66
     1
 10
0.0
 20
0.0
 30
0.0
  0
VERTEX
  5
64B
330
1C3
100
AcDbEntity
  8
0
100
AcDbVertex
100
AcDb2dVertex
 10
2.964196062992125
 20
3.993864937099334
 30
0.0
  0
VERTEX
  5
64C
330
1C3
100
AcDbEntity
  8
0
100
AcDbVertex
100
AcDb2dVertex
 10
2.958946456692912
 20
4.013550960721381
 30
0.0
  0
VERTEX
  5
64D
330
1C3
100
AcDbEntity
  8
0
100
AcDbVertex
100
AcDb2dVertex
 10
2.943197637795275
 20
4.026674976469413
 30
0.0
  0
VERTEX
  5
64E
330
1C3
100
AcDbEntity
  8
0
100
AcDbVertex
100
AcDb2dVertex
 10
2.923511614173228
 20
4.030612181193824
 30
0.0
  0
VERTEX
  5
64F
330
1C3
100
AcDbEntity
  8
0
100
AcDbVertex
100
AcDb2dVertex
 10
2.905137992125983
 20
4.0214253701702
 30
0.0
  0
VERTEX
  5
650
330
1C3
100
AcDbEntity
  8
0
100
AcDbVertex
100
AcDb2dVertex
 10
2.894638779527558
 20
4.00436414969776
 30
0.0
  0
VERTEX
  5
651
330
1C3
100
AcDbEntity
  8
0
100
AcDbVertex
100
AcDb2dVertex
 10
2.894638779527558
 20
3.984678126075712
 30
0.0
  0
VERTEX
  5
652
330
1C3
100
AcDbEntity
  8
0
100
AcDbVertex
100
AcDb2dVertex
 10
2.905137992125983
 20
3.967616905603272
 30
0.0
  0
VERTEX
  5
653
330
1C3
100
AcDbEntity
  8
0
100
AcDbVertex
100
AcDb2dVertex
 10
2.923511614173228
 20
3.95843009457965
 30
0.0
  0
VERTEX
  5
654
330
1C3
100
AcDbEntity
  8
0
100
AcDbVertex
100
AcDb2dVertex
 10
2.943197637795275
 20
3.961054897729255
 30
0.0
  0
VERTEX
  5
655
330
1C3
100
AcDbEntity
  8
0
100
AcDbVertex
100
AcDb2dVertex
 10
2.958946456692912
 20
3.97549131505209
 30
0.0
  0
VERTEX
  5
656
330
1C3
100
AcDbEntity
  8
0
100
AcDbVertex
100
AcDb2dVertex
 10
2.964196062992125
 20
3.993864937099334
 30
0.0
  0
SEQEND
  5
657
330
1C3
100
AcDbEntity
  8
0
  0
POLYLINE
  5
1D1
330
1E
100
AcDbEntity
  8
0
100
AcDb2dPolyline
 66
     1
 10
0.0
 20
0.0
 30
0.0
  0
VERTEX
  5
658
330
1D1
100
AcDbEntity
  8
0
100
AcDbVertex
100
AcDb2dVertex
 10
2.258124015748031
 20
3.993864937099334
 30
0.0
  0
VERTEX
  5
659
330
1D1
100
AcDbEntity
  8
0
100
AcDbVertex
100
AcDb2dVertex
 10
2.263373622047244
 20
4.013550960721381
 30
0.0
  0
VERTEX
  5
65A
330
1D1
100
AcDbEntity
  8
0
100
AcDbVertex
100
AcDb2dVertex
 10
2.279122440944882
 20
4.026674976469413
 30
0.0
  0
VERTEX
  5
65B
330
1D1
100
AcDbEntity
  8
0
100
AcDbVertex
100
AcDb2dVertex
 10
2.298808464566929
 20
4.030612181193824
 30
0.0
  0
VERTEX
  5
65C
330
1D1
100
AcDbEntity
  8
0
100
AcDbVertex
100
AcDb2dVertex
 10
2.317182086614173
 20
4.0214253701702
 30
0.0
  0
VERTEX
  5
65D
330
1D1
100
AcDbEntity
  8
0
100
AcDbVertex
100
AcDb2dVertex
 10
2.327681299212598
 20
4.00436414969776
 30
0.0
  0
VERTEX
  5
65E
330
1D1
100
AcDbEntity
  8
0
100
AcDbVertex
100
AcDb2dVertex
 10
2.327681299212598
 20
3.984678126075712
 30
0.0
  0
VERTEX
  5
65F
330
1D1
100
AcDbEntity
  8
0
100
AcDbVertex
100
AcDb2dVertex
 10
2.317182086614173
 20
3.967616905603272
 30
0.0
  0
VERTEX
  5
660
330
1D1
100
AcDbEntity
  8
0
100
AcDbVertex
100
AcDb2dVertex
 10
2.298808464566929
 20
3.95843009457965
 30
0.0
  0
VERTEX
  5
661
330
1D1
100
AcDbEntity
  8
0
100
AcDbVertex
100
AcDb2dVertex
 10
2.279122440944882
 20
3.961054897729255
 30
0.0
  0
VERTEX
  5
662
330
1D1
100
AcDbEntity
  8
0
100
AcDbVertex
100
AcDb2dVertex
 10
2.263373622047244
 20
3.97549131505209
 30
0.0
  0
VERTEX
  5
663
330
1D1
100
AcDbEntity
  8
0
100
AcDbVertex
100
AcDb2dVertex
 10
2.258124015748031
 20
3.993864937099334
 30
0.0
  0
SEQEND
  5
664
330
1D1
100
AcDbEntity
  8
0
  0
POLYLINE
  5
1DF
330
1E
100
AcDbEntity
  8
0
100
AcDb2dPolyline
 66
     1
 10
0.0
 20
0.0
 30
0.0
  0
VERTEX
  5
665
330
1DF
100
AcDbEntity
  8
0
100
AcDbVertex
100
AcDb2dVertex
 10
1.622921653543306
 20
3.993864937099334
 30
0.0
  0
VERTEX
  5
666
330
1DF
100
AcDbEntity
  8
0
100
AcDbVertex
100
AcDb2dVertex
 10
1.628171259842519
 20
4.013550960721381
 30
0.0
  0
VERTEX
  5
667
330
1DF
100
AcDbEntity
  8
0
100
AcDbVertex
100
AcDb2dVertex
 10
1.643920078740157
 20
4.026674976469413
 30
0.0
  0
VERTEX
  5
668
330
1DF
100
AcDbEntity
  8
0
100
AcDbVertex
100
AcDb2dVertex
 10
1.663606102362205
 20
4.030612181193824
 30
0.0
  0
VERTEX
  5
669
330
1DF
100
AcDbEntity
  8
0
100
AcDbVertex
100
AcDb2dVertex
 10
1.681979724409448
 20
4.0214253701702
 30
0.0
  0
VERTEX
  5
66A
330
1DF
100
AcDbEntity
  8
0
100
AcDbVertex
100
AcDb2dVertex
 10
1.693791338582677
 20
4.00436414969776
 30
0.0
  0
VERTEX
  5
66B
330
1DF
100
AcDbEntity
  8
0
100
AcDbVertex
100
AcDb2dVertex
 10
1.693791338582677
 20
3.984678126075712
 30
0.0
  0
VERTEX
  5
66C
330
1DF
100
AcDbEntity
  8
0
100
AcDbVertex
100
AcDb2dVertex
 10
1.681979724409448
 20
3.967616905603272
 30
0.0
  0
VERTEX
  5
66D
330
1DF
100
AcDbEntity
  8
0
100
AcDbVertex
100
AcDb2dVertex
 10
1.663606102362205
 20
3.95843009457965
 30
0.0
  0
VERTEX
  5
66E
330
1DF
100
AcDbEntity
  8
0
100
AcDbVertex
100
AcDb2dVertex
 10
1.643920078740157
 20
3.961054897729255
 30
0.0
  0
VERTEX
  5
66F
330
1DF
100
AcDbEntity
  8
0
100
AcDbVertex
100
AcDb2dVertex
 10
1.628171259842519
 20
3.97549131505209
 30
0.0
  0
VERTEX
  5
670
330
1DF
100
AcDbEntity
  8
0
100
AcDbVertex
100
AcDb2dVertex
 10
1.622921653543306
 20
3.993864937099334
 30
0.0
  0
SEQEND
  5
671
330
1DF
100
AcDbEntity
  8
0
  0
POLYLINE
  5
1ED
330
1E
100
AcDbEntity
  8
0
100
AcDb2dPolyline
 66
     1
 10
0.0
 20
0.0
 30
0.0
  0
VERTEX
  5
672
330
1ED
100
AcDbEntity
  8
0
100
AcDbVertex
100
AcDb2dVertex
 10
1.059901377952756
 20
3.993864937099334
 30
0.0
  0
VERTEX
  5
673
330
1ED
100
AcDbEntity
  8
0
100
AcDbVertex
100
AcDb2dVertex
 10
1.05333937007874
 20
4.013550960721381
 30
0.0
  0
VERTEX
  5
674
330
1ED
100
AcDbEntity
  8
0
100
AcDbVertex
100
AcDb2dVertex
 10
1.038902952755905
 20
4.026674976469413
 30
0.0
  0
VERTEX
  5
675
330
1ED
100
AcDbEntity
  8
0
100
AcDbVertex
100
AcDb2dVertex
 10
1.017904527559055
 20
4.030612181193824
 30
0.0
  0
VERTEX
  5
676
330
1ED
100
AcDbEntity
  8
0
100
AcDbVertex
100
AcDb2dVertex
 10
0.9995309055118113
 20
4.0214253701702
 30
0.0
  0
VERTEX
  5
677
330
1ED
100
AcDbEntity
  8
0
100
AcDbVertex
100
AcDb2dVertex
 10
0.9890316929133859
 20
4.00436414969776
 30
0.0
  0
VERTEX
  5
678
330
1ED
100
AcDbEntity
  8
0
100
AcDbVertex
100
AcDb2dVertex
 10
0.9890316929133859
 20
3.984678126075712
 30
0.0
  0
VERTEX
  5
679
330
1ED
100
AcDbEntity
  8
0
100
AcDbVertex
100
AcDb2dVertex
 10
0.9995309055118113
 20
3.967616905603272
 30
0.0
  0
VERTEX
  5
67A
330
1ED
100
AcDbEntity
  8
0
100
AcDbVertex
100
AcDb2dVertex
 10
1.017904527559055
 20
3.95843009457965
 30
0.0
  0
VERTEX
  5
67B
330
1ED
100
AcDbEntity
  8
0
100
AcDbVertex
100
AcDb2dVertex
 10
1.038902952755905
 20
3.961054897729255
 30
0.0
  0
VERTEX
  5
67C
330
1ED
100
AcDbEntity
  8
0
100
AcDbVertex
100
AcDb2dVertex
 10
1.05333937007874
 20
3.97549131505209
 30
0.0
  0
VERTEX
  5
67D
330
1ED
100
AcDbEntity
  8
0
100
AcDbVertex
100
AcDb2dVertex
 10
1.059901377952756
 20
3.993864937099334
 30
0.0
  0
SEQEND
  5
67E
330
1ED
100
AcDbEntity
  8
0
  0
POLYLINE
  5
1FB
330
1E
100
AcDbEntity
  8
0
100
AcDb2dPolyline
 66
     1
 10
0.0
 20
0.0
 30
0.0
  0
VERTEX
  5
67F
330
1FB
100
AcDbEntity
  8
0
100
AcDbVertex
100
AcDb2dVertex
 10
1.621609251968504
 20
3.993864937099334
 30
0.0
  0
VERTEX
  5
680
330
1FB
100
AcDbEntity
  8
0
100
AcDbVertex
100
AcDb2dVertex
 10
1.628171259842519
 20
4.013550960721381
 30
0.0
  0
VERTEX
  5
681
330
1FB
100
AcDbEntity
  8
0
100
AcDbVertex
100
AcDb2dVertex
 10
1.643920078740157
 20
4.027987378044215
 30
0.0
  0
VERTEX
  5
682
330
1FB
100
AcDbEntity
  8
0
100
AcDbVertex
100
AcDb2dVertex
 10
1.663606102362205
 20
4.030612181193824
 30
0.0
  0
VERTEX
  5
683
330
1FB
100
AcDbEntity
  8
0
100
AcDbVertex
100
AcDb2dVertex
 10
1.681979724409448
 20
4.0214253701702
 30
0.0
  0
VERTEX
  5
684
330
1FB
100
AcDbEntity
  8
0
100
AcDbVertex
100
AcDb2dVertex
 10
1.693791338582677
 20
4.00436414969776
 30
0.0
  0
VERTEX
  5
685
330
1FB
100
AcDbEntity
  8
0
100
AcDbVertex
100
AcDb2dVertex
 10
1.693791338582677
 20
3.984678126075712
 30
0.0
  0
VERTEX
  5
686
330
1FB
100
AcDbEntity
  8
0
100
AcDbVertex
100
AcDb2dVertex
 10
1.681979724409448
 20
3.966304504028468
 30
0.0
  0
VERTEX
  5
687
330
1FB
100
AcDbEntity
  8
0
100
AcDbVertex
100
AcDb2dVertex
 10
1.663606102362205
 20
3.95843009457965
 30
0.0
  0
VERTEX
  5
688
330
1FB
100
AcDbEntity
  8
0
100
AcDbVertex
100
AcDb2dVertex
 10
1.643920078740157
 20
3.961054897729255
 30
0.0
  0
VERTEX
  5
689
330
1FB
100
AcDbEntity
  8
0
100
AcDbVertex
100
AcDb2dVertex
 10
1.628171259842519
 20
3.974178913477288
 30
0.0
  0
VERTEX
  5
68A
330
1FB
100
AcDbEntity
  8
0
100
AcDbVertex
100
AcDb2dVertex
 10
1.621609251968504
 20
3.993864937099334
 30
0.0
  0
SEQEND
  5
68B
330
1FB
100
AcDbEntity
  8
0
  0
POLYLINE
  5
209
330
1E
100
AcDbEntity
  8
0
100
AcDb2dPolyline
 66
     1
 10
0.0
 20
0.0
 30
0.0
  0
VERTEX
  5
68C
330
209
100
AcDbEntity
  8
0
100
AcDbVertex
100
AcDb2dVertex
 10
1.059901377952756
 20
3.993864937099334
 30
0.0
  0
VERTEX
  5
68D
330
209
100
AcDbEntity
  8
0
100
AcDbVertex
100
AcDb2dVertex
 10
1.054651771653543
 20
4.013550960721381
 30
0.0
  0
VERTEX
  5
68E
330
209
100
AcDbEntity
  8
0
100
AcDbVertex
100
AcDb2dVertex
 10
1.038902952755905
 20
4.027987378044215
 30
0.0
  0
VERTEX
  5
68F
330
209
100
AcDbEntity
  8
0
100
AcDbVertex
100
AcDb2dVertex
 10
1.017904527559055
 20
4.030612181193824
 30
0.0
  0
VERTEX
  5
690
330
209
100
AcDbEntity
  8
0
100
AcDbVertex
100
AcDb2dVertex
 10
0.9995309055118113
 20
4.0214253701702
 30
0.0
  0
VERTEX
  5
691
330
209
100
AcDbEntity
  8
0
100
AcDbVertex
100
AcDb2dVertex
 10
0.9890316929133859
 20
4.00436414969776
 30
0.0
  0
VERTEX
  5
692
330
209
100
AcDbEntity
  8
0
100
AcDbVertex
100
AcDb2dVertex
 10
0.9890316929133859
 20
3.984678126075712
 30
0.0
  0
VERTEX
  5
693
330
209
100
AcDbEntity
  8
0
100
AcDbVertex
100
AcDb2dVertex
 10
0.9995309055118113
 20
3.966304504028468
 30
0.0
  0
VERTEX
  5
694
330
209
100
AcDbEntity
  8
0
100
AcDbVertex
100
AcDb2dVertex
 10
1.017904527559055
 20
3.95843009457965
 30
0.0
  0
VERTEX
  5
695
330
209
100
AcDbEntity
  8
0
100
AcDbVertex
100
AcDb2dVertex
 10
1.038902952755905
 20
3.961054897729255
 30
0.0
  0
VERTEX
  5
696
330
209
100
AcDbEntity
  8
0
100
AcDbVertex
100
AcDb2dVertex
 10
1.054651771653543
 20
3.974178913477288
 30
0.0
  0
VERTEX
  5
697
330
209
100
AcDbEntity
  8
0
100
AcDbVertex
100
AcDb2dVertex
 10
1.059901377952756
 20
3.993864937099334
 30
0.0
  0
SEQEND
  5
698
330
209
100
AcDbEntity
  8
0
  0
POLYLINE
  5
217
330
1E
100
AcDbEntity
  8
0
100
AcDb2dPolyline
 66
     1
 10
0.0
 20
0.0
 30
0.0
  0
VERTEX
  5
699
330
217
100
AcDbEntity
  8
0
100
AcDbVertex
100
AcDb2dVertex
 10
2.256811614173228
 20
3.993864937099334
 30
0.0
  0
VERTEX
  5
69A
330
217
100
AcDbEntity
  8
0
100
AcDbVertex
100
AcDb2dVertex
 10
2.263373622047244
 20
4.013550960721381
 30
0.0
  0
VERTEX
  5
69B
330
217
100
AcDbEntity
  8
0
100
AcDbVertex
100
AcDb2dVertex
 10
2.277810039370078
 20
4.027987378044215
 30
0.0
  0
VERTEX
  5
69C
330
217
100
AcDbEntity
  8
0
100
AcDbVertex
100
AcDb2dVertex
 10
2.298808464566929
 20
4.030612181193824
 30
0.0
  0
VERTEX
  5
69D
330
217
100
AcDbEntity
  8
0
100
AcDbVertex
100
AcDb2dVertex
 10
2.317182086614173
 20
4.0214253701702
 30
0.0
  0
VERTEX
  5
69E
330
217
100
AcDbEntity
  8
0
100
AcDbVertex
100
AcDb2dVertex
 10
2.328993700787401
 20
4.00436414969776
 30
0.0
  0
VERTEX
  5
69F
330
217
100
AcDbEntity
  8
0
100
AcDbVertex
100
AcDb2dVertex
 10
2.328993700787401
 20
3.984678126075712
 30
0.0
  0
VERTEX
  5
6A0
330
217
100
AcDbEntity
  8
0
100
AcDbVertex
100
AcDb2dVertex
 10
2.317182086614173
 20
3.966304504028468
 30
0.0
  0
VERTEX
  5
6A1
330
217
100
AcDbEntity
  8
0
100
AcDbVertex
100
AcDb2dVertex
 10
2.298808464566929
 20
3.95843009457965
 30
0.0
  0
VERTEX
  5
6A2
330
217
100
AcDbEntity
  8
0
100
AcDbVertex
100
AcDb2dVertex
 10
2.277810039370078
 20
3.961054897729255
 30
0.0
  0
VERTEX
  5
6A3
330
217
100
AcDbEntity
  8
0
100
AcDbVertex
100
AcDb2dVertex
 10
2.263373622047244
 20
3.974178913477288
 30
0.0
  0
VERTEX
  5
6A4
330
217
100
AcDbEntity
  8
0
100
AcDbVertex
100
AcDb2dVertex
 10
2.256811614173228
 20
3.993864937099334
 30
0.0
  0
SEQEND
  5
6A5
330
217
100
AcDbEntity
  8
0
  0
POLYLINE
  5
225
330
1E
100
AcDbEntity
  8
0
100
AcDb2dPolyline
 66
     1
 10
0.0
 20
0.0
 30
0.0
  0
VERTEX
  5
6A6
330
225
100
AcDbEntity
  8
0
100
AcDbVertex
100
AcDb2dVertex
 10
2.965508464566929
 20
3.993864937099334
 30
0.0
  0
VERTEX
  5
6A7
330
225
100
AcDbEntity
  8
0
100
AcDbVertex
100
AcDb2dVertex
 10
2.958946456692912
 20
4.013550960721381
 30
0.0
  0
VERTEX
  5
6A8
330
225
100
AcDbEntity
  8
0
100
AcDbVertex
100
AcDb2dVertex
 10
2.944510039370078
 20
4.027987378044215
 30
0.0
  0
VERTEX
  5
6A9
330
225
100
AcDbEntity
  8
0
100
AcDbVertex
100
AcDb2dVertex
 10
2.923511614173228
 20
4.030612181193824
 30
0.0
  0
VERTEX
  5
6AA
330
225
100
AcDbEntity
  8
0
100
AcDbVertex
100
AcDb2dVertex
 10
2.905137992125983
 20
4.0214253701702
 30
0.0
  0
VERTEX
  5
6AB
330
225
100
AcDbEntity
  8
0
100
AcDbVertex
100
AcDb2dVertex
 10
2.893326377952756
 20
4.00436414969776
 30
0.0
  0
VERTEX
  5
6AC
330
225
100
AcDbEntity
  8
0
100
AcDbVertex
100
AcDb2dVertex
 10
2.893326377952756
 20
3.984678126075712
 30
0.0
  0
VERTEX
  5
6AD
330
225
100
AcDbEntity
  8
0
100
AcDbVertex
100
AcDb2dVertex
 10
2.905137992125983
 20
3.966304504028468
 30
0.0
  0
VERTEX
  5
6AE
330
225
100
AcDbEntity
  8
0
100
AcDbVertex
100
AcDb2dVertex
 10
2.923511614173228
 20
3.95843009457965
 30
0.0
  0
VERTEX
  5
6AF
330
225
100
AcDbEntity
  8
0
100
AcDbVertex
100
AcDb2dVertex
 10
2.944510039370078
 20
3.961054897729255
 30
0.0
  0
VERTEX
  5
6B0
330
225
100
AcDbEntity
  8
0
100
AcDbVertex
100
AcDb2dVertex
 10
2.958946456692912
 20
3.974178913477288
 30
0.0
  0
VERTEX
  5
6B1
330
225
100
AcDbEntity
  8
0
100
AcDbVertex
100
AcDb2dVertex
 10
2.965508464566929
 20
3.993864937099334
 30
0.0
  0
SEQEND
  5
6B2
330
225
100
AcDbEntity
  8
0
  0
LINE
  5
233
330
1E
100
AcDbEntity
  8
0
100
AcDbLine
 10
3.247674803149606
 20
4.115918283556027
 30
0.0
 11
3.245049999999999
 21
4.115918283556027
 31
0.0
  0
LINE
  5
234
330
1E
100
AcDbEntity
  8
0
100
AcDbLine
 10
3.245049999999999
 20
4.062109818989099
 30
0.0
 11
3.245049999999999
 21
4.115918283556027
 31
0.0
  0
LINE
  5
235
330
1E
100
AcDbEntity
  8
0
100
AcDbLine
 10
0.7068653543307084
 20
4.115918283556027
 30
0.0
 11
0.7068653543307084
 21
4.062109818989099
 31
0.0
  0
LINE
  5
236
330
1E
100
AcDbEntity
  8
0
100
AcDbLine
 10
0.7055529527559057
 20
4.115918283556027
 30
0.0
 11
0.7068653543307084
 21
4.115918283556027
 31
0.0
  0
LINE
  5
237
330
1E
100
AcDbEntity
  8
0
100
AcDbLine
 10
3.245049999999999
 20
3.873123992217444
 30
0.0
 11
3.245049999999999
 21
3.926932456784374
 31
0.0
  0
LINE
  5
238
330
1E
100
AcDbEntity
  8
0
100
AcDbLine
 10
3.247674803149606
 20
3.873123992217444
 30
0.0
 11
3.245049999999999
 21
3.873123992217444
 31
0.0
  0
LINE
  5
239
330
1E
100
AcDbEntity
  8
0
100
AcDbLine
 10
0.7055529527559057
 20
3.873123992217444
 30
0.0
 11
0.7068653543307084
 21
3.873123992217444
 31
0.0
  0
LINE
  5
23A
330
1E
100
AcDbEntity
  8
0
100
AcDbLine
 10
0.7068653543307084
 20
3.926932456784374
 30
0.0
 11
0.7068653543307084
 21
3.873123992217444
 31
0.0
  0
LINE
  5
23B
330
1E
100
AcDbEntity
  8
0
100
AcDbLine
 10
0.7068653543307084
 20
4.115918283556027
 30
0.0
 11
3.245049999999999
 21
4.115918283556027
 31
0.0
  0
LINE
  5
23C
330
1E
100
AcDbEntity
  8
0
100
AcDbLine
 10
0.7068653543307084
 20
4.062109818989099
 30
0.0
 11
0.6779925196850401
 21
4.062109818989099
 31
0.0
  0
LINE
  5
23D
330
1E
100
AcDbEntity
  8
0
100
AcDbLine
 10
0.6779925196850401
 20
4.062109818989099
 30
0.0
 11
0.6779925196850401
 21
3.926932456784374
 31
0.0
  0
LINE
  5
23E
330
1E
100
AcDbEntity
  8
0
100
AcDbLine
 10
0.7068653543307084
 20
3.926932456784374
 30
0.0
 11
0.6779925196850401
 21
3.926932456784374
 31
0.0
  0
LINE
  5
23F
330
1E
100
AcDbEntity
  8
0
100
AcDbLine
 10
3.245049999999999
 20
3.873123992217444
 30
0.0
 11
0.7068653543307084
 21
3.873123992217444
 31
0.0
  0
LINE
  5
240
330
1E
100
AcDbEntity
  8
0
100
AcDbLine
 10
3.273922834645669
 20
3.926932456784374
 30
0.0
 11
3.245049999999999
 21
3.926932456784374
 31
0.0
  0
LINE
  5
241
330
1E
100
AcDbEntity
  8
0
100
AcDbLine
 10
3.273922834645669
 20
3.926932456784374
 30
0.0
 11
3.273922834645669
 21
4.062109818989099
 31
0.0
  0
LINE
  5
242
330
1E
100
AcDbEntity
  8
0
100
AcDbLine
 10
3.273922834645669
 20
4.062109818989099
 30
0.0
 11
3.245049999999999
 21
4.062109818989099
 31
0.0
  0
LINE
  5
243
330
1E
100
AcDbEntity
  8
0
100
AcDbLine
 10
3.491781496062992
 20
3.485965527650515
 30
0.0
 11
0.4601338582677168
 21
3.485965527650515
 31
0.0
  0
LINE
  5
244
330
1E
100
AcDbEntity
  8
0
100
AcDbLine
 10
3.615147244094488
 20
3.488590330800122
 30
0.0
 11
0.3380805118110239
 21
3.488590330800122
 31
0.0
  0
LINE
  5
245
330
1E
100
AcDbEntity
  8
0
100
AcDbLine
 10
0.3380805118110239
 20
3.488590330800122
 30
0.0
 11
0.2724604330708664
 21
3.447905881981224
 31
0.0
  0
LINE
  5
246
330
1E
100
AcDbEntity
  8
0
100
AcDbLine
 10
0.2724604330708664
 20
3.447905881981224
 30
0.0
 11
0.4286362204724412
 21
3.447905881981224
 31
0.0
  0
LINE
  5
247
330
1E
100
AcDbEntity
  8
0
100
AcDbLine
 10
0.4286362204724412
 20
3.447905881981224
 30
0.0
 11
0.4601338582677168
 21
3.485965527650515
 31
0.0
  0
LINE
  5
248
330
1E
100
AcDbEntity
  8
0
100
AcDbLine
 10
3.523279133858267
 20
3.447905881981224
 30
0.0
 11
3.491781496062992
 21
3.485965527650515
 31
0.0
  0
LINE
  5
249
330
1E
100
AcDbEntity
  8
0
100
AcDbLine
 10
3.523279133858267
 20
3.447905881981224
 30
0.0
 11
3.680767322834645
 21
3.447905881981224
 31
0.0
  0
LINE
  5
24A
330
1E
100
AcDbEntity
  8
0
100
AcDbLine
 10
3.680767322834645
 20
3.447905881981224
 30
0.0
 11
3.615147244094488
 21
3.488590330800122
 31
0.0
  0
LINE
  5
24B
330
1E
100
AcDbEntity
  8
0
100
AcDbLine
 10
3.247674803149606
 20
4.064734622138704
 30
0.0
 11
3.273922834645669
 21
4.064734622138704
 31
0.0
  0
LINE
  5
24C
330
1E
100
AcDbEntity
  8
0
100
AcDbLine
 10
3.247674803149606
 20
4.115918283556027
 30
0.0
 11
3.247674803149606
 21
4.064734622138704
 31
0.0
  0
LINE
  5
24D
330
1E
100
AcDbEntity
  8
0
100
AcDbLine
 10
3.273922834645669
 20
4.062109818989099
 30
0.0
 11
3.273922834645669
 21
4.064734622138704
 31
0.0
  0
LINE
  5
24E
330
1E
100
AcDbEntity
  8
0
100
AcDbLine
 10
3.247674803149606
 20
3.924307653634767
 30
0.0
 11
3.247674803149606
 21
3.873123992217444
 31
0.0
  0
LINE
  5
24F
330
1E
100
AcDbEntity
  8
0
100
AcDbLine
 10
3.247674803149606
 20
3.924307653634767
 30
0.0
 11
3.273922834645669
 21
3.924307653634767
 31
0.0
  0
LINE
  5
250
330
1E
100
AcDbEntity
  8
0
100
AcDbLine
 10
3.273922834645669
 20
3.924307653634767
 30
0.0
 11
3.273922834645669
 21
3.926932456784374
 31
0.0
  0
LINE
  5
251
330
1E
100
AcDbEntity
  8
0
100
AcDbLine
 10
0.7055529527559057
 20
3.924307653634767
 30
0.0
 11
0.6779925196850401
 21
3.924307653634767
 31
0.0
  0
LINE
  5
252
330
1E
100
AcDbEntity
  8
0
100
AcDbLine
 10
0.7055529527559057
 20
3.873123992217444
 30
0.0
 11
0.7055529527559057
 21
3.924307653634767
 31
0.0
  0
LINE
  5
253
330
1E
100
AcDbEntity
  8
0
100
AcDbLine
 10
0.6779925196850401
 20
3.924307653634767
 30
0.0
 11
0.6779925196850401
 21
3.926932456784374
 31
0.0
  0
LINE
  5
254
330
1E
100
AcDbEntity
  8
0
100
AcDbLine
 10
0.7055529527559057
 20
4.064734622138704
 30
0.0
 11
0.7055529527559057
 21
4.115918283556027
 31
0.0
  0
LINE
  5
255
330
1E
100
AcDbEntity
  8
0
100
AcDbLine
 10
0.7055529527559057
 20
4.064734622138704
 30
0.0
 11
0.6779925196850401
 21
4.064734622138704
 31
0.0
  0
LINE
  5
256
330
1E
100
AcDbEntity
  8
0
100
AcDbLine
 10
0.6779925196850401
 20
4.064734622138704
 30
0.0
 11
0.6779925196850401
 21
4.062109818989099
 31
0.0
  0
LINE
  5
257
330
1E
100
AcDbEntity
  8
0
100
AcDbLine
 10
0.3380805118110239
 20
3.613268480406421
 30
0.0
 11
3.615147244094488
 21
3.613268480406421
 31
0.0
  0
POLYLINE
  5
258
330
1E
100
AcDbEntity
  8
0
100
AcDb2dPolyline
 66
     1
 10
0.0
 20
0.0
 30
0.0
  0
VERTEX
  5
6B3
330
258
100
AcDbEntity
  8
0
100
AcDbVertex
100
AcDb2dVertex
 10
0.3380805118110239
 20
3.613268480406422
 30
0.0
  0
VERTEX
  5
6B4
330
258
100
AcDbEntity
  8
0
100
AcDbVertex
100
AcDb2dVertex
 10
0.3380805118110239
 20
3.575208834737129
 30
0.0
  0
VERTEX
  5
6B5
330
258
100
AcDbEntity
  8
0
100
AcDbVertex
100
AcDb2dVertex
 10
0.3380805118110239
 20
3.542398795367051
 30
0.0
  0
VERTEX
  5
6B6
330
258
100
AcDbEntity
  8
0
100
AcDbVertex
100
AcDb2dVertex
 10
0.3380805118110239
 20
3.514838362296185
 30
0.0
  0
VERTEX
  5
6B7
330
258
100
AcDbEntity
  8
0
100
AcDbVertex
100
AcDb2dVertex
 10
0.3380805118110239
 20
3.496464740248941
 30
0.0
  0
VERTEX
  5
6B8
330
258
100
AcDbEntity
  8
0
100
AcDbVertex
100
AcDb2dVertex
 10
0.3380805118110239
 20
3.488590330800123
 30
0.0
  0
SEQEND
  5
6B9
330
258
100
AcDbEntity
  8
0
  0
POLYLINE
  5
260
330
1E
100
AcDbEntity
  8
0
100
AcDb2dPolyline
 66
     1
 10
0.0
 20
0.0
 30
0.0
  0
VERTEX
  5
6BA
330
260
100
AcDbEntity
  8
0
100
AcDbVertex
100
AcDb2dVertex
 10
3.615147244094488
 20
3.613268480406422
 30
0.0
  0
VERTEX
  5
6BB
330
260
100
AcDbEntity
  8
0
100
AcDbVertex
100
AcDb2dVertex
 10
3.615147244094488
 20
3.575208834737129
 30
0.0
  0
VERTEX
  5
6BC
330
260
100
AcDbEntity
  8
0
100
AcDbVertex
100
AcDb2dVertex
 10
3.615147244094488
 20
3.542398795367051
 30
0.0
  0
VERTEX
  5
6BD
330
260
100
AcDbEntity
  8
0
100
AcDbVertex
100
AcDb2dVertex
 10
3.615147244094488
 20
3.514838362296185
 30
0.0
  0
VERTEX
  5
6BE
330
260
100
AcDbEntity
  8
0
100
AcDbVertex
100
AcDb2dVertex
 10
3.615147244094488
 20
3.496464740248941
 30
0.0
  0
VERTEX
  5
6BF
330
260
100
AcDbEntity
  8
0
100
AcDbVertex
100
AcDb2dVertex
 10
3.615147244094488
 20
3.488590330800123
 30
0.0
  0
SEQEND
  5
6C0
330
260
100
AcDbEntity
  8
0
  0
LINE
  5
268
330
1E
100
AcDbEntity
  8
0
100
AcDbLine
 10
3.247674803149606
 20
3.871811590642641
 30
0.0
 11
3.247674803149606
 21
3.873123992217444
 31
0.0
  0
LINE
  5
269
330
1E
100
AcDbEntity
  8
0
100
AcDbLine
 10
3.247674803149606
 20
3.871811590642641
 30
0.0
 11
3.247674803149606
 21
3.922995252059964
 31
0.0
  0
LINE
  5
26A
330
1E
100
AcDbEntity
  8
0
100
AcDbLine
 10
3.247674803149606
 20
3.922995252059964
 30
0.0
 11
3.247674803149606
 21
3.924307653634767
 31
0.0
  0
LINE
  5
26B
330
1E
100
AcDbEntity
  8
0
100
AcDbLine
 10
3.247674803149606
 20
3.922995252059964
 30
0.0
 11
3.275235236220472
 21
3.922995252059964
 31
0.0
  0
LINE
  5
26C
330
1E
100
AcDbEntity
  8
0
100
AcDbLine
 10
3.275235236220472
 20
3.922995252059964
 30
0.0
 11
3.273922834645669
 21
3.924307653634767
 31
0.0
  0
LINE
  5
26D
330
1E
100
AcDbEntity
  8
0
100
AcDbLine
 10
3.275235236220472
 20
3.922995252059964
 30
0.0
 11
3.275235236220472
 21
4.066047023713506
 31
0.0
  0
LINE
  5
26E
330
1E
100
AcDbEntity
  8
0
100
AcDbLine
 10
3.273922834645669
 20
4.064734622138704
 30
0.0
 11
3.275235236220472
 21
4.066047023713506
 31
0.0
  0
LINE
  5
26F
330
1E
100
AcDbEntity
  8
0
100
AcDbLine
 10
3.275235236220472
 20
4.066047023713506
 30
0.0
 11
3.247674803149606
 21
4.066047023713506
 31
0.0
  0
LINE
  5
270
330
1E
100
AcDbEntity
  8
0
100
AcDbLine
 10
3.247674803149606
 20
4.064734622138704
 30
0.0
 11
3.247674803149606
 21
4.066047023713506
 31
0.0
  0
LINE
  5
271
330
1E
100
AcDbEntity
  8
0
100
AcDbLine
 10
3.247674803149606
 20
4.066047023713506
 30
0.0
 11
3.247674803149606
 21
4.115918283556027
 31
0.0
  0
LINE
  5
272
330
1E
100
AcDbEntity
  8
0
100
AcDbLine
 10
3.247674803149606
 20
4.115918283556027
 30
0.0
 11
3.247674803149606
 21
4.115918283556027
 31
0.0
  0
LINE
  5
273
330
1E
100
AcDbEntity
  8
0
100
AcDbLine
 10
3.247674803149606
 20
4.115918283556027
 30
0.0
 11
0.704240551181103
 21
4.115918283556027
 31
0.0
  0
LINE
  5
274
330
1E
100
AcDbEntity
  8
0
100
AcDbLine
 10
0.704240551181103
 20
4.115918283556027
 30
0.0
 11
0.7055529527559057
 21
4.115918283556027
 31
0.0
  0
LINE
  5
275
330
1E
100
AcDbEntity
  8
0
100
AcDbLine
 10
0.704240551181103
 20
4.115918283556027
 30
0.0
 11
0.704240551181103
 21
4.066047023713506
 31
0.0
  0
LINE
  5
276
330
1E
100
AcDbEntity
  8
0
100
AcDbLine
 10
0.704240551181103
 20
4.066047023713506
 30
0.0
 11
0.7055529527559057
 21
4.064734622138704
 31
0.0
  0
LINE
  5
277
330
1E
100
AcDbEntity
  8
0
100
AcDbLine
 10
0.704240551181103
 20
4.066047023713506
 30
0.0
 11
0.6779925196850401
 21
4.066047023713506
 31
0.0
  0
LINE
  5
278
330
1E
100
AcDbEntity
  8
0
100
AcDbLine
 10
0.6779925196850401
 20
4.066047023713506
 30
0.0
 11
0.6779925196850401
 21
4.064734622138704
 31
0.0
  0
LINE
  5
279
330
1E
100
AcDbEntity
  8
0
100
AcDbLine
 10
0.6779925196850401
 20
3.922995252059964
 30
0.0
 11
0.6779925196850401
 21
4.066047023713506
 31
0.0
  0
LINE
  5
27A
330
1E
100
AcDbEntity
  8
0
100
AcDbLine
 10
0.6779925196850401
 20
3.922995252059964
 30
0.0
 11
0.6779925196850401
 21
3.924307653634767
 31
0.0
  0
LINE
  5
27B
330
1E
100
AcDbEntity
  8
0
100
AcDbLine
 10
0.6779925196850401
 20
3.922995252059964
 30
0.0
 11
0.704240551181103
 21
3.922995252059964
 31
0.0
  0
LINE
  5
27C
330
1E
100
AcDbEntity
  8
0
100
AcDbLine
 10
0.7055529527559057
 20
3.924307653634767
 30
0.0
 11
0.704240551181103
 21
3.922995252059964
 31
0.0
  0
LINE
  5
27D
330
1E
100
AcDbEntity
  8
0
100
AcDbLine
 10
0.704240551181103
 20
3.871811590642641
 30
0.0
 11
0.7055529527559057
 21
3.873123992217444
 31
0.0
  0
LINE
  5
27E
330
1E
100
AcDbEntity
  8
0
100
AcDbLine
 10
0.704240551181103
 20
3.922995252059964
 30
0.0
 11
0.704240551181103
 21
3.871811590642641
 31
0.0
  0
LINE
  5
27F
330
1E
100
AcDbEntity
  8
0
100
AcDbLine
 10
0.704240551181103
 20
3.871811590642641
 30
0.0
 11
3.247674803149606
 21
3.871811590642641
 31
0.0
  0
POLYLINE
  5
280
330
1E
100
AcDbEntity
  8
0
100
AcDb2dPolyline
 66
     1
 10
0.0
 20
0.0
 30
0.0
  0
VERTEX
  5
6C1
330
280
100
AcDbEntity
  8
0
100
AcDbVertex
100
AcDb2dVertex
 10
3.754261811023621
 20
3.629017299304059
 30
0.0
  0
VERTEX
  5
6C2
330
280
100
AcDbEntity
  8
0
100
AcDbVertex
100
AcDb2dVertex
 10
3.749012204724409
 20
3.592270055209571
 30
0.0
  0
VERTEX
  5
6C3
330
280
100
AcDbEntity
  8
0
100
AcDbVertex
100
AcDb2dVertex
 10
3.735888188976377
 20
3.558147614264689
 30
0.0
  0
VERTEX
  5
6C4
330
280
100
AcDbEntity
  8
0
100
AcDbVertex
100
AcDb2dVertex
 10
3.713577362204724
 20
3.529274779619019
 30
0.0
  0
VERTEX
  5
6C5
330
280
100
AcDbEntity
  8
0
100
AcDbVertex
100
AcDb2dVertex
 10
3.684704527559055
 20
3.506963952847366
 30
0.0
  0
VERTEX
  5
6C6
330
280
100
AcDbEntity
  8
0
100
AcDbVertex
100
AcDb2dVertex
 10
3.650582086614173
 20
3.493839937099334
 30
0.0
  0
VERTEX
  5
6C7
330
280
100
AcDbEntity
  8
0
100
AcDbVertex
100
AcDb2dVertex
 10
3.615147244094488
 20
3.488590330800123
 30
0.0
  0
SEQEND
  5
6C8
330
280
100
AcDbEntity
  8
0
  0
POLYLINE
  5
289
330
1E
100
AcDbEntity
  8
0
100
AcDb2dPolyline
 66
     1
 10
0.0
 20
0.0
 30
0.0
  0
VERTEX
  5
6C9
330
289
100
AcDbEntity
  8
0
100
AcDbVertex
100
AcDb2dVertex
 10
3.754261811023621
 20
3.629017299304059
 30
0.0
  0
VERTEX
  5
6CA
330
289
100
AcDbEntity
  8
0
100
AcDbVertex
100
AcDb2dVertex
 10
3.746387401574803
 20
3.629017299304059
 30
0.0
  0
VERTEX
  5
6CB
330
289
100
AcDbEntity
  8
0
100
AcDbVertex
100
AcDb2dVertex
 10
3.728013779527558
 20
3.629017299304059
 30
0.0
  0
VERTEX
  5
6CC
330
289
100
AcDbEntity
  8
0
100
AcDbVertex
100
AcDb2dVertex
 10
3.700453346456693
 20
3.629017299304059
 30
0.0
  0
VERTEX
  5
6CD
330
289
100
AcDbEntity
  8
0
100
AcDbVertex
100
AcDb2dVertex
 10
3.66633090551181
 20
3.629017299304059
 30
0.0
  0
VERTEX
  5
6CE
330
289
100
AcDbEntity
  8
0
100
AcDbVertex
100
AcDb2dVertex
 10
3.629583661417322
 20
3.629017299304059
 30
0.0
  0
SEQEND
  5
6CF
330
289
100
AcDbEntity
  8
0
  0
POLYLINE
  5
291
330
1E
100
AcDbEntity
  8
0
100
AcDb2dPolyline
 66
     1
 10
0.0
 20
0.0
 30
0.0
  0
VERTEX
  5
6D0
330
291
100
AcDbEntity
  8
0
100
AcDbVertex
100
AcDb2dVertex
 10
3.615147244094488
 20
3.613268480406422
 30
0.0
  0
VERTEX
  5
6D1
330
291
100
AcDbEntity
  8
0
100
AcDbVertex
100
AcDb2dVertex
 10
3.625646456692913
 20
3.61720568513083
 30
0.0
  0
VERTEX
  5
6D2
330
291
100
AcDbEntity
  8
0
100
AcDbVertex
100
AcDb2dVertex
 10
3.629583661417322
 20
3.629017299304059
 30
0.0
  0
SEQEND
  5
6D3
330
291
100
AcDbEntity
  8
0
  0
LINE
  5
296
330
1E
100
AcDbEntity
  8
0
100
AcDbLine
 10
3.813319881889763
 20
4.665814543398547
 30
0.0
 11
3.813319881889763
 21
4.219598007965476
 31
0.0
  0
POLYLINE
  5
297
330
1E
100
AcDbEntity
  8
0
100
AcDb2dPolyline
 66
     1
 10
0.0
 20
0.0
 30
0.0
  0
VERTEX
  5
6D4
330
297
100
AcDbEntity
  8
0
100
AcDbVertex
100
AcDb2dVertex
 10
3.819881889763779
 20
3.587020448910358
 30
0.0
  0
VERTEX
  5
6D5
330
297
100
AcDbEntity
  8
0
100
AcDbVertex
100
AcDb2dVertex
 10
3.81594468503937
 20
3.551585606390673
 30
0.0
  0
VERTEX
  5
6D6
330
297
100
AcDbEntity
  8
0
100
AcDbVertex
100
AcDb2dVertex
 10
3.801508267716535
 20
3.517463165445791
 30
0.0
  0
VERTEX
  5
6D7
330
297
100
AcDbEntity
  8
0
100
AcDbVertex
100
AcDb2dVertex
 10
3.779197440944881
 20
3.488590330800123
 30
0.0
  0
VERTEX
  5
6D8
330
297
100
AcDbEntity
  8
0
100
AcDbVertex
100
AcDb2dVertex
 10
3.750324606299212
 20
3.466279504028468
 30
0.0
  0
VERTEX
  5
6D9
330
297
100
AcDbEntity
  8
0
100
AcDbVertex
100
AcDb2dVertex
 10
3.716202165354331
 20
3.451843086705634
 30
0.0
  0
VERTEX
  5
6DA
330
297
100
AcDbEntity
  8
0
100
AcDbVertex
100
AcDb2dVertex
 10
3.680767322834645
 20
3.447905881981224
 30
0.0
  0
SEQEND
  5
6DB
330
297
100
AcDbEntity
  8
0
  0
LINE
  5
2A0
330
1E
100
AcDbEntity
  8
0
100
AcDbLine
 10
3.754261811023621
 20
3.629017299304059
 30
0.0
 11
3.819881889763779
 21
3.587020448910358
 31
0.0
  0
LINE
  5
2A1
330
1E
100
AcDbEntity
  8
0
100
AcDbLine
 10
3.819881889763779
 20
3.587020448910358
 30
0.0
 11
3.819881889763779
 21
4.216973204815869
 31
0.0
  0
LINE
  5
2A2
330
1E
100
AcDbEntity
  8
0
100
AcDbLine
 10
3.819881889763779
 20
4.216973204815869
 30
0.0
 11
3.813319881889763
 21
4.219598007965476
 31
0.0
  0
LINE
  5
2A3
330
1E
100
AcDbEntity
  8
0
100
AcDbLine
 10
3.819881889763779
 20
4.66712694497335
 30
0.0
 11
3.813319881889763
 21
4.665814543398547
 31
0.0
  0
LINE
  5
2A4
330
1E
100
AcDbEntity
  8
0
100
AcDbLine
 10
0.1320334645669297
 20
3.587020448910358
 30
0.0
 11
0.1976535433070867
 21
3.629017299304059
 31
0.0
  0
POLYLINE
  5
2A5
330
1E
100
AcDbEntity
  8
0
100
AcDb2dPolyline
 66
     1
 10
0.0
 20
0.0
 30
0.0
  0
VERTEX
  5
6DC
330
2A5
100
AcDbEntity
  8
0
100
AcDbVertex
100
AcDb2dVertex
 10
0.2724604330708662
 20
3.447905881981224
 30
0.0
  0
VERTEX
  5
6DD
330
2A5
100
AcDbEntity
  8
0
100
AcDbVertex
100
AcDb2dVertex
 10
0.2357131889763782
 20
3.451843086705634
 30
0.0
  0
VERTEX
  5
6DE
330
2A5
100
AcDbEntity
  8
0
100
AcDbVertex
100
AcDb2dVertex
 10
0.2015907480314962
 20
3.466279504028468
 30
0.0
  0
VERTEX
  5
6DF
330
2A5
100
AcDbEntity
  8
0
100
AcDbVertex
100
AcDb2dVertex
 10
0.172717913385827
 20
3.488590330800123
 30
0.0
  0
VERTEX
  5
6E0
330
2A5
100
AcDbEntity
  8
0
100
AcDbVertex
100
AcDb2dVertex
 10
0.1504070866141733
 20
3.517463165445791
 30
0.0
  0
VERTEX
  5
6E1
330
2A5
100
AcDbEntity
  8
0
100
AcDbVertex
100
AcDb2dVertex
 10
0.1372830708661417
 20
3.551585606390673
 30
0.0
  0
VERTEX
  5
6E2
330
2A5
100
AcDbEntity
  8
0
100
AcDbVertex
100
AcDb2dVertex
 10
0.1320334645669292
 20
3.587020448910358
 30
0.0
  0
SEQEND
  5
6E3
330
2A5
100
AcDbEntity
  8
0
  0
POLYLINE
  5
2AE
330
1E
100
AcDbEntity
  8
0
100
AcDb2dPolyline
 66
     1
 10
0.0
 20
0.0
 30
0.0
  0
VERTEX
  5
6E4
330
2AE
100
AcDbEntity
  8
0
100
AcDbVertex
100
AcDb2dVertex
 10
0.3380805118110239
 20
3.488590330800123
 30
0.0
  0
VERTEX
  5
6E5
330
2AE
100
AcDbEntity
  8
0
100
AcDbVertex
100
AcDb2dVertex
 10
0.3013332677165355
 20
3.493839937099334
 30
0.0
  0
VERTEX
  5
6E6
330
2AE
100
AcDbEntity
  8
0
100
AcDbVertex
100
AcDb2dVertex
 10
0.2685232283464567
 20
3.506963952847366
 30
0.0
  0
VERTEX
  5
6E7
330
2AE
100
AcDbEntity
  8
0
100
AcDbVertex
100
AcDb2dVertex
 10
0.2396503937007874
 20
3.529274779619019
 30
0.0
  0
VERTEX
  5
6E8
330
2AE
100
AcDbEntity
  8
0
100
AcDbVertex
100
AcDb2dVertex
 10
0.217339566929134
 20
3.558147614264689
 30
0.0
  0
VERTEX
  5
6E9
330
2AE
100
AcDbEntity
  8
0
100
AcDbVertex
100
AcDb2dVertex
 10
0.2029031496062994
 20
3.592270055209571
 30
0.0
  0
VERTEX
  5
6EA
330
2AE
100
AcDbEntity
  8
0
100
AcDbVertex
100
AcDb2dVertex
 10
0.1976535433070867
 20
3.629017299304059
 30
0.0
  0
SEQEND
  5
6EB
330
2AE
100
AcDbEntity
  8
0
  0
LINE
  5
2B7
330
1E
100
AcDbEntity
  8
0
100
AcDbLine
 10
0.1399078740157478
 20
4.665814543398547
 30
0.0
 11
0.1399078740157478
 21
4.219598007965476
 31
0.0
  0
POLYLINE
  5
2B8
330
1E
100
AcDbEntity
  8
0
100
AcDb2dPolyline
 66
     1
 10
0.0
 20
0.0
 30
0.0
  0
VERTEX
  5
6EC
330
2B8
100
AcDbEntity
  8
0
100
AcDbVertex
100
AcDb2dVertex
 10
0.3223316929133861
 20
3.629017299304059
 30
0.0
  0
VERTEX
  5
6ED
330
2B8
100
AcDbEntity
  8
0
100
AcDbVertex
100
AcDb2dVertex
 10
0.2855844488188976
 20
3.629017299304059
 30
0.0
  0
VERTEX
  5
6EE
330
2B8
100
AcDbEntity
  8
0
100
AcDbVertex
100
AcDb2dVertex
 10
0.251462007874016
 20
3.629017299304059
 30
0.0
  0
VERTEX
  5
6EF
330
2B8
100
AcDbEntity
  8
0
100
AcDbVertex
100
AcDb2dVertex
 10
0.2252139763779528
 20
3.629017299304059
 30
0.0
  0
VERTEX
  5
6F0
330
2B8
100
AcDbEntity
  8
0
100
AcDbVertex
100
AcDb2dVertex
 10
0.2055279527559057
 20
3.629017299304059
 30
0.0
  0
VERTEX
  5
6F1
330
2B8
100
AcDbEntity
  8
0
100
AcDbVertex
100
AcDb2dVertex
 10
0.1976535433070867
 20
3.629017299304059
 30
0.0
  0
SEQEND
  5
6F2
330
2B8
100
AcDbEntity
  8
0
  0
POLYLINE
  5
2C0
330
1E
100
AcDbEntity
  8
0
100
AcDb2dPolyline
 66
     1
 10
0.0
 20
0.0
 30
0.0
  0
VERTEX
  5
6F3
330
2C0
100
AcDbEntity
  8
0
100
AcDbVertex
100
AcDb2dVertex
 10
0.3223316929133861
 20
3.629017299304059
 30
0.0
  0
VERTEX
  5
6F4
330
2C0
100
AcDbEntity
  8
0
100
AcDbVertex
100
AcDb2dVertex
 10
0.3275812992125986
 20
3.61720568513083
 30
0.0
  0
VERTEX
  5
6F5
330
2C0
100
AcDbEntity
  8
0
100
AcDbVertex
100
AcDb2dVertex
 10
0.3380805118110239
 20
3.613268480406422
 30
0.0
  0
SEQEND
  5
6F6
330
2C0
100
AcDbEntity
  8
0
  0
LINE
  5
2C5
330
1E
100
AcDbEntity
  8
0
100
AcDbLine
 10
0.1399078740157478
 20
4.665814543398547
 30
0.0
 11
0.1320334645669297
 21
4.66712694497335
 31
0.0
  0
LINE
  5
2C6
330
1E
100
AcDbEntity
  8
0
100
AcDbLine
 10
0.1399078740157478
 20
4.219598007965476
 30
0.0
 11
0.1320334645669297
 21
4.216973204815869
 31
0.0
  0
LINE
  5
2C7
330
1E
100
AcDbEntity
  8
0
100
AcDbLine
 10
0.1320334645669297
 20
4.216973204815869
 30
0.0
 11
0.1320334645669297
 21
3.587020448910358
 31
0.0
  0
POLYLINE
  5
2C8
330
1E
100
AcDbEntity
  8
0
100
AcDb2dPolyline
 66
     1
 10
0.0
 20
0.0
 30
0.0
  0
VERTEX
  5
6F7
330
2C8
100
AcDbEntity
  8
0
100
AcDbVertex
100
AcDb2dVertex
 10
0.3223316929133861
 20
7.761769858359176
 30
0.0
  0
VERTEX
  5
6F8
330
2C8
100
AcDbEntity
  8
0
100
AcDbVertex
100
AcDb2dVertex
 10
0.2855844488188976
 20
7.761769858359176
 30
0.0
  0
VERTEX
  5
6F9
330
2C8
100
AcDbEntity
  8
0
100
AcDbVertex
100
AcDb2dVertex
 10
0.251462007874016
 20
7.761769858359176
 30
0.0
  0
VERTEX
  5
6FA
330
2C8
100
AcDbEntity
  8
0
100
AcDbVertex
100
AcDb2dVertex
 10
0.2252139763779528
 20
7.761769858359176
 30
0.0
  0
VERTEX
  5
6FB
330
2C8
100
AcDbEntity
  8
0
100
AcDbVertex
100
AcDb2dVertex
 10
0.2055279527559057
 20
7.761769858359176
 30
0.0
  0
VERTEX
  5
6FC
330
2C8
100
AcDbEntity
  8
0
100
AcDbVertex
100
AcDb2dVertex
 10
0.1976535433070867
 20
7.761769858359176
 30
0.0
  0
SEQEND
  5
6FD
330
2C8
100
AcDbEntity
  8
0
  0
LINE
  5
2D0
330
1E
100
AcDbEntity
  8
0
100
AcDbLine
 10
0.1976535433070867
 20
3.629017299304059
 30
0.0
 11
0.1976535433070867
 21
7.761769858359176
 31
0.0
  0
LINE
  5
2D1
330
1E
100
AcDbEntity
  8
0
100
AcDbLine
 10
0.3223316929133859
 20
7.761769858359176
 30
0.0
 11
0.3223316929133859
 21
3.629017299304059
 31
0.0
  0
LINE
  5
2D2
330
1E
100
AcDbEntity
  8
0
100
AcDbLine
 10
0.1976535433070867
 20
7.761769858359176
 30
0.0
 11
0.1320334645669297
 21
7.827389937099335
 31
0.0
  0
LINE
  5
2D3
330
1E
100
AcDbEntity
  8
0
100
AcDbLine
 10
0.1320334645669297
 20
7.827389937099335
 30
0.0
 11
0.1320334645669297
 21
4.66712694497335
 31
0.0
  0
POLYLINE
  5
2D4
330
1E
100
AcDbEntity
  8
0
100
AcDb2dPolyline
 66
     1
 10
0.0
 20
0.0
 30
0.0
  0
VERTEX
  5
6FE
330
2D4
100
AcDbEntity
  8
0
100
AcDbVertex
100
AcDb2dVertex
 10
0.1320334645669292
 20
7.827389937099335
 30
0.0
  0
VERTEX
  5
6FF
330
2D4
100
AcDbEntity
  8
0
100
AcDbVertex
100
AcDb2dVertex
 10
0.1372830708661417
 20
7.874636393792249
 30
0.0
  0
VERTEX
  5
700
330
2D4
100
AcDbEntity
  8
0
100
AcDbVertex
100
AcDb2dVertex
 10
0.1530318897637795
 20
7.920570448910357
 30
0.0
  0
VERTEX
  5
701
330
2D4
100
AcDbEntity
  8
0
100
AcDbVertex
100
AcDb2dVertex
 10
0.1792799212598428
 20
7.961254897729256
 30
0.0
  0
VERTEX
  5
702
330
2D4
100
AcDbEntity
  8
0
100
AcDbVertex
100
AcDb2dVertex
 10
0.2120899606299214
 20
7.995377338674138
 30
0.0
  0
VERTEX
  5
703
330
2D4
100
AcDbEntity
  8
0
100
AcDbVertex
100
AcDb2dVertex
 10
0.2527744094488189
 20
8.020312968595398
 30
0.0
  0
VERTEX
  5
704
330
2D4
100
AcDbEntity
  8
0
100
AcDbVertex
100
AcDb2dVertex
 10
0.2987084645669291
 20
8.036061787493036
 30
0.0
  0
VERTEX
  5
705
330
2D4
100
AcDbEntity
  8
0
100
AcDbVertex
100
AcDb2dVertex
 10
0.3459549212598427
 20
8.041311393792248
 30
0.0
  0
SEQEND
  5
706
330
2D4
100
AcDbEntity
  8
0
  0
LINE
  5
2DE
330
1E
100
AcDbEntity
  8
0
100
AcDbLine
 10
0.423386614173229
 20
8.041311393792248
 30
0.0
 11
0.3459549212598429
 21
8.041311393792248
 31
0.0
  0
LINE
  5
2DF
330
1E
100
AcDbEntity
  8
0
100
AcDbLine
 10
3.605960433070866
 20
8.041311393792248
 30
0.0
 11
3.52852874015748
 21
8.041311393792248
 31
0.0
  0
POLYLINE
  5
2E0
330
1E
100
AcDbEntity
  8
0
100
AcDb2dPolyline
 66
     1
 10
0.0
 20
0.0
 30
0.0
  0
VERTEX
  5
707
330
2E0
100
AcDbEntity
  8
0
100
AcDbVertex
100
AcDb2dVertex
 10
3.605960433070865
 20
8.041311393792248
 30
0.0
  0
VERTEX
  5
708
330
2E0
100
AcDbEntity
  8
0
100
AcDbVertex
100
AcDb2dVertex
 10
3.653206889763779
 20
8.036061787493036
 30
0.0
  0
VERTEX
  5
709
330
2E0
100
AcDbEntity
  8
0
100
AcDbVertex
100
AcDb2dVertex
 10
3.699140944881889
 20
8.020312968595398
 30
0.0
  0
VERTEX
  5
70A
330
2E0
100
AcDbEntity
  8
0
100
AcDbVertex
100
AcDb2dVertex
 10
3.739825393700787
 20
7.995377338674138
 30
0.0
  0
VERTEX
  5
70B
330
2E0
100
AcDbEntity
  8
0
100
AcDbVertex
100
AcDb2dVertex
 10
3.773947834645668
 20
7.961254897729256
 30
0.0
  0
VERTEX
  5
70C
330
2E0
100
AcDbEntity
  8
0
100
AcDbVertex
100
AcDb2dVertex
 10
3.798883464566928
 20
7.920570448910357
 30
0.0
  0
VERTEX
  5
70D
330
2E0
100
AcDbEntity
  8
0
100
AcDbVertex
100
AcDb2dVertex
 10
3.814632283464566
 20
7.874636393792249
 30
0.0
  0
VERTEX
  5
70E
330
2E0
100
AcDbEntity
  8
0
100
AcDbVertex
100
AcDb2dVertex
 10
3.819881889763779
 20
7.827389937099335
 30
0.0
  0
SEQEND
  5
70F
330
2E0
100
AcDbEntity
  8
0
  0
LINE
  5
2EA
330
1E
100
AcDbEntity
  8
0
100
AcDbLine
 10
3.819881889763779
 20
4.66712694497335
 30
0.0
 11
3.819881889763779
 21
7.827389937099335
 31
0.0
  0
LINE
  5
2EB
330
1E
100
AcDbEntity
  8
0
100
AcDbLine
 10
3.819881889763779
 20
7.827389937099335
 30
0.0
 11
3.754261811023621
 21
7.761769858359176
 31
0.0
  0
LINE
  5
2EC
330
1E
100
AcDbEntity
  8
0
100
AcDbLine
 10
3.754261811023621
 20
7.761769858359176
 30
0.0
 11
3.754261811023621
 21
3.629017299304059
 31
0.0
  0
POLYLINE
  5
2ED
330
1E
100
AcDbEntity
  8
0
100
AcDb2dPolyline
 66
     1
 10
0.0
 20
0.0
 30
0.0
  0
VERTEX
  5
710
330
2ED
100
AcDbEntity
  8
0
100
AcDbVertex
100
AcDb2dVertex
 10
3.754261811023621
 20
7.761769858359176
 30
0.0
  0
VERTEX
  5
711
330
2ED
100
AcDbEntity
  8
0
100
AcDbVertex
100
AcDb2dVertex
 10
3.746387401574803
 20
7.761769858359176
 30
0.0
  0
VERTEX
  5
712
330
2ED
100
AcDbEntity
  8
0
100
AcDbVertex
100
AcDb2dVertex
 10
3.728013779527558
 20
7.761769858359176
 30
0.0
  0
VERTEX
  5
713
330
2ED
100
AcDbEntity
  8
0
100
AcDbVertex
100
AcDb2dVertex
 10
3.700453346456693
 20
7.761769858359176
 30
0.0
  0
VERTEX
  5
714
330
2ED
100
AcDbEntity
  8
0
100
AcDbVertex
100
AcDb2dVertex
 10
3.66633090551181
 20
7.761769858359176
 30
0.0
  0
VERTEX
  5
715
330
2ED
100
AcDbEntity
  8
0
100
AcDbVertex
100
AcDb2dVertex
 10
3.629583661417322
 20
7.761769858359176
 30
0.0
  0
SEQEND
  5
716
330
2ED
100
AcDbEntity
  8
0
  0
LINE
  5
2F5
330
1E
100
AcDbEntity
  8
0
100
AcDbLine
 10
3.629583661417322
 20
3.629017299304059
 30
0.0
 11
3.629583661417322
 21
7.761769858359176
 31
0.0
  0
POLYLINE
  5
2F6
330
1E
100
AcDbEntity
  8
0
100
AcDb2dPolyline
 66
     1
 10
0.0
 20
0.0
 30
0.0
  0
VERTEX
  5
717
330
2F6
100
AcDbEntity
  8
0
100
AcDbVertex
100
AcDb2dVertex
 10
3.629583661417322
 20
7.761769858359176
 30
0.0
  0
VERTEX
  5
718
330
2F6
100
AcDbEntity
  8
0
100
AcDbVertex
100
AcDb2dVertex
 10
3.625646456692913
 20
7.789330291430044
 30
0.0
  0
VERTEX
  5
719
330
2F6
100
AcDbEntity
  8
0
100
AcDbVertex
100
AcDb2dVertex
 10
3.612522440944881
 20
7.814265921351303
 30
0.0
  0
VERTEX
  5
71A
330
2F6
100
AcDbEntity
  8
0
100
AcDbVertex
100
AcDb2dVertex
 10
3.592836417322834
 20
7.83395194497335
 30
0.0
  0
VERTEX
  5
71B
330
2F6
100
AcDbEntity
  8
0
100
AcDbVertex
100
AcDb2dVertex
 10
3.567900787401574
 20
7.847075960721381
 30
0.0
  0
VERTEX
  5
71C
330
2F6
100
AcDbEntity
  8
0
100
AcDbVertex
100
AcDb2dVertex
 10
3.540340354330708
 20
7.851013165445792
 30
0.0
  0
SEQEND
  5
71D
330
2F6
100
AcDbEntity
  8
0
  0
LINE
  5
2FE
330
1E
100
AcDbEntity
  8
0
100
AcDbLine
 10
3.540340354330708
 20
7.851013165445791
 30
0.0
 11
0.4128874015748037
 21
7.851013165445791
 31
0.0
  0
POLYLINE
  5
2FF
330
1E
100
AcDbEntity
  8
0
100
AcDb2dPolyline
 66
     1
 10
0.0
 20
0.0
 30
0.0
  0
VERTEX
  5
71E
330
2FF
100
AcDbEntity
  8
0
100
AcDbVertex
100
AcDb2dVertex
 10
0.4128874015748032
 20
7.851013165445792
 30
0.0
  0
VERTEX
  5
71F
330
2FF
100
AcDbEntity
  8
0
100
AcDbVertex
100
AcDb2dVertex
 10
0.3853269685039371
 20
7.847075960721381
 30
0.0
  0
VERTEX
  5
720
330
2FF
100
AcDbEntity
  8
0
100
AcDbVertex
100
AcDb2dVertex
 10
0.3590789370078742
 20
7.83395194497335
 30
0.0
  0
VERTEX
  5
721
330
2FF
100
AcDbEntity
  8
0
100
AcDbVertex
100
AcDb2dVertex
 10
0.3393929133858271
 20
7.814265921351303
 30
0.0
  0
VERTEX
  5
722
330
2FF
100
AcDbEntity
  8
0
100
AcDbVertex
100
AcDb2dVertex
 10
0.3275812992125986
 20
7.789330291430044
 30
0.0
  0
VERTEX
  5
723
330
2FF
100
AcDbEntity
  8
0
100
AcDbVertex
100
AcDb2dVertex
 10
0.3223316929133861
 20
7.761769858359176
 30
0.0
  0
SEQEND
  5
724
330
2FF
100
AcDbEntity
  8
0
  0
LINE
  5
307
330
1E
100
AcDbEntity
  8
0
100
AcDbLine
 10
2.298808464566929
 20
6.755157850485161
 30
0.0
 11
2.298808464566929
 21
6.806341511902484
 31
0.0
  0
LINE
  5
308
330
1E
100
AcDbEntity
  8
0
100
AcDbLine
 10
1.654419291338582
 20
6.755157850485161
 30
0.0
 11
2.298808464566929
 21
6.755157850485161
 31
0.0
  0
LINE
  5
309
330
1E
100
AcDbEntity
  8
0
100
AcDbLine
 10
1.654419291338582
 20
6.806341511902484
 30
0.0
 11
1.654419291338582
 21
6.755157850485161
 31
0.0
  0
LINE
  5
30A
330
1E
100
AcDbEntity
  8
0
100
AcDbLine
 10
1.629483661417323
 20
6.806341511902484
 30
0.0
 11
1.654419291338582
 21
6.806341511902484
 31
0.0
  0
LINE
  5
30B
330
1E
100
AcDbEntity
  8
0
100
AcDbLine
 10
1.629483661417323
 20
6.948080881981224
 30
0.0
 11
1.629483661417323
 21
6.806341511902484
 31
0.0
  0
LINE
  5
30C
330
1E
100
AcDbEntity
  8
0
100
AcDbLine
 10
1.654419291338582
 20
6.948080881981224
 30
0.0
 11
1.629483661417323
 21
6.948080881981224
 31
0.0
  0
LINE
  5
30D
330
1E
100
AcDbEntity
  8
0
100
AcDbLine
 10
1.654419291338582
 20
6.999264543398547
 30
0.0
 11
1.654419291338582
 21
6.948080881981224
 31
0.0
  0
LINE
  5
30E
330
1E
100
AcDbEntity
  8
0
100
AcDbLine
 10
2.298808464566929
 20
6.999264543398547
 30
0.0
 11
1.654419291338582
 21
6.999264543398547
 31
0.0
  0
LINE
  5
30F
330
1E
100
AcDbEntity
  8
0
100
AcDbLine
 10
2.298808464566929
 20
6.948080881981224
 30
0.0
 11
2.298808464566929
 21
6.999264543398547
 31
0.0
  0
LINE
  5
310
330
1E
100
AcDbEntity
  8
0
100
AcDbLine
 10
2.322431692913386
 20
6.948080881981224
 30
0.0
 11
2.298808464566929
 21
6.948080881981224
 31
0.0
  0
LINE
  5
311
330
1E
100
AcDbEntity
  8
0
100
AcDbLine
 10
2.322431692913386
 20
6.806341511902484
 30
0.0
 11
2.322431692913386
 21
6.948080881981224
 31
0.0
  0
LINE
  5
312
330
1E
100
AcDbEntity
  8
0
100
AcDbLine
 10
2.298808464566929
 20
6.806341511902484
 30
0.0
 11
2.322431692913386
 21
6.806341511902484
 31
0.0
  0
LINE
  5
313
330
1E
100
AcDbEntity
  8
0
100
AcDbLine
 10
3.079687401574802
 20
8.034749385918232
 30
0.0
 11
3.527216338582676
 21
8.034749385918232
 31
0.0
  0
POLYLINE
  5
314
330
1E
100
AcDbEntity
  8
0
100
AcDb2dPolyline
 66
     1
 10
0.0
 20
0.0
 30
0.0
  0
VERTEX
  5
725
330
314
100
AcDbEntity
  8
0
100
AcDbVertex
100
AcDb2dVertex
 10
3.540340354330708
 20
7.97569131505209
 30
0.0
  0
VERTEX
  5
726
330
314
100
AcDbEntity
  8
0
100
AcDbVertex
100
AcDb2dVertex
 10
3.540340354330708
 20
7.967816905603273
 30
0.0
  0
VERTEX
  5
727
330
314
100
AcDbEntity
  8
0
100
AcDbVertex
100
AcDb2dVertex
 10
3.540340354330708
 20
7.949443283556027
 30
0.0
  0
VERTEX
  5
728
330
314
100
AcDbEntity
  8
0
100
AcDbVertex
100
AcDb2dVertex
 10
3.540340354330708
 20
7.921882850485161
 30
0.0
  0
VERTEX
  5
729
330
314
100
AcDbEntity
  8
0
100
AcDbVertex
100
AcDb2dVertex
 10
3.540340354330708
 20
7.887760409540279
 30
0.0
  0
VERTEX
  5
72A
330
314
100
AcDbEntity
  8
0
100
AcDbVertex
100
AcDb2dVertex
 10
3.540340354330708
 20
7.851013165445792
 30
0.0
  0
SEQEND
  5
72B
330
314
100
AcDbEntity
  8
0
  0
LINE
  5
31C
330
1E
100
AcDbEntity
  8
0
100
AcDbLine
 10
0.4128874015748037
 20
7.97569131505209
 30
0.0
 11
3.540340354330708
 21
7.97569131505209
 31
0.0
  0
POLYLINE
  5
31D
330
1E
100
AcDbEntity
  8
0
100
AcDb2dPolyline
 66
     1
 10
0.0
 20
0.0
 30
0.0
  0
VERTEX
  5
72C
330
31D
100
AcDbEntity
  8
0
100
AcDbVertex
100
AcDb2dVertex
 10
0.4128874015748032
 20
7.97569131505209
 30
0.0
  0
VERTEX
  5
72D
330
31D
100
AcDbEntity
  8
0
100
AcDbVertex
100
AcDb2dVertex
 10
0.4128874015748032
 20
7.967816905603273
 30
0.0
  0
VERTEX
  5
72E
330
31D
100
AcDbEntity
  8
0
100
AcDbVertex
100
AcDb2dVertex
 10
0.4128874015748032
 20
7.949443283556027
 30
0.0
  0
VERTEX
  5
72F
330
31D
100
AcDbEntity
  8
0
100
AcDbVertex
100
AcDb2dVertex
 10
0.4128874015748032
 20
7.921882850485161
 30
0.0
  0
VERTEX
  5
730
330
31D
100
AcDbEntity
  8
0
100
AcDbVertex
100
AcDb2dVertex
 10
0.4128874015748032
 20
7.887760409540279
 30
0.0
  0
VERTEX
  5
731
330
31D
100
AcDbEntity
  8
0
100
AcDbVertex
100
AcDb2dVertex
 10
0.4128874015748032
 20
7.851013165445792
 30
0.0
  0
SEQEND
  5
732
330
31D
100
AcDbEntity
  8
0
  0
LINE
  5
325
330
1E
100
AcDbEntity
  8
0
100
AcDbLine
 10
3.540340354330708
 20
7.97569131505209
 30
0.0
 11
3.605960433070866
 21
8.041311393792248
 31
0.0
  0
LINE
  5
326
330
1E
100
AcDbEntity
  8
0
100
AcDbLine
 10
3.52852874015748
 20
8.041311393792248
 30
0.0
 11
3.527216338582676
 21
8.034749385918232
 31
0.0
  0
LINE
  5
327
330
1E
100
AcDbEntity
  8
0
100
AcDbLine
 10
3.078374999999999
 20
8.041311393792248
 30
0.0
 11
3.079687401574802
 21
8.034749385918232
 31
0.0
  0
LINE
  5
328
330
1E
100
AcDbEntity
  8
0
100
AcDbLine
 10
3.078374999999999
 20
8.041311393792248
 30
0.0
 11
0.8735403543307086
 21
8.041311393792248
 31
0.0
  0
LINE
  5
329
330
1E
100
AcDbEntity
  8
0
100
AcDbLine
 10
0.8735403543307086
 20
8.041311393792248
 30
0.0
 11
0.8722279527559058
 21
8.034749385918232
 31
0.0
  0
LINE
  5
32A
330
1E
100
AcDbEntity
  8
0
100
AcDbLine
 10
0.8722279527559058
 20
8.034749385918232
 30
0.0
 11
0.4246990157480317
 21
8.034749385918232
 31
0.0
  0
LINE
  5
32B
330
1E
100
AcDbEntity
  8
0
100
AcDbLine
 10
0.423386614173229
 20
8.041311393792248
 30
0.0
 11
0.4246990157480317
 21
8.034749385918232
 31
0.0
  0
LINE
  5
32C
330
1E
100
AcDbEntity
  8
0
100
AcDbLine
 10
0.3459549212598429
 20
8.041311393792248
 30
0.0
 11
0.4128874015748037
 21
7.97569131505209
 31
0.0
  0
LINE
  5
32D
330
1E
100
AcDbEntity
  8
0
100
AcDbLine
 10
1.655731692913386
 20
6.999264543398547
 30
0.0
 11
1.655731692913386
 21
6.948080881981224
 31
0.0
  0
LINE
  5
32E
330
1E
100
AcDbEntity
  8
0
100
AcDbLine
 10
1.655731692913386
 20
6.999264543398547
 30
0.0
 11
1.654419291338582
 21
6.999264543398547
 31
0.0
  0
LINE
  5
32F
330
1E
100
AcDbEntity
  8
0
100
AcDbLine
 10
1.655731692913386
 20
6.948080881981224
 30
0.0
 11
1.654419291338582
 21
6.948080881981224
 31
0.0
  0
LINE
  5
330
330
1E
100
AcDbEntity
  8
0
100
AcDbLine
 10
1.655731692913386
 20
6.948080881981224
 30
0.0
 11
1.630796062992125
 21
6.948080881981224
 31
0.0
  0
LINE
  5
331
330
1E
100
AcDbEntity
  8
0
100
AcDbLine
 10
1.630796062992125
 20
6.948080881981224
 30
0.0
 11
1.629483661417323
 21
6.948080881981224
 31
0.0
  0
LINE
  5
332
330
1E
100
AcDbEntity
  8
0
100
AcDbLine
 10
1.630796062992125
 20
6.807653913477287
 30
0.0
 11
1.655731692913386
 21
6.807653913477287
 31
0.0
  0
LINE
  5
333
330
1E
100
AcDbEntity
  8
0
100
AcDbLine
 10
1.630796062992125
 20
6.807653913477287
 30
0.0
 11
1.629483661417323
 21
6.806341511902484
 31
0.0
  0
LINE
  5
334
330
1E
100
AcDbEntity
  8
0
100
AcDbLine
 10
1.655731692913386
 20
6.807653913477287
 30
0.0
 11
1.654419291338582
 21
6.806341511902484
 31
0.0
  0
LINE
  5
335
330
1E
100
AcDbEntity
  8
0
100
AcDbLine
 10
1.655731692913386
 20
6.807653913477287
 30
0.0
 11
1.655731692913386
 21
6.755157850485161
 31
0.0
  0
LINE
  5
336
330
1E
100
AcDbEntity
  8
0
100
AcDbLine
 10
1.655731692913386
 20
6.755157850485161
 30
0.0
 11
1.654419291338582
 21
6.755157850485161
 31
0.0
  0
LINE
  5
337
330
1E
100
AcDbEntity
  8
0
100
AcDbLine
 10
1.630796062992125
 20
6.810278716626893
 30
0.0
 11
1.630796062992125
 21
6.807653913477287
 31
0.0
  0
LINE
  5
338
330
1E
100
AcDbEntity
  8
0
100
AcDbLine
 10
1.630796062992125
 20
6.945456078831617
 30
0.0
 11
1.630796062992125
 21
6.810278716626893
 31
0.0
  0
LINE
  5
339
330
1E
100
AcDbEntity
  8
0
100
AcDbLine
 10
1.630796062992125
 20
6.945456078831617
 30
0.0
 11
1.630796062992125
 21
6.948080881981224
 31
0.0
  0
CIRCLE
  5
33A
330
1E
100
AcDbEntity
  8
0
100
AcDbCircle
 10
1.975957677165354
 20
6.877867397729255
 30
0.0
 40
0.1168055834035752
  0
LINE
  5
33B
330
1E
100
AcDbEntity
  8
0
100
AcDbLine
 10
1.657044094488188
 20
6.756470252059964
 30
0.0
 11
2.294871259842519
 21
6.756470252059964
 31
0.0
  0
LINE
  5
33C
330
1E
100
AcDbEntity
  8
0
100
AcDbLine
 10
2.294871259842519
 20
6.756470252059964
 30
0.0
 11
2.294871259842519
 21
6.810278716626893
 31
0.0
  0
LINE
  5
33D
330
1E
100
AcDbEntity
  8
0
100
AcDbLine
 10
2.294871259842519
 20
6.810278716626893
 30
0.0
 11
2.321119291338582
 21
6.810278716626893
 31
0.0
  0
LINE
  5
33E
330
1E
100
AcDbEntity
  8
0
100
AcDbLine
 10
2.321119291338582
 20
6.810278716626893
 30
0.0
 11
2.321119291338582
 21
6.945456078831617
 31
0.0
  0
LINE
  5
33F
330
1E
100
AcDbEntity
  8
0
100
AcDbLine
 10
2.321119291338582
 20
6.945456078831617
 30
0.0
 11
2.294871259842519
 21
6.945456078831617
 31
0.0
  0
LINE
  5
340
330
1E
100
AcDbEntity
  8
0
100
AcDbLine
 10
2.294871259842519
 20
6.945456078831617
 30
0.0
 11
2.294871259842519
 21
6.997952141823743
 31
0.0
  0
LINE
  5
341
330
1E
100
AcDbEntity
  8
0
100
AcDbLine
 10
2.294871259842519
 20
6.997952141823743
 30
0.0
 11
1.657044094488188
 21
6.997952141823743
 31
0.0
  0
LINE
  5
342
330
1E
100
AcDbEntity
  8
0
100
AcDbLine
 10
1.657044094488188
 20
6.997952141823743
 30
0.0
 11
1.657044094488188
 21
6.945456078831617
 31
0.0
  0
LINE
  5
343
330
1E
100
AcDbEntity
  8
0
100
AcDbLine
 10
1.657044094488188
 20
6.945456078831617
 30
0.0
 11
1.630796062992125
 21
6.945456078831617
 31
0.0
  0
LINE
  5
344
330
1E
100
AcDbEntity
  8
0
100
AcDbLine
 10
1.630796062992125
 20
6.810278716626893
 30
0.0
 11
1.657044094488188
 21
6.810278716626893
 31
0.0
  0
LINE
  5
345
330
1E
100
AcDbEntity
  8
0
100
AcDbLine
 10
1.657044094488188
 20
6.810278716626893
 30
0.0
 11
1.657044094488188
 21
6.756470252059964
 31
0.0
  0
LINE
  5
346
330
1E
100
AcDbEntity
  8
0
100
AcDbLine
 10
1.657044094488188
 20
6.997952141823743
 30
0.0
 11
1.655731692913386
 21
6.999264543398547
 31
0.0
  0
LINE
  5
347
330
1E
100
AcDbEntity
  8
0
100
AcDbLine
 10
2.294871259842519
 20
6.997952141823743
 30
0.0
 11
2.297496062992125
 21
6.999264543398547
 31
0.0
  0
LINE
  5
348
330
1E
100
AcDbEntity
  8
0
100
AcDbLine
 10
2.297496062992125
 20
6.999264543398547
 30
0.0
 11
2.298808464566929
 21
6.999264543398547
 31
0.0
  0
LINE
  5
349
330
1E
100
AcDbEntity
  8
0
100
AcDbLine
 10
1.657044094488188
 20
6.756470252059964
 30
0.0
 11
1.655731692913386
 21
6.755157850485161
 31
0.0
  0
CIRCLE
  5
34A
330
1E
100
AcDbEntity
  8
0
100
AcDbCircle
 10
1.975957677165354
 20
6.877211196941853
 30
0.0
 40
0.1154913385826771
  0
LINE
  5
34B
330
1E
100
AcDbEntity
  8
0
100
AcDbLine
 10
2.297496062992125
 20
6.755157850485161
 30
0.0
 11
2.298808464566929
 21
6.755157850485161
 31
0.0
  0
LINE
  5
34C
330
1E
100
AcDbEntity
  8
0
100
AcDbLine
 10
2.294871259842519
 20
6.756470252059964
 30
0.0
 11
2.297496062992125
 21
6.755157850485161
 31
0.0
  0
POLYLINE
  5
34D
330
1E
100
AcDbEntity
  8
0
100
AcDb2dPolyline
 66
     1
 10
0.0
 20
0.0
 30
0.0
  0
VERTEX
  5
733
330
34D
100
AcDbEntity
  8
0
100
AcDbVertex
100
AcDb2dVertex
 10
1.901150787401574
 20
6.877211196941853
 30
0.0
  0
VERTEX
  5
734
330
34D
100
AcDbEntity
  8
0
100
AcDbVertex
100
AcDb2dVertex
 10
1.906400393700787
 20
6.906084031587523
 30
0.0
  0
VERTEX
  5
735
330
34D
100
AcDbEntity
  8
0
100
AcDbVertex
100
AcDb2dVertex
 10
1.923461614173228
 20
6.931019661508782
 30
0.0
  0
VERTEX
  5
736
330
34D
100
AcDbEntity
  8
0
100
AcDbVertex
100
AcDb2dVertex
 10
1.947084842519685
 20
6.946768480406422
 30
0.0
  0
VERTEX
  5
737
330
34D
100
AcDbEntity
  8
0
100
AcDbVertex
100
AcDb2dVertex
 10
1.975957677165354
 20
6.952018086705635
 30
0.0
  0
VERTEX
  5
738
330
34D
100
AcDbEntity
  8
0
100
AcDbVertex
100
AcDb2dVertex
 10
2.004830511811023
 20
6.946768480406422
 30
0.0
  0
VERTEX
  5
739
330
34D
100
AcDbEntity
  8
0
100
AcDbVertex
100
AcDb2dVertex
 10
2.029766141732283
 20
6.931019661508782
 30
0.0
  0
VERTEX
  5
73A
330
34D
100
AcDbEntity
  8
0
100
AcDbVertex
100
AcDb2dVertex
 10
2.045514960629921
 20
6.906084031587523
 30
0.0
  0
VERTEX
  5
73B
330
34D
100
AcDbEntity
  8
0
100
AcDbVertex
100
AcDb2dVertex
 10
2.050764566929133
 20
6.877211196941853
 30
0.0
  0
VERTEX
  5
73C
330
34D
100
AcDbEntity
  8
0
100
AcDbVertex
100
AcDb2dVertex
 10
2.045514960629921
 20
6.848338362296185
 30
0.0
  0
VERTEX
  5
73D
330
34D
100
AcDbEntity
  8
0
100
AcDbVertex
100
AcDb2dVertex
 10
2.029766141732283
 20
6.824715133949728
 30
0.0
  0
VERTEX
  5
73E
330
34D
100
AcDbEntity
  8
0
100
AcDbVertex
100
AcDb2dVertex
 10
2.004830511811023
 20
6.807653913477288
 30
0.0
  0
VERTEX
  5
73F
330
34D
100
AcDbEntity
  8
0
100
AcDbVertex
100
AcDb2dVertex
 10
1.975957677165354
 20
6.802404307178075
 30
0.0
  0
VERTEX
  5
740
330
34D
100
AcDbEntity
  8
0
100
AcDbVertex
100
AcDb2dVertex
 10
1.947084842519685
 20
6.807653913477288
 30
0.0
  0
VERTEX
  5
741
330
34D
100
AcDbEntity
  8
0
100
AcDbVertex
100
AcDb2dVertex
 10
1.923461614173228
 20
6.824715133949728
 30
0.0
  0
VERTEX
  5
742
330
34D
100
AcDbEntity
  8
0
100
AcDbVertex
100
AcDb2dVertex
 10
1.906400393700787
 20
6.848338362296185
 30
0.0
  0
VERTEX
  5
743
330
34D
100
AcDbEntity
  8
0
100
AcDbVertex
100
AcDb2dVertex
 10
1.901150787401574
 20
6.877211196941853
 30
0.0
  0
SEQEND
  5
744
330
34D
100
AcDbEntity
  8
0
  0
CIRCLE
  5
360
330
1E
100
AcDbEntity
  8
0
100
AcDbCircle
 10
1.976613877952756
 20
6.877211196941853
 30
0.0
 40
0.1043359251968504
  0
POLYLINE
  5
361
330
1E
100
AcDbEntity
  8
0
100
AcDb2dPolyline
 66
     1
 10
0.0
 20
0.0
 30
0.0
  0
VERTEX
  5
745
330
361
100
AcDbEntity
  8
0
100
AcDbVertex
100
AcDb2dVertex
 10
2.046827362204724
 20
6.877211196941853
 30
0.0
  0
VERTEX
  5
746
330
361
100
AcDbEntity
  8
0
100
AcDbVertex
100
AcDb2dVertex
 10
2.041577755905511
 20
6.904771630012719
 30
0.0
  0
VERTEX
  5
747
330
361
100
AcDbEntity
  8
0
100
AcDbVertex
100
AcDb2dVertex
 10
2.025828937007874
 20
6.928394858359178
 30
0.0
  0
VERTEX
  5
748
330
361
100
AcDbEntity
  8
0
100
AcDbVertex
100
AcDb2dVertex
 10
2.00351811023622
 20
6.942831275682012
 30
0.0
  0
VERTEX
  5
749
330
361
100
AcDbEntity
  8
0
100
AcDbVertex
100
AcDb2dVertex
 10
1.975957677165354
 20
6.948080881981224
 30
0.0
  0
VERTEX
  5
74A
330
361
100
AcDbEntity
  8
0
100
AcDbVertex
100
AcDb2dVertex
 10
1.948397244094488
 20
6.942831275682012
 30
0.0
  0
VERTEX
  5
74B
330
361
100
AcDbEntity
  8
0
100
AcDbVertex
100
AcDb2dVertex
 10
1.926086417322835
 20
6.928394858359178
 30
0.0
  0
VERTEX
  5
74C
330
361
100
AcDbEntity
  8
0
100
AcDbVertex
100
AcDb2dVertex
 10
1.910337598425196
 20
6.904771630012719
 30
0.0
  0
VERTEX
  5
74D
330
361
100
AcDbEntity
  8
0
100
AcDbVertex
100
AcDb2dVertex
 10
1.905087992125984
 20
6.877211196941853
 30
0.0
  0
VERTEX
  5
74E
330
361
100
AcDbEntity
  8
0
100
AcDbVertex
100
AcDb2dVertex
 10
1.910337598425196
 20
6.850963165445792
 30
0.0
  0
VERTEX
  5
74F
330
361
100
AcDbEntity
  8
0
100
AcDbVertex
100
AcDb2dVertex
 10
1.926086417322835
 20
6.827339937099335
 30
0.0
  0
VERTEX
  5
750
330
361
100
AcDbEntity
  8
0
100
AcDbVertex
100
AcDb2dVertex
 10
1.948397244094488
 20
6.811591118201697
 30
0.0
  0
VERTEX
  5
751
330
361
100
AcDbEntity
  8
0
100
AcDbVertex
100
AcDb2dVertex
 10
1.975957677165354
 20
6.806341511902484
 30
0.0
  0
VERTEX
  5
752
330
361
100
AcDbEntity
  8
0
100
AcDbVertex
100
AcDb2dVertex
 10
2.00351811023622
 20
6.811591118201697
 30
0.0
  0
VERTEX
  5
753
330
361
100
AcDbEntity
  8
0
100
AcDbVertex
100
AcDb2dVertex
 10
2.025828937007874
 20
6.827339937099335
 30
0.0
  0
VERTEX
  5
754
330
361
100
AcDbEntity
  8
0
100
AcDbVertex
100
AcDb2dVertex
 10
2.041577755905511
 20
6.850963165445792
 30
0.0
  0
VERTEX
  5
755
330
361
100
AcDbEntity
  8
0
100
AcDbVertex
100
AcDb2dVertex
 10
2.046827362204724
 20
6.877211196941853
 30
0.0
  0
SEQEND
  5
756
330
361
100
AcDbEntity
  8
0
  0
LINE
  5
374
330
1E
100
AcDbEntity
  8
0
100
AcDbLine
 10
2.297496062992125
 20
6.807653913477287
 30
0.0
 11
2.297496062992125
 21
6.755157850485161
 31
0.0
  0
LINE
  5
375
330
1E
100
AcDbEntity
  8
0
100
AcDbLine
 10
2.322431692913386
 20
6.807653913477287
 30
0.0
 11
2.297496062992125
 21
6.807653913477287
 31
0.0
  0
LINE
  5
376
330
1E
100
AcDbEntity
  8
0
100
AcDbLine
 10
2.297496062992125
 20
6.948080881981224
 30
0.0
 11
2.297496062992125
 21
6.999264543398547
 31
0.0
  0
LINE
  5
377
330
1E
100
AcDbEntity
  8
0
100
AcDbLine
 10
2.322431692913386
 20
6.948080881981224
 30
0.0
 11
2.297496062992125
 21
6.948080881981224
 31
0.0
  0
LINE
  5
378
330
1E
100
AcDbEntity
  8
0
100
AcDbLine
 10
2.322431692913386
 20
6.807653913477287
 30
0.0
 11
2.322431692913386
 21
6.806341511902484
 31
0.0
  0
LINE
  5
379
330
1E
100
AcDbEntity
  8
0
100
AcDbLine
 10
2.297496062992125
 20
6.807653913477287
 30
0.0
 11
2.298808464566929
 21
6.806341511902484
 31
0.0
  0
LINE
  5
37A
330
1E
100
AcDbEntity
  8
0
100
AcDbLine
 10
2.322431692913386
 20
6.948080881981224
 30
0.0
 11
2.322431692913386
 21
6.948080881981224
 31
0.0
  0
LINE
  5
37B
330
1E
100
AcDbEntity
  8
0
100
AcDbLine
 10
2.297496062992125
 20
6.948080881981224
 30
0.0
 11
2.298808464566929
 21
6.948080881981224
 31
0.0
  0
LINE
  5
37C
330
1E
100
AcDbEntity
  8
0
100
AcDbLine
 10
2.321119291338582
 20
6.945456078831617
 30
0.0
 11
2.322431692913386
 21
6.948080881981224
 31
0.0
  0
LINE
  5
37D
330
1E
100
AcDbEntity
  8
0
100
AcDbLine
 10
2.321119291338582
 20
6.810278716626893
 30
0.0
 11
2.322431692913386
 21
6.807653913477287
 31
0.0
  0
POLYLINE
  5
37E
330
1E
100
AcDbEntity
  8
0
100
AcDb2dPolyline
 66
     1
 10
0.0
 20
0.0
 30
0.0
  0
VERTEX
  5
757
330
37E
100
AcDbEntity
  8
0
100
AcDbVertex
100
AcDb2dVertex
 10
3.540340354330708
 20
7.97569131505209
 30
0.0
  0
VERTEX
  5
758
330
37E
100
AcDbEntity
  8
0
100
AcDbVertex
100
AcDb2dVertex
 10
3.587586811023621
 20
7.970441708752877
 30
0.0
  0
VERTEX
  5
759
330
37E
100
AcDbEntity
  8
0
100
AcDbVertex
100
AcDb2dVertex
 10
3.632208464566929
 20
7.954692889855239
 30
0.0
  0
VERTEX
  5
75A
330
37E
100
AcDbEntity
  8
0
100
AcDbVertex
100
AcDb2dVertex
 10
3.672892913385826
 20
7.928444858359178
 30
0.0
  0
VERTEX
  5
75B
330
37E
100
AcDbEntity
  8
0
100
AcDbVertex
100
AcDb2dVertex
 10
3.707015354330708
 20
7.894322417414295
 30
0.0
  0
VERTEX
  5
75C
330
37E
100
AcDbEntity
  8
0
100
AcDbVertex
100
AcDb2dVertex
 10
3.733263385826771
 20
7.853637968595398
 30
0.0
  0
VERTEX
  5
75D
330
37E
100
AcDbEntity
  8
0
100
AcDbVertex
100
AcDb2dVertex
 10
3.749012204724409
 20
7.80901631505209
 30
0.0
  0
VERTEX
  5
75E
330
37E
100
AcDbEntity
  8
0
100
AcDbVertex
100
AcDb2dVertex
 10
3.754261811023621
 20
7.761769858359176
 30
0.0
  0
SEQEND
  5
75F
330
37E
100
AcDbEntity
  8
0
  0
POLYLINE
  5
388
330
1E
100
AcDbEntity
  8
0
100
AcDb2dPolyline
 66
     1
 10
0.0
 20
0.0
 30
0.0
  0
VERTEX
  5
760
330
388
100
AcDbEntity
  8
0
100
AcDbVertex
100
AcDb2dVertex
 10
0.1976535433070867
 20
7.761769858359176
 30
0.0
  0
VERTEX
  5
761
330
388
100
AcDbEntity
  8
0
100
AcDbVertex
100
AcDb2dVertex
 10
0.2029031496062994
 20
7.80901631505209
 30
0.0
  0
VERTEX
  5
762
330
388
100
AcDbEntity
  8
0
100
AcDbVertex
100
AcDb2dVertex
 10
0.2199643700787404
 20
7.853637968595398
 30
0.0
  0
VERTEX
  5
763
330
388
100
AcDbEntity
  8
0
100
AcDbVertex
100
AcDb2dVertex
 10
0.2449000000000001
 20
7.894322417414295
 30
0.0
  0
VERTEX
  5
764
330
388
100
AcDbEntity
  8
0
100
AcDbVertex
100
AcDb2dVertex
 10
0.279022440944882
 20
7.928444858359178
 30
0.0
  0
VERTEX
  5
765
330
388
100
AcDbEntity
  8
0
100
AcDbVertex
100
AcDb2dVertex
 10
0.3197068897637796
 20
7.954692889855239
 30
0.0
  0
VERTEX
  5
766
330
388
100
AcDbEntity
  8
0
100
AcDbVertex
100
AcDb2dVertex
 10
0.3643285433070869
 20
7.970441708752877
 30
0.0
  0
VERTEX
  5
767
330
388
100
AcDbEntity
  8
0
100
AcDbVertex
100
AcDb2dVertex
 10
0.4128874015748032
 20
7.97569131505209
 30
0.0
  0
SEQEND
  5
768
330
388
100
AcDbEntity
  8
0
  0
LINE
  5
392
330
1E
100
AcDbEntity
  8
0
100
AcDbLine
 10
1.83684311023622
 20
2.745771039461539
 30
0.0
 11
1.839467913385826
 21
2.67096414969776
 31
0.0
  0
LINE
  5
393
330
1E
100
AcDbEntity
  8
0
100
AcDbLine
 10
2.112447440944881
 20
2.67096414969776
 30
0.0
 11
2.115072244094488
 21
2.745771039461539
 31
0.0
  0
LINE
  5
394
330
1E
100
AcDbEntity
  8
0
100
AcDbLine
 10
2.134758267716535
 20
2.345488559146578
 30
0.0
 11
2.129508661417323
 21
2.661777338674138
 31
0.0
  0
LINE
  5
395
330
1E
100
AcDbEntity
  8
0
100
AcDbLine
 10
1.823719094488188
 20
2.661777338674138
 30
0.0
 11
1.817157086614173
 21
2.345488559146578
 31
0.0
  0
LINE
  5
396
330
1E
100
AcDbEntity
  8
0
100
AcDbLine
 10
2.252874409448819
 20
2.300866905603272
 30
0.0
 11
2.213502362204724
 21
2.300866905603272
 31
0.0
  0
LINE
  5
397
330
1E
100
AcDbEntity
  8
0
100
AcDbLine
 10
2.334243307086613
 20
2.300866905603272
 30
0.0
 11
2.373615354330708
 21
2.300866905603272
 31
0.0
  0
LINE
  5
398
330
1E
100
AcDbEntity
  8
0
100
AcDbLine
 10
1.697728543307086
 20
2.300866905603272
 30
0.0
 11
1.738412992125983
 21
2.300866905603272
 31
0.0
  0
LINE
  5
399
330
1E
100
AcDbEntity
  8
0
100
AcDbLine
 10
2.373615354330708
 20
2.300866905603272
 30
0.0
 11
2.334243307086613
 21
2.300866905603272
 31
0.0
  0
LINE
  5
39A
330
1E
100
AcDbEntity
  8
0
100
AcDbLine
 10
2.373615354330708
 20
2.300866905603272
 30
0.0
 11
2.373615354330708
 21
2.300866905603272
 31
0.0
  0
LINE
  5
39B
330
1E
100
AcDbEntity
  8
0
100
AcDbLine
 10
2.334243307086613
 20
2.300866905603272
 30
0.0
 11
2.373615354330708
 21
2.300866905603272
 31
0.0
  0
LINE
  5
39C
330
1E
100
AcDbEntity
  8
0
100
AcDbLine
 10
2.945822440944881
 20
2.300866905603272
 30
0.0
 11
2.945822440944881
 21
2.300866905603272
 31
0.0
  0
LINE
  5
39D
330
1E
100
AcDbEntity
  8
0
100
AcDbLine
 10
0.9982185039370076
 20
2.300866905603272
 30
0.0
 11
1.048089763779528
 21
2.300866905603272
 31
0.0
  0
LINE
  5
39E
330
1E
100
AcDbEntity
  8
0
100
AcDbLine
 10
1.616359645669291
 20
2.300866905603272
 30
0.0
 11
1.697728543307086
 21
2.300866905603272
 31
0.0
  0
LINE
  5
39F
330
1E
100
AcDbEntity
  8
0
100
AcDbLine
 10
1.023154133858267
 20
2.300866905603272
 30
0.0
 11
1.023154133858267
 21
2.300866905603272
 31
0.0
  0
LINE
  5
3A0
330
1E
100
AcDbEntity
  8
0
100
AcDbLine
 10
2.826393897637795
 20
2.300866905603272
 30
0.0
 11
2.945822440944881
 21
2.300866905603272
 31
0.0
  0
LINE
  5
3A1
330
1E
100
AcDbEntity
  8
0
100
AcDbLine
 10
2.334243307086613
 20
2.300866905603272
 30
0.0
 11
2.252874409448819
 21
2.300866905603272
 31
0.0
  0
LINE
  5
3A2
330
1E
100
AcDbEntity
  8
0
100
AcDbLine
 10
2.252874409448819
 20
2.300866905603272
 30
0.0
 11
2.334243307086613
 21
2.300866905603272
 31
0.0
  0
LINE
  5
3A3
330
1E
100
AcDbEntity
  8
0
100
AcDbLine
 10
2.373615354330708
 20
2.300866905603272
 30
0.0
 11
2.373615354330708
 21
2.300866905603272
 31
0.0
  0
LINE
  5
3A4
330
1E
100
AcDbEntity
  8
0
100
AcDbLine
 10
2.21612716535433
 20
2.300866905603272
 30
0.0
 11
2.252874409448819
 21
2.300866905603272
 31
0.0
  0
LINE
  5
3A5
330
1E
100
AcDbEntity
  8
0
100
AcDbLine
 10
1.579612401574802
 20
2.300866905603272
 30
0.0
 11
1.616359645669291
 21
2.300866905603272
 31
0.0
  0
LINE
  5
3A6
330
1E
100
AcDbEntity
  8
0
100
AcDbLine
 10
2.985194488188976
 20
2.300866905603272
 30
0.0
 11
2.826393897637795
 21
2.300866905603272
 31
0.0
  0
LINE
  5
3A7
330
1E
100
AcDbEntity
  8
0
100
AcDbLine
 10
1.576987598425196
 20
2.300866905603272
 30
0.0
 11
1.579612401574802
 21
2.300866905603272
 31
0.0
  0
LINE
  5
3A8
330
1E
100
AcDbEntity
  8
0
100
AcDbLine
 10
2.373615354330708
 20
2.300866905603272
 30
0.0
 11
2.334243307086613
 21
2.300866905603272
 31
0.0
  0
LINE
  5
3A9
330
1E
100
AcDbEntity
  8
0
100
AcDbLine
 10
1.738412992125983
 20
2.300866905603272
 30
0.0
 11
1.576987598425196
 21
2.300866905603272
 31
0.0
  0
LINE
  5
3AA
330
1E
100
AcDbEntity
  8
0
100
AcDbLine
 10
2.334243307086613
 20
2.300866905603272
 30
0.0
 11
2.273872834645669
 21
2.300866905603272
 31
0.0
  0
LINE
  5
3AB
330
1E
100
AcDbEntity
  8
0
100
AcDbLine
 10
1.579612401574802
 20
2.300866905603272
 30
0.0
 11
1.738412992125983
 21
2.300866905603272
 31
0.0
  0
LINE
  5
3AC
330
1E
100
AcDbEntity
  8
0
100
AcDbLine
 10
1.00740531496063
 20
2.300866905603272
 30
0.0
 11
1.023154133858267
 21
2.300866905603272
 31
0.0
  0
LINE
  5
3AD
330
1E
100
AcDbEntity
  8
0
100
AcDbLine
 10
1.738412992125983
 20
2.300866905603272
 30
0.0
 11
1.738412992125983
 21
2.300866905603272
 31
0.0
  0
LINE
  5
3AE
330
1E
100
AcDbEntity
  8
0
100
AcDbLine
 10
3.518029527559055
 20
1.97539131505209
 30
0.0
 11
3.523279133858267
 21
1.97539131505209
 31
0.0
  0
LINE
  5
3AF
330
1E
100
AcDbEntity
  8
0
100
AcDbLine
 10
3.518029527559055
 20
1.97539131505209
 30
0.0
 11
0.4338858267716539
 21
1.97539131505209
 31
0.0
  0
LINE
  5
3B0
330
1E
100
AcDbEntity
  8
0
100
AcDbLine
 10
0.4338858267716539
 20
1.97539131505209
 30
0.0
 11
0.4286362204724412
 21
1.97539131505209
 31
0.0
  0
LINE
  5
3B1
330
1E
100
AcDbEntity
  8
0
100
AcDbLine
 10
0.7134273622047247
 20
2.300866905603272
 30
0.0
 11
0.742300196850394
 21
2.300866905603272
 31
0.0
  0
LINE
  5
3B2
330
1E
100
AcDbEntity
  8
0
100
AcDbLine
 10
1.304008070866141
 20
2.300866905603272
 30
0.0
 11
1.377502559055118
 21
2.300866905603272
 31
0.0
  0
LINE
  5
3B3
330
1E
100
AcDbEntity
  8
0
100
AcDbLine
 10
1.939210433070866
 20
2.300866905603272
 30
0.0
 11
2.012704921259842
 21
2.300866905603272
 31
0.0
  0
LINE
  5
3B4
330
1E
100
AcDbEntity
  8
0
100
AcDbLine
 10
2.574412795275589
 20
2.300866905603272
 30
0.0
 11
2.647907283464567
 21
2.300866905603272
 31
0.0
  0
LINE
  5
3B5
330
1E
100
AcDbEntity
  8
0
100
AcDbLine
 10
3.209615157480314
 20
2.300866905603272
 30
0.0
 11
3.238487992125984
 21
2.300866905603272
 31
0.0
  0
LINE
  5
3B6
330
1E
100
AcDbEntity
  8
0
100
AcDbLine
 10
3.515404724409449
 20
2.064634622138704
 30
0.0
 11
3.520654330708661
 21
2.064634622138704
 31
0.0
  0
LINE
  5
3B7
330
1E
100
AcDbEntity
  8
0
100
AcDbLine
 10
0.437823031496063
 20
2.064634622138704
 30
0.0
 11
0.4312610236220471
 21
2.064634622138704
 31
0.0
  0
LINE
  5
3B8
330
1E
100
AcDbEntity
  8
0
100
AcDbLine
 10
3.518029527559055
 20
1.97539131505209
 30
0.0
 11
3.487844291338582
 21
2.859949976469413
 31
0.0
  0
LINE
  5
3B9
330
1E
100
AcDbEntity
  8
0
100
AcDbLine
 10
0.4338858267716539
 20
1.97539131505209
 30
0.0
 11
0.4653834645669295
 21
2.859949976469413
 31
0.0
  0
LINE
  5
3BA
330
1E
100
AcDbEntity
  8
0
100
AcDbLine
 10
3.243737598425196
 20
2.859949976469413
 30
0.0
 11
3.487844291338582
 21
2.859949976469413
 31
0.0
  0
LINE
  5
3BB
330
1E
100
AcDbEntity
  8
0
100
AcDbLine
 10
3.238487992125984
 20
2.285118086705633
 30
0.0
 11
3.243737598425196
 21
2.859949976469413
 31
0.0
  0
POLYLINE
  5
3BC
330
1E
100
AcDbEntity
  8
0
100
AcDb2dPolyline
 66
     1
 10
0.0
 20
0.0
 30
0.0
  0
VERTEX
  5
769
330
3BC
100
AcDbEntity
  8
0
100
AcDbVertex
100
AcDb2dVertex
 10
3.238487992125984
 20
2.285118086705633
 30
0.0
  0
VERTEX
  5
76A
330
3BC
100
AcDbEntity
  8
0
100
AcDbVertex
100
AcDb2dVertex
 10
3.231925984251968
 20
2.2706816693828
 30
0.0
  0
VERTEX
  5
76B
330
3BC
100
AcDbEntity
  8
0
100
AcDbVertex
100
AcDb2dVertex
 10
3.218801968503936
 20
2.265432063083587
 30
0.0
  0
SEQEND
  5
76C
330
3BC
100
AcDbEntity
  8
0
  0
LINE
  5
3C1
330
1E
100
AcDbEntity
  8
0
100
AcDbLine
 10
0.734425787401575
 20
2.265432063083586
 30
0.0
 11
3.218801968503937
 21
2.265432063083586
 31
0.0
  0
POLYLINE
  5
3C2
330
1E
100
AcDbEntity
  8
0
100
AcDb2dPolyline
 66
     1
 10
0.0
 20
0.0
 30
0.0
  0
VERTEX
  5
76D
330
3C2
100
AcDbEntity
  8
0
100
AcDbVertex
100
AcDb2dVertex
 10
0.734425787401575
 20
2.265432063083587
 30
0.0
  0
VERTEX
  5
76E
330
3C2
100
AcDbEntity
  8
0
100
AcDbVertex
100
AcDb2dVertex
 10
0.7199893700787403
 20
2.2706816693828
 30
0.0
  0
VERTEX
  5
76F
330
3C2
100
AcDbEntity
  8
0
100
AcDbVertex
100
AcDb2dVertex
 10
0.7134273622047245
 20
2.285118086705633
 30
0.0
  0
SEQEND
  5
770
330
3C2
100
AcDbEntity
  8
0
  0
LINE
  5
3C7
330
1E
100
AcDbEntity
  8
0
100
AcDbLine
 10
0.7094901574803157
 20
2.859949976469413
 30
0.0
 11
0.7134273622047247
 21
2.285118086705633
 31
0.0
  0
LINE
  5
3C8
330
1E
100
AcDbEntity
  8
0
100
AcDbLine
 10
0.4653834645669295
 20
2.859949976469413
 30
0.0
 11
0.7094901574803157
 21
2.859949976469413
 31
0.0
  0
LINE
  5
3C9
330
1E
100
AcDbEntity
  8
0
100
AcDbLine
 10
1.12420905511811
 20
2.292992496154452
 30
0.0
 11
0.9220992125984253
 21
2.292992496154452
 31
0.0
  0
LINE
  5
3CA
330
1E
100
AcDbEntity
  8
0
100
AcDbLine
 10
0.9220992125984253
 20
2.265432063083586
 30
0.0
 11
0.9220992125984253
 21
2.292992496154452
 31
0.0
  0
LINE
  5
3CB
330
1E
100
AcDbEntity
  8
0
100
AcDbLine
 10
1.125521456692913
 20
2.265432063083586
 30
0.0
 11
1.12420905511811
 21
2.292992496154452
 31
0.0
  0
LINE
  5
3CC
330
1E
100
AcDbEntity
  8
0
100
AcDbLine
 10
1.12420905511811
 20
2.292992496154452
 30
0.0
 11
1.12420905511811
 21
2.317928126075713
 31
0.0
  0
LINE
  5
3CD
330
1E
100
AcDbEntity
  8
0
100
AcDbLine
 10
1.12420905511811
 20
2.317928126075713
 30
0.0
 11
0.923411614173229
 21
2.317928126075713
 31
0.0
  0
LINE
  5
3CE
330
1E
100
AcDbEntity
  8
0
100
AcDbLine
 10
0.9220992125984253
 20
2.292992496154452
 30
0.0
 11
0.923411614173229
 21
2.317928126075713
 31
0.0
  0
LINE
  5
3CF
330
1E
100
AcDbEntity
  8
0
100
AcDbLine
 10
1.122896653543306
 20
2.345488559146578
 30
0.0
 11
0.9247240157480316
 21
2.345488559146578
 31
0.0
  0
POLYLINE
  5
3D0
330
1E
100
AcDbEntity
  8
0
100
AcDb2dPolyline
 66
     1
 10
0.0
 20
0.0
 30
0.0
  0
VERTEX
  5
771
330
3D0
100
AcDbEntity
  8
0
100
AcDbVertex
100
AcDb2dVertex
 10
0.9247240157480316
 20
2.345488559146578
 30
0.0
  0
VERTEX
  5
772
330
3D0
100
AcDbEntity
  8
0
100
AcDbVertex
100
AcDb2dVertex
 10
0.9247240157480316
 20
2.341551354422169
 30
0.0
  0
VERTEX
  5
773
330
3D0
100
AcDbEntity
  8
0
100
AcDbVertex
100
AcDb2dVertex
 10
0.9234116141732284
 20
2.331052141823744
 30
0.0
  0
VERTEX
  5
774
330
3D0
100
AcDbEntity
  8
0
100
AcDbVertex
100
AcDb2dVertex
 10
0.9234116141732284
 20
2.317928126075713
 30
0.0
  0
SEQEND
  5
775
330
3D0
100
AcDbEntity
  8
0
  0
POLYLINE
  5
3D6
330
1E
100
AcDbEntity
  8
0
100
AcDb2dPolyline
 66
     1
 10
0.0
 20
0.0
 30
0.0
  0
VERTEX
  5
776
330
3D6
100
AcDbEntity
  8
0
100
AcDbVertex
100
AcDb2dVertex
 10
1.122896653543306
 20
2.345488559146578
 30
0.0
  0
VERTEX
  5
777
330
3D6
100
AcDbEntity
  8
0
100
AcDbVertex
100
AcDb2dVertex
 10
1.122896653543306
 20
2.341551354422169
 30
0.0
  0
VERTEX
  5
778
330
3D6
100
AcDbEntity
  8
0
100
AcDbVertex
100
AcDb2dVertex
 10
1.122896653543306
 20
2.331052141823744
 30
0.0
  0
VERTEX
  5
779
330
3D6
100
AcDbEntity
  8
0
100
AcDbVertex
100
AcDb2dVertex
 10
1.12420905511811
 20
2.317928126075713
 30
0.0
  0
SEQEND
  5
77A
330
3D6
100
AcDbEntity
  8
0
  0
LINE
  5
3DC
330
1E
100
AcDbEntity
  8
0
100
AcDbLine
 10
1.760723818897637
 20
2.265432063083586
 30
0.0
 11
1.759411417322835
 21
2.292992496154452
 31
0.0
  0
LINE
  5
3DD
330
1E
100
AcDbEntity
  8
0
100
AcDbLine
 10
1.759411417322835
 20
2.292992496154452
 30
0.0
 11
1.557301574803149
 21
2.292992496154452
 31
0.0
  0
LINE
  5
3DE
330
1E
100
AcDbEntity
  8
0
100
AcDbLine
 10
1.557301574803149
 20
2.265432063083586
 30
0.0
 11
1.557301574803149
 21
2.292992496154452
 31
0.0
  0
LINE
  5
3DF
330
1E
100
AcDbEntity
  8
0
100
AcDbLine
 10
1.759411417322835
 20
2.292992496154452
 30
0.0
 11
1.758099015748031
 21
2.317928126075713
 31
0.0
  0
LINE
  5
3E0
330
1E
100
AcDbEntity
  8
0
100
AcDbLine
 10
1.758099015748031
 20
2.317928126075713
 30
0.0
 11
1.558613976377952
 21
2.317928126075713
 31
0.0
  0
LINE
  5
3E1
330
1E
100
AcDbEntity
  8
0
100
AcDbLine
 10
1.557301574803149
 20
2.292992496154452
 30
0.0
 11
1.558613976377952
 21
2.317928126075713
 31
0.0
  0
POLYLINE
  5
3E2
330
1E
100
AcDbEntity
  8
0
100
AcDb2dPolyline
 66
     1
 10
0.0
 20
0.0
 30
0.0
  0
VERTEX
  5
77B
330
3E2
100
AcDbEntity
  8
0
100
AcDbVertex
100
AcDb2dVertex
 10
1.758099015748031
 20
2.345488559146578
 30
0.0
  0
VERTEX
  5
77C
330
3E2
100
AcDbEntity
  8
0
100
AcDbVertex
100
AcDb2dVertex
 10
1.758099015748031
 20
2.341551354422169
 30
0.0
  0
VERTEX
  5
77D
330
3E2
100
AcDbEntity
  8
0
100
AcDbVertex
100
AcDb2dVertex
 10
1.758099015748031
 20
2.331052141823744
 30
0.0
  0
VERTEX
  5
77E
330
3E2
100
AcDbEntity
  8
0
100
AcDbVertex
100
AcDb2dVertex
 10
1.758099015748031
 20
2.317928126075713
 30
0.0
  0
SEQEND
  5
77F
330
3E2
100
AcDbEntity
  8
0
  0
LINE
  5
3E8
330
1E
100
AcDbEntity
  8
0
100
AcDbLine
 10
1.758099015748031
 20
2.345488559146578
 30
0.0
 11
1.559926377952756
 21
2.345488559146578
 31
0.0
  0
POLYLINE
  5
3E9
330
1E
100
AcDbEntity
  8
0
100
AcDb2dPolyline
 66
     1
 10
0.0
 20
0.0
 30
0.0
  0
VERTEX
  5
780
330
3E9
100
AcDbEntity
  8
0
100
AcDbVertex
100
AcDb2dVertex
 10
1.559926377952756
 20
2.345488559146578
 30
0.0
  0
VERTEX
  5
781
330
3E9
100
AcDbEntity
  8
0
100
AcDbVertex
100
AcDb2dVertex
 10
1.559926377952756
 20
2.341551354422169
 30
0.0
  0
VERTEX
  5
782
330
3E9
100
AcDbEntity
  8
0
100
AcDbVertex
100
AcDb2dVertex
 10
1.558613976377952
 20
2.331052141823744
 30
0.0
  0
VERTEX
  5
783
330
3E9
100
AcDbEntity
  8
0
100
AcDbVertex
100
AcDb2dVertex
 10
1.558613976377952
 20
2.317928126075713
 30
0.0
  0
SEQEND
  5
784
330
3E9
100
AcDbEntity
  8
0
  0
LINE
  5
3EF
330
1E
100
AcDbEntity
  8
0
100
AcDbLine
 10
2.395926181102362
 20
2.265432063083586
 30
0.0
 11
2.394613779527558
 21
2.292992496154452
 31
0.0
  0
LINE
  5
3F0
330
1E
100
AcDbEntity
  8
0
100
AcDbLine
 10
2.192503937007874
 20
2.292992496154452
 30
0.0
 11
2.394613779527558
 21
2.292992496154452
 31
0.0
  0
LINE
  5
3F1
330
1E
100
AcDbEntity
  8
0
100
AcDbLine
 10
2.19119153543307
 20
2.265432063083586
 30
0.0
 11
2.192503937007874
 21
2.292992496154452
 31
0.0
  0
LINE
  5
3F2
330
1E
100
AcDbEntity
  8
0
100
AcDbLine
 10
2.394613779527558
 20
2.292992496154452
 30
0.0
 11
2.393301377952755
 21
2.317928126075713
 31
0.0
  0
LINE
  5
3F3
330
1E
100
AcDbEntity
  8
0
100
AcDbLine
 10
2.193816338582676
 20
2.317928126075713
 30
0.0
 11
2.393301377952755
 21
2.317928126075713
 31
0.0
  0
LINE
  5
3F4
330
1E
100
AcDbEntity
  8
0
100
AcDbLine
 10
2.192503937007874
 20
2.292992496154452
 30
0.0
 11
2.193816338582676
 21
2.317928126075713
 31
0.0
  0
POLYLINE
  5
3F5
330
1E
100
AcDbEntity
  8
0
100
AcDb2dPolyline
 66
     1
 10
0.0
 20
0.0
 30
0.0
  0
VERTEX
  5
785
330
3F5
100
AcDbEntity
  8
0
100
AcDbVertex
100
AcDb2dVertex
 10
2.393301377952755
 20
2.345488559146578
 30
0.0
  0
VERTEX
  5
786
330
3F5
100
AcDbEntity
  8
0
100
AcDbVertex
100
AcDb2dVertex
 10
2.393301377952755
 20
2.341551354422169
 30
0.0
  0
VERTEX
  5
787
330
3F5
100
AcDbEntity
  8
0
100
AcDbVertex
100
AcDb2dVertex
 10
2.393301377952755
 20
2.331052141823744
 30
0.0
  0
VERTEX
  5
788
330
3F5
100
AcDbEntity
  8
0
100
AcDbVertex
100
AcDb2dVertex
 10
2.393301377952755
 20
2.317928126075713
 30
0.0
  0
SEQEND
  5
789
330
3F5
100
AcDbEntity
  8
0
  0
LINE
  5
3FB
330
1E
100
AcDbEntity
  8
0
100
AcDbLine
 10
2.19512874015748
 20
2.345488559146578
 30
0.0
 11
2.393301377952755
 21
2.345488559146578
 31
0.0
  0
POLYLINE
  5
3FC
330
1E
100
AcDbEntity
  8
0
100
AcDb2dPolyline
 66
     1
 10
0.0
 20
0.0
 30
0.0
  0
VERTEX
  5
78A
330
3FC
100
AcDbEntity
  8
0
100
AcDbVertex
100
AcDb2dVertex
 10
2.19512874015748
 20
2.345488559146578
 30
0.0
  0
VERTEX
  5
78B
330
3FC
100
AcDbEntity
  8
0
100
AcDbVertex
100
AcDb2dVertex
 10
2.19512874015748
 20
2.341551354422169
 30
0.0
  0
VERTEX
  5
78C
330
3FC
100
AcDbEntity
  8
0
100
AcDbVertex
100
AcDb2dVertex
 10
2.193816338582676
 20
2.331052141823744
 30
0.0
  0
VERTEX
  5
78D
330
3FC
100
AcDbEntity
  8
0
100
AcDbVertex
100
AcDb2dVertex
 10
2.193816338582676
 20
2.317928126075713
 30
0.0
  0
SEQEND
  5
78E
330
3FC
100
AcDbEntity
  8
0
  0
LINE
  5
402
330
1E
100
AcDbEntity
  8
0
100
AcDbLine
 10
3.031128543307086
 20
2.265432063083586
 30
0.0
 11
3.029816141732283
 21
2.292992496154452
 31
0.0
  0
LINE
  5
403
330
1E
100
AcDbEntity
  8
0
100
AcDbLine
 10
2.827706299212598
 20
2.292992496154452
 30
0.0
 11
3.029816141732283
 21
2.292992496154452
 31
0.0
  0
LINE
  5
404
330
1E
100
AcDbEntity
  8
0
100
AcDbLine
 10
2.826393897637795
 20
2.265432063083586
 30
0.0
 11
2.827706299212598
 21
2.292992496154452
 31
0.0
  0
LINE
  5
405
330
1E
100
AcDbEntity
  8
0
100
AcDbLine
 10
2.829018700787401
 20
2.317928126075713
 30
0.0
 11
3.02850374015748
 21
2.317928126075713
 31
0.0
  0
POLYLINE
  5
406
330
1E
100
AcDbEntity
  8
0
100
AcDb2dPolyline
 66
     1
 10
0.0
 20
0.0
 30
0.0
  0
VERTEX
  5
78F
330
406
100
AcDbEntity
  8
0
100
AcDbVertex
100
AcDb2dVertex
 10
3.027191338582676
 20
2.345488559146578
 30
0.0
  0
VERTEX
  5
790
330
406
100
AcDbEntity
  8
0
100
AcDbVertex
100
AcDb2dVertex
 10
3.027191338582676
 20
2.341551354422169
 30
0.0
  0
VERTEX
  5
791
330
406
100
AcDbEntity
  8
0
100
AcDbVertex
100
AcDb2dVertex
 10
3.02850374015748
 20
2.331052141823744
 30
0.0
  0
VERTEX
  5
792
330
406
100
AcDbEntity
  8
0
100
AcDbVertex
100
AcDb2dVertex
 10
3.02850374015748
 20
2.317928126075713
 30
0.0
  0
SEQEND
  5
793
330
406
100
AcDbEntity
  8
0
  0
LINE
  5
40C
330
1E
100
AcDbEntity
  8
0
100
AcDbLine
 10
2.829018700787401
 20
2.345488559146578
 30
0.0
 11
3.027191338582676
 21
2.345488559146578
 31
0.0
  0
POLYLINE
  5
40D
330
1E
100
AcDbEntity
  8
0
100
AcDb2dPolyline
 66
     1
 10
0.0
 20
0.0
 30
0.0
  0
VERTEX
  5
794
330
40D
100
AcDbEntity
  8
0
100
AcDbVertex
100
AcDb2dVertex
 10
2.829018700787401
 20
2.345488559146578
 30
0.0
  0
VERTEX
  5
795
330
40D
100
AcDbEntity
  8
0
100
AcDbVertex
100
AcDb2dVertex
 10
2.829018700787401
 20
2.341551354422169
 30
0.0
  0
VERTEX
  5
796
330
40D
100
AcDbEntity
  8
0
100
AcDbVertex
100
AcDb2dVertex
 10
2.829018700787401
 20
2.331052141823744
 30
0.0
  0
VERTEX
  5
797
330
40D
100
AcDbEntity
  8
0
100
AcDbVertex
100
AcDb2dVertex
 10
2.829018700787401
 20
2.317928126075713
 30
0.0
  0
SEQEND
  5
798
330
40D
100
AcDbEntity
  8
0
  0
LINE
  5
413
330
1E
100
AcDbEntity
  8
0
100
AcDbLine
 10
3.029816141732283
 20
2.292992496154452
 30
0.0
 11
3.02850374015748
 21
2.317928126075713
 31
0.0
  0
LINE
  5
414
330
1E
100
AcDbEntity
  8
0
100
AcDbLine
 10
2.827706299212598
 20
2.292992496154452
 30
0.0
 11
2.829018700787401
 21
2.317928126075713
 31
0.0
  0
LINE
  5
415
330
1E
100
AcDbEntity
  8
0
100
AcDbLine
 10
0.7449250000000003
 20
2.345488559146578
 30
0.0
 11
0.9247240157480316
 21
2.345488559146578
 31
0.0
  0
LINE
  5
416
330
1E
100
AcDbEntity
  8
0
100
AcDbLine
 10
1.122896653543306
 20
2.345488559146578
 30
0.0
 11
1.302695669291338
 21
2.345488559146578
 31
0.0
  0
LINE
  5
417
330
1E
100
AcDbEntity
  8
0
100
AcDbLine
 10
1.937898031496063
 20
2.345488559146578
 30
0.0
 11
1.758099015748031
 21
2.345488559146578
 31
0.0
  0
LINE
  5
418
330
1E
100
AcDbEntity
  8
0
100
AcDbLine
 10
1.559926377952756
 20
2.345488559146578
 30
0.0
 11
1.378814960629921
 21
2.345488559146578
 31
0.0
  0
LINE
  5
419
330
1E
100
AcDbEntity
  8
0
100
AcDbLine
 10
2.014017322834645
 20
2.345488559146578
 30
0.0
 11
2.19512874015748
 21
2.345488559146578
 31
0.0
  0
LINE
  5
41A
330
1E
100
AcDbEntity
  8
0
100
AcDbLine
 10
2.393301377952755
 20
2.345488559146578
 30
0.0
 11
2.573100393700787
 21
2.345488559146578
 31
0.0
  0
LINE
  5
41B
330
1E
100
AcDbEntity
  8
0
100
AcDbLine
 10
3.208302755905511
 20
2.345488559146578
 30
0.0
 11
3.027191338582676
 21
2.345488559146578
 31
0.0
  0
LINE
  5
41C
330
1E
100
AcDbEntity
  8
0
100
AcDbLine
 10
2.829018700787401
 20
2.345488559146578
 30
0.0
 11
2.649219685039369
 21
2.345488559146578
 31
0.0
  0
LINE
  5
41D
330
1E
100
AcDbEntity
  8
0
100
AcDbLine
 10
3.208302755905511
 20
2.345488559146578
 30
0.0
 11
3.210927559055118
 21
2.265432063083586
 31
0.0
  0
LINE
  5
41E
330
1E
100
AcDbEntity
  8
0
100
AcDbLine
 10
0.7449250000000003
 20
2.345488559146578
 30
0.0
 11
0.7409877952755908
 21
2.265432063083586
 31
0.0
  0
LINE
  5
41F
330
1E
100
AcDbEntity
  8
0
100
AcDbLine
 10
1.305320472440945
 20
2.265432063083586
 30
0.0
 11
1.302695669291338
 21
2.345488559146578
 31
0.0
  0
LINE
  5
420
330
1E
100
AcDbEntity
  8
0
100
AcDbLine
 10
1.376190157480315
 20
2.265432063083586
 30
0.0
 11
1.378814960629921
 21
2.345488559146578
 31
0.0
  0
LINE
  5
421
330
1E
100
AcDbEntity
  8
0
100
AcDbLine
 10
1.940522834645669
 20
2.265432063083586
 30
0.0
 11
1.937898031496063
 21
2.345488559146578
 31
0.0
  0
LINE
  5
422
330
1E
100
AcDbEntity
  8
0
100
AcDbLine
 10
2.011392519685039
 20
2.265432063083586
 30
0.0
 11
2.014017322834645
 21
2.345488559146578
 31
0.0
  0
LINE
  5
423
330
1E
100
AcDbEntity
  8
0
100
AcDbLine
 10
2.575725196850394
 20
2.265432063083586
 30
0.0
 11
2.573100393700787
 21
2.345488559146578
 31
0.0
  0
LINE
  5
424
330
1E
100
AcDbEntity
  8
0
100
AcDbLine
 10
2.646594881889763
 20
2.265432063083586
 30
0.0
 11
2.649219685039369
 21
2.345488559146578
 31
0.0
  0
POLYLINE
  5
425
330
1E
100
AcDbEntity
  8
0
100
AcDb2dPolyline
 66
     1
 10
0.0
 20
0.0
 30
0.0
  0
VERTEX
  5
799
330
425
100
AcDbEntity
  8
0
100
AcDbVertex
100
AcDb2dVertex
 10
1.823719094488188
 20
2.661777338674137
 30
0.0
  0
VERTEX
  5
79A
330
425
100
AcDbEntity
  8
0
100
AcDbVertex
100
AcDb2dVertex
 10
1.828968700787401
 20
2.661777338674137
 30
0.0
  0
VERTEX
  5
79B
330
425
100
AcDbEntity
  8
0
100
AcDbVertex
100
AcDb2dVertex
 10
1.847342322834645
 20
2.661777338674137
 30
0.0
  0
VERTEX
  5
79C
330
425
100
AcDbEntity
  8
0
100
AcDbVertex
100
AcDb2dVertex
 10
1.876215157480314
 20
2.661777338674137
 30
0.0
  0
VERTEX
  5
79D
330
425
100
AcDbEntity
  8
0
100
AcDbVertex
100
AcDb2dVertex
 10
1.912962401574803
 20
2.661777338674137
 30
0.0
  0
VERTEX
  5
79E
330
425
100
AcDbEntity
  8
0
100
AcDbVertex
100
AcDb2dVertex
 10
1.954959251968504
 20
2.661777338674137
 30
0.0
  0
VERTEX
  5
79F
330
425
100
AcDbEntity
  8
0
100
AcDbVertex
100
AcDb2dVertex
 10
1.998268503937007
 20
2.661777338674137
 30
0.0
  0
VERTEX
  5
7A0
330
425
100
AcDbEntity
  8
0
100
AcDbVertex
100
AcDb2dVertex
 10
2.040265354330708
 20
2.661777338674137
 30
0.0
  0
VERTEX
  5
7A1
330
425
100
AcDbEntity
  8
0
100
AcDbVertex
100
AcDb2dVertex
 10
2.075700196850393
 20
2.661777338674137
 30
0.0
  0
VERTEX
  5
7A2
330
425
100
AcDbEntity
  8
0
100
AcDbVertex
100
AcDb2dVertex
 10
2.104573031496062
 20
2.661777338674137
 30
0.0
  0
VERTEX
  5
7A3
330
425
100
AcDbEntity
  8
0
100
AcDbVertex
100
AcDb2dVertex
 10
2.122946653543306
 20
2.661777338674137
 30
0.0
  0
VERTEX
  5
7A4
330
425
100
AcDbEntity
  8
0
100
AcDbVertex
100
AcDb2dVertex
 10
2.129508661417323
 20
2.661777338674137
 30
0.0
  0
SEQEND
  5
7A5
330
425
100
AcDbEntity
  8
0
  0
LINE
  5
433
330
1E
100
AcDbEntity
  8
0
100
AcDbLine
 10
3.497031102362204
 20
2.584345645760752
 30
0.0
 11
3.502280708661417
 21
2.584345645760752
 31
0.0
  0
LINE
  5
434
330
1E
100
AcDbEntity
  8
0
100
AcDbLine
 10
3.506217913385826
 20
2.459667496154452
 30
0.0
 11
3.500968307086614
 21
2.459667496154452
 31
0.0
  0
LINE
  5
435
330
1E
100
AcDbEntity
  8
0
100
AcDbLine
 10
3.502280708661417
 20
2.565972023713507
 30
0.0
 11
3.497031102362204
 21
2.565972023713507
 31
0.0
  0
LINE
  5
436
330
1E
100
AcDbEntity
  8
0
100
AcDbLine
 10
0.4496346456692919
 20
2.584345645760752
 30
0.0
 11
0.4548842519685042
 21
2.584345645760752
 31
0.0
  0
LINE
  5
437
330
1E
100
AcDbEntity
  8
0
100
AcDbLine
 10
0.4509470472440947
 20
2.459667496154452
 30
0.0
 11
0.445697440944882
 21
2.459667496154452
 31
0.0
  0
LINE
  5
438
330
1E
100
AcDbEntity
  8
0
100
AcDbLine
 10
0.4548842519685042
 20
2.565972023713507
 30
0.0
 11
0.4496346456692919
 21
2.565972023713507
 31
0.0
  0
POLYLINE
  5
439
330
1E
100
AcDbEntity
  8
0
100
AcDb2dPolyline
 66
     1
 10
0.0
 20
0.0
 30
0.0
  0
VERTEX
  5
7A6
330
439
100
AcDbEntity
  8
0
100
AcDbVertex
100
AcDb2dVertex
 10
1.234450787401574
 20
2.698524582768626
 30
0.0
  0
VERTEX
  5
7A7
330
439
100
AcDbEntity
  8
0
100
AcDbVertex
100
AcDb2dVertex
 10
1.233138385826771
 20
2.631592102453665
 30
0.0
  0
VERTEX
  5
7A8
330
439
100
AcDbEntity
  8
0
100
AcDbVertex
100
AcDb2dVertex
 10
1.222639173228346
 20
2.345488559146578
 30
0.0
  0
SEQEND
  5
7A9
330
439
100
AcDbEntity
  8
0
  0
POLYLINE
  5
43E
330
1E
100
AcDbEntity
  8
0
100
AcDb2dPolyline
 66
     1
 10
0.0
 20
0.0
 30
0.0
  0
VERTEX
  5
7AA
330
43E
100
AcDbEntity
  8
0
100
AcDbVertex
100
AcDb2dVertex
 10
1.242325196850393
 20
2.745771039461539
 30
0.0
  0
VERTEX
  5
7AB
330
43E
100
AcDbEntity
  8
0
100
AcDbVertex
100
AcDb2dVertex
 10
1.24101279527559
 20
2.74183383473713
 30
0.0
  0
VERTEX
  5
7AC
330
43E
100
AcDbEntity
  8
0
100
AcDbVertex
100
AcDb2dVertex
 10
1.235763188976378
 20
2.710336196941854
 30
0.0
  0
VERTEX
  5
7AD
330
43E
100
AcDbEntity
  8
0
100
AcDbVertex
100
AcDb2dVertex
 10
1.234450787401574
 20
2.698524582768626
 30
0.0
  0
SEQEND
  5
7AE
330
43E
100
AcDbEntity
  8
0
  0
POLYLINE
  5
444
330
1E
100
AcDbEntity
  8
0
100
AcDb2dPolyline
 66
     1
 10
0.0
 20
0.0
 30
0.0
  0
VERTEX
  5
7AF
330
444
100
AcDbEntity
  8
0
100
AcDbVertex
100
AcDb2dVertex
 10
2.710902559055118
 20
2.745771039461539
 30
0.0
  0
VERTEX
  5
7B0
330
444
100
AcDbEntity
  8
0
100
AcDbVertex
100
AcDb2dVertex
 10
2.71221496062992
 20
2.74183383473713
 30
0.0
  0
VERTEX
  5
7B1
330
444
100
AcDbEntity
  8
0
100
AcDbVertex
100
AcDb2dVertex
 10
2.717464566929133
 20
2.710336196941854
 30
0.0
  0
VERTEX
  5
7B2
330
444
100
AcDbEntity
  8
0
100
AcDbVertex
100
AcDb2dVertex
 10
2.717464566929133
 20
2.698524582768626
 30
0.0
  0
SEQEND
  5
7B3
330
444
100
AcDbEntity
  8
0
  0
POLYLINE
  5
44A
330
1E
100
AcDbEntity
  8
0
100
AcDb2dPolyline
 66
     1
 10
0.0
 20
0.0
 30
0.0
  0
VERTEX
  5
7B4
330
44A
100
AcDbEntity
  8
0
100
AcDbVertex
100
AcDb2dVertex
 10
2.717464566929133
 20
2.698524582768626
 30
0.0
  0
VERTEX
  5
7B5
330
44A
100
AcDbEntity
  8
0
100
AcDbVertex
100
AcDb2dVertex
 10
2.720089370078739
 20
2.631592102453665
 30
0.0
  0
VERTEX
  5
7B6
330
44A
100
AcDbEntity
  8
0
100
AcDbVertex
100
AcDb2dVertex
 10
2.729276181102362
 20
2.345488559146578
 30
0.0
  0
SEQEND
  5
7B7
330
44A
100
AcDbEntity
  8
0
  0
LINE
  5
44F
330
1E
100
AcDbEntity
  8
0
100
AcDbLine
 10
3.491781496062992
 20
2.865199582768626
 30
0.0
 11
0.4601338582677168
 21
2.865199582768626
 31
0.0
  0
LINE
  5
450
330
1E
100
AcDbEntity
  8
0
100
AcDbLine
 10
3.615147244094488
 20
2.916383244185949
 30
0.0
 11
0.3380805118110239
 21
2.916383244185949
 31
0.0
  0
LINE
  5
451
330
1E
100
AcDbEntity
  8
0
100
AcDbLine
 10
0.3380805118110239
 20
2.916383244185949
 30
0.0
 11
0.2724604330708664
 21
1.97539131505209
 31
0.0
  0
LINE
  5
452
330
1E
100
AcDbEntity
  8
0
100
AcDbLine
 10
0.2724604330708664
 20
1.97539131505209
 30
0.0
 11
0.4286362204724412
 21
1.97539131505209
 31
0.0
  0
LINE
  5
453
330
1E
100
AcDbEntity
  8
0
100
AcDbLine
 10
0.4286362204724412
 20
1.97539131505209
 30
0.0
 11
0.4601338582677168
 21
2.865199582768626
 31
0.0
  0
LINE
  5
454
330
1E
100
AcDbEntity
  8
0
100
AcDbLine
 10
3.523279133858267
 20
1.97539131505209
 30
0.0
 11
3.491781496062992
 21
2.865199582768626
 31
0.0
  0
LINE
  5
455
330
1E
100
AcDbEntity
  8
0
100
AcDbLine
 10
3.523279133858267
 20
1.97539131505209
 30
0.0
 11
3.680767322834645
 21
1.97539131505209
 31
0.0
  0
LINE
  5
456
330
1E
100
AcDbEntity
  8
0
100
AcDbLine
 10
3.680767322834645
 20
1.97539131505209
 30
0.0
 11
3.615147244094488
 21
2.916383244185949
 31
0.0
  0
LINE
  5
457
330
1E
100
AcDbEntity
  8
0
100
AcDbLine
 10
0.3380805118110239
 20
3.035811787493035
 30
0.0
 11
3.615147244094488
 21
3.035811787493035
 31
0.0
  0
POLYLINE
  5
458
330
1E
100
AcDbEntity
  8
0
100
AcDb2dPolyline
 66
     1
 10
0.0
 20
0.0
 30
0.0
  0
VERTEX
  5
7B8
330
458
100
AcDbEntity
  8
0
100
AcDbVertex
100
AcDb2dVertex
 10
0.3380805118110239
 20
3.035811787493035
 30
0.0
  0
VERTEX
  5
7B9
330
458
100
AcDbEntity
  8
0
100
AcDbVertex
100
AcDb2dVertex
 10
0.3380805118110239
 20
3.029249779619019
 30
0.0
  0
VERTEX
  5
7BA
330
458
100
AcDbEntity
  8
0
100
AcDbVertex
100
AcDb2dVertex
 10
0.3380805118110239
 20
3.012188559146578
 30
0.0
  0
VERTEX
  5
7BB
330
458
100
AcDbEntity
  8
0
100
AcDbVertex
100
AcDb2dVertex
 10
0.3380805118110239
 20
2.985940527650516
 30
0.0
  0
VERTEX
  5
7BC
330
458
100
AcDbEntity
  8
0
100
AcDbVertex
100
AcDb2dVertex
 10
0.3380805118110239
 20
2.953130488280437
 30
0.0
  0
VERTEX
  5
7BD
330
458
100
AcDbEntity
  8
0
100
AcDbVertex
100
AcDb2dVertex
 10
0.3380805118110239
 20
2.916383244185949
 30
0.0
  0
SEQEND
  5
7BE
330
458
100
AcDbEntity
  8
0
  0
POLYLINE
  5
460
330
1E
100
AcDbEntity
  8
0
100
AcDb2dPolyline
 66
     1
 10
0.0
 20
0.0
 30
0.0
  0
VERTEX
  5
7BF
330
460
100
AcDbEntity
  8
0
100
AcDbVertex
100
AcDb2dVertex
 10
3.615147244094488
 20
3.035811787493035
 30
0.0
  0
VERTEX
  5
7C0
330
460
100
AcDbEntity
  8
0
100
AcDbVertex
100
AcDb2dVertex
 10
3.615147244094488
 20
3.029249779619019
 30
0.0
  0
VERTEX
  5
7C1
330
460
100
AcDbEntity
  8
0
100
AcDbVertex
100
AcDb2dVertex
 10
3.615147244094488
 20
3.012188559146578
 30
0.0
  0
VERTEX
  5
7C2
330
460
100
AcDbEntity
  8
0
100
AcDbVertex
100
AcDb2dVertex
 10
3.615147244094488
 20
2.985940527650516
 30
0.0
  0
VERTEX
  5
7C3
330
460
100
AcDbEntity
  8
0
100
AcDbVertex
100
AcDb2dVertex
 10
3.615147244094488
 20
2.953130488280437
 30
0.0
  0
VERTEX
  5
7C4
330
460
100
AcDbEntity
  8
0
100
AcDbVertex
100
AcDb2dVertex
 10
3.615147244094488
 20
2.916383244185949
 30
0.0
  0
SEQEND
  5
7C5
330
460
100
AcDbEntity
  8
0
  0
POLYLINE
  5
468
330
1E
100
AcDbEntity
  8
0
100
AcDb2dPolyline
 66
     1
 10
0.0
 20
0.0
 30
0.0
  0
VERTEX
  5
7C6
330
468
100
AcDbEntity
  8
0
100
AcDbVertex
100
AcDb2dVertex
 10
3.754261811023621
 20
2.919008047335555
 30
0.0
  0
VERTEX
  5
7C7
330
468
100
AcDbEntity
  8
0
100
AcDbVertex
100
AcDb2dVertex
 10
3.749012204724409
 20
2.920320448910358
 30
0.0
  0
VERTEX
  5
7C8
330
468
100
AcDbEntity
  8
0
100
AcDbVertex
100
AcDb2dVertex
 10
3.735888188976377
 20
2.920320448910358
 30
0.0
  0
VERTEX
  5
7C9
330
468
100
AcDbEntity
  8
0
100
AcDbVertex
100
AcDb2dVertex
 10
3.713577362204724
 20
2.920320448910358
 30
0.0
  0
VERTEX
  5
7CA
330
468
100
AcDbEntity
  8
0
100
AcDbVertex
100
AcDb2dVertex
 10
3.684704527559055
 20
2.919008047335555
 30
0.0
  0
VERTEX
  5
7CB
330
468
100
AcDbEntity
  8
0
100
AcDbVertex
100
AcDb2dVertex
 10
3.650582086614173
 20
2.917695645760752
 30
0.0
  0
VERTEX
  5
7CC
330
468
100
AcDbEntity
  8
0
100
AcDbVertex
100
AcDb2dVertex
 10
3.615147244094488
 20
2.916383244185949
 30
0.0
  0
SEQEND
  5
7CD
330
468
100
AcDbEntity
  8
0
  0
POLYLINE
  5
471
330
1E
100
AcDbEntity
  8
0
100
AcDb2dPolyline
 66
     1
 10
0.0
 20
0.0
 30
0.0
  0
VERTEX
  5
7CE
330
471
100
AcDbEntity
  8
0
100
AcDbVertex
100
AcDb2dVertex
 10
3.754261811023621
 20
2.919008047335555
 30
0.0
  0
VERTEX
  5
7CF
330
471
100
AcDbEntity
  8
0
100
AcDbVertex
100
AcDb2dVertex
 10
3.746387401574803
 20
2.955755291430044
 30
0.0
  0
VERTEX
  5
7D0
330
471
100
AcDbEntity
  8
0
100
AcDbVertex
100
AcDb2dVertex
 10
3.728013779527558
 20
2.988565330800122
 30
0.0
  0
VERTEX
  5
7D1
330
471
100
AcDbEntity
  8
0
100
AcDbVertex
100
AcDb2dVertex
 10
3.700453346456693
 20
3.013500960721382
 30
0.0
  0
VERTEX
  5
7D2
330
471
100
AcDbEntity
  8
0
100
AcDbVertex
100
AcDb2dVertex
 10
3.66633090551181
 20
3.029249779619019
 30
0.0
  0
VERTEX
  5
7D3
330
471
100
AcDbEntity
  8
0
100
AcDbVertex
100
AcDb2dVertex
 10
3.629583661417322
 20
3.035811787493035
 30
0.0
  0
SEQEND
  5
7D4
330
471
100
AcDbEntity
  8
0
  0
POLYLINE
  5
479
330
1E
100
AcDbEntity
  8
0
100
AcDb2dPolyline
 66
     1
 10
0.0
 20
0.0
 30
0.0
  0
VERTEX
  5
7D5
330
479
100
AcDbEntity
  8
0
100
AcDbVertex
100
AcDb2dVertex
 10
3.615147244094488
 20
3.035811787493035
 30
0.0
  0
VERTEX
  5
7D6
330
479
100
AcDbEntity
  8
0
100
AcDbVertex
100
AcDb2dVertex
 10
3.625646456692913
 20
3.035811787493035
 30
0.0
  0
VERTEX
  5
7D7
330
479
100
AcDbEntity
  8
0
100
AcDbVertex
100
AcDb2dVertex
 10
3.629583661417322
 20
3.035811787493035
 30
0.0
  0
SEQEND
  5
7D8
330
479
100
AcDbEntity
  8
0
  0
POLYLINE
  5
47E
330
1E
100
AcDbEntity
  8
0
100
AcDb2dPolyline
 66
     1
 10
0.0
 20
0.0
 30
0.0
  0
VERTEX
  5
7D9
330
47E
100
AcDbEntity
  8
0
100
AcDbVertex
100
AcDb2dVertex
 10
3.819881889763779
 20
1.97539131505209
 30
0.0
  0
VERTEX
  5
7DA
330
47E
100
AcDbEntity
  8
0
100
AcDbVertex
100
AcDb2dVertex
 10
3.81594468503937
 20
1.97539131505209
 30
0.0
  0
VERTEX
  5
7DB
330
47E
100
AcDbEntity
  8
0
100
AcDbVertex
100
AcDb2dVertex
 10
3.801508267716535
 20
1.97539131505209
 30
0.0
  0
VERTEX
  5
7DC
330
47E
100
AcDbEntity
  8
0
100
AcDbVertex
100
AcDb2dVertex
 10
3.779197440944881
 20
1.97539131505209
 30
0.0
  0
VERTEX
  5
7DD
330
47E
100
AcDbEntity
  8
0
100
AcDbVertex
100
AcDb2dVertex
 10
3.750324606299212
 20
1.97539131505209
 30
0.0
  0
VERTEX
  5
7DE
330
47E
100
AcDbEntity
  8
0
100
AcDbVertex
100
AcDb2dVertex
 10
3.716202165354331
 20
1.97539131505209
 30
0.0
  0
VERTEX
  5
7DF
330
47E
100
AcDbEntity
  8
0
100
AcDbVertex
100
AcDb2dVertex
 10
3.680767322834645
 20
1.97539131505209
 30
0.0
  0
SEQEND
  5
7E0
330
47E
100
AcDbEntity
  8
0
  0
LINE
  5
487
330
1E
100
AcDbEntity
  8
0
100
AcDbLine
 10
3.754261811023621
 20
2.919008047335555
 30
0.0
 11
3.819881889763779
 21
1.97539131505209
 31
0.0
  0
LINE
  5
488
330
1E
100
AcDbEntity
  8
0
100
AcDbLine
 10
3.819881889763779
 20
1.97539131505209
 30
0.0
 11
3.813319881889763
 21
2.080383441036342
 31
0.0
  0
LINE
  5
489
330
1E
100
AcDbEntity
  8
0
100
AcDbLine
 10
0.1320334645669297
 20
1.97539131505209
 30
0.0
 11
0.1976535433070867
 21
2.919008047335555
 31
0.0
  0
POLYLINE
  5
48A
330
1E
100
AcDbEntity
  8
0
100
AcDb2dPolyline
 66
     1
 10
0.0
 20
0.0
 30
0.0
  0
VERTEX
  5
7E1
330
48A
100
AcDbEntity
  8
0
100
AcDbVertex
100
AcDb2dVertex
 10
0.2724604330708662
 20
1.97539131505209
 30
0.0
  0
VERTEX
  5
7E2
330
48A
100
AcDbEntity
  8
0
100
AcDbVertex
100
AcDb2dVertex
 10
0.2357131889763782
 20
1.97539131505209
 30
0.0
  0
VERTEX
  5
7E3
330
48A
100
AcDbEntity
  8
0
100
AcDbVertex
100
AcDb2dVertex
 10
0.2015907480314962
 20
1.97539131505209
 30
0.0
  0
VERTEX
  5
7E4
330
48A
100
AcDbEntity
  8
0
100
AcDbVertex
100
AcDb2dVertex
 10
0.172717913385827
 20
1.97539131505209
 30
0.0
  0
VERTEX
  5
7E5
330
48A
100
AcDbEntity
  8
0
100
AcDbVertex
100
AcDb2dVertex
 10
0.1504070866141733
 20
1.97539131505209
 30
0.0
  0
VERTEX
  5
7E6
330
48A
100
AcDbEntity
  8
0
100
AcDbVertex
100
AcDb2dVertex
 10
0.1372830708661417
 20
1.97539131505209
 30
0.0
  0
VERTEX
  5
7E7
330
48A
100
AcDbEntity
  8
0
100
AcDbVertex
100
AcDb2dVertex
 10
0.1320334645669292
 20
1.97539131505209
 30
0.0
  0
SEQEND
  5
7E8
330
48A
100
AcDbEntity
  8
0
  0
POLYLINE
  5
493
330
1E
100
AcDbEntity
  8
0
100
AcDb2dPolyline
 66
     1
 10
0.0
 20
0.0
 30
0.0
  0
VERTEX
  5
7E9
330
493
100
AcDbEntity
  8
0
100
AcDbVertex
100
AcDb2dVertex
 10
0.3380805118110239
 20
2.916383244185949
 30
0.0
  0
VERTEX
  5
7EA
330
493
100
AcDbEntity
  8
0
100
AcDbVertex
100
AcDb2dVertex
 10
0.3013332677165355
 20
2.917695645760752
 30
0.0
  0
VERTEX
  5
7EB
330
493
100
AcDbEntity
  8
0
100
AcDbVertex
100
AcDb2dVertex
 10
0.2685232283464567
 20
2.919008047335555
 30
0.0
  0
VERTEX
  5
7EC
330
493
100
AcDbEntity
  8
0
100
AcDbVertex
100
AcDb2dVertex
 10
0.2396503937007874
 20
2.920320448910358
 30
0.0
  0
VERTEX
  5
7ED
330
493
100
AcDbEntity
  8
0
100
AcDbVertex
100
AcDb2dVertex
 10
0.217339566929134
 20
2.920320448910358
 30
0.0
  0
VERTEX
  5
7EE
330
493
100
AcDbEntity
  8
0
100
AcDbVertex
100
AcDb2dVertex
 10
0.2029031496062994
 20
2.920320448910358
 30
0.0
  0
VERTEX
  5
7EF
330
493
100
AcDbEntity
  8
0
100
AcDbVertex
100
AcDb2dVertex
 10
0.1976535433070867
 20
2.919008047335555
 30
0.0
  0
SEQEND
  5
7F0
330
493
100
AcDbEntity
  8
0
  0
POLYLINE
  5
49C
330
1E
100
AcDbEntity
  8
0
100
AcDb2dPolyline
 66
     1
 10
0.0
 20
0.0
 30
0.0
  0
VERTEX
  5
7F1
330
49C
100
AcDbEntity
  8
0
100
AcDbVertex
100
AcDb2dVertex
 10
0.3223316929133861
 20
3.035811787493035
 30
0.0
  0
VERTEX
  5
7F2
330
49C
100
AcDbEntity
  8
0
100
AcDbVertex
100
AcDb2dVertex
 10
0.2855844488188976
 20
3.029249779619019
 30
0.0
  0
VERTEX
  5
7F3
330
49C
100
AcDbEntity
  8
0
100
AcDbVertex
100
AcDb2dVertex
 10
0.251462007874016
 20
3.013500960721382
 30
0.0
  0
VERTEX
  5
7F4
330
49C
100
AcDbEntity
  8
0
100
AcDbVertex
100
AcDb2dVertex
 10
0.2252139763779528
 20
2.988565330800122
 30
0.0
  0
VERTEX
  5
7F5
330
49C
100
AcDbEntity
  8
0
100
AcDbVertex
100
AcDb2dVertex
 10
0.2055279527559057
 20
2.955755291430044
 30
0.0
  0
VERTEX
  5
7F6
330
49C
100
AcDbEntity
  8
0
100
AcDbVertex
100
AcDb2dVertex
 10
0.1976535433070867
 20
2.919008047335555
 30
0.0
  0
SEQEND
  5
7F7
330
49C
100
AcDbEntity
  8
0
  0
POLYLINE
  5
4A4
330
1E
100
AcDbEntity
  8
0
100
AcDb2dPolyline
 66
     1
 10
0.0
 20
0.0
 30
0.0
  0
VERTEX
  5
7F8
330
4A4
100
AcDbEntity
  8
0
100
AcDbVertex
100
AcDb2dVertex
 10
0.3223316929133861
 20
3.035811787493035
 30
0.0
  0
VERTEX
  5
7F9
330
4A4
100
AcDbEntity
  8
0
100
AcDbVertex
100
AcDb2dVertex
 10
0.3275812992125986
 20
3.035811787493035
 30
0.0
  0
VERTEX
  5
7FA
330
4A4
100
AcDbEntity
  8
0
100
AcDbVertex
100
AcDb2dVertex
 10
0.3380805118110239
 20
3.035811787493035
 30
0.0
  0
SEQEND
  5
7FB
330
4A4
100
AcDbEntity
  8
0
  0
LINE
  5
4A9
330
1E
100
AcDbEntity
  8
0
100
AcDbLine
 10
0.1399078740157478
 20
2.080383441036342
 30
0.0
 11
0.1320334645669297
 21
1.97539131505209
 31
0.0
  0
LINE
  5
4AA
330
1E
100
AcDbEntity
  8
0
100
AcDbLine
 10
0.4588214566929137
 20
2.703774189067838
 30
0.0
 11
0.453571850393701
 21
2.699836984343429
 31
0.0
  0
LINE
  5
4AB
330
1E
100
AcDbEntity
  8
0
100
AcDbLine
 10
3.242425196850393
 20
2.745771039461539
 30
0.0
 11
0.7094901574803157
 21
2.745771039461539
 31
0.0
  0
LINE
  5
4AC
330
1E
100
AcDbEntity
  8
0
100
AcDbLine
 10
3.498343503937007
 20
2.703774189067838
 30
0.0
 11
3.493093897637795
 21
2.706398992217445
 31
0.0
  0
POLYLINE
  5
4AD
330
1E
100
AcDbEntity
  8
0
100
AcDb2dPolyline
 66
     1
 10
0.0
 20
0.0
 30
0.0
  0
VERTEX
  5
7FC
330
4AD
100
AcDbEntity
  8
0
100
AcDbVertex
100
AcDb2dVertex
 10
1.839467913385826
 20
2.67096414969776
 30
0.0
  0
VERTEX
  5
7FD
330
4AD
100
AcDbEntity
  8
0
100
AcDbVertex
100
AcDb2dVertex
 10
1.844717519685039
 20
2.67096414969776
 30
0.0
  0
VERTEX
  5
7FE
330
4AD
100
AcDbEntity
  8
0
100
AcDbVertex
100
AcDb2dVertex
 10
1.860466338582677
 20
2.67096414969776
 30
0.0
  0
VERTEX
  5
7FF
330
4AD
100
AcDbEntity
  8
0
100
AcDbVertex
100
AcDb2dVertex
 10
1.88671437007874
 20
2.67096414969776
 30
0.0
  0
VERTEX
  5
800
330
4AD
100
AcDbEntity
  8
0
100
AcDbVertex
100
AcDb2dVertex
 10
1.919524409448818
 20
2.67096414969776
 30
0.0
  0
VERTEX
  5
801
330
4AD
100
AcDbEntity
  8
0
100
AcDbVertex
100
AcDb2dVertex
 10
1.956271653543307
 20
2.67096414969776
 30
0.0
  0
VERTEX
  5
802
330
4AD
100
AcDbEntity
  8
0
100
AcDbVertex
100
AcDb2dVertex
 10
1.995643700787401
 20
2.67096414969776
 30
0.0
  0
VERTEX
  5
803
330
4AD
100
AcDbEntity
  8
0
100
AcDbVertex
100
AcDb2dVertex
 10
2.032390944881889
 20
2.67096414969776
 30
0.0
  0
VERTEX
  5
804
330
4AD
100
AcDbEntity
  8
0
100
AcDbVertex
100
AcDb2dVertex
 10
2.065200984251968
 20
2.67096414969776
 30
0.0
  0
VERTEX
  5
805
330
4AD
100
AcDbEntity
  8
0
100
AcDbVertex
100
AcDb2dVertex
 10
2.091449015748031
 20
2.67096414969776
 30
0.0
  0
VERTEX
  5
806
330
4AD
100
AcDbEntity
  8
0
100
AcDbVertex
100
AcDb2dVertex
 10
2.107197834645669
 20
2.67096414969776
 30
0.0
  0
VERTEX
  5
807
330
4AD
100
AcDbEntity
  8
0
100
AcDbVertex
100
AcDb2dVertex
 10
2.112447440944881
 20
2.67096414969776
 30
0.0
  0
SEQEND
  5
808
330
4AD
100
AcDbEntity
  8
0
  0
POLYLINE
  5
4BB
330
1E
100
AcDbEntity
  8
0
100
AcDb2dPolyline
 66
     1
 10
0.0
 20
0.0
 30
0.0
  0
VERTEX
  5
809
330
4BB
100
AcDbEntity
  8
0
100
AcDbVertex
100
AcDb2dVertex
 10
1.510055118110236
 20
2.412421039461539
 30
0.0
  0
VERTEX
  5
80A
330
4BB
100
AcDbEntity
  8
0
100
AcDbVertex
100
AcDb2dVertex
 10
1.512679921259842
 20
2.43341946465839
 30
0.0
  0
VERTEX
  5
80B
330
4BB
100
AcDbEntity
  8
0
100
AcDbVertex
100
AcDb2dVertex
 10
1.532365944881889
 20
2.478041118201697
 30
0.0
  0
VERTEX
  5
80C
330
4BB
100
AcDbEntity
  8
0
100
AcDbVertex
100
AcDb2dVertex
 10
1.567800787401574
 20
2.516100763870988
 30
0.0
  0
VERTEX
  5
80D
330
4BB
100
AcDbEntity
  8
0
100
AcDbVertex
100
AcDb2dVertex
 10
1.613734842519685
 20
2.538411590642641
 30
0.0
  0
VERTEX
  5
80E
330
4BB
100
AcDbEntity
  8
0
100
AcDbVertex
100
AcDb2dVertex
 10
1.663606102362205
 20
2.544973598516657
 30
0.0
  0
SEQEND
  5
80F
330
4BB
100
AcDbEntity
  8
0
  0
POLYLINE
  5
4C3
330
1E
100
AcDbEntity
  8
0
100
AcDb2dPolyline
 66
     1
 10
0.0
 20
0.0
 30
0.0
  0
VERTEX
  5
810
330
4C3
100
AcDbEntity
  8
0
100
AcDbVertex
100
AcDb2dVertex
 10
1.663606102362205
 20
2.544973598516657
 30
0.0
  0
VERTEX
  5
811
330
4C3
100
AcDbEntity
  8
0
100
AcDbVertex
100
AcDb2dVertex
 10
1.663606102362205
 20
2.559410015839492
 30
0.0
  0
VERTEX
  5
812
330
4C3
100
AcDbEntity
  8
0
100
AcDbVertex
100
AcDb2dVertex
 10
1.663606102362205
 20
2.569909228437917
 30
0.0
  0
SEQEND
  5
813
330
4C3
100
AcDbEntity
  8
0
  0
POLYLINE
  5
4C8
330
1E
100
AcDbEntity
  8
0
100
AcDb2dPolyline
 66
     1
 10
0.0
 20
0.0
 30
0.0
  0
VERTEX
  5
814
330
4C8
100
AcDbEntity
  8
0
100
AcDbVertex
100
AcDb2dVertex
 10
1.663606102362205
 20
2.569909228437917
 30
0.0
  0
VERTEX
  5
815
330
4C8
100
AcDbEntity
  8
0
100
AcDbVertex
100
AcDb2dVertex
 10
1.612422440944881
 20
2.563347220563902
 30
0.0
  0
VERTEX
  5
816
330
4C8
100
AcDbEntity
  8
0
100
AcDbVertex
100
AcDb2dVertex
 10
1.566488385826771
 20
2.542348795367051
 30
0.0
  0
VERTEX
  5
817
330
4C8
100
AcDbEntity
  8
0
100
AcDbVertex
100
AcDb2dVertex
 10
1.52842874015748
 20
2.509538755996972
 30
0.0
  0
VERTEX
  5
818
330
4C8
100
AcDbEntity
  8
0
100
AcDbVertex
100
AcDb2dVertex
 10
1.496931102362204
 20
2.45835509457965
 30
0.0
  0
VERTEX
  5
819
330
4C8
100
AcDbEntity
  8
0
100
AcDbVertex
100
AcDb2dVertex
 10
1.483807086614173
 20
2.399297023713507
 30
0.0
  0
SEQEND
  5
81A
330
4C8
100
AcDbEntity
  8
0
  0
POLYLINE
  5
4D0
330
1E
100
AcDbEntity
  8
0
100
AcDb2dPolyline
 66
     1
 10
0.0
 20
0.0
 30
0.0
  0
VERTEX
  5
81B
330
4D0
100
AcDbEntity
  8
0
100
AcDbVertex
100
AcDb2dVertex
 10
1.483807086614173
 20
2.399297023713507
 30
0.0
  0
VERTEX
  5
81C
330
4D0
100
AcDbEntity
  8
0
100
AcDbVertex
100
AcDb2dVertex
 10
1.498243503937007
 20
2.407171433162326
 30
0.0
  0
VERTEX
  5
81D
330
4D0
100
AcDbEntity
  8
0
100
AcDbVertex
100
AcDb2dVertex
 10
1.510055118110236
 20
2.412421039461539
 30
0.0
  0
SEQEND
  5
81E
330
4D0
100
AcDbEntity
  8
0
  0
LINE
  5
4D5
330
1E
100
AcDbEntity
  8
0
100
AcDbLine
 10
2.289621653543306
 20
2.569909228437917
 30
0.0
 11
2.130821062992126
 21
2.569909228437917
 31
0.0
  0
LINE
  5
4D6
330
1E
100
AcDbEntity
  8
0
100
AcDbLine
 10
1.821094291338582
 20
2.569909228437917
 30
0.0
 11
1.663606102362205
 21
2.569909228437917
 31
0.0
  0
LINE
  5
4D7
330
1E
100
AcDbEntity
  8
0
100
AcDbLine
 10
1.663606102362205
 20
2.544973598516657
 30
0.0
 11
1.821094291338582
 21
2.544973598516657
 31
0.0
  0
LINE
  5
4D8
330
1E
100
AcDbEntity
  8
0
100
AcDbLine
 10
2.130821062992126
 20
2.544973598516657
 30
0.0
 11
2.289621653543306
 21
2.544973598516657
 31
0.0
  0
POLYLINE
  5
4D9
330
1E
100
AcDbEntity
  8
0
100
AcDb2dPolyline
 66
     1
 10
0.0
 20
0.0
 30
0.0
  0
VERTEX
  5
81F
330
4D9
100
AcDbEntity
  8
0
100
AcDbVertex
100
AcDb2dVertex
 10
2.289621653543306
 20
2.544973598516657
 30
0.0
  0
VERTEX
  5
820
330
4D9
100
AcDbEntity
  8
0
100
AcDbVertex
100
AcDb2dVertex
 10
2.289621653543306
 20
2.559410015839492
 30
0.0
  0
VERTEX
  5
821
330
4D9
100
AcDbEntity
  8
0
100
AcDbVertex
100
AcDb2dVertex
 10
2.289621653543306
 20
2.569909228437917
 30
0.0
  0
SEQEND
  5
822
330
4D9
100
AcDbEntity
  8
0
  0
POLYLINE
  5
4DE
330
1E
100
AcDbEntity
  8
0
100
AcDb2dPolyline
 66
     1
 10
0.0
 20
0.0
 30
0.0
  0
VERTEX
  5
823
330
4DE
100
AcDbEntity
  8
0
100
AcDbVertex
100
AcDb2dVertex
 10
2.289621653543306
 20
2.569909228437917
 30
0.0
  0
VERTEX
  5
824
330
4DE
100
AcDbEntity
  8
0
100
AcDbVertex
100
AcDb2dVertex
 10
2.339492913385826
 20
2.563347220563902
 30
0.0
  0
VERTEX
  5
825
330
4DE
100
AcDbEntity
  8
0
100
AcDbVertex
100
AcDb2dVertex
 10
2.385426968503936
 20
2.542348795367051
 30
0.0
  0
VERTEX
  5
826
330
4DE
100
AcDbEntity
  8
0
100
AcDbVertex
100
AcDb2dVertex
 10
2.424799015748031
 20
2.509538755996972
 30
0.0
  0
VERTEX
  5
827
330
4DE
100
AcDbEntity
  8
0
100
AcDbVertex
100
AcDb2dVertex
 10
2.456296653543307
 20
2.45835509457965
 30
0.0
  0
VERTEX
  5
828
330
4DE
100
AcDbEntity
  8
0
100
AcDbVertex
100
AcDb2dVertex
 10
2.469420669291338
 20
2.399297023713507
 30
0.0
  0
SEQEND
  5
829
330
4DE
100
AcDbEntity
  8
0
  0
POLYLINE
  5
4E6
330
1E
100
AcDbEntity
  8
0
100
AcDb2dPolyline
 66
     1
 10
0.0
 20
0.0
 30
0.0
  0
VERTEX
  5
82A
330
4E6
100
AcDbEntity
  8
0
100
AcDbVertex
100
AcDb2dVertex
 10
2.441860236220472
 20
2.412421039461539
 30
0.0
  0
VERTEX
  5
82B
330
4E6
100
AcDbEntity
  8
0
100
AcDbVertex
100
AcDb2dVertex
 10
2.430048622047244
 20
2.459667496154452
 30
0.0
  0
VERTEX
  5
82C
330
4E6
100
AcDbEntity
  8
0
100
AcDbVertex
100
AcDb2dVertex
 10
2.403800590551181
 20
2.499039543398547
 30
0.0
  0
VERTEX
  5
82D
330
4E6
100
AcDbEntity
  8
0
100
AcDbVertex
100
AcDb2dVertex
 10
2.364428543307086
 20
2.527912378044216
 30
0.0
  0
VERTEX
  5
82E
330
4E6
100
AcDbEntity
  8
0
100
AcDbVertex
100
AcDb2dVertex
 10
2.317182086614173
 20
2.543661196941854
 30
0.0
  0
VERTEX
  5
82F
330
4E6
100
AcDbEntity
  8
0
100
AcDbVertex
100
AcDb2dVertex
 10
2.289621653543306
 20
2.544973598516657
 30
0.0
  0
SEQEND
  5
830
330
4E6
100
AcDbEntity
  8
0
  0
POLYLINE
  5
4EE
330
1E
100
AcDbEntity
  8
0
100
AcDb2dPolyline
 66
     1
 10
0.0
 20
0.0
 30
0.0
  0
VERTEX
  5
831
330
4EE
100
AcDbEntity
  8
0
100
AcDbVertex
100
AcDb2dVertex
 10
2.441860236220472
 20
2.412421039461539
 30
0.0
  0
VERTEX
  5
832
330
4EE
100
AcDbEntity
  8
0
100
AcDbVertex
100
AcDb2dVertex
 10
2.45760905511811
 20
2.405859031587524
 30
0.0
  0
VERTEX
  5
833
330
4EE
100
AcDbEntity
  8
0
100
AcDbVertex
100
AcDb2dVertex
 10
2.469420669291338
 20
2.399297023713507
 30
0.0
  0
SEQEND
  5
834
330
4EE
100
AcDbEntity
  8
0
  0
POLYLINE
  5
4F3
330
1E
100
AcDbEntity
  8
0
100
AcDb2dPolyline
 66
     1
 10
0.0
 20
0.0
 30
0.0
  0
VERTEX
  5
835
330
4F3
100
AcDbEntity
  8
0
100
AcDbVertex
100
AcDb2dVertex
 10
2.494356299212598
 20
2.417670645760752
 30
0.0
  0
VERTEX
  5
836
330
4F3
100
AcDbEntity
  8
0
100
AcDbVertex
100
AcDb2dVertex
 10
2.490419094488188
 20
2.443918677256815
 30
0.0
  0
VERTEX
  5
837
330
4F3
100
AcDbEntity
  8
0
100
AcDbVertex
100
AcDb2dVertex
 10
2.479919881889763
 20
2.47541631505209
 30
0.0
  0
VERTEX
  5
838
330
4F3
100
AcDbEntity
  8
0
100
AcDbVertex
100
AcDb2dVertex
 10
2.464171062992126
 20
2.505601551272563
 30
0.0
  0
VERTEX
  5
839
330
4F3
100
AcDbEntity
  8
0
100
AcDbVertex
100
AcDb2dVertex
 10
2.441860236220472
 20
2.533161984343429
 30
0.0
  0
VERTEX
  5
83A
330
4F3
100
AcDbEntity
  8
0
100
AcDbVertex
100
AcDb2dVertex
 10
2.416924606299212
 20
2.555472811115083
 30
0.0
  0
VERTEX
  5
83B
330
4F3
100
AcDbEntity
  8
0
100
AcDbVertex
100
AcDb2dVertex
 10
2.388051771653543
 20
2.573846433162327
 30
0.0
  0
VERTEX
  5
83C
330
4F3
100
AcDbEntity
  8
0
100
AcDbVertex
100
AcDb2dVertex
 10
2.356554133858267
 20
2.586970448910358
 30
0.0
  0
VERTEX
  5
83D
330
4F3
100
AcDbEntity
  8
0
100
AcDbVertex
100
AcDb2dVertex
 10
2.322431692913386
 20
2.594844858359177
 30
0.0
  0
VERTEX
  5
83E
330
4F3
100
AcDbEntity
  8
0
100
AcDbVertex
100
AcDb2dVertex
 10
2.289621653543306
 20
2.597469661508783
 30
0.0
  0
SEQEND
  5
83F
330
4F3
100
AcDbEntity
  8
0
  0
POLYLINE
  5
4FF
330
1E
100
AcDbEntity
  8
0
100
AcDb2dPolyline
 66
     1
 10
0.0
 20
0.0
 30
0.0
  0
VERTEX
  5
840
330
4FF
100
AcDbEntity
  8
0
100
AcDbVertex
100
AcDb2dVertex
 10
2.289621653543306
 20
2.597469661508783
 30
0.0
  0
VERTEX
  5
841
330
4FF
100
AcDbEntity
  8
0
100
AcDbVertex
100
AcDb2dVertex
 10
2.289621653543306
 20
2.581720842611145
 30
0.0
  0
VERTEX
  5
842
330
4FF
100
AcDbEntity
  8
0
100
AcDbVertex
100
AcDb2dVertex
 10
2.289621653543306
 20
2.569909228437917
 30
0.0
  0
SEQEND
  5
843
330
4FF
100
AcDbEntity
  8
0
  0
POLYLINE
  5
504
330
1E
100
AcDbEntity
  8
0
100
AcDb2dPolyline
 66
     1
 10
0.0
 20
0.0
 30
0.0
  0
VERTEX
  5
844
330
504
100
AcDbEntity
  8
0
100
AcDbVertex
100
AcDb2dVertex
 10
2.469420669291338
 20
2.399297023713507
 30
0.0
  0
VERTEX
  5
845
330
504
100
AcDbEntity
  8
0
100
AcDbVertex
100
AcDb2dVertex
 10
2.482544685039369
 20
2.409796236311933
 30
0.0
  0
VERTEX
  5
846
330
504
100
AcDbEntity
  8
0
100
AcDbVertex
100
AcDb2dVertex
 10
2.494356299212598
 20
2.417670645760752
 30
0.0
  0
SEQEND
  5
847
330
504
100
AcDbEntity
  8
0
  0
LINE
  5
509
330
1E
100
AcDbEntity
  8
0
100
AcDbLine
 10
2.289621653543306
 20
2.597469661508783
 30
0.0
 11
2.130821062992126
 21
2.597469661508783
 31
0.0
  0
LINE
  5
50A
330
1E
100
AcDbEntity
  8
0
100
AcDbLine
 10
1.822406692913386
 20
2.597469661508783
 30
0.0
 11
1.663606102362205
 21
2.597469661508783
 31
0.0
  0
POLYLINE
  5
50B
330
1E
100
AcDbEntity
  8
0
100
AcDb2dPolyline
 66
     1
 10
0.0
 20
0.0
 30
0.0
  0
VERTEX
  5
848
330
50B
100
AcDbEntity
  8
0
100
AcDbVertex
100
AcDb2dVertex
 10
1.663606102362205
 20
2.597469661508783
 30
0.0
  0
VERTEX
  5
849
330
50B
100
AcDbEntity
  8
0
100
AcDbVertex
100
AcDb2dVertex
 10
1.663606102362205
 20
2.581720842611145
 30
0.0
  0
VERTEX
  5
84A
330
50B
100
AcDbEntity
  8
0
100
AcDbVertex
100
AcDb2dVertex
 10
1.663606102362205
 20
2.569909228437917
 30
0.0
  0
SEQEND
  5
84B
330
50B
100
AcDbEntity
  8
0
  0
POLYLINE
  5
510
330
1E
100
AcDbEntity
  8
0
100
AcDb2dPolyline
 66
     1
 10
0.0
 20
0.0
 30
0.0
  0
VERTEX
  5
84C
330
510
100
AcDbEntity
  8
0
100
AcDbVertex
100
AcDb2dVertex
 10
1.483807086614173
 20
2.399297023713507
 30
0.0
  0
VERTEX
  5
84D
330
510
100
AcDbEntity
  8
0
100
AcDbVertex
100
AcDb2dVertex
 10
1.469370669291338
 20
2.409796236311933
 30
0.0
  0
VERTEX
  5
84E
330
510
100
AcDbEntity
  8
0
100
AcDbVertex
100
AcDb2dVertex
 10
1.458871456692913
 20
2.417670645760752
 30
0.0
  0
SEQEND
  5
84F
330
510
100
AcDbEntity
  8
0
  0
POLYLINE
  5
515
330
1E
100
AcDbEntity
  8
0
100
AcDb2dPolyline
 66
     1
 10
0.0
 20
0.0
 30
0.0
  0
VERTEX
  5
850
330
515
100
AcDbEntity
  8
0
100
AcDbVertex
100
AcDb2dVertex
 10
1.458871456692913
 20
2.417670645760752
 30
0.0
  0
VERTEX
  5
851
330
515
100
AcDbEntity
  8
0
100
AcDbVertex
100
AcDb2dVertex
 10
1.464121062992125
 20
2.449168283556028
 30
0.0
  0
VERTEX
  5
852
330
515
100
AcDbEntity
  8
0
100
AcDbVertex
100
AcDb2dVertex
 10
1.474620275590551
 20
2.4793535197765
 30
0.0
  0
VERTEX
  5
853
330
515
100
AcDbEntity
  8
0
100
AcDbVertex
100
AcDb2dVertex
 10
1.490369094488189
 20
2.508226354422169
 30
0.0
  0
VERTEX
  5
854
330
515
100
AcDbEntity
  8
0
100
AcDbVertex
100
AcDb2dVertex
 10
1.510055118110236
 20
2.533161984343429
 30
0.0
  0
VERTEX
  5
855
330
515
100
AcDbEntity
  8
0
100
AcDbVertex
100
AcDb2dVertex
 10
1.534990748031495
 20
2.555472811115083
 30
0.0
  0
VERTEX
  5
856
330
515
100
AcDbEntity
  8
0
100
AcDbVertex
100
AcDb2dVertex
 10
1.562551181102362
 20
2.572534031587524
 30
0.0
  0
VERTEX
  5
857
330
515
100
AcDbEntity
  8
0
100
AcDbVertex
100
AcDb2dVertex
 10
1.594048818897637
 20
2.586970448910358
 30
0.0
  0
VERTEX
  5
858
330
515
100
AcDbEntity
  8
0
100
AcDbVertex
100
AcDb2dVertex
 10
1.626858858267716
 20
2.594844858359177
 30
0.0
  0
VERTEX
  5
859
330
515
100
AcDbEntity
  8
0
100
AcDbVertex
100
AcDb2dVertex
 10
1.663606102362205
 20
2.597469661508783
 30
0.0
  0
SEQEND
  5
85A
330
515
100
AcDbEntity
  8
0
  0
POLYLINE
  5
521
330
1E
100
AcDbEntity
  8
0
100
AcDb2dPolyline
 66
     1
 10
0.0
 20
0.0
 30
0.0
  0
VERTEX
  5
85B
330
521
100
AcDbEntity
  8
0
100
AcDbVertex
100
AcDb2dVertex
 10
2.666280905511811
 20
2.745771039461539
 30
0.0
  0
VERTEX
  5
85C
330
521
100
AcDbEntity
  8
0
100
AcDbVertex
100
AcDb2dVertex
 10
2.672842913385826
 20
2.722147811115082
 30
0.0
  0
VERTEX
  5
85D
330
521
100
AcDbEntity
  8
0
100
AcDbVertex
100
AcDb2dVertex
 10
2.675467716535433
 20
2.697212181193822
 30
0.0
  0
SEQEND
  5
85E
330
521
100
AcDbEntity
  8
0
  0
POLYLINE
  5
526
330
1E
100
AcDbEntity
  8
0
100
AcDb2dPolyline
 66
     1
 10
0.0
 20
0.0
 30
0.0
  0
VERTEX
  5
85F
330
526
100
AcDbEntity
  8
0
100
AcDbVertex
100
AcDb2dVertex
 10
2.675467716535433
 20
2.697212181193822
 30
0.0
  0
VERTEX
  5
860
330
526
100
AcDbEntity
  8
0
100
AcDbVertex
100
AcDb2dVertex
 10
2.697778543307086
 20
2.698524582768626
 30
0.0
  0
VERTEX
  5
861
330
526
100
AcDbEntity
  8
0
100
AcDbVertex
100
AcDb2dVertex
 10
2.71615216535433
 20
2.698524582768626
 30
0.0
  0
SEQEND
  5
862
330
526
100
AcDbEntity
  8
0
  0
LINE
  5
52B
330
1E
100
AcDbEntity
  8
0
100
AcDbLine
 10
2.71615216535433
 20
2.698524582768626
 30
0.0
 11
2.708277755905511
 21
2.745771039461539
 31
0.0
  0
LINE
  5
52C
330
1E
100
AcDbEntity
  8
0
100
AcDbLine
 10
1.235763188976378
 20
2.698524582768626
 30
0.0
 11
1.24495
 21
2.745771039461539
 31
0.0
  0
POLYLINE
  5
52D
330
1E
100
AcDbEntity
  8
0
100
AcDb2dPolyline
 66
     1
 10
0.0
 20
0.0
 30
0.0
  0
VERTEX
  5
863
330
52D
100
AcDbEntity
  8
0
100
AcDbVertex
100
AcDb2dVertex
 10
1.276447637795275
 20
2.697212181193822
 30
0.0
  0
VERTEX
  5
864
330
52D
100
AcDbEntity
  8
0
100
AcDbVertex
100
AcDb2dVertex
 10
1.254136811023621
 20
2.698524582768626
 30
0.0
  0
VERTEX
  5
865
330
52D
100
AcDbEntity
  8
0
100
AcDbVertex
100
AcDb2dVertex
 10
1.235763188976378
 20
2.698524582768626
 30
0.0
  0
SEQEND
  5
866
330
52D
100
AcDbEntity
  8
0
  0
POLYLINE
  5
532
330
1E
100
AcDbEntity
  8
0
100
AcDb2dPolyline
 66
     1
 10
0.0
 20
0.0
 30
0.0
  0
VERTEX
  5
867
330
532
100
AcDbEntity
  8
0
100
AcDbVertex
100
AcDb2dVertex
 10
1.2869468503937
 20
2.745771039461539
 30
0.0
  0
VERTEX
  5
868
330
532
100
AcDbEntity
  8
0
100
AcDbVertex
100
AcDb2dVertex
 10
1.280384842519684
 20
2.724772614264689
 30
0.0
  0
VERTEX
  5
869
330
532
100
AcDbEntity
  8
0
100
AcDbVertex
100
AcDb2dVertex
 10
1.276447637795275
 20
2.697212181193822
 30
0.0
  0
SEQEND
  5
86A
330
532
100
AcDbEntity
  8
0
  0
POLYLINE
  5
537
330
1E
100
AcDbEntity
  8
0
100
AcDb2dPolyline
 66
     1
 10
0.0
 20
0.0
 30
0.0
  0
VERTEX
  5
86B
330
537
100
AcDbEntity
  8
0
100
AcDbVertex
100
AcDb2dVertex
 10
1.276447637795275
 20
2.697212181193822
 30
0.0
  0
VERTEX
  5
86C
330
537
100
AcDbEntity
  8
0
100
AcDbVertex
100
AcDb2dVertex
 10
1.267260826771653
 20
2.42948225993398
 30
0.0
  0
VERTEX
  5
86D
330
537
100
AcDbEntity
  8
0
100
AcDbVertex
100
AcDb2dVertex
 10
1.264636023622047
 20
2.345488559146578
 30
0.0
  0
SEQEND
  5
86E
330
537
100
AcDbEntity
  8
0
  0
POLYLINE
  5
53C
330
1E
100
AcDbEntity
  8
0
100
AcDb2dPolyline
 66
     1
 10
0.0
 20
0.0
 30
0.0
  0
VERTEX
  5
86F
330
53C
100
AcDbEntity
  8
0
100
AcDbVertex
100
AcDb2dVertex
 10
1.223951574803149
 20
2.345488559146578
 30
0.0
  0
VERTEX
  5
870
330
53C
100
AcDbEntity
  8
0
100
AcDbVertex
100
AcDb2dVertex
 10
1.225263976377952
 20
2.380923401666264
 30
0.0
  0
VERTEX
  5
871
330
53C
100
AcDbEntity
  8
0
100
AcDbVertex
100
AcDb2dVertex
 10
1.235763188976378
 20
2.698524582768626
 30
0.0
  0
SEQEND
  5
872
330
53C
100
AcDbEntity
  8
0
  0
LINE
  5
541
330
1E
100
AcDbEntity
  8
0
100
AcDbLine
 10
1.458871456692913
 20
2.417670645760752
 30
0.0
 11
1.454934251968504
 21
2.345488559146578
 31
0.0
  0
LINE
  5
542
330
1E
100
AcDbEntity
  8
0
100
AcDbLine
 10
1.483807086614173
 20
2.399297023713508
 30
0.0
 11
1.479869881889763
 21
2.345488559146578
 31
0.0
  0
LINE
  5
543
330
1E
100
AcDbEntity
  8
0
100
AcDbLine
 10
1.506117913385826
 20
2.345488559146578
 30
0.0
 11
1.510055118110236
 21
2.412421039461539
 31
0.0
  0
LINE
  5
544
330
1E
100
AcDbEntity
  8
0
100
AcDbLine
 10
2.445797440944882
 20
2.345488559146578
 30
0.0
 11
2.441860236220472
 21
2.412421039461539
 31
0.0
  0
LINE
  5
545
330
1E
100
AcDbEntity
  8
0
100
AcDbLine
 10
2.469420669291338
 20
2.399297023713508
 30
0.0
 11
2.472045472440944
 21
2.345488559146578
 31
0.0
  0
LINE
  5
546
330
1E
100
AcDbEntity
  8
0
100
AcDbLine
 10
2.494356299212598
 20
2.417670645760752
 30
0.0
 11
2.498293503937007
 21
2.345488559146578
 31
0.0
  0
POLYLINE
  5
547
330
1E
100
AcDbEntity
  8
0
100
AcDb2dPolyline
 66
     1
 10
0.0
 20
0.0
 30
0.0
  0
VERTEX
  5
873
330
547
100
AcDbEntity
  8
0
100
AcDbVertex
100
AcDb2dVertex
 10
2.675467716535433
 20
2.697212181193822
 30
0.0
  0
VERTEX
  5
874
330
547
100
AcDbEntity
  8
0
100
AcDbVertex
100
AcDb2dVertex
 10
2.684654527559055
 20
2.411108637886737
 30
0.0
  0
VERTEX
  5
875
330
547
100
AcDbEntity
  8
0
100
AcDbVertex
100
AcDb2dVertex
 10
2.687279330708661
 20
2.345488559146578
 30
0.0
  0
SEQEND
  5
876
330
547
100
AcDbEntity
  8
0
  0
POLYLINE
  5
54C
330
1E
100
AcDbEntity
  8
0
100
AcDb2dPolyline
 66
     1
 10
0.0
 20
0.0
 30
0.0
  0
VERTEX
  5
877
330
54C
100
AcDbEntity
  8
0
100
AcDbVertex
100
AcDb2dVertex
 10
2.727963779527558
 20
2.345488559146578
 30
0.0
  0
VERTEX
  5
878
330
54C
100
AcDbEntity
  8
0
100
AcDbVertex
100
AcDb2dVertex
 10
2.726651377952755
 20
2.380923401666264
 30
0.0
  0
VERTEX
  5
879
330
54C
100
AcDbEntity
  8
0
100
AcDbVertex
100
AcDb2dVertex
 10
2.71615216535433
 20
2.698524582768626
 30
0.0
  0
SEQEND
  5
87A
330
54C
100
AcDbEntity
  8
0
  0
LINE
  5
551
330
1E
100
AcDbEntity
  8
0
100
AcDbLine
 10
2.717464566929133
 20
2.698524582768626
 30
0.0
 11
2.71615216535433
 21
2.698524582768626
 31
0.0
  0
LINE
  5
552
330
1E
100
AcDbEntity
  8
0
100
AcDbLine
 10
1.235763188976378
 20
2.698524582768626
 30
0.0
 11
1.234450787401574
 21
2.698524582768626
 31
0.0
  0
LINE
  5
594
330
1E
100
AcDbEntity
  8
0
100
AcDbLine
 10
6.015529724409448
 20
4.66712694497335
 30
0.0
 11
6.015529724409448
 21
4.657940133949728
 31
0.0
  0
LINE
  5
595
330
1E
100
AcDbEntity
  8
0
100
AcDbLine
 10
6.015529724409448
 20
4.227472417414294
 30
0.0
 11
6.015529724409448
 21
4.657940133949728
 31
0.0
  0
LINE
  5
596
330
1E
100
AcDbEntity
  8
0
100
AcDbLine
 10
6.015529724409448
 20
4.227472417414294
 30
0.0
 11
6.015529724409448
 21
4.216973204815869
 31
0.0
  0
LINE
  5
597
330
1E
100
AcDbEntity
  8
0
100
AcDbLine
 10
5.956471653543307
 20
4.580508441036342
 30
0.0
 11
5.910537598425196
 21
4.581820842611144
 31
0.0
  0
LINE
  5
598
330
1E
100
AcDbEntity
  8
0
100
AcDbLine
 10
5.956471653543307
 20
4.655315330800122
 30
0.0
 11
5.910537598425196
 21
4.654002929225319
 31
0.0
  0
LINE
  5
599
330
1E
100
AcDbEntity
  8
0
100
AcDbLine
 10
5.956471653543307
 20
4.30490411032768
 30
0.0
 11
5.910537598425196
 21
4.302279307178075
 31
0.0
  0
LINE
  5
59A
330
1E
100
AcDbEntity
  8
0
100
AcDbLine
 10
5.956471653543307
 20
4.230097220563902
 30
0.0
 11
5.910537598425196
 21
4.231409622138704
 31
0.0
  0
LINE
  5
59B
330
1E
100
AcDbEntity
  8
0
100
AcDbLine
 10
6.015529724409448
 20
4.657940133949728
 30
0.0
 11
5.956471653543307
 21
4.655315330800122
 31
0.0
  0
LINE
  5
59C
330
1E
100
AcDbEntity
  8
0
100
AcDbLine
 10
5.956471653543307
 20
4.30490411032768
 30
0.0
 11
5.910537598425196
 21
4.307528913477288
 31
0.0
  0
LINE
  5
59D
330
1E
100
AcDbEntity
  8
0
100
AcDbLine
 10
5.956471653543307
 20
4.580508441036342
 30
0.0
 11
5.910537598425196
 21
4.577883637886737
 31
0.0
  0
LINE
  5
59E
330
1E
100
AcDbEntity
  8
0
100
AcDbLine
 10
6.015529724409448
 20
4.227472417414294
 30
0.0
 11
5.956471653543307
 21
4.230097220563902
 31
0.0
  0
LINE
  5
59F
330
1E
100
AcDbEntity
  8
0
100
AcDbLine
 10
5.956471653543307
 20
4.655315330800122
 30
0.0
 11
5.956471653543307
 21
4.230097220563902
 31
0.0
  0
LINE
  5
5A0
330
1E
100
AcDbEntity
  8
0
100
AcDbLine
 10
5.132283464566929
 20
3.485965527650515
 30
0.0
 11
5.125721456692913
 21
3.485965527650515
 31
0.0
  0
LINE
  5
5A1
330
1E
100
AcDbEntity
  8
0
100
AcDbLine
 10
6.015529724409448
 20
3.447905881981224
 30
0.0
 11
5.075850196850393
 21
3.488590330800122
 31
0.0
  0
POLYLINE
  5
5A2
330
1E
100
AcDbEntity
  8
0
100
AcDb2dPolyline
 66
     1
 10
0.0
 20
0.0
 30
0.0
  0
VERTEX
  5
87B
330
5A2
100
AcDbEntity
  8
0
100
AcDbVertex
100
AcDb2dVertex
 10
4.956421653543307
 20
3.613268480406422
 30
0.0
  0
VERTEX
  5
87C
330
5A2
100
AcDbEntity
  8
0
100
AcDbVertex
100
AcDb2dVertex
 10
4.961671259842518
 20
3.575208834737129
 30
0.0
  0
VERTEX
  5
87D
330
5A2
100
AcDbEntity
  8
0
100
AcDbVertex
100
AcDb2dVertex
 10
4.97873248031496
 20
3.542398795367051
 30
0.0
  0
VERTEX
  5
87E
330
5A2
100
AcDbEntity
  8
0
100
AcDbVertex
100
AcDb2dVertex
 10
5.004980511811022
 20
3.514838362296185
 30
0.0
  0
VERTEX
  5
87F
330
5A2
100
AcDbEntity
  8
0
100
AcDbVertex
100
AcDb2dVertex
 10
5.037790551181102
 20
3.496464740248941
 30
0.0
  0
VERTEX
  5
880
330
5A2
100
AcDbEntity
  8
0
100
AcDbVertex
100
AcDb2dVertex
 10
5.075850196850393
 20
3.488590330800123
 30
0.0
  0
SEQEND
  5
881
330
5A2
100
AcDbEntity
  8
0
  0
POLYLINE
  5
5AA
330
1E
100
AcDbEntity
  8
0
100
AcDb2dPolyline
 66
     1
 10
0.0
 20
0.0
 30
0.0
  0
VERTEX
  5
882
330
5AA
100
AcDbEntity
  8
0
100
AcDbVertex
100
AcDb2dVertex
 10
5.071912992125984
 20
3.629017299304059
 30
0.0
  0
VERTEX
  5
883
330
5AA
100
AcDbEntity
  8
0
100
AcDbVertex
100
AcDb2dVertex
 10
5.070600590551181
 20
3.592270055209571
 30
0.0
  0
VERTEX
  5
884
330
5AA
100
AcDbEntity
  8
0
100
AcDbVertex
100
AcDb2dVertex
 10
5.070600590551181
 20
3.558147614264689
 30
0.0
  0
VERTEX
  5
885
330
5AA
100
AcDbEntity
  8
0
100
AcDbVertex
100
AcDb2dVertex
 10
5.070600590551181
 20
3.529274779619019
 30
0.0
  0
VERTEX
  5
886
330
5AA
100
AcDbEntity
  8
0
100
AcDbVertex
100
AcDb2dVertex
 10
5.071912992125984
 20
3.506963952847366
 30
0.0
  0
VERTEX
  5
887
330
5AA
100
AcDbEntity
  8
0
100
AcDbVertex
100
AcDb2dVertex
 10
5.073225393700786
 20
3.493839937099334
 30
0.0
  0
VERTEX
  5
888
330
5AA
100
AcDbEntity
  8
0
100
AcDbVertex
100
AcDb2dVertex
 10
5.075850196850393
 20
3.488590330800123
 30
0.0
  0
SEQEND
  5
889
330
5AA
100
AcDbEntity
  8
0
  0
POLYLINE
  5
5B3
330
1E
100
AcDbEntity
  8
0
100
AcDb2dPolyline
 66
     1
 10
0.0
 20
0.0
 30
0.0
  0
VERTEX
  5
88A
330
5B3
100
AcDbEntity
  8
0
100
AcDbVertex
100
AcDb2dVertex
 10
5.071912992125984
 20
3.629017299304059
 30
0.0
  0
VERTEX
  5
88B
330
5B3
100
AcDbEntity
  8
0
100
AcDbVertex
100
AcDb2dVertex
 10
5.035165748031495
 20
3.629017299304059
 30
0.0
  0
VERTEX
  5
88C
330
5B3
100
AcDbEntity
  8
0
100
AcDbVertex
100
AcDb2dVertex
 10
5.00366811023622
 20
3.629017299304059
 30
0.0
  0
VERTEX
  5
88D
330
5B3
100
AcDbEntity
  8
0
100
AcDbVertex
100
AcDb2dVertex
 10
4.977420078740157
 20
3.629017299304059
 30
0.0
  0
VERTEX
  5
88E
330
5B3
100
AcDbEntity
  8
0
100
AcDbVertex
100
AcDb2dVertex
 10
4.961671259842518
 20
3.629017299304059
 30
0.0
  0
VERTEX
  5
88F
330
5B3
100
AcDbEntity
  8
0
100
AcDbVertex
100
AcDb2dVertex
 10
4.956421653543307
 20
3.629017299304059
 30
0.0
  0
SEQEND
  5
890
330
5B3
100
AcDbEntity
  8
0
  0
POLYLINE
  5
5BB
330
1E
100
AcDbEntity
  8
0
100
AcDb2dPolyline
 66
     1
 10
0.0
 20
0.0
 30
0.0
  0
VERTEX
  5
891
330
5BB
100
AcDbEntity
  8
0
100
AcDbVertex
100
AcDb2dVertex
 10
4.956421653543307
 20
3.613268480406422
 30
0.0
  0
VERTEX
  5
892
330
5BB
100
AcDbEntity
  8
0
100
AcDbVertex
100
AcDb2dVertex
 10
4.956421653543307
 20
3.61720568513083
 30
0.0
  0
VERTEX
  5
893
330
5BB
100
AcDbEntity
  8
0
100
AcDbVertex
100
AcDb2dVertex
 10
4.956421653543307
 20
3.629017299304059
 30
0.0
  0
SEQEND
  5
894
330
5BB
100
AcDbEntity
  8
0
  0
LINE
  5
5C0
330
1E
100
AcDbEntity
  8
0
100
AcDbLine
 10
5.910537598425196
 20
4.665814543398547
 30
0.0
 11
5.910537598425196
 21
4.219598007965476
 31
0.0
  0
POLYLINE
  5
5C1
330
1E
100
AcDbEntity
  8
0
100
AcDb2dPolyline
 66
     1
 10
0.0
 20
0.0
 30
0.0
  0
VERTEX
  5
895
330
5C1
100
AcDbEntity
  8
0
100
AcDbVertex
100
AcDb2dVertex
 10
6.015529724409447
 20
3.587020448910358
 30
0.0
  0
VERTEX
  5
896
330
5C1
100
AcDbEntity
  8
0
100
AcDbVertex
100
AcDb2dVertex
 10
6.015529724409447
 20
3.551585606390673
 30
0.0
  0
VERTEX
  5
897
330
5C1
100
AcDbEntity
  8
0
100
AcDbVertex
100
AcDb2dVertex
 10
6.015529724409447
 20
3.517463165445791
 30
0.0
  0
VERTEX
  5
898
330
5C1
100
AcDbEntity
  8
0
100
AcDbVertex
100
AcDb2dVertex
 10
6.015529724409447
 20
3.488590330800123
 30
0.0
  0
VERTEX
  5
899
330
5C1
100
AcDbEntity
  8
0
100
AcDbVertex
100
AcDb2dVertex
 10
6.015529724409447
 20
3.466279504028468
 30
0.0
  0
VERTEX
  5
89A
330
5C1
100
AcDbEntity
  8
0
100
AcDbVertex
100
AcDb2dVertex
 10
6.015529724409447
 20
3.451843086705634
 30
0.0
  0
VERTEX
  5
89B
330
5C1
100
AcDbEntity
  8
0
100
AcDbVertex
100
AcDb2dVertex
 10
6.015529724409447
 20
3.447905881981224
 30
0.0
  0
SEQEND
  5
89C
330
5C1
100
AcDbEntity
  8
0
  0
LINE
  5
5CA
330
1E
100
AcDbEntity
  8
0
100
AcDbLine
 10
5.071912992125984
 20
3.629017299304059
 30
0.0
 11
6.015529724409448
 21
3.587020448910358
 31
0.0
  0
LINE
  5
5CB
330
1E
100
AcDbEntity
  8
0
100
AcDbLine
 10
6.015529724409448
 20
3.587020448910358
 30
0.0
 11
6.015529724409448
 21
4.216973204815869
 31
0.0
  0
LINE
  5
5CC
330
1E
100
AcDbEntity
  8
0
100
AcDbLine
 10
6.015529724409448
 20
4.216973204815869
 30
0.0
 11
5.910537598425196
 21
4.219598007965476
 31
0.0
  0
LINE
  5
5CD
330
1E
100
AcDbEntity
  8
0
100
AcDbLine
 10
6.015529724409448
 20
4.66712694497335
 30
0.0
 11
5.910537598425196
 21
4.665814543398547
 31
0.0
  0
POLYLINE
  5
5CE
330
1E
100
AcDbEntity
  8
0
100
AcDb2dPolyline
 66
     1
 10
0.0
 20
0.0
 30
0.0
  0
VERTEX
  5
89D
330
5CE
100
AcDbEntity
  8
0
100
AcDbVertex
100
AcDb2dVertex
 10
6.015529724409447
 20
8.041311393792248
 30
0.0
  0
VERTEX
  5
89E
330
5CE
100
AcDbEntity
  8
0
100
AcDbVertex
100
AcDb2dVertex
 10
6.015529724409447
 20
8.036061787493036
 30
0.0
  0
VERTEX
  5
89F
330
5CE
100
AcDbEntity
  8
0
100
AcDbVertex
100
AcDb2dVertex
 10
6.015529724409447
 20
8.020312968595398
 30
0.0
  0
VERTEX
  5
8A0
330
5CE
100
AcDbEntity
  8
0
100
AcDbVertex
100
AcDb2dVertex
 10
6.015529724409447
 20
7.995377338674138
 30
0.0
  0
VERTEX
  5
8A1
330
5CE
100
AcDbEntity
  8
0
100
AcDbVertex
100
AcDb2dVertex
 10
6.015529724409447
 20
7.961254897729256
 30
0.0
  0
VERTEX
  5
8A2
330
5CE
100
AcDbEntity
  8
0
100
AcDbVertex
100
AcDb2dVertex
 10
6.015529724409447
 20
7.920570448910357
 30
0.0
  0
VERTEX
  5
8A3
330
5CE
100
AcDbEntity
  8
0
100
AcDbVertex
100
AcDb2dVertex
 10
6.015529724409447
 20
7.874636393792249
 30
0.0
  0
VERTEX
  5
8A4
330
5CE
100
AcDbEntity
  8
0
100
AcDbVertex
100
AcDb2dVertex
 10
6.015529724409447
 20
7.827389937099335
 30
0.0
  0
SEQEND
  5
8A5
330
5CE
100
AcDbEntity
  8
0
  0
LINE
  5
5D8
330
1E
100
AcDbEntity
  8
0
100
AcDbLine
 10
6.015529724409448
 20
4.66712694497335
 30
0.0
 11
6.015529724409448
 21
7.827389937099335
 31
0.0
  0
LINE
  5
5D9
330
1E
100
AcDbEntity
  8
0
100
AcDbLine
 10
6.015529724409448
 20
7.827389937099335
 30
0.0
 11
5.071912992125984
 21
7.761769858359176
 31
0.0
  0
LINE
  5
5DA
330
1E
100
AcDbEntity
  8
0
100
AcDbLine
 10
5.071912992125984
 20
7.761769858359176
 30
0.0
 11
5.071912992125984
 21
3.629017299304059
 31
0.0
  0
POLYLINE
  5
5DB
330
1E
100
AcDbEntity
  8
0
100
AcDb2dPolyline
 66
     1
 10
0.0
 20
0.0
 30
0.0
  0
VERTEX
  5
8A6
330
5DB
100
AcDbEntity
  8
0
100
AcDbVertex
100
AcDb2dVertex
 10
5.071912992125984
 20
7.761769858359176
 30
0.0
  0
VERTEX
  5
8A7
330
5DB
100
AcDbEntity
  8
0
100
AcDbVertex
100
AcDb2dVertex
 10
5.035165748031495
 20
7.761769858359176
 30
0.0
  0
VERTEX
  5
8A8
330
5DB
100
AcDbEntity
  8
0
100
AcDbVertex
100
AcDb2dVertex
 10
5.00366811023622
 20
7.761769858359176
 30
0.0
  0
VERTEX
  5
8A9
330
5DB
100
AcDbEntity
  8
0
100
AcDbVertex
100
AcDb2dVertex
 10
4.977420078740157
 20
7.761769858359176
 30
0.0
  0
VERTEX
  5
8AA
330
5DB
100
AcDbEntity
  8
0
100
AcDbVertex
100
AcDb2dVertex
 10
4.961671259842518
 20
7.761769858359176
 30
0.0
  0
VERTEX
  5
8AB
330
5DB
100
AcDbEntity
  8
0
100
AcDbVertex
100
AcDb2dVertex
 10
4.956421653543307
 20
7.761769858359176
 30
0.0
  0
SEQEND
  5
8AC
330
5DB
100
AcDbEntity
  8
0
  0
LINE
  5
5E3
330
1E
100
AcDbEntity
  8
0
100
AcDbLine
 10
4.956421653543307
 20
3.629017299304059
 30
0.0
 11
4.956421653543307
 21
7.761769858359176
 31
0.0
  0
POLYLINE
  5
5E4
330
1E
100
AcDbEntity
  8
0
100
AcDb2dPolyline
 66
     1
 10
0.0
 20
0.0
 30
0.0
  0
VERTEX
  5
8AD
330
5E4
100
AcDbEntity
  8
0
100
AcDbVertex
100
AcDb2dVertex
 10
4.956421653543307
 20
7.761769858359176
 30
0.0
  0
VERTEX
  5
8AE
330
5E4
100
AcDbEntity
  8
0
100
AcDbVertex
100
AcDb2dVertex
 10
4.956421653543307
 20
7.789330291430044
 30
0.0
  0
VERTEX
  5
8AF
330
5E4
100
AcDbEntity
  8
0
100
AcDbVertex
100
AcDb2dVertex
 10
4.956421653543307
 20
7.814265921351303
 30
0.0
  0
VERTEX
  5
8B0
330
5E4
100
AcDbEntity
  8
0
100
AcDbVertex
100
AcDb2dVertex
 10
4.956421653543307
 20
7.83395194497335
 30
0.0
  0
VERTEX
  5
8B1
330
5E4
100
AcDbEntity
  8
0
100
AcDbVertex
100
AcDb2dVertex
 10
4.956421653543307
 20
7.847075960721381
 30
0.0
  0
VERTEX
  5
8B2
330
5E4
100
AcDbEntity
  8
0
100
AcDbVertex
100
AcDb2dVertex
 10
4.956421653543307
 20
7.851013165445792
 30
0.0
  0
SEQEND
  5
8B3
330
5E4
100
AcDbEntity
  8
0
  0
POLYLINE
  5
5EC
330
1E
100
AcDbEntity
  8
0
100
AcDb2dPolyline
 66
     1
 10
0.0
 20
0.0
 30
0.0
  0
VERTEX
  5
8B4
330
5EC
100
AcDbEntity
  8
0
100
AcDbVertex
100
AcDb2dVertex
 10
5.071912992125984
 20
7.97569131505209
 30
0.0
  0
VERTEX
  5
8B5
330
5EC
100
AcDbEntity
  8
0
100
AcDbVertex
100
AcDb2dVertex
 10
5.035165748031495
 20
7.967816905603273
 30
0.0
  0
VERTEX
  5
8B6
330
5EC
100
AcDbEntity
  8
0
100
AcDbVertex
100
AcDb2dVertex
 10
5.00366811023622
 20
7.949443283556027
 30
0.0
  0
VERTEX
  5
8B7
330
5EC
100
AcDbEntity
  8
0
100
AcDbVertex
100
AcDb2dVertex
 10
4.977420078740157
 20
7.921882850485161
 30
0.0
  0
VERTEX
  5
8B8
330
5EC
100
AcDbEntity
  8
0
100
AcDbVertex
100
AcDb2dVertex
 10
4.961671259842518
 20
7.887760409540279
 30
0.0
  0
VERTEX
  5
8B9
330
5EC
100
AcDbEntity
  8
0
100
AcDbVertex
100
AcDb2dVertex
 10
4.956421653543307
 20
7.851013165445792
 30
0.0
  0
SEQEND
  5
8BA
330
5EC
100
AcDbEntity
  8
0
  0
LINE
  5
5F4
330
1E
100
AcDbEntity
  8
0
100
AcDbLine
 10
5.071912992125984
 20
7.97569131505209
 30
0.0
 11
6.015529724409448
 21
8.041311393792248
 31
0.0
  0
LINE
  5
5F5
330
1E
100
AcDbEntity
  8
0
100
AcDbLine
 10
6.015529724409448
 20
8.041311393792248
 30
0.0
 11
5.910537598425196
 21
8.034749385918232
 31
0.0
  0
POLYLINE
  5
5F6
330
1E
100
AcDbEntity
  8
0
100
AcDb2dPolyline
 66
     1
 10
0.0
 20
0.0
 30
0.0
  0
VERTEX
  5
8BB
330
5F6
100
AcDbEntity
  8
0
100
AcDbVertex
100
AcDb2dVertex
 10
5.071912992125984
 20
7.97569131505209
 30
0.0
  0
VERTEX
  5
8BC
330
5F6
100
AcDbEntity
  8
0
100
AcDbVertex
100
AcDb2dVertex
 10
5.070600590551181
 20
7.970441708752877
 30
0.0
  0
VERTEX
  5
8BD
330
5F6
100
AcDbEntity
  8
0
100
AcDbVertex
100
AcDb2dVertex
 10
5.069288188976377
 20
7.954692889855239
 30
0.0
  0
VERTEX
  5
8BE
330
5F6
100
AcDbEntity
  8
0
100
AcDbVertex
100
AcDb2dVertex
 10
5.069288188976377
 20
7.928444858359178
 30
0.0
  0
VERTEX
  5
8BF
330
5F6
100
AcDbEntity
  8
0
100
AcDbVertex
100
AcDb2dVertex
 10
5.069288188976377
 20
7.894322417414295
 30
0.0
  0
VERTEX
  5
8C0
330
5F6
100
AcDbEntity
  8
0
100
AcDbVertex
100
AcDb2dVertex
 10
5.069288188976377
 20
7.853637968595398
 30
0.0
  0
VERTEX
  5
8C1
330
5F6
100
AcDbEntity
  8
0
100
AcDbVertex
100
AcDb2dVertex
 10
5.070600590551181
 20
7.80901631505209
 30
0.0
  0
VERTEX
  5
8C2
330
5F6
100
AcDbEntity
  8
0
100
AcDbVertex
100
AcDb2dVertex
 10
5.071912992125984
 20
7.761769858359176
 30
0.0
  0
SEQEND
  5
8C3
330
5F6
100
AcDbEntity
  8
0
  0
ENDSEC
  0
SECTION
  2
OBJECTS
  0
DICTIONARY
  5
C
330
0
100
AcDbDictionary
  3
ACAD_GROUP
350
D
  3
ACAD_MLINESTYLE
350
16
  3
ACAD_PLOTSETTINGS
350
18
  3
ACAD_LAYOUT
350
19
1001
ACAD
1000
TREAT_AS_HARD
1070
     0
  0
DICTIONARY
  5
620
330
1E
100
AcDbDictionary
  3
ACAD_LAYOUTSELFREF
350
621
  0
DICTIONARY
  5
61E
330
1A
100
AcDbDictionary
  3
ACAD_LAYOUTSELFREF
350
61F
  0
DICTIONARY
  5
D
102
{ACAD_REACTORS
330
C
102
}
330
C
100
AcDbDictionary
1001
ACAD
1000
TREAT_AS_HARD
1070
     0
  0
DICTIONARY
  5
16
102
{ACAD_REACTORS
330
C
102
}
330
C
100
AcDbDictionary
  3
STANDARD
350
17
1001
ACAD
1000
TREAT_AS_HARD
1070
     0
  0
DICTIONARY
  5
18
102
{ACAD_REACTORS
330
C
102
}
330
C
100
AcDbDictionary
1001
ACAD
1000
TREAT_AS_HARD
1070
     0
  0
DICTIONARY
  5
19
102
{ACAD_REACTORS
330
C
102
}
330
C
100
AcDbDictionary
1001
ACAD
1000
TREAT_AS_HARD
1070
     0
  0
XRECORD
  5
621
102
{ACAD_REACTORS
330
620
102
}
330
620
100
AcDbXrecord
340
1E
  0
XRECORD
  5
61F
102
{ACAD_REACTORS
330
61E
102
}
330
61E
100
AcDbXrecord
340
1A
  0
MLINESTYLE
  5
17
102
{ACAD_REACTORS
330
16
102
}
330
16
100
AcDbMlineStyle
  2
STANDARD
 70
     0
  3

 62
   256
 51
90.0
 52
90.0
 71
     2
 49
0.5
 62
   256
  6
BYLAYER
 49
-0.5
 62
   256
  6
BYLAYER
  0
ENDSEC
  0
EOF
