  0
SECTION
  2
HEADER
  9
$ACADVER
  1
AC1012
  9
$DWGCODEPAGE
  3
ANSI_1252
  9
$INSBASE
 10
0.0
 20
0.0
 30
0.0
  9
$EXTMIN
 10
1.378417998294366
 20
3.829147364279659
 30
-0.0015258207003583
  9
$EXTMAX
 10
6.122680685160077
 20
6.865493792883928
 30
0.0000000349246037
  9
$LIMMIN
 10
0.0
 20
0.0
  9
$LIMMAX
 10
12.0
 20
9.0
  9
$ORTHOMODE
 70
     0
  9
$REGENMODE
 70
     1
  9
$FILLMODE
 70
     1
  9
$QTEXTMODE
 70
     0
  9
$MIRRTEXT
 70
     1
  9
$DRAGMODE
 70
     2
  9
$LTSCALE
 40
1.0
  9
$OSMODE
 70
   547
  9
$ATTMODE
 70
     1
  9
$TEXTSIZE
 40
0.2
  9
$TRACEWID
 40
0.05
  9
$TEXTSTYLE
  7
STANDARD
  9
$CLAYER
  8
0
  9
$CELTYPE
  6
BYLAYER
  9
$CECOLOR
 62
   256
  9
$CELTSCALE
 40
1.0
  9
$DELOBJ
 70
     1
  9
$DISPSILH
 70
     0
  9
$DIMSCALE
 40
1.0
  9
$DIMASZ
 40
0.18
  9
$DIMEXO
 40
0.0625
  9
$DIMDLI
 40
0.38
  9
$DIMRND
 40
0.0
  9
$DIMDLE
 40
0.0
  9
$DIMEXE
 40
0.18
  9
$DIMTP
 40
0.0
  9
$DIMTM
 40
0.0
  9
$DIMTXT
 40
0.18
  9
$DIMCEN
 40
0.09
  9
$DIMTSZ
 40
0.0
  9
$DIMTOL
 70
     0
  9
$DIMLIM
 70
     0
  9
$DIMTIH
 70
     1
  9
$DIMTOH
 70
     1
  9
$DIMSE1
 70
     0
  9
$DIMSE2
 70
     0
  9
$DIMTAD
 70
     0
  9
$DIMZIN
 70
     0
  9
$DIMBLK
  1

  9
$DIMASO
 70
     1
  9
$DIMSHO
 70
     1
  9
$DIMPOST
  1

  9
$DIMAPOST
  1

  9
$DIMALT
 70
     0
  9
$DIMALTD
 70
     2
  9
$DIMALTF
 40
25.4
  9
$DIMLFAC
 40
1.0
  9
$DIMTOFL
 70
     0
  9
$DIMTVP
 40
0.0
  9
$DIMTIX
 70
     0
  9
$DIMSOXD
 70
     0
  9
$DIMSAH
 70
     0
  9
$DIMBLK1
  1

  9
$DIMBLK2
  1

  9
$DIMSTYLE
  2
STANDARD
  9
$DIMCLRD
 70
     0
  9
$DIMCLRE
 70
     0
  9
$DIMCLRT
 70
     0
  9
$DIMTFAC
 40
1.0
  9
$DIMGAP
 40
0.09
  9
$DIMJUST
 70
     0
  9
$DIMSD1
 70
     0
  9
$DIMSD2
 70
     0
  9
$DIMTOLJ
 70
     1
  9
$DIMTZIN
 70
     0
  9
$DIMALTZ
 70
     0
  9
$DIMALTTZ
 70
     0
  9
$DIMFIT
 70
     5
  9
$DIMUPT
 70
     0
  9
$DIMUNIT
 70
     2
  9
$DIMDEC
 70
     4
  9
$DIMTDEC
 70
     4
  9
$DIMALTU
 70
     2
  9
$DIMALTTD
 70
     2
  9
$DIMTXSTY
  7
STANDARD
  9
$DIMAUNIT
 70
     0
  9
$LUNITS
 70
     2
  9
$LUPREC
 70
     4
  9
$SKETCHINC
 40
0.1
  9
$FILLETRAD
 40
0.0
  9
$AUNITS
 70
     0
  9
$AUPREC
 70
     0
  9
$MENU
  1
acad
  9
$ELEVATION
 40
0.0
  9
$PELEVATION
 40
0.0
  9
$THICKNESS
 40
0.0
  9
$LIMCHECK
 70
     0
  9
$BLIPMODE
 70
     0
  9
$CHAMFERA
 40
0.0
  9
$CHAMFERB
 40
0.0
  9
$CHAMFERC
 40
0.0
  9
$CHAMFERD
 40
0.0
  9
$SKPOLY
 70
     0
  9
$TDCREATE
 40
2453946.323391203
  9
$TDUPDATE
 40
2453946.333487789
  9
$TDINDWG
 40
0.0006528472
  9
$TDUSRTIMER
 40
0.0006528472
  9
$USRTIMER
 70
     1
  9
$ANGBASE
 50
0.0
  9
$ANGDIR
 70
     0
  9
$PDMODE
 70
     0
  9
$PDSIZE
 40
0.0
  9
$PLINEWID
 40
0.0
  9
$COORDS
 70
     1
  9
$SPLFRAME
 70
     0
  9
$SPLINETYPE
 70
     6
  9
$SPLINESEGS
 70
     8
  9
$ATTDIA
 70
     0
  9
$ATTREQ
 70
     1
  9
$HANDLING
 70
  4097
  9
$HANDSEED
  5
504E
  9
$SURFTAB1
 70
     6
  9
$SURFTAB2
 70
     6
  9
$SURFTYPE
 70
     6
  9
$SURFU
 70
     6
  9
$SURFV
 70
     6
  9
$UCSNAME
  2

  9
$UCSORG
 10
0.0
 20
0.0
 30
0.0
  9
$UCSXDIR
 10
1.0
 20
0.0
 30
0.0
  9
$UCSYDIR
 10
0.0
 20
1.0
 30
0.0
  9
$PUCSNAME
  2

  9
$PUCSORG
 10
0.0
 20
0.0
 30
0.0
  9
$PUCSXDIR
 10
1.0
 20
0.0
 30
0.0
  9
$PUCSYDIR
 10
0.0
 20
1.0
 30
0.0
  9
$USERI1
 70
     0
  9
$USERI2
 70
     0
  9
$USERI3
 70
     0
  9
$USERI4
 70
     0
  9
$USERI5
 70
     0
  9
$USERR1
 40
0.0
  9
$USERR2
 40
0.0
  9
$USERR3
 40
0.0
  9
$USERR4
 40
0.0
  9
$USERR5
 40
0.0
  9
$WORLDVIEW
 70
     1
  9
$SHADEDGE
 70
     3
  9
$SHADEDIF
 70
    70
  9
$TILEMODE
 70
     1
  9
$MAXACTVP
 70
    16
  9
$PINSBASE
 10
0.0
 20
0.0
 30
0.0
  9
$PLIMCHECK
 70
     0
  9
$PEXTMIN
 10
1.000000000000000E+20
 20
1.000000000000000E+20
 30
1.000000000000000E+20
  9
$PEXTMAX
 10
-1.000000000000000E+20
 20
-1.000000000000000E+20
 30
-1.000000000000000E+20
  9
$PLIMMIN
 10
0.0
 20
0.0
  9
$PLIMMAX
 10
12.0
 20
9.0
  9
$UNITMODE
 70
     0
  9
$VISRETAIN
 70
     0
  9
$PLINEGEN
 70
     0
  9
$PSLTSCALE
 70
     1
  9
$TREEDEPTH
 70
  3020
  9
$PICKSTYLE
 70
     1
  9
$CMLSTYLE
  2
STANDARD
  9
$CMLJUST
 70
     0
  9
$CMLSCALE
 40
1.0
  9
$SAVEIMAGES
 70
     1
  0
ENDSEC
  0
SECTION
  2
CLASSES
  0
CLASS
  1
ACDBDICTIONARYWDFLT
  2
AcDbDictionaryWithDefault
  3
AutoCAD 2000
 90
    32768
280
     0
281
     0
  0
CLASS
  1
ACDBPLACEHOLDER
  2
AcDbPlaceHolder
  3
AutoCAD 2000
 90
    32768
280
     0
281
     0
  0
CLASS
  1
LAYOUT
  2
AcDbLayout
  3
AutoCAD 2000
 90
    32768
280
     0
281
     0
  0
CLASS
  1
LONG_TRANSACTION
  2
AcDbLongTransaction
  3
AutoCAD 2000
 90
    32768
280
     0
281
     0
  0
CLASS
  1
LWPOLYLINE
  2
AcDbPolyline
  3
AutoCAD 2000
 90
    32768
280
     0
281
     1
  0
CLASS
  1
HATCH
  2
AcDbHatch
  3
AutoCAD 2000
 90
    32768
280
     0
281
     1
  0
CLASS
  1
XRECORD
  2
AcDbXrecord
  3
AutoCAD 2000
 90
    32768
280
     0
281
     0
  0
ENDSEC
  0
SECTION
  2
TABLES
  0
TABLE
  2
VPORT
  5
8
330
0
100
AcDbSymbolTable
 70
     5
  0
VPORT
  5
5049
330
8
100
AcDbSymbolTableRecord
100
AcDbViewportTableRecord
  2
*ACTIVE
 70
     0
 10
0.0
 20
0.0
 11
1.0
 21
1.0
 12
3.750549341727221
 22
5.347320578581793
 13
0.0
 23
0.0
 14
1.0
 24
1.0
 15
0.0
 25
0.0
 16
0.0
 26
0.0
 36
1.0
 17
0.0
 27
0.0
 37
0.0
 40
3.067920221622683
 41
1.647569444444444
 42
50.0
 43
0.0
 44
0.0
 50
0.0
 51
0.0
 71
     0
 72
   100
 73
     1
 74
     1
 75
     0
 76
     0
 77
     0
 78
     0
  0
ENDTAB
  0
TABLE
  2
LTYPE
  5
5
330
0
100
AcDbSymbolTable
 70
    25
  0
LTYPE
  5
13
330
5
100
AcDbSymbolTableRecord
100
AcDbLinetypeTableRecord
  2
BYBLOCK
 70
     0
  3

 72
    65
 73
     0
 40
0.0
  0
LTYPE
  5
14
330
5
100
AcDbSymbolTableRecord
100
AcDbLinetypeTableRecord
  2
BYLAYER
 70
     0
  3

 72
    65
 73
     0
 40
0.0
  0
LTYPE
  5
15
330
5
100
AcDbSymbolTableRecord
100
AcDbLinetypeTableRecord
  2
CONTINUOUS
 70
     0
  3
Solid line
 72
    65
 73
     0
 40
0.0
  0
LTYPE
  5
22
330
5
100
AcDbSymbolTableRecord
100
AcDbLinetypeTableRecord
  2
BORDER
 70
     0
  3
__ __ . __ __ . __ __ . __ __ . __ __ . __ __ .
 72
    65
 73
     6
 40
1.75
 49
0.5
 74
     0
 49
-0.25
 74
     0
 49
0.5
 74
     0
 49
-0.25
 74
     0
 49
0.5
 74
     0
 49
-0.25
 74
     0
  0
LTYPE
  5
23
330
5
100
AcDbSymbolTableRecord
100
AcDbLinetypeTableRecord
  2
BORDER2
 70
     0
  3
__.__.__.__.__.__.__.__.
 72
    65
 73
     6
 40
0.875
 49
0.25
 74
     0
 49
-0.125
 74
     0
 49
0.25
 74
     0
 49
-0.125
 74
     0
 49
0.25
 74
     0
 49
-0.125
 74
     0
  0
LTYPE
  5
24
330
5
100
AcDbSymbolTableRecord
100
AcDbLinetypeTableRecord
  2
BORDERX2
 70
     0
  3
____  ____  .  
 72
    65
 73
     6
 40
3.5
 49
1.0
 74
     0
 49
-0.5
 74
     0
 49
1.0
 74
     0
 49
-0.5
 74
     0
 49
1.0
 74
     0
 49
-0.5
 74
     0
  0
LTYPE
  5
25
330
5
100
AcDbSymbolTableRecord
100
AcDbLinetypeTableRecord
  2
CENTER
 70
     0
  3
____ _ ____ _ ____ _ 
 72
    65
 73
     4
 40
2.0
 49
1.25
 74
     0
 49
-0.25
 74
     0
 49
0.25
 74
     0
 49
-0.25
 74
     0
  0
LTYPE
  5
26
330
5
100
AcDbSymbolTableRecord
100
AcDbLinetypeTableRecord
  2
CENTER2
 70
     0
  3
____ _ ____ _ ____ _ 
 72
    65
 73
     4
 40
1.125
 49
0.75
 74
     0
 49
-0.125
 74
     0
 49
0.125
 74
     0
 49
-0.125
 74
     0
  0
LTYPE
  5
27
330
5
100
AcDbSymbolTableRecord
100
AcDbLinetypeTableRecord
  2
CENTERX2
 70
     0
  3
________  __  
 72
    65
 73
     4
 40
4.0
 49
2.5
 74
     0
 49
-0.5
 74
     0
 49
0.5
 74
     0
 49
-0.5
 74
     0
  0
LTYPE
  5
28
330
5
100
AcDbSymbolTableRecord
100
AcDbLinetypeTableRecord
  2
DASHDOT
 70
     0
  3
__ . __ . __ . __ . 
 72
    65
 73
     4
 40
1.0
 49
0.5
 74
     0
 49
-0.25
 74
     0
 49
0.0
 74
     0
 49
-0.25
 74
     0
  0
LTYPE
  5
29
330
5
100
AcDbSymbolTableRecord
100
AcDbLinetypeTableRecord
  2
DASHDOT2
 70
     0
  3
_._._._._._._._._.
 72
    65
 73
     4
 40
0.5
 49
0.25
 74
     0
 49
-0.125
 74
     0
 49
0.0
 74
     0
 49
-0.125
 74
     0
  0
LTYPE
  5
2A
330
5
100
AcDbSymbolTableRecord
100
AcDbLinetypeTableRecord
  2
DASHDOTX2
 70
     0
  3
____  .  ____  .  
 72
    65
 73
     4
 40
2.0
 49
1.0
 74
     0
 49
-0.5
 74
     0
 49
0.0
 74
     0
 49
-0.5
 74
     0
  0
LTYPE
  5
2B
330
5
100
AcDbSymbolTableRecord
100
AcDbLinetypeTableRecord
  2
DASHED
 70
     0
  3
__ __ __ __ __ __ __ 
 72
    65
 73
     2
 40
0.75
 49
0.5
 74
     0
 49
-0.25
 74
     0
  0
LTYPE
  5
2C
330
5
100
AcDbSymbolTableRecord
100
AcDbLinetypeTableRecord
  2
DASHED2
 70
     0
  3
_ _ _ _ _ _ _ _ _ _ 
 72
    65
 73
     2
 40
0.375
 49
0.25
 74
     0
 49
-0.125
 74
     0
  0
LTYPE
  5
2D
330
5
100
AcDbSymbolTableRecord
100
AcDbLinetypeTableRecord
  2
DASHEDX2
 70
     0
  3
____  ____  ____  
 72
    65
 73
     2
 40
1.5
 49
1.0
 74
     0
 49
-0.5
 74
     0
  0
LTYPE
  5
2E
330
5
100
AcDbSymbolTableRecord
100
AcDbLinetypeTableRecord
  2
DIVIDE
 70
     0
  3
____ . . ____ . . 
 72
    65
 73
     6
 40
1.25
 49
0.5
 74
     0
 49
-0.25
 74
     0
 49
0.0
 74
     0
 49
-0.25
 74
     0
 49
0.0
 74
     0
 49
-0.25
 74
     0
  0
LTYPE
  5
2F
330
5
100
AcDbSymbolTableRecord
100
AcDbLinetypeTableRecord
  2
DIVIDE2
 70
     0
  3
__..__..__..__..__..
 72
    65
 73
     6
 40
0.625
 49
0.25
 74
     0
 49
-0.125
 74
     0
 49
0.0
 74
     0
 49
-0.125
 74
     0
 49
0.0
 74
     0
 49
-0.125
 74
     0
  0
LTYPE
  5
30
330
5
100
AcDbSymbolTableRecord
100
AcDbLinetypeTableRecord
  2
DIVIDEX2
 70
     0
  3
________  .  .  
 72
    65
 73
     6
 40
2.5
 49
1.0
 74
     0
 49
-0.5
 74
     0
 49
0.0
 74
     0
 49
-0.5
 74
     0
 49
0.0
 74
     0
 49
-0.5
 74
     0
  0
LTYPE
  5
31
330
5
100
AcDbSymbolTableRecord
100
AcDbLinetypeTableRecord
  2
DOT
 70
     0
  3
. . . . . . . . . 
 72
    65
 73
     2
 40
0.25
 49
0.0
 74
     0
 49
-0.25
 74
     0
  0
LTYPE
  5
32
330
5
100
AcDbSymbolTableRecord
100
AcDbLinetypeTableRecord
  2
DOT2
 70
     0
  3
..................
 72
    65
 73
     2
 40
0.125
 49
0.0
 74
     0
 49
-0.125
 74
     0
  0
LTYPE
  5
33
330
5
100
AcDbSymbolTableRecord
100
AcDbLinetypeTableRecord
  2
DOTX2
 70
     0
  3
.  .  .  .  .  .  
 72
    65
 73
     2
 40
0.5
 49
0.0
 74
     0
 49
-0.5
 74
     0
  0
LTYPE
  5
34
330
5
100
AcDbSymbolTableRecord
100
AcDbLinetypeTableRecord
  2
HIDDEN
 70
     0
  3
__ __ __ __ __ __ 
 72
    65
 73
     2
 40
0.375
 49
0.25
 74
     0
 49
-0.125
 74
     0
  0
LTYPE
  5
35
330
5
100
AcDbSymbolTableRecord
100
AcDbLinetypeTableRecord
  2
HIDDEN2
 70
     0
  3
_ _ _ _ _ _ _ _ _ 
 72
    65
 73
     2
 40
0.1875
 49
0.125
 74
     0
 49
-0.0625
 74
     0
  0
LTYPE
  5
36
330
5
100
AcDbSymbolTableRecord
100
AcDbLinetypeTableRecord
  2
HIDDENX2
 70
     0
  3
____ ____ ____ ____ 
 72
    65
 73
     2
 40
0.75
 49
0.5
 74
     0
 49
-0.25
 74
     0
  0
LTYPE
  5
37
330
5
100
AcDbSymbolTableRecord
100
AcDbLinetypeTableRecord
  2
PHANTOM
 70
     0
  3
______  __  __  
 72
    65
 73
     6
 40
2.5
 49
1.25
 74
     0
 49
-0.25
 74
     0
 49
0.25
 74
     0
 49
-0.25
 74
     0
 49
0.25
 74
     0
 49
-0.25
 74
     0
  0
LTYPE
  5
38
330
5
100
AcDbSymbolTableRecord
100
AcDbLinetypeTableRecord
  2
PHANTOM2
 70
     0
  3
___ _ _ ___ _ _ 
 72
    65
 73
     6
 40
1.25
 49
0.625
 74
     0
 49
-0.125
 74
     0
 49
0.125
 74
     0
 49
-0.125
 74
     0
 49
0.125
 74
     0
 49
-0.125
 74
     0
  0
LTYPE
  5
39
330
5
100
AcDbSymbolTableRecord
100
AcDbLinetypeTableRecord
  2
PHANTOMX2
 70
     0
  3
___ _ _ ___ _ _ 
 72
    65
 73
     6
 40
5.0
 49
2.5
 74
     0
 49
-0.5
 74
     0
 49
0.5
 74
     0
 49
-0.5
 74
     0
 49
0.5
 74
     0
 49
-0.5
 74
     0
  0
ENDTAB
  0
TABLE
  2
LAYER
  5
2
330
0
100
AcDbSymbolTable
 70
   256
  0
LAYER
  5
10
330
2
100
AcDbSymbolTableRecord
100
AcDbLayerTableRecord
  2
0
 70
     0
 62
     7
  6
CONTINUOUS
  0
LAYER
  5
3A
330
2
100
AcDbSymbolTableRecord
100
AcDbLayerTableRecord
  2
1
 70
     0
 62
     1
  6
CONTINUOUS
  0
LAYER
  5
3B
330
2
100
AcDbSymbolTableRecord
100
AcDbLayerTableRecord
  2
2
 70
     0
 62
     2
  6
CONTINUOUS
  0
LAYER
  5
3C
330
2
100
AcDbSymbolTableRecord
100
AcDbLayerTableRecord
  2
3
 70
     0
 62
     3
  6
CONTINUOUS
  0
LAYER
  5
3D
330
2
100
AcDbSymbolTableRecord
100
AcDbLayerTableRecord
  2
4
 70
     0
 62
     4
  6
CONTINUOUS
  0
LAYER
  5
3E
330
2
100
AcDbSymbolTableRecord
100
AcDbLayerTableRecord
  2
5
 70
     0
 62
     5
  6
CONTINUOUS
  0
LAYER
  5
3F
330
2
100
AcDbSymbolTableRecord
100
AcDbLayerTableRecord
  2
6
 70
     0
 62
     6
  6
CONTINUOUS
  0
LAYER
  5
40
330
2
100
AcDbSymbolTableRecord
100
AcDbLayerTableRecord
  2
7
 70
     0
 62
     7
  6
CONTINUOUS
  0
LAYER
  5
41
330
2
100
AcDbSymbolTableRecord
100
AcDbLayerTableRecord
  2
8
 70
     0
 62
     8
  6
CONTINUOUS
  0
LAYER
  5
42
330
2
100
AcDbSymbolTableRecord
100
AcDbLayerTableRecord
  2
9
 70
     0
 62
     9
  6
CONTINUOUS
  0
LAYER
  5
43
330
2
100
AcDbSymbolTableRecord
100
AcDbLayerTableRecord
  2
10
 70
     0
 62
    10
  6
CONTINUOUS
  0
LAYER
  5
44
330
2
100
AcDbSymbolTableRecord
100
AcDbLayerTableRecord
  2
11
 70
     0
 62
    11
  6
CONTINUOUS
  0
LAYER
  5
45
330
2
100
AcDbSymbolTableRecord
100
AcDbLayerTableRecord
  2
12
 70
     0
 62
    12
  6
CONTINUOUS
  0
LAYER
  5
46
330
2
100
AcDbSymbolTableRecord
100
AcDbLayerTableRecord
  2
13
 70
     0
 62
    13
  6
CONTINUOUS
  0
LAYER
  5
47
330
2
100
AcDbSymbolTableRecord
100
AcDbLayerTableRecord
  2
14
 70
     0
 62
    14
  6
CONTINUOUS
  0
LAYER
  5
48
330
2
100
AcDbSymbolTableRecord
100
AcDbLayerTableRecord
  2
15
 70
     0
 62
    15
  6
CONTINUOUS
  0
LAYER
  5
49
330
2
100
AcDbSymbolTableRecord
100
AcDbLayerTableRecord
  2
16
 70
     0
 62
    16
  6
CONTINUOUS
  0
LAYER
  5
4A
330
2
100
AcDbSymbolTableRecord
100
AcDbLayerTableRecord
  2
17
 70
     0
 62
    17
  6
CONTINUOUS
  0
LAYER
  5
4B
330
2
100
AcDbSymbolTableRecord
100
AcDbLayerTableRecord
  2
18
 70
     0
 62
    18
  6
CONTINUOUS
  0
LAYER
  5
4C
330
2
100
AcDbSymbolTableRecord
100
AcDbLayerTableRecord
  2
19
 70
     0
 62
    19
  6
CONTINUOUS
  0
LAYER
  5
4D
330
2
100
AcDbSymbolTableRecord
100
AcDbLayerTableRecord
  2
20
 70
     0
 62
    20
  6
CONTINUOUS
  0
LAYER
  5
4E
330
2
100
AcDbSymbolTableRecord
100
AcDbLayerTableRecord
  2
21
 70
     0
 62
    21
  6
CONTINUOUS
  0
LAYER
  5
4F
330
2
100
AcDbSymbolTableRecord
100
AcDbLayerTableRecord
  2
22
 70
     0
 62
    22
  6
CONTINUOUS
  0
LAYER
  5
50
330
2
100
AcDbSymbolTableRecord
100
AcDbLayerTableRecord
  2
23
 70
     0
 62
    23
  6
CONTINUOUS
  0
LAYER
  5
51
330
2
100
AcDbSymbolTableRecord
100
AcDbLayerTableRecord
  2
24
 70
     0
 62
    24
  6
CONTINUOUS
  0
LAYER
  5
52
330
2
100
AcDbSymbolTableRecord
100
AcDbLayerTableRecord
  2
25
 70
     0
 62
    25
  6
CONTINUOUS
  0
LAYER
  5
53
330
2
100
AcDbSymbolTableRecord
100
AcDbLayerTableRecord
  2
26
 70
     0
 62
    26
  6
CONTINUOUS
  0
LAYER
  5
54
330
2
100
AcDbSymbolTableRecord
100
AcDbLayerTableRecord
  2
27
 70
     0
 62
    27
  6
CONTINUOUS
  0
LAYER
  5
55
330
2
100
AcDbSymbolTableRecord
100
AcDbLayerTableRecord
  2
28
 70
     0
 62
    28
  6
CONTINUOUS
  0
LAYER
  5
56
330
2
100
AcDbSymbolTableRecord
100
AcDbLayerTableRecord
  2
29
 70
     0
 62
    29
  6
CONTINUOUS
  0
LAYER
  5
57
330
2
100
AcDbSymbolTableRecord
100
AcDbLayerTableRecord
  2
30
 70
     0
 62
    30
  6
CONTINUOUS
  0
LAYER
  5
58
330
2
100
AcDbSymbolTableRecord
100
AcDbLayerTableRecord
  2
31
 70
     0
 62
    31
  6
CONTINUOUS
  0
LAYER
  5
59
330
2
100
AcDbSymbolTableRecord
100
AcDbLayerTableRecord
  2
32
 70
     0
 62
    32
  6
CONTINUOUS
  0
LAYER
  5
5A
330
2
100
AcDbSymbolTableRecord
100
AcDbLayerTableRecord
  2
33
 70
     0
 62
    33
  6
CONTINUOUS
  0
LAYER
  5
5B
330
2
100
AcDbSymbolTableRecord
100
AcDbLayerTableRecord
  2
34
 70
     0
 62
    34
  6
CONTINUOUS
  0
LAYER
  5
5C
330
2
100
AcDbSymbolTableRecord
100
AcDbLayerTableRecord
  2
35
 70
     0
 62
    35
  6
CONTINUOUS
  0
LAYER
  5
5D
330
2
100
AcDbSymbolTableRecord
100
AcDbLayerTableRecord
  2
36
 70
     0
 62
    36
  6
CONTINUOUS
  0
LAYER
  5
5E
330
2
100
AcDbSymbolTableRecord
100
AcDbLayerTableRecord
  2
37
 70
     0
 62
    37
  6
CONTINUOUS
  0
LAYER
  5
5F
330
2
100
AcDbSymbolTableRecord
100
AcDbLayerTableRecord
  2
38
 70
     0
 62
    38
  6
CONTINUOUS
  0
LAYER
  5
60
330
2
100
AcDbSymbolTableRecord
100
AcDbLayerTableRecord
  2
39
 70
     0
 62
    39
  6
CONTINUOUS
  0
LAYER
  5
61
330
2
100
AcDbSymbolTableRecord
100
AcDbLayerTableRecord
  2
40
 70
     0
 62
    40
  6
CONTINUOUS
  0
LAYER
  5
62
330
2
100
AcDbSymbolTableRecord
100
AcDbLayerTableRecord
  2
41
 70
     0
 62
    41
  6
CONTINUOUS
  0
LAYER
  5
63
330
2
100
AcDbSymbolTableRecord
100
AcDbLayerTableRecord
  2
42
 70
     0
 62
    42
  6
CONTINUOUS
  0
LAYER
  5
64
330
2
100
AcDbSymbolTableRecord
100
AcDbLayerTableRecord
  2
43
 70
     0
 62
    43
  6
CONTINUOUS
  0
LAYER
  5
65
330
2
100
AcDbSymbolTableRecord
100
AcDbLayerTableRecord
  2
44
 70
     0
 62
    44
  6
CONTINUOUS
  0
LAYER
  5
66
330
2
100
AcDbSymbolTableRecord
100
AcDbLayerTableRecord
  2
45
 70
     0
 62
    45
  6
CONTINUOUS
  0
LAYER
  5
67
330
2
100
AcDbSymbolTableRecord
100
AcDbLayerTableRecord
  2
46
 70
     0
 62
    46
  6
CONTINUOUS
  0
LAYER
  5
68
330
2
100
AcDbSymbolTableRecord
100
AcDbLayerTableRecord
  2
47
 70
     0
 62
    47
  6
CONTINUOUS
  0
LAYER
  5
69
330
2
100
AcDbSymbolTableRecord
100
AcDbLayerTableRecord
  2
48
 70
     0
 62
    48
  6
CONTINUOUS
  0
LAYER
  5
6A
330
2
100
AcDbSymbolTableRecord
100
AcDbLayerTableRecord
  2
49
 70
     0
 62
    49
  6
CONTINUOUS
  0
LAYER
  5
6B
330
2
100
AcDbSymbolTableRecord
100
AcDbLayerTableRecord
  2
50
 70
     0
 62
    50
  6
CONTINUOUS
  0
LAYER
  5
6C
330
2
100
AcDbSymbolTableRecord
100
AcDbLayerTableRecord
  2
51
 70
     0
 62
    51
  6
CONTINUOUS
  0
LAYER
  5
6D
330
2
100
AcDbSymbolTableRecord
100
AcDbLayerTableRecord
  2
52
 70
     0
 62
    52
  6
CONTINUOUS
  0
LAYER
  5
6E
330
2
100
AcDbSymbolTableRecord
100
AcDbLayerTableRecord
  2
53
 70
     0
 62
    53
  6
CONTINUOUS
  0
LAYER
  5
6F
330
2
100
AcDbSymbolTableRecord
100
AcDbLayerTableRecord
  2
54
 70
     0
 62
    54
  6
CONTINUOUS
  0
LAYER
  5
70
330
2
100
AcDbSymbolTableRecord
100
AcDbLayerTableRecord
  2
55
 70
     0
 62
    55
  6
CONTINUOUS
  0
LAYER
  5
71
330
2
100
AcDbSymbolTableRecord
100
AcDbLayerTableRecord
  2
56
 70
     0
 62
    56
  6
CONTINUOUS
  0
LAYER
  5
72
330
2
100
AcDbSymbolTableRecord
100
AcDbLayerTableRecord
  2
57
 70
     0
 62
    57
  6
CONTINUOUS
  0
LAYER
  5
73
330
2
100
AcDbSymbolTableRecord
100
AcDbLayerTableRecord
  2
58
 70
     0
 62
    58
  6
CONTINUOUS
  0
LAYER
  5
74
330
2
100
AcDbSymbolTableRecord
100
AcDbLayerTableRecord
  2
59
 70
     0
 62
    59
  6
CONTINUOUS
  0
LAYER
  5
75
330
2
100
AcDbSymbolTableRecord
100
AcDbLayerTableRecord
  2
60
 70
     0
 62
    60
  6
CONTINUOUS
  0
LAYER
  5
76
330
2
100
AcDbSymbolTableRecord
100
AcDbLayerTableRecord
  2
61
 70
     0
 62
    61
  6
CONTINUOUS
  0
LAYER
  5
77
330
2
100
AcDbSymbolTableRecord
100
AcDbLayerTableRecord
  2
62
 70
     0
 62
    62
  6
CONTINUOUS
  0
LAYER
  5
78
330
2
100
AcDbSymbolTableRecord
100
AcDbLayerTableRecord
  2
63
 70
     0
 62
    63
  6
CONTINUOUS
  0
LAYER
  5
79
330
2
100
AcDbSymbolTableRecord
100
AcDbLayerTableRecord
  2
64
 70
     0
 62
    64
  6
CONTINUOUS
  0
LAYER
  5
7A
330
2
100
AcDbSymbolTableRecord
100
AcDbLayerTableRecord
  2
65
 70
     0
 62
    65
  6
CONTINUOUS
  0
LAYER
  5
7B
330
2
100
AcDbSymbolTableRecord
100
AcDbLayerTableRecord
  2
66
 70
     0
 62
    66
  6
CONTINUOUS
  0
LAYER
  5
7C
330
2
100
AcDbSymbolTableRecord
100
AcDbLayerTableRecord
  2
67
 70
     0
 62
    67
  6
CONTINUOUS
  0
LAYER
  5
7D
330
2
100
AcDbSymbolTableRecord
100
AcDbLayerTableRecord
  2
68
 70
     0
 62
    68
  6
CONTINUOUS
  0
LAYER
  5
7E
330
2
100
AcDbSymbolTableRecord
100
AcDbLayerTableRecord
  2
69
 70
     0
 62
    69
  6
CONTINUOUS
  0
LAYER
  5
7F
330
2
100
AcDbSymbolTableRecord
100
AcDbLayerTableRecord
  2
70
 70
     0
 62
    70
  6
CONTINUOUS
  0
LAYER
  5
80
330
2
100
AcDbSymbolTableRecord
100
AcDbLayerTableRecord
  2
71
 70
     0
 62
    71
  6
CONTINUOUS
  0
LAYER
  5
81
330
2
100
AcDbSymbolTableRecord
100
AcDbLayerTableRecord
  2
72
 70
     0
 62
    72
  6
CONTINUOUS
  0
LAYER
  5
82
330
2
100
AcDbSymbolTableRecord
100
AcDbLayerTableRecord
  2
73
 70
     0
 62
    73
  6
CONTINUOUS
  0
LAYER
  5
83
330
2
100
AcDbSymbolTableRecord
100
AcDbLayerTableRecord
  2
74
 70
     0
 62
    74
  6
CONTINUOUS
  0
LAYER
  5
84
330
2
100
AcDbSymbolTableRecord
100
AcDbLayerTableRecord
  2
75
 70
     0
 62
    75
  6
CONTINUOUS
  0
LAYER
  5
85
330
2
100
AcDbSymbolTableRecord
100
AcDbLayerTableRecord
  2
76
 70
     0
 62
    76
  6
CONTINUOUS
  0
LAYER
  5
86
330
2
100
AcDbSymbolTableRecord
100
AcDbLayerTableRecord
  2
77
 70
     0
 62
    77
  6
CONTINUOUS
  0
LAYER
  5
87
330
2
100
AcDbSymbolTableRecord
100
AcDbLayerTableRecord
  2
78
 70
     0
 62
    78
  6
CONTINUOUS
  0
LAYER
  5
88
330
2
100
AcDbSymbolTableRecord
100
AcDbLayerTableRecord
  2
79
 70
     0
 62
    79
  6
CONTINUOUS
  0
LAYER
  5
89
330
2
100
AcDbSymbolTableRecord
100
AcDbLayerTableRecord
  2
80
 70
     0
 62
    80
  6
CONTINUOUS
  0
LAYER
  5
8A
330
2
100
AcDbSymbolTableRecord
100
AcDbLayerTableRecord
  2
81
 70
     0
 62
    81
  6
CONTINUOUS
  0
LAYER
  5
8B
330
2
100
AcDbSymbolTableRecord
100
AcDbLayerTableRecord
  2
82
 70
     0
 62
    82
  6
CONTINUOUS
  0
LAYER
  5
8C
330
2
100
AcDbSymbolTableRecord
100
AcDbLayerTableRecord
  2
83
 70
     0
 62
    83
  6
CONTINUOUS
  0
LAYER
  5
8D
330
2
100
AcDbSymbolTableRecord
100
AcDbLayerTableRecord
  2
84
 70
     0
 62
    84
  6
CONTINUOUS
  0
LAYER
  5
8E
330
2
100
AcDbSymbolTableRecord
100
AcDbLayerTableRecord
  2
85
 70
     0
 62
    85
  6
CONTINUOUS
  0
LAYER
  5
8F
330
2
100
AcDbSymbolTableRecord
100
AcDbLayerTableRecord
  2
86
 70
     0
 62
    86
  6
CONTINUOUS
  0
LAYER
  5
90
330
2
100
AcDbSymbolTableRecord
100
AcDbLayerTableRecord
  2
87
 70
     0
 62
    87
  6
CONTINUOUS
  0
LAYER
  5
91
330
2
100
AcDbSymbolTableRecord
100
AcDbLayerTableRecord
  2
88
 70
     0
 62
    88
  6
CONTINUOUS
  0
LAYER
  5
92
330
2
100
AcDbSymbolTableRecord
100
AcDbLayerTableRecord
  2
89
 70
     0
 62
    89
  6
CONTINUOUS
  0
LAYER
  5
93
330
2
100
AcDbSymbolTableRecord
100
AcDbLayerTableRecord
  2
90
 70
     0
 62
    90
  6
CONTINUOUS
  0
LAYER
  5
94
330
2
100
AcDbSymbolTableRecord
100
AcDbLayerTableRecord
  2
91
 70
     0
 62
    91
  6
CONTINUOUS
  0
LAYER
  5
95
330
2
100
AcDbSymbolTableRecord
100
AcDbLayerTableRecord
  2
92
 70
     0
 62
    92
  6
CONTINUOUS
  0
LAYER
  5
96
330
2
100
AcDbSymbolTableRecord
100
AcDbLayerTableRecord
  2
93
 70
     0
 62
    93
  6
CONTINUOUS
  0
LAYER
  5
97
330
2
100
AcDbSymbolTableRecord
100
AcDbLayerTableRecord
  2
94
 70
     0
 62
    94
  6
CONTINUOUS
  0
LAYER
  5
98
330
2
100
AcDbSymbolTableRecord
100
AcDbLayerTableRecord
  2
95
 70
     0
 62
    95
  6
CONTINUOUS
  0
LAYER
  5
99
330
2
100
AcDbSymbolTableRecord
100
AcDbLayerTableRecord
  2
96
 70
     0
 62
    96
  6
CONTINUOUS
  0
LAYER
  5
9A
330
2
100
AcDbSymbolTableRecord
100
AcDbLayerTableRecord
  2
97
 70
     0
 62
    97
  6
CONTINUOUS
  0
LAYER
  5
9B
330
2
100
AcDbSymbolTableRecord
100
AcDbLayerTableRecord
  2
98
 70
     0
 62
    98
  6
CONTINUOUS
  0
LAYER
  5
9C
330
2
100
AcDbSymbolTableRecord
100
AcDbLayerTableRecord
  2
99
 70
     0
 62
    99
  6
CONTINUOUS
  0
LAYER
  5
9D
330
2
100
AcDbSymbolTableRecord
100
AcDbLayerTableRecord
  2
100
 70
     0
 62
   100
  6
CONTINUOUS
  0
LAYER
  5
9E
330
2
100
AcDbSymbolTableRecord
100
AcDbLayerTableRecord
  2
101
 70
     0
 62
   101
  6
CONTINUOUS
  0
LAYER
  5
9F
330
2
100
AcDbSymbolTableRecord
100
AcDbLayerTableRecord
  2
102
 70
     0
 62
   102
  6
CONTINUOUS
  0
LAYER
  5
A0
330
2
100
AcDbSymbolTableRecord
100
AcDbLayerTableRecord
  2
103
 70
     0
 62
   103
  6
CONTINUOUS
  0
LAYER
  5
A1
330
2
100
AcDbSymbolTableRecord
100
AcDbLayerTableRecord
  2
104
 70
     0
 62
   104
  6
CONTINUOUS
  0
LAYER
  5
A2
330
2
100
AcDbSymbolTableRecord
100
AcDbLayerTableRecord
  2
105
 70
     0
 62
   105
  6
CONTINUOUS
  0
LAYER
  5
A3
330
2
100
AcDbSymbolTableRecord
100
AcDbLayerTableRecord
  2
106
 70
     0
 62
   106
  6
CONTINUOUS
  0
LAYER
  5
A4
330
2
100
AcDbSymbolTableRecord
100
AcDbLayerTableRecord
  2
107
 70
     0
 62
   107
  6
CONTINUOUS
  0
LAYER
  5
A5
330
2
100
AcDbSymbolTableRecord
100
AcDbLayerTableRecord
  2
108
 70
     0
 62
   108
  6
CONTINUOUS
  0
LAYER
  5
A6
330
2
100
AcDbSymbolTableRecord
100
AcDbLayerTableRecord
  2
109
 70
     0
 62
   109
  6
CONTINUOUS
  0
LAYER
  5
A7
330
2
100
AcDbSymbolTableRecord
100
AcDbLayerTableRecord
  2
110
 70
     0
 62
   110
  6
CONTINUOUS
  0
LAYER
  5
A8
330
2
100
AcDbSymbolTableRecord
100
AcDbLayerTableRecord
  2
111
 70
     0
 62
   111
  6
CONTINUOUS
  0
LAYER
  5
A9
330
2
100
AcDbSymbolTableRecord
100
AcDbLayerTableRecord
  2
112
 70
     0
 62
   112
  6
CONTINUOUS
  0
LAYER
  5
AA
330
2
100
AcDbSymbolTableRecord
100
AcDbLayerTableRecord
  2
113
 70
     0
 62
   113
  6
CONTINUOUS
  0
LAYER
  5
AB
330
2
100
AcDbSymbolTableRecord
100
AcDbLayerTableRecord
  2
114
 70
     0
 62
   114
  6
CONTINUOUS
  0
LAYER
  5
AC
330
2
100
AcDbSymbolTableRecord
100
AcDbLayerTableRecord
  2
115
 70
     0
 62
   115
  6
CONTINUOUS
  0
LAYER
  5
AD
330
2
100
AcDbSymbolTableRecord
100
AcDbLayerTableRecord
  2
116
 70
     0
 62
   116
  6
CONTINUOUS
  0
LAYER
  5
AE
330
2
100
AcDbSymbolTableRecord
100
AcDbLayerTableRecord
  2
117
 70
     0
 62
   117
  6
CONTINUOUS
  0
LAYER
  5
AF
330
2
100
AcDbSymbolTableRecord
100
AcDbLayerTableRecord
  2
118
 70
     0
 62
   118
  6
CONTINUOUS
  0
LAYER
  5
B0
330
2
100
AcDbSymbolTableRecord
100
AcDbLayerTableRecord
  2
119
 70
     0
 62
   119
  6
CONTINUOUS
  0
LAYER
  5
B1
330
2
100
AcDbSymbolTableRecord
100
AcDbLayerTableRecord
  2
120
 70
     0
 62
   120
  6
CONTINUOUS
  0
LAYER
  5
B2
330
2
100
AcDbSymbolTableRecord
100
AcDbLayerTableRecord
  2
121
 70
     0
 62
   121
  6
CONTINUOUS
  0
LAYER
  5
B3
330
2
100
AcDbSymbolTableRecord
100
AcDbLayerTableRecord
  2
122
 70
     0
 62
   122
  6
CONTINUOUS
  0
LAYER
  5
B4
330
2
100
AcDbSymbolTableRecord
100
AcDbLayerTableRecord
  2
123
 70
     0
 62
   123
  6
CONTINUOUS
  0
LAYER
  5
B5
330
2
100
AcDbSymbolTableRecord
100
AcDbLayerTableRecord
  2
124
 70
     0
 62
   124
  6
CONTINUOUS
  0
LAYER
  5
B6
330
2
100
AcDbSymbolTableRecord
100
AcDbLayerTableRecord
  2
125
 70
     0
 62
   125
  6
CONTINUOUS
  0
LAYER
  5
B7
330
2
100
AcDbSymbolTableRecord
100
AcDbLayerTableRecord
  2
126
 70
     0
 62
   126
  6
CONTINUOUS
  0
LAYER
  5
B8
330
2
100
AcDbSymbolTableRecord
100
AcDbLayerTableRecord
  2
127
 70
     0
 62
   127
  6
CONTINUOUS
  0
LAYER
  5
B9
330
2
100
AcDbSymbolTableRecord
100
AcDbLayerTableRecord
  2
128
 70
     0
 62
   128
  6
CONTINUOUS
  0
LAYER
  5
BA
330
2
100
AcDbSymbolTableRecord
100
AcDbLayerTableRecord
  2
129
 70
     0
 62
   129
  6
CONTINUOUS
  0
LAYER
  5
BB
330
2
100
AcDbSymbolTableRecord
100
AcDbLayerTableRecord
  2
130
 70
     0
 62
   130
  6
CONTINUOUS
  0
LAYER
  5
BC
330
2
100
AcDbSymbolTableRecord
100
AcDbLayerTableRecord
  2
131
 70
     0
 62
   131
  6
CONTINUOUS
  0
LAYER
  5
BD
330
2
100
AcDbSymbolTableRecord
100
AcDbLayerTableRecord
  2
132
 70
     0
 62
   132
  6
CONTINUOUS
  0
LAYER
  5
BE
330
2
100
AcDbSymbolTableRecord
100
AcDbLayerTableRecord
  2
133
 70
     0
 62
   133
  6
CONTINUOUS
  0
LAYER
  5
BF
330
2
100
AcDbSymbolTableRecord
100
AcDbLayerTableRecord
  2
134
 70
     0
 62
   134
  6
CONTINUOUS
  0
LAYER
  5
C0
330
2
100
AcDbSymbolTableRecord
100
AcDbLayerTableRecord
  2
135
 70
     0
 62
   135
  6
CONTINUOUS
  0
LAYER
  5
C1
330
2
100
AcDbSymbolTableRecord
100
AcDbLayerTableRecord
  2
136
 70
     0
 62
   136
  6
CONTINUOUS
  0
LAYER
  5
C2
330
2
100
AcDbSymbolTableRecord
100
AcDbLayerTableRecord
  2
137
 70
     0
 62
   137
  6
CONTINUOUS
  0
LAYER
  5
C3
330
2
100
AcDbSymbolTableRecord
100
AcDbLayerTableRecord
  2
138
 70
     0
 62
   138
  6
CONTINUOUS
  0
LAYER
  5
C4
330
2
100
AcDbSymbolTableRecord
100
AcDbLayerTableRecord
  2
139
 70
     0
 62
   139
  6
CONTINUOUS
  0
LAYER
  5
C5
330
2
100
AcDbSymbolTableRecord
100
AcDbLayerTableRecord
  2
140
 70
     0
 62
   140
  6
CONTINUOUS
  0
LAYER
  5
C6
330
2
100
AcDbSymbolTableRecord
100
AcDbLayerTableRecord
  2
141
 70
     0
 62
   141
  6
CONTINUOUS
  0
LAYER
  5
C7
330
2
100
AcDbSymbolTableRecord
100
AcDbLayerTableRecord
  2
142
 70
     0
 62
   142
  6
CONTINUOUS
  0
LAYER
  5
C8
330
2
100
AcDbSymbolTableRecord
100
AcDbLayerTableRecord
  2
143
 70
     0
 62
   143
  6
CONTINUOUS
  0
LAYER
  5
C9
330
2
100
AcDbSymbolTableRecord
100
AcDbLayerTableRecord
  2
144
 70
     0
 62
   144
  6
CONTINUOUS
  0
LAYER
  5
CA
330
2
100
AcDbSymbolTableRecord
100
AcDbLayerTableRecord
  2
145
 70
     0
 62
   145
  6
CONTINUOUS
  0
LAYER
  5
CB
330
2
100
AcDbSymbolTableRecord
100
AcDbLayerTableRecord
  2
146
 70
     0
 62
   146
  6
CONTINUOUS
  0
LAYER
  5
CC
330
2
100
AcDbSymbolTableRecord
100
AcDbLayerTableRecord
  2
147
 70
     0
 62
   147
  6
CONTINUOUS
  0
LAYER
  5
CD
330
2
100
AcDbSymbolTableRecord
100
AcDbLayerTableRecord
  2
148
 70
     0
 62
   148
  6
CONTINUOUS
  0
LAYER
  5
CE
330
2
100
AcDbSymbolTableRecord
100
AcDbLayerTableRecord
  2
149
 70
     0
 62
   149
  6
CONTINUOUS
  0
LAYER
  5
CF
330
2
100
AcDbSymbolTableRecord
100
AcDbLayerTableRecord
  2
150
 70
     0
 62
   150
  6
CONTINUOUS
  0
LAYER
  5
D0
330
2
100
AcDbSymbolTableRecord
100
AcDbLayerTableRecord
  2
151
 70
     0
 62
   151
  6
CONTINUOUS
  0
LAYER
  5
D1
330
2
100
AcDbSymbolTableRecord
100
AcDbLayerTableRecord
  2
152
 70
     0
 62
   152
  6
CONTINUOUS
  0
LAYER
  5
D2
330
2
100
AcDbSymbolTableRecord
100
AcDbLayerTableRecord
  2
153
 70
     0
 62
   153
  6
CONTINUOUS
  0
LAYER
  5
D3
330
2
100
AcDbSymbolTableRecord
100
AcDbLayerTableRecord
  2
154
 70
     0
 62
   154
  6
CONTINUOUS
  0
LAYER
  5
D4
330
2
100
AcDbSymbolTableRecord
100
AcDbLayerTableRecord
  2
155
 70
     0
 62
   155
  6
CONTINUOUS
  0
LAYER
  5
D5
330
2
100
AcDbSymbolTableRecord
100
AcDbLayerTableRecord
  2
156
 70
     0
 62
   156
  6
CONTINUOUS
  0
LAYER
  5
D6
330
2
100
AcDbSymbolTableRecord
100
AcDbLayerTableRecord
  2
157
 70
     0
 62
   157
  6
CONTINUOUS
  0
LAYER
  5
D7
330
2
100
AcDbSymbolTableRecord
100
AcDbLayerTableRecord
  2
158
 70
     0
 62
   158
  6
CONTINUOUS
  0
LAYER
  5
D8
330
2
100
AcDbSymbolTableRecord
100
AcDbLayerTableRecord
  2
159
 70
     0
 62
   159
  6
CONTINUOUS
  0
LAYER
  5
D9
330
2
100
AcDbSymbolTableRecord
100
AcDbLayerTableRecord
  2
160
 70
     0
 62
   160
  6
CONTINUOUS
  0
LAYER
  5
DA
330
2
100
AcDbSymbolTableRecord
100
AcDbLayerTableRecord
  2
161
 70
     0
 62
   161
  6
CONTINUOUS
  0
LAYER
  5
DB
330
2
100
AcDbSymbolTableRecord
100
AcDbLayerTableRecord
  2
162
 70
     0
 62
   162
  6
CONTINUOUS
  0
LAYER
  5
DC
330
2
100
AcDbSymbolTableRecord
100
AcDbLayerTableRecord
  2
163
 70
     0
 62
   163
  6
CONTINUOUS
  0
LAYER
  5
DD
330
2
100
AcDbSymbolTableRecord
100
AcDbLayerTableRecord
  2
164
 70
     0
 62
   164
  6
CONTINUOUS
  0
LAYER
  5
DE
330
2
100
AcDbSymbolTableRecord
100
AcDbLayerTableRecord
  2
165
 70
     0
 62
   165
  6
CONTINUOUS
  0
LAYER
  5
DF
330
2
100
AcDbSymbolTableRecord
100
AcDbLayerTableRecord
  2
166
 70
     0
 62
   166
  6
CONTINUOUS
  0
LAYER
  5
E0
330
2
100
AcDbSymbolTableRecord
100
AcDbLayerTableRecord
  2
167
 70
     0
 62
   167
  6
CONTINUOUS
  0
LAYER
  5
E1
330
2
100
AcDbSymbolTableRecord
100
AcDbLayerTableRecord
  2
168
 70
     0
 62
   168
  6
CONTINUOUS
  0
LAYER
  5
E2
330
2
100
AcDbSymbolTableRecord
100
AcDbLayerTableRecord
  2
169
 70
     0
 62
   169
  6
CONTINUOUS
  0
LAYER
  5
E3
330
2
100
AcDbSymbolTableRecord
100
AcDbLayerTableRecord
  2
170
 70
     0
 62
   170
  6
CONTINUOUS
  0
LAYER
  5
E4
330
2
100
AcDbSymbolTableRecord
100
AcDbLayerTableRecord
  2
171
 70
     0
 62
   171
  6
CONTINUOUS
  0
LAYER
  5
E5
330
2
100
AcDbSymbolTableRecord
100
AcDbLayerTableRecord
  2
172
 70
     0
 62
   172
  6
CONTINUOUS
  0
LAYER
  5
E6
330
2
100
AcDbSymbolTableRecord
100
AcDbLayerTableRecord
  2
173
 70
     0
 62
   173
  6
CONTINUOUS
  0
LAYER
  5
E7
330
2
100
AcDbSymbolTableRecord
100
AcDbLayerTableRecord
  2
174
 70
     0
 62
   174
  6
CONTINUOUS
  0
LAYER
  5
E8
330
2
100
AcDbSymbolTableRecord
100
AcDbLayerTableRecord
  2
175
 70
     0
 62
   175
  6
CONTINUOUS
  0
LAYER
  5
E9
330
2
100
AcDbSymbolTableRecord
100
AcDbLayerTableRecord
  2
176
 70
     0
 62
   176
  6
CONTINUOUS
  0
LAYER
  5
EA
330
2
100
AcDbSymbolTableRecord
100
AcDbLayerTableRecord
  2
177
 70
     0
 62
   177
  6
CONTINUOUS
  0
LAYER
  5
EB
330
2
100
AcDbSymbolTableRecord
100
AcDbLayerTableRecord
  2
178
 70
     0
 62
   178
  6
CONTINUOUS
  0
LAYER
  5
EC
330
2
100
AcDbSymbolTableRecord
100
AcDbLayerTableRecord
  2
179
 70
     0
 62
   179
  6
CONTINUOUS
  0
LAYER
  5
ED
330
2
100
AcDbSymbolTableRecord
100
AcDbLayerTableRecord
  2
180
 70
     0
 62
   180
  6
CONTINUOUS
  0
LAYER
  5
EE
330
2
100
AcDbSymbolTableRecord
100
AcDbLayerTableRecord
  2
181
 70
     0
 62
   181
  6
CONTINUOUS
  0
LAYER
  5
EF
330
2
100
AcDbSymbolTableRecord
100
AcDbLayerTableRecord
  2
182
 70
     0
 62
   182
  6
CONTINUOUS
  0
LAYER
  5
F0
330
2
100
AcDbSymbolTableRecord
100
AcDbLayerTableRecord
  2
183
 70
     0
 62
   183
  6
CONTINUOUS
  0
LAYER
  5
F1
330
2
100
AcDbSymbolTableRecord
100
AcDbLayerTableRecord
  2
184
 70
     0
 62
   184
  6
CONTINUOUS
  0
LAYER
  5
F2
330
2
100
AcDbSymbolTableRecord
100
AcDbLayerTableRecord
  2
185
 70
     0
 62
   185
  6
CONTINUOUS
  0
LAYER
  5
F3
330
2
100
AcDbSymbolTableRecord
100
AcDbLayerTableRecord
  2
186
 70
     0
 62
   186
  6
CONTINUOUS
  0
LAYER
  5
F4
330
2
100
AcDbSymbolTableRecord
100
AcDbLayerTableRecord
  2
187
 70
     0
 62
   187
  6
CONTINUOUS
  0
LAYER
  5
F5
330
2
100
AcDbSymbolTableRecord
100
AcDbLayerTableRecord
  2
188
 70
     0
 62
   188
  6
CONTINUOUS
  0
LAYER
  5
F6
330
2
100
AcDbSymbolTableRecord
100
AcDbLayerTableRecord
  2
189
 70
     0
 62
   189
  6
CONTINUOUS
  0
LAYER
  5
F7
330
2
100
AcDbSymbolTableRecord
100
AcDbLayerTableRecord
  2
190
 70
     0
 62
   190
  6
CONTINUOUS
  0
LAYER
  5
F8
330
2
100
AcDbSymbolTableRecord
100
AcDbLayerTableRecord
  2
191
 70
     0
 62
   191
  6
CONTINUOUS
  0
LAYER
  5
F9
330
2
100
AcDbSymbolTableRecord
100
AcDbLayerTableRecord
  2
192
 70
     0
 62
   192
  6
CONTINUOUS
  0
LAYER
  5
FA
330
2
100
AcDbSymbolTableRecord
100
AcDbLayerTableRecord
  2
193
 70
     0
 62
   193
  6
CONTINUOUS
  0
LAYER
  5
FB
330
2
100
AcDbSymbolTableRecord
100
AcDbLayerTableRecord
  2
194
 70
     0
 62
   194
  6
CONTINUOUS
  0
LAYER
  5
FC
330
2
100
AcDbSymbolTableRecord
100
AcDbLayerTableRecord
  2
195
 70
     0
 62
   195
  6
CONTINUOUS
  0
LAYER
  5
FD
330
2
100
AcDbSymbolTableRecord
100
AcDbLayerTableRecord
  2
196
 70
     0
 62
   196
  6
CONTINUOUS
  0
LAYER
  5
FE
330
2
100
AcDbSymbolTableRecord
100
AcDbLayerTableRecord
  2
197
 70
     0
 62
   197
  6
CONTINUOUS
  0
LAYER
  5
FF
330
2
100
AcDbSymbolTableRecord
100
AcDbLayerTableRecord
  2
198
 70
     0
 62
   198
  6
CONTINUOUS
  0
LAYER
  5
100
330
2
100
AcDbSymbolTableRecord
100
AcDbLayerTableRecord
  2
199
 70
     0
 62
   199
  6
CONTINUOUS
  0
LAYER
  5
101
330
2
100
AcDbSymbolTableRecord
100
AcDbLayerTableRecord
  2
200
 70
     0
 62
   200
  6
CONTINUOUS
  0
LAYER
  5
102
330
2
100
AcDbSymbolTableRecord
100
AcDbLayerTableRecord
  2
201
 70
     0
 62
   201
  6
CONTINUOUS
  0
LAYER
  5
103
330
2
100
AcDbSymbolTableRecord
100
AcDbLayerTableRecord
  2
202
 70
     0
 62
   202
  6
CONTINUOUS
  0
LAYER
  5
104
330
2
100
AcDbSymbolTableRecord
100
AcDbLayerTableRecord
  2
203
 70
     0
 62
   203
  6
CONTINUOUS
  0
LAYER
  5
105
330
2
100
AcDbSymbolTableRecord
100
AcDbLayerTableRecord
  2
204
 70
     0
 62
   204
  6
CONTINUOUS
  0
LAYER
  5
106
330
2
100
AcDbSymbolTableRecord
100
AcDbLayerTableRecord
  2
205
 70
     0
 62
   205
  6
CONTINUOUS
  0
LAYER
  5
107
330
2
100
AcDbSymbolTableRecord
100
AcDbLayerTableRecord
  2
206
 70
     0
 62
   206
  6
CONTINUOUS
  0
LAYER
  5
108
330
2
100
AcDbSymbolTableRecord
100
AcDbLayerTableRecord
  2
207
 70
     0
 62
   207
  6
CONTINUOUS
  0
LAYER
  5
109
330
2
100
AcDbSymbolTableRecord
100
AcDbLayerTableRecord
  2
208
 70
     0
 62
   208
  6
CONTINUOUS
  0
LAYER
  5
10A
330
2
100
AcDbSymbolTableRecord
100
AcDbLayerTableRecord
  2
209
 70
     0
 62
   209
  6
CONTINUOUS
  0
LAYER
  5
10B
330
2
100
AcDbSymbolTableRecord
100
AcDbLayerTableRecord
  2
210
 70
     0
 62
   210
  6
CONTINUOUS
  0
LAYER
  5
10C
330
2
100
AcDbSymbolTableRecord
100
AcDbLayerTableRecord
  2
211
 70
     0
 62
   211
  6
CONTINUOUS
  0
LAYER
  5
10D
330
2
100
AcDbSymbolTableRecord
100
AcDbLayerTableRecord
  2
212
 70
     0
 62
   212
  6
CONTINUOUS
  0
LAYER
  5
10E
330
2
100
AcDbSymbolTableRecord
100
AcDbLayerTableRecord
  2
213
 70
     0
 62
   213
  6
CONTINUOUS
  0
LAYER
  5
10F
330
2
100
AcDbSymbolTableRecord
100
AcDbLayerTableRecord
  2
214
 70
     0
 62
   214
  6
CONTINUOUS
  0
LAYER
  5
110
330
2
100
AcDbSymbolTableRecord
100
AcDbLayerTableRecord
  2
215
 70
     0
 62
   215
  6
CONTINUOUS
  0
LAYER
  5
111
330
2
100
AcDbSymbolTableRecord
100
AcDbLayerTableRecord
  2
216
 70
     0
 62
   216
  6
CONTINUOUS
  0
LAYER
  5
112
330
2
100
AcDbSymbolTableRecord
100
AcDbLayerTableRecord
  2
217
 70
     0
 62
   217
  6
CONTINUOUS
  0
LAYER
  5
113
330
2
100
AcDbSymbolTableRecord
100
AcDbLayerTableRecord
  2
218
 70
     0
 62
   218
  6
CONTINUOUS
  0
LAYER
  5
114
330
2
100
AcDbSymbolTableRecord
100
AcDbLayerTableRecord
  2
219
 70
     0
 62
   219
  6
CONTINUOUS
  0
LAYER
  5
115
330
2
100
AcDbSymbolTableRecord
100
AcDbLayerTableRecord
  2
220
 70
     0
 62
   220
  6
CONTINUOUS
  0
LAYER
  5
116
330
2
100
AcDbSymbolTableRecord
100
AcDbLayerTableRecord
  2
221
 70
     0
 62
   221
  6
CONTINUOUS
  0
LAYER
  5
117
330
2
100
AcDbSymbolTableRecord
100
AcDbLayerTableRecord
  2
222
 70
     0
 62
   222
  6
CONTINUOUS
  0
LAYER
  5
118
330
2
100
AcDbSymbolTableRecord
100
AcDbLayerTableRecord
  2
223
 70
     0
 62
   223
  6
CONTINUOUS
  0
LAYER
  5
119
330
2
100
AcDbSymbolTableRecord
100
AcDbLayerTableRecord
  2
224
 70
     0
 62
   224
  6
CONTINUOUS
  0
LAYER
  5
11A
330
2
100
AcDbSymbolTableRecord
100
AcDbLayerTableRecord
  2
225
 70
     0
 62
   225
  6
CONTINUOUS
  0
LAYER
  5
11B
330
2
100
AcDbSymbolTableRecord
100
AcDbLayerTableRecord
  2
226
 70
     0
 62
   226
  6
CONTINUOUS
  0
LAYER
  5
11C
330
2
100
AcDbSymbolTableRecord
100
AcDbLayerTableRecord
  2
227
 70
     0
 62
   227
  6
CONTINUOUS
  0
LAYER
  5
11D
330
2
100
AcDbSymbolTableRecord
100
AcDbLayerTableRecord
  2
228
 70
     0
 62
   228
  6
CONTINUOUS
  0
LAYER
  5
11E
330
2
100
AcDbSymbolTableRecord
100
AcDbLayerTableRecord
  2
229
 70
     0
 62
   229
  6
CONTINUOUS
  0
LAYER
  5
11F
330
2
100
AcDbSymbolTableRecord
100
AcDbLayerTableRecord
  2
230
 70
     0
 62
   230
  6
CONTINUOUS
  0
LAYER
  5
120
330
2
100
AcDbSymbolTableRecord
100
AcDbLayerTableRecord
  2
231
 70
     0
 62
   231
  6
CONTINUOUS
  0
LAYER
  5
121
330
2
100
AcDbSymbolTableRecord
100
AcDbLayerTableRecord
  2
232
 70
     0
 62
   232
  6
CONTINUOUS
  0
LAYER
  5
122
330
2
100
AcDbSymbolTableRecord
100
AcDbLayerTableRecord
  2
233
 70
     0
 62
   233
  6
CONTINUOUS
  0
LAYER
  5
123
330
2
100
AcDbSymbolTableRecord
100
AcDbLayerTableRecord
  2
234
 70
     0
 62
   234
  6
CONTINUOUS
  0
LAYER
  5
124
330
2
100
AcDbSymbolTableRecord
100
AcDbLayerTableRecord
  2
235
 70
     0
 62
   235
  6
CONTINUOUS
  0
LAYER
  5
125
330
2
100
AcDbSymbolTableRecord
100
AcDbLayerTableRecord
  2
236
 70
     0
 62
   236
  6
CONTINUOUS
  0
LAYER
  5
126
330
2
100
AcDbSymbolTableRecord
100
AcDbLayerTableRecord
  2
237
 70
     0
 62
   237
  6
CONTINUOUS
  0
LAYER
  5
127
330
2
100
AcDbSymbolTableRecord
100
AcDbLayerTableRecord
  2
238
 70
     0
 62
   238
  6
CONTINUOUS
  0
LAYER
  5
128
330
2
100
AcDbSymbolTableRecord
100
AcDbLayerTableRecord
  2
239
 70
     0
 62
   239
  6
CONTINUOUS
  0
LAYER
  5
129
330
2
100
AcDbSymbolTableRecord
100
AcDbLayerTableRecord
  2
240
 70
     0
 62
   240
  6
CONTINUOUS
  0
LAYER
  5
12A
330
2
100
AcDbSymbolTableRecord
100
AcDbLayerTableRecord
  2
241
 70
     0
 62
   241
  6
CONTINUOUS
  0
LAYER
  5
12B
330
2
100
AcDbSymbolTableRecord
100
AcDbLayerTableRecord
  2
242
 70
     0
 62
   242
  6
CONTINUOUS
  0
LAYER
  5
12C
330
2
100
AcDbSymbolTableRecord
100
AcDbLayerTableRecord
  2
243
 70
     0
 62
   243
  6
CONTINUOUS
  0
LAYER
  5
12D
330
2
100
AcDbSymbolTableRecord
100
AcDbLayerTableRecord
  2
244
 70
     0
 62
   244
  6
CONTINUOUS
  0
LAYER
  5
12E
330
2
100
AcDbSymbolTableRecord
100
AcDbLayerTableRecord
  2
245
 70
     0
 62
   245
  6
CONTINUOUS
  0
LAYER
  5
12F
330
2
100
AcDbSymbolTableRecord
100
AcDbLayerTableRecord
  2
246
 70
     0
 62
   246
  6
CONTINUOUS
  0
LAYER
  5
130
330
2
100
AcDbSymbolTableRecord
100
AcDbLayerTableRecord
  2
247
 70
     0
 62
   247
  6
CONTINUOUS
  0
LAYER
  5
131
330
2
100
AcDbSymbolTableRecord
100
AcDbLayerTableRecord
  2
248
 70
     0
 62
   248
  6
CONTINUOUS
  0
LAYER
  5
132
330
2
100
AcDbSymbolTableRecord
100
AcDbLayerTableRecord
  2
249
 70
     0
 62
   249
  6
CONTINUOUS
  0
LAYER
  5
133
330
2
100
AcDbSymbolTableRecord
100
AcDbLayerTableRecord
  2
250
 70
     0
 62
   250
  6
CONTINUOUS
  0
LAYER
  5
134
330
2
100
AcDbSymbolTableRecord
100
AcDbLayerTableRecord
  2
251
 70
     0
 62
   251
  6
CONTINUOUS
  0
LAYER
  5
135
330
2
100
AcDbSymbolTableRecord
100
AcDbLayerTableRecord
  2
252
 70
     0
 62
   252
  6
CONTINUOUS
  0
LAYER
  5
136
330
2
100
AcDbSymbolTableRecord
100
AcDbLayerTableRecord
  2
253
 70
     0
 62
   253
  6
CONTINUOUS
  0
LAYER
  5
137
330
2
100
AcDbSymbolTableRecord
100
AcDbLayerTableRecord
  2
254
 70
     0
 62
   254
  6
CONTINUOUS
  0
LAYER
  5
138
330
2
100
AcDbSymbolTableRecord
100
AcDbLayerTableRecord
  2
255
 70
     0
 62
   255
  6
CONTINUOUS
  0
ENDTAB
  0
TABLE
  2
STYLE
  5
3
330
0
100
AcDbSymbolTable
 70
     1
  0
STYLE
  5
11
330
3
100
AcDbSymbolTableRecord
100
AcDbTextStyleTableRecord
  2
STANDARD
 70
     0
 40
0.0
 41
1.0
 50
0.0
 71
     0
 42
0.2
  3
txt
  4

  0
ENDTAB
  0
TABLE
  2
VIEW
  5
6
330
0
100
AcDbSymbolTable
 70
     0
  0
ENDTAB
  0
TABLE
  2
UCS
  5
7
330
0
100
AcDbSymbolTable
 70
     0
  0
ENDTAB
  0
TABLE
  2
APPID
  5
9
330
0
100
AcDbSymbolTable
 70
     1
  0
APPID
  5
12
330
9
100
AcDbSymbolTableRecord
100
AcDbRegAppTableRecord
  2
ACAD
 70
     0
  0
ENDTAB
  0
TABLE
  2
DIMSTYLE
  5
A
330
0
100
AcDbSymbolTable
 70
     1
  0
DIMSTYLE
105
3736
330
A
100
AcDbSymbolTableRecord
100
AcDbDimStyleTableRecord
  2
STANDARD
 70
     0
  3

  4

  5

  6

  7

 40
1.0
 41
0.18
 42
0.0625
 43
0.38
 44
0.18
 45
0.0
 46
0.0
 47
0.0
 48
0.0
140
0.18
141
0.09
142
0.0
143
25.4
144
1.0
145
0.0
146
1.0
147
0.09
 71
     0
 72
     0
 73
     1
 74
     1
 75
     0
 76
     0
 77
     0
 78
     0
170
     0
171
     2
172
     0
173
     0
174
     0
175
     0
176
     0
177
     0
178
     0
270
     2
271
     4
272
     4
273
     2
274
     2
340
11
275
     0
280
     0
281
     0
282
     0
283
     1
284
     0
285
     0
286
     0
287
     3
288
     0
  0
ENDTAB
  0
TABLE
  2
BLOCK_RECORD
  5
1
330
0
100
AcDbSymbolTable
 70
     0
  0
BLOCK_RECORD
  5
1E
102
{ACAD_XDICTIONARY
360
504C
102
}
330
1
100
AcDbSymbolTableRecord
100
AcDbBlockTableRecord
  2
*MODEL_SPACE
  0
BLOCK_RECORD
  5
1A
102
{ACAD_XDICTIONARY
360
504A
102
}
330
1
100
AcDbSymbolTableRecord
100
AcDbBlockTableRecord
  2
*PAPER_SPACE
  0
ENDTAB
  0
ENDSEC
  0
SECTION
  2
BLOCKS
  0
BLOCK
  5
13B
330
1E
100
AcDbEntity
  8
0
100
AcDbBlockBegin
  2
*MODEL_SPACE
 70
     0
 10
0.0
 20
0.0
 30
0.0
  3
*MODEL_SPACE
  1

  0
ENDBLK
  5
13C
330
1E
100
AcDbEntity
  8
0
100
AcDbBlockEnd
  0
BLOCK
  5
139
330
1A
100
AcDbEntity
 67
     1
  8
0
100
AcDbBlockBegin
  2
*PAPER_SPACE
 70
     0
 10
0.0
 20
0.0
 30
0.0
  3
*PAPER_SPACE
  1

  0
ENDBLK
  5
13A
330
1A
100
AcDbEntity
 67
     1
  8
0
100
AcDbBlockEnd
  0
ENDSEC
  0
SECTION
  2
ENTITIES
  0
LINE
  5
25E8
330
1E
100
AcDbEntity
  8
0
100
AcDbLine
 10
3.043307086614173
 20
4.252952755905512
 30
0.0
 11
3.044291338582677
 21
4.252952755905512
 31
0.0
  0
LINE
  5
25E9
330
1E
100
AcDbEntity
  8
0
100
AcDbLine
 10
1.552165354330708
 20
4.539370078740157
 30
0.0
 11
1.552165354330708
 21
4.532480314960629
 31
0.0
  0
LINE
  5
25EA
330
1E
100
AcDbEntity
  8
0
100
AcDbLine
 10
2.346456692913385
 20
4.598425196850393
 30
0.0
 11
1.626968503937007
 21
4.598425196850393
 31
0.0
  0
LINE
  5
25EB
330
1E
100
AcDbEntity
  8
0
100
AcDbLine
 10
1.626968503937007
 20
4.473425196850393
 30
0.0
 11
1.679133858267716
 21
4.473425196850393
 31
0.0
  0
LINE
  5
25EC
330
1E
100
AcDbEntity
  8
0
100
AcDbLine
 10
2.234251968503937
 20
4.151574803149606
 30
0.0
 11
2.284448818897637
 21
4.151574803149606
 31
0.0
  0
LINE
  5
25ED
330
1E
100
AcDbEntity
  8
0
100
AcDbLine
 10
1.728346456692913
 20
4.151574803149606
 30
0.0
 11
1.758858267716535
 21
4.151574803149606
 31
0.0
  0
LINE
  5
25EE
330
1E
100
AcDbEntity
  8
0
100
AcDbLine
 10
1.708661417322834
 20
4.237204724409449
 30
0.0
 11
1.697834645669291
 21
4.237204724409449
 31
0.0
  0
LINE
  5
25EF
330
1E
100
AcDbEntity
  8
0
100
AcDbLine
 10
1.694881889763779
 20
4.157480314960629
 30
0.0
 11
1.715551181102362
 21
4.157480314960629
 31
0.0
  0
LINE
  5
25F0
330
1E
100
AcDbEntity
  8
0
100
AcDbLine
 10
1.758858267716535
 20
4.157480314960629
 30
0.0
 11
2.234251968503937
 21
4.157480314960629
 31
0.0
  0
LINE
  5
25F1
330
1E
100
AcDbEntity
  8
0
100
AcDbLine
 10
1.699803149606299
 20
4.256889763779527
 30
0.0
 11
1.708661417322834
 21
4.256889763779527
 31
0.0
  0
LINE
  5
25F2
330
1E
100
AcDbEntity
  8
0
100
AcDbLine
 10
3.034448818897637
 20
4.256889763779527
 30
0.0
 11
3.044291338582677
 21
4.256889763779527
 31
0.0
  0
LINE
  5
25F3
330
1E
100
AcDbEntity
  8
0
100
AcDbLine
 10
3.190944881889763
 20
4.532480314960629
 30
0.0
 11
3.190944881889763
 21
4.539370078740157
 31
0.0
  0
LINE
  5
25F4
330
1E
100
AcDbEntity
  8
0
100
AcDbLine
 10
3.116141732283464
 20
4.598425196850393
 30
0.0
 11
2.396653543307086
 21
4.598425196850393
 31
0.0
  0
LINE
  5
25F5
330
1E
100
AcDbEntity
  8
0
100
AcDbLine
 10
3.064960629921259
 20
4.473425196850393
 30
0.0
 11
3.116141732283464
 21
4.473425196850393
 31
0.0
  0
LINE
  5
25F6
330
1E
100
AcDbEntity
  8
0
100
AcDbLine
 10
2.458661417322834
 20
4.151574803149606
 30
0.0
 11
2.508858267716535
 21
4.151574803149606
 31
0.0
  0
LINE
  5
25F7
330
1E
100
AcDbEntity
  8
0
100
AcDbLine
 10
2.984251968503937
 20
4.151574803149606
 30
0.0
 11
3.014763779527558
 21
4.151574803149606
 31
0.0
  0
LINE
  5
25F8
330
1E
100
AcDbEntity
  8
0
100
AcDbLine
 10
3.046259842519685
 20
4.236220472440944
 30
0.0
 11
3.034448818897637
 21
4.236220472440944
 31
0.0
  0
LINE
  5
25F9
330
1E
100
AcDbEntity
  8
0
100
AcDbLine
 10
3.02755905511811
 20
4.156496062992125
 30
0.0
 11
3.049212598425196
 21
4.156496062992125
 31
0.0
  0
LINE
  5
25FA
330
1E
100
AcDbEntity
  8
0
100
AcDbLine
 10
2.508858267716535
 20
4.157480314960629
 30
0.0
 11
2.984251968503937
 21
4.157480314960629
 31
0.0
  0
LINE
  5
2659
330
1E
100
AcDbEntity
  8
0
100
AcDbLine
 10
1.694881889763779
 20
4.151574803149606
 30
0.0
 11
1.694881889763779
 21
4.157480314960629
 31
0.0
  0
LINE
  5
2672
330
1E
100
AcDbEntity
  8
0
100
AcDbLine
 10
3.190944881889763
 20
4.540354330708661
 30
0.0
 11
3.190944881889763
 21
4.543307086614173
 31
0.0
  0
LINE
  5
269D
330
1E
100
AcDbEntity
  8
0
100
AcDbLine
 10
3.146653543307086
 20
5.363188976377952
 30
0.0
 11
3.146653543307086
 21
5.199803149606299
 31
0.0
  0
LINE
  5
269E
330
1E
100
AcDbEntity
  8
0
100
AcDbLine
 10
3.146653543307086
 20
5.199803149606299
 30
0.0
 11
3.146653543307086
 21
4.979330708661417
 31
0.0
  0
LINE
  5
269F
330
1E
100
AcDbEntity
  8
0
100
AcDbLine
 10
1.597440944881889
 20
4.917322834645669
 30
0.0
 11
1.597440944881889
 21
4.862204724409449
 31
0.0
  0
LINE
  5
26A0
330
1E
100
AcDbEntity
  8
0
100
AcDbLine
 10
1.597440944881889
 20
4.435039370078739
 30
0.0
 11
1.597440944881889
 21
4.028543307086613
 31
0.0
  0
LINE
  5
26A1
330
1E
100
AcDbEntity
  8
0
100
AcDbLine
 10
3.059055118110236
 20
4.028543307086613
 30
0.0
 11
3.146653543307086
 21
4.028543307086613
 31
0.0
  0
LINE
  5
26A2
330
1E
100
AcDbEntity
  8
0
100
AcDbLine
 10
3.059055118110236
 20
4.028543307086613
 30
0.0
 11
1.684055118110236
 21
4.028543307086613
 31
0.0
  0
LINE
  5
26A3
330
1E
100
AcDbEntity
  8
0
100
AcDbLine
 10
1.597440944881889
 20
4.028543307086613
 30
0.0
 11
1.684055118110236
 21
4.028543307086613
 31
0.0
  0
LINE
  5
26A4
330
1E
100
AcDbEntity
  8
0
100
AcDbLine
 10
1.750984251968503
 20
4.151574803149606
 30
0.0
 11
1.750984251968503
 21
4.14763779527559
 31
0.0
  0
LINE
  5
26A5
330
1E
100
AcDbEntity
  8
0
100
AcDbLine
 10
1.750984251968503
 20
4.139763779527559
 30
0.0
 11
1.750984251968503
 21
4.14763779527559
 31
0.0
  0
LINE
  5
26A6
330
1E
100
AcDbEntity
  8
0
100
AcDbLine
 10
1.750984251968503
 20
4.151574803149606
 30
0.0
 11
1.750984251968503
 21
4.139763779527559
 31
0.0
  0
LINE
  5
26A7
330
1E
100
AcDbEntity
  8
0
100
AcDbLine
 10
2.992125984251968
 20
4.151574803149606
 30
0.0
 11
2.992125984251968
 21
4.139763779527559
 31
0.0
  0
LINE
  5
26A8
330
1E
100
AcDbEntity
  8
0
100
AcDbLine
 10
2.992125984251968
 20
4.14763779527559
 30
0.0
 11
2.992125984251968
 21
4.139763779527559
 31
0.0
  0
LINE
  5
26A9
330
1E
100
AcDbEntity
  8
0
100
AcDbLine
 10
2.992125984251968
 20
4.151574803149606
 30
0.0
 11
2.992125984251968
 21
4.14763779527559
 31
0.0
  0
LINE
  5
26AA
330
1E
100
AcDbEntity
  8
0
100
AcDbLine
 10
3.15255905511811
 20
4.855314960629921
 30
0.0
 11
3.146653543307086
 21
4.862204724409449
 31
0.0
  0
LINE
  5
26AB
330
1E
100
AcDbEntity
  8
0
100
AcDbLine
 10
1.597440944881889
 20
4.862204724409449
 30
0.0
 11
1.590551181102362
 21
4.855314960629921
 31
0.0
  0
LINE
  5
26AC
330
1E
100
AcDbEntity
  8
0
100
AcDbLine
 10
1.597440944881889
 20
5.363188976377952
 30
0.0
 11
3.146653543307086
 21
5.363188976377952
 31
0.0
  0
LINE
  5
26AD
330
1E
100
AcDbEntity
  8
0
100
AcDbLine
 10
1.597440944881889
 20
5.363188976377952
 30
0.0
 11
1.597440944881889
 21
5.199803149606299
 31
0.0
  0
LINE
  5
26B5
330
1E
100
AcDbEntity
  8
0
100
AcDbLine
 10
3.102362204724409
 20
5.261811023622047
 30
0.0
 11
1.640748031496062
 21
5.261811023622047
 31
0.0
  0
LINE
  5
26BD
330
1E
100
AcDbEntity
  8
0
100
AcDbLine
 10
1.597440944881889
 20
4.028543307086613
 30
0.0
 11
1.597440944881889
 21
4.028543307086613
 31
0.0
  0
LINE
  5
26BE
330
1E
100
AcDbEntity
  8
0
100
AcDbLine
 10
1.597440944881889
 20
4.028543307086613
 30
0.0
 11
1.601377952755905
 21
4.141732283464566
 31
0.0
  0
LINE
  5
26C4
330
1E
100
AcDbEntity
  8
0
100
AcDbLine
 10
1.602362204724409
 20
4.196850393700787
 30
0.0
 11
1.602362204724409
 21
4.298228346456692
 31
0.0
  0
LINE
  5
26C5
330
1E
100
AcDbEntity
  8
0
100
AcDbLine
 10
1.602362204724409
 20
4.298228346456692
 30
0.0
 11
1.608267716535433
 21
4.476377952755905
 31
0.0
  0
LINE
  5
26C6
330
1E
100
AcDbEntity
  8
0
100
AcDbLine
 10
1.612204724409448
 20
4.602362204724409
 30
0.0
 11
1.612204724409448
 21
4.597440944881889
 31
0.0
  0
LINE
  5
26C7
330
1E
100
AcDbEntity
  8
0
100
AcDbLine
 10
1.613188976377952
 20
4.603346456692912
 30
0.0
 11
1.612204724409448
 21
4.602362204724409
 31
0.0
  0
LINE
  5
26C8
330
1E
100
AcDbEntity
  8
0
100
AcDbLine
 10
1.613188976377952
 20
4.603346456692912
 30
0.0
 11
1.614173228346456
 21
4.641732283464566
 31
0.0
  0
LINE
  5
26D0
330
1E
100
AcDbEntity
  8
0
100
AcDbLine
 10
1.614173228346456
 20
4.709645669291338
 30
0.0
 11
1.597440944881889
 21
5.199803149606299
 31
0.0
  0
LINE
  5
26D1
330
1E
100
AcDbEntity
  8
0
100
AcDbLine
 10
1.597440944881889
 20
5.199803149606299
 30
0.0
 11
1.597440944881889
 21
4.979330708661417
 31
0.0
  0
LINE
  5
26D2
330
1E
100
AcDbEntity
  8
0
100
AcDbLine
 10
1.597440944881889
 20
4.979330708661417
 30
0.0
 11
1.597440944881889
 21
4.917322834645669
 31
0.0
  0
LINE
  5
26D3
330
1E
100
AcDbEntity
  8
0
100
AcDbLine
 10
1.590551181102362
 20
4.591535433070865
 30
0.0
 11
1.590551181102362
 21
4.855314960629921
 31
0.0
  0
LINE
  5
26D4
330
1E
100
AcDbEntity
  8
0
100
AcDbLine
 10
1.597440944881889
 20
4.479330708661417
 30
0.0
 11
1.597440944881889
 21
4.435039370078739
 31
0.0
  0
LINE
  5
26D5
330
1E
100
AcDbEntity
  8
0
100
AcDbLine
 10
3.046259842519685
 20
4.128937007874015
 30
0.0
 11
3.048228346456693
 21
4.128937007874015
 31
0.0
  0
LINE
  5
26D6
330
1E
100
AcDbEntity
  8
0
100
AcDbLine
 10
1.696850393700787
 20
4.128937007874015
 30
0.0
 11
1.694881889763779
 21
4.128937007874015
 31
0.0
  0
LINE
  5
26EC
330
1E
100
AcDbEntity
  8
0
100
AcDbLine
 10
3.044291338582677
 20
4.259842519685038
 30
0.0
 11
3.044291338582677
 21
4.259842519685038
 31
0.0
  0
LINE
  5
26ED
330
1E
100
AcDbEntity
  8
0
100
AcDbLine
 10
3.044291338582677
 20
4.259842519685038
 30
0.0
 11
3.044291338582677
 21
4.256889763779527
 31
0.0
  0
LINE
  5
26EE
330
1E
100
AcDbEntity
  8
0
100
AcDbLine
 10
3.046259842519685
 20
4.156496062992125
 30
0.0
 11
3.046259842519685
 21
4.14763779527559
 31
0.0
  0
LINE
  5
26EF
330
1E
100
AcDbEntity
  8
0
100
AcDbLine
 10
3.046259842519685
 20
4.128937007874015
 30
0.0
 11
3.046259842519685
 21
4.14763779527559
 31
0.0
  0
LINE
  5
2700
330
1E
100
AcDbEntity
  8
0
100
AcDbLine
 10
3.141732283464566
 20
4.141732283464566
 30
0.0
 11
3.145669291338582
 21
4.028543307086613
 31
0.0
  0
LINE
  5
2701
330
1E
100
AcDbEntity
  8
0
100
AcDbLine
 10
3.146653543307086
 20
4.028543307086613
 30
0.0
 11
3.145669291338582
 21
4.028543307086613
 31
0.0
  0
LINE
  5
2702
330
1E
100
AcDbEntity
  8
0
100
AcDbLine
 10
3.146653543307086
 20
4.435039370078739
 30
0.0
 11
3.146653543307086
 21
4.028543307086613
 31
0.0
  0
LINE
  5
2703
330
1E
100
AcDbEntity
  8
0
100
AcDbLine
 10
3.146653543307086
 20
4.478346456692912
 30
0.0
 11
3.146653543307086
 21
4.435039370078739
 31
0.0
  0
LINE
  5
2704
330
1E
100
AcDbEntity
  8
0
100
AcDbLine
 10
3.146653543307086
 20
4.917322834645669
 30
0.0
 11
3.146653543307086
 21
4.862204724409449
 31
0.0
  0
LINE
  5
2705
330
1E
100
AcDbEntity
  8
0
100
AcDbLine
 10
3.146653543307086
 20
4.979330708661417
 30
0.0
 11
3.146653543307086
 21
4.917322834645669
 31
0.0
  0
LINE
  5
2706
330
1E
100
AcDbEntity
  8
0
100
AcDbLine
 10
3.146653543307086
 20
5.199803149606299
 30
0.0
 11
3.128937007874015
 21
4.709645669291338
 31
0.0
  0
LINE
  5
270E
330
1E
100
AcDbEntity
  8
0
100
AcDbLine
 10
3.128937007874015
 20
4.641732283464566
 30
0.0
 11
3.130905511811023
 21
4.603346456692912
 31
0.0
  0
LINE
  5
270F
330
1E
100
AcDbEntity
  8
0
100
AcDbLine
 10
3.130905511811023
 20
4.602362204724409
 30
0.0
 11
3.130905511811023
 21
4.603346456692912
 31
0.0
  0
LINE
  5
2710
330
1E
100
AcDbEntity
  8
0
100
AcDbLine
 10
3.130905511811023
 20
4.602362204724409
 30
0.0
 11
3.130905511811023
 21
4.597440944881889
 31
0.0
  0
LINE
  5
2711
330
1E
100
AcDbEntity
  8
0
100
AcDbLine
 10
3.134842519685039
 20
4.475393700787401
 30
0.0
 11
3.140748031496062
 21
4.298228346456692
 31
0.0
  0
LINE
  5
2712
330
1E
100
AcDbEntity
  8
0
100
AcDbLine
 10
3.140748031496062
 20
4.298228346456692
 30
0.0
 11
3.140748031496062
 21
4.196850393700787
 31
0.0
  0
LINE
  5
2713
330
1E
100
AcDbEntity
  8
0
100
AcDbLine
 10
1.696850393700787
 20
4.128937007874015
 30
0.0
 11
1.696850393700787
 21
4.14763779527559
 31
0.0
  0
LINE
  5
2714
330
1E
100
AcDbEntity
  8
0
100
AcDbLine
 10
1.696850393700787
 20
4.157480314960629
 30
0.0
 11
1.696850393700787
 21
4.14763779527559
 31
0.0
  0
LINE
  5
2715
330
1E
100
AcDbEntity
  8
0
100
AcDbLine
 10
1.698818897637795
 20
4.259842519685038
 30
0.0
 11
1.699803149606299
 21
4.256889763779527
 31
0.0
  0
LINE
  5
2716
330
1E
100
AcDbEntity
  8
0
100
AcDbLine
 10
1.698818897637795
 20
4.259842519685038
 30
0.0
 11
1.698818897637795
 21
4.259842519685038
 31
0.0
  0
LINE
  5
2717
330
1E
100
AcDbEntity
  8
0
100
AcDbLine
 10
1.640748031496062
 20
5.261811023622047
 30
0.0
 11
1.659448818897637
 21
4.741141732283464
 31
0.0
  0
LINE
  5
2718
330
1E
100
AcDbEntity
  8
0
100
AcDbLine
 10
1.659448818897637
 20
4.741141732283464
 30
0.0
 11
3.084645669291338
 21
4.741141732283464
 31
0.0
  0
LINE
  5
2719
330
1E
100
AcDbEntity
  8
0
100
AcDbLine
 10
3.084645669291338
 20
4.741141732283464
 30
0.0
 11
3.102362204724409
 21
5.261811023622047
 31
0.0
  0
LINE
  5
2724
330
1E
100
AcDbEntity
  8
0
100
AcDbLine
 10
2.458661417322834
 20
4.148622047244094
 30
0.0
 11
2.458661417322834
 21
4.151574803149606
 31
0.0
  0
LINE
  5
2725
330
1E
100
AcDbEntity
  8
0
100
AcDbLine
 10
2.458661417322834
 20
4.148622047244094
 30
0.0
 11
2.458661417322834
 21
4.139763779527559
 31
0.0
  0
LINE
  5
2726
330
1E
100
AcDbEntity
  8
0
100
AcDbLine
 10
2.520669291338582
 20
4.139763779527559
 30
0.0
 11
2.458661417322834
 21
4.139763779527559
 31
0.0
  0
LINE
  5
2727
330
1E
100
AcDbEntity
  8
0
100
AcDbLine
 10
2.520669291338582
 20
4.157480314960629
 30
0.0
 11
2.520669291338582
 21
4.154527559055117
 31
0.0
  0
LINE
  5
2728
330
1E
100
AcDbEntity
  8
0
100
AcDbLine
 10
2.984251968503937
 20
4.154527559055117
 30
0.0
 11
2.520669291338582
 21
4.154527559055117
 31
0.0
  0
LINE
  5
272E
330
1E
100
AcDbEntity
  8
0
100
AcDbLine
 10
1.758858267716535
 20
4.154527559055117
 30
0.0
 11
2.222440944881889
 21
4.154527559055117
 31
0.0
  0
LINE
  5
272F
330
1E
100
AcDbEntity
  8
0
100
AcDbLine
 10
2.222440944881889
 20
4.154527559055117
 30
0.0
 11
2.222440944881889
 21
4.157480314960629
 31
0.0
  0
LINE
  5
2735
330
1E
100
AcDbEntity
  8
0
100
AcDbLine
 10
2.222440944881889
 20
4.139763779527559
 30
0.0
 11
2.284448818897637
 21
4.139763779527559
 31
0.0
  0
LINE
  5
2736
330
1E
100
AcDbEntity
  8
0
100
AcDbLine
 10
2.284448818897637
 20
4.148622047244094
 30
0.0
 11
2.284448818897637
 21
4.139763779527559
 31
0.0
  0
LINE
  5
2737
330
1E
100
AcDbEntity
  8
0
100
AcDbLine
 10
2.284448818897637
 20
4.148622047244094
 30
0.0
 11
2.284448818897637
 21
4.151574803149606
 31
0.0
  0
LINE
  5
2742
330
1E
100
AcDbEntity
  8
0
100
AcDbLine
 10
2.458661417322834
 20
4.164370078740157
 30
0.0
 11
2.284448818897637
 21
4.164370078740157
 31
0.0
  0
LINE
  5
2743
330
1E
100
AcDbEntity
  8
0
100
AcDbLine
 10
2.284448818897637
 20
4.151574803149606
 30
0.0
 11
2.458661417322834
 21
4.151574803149606
 31
0.0
  0
LINE
  5
2744
330
1E
100
AcDbEntity
  8
0
100
AcDbLine
 10
2.284448818897637
 20
4.148622047244094
 30
0.0
 11
2.458661417322834
 21
4.148622047244094
 31
0.0
  0
LINE
  5
2745
330
1E
100
AcDbEntity
  8
0
100
AcDbLine
 10
1.658464566929133
 20
4.606299212598425
 30
0.0
 11
3.084645669291338
 21
4.606299212598425
 31
0.0
  0
LINE
  5
274D
330
1E
100
AcDbEntity
  8
0
100
AcDbLine
 10
1.612204724409448
 20
4.602362204724409
 30
0.0
 11
3.130905511811023
 21
4.602362204724409
 31
0.0
  0
LINE
  5
2755
330
1E
100
AcDbEntity
  8
0
100
AcDbLine
 10
3.046259842519685
 20
4.106299212598425
 30
0.0
 11
1.696850393700787
 21
4.106299212598425
 31
0.0
  0
LINE
  5
2756
330
1E
100
AcDbEntity
  8
0
100
AcDbLine
 10
1.696850393700787
 20
4.106299212598425
 30
0.0
 11
1.693897637795275
 21
4.037401574803149
 31
0.0
  0
LINE
  5
2761
330
1E
100
AcDbEntity
  8
0
100
AcDbLine
 10
3.046259842519685
 20
4.106299212598425
 30
0.0
 11
3.049212598425196
 21
4.037401574803149
 31
0.0
  0
LINE
  5
2762
330
1E
100
AcDbEntity
  8
0
100
AcDbLine
 10
2.376968503937007
 20
4.228346456692912
 30
0.0
 11
2.366141732283464
 21
4.228346456692912
 31
0.0
  0
LINE
  5
2763
330
1E
100
AcDbEntity
  8
0
100
AcDbLine
 10
2.992125984251968
 20
4.139763779527559
 30
0.0
 11
2.520669291338582
 21
4.139763779527559
 31
0.0
  0
LINE
  5
2764
330
1E
100
AcDbEntity
  8
0
100
AcDbLine
 10
1.750984251968503
 20
4.139763779527559
 30
0.0
 11
2.222440944881889
 21
4.139763779527559
 31
0.0
  0
LINE
  5
2765
330
1E
100
AcDbEntity
  8
0
100
AcDbLine
 10
1.696850393700787
 20
4.14763779527559
 30
0.0
 11
1.750984251968503
 21
4.14763779527559
 31
0.0
  0
LINE
  5
2766
330
1E
100
AcDbEntity
  8
0
100
AcDbLine
 10
1.696850393700787
 20
4.106299212598425
 30
0.0
 11
1.696850393700787
 21
4.128937007874015
 31
0.0
  0
LINE
  5
2767
330
1E
100
AcDbEntity
  8
0
100
AcDbLine
 10
3.046259842519685
 20
4.106299212598425
 30
0.0
 11
3.046259842519685
 21
4.128937007874015
 31
0.0
  0
LINE
  5
2768
330
1E
100
AcDbEntity
  8
0
100
AcDbLine
 10
3.046259842519685
 20
4.14763779527559
 30
0.0
 11
2.992125984251968
 21
4.14763779527559
 31
0.0
  0
LINE
  5
2769
330
1E
100
AcDbEntity
  8
0
100
AcDbLine
 10
3.084645669291338
 20
4.61023622047244
 30
0.0
 11
1.659448818897637
 21
4.61023622047244
 31
0.0
  0
LINE
  5
276A
330
1E
100
AcDbEntity
  8
0
100
AcDbLine
 10
1.659448818897637
 20
4.61023622047244
 30
0.0
 11
1.658464566929133
 21
4.606299212598425
 31
0.0
  0
LINE
  5
276B
330
1E
100
AcDbEntity
  8
0
100
AcDbLine
 10
3.084645669291338
 20
4.606299212598425
 30
0.0
 11
3.084645669291338
 21
4.61023622047244
 31
0.0
  0
LINE
  5
276C
330
1E
100
AcDbEntity
  8
0
100
AcDbLine
 10
3.044291338582677
 20
4.259842519685038
 30
0.0
 11
3.034448818897637
 21
4.259842519685038
 31
0.0
  0
LINE
  5
276D
330
1E
100
AcDbEntity
  8
0
100
AcDbLine
 10
3.044291338582677
 20
4.259842519685038
 30
0.0
 11
3.043307086614173
 21
4.468503937007874
 31
0.0
  0
LINE
  5
276E
330
1E
100
AcDbEntity
  8
0
100
AcDbLine
 10
1.698818897637795
 20
4.259842519685038
 30
0.0
 11
1.699803149606299
 21
4.468503937007874
 31
0.0
  0
LINE
  5
276F
330
1E
100
AcDbEntity
  8
0
100
AcDbLine
 10
1.698818897637795
 20
4.259842519685038
 30
0.0
 11
1.708661417322834
 21
4.259842519685038
 31
0.0
  0
LINE
  5
2770
330
1E
100
AcDbEntity
  8
0
100
AcDbLine
 10
2.376968503937007
 20
4.248031496062991
 30
0.0
 11
2.367125984251968
 21
4.248031496062991
 31
0.0
  0
LINE
  5
2771
330
1E
100
AcDbEntity
  8
0
100
AcDbLine
 10
3.06003937007874
 20
4.029527559055117
 30
0.0
 11
3.125
 21
4.029527559055117
 31
0.0
  0
LINE
  5
2772
330
1E
100
AcDbEntity
  8
0
100
AcDbLine
 10
3.125
 20
4.029527559055117
 30
0.0
 11
3.122047244094487
 21
4.127952755905512
 31
0.0
  0
LINE
  5
2773
330
1E
100
AcDbEntity
  8
0
100
AcDbLine
 10
3.122047244094487
 20
4.127952755905512
 30
0.0
 11
3.06003937007874
 21
4.127952755905512
 31
0.0
  0
LINE
  5
2774
330
1E
100
AcDbEntity
  8
0
100
AcDbLine
 10
3.06003937007874
 20
4.127952755905512
 30
0.0
 11
3.06003937007874
 21
4.029527559055117
 31
0.0
  0
LINE
  5
2775
330
1E
100
AcDbEntity
  8
0
100
AcDbLine
 10
3.06003937007874
 20
4.029527559055117
 30
0.0
 11
3.06003937007874
 21
4.029527559055117
 31
0.0
  0
LINE
  5
277C
330
1E
100
AcDbEntity
  8
0
100
AcDbLine
 10
3.121062992125984
 20
4.196850393700787
 30
0.0
 11
3.058070866141732
 21
4.196850393700787
 31
0.0
  0
LINE
  5
2783
330
1E
100
AcDbEntity
  8
0
100
AcDbLine
 10
3.121062992125984
 20
4.196850393700787
 30
0.0
 11
3.121062992125984
 21
4.265748031496062
 31
0.0
  0
LINE
  5
2789
330
1E
100
AcDbEntity
  8
0
100
AcDbLine
 10
3.056102362204724
 20
4.254921259842519
 30
0.0
 11
3.096456692913385
 21
4.254921259842519
 31
0.0
  0
LINE
  5
278A
330
1E
100
AcDbEntity
  8
0
100
AcDbLine
 10
3.056102362204724
 20
4.254921259842519
 30
0.0
 11
3.058070866141732
 21
4.196850393700787
 31
0.0
  0
LINE
  5
278B
330
1E
100
AcDbEntity
  8
0
100
AcDbLine
 10
3.096456692913385
 20
4.254921259842519
 30
0.0
 11
3.089566929133858
 21
4.452755905511811
 31
0.0
  0
LINE
  5
278C
330
1E
100
AcDbEntity
  8
0
100
AcDbLine
 10
3.089566929133858
 20
4.452755905511811
 30
0.0
 11
3.056102362204724
 21
4.452755905511811
 31
0.0
  0
LINE
  5
278D
330
1E
100
AcDbEntity
  8
0
100
AcDbLine
 10
3.056102362204724
 20
4.452755905511811
 30
0.0
 11
3.056102362204724
 21
4.254921259842519
 31
0.0
  0
LINE
  5
278E
330
1E
100
AcDbEntity
  8
0
100
AcDbLine
 10
3.056102362204724
 20
4.254921259842519
 30
0.0
 11
3.056102362204724
 21
4.254921259842519
 31
0.0
  0
LINE
  5
2795
330
1E
100
AcDbEntity
  8
0
100
AcDbLine
 10
3.06003937007874
 20
4.029527559055117
 30
0.0
 11
3.059055118110236
 21
4.028543307086613
 31
0.0
  0
LINE
  5
2796
330
1E
100
AcDbEntity
  8
0
100
AcDbLine
 10
3.048228346456693
 20
4.196850393700787
 30
0.0
 11
3.046259842519685
 21
4.258858267716535
 31
0.0
  0
LINE
  5
2797
330
1E
100
AcDbEntity
  8
0
100
AcDbLine
 10
3.046259842519685
 20
4.258858267716535
 30
0.0
 11
3.046259842519685
 21
4.459645669291338
 31
0.0
  0
LINE
  5
2798
330
1E
100
AcDbEntity
  8
0
100
AcDbLine
 10
3.045275590551181
 20
4.469488188976377
 30
0.0
 11
3.046259842519685
 21
4.459645669291338
 31
0.0
  0
LINE
  5
2799
330
1E
100
AcDbEntity
  8
0
100
AcDbLine
 10
3.049212598425196
 20
4.037401574803149
 30
0.0
 11
3.0501968503937
 21
4.039370078740157
 31
0.0
  0
LINE
  5
279A
330
1E
100
AcDbEntity
  8
0
100
AcDbLine
 10
3.0501968503937
 20
4.039370078740157
 30
0.0
 11
3.0501968503937
 21
4.134842519685038
 31
0.0
  0
LINE
  5
27AC
330
1E
100
AcDbEntity
  8
0
100
AcDbLine
 10
1.621062992125984
 20
4.127952755905512
 30
0.0
 11
1.683070866141732
 21
4.127952755905512
 31
0.0
  0
LINE
  5
27AD
330
1E
100
AcDbEntity
  8
0
100
AcDbLine
 10
1.621062992125984
 20
4.127952755905512
 30
0.0
 11
1.618110236220472
 21
4.029527559055117
 31
0.0
  0
LINE
  5
27AE
330
1E
100
AcDbEntity
  8
0
100
AcDbLine
 10
1.683070866141732
 20
4.029527559055117
 30
0.0
 11
1.618110236220472
 21
4.029527559055117
 31
0.0
  0
LINE
  5
27AF
330
1E
100
AcDbEntity
  8
0
100
AcDbLine
 10
1.683070866141732
 20
4.029527559055117
 30
0.0
 11
1.683070866141732
 21
4.029527559055117
 31
0.0
  0
LINE
  5
27B0
330
1E
100
AcDbEntity
  8
0
100
AcDbLine
 10
1.683070866141732
 20
4.029527559055117
 30
0.0
 11
1.683070866141732
 21
4.127952755905512
 31
0.0
  0
LINE
  5
27B1
330
1E
100
AcDbEntity
  8
0
100
AcDbLine
 10
1.622047244094488
 20
4.196850393700787
 30
0.0
 11
1.68503937007874
 21
4.196850393700787
 31
0.0
  0
LINE
  5
27C3
330
1E
100
AcDbEntity
  8
0
100
AcDbLine
 10
1.622047244094488
 20
4.265748031496062
 30
0.0
 11
1.622047244094488
 21
4.196850393700787
 31
0.0
  0
LINE
  5
27C4
330
1E
100
AcDbEntity
  8
0
100
AcDbLine
 10
1.68503937007874
 20
4.196850393700787
 30
0.0
 11
1.687007874015747
 21
4.254921259842519
 31
0.0
  0
LINE
  5
27C5
330
1E
100
AcDbEntity
  8
0
100
AcDbLine
 10
1.687007874015747
 20
4.254921259842519
 30
0.0
 11
1.646653543307086
 21
4.254921259842519
 31
0.0
  0
LINE
  5
27C6
330
1E
100
AcDbEntity
  8
0
100
AcDbLine
 10
1.653543307086614
 20
4.452755905511811
 30
0.0
 11
1.687007874015747
 21
4.452755905511811
 31
0.0
  0
LINE
  5
27C7
330
1E
100
AcDbEntity
  8
0
100
AcDbLine
 10
1.653543307086614
 20
4.452755905511811
 30
0.0
 11
1.646653543307086
 21
4.254921259842519
 31
0.0
  0
LINE
  5
27C8
330
1E
100
AcDbEntity
  8
0
100
AcDbLine
 10
1.687007874015747
 20
4.254921259842519
 30
0.0
 11
1.687007874015747
 21
4.254921259842519
 31
0.0
  0
LINE
  5
27C9
330
1E
100
AcDbEntity
  8
0
100
AcDbLine
 10
1.687007874015747
 20
4.254921259842519
 30
0.0
 11
1.687007874015747
 21
4.452755905511811
 31
0.0
  0
LINE
  5
27D0
330
1E
100
AcDbEntity
  8
0
100
AcDbLine
 10
1.684055118110236
 20
4.028543307086613
 30
0.0
 11
1.683070866141732
 21
4.029527559055117
 31
0.0
  0
LINE
  5
27D1
330
1E
100
AcDbEntity
  8
0
100
AcDbLine
 10
1.697834645669291
 20
4.469488188976377
 30
0.0
 11
1.697834645669291
 21
4.459645669291338
 31
0.0
  0
LINE
  5
27D2
330
1E
100
AcDbEntity
  8
0
100
AcDbLine
 10
1.697834645669291
 20
4.459645669291338
 30
0.0
 11
1.696850393700787
 21
4.258858267716535
 31
0.0
  0
LINE
  5
27D3
330
1E
100
AcDbEntity
  8
0
100
AcDbLine
 10
1.696850393700787
 20
4.258858267716535
 30
0.0
 11
1.694881889763779
 21
4.196850393700787
 31
0.0
  0
LINE
  5
27DA
330
1E
100
AcDbEntity
  8
0
100
AcDbLine
 10
1.692913385826771
 20
4.134842519685038
 30
0.0
 11
1.692913385826771
 21
4.039370078740157
 31
0.0
  0
LINE
  5
27DB
330
1E
100
AcDbEntity
  8
0
100
AcDbLine
 10
1.692913385826771
 20
4.039370078740157
 30
0.0
 11
1.693897637795275
 21
4.037401574803149
 31
0.0
  0
LINE
  5
2859
330
1E
100
AcDbEntity
  8
0
100
AcDbLine
 10
2.284448818897637
 20
4.21259842519685
 30
0.0
 11
2.284448818897637
 21
4.21259842519685
 31
0.0
  0
LINE
  5
2869
330
1E
100
AcDbEntity
  8
0
100
AcDbLine
 10
1.708661417322834
 20
4.376968503937007
 30
0.0
 11
1.708661417322834
 21
4.383858267716535
 31
0.0
  0
LINE
  5
286A
330
1E
100
AcDbEntity
  8
0
100
AcDbLine
 10
1.718503937007874
 20
4.372047244094487
 30
0.0
 11
1.718503937007874
 21
4.432086614173228
 31
0.0
  0
LINE
  5
2870
330
1E
100
AcDbEntity
  8
0
100
AcDbLine
 10
1.708661417322834
 20
4.451771653543307
 30
0.0
 11
1.708661417322834
 21
4.458661417322834
 31
0.0
  0
LINE
  5
28AF
330
1E
100
AcDbEntity
  8
0
100
AcDbLine
 10
1.758858267716535
 20
4.21259842519685
 30
0.0
 11
1.728346456692913
 21
4.21259842519685
 31
0.0
  0
LINE
  5
28B0
330
1E
100
AcDbEntity
  8
0
100
AcDbLine
 10
1.758858267716535
 20
4.197834645669291
 30
0.0
 11
1.728346456692913
 21
4.197834645669291
 31
0.0
  0
LINE
  5
28B1
330
1E
100
AcDbEntity
  8
0
100
AcDbLine
 10
1.708661417322834
 20
4.226377952755905
 30
0.0
 11
1.708661417322834
 21
4.376968503937007
 31
0.0
  0
LINE
  5
28B2
330
1E
100
AcDbEntity
  8
0
100
AcDbLine
 10
1.694881889763779
 20
4.18996062992126
 30
0.0
 11
1.710629921259842
 21
4.18996062992126
 31
0.0
  0
LINE
  5
28B3
330
1E
100
AcDbEntity
  8
0
100
AcDbLine
 10
1.694881889763779
 20
4.165354330708661
 30
0.0
 11
1.710629921259842
 21
4.165354330708661
 31
0.0
  0
LINE
  5
28BA
330
1E
100
AcDbEntity
  8
0
100
AcDbLine
 10
2.234251968503937
 20
4.197834645669291
 30
0.0
 11
2.284448818897637
 21
4.197834645669291
 31
0.0
  0
LINE
  5
28C0
330
1E
100
AcDbEntity
  8
0
100
AcDbLine
 10
2.234251968503937
 20
4.21259842519685
 30
0.0
 11
2.284448818897637
 21
4.21259842519685
 31
0.0
  0
LINE
  5
28C6
330
1E
100
AcDbEntity
  8
0
100
AcDbLine
 10
2.346456692913385
 20
4.218503937007874
 30
0.0
 11
2.292322834645669
 21
4.218503937007874
 31
0.0
  0
LINE
  5
28C7
330
1E
100
AcDbEntity
  8
0
100
AcDbLine
 10
2.346456692913385
 20
4.218503937007874
 30
0.0
 11
2.346456692913385
 21
4.557086614173228
 31
0.0
  0
LINE
  5
28C8
330
1E
100
AcDbEntity
  8
0
100
AcDbLine
 10
2.346456692913385
 20
4.557086614173228
 30
0.0
 11
1.626968503937007
 21
4.557086614173228
 31
0.0
  0
LINE
  5
28D4
330
1E
100
AcDbEntity
  8
0
100
AcDbLine
 10
1.626968503937007
 20
4.479330708661417
 30
0.0
 11
1.679133858267716
 21
4.479330708661417
 31
0.0
  0
LINE
  5
28DB
330
1E
100
AcDbEntity
  8
0
100
AcDbLine
 10
1.728346456692913
 20
4.443897637795275
 30
0.0
 11
1.728346456692913
 21
4.21259842519685
 31
0.0
  0
LINE
  5
28DC
330
1E
100
AcDbEntity
  8
0
100
AcDbLine
 10
1.758858267716535
 20
4.165354330708661
 30
0.0
 11
2.234251968503937
 21
4.165354330708661
 31
0.0
  0
LINE
  5
28FD
330
1E
100
AcDbEntity
  8
0
100
AcDbLine
 10
1.626968503937007
 20
4.585629921259842
 30
0.0
 11
2.346456692913385
 21
4.585629921259842
 31
0.0
  0
LINE
  5
290D
330
1E
100
AcDbEntity
  8
0
100
AcDbLine
 10
2.366141732283464
 20
4.571850393700787
 30
0.0
 11
2.366141732283464
 21
4.232283464566928
 31
0.0
  0
LINE
  5
291D
330
1E
100
AcDbEntity
  8
0
100
AcDbLine
 10
2.346456692913385
 20
4.59251968503937
 30
0.0
 11
1.626968503937007
 21
4.59251968503937
 31
0.0
  0
LINE
  5
2925
330
1E
100
AcDbEntity
  8
0
100
AcDbLine
 10
2.366141732283464
 20
4.578740157480314
 30
0.0
 11
2.366141732283464
 21
4.571850393700787
 31
0.0
  0
LINE
  5
2926
330
1E
100
AcDbEntity
  8
0
100
AcDbLine
 10
2.346456692913385
 20
4.585629921259842
 30
0.0
 11
2.346456692913385
 21
4.59251968503937
 31
0.0
  0
LINE
  5
2927
330
1E
100
AcDbEntity
  8
0
100
AcDbLine
 10
1.626968503937007
 20
4.59251968503937
 30
0.0
 11
1.626968503937007
 21
4.585629921259842
 31
0.0
  0
LINE
  5
2933
330
1E
100
AcDbEntity
  8
0
100
AcDbLine
 10
2.458661417322834
 20
4.21259842519685
 30
0.0
 11
2.458661417322834
 21
4.21259842519685
 31
0.0
  0
LINE
  5
293E
330
1E
100
AcDbEntity
  8
0
100
AcDbLine
 10
3.034448818897637
 20
4.383858267716535
 30
0.0
 11
3.034448818897637
 21
4.376968503937007
 31
0.0
  0
LINE
  5
293F
330
1E
100
AcDbEntity
  8
0
100
AcDbLine
 10
3.024606299212598
 20
4.432086614173228
 30
0.0
 11
3.024606299212598
 21
4.372047244094487
 31
0.0
  0
LINE
  5
2945
330
1E
100
AcDbEntity
  8
0
100
AcDbLine
 10
3.034448818897637
 20
4.458661417322834
 30
0.0
 11
3.034448818897637
 21
4.451771653543307
 31
0.0
  0
LINE
  5
2984
330
1E
100
AcDbEntity
  8
0
100
AcDbLine
 10
2.984251968503937
 20
4.197834645669291
 30
0.0
 11
3.014763779527558
 21
4.197834645669291
 31
0.0
  0
LINE
  5
2985
330
1E
100
AcDbEntity
  8
0
100
AcDbLine
 10
2.984251968503937
 20
4.21259842519685
 30
0.0
 11
3.014763779527558
 21
4.21259842519685
 31
0.0
  0
LINE
  5
2986
330
1E
100
AcDbEntity
  8
0
100
AcDbLine
 10
3.034448818897637
 20
4.376968503937007
 30
0.0
 11
3.034448818897637
 21
4.226377952755905
 31
0.0
  0
LINE
  5
2987
330
1E
100
AcDbEntity
  8
0
100
AcDbLine
 10
3.033464566929133
 20
4.18996062992126
 30
0.0
 11
3.048228346456693
 21
4.18996062992126
 31
0.0
  0
LINE
  5
2988
330
1E
100
AcDbEntity
  8
0
100
AcDbLine
 10
3.033464566929133
 20
4.165354330708661
 30
0.0
 11
3.049212598425196
 21
4.165354330708661
 31
0.0
  0
LINE
  5
2994
330
1E
100
AcDbEntity
  8
0
100
AcDbLine
 10
2.508858267716535
 20
4.197834645669291
 30
0.0
 11
2.458661417322834
 21
4.197834645669291
 31
0.0
  0
LINE
  5
299A
330
1E
100
AcDbEntity
  8
0
100
AcDbLine
 10
2.508858267716535
 20
4.21259842519685
 30
0.0
 11
2.458661417322834
 21
4.21259842519685
 31
0.0
  0
LINE
  5
299B
330
1E
100
AcDbEntity
  8
0
100
AcDbLine
 10
2.984251968503937
 20
4.165354330708661
 30
0.0
 11
2.508858267716535
 21
4.165354330708661
 31
0.0
  0
LINE
  5
299C
330
1E
100
AcDbEntity
  8
0
100
AcDbLine
 10
3.014763779527558
 20
4.21259842519685
 30
0.0
 11
3.014763779527558
 21
4.443897637795275
 31
0.0
  0
LINE
  5
29A3
330
1E
100
AcDbEntity
  8
0
100
AcDbLine
 10
3.064960629921259
 20
4.479330708661417
 30
0.0
 11
3.116141732283464
 21
4.479330708661417
 31
0.0
  0
LINE
  5
29AF
330
1E
100
AcDbEntity
  8
0
100
AcDbLine
 10
3.116141732283464
 20
4.557086614173228
 30
0.0
 11
2.396653543307086
 21
4.557086614173228
 31
0.0
  0
LINE
  5
29B0
330
1E
100
AcDbEntity
  8
0
100
AcDbLine
 10
2.396653543307086
 20
4.557086614173228
 30
0.0
 11
2.396653543307086
 21
4.21751968503937
 31
0.0
  0
LINE
  5
29B1
330
1E
100
AcDbEntity
  8
0
100
AcDbLine
 10
2.396653543307086
 20
4.21751968503937
 30
0.0
 11
2.450787401574803
 21
4.21751968503937
 31
0.0
  0
LINE
  5
29C8
330
1E
100
AcDbEntity
  8
0
100
AcDbLine
 10
3.116141732283464
 20
4.59251968503937
 30
0.0
 11
2.396653543307086
 21
4.59251968503937
 31
0.0
  0
LINE
  5
29D3
330
1E
100
AcDbEntity
  8
0
100
AcDbLine
 10
2.376968503937007
 20
4.232283464566928
 30
0.0
 11
2.376968503937007
 21
4.571850393700787
 31
0.0
  0
LINE
  5
29E8
330
1E
100
AcDbEntity
  8
0
100
AcDbLine
 10
2.396653543307086
 20
4.585629921259842
 30
0.0
 11
3.116141732283464
 21
4.585629921259842
 31
0.0
  0
LINE
  5
29FF
330
1E
100
AcDbEntity
  8
0
100
AcDbLine
 10
2.376968503937007
 20
4.571850393700787
 30
0.0
 11
2.376968503937007
 21
4.578740157480314
 31
0.0
  0
LINE
  5
2A00
330
1E
100
AcDbEntity
  8
0
100
AcDbLine
 10
2.396653543307086
 20
4.59251968503937
 30
0.0
 11
2.396653543307086
 21
4.585629921259842
 31
0.0
  0
LINE
  5
2A01
330
1E
100
AcDbEntity
  8
0
100
AcDbLine
 10
3.116141732283464
 20
4.585629921259842
 30
0.0
 11
3.116141732283464
 21
4.59251968503937
 31
0.0
  0
LINE
  5
2A0C
330
1E
100
AcDbEntity
  8
0
100
AcDbLine
 10
1.694881889763779
 20
4.151574803149606
 30
0.0
 11
1.694881889763779
 21
4.15255905511811
 31
0.0
  0
LINE
  5
2A1F
330
1E
100
AcDbEntity
  8
0
100
AcDbLine
 10
3.364173228346456
 20
4.0
 30
0.0
 11
3.364173228346456
 21
6.694881889763779
 31
0.0
  0
LINE
  5
2A2A
330
1E
100
AcDbEntity
  8
0
100
AcDbLine
 10
1.549212598425196
 20
3.829724409448818
 30
0.0
 11
3.193897637795275
 21
3.829724409448818
 31
0.0
  0
LINE
  5
2A35
330
1E
100
AcDbEntity
  8
0
100
AcDbLine
 10
1.378937007874015
 20
6.694881889763779
 30
0.0
 11
1.378937007874015
 21
4.0
 31
0.0
  0
LINE
  5
2A40
330
1E
100
AcDbEntity
  8
0
100
AcDbLine
 10
3.193897637795275
 20
6.86515748031496
 30
0.0
 11
1.549212598425196
 21
6.86515748031496
 31
0.0
  0
LINE
  5
2A55
330
1E
100
AcDbEntity
  8
0
100
AcDbLine
 10
1.56003937007874
 20
3.861220472440944
 30
0.0
 11
3.183070866141732
 21
3.861220472440944
 31
0.0
  0
LINE
  5
2A60
330
1E
100
AcDbEntity
  8
0
100
AcDbLine
 10
3.33267716535433
 20
4.010826771653543
 30
0.0
 11
3.33267716535433
 21
6.684055118110236
 31
0.0
  0
LINE
  5
2A6B
330
1E
100
AcDbEntity
  8
0
100
AcDbLine
 10
3.183070866141732
 20
6.833661417322834
 30
0.0
 11
1.56003937007874
 21
6.833661417322834
 31
0.0
  0
LINE
  5
2A76
330
1E
100
AcDbEntity
  8
0
100
AcDbLine
 10
1.410433070866141
 20
6.684055118110236
 30
0.0
 11
1.410433070866141
 21
4.010826771653543
 31
0.0
  0
LINE
  5
2A77
330
1E
100
AcDbEntity
  8
0
100
AcDbLine
 10
1.56003937007874
 20
6.775590551181101
 30
0.0
 11
3.183070866141732
 21
6.775590551181101
 31
0.0
  0
LINE
  5
2A80
330
1E
100
AcDbEntity
  8
0
100
AcDbLine
 10
3.274606299212598
 20
6.684055118110236
 30
0.0
 11
3.274606299212598
 21
4.010826771653543
 31
0.0
  0
LINE
  5
2A89
330
1E
100
AcDbEntity
  8
0
100
AcDbLine
 10
3.183070866141732
 20
3.919291338582677
 30
0.0
 11
1.56003937007874
 21
3.919291338582677
 31
0.0
  0
LINE
  5
2A92
330
1E
100
AcDbEntity
  8
0
100
AcDbLine
 10
1.468503937007874
 20
4.010826771653543
 30
0.0
 11
1.468503937007874
 21
6.684055118110236
 31
0.0
  0
LINE
  5
2A9B
330
1E
100
AcDbEntity
  8
0
100
AcDbLine
 10
3.193897637795275
 20
3.829724409448818
 30
0.0
 11
3.183070866141732
 21
3.841535433070866
 31
0.0
  0
LINE
  5
2A9C
330
1E
100
AcDbEntity
  8
0
100
AcDbLine
 10
3.183070866141732
 20
3.841535433070866
 30
0.0
 11
1.56003937007874
 21
3.841535433070866
 31
0.0
  0
LINE
  5
2A9D
330
1E
100
AcDbEntity
  8
0
100
AcDbLine
 10
1.56003937007874
 20
3.841535433070866
 30
0.0
 11
1.549212598425196
 21
3.829724409448818
 31
0.0
  0
LINE
  5
2A9E
330
1E
100
AcDbEntity
  8
0
100
AcDbLine
 10
1.378937007874015
 20
4.0
 30
0.0
 11
1.389763779527559
 21
4.010826771653543
 31
0.0
  0
LINE
  5
2A9F
330
1E
100
AcDbEntity
  8
0
100
AcDbLine
 10
1.389763779527559
 20
4.010826771653543
 30
0.0
 11
1.389763779527559
 21
6.684055118110236
 31
0.0
  0
LINE
  5
2AA0
330
1E
100
AcDbEntity
  8
0
100
AcDbLine
 10
1.389763779527559
 20
6.684055118110236
 30
0.0
 11
1.378937007874015
 21
6.694881889763779
 31
0.0
  0
LINE
  5
2AA1
330
1E
100
AcDbEntity
  8
0
100
AcDbLine
 10
1.549212598425196
 20
6.86515748031496
 30
0.0
 11
1.56003937007874
 21
6.854330708661417
 31
0.0
  0
LINE
  5
2AA2
330
1E
100
AcDbEntity
  8
0
100
AcDbLine
 10
1.56003937007874
 20
6.854330708661417
 30
0.0
 11
3.183070866141732
 21
6.854330708661417
 31
0.0
  0
LINE
  5
2AA3
330
1E
100
AcDbEntity
  8
0
100
AcDbLine
 10
3.183070866141732
 20
6.854330708661417
 30
0.0
 11
3.193897637795275
 21
6.86515748031496
 31
0.0
  0
LINE
  5
2AA4
330
1E
100
AcDbEntity
  8
0
100
AcDbLine
 10
3.364173228346456
 20
6.694881889763779
 30
0.0
 11
3.353346456692913
 21
6.684055118110236
 31
0.0
  0
LINE
  5
2AA5
330
1E
100
AcDbEntity
  8
0
100
AcDbLine
 10
3.353346456692913
 20
6.684055118110236
 30
0.0
 11
3.353346456692913
 21
4.010826771653543
 31
0.0
  0
LINE
  5
2AA6
330
1E
100
AcDbEntity
  8
0
100
AcDbLine
 10
3.353346456692913
 20
4.010826771653543
 30
0.0
 11
3.364173228346456
 21
4.0
 31
0.0
  0
LINE
  5
2AA7
330
1E
100
AcDbEntity
  8
0
100
AcDbLine
 10
2.52755905511811
 20
3.926181102362204
 30
0.0
 11
2.215551181102362
 21
3.926181102362204
 31
0.0
  0
LINE
  5
2AA8
330
1E
100
AcDbEntity
  8
0
100
AcDbLine
 10
1.563976377952755
 20
3.923228346456692
 30
0.0
 11
1.56003937007874
 21
3.919291338582677
 31
0.0
  0
LINE
  5
2AA9
330
1E
100
AcDbEntity
  8
0
100
AcDbLine
 10
3.183070866141732
 20
3.919291338582677
 30
0.0
 11
3.179133858267716
 21
3.923228346456692
 31
0.0
  0
LINE
  5
2AAA
330
1E
100
AcDbEntity
  8
0
100
AcDbLine
 10
1.468503937007874
 20
4.010826771653543
 30
0.0
 11
1.472440944881889
 21
4.014763779527559
 31
0.0
  0
LINE
  5
2AAB
330
1E
100
AcDbEntity
  8
0
100
AcDbLine
 10
1.472440944881889
 20
6.68011811023622
 30
0.0
 11
1.468503937007874
 21
6.684055118110236
 31
0.0
  0
LINE
  5
2AAC
330
1E
100
AcDbEntity
  8
0
100
AcDbLine
 10
2.215551181102362
 20
6.768700787401574
 30
0.0
 11
2.52755905511811
 21
6.768700787401574
 31
0.0
  0
LINE
  5
2AAD
330
1E
100
AcDbEntity
  8
0
100
AcDbLine
 10
3.179133858267716
 20
6.771653543307086
 30
0.0
 11
3.183070866141732
 21
6.775590551181101
 31
0.0
  0
LINE
  5
2AAE
330
1E
100
AcDbEntity
  8
0
100
AcDbLine
 10
1.56003937007874
 20
6.775590551181101
 30
0.0
 11
1.563976377952755
 21
6.771653543307086
 31
0.0
  0
LINE
  5
2AAF
330
1E
100
AcDbEntity
  8
0
100
AcDbLine
 10
3.274606299212598
 20
6.684055118110236
 30
0.0
 11
3.270669291338582
 21
6.68011811023622
 31
0.0
  0
LINE
  5
2AB0
330
1E
100
AcDbEntity
  8
0
100
AcDbLine
 10
3.270669291338582
 20
4.014763779527559
 30
0.0
 11
3.274606299212598
 21
4.010826771653543
 31
0.0
  0
LINE
  5
2B01
330
1E
100
AcDbEntity
  8
0
100
AcDbLine
 10
1.725393700787401
 20
5.363188976377952
 30
0.0
 11
1.725393700787401
 21
5.368110236220472
 31
0.0
  0
LINE
  5
2B02
330
1E
100
AcDbEntity
  8
0
100
AcDbLine
 10
3.01771653543307
 20
5.368110236220472
 30
0.0
 11
3.01771653543307
 21
5.363188976377952
 31
0.0
  0
LINE
  5
2B0D
330
1E
100
AcDbEntity
  8
0
100
AcDbLine
 10
3.092519685039369
 20
6.643700787401574
 30
0.0
 11
3.092519685039369
 21
6.304133858267716
 31
0.0
  0
LINE
  5
2B13
330
1E
100
AcDbEntity
  8
0
100
AcDbLine
 10
3.08267716535433
 20
6.294291338582676
 30
0.0
 11
1.660433070866141
 21
6.294291338582676
 31
0.0
  0
LINE
  5
2B19
330
1E
100
AcDbEntity
  8
0
100
AcDbLine
 10
1.650590551181102
 20
6.304133858267716
 30
0.0
 11
1.650590551181102
 21
6.643700787401574
 31
0.0
  0
LINE
  5
2B1F
330
1E
100
AcDbEntity
  8
0
100
AcDbLine
 10
1.660433070866141
 20
6.653543307086613
 30
0.0
 11
3.08267716535433
 21
6.653543307086613
 31
0.0
  0
LINE
  5
2B25
330
1E
100
AcDbEntity
  8
0
100
AcDbLine
 10
3.161417322834645
 20
5.372047244094487
 30
0.0
 11
3.161417322834645
 21
4.785433070866141
 31
0.0
  0
LINE
  5
2B2B
330
1E
100
AcDbEntity
  8
0
100
AcDbLine
 10
3.216535433070866
 20
4.77755905511811
 30
0.0
 11
3.169291338582677
 21
4.77755905511811
 31
0.0
  0
LINE
  5
2B31
330
1E
100
AcDbEntity
  8
0
100
AcDbLine
 10
3.224409448818897
 20
4.624015748031496
 30
0.0
 11
3.224409448818897
 21
4.769685039370078
 31
0.0
  0
LINE
  5
2B37
330
1E
100
AcDbEntity
  8
0
100
AcDbLine
 10
3.169291338582677
 20
4.616141732283464
 30
0.0
 11
3.216535433070866
 21
4.616141732283464
 31
0.0
  0
LINE
  5
2B3D
330
1E
100
AcDbEntity
  8
0
100
AcDbLine
 10
3.161417322834645
 20
4.608267716535433
 30
0.0
 11
3.161417322834645
 21
4.586614173228346
 31
0.0
  0
LINE
  5
2B3E
330
1E
100
AcDbEntity
  8
0
100
AcDbLine
 10
3.161417322834645
 20
4.48523622047244
 30
0.0
 11
3.161417322834645
 21
4.020669291338582
 31
0.0
  0
LINE
  5
2B3F
330
1E
100
AcDbEntity
  8
0
100
AcDbLine
 10
3.161417322834645
 20
4.020669291338582
 30
0.0
 11
1.581692913385826
 21
4.020669291338582
 31
0.0
  0
LINE
  5
2B40
330
1E
100
AcDbEntity
  8
0
100
AcDbLine
 10
1.581692913385826
 20
4.608267716535433
 30
0.0
 11
1.581692913385826
 21
4.586614173228346
 31
0.0
  0
LINE
  5
2B41
330
1E
100
AcDbEntity
  8
0
100
AcDbLine
 10
1.581692913385826
 20
4.48523622047244
 30
0.0
 11
1.581692913385826
 21
4.020669291338582
 31
0.0
  0
LINE
  5
2B47
330
1E
100
AcDbEntity
  8
0
100
AcDbLine
 10
1.526574803149606
 20
4.616141732283464
 30
0.0
 11
1.573818897637795
 21
4.616141732283464
 31
0.0
  0
LINE
  5
2B4D
330
1E
100
AcDbEntity
  8
0
100
AcDbLine
 10
1.518700787401574
 20
4.769685039370078
 30
0.0
 11
1.518700787401574
 21
4.624015748031496
 31
0.0
  0
LINE
  5
2B53
330
1E
100
AcDbEntity
  8
0
100
AcDbLine
 10
1.573818897637795
 20
4.77755905511811
 30
0.0
 11
1.526574803149606
 21
4.77755905511811
 31
0.0
  0
LINE
  5
2B59
330
1E
100
AcDbEntity
  8
0
100
AcDbLine
 10
1.581692913385826
 20
5.372047244094487
 30
0.0
 11
1.581692913385826
 21
4.785433070866141
 31
0.0
  0
LINE
  5
2B5A
330
1E
100
AcDbEntity
  8
0
100
AcDbLine
 10
3.161417322834645
 20
5.372047244094487
 30
0.0
 11
1.581692913385826
 21
5.372047244094487
 31
0.0
  0
LINE
  5
2B63
330
1E
100
AcDbEntity
  8
0
100
AcDbLine
 10
3.178149606299212
 20
6.750984251968503
 30
0.0
 11
2.533464566929133
 21
6.750984251968503
 31
0.0
  0
LINE
  5
2B64
330
1E
100
AcDbEntity
  8
0
100
AcDbLine
 10
2.533464566929133
 20
6.744094488188975
 30
0.0
 11
2.533464566929133
 21
6.750984251968503
 31
0.0
  0
LINE
  5
2B65
330
1E
100
AcDbEntity
  8
0
100
AcDbLine
 10
2.209645669291338
 20
6.744094488188975
 30
0.0
 11
2.533464566929133
 21
6.744094488188975
 31
0.0
  0
LINE
  5
2B66
330
1E
100
AcDbEntity
  8
0
100
AcDbLine
 10
2.209645669291338
 20
6.750984251968503
 30
0.0
 11
2.209645669291338
 21
6.744094488188975
 31
0.0
  0
LINE
  5
2B67
330
1E
100
AcDbEntity
  8
0
100
AcDbLine
 10
2.209645669291338
 20
6.750984251968503
 30
0.0
 11
1.564960629921259
 21
6.750984251968503
 31
0.0
  0
LINE
  5
2B70
330
1E
100
AcDbEntity
  8
0
100
AcDbLine
 10
1.493110236220472
 20
6.679133858267716
 30
0.0
 11
1.493110236220472
 21
4.015748031496062
 31
0.0
  0
LINE
  5
2B79
330
1E
100
AcDbEntity
  8
0
100
AcDbLine
 10
1.564960629921259
 20
3.943897637795275
 30
0.0
 11
2.209645669291338
 21
3.943897637795275
 31
0.0
  0
LINE
  5
2B7A
330
1E
100
AcDbEntity
  8
0
100
AcDbLine
 10
2.209645669291338
 20
3.950787401574803
 30
0.0
 11
2.209645669291338
 21
3.943897637795275
 31
0.0
  0
LINE
  5
2B7B
330
1E
100
AcDbEntity
  8
0
100
AcDbLine
 10
2.533464566929133
 20
3.950787401574803
 30
0.0
 11
2.209645669291338
 21
3.950787401574803
 31
0.0
  0
LINE
  5
2B7C
330
1E
100
AcDbEntity
  8
0
100
AcDbLine
 10
2.533464566929133
 20
3.943897637795275
 30
0.0
 11
2.533464566929133
 21
3.950787401574803
 31
0.0
  0
LINE
  5
2B7D
330
1E
100
AcDbEntity
  8
0
100
AcDbLine
 10
2.533464566929133
 20
3.943897637795275
 30
0.0
 11
3.178149606299212
 21
3.943897637795275
 31
0.0
  0
LINE
  5
2B86
330
1E
100
AcDbEntity
  8
0
100
AcDbLine
 10
3.25
 20
4.015748031496062
 30
0.0
 11
3.25
 21
6.679133858267716
 31
0.0
  0
LINE
  5
2B8C
330
1E
100
AcDbEntity
  8
0
100
AcDbLine
 10
2.21259842519685
 20
3.923228346456692
 30
0.0
 11
2.210629921259842
 21
3.924212598425196
 31
0.0
  0
LINE
  5
2B8D
330
1E
100
AcDbEntity
  8
0
100
AcDbLine
 10
2.21259842519685
 20
3.923228346456692
 30
0.0
 11
2.219488188976377
 21
3.93011811023622
 31
0.0
  0
LINE
  5
2B8E
330
1E
100
AcDbEntity
  8
0
100
AcDbLine
 10
2.219488188976377
 20
3.93011811023622
 30
0.0
 11
2.219488188976377
 21
3.946850393700787
 31
0.0
  0
LINE
  5
2B8F
330
1E
100
AcDbEntity
  8
0
100
AcDbLine
 10
2.219488188976377
 20
3.946850393700787
 30
0.0
 11
2.209645669291338
 21
3.950787401574803
 31
0.0
  0
LINE
  5
2B90
330
1E
100
AcDbEntity
  8
0
100
AcDbLine
 10
2.53248031496063
 20
3.924212598425196
 30
0.0
 11
2.530511811023622
 21
3.923228346456692
 31
0.0
  0
LINE
  5
2B96
330
1E
100
AcDbEntity
  8
0
100
AcDbLine
 10
2.523622047244094
 20
3.946850393700787
 30
0.0
 11
2.533464566929133
 21
3.950787401574803
 31
0.0
  0
LINE
  5
2B97
330
1E
100
AcDbEntity
  8
0
100
AcDbLine
 10
2.523622047244094
 20
3.946850393700787
 30
0.0
 11
2.523622047244094
 21
3.93011811023622
 31
0.0
  0
LINE
  5
2B98
330
1E
100
AcDbEntity
  8
0
100
AcDbLine
 10
2.523622047244094
 20
3.93011811023622
 30
0.0
 11
2.530511811023622
 21
3.923228346456692
 31
0.0
  0
LINE
  5
2B99
330
1E
100
AcDbEntity
  8
0
100
AcDbLine
 10
2.210629921259842
 20
6.770669291338582
 30
0.0
 11
2.21259842519685
 21
6.771653543307086
 31
0.0
  0
LINE
  5
2B9F
330
1E
100
AcDbEntity
  8
0
100
AcDbLine
 10
2.219488188976377
 20
6.749015748031496
 30
0.0
 11
2.209645669291338
 21
6.744094488188975
 31
0.0
  0
LINE
  5
2BA0
330
1E
100
AcDbEntity
  8
0
100
AcDbLine
 10
2.219488188976377
 20
6.749015748031496
 30
0.0
 11
2.219488188976377
 21
6.764763779527559
 31
0.0
  0
LINE
  5
2BA1
330
1E
100
AcDbEntity
  8
0
100
AcDbLine
 10
2.219488188976377
 20
6.764763779527559
 30
0.0
 11
2.21259842519685
 21
6.771653543307086
 31
0.0
  0
LINE
  5
2BA7
330
1E
100
AcDbEntity
  8
0
100
AcDbLine
 10
2.530511811023622
 20
6.771653543307086
 30
0.0
 11
2.53248031496063
 21
6.770669291338582
 31
0.0
  0
LINE
  5
2BA8
330
1E
100
AcDbEntity
  8
0
100
AcDbLine
 10
2.530511811023622
 20
6.771653543307086
 30
0.0
 11
2.523622047244094
 21
6.764763779527559
 31
0.0
  0
LINE
  5
2BA9
330
1E
100
AcDbEntity
  8
0
100
AcDbLine
 10
2.523622047244094
 20
6.764763779527559
 30
0.0
 11
2.523622047244094
 21
6.749015748031496
 31
0.0
  0
LINE
  5
2BAA
330
1E
100
AcDbEntity
  8
0
100
AcDbLine
 10
2.523622047244094
 20
6.749015748031496
 30
0.0
 11
2.533464566929133
 21
6.744094488188975
 31
0.0
  0
LINE
  5
2BAB
330
1E
100
AcDbEntity
  8
0
100
AcDbLine
 10
1.563976377952755
 20
6.771653543307086
 30
0.0
 11
1.563976377952755
 21
6.771653543307086
 31
0.0
  0
LINE
  5
2BAC
330
1E
100
AcDbEntity
  8
0
100
AcDbLine
 10
2.21259842519685
 20
6.771653543307086
 30
0.0
 11
1.563976377952755
 21
6.771653543307086
 31
0.0
  0
LINE
  5
2BAD
330
1E
100
AcDbEntity
  8
0
100
AcDbLine
 10
1.563976377952755
 20
3.923228346456692
 30
0.0
 11
1.563976377952755
 21
3.923228346456692
 31
0.0
  0
LINE
  5
2BAE
330
1E
100
AcDbEntity
  8
0
100
AcDbLine
 10
1.563976377952755
 20
3.923228346456692
 30
0.0
 11
2.21259842519685
 21
3.923228346456692
 31
0.0
  0
LINE
  5
2BAF
330
1E
100
AcDbEntity
  8
0
100
AcDbLine
 10
2.219488188976377
 20
3.926181102362204
 30
0.0
 11
2.219488188976377
 21
3.93011811023622
 31
0.0
  0
LINE
  5
2BB0
330
1E
100
AcDbEntity
  8
0
100
AcDbLine
 10
2.523622047244094
 20
3.93011811023622
 30
0.0
 11
2.523622047244094
 21
3.926181102362204
 31
0.0
  0
LINE
  5
2BB1
330
1E
100
AcDbEntity
  8
0
100
AcDbLine
 10
1.59251968503937
 20
4.858267716535433
 30
0.0
 11
1.59251968503937
 21
4.877952755905512
 31
0.0
  0
LINE
  5
2BB2
330
1E
100
AcDbEntity
  8
0
100
AcDbLine
 10
3.150590551181102
 20
4.877952755905512
 30
0.0
 11
3.150590551181102
 21
4.858267716535433
 31
0.0
  0
LINE
  5
2BB3
330
1E
100
AcDbEntity
  8
0
100
AcDbLine
 10
1.701771653543307
 20
6.294291338582676
 30
0.0
 11
1.661417322834645
 21
6.294291338582676
 31
0.0
  0
LINE
  5
2BB4
330
1E
100
AcDbEntity
  8
0
100
AcDbLine
 10
1.661417322834645
 20
6.294291338582676
 30
0.0
 11
1.660433070866141
 21
6.294291338582676
 31
0.0
  0
LINE
  5
2BB5
330
1E
100
AcDbEntity
  8
0
100
AcDbLine
 10
3.08267716535433
 20
6.294291338582676
 30
0.0
 11
3.081692913385826
 21
6.294291338582676
 31
0.0
  0
LINE
  5
2BB6
330
1E
100
AcDbEntity
  8
0
100
AcDbLine
 10
3.081692913385826
 20
6.294291338582676
 30
0.0
 11
3.041338582677165
 21
6.294291338582676
 31
0.0
  0
LINE
  5
2BB7
330
1E
100
AcDbEntity
  8
0
100
AcDbLine
 10
3.041338582677165
 20
6.294291338582676
 30
0.0
 11
3.038385826771653
 21
6.29527559055118
 31
0.0
  0
LINE
  5
2BB8
330
1E
100
AcDbEntity
  8
0
100
AcDbLine
 10
1.704724409448818
 20
6.29527559055118
 30
0.0
 11
3.038385826771653
 21
6.29527559055118
 31
0.0
  0
LINE
  5
2BB9
330
1E
100
AcDbEntity
  8
0
100
AcDbLine
 10
1.704724409448818
 20
6.29527559055118
 30
0.0
 11
1.701771653543307
 21
6.294291338582676
 31
0.0
  0
LINE
  5
2BBA
330
1E
100
AcDbEntity
  8
0
100
AcDbLine
 10
1.651574803149606
 20
6.304133858267716
 30
0.0
 11
1.651574803149606
 21
6.643700787401574
 31
0.0
  0
LINE
  5
2BBB
330
1E
100
AcDbEntity
  8
0
100
AcDbLine
 10
1.651574803149606
 20
6.643700787401574
 30
0.0
 11
1.650590551181102
 21
6.643700787401574
 31
0.0
  0
LINE
  5
2BBC
330
1E
100
AcDbEntity
  8
0
100
AcDbLine
 10
1.650590551181102
 20
6.304133858267716
 30
0.0
 11
1.651574803149606
 21
6.304133858267716
 31
0.0
  0
LINE
  5
2BBD
330
1E
100
AcDbEntity
  8
0
100
AcDbLine
 10
1.660433070866141
 20
6.653543307086613
 30
0.0
 11
1.661417322834645
 21
6.653543307086613
 31
0.0
  0
LINE
  5
2BBE
330
1E
100
AcDbEntity
  8
0
100
AcDbLine
 10
1.661417322834645
 20
6.653543307086613
 30
0.0
 11
1.701771653543307
 21
6.653543307086613
 31
0.0
  0
LINE
  5
2BBF
330
1E
100
AcDbEntity
  8
0
100
AcDbLine
 10
1.701771653543307
 20
6.653543307086613
 30
0.0
 11
1.704724409448818
 21
6.65255905511811
 31
0.0
  0
LINE
  5
2BC0
330
1E
100
AcDbEntity
  8
0
100
AcDbLine
 10
3.038385826771653
 20
6.65255905511811
 30
0.0
 11
1.704724409448818
 21
6.65255905511811
 31
0.0
  0
LINE
  5
2BC1
330
1E
100
AcDbEntity
  8
0
100
AcDbLine
 10
3.038385826771653
 20
6.65255905511811
 30
0.0
 11
3.041338582677165
 21
6.653543307086613
 31
0.0
  0
LINE
  5
2BC2
330
1E
100
AcDbEntity
  8
0
100
AcDbLine
 10
3.041338582677165
 20
6.653543307086613
 30
0.0
 11
3.081692913385826
 21
6.653543307086613
 31
0.0
  0
LINE
  5
2BC3
330
1E
100
AcDbEntity
  8
0
100
AcDbLine
 10
3.081692913385826
 20
6.653543307086613
 30
0.0
 11
3.08267716535433
 21
6.653543307086613
 31
0.0
  0
LINE
  5
2BC4
330
1E
100
AcDbEntity
  8
0
100
AcDbLine
 10
3.038385826771653
 20
6.29527559055118
 30
0.0
 11
3.038385826771653
 21
6.65255905511811
 31
0.0
  0
LINE
  5
2BC5
330
1E
100
AcDbEntity
  8
0
100
AcDbLine
 10
1.704724409448818
 20
6.65255905511811
 30
0.0
 11
1.704724409448818
 21
6.29527559055118
 31
0.0
  0
LINE
  5
2BC6
330
1E
100
AcDbEntity
  8
0
100
AcDbLine
 10
3.092519685039369
 20
6.643700787401574
 30
0.0
 11
3.092519685039369
 21
6.304133858267716
 31
0.0
  0
LINE
  5
2BC7
330
1E
100
AcDbEntity
  8
0
100
AcDbLine
 10
3.092519685039369
 20
6.304133858267716
 30
0.0
 11
3.092519685039369
 21
6.304133858267716
 31
0.0
  0
LINE
  5
2BC8
330
1E
100
AcDbEntity
  8
0
100
AcDbLine
 10
3.092519685039369
 20
6.643700787401574
 30
0.0
 11
3.092519685039369
 21
6.643700787401574
 31
0.0
  0
LINE
  5
2BC9
330
1E
100
AcDbEntity
  8
0
100
AcDbLine
 10
3.097440944881889
 20
5.369094488188975
 30
0.0
 11
3.096456692913385
 21
5.368110236220472
 31
0.0
  0
LINE
  5
2BCA
330
1E
100
AcDbEntity
  8
0
100
AcDbLine
 10
3.096456692913385
 20
5.368110236220472
 30
0.0
 11
3.096456692913385
 21
5.363188976377952
 31
0.0
  0
LINE
  5
2BCB
330
1E
100
AcDbEntity
  8
0
100
AcDbLine
 10
3.097440944881889
 20
5.369094488188975
 30
0.0
 11
3.097440944881889
 21
5.363188976377952
 31
0.0
  0
LINE
  5
2BCC
330
1E
100
AcDbEntity
  8
0
100
AcDbLine
 10
1.646653543307086
 20
5.368110236220472
 30
0.0
 11
1.646653543307086
 21
5.363188976377952
 31
0.0
  0
LINE
  5
2BCD
330
1E
100
AcDbEntity
  8
0
100
AcDbLine
 10
1.645669291338582
 20
5.369094488188975
 30
0.0
 11
1.646653543307086
 21
5.368110236220472
 31
0.0
  0
LINE
  5
2BCE
330
1E
100
AcDbEntity
  8
0
100
AcDbLine
 10
1.645669291338582
 20
5.369094488188975
 30
0.0
 11
1.645669291338582
 21
5.363188976377952
 31
0.0
  0
LINE
  5
2BCF
330
1E
100
AcDbEntity
  8
0
100
AcDbLine
 10
1.645669291338582
 20
5.369094488188975
 30
0.0
 11
1.585629921259842
 21
5.369094488188975
 31
0.0
  0
LINE
  5
2BD0
330
1E
100
AcDbEntity
  8
0
100
AcDbLine
 10
1.585629921259842
 20
5.369094488188975
 30
0.0
 11
1.585629921259842
 21
4.890748031496062
 31
0.0
  0
LINE
  5
2BD1
330
1E
100
AcDbEntity
  8
0
100
AcDbLine
 10
1.597440944881889
 20
4.890748031496062
 30
0.0
 11
1.585629921259842
 21
4.890748031496062
 31
0.0
  0
LINE
  5
2BD2
330
1E
100
AcDbEntity
  8
0
100
AcDbLine
 10
3.097440944881889
 20
5.369094488188975
 30
0.0
 11
3.15748031496063
 21
5.369094488188975
 31
0.0
  0
LINE
  5
2BD3
330
1E
100
AcDbEntity
  8
0
100
AcDbLine
 10
3.15748031496063
 20
4.890748031496062
 30
0.0
 11
3.146653543307086
 21
4.890748031496062
 31
0.0
  0
LINE
  5
2BD4
330
1E
100
AcDbEntity
  8
0
100
AcDbLine
 10
3.15748031496063
 20
5.369094488188975
 30
0.0
 11
3.15748031496063
 21
4.890748031496062
 31
0.0
  0
LINE
  5
2BD5
330
1E
100
AcDbEntity
  8
0
100
AcDbLine
 10
1.585629921259842
 20
4.484251968503937
 30
0.0
 11
1.585629921259842
 21
4.024606299212598
 31
0.0
  0
LINE
  5
2BD6
330
1E
100
AcDbEntity
  8
0
100
AcDbLine
 10
1.585629921259842
 20
4.024606299212598
 30
0.0
 11
1.645669291338582
 21
4.024606299212598
 31
0.0
  0
LINE
  5
2BD7
330
1E
100
AcDbEntity
  8
0
100
AcDbLine
 10
1.645669291338582
 20
4.028543307086613
 30
0.0
 11
1.645669291338582
 21
4.024606299212598
 31
0.0
  0
LINE
  5
2BD8
330
1E
100
AcDbEntity
  8
0
100
AcDbLine
 10
1.646653543307086
 20
4.028543307086613
 30
0.0
 11
1.646653543307086
 21
4.025590551181101
 31
0.0
  0
LINE
  5
2BD9
330
1E
100
AcDbEntity
  8
0
100
AcDbLine
 10
1.646653543307086
 20
4.025590551181101
 30
0.0
 11
1.645669291338582
 21
4.024606299212598
 31
0.0
  0
LINE
  5
2BDA
330
1E
100
AcDbEntity
  8
0
100
AcDbLine
 10
3.096456692913385
 20
4.028543307086613
 30
0.0
 11
3.096456692913385
 21
4.025590551181101
 31
0.0
  0
LINE
  5
2BDB
330
1E
100
AcDbEntity
  8
0
100
AcDbLine
 10
3.096456692913385
 20
4.025590551181101
 30
0.0
 11
3.097440944881889
 21
4.024606299212598
 31
0.0
  0
LINE
  5
2BDC
330
1E
100
AcDbEntity
  8
0
100
AcDbLine
 10
3.097440944881889
 20
4.028543307086613
 30
0.0
 11
3.097440944881889
 21
4.024606299212598
 31
0.0
  0
LINE
  5
2BDD
330
1E
100
AcDbEntity
  8
0
100
AcDbLine
 10
3.15748031496063
 20
4.483267716535433
 30
0.0
 11
3.15748031496063
 21
4.024606299212598
 31
0.0
  0
LINE
  5
2BDE
330
1E
100
AcDbEntity
  8
0
100
AcDbLine
 10
3.15748031496063
 20
4.024606299212598
 30
0.0
 11
3.097440944881889
 21
4.024606299212598
 31
0.0
  0
LINE
  5
2BDF
330
1E
100
AcDbEntity
  8
0
100
AcDbLine
 10
1.581692913385826
 20
4.785433070866141
 30
0.0
 11
1.585629921259842
 21
4.778543307086613
 31
0.0
  0
LINE
  5
2BE0
330
1E
100
AcDbEntity
  8
0
100
AcDbLine
 10
1.585629921259842
 20
4.890748031496062
 30
0.0
 11
1.585629921259842
 21
4.778543307086613
 31
0.0
  0
LINE
  5
2BE1
330
1E
100
AcDbEntity
  8
0
100
AcDbLine
 10
1.585629921259842
 20
5.369094488188975
 30
0.0
 11
1.581692913385826
 21
5.372047244094487
 31
0.0
  0
LINE
  5
2BE2
330
1E
100
AcDbEntity
  8
0
100
AcDbLine
 10
3.15748031496063
 20
4.890748031496062
 30
0.0
 11
3.15748031496063
 21
4.778543307086613
 31
0.0
  0
LINE
  5
2BE3
330
1E
100
AcDbEntity
  8
0
100
AcDbLine
 10
3.15748031496063
 20
4.778543307086613
 30
0.0
 11
3.161417322834645
 21
4.785433070866141
 31
0.0
  0
LINE
  5
2BE4
330
1E
100
AcDbEntity
  8
0
100
AcDbLine
 10
3.15748031496063
 20
5.369094488188975
 30
0.0
 11
3.161417322834645
 21
5.372047244094487
 31
0.0
  0
LINE
  5
2BE5
330
1E
100
AcDbEntity
  8
0
100
AcDbLine
 10
1.585629921259842
 20
4.614173228346456
 30
0.0
 11
1.585629921259842
 21
4.588582677165354
 31
0.0
  0
LINE
  5
2BE6
330
1E
100
AcDbEntity
  8
0
100
AcDbLine
 10
1.585629921259842
 20
4.614173228346456
 30
0.0
 11
1.581692913385826
 21
4.608267716535433
 31
0.0
  0
LINE
  5
2BE7
330
1E
100
AcDbEntity
  8
0
100
AcDbLine
 10
1.581692913385826
 20
4.020669291338582
 30
0.0
 11
1.585629921259842
 21
4.024606299212598
 31
0.0
  0
LINE
  5
2BE8
330
1E
100
AcDbEntity
  8
0
100
AcDbLine
 10
3.161417322834645
 20
4.608267716535433
 30
0.0
 11
3.15748031496063
 21
4.614173228346456
 31
0.0
  0
LINE
  5
2BE9
330
1E
100
AcDbEntity
  8
0
100
AcDbLine
 10
3.15748031496063
 20
4.614173228346456
 30
0.0
 11
3.15748031496063
 21
4.588582677165354
 31
0.0
  0
LINE
  5
2BEA
330
1E
100
AcDbEntity
  8
0
100
AcDbLine
 10
3.161417322834645
 20
4.020669291338582
 30
0.0
 11
3.15748031496063
 21
4.024606299212598
 31
0.0
  0
LINE
  5
2BEB
330
1E
100
AcDbEntity
  8
0
100
AcDbLine
 10
1.585629921259842
 20
4.778543307086613
 30
0.0
 11
1.585629921259842
 21
4.614173228346456
 31
0.0
  0
LINE
  5
2BF1
330
1E
100
AcDbEntity
  8
0
100
AcDbLine
 10
1.577755905511811
 20
4.770669291338582
 30
0.0
 11
1.533464566929133
 21
4.770669291338582
 31
0.0
  0
LINE
  5
2BF7
330
1E
100
AcDbEntity
  8
0
100
AcDbLine
 10
1.525590551181102
 20
4.76279527559055
 30
0.0
 11
1.525590551181102
 21
4.630905511811023
 31
0.0
  0
LINE
  5
2BFD
330
1E
100
AcDbEntity
  8
0
100
AcDbLine
 10
1.533464566929133
 20
4.622047244094487
 30
0.0
 11
1.577755905511811
 21
4.622047244094487
 31
0.0
  0
LINE
  5
2C03
330
1E
100
AcDbEntity
  8
0
100
AcDbLine
 10
3.217519685039369
 20
4.630905511811023
 30
0.0
 11
3.217519685039369
 21
4.76279527559055
 31
0.0
  0
LINE
  5
2C09
330
1E
100
AcDbEntity
  8
0
100
AcDbLine
 10
3.209645669291338
 20
4.770669291338582
 30
0.0
 11
3.166338582677165
 21
4.770669291338582
 31
0.0
  0
LINE
  5
2C0F
330
1E
100
AcDbEntity
  8
0
100
AcDbLine
 10
3.15748031496063
 20
4.614173228346456
 30
0.0
 11
3.15748031496063
 21
4.778543307086613
 31
0.0
  0
LINE
  5
2C15
330
1E
100
AcDbEntity
  8
0
100
AcDbLine
 10
3.166338582677165
 20
4.622047244094487
 30
0.0
 11
3.209645669291338
 21
4.622047244094487
 31
0.0
  0
LINE
  5
2C1B
330
1E
100
AcDbEntity
  8
0
100
AcDbLine
 10
3.096456692913385
 20
4.025590551181101
 30
0.0
 11
1.646653543307086
 21
4.025590551181101
 31
0.0
  0
LINE
  5
2C1C
330
1E
100
AcDbEntity
  8
0
100
AcDbLine
 10
3.169291338582677
 20
4.77755905511811
 30
0.0
 11
3.166338582677165
 21
4.770669291338582
 31
0.0
  0
LINE
  5
2C1D
330
1E
100
AcDbEntity
  8
0
100
AcDbLine
 10
3.209645669291338
 20
4.770669291338582
 30
0.0
 11
3.216535433070866
 21
4.77755905511811
 31
0.0
  0
LINE
  5
2C1E
330
1E
100
AcDbEntity
  8
0
100
AcDbLine
 10
3.216535433070866
 20
4.616141732283464
 30
0.0
 11
3.209645669291338
 21
4.622047244094487
 31
0.0
  0
LINE
  5
2C1F
330
1E
100
AcDbEntity
  8
0
100
AcDbLine
 10
3.166338582677165
 20
4.622047244094487
 30
0.0
 11
3.169291338582677
 21
4.616141732283464
 31
0.0
  0
LINE
  5
2C20
330
1E
100
AcDbEntity
  8
0
100
AcDbLine
 10
3.224409448818897
 20
4.769685039370078
 30
0.0
 11
3.217519685039369
 21
4.76279527559055
 31
0.0
  0
LINE
  5
2C21
330
1E
100
AcDbEntity
  8
0
100
AcDbLine
 10
3.217519685039369
 20
4.630905511811023
 30
0.0
 11
3.224409448818897
 21
4.624015748031496
 31
0.0
  0
LINE
  5
2C22
330
1E
100
AcDbEntity
  8
0
100
AcDbLine
 10
1.573818897637795
 20
4.616141732283464
 30
0.0
 11
1.577755905511811
 21
4.622047244094487
 31
0.0
  0
LINE
  5
2C23
330
1E
100
AcDbEntity
  8
0
100
AcDbLine
 10
1.533464566929133
 20
4.622047244094487
 30
0.0
 11
1.526574803149606
 21
4.616141732283464
 31
0.0
  0
LINE
  5
2C24
330
1E
100
AcDbEntity
  8
0
100
AcDbLine
 10
1.577755905511811
 20
4.770669291338582
 30
0.0
 11
1.573818897637795
 21
4.77755905511811
 31
0.0
  0
LINE
  5
2C25
330
1E
100
AcDbEntity
  8
0
100
AcDbLine
 10
1.526574803149606
 20
4.77755905511811
 30
0.0
 11
1.533464566929133
 21
4.770669291338582
 31
0.0
  0
LINE
  5
2C26
330
1E
100
AcDbEntity
  8
0
100
AcDbLine
 10
1.525590551181102
 20
4.76279527559055
 30
0.0
 11
1.518700787401574
 21
4.769685039370078
 31
0.0
  0
LINE
  5
2C27
330
1E
100
AcDbEntity
  8
0
100
AcDbLine
 10
1.518700787401574
 20
4.624015748031496
 30
0.0
 11
1.525590551181102
 21
4.630905511811023
 31
0.0
  0
LINE
  5
2C28
330
1E
100
AcDbEntity
  8
0
100
AcDbLine
 10
3.15748031496063
 20
4.890748031496062
 30
0.0
 11
3.150590551181102
 21
4.877952755905512
 31
0.0
  0
LINE
  5
2C29
330
1E
100
AcDbEntity
  8
0
100
AcDbLine
 10
3.146653543307086
 20
4.883858267716535
 30
0.0
 11
3.146653543307086
 21
4.883858267716535
 31
0.0
  0
LINE
  5
2C2A
330
1E
100
AcDbEntity
  8
0
100
AcDbLine
 10
3.146653543307086
 20
4.883858267716535
 30
0.0
 11
3.150590551181102
 21
4.877952755905512
 31
0.0
  0
LINE
  5
2C2B
330
1E
100
AcDbEntity
  8
0
100
AcDbLine
 10
1.59251968503937
 20
4.877952755905512
 30
0.0
 11
1.596456692913385
 21
4.883858267716535
 31
0.0
  0
LINE
  5
2C2C
330
1E
100
AcDbEntity
  8
0
100
AcDbLine
 10
1.596456692913385
 20
4.883858267716535
 30
0.0
 11
1.597440944881889
 21
4.883858267716535
 31
0.0
  0
LINE
  5
2C2D
330
1E
100
AcDbEntity
  8
0
100
AcDbLine
 10
1.585629921259842
 20
4.890748031496062
 30
0.0
 11
1.59251968503937
 21
4.877952755905512
 31
0.0
  0
LINE
  5
2C2E
330
1E
100
AcDbEntity
  8
0
100
AcDbLine
 10
3.179133858267716
 20
3.923228346456692
 30
0.0
 11
3.179133858267716
 21
3.923228346456692
 31
0.0
  0
LINE
  5
2C2F
330
1E
100
AcDbEntity
  8
0
100
AcDbLine
 10
2.530511811023622
 20
3.923228346456692
 30
0.0
 11
3.179133858267716
 21
3.923228346456692
 31
0.0
  0
LINE
  5
2C30
330
1E
100
AcDbEntity
  8
0
100
AcDbLine
 10
3.179133858267716
 20
6.771653543307086
 30
0.0
 11
3.179133858267716
 21
6.771653543307086
 31
0.0
  0
LINE
  5
2C31
330
1E
100
AcDbEntity
  8
0
100
AcDbLine
 10
3.179133858267716
 20
6.771653543307086
 30
0.0
 11
2.530511811023622
 21
6.771653543307086
 31
0.0
  0
LINE
  5
2C32
330
1E
100
AcDbEntity
  8
0
100
AcDbLine
 10
1.472440944881889
 20
6.68011811023622
 30
0.0
 11
1.472440944881889
 21
6.68011811023622
 31
0.0
  0
LINE
  5
2C33
330
1E
100
AcDbEntity
  8
0
100
AcDbLine
 10
1.472440944881889
 20
4.014763779527559
 30
0.0
 11
1.472440944881889
 21
4.014763779527559
 31
0.0
  0
LINE
  5
2C34
330
1E
100
AcDbEntity
  8
0
100
AcDbLine
 10
1.472440944881889
 20
6.68011811023622
 30
0.0
 11
1.472440944881889
 21
4.014763779527559
 31
0.0
  0
LINE
  5
2C35
330
1E
100
AcDbEntity
  8
0
100
AcDbLine
 10
3.270669291338582
 20
4.014763779527559
 30
0.0
 11
3.270669291338582
 21
4.014763779527559
 31
0.0
  0
LINE
  5
2C36
330
1E
100
AcDbEntity
  8
0
100
AcDbLine
 10
3.270669291338582
 20
6.68011811023622
 30
0.0
 11
3.270669291338582
 21
6.68011811023622
 31
0.0
  0
LINE
  5
2C37
330
1E
100
AcDbEntity
  8
0
100
AcDbLine
 10
3.270669291338582
 20
4.014763779527559
 30
0.0
 11
3.270669291338582
 21
6.68011811023622
 31
0.0
  0
LINE
  5
2C38
330
1E
100
AcDbEntity
  8
0
100
AcDbLine
 10
3.096456692913385
 20
5.368110236220472
 30
0.0
 11
1.646653543307086
 21
5.368110236220472
 31
0.0
  0
LINE
  5
2C4D
330
1E
100
AcDbEntity
  8
0
100
AcDbLine
 10
2.219488188976377
 20
6.764763779527559
 30
0.0
 11
2.219488188976377
 21
6.768700787401574
 31
0.0
  0
LINE
  5
2C4E
330
1E
100
AcDbEntity
  8
0
100
AcDbLine
 10
2.523622047244094
 20
6.749015748031496
 30
0.0
 11
2.219488188976377
 21
6.749015748031496
 31
0.0
  0
LINE
  5
2C4F
330
1E
100
AcDbEntity
  8
0
100
AcDbLine
 10
2.523622047244094
 20
6.768700787401574
 30
0.0
 11
2.523622047244094
 21
6.764763779527559
 31
0.0
  0
LINE
  5
2C50
330
1E
100
AcDbEntity
  8
0
100
AcDbLine
 10
2.219488188976377
 20
3.946850393700787
 30
0.0
 11
2.523622047244094
 21
3.946850393700787
 31
0.0
  0
LINE
  5
2C81
330
1E
100
AcDbEntity
  8
0
100
AcDbLine
 10
2.210629921259842
 20
3.924212598425196
 30
0.0
 11
1.564960629921259
 21
3.924212598425196
 31
0.0
  0
LINE
  5
2C82
330
1E
100
AcDbEntity
  8
0
100
AcDbLine
 10
1.563976377952755
 20
3.923228346456692
 30
0.0
 11
1.564960629921259
 21
3.924212598425196
 31
0.0
  0
LINE
  5
2C83
330
1E
100
AcDbEntity
  8
0
100
AcDbLine
 10
1.473425196850393
 20
4.015748031496062
 30
0.0
 11
1.472440944881889
 21
4.014763779527559
 31
0.0
  0
LINE
  5
2C84
330
1E
100
AcDbEntity
  8
0
100
AcDbLine
 10
1.473425196850393
 20
4.015748031496062
 30
0.0
 11
1.473425196850393
 21
6.679133858267716
 31
0.0
  0
LINE
  5
2C85
330
1E
100
AcDbEntity
  8
0
100
AcDbLine
 10
1.472440944881889
 20
6.68011811023622
 30
0.0
 11
1.473425196850393
 21
6.679133858267716
 31
0.0
  0
LINE
  5
2C8E
330
1E
100
AcDbEntity
  8
0
100
AcDbLine
 10
1.564960629921259
 20
6.770669291338582
 30
0.0
 11
1.563976377952755
 21
6.771653543307086
 31
0.0
  0
LINE
  5
2C8F
330
1E
100
AcDbEntity
  8
0
100
AcDbLine
 10
1.564960629921259
 20
6.770669291338582
 30
0.0
 11
2.210629921259842
 21
6.770669291338582
 31
0.0
  0
LINE
  5
2C98
330
1E
100
AcDbEntity
  8
0
100
AcDbLine
 10
3.178149606299212
 20
3.924212598425196
 30
0.0
 11
3.179133858267716
 21
3.923228346456692
 31
0.0
  0
LINE
  5
2C99
330
1E
100
AcDbEntity
  8
0
100
AcDbLine
 10
3.178149606299212
 20
3.924212598425196
 30
0.0
 11
2.53248031496063
 21
3.924212598425196
 31
0.0
  0
LINE
  5
2C9A
330
1E
100
AcDbEntity
  8
0
100
AcDbLine
 10
2.53248031496063
 20
6.770669291338582
 30
0.0
 11
3.178149606299212
 21
6.770669291338582
 31
0.0
  0
LINE
  5
2C9B
330
1E
100
AcDbEntity
  8
0
100
AcDbLine
 10
3.179133858267716
 20
6.771653543307086
 30
0.0
 11
3.178149606299212
 21
6.770669291338582
 31
0.0
  0
LINE
  5
2CAC
330
1E
100
AcDbEntity
  8
0
100
AcDbLine
 10
3.269685039370078
 20
6.679133858267716
 30
0.0
 11
3.270669291338582
 21
6.68011811023622
 31
0.0
  0
LINE
  5
2CAD
330
1E
100
AcDbEntity
  8
0
100
AcDbLine
 10
3.269685039370078
 20
6.679133858267716
 30
0.0
 11
3.269685039370078
 21
4.015748031496062
 31
0.0
  0
LINE
  5
2CAE
330
1E
100
AcDbEntity
  8
0
100
AcDbLine
 10
3.270669291338582
 20
4.014763779527559
 30
0.0
 11
3.269685039370078
 21
4.015748031496062
 31
0.0
  0
LINE
  5
2CE7
330
1E
100
AcDbEntity
  8
0
100
AcDbLine
 10
5.694881889763779
 20
4.297244094488188
 30
0.0
 11
5.694881889763779
 21
4.093503937007874
 31
0.0
  0
LINE
  5
2CE8
330
1E
100
AcDbEntity
  8
0
100
AcDbLine
 10
5.694881889763779
 20
4.044291338582676
 30
0.0
 11
5.622047244094487
 21
4.042322834645669
 31
0.0
  0
LINE
  5
2CE9
330
1E
100
AcDbEntity
  8
0
100
AcDbLine
 10
5.74015748031496
 20
4.844488188976377
 30
0.0
 11
5.622047244094487
 21
4.848425196850393
 31
0.0
  0
LINE
  5
2CEA
330
1E
100
AcDbEntity
  8
0
100
AcDbLine
 10
5.74015748031496
 20
4.547244094488188
 30
0.0
 11
5.622047244094487
 21
4.543307086614173
 31
0.0
  0
LINE
  5
2CF0
330
1E
100
AcDbEntity
  8
0
100
AcDbLine
 10
5.097440944881889
 20
4.141732283464566
 30
0.0
 11
5.210629921259842
 21
4.028543307086613
 31
0.0
  0
LINE
  5
2CF1
330
1E
100
AcDbEntity
  8
0
100
AcDbLine
 10
5.222440944881889
 20
4.028543307086613
 30
0.0
 11
5.210629921259842
 21
4.028543307086613
 31
0.0
  0
LINE
  5
2CF2
330
1E
100
AcDbEntity
  8
0
100
AcDbLine
 10
5.222440944881889
 20
5.199803149606299
 30
0.0
 11
4.731299212598425
 21
4.709645669291338
 31
0.0
  0
LINE
  5
2CFA
330
1E
100
AcDbEntity
  8
0
100
AcDbLine
 10
4.731299212598425
 20
4.641732283464566
 30
0.0
 11
4.769685039370078
 21
4.603346456692912
 31
0.0
  0
LINE
  5
2CFB
330
1E
100
AcDbEntity
  8
0
100
AcDbLine
 10
4.786417322834645
 20
4.602362204724409
 30
0.0
 11
4.769685039370078
 21
4.603346456692912
 31
0.0
  0
LINE
  5
2CFC
330
1E
100
AcDbEntity
  8
0
100
AcDbLine
 10
4.786417322834645
 20
4.602362204724409
 30
0.0
 11
4.896653543307086
 21
4.492125984251968
 31
0.0
  0
LINE
  5
2CFD
330
1E
100
AcDbEntity
  8
0
100
AcDbLine
 10
4.896653543307086
 20
4.492125984251968
 30
0.0
 11
4.888779527559054
 21
4.484251968503937
 31
0.0
  0
LINE
  5
2CFE
330
1E
100
AcDbEntity
  8
0
100
AcDbLine
 10
4.888779527559054
 20
4.484251968503937
 30
0.0
 11
5.074803149606299
 21
4.298228346456692
 31
0.0
  0
LINE
  5
2CFF
330
1E
100
AcDbEntity
  8
0
100
AcDbLine
 10
5.074803149606299
 20
4.298228346456692
 30
0.0
 11
5.074803149606299
 21
4.196850393700787
 31
0.0
  0
LINE
  5
2D00
330
1E
100
AcDbEntity
  8
0
100
AcDbLine
 10
4.700787401574802
 20
4.741141732283464
 30
0.0
 11
5.222440944881889
 21
5.261811023622047
 31
0.0
  0
LINE
  5
2D08
330
1E
100
AcDbEntity
  8
0
100
AcDbLine
 10
4.704724409448818
 20
4.606299212598425
 30
0.0
 11
4.700787401574802
 21
4.61023622047244
 31
0.0
  0
LINE
  5
2D09
330
1E
100
AcDbEntity
  8
0
100
AcDbLine
 10
5.182086614173228
 20
4.029527559055117
 30
0.0
 11
5.084645669291338
 21
4.127952755905512
 31
0.0
  0
LINE
  5
2D10
330
1E
100
AcDbEntity
  8
0
100
AcDbLine
 10
5.056102362204724
 20
4.196850393700787
 30
0.0
 11
5.056102362204724
 21
4.265748031496062
 31
0.0
  0
LINE
  5
2D11
330
1E
100
AcDbEntity
  8
0
100
AcDbLine
 10
5.056102362204724
 20
4.254921259842519
 30
0.0
 11
4.858267716535433
 21
4.452755905511811
 31
0.0
  0
LINE
  5
2D27
330
1E
100
AcDbEntity
  8
0
100
AcDbLine
 10
5.664370078740157
 20
4.326771653543307
 30
0.0
 11
5.622047244094487
 21
4.326771653543307
 31
0.0
  0
LINE
  5
2D2E
330
1E
100
AcDbEntity
  8
0
100
AcDbLine
 10
5.694881889763779
 20
4.083661417322834
 30
0.0
 11
5.694881889763779
 21
4.05511811023622
 31
0.0
  0
LINE
  5
2D39
330
1E
100
AcDbEntity
  8
0
100
AcDbLine
 10
5.622047244094487
 20
4.294291338582676
 30
0.0
 11
5.694881889763779
 21
4.297244094488188
 31
0.0
  0
LINE
  5
2D3A
330
1E
100
AcDbEntity
  8
0
100
AcDbLine
 10
5.694881889763779
 20
4.083661417322834
 30
0.0
 11
5.622047244094487
 21
4.084645669291338
 31
0.0
  0
LINE
  5
2D3B
330
1E
100
AcDbEntity
  8
0
100
AcDbLine
 10
5.622047244094487
 20
4.094488188976377
 30
0.0
 11
5.694881889763779
 21
4.093503937007874
 31
0.0
  0
LINE
  5
2D3C
330
1E
100
AcDbEntity
  8
0
100
AcDbLine
 10
5.622047244094487
 20
4.052165354330708
 30
0.0
 11
5.694881889763779
 21
4.05511811023622
 31
0.0
  0
LINE
  5
2D3D
330
1E
100
AcDbEntity
  8
0
100
AcDbLine
 10
5.74015748031496
 20
4.844488188976377
 30
0.0
 11
5.74015748031496
 21
4.547244094488188
 31
0.0
  0
LINE
  5
2D5B
330
1E
100
AcDbEntity
  8
0
100
AcDbLine
 10
4.792322834645669
 20
4.59251968503937
 30
0.0
 11
4.895669291338582
 21
4.49015748031496
 31
0.0
  0
LINE
  5
2D61
330
1E
100
AcDbEntity
  8
0
100
AcDbLine
 10
4.763779527559054
 20
4.59251968503937
 30
0.0
 11
4.764763779527559
 21
4.59251968503937
 31
0.0
  0
LINE
  5
2DBA
330
1E
100
AcDbEntity
  8
0
100
AcDbLine
 10
4.756889763779527
 20
4.585629921259842
 30
0.0
 11
4.763779527559054
 21
4.59251968503937
 31
0.0
  0
LINE
  5
2DBB
330
1E
100
AcDbEntity
  8
0
100
AcDbLine
 10
4.863188976377952
 20
4.479330708661417
 30
0.0
 11
4.87007874015748
 21
4.486220472440944
 31
0.0
  0
LINE
  5
2DBC
330
1E
100
AcDbEntity
  8
0
100
AcDbLine
 10
5.622047244094487
 20
4.0
 30
0.0
 11
5.622047244094487
 21
6.694881889763779
 31
0.0
  0
LINE
  5
2DDB
330
1E
100
AcDbEntity
  8
0
100
AcDbLine
 10
5.287401574803149
 20
4.010826771653543
 30
0.0
 11
5.287401574803149
 21
6.684055118110236
 31
0.0
  0
LINE
  5
2DE6
330
1E
100
AcDbEntity
  8
0
100
AcDbLine
 10
5.622047244094487
 20
3.829724409448818
 30
0.0
 11
5.306102362204724
 21
3.841535433070866
 31
0.0
  0
LINE
  5
2DE7
330
1E
100
AcDbEntity
  8
0
100
AcDbLine
 10
5.306102362204724
 20
6.854330708661417
 30
0.0
 11
5.622047244094487
 21
6.86515748031496
 31
0.0
  0
LINE
  5
2DE8
330
1E
100
AcDbEntity
  8
0
100
AcDbLine
 10
5.622047244094487
 20
6.694881889763779
 30
0.0
 11
5.306102362204724
 21
6.684055118110236
 31
0.0
  0
LINE
  5
2DE9
330
1E
100
AcDbEntity
  8
0
100
AcDbLine
 10
5.306102362204724
 20
6.684055118110236
 30
0.0
 11
5.306102362204724
 21
4.010826771653543
 31
0.0
  0
LINE
  5
2DEA
330
1E
100
AcDbEntity
  8
0
100
AcDbLine
 10
5.306102362204724
 20
4.010826771653543
 30
0.0
 11
5.622047244094487
 21
4.0
 31
0.0
  0
LINE
  5
2E13
330
1E
100
AcDbEntity
  8
0
100
AcDbLine
 10
6.102362204724409
 20
5.014763779527559
 30
0.0
 11
5.622047244094487
 21
4.997047244094487
 31
0.0
  0
LINE
  5
2E14
330
1E
100
AcDbEntity
  8
0
100
AcDbLine
 10
6.102362204724409
 20
5.681102362204724
 30
0.0
 11
5.622047244094487
 21
5.697834645669291
 31
0.0
  0
LINE
  5
2E15
330
1E
100
AcDbEntity
  8
0
100
AcDbLine
 10
6.102362204724409
 20
5.014763779527559
 30
0.0
 11
6.102362204724409
 21
5.238188976377952
 31
0.0
  0
LINE
  5
2E16
330
1E
100
AcDbEntity
  8
0
100
AcDbLine
 10
6.102362204724409
 20
5.238188976377952
 30
0.0
 11
5.821850393700787
 21
5.247047244094487
 31
0.0
  0
LINE
  5
2E17
330
1E
100
AcDbEntity
  8
0
100
AcDbLine
 10
6.122047244094487
 20
5.21751968503937
 30
0.0
 11
6.122047244094487
 21
5.034448818897637
 31
0.0
  0
LINE
  5
2E18
330
1E
100
AcDbEntity
  8
0
100
AcDbLine
 10
5.821850393700787
 20
5.445866141732283
 30
0.0
 11
5.821850393700787
 21
5.432086614173228
 31
0.0
  0
LINE
  5
2E21
330
1E
100
AcDbEntity
  8
0
100
AcDbLine
 10
5.821850393700787
 20
5.354330708661417
 30
0.0
 11
5.821850393700787
 21
5.340551181102362
 31
0.0
  0
LINE
  5
2E2A
330
1E
100
AcDbEntity
  8
0
100
AcDbLine
 10
5.821850393700787
 20
5.26279527559055
 30
0.0
 11
5.821850393700787
 21
5.249015748031496
 31
0.0
  0
LINE
  5
2E2B
330
1E
100
AcDbEntity
  8
0
100
AcDbLine
 10
6.122047244094487
 20
5.660433070866141
 30
0.0
 11
6.122047244094487
 21
5.477362204724409
 31
0.0
  0
LINE
  5
2E2C
330
1E
100
AcDbEntity
  8
0
100
AcDbLine
 10
5.821850393700787
 20
5.447834645669291
 30
0.0
 11
6.102362204724409
 21
5.45767716535433
 31
0.0
  0
LINE
  5
2E2D
330
1E
100
AcDbEntity
  8
0
100
AcDbLine
 10
6.102362204724409
 20
5.45767716535433
 30
0.0
 11
6.102362204724409
 21
5.681102362204724
 31
0.0
  0
LINE
  5
2E2E
330
1E
100
AcDbEntity
  8
0
100
AcDbLine
 10
5.80511811023622
 20
5.249015748031496
 30
0.0
 11
5.80511811023622
 21
5.26279527559055
 31
0.0
  0
LINE
  5
2E2F
330
1E
100
AcDbEntity
  8
0
100
AcDbLine
 10
5.80511811023622
 20
5.26279527559055
 30
0.0
 11
5.622047244094487
 21
5.269685039370078
 31
0.0
  0
LINE
  5
2E30
330
1E
100
AcDbEntity
  8
0
100
AcDbLine
 10
5.622047244094487
 20
5.242125984251968
 30
0.0
 11
5.80511811023622
 21
5.249015748031496
 31
0.0
  0
LINE
  5
2E31
330
1E
100
AcDbEntity
  8
0
100
AcDbLine
 10
5.80511811023622
 20
5.432086614173228
 30
0.0
 11
5.80511811023622
 21
5.445866141732283
 31
0.0
  0
LINE
  5
2E32
330
1E
100
AcDbEntity
  8
0
100
AcDbLine
 10
5.80511811023622
 20
5.445866141732283
 30
0.0
 11
5.622047244094487
 21
5.452755905511811
 31
0.0
  0
LINE
  5
2E33
330
1E
100
AcDbEntity
  8
0
100
AcDbLine
 10
5.622047244094487
 20
5.4251968503937
 30
0.0
 11
5.80511811023622
 21
5.432086614173228
 31
0.0
  0
LINE
  5
2E34
330
1E
100
AcDbEntity
  8
0
100
AcDbLine
 10
5.803149606299212
 20
5.228346456692912
 30
0.0
 11
5.622047244094487
 21
5.222440944881889
 31
0.0
  0
LINE
  5
2E35
330
1E
100
AcDbEntity
  8
0
100
AcDbLine
 10
5.622047244094487
 20
5.472440944881889
 30
0.0
 11
5.803149606299212
 21
5.466535433070865
 31
0.0
  0
LINE
  5
2E36
330
1E
100
AcDbEntity
  8
0
100
AcDbLine
 10
5.622047244094487
 20
5.289370078740157
 30
0.0
 11
5.803149606299212
 21
5.283464566929133
 31
0.0
  0
LINE
  5
2E37
330
1E
100
AcDbEntity
  8
0
100
AcDbLine
 10
5.622047244094487
 20
5.347440944881889
 30
0.0
 11
5.803149606299212
 21
5.340551181102362
 31
0.0
  0
LINE
  5
2E38
330
1E
100
AcDbEntity
  8
0
100
AcDbLine
 10
5.803149606299212
 20
5.340551181102362
 30
0.0
 11
5.803149606299212
 21
5.354330708661417
 31
0.0
  0
LINE
  5
2E39
330
1E
100
AcDbEntity
  8
0
100
AcDbLine
 10
5.803149606299212
 20
5.354330708661417
 30
0.0
 11
5.622047244094487
 21
5.348425196850393
 31
0.0
  0
LINE
  5
2E3A
330
1E
100
AcDbEntity
  8
0
100
AcDbLine
 10
5.803149606299212
 20
5.411417322834645
 30
0.0
 11
5.622047244094487
 21
5.405511811023622
 31
0.0
  0
LINE
  5
2EB7
330
1E
100
AcDbEntity
  8
0
100
AcDbLine
 10
5.222440944881889
 20
4.015748031496062
 30
0.0
 11
5.222440944881889
 21
6.679133858267716
 31
0.0
  0
LINE
  5
2EB8
330
1E
100
AcDbEntity
  8
0
100
AcDbLine
 10
5.287401574803149
 20
4.014763779527559
 30
0.0
 11
5.287401574803149
 21
4.014763779527559
 31
0.0
  0
LINE
  5
2EB9
330
1E
100
AcDbEntity
  8
0
100
AcDbLine
 10
5.287401574803149
 20
6.68011811023622
 30
0.0
 11
5.287401574803149
 21
6.68011811023622
 31
0.0
  0
LINE
  5
2EBA
330
1E
100
AcDbEntity
  8
0
100
AcDbLine
 10
5.242125984251968
 20
3.924212598425196
 30
0.0
 11
5.287401574803149
 21
3.923228346456692
 31
0.0
  0
LINE
  5
2EBB
330
1E
100
AcDbEntity
  8
0
100
AcDbLine
 10
5.287401574803149
 20
6.771653543307086
 30
0.0
 11
5.242125984251968
 21
6.770669291338582
 31
0.0
  0
LINE
  5
2EBC
330
1E
100
AcDbEntity
  8
0
100
AcDbLine
 10
5.242125984251968
 20
6.679133858267716
 30
0.0
 11
5.287401574803149
 21
6.68011811023622
 31
0.0
  0
LINE
  5
2EBD
330
1E
100
AcDbEntity
  8
0
100
AcDbLine
 10
5.242125984251968
 20
6.679133858267716
 30
0.0
 11
5.242125984251968
 21
4.015748031496062
 31
0.0
  0
LINE
  5
2EBE
330
1E
100
AcDbEntity
  8
0
100
AcDbLine
 10
5.287401574803149
 20
4.014763779527559
 30
0.0
 11
5.242125984251968
 21
4.015748031496062
 31
0.0
  0
LINE
  5
3AF0
330
1E
100
AcDbEntity
  8
0
100
AcDbLine
 10
5.222440944881889
 20
6.750984251968503
 30
0.0
 11
5.227362204724409
 21
6.764763779527559
 31
0.0
  0
LINE
  5
3AF1
330
1E
100
AcDbEntity
  8
0
100
AcDbLine
 10
5.227362204724409
 20
6.764763779527559
 30
0.0
 11
5.242125984251968
 21
6.770669291338582
 31
0.0
  0
LINE
  5
3AF2
330
1E
100
AcDbEntity
  8
0
100
AcDbLine
 10
5.222440944881889
 20
6.679133858267716
 30
0.0
 11
5.227362204724409
 21
6.679133858267716
 31
0.0
  0
LINE
  5
3AF3
330
1E
100
AcDbEntity
  8
0
100
AcDbLine
 10
5.227362204724409
 20
6.679133858267716
 30
0.0
 11
5.242125984251968
 21
6.679133858267716
 31
0.0
  0
LINE
  5
3AF4
330
1E
100
AcDbEntity
  8
0
100
AcDbLine
 10
5.222440944881889
 20
4.015748031496062
 30
0.0
 11
5.227362204724409
 21
4.015748031496062
 31
0.0
  0
LINE
  5
3AF5
330
1E
100
AcDbEntity
  8
0
100
AcDbLine
 10
5.227362204724409
 20
4.015748031496062
 30
0.0
 11
5.242125984251968
 21
4.015748031496062
 31
0.0
  0
LINE
  5
3AF6
330
1E
100
AcDbEntity
  8
0
100
AcDbLine
 10
5.222440944881889
 20
3.943897637795275
 30
0.0
 11
5.227362204724409
 21
3.93011811023622
 31
0.0
  0
LINE
  5
3AF7
330
1E
100
AcDbEntity
  8
0
100
AcDbLine
 10
5.227362204724409
 20
3.93011811023622
 30
0.0
 11
5.242125984251968
 21
3.924212598425196
 31
0.0
  0
LINE
  5
3AF8
330
1E
100
AcDbEntity
  8
0
100
AcDbLine
 10
5.242125984251968
 20
6.770669291338582
 30
0.0
 11
5.241141732283464
 21
6.766732283464566
 31
0.0
  0
LINE
  5
3AF9
330
1E
100
AcDbEntity
  8
0
100
AcDbLine
 10
5.241141732283464
 20
6.766732283464566
 30
0.0
 11
5.241141732283464
 21
6.753937007874015
 31
0.0
  0
LINE
  5
3AFA
330
1E
100
AcDbEntity
  8
0
100
AcDbLine
 10
5.241141732283464
 20
6.753937007874015
 30
0.0
 11
5.241141732283464
 21
6.733267716535433
 31
0.0
  0
LINE
  5
3AFB
330
1E
100
AcDbEntity
  8
0
100
AcDbLine
 10
5.241141732283464
 20
6.733267716535433
 30
0.0
 11
5.241141732283464
 21
6.70767716535433
 31
0.0
  0
LINE
  5
3AFC
330
1E
100
AcDbEntity
  8
0
100
AcDbLine
 10
5.241141732283464
 20
6.70767716535433
 30
0.0
 11
5.242125984251968
 21
6.679133858267716
 31
0.0
  0
LINE
  5
3AFD
330
1E
100
AcDbEntity
  8
0
100
AcDbLine
 10
5.242125984251968
 20
4.015748031496062
 30
0.0
 11
5.241141732283464
 21
3.987204724409448
 31
0.0
  0
LINE
  5
3AFE
330
1E
100
AcDbEntity
  8
0
100
AcDbLine
 10
5.241141732283464
 20
3.987204724409448
 30
0.0
 11
5.241141732283464
 21
3.961614173228346
 31
0.0
  0
LINE
  5
3AFF
330
1E
100
AcDbEntity
  8
0
100
AcDbLine
 10
5.241141732283464
 20
3.961614173228346
 30
0.0
 11
5.241141732283464
 21
3.941929133858267
 31
0.0
  0
LINE
  5
3B00
330
1E
100
AcDbEntity
  8
0
100
AcDbLine
 10
5.241141732283464
 20
3.941929133858267
 30
0.0
 11
5.241141732283464
 21
3.928149606299212
 31
0.0
  0
LINE
  5
3B01
330
1E
100
AcDbEntity
  8
0
100
AcDbLine
 10
5.241141732283464
 20
3.928149606299212
 30
0.0
 11
5.242125984251968
 21
3.924212598425196
 31
0.0
  0
LINE
  5
3B02
330
1E
100
AcDbEntity
  8
0
100
AcDbLine
 10
5.222440944881889
 20
3.943897637795275
 30
0.0
 11
5.222440944881889
 21
3.947834645669291
 31
0.0
  0
LINE
  5
3B03
330
1E
100
AcDbEntity
  8
0
100
AcDbLine
 10
5.222440944881889
 20
3.947834645669291
 30
0.0
 11
5.222440944881889
 21
3.95767716535433
 31
0.0
  0
LINE
  5
3B04
330
1E
100
AcDbEntity
  8
0
100
AcDbLine
 10
5.222440944881889
 20
3.95767716535433
 30
0.0
 11
5.222440944881889
 21
3.973425196850393
 31
0.0
  0
LINE
  5
3B05
330
1E
100
AcDbEntity
  8
0
100
AcDbLine
 10
5.222440944881889
 20
3.973425196850393
 30
0.0
 11
5.222440944881889
 21
3.993110236220472
 31
0.0
  0
LINE
  5
3B06
330
1E
100
AcDbEntity
  8
0
100
AcDbLine
 10
5.222440944881889
 20
3.993110236220472
 30
0.0
 11
5.222440944881889
 21
4.015748031496062
 31
0.0
  0
LINE
  5
3B07
330
1E
100
AcDbEntity
  8
0
100
AcDbLine
 10
5.222440944881889
 20
6.679133858267716
 30
0.0
 11
5.222440944881889
 21
6.701771653543307
 31
0.0
  0
LINE
  5
3B08
330
1E
100
AcDbEntity
  8
0
100
AcDbLine
 10
5.222440944881889
 20
6.701771653543307
 30
0.0
 11
5.222440944881889
 21
6.721456692913386
 31
0.0
  0
LINE
  5
3B09
330
1E
100
AcDbEntity
  8
0
100
AcDbLine
 10
5.222440944881889
 20
6.721456692913386
 30
0.0
 11
5.222440944881889
 21
6.737204724409449
 31
0.0
  0
LINE
  5
3B0A
330
1E
100
AcDbEntity
  8
0
100
AcDbLine
 10
5.222440944881889
 20
6.737204724409449
 30
0.0
 11
5.222440944881889
 21
6.747047244094487
 31
0.0
  0
LINE
  5
3B0B
330
1E
100
AcDbEntity
  8
0
100
AcDbLine
 10
5.222440944881889
 20
6.747047244094487
 30
0.0
 11
5.222440944881889
 21
6.750984251968503
 31
0.0
  0
LINE
  5
3B0C
330
1E
100
AcDbEntity
  8
0
100
AcDbLine
 10
6.102362204724409
 20
5.681102362204724
 30
0.0
 11
6.112204724409449
 21
5.678149606299212
 31
0.0
  0
LINE
  5
3B0D
330
1E
100
AcDbEntity
  8
0
100
AcDbLine
 10
6.112204724409449
 20
5.678149606299212
 30
0.0
 11
6.119094488188975
 21
5.670275590551181
 31
0.0
  0
LINE
  5
3B0E
330
1E
100
AcDbEntity
  8
0
100
AcDbLine
 10
6.119094488188975
 20
5.670275590551181
 30
0.0
 11
6.122047244094487
 21
5.660433070866141
 31
0.0
  0
LINE
  5
3B0F
330
1E
100
AcDbEntity
  8
0
100
AcDbLine
 10
6.122047244094487
 20
5.477362204724409
 30
0.0
 11
6.119094488188975
 21
5.46751968503937
 31
0.0
  0
LINE
  5
3B10
330
1E
100
AcDbEntity
  8
0
100
AcDbLine
 10
6.119094488188975
 20
5.46751968503937
 30
0.0
 11
6.112204724409449
 21
5.460629921259842
 31
0.0
  0
LINE
  5
3B11
330
1E
100
AcDbEntity
  8
0
100
AcDbLine
 10
6.112204724409449
 20
5.460629921259842
 30
0.0
 11
6.102362204724409
 21
5.45767716535433
 31
0.0
  0
LINE
  5
3B12
330
1E
100
AcDbEntity
  8
0
100
AcDbLine
 10
6.102362204724409
 20
5.238188976377952
 30
0.0
 11
6.112204724409449
 21
5.23523622047244
 31
0.0
  0
LINE
  5
3B13
330
1E
100
AcDbEntity
  8
0
100
AcDbLine
 10
6.112204724409449
 20
5.23523622047244
 30
0.0
 11
6.119094488188975
 21
5.227362204724409
 31
0.0
  0
LINE
  5
3B14
330
1E
100
AcDbEntity
  8
0
100
AcDbLine
 10
6.119094488188975
 20
5.227362204724409
 30
0.0
 11
6.122047244094487
 21
5.21751968503937
 31
0.0
  0
LINE
  5
3B15
330
1E
100
AcDbEntity
  8
0
100
AcDbLine
 10
6.122047244094487
 20
5.034448818897637
 30
0.0
 11
6.119094488188975
 21
5.024606299212598
 31
0.0
  0
LINE
  5
3B16
330
1E
100
AcDbEntity
  8
0
100
AcDbLine
 10
6.119094488188975
 20
5.024606299212598
 30
0.0
 11
6.112204724409449
 21
5.016732283464566
 31
0.0
  0
LINE
  5
3B17
330
1E
100
AcDbEntity
  8
0
100
AcDbLine
 10
6.112204724409449
 20
5.016732283464566
 30
0.0
 11
6.102362204724409
 21
5.014763779527559
 31
0.0
  0
LINE
  5
3B18
330
1E
100
AcDbEntity
  8
0
100
AcDbLine
 10
5.803149606299212
 20
5.466535433070865
 30
0.0
 11
5.815944881889763
 21
5.459645669291338
 31
0.0
  0
LINE
  5
3B19
330
1E
100
AcDbEntity
  8
0
100
AcDbLine
 10
5.815944881889763
 20
5.459645669291338
 30
0.0
 11
5.821850393700787
 21
5.445866141732283
 31
0.0
  0
LINE
  5
3B1A
330
1E
100
AcDbEntity
  8
0
100
AcDbLine
 10
5.803149606299212
 20
5.466535433070865
 30
0.0
 11
5.80511811023622
 21
5.460629921259842
 31
0.0
  0
LINE
  5
3B1B
330
1E
100
AcDbEntity
  8
0
100
AcDbLine
 10
5.80511811023622
 20
5.460629921259842
 30
0.0
 11
5.80511811023622
 21
5.445866141732283
 31
0.0
  0
LINE
  5
3B1C
330
1E
100
AcDbEntity
  8
0
100
AcDbLine
 10
5.80511811023622
 20
5.445866141732283
 30
0.0
 11
5.816929133858267
 21
5.445866141732283
 31
0.0
  0
LINE
  5
3B1D
330
1E
100
AcDbEntity
  8
0
100
AcDbLine
 10
5.816929133858267
 20
5.445866141732283
 30
0.0
 11
5.821850393700787
 21
5.445866141732283
 31
0.0
  0
LINE
  5
3B1E
330
1E
100
AcDbEntity
  8
0
100
AcDbLine
 10
5.80511811023622
 20
5.432086614173228
 30
0.0
 11
5.816929133858267
 21
5.432086614173228
 31
0.0
  0
LINE
  5
3B1F
330
1E
100
AcDbEntity
  8
0
100
AcDbLine
 10
5.816929133858267
 20
5.432086614173228
 30
0.0
 11
5.821850393700787
 21
5.432086614173228
 31
0.0
  0
LINE
  5
3B20
330
1E
100
AcDbEntity
  8
0
100
AcDbLine
 10
5.80511811023622
 20
5.432086614173228
 30
0.0
 11
5.80511811023622
 21
5.417322834645669
 31
0.0
  0
LINE
  5
3B21
330
1E
100
AcDbEntity
  8
0
100
AcDbLine
 10
5.80511811023622
 20
5.417322834645669
 30
0.0
 11
5.803149606299212
 21
5.411417322834645
 31
0.0
  0
LINE
  5
3B22
330
1E
100
AcDbEntity
  8
0
100
AcDbLine
 10
5.803149606299212
 20
5.411417322834645
 30
0.0
 11
5.815944881889763
 21
5.418307086614173
 31
0.0
  0
LINE
  5
3B23
330
1E
100
AcDbEntity
  8
0
100
AcDbLine
 10
5.815944881889763
 20
5.418307086614173
 30
0.0
 11
5.821850393700787
 21
5.432086614173228
 31
0.0
  0
LINE
  5
3B24
330
1E
100
AcDbEntity
  8
0
100
AcDbLine
 10
5.803149606299212
 20
5.354330708661417
 30
0.0
 11
5.815944881889763
 21
5.354330708661417
 31
0.0
  0
LINE
  5
3B25
330
1E
100
AcDbEntity
  8
0
100
AcDbLine
 10
5.815944881889763
 20
5.354330708661417
 30
0.0
 11
5.821850393700787
 21
5.354330708661417
 31
0.0
  0
LINE
  5
3B26
330
1E
100
AcDbEntity
  8
0
100
AcDbLine
 10
5.803149606299212
 20
5.340551181102362
 30
0.0
 11
5.815944881889763
 21
5.340551181102362
 31
0.0
  0
LINE
  5
3B27
330
1E
100
AcDbEntity
  8
0
100
AcDbLine
 10
5.815944881889763
 20
5.340551181102362
 30
0.0
 11
5.821850393700787
 21
5.340551181102362
 31
0.0
  0
LINE
  5
3B28
330
1E
100
AcDbEntity
  8
0
100
AcDbLine
 10
5.803149606299212
 20
5.283464566929133
 30
0.0
 11
5.815944881889763
 21
5.27755905511811
 31
0.0
  0
LINE
  5
3B29
330
1E
100
AcDbEntity
  8
0
100
AcDbLine
 10
5.815944881889763
 20
5.27755905511811
 30
0.0
 11
5.821850393700787
 21
5.26279527559055
 31
0.0
  0
LINE
  5
3B2A
330
1E
100
AcDbEntity
  8
0
100
AcDbLine
 10
5.803149606299212
 20
5.283464566929133
 30
0.0
 11
5.80511811023622
 21
5.27755905511811
 31
0.0
  0
LINE
  5
3B2B
330
1E
100
AcDbEntity
  8
0
100
AcDbLine
 10
5.80511811023622
 20
5.27755905511811
 30
0.0
 11
5.80511811023622
 21
5.26279527559055
 31
0.0
  0
LINE
  5
3B2C
330
1E
100
AcDbEntity
  8
0
100
AcDbLine
 10
5.80511811023622
 20
5.26279527559055
 30
0.0
 11
5.816929133858267
 21
5.26279527559055
 31
0.0
  0
LINE
  5
3B2D
330
1E
100
AcDbEntity
  8
0
100
AcDbLine
 10
5.816929133858267
 20
5.26279527559055
 30
0.0
 11
5.821850393700787
 21
5.26279527559055
 31
0.0
  0
LINE
  5
3B2E
330
1E
100
AcDbEntity
  8
0
100
AcDbLine
 10
5.80511811023622
 20
5.249015748031496
 30
0.0
 11
5.816929133858267
 21
5.249015748031496
 31
0.0
  0
LINE
  5
3B2F
330
1E
100
AcDbEntity
  8
0
100
AcDbLine
 10
5.816929133858267
 20
5.249015748031496
 30
0.0
 11
5.821850393700787
 21
5.249015748031496
 31
0.0
  0
LINE
  5
3B30
330
1E
100
AcDbEntity
  8
0
100
AcDbLine
 10
5.80511811023622
 20
5.249015748031496
 30
0.0
 11
5.80511811023622
 21
5.234251968503937
 31
0.0
  0
LINE
  5
3B31
330
1E
100
AcDbEntity
  8
0
100
AcDbLine
 10
5.80511811023622
 20
5.234251968503937
 30
0.0
 11
5.803149606299212
 21
5.228346456692912
 31
0.0
  0
LINE
  5
3B32
330
1E
100
AcDbEntity
  8
0
100
AcDbLine
 10
5.803149606299212
 20
5.228346456692912
 30
0.0
 11
5.815944881889763
 21
5.23523622047244
 31
0.0
  0
LINE
  5
3B33
330
1E
100
AcDbEntity
  8
0
100
AcDbLine
 10
5.815944881889763
 20
5.23523622047244
 30
0.0
 11
5.821850393700787
 21
5.249015748031496
 31
0.0
  0
LINE
  5
3B34
330
1E
100
AcDbEntity
  8
0
100
AcDbLine
 10
5.803149606299212
 20
5.283464566929133
 30
0.0
 11
5.803149606299212
 21
5.287401574803149
 31
0.0
  0
LINE
  5
3B35
330
1E
100
AcDbEntity
  8
0
100
AcDbLine
 10
5.803149606299212
 20
5.287401574803149
 30
0.0
 11
5.803149606299212
 21
5.3001968503937
 31
0.0
  0
LINE
  5
3B36
330
1E
100
AcDbEntity
  8
0
100
AcDbLine
 10
5.803149606299212
 20
5.3001968503937
 30
0.0
 11
5.803149606299212
 21
5.318897637795275
 31
0.0
  0
LINE
  5
3B37
330
1E
100
AcDbEntity
  8
0
100
AcDbLine
 10
5.803149606299212
 20
5.318897637795275
 30
0.0
 11
5.803149606299212
 21
5.340551181102362
 31
0.0
  0
LINE
  5
3B38
330
1E
100
AcDbEntity
  8
0
100
AcDbLine
 10
5.803149606299212
 20
5.354330708661417
 30
0.0
 11
5.803149606299212
 21
5.375984251968503
 31
0.0
  0
LINE
  5
3B39
330
1E
100
AcDbEntity
  8
0
100
AcDbLine
 10
5.803149606299212
 20
5.375984251968503
 30
0.0
 11
5.803149606299212
 21
5.394685039370078
 31
0.0
  0
LINE
  5
3B3A
330
1E
100
AcDbEntity
  8
0
100
AcDbLine
 10
5.803149606299212
 20
5.394685039370078
 30
0.0
 11
5.803149606299212
 21
5.407480314960629
 31
0.0
  0
LINE
  5
3B3B
330
1E
100
AcDbEntity
  8
0
100
AcDbLine
 10
5.803149606299212
 20
5.407480314960629
 30
0.0
 11
5.803149606299212
 21
5.411417322834645
 31
0.0
  0
LINE
  5
3B3C
330
1E
100
AcDbEntity
  8
0
100
AcDbLine
 10
5.821850393700787
 20
5.340551181102362
 30
0.0
 11
5.821850393700787
 21
5.316929133858267
 31
0.0
  0
LINE
  5
3B3D
330
1E
100
AcDbEntity
  8
0
100
AcDbLine
 10
5.821850393700787
 20
5.316929133858267
 30
0.0
 11
5.821850393700787
 21
5.295275590551181
 31
0.0
  0
LINE
  5
3B3E
330
1E
100
AcDbEntity
  8
0
100
AcDbLine
 10
5.821850393700787
 20
5.295275590551181
 30
0.0
 11
5.821850393700787
 21
5.27755905511811
 31
0.0
  0
LINE
  5
3B3F
330
1E
100
AcDbEntity
  8
0
100
AcDbLine
 10
5.821850393700787
 20
5.27755905511811
 30
0.0
 11
5.821850393700787
 21
5.266732283464566
 31
0.0
  0
LINE
  5
3B40
330
1E
100
AcDbEntity
  8
0
100
AcDbLine
 10
5.821850393700787
 20
5.266732283464566
 30
0.0
 11
5.821850393700787
 21
5.26279527559055
 31
0.0
  0
LINE
  5
3B41
330
1E
100
AcDbEntity
  8
0
100
AcDbLine
 10
5.821850393700787
 20
5.432086614173228
 30
0.0
 11
5.821850393700787
 21
5.428149606299212
 31
0.0
  0
LINE
  5
3B42
330
1E
100
AcDbEntity
  8
0
100
AcDbLine
 10
5.821850393700787
 20
5.428149606299212
 30
0.0
 11
5.821850393700787
 21
5.417322834645669
 31
0.0
  0
LINE
  5
3B43
330
1E
100
AcDbEntity
  8
0
100
AcDbLine
 10
5.821850393700787
 20
5.417322834645669
 30
0.0
 11
5.821850393700787
 21
5.399606299212598
 31
0.0
  0
LINE
  5
3B44
330
1E
100
AcDbEntity
  8
0
100
AcDbLine
 10
5.821850393700787
 20
5.399606299212598
 30
0.0
 11
5.821850393700787
 21
5.377952755905512
 31
0.0
  0
LINE
  5
3B45
330
1E
100
AcDbEntity
  8
0
100
AcDbLine
 10
5.821850393700787
 20
5.377952755905512
 30
0.0
 11
5.821850393700787
 21
5.354330708661417
 31
0.0
  0
LINE
  5
3B46
330
1E
100
AcDbEntity
  8
0
100
AcDbLine
 10
5.306102362204724
 20
3.841535433070866
 30
0.0
 11
5.292322834645669
 21
3.847440944881889
 31
0.0
  0
LINE
  5
3B47
330
1E
100
AcDbEntity
  8
0
100
AcDbLine
 10
5.292322834645669
 20
3.847440944881889
 30
0.0
 11
5.287401574803149
 21
3.861220472440944
 31
0.0
  0
LINE
  5
3B48
330
1E
100
AcDbEntity
  8
0
100
AcDbLine
 10
5.306102362204724
 20
4.010826771653543
 30
0.0
 11
5.292322834645669
 21
4.010826771653543
 31
0.0
  0
LINE
  5
3B49
330
1E
100
AcDbEntity
  8
0
100
AcDbLine
 10
5.292322834645669
 20
4.010826771653543
 30
0.0
 11
5.287401574803149
 21
4.010826771653543
 31
0.0
  0
LINE
  5
3B4A
330
1E
100
AcDbEntity
  8
0
100
AcDbLine
 10
5.306102362204724
 20
6.684055118110236
 30
0.0
 11
5.292322834645669
 21
6.684055118110236
 31
0.0
  0
LINE
  5
3B4B
330
1E
100
AcDbEntity
  8
0
100
AcDbLine
 10
5.292322834645669
 20
6.684055118110236
 30
0.0
 11
5.287401574803149
 21
6.684055118110236
 31
0.0
  0
LINE
  5
3B4C
330
1E
100
AcDbEntity
  8
0
100
AcDbLine
 10
5.306102362204724
 20
6.854330708661417
 30
0.0
 11
5.292322834645669
 21
6.847440944881889
 31
0.0
  0
LINE
  5
3B4D
330
1E
100
AcDbEntity
  8
0
100
AcDbLine
 10
5.292322834645669
 20
6.847440944881889
 30
0.0
 11
5.287401574803149
 21
6.833661417322834
 31
0.0
  0
LINE
  5
3B4E
330
1E
100
AcDbEntity
  8
0
100
AcDbLine
 10
5.306102362204724
 20
6.854330708661417
 30
0.0
 11
5.306102362204724
 21
6.849409448818897
 31
0.0
  0
LINE
  5
3B4F
330
1E
100
AcDbEntity
  8
0
100
AcDbLine
 10
5.306102362204724
 20
6.849409448818897
 30
0.0
 11
5.306102362204724
 21
6.83759842519685
 31
0.0
  0
LINE
  5
3B50
330
1E
100
AcDbEntity
  8
0
100
AcDbLine
 10
5.306102362204724
 20
6.83759842519685
 30
0.0
 11
5.306102362204724
 21
6.816929133858267
 31
0.0
  0
LINE
  5
3B51
330
1E
100
AcDbEntity
  8
0
100
AcDbLine
 10
5.306102362204724
 20
6.816929133858267
 30
0.0
 11
5.306102362204724
 21
6.790354330708661
 31
0.0
  0
LINE
  5
3B52
330
1E
100
AcDbEntity
  8
0
100
AcDbLine
 10
5.306102362204724
 20
6.790354330708661
 30
0.0
 11
5.306102362204724
 21
6.757874015748031
 31
0.0
  0
LINE
  5
3B53
330
1E
100
AcDbEntity
  8
0
100
AcDbLine
 10
5.306102362204724
 20
6.757874015748031
 30
0.0
 11
5.306102362204724
 21
6.721456692913386
 31
0.0
  0
LINE
  5
3B54
330
1E
100
AcDbEntity
  8
0
100
AcDbLine
 10
5.306102362204724
 20
6.721456692913386
 30
0.0
 11
5.306102362204724
 21
6.684055118110236
 31
0.0
  0
LINE
  5
3B55
330
1E
100
AcDbEntity
  8
0
100
AcDbLine
 10
5.306102362204724
 20
4.010826771653543
 30
0.0
 11
5.306102362204724
 21
3.973425196850393
 31
0.0
  0
LINE
  5
3B56
330
1E
100
AcDbEntity
  8
0
100
AcDbLine
 10
5.306102362204724
 20
3.973425196850393
 30
0.0
 11
5.306102362204724
 21
3.937007874015748
 31
0.0
  0
LINE
  5
3B57
330
1E
100
AcDbEntity
  8
0
100
AcDbLine
 10
5.306102362204724
 20
3.937007874015748
 30
0.0
 11
5.306102362204724
 21
3.904527559055118
 31
0.0
  0
LINE
  5
3B58
330
1E
100
AcDbEntity
  8
0
100
AcDbLine
 10
5.306102362204724
 20
3.904527559055118
 30
0.0
 11
5.306102362204724
 21
3.877952755905511
 31
0.0
  0
LINE
  5
3B59
330
1E
100
AcDbEntity
  8
0
100
AcDbLine
 10
5.306102362204724
 20
3.877952755905511
 30
0.0
 11
5.306102362204724
 21
3.858267716535432
 31
0.0
  0
LINE
  5
3B5A
330
1E
100
AcDbEntity
  8
0
100
AcDbLine
 10
5.306102362204724
 20
3.858267716535432
 30
0.0
 11
5.306102362204724
 21
3.845472440944881
 31
0.0
  0
LINE
  5
3B5B
330
1E
100
AcDbEntity
  8
0
100
AcDbLine
 10
5.306102362204724
 20
3.845472440944881
 30
0.0
 11
5.306102362204724
 21
3.841535433070866
 31
0.0
  0
LINE
  5
3B5C
330
1E
100
AcDbEntity
  8
0
100
AcDbLine
 10
5.287401574803149
 20
6.684055118110236
 30
0.0
 11
5.287401574803149
 21
6.71751968503937
 31
0.0
  0
LINE
  5
3B5D
330
1E
100
AcDbEntity
  8
0
100
AcDbLine
 10
5.287401574803149
 20
6.71751968503937
 30
0.0
 11
5.287401574803149
 21
6.749015748031496
 31
0.0
  0
LINE
  5
3B5E
330
1E
100
AcDbEntity
  8
0
100
AcDbLine
 10
5.287401574803149
 20
6.749015748031496
 30
0.0
 11
5.287401574803149
 21
6.77755905511811
 31
0.0
  0
LINE
  5
3B5F
330
1E
100
AcDbEntity
  8
0
100
AcDbLine
 10
5.287401574803149
 20
6.77755905511811
 30
0.0
 11
5.287401574803149
 21
6.801181102362204
 31
0.0
  0
LINE
  5
3B60
330
1E
100
AcDbEntity
  8
0
100
AcDbLine
 10
5.287401574803149
 20
6.801181102362204
 30
0.0
 11
5.287401574803149
 21
6.818897637795275
 31
0.0
  0
LINE
  5
3B61
330
1E
100
AcDbEntity
  8
0
100
AcDbLine
 10
5.287401574803149
 20
6.818897637795275
 30
0.0
 11
5.287401574803149
 21
6.830708661417323
 31
0.0
  0
LINE
  5
3B62
330
1E
100
AcDbEntity
  8
0
100
AcDbLine
 10
5.287401574803149
 20
6.830708661417323
 30
0.0
 11
5.287401574803149
 21
6.833661417322834
 31
0.0
  0
LINE
  5
3B63
330
1E
100
AcDbEntity
  8
0
100
AcDbLine
 10
5.287401574803149
 20
3.861220472440944
 30
0.0
 11
5.287401574803149
 21
3.86515748031496
 31
0.0
  0
LINE
  5
3B64
330
1E
100
AcDbEntity
  8
0
100
AcDbLine
 10
5.287401574803149
 20
3.86515748031496
 30
0.0
 11
5.287401574803149
 21
3.875984251968503
 31
0.0
  0
LINE
  5
3B65
330
1E
100
AcDbEntity
  8
0
100
AcDbLine
 10
5.287401574803149
 20
3.875984251968503
 30
0.0
 11
5.287401574803149
 21
3.893700787401574
 31
0.0
  0
LINE
  5
3B66
330
1E
100
AcDbEntity
  8
0
100
AcDbLine
 10
5.287401574803149
 20
3.893700787401574
 30
0.0
 11
5.287401574803149
 21
3.917322834645669
 31
0.0
  0
LINE
  5
3B67
330
1E
100
AcDbEntity
  8
0
100
AcDbLine
 10
5.287401574803149
 20
3.917322834645669
 30
0.0
 11
5.287401574803149
 21
3.945866141732283
 31
0.0
  0
LINE
  5
3B68
330
1E
100
AcDbEntity
  8
0
100
AcDbLine
 10
5.287401574803149
 20
3.945866141732283
 30
0.0
 11
5.287401574803149
 21
3.977362204724409
 31
0.0
  0
LINE
  5
3B69
330
1E
100
AcDbEntity
  8
0
100
AcDbLine
 10
5.287401574803149
 20
3.977362204724409
 30
0.0
 11
5.287401574803149
 21
4.010826771653543
 31
0.0
  0
LINE
  5
3B6A
330
1E
100
AcDbEntity
  8
0
100
AcDbLine
 10
5.622047244094487
 20
6.86515748031496
 30
0.0
 11
5.622047244094487
 21
6.861220472440944
 31
0.0
  0
LINE
  5
3B6B
330
1E
100
AcDbEntity
  8
0
100
AcDbLine
 10
5.622047244094487
 20
6.861220472440944
 30
0.0
 11
5.622047244094487
 21
6.848425196850393
 31
0.0
  0
LINE
  5
3B6C
330
1E
100
AcDbEntity
  8
0
100
AcDbLine
 10
5.622047244094487
 20
6.848425196850393
 30
0.0
 11
5.622047244094487
 21
6.827755905511811
 31
0.0
  0
LINE
  5
3B6D
330
1E
100
AcDbEntity
  8
0
100
AcDbLine
 10
5.622047244094487
 20
6.827755905511811
 30
0.0
 11
5.622047244094487
 21
6.801181102362204
 31
0.0
  0
LINE
  5
3B6E
330
1E
100
AcDbEntity
  8
0
100
AcDbLine
 10
5.622047244094487
 20
6.801181102362204
 30
0.0
 11
5.622047244094487
 21
6.768700787401574
 31
0.0
  0
LINE
  5
3B6F
330
1E
100
AcDbEntity
  8
0
100
AcDbLine
 10
5.622047244094487
 20
6.768700787401574
 30
0.0
 11
5.622047244094487
 21
6.733267716535433
 31
0.0
  0
LINE
  5
3B70
330
1E
100
AcDbEntity
  8
0
100
AcDbLine
 10
5.622047244094487
 20
6.733267716535433
 30
0.0
 11
5.622047244094487
 21
6.694881889763779
 31
0.0
  0
LINE
  5
3B71
330
1E
100
AcDbEntity
  8
0
100
AcDbLine
 10
5.622047244094487
 20
4.0
 30
0.0
 11
5.622047244094487
 21
3.961614173228346
 31
0.0
  0
LINE
  5
3B72
330
1E
100
AcDbEntity
  8
0
100
AcDbLine
 10
5.622047244094487
 20
3.961614173228346
 30
0.0
 11
5.622047244094487
 21
3.926181102362204
 31
0.0
  0
LINE
  5
3B73
330
1E
100
AcDbEntity
  8
0
100
AcDbLine
 10
5.622047244094487
 20
3.926181102362204
 30
0.0
 11
5.622047244094487
 21
3.893700787401574
 31
0.0
  0
LINE
  5
3B74
330
1E
100
AcDbEntity
  8
0
100
AcDbLine
 10
5.622047244094487
 20
3.893700787401574
 30
0.0
 11
5.622047244094487
 21
3.867125984251968
 31
0.0
  0
LINE
  5
3B75
330
1E
100
AcDbEntity
  8
0
100
AcDbLine
 10
5.622047244094487
 20
3.867125984251968
 30
0.0
 11
5.622047244094487
 21
3.846456692913385
 31
0.0
  0
LINE
  5
3B76
330
1E
100
AcDbEntity
  8
0
100
AcDbLine
 10
5.622047244094487
 20
3.846456692913385
 30
0.0
 11
5.622047244094487
 21
3.834645669291338
 31
0.0
  0
LINE
  5
3B77
330
1E
100
AcDbEntity
  8
0
100
AcDbLine
 10
5.622047244094487
 20
3.834645669291338
 30
0.0
 11
5.622047244094487
 21
3.829724409448818
 31
0.0
  0
LINE
  5
3B78
330
1E
100
AcDbEntity
  8
0
100
AcDbLine
 10
4.863188976377952
 20
4.479330708661417
 30
0.0
 11
4.866141732283464
 21
4.476377952755905
 31
0.0
  0
LINE
  5
3B79
330
1E
100
AcDbEntity
  8
0
100
AcDbLine
 10
4.866141732283464
 20
4.476377952755905
 30
0.0
 11
4.874015748031496
 21
4.468503937007874
 31
0.0
  0
LINE
  5
3B7A
330
1E
100
AcDbEntity
  8
0
100
AcDbLine
 10
4.756889763779527
 20
4.585629921259842
 30
0.0
 11
4.760826771653543
 21
4.58267716535433
 31
0.0
  0
LINE
  5
3B7B
330
1E
100
AcDbEntity
  8
0
100
AcDbLine
 10
4.760826771653543
 20
4.58267716535433
 30
0.0
 11
4.769685039370078
 21
4.572834645669291
 31
0.0
  0
LINE
  5
3B7C
330
1E
100
AcDbEntity
  8
0
100
AcDbLine
 10
4.769685039370078
 20
4.572834645669291
 30
0.0
 11
4.783464566929133
 21
4.559055118110236
 31
0.0
  0
LINE
  5
3B7D
330
1E
100
AcDbEntity
  8
0
100
AcDbLine
 10
4.783464566929133
 20
4.559055118110236
 30
0.0
 11
4.801181102362204
 21
4.542322834645669
 31
0.0
  0
LINE
  5
3B7E
330
1E
100
AcDbEntity
  8
0
100
AcDbLine
 10
4.801181102362204
 20
4.542322834645669
 30
0.0
 11
4.819881889763779
 21
4.523622047244094
 31
0.0
  0
LINE
  5
3B7F
330
1E
100
AcDbEntity
  8
0
100
AcDbLine
 10
4.819881889763779
 20
4.523622047244094
 30
0.0
 11
4.836614173228346
 21
4.505905511811023
 31
0.0
  0
LINE
  5
3B80
330
1E
100
AcDbEntity
  8
0
100
AcDbLine
 10
4.836614173228346
 20
4.505905511811023
 30
0.0
 11
4.850393700787401
 21
4.492125984251968
 31
0.0
  0
LINE
  5
3B81
330
1E
100
AcDbEntity
  8
0
100
AcDbLine
 10
4.850393700787401
 20
4.492125984251968
 30
0.0
 11
4.86023622047244
 21
4.483267716535433
 31
0.0
  0
LINE
  5
3B82
330
1E
100
AcDbEntity
  8
0
100
AcDbLine
 10
4.86023622047244
 20
4.483267716535433
 30
0.0
 11
4.863188976377952
 21
4.479330708661417
 31
0.0
  0
LINE
  5
3B83
330
1E
100
AcDbEntity
  8
0
100
AcDbLine
 10
4.863188976377952
 20
4.479330708661417
 30
0.0
 11
4.849409448818897
 21
4.473425196850393
 31
0.0
  0
LINE
  5
3B84
330
1E
100
AcDbEntity
  8
0
100
AcDbLine
 10
4.849409448818897
 20
4.473425196850393
 30
0.0
 11
4.834645669291338
 21
4.479330708661417
 31
0.0
  0
LINE
  5
3B85
330
1E
100
AcDbEntity
  8
0
100
AcDbLine
 10
4.756889763779527
 20
4.585629921259842
 30
0.0
 11
4.750984251968503
 21
4.571850393700787
 31
0.0
  0
LINE
  5
3B86
330
1E
100
AcDbEntity
  8
0
100
AcDbLine
 10
4.750984251968503
 20
4.571850393700787
 30
0.0
 11
4.756889763779527
 21
4.557086614173228
 31
0.0
  0
LINE
  5
3B87
330
1E
100
AcDbEntity
  8
0
100
AcDbLine
 10
4.87007874015748
 20
4.486220472440944
 30
0.0
 11
4.867125984251968
 21
4.49015748031496
 31
0.0
  0
LINE
  5
3B88
330
1E
100
AcDbEntity
  8
0
100
AcDbLine
 10
4.867125984251968
 20
4.49015748031496
 30
0.0
 11
4.858267716535433
 21
4.499015748031496
 31
0.0
  0
LINE
  5
3B89
330
1E
100
AcDbEntity
  8
0
100
AcDbLine
 10
4.858267716535433
 20
4.499015748031496
 30
0.0
 11
4.843503937007874
 21
4.51279527559055
 31
0.0
  0
LINE
  5
3B8A
330
1E
100
AcDbEntity
  8
0
100
AcDbLine
 10
4.843503937007874
 20
4.51279527559055
 30
0.0
 11
4.826771653543307
 21
4.530511811023622
 31
0.0
  0
LINE
  5
3B8B
330
1E
100
AcDbEntity
  8
0
100
AcDbLine
 10
4.826771653543307
 20
4.530511811023622
 30
0.0
 11
4.808070866141732
 21
4.549212598425197
 31
0.0
  0
LINE
  5
3B8C
330
1E
100
AcDbEntity
  8
0
100
AcDbLine
 10
4.808070866141732
 20
4.549212598425197
 30
0.0
 11
4.790354330708661
 21
4.565944881889763
 31
0.0
  0
LINE
  5
3B8D
330
1E
100
AcDbEntity
  8
0
100
AcDbLine
 10
4.790354330708661
 20
4.565944881889763
 30
0.0
 11
4.776574803149606
 21
4.580708661417323
 31
0.0
  0
LINE
  5
3B8E
330
1E
100
AcDbEntity
  8
0
100
AcDbLine
 10
4.776574803149606
 20
4.580708661417323
 30
0.0
 11
4.76771653543307
 21
4.589566929133858
 31
0.0
  0
LINE
  5
3B8F
330
1E
100
AcDbEntity
  8
0
100
AcDbLine
 10
4.76771653543307
 20
4.589566929133858
 30
0.0
 11
4.763779527559054
 21
4.59251968503937
 31
0.0
  0
LINE
  5
3B90
330
1E
100
AcDbEntity
  8
0
100
AcDbLine
 10
4.763779527559054
 20
4.59251968503937
 30
0.0
 11
4.778543307086613
 21
4.598425196850393
 31
0.0
  0
LINE
  5
3B91
330
1E
100
AcDbEntity
  8
0
100
AcDbLine
 10
4.778543307086613
 20
4.598425196850393
 30
0.0
 11
4.792322834645669
 21
4.59251968503937
 31
0.0
  0
LINE
  5
3B92
330
1E
100
AcDbEntity
  8
0
100
AcDbLine
 10
4.87007874015748
 20
4.486220472440944
 30
0.0
 11
4.875984251968503
 21
4.500984251968503
 31
0.0
  0
LINE
  5
3B93
330
1E
100
AcDbEntity
  8
0
100
AcDbLine
 10
4.875984251968503
 20
4.500984251968503
 30
0.0
 11
4.87007874015748
 21
4.514763779527559
 31
0.0
  0
LINE
  5
3B94
330
1E
100
AcDbEntity
  8
0
100
AcDbLine
 10
4.880905511811023
 20
4.475393700787401
 30
0.0
 11
4.873031496062991
 21
4.484251968503937
 31
0.0
  0
LINE
  5
3B95
330
1E
100
AcDbEntity
  8
0
100
AcDbLine
 10
4.873031496062991
 20
4.484251968503937
 30
0.0
 11
4.87007874015748
 21
4.486220472440944
 31
0.0
  0
LINE
  5
3B96
330
1E
100
AcDbEntity
  8
0
100
AcDbLine
 10
4.834645669291338
 20
4.479330708661417
 30
0.0
 11
4.831692913385826
 21
4.482283464566928
 31
0.0
  0
LINE
  5
3B97
330
1E
100
AcDbEntity
  8
0
100
AcDbLine
 10
4.831692913385826
 20
4.482283464566928
 30
0.0
 11
4.823818897637795
 21
4.491141732283464
 31
0.0
  0
LINE
  5
3B98
330
1E
100
AcDbEntity
  8
0
100
AcDbLine
 10
4.823818897637795
 20
4.491141732283464
 30
0.0
 11
4.811023622047244
 21
4.503937007874015
 31
0.0
  0
LINE
  5
3B99
330
1E
100
AcDbEntity
  8
0
100
AcDbLine
 10
4.811023622047244
 20
4.503937007874015
 30
0.0
 11
4.796259842519685
 21
4.518700787401574
 31
0.0
  0
LINE
  5
3B9A
330
1E
100
AcDbEntity
  8
0
100
AcDbLine
 10
4.796259842519685
 20
4.518700787401574
 30
0.0
 11
4.781496062992125
 21
4.533464566929133
 31
0.0
  0
LINE
  5
3B9B
330
1E
100
AcDbEntity
  8
0
100
AcDbLine
 10
4.781496062992125
 20
4.533464566929133
 30
0.0
 11
4.768700787401574
 21
4.546259842519685
 31
0.0
  0
LINE
  5
3B9C
330
1E
100
AcDbEntity
  8
0
100
AcDbLine
 10
4.768700787401574
 20
4.546259842519685
 30
0.0
 11
4.759842519685038
 21
4.554133858267716
 31
0.0
  0
LINE
  5
3B9D
330
1E
100
AcDbEntity
  8
0
100
AcDbLine
 10
4.759842519685038
 20
4.554133858267716
 30
0.0
 11
4.756889763779527
 21
4.557086614173228
 31
0.0
  0
LINE
  5
3B9E
330
1E
100
AcDbEntity
  8
0
100
AcDbLine
 10
4.86023622047244
 20
4.453740157480314
 30
0.0
 11
4.847440944881889
 21
4.46751968503937
 31
0.0
  0
LINE
  5
3B9F
330
1E
100
AcDbEntity
  8
0
100
AcDbLine
 10
4.847440944881889
 20
4.46751968503937
 30
0.0
 11
4.838582677165354
 21
4.476377952755905
 31
0.0
  0
LINE
  5
3BA0
330
1E
100
AcDbEntity
  8
0
100
AcDbLine
 10
4.838582677165354
 20
4.476377952755905
 30
0.0
 11
4.834645669291338
 21
4.479330708661417
 31
0.0
  0
LINE
  5
3BA1
330
1E
100
AcDbEntity
  8
0
100
AcDbLine
 10
4.87007874015748
 20
4.514763779527559
 30
0.0
 11
4.873031496062991
 21
4.511811023622047
 31
0.0
  0
LINE
  5
3BA2
330
1E
100
AcDbEntity
  8
0
100
AcDbLine
 10
4.873031496062991
 20
4.511811023622047
 30
0.0
 11
4.881889763779527
 21
4.502952755905512
 31
0.0
  0
LINE
  5
3BA3
330
1E
100
AcDbEntity
  8
0
100
AcDbLine
 10
4.881889763779527
 20
4.502952755905512
 30
0.0
 11
4.894685039370078
 21
4.49015748031496
 31
0.0
  0
LINE
  5
3BA4
330
1E
100
AcDbEntity
  8
0
100
AcDbLine
 10
4.792322834645669
 20
4.59251968503937
 30
0.0
 11
4.795275590551181
 21
4.589566929133858
 31
0.0
  0
LINE
  5
3BA5
330
1E
100
AcDbEntity
  8
0
100
AcDbLine
 10
4.795275590551181
 20
4.589566929133858
 30
0.0
 11
4.804133858267716
 21
4.581692913385826
 31
0.0
  0
LINE
  5
3BA6
330
1E
100
AcDbEntity
  8
0
100
AcDbLine
 10
4.804133858267716
 20
4.581692913385826
 30
0.0
 11
4.816929133858267
 21
4.568897637795275
 31
0.0
  0
LINE
  5
3BA7
330
1E
100
AcDbEntity
  8
0
100
AcDbLine
 10
4.816929133858267
 20
4.568897637795275
 30
0.0
 11
4.831692913385826
 21
4.554133858267716
 31
0.0
  0
LINE
  5
3BA8
330
1E
100
AcDbEntity
  8
0
100
AcDbLine
 10
4.831692913385826
 20
4.554133858267716
 30
0.0
 11
4.846456692913386
 21
4.539370078740157
 31
0.0
  0
LINE
  5
3BA9
330
1E
100
AcDbEntity
  8
0
100
AcDbLine
 10
4.846456692913386
 20
4.539370078740157
 30
0.0
 11
4.859251968503937
 21
4.526574803149606
 31
0.0
  0
LINE
  5
3BAA
330
1E
100
AcDbEntity
  8
0
100
AcDbLine
 10
4.859251968503937
 20
4.526574803149606
 30
0.0
 11
4.867125984251968
 21
4.51771653543307
 31
0.0
  0
LINE
  5
3BAB
330
1E
100
AcDbEntity
  8
0
100
AcDbLine
 10
4.867125984251968
 20
4.51771653543307
 30
0.0
 11
4.87007874015748
 21
4.514763779527559
 31
0.0
  0
LINE
  5
3BAC
330
1E
100
AcDbEntity
  8
0
100
AcDbLine
 10
4.764763779527559
 20
4.59251968503937
 30
0.0
 11
4.778543307086613
 21
4.598425196850393
 31
0.0
  0
LINE
  5
3BAD
330
1E
100
AcDbEntity
  8
0
100
AcDbLine
 10
4.778543307086613
 20
4.598425196850393
 30
0.0
 11
4.792322834645669
 21
4.59251968503937
 31
0.0
  0
LINE
  5
3BAE
330
1E
100
AcDbEntity
  8
0
100
AcDbLine
 10
5.097440944881889
 20
4.141732283464566
 30
0.0
 11
5.08759842519685
 21
4.131889763779527
 31
0.0
  0
LINE
  5
3BAF
330
1E
100
AcDbEntity
  8
0
100
AcDbLine
 10
5.08759842519685
 20
4.131889763779527
 30
0.0
 11
5.084645669291338
 21
4.127952755905512
 31
0.0
  0
LINE
  5
3BB0
330
1E
100
AcDbEntity
  8
0
100
AcDbLine
 10
5.074803149606299
 20
4.196850393700787
 30
0.0
 11
5.061023622047244
 21
4.196850393700787
 31
0.0
  0
LINE
  5
3BB1
330
1E
100
AcDbEntity
  8
0
100
AcDbLine
 10
5.061023622047244
 20
4.196850393700787
 30
0.0
 11
5.056102362204724
 21
4.196850393700787
 31
0.0
  0
LINE
  5
3BB2
330
1E
100
AcDbEntity
  8
0
100
AcDbLine
 10
5.056102362204724
 20
4.265748031496062
 30
0.0
 11
5.058070866141732
 21
4.274606299212598
 31
0.0
  0
LINE
  5
3BB3
330
1E
100
AcDbEntity
  8
0
100
AcDbLine
 10
5.058070866141732
 20
4.274606299212598
 30
0.0
 11
5.063976377952755
 21
4.284448818897637
 31
0.0
  0
LINE
  5
3BB4
330
1E
100
AcDbEntity
  8
0
100
AcDbLine
 10
5.063976377952755
 20
4.284448818897637
 30
0.0
 11
5.071850393700787
 21
4.295275590551181
 31
0.0
  0
LINE
  5
3BB5
330
1E
100
AcDbEntity
  8
0
100
AcDbLine
 10
5.071850393700787
 20
4.295275590551181
 30
0.0
 11
5.074803149606299
 21
4.298228346456692
 31
0.0
  0
LINE
  5
3BB6
330
1E
100
AcDbEntity
  8
0
100
AcDbLine
 10
4.700787401574802
 20
4.741141732283464
 30
0.0
 11
4.704724409448818
 21
4.737204724409449
 31
0.0
  0
LINE
  5
3BB7
330
1E
100
AcDbEntity
  8
0
100
AcDbLine
 10
4.704724409448818
 20
4.737204724409449
 30
0.0
 11
4.715551181102362
 21
4.725393700787401
 31
0.0
  0
LINE
  5
3BB8
330
1E
100
AcDbEntity
  8
0
100
AcDbLine
 10
4.715551181102362
 20
4.725393700787401
 30
0.0
 11
4.731299212598425
 21
4.709645669291338
 31
0.0
  0
LINE
  5
3BB9
330
1E
100
AcDbEntity
  8
0
100
AcDbLine
 10
4.700787401574802
 20
4.61023622047244
 30
0.0
 11
4.704724409448818
 21
4.614173228346456
 31
0.0
  0
LINE
  5
3BBA
330
1E
100
AcDbEntity
  8
0
100
AcDbLine
 10
4.704724409448818
 20
4.614173228346456
 30
0.0
 11
4.715551181102362
 21
4.625984251968503
 31
0.0
  0
LINE
  5
3BBB
330
1E
100
AcDbEntity
  8
0
100
AcDbLine
 10
4.715551181102362
 20
4.625984251968503
 30
0.0
 11
4.731299212598425
 21
4.641732283464566
 31
0.0
  0
LINE
  5
3BBC
330
1E
100
AcDbEntity
  8
0
100
AcDbLine
 10
5.694881889763779
 20
4.093503937007874
 30
0.0
 11
5.694881889763779
 21
4.090551181102362
 31
0.0
  0
LINE
  5
3BBD
330
1E
100
AcDbEntity
  8
0
100
AcDbLine
 10
5.694881889763779
 20
4.090551181102362
 30
0.0
 11
5.694881889763779
 21
4.083661417322834
 31
0.0
  0
LINE
  5
3BBE
330
1E
100
AcDbEntity
  8
0
100
AcDbLine
 10
5.694881889763779
 20
4.05511811023622
 30
0.0
 11
5.694881889763779
 21
4.047244094488188
 31
0.0
  0
LINE
  5
3BBF
330
1E
100
AcDbEntity
  8
0
100
AcDbLine
 10
5.694881889763779
 20
4.047244094488188
 30
0.0
 11
5.694881889763779
 21
4.044291338582676
 31
0.0
  0
LINE
  5
3BC0
330
1E
100
AcDbEntity
  8
0
100
AcDbLine
 10
5.664370078740157
 20
4.326771653543307
 30
0.0
 11
5.679133858267716
 21
4.322834645669291
 31
0.0
  0
LINE
  5
3BC1
330
1E
100
AcDbEntity
  8
0
100
AcDbLine
 10
5.679133858267716
 20
4.322834645669291
 30
0.0
 11
5.690944881889763
 21
4.312007874015748
 31
0.0
  0
LINE
  5
3BC2
330
1E
100
AcDbEntity
  8
0
100
AcDbLine
 10
5.690944881889763
 20
4.312007874015748
 30
0.0
 11
5.694881889763779
 21
4.297244094488188
 31
0.0
  0
LINE
  5
3BC3
330
1E
100
AcDbEntity
  8
0
100
AcDbLine
 10
4.700787401574802
 20
4.61023622047244
 30
0.0
 11
4.684055118110236
 21
4.633858267716535
 31
0.0
  0
LINE
  5
3BC4
330
1E
100
AcDbEntity
  8
0
100
AcDbLine
 10
4.684055118110236
 20
4.633858267716535
 30
0.0
 11
4.6751968503937
 21
4.661417322834645
 31
0.0
  0
LINE
  5
3BC5
330
1E
100
AcDbEntity
  8
0
100
AcDbLine
 10
4.6751968503937
 20
4.661417322834645
 30
0.0
 11
4.6751968503937
 21
4.68996062992126
 31
0.0
  0
LINE
  5
3BC6
330
1E
100
AcDbEntity
  8
0
100
AcDbLine
 10
4.6751968503937
 20
4.68996062992126
 30
0.0
 11
4.684055118110236
 21
4.71751968503937
 31
0.0
  0
LINE
  5
3BC7
330
1E
100
AcDbEntity
  8
0
100
AcDbLine
 10
4.684055118110236
 20
4.71751968503937
 30
0.0
 11
4.700787401574802
 21
4.741141732283464
 31
0.0
  0
LINE
  5
3BC8
330
1E
100
AcDbEntity
  8
0
100
AcDbLine
 10
4.858267716535433
 20
4.452755905511811
 30
0.0
 11
4.861220472440944
 21
4.454724409448818
 31
0.0
  0
LINE
  5
3BC9
330
1E
100
AcDbEntity
  8
0
100
AcDbLine
 10
4.861220472440944
 20
4.454724409448818
 30
0.0
 11
4.867125984251968
 21
4.461614173228346
 31
0.0
  0
LINE
  5
3BCA
330
1E
100
AcDbEntity
  8
0
100
AcDbLine
 10
4.867125984251968
 20
4.461614173228346
 30
0.0
 11
4.876968503937007
 21
4.471456692913386
 31
0.0
  0
LINE
  5
3BCB
330
1E
100
AcDbEntity
  8
0
100
AcDbLine
 10
4.876968503937007
 20
4.471456692913386
 30
0.0
 11
4.888779527559054
 21
4.484251968503937
 31
0.0
  0
LINE
  5
3BCC
330
1E
100
AcDbEntity
  8
0
100
AcDbLine
 10
5.210629921259842
 20
4.028543307086613
 30
0.0
 11
5.196850393700787
 21
4.029527559055117
 31
0.0
  0
LINE
  5
3BCD
330
1E
100
AcDbEntity
  8
0
100
AcDbLine
 10
5.196850393700787
 20
4.029527559055117
 30
0.0
 11
5.186023622047244
 21
4.029527559055117
 31
0.0
  0
LINE
  5
3BCE
330
1E
100
AcDbEntity
  8
0
100
AcDbLine
 10
5.186023622047244
 20
4.029527559055117
 30
0.0
 11
5.182086614173228
 21
4.029527559055117
 31
0.0
  0
LINE
  5
3BCF
330
1E
100
AcDbEntity
  8
0
100
AcDbLine
 10
5.084645669291338
 20
4.127952755905512
 30
0.0
 11
5.068897637795275
 21
4.14763779527559
 31
0.0
  0
LINE
  5
3BD0
330
1E
100
AcDbEntity
  8
0
100
AcDbLine
 10
5.068897637795275
 20
4.14763779527559
 30
0.0
 11
5.059055118110236
 21
4.171259842519685
 31
0.0
  0
LINE
  5
3BD1
330
1E
100
AcDbEntity
  8
0
100
AcDbLine
 10
5.059055118110236
 20
4.171259842519685
 30
0.0
 11
5.056102362204724
 21
4.196850393700787
 31
0.0
  0
LINE
  5
3BD2
330
1E
100
AcDbEntity
  8
0
100
AcDbLine
 10
4.769685039370078
 20
4.603346456692912
 30
0.0
 11
4.74507874015748
 21
4.604330708661417
 31
0.0
  0
LINE
  5
3BD3
330
1E
100
AcDbEntity
  8
0
100
AcDbLine
 10
4.74507874015748
 20
4.604330708661417
 30
0.0
 11
4.723425196850393
 21
4.605314960629921
 31
0.0
  0
LINE
  5
3BD4
330
1E
100
AcDbEntity
  8
0
100
AcDbLine
 10
4.723425196850393
 20
4.605314960629921
 30
0.0
 11
4.709645669291338
 21
4.606299212598425
 31
0.0
  0
LINE
  5
3BD5
330
1E
100
AcDbEntity
  8
0
100
AcDbLine
 10
4.709645669291338
 20
4.606299212598425
 30
0.0
 11
4.704724409448818
 21
4.606299212598425
 31
0.0
  0
LINE
  5
3BD6
330
1E
100
AcDbEntity
  8
0
100
AcDbLine
 10
4.731299212598425
 20
4.709645669291338
 30
0.0
 11
4.721456692913386
 21
4.693897637795275
 31
0.0
  0
LINE
  5
3BD7
330
1E
100
AcDbEntity
  8
0
100
AcDbLine
 10
4.721456692913386
 20
4.693897637795275
 30
0.0
 11
4.71751968503937
 21
4.6751968503937
 31
0.0
  0
LINE
  5
3BD8
330
1E
100
AcDbEntity
  8
0
100
AcDbLine
 10
4.71751968503937
 20
4.6751968503937
 30
0.0
 11
4.721456692913386
 21
4.657480314960629
 31
0.0
  0
LINE
  5
3BD9
330
1E
100
AcDbEntity
  8
0
100
AcDbLine
 10
4.721456692913386
 20
4.657480314960629
 30
0.0
 11
4.731299212598425
 21
4.641732283464566
 31
0.0
  0
LINE
  5
3BDA
330
1E
100
AcDbEntity
  8
0
100
AcDbLine
 10
5.074803149606299
 20
4.196850393700787
 30
0.0
 11
5.080708661417323
 21
4.167322834645669
 31
0.0
  0
LINE
  5
3BDB
330
1E
100
AcDbEntity
  8
0
100
AcDbLine
 10
5.080708661417323
 20
4.167322834645669
 30
0.0
 11
5.097440944881889
 21
4.141732283464566
 31
0.0
  0
LINE
  5
3BDC
330
1E
100
AcDbEntity
  8
0
100
AcDbLine
 10
3.178149606299212
 20
6.750984251968503
 30
0.0
 11
3.178149606299212
 21
6.764763779527559
 31
0.0
  0
LINE
  5
3BDD
330
1E
100
AcDbEntity
  8
0
100
AcDbLine
 10
3.178149606299212
 20
6.764763779527559
 30
0.0
 11
3.178149606299212
 21
6.770669291338582
 31
0.0
  0
LINE
  5
3BDE
330
1E
100
AcDbEntity
  8
0
100
AcDbLine
 10
3.25
 20
6.679133858267716
 30
0.0
 11
3.263779527559055
 21
6.679133858267716
 31
0.0
  0
LINE
  5
3BDF
330
1E
100
AcDbEntity
  8
0
100
AcDbLine
 10
3.263779527559055
 20
6.679133858267716
 30
0.0
 11
3.269685039370078
 21
6.679133858267716
 31
0.0
  0
LINE
  5
3BE0
330
1E
100
AcDbEntity
  8
0
100
AcDbLine
 10
3.25
 20
4.015748031496062
 30
0.0
 11
3.263779527559055
 21
4.015748031496062
 31
0.0
  0
LINE
  5
3BE1
330
1E
100
AcDbEntity
  8
0
100
AcDbLine
 10
3.263779527559055
 20
4.015748031496062
 30
0.0
 11
3.269685039370078
 21
4.015748031496062
 31
0.0
  0
LINE
  5
3BE2
330
1E
100
AcDbEntity
  8
0
100
AcDbLine
 10
3.178149606299212
 20
3.943897637795275
 30
0.0
 11
3.178149606299212
 21
3.93011811023622
 31
0.0
  0
LINE
  5
3BE3
330
1E
100
AcDbEntity
  8
0
100
AcDbLine
 10
3.178149606299212
 20
3.93011811023622
 30
0.0
 11
3.178149606299212
 21
3.924212598425196
 31
0.0
  0
LINE
  5
3BE4
330
1E
100
AcDbEntity
  8
0
100
AcDbLine
 10
1.564960629921259
 20
6.770669291338582
 30
0.0
 11
1.564960629921259
 21
6.764763779527559
 31
0.0
  0
LINE
  5
3BE5
330
1E
100
AcDbEntity
  8
0
100
AcDbLine
 10
1.564960629921259
 20
6.764763779527559
 30
0.0
 11
1.564960629921259
 21
6.750984251968503
 31
0.0
  0
LINE
  5
3BE6
330
1E
100
AcDbEntity
  8
0
100
AcDbLine
 10
1.473425196850393
 20
6.679133858267716
 30
0.0
 11
1.479330708661417
 21
6.679133858267716
 31
0.0
  0
LINE
  5
3BE7
330
1E
100
AcDbEntity
  8
0
100
AcDbLine
 10
1.479330708661417
 20
6.679133858267716
 30
0.0
 11
1.493110236220472
 21
6.679133858267716
 31
0.0
  0
LINE
  5
3BE8
330
1E
100
AcDbEntity
  8
0
100
AcDbLine
 10
1.473425196850393
 20
4.015748031496062
 30
0.0
 11
1.479330708661417
 21
4.015748031496062
 31
0.0
  0
LINE
  5
3BE9
330
1E
100
AcDbEntity
  8
0
100
AcDbLine
 10
1.479330708661417
 20
4.015748031496062
 30
0.0
 11
1.493110236220472
 21
4.015748031496062
 31
0.0
  0
LINE
  5
3BEA
330
1E
100
AcDbEntity
  8
0
100
AcDbLine
 10
1.564960629921259
 20
3.924212598425196
 30
0.0
 11
1.564960629921259
 21
3.93011811023622
 31
0.0
  0
LINE
  5
3BEB
330
1E
100
AcDbEntity
  8
0
100
AcDbLine
 10
1.564960629921259
 20
3.93011811023622
 30
0.0
 11
1.564960629921259
 21
3.943897637795275
 31
0.0
  0
LINE
  5
3BEC
330
1E
100
AcDbEntity
  8
0
100
AcDbLine
 10
3.178149606299212
 20
6.770669291338582
 30
0.0
 11
3.206692913385826
 21
6.766732283464566
 31
0.0
  0
LINE
  5
3BED
330
1E
100
AcDbEntity
  8
0
100
AcDbLine
 10
3.206692913385826
 20
6.766732283464566
 30
0.0
 11
3.232283464566929
 21
6.753937007874015
 31
0.0
  0
LINE
  5
3BEE
330
1E
100
AcDbEntity
  8
0
100
AcDbLine
 10
3.232283464566929
 20
6.753937007874015
 30
0.0
 11
3.252952755905511
 21
6.733267716535433
 31
0.0
  0
LINE
  5
3BEF
330
1E
100
AcDbEntity
  8
0
100
AcDbLine
 10
3.252952755905511
 20
6.733267716535433
 30
0.0
 11
3.265748031496062
 21
6.70767716535433
 31
0.0
  0
LINE
  5
3BF0
330
1E
100
AcDbEntity
  8
0
100
AcDbLine
 10
3.265748031496062
 20
6.70767716535433
 30
0.0
 11
3.269685039370078
 21
6.679133858267716
 31
0.0
  0
LINE
  5
3BF1
330
1E
100
AcDbEntity
  8
0
100
AcDbLine
 10
3.269685039370078
 20
4.015748031496062
 30
0.0
 11
3.265748031496062
 21
3.987204724409448
 31
0.0
  0
LINE
  5
3BF2
330
1E
100
AcDbEntity
  8
0
100
AcDbLine
 10
3.265748031496062
 20
3.987204724409448
 30
0.0
 11
3.252952755905511
 21
3.961614173228346
 31
0.0
  0
LINE
  5
3BF3
330
1E
100
AcDbEntity
  8
0
100
AcDbLine
 10
3.252952755905511
 20
3.961614173228346
 30
0.0
 11
3.232283464566929
 21
3.941929133858267
 31
0.0
  0
LINE
  5
3BF4
330
1E
100
AcDbEntity
  8
0
100
AcDbLine
 10
3.232283464566929
 20
3.941929133858267
 30
0.0
 11
3.206692913385826
 21
3.928149606299212
 31
0.0
  0
LINE
  5
3BF5
330
1E
100
AcDbEntity
  8
0
100
AcDbLine
 10
3.206692913385826
 20
3.928149606299212
 30
0.0
 11
3.178149606299212
 21
3.924212598425196
 31
0.0
  0
LINE
  5
3BF6
330
1E
100
AcDbEntity
  8
0
100
AcDbLine
 10
3.270669291338582
 20
6.68011811023622
 30
0.0
 11
3.266732283464566
 21
6.708661417322834
 31
0.0
  0
LINE
  5
3BF7
330
1E
100
AcDbEntity
  8
0
100
AcDbLine
 10
3.266732283464566
 20
6.708661417322834
 30
0.0
 11
3.252952755905511
 21
6.734251968503937
 31
0.0
  0
LINE
  5
3BF8
330
1E
100
AcDbEntity
  8
0
100
AcDbLine
 10
3.252952755905511
 20
6.734251968503937
 30
0.0
 11
3.233267716535432
 21
6.753937007874015
 31
0.0
  0
LINE
  5
3BF9
330
1E
100
AcDbEntity
  8
0
100
AcDbLine
 10
3.233267716535432
 20
6.753937007874015
 30
0.0
 11
3.20767716535433
 21
6.76771653543307
 31
0.0
  0
LINE
  5
3BFA
330
1E
100
AcDbEntity
  8
0
100
AcDbLine
 10
3.20767716535433
 20
6.76771653543307
 30
0.0
 11
3.179133858267716
 21
6.771653543307086
 31
0.0
  0
LINE
  5
3BFB
330
1E
100
AcDbEntity
  8
0
100
AcDbLine
 10
3.179133858267716
 20
3.923228346456692
 30
0.0
 11
3.20767716535433
 21
3.928149606299212
 31
0.0
  0
LINE
  5
3BFC
330
1E
100
AcDbEntity
  8
0
100
AcDbLine
 10
3.20767716535433
 20
3.928149606299212
 30
0.0
 11
3.233267716535432
 21
3.940944881889763
 31
0.0
  0
LINE
  5
3BFD
330
1E
100
AcDbEntity
  8
0
100
AcDbLine
 10
3.233267716535432
 20
3.940944881889763
 30
0.0
 11
3.252952755905511
 21
3.960629921259842
 31
0.0
  0
LINE
  5
3BFE
330
1E
100
AcDbEntity
  8
0
100
AcDbLine
 10
3.252952755905511
 20
3.960629921259842
 30
0.0
 11
3.266732283464566
 21
3.986220472440944
 31
0.0
  0
LINE
  5
3BFF
330
1E
100
AcDbEntity
  8
0
100
AcDbLine
 10
3.266732283464566
 20
3.986220472440944
 30
0.0
 11
3.270669291338582
 21
4.014763779527559
 31
0.0
  0
LINE
  5
3C00
330
1E
100
AcDbEntity
  8
0
100
AcDbLine
 10
1.473425196850393
 20
6.679133858267716
 30
0.0
 11
1.477362204724409
 21
6.70767716535433
 31
0.0
  0
LINE
  5
3C01
330
1E
100
AcDbEntity
  8
0
100
AcDbLine
 10
1.477362204724409
 20
6.70767716535433
 30
0.0
 11
1.491141732283464
 21
6.733267716535433
 31
0.0
  0
LINE
  5
3C02
330
1E
100
AcDbEntity
  8
0
100
AcDbLine
 10
1.491141732283464
 20
6.733267716535433
 30
0.0
 11
1.510826771653543
 21
6.753937007874015
 31
0.0
  0
LINE
  5
3C03
330
1E
100
AcDbEntity
  8
0
100
AcDbLine
 10
1.510826771653543
 20
6.753937007874015
 30
0.0
 11
1.536417322834645
 21
6.766732283464566
 31
0.0
  0
LINE
  5
3C04
330
1E
100
AcDbEntity
  8
0
100
AcDbLine
 10
1.536417322834645
 20
6.766732283464566
 30
0.0
 11
1.564960629921259
 21
6.770669291338582
 31
0.0
  0
LINE
  5
3C05
330
1E
100
AcDbEntity
  8
0
100
AcDbLine
 10
1.564960629921259
 20
3.924212598425196
 30
0.0
 11
1.536417322834645
 21
3.928149606299212
 31
0.0
  0
LINE
  5
3C06
330
1E
100
AcDbEntity
  8
0
100
AcDbLine
 10
1.536417322834645
 20
3.928149606299212
 30
0.0
 11
1.510826771653543
 21
3.941929133858267
 31
0.0
  0
LINE
  5
3C07
330
1E
100
AcDbEntity
  8
0
100
AcDbLine
 10
1.510826771653543
 20
3.941929133858267
 30
0.0
 11
1.491141732283464
 21
3.961614173228346
 31
0.0
  0
LINE
  5
3C08
330
1E
100
AcDbEntity
  8
0
100
AcDbLine
 10
1.491141732283464
 20
3.961614173228346
 30
0.0
 11
1.477362204724409
 21
3.987204724409448
 31
0.0
  0
LINE
  5
3C09
330
1E
100
AcDbEntity
  8
0
100
AcDbLine
 10
1.477362204724409
 20
3.987204724409448
 30
0.0
 11
1.473425196850393
 21
4.015748031496062
 31
0.0
  0
LINE
  5
3C0A
330
1E
100
AcDbEntity
  8
0
100
AcDbLine
 10
1.472440944881889
 20
4.014763779527559
 30
0.0
 11
1.477362204724409
 21
3.986220472440944
 31
0.0
  0
LINE
  5
3C0B
330
1E
100
AcDbEntity
  8
0
100
AcDbLine
 10
1.477362204724409
 20
3.986220472440944
 30
0.0
 11
1.49015748031496
 21
3.960629921259842
 31
0.0
  0
LINE
  5
3C0C
330
1E
100
AcDbEntity
  8
0
100
AcDbLine
 10
1.49015748031496
 20
3.960629921259842
 30
0.0
 11
1.509842519685039
 21
3.940944881889763
 31
0.0
  0
LINE
  5
3C0D
330
1E
100
AcDbEntity
  8
0
100
AcDbLine
 10
1.509842519685039
 20
3.940944881889763
 30
0.0
 11
1.535433070866141
 21
3.928149606299212
 31
0.0
  0
LINE
  5
3C0E
330
1E
100
AcDbEntity
  8
0
100
AcDbLine
 10
1.535433070866141
 20
3.928149606299212
 30
0.0
 11
1.563976377952755
 21
3.923228346456692
 31
0.0
  0
LINE
  5
3C0F
330
1E
100
AcDbEntity
  8
0
100
AcDbLine
 10
1.563976377952755
 20
6.771653543307086
 30
0.0
 11
1.535433070866141
 21
6.76771653543307
 31
0.0
  0
LINE
  5
3C10
330
1E
100
AcDbEntity
  8
0
100
AcDbLine
 10
1.535433070866141
 20
6.76771653543307
 30
0.0
 11
1.509842519685039
 21
6.753937007874015
 31
0.0
  0
LINE
  5
3C11
330
1E
100
AcDbEntity
  8
0
100
AcDbLine
 10
1.509842519685039
 20
6.753937007874015
 30
0.0
 11
1.49015748031496
 21
6.734251968503937
 31
0.0
  0
LINE
  5
3C12
330
1E
100
AcDbEntity
  8
0
100
AcDbLine
 10
1.49015748031496
 20
6.734251968503937
 30
0.0
 11
1.477362204724409
 21
6.708661417322834
 31
0.0
  0
LINE
  5
3C13
330
1E
100
AcDbEntity
  8
0
100
AcDbLine
 10
1.477362204724409
 20
6.708661417322834
 30
0.0
 11
1.472440944881889
 21
6.68011811023622
 31
0.0
  0
LINE
  5
3C14
330
1E
100
AcDbEntity
  8
0
100
AcDbLine
 10
1.472440944881889
 20
4.014763779527559
 30
0.0
 11
1.477362204724409
 21
3.986220472440944
 31
0.0
  0
LINE
  5
3C15
330
1E
100
AcDbEntity
  8
0
100
AcDbLine
 10
1.477362204724409
 20
3.986220472440944
 30
0.0
 11
1.49015748031496
 21
3.960629921259842
 31
0.0
  0
LINE
  5
3C16
330
1E
100
AcDbEntity
  8
0
100
AcDbLine
 10
1.49015748031496
 20
3.960629921259842
 30
0.0
 11
1.509842519685039
 21
3.940944881889763
 31
0.0
  0
LINE
  5
3C17
330
1E
100
AcDbEntity
  8
0
100
AcDbLine
 10
1.509842519685039
 20
3.940944881889763
 30
0.0
 11
1.535433070866141
 21
3.928149606299212
 31
0.0
  0
LINE
  5
3C18
330
1E
100
AcDbEntity
  8
0
100
AcDbLine
 10
1.535433070866141
 20
3.928149606299212
 30
0.0
 11
1.563976377952755
 21
3.923228346456692
 31
0.0
  0
LINE
  5
3C19
330
1E
100
AcDbEntity
  8
0
100
AcDbLine
 10
1.563976377952755
 20
6.771653543307086
 30
0.0
 11
1.535433070866141
 21
6.76771653543307
 31
0.0
  0
LINE
  5
3C1A
330
1E
100
AcDbEntity
  8
0
100
AcDbLine
 10
1.535433070866141
 20
6.76771653543307
 30
0.0
 11
1.509842519685039
 21
6.753937007874015
 31
0.0
  0
LINE
  5
3C1B
330
1E
100
AcDbEntity
  8
0
100
AcDbLine
 10
1.509842519685039
 20
6.753937007874015
 30
0.0
 11
1.49015748031496
 21
6.734251968503937
 31
0.0
  0
LINE
  5
3C1C
330
1E
100
AcDbEntity
  8
0
100
AcDbLine
 10
1.49015748031496
 20
6.734251968503937
 30
0.0
 11
1.477362204724409
 21
6.708661417322834
 31
0.0
  0
LINE
  5
3C1D
330
1E
100
AcDbEntity
  8
0
100
AcDbLine
 10
1.477362204724409
 20
6.708661417322834
 30
0.0
 11
1.472440944881889
 21
6.68011811023622
 31
0.0
  0
LINE
  5
3C1E
330
1E
100
AcDbEntity
  8
0
100
AcDbLine
 10
3.270669291338582
 20
6.68011811023622
 30
0.0
 11
3.266732283464566
 21
6.708661417322834
 31
0.0
  0
LINE
  5
3C1F
330
1E
100
AcDbEntity
  8
0
100
AcDbLine
 10
3.266732283464566
 20
6.708661417322834
 30
0.0
 11
3.252952755905511
 21
6.734251968503937
 31
0.0
  0
LINE
  5
3C20
330
1E
100
AcDbEntity
  8
0
100
AcDbLine
 10
3.252952755905511
 20
6.734251968503937
 30
0.0
 11
3.233267716535432
 21
6.753937007874015
 31
0.0
  0
LINE
  5
3C21
330
1E
100
AcDbEntity
  8
0
100
AcDbLine
 10
3.233267716535432
 20
6.753937007874015
 30
0.0
 11
3.20767716535433
 21
6.76771653543307
 31
0.0
  0
LINE
  5
3C22
330
1E
100
AcDbEntity
  8
0
100
AcDbLine
 10
3.20767716535433
 20
6.76771653543307
 30
0.0
 11
3.179133858267716
 21
6.771653543307086
 31
0.0
  0
LINE
  5
3C23
330
1E
100
AcDbEntity
  8
0
100
AcDbLine
 10
3.179133858267716
 20
3.923228346456692
 30
0.0
 11
3.20767716535433
 21
3.928149606299212
 31
0.0
  0
LINE
  5
3C24
330
1E
100
AcDbEntity
  8
0
100
AcDbLine
 10
3.20767716535433
 20
3.928149606299212
 30
0.0
 11
3.233267716535432
 21
3.940944881889763
 31
0.0
  0
LINE
  5
3C25
330
1E
100
AcDbEntity
  8
0
100
AcDbLine
 10
3.233267716535432
 20
3.940944881889763
 30
0.0
 11
3.252952755905511
 21
3.960629921259842
 31
0.0
  0
LINE
  5
3C26
330
1E
100
AcDbEntity
  8
0
100
AcDbLine
 10
3.252952755905511
 20
3.960629921259842
 30
0.0
 11
3.266732283464566
 21
3.986220472440944
 31
0.0
  0
LINE
  5
3C27
330
1E
100
AcDbEntity
  8
0
100
AcDbLine
 10
3.266732283464566
 20
3.986220472440944
 30
0.0
 11
3.270669291338582
 21
4.014763779527559
 31
0.0
  0
LINE
  5
3C28
330
1E
100
AcDbEntity
  8
0
100
AcDbLine
 10
3.081692913385826
 20
6.294291338582676
 30
0.0
 11
3.089566929133858
 21
6.297244094488188
 31
0.0
  0
LINE
  5
3C29
330
1E
100
AcDbEntity
  8
0
100
AcDbLine
 10
3.089566929133858
 20
6.297244094488188
 30
0.0
 11
3.092519685039369
 21
6.304133858267716
 31
0.0
  0
LINE
  5
3C2A
330
1E
100
AcDbEntity
  8
0
100
AcDbLine
 10
3.092519685039369
 20
6.643700787401574
 30
0.0
 11
3.089566929133858
 21
6.650590551181101
 31
0.0
  0
LINE
  5
3C2B
330
1E
100
AcDbEntity
  8
0
100
AcDbLine
 10
3.089566929133858
 20
6.650590551181101
 30
0.0
 11
3.081692913385826
 21
6.653543307086613
 31
0.0
  0
LINE
  5
3C2C
330
1E
100
AcDbEntity
  8
0
100
AcDbLine
 10
1.651574803149606
 20
6.304133858267716
 30
0.0
 11
1.654527559055118
 21
6.297244094488188
 31
0.0
  0
LINE
  5
3C2D
330
1E
100
AcDbEntity
  8
0
100
AcDbLine
 10
1.654527559055118
 20
6.297244094488188
 30
0.0
 11
1.661417322834645
 21
6.294291338582676
 31
0.0
  0
LINE
  5
3C2E
330
1E
100
AcDbEntity
  8
0
100
AcDbLine
 10
1.661417322834645
 20
6.653543307086613
 30
0.0
 11
1.654527559055118
 21
6.650590551181101
 31
0.0
  0
LINE
  5
3C2F
330
1E
100
AcDbEntity
  8
0
100
AcDbLine
 10
1.654527559055118
 20
6.650590551181101
 30
0.0
 11
1.651574803149606
 21
6.643700787401574
 31
0.0
  0
LINE
  5
3C30
330
1E
100
AcDbEntity
  8
0
100
AcDbLine
 10
3.209645669291338
 20
4.622047244094487
 30
0.0
 11
3.215551181102362
 21
4.625
 31
0.0
  0
LINE
  5
3C31
330
1E
100
AcDbEntity
  8
0
100
AcDbLine
 10
3.215551181102362
 20
4.625
 30
0.0
 11
3.217519685039369
 21
4.630905511811023
 31
0.0
  0
LINE
  5
3C32
330
1E
100
AcDbEntity
  8
0
100
AcDbLine
 10
3.15748031496063
 20
4.614173228346456
 30
0.0
 11
3.160433070866141
 21
4.62007874015748
 31
0.0
  0
LINE
  5
3C33
330
1E
100
AcDbEntity
  8
0
100
AcDbLine
 10
3.160433070866141
 20
4.62007874015748
 30
0.0
 11
3.166338582677165
 21
4.622047244094487
 31
0.0
  0
LINE
  5
3C34
330
1E
100
AcDbEntity
  8
0
100
AcDbLine
 10
3.166338582677165
 20
4.770669291338582
 30
0.0
 11
3.160433070866141
 21
4.773622047244094
 31
0.0
  0
LINE
  5
3C35
330
1E
100
AcDbEntity
  8
0
100
AcDbLine
 10
3.160433070866141
 20
4.773622047244094
 30
0.0
 11
3.15748031496063
 21
4.778543307086613
 31
0.0
  0
LINE
  5
3C36
330
1E
100
AcDbEntity
  8
0
100
AcDbLine
 10
3.217519685039369
 20
4.76279527559055
 30
0.0
 11
3.215551181102362
 21
4.768700787401574
 31
0.0
  0
LINE
  5
3C37
330
1E
100
AcDbEntity
  8
0
100
AcDbLine
 10
3.215551181102362
 20
4.768700787401574
 30
0.0
 11
3.209645669291338
 21
4.770669291338582
 31
0.0
  0
LINE
  5
3C38
330
1E
100
AcDbEntity
  8
0
100
AcDbLine
 10
1.577755905511811
 20
4.622047244094487
 30
0.0
 11
1.58267716535433
 21
4.62007874015748
 31
0.0
  0
LINE
  5
3C39
330
1E
100
AcDbEntity
  8
0
100
AcDbLine
 10
1.58267716535433
 20
4.62007874015748
 30
0.0
 11
1.585629921259842
 21
4.614173228346456
 31
0.0
  0
LINE
  5
3C3A
330
1E
100
AcDbEntity
  8
0
100
AcDbLine
 10
1.525590551181102
 20
4.630905511811023
 30
0.0
 11
1.52755905511811
 21
4.625
 31
0.0
  0
LINE
  5
3C3B
330
1E
100
AcDbEntity
  8
0
100
AcDbLine
 10
1.52755905511811
 20
4.625
 30
0.0
 11
1.533464566929133
 21
4.622047244094487
 31
0.0
  0
LINE
  5
3C3C
330
1E
100
AcDbEntity
  8
0
100
AcDbLine
 10
1.533464566929133
 20
4.770669291338582
 30
0.0
 11
1.52755905511811
 21
4.768700787401574
 31
0.0
  0
LINE
  5
3C3D
330
1E
100
AcDbEntity
  8
0
100
AcDbLine
 10
1.52755905511811
 20
4.768700787401574
 30
0.0
 11
1.525590551181102
 21
4.76279527559055
 31
0.0
  0
LINE
  5
3C3E
330
1E
100
AcDbEntity
  8
0
100
AcDbLine
 10
1.585629921259842
 20
4.778543307086613
 30
0.0
 11
1.58267716535433
 21
4.773622047244094
 31
0.0
  0
LINE
  5
3C3F
330
1E
100
AcDbEntity
  8
0
100
AcDbLine
 10
1.58267716535433
 20
4.773622047244094
 30
0.0
 11
1.577755905511811
 21
4.770669291338582
 31
0.0
  0
LINE
  5
3C40
330
1E
100
AcDbEntity
  8
0
100
AcDbLine
 10
2.533464566929133
 20
6.750984251968503
 30
0.0
 11
2.53248031496063
 21
6.764763779527559
 31
0.0
  0
LINE
  5
3C41
330
1E
100
AcDbEntity
  8
0
100
AcDbLine
 10
2.53248031496063
 20
6.764763779527559
 30
0.0
 11
2.53248031496063
 21
6.770669291338582
 31
0.0
  0
LINE
  5
3C42
330
1E
100
AcDbEntity
  8
0
100
AcDbLine
 10
2.210629921259842
 20
6.770669291338582
 30
0.0
 11
2.210629921259842
 21
6.764763779527559
 31
0.0
  0
LINE
  5
3C43
330
1E
100
AcDbEntity
  8
0
100
AcDbLine
 10
2.210629921259842
 20
6.764763779527559
 30
0.0
 11
2.209645669291338
 21
6.750984251968503
 31
0.0
  0
LINE
  5
3C44
330
1E
100
AcDbEntity
  8
0
100
AcDbLine
 10
2.53248031496063
 20
3.924212598425196
 30
0.0
 11
2.53248031496063
 21
3.93011811023622
 31
0.0
  0
LINE
  5
3C45
330
1E
100
AcDbEntity
  8
0
100
AcDbLine
 10
2.53248031496063
 20
3.93011811023622
 30
0.0
 11
2.533464566929133
 21
3.943897637795275
 31
0.0
  0
LINE
  5
3C46
330
1E
100
AcDbEntity
  8
0
100
AcDbLine
 10
2.209645669291338
 20
3.943897637795275
 30
0.0
 11
2.210629921259842
 21
3.93011811023622
 31
0.0
  0
LINE
  5
3C47
330
1E
100
AcDbEntity
  8
0
100
AcDbLine
 10
2.210629921259842
 20
3.93011811023622
 30
0.0
 11
2.210629921259842
 21
3.924212598425196
 31
0.0
  0
LINE
  5
3C48
330
1E
100
AcDbEntity
  8
0
100
AcDbLine
 10
3.178149606299212
 20
3.943897637795275
 30
0.0
 11
3.200787401574803
 21
3.947834645669291
 31
0.0
  0
LINE
  5
3C49
330
1E
100
AcDbEntity
  8
0
100
AcDbLine
 10
3.200787401574803
 20
3.947834645669291
 30
0.0
 11
3.220472440944881
 21
3.95767716535433
 31
0.0
  0
LINE
  5
3C4A
330
1E
100
AcDbEntity
  8
0
100
AcDbLine
 10
3.220472440944881
 20
3.95767716535433
 30
0.0
 11
3.236220472440944
 21
3.973425196850393
 31
0.0
  0
LINE
  5
3C4B
330
1E
100
AcDbEntity
  8
0
100
AcDbLine
 10
3.236220472440944
 20
3.973425196850393
 30
0.0
 11
3.246062992125984
 21
3.993110236220472
 31
0.0
  0
LINE
  5
3C4C
330
1E
100
AcDbEntity
  8
0
100
AcDbLine
 10
3.246062992125984
 20
3.993110236220472
 30
0.0
 11
3.25
 21
4.015748031496062
 31
0.0
  0
LINE
  5
3C4D
330
1E
100
AcDbEntity
  8
0
100
AcDbLine
 10
1.493110236220472
 20
4.015748031496062
 30
0.0
 11
1.497047244094488
 21
3.993110236220472
 31
0.0
  0
LINE
  5
3C4E
330
1E
100
AcDbEntity
  8
0
100
AcDbLine
 10
1.497047244094488
 20
3.993110236220472
 30
0.0
 11
1.506889763779527
 21
3.973425196850393
 31
0.0
  0
LINE
  5
3C4F
330
1E
100
AcDbEntity
  8
0
100
AcDbLine
 10
1.506889763779527
 20
3.973425196850393
 30
0.0
 11
1.52263779527559
 21
3.95767716535433
 31
0.0
  0
LINE
  5
3C50
330
1E
100
AcDbEntity
  8
0
100
AcDbLine
 10
1.52263779527559
 20
3.95767716535433
 30
0.0
 11
1.542322834645669
 21
3.947834645669291
 31
0.0
  0
LINE
  5
3C51
330
1E
100
AcDbEntity
  8
0
100
AcDbLine
 10
1.542322834645669
 20
3.947834645669291
 30
0.0
 11
1.564960629921259
 21
3.943897637795275
 31
0.0
  0
LINE
  5
3C52
330
1E
100
AcDbEntity
  8
0
100
AcDbLine
 10
1.564960629921259
 20
6.750984251968503
 30
0.0
 11
1.542322834645669
 21
6.747047244094487
 31
0.0
  0
LINE
  5
3C53
330
1E
100
AcDbEntity
  8
0
100
AcDbLine
 10
1.542322834645669
 20
6.747047244094487
 30
0.0
 11
1.52263779527559
 21
6.737204724409449
 31
0.0
  0
LINE
  5
3C54
330
1E
100
AcDbEntity
  8
0
100
AcDbLine
 10
1.52263779527559
 20
6.737204724409449
 30
0.0
 11
1.506889763779527
 21
6.721456692913386
 31
0.0
  0
LINE
  5
3C55
330
1E
100
AcDbEntity
  8
0
100
AcDbLine
 10
1.506889763779527
 20
6.721456692913386
 30
0.0
 11
1.497047244094488
 21
6.701771653543307
 31
0.0
  0
LINE
  5
3C56
330
1E
100
AcDbEntity
  8
0
100
AcDbLine
 10
1.497047244094488
 20
6.701771653543307
 30
0.0
 11
1.493110236220472
 21
6.679133858267716
 31
0.0
  0
LINE
  5
3C57
330
1E
100
AcDbEntity
  8
0
100
AcDbLine
 10
3.25
 20
6.679133858267716
 30
0.0
 11
3.246062992125984
 21
6.701771653543307
 31
0.0
  0
LINE
  5
3C58
330
1E
100
AcDbEntity
  8
0
100
AcDbLine
 10
3.246062992125984
 20
6.701771653543307
 30
0.0
 11
3.236220472440944
 21
6.721456692913386
 31
0.0
  0
LINE
  5
3C59
330
1E
100
AcDbEntity
  8
0
100
AcDbLine
 10
3.236220472440944
 20
6.721456692913386
 30
0.0
 11
3.220472440944881
 21
6.737204724409449
 31
0.0
  0
LINE
  5
3C5A
330
1E
100
AcDbEntity
  8
0
100
AcDbLine
 10
3.220472440944881
 20
6.737204724409449
 30
0.0
 11
3.200787401574803
 21
6.747047244094487
 31
0.0
  0
LINE
  5
3C5B
330
1E
100
AcDbEntity
  8
0
100
AcDbLine
 10
3.200787401574803
 20
6.747047244094487
 30
0.0
 11
3.178149606299212
 21
6.750984251968503
 31
0.0
  0
LINE
  5
3C5C
330
1E
100
AcDbEntity
  8
0
100
AcDbLine
 10
1.573818897637795
 20
4.77755905511811
 30
0.0
 11
1.579724409448818
 21
4.779527559055117
 31
0.0
  0
LINE
  5
3C5D
330
1E
100
AcDbEntity
  8
0
100
AcDbLine
 10
1.579724409448818
 20
4.779527559055117
 30
0.0
 11
1.581692913385826
 21
4.785433070866141
 31
0.0
  0
LINE
  5
3C5E
330
1E
100
AcDbEntity
  8
0
100
AcDbLine
 10
1.518700787401574
 20
4.769685039370078
 30
0.0
 11
1.521653543307086
 21
4.775590551181101
 31
0.0
  0
LINE
  5
3C5F
330
1E
100
AcDbEntity
  8
0
100
AcDbLine
 10
1.521653543307086
 20
4.775590551181101
 30
0.0
 11
1.526574803149606
 21
4.77755905511811
 31
0.0
  0
LINE
  5
3C60
330
1E
100
AcDbEntity
  8
0
100
AcDbLine
 10
1.526574803149606
 20
4.616141732283464
 30
0.0
 11
1.521653543307086
 21
4.618110236220472
 31
0.0
  0
LINE
  5
3C61
330
1E
100
AcDbEntity
  8
0
100
AcDbLine
 10
1.521653543307086
 20
4.618110236220472
 30
0.0
 11
1.518700787401574
 21
4.624015748031496
 31
0.0
  0
LINE
  5
3C62
330
1E
100
AcDbEntity
  8
0
100
AcDbLine
 10
1.581692913385826
 20
4.608267716535433
 30
0.0
 11
1.579724409448818
 21
4.613188976377952
 31
0.0
  0
LINE
  5
3C63
330
1E
100
AcDbEntity
  8
0
100
AcDbLine
 10
1.579724409448818
 20
4.613188976377952
 30
0.0
 11
1.573818897637795
 21
4.616141732283464
 31
0.0
  0
LINE
  5
3C64
330
1E
100
AcDbEntity
  8
0
100
AcDbLine
 10
3.169291338582677
 20
4.616141732283464
 30
0.0
 11
3.163385826771653
 21
4.613188976377952
 31
0.0
  0
LINE
  5
3C65
330
1E
100
AcDbEntity
  8
0
100
AcDbLine
 10
3.163385826771653
 20
4.613188976377952
 30
0.0
 11
3.161417322834645
 21
4.608267716535433
 31
0.0
  0
LINE
  5
3C66
330
1E
100
AcDbEntity
  8
0
100
AcDbLine
 10
3.224409448818897
 20
4.624015748031496
 30
0.0
 11
3.222440944881889
 21
4.618110236220472
 31
0.0
  0
LINE
  5
3C67
330
1E
100
AcDbEntity
  8
0
100
AcDbLine
 10
3.222440944881889
 20
4.618110236220472
 30
0.0
 11
3.216535433070866
 21
4.616141732283464
 31
0.0
  0
LINE
  5
3C68
330
1E
100
AcDbEntity
  8
0
100
AcDbLine
 10
3.216535433070866
 20
4.77755905511811
 30
0.0
 11
3.222440944881889
 21
4.775590551181101
 31
0.0
  0
LINE
  5
3C69
330
1E
100
AcDbEntity
  8
0
100
AcDbLine
 10
3.222440944881889
 20
4.775590551181101
 30
0.0
 11
3.224409448818897
 21
4.769685039370078
 31
0.0
  0
LINE
  5
3C6A
330
1E
100
AcDbEntity
  8
0
100
AcDbLine
 10
3.161417322834645
 20
4.785433070866141
 30
0.0
 11
3.163385826771653
 21
4.779527559055117
 31
0.0
  0
LINE
  5
3C6B
330
1E
100
AcDbEntity
  8
0
100
AcDbLine
 10
3.163385826771653
 20
4.779527559055117
 30
0.0
 11
3.169291338582677
 21
4.77755905511811
 31
0.0
  0
LINE
  5
3C6C
330
1E
100
AcDbEntity
  8
0
100
AcDbLine
 10
3.08267716535433
 20
6.653543307086613
 30
0.0
 11
3.089566929133858
 21
6.650590551181101
 31
0.0
  0
LINE
  5
3C6D
330
1E
100
AcDbEntity
  8
0
100
AcDbLine
 10
3.089566929133858
 20
6.650590551181101
 30
0.0
 11
3.092519685039369
 21
6.643700787401574
 31
0.0
  0
LINE
  5
3C6E
330
1E
100
AcDbEntity
  8
0
100
AcDbLine
 10
1.650590551181102
 20
6.643700787401574
 30
0.0
 11
1.653543307086614
 21
6.650590551181101
 31
0.0
  0
LINE
  5
3C6F
330
1E
100
AcDbEntity
  8
0
100
AcDbLine
 10
1.653543307086614
 20
6.650590551181101
 30
0.0
 11
1.660433070866141
 21
6.653543307086613
 31
0.0
  0
LINE
  5
3C70
330
1E
100
AcDbEntity
  8
0
100
AcDbLine
 10
1.660433070866141
 20
6.294291338582676
 30
0.0
 11
1.653543307086614
 21
6.297244094488188
 31
0.0
  0
LINE
  5
3C71
330
1E
100
AcDbEntity
  8
0
100
AcDbLine
 10
1.653543307086614
 20
6.297244094488188
 30
0.0
 11
1.650590551181102
 21
6.304133858267716
 31
0.0
  0
LINE
  5
3C72
330
1E
100
AcDbEntity
  8
0
100
AcDbLine
 10
3.092519685039369
 20
6.304133858267716
 30
0.0
 11
3.089566929133858
 21
6.297244094488188
 31
0.0
  0
LINE
  5
3C73
330
1E
100
AcDbEntity
  8
0
100
AcDbLine
 10
3.089566929133858
 20
6.297244094488188
 30
0.0
 11
3.08267716535433
 21
6.294291338582676
 31
0.0
  0
LINE
  5
3C74
330
1E
100
AcDbEntity
  8
0
100
AcDbLine
 10
1.661417322834645
 20
5.363188976377952
 30
0.0
 11
1.660433070866141
 21
5.36515748031496
 31
0.0
  0
LINE
  5
3C75
330
1E
100
AcDbEntity
  8
0
100
AcDbLine
 10
1.660433070866141
 20
5.36515748031496
 30
0.0
 11
1.659448818897637
 21
5.368110236220472
 31
0.0
  0
LINE
  5
3C76
330
1E
100
AcDbEntity
  8
0
100
AcDbLine
 10
3.083661417322834
 20
5.368110236220472
 30
0.0
 11
3.08267716535433
 21
5.36515748031496
 31
0.0
  0
LINE
  5
3C77
330
1E
100
AcDbEntity
  8
0
100
AcDbLine
 10
3.08267716535433
 20
5.36515748031496
 30
0.0
 11
3.08267716535433
 21
5.363188976377952
 31
0.0
  0
LINE
  5
3C78
330
1E
100
AcDbEntity
  8
0
100
AcDbLine
 10
1.56003937007874
 20
3.861220472440944
 30
0.0
 11
1.56003937007874
 21
3.847440944881889
 31
0.0
  0
LINE
  5
3C79
330
1E
100
AcDbEntity
  8
0
100
AcDbLine
 10
1.56003937007874
 20
3.847440944881889
 30
0.0
 11
1.56003937007874
 21
3.841535433070866
 31
0.0
  0
LINE
  5
3C7A
330
1E
100
AcDbEntity
  8
0
100
AcDbLine
 10
3.183070866141732
 20
3.841535433070866
 30
0.0
 11
3.183070866141732
 21
3.847440944881889
 31
0.0
  0
LINE
  5
3C7B
330
1E
100
AcDbEntity
  8
0
100
AcDbLine
 10
3.183070866141732
 20
3.847440944881889
 30
0.0
 11
3.183070866141732
 21
3.861220472440944
 31
0.0
  0
LINE
  5
3C7C
330
1E
100
AcDbEntity
  8
0
100
AcDbLine
 10
1.410433070866141
 20
4.010826771653543
 30
0.0
 11
1.396653543307086
 21
4.010826771653543
 31
0.0
  0
LINE
  5
3C7D
330
1E
100
AcDbEntity
  8
0
100
AcDbLine
 10
1.396653543307086
 20
4.010826771653543
 30
0.0
 11
1.389763779527559
 21
4.010826771653543
 31
0.0
  0
LINE
  5
3C7E
330
1E
100
AcDbEntity
  8
0
100
AcDbLine
 10
3.353346456692913
 20
4.010826771653543
 30
0.0
 11
3.347440944881889
 21
4.010826771653543
 31
0.0
  0
LINE
  5
3C7F
330
1E
100
AcDbEntity
  8
0
100
AcDbLine
 10
3.347440944881889
 20
4.010826771653543
 30
0.0
 11
3.33267716535433
 21
4.010826771653543
 31
0.0
  0
LINE
  5
3C80
330
1E
100
AcDbEntity
  8
0
100
AcDbLine
 10
1.410433070866141
 20
6.684055118110236
 30
0.0
 11
1.396653543307086
 21
6.684055118110236
 31
0.0
  0
LINE
  5
3C81
330
1E
100
AcDbEntity
  8
0
100
AcDbLine
 10
1.396653543307086
 20
6.684055118110236
 30
0.0
 11
1.389763779527559
 21
6.684055118110236
 31
0.0
  0
LINE
  5
3C82
330
1E
100
AcDbEntity
  8
0
100
AcDbLine
 10
3.353346456692913
 20
6.684055118110236
 30
0.0
 11
3.347440944881889
 21
6.684055118110236
 31
0.0
  0
LINE
  5
3C83
330
1E
100
AcDbEntity
  8
0
100
AcDbLine
 10
3.347440944881889
 20
6.684055118110236
 30
0.0
 11
3.33267716535433
 21
6.684055118110236
 31
0.0
  0
LINE
  5
3C84
330
1E
100
AcDbEntity
  8
0
100
AcDbLine
 10
3.183070866141732
 20
6.854330708661417
 30
0.0
 11
3.183070866141732
 21
6.847440944881889
 31
0.0
  0
LINE
  5
3C85
330
1E
100
AcDbEntity
  8
0
100
AcDbLine
 10
3.183070866141732
 20
6.847440944881889
 30
0.0
 11
3.183070866141732
 21
6.833661417322834
 31
0.0
  0
LINE
  5
3C86
330
1E
100
AcDbEntity
  8
0
100
AcDbLine
 10
1.56003937007874
 20
6.833661417322834
 30
0.0
 11
1.56003937007874
 21
6.847440944881889
 31
0.0
  0
LINE
  5
3C87
330
1E
100
AcDbEntity
  8
0
100
AcDbLine
 10
1.56003937007874
 20
6.847440944881889
 30
0.0
 11
1.56003937007874
 21
6.854330708661417
 31
0.0
  0
LINE
  5
3C88
330
1E
100
AcDbEntity
  8
0
100
AcDbLine
 10
1.56003937007874
 20
3.841535433070866
 30
0.0
 11
1.52263779527559
 21
3.845472440944881
 31
0.0
  0
LINE
  5
3C89
330
1E
100
AcDbEntity
  8
0
100
AcDbLine
 10
1.52263779527559
 20
3.845472440944881
 30
0.0
 11
1.486220472440944
 21
3.858267716535432
 31
0.0
  0
LINE
  5
3C8A
330
1E
100
AcDbEntity
  8
0
100
AcDbLine
 10
1.486220472440944
 20
3.858267716535432
 30
0.0
 11
1.453740157480314
 21
3.877952755905511
 31
0.0
  0
LINE
  5
3C8B
330
1E
100
AcDbEntity
  8
0
100
AcDbLine
 10
1.453740157480314
 20
3.877952755905511
 30
0.0
 11
1.427165354330708
 21
3.904527559055118
 31
0.0
  0
LINE
  5
3C8C
330
1E
100
AcDbEntity
  8
0
100
AcDbLine
 10
1.427165354330708
 20
3.904527559055118
 30
0.0
 11
1.406496062992125
 21
3.937007874015748
 31
0.0
  0
LINE
  5
3C8D
330
1E
100
AcDbEntity
  8
0
100
AcDbLine
 10
1.406496062992125
 20
3.937007874015748
 30
0.0
 11
1.394685039370078
 21
3.973425196850393
 31
0.0
  0
LINE
  5
3C8E
330
1E
100
AcDbEntity
  8
0
100
AcDbLine
 10
1.394685039370078
 20
3.973425196850393
 30
0.0
 11
1.389763779527559
 21
4.010826771653543
 31
0.0
  0
LINE
  5
3C8F
330
1E
100
AcDbEntity
  8
0
100
AcDbLine
 10
1.389763779527559
 20
6.684055118110236
 30
0.0
 11
1.394685039370078
 21
6.721456692913386
 31
0.0
  0
LINE
  5
3C90
330
1E
100
AcDbEntity
  8
0
100
AcDbLine
 10
1.394685039370078
 20
6.721456692913386
 30
0.0
 11
1.406496062992125
 21
6.757874015748031
 31
0.0
  0
LINE
  5
3C91
330
1E
100
AcDbEntity
  8
0
100
AcDbLine
 10
1.406496062992125
 20
6.757874015748031
 30
0.0
 11
1.427165354330708
 21
6.790354330708661
 31
0.0
  0
LINE
  5
3C92
330
1E
100
AcDbEntity
  8
0
100
AcDbLine
 10
1.427165354330708
 20
6.790354330708661
 30
0.0
 11
1.453740157480314
 21
6.816929133858267
 31
0.0
  0
LINE
  5
3C93
330
1E
100
AcDbEntity
  8
0
100
AcDbLine
 10
1.453740157480314
 20
6.816929133858267
 30
0.0
 11
1.486220472440944
 21
6.83759842519685
 31
0.0
  0
LINE
  5
3C94
330
1E
100
AcDbEntity
  8
0
100
AcDbLine
 10
1.486220472440944
 20
6.83759842519685
 30
0.0
 11
1.52263779527559
 21
6.849409448818897
 31
0.0
  0
LINE
  5
3C95
330
1E
100
AcDbEntity
  8
0
100
AcDbLine
 10
1.52263779527559
 20
6.849409448818897
 30
0.0
 11
1.56003937007874
 21
6.854330708661417
 31
0.0
  0
LINE
  5
3C96
330
1E
100
AcDbEntity
  8
0
100
AcDbLine
 10
3.183070866141732
 20
6.854330708661417
 30
0.0
 11
3.221456692913385
 21
6.849409448818897
 31
0.0
  0
LINE
  5
3C97
330
1E
100
AcDbEntity
  8
0
100
AcDbLine
 10
3.221456692913385
 20
6.849409448818897
 30
0.0
 11
3.256889763779527
 21
6.83759842519685
 31
0.0
  0
LINE
  5
3C98
330
1E
100
AcDbEntity
  8
0
100
AcDbLine
 10
3.256889763779527
 20
6.83759842519685
 30
0.0
 11
3.289370078740157
 21
6.816929133858267
 31
0.0
  0
LINE
  5
3C99
330
1E
100
AcDbEntity
  8
0
100
AcDbLine
 10
3.289370078740157
 20
6.816929133858267
 30
0.0
 11
3.315944881889763
 21
6.790354330708661
 31
0.0
  0
LINE
  5
3C9A
330
1E
100
AcDbEntity
  8
0
100
AcDbLine
 10
3.315944881889763
 20
6.790354330708661
 30
0.0
 11
3.336614173228346
 21
6.757874015748031
 31
0.0
  0
LINE
  5
3C9B
330
1E
100
AcDbEntity
  8
0
100
AcDbLine
 10
3.336614173228346
 20
6.757874015748031
 30
0.0
 11
3.348425196850393
 21
6.721456692913386
 31
0.0
  0
LINE
  5
3C9C
330
1E
100
AcDbEntity
  8
0
100
AcDbLine
 10
3.348425196850393
 20
6.721456692913386
 30
0.0
 11
3.353346456692913
 21
6.684055118110236
 31
0.0
  0
LINE
  5
3C9D
330
1E
100
AcDbEntity
  8
0
100
AcDbLine
 10
3.353346456692913
 20
4.010826771653543
 30
0.0
 11
3.348425196850393
 21
3.973425196850393
 31
0.0
  0
LINE
  5
3C9E
330
1E
100
AcDbEntity
  8
0
100
AcDbLine
 10
3.348425196850393
 20
3.973425196850393
 30
0.0
 11
3.336614173228346
 21
3.937007874015748
 31
0.0
  0
LINE
  5
3C9F
330
1E
100
AcDbEntity
  8
0
100
AcDbLine
 10
3.336614173228346
 20
3.937007874015748
 30
0.0
 11
3.315944881889763
 21
3.904527559055118
 31
0.0
  0
LINE
  5
3CA0
330
1E
100
AcDbEntity
  8
0
100
AcDbLine
 10
3.315944881889763
 20
3.904527559055118
 30
0.0
 11
3.289370078740157
 21
3.877952755905511
 31
0.0
  0
LINE
  5
3CA1
330
1E
100
AcDbEntity
  8
0
100
AcDbLine
 10
3.289370078740157
 20
3.877952755905511
 30
0.0
 11
3.256889763779527
 21
3.858267716535432
 31
0.0
  0
LINE
  5
3CA2
330
1E
100
AcDbEntity
  8
0
100
AcDbLine
 10
3.256889763779527
 20
3.858267716535432
 30
0.0
 11
3.221456692913385
 21
3.845472440944881
 31
0.0
  0
LINE
  5
3CA3
330
1E
100
AcDbEntity
  8
0
100
AcDbLine
 10
3.221456692913385
 20
3.845472440944881
 30
0.0
 11
3.183070866141732
 21
3.841535433070866
 31
0.0
  0
LINE
  5
3CA4
330
1E
100
AcDbEntity
  8
0
100
AcDbLine
 10
1.468503937007874
 20
6.684055118110236
 30
0.0
 11
1.473425196850393
 21
6.71259842519685
 31
0.0
  0
LINE
  5
3CA5
330
1E
100
AcDbEntity
  8
0
100
AcDbLine
 10
1.473425196850393
 20
6.71259842519685
 30
0.0
 11
1.486220472440944
 21
6.738188976377952
 31
0.0
  0
LINE
  5
3CA6
330
1E
100
AcDbEntity
  8
0
100
AcDbLine
 10
1.486220472440944
 20
6.738188976377952
 30
0.0
 11
1.505905511811023
 21
6.757874015748031
 31
0.0
  0
LINE
  5
3CA7
330
1E
100
AcDbEntity
  8
0
100
AcDbLine
 10
1.505905511811023
 20
6.757874015748031
 30
0.0
 11
1.531496062992125
 21
6.770669291338582
 31
0.0
  0
LINE
  5
3CA8
330
1E
100
AcDbEntity
  8
0
100
AcDbLine
 10
1.531496062992125
 20
6.770669291338582
 30
0.0
 11
1.56003937007874
 21
6.775590551181101
 31
0.0
  0
LINE
  5
3CA9
330
1E
100
AcDbEntity
  8
0
100
AcDbLine
 10
1.56003937007874
 20
3.919291338582677
 30
0.0
 11
1.531496062992125
 21
3.924212598425196
 31
0.0
  0
LINE
  5
3CAA
330
1E
100
AcDbEntity
  8
0
100
AcDbLine
 10
1.531496062992125
 20
3.924212598425196
 30
0.0
 11
1.505905511811023
 21
3.937007874015748
 31
0.0
  0
LINE
  5
3CAB
330
1E
100
AcDbEntity
  8
0
100
AcDbLine
 10
1.505905511811023
 20
3.937007874015748
 30
0.0
 11
1.486220472440944
 21
3.95767716535433
 31
0.0
  0
LINE
  5
3CAC
330
1E
100
AcDbEntity
  8
0
100
AcDbLine
 10
1.486220472440944
 20
3.95767716535433
 30
0.0
 11
1.473425196850393
 21
3.982283464566929
 31
0.0
  0
LINE
  5
3CAD
330
1E
100
AcDbEntity
  8
0
100
AcDbLine
 10
1.473425196850393
 20
3.982283464566929
 30
0.0
 11
1.468503937007874
 21
4.010826771653543
 31
0.0
  0
LINE
  5
3CAE
330
1E
100
AcDbEntity
  8
0
100
AcDbLine
 10
3.274606299212598
 20
4.010826771653543
 30
0.0
 11
3.269685039370078
 21
3.982283464566929
 31
0.0
  0
LINE
  5
3CAF
330
1E
100
AcDbEntity
  8
0
100
AcDbLine
 10
3.269685039370078
 20
3.982283464566929
 30
0.0
 11
3.256889763779527
 21
3.95767716535433
 31
0.0
  0
LINE
  5
3CB0
330
1E
100
AcDbEntity
  8
0
100
AcDbLine
 10
3.256889763779527
 20
3.95767716535433
 30
0.0
 11
3.237204724409448
 21
3.937007874015748
 31
0.0
  0
LINE
  5
3CB1
330
1E
100
AcDbEntity
  8
0
100
AcDbLine
 10
3.237204724409448
 20
3.937007874015748
 30
0.0
 11
3.211614173228346
 21
3.924212598425196
 31
0.0
  0
LINE
  5
3CB2
330
1E
100
AcDbEntity
  8
0
100
AcDbLine
 10
3.211614173228346
 20
3.924212598425196
 30
0.0
 11
3.183070866141732
 21
3.919291338582677
 31
0.0
  0
LINE
  5
3CB3
330
1E
100
AcDbEntity
  8
0
100
AcDbLine
 10
3.183070866141732
 20
6.775590551181101
 30
0.0
 11
3.211614173228346
 21
6.770669291338582
 31
0.0
  0
LINE
  5
3CB4
330
1E
100
AcDbEntity
  8
0
100
AcDbLine
 10
3.211614173228346
 20
6.770669291338582
 30
0.0
 11
3.237204724409448
 21
6.757874015748031
 31
0.0
  0
LINE
  5
3CB5
330
1E
100
AcDbEntity
  8
0
100
AcDbLine
 10
3.237204724409448
 20
6.757874015748031
 30
0.0
 11
3.256889763779527
 21
6.738188976377952
 31
0.0
  0
LINE
  5
3CB6
330
1E
100
AcDbEntity
  8
0
100
AcDbLine
 10
3.256889763779527
 20
6.738188976377952
 30
0.0
 11
3.269685039370078
 21
6.71259842519685
 31
0.0
  0
LINE
  5
3CB7
330
1E
100
AcDbEntity
  8
0
100
AcDbLine
 10
3.269685039370078
 20
6.71259842519685
 30
0.0
 11
3.274606299212598
 21
6.684055118110236
 31
0.0
  0
LINE
  5
3CB8
330
1E
100
AcDbEntity
  8
0
100
AcDbLine
 10
1.56003937007874
 20
6.833661417322834
 30
0.0
 11
1.526574803149606
 21
6.830708661417323
 31
0.0
  0
LINE
  5
3CB9
330
1E
100
AcDbEntity
  8
0
100
AcDbLine
 10
1.526574803149606
 20
6.830708661417323
 30
0.0
 11
1.49507874015748
 21
6.818897637795275
 31
0.0
  0
LINE
  5
3CBA
330
1E
100
AcDbEntity
  8
0
100
AcDbLine
 10
1.49507874015748
 20
6.818897637795275
 30
0.0
 11
1.466535433070866
 21
6.801181102362204
 31
0.0
  0
LINE
  5
3CBB
330
1E
100
AcDbEntity
  8
0
100
AcDbLine
 10
1.466535433070866
 20
6.801181102362204
 30
0.0
 11
1.442913385826771
 21
6.77755905511811
 31
0.0
  0
LINE
  5
3CBC
330
1E
100
AcDbEntity
  8
0
100
AcDbLine
 10
1.442913385826771
 20
6.77755905511811
 30
0.0
 11
1.4251968503937
 21
6.749015748031496
 31
0.0
  0
LINE
  5
3CBD
330
1E
100
AcDbEntity
  8
0
100
AcDbLine
 10
1.4251968503937
 20
6.749015748031496
 30
0.0
 11
1.414370078740157
 21
6.71751968503937
 31
0.0
  0
LINE
  5
3CBE
330
1E
100
AcDbEntity
  8
0
100
AcDbLine
 10
1.414370078740157
 20
6.71751968503937
 30
0.0
 11
1.410433070866141
 21
6.684055118110236
 31
0.0
  0
LINE
  5
3CBF
330
1E
100
AcDbEntity
  8
0
100
AcDbLine
 10
3.33267716535433
 20
6.684055118110236
 30
0.0
 11
3.329724409448818
 21
6.71751968503937
 31
0.0
  0
LINE
  5
3CC0
330
1E
100
AcDbEntity
  8
0
100
AcDbLine
 10
3.329724409448818
 20
6.71751968503937
 30
0.0
 11
3.317913385826771
 21
6.749015748031496
 31
0.0
  0
LINE
  5
3CC1
330
1E
100
AcDbEntity
  8
0
100
AcDbLine
 10
3.317913385826771
 20
6.749015748031496
 30
0.0
 11
3.3001968503937
 21
6.77755905511811
 31
0.0
  0
LINE
  5
3CC2
330
1E
100
AcDbEntity
  8
0
100
AcDbLine
 10
3.3001968503937
 20
6.77755905511811
 30
0.0
 11
3.276574803149606
 21
6.801181102362204
 31
0.0
  0
LINE
  5
3CC3
330
1E
100
AcDbEntity
  8
0
100
AcDbLine
 10
3.276574803149606
 20
6.801181102362204
 30
0.0
 11
3.248031496062992
 21
6.818897637795275
 31
0.0
  0
LINE
  5
3CC4
330
1E
100
AcDbEntity
  8
0
100
AcDbLine
 10
3.248031496062992
 20
6.818897637795275
 30
0.0
 11
3.216535433070866
 21
6.830708661417323
 31
0.0
  0
LINE
  5
3CC5
330
1E
100
AcDbEntity
  8
0
100
AcDbLine
 10
3.216535433070866
 20
6.830708661417323
 30
0.0
 11
3.183070866141732
 21
6.833661417322834
 31
0.0
  0
LINE
  5
3CC6
330
1E
100
AcDbEntity
  8
0
100
AcDbLine
 10
3.183070866141732
 20
3.861220472440944
 30
0.0
 11
3.216535433070866
 21
3.86515748031496
 31
0.0
  0
LINE
  5
3CC7
330
1E
100
AcDbEntity
  8
0
100
AcDbLine
 10
3.216535433070866
 20
3.86515748031496
 30
0.0
 11
3.248031496062992
 21
3.875984251968503
 31
0.0
  0
LINE
  5
3CC8
330
1E
100
AcDbEntity
  8
0
100
AcDbLine
 10
3.248031496062992
 20
3.875984251968503
 30
0.0
 11
3.276574803149606
 21
3.893700787401574
 31
0.0
  0
LINE
  5
3CC9
330
1E
100
AcDbEntity
  8
0
100
AcDbLine
 10
3.276574803149606
 20
3.893700787401574
 30
0.0
 11
3.3001968503937
 21
3.917322834645669
 31
0.0
  0
LINE
  5
3CCA
330
1E
100
AcDbEntity
  8
0
100
AcDbLine
 10
3.3001968503937
 20
3.917322834645669
 30
0.0
 11
3.317913385826771
 21
3.945866141732283
 31
0.0
  0
LINE
  5
3CCB
330
1E
100
AcDbEntity
  8
0
100
AcDbLine
 10
3.317913385826771
 20
3.945866141732283
 30
0.0
 11
3.329724409448818
 21
3.977362204724409
 31
0.0
  0
LINE
  5
3CCC
330
1E
100
AcDbEntity
  8
0
100
AcDbLine
 10
3.329724409448818
 20
3.977362204724409
 30
0.0
 11
3.33267716535433
 21
4.010826771653543
 31
0.0
  0
LINE
  5
3CCD
330
1E
100
AcDbEntity
  8
0
100
AcDbLine
 10
1.410433070866141
 20
4.010826771653543
 30
0.0
 11
1.414370078740157
 21
3.977362204724409
 31
0.0
  0
LINE
  5
3CCE
330
1E
100
AcDbEntity
  8
0
100
AcDbLine
 10
1.414370078740157
 20
3.977362204724409
 30
0.0
 11
1.4251968503937
 21
3.945866141732283
 31
0.0
  0
LINE
  5
3CCF
330
1E
100
AcDbEntity
  8
0
100
AcDbLine
 10
1.4251968503937
 20
3.945866141732283
 30
0.0
 11
1.442913385826771
 21
3.917322834645669
 31
0.0
  0
LINE
  5
3CD0
330
1E
100
AcDbEntity
  8
0
100
AcDbLine
 10
1.442913385826771
 20
3.917322834645669
 30
0.0
 11
1.466535433070866
 21
3.893700787401574
 31
0.0
  0
LINE
  5
3CD1
330
1E
100
AcDbEntity
  8
0
100
AcDbLine
 10
1.466535433070866
 20
3.893700787401574
 30
0.0
 11
1.49507874015748
 21
3.875984251968503
 31
0.0
  0
LINE
  5
3CD2
330
1E
100
AcDbEntity
  8
0
100
AcDbLine
 10
1.49507874015748
 20
3.875984251968503
 30
0.0
 11
1.526574803149606
 21
3.86515748031496
 31
0.0
  0
LINE
  5
3CD3
330
1E
100
AcDbEntity
  8
0
100
AcDbLine
 10
1.526574803149606
 20
3.86515748031496
 30
0.0
 11
1.56003937007874
 21
3.861220472440944
 31
0.0
  0
LINE
  5
3CD4
330
1E
100
AcDbEntity
  8
0
100
AcDbLine
 10
3.193897637795275
 20
6.86515748031496
 30
0.0
 11
3.232283464566929
 21
6.861220472440944
 31
0.0
  0
LINE
  5
3CD5
330
1E
100
AcDbEntity
  8
0
100
AcDbLine
 10
3.232283464566929
 20
6.861220472440944
 30
0.0
 11
3.26771653543307
 21
6.848425196850393
 31
0.0
  0
LINE
  5
3CD6
330
1E
100
AcDbEntity
  8
0
100
AcDbLine
 10
3.26771653543307
 20
6.848425196850393
 30
0.0
 11
3.3001968503937
 21
6.827755905511811
 31
0.0
  0
LINE
  5
3CD7
330
1E
100
AcDbEntity
  8
0
100
AcDbLine
 10
3.3001968503937
 20
6.827755905511811
 30
0.0
 11
3.326771653543306
 21
6.801181102362204
 31
0.0
  0
LINE
  5
3CD8
330
1E
100
AcDbEntity
  8
0
100
AcDbLine
 10
3.326771653543306
 20
6.801181102362204
 30
0.0
 11
3.347440944881889
 21
6.768700787401574
 31
0.0
  0
LINE
  5
3CD9
330
1E
100
AcDbEntity
  8
0
100
AcDbLine
 10
3.347440944881889
 20
6.768700787401574
 30
0.0
 11
3.36023622047244
 21
6.733267716535433
 31
0.0
  0
LINE
  5
3CDA
330
1E
100
AcDbEntity
  8
0
100
AcDbLine
 10
3.36023622047244
 20
6.733267716535433
 30
0.0
 11
3.364173228346456
 21
6.694881889763779
 31
0.0
  0
LINE
  5
3CDB
330
1E
100
AcDbEntity
  8
0
100
AcDbLine
 10
1.378937007874015
 20
6.694881889763779
 30
0.0
 11
1.383858267716535
 21
6.733267716535433
 31
0.0
  0
LINE
  5
3CDC
330
1E
100
AcDbEntity
  8
0
100
AcDbLine
 10
1.383858267716535
 20
6.733267716535433
 30
0.0
 11
1.395669291338582
 21
6.768700787401574
 31
0.0
  0
LINE
  5
3CDD
330
1E
100
AcDbEntity
  8
0
100
AcDbLine
 10
1.395669291338582
 20
6.768700787401574
 30
0.0
 11
1.416338582677165
 21
6.801181102362204
 31
0.0
  0
LINE
  5
3CDE
330
1E
100
AcDbEntity
  8
0
100
AcDbLine
 10
1.416338582677165
 20
6.801181102362204
 30
0.0
 11
1.442913385826771
 21
6.827755905511811
 31
0.0
  0
LINE
  5
3CDF
330
1E
100
AcDbEntity
  8
0
100
AcDbLine
 10
1.442913385826771
 20
6.827755905511811
 30
0.0
 11
1.475393700787401
 21
6.848425196850393
 31
0.0
  0
LINE
  5
3CE0
330
1E
100
AcDbEntity
  8
0
100
AcDbLine
 10
1.475393700787401
 20
6.848425196850393
 30
0.0
 11
1.510826771653543
 21
6.861220472440944
 31
0.0
  0
LINE
  5
3CE1
330
1E
100
AcDbEntity
  8
0
100
AcDbLine
 10
1.510826771653543
 20
6.861220472440944
 30
0.0
 11
1.549212598425196
 21
6.86515748031496
 31
0.0
  0
LINE
  5
3CE2
330
1E
100
AcDbEntity
  8
0
100
AcDbLine
 10
1.549212598425196
 20
3.829724409448818
 30
0.0
 11
1.510826771653543
 21
3.834645669291338
 31
0.0
  0
LINE
  5
3CE3
330
1E
100
AcDbEntity
  8
0
100
AcDbLine
 10
1.510826771653543
 20
3.834645669291338
 30
0.0
 11
1.475393700787401
 21
3.846456692913385
 31
0.0
  0
LINE
  5
3CE4
330
1E
100
AcDbEntity
  8
0
100
AcDbLine
 10
1.475393700787401
 20
3.846456692913385
 30
0.0
 11
1.442913385826771
 21
3.867125984251968
 31
0.0
  0
LINE
  5
3CE5
330
1E
100
AcDbEntity
  8
0
100
AcDbLine
 10
1.442913385826771
 20
3.867125984251968
 30
0.0
 11
1.416338582677165
 21
3.893700787401574
 31
0.0
  0
LINE
  5
3CE6
330
1E
100
AcDbEntity
  8
0
100
AcDbLine
 10
1.416338582677165
 20
3.893700787401574
 30
0.0
 11
1.395669291338582
 21
3.926181102362204
 31
0.0
  0
LINE
  5
3CE7
330
1E
100
AcDbEntity
  8
0
100
AcDbLine
 10
1.395669291338582
 20
3.926181102362204
 30
0.0
 11
1.383858267716535
 21
3.961614173228346
 31
0.0
  0
LINE
  5
3CE8
330
1E
100
AcDbEntity
  8
0
100
AcDbLine
 10
1.383858267716535
 20
3.961614173228346
 30
0.0
 11
1.378937007874015
 21
4.0
 31
0.0
  0
LINE
  5
3CE9
330
1E
100
AcDbEntity
  8
0
100
AcDbLine
 10
3.364173228346456
 20
4.0
 30
0.0
 11
3.36023622047244
 21
3.961614173228346
 31
0.0
  0
LINE
  5
3CEA
330
1E
100
AcDbEntity
  8
0
100
AcDbLine
 10
3.36023622047244
 20
3.961614173228346
 30
0.0
 11
3.347440944881889
 21
3.926181102362204
 31
0.0
  0
LINE
  5
3CEB
330
1E
100
AcDbEntity
  8
0
100
AcDbLine
 10
3.347440944881889
 20
3.926181102362204
 30
0.0
 11
3.326771653543306
 21
3.893700787401574
 31
0.0
  0
LINE
  5
3CEC
330
1E
100
AcDbEntity
  8
0
100
AcDbLine
 10
3.326771653543306
 20
3.893700787401574
 30
0.0
 11
3.3001968503937
 21
3.867125984251968
 31
0.0
  0
LINE
  5
3CED
330
1E
100
AcDbEntity
  8
0
100
AcDbLine
 10
3.3001968503937
 20
3.867125984251968
 30
0.0
 11
3.26771653543307
 21
3.846456692913385
 31
0.0
  0
LINE
  5
3CEE
330
1E
100
AcDbEntity
  8
0
100
AcDbLine
 10
3.26771653543307
 20
3.846456692913385
 30
0.0
 11
3.232283464566929
 21
3.834645669291338
 31
0.0
  0
LINE
  5
3CEF
330
1E
100
AcDbEntity
  8
0
100
AcDbLine
 10
3.232283464566929
 20
3.834645669291338
 30
0.0
 11
3.193897637795275
 21
3.829724409448818
 31
0.0
  0
LINE
  5
3CF0
330
1E
100
AcDbEntity
  8
0
100
AcDbLine
 10
3.085629921259842
 20
5.368110236220472
 30
0.0
 11
3.084645669291338
 21
5.36515748031496
 31
0.0
  0
LINE
  5
3CF1
330
1E
100
AcDbEntity
  8
0
100
AcDbLine
 10
3.084645669291338
 20
5.36515748031496
 30
0.0
 11
3.083661417322834
 21
5.363188976377952
 31
0.0
  0
LINE
  5
3CF2
330
1E
100
AcDbEntity
  8
0
100
AcDbLine
 10
1.659448818897637
 20
5.363188976377952
 30
0.0
 11
1.658464566929133
 21
5.36515748031496
 31
0.0
  0
LINE
  5
3CF3
330
1E
100
AcDbEntity
  8
0
100
AcDbLine
 10
1.658464566929133
 20
5.36515748031496
 30
0.0
 11
1.657480314960629
 21
5.368110236220472
 31
0.0
  0
LINE
  5
3CF4
330
1E
100
AcDbEntity
  8
0
100
AcDbLine
 10
1.694881889763779
 20
4.170275590551181
 30
0.0
 11
1.698818897637795
 21
4.174212598425197
 31
0.0
  0
LINE
  5
3CF5
330
1E
100
AcDbEntity
  8
0
100
AcDbLine
 10
1.698818897637795
 20
4.174212598425197
 30
0.0
 11
1.704724409448818
 21
4.172244094488188
 31
0.0
  0
LINE
  5
3CF6
330
1E
100
AcDbEntity
  8
0
100
AcDbLine
 10
1.704724409448818
 20
4.172244094488188
 30
0.0
 11
1.704724409448818
 21
4.167322834645669
 31
0.0
  0
LINE
  5
3CF7
330
1E
100
AcDbEntity
  8
0
100
AcDbLine
 10
1.704724409448818
 20
4.167322834645669
 30
0.0
 11
1.698818897637795
 21
4.165354330708661
 31
0.0
  0
LINE
  5
3CF8
330
1E
100
AcDbEntity
  8
0
100
AcDbLine
 10
1.698818897637795
 20
4.165354330708661
 30
0.0
 11
1.694881889763779
 21
4.169291338582676
 31
0.0
  0
LINE
  5
3CF9
330
1E
100
AcDbEntity
  8
0
100
AcDbLine
 10
1.694881889763779
 20
4.15255905511811
 30
0.0
 11
1.694881889763779
 21
4.153543307086613
 31
0.0
  0
LINE
  5
3CFA
330
1E
100
AcDbEntity
  8
0
100
AcDbLine
 10
1.694881889763779
 20
4.153543307086613
 30
0.0
 11
1.694881889763779
 21
4.154527559055117
 31
0.0
  0
LINE
  5
3CFB
330
1E
100
AcDbEntity
  8
0
100
AcDbLine
 10
1.694881889763779
 20
4.148622047244094
 30
0.0
 11
1.694881889763779
 21
4.149606299212598
 31
0.0
  0
LINE
  5
3CFC
330
1E
100
AcDbEntity
  8
0
100
AcDbLine
 10
1.694881889763779
 20
4.149606299212598
 30
0.0
 11
1.693897637795275
 21
4.150590551181101
 31
0.0
  0
LINE
  5
3CFD
330
1E
100
AcDbEntity
  8
0
100
AcDbLine
 10
3.034448818897637
 20
4.458661417322834
 30
0.0
 11
3.028543307086614
 21
4.448818897637795
 31
0.0
  0
LINE
  5
3CFE
330
1E
100
AcDbEntity
  8
0
100
AcDbLine
 10
3.028543307086614
 20
4.448818897637795
 30
0.0
 11
3.014763779527558
 21
4.443897637795275
 31
0.0
  0
LINE
  5
3CFF
330
1E
100
AcDbEntity
  8
0
100
AcDbLine
 10
3.064960629921259
 20
4.473425196850393
 30
0.0
 11
3.064960629921259
 21
4.475393700787401
 31
0.0
  0
LINE
  5
3D00
330
1E
100
AcDbEntity
  8
0
100
AcDbLine
 10
3.064960629921259
 20
4.475393700787401
 30
0.0
 11
3.064960629921259
 21
4.479330708661417
 31
0.0
  0
LINE
  5
3D01
330
1E
100
AcDbEntity
  8
0
100
AcDbLine
 10
3.116141732283464
 20
4.585629921259842
 30
0.0
 11
3.144685039370078
 21
4.581692913385826
 31
0.0
  0
LINE
  5
3D02
330
1E
100
AcDbEntity
  8
0
100
AcDbLine
 10
3.144685039370078
 20
4.581692913385826
 30
0.0
 11
3.169291338582677
 21
4.569881889763779
 31
0.0
  0
LINE
  5
3D03
330
1E
100
AcDbEntity
  8
0
100
AcDbLine
 10
3.169291338582677
 20
4.569881889763779
 30
0.0
 11
3.18503937007874
 21
4.553149606299212
 31
0.0
  0
LINE
  5
3D04
330
1E
100
AcDbEntity
  8
0
100
AcDbLine
 10
3.18503937007874
 20
4.553149606299212
 30
0.0
 11
3.190944881889763
 21
4.532480314960629
 31
0.0
  0
LINE
  5
3D05
330
1E
100
AcDbEntity
  8
0
100
AcDbLine
 10
3.116141732283464
 20
4.473425196850393
 30
0.0
 11
3.116141732283464
 21
4.475393700787401
 31
0.0
  0
LINE
  5
3D06
330
1E
100
AcDbEntity
  8
0
100
AcDbLine
 10
3.116141732283464
 20
4.475393700787401
 30
0.0
 11
3.116141732283464
 21
4.479330708661417
 31
0.0
  0
LINE
  5
3D07
330
1E
100
AcDbEntity
  8
0
100
AcDbLine
 10
3.116141732283464
 20
4.585629921259842
 30
0.0
 11
3.116141732283464
 21
4.571850393700787
 31
0.0
  0
LINE
  5
3D08
330
1E
100
AcDbEntity
  8
0
100
AcDbLine
 10
3.116141732283464
 20
4.571850393700787
 30
0.0
 11
3.116141732283464
 21
4.557086614173228
 31
0.0
  0
LINE
  5
3D09
330
1E
100
AcDbEntity
  8
0
100
AcDbLine
 10
2.396653543307086
 20
4.585629921259842
 30
0.0
 11
2.396653543307086
 21
4.571850393700787
 31
0.0
  0
LINE
  5
3D0A
330
1E
100
AcDbEntity
  8
0
100
AcDbLine
 10
2.396653543307086
 20
4.571850393700787
 30
0.0
 11
2.396653543307086
 21
4.557086614173228
 31
0.0
  0
LINE
  5
3D0B
330
1E
100
AcDbEntity
  8
0
100
AcDbLine
 10
2.376968503937007
 20
4.571850393700787
 30
0.0
 11
2.382874015748031
 21
4.581692913385826
 31
0.0
  0
LINE
  5
3D0C
330
1E
100
AcDbEntity
  8
0
100
AcDbLine
 10
2.382874015748031
 20
4.581692913385826
 30
0.0
 11
2.396653543307086
 21
4.585629921259842
 31
0.0
  0
LINE
  5
3D0D
330
1E
100
AcDbEntity
  8
0
100
AcDbLine
 10
2.396653543307086
 20
4.21751968503937
 30
0.0
 11
2.382874015748031
 21
4.222440944881889
 31
0.0
  0
LINE
  5
3D0E
330
1E
100
AcDbEntity
  8
0
100
AcDbLine
 10
2.382874015748031
 20
4.222440944881889
 30
0.0
 11
2.376968503937007
 21
4.232283464566928
 31
0.0
  0
LINE
  5
3D0F
330
1E
100
AcDbEntity
  8
0
100
AcDbLine
 10
2.376968503937007
 20
4.571850393700787
 30
0.0
 11
2.382874015748031
 21
4.562007874015748
 31
0.0
  0
LINE
  5
3D10
330
1E
100
AcDbEntity
  8
0
100
AcDbLine
 10
2.382874015748031
 20
4.562007874015748
 30
0.0
 11
2.396653543307086
 21
4.557086614173228
 31
0.0
  0
LINE
  5
3D11
330
1E
100
AcDbEntity
  8
0
100
AcDbLine
 10
2.396653543307086
 20
4.59251968503937
 30
0.0
 11
2.382874015748031
 21
4.588582677165354
 31
0.0
  0
LINE
  5
3D12
330
1E
100
AcDbEntity
  8
0
100
AcDbLine
 10
2.382874015748031
 20
4.588582677165354
 30
0.0
 11
2.376968503937007
 21
4.578740157480314
 31
0.0
  0
LINE
  5
3D13
330
1E
100
AcDbEntity
  8
0
100
AcDbLine
 10
2.396653543307086
 20
4.59251968503937
 30
0.0
 11
2.396653543307086
 21
4.597440944881889
 31
0.0
  0
LINE
  5
3D14
330
1E
100
AcDbEntity
  8
0
100
AcDbLine
 10
2.396653543307086
 20
4.597440944881889
 30
0.0
 11
2.396653543307086
 21
4.598425196850393
 31
0.0
  0
LINE
  5
3D15
330
1E
100
AcDbEntity
  8
0
100
AcDbLine
 10
3.190944881889763
 20
4.539370078740157
 30
0.0
 11
3.18503937007874
 21
4.560039370078739
 31
0.0
  0
LINE
  5
3D16
330
1E
100
AcDbEntity
  8
0
100
AcDbLine
 10
3.18503937007874
 20
4.560039370078739
 30
0.0
 11
3.169291338582677
 21
4.576771653543307
 31
0.0
  0
LINE
  5
3D17
330
1E
100
AcDbEntity
  8
0
100
AcDbLine
 10
3.169291338582677
 20
4.576771653543307
 30
0.0
 11
3.144685039370078
 21
4.588582677165354
 31
0.0
  0
LINE
  5
3D18
330
1E
100
AcDbEntity
  8
0
100
AcDbLine
 10
3.144685039370078
 20
4.588582677165354
 30
0.0
 11
3.116141732283464
 21
4.59251968503937
 31
0.0
  0
LINE
  5
3D19
330
1E
100
AcDbEntity
  8
0
100
AcDbLine
 10
3.116141732283464
 20
4.59251968503937
 30
0.0
 11
3.116141732283464
 21
4.597440944881889
 31
0.0
  0
LINE
  5
3D1A
330
1E
100
AcDbEntity
  8
0
100
AcDbLine
 10
3.116141732283464
 20
4.597440944881889
 30
0.0
 11
3.116141732283464
 21
4.598425196850393
 31
0.0
  0
LINE
  5
3D1B
330
1E
100
AcDbEntity
  8
0
100
AcDbLine
 10
2.450787401574803
 20
4.21751968503937
 30
0.0
 11
2.456692913385826
 21
4.216535433070865
 31
0.0
  0
LINE
  5
3D1C
330
1E
100
AcDbEntity
  8
0
100
AcDbLine
 10
2.456692913385826
 20
4.216535433070865
 30
0.0
 11
2.458661417322834
 21
4.21259842519685
 31
0.0
  0
LINE
  5
3D1D
330
1E
100
AcDbEntity
  8
0
100
AcDbLine
 10
3.116141732283464
 20
4.479330708661417
 30
0.0
 11
3.136811023622047
 21
4.482283464566928
 31
0.0
  0
LINE
  5
3D1E
330
1E
100
AcDbEntity
  8
0
100
AcDbLine
 10
3.136811023622047
 20
4.482283464566928
 30
0.0
 11
3.155511811023622
 21
4.491141732283464
 31
0.0
  0
LINE
  5
3D1F
330
1E
100
AcDbEntity
  8
0
100
AcDbLine
 10
3.155511811023622
 20
4.491141732283464
 30
0.0
 11
3.167322834645669
 21
4.503937007874015
 31
0.0
  0
LINE
  5
3D20
330
1E
100
AcDbEntity
  8
0
100
AcDbLine
 10
3.167322834645669
 20
4.503937007874015
 30
0.0
 11
3.171259842519685
 21
4.518700787401574
 31
0.0
  0
LINE
  5
3D21
330
1E
100
AcDbEntity
  8
0
100
AcDbLine
 10
3.171259842519685
 20
4.518700787401574
 30
0.0
 11
3.167322834645669
 21
4.533464566929133
 31
0.0
  0
LINE
  5
3D22
330
1E
100
AcDbEntity
  8
0
100
AcDbLine
 10
3.167322834645669
 20
4.533464566929133
 30
0.0
 11
3.155511811023622
 21
4.546259842519685
 31
0.0
  0
LINE
  5
3D23
330
1E
100
AcDbEntity
  8
0
100
AcDbLine
 10
3.155511811023622
 20
4.546259842519685
 30
0.0
 11
3.136811023622047
 21
4.554133858267716
 31
0.0
  0
LINE
  5
3D24
330
1E
100
AcDbEntity
  8
0
100
AcDbLine
 10
3.136811023622047
 20
4.554133858267716
 30
0.0
 11
3.116141732283464
 21
4.557086614173228
 31
0.0
  0
LINE
  5
3D25
330
1E
100
AcDbEntity
  8
0
100
AcDbLine
 10
3.014763779527558
 20
4.443897637795275
 30
0.0
 11
3.021653543307086
 21
4.461614173228346
 31
0.0
  0
LINE
  5
3D26
330
1E
100
AcDbEntity
  8
0
100
AcDbLine
 10
3.021653543307086
 20
4.461614173228346
 30
0.0
 11
3.039370078740157
 21
4.474409448818897
 31
0.0
  0
LINE
  5
3D27
330
1E
100
AcDbEntity
  8
0
100
AcDbLine
 10
3.039370078740157
 20
4.474409448818897
 30
0.0
 11
3.064960629921259
 21
4.479330708661417
 31
0.0
  0
LINE
  5
3D28
330
1E
100
AcDbEntity
  8
0
100
AcDbLine
 10
2.508858267716535
 20
4.21259842519685
 30
0.0
 11
2.508858267716535
 21
4.205708661417323
 31
0.0
  0
LINE
  5
3D29
330
1E
100
AcDbEntity
  8
0
100
AcDbLine
 10
2.508858267716535
 20
4.205708661417323
 30
0.0
 11
2.508858267716535
 21
4.197834645669291
 31
0.0
  0
LINE
  5
3D2A
330
1E
100
AcDbEntity
  8
0
100
AcDbLine
 10
2.508858267716535
 20
4.151574803149606
 30
0.0
 11
2.508858267716535
 21
4.157480314960629
 31
0.0
  0
LINE
  5
3D2B
330
1E
100
AcDbEntity
  8
0
100
AcDbLine
 10
2.508858267716535
 20
4.157480314960629
 30
0.0
 11
2.508858267716535
 21
4.1751968503937
 31
0.0
  0
LINE
  5
3D2C
330
1E
100
AcDbEntity
  8
0
100
AcDbLine
 10
2.508858267716535
 20
4.1751968503937
 30
0.0
 11
2.508858267716535
 21
4.197834645669291
 31
0.0
  0
LINE
  5
3D2D
330
1E
100
AcDbEntity
  8
0
100
AcDbLine
 10
3.048228346456693
 20
4.183070866141732
 30
0.0
 11
3.041338582677165
 21
4.177165354330708
 31
0.0
  0
LINE
  5
3D2E
330
1E
100
AcDbEntity
  8
0
100
AcDbLine
 10
3.041338582677165
 20
4.177165354330708
 30
0.0
 11
3.048228346456693
 21
4.172244094488188
 31
0.0
  0
LINE
  5
3D2F
330
1E
100
AcDbEntity
  8
0
100
AcDbLine
 10
3.014763779527558
 20
4.197834645669291
 30
0.0
 11
3.014763779527558
 21
4.205708661417323
 31
0.0
  0
LINE
  5
3D30
330
1E
100
AcDbEntity
  8
0
100
AcDbLine
 10
3.014763779527558
 20
4.205708661417323
 30
0.0
 11
3.014763779527558
 21
4.21259842519685
 31
0.0
  0
LINE
  5
3D31
330
1E
100
AcDbEntity
  8
0
100
AcDbLine
 10
3.014763779527558
 20
4.21259842519685
 30
0.0
 11
3.028543307086614
 21
4.216535433070865
 31
0.0
  0
LINE
  5
3D32
330
1E
100
AcDbEntity
  8
0
100
AcDbLine
 10
3.028543307086614
 20
4.216535433070865
 30
0.0
 11
3.034448818897637
 21
4.226377952755905
 31
0.0
  0
LINE
  5
3D33
330
1E
100
AcDbEntity
  8
0
100
AcDbLine
 10
3.034448818897637
 20
4.226377952755905
 30
0.0
 11
3.034448818897637
 21
4.225393700787401
 31
0.0
  0
LINE
  5
3D34
330
1E
100
AcDbEntity
  8
0
100
AcDbLine
 10
3.034448818897637
 20
4.225393700787401
 30
0.0
 11
3.034448818897637
 21
4.224409448818897
 31
0.0
  0
LINE
  5
3D35
330
1E
100
AcDbEntity
  8
0
100
AcDbLine
 10
3.034448818897637
 20
4.224409448818897
 30
0.0
 11
3.033464566929133
 21
4.218503937007874
 31
0.0
  0
LINE
  5
3D36
330
1E
100
AcDbEntity
  8
0
100
AcDbLine
 10
3.033464566929133
 20
4.218503937007874
 30
0.0
 11
3.030511811023622
 21
4.209645669291338
 31
0.0
  0
LINE
  5
3D37
330
1E
100
AcDbEntity
  8
0
100
AcDbLine
 10
3.030511811023622
 20
4.209645669291338
 30
0.0
 11
3.029527559055118
 21
4.204724409448818
 31
0.0
  0
LINE
  5
3D38
330
1E
100
AcDbEntity
  8
0
100
AcDbLine
 10
3.029527559055118
 20
4.204724409448818
 30
0.0
 11
3.029527559055118
 21
4.199803149606299
 31
0.0
  0
LINE
  5
3D39
330
1E
100
AcDbEntity
  8
0
100
AcDbLine
 10
3.029527559055118
 20
4.199803149606299
 30
0.0
 11
3.030511811023622
 21
4.197834645669291
 31
0.0
  0
LINE
  5
3D3A
330
1E
100
AcDbEntity
  8
0
100
AcDbLine
 10
2.984251968503937
 20
4.21259842519685
 30
0.0
 11
2.984251968503937
 21
4.205708661417323
 31
0.0
  0
LINE
  5
3D3B
330
1E
100
AcDbEntity
  8
0
100
AcDbLine
 10
2.984251968503937
 20
4.205708661417323
 30
0.0
 11
2.984251968503937
 21
4.197834645669291
 31
0.0
  0
LINE
  5
3D3C
330
1E
100
AcDbEntity
  8
0
100
AcDbLine
 10
2.984251968503937
 20
4.151574803149606
 30
0.0
 11
2.984251968503937
 21
4.157480314960629
 31
0.0
  0
LINE
  5
3D3D
330
1E
100
AcDbEntity
  8
0
100
AcDbLine
 10
2.984251968503937
 20
4.157480314960629
 30
0.0
 11
2.984251968503937
 21
4.1751968503937
 31
0.0
  0
LINE
  5
3D3E
330
1E
100
AcDbEntity
  8
0
100
AcDbLine
 10
2.984251968503937
 20
4.1751968503937
 30
0.0
 11
2.984251968503937
 21
4.197834645669291
 31
0.0
  0
LINE
  5
3D3F
330
1E
100
AcDbEntity
  8
0
100
AcDbLine
 10
3.033464566929133
 20
4.18996062992126
 30
0.0
 11
3.034448818897637
 21
4.18011811023622
 31
0.0
  0
LINE
  5
3D40
330
1E
100
AcDbEntity
  8
0
100
AcDbLine
 10
3.034448818897637
 20
4.18011811023622
 30
0.0
 11
3.034448818897637
 21
4.177165354330708
 31
0.0
  0
LINE
  5
3D41
330
1E
100
AcDbEntity
  8
0
100
AcDbLine
 10
3.034448818897637
 20
4.177165354330708
 30
0.0
 11
3.033464566929133
 21
4.166338582677165
 31
0.0
  0
LINE
  5
3D42
330
1E
100
AcDbEntity
  8
0
100
AcDbLine
 10
3.033464566929133
 20
4.166338582677165
 30
0.0
 11
3.033464566929133
 21
4.165354330708661
 31
0.0
  0
LINE
  5
3D43
330
1E
100
AcDbEntity
  8
0
100
AcDbLine
 10
3.033464566929133
 20
4.165354330708661
 30
0.0
 11
3.030511811023622
 21
4.160433070866141
 31
0.0
  0
LINE
  5
3D44
330
1E
100
AcDbEntity
  8
0
100
AcDbLine
 10
3.030511811023622
 20
4.160433070866141
 30
0.0
 11
3.030511811023622
 21
4.159448818897637
 31
0.0
  0
LINE
  5
3D45
330
1E
100
AcDbEntity
  8
0
100
AcDbLine
 10
3.014763779527558
 20
4.151574803149606
 30
0.0
 11
3.014763779527558
 21
4.157480314960629
 31
0.0
  0
LINE
  5
3D46
330
1E
100
AcDbEntity
  8
0
100
AcDbLine
 10
3.014763779527558
 20
4.157480314960629
 30
0.0
 11
3.014763779527558
 21
4.1751968503937
 31
0.0
  0
LINE
  5
3D47
330
1E
100
AcDbEntity
  8
0
100
AcDbLine
 10
3.014763779527558
 20
4.1751968503937
 30
0.0
 11
3.014763779527558
 21
4.197834645669291
 31
0.0
  0
LINE
  5
3D48
330
1E
100
AcDbEntity
  8
0
100
AcDbLine
 10
3.030511811023622
 20
4.197834645669291
 30
0.0
 11
3.023622047244094
 21
4.197834645669291
 31
0.0
  0
LINE
  5
3D49
330
1E
100
AcDbEntity
  8
0
100
AcDbLine
 10
3.023622047244094
 20
4.197834645669291
 30
0.0
 11
3.014763779527558
 21
4.197834645669291
 31
0.0
  0
LINE
  5
3D4A
330
1E
100
AcDbEntity
  8
0
100
AcDbLine
 10
3.030511811023622
 20
4.197834645669291
 30
0.0
 11
3.031496062992125
 21
4.194881889763779
 31
0.0
  0
LINE
  5
3D4B
330
1E
100
AcDbEntity
  8
0
100
AcDbLine
 10
3.031496062992125
 20
4.194881889763779
 30
0.0
 11
3.033464566929133
 21
4.18996062992126
 31
0.0
  0
LINE
  5
3D4C
330
1E
100
AcDbEntity
  8
0
100
AcDbLine
 10
3.024606299212598
 20
4.432086614173228
 30
0.0
 11
3.031496062992125
 21
4.442913385826771
 31
0.0
  0
LINE
  5
3D4D
330
1E
100
AcDbEntity
  8
0
100
AcDbLine
 10
3.031496062992125
 20
4.442913385826771
 30
0.0
 11
3.034448818897637
 21
4.451771653543307
 31
0.0
  0
LINE
  5
3D4E
330
1E
100
AcDbEntity
  8
0
100
AcDbLine
 10
3.024606299212598
 20
4.372047244094487
 30
0.0
 11
3.031496062992125
 21
4.372047244094487
 31
0.0
  0
LINE
  5
3D4F
330
1E
100
AcDbEntity
  8
0
100
AcDbLine
 10
3.031496062992125
 20
4.372047244094487
 30
0.0
 11
3.034448818897637
 21
4.376968503937007
 31
0.0
  0
LINE
  5
3D50
330
1E
100
AcDbEntity
  8
0
100
AcDbLine
 10
3.034448818897637
 20
4.383858267716535
 30
0.0
 11
3.031496062992125
 21
4.39271653543307
 31
0.0
  0
LINE
  5
3D51
330
1E
100
AcDbEntity
  8
0
100
AcDbLine
 10
3.031496062992125
 20
4.39271653543307
 30
0.0
 11
3.024606299212598
 21
4.403543307086613
 31
0.0
  0
LINE
  5
3D52
330
1E
100
AcDbEntity
  8
0
100
AcDbLine
 10
2.458661417322834
 20
4.21259842519685
 30
0.0
 11
2.458661417322834
 21
4.205708661417323
 31
0.0
  0
LINE
  5
3D53
330
1E
100
AcDbEntity
  8
0
100
AcDbLine
 10
2.458661417322834
 20
4.205708661417323
 30
0.0
 11
2.458661417322834
 21
4.197834645669291
 31
0.0
  0
LINE
  5
3D54
330
1E
100
AcDbEntity
  8
0
100
AcDbLine
 10
2.458661417322834
 20
4.151574803149606
 30
0.0
 11
2.458661417322834
 21
4.157480314960629
 31
0.0
  0
LINE
  5
3D55
330
1E
100
AcDbEntity
  8
0
100
AcDbLine
 10
2.458661417322834
 20
4.157480314960629
 30
0.0
 11
2.458661417322834
 21
4.1751968503937
 31
0.0
  0
LINE
  5
3D56
330
1E
100
AcDbEntity
  8
0
100
AcDbLine
 10
2.458661417322834
 20
4.1751968503937
 30
0.0
 11
2.458661417322834
 21
4.197834645669291
 31
0.0
  0
LINE
  5
3D57
330
1E
100
AcDbEntity
  8
0
100
AcDbLine
 10
1.626968503937007
 20
4.59251968503937
 30
0.0
 11
1.598425196850393
 21
4.588582677165354
 31
0.0
  0
LINE
  5
3D58
330
1E
100
AcDbEntity
  8
0
100
AcDbLine
 10
1.598425196850393
 20
4.588582677165354
 30
0.0
 11
1.573818897637795
 21
4.577755905511811
 31
0.0
  0
LINE
  5
3D59
330
1E
100
AcDbEntity
  8
0
100
AcDbLine
 10
1.573818897637795
 20
4.577755905511811
 30
0.0
 11
1.558070866141732
 21
4.560039370078739
 31
0.0
  0
LINE
  5
3D5A
330
1E
100
AcDbEntity
  8
0
100
AcDbLine
 10
1.558070866141732
 20
4.560039370078739
 30
0.0
 11
1.552165354330708
 21
4.539370078740157
 31
0.0
  0
LINE
  5
3D5B
330
1E
100
AcDbEntity
  8
0
100
AcDbLine
 10
1.626968503937007
 20
4.59251968503937
 30
0.0
 11
1.626968503937007
 21
4.597440944881889
 31
0.0
  0
LINE
  5
3D5C
330
1E
100
AcDbEntity
  8
0
100
AcDbLine
 10
1.626968503937007
 20
4.597440944881889
 30
0.0
 11
1.626968503937007
 21
4.598425196850393
 31
0.0
  0
LINE
  5
3D5D
330
1E
100
AcDbEntity
  8
0
100
AcDbLine
 10
2.346456692913385
 20
4.59251968503937
 30
0.0
 11
2.346456692913385
 21
4.597440944881889
 31
0.0
  0
LINE
  5
3D5E
330
1E
100
AcDbEntity
  8
0
100
AcDbLine
 10
2.346456692913385
 20
4.597440944881889
 30
0.0
 11
2.346456692913385
 21
4.598425196850393
 31
0.0
  0
LINE
  5
3D5F
330
1E
100
AcDbEntity
  8
0
100
AcDbLine
 10
2.366141732283464
 20
4.578740157480314
 30
0.0
 11
2.361220472440944
 21
4.588582677165354
 31
0.0
  0
LINE
  5
3D60
330
1E
100
AcDbEntity
  8
0
100
AcDbLine
 10
2.361220472440944
 20
4.588582677165354
 30
0.0
 11
2.346456692913385
 21
4.59251968503937
 31
0.0
  0
LINE
  5
3D61
330
1E
100
AcDbEntity
  8
0
100
AcDbLine
 10
2.366141732283464
 20
4.232283464566928
 30
0.0
 11
2.361220472440944
 21
4.222440944881889
 31
0.0
  0
LINE
  5
3D62
330
1E
100
AcDbEntity
  8
0
100
AcDbLine
 10
2.361220472440944
 20
4.222440944881889
 30
0.0
 11
2.346456692913385
 21
4.218503937007874
 31
0.0
  0
LINE
  5
3D63
330
1E
100
AcDbEntity
  8
0
100
AcDbLine
 10
2.366141732283464
 20
4.571850393700787
 30
0.0
 11
2.361220472440944
 21
4.562007874015748
 31
0.0
  0
LINE
  5
3D64
330
1E
100
AcDbEntity
  8
0
100
AcDbLine
 10
2.361220472440944
 20
4.562007874015748
 30
0.0
 11
2.346456692913385
 21
4.557086614173228
 31
0.0
  0
LINE
  5
3D65
330
1E
100
AcDbEntity
  8
0
100
AcDbLine
 10
2.346456692913385
 20
4.585629921259842
 30
0.0
 11
2.361220472440944
 21
4.581692913385826
 31
0.0
  0
LINE
  5
3D66
330
1E
100
AcDbEntity
  8
0
100
AcDbLine
 10
2.361220472440944
 20
4.581692913385826
 30
0.0
 11
2.366141732283464
 21
4.571850393700787
 31
0.0
  0
LINE
  5
3D67
330
1E
100
AcDbEntity
  8
0
100
AcDbLine
 10
2.346456692913385
 20
4.585629921259842
 30
0.0
 11
2.346456692913385
 21
4.571850393700787
 31
0.0
  0
LINE
  5
3D68
330
1E
100
AcDbEntity
  8
0
100
AcDbLine
 10
2.346456692913385
 20
4.571850393700787
 30
0.0
 11
2.346456692913385
 21
4.557086614173228
 31
0.0
  0
LINE
  5
3D69
330
1E
100
AcDbEntity
  8
0
100
AcDbLine
 10
1.552165354330708
 20
4.532480314960629
 30
0.0
 11
1.558070866141732
 21
4.553149606299212
 31
0.0
  0
LINE
  5
3D6A
330
1E
100
AcDbEntity
  8
0
100
AcDbLine
 10
1.558070866141732
 20
4.553149606299212
 30
0.0
 11
1.573818897637795
 21
4.569881889763779
 31
0.0
  0
LINE
  5
3D6B
330
1E
100
AcDbEntity
  8
0
100
AcDbLine
 10
1.573818897637795
 20
4.569881889763779
 30
0.0
 11
1.598425196850393
 21
4.581692913385826
 31
0.0
  0
LINE
  5
3D6C
330
1E
100
AcDbEntity
  8
0
100
AcDbLine
 10
1.598425196850393
 20
4.581692913385826
 30
0.0
 11
1.626968503937007
 21
4.585629921259842
 31
0.0
  0
LINE
  5
3D6D
330
1E
100
AcDbEntity
  8
0
100
AcDbLine
 10
1.626968503937007
 20
4.585629921259842
 30
0.0
 11
1.626968503937007
 21
4.571850393700787
 31
0.0
  0
LINE
  5
3D6E
330
1E
100
AcDbEntity
  8
0
100
AcDbLine
 10
1.626968503937007
 20
4.571850393700787
 30
0.0
 11
1.626968503937007
 21
4.557086614173228
 31
0.0
  0
LINE
  5
3D6F
330
1E
100
AcDbEntity
  8
0
100
AcDbLine
 10
1.626968503937007
 20
4.473425196850393
 30
0.0
 11
1.626968503937007
 21
4.475393700787401
 31
0.0
  0
LINE
  5
3D70
330
1E
100
AcDbEntity
  8
0
100
AcDbLine
 10
1.626968503937007
 20
4.475393700787401
 30
0.0
 11
1.626968503937007
 21
4.479330708661417
 31
0.0
  0
LINE
  5
3D71
330
1E
100
AcDbEntity
  8
0
100
AcDbLine
 10
1.679133858267716
 20
4.473425196850393
 30
0.0
 11
1.679133858267716
 21
4.475393700787401
 31
0.0
  0
LINE
  5
3D72
330
1E
100
AcDbEntity
  8
0
100
AcDbLine
 10
1.679133858267716
 20
4.475393700787401
 30
0.0
 11
1.679133858267716
 21
4.479330708661417
 31
0.0
  0
LINE
  5
3D73
330
1E
100
AcDbEntity
  8
0
100
AcDbLine
 10
1.708661417322834
 20
4.458661417322834
 30
0.0
 11
1.714566929133858
 21
4.448818897637795
 31
0.0
  0
LINE
  5
3D74
330
1E
100
AcDbEntity
  8
0
100
AcDbLine
 10
1.714566929133858
 20
4.448818897637795
 30
0.0
 11
1.728346456692913
 21
4.443897637795275
 31
0.0
  0
LINE
  5
3D75
330
1E
100
AcDbEntity
  8
0
100
AcDbLine
 10
1.679133858267716
 20
4.479330708661417
 30
0.0
 11
1.703740157480314
 21
4.475393700787401
 31
0.0
  0
LINE
  5
3D76
330
1E
100
AcDbEntity
  8
0
100
AcDbLine
 10
1.703740157480314
 20
4.475393700787401
 30
0.0
 11
1.722440944881889
 21
4.461614173228346
 31
0.0
  0
LINE
  5
3D77
330
1E
100
AcDbEntity
  8
0
100
AcDbLine
 10
1.722440944881889
 20
4.461614173228346
 30
0.0
 11
1.728346456692913
 21
4.443897637795275
 31
0.0
  0
LINE
  5
3D78
330
1E
100
AcDbEntity
  8
0
100
AcDbLine
 10
1.626968503937007
 20
4.557086614173228
 30
0.0
 11
1.606299212598425
 21
4.554133858267716
 31
0.0
  0
LINE
  5
3D79
330
1E
100
AcDbEntity
  8
0
100
AcDbLine
 10
1.606299212598425
 20
4.554133858267716
 30
0.0
 11
1.588582677165354
 21
4.546259842519685
 31
0.0
  0
LINE
  5
3D7A
330
1E
100
AcDbEntity
  8
0
100
AcDbLine
 10
1.588582677165354
 20
4.546259842519685
 30
0.0
 11
1.576771653543307
 21
4.533464566929133
 31
0.0
  0
LINE
  5
3D7B
330
1E
100
AcDbEntity
  8
0
100
AcDbLine
 10
1.576771653543307
 20
4.533464566929133
 30
0.0
 11
1.571850393700787
 21
4.518700787401574
 31
0.0
  0
LINE
  5
3D7C
330
1E
100
AcDbEntity
  8
0
100
AcDbLine
 10
1.571850393700787
 20
4.518700787401574
 30
0.0
 11
1.576771653543307
 21
4.503937007874015
 31
0.0
  0
LINE
  5
3D7D
330
1E
100
AcDbEntity
  8
0
100
AcDbLine
 10
1.576771653543307
 20
4.503937007874015
 30
0.0
 11
1.588582677165354
 21
4.491141732283464
 31
0.0
  0
LINE
  5
3D7E
330
1E
100
AcDbEntity
  8
0
100
AcDbLine
 10
1.588582677165354
 20
4.491141732283464
 30
0.0
 11
1.606299212598425
 21
4.482283464566928
 31
0.0
  0
LINE
  5
3D7F
330
1E
100
AcDbEntity
  8
0
100
AcDbLine
 10
1.606299212598425
 20
4.482283464566928
 30
0.0
 11
1.626968503937007
 21
4.479330708661417
 31
0.0
  0
LINE
  5
3D80
330
1E
100
AcDbEntity
  8
0
100
AcDbLine
 10
2.292322834645669
 20
4.218503937007874
 30
0.0
 11
2.286417322834645
 21
4.216535433070865
 31
0.0
  0
LINE
  5
3D81
330
1E
100
AcDbEntity
  8
0
100
AcDbLine
 10
2.286417322834645
 20
4.216535433070865
 30
0.0
 11
2.284448818897637
 21
4.21259842519685
 31
0.0
  0
LINE
  5
3D82
330
1E
100
AcDbEntity
  8
0
100
AcDbLine
 10
2.234251968503937
 20
4.197834645669291
 30
0.0
 11
2.234251968503937
 21
4.205708661417323
 31
0.0
  0
LINE
  5
3D83
330
1E
100
AcDbEntity
  8
0
100
AcDbLine
 10
2.234251968503937
 20
4.205708661417323
 30
0.0
 11
2.234251968503937
 21
4.21259842519685
 31
0.0
  0
LINE
  5
3D84
330
1E
100
AcDbEntity
  8
0
100
AcDbLine
 10
2.234251968503937
 20
4.197834645669291
 30
0.0
 11
2.234251968503937
 21
4.1751968503937
 31
0.0
  0
LINE
  5
3D85
330
1E
100
AcDbEntity
  8
0
100
AcDbLine
 10
2.234251968503937
 20
4.1751968503937
 30
0.0
 11
2.234251968503937
 21
4.158464566929134
 31
0.0
  0
LINE
  5
3D86
330
1E
100
AcDbEntity
  8
0
100
AcDbLine
 10
2.234251968503937
 20
4.158464566929134
 30
0.0
 11
2.234251968503937
 21
4.151574803149606
 31
0.0
  0
LINE
  5
3D87
330
1E
100
AcDbEntity
  8
0
100
AcDbLine
 10
1.708661417322834
 20
4.224409448818897
 30
0.0
 11
1.708661417322834
 21
4.225393700787401
 31
0.0
  0
LINE
  5
3D88
330
1E
100
AcDbEntity
  8
0
100
AcDbLine
 10
1.708661417322834
 20
4.225393700787401
 30
0.0
 11
1.708661417322834
 21
4.226377952755905
 31
0.0
  0
LINE
  5
3D89
330
1E
100
AcDbEntity
  8
0
100
AcDbLine
 10
1.728346456692913
 20
4.21259842519685
 30
0.0
 11
1.714566929133858
 21
4.216535433070865
 31
0.0
  0
LINE
  5
3D8A
330
1E
100
AcDbEntity
  8
0
100
AcDbLine
 10
1.714566929133858
 20
4.216535433070865
 30
0.0
 11
1.708661417322834
 21
4.226377952755905
 31
0.0
  0
LINE
  5
3D8B
330
1E
100
AcDbEntity
  8
0
100
AcDbLine
 10
1.728346456692913
 20
4.21259842519685
 30
0.0
 11
1.728346456692913
 21
4.205708661417323
 31
0.0
  0
LINE
  5
3D8C
330
1E
100
AcDbEntity
  8
0
100
AcDbLine
 10
1.728346456692913
 20
4.205708661417323
 30
0.0
 11
1.728346456692913
 21
4.197834645669291
 31
0.0
  0
LINE
  5
3D8D
330
1E
100
AcDbEntity
  8
0
100
AcDbLine
 10
1.71259842519685
 20
4.197834645669291
 30
0.0
 11
1.714566929133858
 21
4.202755905511811
 31
0.0
  0
LINE
  5
3D8E
330
1E
100
AcDbEntity
  8
0
100
AcDbLine
 10
1.714566929133858
 20
4.202755905511811
 30
0.0
 11
1.713582677165354
 21
4.20767716535433
 31
0.0
  0
LINE
  5
3D8F
330
1E
100
AcDbEntity
  8
0
100
AcDbLine
 10
1.713582677165354
 20
4.20767716535433
 30
0.0
 11
1.710629921259842
 21
4.215551181102362
 31
0.0
  0
LINE
  5
3D90
330
1E
100
AcDbEntity
  8
0
100
AcDbLine
 10
1.710629921259842
 20
4.215551181102362
 30
0.0
 11
1.708661417322834
 21
4.222440944881889
 31
0.0
  0
LINE
  5
3D91
330
1E
100
AcDbEntity
  8
0
100
AcDbLine
 10
1.708661417322834
 20
4.222440944881889
 30
0.0
 11
1.708661417322834
 21
4.224409448818897
 31
0.0
  0
LINE
  5
3D92
330
1E
100
AcDbEntity
  8
0
100
AcDbLine
 10
1.71259842519685
 20
4.197834645669291
 30
0.0
 11
1.719488188976377
 21
4.197834645669291
 31
0.0
  0
LINE
  5
3D93
330
1E
100
AcDbEntity
  8
0
100
AcDbLine
 10
1.719488188976377
 20
4.197834645669291
 30
0.0
 11
1.728346456692913
 21
4.197834645669291
 31
0.0
  0
LINE
  5
3D94
330
1E
100
AcDbEntity
  8
0
100
AcDbLine
 10
1.728346456692913
 20
4.197834645669291
 30
0.0
 11
1.728346456692913
 21
4.1751968503937
 31
0.0
  0
LINE
  5
3D95
330
1E
100
AcDbEntity
  8
0
100
AcDbLine
 10
1.728346456692913
 20
4.1751968503937
 30
0.0
 11
1.728346456692913
 21
4.158464566929134
 31
0.0
  0
LINE
  5
3D96
330
1E
100
AcDbEntity
  8
0
100
AcDbLine
 10
1.728346456692913
 20
4.158464566929134
 30
0.0
 11
1.728346456692913
 21
4.151574803149606
 31
0.0
  0
LINE
  5
3D97
330
1E
100
AcDbEntity
  8
0
100
AcDbLine
 10
1.71259842519685
 20
4.160433070866141
 30
0.0
 11
1.710629921259842
 21
4.163385826771653
 31
0.0
  0
LINE
  5
3D98
330
1E
100
AcDbEntity
  8
0
100
AcDbLine
 10
1.710629921259842
 20
4.163385826771653
 30
0.0
 11
1.710629921259842
 21
4.165354330708661
 31
0.0
  0
LINE
  5
3D99
330
1E
100
AcDbEntity
  8
0
100
AcDbLine
 10
1.710629921259842
 20
4.165354330708661
 30
0.0
 11
1.708661417322834
 21
4.174212598425197
 31
0.0
  0
LINE
  5
3D9A
330
1E
100
AcDbEntity
  8
0
100
AcDbLine
 10
1.708661417322834
 20
4.174212598425197
 30
0.0
 11
1.708661417322834
 21
4.177165354330708
 31
0.0
  0
LINE
  5
3D9B
330
1E
100
AcDbEntity
  8
0
100
AcDbLine
 10
1.708661417322834
 20
4.177165354330708
 30
0.0
 11
1.709645669291338
 21
4.188976377952755
 31
0.0
  0
LINE
  5
3D9C
330
1E
100
AcDbEntity
  8
0
100
AcDbLine
 10
1.709645669291338
 20
4.188976377952755
 30
0.0
 11
1.710629921259842
 21
4.18996062992126
 31
0.0
  0
LINE
  5
3D9D
330
1E
100
AcDbEntity
  8
0
100
AcDbLine
 10
1.710629921259842
 20
4.18996062992126
 30
0.0
 11
1.71259842519685
 21
4.196850393700787
 31
0.0
  0
LINE
  5
3D9E
330
1E
100
AcDbEntity
  8
0
100
AcDbLine
 10
1.71259842519685
 20
4.196850393700787
 30
0.0
 11
1.71259842519685
 21
4.197834645669291
 31
0.0
  0
LINE
  5
3D9F
330
1E
100
AcDbEntity
  8
0
100
AcDbLine
 10
1.758858267716535
 20
4.197834645669291
 30
0.0
 11
1.758858267716535
 21
4.1751968503937
 31
0.0
  0
LINE
  5
3DA0
330
1E
100
AcDbEntity
  8
0
100
AcDbLine
 10
1.758858267716535
 20
4.1751968503937
 30
0.0
 11
1.758858267716535
 21
4.158464566929134
 31
0.0
  0
LINE
  5
3DA1
330
1E
100
AcDbEntity
  8
0
100
AcDbLine
 10
1.758858267716535
 20
4.158464566929134
 30
0.0
 11
1.758858267716535
 21
4.151574803149606
 31
0.0
  0
LINE
  5
3DA2
330
1E
100
AcDbEntity
  8
0
100
AcDbLine
 10
1.758858267716535
 20
4.197834645669291
 30
0.0
 11
1.758858267716535
 21
4.205708661417323
 31
0.0
  0
LINE
  5
3DA3
330
1E
100
AcDbEntity
  8
0
100
AcDbLine
 10
1.758858267716535
 20
4.205708661417323
 30
0.0
 11
1.758858267716535
 21
4.21259842519685
 31
0.0
  0
LINE
  5
3DA4
330
1E
100
AcDbEntity
  8
0
100
AcDbLine
 10
1.708661417322834
 20
4.451771653543307
 30
0.0
 11
1.711614173228346
 21
4.442913385826771
 31
0.0
  0
LINE
  5
3DA5
330
1E
100
AcDbEntity
  8
0
100
AcDbLine
 10
1.711614173228346
 20
4.442913385826771
 30
0.0
 11
1.718503937007874
 21
4.432086614173228
 31
0.0
  0
LINE
  5
3DA6
330
1E
100
AcDbEntity
  8
0
100
AcDbLine
 10
1.718503937007874
 20
4.403543307086613
 30
0.0
 11
1.711614173228346
 21
4.393700787401574
 31
0.0
  0
LINE
  5
3DA7
330
1E
100
AcDbEntity
  8
0
100
AcDbLine
 10
1.711614173228346
 20
4.393700787401574
 30
0.0
 11
1.708661417322834
 21
4.383858267716535
 31
0.0
  0
LINE
  5
3DA8
330
1E
100
AcDbEntity
  8
0
100
AcDbLine
 10
1.708661417322834
 20
4.376968503937007
 30
0.0
 11
1.711614173228346
 21
4.372047244094487
 31
0.0
  0
LINE
  5
3DA9
330
1E
100
AcDbEntity
  8
0
100
AcDbLine
 10
1.711614173228346
 20
4.372047244094487
 30
0.0
 11
1.718503937007874
 21
4.372047244094487
 31
0.0
  0
LINE
  5
3DAA
330
1E
100
AcDbEntity
  8
0
100
AcDbLine
 10
2.284448818897637
 20
4.197834645669291
 30
0.0
 11
2.284448818897637
 21
4.205708661417323
 31
0.0
  0
LINE
  5
3DAB
330
1E
100
AcDbEntity
  8
0
100
AcDbLine
 10
2.284448818897637
 20
4.205708661417323
 30
0.0
 11
2.284448818897637
 21
4.21259842519685
 31
0.0
  0
LINE
  5
3DAC
330
1E
100
AcDbEntity
  8
0
100
AcDbLine
 10
3.141732283464566
 20
4.141732283464566
 30
0.0
 11
3.135826771653543
 21
4.131889763779527
 31
0.0
  0
LINE
  5
3DAD
330
1E
100
AcDbEntity
  8
0
100
AcDbLine
 10
3.135826771653543
 20
4.131889763779527
 30
0.0
 11
3.122047244094487
 21
4.127952755905512
 31
0.0
  0
LINE
  5
3DAE
330
1E
100
AcDbEntity
  8
0
100
AcDbLine
 10
3.140748031496062
 20
4.196850393700787
 30
0.0
 11
3.134842519685039
 21
4.196850393700787
 31
0.0
  0
LINE
  5
3DAF
330
1E
100
AcDbEntity
  8
0
100
AcDbLine
 10
3.134842519685039
 20
4.196850393700787
 30
0.0
 11
3.121062992125984
 21
4.196850393700787
 31
0.0
  0
LINE
  5
3DB0
330
1E
100
AcDbEntity
  8
0
100
AcDbLine
 10
1.621062992125984
 20
4.127952755905512
 30
0.0
 11
1.607283464566929
 21
4.131889763779527
 31
0.0
  0
LINE
  5
3DB1
330
1E
100
AcDbEntity
  8
0
100
AcDbLine
 10
1.607283464566929
 20
4.131889763779527
 30
0.0
 11
1.601377952755905
 21
4.141732283464566
 31
0.0
  0
LINE
  5
3DB2
330
1E
100
AcDbEntity
  8
0
100
AcDbLine
 10
1.622047244094488
 20
4.196850393700787
 30
0.0
 11
1.608267716535433
 21
4.196850393700787
 31
0.0
  0
LINE
  5
3DB3
330
1E
100
AcDbEntity
  8
0
100
AcDbLine
 10
1.608267716535433
 20
4.196850393700787
 30
0.0
 11
1.602362204724409
 21
4.196850393700787
 31
0.0
  0
LINE
  5
3DB4
330
1E
100
AcDbEntity
  8
0
100
AcDbLine
 10
3.121062992125984
 20
4.265748031496062
 30
0.0
 11
3.129921259842519
 21
4.274606299212598
 31
0.0
  0
LINE
  5
3DB5
330
1E
100
AcDbEntity
  8
0
100
AcDbLine
 10
3.129921259842519
 20
4.274606299212598
 30
0.0
 11
3.136811023622047
 21
4.284448818897637
 31
0.0
  0
LINE
  5
3DB6
330
1E
100
AcDbEntity
  8
0
100
AcDbLine
 10
3.136811023622047
 20
4.284448818897637
 30
0.0
 11
3.140748031496062
 21
4.295275590551181
 31
0.0
  0
LINE
  5
3DB7
330
1E
100
AcDbEntity
  8
0
100
AcDbLine
 10
3.140748031496062
 20
4.295275590551181
 30
0.0
 11
3.140748031496062
 21
4.298228346456692
 31
0.0
  0
LINE
  5
3DB8
330
1E
100
AcDbEntity
  8
0
100
AcDbLine
 10
1.602362204724409
 20
4.298228346456692
 30
0.0
 11
1.602362204724409
 21
4.295275590551181
 31
0.0
  0
LINE
  5
3DB9
330
1E
100
AcDbEntity
  8
0
100
AcDbLine
 10
1.602362204724409
 20
4.295275590551181
 30
0.0
 11
1.606299212598425
 21
4.284448818897637
 31
0.0
  0
LINE
  5
3DBA
330
1E
100
AcDbEntity
  8
0
100
AcDbLine
 10
1.606299212598425
 20
4.284448818897637
 30
0.0
 11
1.613188976377952
 21
4.274606299212598
 31
0.0
  0
LINE
  5
3DBB
330
1E
100
AcDbEntity
  8
0
100
AcDbLine
 10
1.613188976377952
 20
4.274606299212598
 30
0.0
 11
1.622047244094488
 21
4.265748031496062
 31
0.0
  0
LINE
  5
3DBC
330
1E
100
AcDbEntity
  8
0
100
AcDbLine
 10
3.084645669291338
 20
4.741141732283464
 30
0.0
 11
3.106299212598425
 21
4.737204724409449
 31
0.0
  0
LINE
  5
3DBD
330
1E
100
AcDbEntity
  8
0
100
AcDbLine
 10
3.106299212598425
 20
4.737204724409449
 30
0.0
 11
3.123031496062992
 21
4.725393700787401
 31
0.0
  0
LINE
  5
3DBE
330
1E
100
AcDbEntity
  8
0
100
AcDbLine
 10
3.123031496062992
 20
4.725393700787401
 30
0.0
 11
3.128937007874015
 21
4.709645669291338
 31
0.0
  0
LINE
  5
3DBF
330
1E
100
AcDbEntity
  8
0
100
AcDbLine
 10
3.084645669291338
 20
4.61023622047244
 30
0.0
 11
3.106299212598425
 21
4.614173228346456
 31
0.0
  0
LINE
  5
3DC0
330
1E
100
AcDbEntity
  8
0
100
AcDbLine
 10
3.106299212598425
 20
4.614173228346456
 30
0.0
 11
3.123031496062992
 21
4.625984251968503
 31
0.0
  0
LINE
  5
3DC1
330
1E
100
AcDbEntity
  8
0
100
AcDbLine
 10
3.123031496062992
 20
4.625984251968503
 30
0.0
 11
3.128937007874015
 21
4.641732283464566
 31
0.0
  0
LINE
  5
3DC2
330
1E
100
AcDbEntity
  8
0
100
AcDbLine
 10
1.659448818897637
 20
4.61023622047244
 30
0.0
 11
1.636811023622047
 21
4.614173228346456
 31
0.0
  0
LINE
  5
3DC3
330
1E
100
AcDbEntity
  8
0
100
AcDbLine
 10
1.636811023622047
 20
4.614173228346456
 30
0.0
 11
1.62007874015748
 21
4.625984251968503
 31
0.0
  0
LINE
  5
3DC4
330
1E
100
AcDbEntity
  8
0
100
AcDbLine
 10
1.62007874015748
 20
4.625984251968503
 30
0.0
 11
1.614173228346456
 21
4.641732283464566
 31
0.0
  0
LINE
  5
3DC5
330
1E
100
AcDbEntity
  8
0
100
AcDbLine
 10
1.659448818897637
 20
4.741141732283464
 30
0.0
 11
1.636811023622047
 21
4.737204724409449
 31
0.0
  0
LINE
  5
3DC6
330
1E
100
AcDbEntity
  8
0
100
AcDbLine
 10
1.636811023622047
 20
4.737204724409449
 30
0.0
 11
1.62007874015748
 21
4.725393700787401
 31
0.0
  0
LINE
  5
3DC7
330
1E
100
AcDbEntity
  8
0
100
AcDbLine
 10
1.62007874015748
 20
4.725393700787401
 30
0.0
 11
1.614173228346456
 21
4.709645669291338
 31
0.0
  0
LINE
  5
3DC8
330
1E
100
AcDbEntity
  8
0
100
AcDbLine
 10
3.046259842519685
 20
4.258858267716535
 30
0.0
 11
3.049212598425196
 21
4.256889763779527
 31
0.0
  0
LINE
  5
3DC9
330
1E
100
AcDbEntity
  8
0
100
AcDbLine
 10
3.049212598425196
 20
4.256889763779527
 30
0.0
 11
3.056102362204724
 21
4.254921259842519
 31
0.0
  0
LINE
  5
3DCA
330
1E
100
AcDbEntity
  8
0
100
AcDbLine
 10
3.048228346456693
 20
4.196850393700787
 30
0.0
 11
3.051181102362204
 21
4.196850393700787
 31
0.0
  0
LINE
  5
3DCB
330
1E
100
AcDbEntity
  8
0
100
AcDbLine
 10
3.051181102362204
 20
4.196850393700787
 30
0.0
 11
3.058070866141732
 21
4.196850393700787
 31
0.0
  0
LINE
  5
3DCC
330
1E
100
AcDbEntity
  8
0
100
AcDbLine
 10
3.0501968503937
 20
4.134842519685038
 30
0.0
 11
3.053149606299212
 21
4.129921259842519
 31
0.0
  0
LINE
  5
3DCD
330
1E
100
AcDbEntity
  8
0
100
AcDbLine
 10
3.053149606299212
 20
4.129921259842519
 30
0.0
 11
3.06003937007874
 21
4.127952755905512
 31
0.0
  0
LINE
  5
3DCE
330
1E
100
AcDbEntity
  8
0
100
AcDbLine
 10
3.0501968503937
 20
4.039370078740157
 30
0.0
 11
3.053149606299212
 21
4.032480314960629
 31
0.0
  0
LINE
  5
3DCF
330
1E
100
AcDbEntity
  8
0
100
AcDbLine
 10
3.053149606299212
 20
4.032480314960629
 30
0.0
 11
3.06003937007874
 21
4.029527559055117
 31
0.0
  0
LINE
  5
3DD0
330
1E
100
AcDbEntity
  8
0
100
AcDbLine
 10
1.687007874015747
 20
4.254921259842519
 30
0.0
 11
1.693897637795275
 21
4.256889763779527
 31
0.0
  0
LINE
  5
3DD1
330
1E
100
AcDbEntity
  8
0
100
AcDbLine
 10
1.693897637795275
 20
4.256889763779527
 30
0.0
 11
1.696850393700787
 21
4.258858267716535
 31
0.0
  0
LINE
  5
3DD2
330
1E
100
AcDbEntity
  8
0
100
AcDbLine
 10
1.68503937007874
 20
4.196850393700787
 30
0.0
 11
1.691929133858267
 21
4.196850393700787
 31
0.0
  0
LINE
  5
3DD3
330
1E
100
AcDbEntity
  8
0
100
AcDbLine
 10
1.691929133858267
 20
4.196850393700787
 30
0.0
 11
1.694881889763779
 21
4.196850393700787
 31
0.0
  0
LINE
  5
3DD4
330
1E
100
AcDbEntity
  8
0
100
AcDbLine
 10
1.683070866141732
 20
4.127952755905512
 30
0.0
 11
1.689960629921259
 21
4.129921259842519
 31
0.0
  0
LINE
  5
3DD5
330
1E
100
AcDbEntity
  8
0
100
AcDbLine
 10
1.689960629921259
 20
4.129921259842519
 30
0.0
 11
1.692913385826771
 21
4.134842519685038
 31
0.0
  0
LINE
  5
3DD6
330
1E
100
AcDbEntity
  8
0
100
AcDbLine
 10
1.683070866141732
 20
4.029527559055117
 30
0.0
 11
1.689960629921259
 21
4.032480314960629
 31
0.0
  0
LINE
  5
3DD7
330
1E
100
AcDbEntity
  8
0
100
AcDbLine
 10
1.689960629921259
 20
4.032480314960629
 30
0.0
 11
1.692913385826771
 21
4.039370078740157
 31
0.0
  0
LINE
  5
3DD8
330
1E
100
AcDbEntity
  8
0
100
AcDbLine
 10
3.084645669291338
 20
4.61023622047244
 30
0.0
 11
3.083661417322834
 21
4.633858267716535
 31
0.0
  0
LINE
  5
3DD9
330
1E
100
AcDbEntity
  8
0
100
AcDbLine
 10
3.083661417322834
 20
4.633858267716535
 30
0.0
 11
3.083661417322834
 21
4.661417322834645
 31
0.0
  0
LINE
  5
3DDA
330
1E
100
AcDbEntity
  8
0
100
AcDbLine
 10
3.083661417322834
 20
4.661417322834645
 30
0.0
 11
3.083661417322834
 21
4.68996062992126
 31
0.0
  0
LINE
  5
3DDB
330
1E
100
AcDbEntity
  8
0
100
AcDbLine
 10
3.083661417322834
 20
4.68996062992126
 30
0.0
 11
3.083661417322834
 21
4.71751968503937
 31
0.0
  0
LINE
  5
3DDC
330
1E
100
AcDbEntity
  8
0
100
AcDbLine
 10
3.083661417322834
 20
4.71751968503937
 30
0.0
 11
3.084645669291338
 21
4.741141732283464
 31
0.0
  0
LINE
  5
3DDD
330
1E
100
AcDbEntity
  8
0
100
AcDbLine
 10
1.659448818897637
 20
4.741141732283464
 30
0.0
 11
1.659448818897637
 21
4.71751968503937
 31
0.0
  0
LINE
  5
3DDE
330
1E
100
AcDbEntity
  8
0
100
AcDbLine
 10
1.659448818897637
 20
4.71751968503937
 30
0.0
 11
1.659448818897637
 21
4.68996062992126
 31
0.0
  0
LINE
  5
3DDF
330
1E
100
AcDbEntity
  8
0
100
AcDbLine
 10
1.659448818897637
 20
4.68996062992126
 30
0.0
 11
1.659448818897637
 21
4.661417322834645
 31
0.0
  0
LINE
  5
3DE0
330
1E
100
AcDbEntity
  8
0
100
AcDbLine
 10
1.659448818897637
 20
4.661417322834645
 30
0.0
 11
1.659448818897637
 21
4.633858267716535
 31
0.0
  0
LINE
  5
3DE1
330
1E
100
AcDbEntity
  8
0
100
AcDbLine
 10
1.659448818897637
 20
4.633858267716535
 30
0.0
 11
1.659448818897637
 21
4.61023622047244
 31
0.0
  0
LINE
  5
3DE2
330
1E
100
AcDbEntity
  8
0
100
AcDbLine
 10
1.687007874015747
 20
4.452755905511811
 30
0.0
 11
1.693897637795275
 21
4.454724409448818
 31
0.0
  0
LINE
  5
3DE3
330
1E
100
AcDbEntity
  8
0
100
AcDbLine
 10
1.693897637795275
 20
4.454724409448818
 30
0.0
 11
1.697834645669291
 21
4.459645669291338
 31
0.0
  0
LINE
  5
3DE4
330
1E
100
AcDbEntity
  8
0
100
AcDbLine
 10
1.61023622047244
 20
4.475393700787401
 30
0.0
 11
1.62007874015748
 21
4.463582677165354
 31
0.0
  0
LINE
  5
3DE5
330
1E
100
AcDbEntity
  8
0
100
AcDbLine
 10
1.62007874015748
 20
4.463582677165354
 30
0.0
 11
1.634842519685039
 21
4.455708661417323
 31
0.0
  0
LINE
  5
3DE6
330
1E
100
AcDbEntity
  8
0
100
AcDbLine
 10
1.634842519685039
 20
4.455708661417323
 30
0.0
 11
1.653543307086614
 21
4.452755905511811
 31
0.0
  0
LINE
  5
3DE7
330
1E
100
AcDbEntity
  8
0
100
AcDbLine
 10
1.694881889763779
 20
4.196850393700787
 30
0.0
 11
1.693897637795275
 21
4.174212598425197
 31
0.0
  0
LINE
  5
3DE8
330
1E
100
AcDbEntity
  8
0
100
AcDbLine
 10
1.693897637795275
 20
4.174212598425197
 30
0.0
 11
1.693897637795275
 21
4.15255905511811
 31
0.0
  0
LINE
  5
3DE9
330
1E
100
AcDbEntity
  8
0
100
AcDbLine
 10
1.693897637795275
 20
4.15255905511811
 30
0.0
 11
1.692913385826771
 21
4.134842519685038
 31
0.0
  0
LINE
  5
3DEA
330
1E
100
AcDbEntity
  8
0
100
AcDbLine
 10
1.618110236220472
 20
4.029527559055117
 30
0.0
 11
1.608267716535433
 21
4.029527559055117
 31
0.0
  0
LINE
  5
3DEB
330
1E
100
AcDbEntity
  8
0
100
AcDbLine
 10
1.608267716535433
 20
4.029527559055117
 30
0.0
 11
1.600393700787401
 21
4.029527559055117
 31
0.0
  0
LINE
  5
3DEC
330
1E
100
AcDbEntity
  8
0
100
AcDbLine
 10
1.600393700787401
 20
4.029527559055117
 30
0.0
 11
1.597440944881889
 21
4.028543307086613
 31
0.0
  0
LINE
  5
3DED
330
1E
100
AcDbEntity
  8
0
100
AcDbLine
 10
1.646653543307086
 20
4.254921259842519
 30
0.0
 11
1.633858267716535
 21
4.257874015748031
 31
0.0
  0
LINE
  5
3DEE
330
1E
100
AcDbEntity
  8
0
100
AcDbLine
 10
1.633858267716535
 20
4.257874015748031
 30
0.0
 11
1.622047244094488
 21
4.265748031496062
 31
0.0
  0
LINE
  5
3DEF
330
1E
100
AcDbEntity
  8
0
100
AcDbLine
 10
1.683070866141732
 20
4.127952755905512
 30
0.0
 11
1.683070866141732
 21
4.14763779527559
 31
0.0
  0
LINE
  5
3DF0
330
1E
100
AcDbEntity
  8
0
100
AcDbLine
 10
1.683070866141732
 20
4.14763779527559
 30
0.0
 11
1.684055118110236
 21
4.171259842519685
 31
0.0
  0
LINE
  5
3DF1
330
1E
100
AcDbEntity
  8
0
100
AcDbLine
 10
1.684055118110236
 20
4.171259842519685
 30
0.0
 11
1.68503937007874
 21
4.196850393700787
 31
0.0
  0
LINE
  5
3DF2
330
1E
100
AcDbEntity
  8
0
100
AcDbLine
 10
1.622047244094488
 20
4.196850393700787
 30
0.0
 11
1.622047244094488
 21
4.171259842519685
 31
0.0
  0
LINE
  5
3DF3
330
1E
100
AcDbEntity
  8
0
100
AcDbLine
 10
1.622047244094488
 20
4.171259842519685
 30
0.0
 11
1.622047244094488
 21
4.14763779527559
 31
0.0
  0
LINE
  5
3DF4
330
1E
100
AcDbEntity
  8
0
100
AcDbLine
 10
1.622047244094488
 20
4.14763779527559
 30
0.0
 11
1.621062992125984
 21
4.127952755905512
 31
0.0
  0
LINE
  5
3DF5
330
1E
100
AcDbEntity
  8
0
100
AcDbLine
 10
3.046259842519685
 20
4.459645669291338
 30
0.0
 11
3.049212598425196
 21
4.454724409448818
 31
0.0
  0
LINE
  5
3DF6
330
1E
100
AcDbEntity
  8
0
100
AcDbLine
 10
3.049212598425196
 20
4.454724409448818
 30
0.0
 11
3.056102362204724
 21
4.452755905511811
 31
0.0
  0
LINE
  5
3DF7
330
1E
100
AcDbEntity
  8
0
100
AcDbLine
 10
3.089566929133858
 20
4.452755905511811
 30
0.0
 11
3.108267716535432
 21
4.455708661417323
 31
0.0
  0
LINE
  5
3DF8
330
1E
100
AcDbEntity
  8
0
100
AcDbLine
 10
3.108267716535432
 20
4.455708661417323
 30
0.0
 11
3.123031496062992
 21
4.463582677165354
 31
0.0
  0
LINE
  5
3DF9
330
1E
100
AcDbEntity
  8
0
100
AcDbLine
 10
3.123031496062992
 20
4.463582677165354
 30
0.0
 11
3.132874015748031
 21
4.475393700787401
 31
0.0
  0
LINE
  5
3DFA
330
1E
100
AcDbEntity
  8
0
100
AcDbLine
 10
3.0501968503937
 20
4.134842519685038
 30
0.0
 11
3.0501968503937
 21
4.15255905511811
 31
0.0
  0
LINE
  5
3DFB
330
1E
100
AcDbEntity
  8
0
100
AcDbLine
 10
3.0501968503937
 20
4.15255905511811
 30
0.0
 11
3.049212598425196
 21
4.174212598425197
 31
0.0
  0
LINE
  5
3DFC
330
1E
100
AcDbEntity
  8
0
100
AcDbLine
 10
3.049212598425196
 20
4.174212598425197
 30
0.0
 11
3.048228346456693
 21
4.196850393700787
 31
0.0
  0
LINE
  5
3DFD
330
1E
100
AcDbEntity
  8
0
100
AcDbLine
 10
3.145669291338582
 20
4.028543307086613
 30
0.0
 11
3.14271653543307
 21
4.029527559055117
 31
0.0
  0
LINE
  5
3DFE
330
1E
100
AcDbEntity
  8
0
100
AcDbLine
 10
3.14271653543307
 20
4.029527559055117
 30
0.0
 11
3.135826771653543
 21
4.029527559055117
 31
0.0
  0
LINE
  5
3DFF
330
1E
100
AcDbEntity
  8
0
100
AcDbLine
 10
3.135826771653543
 20
4.029527559055117
 30
0.0
 11
3.125
 21
4.029527559055117
 31
0.0
  0
LINE
  5
3E00
330
1E
100
AcDbEntity
  8
0
100
AcDbLine
 10
3.121062992125984
 20
4.265748031496062
 30
0.0
 11
3.109251968503937
 21
4.257874015748031
 31
0.0
  0
LINE
  5
3E01
330
1E
100
AcDbEntity
  8
0
100
AcDbLine
 10
3.109251968503937
 20
4.257874015748031
 30
0.0
 11
3.096456692913385
 21
4.254921259842519
 31
0.0
  0
LINE
  5
3E02
330
1E
100
AcDbEntity
  8
0
100
AcDbLine
 10
3.058070866141732
 20
4.196850393700787
 30
0.0
 11
3.059055118110236
 21
4.171259842519685
 31
0.0
  0
LINE
  5
3E03
330
1E
100
AcDbEntity
  8
0
100
AcDbLine
 10
3.059055118110236
 20
4.171259842519685
 30
0.0
 11
3.06003937007874
 21
4.14763779527559
 31
0.0
  0
LINE
  5
3E04
330
1E
100
AcDbEntity
  8
0
100
AcDbLine
 10
3.06003937007874
 20
4.14763779527559
 30
0.0
 11
3.06003937007874
 21
4.127952755905512
 31
0.0
  0
LINE
  5
3E05
330
1E
100
AcDbEntity
  8
0
100
AcDbLine
 10
3.122047244094487
 20
4.127952755905512
 30
0.0
 11
3.122047244094487
 21
4.14763779527559
 31
0.0
  0
LINE
  5
3E06
330
1E
100
AcDbEntity
  8
0
100
AcDbLine
 10
3.122047244094487
 20
4.14763779527559
 30
0.0
 11
3.121062992125984
 21
4.171259842519685
 31
0.0
  0
LINE
  5
3E07
330
1E
100
AcDbEntity
  8
0
100
AcDbLine
 10
3.121062992125984
 20
4.171259842519685
 30
0.0
 11
3.121062992125984
 21
4.196850393700787
 31
0.0
  0
LINE
  5
3E08
330
1E
100
AcDbEntity
  8
0
100
AcDbLine
 10
3.059055118110236
 20
4.028543307086613
 30
0.0
 11
3.052165354330708
 21
4.030511811023622
 31
0.0
  0
LINE
  5
3E09
330
1E
100
AcDbEntity
  8
0
100
AcDbLine
 10
3.052165354330708
 20
4.030511811023622
 30
0.0
 11
3.049212598425196
 21
4.037401574803149
 31
0.0
  0
LINE
  5
3E0A
330
1E
100
AcDbEntity
  8
0
100
AcDbLine
 10
1.693897637795275
 20
4.037401574803149
 30
0.0
 11
1.690944881889763
 21
4.030511811023622
 31
0.0
  0
LINE
  5
3E0B
330
1E
100
AcDbEntity
  8
0
100
AcDbLine
 10
1.690944881889763
 20
4.030511811023622
 30
0.0
 11
1.684055118110236
 21
4.028543307086613
 31
0.0
  0
LINE
  5
3E0C
330
1E
100
AcDbEntity
  8
0
100
AcDbLine
 10
3.130905511811023
 20
4.603346456692912
 30
0.0
 11
3.125984251968503
 21
4.604330708661417
 31
0.0
  0
LINE
  5
3E0D
330
1E
100
AcDbEntity
  8
0
100
AcDbLine
 10
3.125984251968503
 20
4.604330708661417
 30
0.0
 11
3.116141732283464
 21
4.605314960629921
 31
0.0
  0
LINE
  5
3E0E
330
1E
100
AcDbEntity
  8
0
100
AcDbLine
 10
3.116141732283464
 20
4.605314960629921
 30
0.0
 11
3.101377952755905
 21
4.606299212598425
 31
0.0
  0
LINE
  5
3E0F
330
1E
100
AcDbEntity
  8
0
100
AcDbLine
 10
3.101377952755905
 20
4.606299212598425
 30
0.0
 11
3.084645669291338
 21
4.606299212598425
 31
0.0
  0
LINE
  5
3E10
330
1E
100
AcDbEntity
  8
0
100
AcDbLine
 10
1.658464566929133
 20
4.606299212598425
 30
0.0
 11
1.641732283464566
 21
4.606299212598425
 31
0.0
  0
LINE
  5
3E11
330
1E
100
AcDbEntity
  8
0
100
AcDbLine
 10
1.641732283464566
 20
4.606299212598425
 30
0.0
 11
1.626968503937007
 21
4.605314960629921
 31
0.0
  0
LINE
  5
3E12
330
1E
100
AcDbEntity
  8
0
100
AcDbLine
 10
1.626968503937007
 20
4.605314960629921
 30
0.0
 11
1.617125984251968
 21
4.604330708661417
 31
0.0
  0
LINE
  5
3E13
330
1E
100
AcDbEntity
  8
0
100
AcDbLine
 10
1.617125984251968
 20
4.604330708661417
 30
0.0
 11
1.613188976377952
 21
4.603346456692912
 31
0.0
  0
LINE
  5
3E14
330
1E
100
AcDbEntity
  8
0
100
AcDbLine
 10
2.284448818897637
 20
4.21259842519685
 30
0.0
 11
2.284448818897637
 21
4.187007874015748
 31
0.0
  0
LINE
  5
3E15
330
1E
100
AcDbEntity
  8
0
100
AcDbLine
 10
2.284448818897637
 20
4.187007874015748
 30
0.0
 11
2.284448818897637
 21
4.164370078740157
 31
0.0
  0
LINE
  5
3E16
330
1E
100
AcDbEntity
  8
0
100
AcDbLine
 10
2.284448818897637
 20
4.164370078740157
 30
0.0
 11
2.284448818897637
 21
4.154527559055117
 31
0.0
  0
LINE
  5
3E17
330
1E
100
AcDbEntity
  8
0
100
AcDbLine
 10
2.284448818897637
 20
4.154527559055117
 30
0.0
 11
2.284448818897637
 21
4.151574803149606
 31
0.0
  0
LINE
  5
3E18
330
1E
100
AcDbEntity
  8
0
100
AcDbLine
 10
2.222440944881889
 20
4.154527559055117
 30
0.0
 11
2.223425196850393
 21
4.146653543307086
 31
0.0
  0
LINE
  5
3E19
330
1E
100
AcDbEntity
  8
0
100
AcDbLine
 10
2.223425196850393
 20
4.146653543307086
 30
0.0
 11
2.222440944881889
 21
4.139763779527559
 31
0.0
  0
LINE
  5
3E1A
330
1E
100
AcDbEntity
  8
0
100
AcDbLine
 10
2.520669291338582
 20
4.139763779527559
 30
0.0
 11
2.520669291338582
 21
4.146653543307086
 31
0.0
  0
LINE
  5
3E1B
330
1E
100
AcDbEntity
  8
0
100
AcDbLine
 10
2.520669291338582
 20
4.146653543307086
 30
0.0
 11
2.520669291338582
 21
4.154527559055117
 31
0.0
  0
LINE
  5
3E1C
330
1E
100
AcDbEntity
  8
0
100
AcDbLine
 10
2.458661417322834
 20
4.164370078740157
 30
0.0
 11
2.458661417322834
 21
4.154527559055117
 31
0.0
  0
LINE
  5
3E1D
330
1E
100
AcDbEntity
  8
0
100
AcDbLine
 10
2.458661417322834
 20
4.154527559055117
 30
0.0
 11
2.458661417322834
 21
4.151574803149606
 31
0.0
  0
LINE
  5
3E1E
330
1E
100
AcDbEntity
  8
0
100
AcDbLine
 10
2.458661417322834
 20
4.21259842519685
 30
0.0
 11
2.458661417322834
 21
4.187007874015748
 31
0.0
  0
LINE
  5
3E1F
330
1E
100
AcDbEntity
  8
0
100
AcDbLine
 10
2.458661417322834
 20
4.187007874015748
 30
0.0
 11
2.458661417322834
 21
4.164370078740157
 31
0.0
  0
LINE
  5
3E20
330
1E
100
AcDbEntity
  8
0
100
AcDbLine
 10
3.128937007874015
 20
4.709645669291338
 30
0.0
 11
3.128937007874015
 21
4.693897637795275
 31
0.0
  0
LINE
  5
3E21
330
1E
100
AcDbEntity
  8
0
100
AcDbLine
 10
3.128937007874015
 20
4.693897637795275
 30
0.0
 11
3.128937007874015
 21
4.6751968503937
 31
0.0
  0
LINE
  5
3E22
330
1E
100
AcDbEntity
  8
0
100
AcDbLine
 10
3.128937007874015
 20
4.6751968503937
 30
0.0
 11
3.128937007874015
 21
4.657480314960629
 31
0.0
  0
LINE
  5
3E23
330
1E
100
AcDbEntity
  8
0
100
AcDbLine
 10
3.128937007874015
 20
4.657480314960629
 30
0.0
 11
3.128937007874015
 21
4.641732283464566
 31
0.0
  0
LINE
  5
3E24
330
1E
100
AcDbEntity
  8
0
100
AcDbLine
 10
3.140748031496062
 20
4.196850393700787
 30
0.0
 11
3.141732283464566
 21
4.167322834645669
 31
0.0
  0
LINE
  5
3E25
330
1E
100
AcDbEntity
  8
0
100
AcDbLine
 10
3.141732283464566
 20
4.167322834645669
 30
0.0
 11
3.141732283464566
 21
4.141732283464566
 31
0.0
  0
LINE
  5
3E26
330
1E
100
AcDbEntity
  8
0
100
AcDbLine
 10
3.048228346456693
 20
4.128937007874015
 30
0.0
 11
3.048228346456693
 21
4.133858267716535
 31
0.0
  0
LINE
  5
3E27
330
1E
100
AcDbEntity
  8
0
100
AcDbLine
 10
3.048228346456693
 20
4.133858267716535
 30
0.0
 11
3.049212598425196
 21
4.145669291338582
 31
0.0
  0
LINE
  5
3E28
330
1E
100
AcDbEntity
  8
0
100
AcDbLine
 10
3.049212598425196
 20
4.145669291338582
 30
0.0
 11
3.049212598425196
 21
4.163385826771653
 31
0.0
  0
LINE
  5
3E29
330
1E
100
AcDbEntity
  8
0
100
AcDbLine
 10
3.049212598425196
 20
4.163385826771653
 30
0.0
 11
3.048228346456693
 21
4.185039370078739
 31
0.0
  0
LINE
  5
3E2A
330
1E
100
AcDbEntity
  8
0
100
AcDbLine
 10
3.048228346456693
 20
4.185039370078739
 30
0.0
 11
3.047244094488188
 21
4.208661417322834
 31
0.0
  0
LINE
  5
3E2B
330
1E
100
AcDbEntity
  8
0
100
AcDbLine
 10
3.047244094488188
 20
4.208661417322834
 30
0.0
 11
3.046259842519685
 21
4.230314960629921
 31
0.0
  0
LINE
  5
3E2C
330
1E
100
AcDbEntity
  8
0
100
AcDbLine
 10
3.046259842519685
 20
4.230314960629921
 30
0.0
 11
3.045275590551181
 21
4.248031496062991
 31
0.0
  0
LINE
  5
3E2D
330
1E
100
AcDbEntity
  8
0
100
AcDbLine
 10
3.045275590551181
 20
4.248031496062991
 30
0.0
 11
3.044291338582677
 21
4.259842519685038
 31
0.0
  0
LINE
  5
3E2E
330
1E
100
AcDbEntity
  8
0
100
AcDbLine
 10
3.042322834645669
 20
4.236220472440944
 30
0.0
 11
3.042322834645669
 21
4.25
 31
0.0
  0
LINE
  5
3E2F
330
1E
100
AcDbEntity
  8
0
100
AcDbLine
 10
3.042322834645669
 20
4.25
 30
0.0
 11
3.043307086614173
 21
4.256889763779527
 31
0.0
  0
LINE
  5
3E30
330
1E
100
AcDbEntity
  8
0
100
AcDbLine
 10
1.694881889763779
 20
4.128937007874015
 30
0.0
 11
1.694881889763779
 21
4.133858267716535
 31
0.0
  0
LINE
  5
3E31
330
1E
100
AcDbEntity
  8
0
100
AcDbLine
 10
1.694881889763779
 20
4.133858267716535
 30
0.0
 11
1.693897637795275
 21
4.145669291338582
 31
0.0
  0
LINE
  5
3E32
330
1E
100
AcDbEntity
  8
0
100
AcDbLine
 10
1.693897637795275
 20
4.145669291338582
 30
0.0
 11
1.694881889763779
 21
4.163385826771653
 31
0.0
  0
LINE
  5
3E33
330
1E
100
AcDbEntity
  8
0
100
AcDbLine
 10
1.694881889763779
 20
4.163385826771653
 30
0.0
 11
1.694881889763779
 21
4.185039370078739
 31
0.0
  0
LINE
  5
3E34
330
1E
100
AcDbEntity
  8
0
100
AcDbLine
 10
1.694881889763779
 20
4.185039370078739
 30
0.0
 11
1.695866141732283
 21
4.208661417322834
 31
0.0
  0
LINE
  5
3E35
330
1E
100
AcDbEntity
  8
0
100
AcDbLine
 10
1.695866141732283
 20
4.208661417322834
 30
0.0
 11
1.696850393700787
 21
4.230314960629921
 31
0.0
  0
LINE
  5
3E36
330
1E
100
AcDbEntity
  8
0
100
AcDbLine
 10
1.696850393700787
 20
4.230314960629921
 30
0.0
 11
1.697834645669291
 21
4.248031496062991
 31
0.0
  0
LINE
  5
3E37
330
1E
100
AcDbEntity
  8
0
100
AcDbLine
 10
1.697834645669291
 20
4.248031496062991
 30
0.0
 11
1.698818897637795
 21
4.259842519685038
 31
0.0
  0
LINE
  5
3E38
330
1E
100
AcDbEntity
  8
0
100
AcDbLine
 10
1.700787401574803
 20
4.237204724409449
 30
0.0
 11
1.700787401574803
 21
4.25
 31
0.0
  0
LINE
  5
3E39
330
1E
100
AcDbEntity
  8
0
100
AcDbLine
 10
1.700787401574803
 20
4.25
 30
0.0
 11
1.699803149606299
 21
4.256889763779527
 31
0.0
  0
LINE
  5
3E3A
330
1E
100
AcDbEntity
  8
0
100
AcDbLine
 10
1.614173228346456
 20
4.641732283464566
 30
0.0
 11
1.614173228346456
 21
4.657480314960629
 31
0.0
  0
LINE
  5
3E3B
330
1E
100
AcDbEntity
  8
0
100
AcDbLine
 10
1.614173228346456
 20
4.657480314960629
 30
0.0
 11
1.614173228346456
 21
4.6751968503937
 31
0.0
  0
LINE
  5
3E3C
330
1E
100
AcDbEntity
  8
0
100
AcDbLine
 10
1.614173228346456
 20
4.6751968503937
 30
0.0
 11
1.614173228346456
 21
4.693897637795275
 31
0.0
  0
LINE
  5
3E3D
330
1E
100
AcDbEntity
  8
0
100
AcDbLine
 10
1.614173228346456
 20
4.693897637795275
 30
0.0
 11
1.614173228346456
 21
4.709645669291338
 31
0.0
  0
LINE
  5
3E3E
330
1E
100
AcDbEntity
  8
0
100
AcDbLine
 10
1.601377952755905
 20
4.141732283464566
 30
0.0
 11
1.602362204724409
 21
4.167322834645669
 31
0.0
  0
LINE
  5
3E3F
330
1E
100
AcDbEntity
  8
0
100
AcDbLine
 10
1.602362204724409
 20
4.167322834645669
 30
0.0
 11
1.602362204724409
 21
4.196850393700787
 31
0.0
  0
LINE
  5
3E40
330
1E
100
AcDbEntity
  8
0
100
AcDbLine
 10
3.102362204724409
 20
5.261811023622047
 30
0.0
 11
3.119094488188976
 21
5.257874015748031
 31
0.0
  0
LINE
  5
3E41
330
1E
100
AcDbEntity
  8
0
100
AcDbLine
 10
3.119094488188976
 20
5.257874015748031
 30
0.0
 11
3.133858267716535
 21
5.244094488188975
 31
0.0
  0
LINE
  5
3E42
330
1E
100
AcDbEntity
  8
0
100
AcDbLine
 10
3.133858267716535
 20
5.244094488188975
 30
0.0
 11
3.14271653543307
 21
5.224409448818897
 31
0.0
  0
LINE
  5
3E43
330
1E
100
AcDbEntity
  8
0
100
AcDbLine
 10
3.14271653543307
 20
5.224409448818897
 30
0.0
 11
3.146653543307086
 21
5.199803149606299
 31
0.0
  0
LINE
  5
3E44
330
1E
100
AcDbEntity
  8
0
100
AcDbLine
 10
1.597440944881889
 20
5.199803149606299
 30
0.0
 11
1.600393700787401
 21
5.224409448818897
 31
0.0
  0
LINE
  5
3E45
330
1E
100
AcDbEntity
  8
0
100
AcDbLine
 10
1.600393700787401
 20
5.224409448818897
 30
0.0
 11
1.61023622047244
 21
5.244094488188975
 31
0.0
  0
LINE
  5
3E46
330
1E
100
AcDbEntity
  8
0
100
AcDbLine
 10
1.61023622047244
 20
5.244094488188975
 30
0.0
 11
1.624015748031496
 21
5.257874015748031
 31
0.0
  0
LINE
  5
3E47
330
1E
100
AcDbEntity
  8
0
100
AcDbLine
 10
1.624015748031496
 20
5.257874015748031
 30
0.0
 11
1.640748031496062
 21
5.261811023622047
 31
0.0
  0
LINE
  5
3E48
330
1E
100
AcDbEntity
  8
0
100
AcDbLine
 10
3.034448818897637
 20
4.458661417322834
 30
0.0
 11
3.034448818897637
 21
4.459645669291338
 31
0.0
  0
LINE
  5
3E49
330
1E
100
AcDbEntity
  8
0
100
AcDbLine
 10
3.034448818897637
 20
4.459645669291338
 30
0.0
 11
3.035433070866141
 21
4.461614173228346
 31
0.0
  0
LINE
  5
3E4A
330
1E
100
AcDbEntity
  8
0
100
AcDbLine
 10
3.035433070866141
 20
4.461614173228346
 30
0.0
 11
3.036417322834645
 21
4.46259842519685
 31
0.0
  0
LINE
  5
3E4B
330
1E
100
AcDbEntity
  8
0
100
AcDbLine
 10
3.036417322834645
 20
4.46259842519685
 30
0.0
 11
3.037401574803149
 21
4.463582677165354
 31
0.0
  0
LINE
  5
3E4C
330
1E
100
AcDbEntity
  8
0
100
AcDbLine
 10
3.037401574803149
 20
4.463582677165354
 30
0.0
 11
3.038385826771653
 21
4.464566929133858
 31
0.0
  0
LINE
  5
3E4D
330
1E
100
AcDbEntity
  8
0
100
AcDbLine
 10
3.038385826771653
 20
4.464566929133858
 30
0.0
 11
3.039370078740157
 21
4.466535433070865
 31
0.0
  0
LINE
  5
3E4E
330
1E
100
AcDbEntity
  8
0
100
AcDbLine
 10
3.039370078740157
 20
4.466535433070865
 30
0.0
 11
3.042322834645669
 21
4.46751968503937
 31
0.0
  0
LINE
  5
3E4F
330
1E
100
AcDbEntity
  8
0
100
AcDbLine
 10
3.042322834645669
 20
4.46751968503937
 30
0.0
 11
3.044291338582677
 21
4.469488188976377
 31
0.0
  0
LINE
  5
3E50
330
1E
100
AcDbEntity
  8
0
100
AcDbLine
 10
3.044291338582677
 20
4.469488188976377
 30
0.0
 11
3.047244094488188
 21
4.470472440944881
 31
0.0
  0
LINE
  5
3E51
330
1E
100
AcDbEntity
  8
0
100
AcDbLine
 10
3.047244094488188
 20
4.470472440944881
 30
0.0
 11
3.0501968503937
 21
4.471456692913386
 31
0.0
  0
LINE
  5
3E52
330
1E
100
AcDbEntity
  8
0
100
AcDbLine
 10
3.0501968503937
 20
4.471456692913386
 30
0.0
 11
3.053149606299212
 21
4.472440944881889
 31
0.0
  0
LINE
  5
3E53
330
1E
100
AcDbEntity
  8
0
100
AcDbLine
 10
3.053149606299212
 20
4.472440944881889
 30
0.0
 11
3.057086614173228
 21
4.473425196850393
 31
0.0
  0
LINE
  5
3E54
330
1E
100
AcDbEntity
  8
0
100
AcDbLine
 10
3.057086614173228
 20
4.473425196850393
 30
0.0
 11
3.06003937007874
 21
4.473425196850393
 31
0.0
  0
LINE
  5
3E55
330
1E
100
AcDbEntity
  8
0
100
AcDbLine
 10
3.06003937007874
 20
4.473425196850393
 30
0.0
 11
3.063976377952756
 21
4.473425196850393
 31
0.0
  0
LINE
  5
3E56
330
1E
100
AcDbEntity
  8
0
100
AcDbLine
 10
3.063976377952756
 20
4.473425196850393
 30
0.0
 11
3.064960629921259
 21
4.473425196850393
 31
0.0
  0
LINE
  5
3E57
330
1E
100
AcDbEntity
  8
0
100
AcDbLine
 10
3.190944881889763
 20
4.544291338582676
 30
0.0
 11
3.189960629921259
 21
4.548228346456692
 31
0.0
  0
LINE
  5
3E58
330
1E
100
AcDbEntity
  8
0
100
AcDbLine
 10
3.189960629921259
 20
4.548228346456692
 30
0.0
 11
3.188976377952756
 21
4.552165354330708
 31
0.0
  0
LINE
  5
3E59
330
1E
100
AcDbEntity
  8
0
100
AcDbLine
 10
3.188976377952756
 20
4.552165354330708
 30
0.0
 11
3.187992125984251
 21
4.557086614173228
 31
0.0
  0
LINE
  5
3E5A
330
1E
100
AcDbEntity
  8
0
100
AcDbLine
 10
3.187992125984251
 20
4.557086614173228
 30
0.0
 11
3.186023622047243
 21
4.561023622047244
 31
0.0
  0
LINE
  5
3E5B
330
1E
100
AcDbEntity
  8
0
100
AcDbLine
 10
3.186023622047243
 20
4.561023622047244
 30
0.0
 11
3.184055118110236
 21
4.56496062992126
 31
0.0
  0
LINE
  5
3E5C
330
1E
100
AcDbEntity
  8
0
100
AcDbLine
 10
3.184055118110236
 20
4.56496062992126
 30
0.0
 11
3.181102362204724
 21
4.568897637795275
 31
0.0
  0
LINE
  5
3E5D
330
1E
100
AcDbEntity
  8
0
100
AcDbLine
 10
3.181102362204724
 20
4.568897637795275
 30
0.0
 11
3.178149606299212
 21
4.572834645669291
 31
0.0
  0
LINE
  5
3E5E
330
1E
100
AcDbEntity
  8
0
100
AcDbLine
 10
3.178149606299212
 20
4.572834645669291
 30
0.0
 11
3.1751968503937
 21
4.576771653543307
 31
0.0
  0
LINE
  5
3E5F
330
1E
100
AcDbEntity
  8
0
100
AcDbLine
 10
3.1751968503937
 20
4.576771653543307
 30
0.0
 11
3.171259842519685
 21
4.579724409448818
 31
0.0
  0
LINE
  5
3E60
330
1E
100
AcDbEntity
  8
0
100
AcDbLine
 10
3.171259842519685
 20
4.579724409448818
 30
0.0
 11
3.167322834645669
 21
4.583661417322834
 31
0.0
  0
LINE
  5
3E61
330
1E
100
AcDbEntity
  8
0
100
AcDbLine
 10
3.167322834645669
 20
4.583661417322834
 30
0.0
 11
3.162401574803149
 21
4.586614173228346
 31
0.0
  0
LINE
  5
3E62
330
1E
100
AcDbEntity
  8
0
100
AcDbLine
 10
3.162401574803149
 20
4.586614173228346
 30
0.0
 11
3.15748031496063
 21
4.588582677165354
 31
0.0
  0
LINE
  5
3E63
330
1E
100
AcDbEntity
  8
0
100
AcDbLine
 10
3.15748031496063
 20
4.588582677165354
 30
0.0
 11
3.15255905511811
 21
4.591535433070865
 31
0.0
  0
LINE
  5
3E64
330
1E
100
AcDbEntity
  8
0
100
AcDbLine
 10
3.15255905511811
 20
4.591535433070865
 30
0.0
 11
3.14763779527559
 21
4.593503937007874
 31
0.0
  0
LINE
  5
3E65
330
1E
100
AcDbEntity
  8
0
100
AcDbLine
 10
3.14763779527559
 20
4.593503937007874
 30
0.0
 11
3.141732283464566
 21
4.595472440944881
 31
0.0
  0
LINE
  5
3E66
330
1E
100
AcDbEntity
  8
0
100
AcDbLine
 10
3.141732283464566
 20
4.595472440944881
 30
0.0
 11
3.136811023622047
 21
4.596456692913386
 31
0.0
  0
LINE
  5
3E67
330
1E
100
AcDbEntity
  8
0
100
AcDbLine
 10
3.136811023622047
 20
4.596456692913386
 30
0.0
 11
3.130905511811023
 21
4.597440944881889
 31
0.0
  0
LINE
  5
3E68
330
1E
100
AcDbEntity
  8
0
100
AcDbLine
 10
3.130905511811023
 20
4.597440944881889
 30
0.0
 11
3.125
 21
4.598425196850393
 31
0.0
  0
LINE
  5
3E69
330
1E
100
AcDbEntity
  8
0
100
AcDbLine
 10
3.125
 20
4.598425196850393
 30
0.0
 11
3.119094488188976
 21
4.598425196850393
 31
0.0
  0
LINE
  5
3E6A
330
1E
100
AcDbEntity
  8
0
100
AcDbLine
 10
3.119094488188976
 20
4.598425196850393
 30
0.0
 11
3.118110236220472
 21
4.598425196850393
 31
0.0
  0
LINE
  5
3E6B
330
1E
100
AcDbEntity
  8
0
100
AcDbLine
 10
3.118110236220472
 20
4.598425196850393
 30
0.0
 11
3.116141732283464
 21
4.598425196850393
 31
0.0
  0
LINE
  5
3E6C
330
1E
100
AcDbEntity
  8
0
100
AcDbLine
 10
3.116141732283464
 20
4.473425196850393
 30
0.0
 11
3.119094488188976
 21
4.473425196850393
 31
0.0
  0
LINE
  5
3E6D
330
1E
100
AcDbEntity
  8
0
100
AcDbLine
 10
3.119094488188976
 20
4.473425196850393
 30
0.0
 11
3.123031496062992
 21
4.474409448818897
 31
0.0
  0
LINE
  5
3E6E
330
1E
100
AcDbEntity
  8
0
100
AcDbLine
 10
3.123031496062992
 20
4.474409448818897
 30
0.0
 11
3.128937007874015
 21
4.474409448818897
 31
0.0
  0
LINE
  5
3E6F
330
1E
100
AcDbEntity
  8
0
100
AcDbLine
 10
3.128937007874015
 20
4.474409448818897
 30
0.0
 11
3.134842519685039
 21
4.475393700787401
 31
0.0
  0
LINE
  5
3E70
330
1E
100
AcDbEntity
  8
0
100
AcDbLine
 10
3.134842519685039
 20
4.475393700787401
 30
0.0
 11
3.139763779527558
 21
4.476377952755905
 31
0.0
  0
LINE
  5
3E71
330
1E
100
AcDbEntity
  8
0
100
AcDbLine
 10
3.139763779527558
 20
4.476377952755905
 30
0.0
 11
3.145669291338582
 21
4.478346456692912
 31
0.0
  0
LINE
  5
3E72
330
1E
100
AcDbEntity
  8
0
100
AcDbLine
 10
3.145669291338582
 20
4.478346456692912
 30
0.0
 11
3.151574803149606
 21
4.480314960629921
 31
0.0
  0
LINE
  5
3E73
330
1E
100
AcDbEntity
  8
0
100
AcDbLine
 10
3.151574803149606
 20
4.480314960629921
 30
0.0
 11
3.156496062992125
 21
4.483267716535433
 31
0.0
  0
LINE
  5
3E74
330
1E
100
AcDbEntity
  8
0
100
AcDbLine
 10
3.156496062992125
 20
4.483267716535433
 30
0.0
 11
3.161417322834645
 21
4.48523622047244
 31
0.0
  0
LINE
  5
3E75
330
1E
100
AcDbEntity
  8
0
100
AcDbLine
 10
3.161417322834645
 20
4.48523622047244
 30
0.0
 11
3.166338582677165
 21
4.488188976377952
 31
0.0
  0
LINE
  5
3E76
330
1E
100
AcDbEntity
  8
0
100
AcDbLine
 10
3.166338582677165
 20
4.488188976377952
 30
0.0
 11
3.170275590551181
 21
4.492125984251968
 31
0.0
  0
LINE
  5
3E77
330
1E
100
AcDbEntity
  8
0
100
AcDbLine
 10
3.170275590551181
 20
4.492125984251968
 30
0.0
 11
3.174212598425196
 21
4.49507874015748
 31
0.0
  0
LINE
  5
3E78
330
1E
100
AcDbEntity
  8
0
100
AcDbLine
 10
3.174212598425196
 20
4.49507874015748
 30
0.0
 11
3.178149606299212
 21
4.499015748031496
 31
0.0
  0
LINE
  5
3E79
330
1E
100
AcDbEntity
  8
0
100
AcDbLine
 10
3.178149606299212
 20
4.499015748031496
 30
0.0
 11
3.182086614173228
 21
4.503937007874015
 31
0.0
  0
LINE
  5
3E7A
330
1E
100
AcDbEntity
  8
0
100
AcDbLine
 10
3.182086614173228
 20
4.503937007874015
 30
0.0
 11
3.184055118110236
 21
4.507874015748031
 31
0.0
  0
LINE
  5
3E7B
330
1E
100
AcDbEntity
  8
0
100
AcDbLine
 10
3.184055118110236
 20
4.507874015748031
 30
0.0
 11
3.187007874015748
 21
4.51279527559055
 31
0.0
  0
LINE
  5
3E7C
330
1E
100
AcDbEntity
  8
0
100
AcDbLine
 10
3.187007874015748
 20
4.51279527559055
 30
0.0
 11
3.188976377952756
 21
4.516732283464566
 31
0.0
  0
LINE
  5
3E7D
330
1E
100
AcDbEntity
  8
0
100
AcDbLine
 10
3.188976377952756
 20
4.516732283464566
 30
0.0
 11
3.189960629921259
 21
4.521653543307086
 31
0.0
  0
LINE
  5
3E7E
330
1E
100
AcDbEntity
  8
0
100
AcDbLine
 10
3.189960629921259
 20
4.521653543307086
 30
0.0
 11
3.190944881889763
 21
4.526574803149606
 31
0.0
  0
LINE
  5
3E7F
330
1E
100
AcDbEntity
  8
0
100
AcDbLine
 10
3.190944881889763
 20
4.526574803149606
 30
0.0
 11
3.190944881889763
 21
4.531496062992125
 31
0.0
  0
LINE
  5
3E80
330
1E
100
AcDbEntity
  8
0
100
AcDbLine
 10
3.190944881889763
 20
4.531496062992125
 30
0.0
 11
3.190944881889763
 21
4.532480314960629
 31
0.0
  0
LINE
  5
3E81
330
1E
100
AcDbEntity
  8
0
100
AcDbLine
 10
1.694881889763779
 20
4.148622047244094
 30
0.0
 11
1.694881889763779
 21
4.149606299212598
 31
0.0
  0
LINE
  5
3E82
330
1E
100
AcDbEntity
  8
0
100
AcDbLine
 10
1.694881889763779
 20
4.149606299212598
 30
0.0
 11
1.694881889763779
 21
4.151574803149606
 31
0.0
  0
LINE
  5
3E83
330
1E
100
AcDbEntity
  8
0
100
AcDbLine
 10
1.679133858267716
 20
4.473425196850393
 30
0.0
 11
1.68011811023622
 21
4.473425196850393
 31
0.0
  0
LINE
  5
3E84
330
1E
100
AcDbEntity
  8
0
100
AcDbLine
 10
1.68011811023622
 20
4.473425196850393
 30
0.0
 11
1.682086614173228
 21
4.473425196850393
 31
0.0
  0
LINE
  5
3E85
330
1E
100
AcDbEntity
  8
0
100
AcDbLine
 10
1.682086614173228
 20
4.473425196850393
 30
0.0
 11
1.686023622047243
 21
4.473425196850393
 31
0.0
  0
LINE
  5
3E86
330
1E
100
AcDbEntity
  8
0
100
AcDbLine
 10
1.686023622047243
 20
4.473425196850393
 30
0.0
 11
1.688976377952755
 21
4.472440944881889
 31
0.0
  0
LINE
  5
3E87
330
1E
100
AcDbEntity
  8
0
100
AcDbLine
 10
1.688976377952755
 20
4.472440944881889
 30
0.0
 11
1.692913385826771
 21
4.471456692913386
 31
0.0
  0
LINE
  5
3E88
330
1E
100
AcDbEntity
  8
0
100
AcDbLine
 10
1.692913385826771
 20
4.471456692913386
 30
0.0
 11
1.695866141732283
 21
4.470472440944881
 31
0.0
  0
LINE
  5
3E89
330
1E
100
AcDbEntity
  8
0
100
AcDbLine
 10
1.695866141732283
 20
4.470472440944881
 30
0.0
 11
1.698818897637795
 21
4.469488188976377
 31
0.0
  0
LINE
  5
3E8A
330
1E
100
AcDbEntity
  8
0
100
AcDbLine
 10
1.698818897637795
 20
4.469488188976377
 30
0.0
 11
1.700787401574803
 21
4.468503937007874
 31
0.0
  0
LINE
  5
3E8B
330
1E
100
AcDbEntity
  8
0
100
AcDbLine
 10
1.700787401574803
 20
4.468503937007874
 30
0.0
 11
1.702755905511811
 21
4.466535433070865
 31
0.0
  0
LINE
  5
3E8C
330
1E
100
AcDbEntity
  8
0
100
AcDbLine
 10
1.702755905511811
 20
4.466535433070865
 30
0.0
 11
1.704724409448818
 21
4.465551181102362
 31
0.0
  0
LINE
  5
3E8D
330
1E
100
AcDbEntity
  8
0
100
AcDbLine
 10
1.704724409448818
 20
4.465551181102362
 30
0.0
 11
1.706692913385826
 21
4.463582677165354
 31
0.0
  0
LINE
  5
3E8E
330
1E
100
AcDbEntity
  8
0
100
AcDbLine
 10
1.706692913385826
 20
4.463582677165354
 30
0.0
 11
1.70767716535433
 21
4.46259842519685
 31
0.0
  0
LINE
  5
3E8F
330
1E
100
AcDbEntity
  8
0
100
AcDbLine
 10
1.70767716535433
 20
4.46259842519685
 30
0.0
 11
1.70767716535433
 21
4.461614173228346
 31
0.0
  0
LINE
  5
3E90
330
1E
100
AcDbEntity
  8
0
100
AcDbLine
 10
1.70767716535433
 20
4.461614173228346
 30
0.0
 11
1.708661417322834
 21
4.460629921259842
 31
0.0
  0
LINE
  5
3E91
330
1E
100
AcDbEntity
  8
0
100
AcDbLine
 10
1.708661417322834
 20
4.460629921259842
 30
0.0
 11
1.708661417322834
 21
4.459645669291338
 31
0.0
  0
LINE
  5
3E92
330
1E
100
AcDbEntity
  8
0
100
AcDbLine
 10
1.708661417322834
 20
4.459645669291338
 30
0.0
 11
1.708661417322834
 21
4.458661417322834
 31
0.0
  0
LINE
  5
3E93
330
1E
100
AcDbEntity
  8
0
100
AcDbLine
 10
1.626968503937007
 20
4.598425196850393
 30
0.0
 11
1.624015748031496
 21
4.598425196850393
 31
0.0
  0
LINE
  5
3E94
330
1E
100
AcDbEntity
  8
0
100
AcDbLine
 10
1.624015748031496
 20
4.598425196850393
 30
0.0
 11
1.62007874015748
 21
4.598425196850393
 31
0.0
  0
LINE
  5
3E95
330
1E
100
AcDbEntity
  8
0
100
AcDbLine
 10
1.62007874015748
 20
4.598425196850393
 30
0.0
 11
1.614173228346456
 21
4.597440944881889
 31
0.0
  0
LINE
  5
3E96
330
1E
100
AcDbEntity
  8
0
100
AcDbLine
 10
1.614173228346456
 20
4.597440944881889
 30
0.0
 11
1.609251968503937
 21
4.597440944881889
 31
0.0
  0
LINE
  5
3E97
330
1E
100
AcDbEntity
  8
0
100
AcDbLine
 10
1.609251968503937
 20
4.597440944881889
 30
0.0
 11
1.603346456692913
 21
4.595472440944881
 31
0.0
  0
LINE
  5
3E98
330
1E
100
AcDbEntity
  8
0
100
AcDbLine
 10
1.603346456692913
 20
4.595472440944881
 30
0.0
 11
1.597440944881889
 21
4.594488188976377
 31
0.0
  0
LINE
  5
3E99
330
1E
100
AcDbEntity
  8
0
100
AcDbLine
 10
1.597440944881889
 20
4.594488188976377
 30
0.0
 11
1.59251968503937
 21
4.591535433070865
 31
0.0
  0
LINE
  5
3E9A
330
1E
100
AcDbEntity
  8
0
100
AcDbLine
 10
1.59251968503937
 20
4.591535433070865
 30
0.0
 11
1.586614173228346
 21
4.589566929133858
 31
0.0
  0
LINE
  5
3E9B
330
1E
100
AcDbEntity
  8
0
100
AcDbLine
 10
1.586614173228346
 20
4.589566929133858
 30
0.0
 11
1.581692913385826
 21
4.586614173228346
 31
0.0
  0
LINE
  5
3E9C
330
1E
100
AcDbEntity
  8
0
100
AcDbLine
 10
1.581692913385826
 20
4.586614173228346
 30
0.0
 11
1.576771653543307
 21
4.583661417322834
 31
0.0
  0
LINE
  5
3E9D
330
1E
100
AcDbEntity
  8
0
100
AcDbLine
 10
1.576771653543307
 20
4.583661417322834
 30
0.0
 11
1.572834645669291
 21
4.580708661417323
 31
0.0
  0
LINE
  5
3E9E
330
1E
100
AcDbEntity
  8
0
100
AcDbLine
 10
1.572834645669291
 20
4.580708661417323
 30
0.0
 11
1.568897637795275
 21
4.576771653543307
 31
0.0
  0
LINE
  5
3E9F
330
1E
100
AcDbEntity
  8
0
100
AcDbLine
 10
1.568897637795275
 20
4.576771653543307
 30
0.0
 11
1.564960629921259
 21
4.572834645669291
 31
0.0
  0
LINE
  5
3EA0
330
1E
100
AcDbEntity
  8
0
100
AcDbLine
 10
1.564960629921259
 20
4.572834645669291
 30
0.0
 11
1.562007874015747
 21
4.568897637795275
 31
0.0
  0
LINE
  5
3EA1
330
1E
100
AcDbEntity
  8
0
100
AcDbLine
 10
1.562007874015747
 20
4.568897637795275
 30
0.0
 11
1.559055118110236
 21
4.56496062992126
 31
0.0
  0
LINE
  5
3EA2
330
1E
100
AcDbEntity
  8
0
100
AcDbLine
 10
1.559055118110236
 20
4.56496062992126
 30
0.0
 11
1.556102362204724
 21
4.560039370078739
 31
0.0
  0
LINE
  5
3EA3
330
1E
100
AcDbEntity
  8
0
100
AcDbLine
 10
1.556102362204724
 20
4.560039370078739
 30
0.0
 11
1.55511811023622
 21
4.55511811023622
 31
0.0
  0
LINE
  5
3EA4
330
1E
100
AcDbEntity
  8
0
100
AcDbLine
 10
1.55511811023622
 20
4.55511811023622
 30
0.0
 11
1.553149606299212
 21
4.5501968503937
 31
0.0
  0
LINE
  5
3EA5
330
1E
100
AcDbEntity
  8
0
100
AcDbLine
 10
1.553149606299212
 20
4.5501968503937
 30
0.0
 11
1.552165354330708
 21
4.546259842519685
 31
0.0
  0
LINE
  5
3EA6
330
1E
100
AcDbEntity
  8
0
100
AcDbLine
 10
1.552165354330708
 20
4.546259842519685
 30
0.0
 11
1.552165354330708
 21
4.541338582677165
 31
0.0
  0
LINE
  5
3EA7
330
1E
100
AcDbEntity
  8
0
100
AcDbLine
 10
1.552165354330708
 20
4.541338582677165
 30
0.0
 11
1.552165354330708
 21
4.540354330708661
 31
0.0
  0
LINE
  5
3EA8
330
1E
100
AcDbEntity
  8
0
100
AcDbLine
 10
1.552165354330708
 20
4.540354330708661
 30
0.0
 11
1.552165354330708
 21
4.539370078740157
 31
0.0
  0
LINE
  5
3EA9
330
1E
100
AcDbEntity
  8
0
100
AcDbLine
 10
1.552165354330708
 20
4.532480314960629
 30
0.0
 11
1.552165354330708
 21
4.528543307086613
 31
0.0
  0
LINE
  5
3EAA
330
1E
100
AcDbEntity
  8
0
100
AcDbLine
 10
1.552165354330708
 20
4.528543307086613
 30
0.0
 11
1.553149606299212
 21
4.524606299212598
 31
0.0
  0
LINE
  5
3EAB
330
1E
100
AcDbEntity
  8
0
100
AcDbLine
 10
1.553149606299212
 20
4.524606299212598
 30
0.0
 11
1.554133858267716
 21
4.519685039370078
 31
0.0
  0
LINE
  5
3EAC
330
1E
100
AcDbEntity
  8
0
100
AcDbLine
 10
1.554133858267716
 20
4.519685039370078
 30
0.0
 11
1.55511811023622
 21
4.515748031496062
 31
0.0
  0
LINE
  5
3EAD
330
1E
100
AcDbEntity
  8
0
100
AcDbLine
 10
1.55511811023622
 20
4.515748031496062
 30
0.0
 11
1.557086614173228
 21
4.511811023622047
 31
0.0
  0
LINE
  5
3EAE
330
1E
100
AcDbEntity
  8
0
100
AcDbLine
 10
1.557086614173228
 20
4.511811023622047
 30
0.0
 11
1.559055118110236
 21
4.506889763779527
 31
0.0
  0
LINE
  5
3EAF
330
1E
100
AcDbEntity
  8
0
100
AcDbLine
 10
1.559055118110236
 20
4.506889763779527
 30
0.0
 11
1.562007874015747
 21
4.502952755905512
 31
0.0
  0
LINE
  5
3EB0
330
1E
100
AcDbEntity
  8
0
100
AcDbLine
 10
1.562007874015747
 20
4.502952755905512
 30
0.0
 11
1.564960629921259
 21
4.499015748031496
 31
0.0
  0
LINE
  5
3EB1
330
1E
100
AcDbEntity
  8
0
100
AcDbLine
 10
1.564960629921259
 20
4.499015748031496
 30
0.0
 11
1.568897637795275
 21
4.496062992125984
 31
0.0
  0
LINE
  5
3EB2
330
1E
100
AcDbEntity
  8
0
100
AcDbLine
 10
1.568897637795275
 20
4.496062992125984
 30
0.0
 11
1.571850393700787
 21
4.492125984251968
 31
0.0
  0
LINE
  5
3EB3
330
1E
100
AcDbEntity
  8
0
100
AcDbLine
 10
1.571850393700787
 20
4.492125984251968
 30
0.0
 11
1.576771653543307
 21
4.489173228346456
 31
0.0
  0
LINE
  5
3EB4
330
1E
100
AcDbEntity
  8
0
100
AcDbLine
 10
1.576771653543307
 20
4.489173228346456
 30
0.0
 11
1.580708661417322
 21
4.486220472440944
 31
0.0
  0
LINE
  5
3EB5
330
1E
100
AcDbEntity
  8
0
100
AcDbLine
 10
1.580708661417322
 20
4.486220472440944
 30
0.0
 11
1.585629921259842
 21
4.483267716535433
 31
0.0
  0
LINE
  5
3EB6
330
1E
100
AcDbEntity
  8
0
100
AcDbLine
 10
1.585629921259842
 20
4.483267716535433
 30
0.0
 11
1.590551181102362
 21
4.481299212598425
 31
0.0
  0
LINE
  5
3EB7
330
1E
100
AcDbEntity
  8
0
100
AcDbLine
 10
1.590551181102362
 20
4.481299212598425
 30
0.0
 11
1.595472440944881
 21
4.479330708661417
 31
0.0
  0
LINE
  5
3EB8
330
1E
100
AcDbEntity
  8
0
100
AcDbLine
 10
1.595472440944881
 20
4.479330708661417
 30
0.0
 11
1.601377952755905
 21
4.477362204724409
 31
0.0
  0
LINE
  5
3EB9
330
1E
100
AcDbEntity
  8
0
100
AcDbLine
 10
1.601377952755905
 20
4.477362204724409
 30
0.0
 11
1.607283464566929
 21
4.476377952755905
 31
0.0
  0
LINE
  5
3EBA
330
1E
100
AcDbEntity
  8
0
100
AcDbLine
 10
1.607283464566929
 20
4.476377952755905
 30
0.0
 11
1.612204724409448
 21
4.475393700787401
 31
0.0
  0
LINE
  5
3EBB
330
1E
100
AcDbEntity
  8
0
100
AcDbLine
 10
1.612204724409448
 20
4.475393700787401
 30
0.0
 11
1.618110236220472
 21
4.474409448818897
 31
0.0
  0
LINE
  5
3EBC
330
1E
100
AcDbEntity
  8
0
100
AcDbLine
 10
1.618110236220472
 20
4.474409448818897
 30
0.0
 11
1.624015748031496
 21
4.474409448818897
 31
0.0
  0
LINE
  5
3EBD
330
1E
100
AcDbEntity
  8
0
100
AcDbLine
 10
1.624015748031496
 20
4.474409448818897
 30
0.0
 11
1.625
 21
4.473425196850393
 31
0.0
  0
LINE
  5
3EBE
330
1E
100
AcDbEntity
  8
0
100
AcDbLine
 10
1.625
 20
4.473425196850393
 30
0.0
 11
1.626968503937007
 21
4.473425196850393
 31
0.0
  0
LINE
  5
3EBF
330
1E
100
AcDbEntity
  8
0
100
AcDbLine
 10
3.014763779527558
 20
4.151574803149606
 30
0.0
 11
3.023622047244094
 21
4.153543307086613
 31
0.0
  0
LINE
  5
3EC0
330
1E
100
AcDbEntity
  8
0
100
AcDbLine
 10
3.023622047244094
 20
4.153543307086613
 30
0.0
 11
3.030511811023622
 21
4.159448818897637
 31
0.0
  0
LINE
  5
3EC1
330
1E
100
AcDbEntity
  8
0
100
AcDbLine
 10
2.396653543307086
 20
4.598425196850393
 30
0.0
 11
2.382874015748031
 21
4.59251968503937
 31
0.0
  0
LINE
  5
3EC2
330
1E
100
AcDbEntity
  8
0
100
AcDbLine
 10
2.382874015748031
 20
4.59251968503937
 30
0.0
 11
2.376968503937007
 21
4.578740157480314
 31
0.0
  0
LINE
  5
3EC3
330
1E
100
AcDbEntity
  8
0
100
AcDbLine
 10
1.71259842519685
 20
4.160433070866141
 30
0.0
 11
1.719488188976377
 21
4.154527559055117
 31
0.0
  0
LINE
  5
3EC4
330
1E
100
AcDbEntity
  8
0
100
AcDbLine
 10
1.719488188976377
 20
4.154527559055117
 30
0.0
 11
1.728346456692913
 21
4.151574803149606
 31
0.0
  0
LINE
  5
3EC5
330
1E
100
AcDbEntity
  8
0
100
AcDbLine
 10
2.366141732283464
 20
4.578740157480314
 30
0.0
 11
2.361220472440944
 21
4.59251968503937
 31
0.0
  0
LINE
  5
3EC6
330
1E
100
AcDbEntity
  8
0
100
AcDbLine
 10
2.361220472440944
 20
4.59251968503937
 30
0.0
 11
2.346456692913385
 21
4.598425196850393
 31
0.0
  0
ENDSEC
  0
SECTION
  2
OBJECTS
  0
DICTIONARY
  5
C
330
0
100
AcDbDictionary
  3
ACAD_GROUP
350
D
  3
ACAD_MLINESTYLE
350
16
  3
ACAD_PLOTSETTINGS
350
18
  3
ACAD_LAYOUT
350
19
1001
ACAD
1000
TREAT_AS_HARD
1070
     0
  0
DICTIONARY
  5
504C
330
1E
100
AcDbDictionary
  3
ACAD_LAYOUTSELFREF
350
504D
  0
DICTIONARY
  5
504A
330
1A
100
AcDbDictionary
  3
ACAD_LAYOUTSELFREF
350
504B
  0
DICTIONARY
  5
D
102
{ACAD_REACTORS
330
C
102
}
330
C
100
AcDbDictionary
1001
ACAD
1000
TREAT_AS_HARD
1070
     0
  0
DICTIONARY
  5
16
102
{ACAD_REACTORS
330
C
102
}
330
C
100
AcDbDictionary
  3
STANDARD
350
17
1001
ACAD
1000
TREAT_AS_HARD
1070
     0
  0
DICTIONARY
  5
18
102
{ACAD_REACTORS
330
C
102
}
330
C
100
AcDbDictionary
1001
ACAD
1000
TREAT_AS_HARD
1070
     0
  0
DICTIONARY
  5
19
102
{ACAD_REACTORS
330
C
102
}
330
C
100
AcDbDictionary
1001
ACAD
1000
TREAT_AS_HARD
1070
     0
  0
XRECORD
  5
504D
102
{ACAD_REACTORS
330
504C
102
}
330
504C
100
AcDbXrecord
340
1E
  0
XRECORD
  5
504B
102
{ACAD_REACTORS
330
504A
102
}
330
504A
100
AcDbXrecord
340
1A
  0
MLINESTYLE
  5
17
102
{ACAD_REACTORS
330
16
102
}
330
16
100
AcDbMlineStyle
  2
STANDARD
 70
     0
  3

 62
   256
 51
90.0
 52
90.0
 71
     2
 49
0.5
 62
   256
  6
BYLAYER
 49
-0.5
 62
   256
  6
BYLAYER
  0
ENDSEC
  0
EOF
