  0
SECTION
  2
HEADER
  9
$ACADVER
  1
AC1012
  9
$DWGCODEPAGE
  3
ANSI_1252
  9
$INSBASE
 10
0.0
 20
0.0
 30
0.0
  9
$EXTMIN
 10
11.50872806868135
 20
11.93843082098573
 30
-0.0015258207003583
  9
$EXTMAX
 10
17.81121829642357
 20
14.68844607249885
 30
0.0000000349246037
  9
$LIMMIN
 10
0.0
 20
0.0
  9
$LIMMAX
 10
12.0
 20
9.0
  9
$ORTHOMODE
 70
     0
  9
$REGENMODE
 70
     1
  9
$FILLMODE
 70
     1
  9
$QTEXTMODE
 70
     0
  9
$MIRRTEXT
 70
     1
  9
$DRAGMODE
 70
     2
  9
$LTSCALE
 40
1.0
  9
$OSMODE
 70
    33
  9
$ATTMODE
 70
     1
  9
$TEXTSIZE
 40
0.2
  9
$TRACEWID
 40
0.05
  9
$TEXTSTYLE
  7
STANDARD
  9
$CLAYER
  8
0
  9
$CELTYPE
  6
BYLAYER
  9
$CECOLOR
 62
   256
  9
$CELTSCALE
 40
1.0
  9
$DELOBJ
 70
     1
  9
$DISPSILH
 70
     0
  9
$DIMSCALE
 40
1.0
  9
$DIMASZ
 40
0.18
  9
$DIMEXO
 40
0.0625
  9
$DIMDLI
 40
0.38
  9
$DIMRND
 40
0.0
  9
$DIMDLE
 40
0.0
  9
$DIMEXE
 40
0.18
  9
$DIMTP
 40
0.0
  9
$DIMTM
 40
0.0
  9
$DIMTXT
 40
0.18
  9
$DIMCEN
 40
0.09
  9
$DIMTSZ
 40
0.0
  9
$DIMTOL
 70
     0
  9
$DIMLIM
 70
     0
  9
$DIMTIH
 70
     1
  9
$DIMTOH
 70
     1
  9
$DIMSE1
 70
     0
  9
$DIMSE2
 70
     0
  9
$DIMTAD
 70
     0
  9
$DIMZIN
 70
     0
  9
$DIMBLK
  1

  9
$DIMASO
 70
     1
  9
$DIMSHO
 70
     1
  9
$DIMPOST
  1

  9
$DIMAPOST
  1

  9
$DIMALT
 70
     0
  9
$DIMALTD
 70
     2
  9
$DIMALTF
 40
25.4
  9
$DIMLFAC
 40
1.0
  9
$DIMTOFL
 70
     0
  9
$DIMTVP
 40
0.0
  9
$DIMTIX
 70
     0
  9
$DIMSOXD
 70
     0
  9
$DIMSAH
 70
     0
  9
$DIMBLK1
  1

  9
$DIMBLK2
  1

  9
$DIMSTYLE
  2
STANDARD
  9
$DIMCLRD
 70
     0
  9
$DIMCLRE
 70
     0
  9
$DIMCLRT
 70
     0
  9
$DIMTFAC
 40
1.0
  9
$DIMGAP
 40
0.09
  9
$DIMJUST
 70
     0
  9
$DIMSD1
 70
     0
  9
$DIMSD2
 70
     0
  9
$DIMTOLJ
 70
     1
  9
$DIMTZIN
 70
     0
  9
$DIMALTZ
 70
     0
  9
$DIMALTTZ
 70
     0
  9
$DIMFIT
 70
     5
  9
$DIMUPT
 70
     0
  9
$DIMUNIT
 70
     2
  9
$DIMDEC
 70
     4
  9
$DIMTDEC
 70
     4
  9
$DIMALTU
 70
     2
  9
$DIMALTTD
 70
     2
  9
$DIMTXSTY
  7
STANDARD
  9
$DIMAUNIT
 70
     0
  9
$LUNITS
 70
     2
  9
$LUPREC
 70
     4
  9
$SKETCHINC
 40
0.1
  9
$FILLETRAD
 40
0.0
  9
$AUNITS
 70
     0
  9
$AUPREC
 70
     0
  9
$MENU
  1
acad
  9
$ELEVATION
 40
0.0
  9
$PELEVATION
 40
0.0
  9
$THICKNESS
 40
0.0
  9
$LIMCHECK
 70
     0
  9
$BLIPMODE
 70
     0
  9
$CHAMFERA
 40
0.0
  9
$CHAMFERB
 40
0.0
  9
$CHAMFERC
 40
0.0
  9
$CHAMFERD
 40
0.0
  9
$SKPOLY
 70
     0
  9
$TDCREATE
 40
2452489.437002314
  9
$TDUPDATE
 40
2452489.446357442
  9
$TDINDWG
 40
0.0021612847
  9
$TDUSRTIMER
 40
0.0021612847
  9
$USRTIMER
 70
     1
  9
$ANGBASE
 50
0.0
  9
$ANGDIR
 70
     0
  9
$PDMODE
 70
     0
  9
$PDSIZE
 40
0.0
  9
$PLINEWID
 40
0.0
  9
$COORDS
 70
     0
  9
$SPLFRAME
 70
     0
  9
$SPLINETYPE
 70
     6
  9
$SPLINESEGS
 70
     8
  9
$ATTDIA
 70
     0
  9
$ATTREQ
 70
     1
  9
$HANDLING
 70
  4097
  9
$HANDSEED
  5
45B8
  9
$SURFTAB1
 70
     6
  9
$SURFTAB2
 70
     6
  9
$SURFTYPE
 70
     6
  9
$SURFU
 70
     6
  9
$SURFV
 70
     6
  9
$UCSNAME
  2

  9
$UCSORG
 10
0.0
 20
0.0
 30
0.0
  9
$UCSXDIR
 10
1.0
 20
0.0
 30
0.0
  9
$UCSYDIR
 10
0.0
 20
1.0
 30
0.0
  9
$PUCSNAME
  2

  9
$PUCSORG
 10
0.0
 20
0.0
 30
0.0
  9
$PUCSXDIR
 10
1.0
 20
0.0
 30
0.0
  9
$PUCSYDIR
 10
0.0
 20
1.0
 30
0.0
  9
$USERI1
 70
     0
  9
$USERI2
 70
     0
  9
$USERI3
 70
     0
  9
$USERI4
 70
     0
  9
$USERI5
 70
     0
  9
$USERR1
 40
0.0
  9
$USERR2
 40
0.0
  9
$USERR3
 40
0.0
  9
$USERR4
 40
0.0
  9
$USERR5
 40
0.0
  9
$WORLDVIEW
 70
     1
  9
$SHADEDGE
 70
     3
  9
$SHADEDIF
 70
    70
  9
$TILEMODE
 70
     1
  9
$MAXACTVP
 70
    16
  9
$PINSBASE
 10
0.0
 20
0.0
 30
0.0
  9
$PLIMCHECK
 70
     0
  9
$PEXTMIN
 10
1.000000000000000E+20
 20
1.000000000000000E+20
 30
1.000000000000000E+20
  9
$PEXTMAX
 10
-1.000000000000000E+20
 20
-1.000000000000000E+20
 30
-1.000000000000000E+20
  9
$PLIMMIN
 10
0.0
 20
0.0
  9
$PLIMMAX
 10
12.0
 20
9.0
  9
$UNITMODE
 70
     0
  9
$VISRETAIN
 70
     0
  9
$PLINEGEN
 70
     0
  9
$PSLTSCALE
 70
     1
  9
$TREEDEPTH
 70
  3020
  9
$PICKSTYLE
 70
     1
  9
$CMLSTYLE
  2
STANDARD
  9
$CMLJUST
 70
     0
  9
$CMLSCALE
 40
1.0
  9
$SAVEIMAGES
 70
     1
  0
ENDSEC
  0
SECTION
  2
CLASSES
  0
CLASS
  1
ACDBDICTIONARYWDFLT
  2
AcDbDictionaryWithDefault
  3
AutoCAD 2000
 90
    32768
280
     0
281
     0
  0
CLASS
  1
ACDBPLACEHOLDER
  2
AcDbPlaceHolder
  3
AutoCAD 2000
 90
    32768
280
     0
281
     0
  0
CLASS
  1
LAYOUT
  2
AcDbLayout
  3
AutoCAD 2000
 90
    32768
280
     0
281
     0
  0
CLASS
  1
LONG_TRANSACTION
  2
AcDbLongTransaction
  3
AutoCAD 2000
 90
    32768
280
     0
281
     0
  0
CLASS
  1
LWPOLYLINE
  2
AcDbPolyline
  3
AutoCAD 2000
 90
    32768
280
     0
281
     1
  0
CLASS
  1
HATCH
  2
AcDbHatch
  3
AutoCAD 2000
 90
    32768
280
     0
281
     1
  0
CLASS
  1
XRECORD
  2
AcDbXrecord
  3
AutoCAD 2000
 90
    32768
280
     0
281
     0
  0
ENDSEC
  0
SECTION
  2
TABLES
  0
TABLE
  2
VPORT
  5
8
330
0
100
AcDbSymbolTable
 70
     3
  0
VPORT
  5
45B3
330
8
100
AcDbSymbolTableRecord
100
AcDbViewportTableRecord
  2
*ACTIVE
 70
     0
 10
0.0
 20
0.0
 11
1.0
 21
1.0
 12
14.65997318255246
 22
13.31343844674229
 13
0.0
 23
0.0
 14
1.0
 24
1.0
 15
0.0
 25
0.0
 16
0.0
 26
0.0
 36
1.0
 17
0.0
 27
0.0
 37
0.0
 40
3.912657535032451
 41
1.618610747051113
 42
50.0
 43
0.0
 44
0.0
 50
0.0
 51
0.0
 71
     0
 72
   100
 73
     1
 74
     1
 75
     0
 76
     0
 77
     0
 78
     0
  0
ENDTAB
  0
TABLE
  2
LTYPE
  5
5
330
0
100
AcDbSymbolTable
 70
    25
  0
LTYPE
  5
13
330
5
100
AcDbSymbolTableRecord
100
AcDbLinetypeTableRecord
  2
BYBLOCK
 70
     0
  3

 72
    65
 73
     0
 40
0.0
  0
LTYPE
  5
14
330
5
100
AcDbSymbolTableRecord
100
AcDbLinetypeTableRecord
  2
BYLAYER
 70
     0
  3

 72
    65
 73
     0
 40
0.0
  0
LTYPE
  5
15
330
5
100
AcDbSymbolTableRecord
100
AcDbLinetypeTableRecord
  2
CONTINUOUS
 70
     0
  3
Solid line
 72
    65
 73
     0
 40
0.0
  0
LTYPE
  5
22
330
5
100
AcDbSymbolTableRecord
100
AcDbLinetypeTableRecord
  2
BORDER
 70
     0
  3
__ __ . __ __ . __ __ . __ __ . __ __ . __ __ .
 72
    65
 73
     6
 40
1.75
 49
0.5
 74
     0
 49
-0.25
 74
     0
 49
0.5
 74
     0
 49
-0.25
 74
     0
 49
0.5
 74
     0
 49
-0.25
 74
     0
  0
LTYPE
  5
23
330
5
100
AcDbSymbolTableRecord
100
AcDbLinetypeTableRecord
  2
BORDER2
 70
     0
  3
__.__.__.__.__.__.__.__.__.__.__.__.__.__.__.__
 72
    65
 73
     6
 40
0.875
 49
0.25
 74
     0
 49
-0.125
 74
     0
 49
0.25
 74
     0
 49
-0.125
 74
     0
 49
0.25
 74
     0
 49
-0.125
 74
     0
  0
LTYPE
  5
24
330
5
100
AcDbSymbolTableRecord
100
AcDbLinetypeTableRecord
  2
BORDERX2
 70
     0
  3
____  ____  .  ____  ____  .  
 72
    65
 73
     6
 40
3.5
 49
1.0
 74
     0
 49
-0.5
 74
     0
 49
1.0
 74
     0
 49
-0.5
 74
     0
 49
1.0
 74
     0
 49
-0.5
 74
     0
  0
LTYPE
  5
25
330
5
100
AcDbSymbolTableRecord
100
AcDbLinetypeTableRecord
  2
CENTER
 70
     0
  3
____ _ ____ _ ____ _ ____ _ ____ _ ____ _ ____
 72
    65
 73
     4
 40
2.0
 49
1.25
 74
     0
 49
-0.25
 74
     0
 49
0.25
 74
     0
 49
-0.25
 74
     0
  0
LTYPE
  5
26
330
5
100
AcDbSymbolTableRecord
100
AcDbLinetypeTableRecord
  2
CENTER2
 70
     0
  3
____ _ ____ _ ____ _ ____ _ ____ _ ____ _ ____
 72
    65
 73
     4
 40
1.125
 49
0.75
 74
     0
 49
-0.125
 74
     0
 49
0.125
 74
     0
 49
-0.125
 74
     0
  0
LTYPE
  5
27
330
5
100
AcDbSymbolTableRecord
100
AcDbLinetypeTableRecord
  2
CENTERX2
 70
     0
  3
________  __  ________  __  ________  __  
 72
    65
 73
     4
 40
4.0
 49
2.5
 74
     0
 49
-0.5
 74
     0
 49
0.5
 74
     0
 49
-0.5
 74
     0
  0
LTYPE
  5
28
330
5
100
AcDbSymbolTableRecord
100
AcDbLinetypeTableRecord
  2
DASHDOT
 70
     0
  3
__ . __ . __ . __ . __ . __ . __ . 
 72
    65
 73
     4
 40
1.0
 49
0.5
 74
     0
 49
-0.25
 74
     0
 49
0.0
 74
     0
 49
-0.25
 74
     0
  0
LTYPE
  5
29
330
5
100
AcDbSymbolTableRecord
100
AcDbLinetypeTableRecord
  2
DASHDOT2
 70
     0
  3
_._._._._._._._._._._._._._._._.
 72
    65
 73
     4
 40
0.5
 49
0.25
 74
     0
 49
-0.125
 74
     0
 49
0.0
 74
     0
 49
-0.125
 74
     0
  0
LTYPE
  5
2A
330
5
100
AcDbSymbolTableRecord
100
AcDbLinetypeTableRecord
  2
DASHDOTX2
 70
     0
  3
____  .  ____  .  ____  .  ____  .  
 72
    65
 73
     4
 40
2.0
 49
1.0
 74
     0
 49
-0.5
 74
     0
 49
0.0
 74
     0
 49
-0.5
 74
     0
  0
LTYPE
  5
2B
330
5
100
AcDbSymbolTableRecord
100
AcDbLinetypeTableRecord
  2
DASHED
 70
     0
  3
__ __ __ __ __ __ __ __ __ __ __ __ 
 72
    65
 73
     2
 40
0.75
 49
0.5
 74
     0
 49
-0.25
 74
     0
  0
LTYPE
  5
2C
330
5
100
AcDbSymbolTableRecord
100
AcDbLinetypeTableRecord
  2
DASHED2
 70
     0
  3
_ _ _ _ _ _ _ _ _ _ _ _ _ _ _ _ _ _ 
 72
    65
 73
     2
 40
0.375
 49
0.25
 74
     0
 49
-0.125
 74
     0
  0
LTYPE
  5
2D
330
5
100
AcDbSymbolTableRecord
100
AcDbLinetypeTableRecord
  2
DASHEDX2
 70
     0
  3
____  ____  ____  ____  ____  ____  
 72
    65
 73
     2
 40
1.5
 49
1.0
 74
     0
 49
-0.5
 74
     0
  0
LTYPE
  5
2E
330
5
100
AcDbSymbolTableRecord
100
AcDbLinetypeTableRecord
  2
DIVIDE
 70
     0
  3
____ . . ____ . . ____ . . ____ . . 
 72
    65
 73
     6
 40
1.25
 49
0.5
 74
     0
 49
-0.25
 74
     0
 49
0.0
 74
     0
 49
-0.25
 74
     0
 49
0.0
 74
     0
 49
-0.25
 74
     0
  0
LTYPE
  5
2F
330
5
100
AcDbSymbolTableRecord
100
AcDbLinetypeTableRecord
  2
DIVIDE2
 70
     0
  3
__..__..__..__..__..__..__..__..__..
 72
    65
 73
     6
 40
0.625
 49
0.25
 74
     0
 49
-0.125
 74
     0
 49
0.0
 74
     0
 49
-0.125
 74
     0
 49
0.0
 74
     0
 49
-0.125
 74
     0
  0
LTYPE
  5
30
330
5
100
AcDbSymbolTableRecord
100
AcDbLinetypeTableRecord
  2
DIVIDEX2
 70
     0
  3
________  .  .  ________  .  .  ________  .  . 
 72
    65
 73
     6
 40
2.5
 49
1.0
 74
     0
 49
-0.5
 74
     0
 49
0.0
 74
     0
 49
-0.5
 74
     0
 49
0.0
 74
     0
 49
-0.5
 74
     0
  0
LTYPE
  5
31
330
5
100
AcDbSymbolTableRecord
100
AcDbLinetypeTableRecord
  2
DOT
 70
     0
  3
. . . . . . . . . . . . . . . . . . 
 72
    65
 73
     2
 40
0.25
 49
0.0
 74
     0
 49
-0.25
 74
     0
  0
LTYPE
  5
32
330
5
100
AcDbSymbolTableRecord
100
AcDbLinetypeTableRecord
  2
DOT2
 70
     0
  3
....................................
 72
    65
 73
     2
 40
0.125
 49
0.0
 74
     0
 49
-0.125
 74
     0
  0
LTYPE
  5
33
330
5
100
AcDbSymbolTableRecord
100
AcDbLinetypeTableRecord
  2
DOTX2
 70
     0
  3
.  .  .  .  .  .  .  .  .  .  .  .  .  
 72
    65
 73
     2
 40
0.5
 49
0.0
 74
     0
 49
-0.5
 74
     0
  0
LTYPE
  5
34
330
5
100
AcDbSymbolTableRecord
100
AcDbLinetypeTableRecord
  2
HIDDEN
 70
     0
  3
__ __ __ __ __ __ __ __ __ __ __ __ 
 72
    65
 73
     2
 40
0.375
 49
0.25
 74
     0
 49
-0.125
 74
     0
  0
LTYPE
  5
35
330
5
100
AcDbSymbolTableRecord
100
AcDbLinetypeTableRecord
  2
HIDDEN2
 70
     0
  3
_ _ _ _ _ _ _ _ _ _ _ _ _ _ _ _ _ _ 
 72
    65
 73
     2
 40
0.1875
 49
0.125
 74
     0
 49
-0.0625
 74
     0
  0
LTYPE
  5
36
330
5
100
AcDbSymbolTableRecord
100
AcDbLinetypeTableRecord
  2
HIDDENX2
 70
     0
  3
____ ____ ____ ____ ____ ____ ____ 
 72
    65
 73
     2
 40
0.75
 49
0.5
 74
     0
 49
-0.25
 74
     0
  0
LTYPE
  5
37
330
5
100
AcDbSymbolTableRecord
100
AcDbLinetypeTableRecord
  2
PHANTOM
 70
     0
  3
______  __  __  ______  __  __  
 72
    65
 73
     6
 40
2.5
 49
1.25
 74
     0
 49
-0.25
 74
     0
 49
0.25
 74
     0
 49
-0.25
 74
     0
 49
0.25
 74
     0
 49
-0.25
 74
     0
  0
LTYPE
  5
38
330
5
100
AcDbSymbolTableRecord
100
AcDbLinetypeTableRecord
  2
PHANTOM2
 70
     0
  3
___ _ _ ___ _ _ ___ _ _ ___ _ _ 
 72
    65
 73
     6
 40
1.25
 49
0.625
 74
     0
 49
-0.125
 74
     0
 49
0.125
 74
     0
 49
-0.125
 74
     0
 49
0.125
 74
     0
 49
-0.125
 74
     0
  0
LTYPE
  5
39
330
5
100
AcDbSymbolTableRecord
100
AcDbLinetypeTableRecord
  2
PHANTOMX2
 70
     0
  3
___ _ _ ___ _ _ ___ _ _ ___ _ _ 
 72
    65
 73
     6
 40
5.0
 49
2.5
 74
     0
 49
-0.5
 74
     0
 49
0.5
 74
     0
 49
-0.5
 74
     0
 49
0.5
 74
     0
 49
-0.5
 74
     0
  0
ENDTAB
  0
TABLE
  2
LAYER
  5
2
330
0
100
AcDbSymbolTable
 70
   256
  0
LAYER
  5
10
330
2
100
AcDbSymbolTableRecord
100
AcDbLayerTableRecord
  2
0
 70
     0
 62
     7
  6
CONTINUOUS
  0
LAYER
  5
3A
330
2
100
AcDbSymbolTableRecord
100
AcDbLayerTableRecord
  2
1
 70
     0
 62
     1
  6
CONTINUOUS
  0
LAYER
  5
3B
330
2
100
AcDbSymbolTableRecord
100
AcDbLayerTableRecord
  2
2
 70
     0
 62
     2
  6
CONTINUOUS
  0
LAYER
  5
3C
330
2
100
AcDbSymbolTableRecord
100
AcDbLayerTableRecord
  2
3
 70
     0
 62
     3
  6
CONTINUOUS
  0
LAYER
  5
3D
330
2
100
AcDbSymbolTableRecord
100
AcDbLayerTableRecord
  2
4
 70
     0
 62
     4
  6
CONTINUOUS
  0
LAYER
  5
3E
330
2
100
AcDbSymbolTableRecord
100
AcDbLayerTableRecord
  2
5
 70
     0
 62
     5
  6
CONTINUOUS
  0
LAYER
  5
3F
330
2
100
AcDbSymbolTableRecord
100
AcDbLayerTableRecord
  2
6
 70
     0
 62
     6
  6
CONTINUOUS
  0
LAYER
  5
40
330
2
100
AcDbSymbolTableRecord
100
AcDbLayerTableRecord
  2
7
 70
     0
 62
     7
  6
CONTINUOUS
  0
LAYER
  5
41
330
2
100
AcDbSymbolTableRecord
100
AcDbLayerTableRecord
  2
8
 70
     0
 62
     8
  6
CONTINUOUS
  0
LAYER
  5
42
330
2
100
AcDbSymbolTableRecord
100
AcDbLayerTableRecord
  2
9
 70
     0
 62
     9
  6
CONTINUOUS
  0
LAYER
  5
43
330
2
100
AcDbSymbolTableRecord
100
AcDbLayerTableRecord
  2
10
 70
     0
 62
    10
  6
CONTINUOUS
  0
LAYER
  5
44
330
2
100
AcDbSymbolTableRecord
100
AcDbLayerTableRecord
  2
11
 70
     0
 62
    11
  6
CONTINUOUS
  0
LAYER
  5
45
330
2
100
AcDbSymbolTableRecord
100
AcDbLayerTableRecord
  2
12
 70
     0
 62
    12
  6
CONTINUOUS
  0
LAYER
  5
46
330
2
100
AcDbSymbolTableRecord
100
AcDbLayerTableRecord
  2
13
 70
     0
 62
    13
  6
CONTINUOUS
  0
LAYER
  5
47
330
2
100
AcDbSymbolTableRecord
100
AcDbLayerTableRecord
  2
14
 70
     0
 62
    14
  6
CONTINUOUS
  0
LAYER
  5
48
330
2
100
AcDbSymbolTableRecord
100
AcDbLayerTableRecord
  2
15
 70
     0
 62
    15
  6
CONTINUOUS
  0
LAYER
  5
49
330
2
100
AcDbSymbolTableRecord
100
AcDbLayerTableRecord
  2
16
 70
     0
 62
    16
  6
CONTINUOUS
  0
LAYER
  5
4A
330
2
100
AcDbSymbolTableRecord
100
AcDbLayerTableRecord
  2
17
 70
     0
 62
    17
  6
CONTINUOUS
  0
LAYER
  5
4B
330
2
100
AcDbSymbolTableRecord
100
AcDbLayerTableRecord
  2
18
 70
     0
 62
    18
  6
CONTINUOUS
  0
LAYER
  5
4C
330
2
100
AcDbSymbolTableRecord
100
AcDbLayerTableRecord
  2
19
 70
     0
 62
    19
  6
CONTINUOUS
  0
LAYER
  5
4D
330
2
100
AcDbSymbolTableRecord
100
AcDbLayerTableRecord
  2
20
 70
     0
 62
    20
  6
CONTINUOUS
  0
LAYER
  5
4E
330
2
100
AcDbSymbolTableRecord
100
AcDbLayerTableRecord
  2
21
 70
     0
 62
    21
  6
CONTINUOUS
  0
LAYER
  5
4F
330
2
100
AcDbSymbolTableRecord
100
AcDbLayerTableRecord
  2
22
 70
     0
 62
    22
  6
CONTINUOUS
  0
LAYER
  5
50
330
2
100
AcDbSymbolTableRecord
100
AcDbLayerTableRecord
  2
23
 70
     0
 62
    23
  6
CONTINUOUS
  0
LAYER
  5
51
330
2
100
AcDbSymbolTableRecord
100
AcDbLayerTableRecord
  2
24
 70
     0
 62
    24
  6
CONTINUOUS
  0
LAYER
  5
52
330
2
100
AcDbSymbolTableRecord
100
AcDbLayerTableRecord
  2
25
 70
     0
 62
    25
  6
CONTINUOUS
  0
LAYER
  5
53
330
2
100
AcDbSymbolTableRecord
100
AcDbLayerTableRecord
  2
26
 70
     0
 62
    26
  6
CONTINUOUS
  0
LAYER
  5
54
330
2
100
AcDbSymbolTableRecord
100
AcDbLayerTableRecord
  2
27
 70
     0
 62
    27
  6
CONTINUOUS
  0
LAYER
  5
55
330
2
100
AcDbSymbolTableRecord
100
AcDbLayerTableRecord
  2
28
 70
     0
 62
    28
  6
CONTINUOUS
  0
LAYER
  5
56
330
2
100
AcDbSymbolTableRecord
100
AcDbLayerTableRecord
  2
29
 70
     0
 62
    29
  6
CONTINUOUS
  0
LAYER
  5
57
330
2
100
AcDbSymbolTableRecord
100
AcDbLayerTableRecord
  2
30
 70
     0
 62
    30
  6
CONTINUOUS
  0
LAYER
  5
58
330
2
100
AcDbSymbolTableRecord
100
AcDbLayerTableRecord
  2
31
 70
     0
 62
    31
  6
CONTINUOUS
  0
LAYER
  5
59
330
2
100
AcDbSymbolTableRecord
100
AcDbLayerTableRecord
  2
32
 70
     0
 62
    32
  6
CONTINUOUS
  0
LAYER
  5
5A
330
2
100
AcDbSymbolTableRecord
100
AcDbLayerTableRecord
  2
33
 70
     0
 62
    33
  6
CONTINUOUS
  0
LAYER
  5
5B
330
2
100
AcDbSymbolTableRecord
100
AcDbLayerTableRecord
  2
34
 70
     0
 62
    34
  6
CONTINUOUS
  0
LAYER
  5
5C
330
2
100
AcDbSymbolTableRecord
100
AcDbLayerTableRecord
  2
35
 70
     0
 62
    35
  6
CONTINUOUS
  0
LAYER
  5
5D
330
2
100
AcDbSymbolTableRecord
100
AcDbLayerTableRecord
  2
36
 70
     0
 62
    36
  6
CONTINUOUS
  0
LAYER
  5
5E
330
2
100
AcDbSymbolTableRecord
100
AcDbLayerTableRecord
  2
37
 70
     0
 62
    37
  6
CONTINUOUS
  0
LAYER
  5
5F
330
2
100
AcDbSymbolTableRecord
100
AcDbLayerTableRecord
  2
38
 70
     0
 62
    38
  6
CONTINUOUS
  0
LAYER
  5
60
330
2
100
AcDbSymbolTableRecord
100
AcDbLayerTableRecord
  2
39
 70
     0
 62
    39
  6
CONTINUOUS
  0
LAYER
  5
61
330
2
100
AcDbSymbolTableRecord
100
AcDbLayerTableRecord
  2
40
 70
     0
 62
    40
  6
CONTINUOUS
  0
LAYER
  5
62
330
2
100
AcDbSymbolTableRecord
100
AcDbLayerTableRecord
  2
41
 70
     0
 62
    41
  6
CONTINUOUS
  0
LAYER
  5
63
330
2
100
AcDbSymbolTableRecord
100
AcDbLayerTableRecord
  2
42
 70
     0
 62
    42
  6
CONTINUOUS
  0
LAYER
  5
64
330
2
100
AcDbSymbolTableRecord
100
AcDbLayerTableRecord
  2
43
 70
     0
 62
    43
  6
CONTINUOUS
  0
LAYER
  5
65
330
2
100
AcDbSymbolTableRecord
100
AcDbLayerTableRecord
  2
44
 70
     0
 62
    44
  6
CONTINUOUS
  0
LAYER
  5
66
330
2
100
AcDbSymbolTableRecord
100
AcDbLayerTableRecord
  2
45
 70
     0
 62
    45
  6
CONTINUOUS
  0
LAYER
  5
67
330
2
100
AcDbSymbolTableRecord
100
AcDbLayerTableRecord
  2
46
 70
     0
 62
    46
  6
CONTINUOUS
  0
LAYER
  5
68
330
2
100
AcDbSymbolTableRecord
100
AcDbLayerTableRecord
  2
47
 70
     0
 62
    47
  6
CONTINUOUS
  0
LAYER
  5
69
330
2
100
AcDbSymbolTableRecord
100
AcDbLayerTableRecord
  2
48
 70
     0
 62
    48
  6
CONTINUOUS
  0
LAYER
  5
6A
330
2
100
AcDbSymbolTableRecord
100
AcDbLayerTableRecord
  2
49
 70
     0
 62
    49
  6
CONTINUOUS
  0
LAYER
  5
6B
330
2
100
AcDbSymbolTableRecord
100
AcDbLayerTableRecord
  2
50
 70
     0
 62
    50
  6
CONTINUOUS
  0
LAYER
  5
6C
330
2
100
AcDbSymbolTableRecord
100
AcDbLayerTableRecord
  2
51
 70
     0
 62
    51
  6
CONTINUOUS
  0
LAYER
  5
6D
330
2
100
AcDbSymbolTableRecord
100
AcDbLayerTableRecord
  2
52
 70
     0
 62
    52
  6
CONTINUOUS
  0
LAYER
  5
6E
330
2
100
AcDbSymbolTableRecord
100
AcDbLayerTableRecord
  2
53
 70
     0
 62
    53
  6
CONTINUOUS
  0
LAYER
  5
6F
330
2
100
AcDbSymbolTableRecord
100
AcDbLayerTableRecord
  2
54
 70
     0
 62
    54
  6
CONTINUOUS
  0
LAYER
  5
70
330
2
100
AcDbSymbolTableRecord
100
AcDbLayerTableRecord
  2
55
 70
     0
 62
    55
  6
CONTINUOUS
  0
LAYER
  5
71
330
2
100
AcDbSymbolTableRecord
100
AcDbLayerTableRecord
  2
56
 70
     0
 62
    56
  6
CONTINUOUS
  0
LAYER
  5
72
330
2
100
AcDbSymbolTableRecord
100
AcDbLayerTableRecord
  2
57
 70
     0
 62
    57
  6
CONTINUOUS
  0
LAYER
  5
73
330
2
100
AcDbSymbolTableRecord
100
AcDbLayerTableRecord
  2
58
 70
     0
 62
    58
  6
CONTINUOUS
  0
LAYER
  5
74
330
2
100
AcDbSymbolTableRecord
100
AcDbLayerTableRecord
  2
59
 70
     0
 62
    59
  6
CONTINUOUS
  0
LAYER
  5
75
330
2
100
AcDbSymbolTableRecord
100
AcDbLayerTableRecord
  2
60
 70
     0
 62
    60
  6
CONTINUOUS
  0
LAYER
  5
76
330
2
100
AcDbSymbolTableRecord
100
AcDbLayerTableRecord
  2
61
 70
     0
 62
    61
  6
CONTINUOUS
  0
LAYER
  5
77
330
2
100
AcDbSymbolTableRecord
100
AcDbLayerTableRecord
  2
62
 70
     0
 62
    62
  6
CONTINUOUS
  0
LAYER
  5
78
330
2
100
AcDbSymbolTableRecord
100
AcDbLayerTableRecord
  2
63
 70
     0
 62
    63
  6
CONTINUOUS
  0
LAYER
  5
79
330
2
100
AcDbSymbolTableRecord
100
AcDbLayerTableRecord
  2
64
 70
     0
 62
    64
  6
CONTINUOUS
  0
LAYER
  5
7A
330
2
100
AcDbSymbolTableRecord
100
AcDbLayerTableRecord
  2
65
 70
     0
 62
    65
  6
CONTINUOUS
  0
LAYER
  5
7B
330
2
100
AcDbSymbolTableRecord
100
AcDbLayerTableRecord
  2
66
 70
     0
 62
    66
  6
CONTINUOUS
  0
LAYER
  5
7C
330
2
100
AcDbSymbolTableRecord
100
AcDbLayerTableRecord
  2
67
 70
     0
 62
    67
  6
CONTINUOUS
  0
LAYER
  5
7D
330
2
100
AcDbSymbolTableRecord
100
AcDbLayerTableRecord
  2
68
 70
     0
 62
    68
  6
CONTINUOUS
  0
LAYER
  5
7E
330
2
100
AcDbSymbolTableRecord
100
AcDbLayerTableRecord
  2
69
 70
     0
 62
    69
  6
CONTINUOUS
  0
LAYER
  5
7F
330
2
100
AcDbSymbolTableRecord
100
AcDbLayerTableRecord
  2
70
 70
     0
 62
    70
  6
CONTINUOUS
  0
LAYER
  5
80
330
2
100
AcDbSymbolTableRecord
100
AcDbLayerTableRecord
  2
71
 70
     0
 62
    71
  6
CONTINUOUS
  0
LAYER
  5
81
330
2
100
AcDbSymbolTableRecord
100
AcDbLayerTableRecord
  2
72
 70
     0
 62
    72
  6
CONTINUOUS
  0
LAYER
  5
82
330
2
100
AcDbSymbolTableRecord
100
AcDbLayerTableRecord
  2
73
 70
     0
 62
    73
  6
CONTINUOUS
  0
LAYER
  5
83
330
2
100
AcDbSymbolTableRecord
100
AcDbLayerTableRecord
  2
74
 70
     0
 62
    74
  6
CONTINUOUS
  0
LAYER
  5
84
330
2
100
AcDbSymbolTableRecord
100
AcDbLayerTableRecord
  2
75
 70
     0
 62
    75
  6
CONTINUOUS
  0
LAYER
  5
85
330
2
100
AcDbSymbolTableRecord
100
AcDbLayerTableRecord
  2
76
 70
     0
 62
    76
  6
CONTINUOUS
  0
LAYER
  5
86
330
2
100
AcDbSymbolTableRecord
100
AcDbLayerTableRecord
  2
77
 70
     0
 62
    77
  6
CONTINUOUS
  0
LAYER
  5
87
330
2
100
AcDbSymbolTableRecord
100
AcDbLayerTableRecord
  2
78
 70
     0
 62
    78
  6
CONTINUOUS
  0
LAYER
  5
88
330
2
100
AcDbSymbolTableRecord
100
AcDbLayerTableRecord
  2
79
 70
     0
 62
    79
  6
CONTINUOUS
  0
LAYER
  5
89
330
2
100
AcDbSymbolTableRecord
100
AcDbLayerTableRecord
  2
80
 70
     0
 62
    80
  6
CONTINUOUS
  0
LAYER
  5
8A
330
2
100
AcDbSymbolTableRecord
100
AcDbLayerTableRecord
  2
81
 70
     0
 62
    81
  6
CONTINUOUS
  0
LAYER
  5
8B
330
2
100
AcDbSymbolTableRecord
100
AcDbLayerTableRecord
  2
82
 70
     0
 62
    82
  6
CONTINUOUS
  0
LAYER
  5
8C
330
2
100
AcDbSymbolTableRecord
100
AcDbLayerTableRecord
  2
83
 70
     0
 62
    83
  6
CONTINUOUS
  0
LAYER
  5
8D
330
2
100
AcDbSymbolTableRecord
100
AcDbLayerTableRecord
  2
84
 70
     0
 62
    84
  6
CONTINUOUS
  0
LAYER
  5
8E
330
2
100
AcDbSymbolTableRecord
100
AcDbLayerTableRecord
  2
85
 70
     0
 62
    85
  6
CONTINUOUS
  0
LAYER
  5
8F
330
2
100
AcDbSymbolTableRecord
100
AcDbLayerTableRecord
  2
86
 70
     0
 62
    86
  6
CONTINUOUS
  0
LAYER
  5
90
330
2
100
AcDbSymbolTableRecord
100
AcDbLayerTableRecord
  2
87
 70
     0
 62
    87
  6
CONTINUOUS
  0
LAYER
  5
91
330
2
100
AcDbSymbolTableRecord
100
AcDbLayerTableRecord
  2
88
 70
     0
 62
    88
  6
CONTINUOUS
  0
LAYER
  5
92
330
2
100
AcDbSymbolTableRecord
100
AcDbLayerTableRecord
  2
89
 70
     0
 62
    89
  6
CONTINUOUS
  0
LAYER
  5
93
330
2
100
AcDbSymbolTableRecord
100
AcDbLayerTableRecord
  2
90
 70
     0
 62
    90
  6
CONTINUOUS
  0
LAYER
  5
94
330
2
100
AcDbSymbolTableRecord
100
AcDbLayerTableRecord
  2
91
 70
     0
 62
    91
  6
CONTINUOUS
  0
LAYER
  5
95
330
2
100
AcDbSymbolTableRecord
100
AcDbLayerTableRecord
  2
92
 70
     0
 62
    92
  6
CONTINUOUS
  0
LAYER
  5
96
330
2
100
AcDbSymbolTableRecord
100
AcDbLayerTableRecord
  2
93
 70
     0
 62
    93
  6
CONTINUOUS
  0
LAYER
  5
97
330
2
100
AcDbSymbolTableRecord
100
AcDbLayerTableRecord
  2
94
 70
     0
 62
    94
  6
CONTINUOUS
  0
LAYER
  5
98
330
2
100
AcDbSymbolTableRecord
100
AcDbLayerTableRecord
  2
95
 70
     0
 62
    95
  6
CONTINUOUS
  0
LAYER
  5
99
330
2
100
AcDbSymbolTableRecord
100
AcDbLayerTableRecord
  2
96
 70
     0
 62
    96
  6
CONTINUOUS
  0
LAYER
  5
9A
330
2
100
AcDbSymbolTableRecord
100
AcDbLayerTableRecord
  2
97
 70
     0
 62
    97
  6
CONTINUOUS
  0
LAYER
  5
9B
330
2
100
AcDbSymbolTableRecord
100
AcDbLayerTableRecord
  2
98
 70
     0
 62
    98
  6
CONTINUOUS
  0
LAYER
  5
9C
330
2
100
AcDbSymbolTableRecord
100
AcDbLayerTableRecord
  2
99
 70
     0
 62
    99
  6
CONTINUOUS
  0
LAYER
  5
9D
330
2
100
AcDbSymbolTableRecord
100
AcDbLayerTableRecord
  2
100
 70
     0
 62
   100
  6
CONTINUOUS
  0
LAYER
  5
9E
330
2
100
AcDbSymbolTableRecord
100
AcDbLayerTableRecord
  2
101
 70
     0
 62
   101
  6
CONTINUOUS
  0
LAYER
  5
9F
330
2
100
AcDbSymbolTableRecord
100
AcDbLayerTableRecord
  2
102
 70
     0
 62
   102
  6
CONTINUOUS
  0
LAYER
  5
A0
330
2
100
AcDbSymbolTableRecord
100
AcDbLayerTableRecord
  2
103
 70
     0
 62
   103
  6
CONTINUOUS
  0
LAYER
  5
A1
330
2
100
AcDbSymbolTableRecord
100
AcDbLayerTableRecord
  2
104
 70
     0
 62
   104
  6
CONTINUOUS
  0
LAYER
  5
A2
330
2
100
AcDbSymbolTableRecord
100
AcDbLayerTableRecord
  2
105
 70
     0
 62
   105
  6
CONTINUOUS
  0
LAYER
  5
A3
330
2
100
AcDbSymbolTableRecord
100
AcDbLayerTableRecord
  2
106
 70
     0
 62
   106
  6
CONTINUOUS
  0
LAYER
  5
A4
330
2
100
AcDbSymbolTableRecord
100
AcDbLayerTableRecord
  2
107
 70
     0
 62
   107
  6
CONTINUOUS
  0
LAYER
  5
A5
330
2
100
AcDbSymbolTableRecord
100
AcDbLayerTableRecord
  2
108
 70
     0
 62
   108
  6
CONTINUOUS
  0
LAYER
  5
A6
330
2
100
AcDbSymbolTableRecord
100
AcDbLayerTableRecord
  2
109
 70
     0
 62
   109
  6
CONTINUOUS
  0
LAYER
  5
A7
330
2
100
AcDbSymbolTableRecord
100
AcDbLayerTableRecord
  2
110
 70
     0
 62
   110
  6
CONTINUOUS
  0
LAYER
  5
A8
330
2
100
AcDbSymbolTableRecord
100
AcDbLayerTableRecord
  2
111
 70
     0
 62
   111
  6
CONTINUOUS
  0
LAYER
  5
A9
330
2
100
AcDbSymbolTableRecord
100
AcDbLayerTableRecord
  2
112
 70
     0
 62
   112
  6
CONTINUOUS
  0
LAYER
  5
AA
330
2
100
AcDbSymbolTableRecord
100
AcDbLayerTableRecord
  2
113
 70
     0
 62
   113
  6
CONTINUOUS
  0
LAYER
  5
AB
330
2
100
AcDbSymbolTableRecord
100
AcDbLayerTableRecord
  2
114
 70
     0
 62
   114
  6
CONTINUOUS
  0
LAYER
  5
AC
330
2
100
AcDbSymbolTableRecord
100
AcDbLayerTableRecord
  2
115
 70
     0
 62
   115
  6
CONTINUOUS
  0
LAYER
  5
AD
330
2
100
AcDbSymbolTableRecord
100
AcDbLayerTableRecord
  2
116
 70
     0
 62
   116
  6
CONTINUOUS
  0
LAYER
  5
AE
330
2
100
AcDbSymbolTableRecord
100
AcDbLayerTableRecord
  2
117
 70
     0
 62
   117
  6
CONTINUOUS
  0
LAYER
  5
AF
330
2
100
AcDbSymbolTableRecord
100
AcDbLayerTableRecord
  2
118
 70
     0
 62
   118
  6
CONTINUOUS
  0
LAYER
  5
B0
330
2
100
AcDbSymbolTableRecord
100
AcDbLayerTableRecord
  2
119
 70
     0
 62
   119
  6
CONTINUOUS
  0
LAYER
  5
B1
330
2
100
AcDbSymbolTableRecord
100
AcDbLayerTableRecord
  2
120
 70
     0
 62
   120
  6
CONTINUOUS
  0
LAYER
  5
B2
330
2
100
AcDbSymbolTableRecord
100
AcDbLayerTableRecord
  2
121
 70
     0
 62
   121
  6
CONTINUOUS
  0
LAYER
  5
B3
330
2
100
AcDbSymbolTableRecord
100
AcDbLayerTableRecord
  2
122
 70
     0
 62
   122
  6
CONTINUOUS
  0
LAYER
  5
B4
330
2
100
AcDbSymbolTableRecord
100
AcDbLayerTableRecord
  2
123
 70
     0
 62
   123
  6
CONTINUOUS
  0
LAYER
  5
B5
330
2
100
AcDbSymbolTableRecord
100
AcDbLayerTableRecord
  2
124
 70
     0
 62
   124
  6
CONTINUOUS
  0
LAYER
  5
B6
330
2
100
AcDbSymbolTableRecord
100
AcDbLayerTableRecord
  2
125
 70
     0
 62
   125
  6
CONTINUOUS
  0
LAYER
  5
B7
330
2
100
AcDbSymbolTableRecord
100
AcDbLayerTableRecord
  2
126
 70
     0
 62
   126
  6
CONTINUOUS
  0
LAYER
  5
B8
330
2
100
AcDbSymbolTableRecord
100
AcDbLayerTableRecord
  2
127
 70
     0
 62
   127
  6
CONTINUOUS
  0
LAYER
  5
B9
330
2
100
AcDbSymbolTableRecord
100
AcDbLayerTableRecord
  2
128
 70
     0
 62
   128
  6
CONTINUOUS
  0
LAYER
  5
BA
330
2
100
AcDbSymbolTableRecord
100
AcDbLayerTableRecord
  2
129
 70
     0
 62
   129
  6
CONTINUOUS
  0
LAYER
  5
BB
330
2
100
AcDbSymbolTableRecord
100
AcDbLayerTableRecord
  2
130
 70
     0
 62
   130
  6
CONTINUOUS
  0
LAYER
  5
BC
330
2
100
AcDbSymbolTableRecord
100
AcDbLayerTableRecord
  2
131
 70
     0
 62
   131
  6
CONTINUOUS
  0
LAYER
  5
BD
330
2
100
AcDbSymbolTableRecord
100
AcDbLayerTableRecord
  2
132
 70
     0
 62
   132
  6
CONTINUOUS
  0
LAYER
  5
BE
330
2
100
AcDbSymbolTableRecord
100
AcDbLayerTableRecord
  2
133
 70
     0
 62
   133
  6
CONTINUOUS
  0
LAYER
  5
BF
330
2
100
AcDbSymbolTableRecord
100
AcDbLayerTableRecord
  2
134
 70
     0
 62
   134
  6
CONTINUOUS
  0
LAYER
  5
C0
330
2
100
AcDbSymbolTableRecord
100
AcDbLayerTableRecord
  2
135
 70
     0
 62
   135
  6
CONTINUOUS
  0
LAYER
  5
C1
330
2
100
AcDbSymbolTableRecord
100
AcDbLayerTableRecord
  2
136
 70
     0
 62
   136
  6
CONTINUOUS
  0
LAYER
  5
C2
330
2
100
AcDbSymbolTableRecord
100
AcDbLayerTableRecord
  2
137
 70
     0
 62
   137
  6
CONTINUOUS
  0
LAYER
  5
C3
330
2
100
AcDbSymbolTableRecord
100
AcDbLayerTableRecord
  2
138
 70
     0
 62
   138
  6
CONTINUOUS
  0
LAYER
  5
C4
330
2
100
AcDbSymbolTableRecord
100
AcDbLayerTableRecord
  2
139
 70
     0
 62
   139
  6
CONTINUOUS
  0
LAYER
  5
C5
330
2
100
AcDbSymbolTableRecord
100
AcDbLayerTableRecord
  2
140
 70
     0
 62
   140
  6
CONTINUOUS
  0
LAYER
  5
C6
330
2
100
AcDbSymbolTableRecord
100
AcDbLayerTableRecord
  2
141
 70
     0
 62
   141
  6
CONTINUOUS
  0
LAYER
  5
C7
330
2
100
AcDbSymbolTableRecord
100
AcDbLayerTableRecord
  2
142
 70
     0
 62
   142
  6
CONTINUOUS
  0
LAYER
  5
C8
330
2
100
AcDbSymbolTableRecord
100
AcDbLayerTableRecord
  2
143
 70
     0
 62
   143
  6
CONTINUOUS
  0
LAYER
  5
C9
330
2
100
AcDbSymbolTableRecord
100
AcDbLayerTableRecord
  2
144
 70
     0
 62
   144
  6
CONTINUOUS
  0
LAYER
  5
CA
330
2
100
AcDbSymbolTableRecord
100
AcDbLayerTableRecord
  2
145
 70
     0
 62
   145
  6
CONTINUOUS
  0
LAYER
  5
CB
330
2
100
AcDbSymbolTableRecord
100
AcDbLayerTableRecord
  2
146
 70
     0
 62
   146
  6
CONTINUOUS
  0
LAYER
  5
CC
330
2
100
AcDbSymbolTableRecord
100
AcDbLayerTableRecord
  2
147
 70
     0
 62
   147
  6
CONTINUOUS
  0
LAYER
  5
CD
330
2
100
AcDbSymbolTableRecord
100
AcDbLayerTableRecord
  2
148
 70
     0
 62
   148
  6
CONTINUOUS
  0
LAYER
  5
CE
330
2
100
AcDbSymbolTableRecord
100
AcDbLayerTableRecord
  2
149
 70
     0
 62
   149
  6
CONTINUOUS
  0
LAYER
  5
CF
330
2
100
AcDbSymbolTableRecord
100
AcDbLayerTableRecord
  2
150
 70
     0
 62
   150
  6
CONTINUOUS
  0
LAYER
  5
D0
330
2
100
AcDbSymbolTableRecord
100
AcDbLayerTableRecord
  2
151
 70
     0
 62
   151
  6
CONTINUOUS
  0
LAYER
  5
D1
330
2
100
AcDbSymbolTableRecord
100
AcDbLayerTableRecord
  2
152
 70
     0
 62
   152
  6
CONTINUOUS
  0
LAYER
  5
D2
330
2
100
AcDbSymbolTableRecord
100
AcDbLayerTableRecord
  2
153
 70
     0
 62
   153
  6
CONTINUOUS
  0
LAYER
  5
D3
330
2
100
AcDbSymbolTableRecord
100
AcDbLayerTableRecord
  2
154
 70
     0
 62
   154
  6
CONTINUOUS
  0
LAYER
  5
D4
330
2
100
AcDbSymbolTableRecord
100
AcDbLayerTableRecord
  2
155
 70
     0
 62
   155
  6
CONTINUOUS
  0
LAYER
  5
D5
330
2
100
AcDbSymbolTableRecord
100
AcDbLayerTableRecord
  2
156
 70
     0
 62
   156
  6
CONTINUOUS
  0
LAYER
  5
D6
330
2
100
AcDbSymbolTableRecord
100
AcDbLayerTableRecord
  2
157
 70
     0
 62
   157
  6
CONTINUOUS
  0
LAYER
  5
D7
330
2
100
AcDbSymbolTableRecord
100
AcDbLayerTableRecord
  2
158
 70
     0
 62
   158
  6
CONTINUOUS
  0
LAYER
  5
D8
330
2
100
AcDbSymbolTableRecord
100
AcDbLayerTableRecord
  2
159
 70
     0
 62
   159
  6
CONTINUOUS
  0
LAYER
  5
D9
330
2
100
AcDbSymbolTableRecord
100
AcDbLayerTableRecord
  2
160
 70
     0
 62
   160
  6
CONTINUOUS
  0
LAYER
  5
DA
330
2
100
AcDbSymbolTableRecord
100
AcDbLayerTableRecord
  2
161
 70
     0
 62
   161
  6
CONTINUOUS
  0
LAYER
  5
DB
330
2
100
AcDbSymbolTableRecord
100
AcDbLayerTableRecord
  2
162
 70
     0
 62
   162
  6
CONTINUOUS
  0
LAYER
  5
DC
330
2
100
AcDbSymbolTableRecord
100
AcDbLayerTableRecord
  2
163
 70
     0
 62
   163
  6
CONTINUOUS
  0
LAYER
  5
DD
330
2
100
AcDbSymbolTableRecord
100
AcDbLayerTableRecord
  2
164
 70
     0
 62
   164
  6
CONTINUOUS
  0
LAYER
  5
DE
330
2
100
AcDbSymbolTableRecord
100
AcDbLayerTableRecord
  2
165
 70
     0
 62
   165
  6
CONTINUOUS
  0
LAYER
  5
DF
330
2
100
AcDbSymbolTableRecord
100
AcDbLayerTableRecord
  2
166
 70
     0
 62
   166
  6
CONTINUOUS
  0
LAYER
  5
E0
330
2
100
AcDbSymbolTableRecord
100
AcDbLayerTableRecord
  2
167
 70
     0
 62
   167
  6
CONTINUOUS
  0
LAYER
  5
E1
330
2
100
AcDbSymbolTableRecord
100
AcDbLayerTableRecord
  2
168
 70
     0
 62
   168
  6
CONTINUOUS
  0
LAYER
  5
E2
330
2
100
AcDbSymbolTableRecord
100
AcDbLayerTableRecord
  2
169
 70
     0
 62
   169
  6
CONTINUOUS
  0
LAYER
  5
E3
330
2
100
AcDbSymbolTableRecord
100
AcDbLayerTableRecord
  2
170
 70
     0
 62
   170
  6
CONTINUOUS
  0
LAYER
  5
E4
330
2
100
AcDbSymbolTableRecord
100
AcDbLayerTableRecord
  2
171
 70
     0
 62
   171
  6
CONTINUOUS
  0
LAYER
  5
E5
330
2
100
AcDbSymbolTableRecord
100
AcDbLayerTableRecord
  2
172
 70
     0
 62
   172
  6
CONTINUOUS
  0
LAYER
  5
E6
330
2
100
AcDbSymbolTableRecord
100
AcDbLayerTableRecord
  2
173
 70
     0
 62
   173
  6
CONTINUOUS
  0
LAYER
  5
E7
330
2
100
AcDbSymbolTableRecord
100
AcDbLayerTableRecord
  2
174
 70
     0
 62
   174
  6
CONTINUOUS
  0
LAYER
  5
E8
330
2
100
AcDbSymbolTableRecord
100
AcDbLayerTableRecord
  2
175
 70
     0
 62
   175
  6
CONTINUOUS
  0
LAYER
  5
E9
330
2
100
AcDbSymbolTableRecord
100
AcDbLayerTableRecord
  2
176
 70
     0
 62
   176
  6
CONTINUOUS
  0
LAYER
  5
EA
330
2
100
AcDbSymbolTableRecord
100
AcDbLayerTableRecord
  2
177
 70
     0
 62
   177
  6
CONTINUOUS
  0
LAYER
  5
EB
330
2
100
AcDbSymbolTableRecord
100
AcDbLayerTableRecord
  2
178
 70
     0
 62
   178
  6
CONTINUOUS
  0
LAYER
  5
EC
330
2
100
AcDbSymbolTableRecord
100
AcDbLayerTableRecord
  2
179
 70
     0
 62
   179
  6
CONTINUOUS
  0
LAYER
  5
ED
330
2
100
AcDbSymbolTableRecord
100
AcDbLayerTableRecord
  2
180
 70
     0
 62
   180
  6
CONTINUOUS
  0
LAYER
  5
EE
330
2
100
AcDbSymbolTableRecord
100
AcDbLayerTableRecord
  2
181
 70
     0
 62
   181
  6
CONTINUOUS
  0
LAYER
  5
EF
330
2
100
AcDbSymbolTableRecord
100
AcDbLayerTableRecord
  2
182
 70
     0
 62
   182
  6
CONTINUOUS
  0
LAYER
  5
F0
330
2
100
AcDbSymbolTableRecord
100
AcDbLayerTableRecord
  2
183
 70
     0
 62
   183
  6
CONTINUOUS
  0
LAYER
  5
F1
330
2
100
AcDbSymbolTableRecord
100
AcDbLayerTableRecord
  2
184
 70
     0
 62
   184
  6
CONTINUOUS
  0
LAYER
  5
F2
330
2
100
AcDbSymbolTableRecord
100
AcDbLayerTableRecord
  2
185
 70
     0
 62
   185
  6
CONTINUOUS
  0
LAYER
  5
F3
330
2
100
AcDbSymbolTableRecord
100
AcDbLayerTableRecord
  2
186
 70
     0
 62
   186
  6
CONTINUOUS
  0
LAYER
  5
F4
330
2
100
AcDbSymbolTableRecord
100
AcDbLayerTableRecord
  2
187
 70
     0
 62
   187
  6
CONTINUOUS
  0
LAYER
  5
F5
330
2
100
AcDbSymbolTableRecord
100
AcDbLayerTableRecord
  2
188
 70
     0
 62
   188
  6
CONTINUOUS
  0
LAYER
  5
F6
330
2
100
AcDbSymbolTableRecord
100
AcDbLayerTableRecord
  2
189
 70
     0
 62
   189
  6
CONTINUOUS
  0
LAYER
  5
F7
330
2
100
AcDbSymbolTableRecord
100
AcDbLayerTableRecord
  2
190
 70
     0
 62
   190
  6
CONTINUOUS
  0
LAYER
  5
F8
330
2
100
AcDbSymbolTableRecord
100
AcDbLayerTableRecord
  2
191
 70
     0
 62
   191
  6
CONTINUOUS
  0
LAYER
  5
F9
330
2
100
AcDbSymbolTableRecord
100
AcDbLayerTableRecord
  2
192
 70
     0
 62
   192
  6
CONTINUOUS
  0
LAYER
  5
FA
330
2
100
AcDbSymbolTableRecord
100
AcDbLayerTableRecord
  2
193
 70
     0
 62
   193
  6
CONTINUOUS
  0
LAYER
  5
FB
330
2
100
AcDbSymbolTableRecord
100
AcDbLayerTableRecord
  2
194
 70
     0
 62
   194
  6
CONTINUOUS
  0
LAYER
  5
FC
330
2
100
AcDbSymbolTableRecord
100
AcDbLayerTableRecord
  2
195
 70
     0
 62
   195
  6
CONTINUOUS
  0
LAYER
  5
FD
330
2
100
AcDbSymbolTableRecord
100
AcDbLayerTableRecord
  2
196
 70
     0
 62
   196
  6
CONTINUOUS
  0
LAYER
  5
FE
330
2
100
AcDbSymbolTableRecord
100
AcDbLayerTableRecord
  2
197
 70
     0
 62
   197
  6
CONTINUOUS
  0
LAYER
  5
FF
330
2
100
AcDbSymbolTableRecord
100
AcDbLayerTableRecord
  2
198
 70
     0
 62
   198
  6
CONTINUOUS
  0
LAYER
  5
100
330
2
100
AcDbSymbolTableRecord
100
AcDbLayerTableRecord
  2
199
 70
     0
 62
   199
  6
CONTINUOUS
  0
LAYER
  5
101
330
2
100
AcDbSymbolTableRecord
100
AcDbLayerTableRecord
  2
200
 70
     0
 62
   200
  6
CONTINUOUS
  0
LAYER
  5
102
330
2
100
AcDbSymbolTableRecord
100
AcDbLayerTableRecord
  2
201
 70
     0
 62
   201
  6
CONTINUOUS
  0
LAYER
  5
103
330
2
100
AcDbSymbolTableRecord
100
AcDbLayerTableRecord
  2
202
 70
     0
 62
   202
  6
CONTINUOUS
  0
LAYER
  5
104
330
2
100
AcDbSymbolTableRecord
100
AcDbLayerTableRecord
  2
203
 70
     0
 62
   203
  6
CONTINUOUS
  0
LAYER
  5
105
330
2
100
AcDbSymbolTableRecord
100
AcDbLayerTableRecord
  2
204
 70
     0
 62
   204
  6
CONTINUOUS
  0
LAYER
  5
106
330
2
100
AcDbSymbolTableRecord
100
AcDbLayerTableRecord
  2
205
 70
     0
 62
   205
  6
CONTINUOUS
  0
LAYER
  5
107
330
2
100
AcDbSymbolTableRecord
100
AcDbLayerTableRecord
  2
206
 70
     0
 62
   206
  6
CONTINUOUS
  0
LAYER
  5
108
330
2
100
AcDbSymbolTableRecord
100
AcDbLayerTableRecord
  2
207
 70
     0
 62
   207
  6
CONTINUOUS
  0
LAYER
  5
109
330
2
100
AcDbSymbolTableRecord
100
AcDbLayerTableRecord
  2
208
 70
     0
 62
   208
  6
CONTINUOUS
  0
LAYER
  5
10A
330
2
100
AcDbSymbolTableRecord
100
AcDbLayerTableRecord
  2
209
 70
     0
 62
   209
  6
CONTINUOUS
  0
LAYER
  5
10B
330
2
100
AcDbSymbolTableRecord
100
AcDbLayerTableRecord
  2
210
 70
     0
 62
   210
  6
CONTINUOUS
  0
LAYER
  5
10C
330
2
100
AcDbSymbolTableRecord
100
AcDbLayerTableRecord
  2
211
 70
     0
 62
   211
  6
CONTINUOUS
  0
LAYER
  5
10D
330
2
100
AcDbSymbolTableRecord
100
AcDbLayerTableRecord
  2
212
 70
     0
 62
   212
  6
CONTINUOUS
  0
LAYER
  5
10E
330
2
100
AcDbSymbolTableRecord
100
AcDbLayerTableRecord
  2
213
 70
     0
 62
   213
  6
CONTINUOUS
  0
LAYER
  5
10F
330
2
100
AcDbSymbolTableRecord
100
AcDbLayerTableRecord
  2
214
 70
     0
 62
   214
  6
CONTINUOUS
  0
LAYER
  5
110
330
2
100
AcDbSymbolTableRecord
100
AcDbLayerTableRecord
  2
215
 70
     0
 62
   215
  6
CONTINUOUS
  0
LAYER
  5
111
330
2
100
AcDbSymbolTableRecord
100
AcDbLayerTableRecord
  2
216
 70
     0
 62
   216
  6
CONTINUOUS
  0
LAYER
  5
112
330
2
100
AcDbSymbolTableRecord
100
AcDbLayerTableRecord
  2
217
 70
     0
 62
   217
  6
CONTINUOUS
  0
LAYER
  5
113
330
2
100
AcDbSymbolTableRecord
100
AcDbLayerTableRecord
  2
218
 70
     0
 62
   218
  6
CONTINUOUS
  0
LAYER
  5
114
330
2
100
AcDbSymbolTableRecord
100
AcDbLayerTableRecord
  2
219
 70
     0
 62
   219
  6
CONTINUOUS
  0
LAYER
  5
115
330
2
100
AcDbSymbolTableRecord
100
AcDbLayerTableRecord
  2
220
 70
     0
 62
   220
  6
CONTINUOUS
  0
LAYER
  5
116
330
2
100
AcDbSymbolTableRecord
100
AcDbLayerTableRecord
  2
221
 70
     0
 62
   221
  6
CONTINUOUS
  0
LAYER
  5
117
330
2
100
AcDbSymbolTableRecord
100
AcDbLayerTableRecord
  2
222
 70
     0
 62
   222
  6
CONTINUOUS
  0
LAYER
  5
118
330
2
100
AcDbSymbolTableRecord
100
AcDbLayerTableRecord
  2
223
 70
     0
 62
   223
  6
CONTINUOUS
  0
LAYER
  5
119
330
2
100
AcDbSymbolTableRecord
100
AcDbLayerTableRecord
  2
224
 70
     0
 62
   224
  6
CONTINUOUS
  0
LAYER
  5
11A
330
2
100
AcDbSymbolTableRecord
100
AcDbLayerTableRecord
  2
225
 70
     0
 62
   225
  6
CONTINUOUS
  0
LAYER
  5
11B
330
2
100
AcDbSymbolTableRecord
100
AcDbLayerTableRecord
  2
226
 70
     0
 62
   226
  6
CONTINUOUS
  0
LAYER
  5
11C
330
2
100
AcDbSymbolTableRecord
100
AcDbLayerTableRecord
  2
227
 70
     0
 62
   227
  6
CONTINUOUS
  0
LAYER
  5
11D
330
2
100
AcDbSymbolTableRecord
100
AcDbLayerTableRecord
  2
228
 70
     0
 62
   228
  6
CONTINUOUS
  0
LAYER
  5
11E
330
2
100
AcDbSymbolTableRecord
100
AcDbLayerTableRecord
  2
229
 70
     0
 62
   229
  6
CONTINUOUS
  0
LAYER
  5
11F
330
2
100
AcDbSymbolTableRecord
100
AcDbLayerTableRecord
  2
230
 70
     0
 62
   230
  6
CONTINUOUS
  0
LAYER
  5
120
330
2
100
AcDbSymbolTableRecord
100
AcDbLayerTableRecord
  2
231
 70
     0
 62
   231
  6
CONTINUOUS
  0
LAYER
  5
121
330
2
100
AcDbSymbolTableRecord
100
AcDbLayerTableRecord
  2
232
 70
     0
 62
   232
  6
CONTINUOUS
  0
LAYER
  5
122
330
2
100
AcDbSymbolTableRecord
100
AcDbLayerTableRecord
  2
233
 70
     0
 62
   233
  6
CONTINUOUS
  0
LAYER
  5
123
330
2
100
AcDbSymbolTableRecord
100
AcDbLayerTableRecord
  2
234
 70
     0
 62
   234
  6
CONTINUOUS
  0
LAYER
  5
124
330
2
100
AcDbSymbolTableRecord
100
AcDbLayerTableRecord
  2
235
 70
     0
 62
   235
  6
CONTINUOUS
  0
LAYER
  5
125
330
2
100
AcDbSymbolTableRecord
100
AcDbLayerTableRecord
  2
236
 70
     0
 62
   236
  6
CONTINUOUS
  0
LAYER
  5
126
330
2
100
AcDbSymbolTableRecord
100
AcDbLayerTableRecord
  2
237
 70
     0
 62
   237
  6
CONTINUOUS
  0
LAYER
  5
127
330
2
100
AcDbSymbolTableRecord
100
AcDbLayerTableRecord
  2
238
 70
     0
 62
   238
  6
CONTINUOUS
  0
LAYER
  5
128
330
2
100
AcDbSymbolTableRecord
100
AcDbLayerTableRecord
  2
239
 70
     0
 62
   239
  6
CONTINUOUS
  0
LAYER
  5
129
330
2
100
AcDbSymbolTableRecord
100
AcDbLayerTableRecord
  2
240
 70
     0
 62
   240
  6
CONTINUOUS
  0
LAYER
  5
12A
330
2
100
AcDbSymbolTableRecord
100
AcDbLayerTableRecord
  2
241
 70
     0
 62
   241
  6
CONTINUOUS
  0
LAYER
  5
12B
330
2
100
AcDbSymbolTableRecord
100
AcDbLayerTableRecord
  2
242
 70
     0
 62
   242
  6
CONTINUOUS
  0
LAYER
  5
12C
330
2
100
AcDbSymbolTableRecord
100
AcDbLayerTableRecord
  2
243
 70
     0
 62
   243
  6
CONTINUOUS
  0
LAYER
  5
12D
330
2
100
AcDbSymbolTableRecord
100
AcDbLayerTableRecord
  2
244
 70
     0
 62
   244
  6
CONTINUOUS
  0
LAYER
  5
12E
330
2
100
AcDbSymbolTableRecord
100
AcDbLayerTableRecord
  2
245
 70
     0
 62
   245
  6
CONTINUOUS
  0
LAYER
  5
12F
330
2
100
AcDbSymbolTableRecord
100
AcDbLayerTableRecord
  2
246
 70
     0
 62
   246
  6
CONTINUOUS
  0
LAYER
  5
130
330
2
100
AcDbSymbolTableRecord
100
AcDbLayerTableRecord
  2
247
 70
     0
 62
   247
  6
CONTINUOUS
  0
LAYER
  5
131
330
2
100
AcDbSymbolTableRecord
100
AcDbLayerTableRecord
  2
248
 70
     0
 62
   248
  6
CONTINUOUS
  0
LAYER
  5
132
330
2
100
AcDbSymbolTableRecord
100
AcDbLayerTableRecord
  2
249
 70
     0
 62
   249
  6
CONTINUOUS
  0
LAYER
  5
133
330
2
100
AcDbSymbolTableRecord
100
AcDbLayerTableRecord
  2
250
 70
     0
 62
   250
  6
CONTINUOUS
  0
LAYER
  5
134
330
2
100
AcDbSymbolTableRecord
100
AcDbLayerTableRecord
  2
251
 70
     0
 62
   251
  6
CONTINUOUS
  0
LAYER
  5
135
330
2
100
AcDbSymbolTableRecord
100
AcDbLayerTableRecord
  2
252
 70
     0
 62
   252
  6
CONTINUOUS
  0
LAYER
  5
136
330
2
100
AcDbSymbolTableRecord
100
AcDbLayerTableRecord
  2
253
 70
     0
 62
   253
  6
CONTINUOUS
  0
LAYER
  5
137
330
2
100
AcDbSymbolTableRecord
100
AcDbLayerTableRecord
  2
254
 70
     0
 62
   254
  6
CONTINUOUS
  0
LAYER
  5
138
330
2
100
AcDbSymbolTableRecord
100
AcDbLayerTableRecord
  2
255
 70
     0
 62
   255
  6
CONTINUOUS
  0
ENDTAB
  0
TABLE
  2
STYLE
  5
3
330
0
100
AcDbSymbolTable
 70
     1
  0
STYLE
  5
11
330
3
100
AcDbSymbolTableRecord
100
AcDbTextStyleTableRecord
  2
STANDARD
 70
     0
 40
0.0
 41
1.0
 50
0.0
 71
     0
 42
0.2
  3
monotxt
  4

  0
ENDTAB
  0
TABLE
  2
VIEW
  5
6
330
0
100
AcDbSymbolTable
 70
     0
  0
ENDTAB
  0
TABLE
  2
UCS
  5
7
330
0
100
AcDbSymbolTable
 70
     0
  0
ENDTAB
  0
TABLE
  2
APPID
  5
9
330
0
100
AcDbSymbolTable
 70
     1
  0
APPID
  5
12
330
9
100
AcDbSymbolTableRecord
100
AcDbRegAppTableRecord
  2
ACAD
 70
     0
  0
ENDTAB
  0
TABLE
  2
DIMSTYLE
  5
A
330
0
100
AcDbSymbolTable
 70
     1
  0
DIMSTYLE
105
30E5
330
A
100
AcDbSymbolTableRecord
100
AcDbDimStyleTableRecord
  2
STANDARD
 70
     0
  3

  4

  5

  6

  7

 40
1.0
 41
0.18
 42
0.0625
 43
0.38
 44
0.18
 45
0.0
 46
0.0
 47
0.0
 48
0.0
140
0.18
141
0.09
142
0.0
143
25.4
144
1.0
145
0.0
146
1.0
147
0.09
 71
     0
 72
     0
 73
     1
 74
     1
 75
     0
 76
     0
 77
     0
 78
     0
170
     0
171
     2
172
     0
173
     0
174
     0
175
     0
176
     0
177
     0
178
     0
270
     2
271
     4
272
     4
273
     2
274
     2
340
11
275
     0
280
     0
281
     0
282
     0
283
     1
284
     0
285
     0
286
     0
287
     3
288
     0
  0
ENDTAB
  0
TABLE
  2
BLOCK_RECORD
  5
1
330
0
100
AcDbSymbolTable
 70
     0
  0
BLOCK_RECORD
  5
1E
102
{ACAD_XDICTIONARY
360
45B6
102
}
330
1
100
AcDbSymbolTableRecord
100
AcDbBlockTableRecord
  2
*MODEL_SPACE
  0
BLOCK_RECORD
  5
1A
102
{ACAD_XDICTIONARY
360
45B4
102
}
330
1
100
AcDbSymbolTableRecord
100
AcDbBlockTableRecord
  2
*PAPER_SPACE
  0
ENDTAB
  0
ENDSEC
  0
SECTION
  2
BLOCKS
  0
BLOCK
  5
13B
330
1E
100
AcDbEntity
  8
0
100
AcDbBlockBegin
  2
*MODEL_SPACE
 70
     0
 10
0.0
 20
0.0
 30
0.0
  3
*MODEL_SPACE
  1

  0
ENDBLK
  5
13C
330
1E
100
AcDbEntity
  8
0
100
AcDbBlockEnd
  0
BLOCK
  5
139
330
1A
100
AcDbEntity
 67
     1
  8
0
100
AcDbBlockBegin
  2
*PAPER_SPACE
 70
     0
 10
0.0
 20
0.0
 30
0.0
  3
*PAPER_SPACE
  1

  0
ENDBLK
  5
13A
330
1A
100
AcDbEntity
 67
     1
  8
0
100
AcDbBlockEnd
  0
ENDSEC
  0
SECTION
  2
ENTITIES
  0
LINE
  5
28C7
330
1E
100
AcDbEntity
  8
7
100
AcDbLine
 10
15.05774829610222
 20
13.8366218636245
 30
0.0
 11
15.05774829610222
 21
13.97835414708906
 31
0.0
  0
LINE
  5
28D6
330
1E
100
AcDbEntity
  8
7
100
AcDbLine
 10
12.24147533022295
 20
13.63583446204969
 30
0.0
 11
12.19029422786075
 21
13.63583446204969
 31
0.0
  0
LINE
  5
28D7
330
1E
100
AcDbEntity
  8
7
100
AcDbLine
 10
12.24147533022295
 20
12.99147750666912
 30
0.0
 11
12.24147533022295
 21
13.63583446204969
 31
0.0
  0
LINE
  5
28D8
330
1E
100
AcDbEntity
  8
7
100
AcDbLine
 10
12.19029422786075
 20
12.99147750666912
 30
0.0
 11
12.24147533022295
 21
12.99147750666912
 31
0.0
  0
LINE
  5
28D9
330
1E
100
AcDbEntity
  8
7
100
AcDbLine
 10
12.19029422786075
 20
12.96785545942502
 30
0.0
 11
12.19029422786075
 21
12.99147750666912
 31
0.0
  0
LINE
  5
28DA
330
1E
100
AcDbEntity
  8
7
100
AcDbLine
 10
12.04724960843817
 20
12.96785545942502
 30
0.0
 11
12.19029422786075
 21
12.96785545942502
 31
0.0
  0
LINE
  5
28DB
330
1E
100
AcDbEntity
  8
7
100
AcDbLine
 10
12.04724960843817
 20
12.99147750666912
 30
0.0
 11
12.04724960843817
 21
12.96785545942502
 31
0.0
  0
LINE
  5
28DC
330
1E
100
AcDbEntity
  8
7
100
AcDbLine
 10
11.99738084203397
 20
12.99147750666912
 30
0.0
 11
12.04724960843817
 21
12.99147750666912
 31
0.0
  0
LINE
  5
28DD
330
1E
100
AcDbEntity
  8
7
100
AcDbLine
 10
11.99738084203397
 20
13.63583446204969
 30
0.0
 11
11.99738084203397
 21
12.99147750666912
 31
0.0
  0
LINE
  5
28DE
330
1E
100
AcDbEntity
  8
7
100
AcDbLine
 10
12.04724960843817
 20
13.63583446204969
 30
0.0
 11
11.99738084203397
 21
13.63583446204969
 31
0.0
  0
LINE
  5
28DF
330
1E
100
AcDbEntity
  8
7
100
AcDbLine
 10
12.04724960843817
 20
13.63583446204969
 30
0.0
 11
12.04724960843817
 21
13.65945650929379
 31
0.0
  0
LINE
  5
28E0
330
1E
100
AcDbEntity
  8
7
100
AcDbLine
 10
12.19029422786075
 20
13.65945650929379
 30
0.0
 11
12.04724960843817
 21
13.65945650929379
 31
0.0
  0
LINE
  5
28E1
330
1E
100
AcDbEntity
  8
7
100
AcDbLine
 10
12.19029422786075
 20
13.63583446204969
 30
0.0
 11
12.19029422786075
 21
13.65945650929379
 31
0.0
  0
LINE
  5
28E9
330
1E
100
AcDbEntity
  8
7
100
AcDbLine
 10
12.49344383415996
 20
13.67782921270586
 30
0.0
 11
12.49344383415996
 21
13.01509955391321
 31
0.0
  0
LINE
  5
28EA
330
1E
100
AcDbEntity
  8
7
100
AcDbLine
 10
15.02493989715208
 20
13.67782921270586
 30
0.0
 11
12.49344383415996
 21
13.67782921270586
 31
0.0
  0
LINE
  5
28EB
330
1E
100
AcDbEntity
  8
7
100
AcDbLine
 10
15.02493989715208
 20
13.67782921270586
 30
0.0
 11
15.02493989715208
 21
13.01509955391321
 31
0.0
  0
LINE
  5
28EC
330
1E
100
AcDbEntity
  8
7
100
AcDbLine
 10
14.95801076329382
 20
13.01509955391321
 30
0.0
 11
15.02493989715208
 21
13.01509955391321
 31
0.0
  0
LINE
  5
28ED
330
1E
100
AcDbEntity
  8
7
100
AcDbLine
 10
14.95801076329382
 20
12.94948275601295
 30
0.0
 11
14.95801076329382
 21
13.01509955391321
 31
0.0
  0
LINE
  5
28EE
330
1E
100
AcDbEntity
  8
7
100
AcDbLine
 10
14.46588477904185
 20
12.94948275601295
 30
0.0
 11
14.95801076329382
 21
12.94948275601295
 31
0.0
  0
LINE
  5
28EF
330
1E
100
AcDbEntity
  8
7
100
AcDbLine
 10
14.46588477904185
 20
13.01509955391321
 30
0.0
 11
14.46588477904185
 21
12.94948275601295
 31
0.0
  0
LINE
  5
28F0
330
1E
100
AcDbEntity
  8
7
100
AcDbLine
 10
14.32284015961927
 20
13.01509955391321
 30
0.0
 11
14.46588477904185
 21
13.01509955391321
 31
0.0
  0
LINE
  5
28F6
330
1E
100
AcDbEntity
  8
7
100
AcDbLine
 10
13.83071417536731
 20
13.01509955391321
 30
0.0
 11
13.83071417536731
 21
12.94948275601295
 31
0.0
  0
LINE
  5
28FD
330
1E
100
AcDbEntity
  8
7
100
AcDbLine
 10
13.19554357169276
 20
13.01509955391321
 30
0.0
 11
13.19554357169276
 21
12.94948275601295
 31
0.0
  0
LINE
  5
28FE
330
1E
100
AcDbEntity
  8
7
100
AcDbLine
 10
13.19554357169276
 20
13.01509955391321
 30
0.0
 11
13.05249895227019
 21
13.01509955391321
 31
0.0
  0
LINE
  5
2906
330
1E
100
AcDbEntity
  8
7
100
AcDbLine
 10
15.47113412287387
 20
13.63583446204969
 30
0.0
 11
15.47113412287387
 21
13.65945650929379
 31
0.0
  0
LINE
  5
2933
330
1E
100
AcDbEntity
  8
7
100
AcDbLine
 10
15.94619973967177
 20
11.94160874026492
 30
0.0
 11
11.57218399164027
 21
11.94160874026492
 31
0.0
  0
LINE
  5
295B
330
1E
100
AcDbEntity
  8
7
100
AcDbLine
 10
11.56955931972426
 20
11.93898406834891
 30
0.0
 11
11.57218399164027
 21
11.94160874026492
 31
0.0
  0
LINE
  5
2966
330
1E
100
AcDbEntity
  8
7
100
AcDbLine
 10
11.51312887353004
 20
12.00197619433316
 30
0.0
 11
11.50919186565602
 21
11.99803918645914
 31
0.0
  0
LINE
  5
296E
330
1E
100
AcDbEntity
  8
7
100
AcDbLine
 10
16.00656719374001
 20
12.00197619433316
 30
0.0
 11
16.00919186565602
 21
11.99803918645914
 31
0.0
  0
LINE
  5
296F
330
1E
100
AcDbEntity
  8
7
100
AcDbLine
 10
12.6797955401967
 20
12.95079509197095
 30
0.0
 11
12.7034175874408
 21
12.962606115593
 31
0.0
  0
LINE
  5
2975
330
1E
100
AcDbEntity
  8
7
100
AcDbLine
 10
12.7047299233988
 20
12.98885283475311
 30
0.0
 11
12.7047299233988
 21
12.97835414708907
 31
0.0
  0
LINE
  5
297B
330
1E
100
AcDbEntity
  8
7
100
AcDbLine
 10
12.7034175874408
 20
13.03084758540927
 30
0.0
 11
12.7034175874408
 21
13.02559824157725
 31
0.0
  0
LINE
  5
297C
330
1E
100
AcDbEntity
  8
7
100
AcDbLine
 10
12.7034175874408
 20
13.05971897648539
 30
0.0
 11
12.7034175874408
 21
13.03084758540927
 31
0.0
  0
LINE
  5
297D
330
1E
100
AcDbEntity
  8
7
100
AcDbLine
 10
12.90945433284762
 20
13.05971897648539
 30
0.0
 11
12.90945433284762
 21
13.03084758540927
 31
0.0
  0
LINE
  5
297E
330
1E
100
AcDbEntity
  8
7
100
AcDbLine
 10
12.90945433284762
 20
13.02559824157725
 30
0.0
 11
12.90945433284762
 21
13.03084758540927
 31
0.0
  0
LINE
  5
2984
330
1E
100
AcDbEntity
  8
7
100
AcDbLine
 10
12.90945433284762
 20
12.98885283475311
 30
0.0
 11
12.90945433284762
 21
12.97835414708907
 31
0.0
  0
LINE
  5
298A
330
1E
100
AcDbEntity
  8
7
100
AcDbLine
 10
12.90945433284762
 20
12.962606115593
 30
0.0
 11
12.93438871604972
 21
12.95079509197095
 31
0.0
  0
LINE
  5
298B
330
1E
100
AcDbEntity
  8
7
100
AcDbLine
 10
13.33858819111534
 20
12.962606115593
 30
0.0
 11
13.31496614387124
 21
12.95079509197095
 31
0.0
  0
LINE
  5
2991
330
1E
100
AcDbEntity
  8
7
100
AcDbLine
 10
13.33990052707334
 20
12.98885283475311
 30
0.0
 11
13.33990052707334
 21
12.97835414708907
 31
0.0
  0
LINE
  5
2998
330
1E
100
AcDbEntity
  8
7
100
AcDbLine
 10
13.33858819111534
 20
13.05971897648539
 30
0.0
 11
13.33858819111534
 21
13.03084758540927
 31
0.0
  0
LINE
  5
2999
330
1E
100
AcDbEntity
  8
7
100
AcDbLine
 10
13.54462493652216
 20
13.05971897648539
 30
0.0
 11
13.54462493652216
 21
13.03084758540927
 31
0.0
  0
LINE
  5
299A
330
1E
100
AcDbEntity
  8
7
100
AcDbLine
 10
13.54462493652216
 20
13.02559824157725
 30
0.0
 11
13.54462493652216
 21
13.03084758540927
 31
0.0
  0
LINE
  5
29A0
330
1E
100
AcDbEntity
  8
7
100
AcDbLine
 10
13.54462493652216
 20
12.98885283475311
 30
0.0
 11
13.54462493652216
 21
12.97835414708907
 31
0.0
  0
LINE
  5
29A6
330
1E
100
AcDbEntity
  8
7
100
AcDbLine
 10
13.54462493652216
 20
12.962606115593
 30
0.0
 11
13.56955931972426
 21
12.95079509197095
 31
0.0
  0
LINE
  5
29A7
330
1E
100
AcDbEntity
  8
7
100
AcDbLine
 10
13.97375879478988
 20
12.962606115593
 30
0.0
 11
13.95013674754578
 21
12.95079509197095
 31
0.0
  0
LINE
  5
29AD
330
1E
100
AcDbEntity
  8
7
100
AcDbLine
 10
13.97507113074788
 20
12.98885283475311
 30
0.0
 11
13.97507113074788
 21
12.97835414708907
 31
0.0
  0
LINE
  5
29B4
330
1E
100
AcDbEntity
  8
7
100
AcDbLine
 10
13.97375879478988
 20
13.05971897648539
 30
0.0
 11
13.97375879478988
 21
13.03084758540927
 31
0.0
  0
LINE
  5
29B5
330
1E
100
AcDbEntity
  8
7
100
AcDbLine
 10
14.1797955401967
 20
13.05971897648539
 30
0.0
 11
14.1797955401967
 21
13.03084758540927
 31
0.0
  0
LINE
  5
29B6
330
1E
100
AcDbEntity
  8
7
100
AcDbLine
 10
14.1797955401967
 20
13.02559824157725
 30
0.0
 11
14.1797955401967
 21
13.03084758540927
 31
0.0
  0
LINE
  5
29BC
330
1E
100
AcDbEntity
  8
7
100
AcDbLine
 10
14.1797955401967
 20
12.98885283475311
 30
0.0
 11
14.1797955401967
 21
12.97835414708907
 31
0.0
  0
LINE
  5
29C2
330
1E
100
AcDbEntity
  8
7
100
AcDbLine
 10
14.1797955401967
 20
12.962606115593
 30
0.0
 11
14.2034175874408
 21
12.95079509197095
 31
0.0
  0
LINE
  5
29C9
330
1E
100
AcDbEntity
  8
7
100
AcDbLine
 10
14.60892939846442
 20
12.98885283475311
 30
0.0
 11
14.60892939846442
 21
12.97835414708907
 31
0.0
  0
LINE
  5
29D0
330
1E
100
AcDbEntity
  8
7
100
AcDbLine
 10
14.60892939846442
 20
13.05971897648539
 30
0.0
 11
14.60892939846442
 21
13.03084758540927
 31
0.0
  0
LINE
  5
29F6
330
1E
100
AcDbEntity
  8
7
100
AcDbLine
 10
15.94882441158778
 20
14.68832790036991
 30
0.0
 11
11.56955931972426
 21
14.68832790036991
 31
0.0
  0
LINE
  5
2A0D
330
1E
100
AcDbEntity
  8
7
100
AcDbLine
 10
15.0301892409841
 20
13.84055887149851
 30
0.0
 11
15.0301892409841
 21
13.7867530972203
 31
0.0
  0
LINE
  5
2A0E
330
1E
100
AcDbEntity
  8
7
100
AcDbLine
 10
15.03281391290012
 20
13.7867530972203
 30
0.0
 11
15.0301892409841
 21
13.7867530972203
 31
0.0
  0
LINE
  5
2A0F
330
1E
100
AcDbEntity
  8
7
100
AcDbLine
 10
12.48425748245392
 20
14.02953524945127
 30
0.0
 11
12.48556981841193
 21
14.02953524945127
 31
0.0
  0
LINE
  5
2A10
330
1E
100
AcDbEntity
  8
7
100
AcDbLine
 10
12.48556981841193
 20
13.97835414708906
 30
0.0
 11
12.48425748245392
 21
13.97835414708906
 31
0.0
  0
LINE
  5
2A11
330
1E
100
AcDbEntity
  8
7
100
AcDbLine
 10
12.48556981841193
 20
14.02953524945127
 30
0.0
 11
12.48556981841193
 21
13.97835414708906
 31
0.0
  0
LINE
  5
2A12
330
1E
100
AcDbEntity
  8
7
100
AcDbLine
 10
12.48425748245392
 20
13.78544076126229
 30
0.0
 11
12.48556981841193
 21
13.7867530972203
 31
0.0
  0
LINE
  5
2A13
330
1E
100
AcDbEntity
  8
7
100
AcDbLine
 10
12.48556981841193
 20
13.8379341995825
 30
0.0
 11
12.48556981841193
 21
13.7867530972203
 31
0.0
  0
LINE
  5
2A14
330
1E
100
AcDbEntity
  8
7
100
AcDbLine
 10
12.48425748245392
 20
13.8366218636245
 30
0.0
 11
12.48556981841193
 21
13.8379341995825
 31
0.0
  0
LINE
  5
2A1A
330
1E
100
AcDbEntity
  8
7
100
AcDbLine
 10
12.04856194439618
 20
13.65945650929379
 30
0.0
 11
12.04724960843817
 21
13.65945650929379
 31
0.0
  0
LINE
  5
2A1B
330
1E
100
AcDbEntity
  8
7
100
AcDbLine
 10
12.05118661631219
 20
13.65814417333578
 30
0.0
 11
12.04856194439618
 21
13.65945650929379
 31
0.0
  0
LINE
  5
2A1C
330
1E
100
AcDbEntity
  8
7
100
AcDbLine
 10
12.18635721998673
 20
13.65814417333578
 30
0.0
 11
12.05118661631219
 21
13.65814417333578
 31
0.0
  0
LINE
  5
2A1D
330
1E
100
AcDbEntity
  8
7
100
AcDbLine
 10
11.99738084203397
 20
13.63452212609169
 30
0.0
 11
11.99738084203397
 21
13.63189745417568
 31
0.0
  0
LINE
  5
2A1E
330
1E
100
AcDbEntity
  8
7
100
AcDbLine
 10
11.99738084203397
 20
13.63583446204969
 30
0.0
 11
11.99738084203397
 21
13.63452212609169
 31
0.0
  0
LINE
  5
2A25
330
1E
100
AcDbEntity
  8
7
100
AcDbLine
 10
12.04856194439618
 20
12.96785545942502
 30
0.0
 11
12.05118661631219
 21
12.96916779538303
 31
0.0
  0
LINE
  5
2A26
330
1E
100
AcDbEntity
  8
7
100
AcDbLine
 10
12.04724960843817
 20
12.96785545942502
 30
0.0
 11
12.04856194439618
 21
12.96785545942502
 31
0.0
  0
LINE
  5
2A27
330
1E
100
AcDbEntity
  8
7
100
AcDbLine
 10
12.19029422786075
 20
12.96785545942502
 30
0.0
 11
12.18898189190274
 21
12.96785545942502
 31
0.0
  0
LINE
  5
2A28
330
1E
100
AcDbEntity
  8
7
100
AcDbLine
 10
12.18635721998673
 20
12.96916779538303
 30
0.0
 11
12.18898189190274
 21
12.96785545942502
 31
0.0
  0
LINE
  5
2A29
330
1E
100
AcDbEntity
  8
7
100
AcDbLine
 10
12.18635721998673
 20
12.96916779538303
 30
0.0
 11
12.15879816486862
 21
12.96916779538303
 31
0.0
  0
LINE
  5
2A2A
330
1E
100
AcDbEntity
  8
7
100
AcDbLine
 10
12.0787456714303
 20
12.96916779538303
 30
0.0
 11
12.15879816486862
 21
12.96916779538303
 31
0.0
  0
LINE
  5
2A2B
330
1E
100
AcDbEntity
  8
7
100
AcDbLine
 10
12.05118661631219
 20
12.96916779538303
 30
0.0
 11
12.0787456714303
 21
12.96916779538303
 31
0.0
  0
LINE
  5
2A2C
330
1E
100
AcDbEntity
  8
7
100
AcDbLine
 10
12.24016299426494
 20
12.99278984262712
 30
0.0
 11
12.24016299426494
 21
12.99541451454313
 31
0.0
  0
LINE
  5
2A2D
330
1E
100
AcDbEntity
  8
7
100
AcDbLine
 10
12.24147533022295
 20
12.99147750666912
 30
0.0
 11
12.24016299426494
 21
12.99278984262712
 31
0.0
  0
LINE
  5
2A44
330
1E
100
AcDbEntity
  8
7
100
AcDbLine
 10
11.52100288927807
 20
14.65551950141977
 30
0.0
 11
11.51312887353004
 21
14.62533577438565
 31
0.0
  0
LINE
  5
2A45
330
1E
100
AcDbEntity
  8
7
100
AcDbLine
 10
12.46194777116783
 20
13.97572947517305
 30
0.0
 11
12.46063543520983
 21
13.97835414708906
 31
0.0
  0
LINE
  5
2A5A
330
1E
100
AcDbEntity
  8
7
100
AcDbLine
 10
11.57218399164027
 20
14.6857032284539
 30
0.0
 11
15.94619973967177
 21
14.6857032284539
 31
0.0
  0
LINE
  5
2A5B
330
1E
100
AcDbEntity
  8
7
100
AcDbLine
 10
12.23228897851691
 20
13.37336727044865
 30
0.0
 11
12.23360131447492
 21
13.37336727044865
 31
0.0
  0
LINE
  5
2A62
330
1E
100
AcDbEntity
  8
7
100
AcDbLine
 10
12.00525485778201
 20
13.37336727044865
 30
0.0
 11
12.003942521824
 21
13.37336727044865
 31
0.0
  0
LINE
  5
2A7D
330
1E
100
AcDbEntity
  8
7
100
AcDbLine
 10
12.00525485778201
 20
13.25394469827017
 30
0.0
 11
12.003942521824
 21
13.25394469827017
 31
0.0
  0
LINE
  5
2A7E
330
1E
100
AcDbEntity
  8
7
100
AcDbLine
 10
12.00525485778201
 20
13.25394469827017
 30
0.0
 11
12.00525485778201
 21
13.37336727044865
 31
0.0
  0
LINE
  5
2A7F
330
1E
100
AcDbEntity
  8
7
100
AcDbLine
 10
12.003942521824
 20
13.37336727044865
 30
0.0
 11
12.003942521824
 21
13.25394469827017
 31
0.0
  0
LINE
  5
2A8C
330
1E
100
AcDbEntity
  8
7
100
AcDbLine
 10
12.22703963468489
 20
13.21851162740403
 30
0.0
 11
12.23228897851691
 21
13.25394469827017
 31
0.0
  0
LINE
  5
2A9A
330
1E
100
AcDbEntity
  8
7
100
AcDbLine
 10
11.99738084203397
 20
12.99541451454313
 30
0.0
 11
12.05118661631219
 21
12.99541451454313
 31
0.0
  0
LINE
  5
2A9B
330
1E
100
AcDbEntity
  8
7
100
AcDbLine
 10
11.99738084203397
 20
13.63189745417568
 30
0.0
 11
12.05118661631219
 21
13.63189745417568
 31
0.0
  0
LINE
  5
2A9C
330
1E
100
AcDbEntity
  8
7
100
AcDbLine
 10
12.18635721998673
 20
12.99541451454313
 30
0.0
 11
12.24016299426494
 21
12.99541451454313
 31
0.0
  0
LINE
  5
2A9D
330
1E
100
AcDbEntity
  8
7
100
AcDbLine
 10
12.18635721998673
 20
13.63189745417568
 30
0.0
 11
12.24016299426494
 21
13.63189745417568
 31
0.0
  0
LINE
  5
2A9E
330
1E
100
AcDbEntity
  8
7
100
AcDbLine
 10
12.18635721998673
 20
13.65814417333578
 30
0.0
 11
12.18635721998673
 21
13.63189745417568
 31
0.0
  0
LINE
  5
2A9F
330
1E
100
AcDbEntity
  8
7
100
AcDbLine
 10
12.05118661631219
 20
13.65814417333578
 30
0.0
 11
12.05118661631219
 21
13.63189745417568
 31
0.0
  0
LINE
  5
2AA0
330
1E
100
AcDbEntity
  8
7
100
AcDbLine
 10
12.05118661631219
 20
12.99541451454313
 30
0.0
 11
12.05118661631219
 21
12.96916779538303
 31
0.0
  0
LINE
  5
2AA1
330
1E
100
AcDbEntity
  8
7
100
AcDbLine
 10
12.18635721998673
 20
12.99541451454313
 30
0.0
 11
12.18635721998673
 21
12.96916779538303
 31
0.0
  0
LINE
  5
2AA2
330
1E
100
AcDbEntity
  8
7
100
AcDbLine
 10
12.49475617011796
 20
13.01641188987121
 30
0.0
 11
12.56168530397623
 21
13.01641188987121
 31
0.0
  0
LINE
  5
2AA3
330
1E
100
AcDbEntity
  8
7
100
AcDbLine
 10
12.49475617011796
 20
13.67651687674785
 30
0.0
 11
12.49475617011796
 21
13.01641188987121
 31
0.0
  0
LINE
  5
2AA4
330
1E
100
AcDbEntity
  8
7
100
AcDbLine
 10
12.49475617011796
 20
13.67651687674785
 30
0.0
 11
12.71916561893686
 21
13.67651687674785
 31
0.0
  0
LINE
  5
2AA5
330
1E
100
AcDbEntity
  8
7
100
AcDbLine
 10
12.46194777116783
 20
13.97572947517305
 30
0.0
 11
12.48819449032794
 21
13.97572947517305
 31
0.0
  0
LINE
  5
2AA6
330
1E
100
AcDbEntity
  8
7
100
AcDbLine
 10
12.46194777116783
 20
13.84055887149851
 30
0.0
 11
12.48819449032794
 21
13.84055887149851
 31
0.0
  0
LINE
  5
2AE7
330
1E
100
AcDbEntity
  8
7
100
AcDbLine
 10
14.69160656381875
 20
13.87730427832266
 30
0.0
 11
14.71129160318883
 21
13.87205493449064
 31
0.0
  0
LINE
  5
2AE8
330
1E
100
AcDbEntity
  8
7
100
AcDbLine
 10
12.48819449032794
 20
13.7867530972203
 30
0.0
 11
12.48819449032794
 21
13.84055887149851
 31
0.0
  0
LINE
  5
2AE9
330
1E
100
AcDbEntity
  8
7
100
AcDbLine
 10
12.48819449032794
 20
13.7867530972203
 30
0.0
 11
15.0301892409841
 21
13.7867530972203
 31
0.0
  0
LINE
  5
2AEA
330
1E
100
AcDbEntity
  8
7
100
AcDbLine
 10
15.0301892409841
 20
13.84055887149851
 30
0.0
 11
15.05643596014421
 21
13.84055887149851
 31
0.0
  0
LINE
  5
2AEB
330
1E
100
AcDbEntity
  8
7
100
AcDbLine
 10
15.05643596014421
 20
13.97572947517305
 30
0.0
 11
15.05643596014421
 21
13.84055887149851
 31
0.0
  0
LINE
  5
2AEC
330
1E
100
AcDbEntity
  8
7
100
AcDbLine
 10
15.0301892409841
 20
13.97572947517305
 30
0.0
 11
15.05643596014421
 21
13.97572947517305
 31
0.0
  0
LINE
  5
2AED
330
1E
100
AcDbEntity
  8
7
100
AcDbLine
 10
15.0301892409841
 20
14.02953524945127
 30
0.0
 11
15.0301892409841
 21
13.97572947517305
 31
0.0
  0
LINE
  5
2AEE
330
1E
100
AcDbEntity
  8
7
100
AcDbLine
 10
15.0301892409841
 20
14.02953524945127
 30
0.0
 11
12.48819449032794
 21
14.02953524945127
 31
0.0
  0
LINE
  5
2AEF
330
1E
100
AcDbEntity
  8
7
100
AcDbLine
 10
12.48819449032794
 20
13.97572947517305
 30
0.0
 11
12.48819449032794
 21
14.02953524945127
 31
0.0
  0
LINE
  5
2AF0
330
1E
100
AcDbEntity
  8
7
100
AcDbLine
 10
12.04856194439618
 20
13.63452212609169
 30
0.0
 11
12.04856194439618
 21
13.65945650929379
 31
0.0
  0
LINE
  5
2AF1
330
1E
100
AcDbEntity
  8
7
100
AcDbLine
 10
12.04856194439618
 20
13.63452212609169
 30
0.0
 11
11.99738084203397
 21
13.63452212609169
 31
0.0
  0
LINE
  5
2AF2
330
1E
100
AcDbEntity
  8
7
100
AcDbLine
 10
12.18898189190274
 20
13.63452212609169
 30
0.0
 11
12.24016299426494
 21
13.63452212609169
 31
0.0
  0
LINE
  5
2AF3
330
1E
100
AcDbEntity
  8
7
100
AcDbLine
 10
12.18898189190274
 20
13.63452212609169
 30
0.0
 11
12.18898189190274
 21
13.65945650929379
 31
0.0
  0
LINE
  5
2AF4
330
1E
100
AcDbEntity
  8
7
100
AcDbLine
 10
12.18898189190274
 20
12.99278984262712
 30
0.0
 11
12.18898189190274
 21
12.96785545942502
 31
0.0
  0
LINE
  5
2AF5
330
1E
100
AcDbEntity
  8
7
100
AcDbLine
 10
12.24016299426494
 20
12.99278984262712
 30
0.0
 11
12.18898189190274
 21
12.99278984262712
 31
0.0
  0
LINE
  5
2AF6
330
1E
100
AcDbEntity
  8
7
100
AcDbLine
 10
12.04856194439618
 20
12.99278984262712
 30
0.0
 11
11.99738084203397
 21
12.99278984262712
 31
0.0
  0
LINE
  5
2AF7
330
1E
100
AcDbEntity
  8
7
100
AcDbLine
 10
12.04856194439618
 20
12.99278984262712
 30
0.0
 11
12.04856194439618
 21
12.96785545942502
 31
0.0
  0
LINE
  5
2AF8
330
1E
100
AcDbEntity
  8
7
100
AcDbLine
 10
12.48556981841193
 20
13.8379341995825
 30
0.0
 11
12.46063543520983
 21
13.8379341995825
 31
0.0
  0
LINE
  5
2AF9
330
1E
100
AcDbEntity
  8
7
100
AcDbLine
 10
12.04856194439618
 20
13.63452212609169
 30
0.0
 11
12.04724960843817
 21
13.63583446204969
 31
0.0
  0
LINE
  5
2AFA
330
1E
100
AcDbEntity
  8
7
100
AcDbLine
 10
12.19029422786075
 20
13.63583446204969
 30
0.0
 11
12.18898189190274
 21
13.63452212609169
 31
0.0
  0
LINE
  5
2AFB
330
1E
100
AcDbEntity
  8
7
100
AcDbLine
 10
12.18898189190274
 20
12.99278984262712
 30
0.0
 11
12.19029422786075
 21
12.99147750666912
 31
0.0
  0
LINE
  5
2AFC
330
1E
100
AcDbEntity
  8
7
100
AcDbLine
 10
12.04724960843817
 20
12.99147750666912
 30
0.0
 11
12.04856194439618
 21
12.99278984262712
 31
0.0
  0
LINE
  5
2AFD
330
1E
100
AcDbEntity
  8
7
100
AcDbLine
 10
12.48556981841193
 20
13.97835414708906
 30
0.0
 11
12.46063543520983
 21
13.97835414708906
 31
0.0
  0
LINE
  5
2AFE
330
1E
100
AcDbEntity
  8
7
100
AcDbLine
 10
12.48556981841193
 20
13.7867530972203
 30
0.0
 11
12.48819449032794
 21
13.7867530972203
 31
0.0
  0
LINE
  5
2AFF
330
1E
100
AcDbEntity
  8
7
100
AcDbLine
 10
13.19685590765077
 20
13.01641188987121
 30
0.0
 11
13.05249895227019
 21
13.01641188987121
 31
0.0
  0
LINE
  5
2B00
330
1E
100
AcDbEntity
  8
7
100
AcDbLine
 10
13.19685590765077
 20
13.01641188987121
 30
0.0
 11
13.19685590765077
 21
12.95079509197095
 31
0.0
  0
LINE
  5
2B01
330
1E
100
AcDbEntity
  8
7
100
AcDbLine
 10
13.68635721998673
 20
13.01641188987121
 30
0.0
 11
13.68635721998673
 21
12.95079509197095
 31
0.0
  0
LINE
  5
2B02
330
1E
100
AcDbEntity
  8
7
100
AcDbLine
 10
13.83202651132531
 20
13.01641188987121
 30
0.0
 11
13.68635721998673
 21
13.01641188987121
 31
0.0
  0
LINE
  5
2B03
330
1E
100
AcDbEntity
  8
7
100
AcDbLine
 10
13.83202651132531
 20
13.01641188987121
 30
0.0
 11
13.83202651132531
 21
12.95079509197095
 31
0.0
  0
LINE
  5
2B04
330
1E
100
AcDbEntity
  8
7
100
AcDbLine
 10
14.32152782366127
 20
13.01641188987121
 30
0.0
 11
14.32152782366127
 21
12.95079509197095
 31
0.0
  0
LINE
  5
2B05
330
1E
100
AcDbEntity
  8
7
100
AcDbLine
 10
14.32152782366127
 20
13.01641188987121
 30
0.0
 11
14.46719711499985
 21
13.01641188987121
 31
0.0
  0
LINE
  5
2B06
330
1E
100
AcDbEntity
  8
7
100
AcDbLine
 10
14.46719711499985
 20
12.95079509197095
 30
0.0
 11
14.46719711499985
 21
13.01641188987121
 31
0.0
  0
LINE
  5
2B07
330
1E
100
AcDbEntity
  8
7
100
AcDbLine
 10
12.56168530397623
 20
12.95079509197095
 30
0.0
 11
12.56168530397623
 21
13.01641188987121
 31
0.0
  0
LINE
  5
2B08
330
1E
100
AcDbEntity
  8
7
100
AcDbLine
 10
13.05249895227019
 20
13.01641188987121
 30
0.0
 11
13.05249895227019
 21
12.95079509197095
 31
0.0
  0
LINE
  5
2B09
330
1E
100
AcDbEntity
  8
7
100
AcDbLine
 10
12.71916561893686
 20
13.6371467980077
 30
0.0
 11
12.89501863730956
 21
13.6371467980077
 31
0.0
  0
LINE
  5
2B0A
330
1E
100
AcDbEntity
  8
7
100
AcDbLine
 10
13.5288769050261
 20
13.6371467980077
 30
0.0
 11
13.3543362226114
 21
13.6371467980077
 31
0.0
  0
LINE
  5
2B0B
330
1E
100
AcDbEntity
  8
7
100
AcDbLine
 10
14.16404750870064
 20
13.6371467980077
 30
0.0
 11
13.98950682628594
 21
13.6371467980077
 31
0.0
  0
LINE
  5
2B0C
330
1E
100
AcDbEntity
  8
7
100
AcDbLine
 10
14.62467742996048
 20
13.6371467980077
 30
0.0
 11
14.79921811237518
 21
13.6371467980077
 31
0.0
  0
LINE
  5
2B0D
330
1E
100
AcDbEntity
  8
7
100
AcDbLine
 10
14.62467742996048
 20
13.67651687674785
 30
0.0
 11
14.79921811237518
 21
13.67651687674785
 31
0.0
  0
LINE
  5
2B0E
330
1E
100
AcDbEntity
  8
7
100
AcDbLine
 10
14.62467742996048
 20
13.67651687674785
 30
0.0
 11
14.62467742996048
 21
13.6371467980077
 31
0.0
  0
LINE
  5
2B0F
330
1E
100
AcDbEntity
  8
7
100
AcDbLine
 10
14.79921811237518
 20
13.67651687674785
 30
0.0
 11
14.79921811237518
 21
13.6371467980077
 31
0.0
  0
LINE
  5
2B15
330
1E
100
AcDbEntity
  8
7
100
AcDbLine
 10
14.16404750870064
 20
13.67651687674785
 30
0.0
 11
14.16404750870064
 21
13.6371467980077
 31
0.0
  0
LINE
  5
2B1B
330
1E
100
AcDbEntity
  8
7
100
AcDbLine
 10
13.5288769050261
 20
13.67651687674785
 30
0.0
 11
13.5288769050261
 21
13.6371467980077
 31
0.0
  0
LINE
  5
2B1C
330
1E
100
AcDbEntity
  8
7
100
AcDbLine
 10
12.89501863730956
 20
13.67651687674785
 30
0.0
 11
12.89501863730956
 21
13.6371467980077
 31
0.0
  0
LINE
  5
2B1D
330
1E
100
AcDbEntity
  8
7
100
AcDbLine
 10
12.71916561893686
 20
13.67651687674785
 30
0.0
 11
12.89501863730956
 21
13.67651687674785
 31
0.0
  0
LINE
  5
2B1E
330
1E
100
AcDbEntity
  8
7
100
AcDbLine
 10
12.71916561893686
 20
13.67651687674785
 30
0.0
 11
12.71916561893686
 21
13.6371467980077
 31
0.0
  0
LINE
  5
2B1F
330
1E
100
AcDbEntity
  8
7
100
AcDbLine
 10
14.58530735122033
 20
12.95079509197095
 30
0.0
 11
14.46719711499985
 21
12.95079509197095
 31
0.0
  0
LINE
  5
2B20
330
1E
100
AcDbEntity
  8
7
100
AcDbLine
 10
14.32152782366127
 20
12.95079509197095
 30
0.0
 11
14.2034175874408
 21
12.95079509197095
 31
0.0
  0
LINE
  5
2B21
330
1E
100
AcDbEntity
  8
7
100
AcDbLine
 10
13.83202651132531
 20
12.95079509197095
 30
0.0
 11
13.95013674754578
 21
12.95079509197095
 31
0.0
  0
LINE
  5
2B22
330
1E
100
AcDbEntity
  8
7
100
AcDbLine
 10
13.68635721998673
 20
12.95079509197095
 30
0.0
 11
13.56955931972426
 21
12.95079509197095
 31
0.0
  0
LINE
  5
2B23
330
1E
100
AcDbEntity
  8
7
100
AcDbLine
 10
13.19685590765077
 20
12.95079509197095
 30
0.0
 11
13.31496614387124
 21
12.95079509197095
 31
0.0
  0
LINE
  5
2B24
330
1E
100
AcDbEntity
  8
7
100
AcDbLine
 10
13.05249895227019
 20
12.95079509197095
 30
0.0
 11
12.93438871604972
 21
12.95079509197095
 31
0.0
  0
LINE
  5
2B25
330
1E
100
AcDbEntity
  8
7
100
AcDbLine
 10
12.6797955401967
 20
12.95079509197095
 30
0.0
 11
12.56168530397623
 21
12.95079509197095
 31
0.0
  0
LINE
  5
2B26
330
1E
100
AcDbEntity
  8
7
100
AcDbLine
 10
13.05249895227019
 20
13.01509955391321
 30
0.0
 11
13.05249895227019
 21
13.01641188987121
 31
0.0
  0
LINE
  5
2B27
330
1E
100
AcDbEntity
  8
7
100
AcDbLine
 10
13.19554357169276
 20
13.01509955391321
 30
0.0
 11
13.19685590765077
 21
13.01641188987121
 31
0.0
  0
LINE
  5
2B28
330
1E
100
AcDbEntity
  8
7
100
AcDbLine
 10
13.19685590765077
 20
12.95079509197095
 30
0.0
 11
13.19554357169276
 21
12.94948275601295
 31
0.0
  0
LINE
  5
2B29
330
1E
100
AcDbEntity
  8
7
100
AcDbLine
 10
13.33858819111534
 20
12.962606115593
 30
0.0
 11
13.54462493652216
 21
12.962606115593
 31
0.0
  0
LINE
  5
2B2A
330
1E
100
AcDbEntity
  8
7
100
AcDbLine
 10
13.68635721998673
 20
12.95079509197095
 30
0.0
 11
13.68766955594473
 21
12.94948275601295
 31
0.0
  0
LINE
  5
2B2B
330
1E
100
AcDbEntity
  8
7
100
AcDbLine
 10
13.68766955594473
 20
13.01509955391321
 30
0.0
 11
13.68635721998673
 21
13.01641188987121
 31
0.0
  0
LINE
  5
2B2C
330
1E
100
AcDbEntity
  8
7
100
AcDbLine
 10
13.83071417536731
 20
13.01509955391321
 30
0.0
 11
13.83202651132531
 21
13.01641188987121
 31
0.0
  0
LINE
  5
2B2D
330
1E
100
AcDbEntity
  8
7
100
AcDbLine
 10
13.83202651132531
 20
12.95079509197095
 30
0.0
 11
13.83071417536731
 21
12.94948275601295
 31
0.0
  0
LINE
  5
2B2E
330
1E
100
AcDbEntity
  8
7
100
AcDbLine
 10
13.97375879478988
 20
12.962606115593
 30
0.0
 11
14.1797955401967
 21
12.962606115593
 31
0.0
  0
LINE
  5
2B2F
330
1E
100
AcDbEntity
  8
7
100
AcDbLine
 10
14.32152782366127
 20
12.95079509197095
 30
0.0
 11
14.32284015961927
 21
12.94948275601295
 31
0.0
  0
LINE
  5
2B30
330
1E
100
AcDbEntity
  8
7
100
AcDbLine
 10
14.32284015961927
 20
13.01509955391321
 30
0.0
 11
14.32152782366127
 21
13.01641188987121
 31
0.0
  0
LINE
  5
2B31
330
1E
100
AcDbEntity
  8
7
100
AcDbLine
 10
14.46588477904185
 20
13.01509955391321
 30
0.0
 11
14.46719711499985
 21
13.01641188987121
 31
0.0
  0
LINE
  5
2B32
330
1E
100
AcDbEntity
  8
7
100
AcDbLine
 10
14.46719711499985
 20
12.95079509197095
 30
0.0
 11
14.46588477904185
 21
12.94948275601295
 31
0.0
  0
LINE
  5
2B33
330
1E
100
AcDbEntity
  8
7
100
AcDbLine
 10
14.81496614387124
 20
12.962606115593
 30
0.0
 11
14.60892939846442
 21
12.962606115593
 31
0.0
  0
LINE
  5
2B3E
330
1E
100
AcDbEntity
  8
7
100
AcDbLine
 10
12.49475617011796
 20
13.01641188987121
 30
0.0
 11
12.49344383415996
 21
13.01509955391321
 31
0.0
  0
LINE
  5
2B3F
330
1E
100
AcDbEntity
  8
7
100
AcDbLine
 10
12.49344383415996
 20
13.67782921270586
 30
0.0
 11
12.49475617011796
 21
13.67651687674785
 31
0.0
  0
LINE
  5
2B40
330
1E
100
AcDbEntity
  8
7
100
AcDbLine
 10
12.56037296801822
 20
13.01509955391321
 30
0.0
 11
12.56168530397623
 21
13.01641188987121
 31
0.0
  0
LINE
  5
2B41
330
1E
100
AcDbEntity
  8
7
100
AcDbLine
 10
12.56037296801822
 20
12.94948275601295
 30
0.0
 11
12.56168530397623
 21
12.95079509197095
 31
0.0
  0
LINE
  5
2B42
330
1E
100
AcDbEntity
  8
7
100
AcDbLine
 10
12.7034175874408
 20
12.962606115593
 30
0.0
 11
12.90945433284762
 21
12.962606115593
 31
0.0
  0
LINE
  5
2B43
330
1E
100
AcDbEntity
  8
7
100
AcDbLine
 10
13.05249895227019
 20
12.95079509197095
 30
0.0
 11
13.05249895227019
 21
12.94948275601295
 31
0.0
  0
LINE
  5
2B44
330
1E
100
AcDbEntity
  8
7
100
AcDbLine
 10
12.89501863730956
 20
13.67651687674785
 30
0.0
 11
13.3543362226114
 21
13.67651687674785
 31
0.0
  0
LINE
  5
2B45
330
1E
100
AcDbEntity
  8
7
100
AcDbLine
 10
13.5288769050261
 20
13.67651687674785
 30
0.0
 11
13.98950682628594
 21
13.67651687674785
 31
0.0
  0
LINE
  5
2B46
330
1E
100
AcDbEntity
  8
7
100
AcDbLine
 10
14.16404750870064
 20
13.67651687674785
 30
0.0
 11
14.62467742996048
 21
13.67651687674785
 31
0.0
  0
LINE
  5
2B47
330
1E
100
AcDbEntity
  8
7
100
AcDbLine
 10
15.03412624885812
 20
13.78544076126229
 30
0.0
 11
15.03281391290012
 21
13.7867530972203
 31
0.0
  0
LINE
  5
2B48
330
1E
100
AcDbEntity
  8
7
100
AcDbLine
 10
15.03281391290012
 20
14.02953524945127
 30
0.0
 11
15.0301892409841
 21
14.02953524945127
 31
0.0
  0
LINE
  5
2B49
330
1E
100
AcDbEntity
  8
7
100
AcDbLine
 10
15.03412624885812
 20
14.02953524945127
 30
0.0
 11
15.03281391290012
 21
14.02953524945127
 31
0.0
  0
LINE
  5
2B4A
330
1E
100
AcDbEntity
  8
7
100
AcDbLine
 10
12.48556981841193
 20
14.02953524945127
 30
0.0
 11
12.48819449032794
 21
14.02953524945127
 31
0.0
  0
LINE
  5
2B4B
330
1E
100
AcDbEntity
  8
7
100
AcDbLine
 10
14.79921811237518
 20
13.67651687674785
 30
0.0
 11
15.02493989715208
 21
13.67651687674785
 31
0.0
  0
LINE
  5
2B4C
330
1E
100
AcDbEntity
  8
7
100
AcDbLine
 10
15.02493989715208
 20
13.67782921270586
 30
0.0
 11
15.02493989715208
 21
13.67651687674785
 31
0.0
  0
LINE
  5
2B4D
330
1E
100
AcDbEntity
  8
7
100
AcDbLine
 10
15.02493989715208
 20
13.01641188987121
 30
0.0
 11
15.02493989715208
 21
13.67651687674785
 31
0.0
  0
LINE
  5
2B4E
330
1E
100
AcDbEntity
  8
7
100
AcDbLine
 10
15.02493989715208
 20
13.01641188987121
 30
0.0
 11
15.02493989715208
 21
13.01509955391321
 31
0.0
  0
LINE
  5
2B4F
330
1E
100
AcDbEntity
  8
7
100
AcDbLine
 10
14.95669842733581
 20
13.01641188987121
 30
0.0
 11
15.02493989715208
 21
13.01641188987121
 31
0.0
  0
LINE
  5
2B50
330
1E
100
AcDbEntity
  8
7
100
AcDbLine
 10
15.03281391290012
 20
13.7867530972203
 30
0.0
 11
15.03281391290012
 21
13.8379341995825
 31
0.0
  0
LINE
  5
2B51
330
1E
100
AcDbEntity
  8
7
100
AcDbLine
 10
15.03281391290012
 20
13.8379341995825
 30
0.0
 11
15.03412624885812
 21
13.8366218636245
 31
0.0
  0
LINE
  5
2B52
330
1E
100
AcDbEntity
  8
7
100
AcDbLine
 10
15.03281391290012
 20
13.97835414708906
 30
0.0
 11
15.03281391290012
 21
14.02953524945127
 31
0.0
  0
LINE
  5
2B53
330
1E
100
AcDbEntity
  8
7
100
AcDbLine
 10
15.03412624885812
 20
13.97835414708906
 30
0.0
 11
15.03281391290012
 21
13.97835414708906
 31
0.0
  0
LINE
  5
2B54
330
1E
100
AcDbEntity
  8
7
100
AcDbLine
 10
15.51312887353004
 20
13.37336727044865
 30
0.0
 11
15.51444120948804
 21
13.37336727044865
 31
0.0
  0
LINE
  5
2B55
330
1E
100
AcDbEntity
  8
7
100
AcDbLine
 10
15.51312887353004
 20
13.25394469827017
 30
0.0
 11
15.51312887353004
 21
13.37336727044865
 31
0.0
  0
LINE
  5
2B56
330
1E
100
AcDbEntity
  8
7
100
AcDbLine
 10
15.51312887353004
 20
13.25394469827017
 30
0.0
 11
15.51444120948804
 21
13.25394469827017
 31
0.0
  0
LINE
  5
2B57
330
1E
100
AcDbEntity
  8
7
100
AcDbLine
 10
15.51444120948804
 20
13.37336727044865
 30
0.0
 11
15.51444120948804
 21
13.25394469827017
 31
0.0
  0
LINE
  5
2B58
330
1E
100
AcDbEntity
  8
7
100
AcDbLine
 10
15.28609475279513
 20
13.37336727044865
 30
0.0
 11
15.28478241683712
 21
13.37336727044865
 31
0.0
  0
LINE
  5
2B75
330
1E
100
AcDbEntity
  8
7
100
AcDbLine
 10
15.29134409662715
 20
13.40880034131479
 30
0.0
 11
15.28609475279513
 21
13.37336727044865
 31
0.0
  0
LINE
  5
2B76
330
1E
100
AcDbEntity
  8
7
100
AcDbLine
 10
15.28609475279513
 20
13.25394469827017
 30
0.0
 11
15.28478241683712
 21
13.25394469827017
 31
0.0
  0
LINE
  5
2B77
330
1E
100
AcDbEntity
  8
7
100
AcDbLine
 10
15.28609475279513
 20
13.37336727044865
 30
0.0
 11
15.28609475279513
 21
13.25394469827017
 31
0.0
  0
LINE
  5
2B78
330
1E
100
AcDbEntity
  8
7
100
AcDbLine
 10
15.28478241683712
 20
13.25394469827017
 30
0.0
 11
15.28478241683712
 21
13.37336727044865
 31
0.0
  0
LINE
  5
2B9F
330
1E
100
AcDbEntity
  8
7
100
AcDbLine
 10
15.05774829610222
 20
13.8379341995825
 30
0.0
 11
15.05643596014421
 21
13.84055887149851
 31
0.0
  0
LINE
  5
2BA0
330
1E
100
AcDbEntity
  8
7
100
AcDbLine
 10
15.05774829610222
 20
13.8366218636245
 30
0.0
 11
15.05774829610222
 21
13.8379341995825
 31
0.0
  0
LINE
  5
2BA1
330
1E
100
AcDbEntity
  8
7
100
AcDbLine
 10
15.05774829610222
 20
13.97835414708906
 30
0.0
 11
15.05643596014421
 21
13.97572947517305
 31
0.0
  0
LINE
  5
2BA2
330
1E
100
AcDbEntity
  8
7
100
AcDbLine
 10
15.52100288927807
 20
12.99541451454313
 30
0.0
 11
15.52100288927807
 21
13.63189745417568
 31
0.0
  0
LINE
  5
2BA3
330
1E
100
AcDbEntity
  8
7
100
AcDbLine
 10
15.46719711499985
 20
13.63189745417568
 30
0.0
 11
15.52100288927807
 21
13.63189745417568
 31
0.0
  0
LINE
  5
2BA4
330
1E
100
AcDbEntity
  8
7
100
AcDbLine
 10
15.46719711499985
 20
13.63189745417568
 30
0.0
 11
15.46719711499985
 21
13.65814417333578
 31
0.0
  0
LINE
  5
2BA5
330
1E
100
AcDbEntity
  8
7
100
AcDbLine
 10
15.33202651132531
 20
13.65814417333578
 30
0.0
 11
15.46719711499985
 21
13.65814417333578
 31
0.0
  0
LINE
  5
2BA6
330
1E
100
AcDbEntity
  8
7
100
AcDbLine
 10
15.33202651132531
 20
13.63189745417568
 30
0.0
 11
15.33202651132531
 21
13.65814417333578
 31
0.0
  0
LINE
  5
2BA7
330
1E
100
AcDbEntity
  8
7
100
AcDbLine
 10
15.2782207370471
 20
13.63189745417568
 30
0.0
 11
15.33202651132531
 21
13.63189745417568
 31
0.0
  0
LINE
  5
2BAD
330
1E
100
AcDbEntity
  8
7
100
AcDbLine
 10
15.33202651132531
 20
12.96916779538303
 30
0.0
 11
15.33202651132531
 21
12.99541451454313
 31
0.0
  0
LINE
  5
2BAE
330
1E
100
AcDbEntity
  8
7
100
AcDbLine
 10
15.33202651132531
 20
12.96916779538303
 30
0.0
 11
15.35958556644342
 21
12.96916779538303
 31
0.0
  0
LINE
  5
2BAF
330
1E
100
AcDbEntity
  8
7
100
AcDbLine
 10
15.43963805988174
 20
12.96916779538303
 30
0.0
 11
15.35958556644342
 21
12.96916779538303
 31
0.0
  0
LINE
  5
2BB0
330
1E
100
AcDbEntity
  8
7
100
AcDbLine
 10
15.46719711499985
 20
12.96916779538303
 30
0.0
 11
15.43963805988174
 21
12.96916779538303
 31
0.0
  0
LINE
  5
2BB6
330
1E
100
AcDbEntity
  8
7
100
AcDbLine
 10
15.33202651132531
 20
12.96916779538303
 30
0.0
 11
15.3294018394093
 21
12.96785545942502
 31
0.0
  0
LINE
  5
2BBC
330
1E
100
AcDbEntity
  8
7
100
AcDbLine
 10
15.52100288927807
 20
12.99278984262712
 30
0.0
 11
15.52100288927807
 21
12.99541451454313
 31
0.0
  0
LINE
  5
2BBD
330
1E
100
AcDbEntity
  8
7
100
AcDbLine
 10
15.52231522523607
 20
12.99147750666912
 30
0.0
 11
15.52100288927807
 21
12.99278984262712
 31
0.0
  0
LINE
  5
2BC3
330
1E
100
AcDbEntity
  8
7
100
AcDbLine
 10
15.46982178691586
 20
13.65945650929379
 30
0.0
 11
15.46719711499985
 21
13.65814417333578
 31
0.0
  0
LINE
  5
2BC4
330
1E
100
AcDbEntity
  8
7
100
AcDbLine
 10
15.46982178691586
 20
13.65945650929379
 30
0.0
 11
15.47113412287387
 21
13.65945650929379
 31
0.0
  0
LINE
  5
2BC5
330
1E
100
AcDbEntity
  8
7
100
AcDbLine
 10
15.33202651132531
 20
13.65814417333578
 30
0.0
 11
15.3294018394093
 21
13.65945650929379
 31
0.0
  0
LINE
  5
2BC6
330
1E
100
AcDbEntity
  8
7
100
AcDbLine
 10
15.2782207370471
 20
13.63452212609169
 30
0.0
 11
15.2782207370471
 21
13.63189745417568
 31
0.0
  0
LINE
  5
2BC7
330
1E
100
AcDbEntity
  8
7
100
AcDbLine
 10
15.2782207370471
 20
13.63583446204969
 30
0.0
 11
15.2782207370471
 21
13.63452212609169
 31
0.0
  0
LINE
  5
2BCD
330
1E
100
AcDbEntity
  8
7
100
AcDbLine
 10
15.03281391290012
 20
13.8379341995825
 30
0.0
 11
15.05774829610222
 21
13.8379341995825
 31
0.0
  0
LINE
  5
2BCE
330
1E
100
AcDbEntity
  8
7
100
AcDbLine
 10
15.3294018394093
 20
13.63452212609169
 30
0.0
 11
15.3294018394093
 21
13.65945650929379
 31
0.0
  0
LINE
  5
2BCF
330
1E
100
AcDbEntity
  8
7
100
AcDbLine
 10
15.3294018394093
 20
13.63452212609169
 30
0.0
 11
15.2782207370471
 21
13.63452212609169
 31
0.0
  0
LINE
  5
2BD0
330
1E
100
AcDbEntity
  8
7
100
AcDbLine
 10
15.46982178691586
 20
13.63452212609169
 30
0.0
 11
15.46982178691586
 21
13.65945650929379
 31
0.0
  0
LINE
  5
2BD1
330
1E
100
AcDbEntity
  8
7
100
AcDbLine
 10
15.52100288927807
 20
13.63452212609169
 30
0.0
 11
15.46982178691586
 21
13.63452212609169
 31
0.0
  0
LINE
  5
2BD2
330
1E
100
AcDbEntity
  8
7
100
AcDbLine
 10
15.03281391290012
 20
13.97835414708906
 30
0.0
 11
15.05774829610222
 21
13.97835414708906
 31
0.0
  0
LINE
  5
2BD3
330
1E
100
AcDbEntity
  8
7
100
AcDbLine
 10
15.46982178691586
 20
12.99278984262712
 30
0.0
 11
15.46982178691586
 21
12.96785545942502
 31
0.0
  0
LINE
  5
2BD4
330
1E
100
AcDbEntity
  8
7
100
AcDbLine
 10
15.46982178691586
 20
12.99278984262712
 30
0.0
 11
15.52100288927807
 21
12.99278984262712
 31
0.0
  0
LINE
  5
2BDA
330
1E
100
AcDbEntity
  8
7
100
AcDbLine
 10
15.3294018394093
 20
12.99278984262712
 30
0.0
 11
15.3294018394093
 21
12.99147750666912
 31
0.0
  0
LINE
  5
2BDB
330
1E
100
AcDbEntity
  8
7
100
AcDbLine
 10
15.47113412287387
 20
12.99147750666912
 30
0.0
 11
15.46982178691586
 21
12.99278984262712
 31
0.0
  0
LINE
  5
2BDC
330
1E
100
AcDbEntity
  8
7
100
AcDbLine
 10
15.46982178691586
 20
13.63452212609169
 30
0.0
 11
15.47113412287387
 21
13.63583446204969
 31
0.0
  0
LINE
  5
2BDD
330
1E
100
AcDbEntity
  8
7
100
AcDbLine
 10
15.3294018394093
 20
13.63583446204969
 30
0.0
 11
15.3294018394093
 21
13.63452212609169
 31
0.0
  0
LINE
  5
2C22
330
1E
100
AcDbEntity
  8
7
100
AcDbLine
 10
11.56955931972426
 20
14.68832790036991
 30
0.0
 11
11.57218399164027
 21
14.6857032284539
 31
0.0
  0
LINE
  5
2C23
330
1E
100
AcDbEntity
  8
7
100
AcDbLine
 10
15.94619973967177
 20
14.6857032284539
 30
0.0
 11
15.94882441158778
 21
14.68832790036991
 31
0.0
  0
LINE
  5
2C24
330
1E
100
AcDbEntity
  8
7
100
AcDbLine
 10
15.47507113074788
 20
13.37336727044865
 30
0.0
 11
15.46982178691586
 21
13.40223866152476
 31
0.0
  0
LINE
  5
2C2F
330
1E
100
AcDbEntity
  8
7
100
AcDbLine
 10
15.32546483153528
 20
13.25394469827017
 30
0.0
 11
15.32546483153528
 21
13.37336727044865
 31
0.0
  0
LINE
  5
2C30
330
1E
100
AcDbEntity
  8
7
100
AcDbLine
 10
15.32546483153528
 20
13.25394469827017
 30
0.0
 11
15.33071417536731
 21
13.22507330719405
 31
0.0
  0
LINE
  5
2C3B
330
1E
100
AcDbEntity
  8
7
100
AcDbLine
 10
15.47507113074788
 20
13.37336727044865
 30
0.0
 11
15.47507113074788
 21
13.25394469827017
 31
0.0
  0
LINE
  5
2C3C
330
1E
100
AcDbEntity
  8
7
100
AcDbLine
 10
12.90945433284762
 20
13.05971897648539
 30
0.0
 11
12.7034175874408
 21
13.05971897648539
 31
0.0
  0
LINE
  5
2C3D
330
1E
100
AcDbEntity
  8
7
100
AcDbLine
 10
12.90945433284762
 20
13.03084758540927
 30
0.0
 11
12.7034175874408
 21
13.03084758540927
 31
0.0
  0
LINE
  5
2C3E
330
1E
100
AcDbEntity
  8
7
100
AcDbLine
 10
12.7034175874408
 20
13.02559824157725
 30
0.0
 11
12.90945433284762
 21
13.02559824157725
 31
0.0
  0
LINE
  5
2C3F
330
1E
100
AcDbEntity
  8
7
100
AcDbLine
 10
12.90945433284762
 20
12.98885283475311
 30
0.0
 11
12.7047299233988
 21
12.98885283475311
 31
0.0
  0
LINE
  5
2C40
330
1E
100
AcDbEntity
  8
7
100
AcDbLine
 10
12.90945433284762
 20
12.97835414708907
 30
0.0
 11
12.7047299233988
 21
12.97835414708907
 31
0.0
  0
LINE
  5
2C41
330
1E
100
AcDbEntity
  8
7
100
AcDbLine
 10
13.54462493652216
 20
13.05971897648539
 30
0.0
 11
13.33858819111534
 21
13.05971897648539
 31
0.0
  0
LINE
  5
2C42
330
1E
100
AcDbEntity
  8
7
100
AcDbLine
 10
13.54462493652216
 20
13.03084758540927
 30
0.0
 11
13.33858819111534
 21
13.03084758540927
 31
0.0
  0
LINE
  5
2C43
330
1E
100
AcDbEntity
  8
7
100
AcDbLine
 10
13.33858819111534
 20
13.02559824157725
 30
0.0
 11
13.54462493652216
 21
13.02559824157725
 31
0.0
  0
LINE
  5
2C44
330
1E
100
AcDbEntity
  8
7
100
AcDbLine
 10
13.54462493652216
 20
12.98885283475311
 30
0.0
 11
13.33990052707334
 21
12.98885283475311
 31
0.0
  0
LINE
  5
2C45
330
1E
100
AcDbEntity
  8
7
100
AcDbLine
 10
13.54462493652216
 20
12.97835414708907
 30
0.0
 11
13.33990052707334
 21
12.97835414708907
 31
0.0
  0
LINE
  5
2C46
330
1E
100
AcDbEntity
  8
7
100
AcDbLine
 10
14.1797955401967
 20
13.05971897648539
 30
0.0
 11
13.97375879478988
 21
13.05971897648539
 31
0.0
  0
LINE
  5
2C47
330
1E
100
AcDbEntity
  8
7
100
AcDbLine
 10
14.1797955401967
 20
13.03084758540927
 30
0.0
 11
13.97375879478988
 21
13.03084758540927
 31
0.0
  0
LINE
  5
2C48
330
1E
100
AcDbEntity
  8
7
100
AcDbLine
 10
13.97375879478988
 20
13.02559824157725
 30
0.0
 11
14.1797955401967
 21
13.02559824157725
 31
0.0
  0
LINE
  5
2C49
330
1E
100
AcDbEntity
  8
7
100
AcDbLine
 10
14.1797955401967
 20
12.98885283475311
 30
0.0
 11
13.97507113074788
 21
12.98885283475311
 31
0.0
  0
LINE
  5
2C4A
330
1E
100
AcDbEntity
  8
7
100
AcDbLine
 10
14.1797955401967
 20
12.97835414708907
 30
0.0
 11
13.97507113074788
 21
12.97835414708907
 31
0.0
  0
LINE
  5
2C4B
330
1E
100
AcDbEntity
  8
7
100
AcDbLine
 10
14.60892939846442
 20
13.05971897648539
 30
0.0
 11
14.81496614387124
 21
13.05971897648539
 31
0.0
  0
LINE
  5
2C4C
330
1E
100
AcDbEntity
  8
7
100
AcDbLine
 10
14.60892939846442
 20
13.03084758540927
 30
0.0
 11
14.81496614387124
 21
13.03084758540927
 31
0.0
  0
LINE
  5
2C4D
330
1E
100
AcDbEntity
  8
7
100
AcDbLine
 10
14.81496614387124
 20
13.02559824157725
 30
0.0
 11
14.60892939846442
 21
13.02559824157725
 31
0.0
  0
LINE
  5
2C4E
330
1E
100
AcDbEntity
  8
7
100
AcDbLine
 10
14.60892939846442
 20
12.98885283475311
 30
0.0
 11
14.81365380791324
 21
12.98885283475311
 31
0.0
  0
LINE
  5
2C4F
330
1E
100
AcDbEntity
  8
7
100
AcDbLine
 10
14.60892939846442
 20
12.97835414708907
 30
0.0
 11
14.81365380791324
 21
12.97835414708907
 31
0.0
  0
LINE
  5
2C50
330
1E
100
AcDbEntity
  8
7
100
AcDbLine
 10
12.04331260056416
 20
13.37336727044865
 30
0.0
 11
12.04331260056416
 21
13.25394469827017
 31
0.0
  0
LINE
  5
2C5F
330
1E
100
AcDbEntity
  8
7
100
AcDbLine
 10
12.19423123573476
 20
13.25394469827017
 30
0.0
 11
12.19423123573476
 21
13.37336727044865
 31
0.0
  0
LINE
  5
2C73
330
1E
100
AcDbEntity
  8
7
100
AcDbLine
 10
15.56955931972426
 20
12.42192370089484
 30
0.0
 11
15.56955931972426
 21
12.33530952766649
 31
0.0
  0
LINE
  5
2C74
330
1E
100
AcDbEntity
  8
7
100
AcDbLine
 10
15.56955931972426
 20
12.42192370089484
 30
0.0
 11
15.54724960843817
 21
12.42192370089484
 31
0.0
  0
LINE
  5
2C7A
330
1E
100
AcDbEntity
  8
7
100
AcDbLine
 10
15.6286144378345
 20
12.40355099748277
 30
0.0
 11
15.6286144378345
 21
12.33530952766649
 31
0.0
  0
LINE
  5
2C81
330
1E
100
AcDbEntity
  8
7
100
AcDbLine
 10
15.58399501526232
 20
12.40355099748277
 30
0.0
 11
15.58399501526232
 21
12.42192370089484
 31
0.0
  0
LINE
  5
2C82
330
1E
100
AcDbEntity
  8
7
100
AcDbLine
 10
15.60236771867439
 20
12.40355099748277
 30
0.0
 11
15.58399501526232
 21
12.40355099748277
 31
0.0
  0
LINE
  5
2C83
330
1E
100
AcDbEntity
  8
7
100
AcDbLine
 10
15.47113412287387
 20
12.42192370089484
 30
0.0
 11
15.47113412287387
 21
12.34974522320455
 31
0.0
  0
LINE
  5
2C89
330
1E
100
AcDbEntity
  8
7
100
AcDbLine
 10
15.51706588140405
 20
12.33530952766649
 30
0.0
 11
15.48688215436993
 21
12.33530952766649
 31
0.0
  0
LINE
  5
2C9A
330
1E
100
AcDbEntity
  8
7
100
AcDbLine
 10
15.51050420161402
 20
12.35499456703657
 30
0.0
 11
15.503942521824
 21
12.35499456703657
 31
0.0
  0
LINE
  5
2CA5
330
1E
100
AcDbEntity
  8
7
100
AcDbLine
 10
15.41864068455366
 20
12.40355099748277
 30
0.0
 11
15.41864068455366
 21
12.35499456703657
 31
0.0
  0
LINE
  5
2CA6
330
1E
100
AcDbEntity
  8
7
100
AcDbLine
 10
15.42782703625969
 20
12.40355099748277
 30
0.0
 11
15.41864068455366
 21
12.40355099748277
 31
0.0
  0
LINE
  5
2CAC
330
1E
100
AcDbEntity
  8
7
100
AcDbLine
 10
15.43176404413371
 20
12.35893157491059
 30
0.0
 11
15.43176404413371
 21
12.39961398960875
 31
0.0
  0
LINE
  5
2CB2
330
1E
100
AcDbEntity
  8
7
100
AcDbLine
 10
15.42782703625969
 20
12.35499456703657
 30
0.0
 11
15.41864068455366
 21
12.35499456703657
 31
0.0
  0
LINE
  5
2CBD
330
1E
100
AcDbEntity
  8
7
100
AcDbLine
 10
15.45801076329382
 20
12.34974522320455
 30
0.0
 11
15.45801076329382
 21
12.40617566939878
 31
0.0
  0
LINE
  5
2CC3
330
1E
100
AcDbEntity
  8
7
100
AcDbLine
 10
15.44226273179775
 20
12.42192370089484
 30
0.0
 11
15.39370630135156
 21
12.42192370089484
 31
0.0
  0
LINE
  5
2CC4
330
1E
100
AcDbEntity
  8
7
100
AcDbLine
 10
15.21129160318883
 20
12.3878029659867
 30
0.0
 11
15.19948057956678
 21
12.3878029659867
 31
0.0
  0
LINE
  5
2CC5
330
1E
100
AcDbEntity
  8
7
100
AcDbLine
 10
15.19948057956678
 20
12.42848538068486
 30
0.0
 11
15.19948057956678
 21
12.3878029659867
 31
0.0
  0
LINE
  5
2CC6
330
1E
100
AcDbEntity
  8
7
100
AcDbLine
 10
15.21129160318883
 20
12.42848538068486
 30
0.0
 11
15.19948057956678
 21
12.42848538068486
 31
0.0
  0
LINE
  5
2CCC
330
1E
100
AcDbEntity
  8
7
100
AcDbLine
 10
15.21654094702085
 20
12.42323603685284
 30
0.0
 11
15.21654094702085
 21
12.39436464577673
 31
0.0
  0
LINE
  5
2CD7
330
1E
100
AcDbEntity
  8
7
100
AcDbLine
 10
15.26509737746704
 20
12.36549325470061
 30
0.0
 11
15.27559606513109
 21
12.39042763790271
 31
0.0
  0
LINE
  5
2CD8
330
1E
100
AcDbEntity
  8
7
100
AcDbLine
 10
15.29265643258516
 20
12.34712055128854
 30
0.0
 11
15.25984803363502
 21
12.34712055128854
 31
0.0
  0
LINE
  5
2CD9
330
1E
100
AcDbEntity
  8
7
100
AcDbLine
 10
15.29921811237518
 20
12.33530952766649
 30
0.0
 11
15.29265643258516
 21
12.34712055128854
 31
0.0
  0
LINE
  5
2CDA
330
1E
100
AcDbEntity
  8
7
100
AcDbLine
 10
15.29921811237518
 20
12.33530952766649
 30
0.0
 11
15.33727585515733
 21
12.33530952766649
 31
0.0
  0
LINE
  5
2CDB
330
1E
100
AcDbEntity
  8
7
100
AcDbLine
 10
15.33727585515733
 20
12.37205493449064
 30
0.0
 11
15.33727585515733
 21
12.33530952766649
 31
0.0
  0
LINE
  5
2CDC
330
1E
100
AcDbEntity
  8
7
100
AcDbLine
 10
15.3530238866534
 20
12.33530952766649
 30
0.0
 11
15.33727585515733
 21
12.37205493449064
 31
0.0
  0
LINE
  5
2CE7
330
1E
100
AcDbEntity
  8
7
100
AcDbLine
 10
15.28740708875313
 20
12.42192370089484
 30
0.0
 11
15.31365380791324
 21
12.36549325470061
 31
0.0
  0
LINE
  5
2CE8
330
1E
100
AcDbEntity
  8
7
100
AcDbLine
 10
15.28740708875313
 20
12.42192370089484
 30
0.0
 11
15.26509737746704
 21
12.42192370089484
 31
0.0
  0
LINE
  5
2CEE
330
1E
100
AcDbEntity
  8
7
100
AcDbLine
 10
15.14829947720458
 20
12.44817042005494
 30
0.0
 11
15.2283519706429
 21
12.44817042005494
 31
0.0
  0
LINE
  5
2CEF
330
1E
100
AcDbEntity
  8
7
100
AcDbLine
 10
15.14829947720458
 20
12.44817042005494
 30
0.0
 11
15.14829947720458
 21
12.33530952766649
 31
0.0
  0
LINE
  5
2CF0
330
1E
100
AcDbEntity
  8
7
100
AcDbLine
 10
15.19948057956678
 20
12.33530952766649
 30
0.0
 11
15.14829947720458
 21
12.33530952766649
 31
0.0
  0
LINE
  5
2CF1
330
1E
100
AcDbEntity
  8
7
100
AcDbLine
 10
15.19948057956678
 20
12.37074259853264
 30
0.0
 11
15.19948057956678
 21
12.33530952766649
 31
0.0
  0
LINE
  5
2CF2
330
1E
100
AcDbEntity
  8
7
100
AcDbLine
 10
15.19948057956678
 20
12.37074259853264
 30
0.0
 11
15.2283519706429
 21
12.37074259853264
 31
0.0
  0
LINE
  5
2CF8
330
1E
100
AcDbEntity
  8
7
100
AcDbLine
 10
15.2296643066009
 20
12.33530952766649
 30
0.0
 11
15.24541233809697
 21
12.37467960640665
 31
0.0
  0
LINE
  5
2CF9
330
1E
100
AcDbEntity
  8
7
100
AcDbLine
 10
15.254598689803
 20
12.33530952766649
 30
0.0
 11
15.2296643066009
 21
12.33530952766649
 31
0.0
  0
LINE
  5
2CFA
330
1E
100
AcDbEntity
  8
7
100
AcDbLine
 10
15.254598689803
 20
12.33530952766649
 30
0.0
 11
15.25984803363502
 21
12.34712055128854
 31
0.0
  0
LINE
  5
2CFB
330
1E
100
AcDbEntity
  8
7
100
AcDbLine
 10
17.05512362418621
 20
12.16601818908382
 30
0.0
 11
17.05512362418621
 21
14.461293779635
 31
0.0
  0
LINE
  5
2D18
330
1E
100
AcDbEntity
  8
7
100
AcDbLine
 10
17.33071417536731
 20
11.93898406834891
 30
0.0
 11
17.26903438534106
 21
11.94160874026492
 31
0.0
  0
LINE
  5
2D19
330
1E
100
AcDbEntity
  8
7
100
AcDbLine
 10
17.33071417536731
 20
11.99803918645914
 30
0.0
 11
17.33071417536731
 21
11.97572947517305
 31
0.0
  0
LINE
  5
2D20
330
1E
100
AcDbEntity
  8
7
100
AcDbLine
 10
17.26903438534106
 20
12.00197619433316
 30
0.0
 11
17.33071417536731
 21
11.99803918645914
 31
0.0
  0
LINE
  5
2D21
330
1E
100
AcDbEntity
  8
7
100
AcDbLine
 10
17.39895564518358
 20
12.71588695548802
 30
0.0
 11
17.33071417536731
 21
12.71457461953001
 31
0.0
  0
LINE
  5
2D22
330
1E
100
AcDbEntity
  8
7
100
AcDbLine
 10
17.79790577641717
 20
12.90223866152476
 30
0.0
 11
17.39895564518358
 21
12.87467960640665
 31
0.0
  0
LINE
  5
2D23
330
1E
100
AcDbEntity
  8
7
100
AcDbLine
 10
17.39895564518358
 20
12.71588695548802
 30
0.0
 11
17.39895564518358
 21
13.6371467980077
 31
0.0
  0
LINE
  5
2D24
330
1E
100
AcDbEntity
  8
7
100
AcDbLine
 10
17.39895564518358
 20
13.6371467980077
 30
0.0
 11
17.33071417536731
 21
13.711949947614
 31
0.0
  0
LINE
  5
2D2C
330
1E
100
AcDbEntity
  8
7
100
AcDbLine
 10
17.56693464780825
 20
13.05971897648539
 30
0.0
 11
17.57612099951429
 21
13.05971897648539
 31
0.0
  0
LINE
  5
2D70
330
1E
100
AcDbEntity
  8
7
100
AcDbLine
 10
17.33071417536731
 20
14.18176622057988
 30
0.0
 11
17.39895564518358
 21
14.18045388462187
 31
0.0
  0
LINE
  5
2D71
330
1E
100
AcDbEntity
  8
7
100
AcDbLine
 10
17.33071417536731
 20
14.02297356966125
 30
0.0
 11
17.39895564518358
 21
14.13845913396571
 31
0.0
  0
LINE
  5
2D72
330
1E
100
AcDbEntity
  8
7
100
AcDbLine
 10
17.39895564518358
 20
14.18045388462187
 30
0.0
 11
17.39895564518358
 21
14.13845913396571
 31
0.0
  0
LINE
  5
2D73
330
1E
100
AcDbEntity
  8
7
100
AcDbLine
 10
17.04593727248017
 20
12.40355099748277
 30
0.0
 11
17.04593727248017
 21
12.33530952766649
 31
0.0
  0
LINE
  5
2D74
330
1E
100
AcDbEntity
  8
7
100
AcDbLine
 10
17.04593727248017
 20
12.40355099748277
 30
0.0
 11
17.04593727248017
 21
12.42192370089484
 31
0.0
  0
LINE
  5
2D75
330
1E
100
AcDbEntity
  8
7
100
AcDbLine
 10
17.04593727248017
 20
12.33530952766649
 30
0.0
 11
17.05512362418621
 21
12.33530952766649
 31
0.0
  0
LINE
  5
2D76
330
1E
100
AcDbEntity
  8
7
100
AcDbLine
 10
17.04593727248017
 20
12.40355099748277
 30
0.0
 11
17.05512362418621
 21
12.40355099748277
 31
0.0
  0
LINE
  5
2D77
330
1E
100
AcDbEntity
  8
7
100
AcDbLine
 10
17.04593727248017
 20
12.42192370089484
 30
0.0
 11
17.05512362418621
 21
12.42192370089484
 31
0.0
  0
LINE
  5
31BA
330
1E
100
AcDbEntity
  8
7
100
AcDbLine
 10
17.04593727248017
 20
12.42192370089484
 30
0.0
 11
17.04593727248017
 21
12.44160874026492
 31
0.0
  0
LINE
  5
31BB
330
1E
100
AcDbEntity
  8
7
100
AcDbLine
 10
17.04593727248017
 20
12.44160874026492
 30
0.0
 11
17.04593727248017
 21
12.44817042005494
 31
0.0
  0
LINE
  5
31BC
330
1E
100
AcDbEntity
  8
7
100
AcDbLine
 10
17.04593727248017
 20
12.44817042005494
 30
0.0
 11
17.05512362418621
 21
12.44817042005494
 31
0.0
  0
LINE
  5
31BD
330
1E
100
AcDbEntity
  8
7
100
AcDbLine
 10
17.26903438534106
 20
14.62533577438565
 30
0.0
 11
17.26772204938306
 21
14.65551950141977
 31
0.0
  0
LINE
  5
31BE
330
1E
100
AcDbEntity
  8
7
100
AcDbLine
 10
17.26772204938306
 20
14.65551950141977
 30
0.0
 11
17.26772204938306
 21
14.67782921270586
 31
0.0
  0
LINE
  5
31BF
330
1E
100
AcDbEntity
  8
7
100
AcDbLine
 10
17.26772204938306
 20
14.67782921270586
 30
0.0
 11
17.26903438534106
 21
14.6857032284539
 31
0.0
  0
LINE
  5
31C0
330
1E
100
AcDbEntity
  8
7
100
AcDbLine
 10
17.26903438534106
 20
14.6857032284539
 30
0.0
 11
17.33071417536731
 21
14.68832790036991
 31
0.0
  0
LINE
  5
31C1
330
1E
100
AcDbEntity
  8
7
100
AcDbLine
 10
17.14961181316258
 20
14.59515204735153
 30
0.0
 11
17.11680341421245
 21
14.57415467202345
 31
0.0
  0
LINE
  5
31C2
330
1E
100
AcDbEntity
  8
7
100
AcDbLine
 10
17.11680341421245
 20
14.57415467202345
 30
0.0
 11
17.09055669505235
 21
14.54922028882135
 31
0.0
  0
LINE
  5
31C3
330
1E
100
AcDbEntity
  8
7
100
AcDbLine
 10
17.09055669505235
 20
14.54922028882135
 30
0.0
 11
17.07087165568227
 21
14.52166123370324
 31
0.0
  0
LINE
  5
31C4
330
1E
100
AcDbEntity
  8
7
100
AcDbLine
 10
17.07087165568227
 20
14.52166123370324
 30
0.0
 11
17.05906063206022
 21
14.49147750666911
 31
0.0
  0
LINE
  5
31C5
330
1E
100
AcDbEntity
  8
7
100
AcDbLine
 10
17.05906063206022
 20
14.49147750666911
 30
0.0
 11
17.05512362418621
 21
14.461293779635
 31
0.0
  0
LINE
  5
31C6
330
1E
100
AcDbEntity
  8
7
100
AcDbLine
 10
17.05512362418621
 20
14.461293779635
 30
0.0
 11
17.05906063206022
 21
14.50328853029116
 31
0.0
  0
LINE
  5
31C7
330
1E
100
AcDbEntity
  8
7
100
AcDbLine
 10
17.05906063206022
 20
14.50328853029116
 30
0.0
 11
17.07087165568227
 21
14.54397094498933
 31
0.0
  0
LINE
  5
31C8
330
1E
100
AcDbEntity
  8
7
100
AcDbLine
 10
17.07087165568227
 20
14.54397094498933
 30
0.0
 11
17.09055669505235
 21
14.58202868777148
 31
0.0
  0
LINE
  5
31C9
330
1E
100
AcDbEntity
  8
7
100
AcDbLine
 10
17.09055669505235
 20
14.58202868777148
 30
0.0
 11
17.11680341421245
 21
14.61614942267961
 31
0.0
  0
LINE
  5
31CA
330
1E
100
AcDbEntity
  8
7
100
AcDbLine
 10
17.11680341421245
 20
14.61614942267961
 30
0.0
 11
17.14961181316258
 21
14.64370847779773
 31
0.0
  0
LINE
  5
31CB
330
1E
100
AcDbEntity
  8
7
100
AcDbLine
 10
17.14961181316258
 20
14.64370847779773
 30
0.0
 11
17.18635721998673
 21
14.66470585312581
 31
0.0
  0
LINE
  5
31CC
330
1E
100
AcDbEntity
  8
7
100
AcDbLine
 10
17.18635721998673
 20
14.66470585312581
 30
0.0
 11
17.22703963468489
 21
14.67914154866386
 31
0.0
  0
LINE
  5
31CD
330
1E
100
AcDbEntity
  8
7
100
AcDbLine
 10
17.22703963468489
 20
14.67914154866386
 30
0.0
 11
17.26903438534106
 21
14.6857032284539
 31
0.0
  0
LINE
  5
31CE
330
1E
100
AcDbEntity
  8
7
100
AcDbLine
 10
17.26903438534106
 20
14.62533577438565
 30
0.0
 11
17.22703963468489
 21
14.62139876651164
 31
0.0
  0
LINE
  5
31CF
330
1E
100
AcDbEntity
  8
7
100
AcDbLine
 10
17.22703963468489
 20
14.62139876651164
 30
0.0
 11
17.18635721998673
 21
14.61090007884759
 31
0.0
  0
LINE
  5
31D0
330
1E
100
AcDbEntity
  8
7
100
AcDbLine
 10
17.18635721998673
 20
14.61090007884759
 30
0.0
 11
17.14961181316258
 21
14.59515204735153
 31
0.0
  0
LINE
  5
31D1
330
1E
100
AcDbEntity
  8
7
100
AcDbLine
 10
17.33071417536731
 20
14.68832790036991
 30
0.0
 11
17.33071417536731
 21
14.68439089249589
 31
0.0
  0
LINE
  5
31D2
330
1E
100
AcDbEntity
  8
7
100
AcDbLine
 10
17.33071417536731
 20
14.68439089249589
 30
0.0
 11
17.33071417536731
 21
14.67126753291584
 31
0.0
  0
LINE
  5
31D3
330
1E
100
AcDbEntity
  8
7
100
AcDbLine
 10
17.33071417536731
 20
14.67126753291584
 30
0.0
 11
17.33071417536731
 21
14.65158249354576
 31
0.0
  0
LINE
  5
31D4
330
1E
100
AcDbEntity
  8
7
100
AcDbLine
 10
17.33071417536731
 20
14.65158249354576
 30
0.0
 11
17.33071417536731
 21
14.62927278225967
 31
0.0
  0
LINE
  5
31D5
330
1E
100
AcDbEntity
  8
7
100
AcDbLine
 10
17.33071417536731
 20
11.99803918645914
 30
0.0
 11
17.33071417536731
 21
14.62927278225967
 31
0.0
  0
LINE
  5
31D6
330
1E
100
AcDbEntity
  8
7
100
AcDbLine
 10
17.33071417536731
 20
14.62927278225967
 30
0.0
 11
17.26903438534106
 21
14.62533577438565
 31
0.0
  0
LINE
  5
31D7
330
1E
100
AcDbEntity
  8
7
100
AcDbLine
 10
17.26903438534106
 20
14.62533577438565
 30
0.0
 11
17.26903438534106
 21
12.00197619433316
 31
0.0
  0
LINE
  5
31D8
330
1E
100
AcDbEntity
  8
7
100
AcDbLine
 10
17.79790577641717
 20
12.90223866152476
 30
0.0
 11
17.80709212812322
 21
12.90748800535678
 31
0.0
  0
LINE
  5
31D9
330
1E
100
AcDbEntity
  8
7
100
AcDbLine
 10
17.80709212812322
 20
12.90748800535678
 30
0.0
 11
17.81102913599723
 21
12.91798669302082
 31
0.0
  0
LINE
  5
31DA
330
1E
100
AcDbEntity
  8
7
100
AcDbLine
 10
17.81102913599723
 20
12.91798669302082
 30
0.0
 11
17.81102913599723
 21
12.9376717323909
 31
0.0
  0
LINE
  5
31DB
330
1E
100
AcDbEntity
  8
7
100
AcDbLine
 10
17.81102913599723
 20
12.9376717323909
 30
0.0
 11
17.80709212812322
 21
12.94817042005494
 31
0.0
  0
LINE
  5
31DC
330
1E
100
AcDbEntity
  8
7
100
AcDbLine
 10
17.80709212812322
 20
12.94817042005494
 30
0.0
 11
17.79659344045917
 21
12.95341976388696
 31
0.0
  0
LINE
  5
31DD
330
1E
100
AcDbEntity
  8
7
100
AcDbLine
 10
17.79659344045917
 20
12.95341976388696
 30
0.0
 11
17.72310262681088
 21
12.95473209984497
 31
0.0
  0
LINE
  5
31DE
330
1E
100
AcDbEntity
  8
7
100
AcDbLine
 10
17.72310262681088
 20
12.95473209984497
 30
0.0
 11
17.69554357169277
 21
12.961293779635
 31
0.0
  0
LINE
  5
31DF
330
1E
100
AcDbEntity
  8
7
100
AcDbLine
 10
17.69554357169277
 20
12.961293779635
 30
0.0
 11
17.67454619636468
 21
12.97966648304707
 31
0.0
  0
LINE
  5
31E0
330
1E
100
AcDbEntity
  8
7
100
AcDbLine
 10
17.5800580073883
 20
12.98885283475311
 30
0.0
 11
17.5800580073883
 21
12.97835414708907
 31
0.0
  0
LINE
  5
31E1
330
1E
100
AcDbEntity
  8
7
100
AcDbLine
 10
17.5800580073883
 20
12.97835414708907
 30
0.0
 11
17.57480866355628
 21
12.96785545942502
 31
0.0
  0
LINE
  5
31E2
330
1E
100
AcDbEntity
  8
7
100
AcDbLine
 10
17.57480866355628
 20
12.96785545942502
 30
0.0
 11
17.56430997589224
 21
12.962606115593
 31
0.0
  0
LINE
  5
31E3
330
1E
100
AcDbEntity
  8
7
100
AcDbLine
 10
17.56430997589224
 20
12.962606115593
 30
0.0
 11
17.39895564518358
 21
12.95866910771899
 31
0.0
  0
LINE
  5
31E4
330
1E
100
AcDbEntity
  8
7
100
AcDbLine
 10
17.56693464780825
 20
13.05971897648539
 30
0.0
 11
17.56693464780825
 21
13.03084758540927
 31
0.0
  0
LINE
  5
31E5
330
1E
100
AcDbEntity
  8
7
100
AcDbLine
 10
17.56693464780825
 20
13.03084758540927
 30
0.0
 11
17.56824698376626
 21
13.02559824157725
 31
0.0
  0
LINE
  5
31E6
330
1E
100
AcDbEntity
  8
7
100
AcDbLine
 10
17.56824698376626
 20
13.02559824157725
 30
0.0
 11
17.57743333547229
 21
13.00853787412318
 31
0.0
  0
LINE
  5
31E7
330
1E
100
AcDbEntity
  8
7
100
AcDbLine
 10
17.57743333547229
 20
13.00853787412318
 30
0.0
 11
17.5800580073883
 21
12.98885283475311
 31
0.0
  0
LINE
  5
31E8
330
1E
100
AcDbEntity
  8
7
100
AcDbLine
 10
17.67454619636468
 20
12.97966648304707
 30
0.0
 11
17.64829947720458
 21
13.01641188987121
 31
0.0
  0
LINE
  5
31E9
330
1E
100
AcDbEntity
  8
7
100
AcDbLine
 10
17.64829947720458
 20
13.01641188987121
 30
0.0
 11
17.6286144378345
 21
13.0374092651993
 31
0.0
  0
LINE
  5
31EA
330
1E
100
AcDbEntity
  8
7
100
AcDbLine
 10
17.6286144378345
 20
13.0374092651993
 30
0.0
 11
17.6036800546324
 21
13.05315729669536
 31
0.0
  0
LINE
  5
31EB
330
1E
100
AcDbEntity
  8
7
100
AcDbLine
 10
17.6036800546324
 20
13.05315729669536
 30
0.0
 11
17.57612099951429
 21
13.05971897648539
 31
0.0
  0
LINE
  5
31EC
330
1E
100
AcDbEntity
  8
7
100
AcDbLine
 10
17.33071417536731
 20
11.97572947517305
 30
0.0
 11
17.33071417536731
 21
11.95604443580297
 31
0.0
  0
LINE
  5
31ED
330
1E
100
AcDbEntity
  8
7
100
AcDbLine
 10
17.33071417536731
 20
11.95604443580297
 30
0.0
 11
17.33071417536731
 21
11.94292107622292
 31
0.0
  0
LINE
  5
31EE
330
1E
100
AcDbEntity
  8
7
100
AcDbLine
 10
17.33071417536731
 20
11.94292107622292
 30
0.0
 11
17.33071417536731
 21
11.93898406834891
 31
0.0
  0
LINE
  5
31EF
330
1E
100
AcDbEntity
  8
7
100
AcDbLine
 10
17.05512362418621
 20
12.16601818908382
 30
0.0
 11
17.05906063206022
 21
12.13583446204969
 31
0.0
  0
LINE
  5
31F0
330
1E
100
AcDbEntity
  8
7
100
AcDbLine
 10
17.05906063206022
 20
12.13583446204969
 30
0.0
 11
17.07087165568227
 21
12.10565073501557
 31
0.0
  0
LINE
  5
31F1
330
1E
100
AcDbEntity
  8
7
100
AcDbLine
 10
17.07087165568227
 20
12.10565073501557
 30
0.0
 11
17.09055669505235
 21
12.07809167989746
 31
0.0
  0
LINE
  5
31F2
330
1E
100
AcDbEntity
  8
7
100
AcDbLine
 10
17.09055669505235
 20
12.07809167989746
 30
0.0
 11
17.11680341421245
 21
12.05315729669536
 31
0.0
  0
LINE
  5
31F3
330
1E
100
AcDbEntity
  8
7
100
AcDbLine
 10
17.11680341421245
 20
12.05315729669536
 30
0.0
 11
17.14961181316258
 21
12.03215992136728
 31
0.0
  0
LINE
  5
31F4
330
1E
100
AcDbEntity
  8
7
100
AcDbLine
 10
17.14961181316258
 20
12.03215992136728
 30
0.0
 11
17.18635721998673
 21
12.01641188987122
 31
0.0
  0
LINE
  5
31F5
330
1E
100
AcDbEntity
  8
7
100
AcDbLine
 10
17.18635721998673
 20
12.01641188987122
 30
0.0
 11
17.22703963468489
 21
12.00591320220717
 31
0.0
  0
LINE
  5
31F6
330
1E
100
AcDbEntity
  8
7
100
AcDbLine
 10
17.22703963468489
 20
12.00591320220717
 30
0.0
 11
17.26903438534106
 21
12.00197619433316
 31
0.0
  0
LINE
  5
31F7
330
1E
100
AcDbEntity
  8
7
100
AcDbLine
 10
17.26903438534106
 20
11.94160874026492
 30
0.0
 11
17.26772204938306
 21
11.94948275601295
 31
0.0
  0
LINE
  5
31F8
330
1E
100
AcDbEntity
  8
7
100
AcDbLine
 10
17.26772204938306
 20
11.94948275601295
 30
0.0
 11
17.26772204938306
 21
11.97179246729904
 31
0.0
  0
LINE
  5
31F9
330
1E
100
AcDbEntity
  8
7
100
AcDbLine
 10
17.26772204938306
 20
11.97179246729904
 30
0.0
 11
17.26903438534106
 21
12.00197619433316
 31
0.0
  0
LINE
  5
31FA
330
1E
100
AcDbEntity
  8
7
100
AcDbLine
 10
17.26903438534106
 20
11.94160874026492
 30
0.0
 11
17.22703963468489
 21
11.94817042005494
 31
0.0
  0
LINE
  5
31FB
330
1E
100
AcDbEntity
  8
7
100
AcDbLine
 10
17.22703963468489
 20
11.94817042005494
 30
0.0
 11
17.18635721998673
 21
11.962606115593
 31
0.0
  0
LINE
  5
31FC
330
1E
100
AcDbEntity
  8
7
100
AcDbLine
 10
17.18635721998673
 20
11.962606115593
 30
0.0
 11
17.14961181316258
 21
11.98360349092108
 31
0.0
  0
LINE
  5
31FD
330
1E
100
AcDbEntity
  8
7
100
AcDbLine
 10
17.14961181316258
 20
11.98360349092108
 30
0.0
 11
17.11680341421245
 21
12.0111625460392
 31
0.0
  0
LINE
  5
31FE
330
1E
100
AcDbEntity
  8
7
100
AcDbLine
 10
17.11680341421245
 20
12.0111625460392
 30
0.0
 11
17.09055669505235
 21
12.04528328094733
 31
0.0
  0
LINE
  5
31FF
330
1E
100
AcDbEntity
  8
7
100
AcDbLine
 10
17.09055669505235
 20
12.04528328094733
 30
0.0
 11
17.07087165568227
 21
12.08334102372949
 31
0.0
  0
LINE
  5
3200
330
1E
100
AcDbEntity
  8
7
100
AcDbLine
 10
17.07087165568227
 20
12.08334102372949
 30
0.0
 11
17.05906063206022
 21
12.12402343842765
 31
0.0
  0
LINE
  5
3201
330
1E
100
AcDbEntity
  8
7
100
AcDbLine
 10
17.05906063206022
 20
12.12402343842765
 30
0.0
 11
17.05512362418621
 21
12.16601818908382
 31
0.0
  0
LINE
  5
3202
330
1E
100
AcDbEntity
  8
7
100
AcDbLine
 10
15.2283519706429
 20
12.37074259853264
 30
0.0
 11
15.23753832234893
 21
12.37205493449064
 31
0.0
  0
LINE
  5
3203
330
1E
100
AcDbEntity
  8
7
100
AcDbLine
 10
15.23753832234893
 20
12.37205493449064
 30
0.0
 11
15.24541233809697
 21
12.37467960640665
 31
0.0
  0
LINE
  5
3204
330
1E
100
AcDbEntity
  8
7
100
AcDbLine
 10
15.26378504150904
 20
12.42061136493683
 30
0.0
 11
15.25066168192899
 21
12.44029640430691
 31
0.0
  0
LINE
  5
3205
330
1E
100
AcDbEntity
  8
7
100
AcDbLine
 10
15.25066168192899
 20
12.44029640430691
 30
0.0
 11
15.2283519706429
 21
12.44685808409694
 31
0.0
  0
LINE
  5
3206
330
1E
100
AcDbEntity
  8
7
100
AcDbLine
 10
15.3530238866534
 20
12.33530952766649
 30
0.0
 11
15.3792706058135
 21
12.33530952766649
 31
0.0
  0
LINE
  5
3207
330
1E
100
AcDbEntity
  8
7
100
AcDbLine
 10
15.3792706058135
 20
12.33530952766649
 30
0.0
 11
15.3792706058135
 21
12.42192370089484
 31
0.0
  0
LINE
  5
3208
330
1E
100
AcDbEntity
  8
7
100
AcDbLine
 10
15.3792706058135
 20
12.42192370089484
 30
0.0
 11
15.35696089452741
 21
12.42192370089484
 31
0.0
  0
LINE
  5
3209
330
1E
100
AcDbEntity
  8
7
100
AcDbLine
 10
15.35696089452741
 20
12.42192370089484
 30
0.0
 11
15.35696089452741
 21
12.38911530194471
 31
0.0
  0
LINE
  5
320A
330
1E
100
AcDbEntity
  8
7
100
AcDbLine
 10
15.35696089452741
 20
12.38911530194471
 30
0.0
 11
15.34252519898935
 21
12.42192370089484
 31
0.0
  0
LINE
  5
320B
330
1E
100
AcDbEntity
  8
7
100
AcDbLine
 10
15.34252519898935
 20
12.42192370089484
 30
0.0
 11
15.31365380791324
 21
12.42192370089484
 31
0.0
  0
LINE
  5
320C
330
1E
100
AcDbEntity
  8
7
100
AcDbLine
 10
15.31365380791324
 20
12.42192370089484
 30
0.0
 11
15.31365380791324
 21
12.36549325470061
 31
0.0
  0
LINE
  5
320D
330
1E
100
AcDbEntity
  8
7
100
AcDbLine
 10
15.27559606513109
 20
12.39042763790271
 30
0.0
 11
15.28740708875313
 21
12.36549325470061
 31
0.0
  0
LINE
  5
320E
330
1E
100
AcDbEntity
  8
7
100
AcDbLine
 10
15.28740708875313
 20
12.36549325470061
 30
0.0
 11
15.26509737746704
 21
12.36549325470061
 31
0.0
  0
LINE
  5
320F
330
1E
100
AcDbEntity
  8
7
100
AcDbLine
 10
15.21129160318883
 20
12.38911530194471
 30
0.0
 11
15.21522861106284
 21
12.39042763790271
 31
0.0
  0
LINE
  5
3210
330
1E
100
AcDbEntity
  8
7
100
AcDbLine
 10
15.21522861106284
 20
12.39042763790271
 30
0.0
 11
15.21654094702085
 21
12.39436464577673
 31
0.0
  0
LINE
  5
3211
330
1E
100
AcDbEntity
  8
7
100
AcDbLine
 10
15.21654094702085
 20
12.42323603685284
 30
0.0
 11
15.21522861106284
 21
12.42717304472686
 31
0.0
  0
LINE
  5
3212
330
1E
100
AcDbEntity
  8
7
100
AcDbLine
 10
15.21522861106284
 20
12.42717304472686
 30
0.0
 11
15.21129160318883
 21
12.42848538068486
 31
0.0
  0
LINE
  5
3213
330
1E
100
AcDbEntity
  8
7
100
AcDbLine
 10
15.45669842733581
 20
12.40617566939878
 30
0.0
 11
15.4527614194618
 21
12.41667435706282
 31
0.0
  0
LINE
  5
3214
330
1E
100
AcDbEntity
  8
7
100
AcDbLine
 10
15.4527614194618
 20
12.41667435706282
 30
0.0
 11
15.44226273179775
 21
12.42061136493683
 31
0.0
  0
LINE
  5
3215
330
1E
100
AcDbEntity
  8
7
100
AcDbLine
 10
15.44226273179775
 20
12.33530952766649
 30
0.0
 11
15.4527614194618
 21
12.33924653554051
 31
0.0
  0
LINE
  5
3216
330
1E
100
AcDbEntity
  8
7
100
AcDbLine
 10
15.4527614194618
 20
12.33924653554051
 30
0.0
 11
15.45669842733581
 21
12.34974522320455
 31
0.0
  0
LINE
  5
3217
330
1E
100
AcDbEntity
  8
7
100
AcDbLine
 10
15.39370630135156
 20
12.42192370089484
 30
0.0
 11
15.39370630135156
 21
12.33530952766649
 31
0.0
  0
LINE
  5
3218
330
1E
100
AcDbEntity
  8
7
100
AcDbLine
 10
15.39370630135156
 20
12.33530952766649
 30
0.0
 11
15.44226273179775
 21
12.33530952766649
 31
0.0
  0
LINE
  5
3219
330
1E
100
AcDbEntity
  8
7
100
AcDbLine
 10
15.42782703625969
 20
12.35499456703657
 30
0.0
 11
15.4304517081757
 21
12.35630690299458
 31
0.0
  0
LINE
  5
321A
330
1E
100
AcDbEntity
  8
7
100
AcDbLine
 10
15.4304517081757
 20
12.35630690299458
 30
0.0
 11
15.43176404413371
 21
12.35893157491059
 31
0.0
  0
LINE
  5
321B
330
1E
100
AcDbEntity
  8
7
100
AcDbLine
 10
15.43176404413371
 20
12.39961398960875
 30
0.0
 11
15.4304517081757
 21
12.40223866152476
 31
0.0
  0
LINE
  5
321C
330
1E
100
AcDbEntity
  8
7
100
AcDbLine
 10
15.4304517081757
 20
12.40223866152476
 30
0.0
 11
15.42782703625969
 21
12.40355099748277
 31
0.0
  0
LINE
  5
321D
330
1E
100
AcDbEntity
  8
7
100
AcDbLine
 10
15.50000551394998
 20
12.35893157491059
 30
0.0
 11
15.50000551394998
 21
12.42192370089484
 31
0.0
  0
LINE
  5
321E
330
1E
100
AcDbEntity
  8
7
100
AcDbLine
 10
15.50000551394998
 20
12.42192370089484
 30
0.0
 11
15.47113412287387
 21
12.42192370089484
 31
0.0
  0
LINE
  5
321F
330
1E
100
AcDbEntity
  8
7
100
AcDbLine
 10
15.50000551394998
 20
12.35893157491059
 30
0.0
 11
15.50131784990799
 21
12.35630690299458
 31
0.0
  0
LINE
  5
3220
330
1E
100
AcDbEntity
  8
7
100
AcDbLine
 10
15.50131784990799
 20
12.35630690299458
 30
0.0
 11
15.503942521824
 21
12.35499456703657
 31
0.0
  0
LINE
  5
3221
330
1E
100
AcDbEntity
  8
7
100
AcDbLine
 10
15.51050420161402
 20
12.35499456703657
 30
0.0
 11
15.51312887353004
 21
12.35630690299458
 31
0.0
  0
LINE
  5
3222
330
1E
100
AcDbEntity
  8
7
100
AcDbLine
 10
15.51312887353004
 20
12.35630690299458
 30
0.0
 11
15.51444120948804
 21
12.35893157491059
 31
0.0
  0
LINE
  5
3223
330
1E
100
AcDbEntity
  8
7
100
AcDbLine
 10
15.53281391290011
 20
12.34974522320455
 30
0.0
 11
15.53281391290011
 21
12.42192370089484
 31
0.0
  0
LINE
  5
3224
330
1E
100
AcDbEntity
  8
7
100
AcDbLine
 10
15.53281391290011
 20
12.42192370089484
 30
0.0
 11
15.51444120948804
 21
12.42192370089484
 31
0.0
  0
LINE
  5
3225
330
1E
100
AcDbEntity
  8
7
100
AcDbLine
 10
15.51444120948804
 20
12.42192370089484
 30
0.0
 11
15.51444120948804
 21
12.35893157491059
 31
0.0
  0
LINE
  5
3226
330
1E
100
AcDbEntity
  8
7
100
AcDbLine
 10
15.51706588140405
 20
12.33530952766649
 30
0.0
 11
15.52756456906809
 21
12.33924653554051
 31
0.0
  0
LINE
  5
3227
330
1E
100
AcDbEntity
  8
7
100
AcDbLine
 10
15.52756456906809
 20
12.33924653554051
 30
0.0
 11
15.53150157694211
 21
12.34974522320455
 31
0.0
  0
LINE
  5
3228
330
1E
100
AcDbEntity
  8
7
100
AcDbLine
 10
15.47244645883187
 20
12.34974522320455
 30
0.0
 11
15.47638346670589
 21
12.33924653554051
 31
0.0
  0
LINE
  5
3229
330
1E
100
AcDbEntity
  8
7
100
AcDbLine
 10
15.47638346670589
 20
12.33924653554051
 30
0.0
 11
15.48688215436993
 21
12.33530952766649
 31
0.0
  0
LINE
  5
322A
330
1E
100
AcDbEntity
  8
7
100
AcDbLine
 10
15.6286144378345
 20
12.40355099748277
 30
0.0
 11
15.64829947720458
 21
12.40355099748277
 31
0.0
  0
LINE
  5
322B
330
1E
100
AcDbEntity
  8
7
100
AcDbLine
 10
15.64829947720458
 20
12.40355099748277
 30
0.0
 11
15.64829947720458
 21
12.42192370089484
 31
0.0
  0
LINE
  5
322C
330
1E
100
AcDbEntity
  8
7
100
AcDbLine
 10
15.64829947720458
 20
12.42192370089484
 30
0.0
 11
15.58399501526232
 21
12.42192370089484
 31
0.0
  0
LINE
  5
322D
330
1E
100
AcDbEntity
  8
7
100
AcDbLine
 10
15.60236771867439
 20
12.40355099748277
 30
0.0
 11
15.60236771867439
 21
12.33530952766649
 31
0.0
  0
LINE
  5
322E
330
1E
100
AcDbEntity
  8
7
100
AcDbLine
 10
15.60236771867439
 20
12.33530952766649
 30
0.0
 11
15.6286144378345
 21
12.33530952766649
 31
0.0
  0
LINE
  5
322F
330
1E
100
AcDbEntity
  8
7
100
AcDbLine
 10
15.54724960843817
 20
12.42192370089484
 30
0.0
 11
15.54724960843817
 21
12.33530952766649
 31
0.0
  0
LINE
  5
3230
330
1E
100
AcDbEntity
  8
7
100
AcDbLine
 10
15.54724960843817
 20
12.33530952766649
 30
0.0
 11
15.56955931972426
 21
12.33530952766649
 31
0.0
  0
LINE
  5
3231
330
1E
100
AcDbEntity
  8
7
100
AcDbLine
 10
12.11942808612846
 20
13.17914154866387
 30
0.0
 11
12.14829947720458
 21
13.18439089249589
 31
0.0
  0
LINE
  5
3232
330
1E
100
AcDbEntity
  8
7
100
AcDbLine
 10
12.14829947720458
 20
13.18439089249589
 30
0.0
 11
12.17192152444867
 21
13.20145125994996
 31
0.0
  0
LINE
  5
3233
330
1E
100
AcDbEntity
  8
7
100
AcDbLine
 10
12.17192152444867
 20
13.20145125994996
 30
0.0
 11
12.18898189190274
 21
13.22507330719405
 31
0.0
  0
LINE
  5
3234
330
1E
100
AcDbEntity
  8
7
100
AcDbLine
 10
12.18898189190274
 20
13.22507330719405
 30
0.0
 11
12.19423123573476
 21
13.25394469827017
 31
0.0
  0
LINE
  5
3235
330
1E
100
AcDbEntity
  8
7
100
AcDbLine
 10
12.04462493652216
 20
13.25394469827017
 30
0.0
 11
12.04987428035418
 21
13.22507330719405
 31
0.0
  0
LINE
  5
3236
330
1E
100
AcDbEntity
  8
7
100
AcDbLine
 10
12.04987428035418
 20
13.22507330719405
 30
0.0
 11
12.06693464780825
 21
13.20145125994996
 31
0.0
  0
LINE
  5
3237
330
1E
100
AcDbEntity
  8
7
100
AcDbLine
 10
12.06693464780825
 20
13.20145125994996
 30
0.0
 11
12.09055669505235
 21
13.18439089249589
 31
0.0
  0
LINE
  5
3238
330
1E
100
AcDbEntity
  8
7
100
AcDbLine
 10
12.09055669505235
 20
13.18439089249589
 30
0.0
 11
12.11942808612846
 21
13.17914154866387
 31
0.0
  0
LINE
  5
3239
330
1E
100
AcDbEntity
  8
7
100
AcDbLine
 10
12.11942808612846
 20
13.44817042005494
 30
0.0
 11
12.09055669505235
 21
13.44292107622292
 31
0.0
  0
LINE
  5
323A
330
1E
100
AcDbEntity
  8
7
100
AcDbLine
 10
12.09055669505235
 20
13.44292107622292
 30
0.0
 11
12.06693464780825
 21
13.42586070876885
 31
0.0
  0
LINE
  5
323B
330
1E
100
AcDbEntity
  8
7
100
AcDbLine
 10
12.06693464780825
 20
13.42586070876885
 30
0.0
 11
12.04987428035418
 21
13.40223866152476
 31
0.0
  0
LINE
  5
323C
330
1E
100
AcDbEntity
  8
7
100
AcDbLine
 10
12.04987428035418
 20
13.40223866152476
 30
0.0
 11
12.04462493652216
 21
13.37336727044865
 31
0.0
  0
LINE
  5
323D
330
1E
100
AcDbEntity
  8
7
100
AcDbLine
 10
12.19423123573476
 20
13.37336727044865
 30
0.0
 11
12.18898189190274
 21
13.40223866152476
 31
0.0
  0
LINE
  5
323E
330
1E
100
AcDbEntity
  8
7
100
AcDbLine
 10
12.18898189190274
 20
13.40223866152476
 30
0.0
 11
12.17192152444867
 21
13.42586070876885
 31
0.0
  0
LINE
  5
323F
330
1E
100
AcDbEntity
  8
7
100
AcDbLine
 10
12.17192152444867
 20
13.42586070876885
 30
0.0
 11
12.14829947720458
 21
13.44292107622292
 31
0.0
  0
LINE
  5
3240
330
1E
100
AcDbEntity
  8
7
100
AcDbLine
 10
12.14829947720458
 20
13.44292107622292
 30
0.0
 11
12.11942808612846
 21
13.44817042005494
 31
0.0
  0
LINE
  5
3241
330
1E
100
AcDbEntity
  8
7
100
AcDbLine
 10
15.33071417536731
 20
13.22507330719405
 30
0.0
 11
15.34777454282138
 21
13.20145125994996
 31
0.0
  0
LINE
  5
3242
330
1E
100
AcDbEntity
  8
7
100
AcDbLine
 10
15.34777454282138
 20
13.20145125994996
 30
0.0
 11
15.37139659006547
 21
13.18439089249589
 31
0.0
  0
LINE
  5
3243
330
1E
100
AcDbEntity
  8
7
100
AcDbLine
 10
15.37139659006547
 20
13.18439089249589
 30
0.0
 11
15.40026798114158
 21
13.17914154866387
 31
0.0
  0
LINE
  5
3244
330
1E
100
AcDbEntity
  8
7
100
AcDbLine
 10
15.40026798114158
 20
13.17914154866387
 30
0.0
 11
15.4291393722177
 21
13.18439089249589
 31
0.0
  0
LINE
  5
3245
330
1E
100
AcDbEntity
  8
7
100
AcDbLine
 10
15.4291393722177
 20
13.18439089249589
 30
0.0
 11
15.4527614194618
 21
13.20145125994996
 31
0.0
  0
LINE
  5
3246
330
1E
100
AcDbEntity
  8
7
100
AcDbLine
 10
15.4527614194618
 20
13.20145125994996
 30
0.0
 11
15.46982178691586
 21
13.22507330719405
 31
0.0
  0
LINE
  5
3247
330
1E
100
AcDbEntity
  8
7
100
AcDbLine
 10
15.46982178691586
 20
13.22507330719405
 30
0.0
 11
15.47507113074788
 21
13.25394469827017
 31
0.0
  0
LINE
  5
3248
330
1E
100
AcDbEntity
  8
7
100
AcDbLine
 10
15.46982178691586
 20
13.40223866152476
 30
0.0
 11
15.4527614194618
 21
13.42586070876885
 31
0.0
  0
LINE
  5
3249
330
1E
100
AcDbEntity
  8
7
100
AcDbLine
 10
15.4527614194618
 20
13.42586070876885
 30
0.0
 11
15.4291393722177
 21
13.44292107622292
 31
0.0
  0
LINE
  5
324A
330
1E
100
AcDbEntity
  8
7
100
AcDbLine
 10
15.4291393722177
 20
13.44292107622292
 30
0.0
 11
15.40026798114158
 21
13.44817042005494
 31
0.0
  0
LINE
  5
324B
330
1E
100
AcDbEntity
  8
7
100
AcDbLine
 10
15.40026798114158
 20
13.44817042005494
 30
0.0
 11
15.37139659006547
 21
13.44292107622292
 31
0.0
  0
LINE
  5
324C
330
1E
100
AcDbEntity
  8
7
100
AcDbLine
 10
15.37139659006547
 20
13.44292107622292
 30
0.0
 11
15.34777454282138
 21
13.42586070876885
 31
0.0
  0
LINE
  5
324D
330
1E
100
AcDbEntity
  8
7
100
AcDbLine
 10
15.34777454282138
 20
13.42586070876885
 30
0.0
 11
15.33071417536731
 21
13.40223866152476
 31
0.0
  0
LINE
  5
324E
330
1E
100
AcDbEntity
  8
7
100
AcDbLine
 10
15.33071417536731
 20
13.40223866152476
 30
0.0
 11
15.32546483153528
 21
13.37336727044865
 31
0.0
  0
LINE
  5
324F
330
1E
100
AcDbEntity
  8
7
100
AcDbLine
 10
12.78084540896311
 20
13.93111005260088
 30
0.0
 11
12.77165905725707
 21
13.9127373491888
 31
0.0
  0
LINE
  5
3250
330
1E
100
AcDbEntity
  8
7
100
AcDbLine
 10
12.77165905725707
 20
13.9127373491888
 30
0.0
 11
12.77428372917308
 21
13.89305230981872
 31
0.0
  0
LINE
  5
3251
330
1E
100
AcDbEntity
  8
7
100
AcDbLine
 10
12.77428372917308
 20
13.89305230981872
 30
0.0
 11
12.78740708875313
 21
13.87730427832266
 31
0.0
  0
LINE
  5
3252
330
1E
100
AcDbEntity
  8
7
100
AcDbLine
 10
12.78740708875313
 20
13.87730427832266
 30
0.0
 11
12.80709212812321
 21
13.87205493449064
 31
0.0
  0
LINE
  5
3253
330
1E
100
AcDbEntity
  8
7
100
AcDbLine
 10
12.80709212812321
 20
13.87205493449064
 30
0.0
 11
12.82677716749329
 21
13.87730427832266
 31
0.0
  0
LINE
  5
3254
330
1E
100
AcDbEntity
  8
7
100
AcDbLine
 10
12.82677716749329
 20
13.87730427832266
 30
0.0
 11
12.83990052707334
 21
13.89305230981872
 31
0.0
  0
LINE
  5
3255
330
1E
100
AcDbEntity
  8
7
100
AcDbLine
 10
12.83990052707334
 20
13.89305230981872
 30
0.0
 11
12.84252519898935
 21
13.9127373491888
 31
0.0
  0
LINE
  5
3256
330
1E
100
AcDbEntity
  8
7
100
AcDbLine
 10
12.84252519898935
 20
13.9127373491888
 30
0.0
 11
12.83333884728332
 21
13.93111005260088
 31
0.0
  0
LINE
  5
3257
330
1E
100
AcDbEntity
  8
7
100
AcDbLine
 10
12.83333884728332
 20
13.93111005260088
 30
0.0
 11
12.81759081578725
 21
13.94160874026492
 31
0.0
  0
LINE
  5
3258
330
1E
100
AcDbEntity
  8
7
100
AcDbLine
 10
12.81759081578725
 20
13.94160874026492
 30
0.0
 11
12.79659344045917
 21
13.94160874026492
 31
0.0
  0
LINE
  5
3259
330
1E
100
AcDbEntity
  8
7
100
AcDbLine
 10
12.79659344045917
 20
13.94160874026492
 30
0.0
 11
12.78084540896311
 21
13.93111005260088
 31
0.0
  0
LINE
  5
325A
330
1E
100
AcDbEntity
  8
7
100
AcDbLine
 10
13.43176404413371
 20
13.94160874026492
 30
0.0
 11
13.41601601263765
 21
13.93111005260088
 31
0.0
  0
LINE
  5
325B
330
1E
100
AcDbEntity
  8
7
100
AcDbLine
 10
13.41601601263765
 20
13.93111005260088
 30
0.0
 11
13.40682966093161
 21
13.9127373491888
 31
0.0
  0
LINE
  5
325C
330
1E
100
AcDbEntity
  8
7
100
AcDbLine
 10
13.40682966093161
 20
13.9127373491888
 30
0.0
 11
13.40945433284762
 21
13.89305230981872
 31
0.0
  0
LINE
  5
325D
330
1E
100
AcDbEntity
  8
7
100
AcDbLine
 10
13.40945433284762
 20
13.89305230981872
 30
0.0
 11
13.42257769242767
 21
13.87730427832266
 31
0.0
  0
LINE
  5
325E
330
1E
100
AcDbEntity
  8
7
100
AcDbLine
 10
13.42257769242767
 20
13.87730427832266
 30
0.0
 11
13.44226273179775
 21
13.87205493449064
 31
0.0
  0
LINE
  5
325F
330
1E
100
AcDbEntity
  8
7
100
AcDbLine
 10
13.44226273179775
 20
13.87205493449064
 30
0.0
 11
13.46194777116783
 21
13.87730427832266
 31
0.0
  0
LINE
  5
3260
330
1E
100
AcDbEntity
  8
7
100
AcDbLine
 10
13.46194777116783
 20
13.87730427832266
 30
0.0
 11
13.47507113074788
 21
13.89305230981872
 31
0.0
  0
LINE
  5
3261
330
1E
100
AcDbEntity
  8
7
100
AcDbLine
 10
13.47507113074788
 20
13.89305230981872
 30
0.0
 11
13.47769580266389
 21
13.9127373491888
 31
0.0
  0
LINE
  5
3262
330
1E
100
AcDbEntity
  8
7
100
AcDbLine
 10
13.47769580266389
 20
13.9127373491888
 30
0.0
 11
13.46850945095786
 21
13.93111005260088
 31
0.0
  0
LINE
  5
3263
330
1E
100
AcDbEntity
  8
7
100
AcDbLine
 10
13.46850945095786
 20
13.93111005260088
 30
0.0
 11
13.4527614194618
 21
13.94160874026492
 31
0.0
  0
LINE
  5
3264
330
1E
100
AcDbEntity
  8
7
100
AcDbLine
 10
13.4527614194618
 20
13.94160874026492
 30
0.0
 11
13.43176404413371
 21
13.94160874026492
 31
0.0
  0
LINE
  5
3265
330
1E
100
AcDbEntity
  8
7
100
AcDbLine
 10
14.08793202313634
 20
13.94160874026492
 30
0.0
 11
14.06693464780825
 21
13.94160874026492
 31
0.0
  0
LINE
  5
3266
330
1E
100
AcDbEntity
  8
7
100
AcDbLine
 10
14.06693464780825
 20
13.94160874026492
 30
0.0
 11
14.05118661631219
 21
13.93111005260088
 31
0.0
  0
LINE
  5
3267
330
1E
100
AcDbEntity
  8
7
100
AcDbLine
 10
14.05118661631219
 20
13.93111005260088
 30
0.0
 11
14.04200026460615
 21
13.9127373491888
 31
0.0
  0
LINE
  5
3268
330
1E
100
AcDbEntity
  8
7
100
AcDbLine
 10
14.04200026460615
 20
13.9127373491888
 30
0.0
 11
14.04462493652216
 21
13.89305230981872
 31
0.0
  0
LINE
  5
3269
330
1E
100
AcDbEntity
  8
7
100
AcDbLine
 10
14.04462493652216
 20
13.89305230981872
 30
0.0
 11
14.05774829610221
 21
13.87730427832266
 31
0.0
  0
LINE
  5
326A
330
1E
100
AcDbEntity
  8
7
100
AcDbLine
 10
14.05774829610221
 20
13.87730427832266
 30
0.0
 11
14.07743333547229
 21
13.87205493449064
 31
0.0
  0
LINE
  5
326B
330
1E
100
AcDbEntity
  8
7
100
AcDbLine
 10
14.07743333547229
 20
13.87205493449064
 30
0.0
 11
14.09711837484237
 21
13.87730427832266
 31
0.0
  0
LINE
  5
326C
330
1E
100
AcDbEntity
  8
7
100
AcDbLine
 10
14.09711837484237
 20
13.87730427832266
 30
0.0
 11
14.11024173442243
 21
13.89305230981872
 31
0.0
  0
LINE
  5
326D
330
1E
100
AcDbEntity
  8
7
100
AcDbLine
 10
14.11024173442243
 20
13.89305230981872
 30
0.0
 11
14.11286640633844
 21
13.9127373491888
 31
0.0
  0
LINE
  5
326E
330
1E
100
AcDbEntity
  8
7
100
AcDbLine
 10
14.11286640633844
 20
13.9127373491888
 30
0.0
 11
14.1036800546324
 21
13.93111005260088
 31
0.0
  0
LINE
  5
326F
330
1E
100
AcDbEntity
  8
7
100
AcDbLine
 10
14.1036800546324
 20
13.93111005260088
 30
0.0
 11
14.08793202313634
 21
13.94160874026492
 31
0.0
  0
LINE
  5
3270
330
1E
100
AcDbEntity
  8
7
100
AcDbLine
 10
14.73753832234893
 20
13.93111005260088
 30
0.0
 11
14.72179029085287
 21
13.94160874026492
 31
0.0
  0
LINE
  5
3271
330
1E
100
AcDbEntity
  8
7
100
AcDbLine
 10
14.72179029085287
 20
13.94160874026492
 30
0.0
 11
14.70079291552479
 21
13.94160874026492
 31
0.0
  0
LINE
  5
3272
330
1E
100
AcDbEntity
  8
7
100
AcDbLine
 10
14.70079291552479
 20
13.94160874026492
 30
0.0
 11
14.68504488402872
 21
13.93111005260088
 31
0.0
  0
LINE
  5
3273
330
1E
100
AcDbEntity
  8
7
100
AcDbLine
 10
14.68504488402872
 20
13.93111005260088
 30
0.0
 11
14.67585853232269
 21
13.9127373491888
 31
0.0
  0
LINE
  5
3274
330
1E
100
AcDbEntity
  8
7
100
AcDbLine
 10
14.67585853232269
 20
13.9127373491888
 30
0.0
 11
14.6784832042387
 21
13.89305230981872
 31
0.0
  0
LINE
  5
3275
330
1E
100
AcDbEntity
  8
7
100
AcDbLine
 10
14.6784832042387
 20
13.89305230981872
 30
0.0
 11
14.69160656381875
 21
13.87730427832266
 31
0.0
  0
LINE
  5
3276
330
1E
100
AcDbEntity
  8
7
100
AcDbLine
 10
14.69160656381875
 20
13.87730427832266
 30
0.0
 11
14.71129160318883
 21
13.87205493449064
 31
0.0
  0
LINE
  5
3277
330
1E
100
AcDbEntity
  8
7
100
AcDbLine
 10
14.71129160318883
 20
13.87205493449064
 30
0.0
 11
14.73097664255891
 21
13.87730427832266
 31
0.0
  0
LINE
  5
3278
330
1E
100
AcDbEntity
  8
7
100
AcDbLine
 10
14.73097664255891
 20
13.87730427832266
 30
0.0
 11
14.74410000213896
 21
13.89305230981872
 31
0.0
  0
LINE
  5
3279
330
1E
100
AcDbEntity
  8
7
100
AcDbLine
 10
14.74410000213896
 20
13.89305230981872
 30
0.0
 11
14.74672467405497
 21
13.9127373491888
 31
0.0
  0
LINE
  5
327A
330
1E
100
AcDbEntity
  8
7
100
AcDbLine
 10
14.74672467405497
 20
13.9127373491888
 30
0.0
 11
14.73753832234893
 21
13.93111005260088
 31
0.0
  0
LINE
  5
327B
330
1E
100
AcDbEntity
  8
7
100
AcDbLine
 10
15.2782207370471
 20
12.99278984262712
 30
0.0
 11
15.3294018394093
 21
12.99278984262712
 31
0.0
  0
LINE
  5
327C
330
1E
100
AcDbEntity
  8
7
100
AcDbLine
 10
15.3294018394093
 20
12.99278984262712
 30
0.0
 11
15.3294018394093
 21
12.96785545942502
 31
0.0
  0
LINE
  5
327D
330
1E
100
AcDbEntity
  8
7
100
AcDbLine
 10
15.2782207370471
 20
12.99147750666912
 30
0.0
 11
15.2782207370471
 21
12.99278984262712
 31
0.0
  0
LINE
  5
327E
330
1E
100
AcDbEntity
  8
7
100
AcDbLine
 10
15.2782207370471
 20
12.99278984262712
 30
0.0
 11
15.2782207370471
 21
12.99541451454313
 31
0.0
  0
LINE
  5
327F
330
1E
100
AcDbEntity
  8
7
100
AcDbLine
 10
15.52231522523607
 20
13.63583446204969
 30
0.0
 11
15.52100288927807
 21
13.63452212609169
 31
0.0
  0
LINE
  5
3280
330
1E
100
AcDbEntity
  8
7
100
AcDbLine
 10
15.52100288927807
 20
13.63452212609169
 30
0.0
 11
15.52100288927807
 21
13.63189745417568
 31
0.0
  0
LINE
  5
3281
330
1E
100
AcDbEntity
  8
7
100
AcDbLine
 10
15.47113412287387
 20
12.96785545942502
 30
0.0
 11
15.46982178691586
 21
12.96785545942502
 31
0.0
  0
LINE
  5
3282
330
1E
100
AcDbEntity
  8
7
100
AcDbLine
 10
15.46982178691586
 20
12.96785545942502
 30
0.0
 11
15.46719711499985
 21
12.96916779538303
 31
0.0
  0
LINE
  5
3283
330
1E
100
AcDbEntity
  8
7
100
AcDbLine
 10
15.46719711499985
 20
12.96916779538303
 30
0.0
 11
15.46719711499985
 21
12.99541451454313
 31
0.0
  0
LINE
  5
3284
330
1E
100
AcDbEntity
  8
7
100
AcDbLine
 10
15.46719711499985
 20
12.99541451454313
 30
0.0
 11
15.52100288927807
 21
12.99541451454313
 31
0.0
  0
LINE
  5
3285
330
1E
100
AcDbEntity
  8
7
100
AcDbLine
 10
15.2782207370471
 20
13.63189745417568
 30
0.0
 11
15.2782207370471
 21
12.99541451454313
 31
0.0
  0
LINE
  5
3286
330
1E
100
AcDbEntity
  8
7
100
AcDbLine
 10
15.2782207370471
 20
12.99541451454313
 30
0.0
 11
15.33202651132531
 21
12.99541451454313
 31
0.0
  0
LINE
  5
3287
330
1E
100
AcDbEntity
  8
7
100
AcDbLine
 10
16.00656719374001
 20
14.62533577438565
 30
0.0
 11
15.99869317799198
 21
14.65551950141977
 31
0.0
  0
LINE
  5
3288
330
1E
100
AcDbEntity
  8
7
100
AcDbLine
 10
15.99869317799198
 20
14.65551950141977
 30
0.0
 11
15.97638346670589
 21
14.67782921270586
 31
0.0
  0
LINE
  5
3289
330
1E
100
AcDbEntity
  8
7
100
AcDbLine
 10
15.97638346670589
 20
14.67782921270586
 30
0.0
 11
15.94619973967177
 21
14.6857032284539
 31
0.0
  0
LINE
  5
328A
330
1E
100
AcDbEntity
  8
7
100
AcDbLine
 10
15.43570105200773
 20
13.14502081375573
 30
0.0
 11
15.46719711499985
 21
13.1620811812098
 31
0.0
  0
LINE
  5
328B
330
1E
100
AcDbEntity
  8
7
100
AcDbLine
 10
15.46719711499985
 20
13.1620811812098
 30
0.0
 11
15.49213149820195
 21
13.1870155644119
 31
0.0
  0
LINE
  5
328C
330
1E
100
AcDbEntity
  8
7
100
AcDbLine
 10
15.49213149820195
 20
13.1870155644119
 30
0.0
 11
15.50919186565602
 21
13.21851162740403
 31
0.0
  0
LINE
  5
328D
330
1E
100
AcDbEntity
  8
7
100
AcDbLine
 10
15.50919186565602
 20
13.21851162740403
 30
0.0
 11
15.51444120948804
 21
13.25394469827017
 31
0.0
  0
LINE
  5
328E
330
1E
100
AcDbEntity
  8
7
100
AcDbLine
 10
15.28609475279513
 20
13.25394469827017
 30
0.0
 11
15.29134409662715
 21
13.21851162740403
 31
0.0
  0
LINE
  5
328F
330
1E
100
AcDbEntity
  8
7
100
AcDbLine
 10
15.29134409662715
 20
13.21851162740403
 30
0.0
 11
15.30840446408122
 21
13.1870155644119
 31
0.0
  0
LINE
  5
3290
330
1E
100
AcDbEntity
  8
7
100
AcDbLine
 10
15.30840446408122
 20
13.1870155644119
 30
0.0
 11
15.33333884728332
 21
13.1620811812098
 31
0.0
  0
LINE
  5
3291
330
1E
100
AcDbEntity
  8
7
100
AcDbLine
 10
15.33333884728332
 20
13.1620811812098
 30
0.0
 11
15.36483491027544
 21
13.14502081375573
 31
0.0
  0
LINE
  5
3292
330
1E
100
AcDbEntity
  8
7
100
AcDbLine
 10
15.36483491027544
 20
13.14502081375573
 30
0.0
 11
15.40026798114158
 21
13.13977146992371
 31
0.0
  0
LINE
  5
3293
330
1E
100
AcDbEntity
  8
7
100
AcDbLine
 10
15.40026798114158
 20
13.13977146992371
 30
0.0
 11
15.43570105200773
 21
13.14502081375573
 31
0.0
  0
LINE
  5
3294
330
1E
100
AcDbEntity
  8
7
100
AcDbLine
 10
15.33333884728332
 20
13.1620811812098
 30
0.0
 11
15.36483491027544
 21
13.14633314971374
 31
0.0
  0
LINE
  5
3295
330
1E
100
AcDbEntity
  8
7
100
AcDbLine
 10
15.36483491027544
 20
13.14633314971374
 30
0.0
 11
15.40026798114158
 21
13.14108380588171
 31
0.0
  0
LINE
  5
3296
330
1E
100
AcDbEntity
  8
7
100
AcDbLine
 10
15.40026798114158
 20
13.14108380588171
 30
0.0
 11
15.43570105200773
 21
13.14633314971374
 31
0.0
  0
LINE
  5
3297
330
1E
100
AcDbEntity
  8
7
100
AcDbLine
 10
15.43570105200773
 20
13.14633314971374
 30
0.0
 11
15.46719711499985
 21
13.1620811812098
 31
0.0
  0
LINE
  5
3298
330
1E
100
AcDbEntity
  8
7
100
AcDbLine
 10
15.46719711499985
 20
13.1620811812098
 30
0.0
 11
15.49213149820195
 21
13.1870155644119
 31
0.0
  0
LINE
  5
3299
330
1E
100
AcDbEntity
  8
7
100
AcDbLine
 10
15.49213149820195
 20
13.1870155644119
 30
0.0
 11
15.50787952969801
 21
13.21851162740403
 31
0.0
  0
LINE
  5
329A
330
1E
100
AcDbEntity
  8
7
100
AcDbLine
 10
15.50787952969801
 20
13.21851162740403
 30
0.0
 11
15.51312887353004
 21
13.25394469827017
 31
0.0
  0
LINE
  5
329B
330
1E
100
AcDbEntity
  8
7
100
AcDbLine
 10
15.28740708875313
 20
13.25394469827017
 30
0.0
 11
15.29265643258516
 21
13.21851162740403
 31
0.0
  0
LINE
  5
329C
330
1E
100
AcDbEntity
  8
7
100
AcDbLine
 10
15.29265643258516
 20
13.21851162740403
 30
0.0
 11
15.30840446408122
 21
13.1870155644119
 31
0.0
  0
LINE
  5
329D
330
1E
100
AcDbEntity
  8
7
100
AcDbLine
 10
15.30840446408122
 20
13.1870155644119
 30
0.0
 11
15.33333884728332
 21
13.1620811812098
 31
0.0
  0
LINE
  5
329E
330
1E
100
AcDbEntity
  8
7
100
AcDbLine
 10
15.51444120948804
 20
13.37336727044865
 30
0.0
 11
15.50919186565602
 21
13.40880034131479
 31
0.0
  0
LINE
  5
329F
330
1E
100
AcDbEntity
  8
7
100
AcDbLine
 10
15.50919186565602
 20
13.40880034131479
 30
0.0
 11
15.49213149820195
 21
13.44029640430691
 31
0.0
  0
LINE
  5
32A0
330
1E
100
AcDbEntity
  8
7
100
AcDbLine
 10
15.49213149820195
 20
13.44029640430691
 30
0.0
 11
15.46719711499985
 21
13.46523078750901
 31
0.0
  0
LINE
  5
32A1
330
1E
100
AcDbEntity
  8
7
100
AcDbLine
 10
15.46719711499985
 20
13.46523078750901
 30
0.0
 11
15.43570105200773
 21
13.48229115496308
 31
0.0
  0
LINE
  5
32A2
330
1E
100
AcDbEntity
  8
7
100
AcDbLine
 10
15.43570105200773
 20
13.48229115496308
 30
0.0
 11
15.40026798114158
 21
13.4875404987951
 31
0.0
  0
LINE
  5
32A3
330
1E
100
AcDbEntity
  8
7
100
AcDbLine
 10
15.40026798114158
 20
13.4875404987951
 30
0.0
 11
15.36483491027544
 21
13.48229115496308
 31
0.0
  0
LINE
  5
32A4
330
1E
100
AcDbEntity
  8
7
100
AcDbLine
 10
15.36483491027544
 20
13.48229115496308
 30
0.0
 11
15.33333884728332
 21
13.46523078750901
 31
0.0
  0
LINE
  5
32A5
330
1E
100
AcDbEntity
  8
7
100
AcDbLine
 10
15.33333884728332
 20
13.46523078750901
 30
0.0
 11
15.30840446408122
 21
13.44029640430691
 31
0.0
  0
LINE
  5
32A6
330
1E
100
AcDbEntity
  8
7
100
AcDbLine
 10
15.30840446408122
 20
13.44029640430691
 30
0.0
 11
15.29134409662715
 21
13.40880034131479
 31
0.0
  0
LINE
  5
32A7
330
1E
100
AcDbEntity
  8
7
100
AcDbLine
 10
15.30840446408122
 20
13.44029640430691
 30
0.0
 11
15.29265643258516
 21
13.40880034131479
 31
0.0
  0
LINE
  5
32A8
330
1E
100
AcDbEntity
  8
7
100
AcDbLine
 10
15.29265643258516
 20
13.40880034131479
 30
0.0
 11
15.28740708875313
 21
13.37336727044865
 31
0.0
  0
LINE
  5
32A9
330
1E
100
AcDbEntity
  8
7
100
AcDbLine
 10
15.51312887353004
 20
13.37336727044865
 30
0.0
 11
15.50787952969801
 21
13.40880034131479
 31
0.0
  0
LINE
  5
32AA
330
1E
100
AcDbEntity
  8
7
100
AcDbLine
 10
15.50787952969801
 20
13.40880034131479
 30
0.0
 11
15.49213149820195
 21
13.44029640430691
 31
0.0
  0
LINE
  5
32AB
330
1E
100
AcDbEntity
  8
7
100
AcDbLine
 10
15.49213149820195
 20
13.44029640430691
 30
0.0
 11
15.46719711499985
 21
13.46523078750901
 31
0.0
  0
LINE
  5
32AC
330
1E
100
AcDbEntity
  8
7
100
AcDbLine
 10
15.46719711499985
 20
13.46523078750901
 30
0.0
 11
15.43570105200773
 21
13.48097881900508
 31
0.0
  0
LINE
  5
32AD
330
1E
100
AcDbEntity
  8
7
100
AcDbLine
 10
15.43570105200773
 20
13.48097881900508
 30
0.0
 11
15.40026798114158
 21
13.48622816283709
 31
0.0
  0
LINE
  5
32AE
330
1E
100
AcDbEntity
  8
7
100
AcDbLine
 10
15.40026798114158
 20
13.48622816283709
 30
0.0
 11
15.36483491027544
 21
13.48097881900508
 31
0.0
  0
LINE
  5
32AF
330
1E
100
AcDbEntity
  8
7
100
AcDbLine
 10
15.36483491027544
 20
13.48097881900508
 30
0.0
 11
15.33333884728332
 21
13.46523078750901
 31
0.0
  0
LINE
  5
32B0
330
1E
100
AcDbEntity
  8
7
100
AcDbLine
 10
15.33333884728332
 20
13.46523078750901
 30
0.0
 11
15.30840446408122
 21
13.44029640430691
 31
0.0
  0
LINE
  5
32B1
330
1E
100
AcDbEntity
  8
7
100
AcDbLine
 10
14.95801076329382
 20
13.01509955391321
 30
0.0
 11
14.95669842733581
 21
13.01641188987121
 31
0.0
  0
LINE
  5
32B2
330
1E
100
AcDbEntity
  8
7
100
AcDbLine
 10
14.95669842733581
 20
13.01641188987121
 30
0.0
 11
14.95669842733581
 21
12.95079509197095
 31
0.0
  0
LINE
  5
32B3
330
1E
100
AcDbEntity
  8
7
100
AcDbLine
 10
14.95801076329382
 20
12.94948275601295
 30
0.0
 11
14.95669842733581
 21
12.95079509197095
 31
0.0
  0
LINE
  5
32B4
330
1E
100
AcDbEntity
  8
7
100
AcDbLine
 10
14.95669842733581
 20
12.95079509197095
 30
0.0
 11
14.83858819111534
 21
12.95079509197095
 31
0.0
  0
LINE
  5
32B5
330
1E
100
AcDbEntity
  8
7
100
AcDbLine
 10
13.5288769050261
 20
13.67651687674785
 30
0.0
 11
13.3543362226114
 21
13.67651687674785
 31
0.0
  0
LINE
  5
32B6
330
1E
100
AcDbEntity
  8
7
100
AcDbLine
 10
13.3543362226114
 20
13.67651687674785
 30
0.0
 11
13.3543362226114
 21
13.6371467980077
 31
0.0
  0
LINE
  5
32B7
330
1E
100
AcDbEntity
  8
7
100
AcDbLine
 10
14.16404750870064
 20
13.67651687674785
 30
0.0
 11
13.98950682628594
 21
13.67651687674785
 31
0.0
  0
LINE
  5
32B8
330
1E
100
AcDbEntity
  8
7
100
AcDbLine
 10
13.98950682628594
 20
13.67651687674785
 30
0.0
 11
13.98950682628594
 21
13.6371467980077
 31
0.0
  0
LINE
  5
32B9
330
1E
100
AcDbEntity
  8
7
100
AcDbLine
 10
14.71129160318883
 20
13.87205493449064
 30
0.0
 11
14.73097664255891
 21
13.87730427832266
 31
0.0
  0
LINE
  5
32BA
330
1E
100
AcDbEntity
  8
7
100
AcDbLine
 10
14.73097664255891
 20
13.87730427832266
 30
0.0
 11
14.74410000213896
 21
13.89305230981872
 31
0.0
  0
LINE
  5
32BB
330
1E
100
AcDbEntity
  8
7
100
AcDbLine
 10
14.74410000213896
 20
13.89305230981872
 30
0.0
 11
14.74672467405497
 21
13.9127373491888
 31
0.0
  0
LINE
  5
32BC
330
1E
100
AcDbEntity
  8
7
100
AcDbLine
 10
14.74672467405497
 20
13.9127373491888
 30
0.0
 11
14.73753832234893
 21
13.93111005260088
 31
0.0
  0
LINE
  5
32BD
330
1E
100
AcDbEntity
  8
7
100
AcDbLine
 10
14.73753832234893
 20
13.93111005260088
 30
0.0
 11
14.72179029085287
 21
13.94160874026492
 31
0.0
  0
LINE
  5
32BE
330
1E
100
AcDbEntity
  8
7
100
AcDbLine
 10
14.72179029085287
 20
13.94160874026492
 30
0.0
 11
14.70079291552479
 21
13.94160874026492
 31
0.0
  0
LINE
  5
32BF
330
1E
100
AcDbEntity
  8
7
100
AcDbLine
 10
14.70079291552479
 20
13.94160874026492
 30
0.0
 11
14.68504488402872
 21
13.93111005260088
 31
0.0
  0
LINE
  5
32C0
330
1E
100
AcDbEntity
  8
7
100
AcDbLine
 10
14.68504488402872
 20
13.93111005260088
 30
0.0
 11
14.67585853232269
 21
13.9127373491888
 31
0.0
  0
LINE
  5
32C1
330
1E
100
AcDbEntity
  8
7
100
AcDbLine
 10
14.67585853232269
 20
13.9127373491888
 30
0.0
 11
14.6784832042387
 21
13.89305230981872
 31
0.0
  0
LINE
  5
32C2
330
1E
100
AcDbEntity
  8
7
100
AcDbLine
 10
14.6784832042387
 20
13.89305230981872
 30
0.0
 11
14.69160656381875
 21
13.87730427832266
 31
0.0
  0
LINE
  5
32C3
330
1E
100
AcDbEntity
  8
7
100
AcDbLine
 10
14.04462493652216
 20
13.89305230981872
 30
0.0
 11
14.05774829610221
 21
13.87730427832266
 31
0.0
  0
LINE
  5
32C4
330
1E
100
AcDbEntity
  8
7
100
AcDbLine
 10
14.05774829610221
 20
13.87730427832266
 30
0.0
 11
14.07743333547229
 21
13.87205493449064
 31
0.0
  0
LINE
  5
32C5
330
1E
100
AcDbEntity
  8
7
100
AcDbLine
 10
14.07743333547229
 20
13.87205493449064
 30
0.0
 11
14.09711837484237
 21
13.87730427832266
 31
0.0
  0
LINE
  5
32C6
330
1E
100
AcDbEntity
  8
7
100
AcDbLine
 10
14.09711837484237
 20
13.87730427832266
 30
0.0
 11
14.11024173442243
 21
13.89305230981872
 31
0.0
  0
LINE
  5
32C7
330
1E
100
AcDbEntity
  8
7
100
AcDbLine
 10
14.11024173442243
 20
13.89305230981872
 30
0.0
 11
14.11286640633844
 21
13.9127373491888
 31
0.0
  0
LINE
  5
32C8
330
1E
100
AcDbEntity
  8
7
100
AcDbLine
 10
14.11286640633844
 20
13.9127373491888
 30
0.0
 11
14.1036800546324
 21
13.93111005260088
 31
0.0
  0
LINE
  5
32C9
330
1E
100
AcDbEntity
  8
7
100
AcDbLine
 10
14.1036800546324
 20
13.93111005260088
 30
0.0
 11
14.08793202313634
 21
13.94160874026492
 31
0.0
  0
LINE
  5
32CA
330
1E
100
AcDbEntity
  8
7
100
AcDbLine
 10
14.08793202313634
 20
13.94160874026492
 30
0.0
 11
14.06693464780825
 21
13.94160874026492
 31
0.0
  0
LINE
  5
32CB
330
1E
100
AcDbEntity
  8
7
100
AcDbLine
 10
14.06693464780825
 20
13.94160874026492
 30
0.0
 11
14.05118661631219
 21
13.93111005260088
 31
0.0
  0
LINE
  5
32CC
330
1E
100
AcDbEntity
  8
7
100
AcDbLine
 10
14.05118661631219
 20
13.93111005260088
 30
0.0
 11
14.04200026460615
 21
13.9127373491888
 31
0.0
  0
LINE
  5
32CD
330
1E
100
AcDbEntity
  8
7
100
AcDbLine
 10
14.04200026460615
 20
13.9127373491888
 30
0.0
 11
14.04462493652216
 21
13.89305230981872
 31
0.0
  0
LINE
  5
32CE
330
1E
100
AcDbEntity
  8
7
100
AcDbLine
 10
13.40682966093161
 20
13.9127373491888
 30
0.0
 11
13.40945433284762
 21
13.89305230981872
 31
0.0
  0
LINE
  5
32CF
330
1E
100
AcDbEntity
  8
7
100
AcDbLine
 10
13.40945433284762
 20
13.89305230981872
 30
0.0
 11
13.42257769242767
 21
13.87730427832266
 31
0.0
  0
LINE
  5
32D0
330
1E
100
AcDbEntity
  8
7
100
AcDbLine
 10
13.42257769242767
 20
13.87730427832266
 30
0.0
 11
13.44226273179775
 21
13.87205493449064
 31
0.0
  0
LINE
  5
32D1
330
1E
100
AcDbEntity
  8
7
100
AcDbLine
 10
13.44226273179775
 20
13.87205493449064
 30
0.0
 11
13.46194777116783
 21
13.87730427832266
 31
0.0
  0
LINE
  5
32D2
330
1E
100
AcDbEntity
  8
7
100
AcDbLine
 10
13.46194777116783
 20
13.87730427832266
 30
0.0
 11
13.47507113074788
 21
13.89305230981872
 31
0.0
  0
LINE
  5
32D3
330
1E
100
AcDbEntity
  8
7
100
AcDbLine
 10
13.47507113074788
 20
13.89305230981872
 30
0.0
 11
13.47769580266389
 21
13.9127373491888
 31
0.0
  0
LINE
  5
32D4
330
1E
100
AcDbEntity
  8
7
100
AcDbLine
 10
13.47769580266389
 20
13.9127373491888
 30
0.0
 11
13.46850945095786
 21
13.93111005260088
 31
0.0
  0
LINE
  5
32D5
330
1E
100
AcDbEntity
  8
7
100
AcDbLine
 10
13.46850945095786
 20
13.93111005260088
 30
0.0
 11
13.4527614194618
 21
13.94160874026492
 31
0.0
  0
LINE
  5
32D6
330
1E
100
AcDbEntity
  8
7
100
AcDbLine
 10
13.4527614194618
 20
13.94160874026492
 30
0.0
 11
13.43176404413371
 21
13.94160874026492
 31
0.0
  0
LINE
  5
32D7
330
1E
100
AcDbEntity
  8
7
100
AcDbLine
 10
13.43176404413371
 20
13.94160874026492
 30
0.0
 11
13.41601601263765
 21
13.93111005260088
 31
0.0
  0
LINE
  5
32D8
330
1E
100
AcDbEntity
  8
7
100
AcDbLine
 10
13.41601601263765
 20
13.93111005260088
 30
0.0
 11
13.40682966093161
 21
13.9127373491888
 31
0.0
  0
LINE
  5
32D9
330
1E
100
AcDbEntity
  8
7
100
AcDbLine
 10
12.78084540896311
 20
13.93111005260088
 30
0.0
 11
12.77165905725707
 21
13.9127373491888
 31
0.0
  0
LINE
  5
32DA
330
1E
100
AcDbEntity
  8
7
100
AcDbLine
 10
12.77165905725707
 20
13.9127373491888
 30
0.0
 11
12.77428372917308
 21
13.89305230981872
 31
0.0
  0
LINE
  5
32DB
330
1E
100
AcDbEntity
  8
7
100
AcDbLine
 10
12.77428372917308
 20
13.89305230981872
 30
0.0
 11
12.78740708875313
 21
13.87730427832266
 31
0.0
  0
LINE
  5
32DC
330
1E
100
AcDbEntity
  8
7
100
AcDbLine
 10
12.78740708875313
 20
13.87730427832266
 30
0.0
 11
12.80709212812321
 21
13.87205493449064
 31
0.0
  0
LINE
  5
32DD
330
1E
100
AcDbEntity
  8
7
100
AcDbLine
 10
12.80709212812321
 20
13.87205493449064
 30
0.0
 11
12.82677716749329
 21
13.87730427832266
 31
0.0
  0
LINE
  5
32DE
330
1E
100
AcDbEntity
  8
7
100
AcDbLine
 10
12.82677716749329
 20
13.87730427832266
 30
0.0
 11
12.83990052707334
 21
13.89305230981872
 31
0.0
  0
LINE
  5
32DF
330
1E
100
AcDbEntity
  8
7
100
AcDbLine
 10
12.83990052707334
 20
13.89305230981872
 30
0.0
 11
12.84252519898935
 21
13.9127373491888
 31
0.0
  0
LINE
  5
32E0
330
1E
100
AcDbEntity
  8
7
100
AcDbLine
 10
12.84252519898935
 20
13.9127373491888
 30
0.0
 11
12.83333884728332
 21
13.93111005260088
 31
0.0
  0
LINE
  5
32E1
330
1E
100
AcDbEntity
  8
7
100
AcDbLine
 10
12.83333884728332
 20
13.93111005260088
 30
0.0
 11
12.81759081578725
 21
13.94160874026492
 31
0.0
  0
LINE
  5
32E2
330
1E
100
AcDbEntity
  8
7
100
AcDbLine
 10
12.81759081578725
 20
13.94160874026492
 30
0.0
 11
12.79659344045917
 21
13.94160874026492
 31
0.0
  0
LINE
  5
32E3
330
1E
100
AcDbEntity
  8
7
100
AcDbLine
 10
12.79659344045917
 20
13.94160874026492
 30
0.0
 11
12.78084540896311
 21
13.93111005260088
 31
0.0
  0
LINE
  5
32E4
330
1E
100
AcDbEntity
  8
7
100
AcDbLine
 10
12.00525485778201
 20
13.25394469827017
 30
0.0
 11
12.01050420161402
 21
13.21851162740403
 31
0.0
  0
LINE
  5
32E5
330
1E
100
AcDbEntity
  8
7
100
AcDbLine
 10
12.01050420161402
 20
13.21851162740403
 30
0.0
 11
12.02756456906809
 21
13.1870155644119
 31
0.0
  0
LINE
  5
32E6
330
1E
100
AcDbEntity
  8
7
100
AcDbLine
 10
12.02756456906809
 20
13.1870155644119
 30
0.0
 11
12.05249895227019
 21
13.1620811812098
 31
0.0
  0
LINE
  5
32E7
330
1E
100
AcDbEntity
  8
7
100
AcDbLine
 10
12.05249895227019
 20
13.1620811812098
 30
0.0
 11
12.08399501526232
 21
13.14502081375573
 31
0.0
  0
LINE
  5
32E8
330
1E
100
AcDbEntity
  8
7
100
AcDbLine
 10
12.08399501526232
 20
13.14502081375573
 30
0.0
 11
12.11942808612846
 21
13.13977146992371
 31
0.0
  0
LINE
  5
32E9
330
1E
100
AcDbEntity
  8
7
100
AcDbLine
 10
12.11942808612846
 20
13.13977146992371
 30
0.0
 11
12.1548611569946
 21
13.14502081375573
 31
0.0
  0
LINE
  5
32EA
330
1E
100
AcDbEntity
  8
7
100
AcDbLine
 10
12.1548611569946
 20
13.14502081375573
 30
0.0
 11
12.18635721998673
 21
13.1620811812098
 31
0.0
  0
LINE
  5
32EB
330
1E
100
AcDbEntity
  8
7
100
AcDbLine
 10
12.18635721998673
 20
13.1620811812098
 30
0.0
 11
12.21129160318883
 21
13.1870155644119
 31
0.0
  0
LINE
  5
32EC
330
1E
100
AcDbEntity
  8
7
100
AcDbLine
 10
12.21129160318883
 20
13.1870155644119
 30
0.0
 11
12.2283519706429
 21
13.21851162740403
 31
0.0
  0
LINE
  5
32ED
330
1E
100
AcDbEntity
  8
7
100
AcDbLine
 10
12.2283519706429
 20
13.21851162740403
 30
0.0
 11
12.23360131447492
 21
13.25394469827017
 31
0.0
  0
LINE
  5
32EE
330
1E
100
AcDbEntity
  8
7
100
AcDbLine
 10
12.00656719374001
 20
13.25394469827017
 30
0.0
 11
12.01181653757203
 21
13.21851162740403
 31
0.0
  0
LINE
  5
32EF
330
1E
100
AcDbEntity
  8
7
100
AcDbLine
 10
12.01181653757203
 20
13.21851162740403
 30
0.0
 11
12.02756456906809
 21
13.1870155644119
 31
0.0
  0
LINE
  5
32F0
330
1E
100
AcDbEntity
  8
7
100
AcDbLine
 10
12.02756456906809
 20
13.1870155644119
 30
0.0
 11
12.05249895227019
 21
13.1620811812098
 31
0.0
  0
LINE
  5
32F1
330
1E
100
AcDbEntity
  8
7
100
AcDbLine
 10
12.05249895227019
 20
13.1620811812098
 30
0.0
 11
12.08399501526232
 21
13.14633314971374
 31
0.0
  0
LINE
  5
32F2
330
1E
100
AcDbEntity
  8
7
100
AcDbLine
 10
12.08399501526232
 20
13.14633314971374
 30
0.0
 11
12.11942808612846
 21
13.14108380588171
 31
0.0
  0
LINE
  5
32F3
330
1E
100
AcDbEntity
  8
7
100
AcDbLine
 10
12.11942808612846
 20
13.14108380588171
 30
0.0
 11
12.1548611569946
 21
13.14633314971374
 31
0.0
  0
LINE
  5
32F4
330
1E
100
AcDbEntity
  8
7
100
AcDbLine
 10
12.1548611569946
 20
13.14633314971374
 30
0.0
 11
12.18635721998673
 21
13.1620811812098
 31
0.0
  0
LINE
  5
32F5
330
1E
100
AcDbEntity
  8
7
100
AcDbLine
 10
12.18635721998673
 20
13.1620811812098
 30
0.0
 11
12.21129160318883
 21
13.1870155644119
 31
0.0
  0
LINE
  5
32F6
330
1E
100
AcDbEntity
  8
7
100
AcDbLine
 10
12.21129160318883
 20
13.1870155644119
 30
0.0
 11
12.22703963468489
 21
13.21851162740403
 31
0.0
  0
LINE
  5
32F7
330
1E
100
AcDbEntity
  8
7
100
AcDbLine
 10
12.23360131447492
 20
13.37336727044865
 30
0.0
 11
12.2283519706429
 21
13.40880034131479
 31
0.0
  0
LINE
  5
32F8
330
1E
100
AcDbEntity
  8
7
100
AcDbLine
 10
12.2283519706429
 20
13.40880034131479
 30
0.0
 11
12.21129160318883
 21
13.44029640430691
 31
0.0
  0
LINE
  5
32F9
330
1E
100
AcDbEntity
  8
7
100
AcDbLine
 10
12.21129160318883
 20
13.44029640430691
 30
0.0
 11
12.18635721998673
 21
13.46523078750901
 31
0.0
  0
LINE
  5
32FA
330
1E
100
AcDbEntity
  8
7
100
AcDbLine
 10
12.18635721998673
 20
13.46523078750901
 30
0.0
 11
12.1548611569946
 21
13.48229115496308
 31
0.0
  0
LINE
  5
32FB
330
1E
100
AcDbEntity
  8
7
100
AcDbLine
 10
12.1548611569946
 20
13.48229115496308
 30
0.0
 11
12.11942808612846
 21
13.4875404987951
 31
0.0
  0
LINE
  5
32FC
330
1E
100
AcDbEntity
  8
7
100
AcDbLine
 10
12.11942808612846
 20
13.4875404987951
 30
0.0
 11
12.08399501526232
 21
13.48229115496308
 31
0.0
  0
LINE
  5
32FD
330
1E
100
AcDbEntity
  8
7
100
AcDbLine
 10
12.08399501526232
 20
13.48229115496308
 30
0.0
 11
12.05249895227019
 21
13.46523078750901
 31
0.0
  0
LINE
  5
32FE
330
1E
100
AcDbEntity
  8
7
100
AcDbLine
 10
12.05249895227019
 20
13.46523078750901
 30
0.0
 11
12.02756456906809
 21
13.44029640430691
 31
0.0
  0
LINE
  5
32FF
330
1E
100
AcDbEntity
  8
7
100
AcDbLine
 10
12.02756456906809
 20
13.44029640430691
 30
0.0
 11
12.01050420161402
 21
13.40880034131479
 31
0.0
  0
LINE
  5
3300
330
1E
100
AcDbEntity
  8
7
100
AcDbLine
 10
12.01050420161402
 20
13.40880034131479
 30
0.0
 11
12.00525485778201
 21
13.37336727044865
 31
0.0
  0
LINE
  5
3301
330
1E
100
AcDbEntity
  8
7
100
AcDbLine
 10
12.23228897851691
 20
13.37336727044865
 30
0.0
 11
12.22703963468489
 21
13.40880034131479
 31
0.0
  0
LINE
  5
3302
330
1E
100
AcDbEntity
  8
7
100
AcDbLine
 10
12.22703963468489
 20
13.40880034131479
 30
0.0
 11
12.21129160318883
 21
13.44029640430691
 31
0.0
  0
LINE
  5
3303
330
1E
100
AcDbEntity
  8
7
100
AcDbLine
 10
12.21129160318883
 20
13.44029640430691
 30
0.0
 11
12.18635721998673
 21
13.46523078750901
 31
0.0
  0
LINE
  5
3304
330
1E
100
AcDbEntity
  8
7
100
AcDbLine
 10
12.18635721998673
 20
13.46523078750901
 30
0.0
 11
12.1548611569946
 21
13.48097881900508
 31
0.0
  0
LINE
  5
3305
330
1E
100
AcDbEntity
  8
7
100
AcDbLine
 10
12.1548611569946
 20
13.48097881900508
 30
0.0
 11
12.11942808612846
 21
13.48622816283709
 31
0.0
  0
LINE
  5
3306
330
1E
100
AcDbEntity
  8
7
100
AcDbLine
 10
12.11942808612846
 20
13.48622816283709
 30
0.0
 11
12.08399501526232
 21
13.48097881900508
 31
0.0
  0
LINE
  5
3307
330
1E
100
AcDbEntity
  8
7
100
AcDbLine
 10
12.08399501526232
 20
13.48097881900508
 30
0.0
 11
12.05249895227019
 21
13.46523078750901
 31
0.0
  0
LINE
  5
3308
330
1E
100
AcDbEntity
  8
7
100
AcDbLine
 10
12.05249895227019
 20
13.46523078750901
 30
0.0
 11
12.02756456906809
 21
13.44029640430691
 31
0.0
  0
LINE
  5
3309
330
1E
100
AcDbEntity
  8
7
100
AcDbLine
 10
12.02756456906809
 20
13.44029640430691
 30
0.0
 11
12.01181653757203
 21
13.40880034131479
 31
0.0
  0
LINE
  5
330A
330
1E
100
AcDbEntity
  8
7
100
AcDbLine
 10
12.01181653757203
 20
13.40880034131479
 30
0.0
 11
12.00656719374001
 21
13.37336727044865
 31
0.0
  0
LINE
  5
330B
330
1E
100
AcDbEntity
  8
7
100
AcDbLine
 10
12.23228897851691
 20
13.37336727044865
 30
0.0
 11
12.23228897851691
 21
13.25394469827017
 31
0.0
  0
LINE
  5
330C
330
1E
100
AcDbEntity
  8
7
100
AcDbLine
 10
12.23228897851691
 20
13.25394469827017
 30
0.0
 11
12.23360131447492
 21
13.25394469827017
 31
0.0
  0
LINE
  5
330D
330
1E
100
AcDbEntity
  8
7
100
AcDbLine
 10
12.23360131447492
 20
13.25394469827017
 30
0.0
 11
12.23360131447492
 21
13.37336727044865
 31
0.0
  0
LINE
  5
330E
330
1E
100
AcDbEntity
  8
7
100
AcDbLine
 10
15.91601601263765
 20
14.64370847779773
 30
0.0
 11
15.93176404413371
 21
14.66470585312581
 31
0.0
  0
LINE
  5
330F
330
1E
100
AcDbEntity
  8
7
100
AcDbLine
 10
15.93176404413371
 20
14.66470585312581
 30
0.0
 11
15.94226273179775
 21
14.67914154866386
 31
0.0
  0
LINE
  5
3310
330
1E
100
AcDbEntity
  8
7
100
AcDbLine
 10
15.94226273179775
 20
14.67914154866386
 30
0.0
 11
15.94619973967177
 21
14.6857032284539
 31
0.0
  0
LINE
  5
3311
330
1E
100
AcDbEntity
  8
7
100
AcDbLine
 10
15.78084540896311
 20
14.461293779635
 30
0.0
 11
15.81234147195523
 21
14.50328853029116
 31
0.0
  0
LINE
  5
3312
330
1E
100
AcDbEntity
  8
7
100
AcDbLine
 10
15.81234147195523
 20
14.50328853029116
 30
0.0
 11
15.84252519898935
 21
14.54397094498933
 31
0.0
  0
LINE
  5
3313
330
1E
100
AcDbEntity
  8
7
100
AcDbLine
 10
15.84252519898935
 20
14.54397094498933
 30
0.0
 11
15.87008425410746
 21
14.58202868777148
 31
0.0
  0
LINE
  5
3314
330
1E
100
AcDbEntity
  8
7
100
AcDbLine
 10
15.87008425410746
 20
14.58202868777148
 30
0.0
 11
15.89501863730957
 21
14.61614942267961
 31
0.0
  0
LINE
  5
3315
330
1E
100
AcDbEntity
  8
7
100
AcDbLine
 10
15.89501863730957
 20
14.61614942267961
 30
0.0
 11
15.91601601263765
 21
14.64370847779773
 31
0.0
  0
LINE
  5
3316
330
1E
100
AcDbEntity
  8
7
100
AcDbLine
 10
12.46063543520983
 20
13.8366218636245
 30
0.0
 11
12.46063543520983
 21
13.8379341995825
 31
0.0
  0
LINE
  5
3317
330
1E
100
AcDbEntity
  8
7
100
AcDbLine
 10
12.46063543520983
 20
13.8379341995825
 30
0.0
 11
12.46194777116783
 21
13.84055887149851
 31
0.0
  0
LINE
  5
3318
330
1E
100
AcDbEntity
  8
7
100
AcDbLine
 10
12.46194777116783
 20
13.84055887149851
 30
0.0
 11
12.46194777116783
 21
13.97572947517305
 31
0.0
  0
LINE
  5
3319
330
1E
100
AcDbEntity
  8
7
100
AcDbLine
 10
11.57218399164027
 20
14.6857032284539
 30
0.0
 11
11.54200026460615
 21
14.67782921270586
 31
0.0
  0
LINE
  5
331A
330
1E
100
AcDbEntity
  8
7
100
AcDbLine
 10
11.54200026460615
 20
14.67782921270586
 30
0.0
 11
11.52100288927807
 21
14.65551950141977
 31
0.0
  0
LINE
  5
331B
330
1E
100
AcDbEntity
  8
7
100
AcDbLine
 10
11.57218399164027
 20
14.6857032284539
 30
0.0
 11
11.57743333547229
 21
14.67914154866386
 31
0.0
  0
LINE
  5
331C
330
1E
100
AcDbEntity
  8
7
100
AcDbLine
 10
11.57743333547229
 20
14.67914154866386
 30
0.0
 11
11.58793202313634
 21
14.66470585312581
 31
0.0
  0
LINE
  5
331D
330
1E
100
AcDbEntity
  8
7
100
AcDbLine
 10
11.58793202313634
 20
14.66470585312581
 30
0.0
 11
11.6036800546324
 21
14.64370847779773
 31
0.0
  0
LINE
  5
331E
330
1E
100
AcDbEntity
  8
7
100
AcDbLine
 10
11.6036800546324
 20
14.64370847779773
 30
0.0
 11
11.62336509400248
 21
14.61614942267961
 31
0.0
  0
LINE
  5
331F
330
1E
100
AcDbEntity
  8
7
100
AcDbLine
 10
11.62336509400248
 20
14.61614942267961
 30
0.0
 11
11.64829947720458
 21
14.58202868777148
 31
0.0
  0
LINE
  5
3320
330
1E
100
AcDbEntity
  8
7
100
AcDbLine
 10
11.64829947720458
 20
14.58202868777148
 30
0.0
 11
11.67585853232269
 21
14.54397094498933
 31
0.0
  0
LINE
  5
3321
330
1E
100
AcDbEntity
  8
7
100
AcDbLine
 10
11.67585853232269
 20
14.54397094498933
 30
0.0
 11
11.70604225935681
 21
14.50328853029116
 31
0.0
  0
LINE
  5
3322
330
1E
100
AcDbEntity
  8
7
100
AcDbLine
 10
11.70604225935681
 20
14.50328853029116
 30
0.0
 11
11.73753832234893
 21
14.461293779635
 31
0.0
  0
LINE
  5
3323
330
1E
100
AcDbEntity
  8
7
100
AcDbLine
 10
12.24147533022295
 20
13.63583446204969
 30
0.0
 11
12.24016299426494
 21
13.63452212609169
 31
0.0
  0
LINE
  5
3324
330
1E
100
AcDbEntity
  8
7
100
AcDbLine
 10
12.24016299426494
 20
13.63452212609169
 30
0.0
 11
12.24016299426494
 21
13.63189745417568
 31
0.0
  0
LINE
  5
3325
330
1E
100
AcDbEntity
  8
7
100
AcDbLine
 10
12.24016299426494
 20
13.63189745417568
 30
0.0
 11
12.24016299426494
 21
12.99541451454313
 31
0.0
  0
LINE
  5
3326
330
1E
100
AcDbEntity
  8
7
100
AcDbLine
 10
11.99738084203397
 20
12.99147750666912
 30
0.0
 11
11.99738084203397
 21
12.99278984262712
 31
0.0
  0
LINE
  5
3327
330
1E
100
AcDbEntity
  8
7
100
AcDbLine
 10
11.99738084203397
 20
12.99278984262712
 30
0.0
 11
11.99738084203397
 21
12.99541451454313
 31
0.0
  0
LINE
  5
3328
330
1E
100
AcDbEntity
  8
7
100
AcDbLine
 10
11.99738084203397
 20
12.99541451454313
 30
0.0
 11
11.99738084203397
 21
13.63189745417568
 31
0.0
  0
LINE
  5
3329
330
1E
100
AcDbEntity
  8
7
100
AcDbLine
 10
12.18635721998673
 20
13.65814417333578
 30
0.0
 11
12.18898189190274
 21
13.65945650929379
 31
0.0
  0
LINE
  5
332A
330
1E
100
AcDbEntity
  8
7
100
AcDbLine
 10
12.18898189190274
 20
13.65945650929379
 30
0.0
 11
12.19029422786075
 21
13.65945650929379
 31
0.0
  0
LINE
  5
332B
330
1E
100
AcDbEntity
  8
7
100
AcDbLine
 10
11.73753832234893
 20
14.461293779635
 30
0.0
 11
11.69423123573476
 21
14.49147750666911
 31
0.0
  0
LINE
  5
332C
330
1E
100
AcDbEntity
  8
7
100
AcDbLine
 10
11.69423123573476
 20
14.49147750666911
 30
0.0
 11
11.6535488210366
 21
14.52166123370324
 31
0.0
  0
LINE
  5
332D
330
1E
100
AcDbEntity
  8
7
100
AcDbLine
 10
11.6535488210366
 20
14.52166123370324
 30
0.0
 11
11.61549107825445
 21
14.54922028882135
 31
0.0
  0
LINE
  5
332E
330
1E
100
AcDbEntity
  8
7
100
AcDbLine
 10
11.61549107825445
 20
14.54922028882135
 30
0.0
 11
11.58268267930431
 21
14.57415467202345
 31
0.0
  0
LINE
  5
332F
330
1E
100
AcDbEntity
  8
7
100
AcDbLine
 10
11.58268267930431
 20
14.57415467202345
 30
0.0
 11
11.5538112882282
 21
14.59515204735153
 31
0.0
  0
LINE
  5
3330
330
1E
100
AcDbEntity
  8
7
100
AcDbLine
 10
11.5538112882282
 20
14.59515204735153
 30
0.0
 11
11.53281391290012
 21
14.61090007884759
 31
0.0
  0
LINE
  5
3331
330
1E
100
AcDbEntity
  8
7
100
AcDbLine
 10
11.53281391290012
 20
14.61090007884759
 30
0.0
 11
11.51837821736206
 21
14.62139876651164
 31
0.0
  0
LINE
  5
3332
330
1E
100
AcDbEntity
  8
7
100
AcDbLine
 10
11.51837821736206
 20
14.62139876651164
 30
0.0
 11
11.51312887353004
 21
14.62533577438565
 31
0.0
  0
LINE
  5
3333
330
1E
100
AcDbEntity
  8
7
100
AcDbLine
 10
16.00656719374001
 20
14.62533577438565
 30
0.0
 11
16.00000551394999
 21
14.62139876651164
 31
0.0
  0
LINE
  5
3334
330
1E
100
AcDbEntity
  8
7
100
AcDbLine
 10
16.00000551394999
 20
14.62139876651164
 30
0.0
 11
15.98556981841193
 21
14.61090007884759
 31
0.0
  0
LINE
  5
3335
330
1E
100
AcDbEntity
  8
7
100
AcDbLine
 10
15.98556981841193
 20
14.61090007884759
 30
0.0
 11
15.96457244308384
 21
14.59515204735153
 31
0.0
  0
LINE
  5
3336
330
1E
100
AcDbEntity
  8
7
100
AcDbLine
 10
15.96457244308384
 20
14.59515204735153
 30
0.0
 11
15.93570105200773
 21
14.57415467202345
 31
0.0
  0
LINE
  5
3337
330
1E
100
AcDbEntity
  8
7
100
AcDbLine
 10
15.93570105200773
 20
14.57415467202345
 30
0.0
 11
15.90289265305759
 21
14.54922028882135
 31
0.0
  0
LINE
  5
3338
330
1E
100
AcDbEntity
  8
7
100
AcDbLine
 10
15.90289265305759
 20
14.54922028882135
 30
0.0
 11
15.86483491027544
 21
14.52166123370324
 31
0.0
  0
LINE
  5
3339
330
1E
100
AcDbEntity
  8
7
100
AcDbLine
 10
15.86483491027544
 20
14.52166123370324
 30
0.0
 11
15.82415249557728
 21
14.49147750666911
 31
0.0
  0
LINE
  5
333A
330
1E
100
AcDbEntity
  8
7
100
AcDbLine
 10
15.82415249557728
 20
14.49147750666911
 30
0.0
 11
15.78084540896311
 21
14.461293779635
 31
0.0
  0
LINE
  5
333B
330
1E
100
AcDbEntity
  8
7
100
AcDbLine
 10
11.50919186565602
 20
14.62927278225967
 30
0.0
 11
11.51444120948804
 21
14.65158249354576
 31
0.0
  0
LINE
  5
333C
330
1E
100
AcDbEntity
  8
7
100
AcDbLine
 10
11.51444120948804
 20
14.65158249354576
 30
0.0
 11
11.52625223311009
 21
14.67126753291584
 31
0.0
  0
LINE
  5
333D
330
1E
100
AcDbEntity
  8
7
100
AcDbLine
 10
11.52625223311009
 20
14.67126753291584
 30
0.0
 11
11.54593727248017
 21
14.68439089249589
 31
0.0
  0
LINE
  5
333E
330
1E
100
AcDbEntity
  8
7
100
AcDbLine
 10
11.54593727248017
 20
14.68439089249589
 30
0.0
 11
11.56955931972426
 21
14.68832790036991
 31
0.0
  0
LINE
  5
333F
330
1E
100
AcDbEntity
  8
7
100
AcDbLine
 10
15.94882441158778
 20
14.68832790036991
 30
0.0
 11
15.97244645883187
 21
14.68439089249589
 31
0.0
  0
LINE
  5
3340
330
1E
100
AcDbEntity
  8
7
100
AcDbLine
 10
15.97244645883187
 20
14.68439089249589
 30
0.0
 11
15.99213149820195
 21
14.67126753291584
 31
0.0
  0
LINE
  5
3341
330
1E
100
AcDbEntity
  8
7
100
AcDbLine
 10
15.99213149820195
 20
14.67126753291584
 30
0.0
 11
16.005254857782
 21
14.65158249354576
 31
0.0
  0
LINE
  5
3342
330
1E
100
AcDbEntity
  8
7
100
AcDbLine
 10
16.005254857782
 20
14.65158249354576
 30
0.0
 11
16.00919186565602
 21
14.62927278225967
 31
0.0
  0
LINE
  5
3343
330
1E
100
AcDbEntity
  8
7
100
AcDbLine
 10
11.51312887353004
 20
12.00197619433316
 30
0.0
 11
11.51312887353004
 21
14.62533577438565
 31
0.0
  0
LINE
  5
3344
330
1E
100
AcDbEntity
  8
7
100
AcDbLine
 10
11.51312887353004
 20
14.62533577438565
 30
0.0
 11
11.50919186565602
 21
14.62927278225967
 31
0.0
  0
LINE
  5
3345
330
1E
100
AcDbEntity
  8
7
100
AcDbLine
 10
11.50919186565602
 20
14.62927278225967
 30
0.0
 11
11.50919186565602
 21
11.99803918645914
 31
0.0
  0
LINE
  5
3346
330
1E
100
AcDbEntity
  8
7
100
AcDbLine
 10
16.00919186565602
 20
11.99803918645914
 30
0.0
 11
16.00919186565602
 21
14.62927278225967
 31
0.0
  0
LINE
  5
3347
330
1E
100
AcDbEntity
  8
7
100
AcDbLine
 10
16.00919186565602
 20
14.62927278225967
 30
0.0
 11
16.00656719374001
 21
14.62533577438565
 31
0.0
  0
LINE
  5
3348
330
1E
100
AcDbEntity
  8
7
100
AcDbLine
 10
16.00656719374001
 20
14.62533577438565
 30
0.0
 11
16.00656719374001
 21
12.00197619433316
 31
0.0
  0
LINE
  5
3349
330
1E
100
AcDbEntity
  8
7
100
AcDbLine
 10
14.81496614387124
 20
13.05971897648539
 30
0.0
 11
14.81496614387124
 21
13.03084758540927
 31
0.0
  0
LINE
  5
334A
330
1E
100
AcDbEntity
  8
7
100
AcDbLine
 10
14.81496614387124
 20
13.03084758540927
 30
0.0
 11
14.81496614387124
 21
13.02559824157725
 31
0.0
  0
LINE
  5
334B
330
1E
100
AcDbEntity
  8
7
100
AcDbLine
 10
14.81496614387124
 20
13.02559824157725
 30
0.0
 11
14.81496614387124
 21
13.00853787412318
 31
0.0
  0
LINE
  5
334C
330
1E
100
AcDbEntity
  8
7
100
AcDbLine
 10
14.81496614387124
 20
13.00853787412318
 30
0.0
 11
14.81365380791324
 21
12.98885283475311
 31
0.0
  0
LINE
  5
334D
330
1E
100
AcDbEntity
  8
7
100
AcDbLine
 10
14.81365380791324
 20
12.98885283475311
 30
0.0
 11
14.81365380791324
 21
12.97835414708907
 31
0.0
  0
LINE
  5
334E
330
1E
100
AcDbEntity
  8
7
100
AcDbLine
 10
14.81365380791324
 20
12.97835414708907
 30
0.0
 11
14.81496614387124
 21
12.96785545942502
 31
0.0
  0
LINE
  5
334F
330
1E
100
AcDbEntity
  8
7
100
AcDbLine
 10
14.81496614387124
 20
12.96785545942502
 30
0.0
 11
14.81496614387124
 21
12.962606115593
 31
0.0
  0
LINE
  5
3350
330
1E
100
AcDbEntity
  8
7
100
AcDbLine
 10
14.81496614387124
 20
12.962606115593
 30
0.0
 11
14.83858819111534
 21
12.95079509197095
 31
0.0
  0
LINE
  5
3351
330
1E
100
AcDbEntity
  8
7
100
AcDbLine
 10
14.60892939846442
 20
12.98885283475311
 30
0.0
 11
14.60892939846442
 21
13.00853787412318
 31
0.0
  0
LINE
  5
3352
330
1E
100
AcDbEntity
  8
7
100
AcDbLine
 10
14.60892939846442
 20
13.00853787412318
 30
0.0
 11
14.60892939846442
 21
13.02559824157725
 31
0.0
  0
LINE
  5
3353
330
1E
100
AcDbEntity
  8
7
100
AcDbLine
 10
14.60892939846442
 20
13.02559824157725
 30
0.0
 11
14.60892939846442
 21
13.03084758540927
 31
0.0
  0
LINE
  5
3354
330
1E
100
AcDbEntity
  8
7
100
AcDbLine
 10
14.58530735122033
 20
12.95079509197095
 30
0.0
 11
14.60892939846442
 21
12.962606115593
 31
0.0
  0
LINE
  5
3355
330
1E
100
AcDbEntity
  8
7
100
AcDbLine
 10
14.60892939846442
 20
12.962606115593
 30
0.0
 11
14.60892939846442
 21
12.96785545942502
 31
0.0
  0
LINE
  5
3356
330
1E
100
AcDbEntity
  8
7
100
AcDbLine
 10
14.60892939846442
 20
12.96785545942502
 30
0.0
 11
14.60892939846442
 21
12.97835414708907
 31
0.0
  0
LINE
  5
3357
330
1E
100
AcDbEntity
  8
7
100
AcDbLine
 10
14.1797955401967
 20
12.962606115593
 30
0.0
 11
14.1797955401967
 21
12.96785545942502
 31
0.0
  0
LINE
  5
3358
330
1E
100
AcDbEntity
  8
7
100
AcDbLine
 10
14.1797955401967
 20
12.96785545942502
 30
0.0
 11
14.1797955401967
 21
12.97835414708907
 31
0.0
  0
LINE
  5
3359
330
1E
100
AcDbEntity
  8
7
100
AcDbLine
 10
14.1797955401967
 20
12.98885283475311
 30
0.0
 11
14.1797955401967
 21
13.00853787412318
 31
0.0
  0
LINE
  5
335A
330
1E
100
AcDbEntity
  8
7
100
AcDbLine
 10
14.1797955401967
 20
13.00853787412318
 30
0.0
 11
14.1797955401967
 21
13.02559824157725
 31
0.0
  0
LINE
  5
335B
330
1E
100
AcDbEntity
  8
7
100
AcDbLine
 10
13.97507113074788
 20
12.98885283475311
 30
0.0
 11
13.97375879478988
 21
13.00853787412318
 31
0.0
  0
LINE
  5
335C
330
1E
100
AcDbEntity
  8
7
100
AcDbLine
 10
13.97375879478988
 20
13.00853787412318
 30
0.0
 11
13.97375879478988
 21
13.02559824157725
 31
0.0
  0
LINE
  5
335D
330
1E
100
AcDbEntity
  8
7
100
AcDbLine
 10
13.97375879478988
 20
13.02559824157725
 30
0.0
 11
13.97375879478988
 21
13.03084758540927
 31
0.0
  0
LINE
  5
335E
330
1E
100
AcDbEntity
  8
7
100
AcDbLine
 10
13.97375879478988
 20
12.962606115593
 30
0.0
 11
13.97375879478988
 21
12.96785545942502
 31
0.0
  0
LINE
  5
335F
330
1E
100
AcDbEntity
  8
7
100
AcDbLine
 10
13.97375879478988
 20
12.96785545942502
 30
0.0
 11
13.97507113074788
 21
12.97835414708907
 31
0.0
  0
LINE
  5
3360
330
1E
100
AcDbEntity
  8
7
100
AcDbLine
 10
13.54462493652216
 20
12.962606115593
 30
0.0
 11
13.54462493652216
 21
12.96785545942502
 31
0.0
  0
LINE
  5
3361
330
1E
100
AcDbEntity
  8
7
100
AcDbLine
 10
13.54462493652216
 20
12.96785545942502
 30
0.0
 11
13.54462493652216
 21
12.97835414708907
 31
0.0
  0
LINE
  5
3362
330
1E
100
AcDbEntity
  8
7
100
AcDbLine
 10
13.54462493652216
 20
12.98885283475311
 30
0.0
 11
13.54462493652216
 21
13.00853787412318
 31
0.0
  0
LINE
  5
3363
330
1E
100
AcDbEntity
  8
7
100
AcDbLine
 10
13.54462493652216
 20
13.00853787412318
 30
0.0
 11
13.54462493652216
 21
13.02559824157725
 31
0.0
  0
LINE
  5
3364
330
1E
100
AcDbEntity
  8
7
100
AcDbLine
 10
13.33990052707334
 20
12.98885283475311
 30
0.0
 11
13.33990052707334
 21
13.00853787412318
 31
0.0
  0
LINE
  5
3365
330
1E
100
AcDbEntity
  8
7
100
AcDbLine
 10
13.33990052707334
 20
13.00853787412318
 30
0.0
 11
13.33858819111534
 21
13.02559824157725
 31
0.0
  0
LINE
  5
3366
330
1E
100
AcDbEntity
  8
7
100
AcDbLine
 10
13.33858819111534
 20
13.02559824157725
 30
0.0
 11
13.33858819111534
 21
13.03084758540927
 31
0.0
  0
LINE
  5
3367
330
1E
100
AcDbEntity
  8
7
100
AcDbLine
 10
13.33858819111534
 20
12.962606115593
 30
0.0
 11
13.33858819111534
 21
12.96785545942502
 31
0.0
  0
LINE
  5
3368
330
1E
100
AcDbEntity
  8
7
100
AcDbLine
 10
13.33858819111534
 20
12.96785545942502
 30
0.0
 11
13.33990052707334
 21
12.97835414708907
 31
0.0
  0
LINE
  5
3369
330
1E
100
AcDbEntity
  8
7
100
AcDbLine
 10
12.90945433284762
 20
12.962606115593
 30
0.0
 11
12.90945433284762
 21
12.96785545942502
 31
0.0
  0
LINE
  5
336A
330
1E
100
AcDbEntity
  8
7
100
AcDbLine
 10
12.90945433284762
 20
12.96785545942502
 30
0.0
 11
12.90945433284762
 21
12.97835414708907
 31
0.0
  0
LINE
  5
336B
330
1E
100
AcDbEntity
  8
7
100
AcDbLine
 10
12.90945433284762
 20
12.98885283475311
 30
0.0
 11
12.90945433284762
 21
13.00853787412318
 31
0.0
  0
LINE
  5
336C
330
1E
100
AcDbEntity
  8
7
100
AcDbLine
 10
12.90945433284762
 20
13.00853787412318
 30
0.0
 11
12.90945433284762
 21
13.02559824157725
 31
0.0
  0
LINE
  5
336D
330
1E
100
AcDbEntity
  8
7
100
AcDbLine
 10
12.7034175874408
 20
13.02559824157725
 30
0.0
 11
12.7047299233988
 21
13.00853787412318
 31
0.0
  0
LINE
  5
336E
330
1E
100
AcDbEntity
  8
7
100
AcDbLine
 10
12.7047299233988
 20
13.00853787412318
 30
0.0
 11
12.7047299233988
 21
12.98885283475311
 31
0.0
  0
LINE
  5
336F
330
1E
100
AcDbEntity
  8
7
100
AcDbLine
 10
12.7047299233988
 20
12.97835414708907
 30
0.0
 11
12.7047299233988
 21
12.96785545942502
 31
0.0
  0
LINE
  5
3370
330
1E
100
AcDbEntity
  8
7
100
AcDbLine
 10
12.7047299233988
 20
12.96785545942502
 30
0.0
 11
12.7034175874408
 21
12.962606115593
 31
0.0
  0
LINE
  5
3371
330
1E
100
AcDbEntity
  8
7
100
AcDbLine
 10
16.00919186565602
 20
11.99803918645914
 30
0.0
 11
16.005254857782
 21
11.97572947517305
 31
0.0
  0
LINE
  5
3372
330
1E
100
AcDbEntity
  8
7
100
AcDbLine
 10
16.005254857782
 20
11.97572947517305
 30
0.0
 11
15.99213149820195
 21
11.95604443580297
 31
0.0
  0
LINE
  5
3373
330
1E
100
AcDbEntity
  8
7
100
AcDbLine
 10
15.99213149820195
 20
11.95604443580297
 30
0.0
 11
15.97244645883187
 21
11.94292107622292
 31
0.0
  0
LINE
  5
3374
330
1E
100
AcDbEntity
  8
7
100
AcDbLine
 10
15.97244645883187
 20
11.94292107622292
 30
0.0
 11
15.94882441158778
 21
11.93898406834891
 31
0.0
  0
LINE
  5
3375
330
1E
100
AcDbEntity
  8
7
100
AcDbLine
 10
11.52625223311009
 20
11.95604443580297
 30
0.0
 11
11.54593727248017
 21
11.94292107622292
 31
0.0
  0
LINE
  5
3376
330
1E
100
AcDbEntity
  8
7
100
AcDbLine
 10
11.54593727248017
 20
11.94292107622292
 30
0.0
 11
11.56955931972426
 21
11.93898406834891
 31
0.0
  0
LINE
  5
3377
330
1E
100
AcDbEntity
  8
7
100
AcDbLine
 10
11.50919186565602
 20
11.99803918645914
 30
0.0
 11
11.51444120948804
 21
11.97572947517305
 31
0.0
  0
LINE
  5
3378
330
1E
100
AcDbEntity
  8
7
100
AcDbLine
 10
11.51444120948804
 20
11.97572947517305
 30
0.0
 11
11.52625223311009
 21
11.95604443580297
 31
0.0
  0
LINE
  5
3379
330
1E
100
AcDbEntity
  8
7
100
AcDbLine
 10
11.56955931972426
 20
11.93898406834891
 30
0.0
 11
15.94882441158778
 21
11.93898406834891
 31
0.0
  0
LINE
  5
337A
330
1E
100
AcDbEntity
  8
7
100
AcDbLine
 10
15.94882441158778
 20
11.93898406834891
 30
0.0
 11
15.94619973967177
 21
11.94160874026492
 31
0.0
  0
LINE
  5
337B
330
1E
100
AcDbEntity
  8
7
100
AcDbLine
 10
15.93570105200773
 20
12.05315729669536
 30
0.0
 11
15.96457244308384
 21
12.03215992136728
 31
0.0
  0
LINE
  5
337C
330
1E
100
AcDbEntity
  8
7
100
AcDbLine
 10
15.96457244308384
 20
12.03215992136728
 30
0.0
 11
15.98556981841193
 21
12.01641188987122
 31
0.0
  0
LINE
  5
337D
330
1E
100
AcDbEntity
  8
7
100
AcDbLine
 10
15.98556981841193
 20
12.01641188987122
 30
0.0
 11
16.00000551394999
 21
12.00591320220717
 31
0.0
  0
LINE
  5
337E
330
1E
100
AcDbEntity
  8
7
100
AcDbLine
 10
16.00000551394999
 20
12.00591320220717
 30
0.0
 11
16.00656719374001
 21
12.00197619433316
 31
0.0
  0
LINE
  5
337F
330
1E
100
AcDbEntity
  8
7
100
AcDbLine
 10
15.78084540896311
 20
12.16601818908382
 30
0.0
 11
15.82415249557728
 21
12.13583446204969
 31
0.0
  0
LINE
  5
3380
330
1E
100
AcDbEntity
  8
7
100
AcDbLine
 10
15.82415249557728
 20
12.13583446204969
 30
0.0
 11
15.86483491027544
 21
12.10565073501557
 31
0.0
  0
LINE
  5
3381
330
1E
100
AcDbEntity
  8
7
100
AcDbLine
 10
15.86483491027544
 20
12.10565073501557
 30
0.0
 11
15.90289265305759
 21
12.07809167989746
 31
0.0
  0
LINE
  5
3382
330
1E
100
AcDbEntity
  8
7
100
AcDbLine
 10
15.90289265305759
 20
12.07809167989746
 30
0.0
 11
15.93570105200773
 21
12.05315729669536
 31
0.0
  0
LINE
  5
3383
330
1E
100
AcDbEntity
  8
7
100
AcDbLine
 10
15.94619973967177
 20
11.94160874026492
 30
0.0
 11
15.97638346670589
 21
11.94948275601295
 31
0.0
  0
LINE
  5
3384
330
1E
100
AcDbEntity
  8
7
100
AcDbLine
 10
15.97638346670589
 20
11.94948275601295
 30
0.0
 11
15.99869317799198
 21
11.97179246729904
 31
0.0
  0
LINE
  5
3385
330
1E
100
AcDbEntity
  8
7
100
AcDbLine
 10
15.99869317799198
 20
11.97179246729904
 30
0.0
 11
16.00656719374001
 21
12.00197619433316
 31
0.0
  0
LINE
  5
3386
330
1E
100
AcDbEntity
  8
7
100
AcDbLine
 10
15.87008425410746
 20
12.04528328094733
 30
0.0
 11
15.84252519898935
 21
12.08334102372949
 31
0.0
  0
LINE
  5
3387
330
1E
100
AcDbEntity
  8
7
100
AcDbLine
 10
15.84252519898935
 20
12.08334102372949
 30
0.0
 11
15.81234147195523
 21
12.12402343842765
 31
0.0
  0
LINE
  5
3388
330
1E
100
AcDbEntity
  8
7
100
AcDbLine
 10
15.81234147195523
 20
12.12402343842765
 30
0.0
 11
15.78084540896311
 21
12.16601818908382
 31
0.0
  0
LINE
  5
3389
330
1E
100
AcDbEntity
  8
7
100
AcDbLine
 10
15.94619973967177
 20
11.94160874026492
 30
0.0
 11
15.94226273179775
 21
11.94817042005494
 31
0.0
  0
LINE
  5
338A
330
1E
100
AcDbEntity
  8
7
100
AcDbLine
 10
15.94226273179775
 20
11.94817042005494
 30
0.0
 11
15.93176404413371
 21
11.962606115593
 31
0.0
  0
LINE
  5
338B
330
1E
100
AcDbEntity
  8
7
100
AcDbLine
 10
15.93176404413371
 20
11.962606115593
 30
0.0
 11
15.91601601263765
 21
11.98360349092108
 31
0.0
  0
LINE
  5
338C
330
1E
100
AcDbEntity
  8
7
100
AcDbLine
 10
15.91601601263765
 20
11.98360349092108
 30
0.0
 11
15.89501863730957
 21
12.0111625460392
 31
0.0
  0
LINE
  5
338D
330
1E
100
AcDbEntity
  8
7
100
AcDbLine
 10
15.89501863730957
 20
12.0111625460392
 30
0.0
 11
15.87008425410746
 21
12.04528328094733
 31
0.0
  0
LINE
  5
338E
330
1E
100
AcDbEntity
  8
7
100
AcDbLine
 10
11.6036800546324
 20
11.98360349092108
 30
0.0
 11
11.62336509400248
 21
12.0111625460392
 31
0.0
  0
LINE
  5
338F
330
1E
100
AcDbEntity
  8
7
100
AcDbLine
 10
11.62336509400248
 20
12.0111625460392
 30
0.0
 11
11.64829947720458
 21
12.04528328094733
 31
0.0
  0
LINE
  5
3390
330
1E
100
AcDbEntity
  8
7
100
AcDbLine
 10
11.64829947720458
 20
12.04528328094733
 30
0.0
 11
11.67585853232269
 21
12.08334102372949
 31
0.0
  0
LINE
  5
3391
330
1E
100
AcDbEntity
  8
7
100
AcDbLine
 10
11.67585853232269
 20
12.08334102372949
 30
0.0
 11
11.70604225935681
 21
12.12402343842765
 31
0.0
  0
LINE
  5
3392
330
1E
100
AcDbEntity
  8
7
100
AcDbLine
 10
11.70604225935681
 20
12.12402343842765
 30
0.0
 11
11.73753832234893
 21
12.16601818908382
 31
0.0
  0
LINE
  5
3393
330
1E
100
AcDbEntity
  8
7
100
AcDbLine
 10
11.57218399164027
 20
11.94160874026492
 30
0.0
 11
11.57743333547229
 21
11.94817042005494
 31
0.0
  0
LINE
  5
3394
330
1E
100
AcDbEntity
  8
7
100
AcDbLine
 10
11.57743333547229
 20
11.94817042005494
 30
0.0
 11
11.58793202313634
 21
11.962606115593
 31
0.0
  0
LINE
  5
3395
330
1E
100
AcDbEntity
  8
7
100
AcDbLine
 10
11.58793202313634
 20
11.962606115593
 30
0.0
 11
11.6036800546324
 21
11.98360349092108
 31
0.0
  0
LINE
  5
3396
330
1E
100
AcDbEntity
  8
7
100
AcDbLine
 10
11.57218399164027
 20
11.94160874026492
 30
0.0
 11
11.54200026460615
 21
11.94948275601295
 31
0.0
  0
LINE
  5
3397
330
1E
100
AcDbEntity
  8
7
100
AcDbLine
 10
11.54200026460615
 20
11.94948275601295
 30
0.0
 11
11.52100288927807
 21
11.97179246729904
 31
0.0
  0
LINE
  5
3398
330
1E
100
AcDbEntity
  8
7
100
AcDbLine
 10
11.52100288927807
 20
11.97179246729904
 30
0.0
 11
11.51312887353004
 21
12.00197619433316
 31
0.0
  0
LINE
  5
3399
330
1E
100
AcDbEntity
  8
7
100
AcDbLine
 10
11.61549107825445
 20
12.07809167989746
 30
0.0
 11
11.58268267930431
 21
12.05315729669536
 31
0.0
  0
LINE
  5
339A
330
1E
100
AcDbEntity
  8
7
100
AcDbLine
 10
11.58268267930431
 20
12.05315729669536
 30
0.0
 11
11.5538112882282
 21
12.03215992136728
 31
0.0
  0
LINE
  5
339B
330
1E
100
AcDbEntity
  8
7
100
AcDbLine
 10
11.5538112882282
 20
12.03215992136728
 30
0.0
 11
11.53281391290012
 21
12.01641188987122
 31
0.0
  0
LINE
  5
339C
330
1E
100
AcDbEntity
  8
7
100
AcDbLine
 10
11.53281391290012
 20
12.01641188987122
 30
0.0
 11
11.51837821736206
 21
12.00591320220717
 31
0.0
  0
LINE
  5
339D
330
1E
100
AcDbEntity
  8
7
100
AcDbLine
 10
11.51837821736206
 20
12.00591320220717
 30
0.0
 11
11.51312887353004
 21
12.00197619433316
 31
0.0
  0
LINE
  5
339E
330
1E
100
AcDbEntity
  8
7
100
AcDbLine
 10
11.73753832234893
 20
12.16601818908382
 30
0.0
 11
11.69423123573476
 21
12.13583446204969
 31
0.0
  0
LINE
  5
339F
330
1E
100
AcDbEntity
  8
7
100
AcDbLine
 10
11.69423123573476
 20
12.13583446204969
 30
0.0
 11
11.6535488210366
 21
12.10565073501557
 31
0.0
  0
LINE
  5
33A0
330
1E
100
AcDbEntity
  8
7
100
AcDbLine
 10
11.6535488210366
 20
12.10565073501557
 30
0.0
 11
11.61549107825445
 21
12.07809167989746
 31
0.0
  0
LINE
  5
33A1
330
1E
100
AcDbEntity
  8
7
100
AcDbLine
 10
15.47113412287387
 20
13.63583446204969
 30
0.0
 11
15.52231522523607
 21
13.63583446204969
 31
0.0
  0
LINE
  5
33A2
330
1E
100
AcDbEntity
  8
7
100
AcDbLine
 10
15.52231522523607
 20
13.63583446204969
 30
0.0
 11
15.52231522523607
 21
12.99147750666912
 31
0.0
  0
LINE
  5
33A3
330
1E
100
AcDbEntity
  8
7
100
AcDbLine
 10
15.52231522523607
 20
12.99147750666912
 30
0.0
 11
15.47113412287387
 21
12.99147750666912
 31
0.0
  0
LINE
  5
33A4
330
1E
100
AcDbEntity
  8
7
100
AcDbLine
 10
15.47113412287387
 20
12.99147750666912
 30
0.0
 11
15.47113412287387
 21
12.96785545942502
 31
0.0
  0
LINE
  5
33A5
330
1E
100
AcDbEntity
  8
7
100
AcDbLine
 10
15.47113412287387
 20
12.96785545942502
 30
0.0
 11
15.3294018394093
 21
12.96785545942502
 31
0.0
  0
LINE
  5
33A6
330
1E
100
AcDbEntity
  8
7
100
AcDbLine
 10
15.3294018394093
 20
12.96785545942502
 30
0.0
 11
15.3294018394093
 21
12.99147750666912
 31
0.0
  0
LINE
  5
33A7
330
1E
100
AcDbEntity
  8
7
100
AcDbLine
 10
15.3294018394093
 20
12.99147750666912
 30
0.0
 11
15.2782207370471
 21
12.99147750666912
 31
0.0
  0
LINE
  5
33A8
330
1E
100
AcDbEntity
  8
7
100
AcDbLine
 10
15.2782207370471
 20
12.99147750666912
 30
0.0
 11
15.2782207370471
 21
13.63583446204969
 31
0.0
  0
LINE
  5
33A9
330
1E
100
AcDbEntity
  8
7
100
AcDbLine
 10
15.2782207370471
 20
13.63583446204969
 30
0.0
 11
15.3294018394093
 21
13.63583446204969
 31
0.0
  0
LINE
  5
33AA
330
1E
100
AcDbEntity
  8
7
100
AcDbLine
 10
15.3294018394093
 20
13.63583446204969
 30
0.0
 11
15.3294018394093
 21
13.65945650929379
 31
0.0
  0
LINE
  5
33AB
330
1E
100
AcDbEntity
  8
7
100
AcDbLine
 10
15.3294018394093
 20
13.65945650929379
 30
0.0
 11
15.47113412287387
 21
13.65945650929379
 31
0.0
  0
LINE
  5
33AC
330
1E
100
AcDbEntity
  8
7
100
AcDbLine
 10
13.83071417536731
 20
13.01509955391321
 30
0.0
 11
13.68766955594473
 21
13.01509955391321
 31
0.0
  0
LINE
  5
33AD
330
1E
100
AcDbEntity
  8
7
100
AcDbLine
 10
13.68766955594473
 20
13.01509955391321
 30
0.0
 11
13.68766955594473
 21
12.94948275601295
 31
0.0
  0
LINE
  5
33AE
330
1E
100
AcDbEntity
  8
7
100
AcDbLine
 10
13.68766955594473
 20
12.94948275601295
 30
0.0
 11
13.19554357169276
 21
12.94948275601295
 31
0.0
  0
LINE
  5
33AF
330
1E
100
AcDbEntity
  8
7
100
AcDbLine
 10
14.32284015961927
 20
13.01509955391321
 30
0.0
 11
14.32284015961927
 21
12.94948275601295
 31
0.0
  0
LINE
  5
33B0
330
1E
100
AcDbEntity
  8
7
100
AcDbLine
 10
14.32284015961927
 20
12.94948275601295
 30
0.0
 11
13.83071417536731
 21
12.94948275601295
 31
0.0
  0
LINE
  5
33B1
330
1E
100
AcDbEntity
  8
7
100
AcDbLine
 10
13.05249895227019
 20
13.01509955391321
 30
0.0
 11
13.05249895227019
 21
12.94948275601295
 31
0.0
  0
LINE
  5
33B2
330
1E
100
AcDbEntity
  8
7
100
AcDbLine
 10
13.05249895227019
 20
12.94948275601295
 30
0.0
 11
12.56037296801822
 21
12.94948275601295
 31
0.0
  0
LINE
  5
33B3
330
1E
100
AcDbEntity
  8
7
100
AcDbLine
 10
12.56037296801822
 20
12.94948275601295
 30
0.0
 11
12.56037296801822
 21
13.01509955391321
 31
0.0
  0
LINE
  5
33B4
330
1E
100
AcDbEntity
  8
7
100
AcDbLine
 10
12.56037296801822
 20
13.01509955391321
 30
0.0
 11
12.49344383415996
 21
13.01509955391321
 31
0.0
  0
LINE
  5
33B5
330
1E
100
AcDbEntity
  8
7
100
AcDbLine
 10
12.48425748245392
 20
13.78544076126229
 30
0.0
 11
12.48425748245392
 21
13.8366218636245
 31
0.0
  0
LINE
  5
33B6
330
1E
100
AcDbEntity
  8
7
100
AcDbLine
 10
12.48425748245392
 20
13.8366218636245
 30
0.0
 11
12.46063543520983
 21
13.8366218636245
 31
0.0
  0
LINE
  5
33B7
330
1E
100
AcDbEntity
  8
7
100
AcDbLine
 10
12.46063543520983
 20
13.8366218636245
 30
0.0
 11
12.46063543520983
 21
13.97835414708906
 31
0.0
  0
LINE
  5
33B8
330
1E
100
AcDbEntity
  8
7
100
AcDbLine
 10
12.46063543520983
 20
13.97835414708906
 30
0.0
 11
12.48425748245392
 21
13.97835414708906
 31
0.0
  0
LINE
  5
33B9
330
1E
100
AcDbEntity
  8
7
100
AcDbLine
 10
12.48425748245392
 20
13.97835414708906
 30
0.0
 11
12.48425748245392
 21
14.02953524945127
 31
0.0
  0
LINE
  5
33BA
330
1E
100
AcDbEntity
  8
7
100
AcDbLine
 10
15.05774829610222
 20
13.8366218636245
 30
0.0
 11
15.03412624885812
 21
13.8366218636245
 31
0.0
  0
LINE
  5
33BB
330
1E
100
AcDbEntity
  8
7
100
AcDbLine
 10
15.03412624885812
 20
13.8366218636245
 30
0.0
 11
15.03412624885812
 21
13.78544076126229
 31
0.0
  0
LINE
  5
33BC
330
1E
100
AcDbEntity
  8
7
100
AcDbLine
 10
15.03412624885812
 20
13.78544076126229
 30
0.0
 11
12.48425748245392
 21
13.78544076126229
 31
0.0
  0
LINE
  5
33BD
330
1E
100
AcDbEntity
  8
7
100
AcDbLine
 10
12.48425748245392
 20
14.02953524945127
 30
0.0
 11
15.03412624885812
 21
14.02953524945127
 31
0.0
  0
LINE
  5
33BE
330
1E
100
AcDbEntity
  8
7
100
AcDbLine
 10
15.03412624885812
 20
14.02953524945127
 30
0.0
 11
15.03412624885812
 21
13.97835414708906
 31
0.0
  0
LINE
  5
33BF
330
1E
100
AcDbEntity
  8
7
100
AcDbLine
 10
15.03412624885812
 20
13.97835414708906
 30
0.0
 11
15.05774829610222
 21
13.97835414708906
 31
0.0
  0
LINE
  5
33C0
330
1E
100
AcDbEntity
  8
7
100
AcDbLine
 10
11.73753832234893
 20
14.461293779635
 30
0.0
 11
11.73753832234893
 21
12.16601818908382
 31
0.0
  0
LINE
  5
33C1
330
1E
100
AcDbEntity
  8
7
100
AcDbLine
 10
11.73753832234893
 20
12.16601818908382
 30
0.0
 11
15.78084540896311
 21
12.16601818908382
 31
0.0
  0
LINE
  5
33C2
330
1E
100
AcDbEntity
  8
7
100
AcDbLine
 10
15.78084540896311
 20
12.16601818908382
 30
0.0
 11
15.78084540896311
 21
14.461293779635
 31
0.0
  0
LINE
  5
33C3
330
1E
100
AcDbEntity
  8
7
100
AcDbLine
 10
15.78084540896311
 20
14.461293779635
 30
0.0
 11
11.73753832234893
 21
14.461293779635
 31
0.0
  0
ENDSEC
  0
SECTION
  2
OBJECTS
  0
DICTIONARY
  5
C
330
0
100
AcDbDictionary
  3
ACAD_GROUP
350
D
  3
ACAD_MLINESTYLE
350
16
  3
ACAD_PLOTSETTINGS
350
18
  3
ACAD_LAYOUT
350
19
1001
ACAD
1000
TREAT_AS_HARD
1070
     0
  0
DICTIONARY
  5
45B6
330
1E
100
AcDbDictionary
  3
ACAD_LAYOUTSELFREF
350
45B7
  0
DICTIONARY
  5
45B4
330
1A
100
AcDbDictionary
  3
ACAD_LAYOUTSELFREF
350
45B5
  0
DICTIONARY
  5
D
102
{ACAD_REACTORS
330
C
102
}
330
C
100
AcDbDictionary
1001
ACAD
1000
TREAT_AS_HARD
1070
     0
  0
DICTIONARY
  5
16
102
{ACAD_REACTORS
330
C
102
}
330
C
100
AcDbDictionary
  3
STANDARD
350
17
1001
ACAD
1000
TREAT_AS_HARD
1070
     0
  0
DICTIONARY
  5
18
102
{ACAD_REACTORS
330
C
102
}
330
C
100
AcDbDictionary
1001
ACAD
1000
TREAT_AS_HARD
1070
     0
  0
DICTIONARY
  5
19
102
{ACAD_REACTORS
330
C
102
}
330
C
100
AcDbDictionary
1001
ACAD
1000
TREAT_AS_HARD
1070
     0
  0
XRECORD
  5
45B7
102
{ACAD_REACTORS
330
45B6
102
}
330
45B6
100
AcDbXrecord
340
1E
  0
XRECORD
  5
45B5
102
{ACAD_REACTORS
330
45B4
102
}
330
45B4
100
AcDbXrecord
340
1A
  0
MLINESTYLE
  5
17
102
{ACAD_REACTORS
330
16
102
}
330
16
100
AcDbMlineStyle
  2
STANDARD
 70
     0
  3

 62
   256
 51
90.0
 52
90.0
 71
     2
 49
0.5
 62
   256
  6
BYLAYER
 49
-0.5
 62
   256
  6
BYLAYER
  0
ENDSEC
  0
EOF
