  0
SECTION
  2
HEADER
  9
$ACADVER
  1
AC1012
  9
$DWGCODEPAGE
  3
ANSI_1252
  9
$INSBASE
 10
0.0
 20
0.0
 30
0.0
  9
$EXTMIN
 10
4.105773958500677
 20
7.411376982707736
 30
-0.0000000000112498
  9
$EXTMAX
 10
7.199340842663474
 20
8.986541768985965
 30
0.0000000000002956
  9
$LIMMIN
 10
0.0
 20
0.0
  9
$LIMMAX
 10
12.0
 20
9.0
  9
$ORTHOMODE
 70
     0
  9
$REGENMODE
 70
     1
  9
$FILLMODE
 70
     1
  9
$QTEXTMODE
 70
     0
  9
$MIRRTEXT
 70
     1
  9
$DRAGMODE
 70
     2
  9
$LTSCALE
 40
1.0
  9
$OSMODE
 70
   547
  9
$ATTMODE
 70
     1
  9
$TEXTSIZE
 40
0.2
  9
$TRACEWID
 40
0.05
  9
$TEXTSTYLE
  7
STANDARD
  9
$CLAYER
  8
0
  9
$CELTYPE
  6
BYLAYER
  9
$CECOLOR
 62
   256
  9
$CELTSCALE
 40
1.0
  9
$DELOBJ
 70
     1
  9
$DISPSILH
 70
     0
  9
$DIMSCALE
 40
1.0
  9
$DIMASZ
 40
0.18
  9
$DIMEXO
 40
0.0625
  9
$DIMDLI
 40
0.38
  9
$DIMRND
 40
0.0
  9
$DIMDLE
 40
0.0
  9
$DIMEXE
 40
0.18
  9
$DIMTP
 40
0.0
  9
$DIMTM
 40
0.0
  9
$DIMTXT
 40
0.18
  9
$DIMCEN
 40
0.09
  9
$DIMTSZ
 40
0.0
  9
$DIMTOL
 70
     0
  9
$DIMLIM
 70
     0
  9
$DIMTIH
 70
     1
  9
$DIMTOH
 70
     1
  9
$DIMSE1
 70
     0
  9
$DIMSE2
 70
     0
  9
$DIMTAD
 70
     0
  9
$DIMZIN
 70
     0
  9
$DIMBLK
  1

  9
$DIMASO
 70
     1
  9
$DIMSHO
 70
     1
  9
$DIMPOST
  1

  9
$DIMAPOST
  1

  9
$DIMALT
 70
     0
  9
$DIMALTD
 70
     2
  9
$DIMALTF
 40
25.4
  9
$DIMLFAC
 40
1.0
  9
$DIMTOFL
 70
     0
  9
$DIMTVP
 40
0.0
  9
$DIMTIX
 70
     0
  9
$DIMSOXD
 70
     0
  9
$DIMSAH
 70
     0
  9
$DIMBLK1
  1

  9
$DIMBLK2
  1

  9
$DIMSTYLE
  2
STANDARD
  9
$DIMCLRD
 70
     0
  9
$DIMCLRE
 70
     0
  9
$DIMCLRT
 70
     0
  9
$DIMTFAC
 40
1.0
  9
$DIMGAP
 40
0.09
  9
$DIMJUST
 70
     0
  9
$DIMSD1
 70
     0
  9
$DIMSD2
 70
     0
  9
$DIMTOLJ
 70
     1
  9
$DIMTZIN
 70
     0
  9
$DIMALTZ
 70
     0
  9
$DIMALTTZ
 70
     0
  9
$DIMFIT
 70
     5
  9
$DIMUPT
 70
     0
  9
$DIMUNIT
 70
     2
  9
$DIMDEC
 70
     4
  9
$DIMTDEC
 70
     4
  9
$DIMALTU
 70
     2
  9
$DIMALTTD
 70
     2
  9
$DIMTXSTY
  7
STANDARD
  9
$DIMAUNIT
 70
     0
  9
$LUNITS
 70
     2
  9
$LUPREC
 70
     4
  9
$SKETCHINC
 40
0.1
  9
$FILLETRAD
 40
0.0
  9
$AUNITS
 70
     0
  9
$AUPREC
 70
     0
  9
$MENU
  1
acad
  9
$ELEVATION
 40
0.0
  9
$PELEVATION
 40
0.0
  9
$THICKNESS
 40
0.0
  9
$LIMCHECK
 70
     0
  9
$BLIPMODE
 70
     0
  9
$CHAMFERA
 40
0.0
  9
$CHAMFERB
 40
0.0
  9
$CHAMFERC
 40
0.0
  9
$CHAMFERD
 40
0.0
  9
$SKPOLY
 70
     0
  9
$TDCREATE
 40
2451900.521979166
  9
$TDUPDATE
 40
2453945.582540543
  9
$TDINDWG
 40
0.0074790278
  9
$TDUSRTIMER
 40
0.0074790278
  9
$USRTIMER
 70
     1
  9
$ANGBASE
 50
0.0
  9
$ANGDIR
 70
     0
  9
$PDMODE
 70
     0
  9
$PDSIZE
 40
0.0
  9
$PLINEWID
 40
0.0
  9
$COORDS
 70
     1
  9
$SPLFRAME
 70
     0
  9
$SPLINETYPE
 70
     6
  9
$SPLINESEGS
 70
     8
  9
$ATTDIA
 70
     0
  9
$ATTREQ
 70
     1
  9
$HANDLING
 70
  4097
  9
$HANDSEED
  5
3B61
  9
$SURFTAB1
 70
     6
  9
$SURFTAB2
 70
     6
  9
$SURFTYPE
 70
     6
  9
$SURFU
 70
     6
  9
$SURFV
 70
     6
  9
$UCSNAME
  2

  9
$UCSORG
 10
0.0
 20
0.0
 30
0.0
  9
$UCSXDIR
 10
1.0
 20
0.0
 30
0.0
  9
$UCSYDIR
 10
0.0
 20
1.0
 30
0.0
  9
$PUCSNAME
  2

  9
$PUCSORG
 10
0.0
 20
0.0
 30
0.0
  9
$PUCSXDIR
 10
1.0
 20
0.0
 30
0.0
  9
$PUCSYDIR
 10
0.0
 20
1.0
 30
0.0
  9
$USERI1
 70
     0
  9
$USERI2
 70
     0
  9
$USERI3
 70
     0
  9
$USERI4
 70
     0
  9
$USERI5
 70
     0
  9
$USERR1
 40
0.0
  9
$USERR2
 40
0.0
  9
$USERR3
 40
0.0
  9
$USERR4
 40
0.0
  9
$USERR5
 40
0.0
  9
$WORLDVIEW
 70
     1
  9
$SHADEDGE
 70
     3
  9
$SHADEDIF
 70
    70
  9
$TILEMODE
 70
     1
  9
$MAXACTVP
 70
    16
  9
$PINSBASE
 10
0.0
 20
0.0
 30
0.0
  9
$PLIMCHECK
 70
     0
  9
$PEXTMIN
 10
1.000000000000000E+20
 20
1.000000000000000E+20
 30
1.000000000000000E+20
  9
$PEXTMAX
 10
-1.000000000000000E+20
 20
-1.000000000000000E+20
 30
-1.000000000000000E+20
  9
$PLIMMIN
 10
0.0
 20
0.0
  9
$PLIMMAX
 10
12.0
 20
9.0
  9
$UNITMODE
 70
     0
  9
$VISRETAIN
 70
     0
  9
$PLINEGEN
 70
     0
  9
$PSLTSCALE
 70
     1
  9
$TREEDEPTH
 70
  3020
  9
$PICKSTYLE
 70
     1
  9
$CMLSTYLE
  2
STANDARD
  9
$CMLJUST
 70
     0
  9
$CMLSCALE
 40
1.0
  9
$SAVEIMAGES
 70
     1
  0
ENDSEC
  0
SECTION
  2
CLASSES
  0
CLASS
  1
ACDBDICTIONARYWDFLT
  2
AcDbDictionaryWithDefault
  3
AutoCAD 2000
 90
    32768
280
     0
281
     0
  0
CLASS
  1
ACDBPLACEHOLDER
  2
AcDbPlaceHolder
  3
AutoCAD 2000
 90
    32768
280
     0
281
     0
  0
CLASS
  1
LAYOUT
  2
AcDbLayout
  3
AutoCAD 2000
 90
    32768
280
     0
281
     0
  0
CLASS
  1
LONG_TRANSACTION
  2
AcDbLongTransaction
  3
AutoCAD 2000
 90
    32768
280
     0
281
     0
  0
CLASS
  1
LWPOLYLINE
  2
AcDbPolyline
  3
AutoCAD 2000
 90
    32768
280
     0
281
     1
  0
CLASS
  1
HATCH
  2
AcDbHatch
  3
AutoCAD 2000
 90
    32768
280
     0
281
     1
  0
CLASS
  1
XRECORD
  2
AcDbXrecord
  3
AutoCAD 2000
 90
    32768
280
     0
281
     0
  0
CLASS
  1
LONG_TRANSACTION
  2
AcDbLongTransaction
  3
AutoCAD 2000
 90
    32768
280
     0
281
     0
  0
CLASS
  1
LWPOLYLINE
  2
AcDbPolyline
  3
AutoCAD 2000
 90
    32768
280
     0
281
     1
  0
CLASS
  1
HATCH
  2
AcDbHatch
  3
AutoCAD 2000
 90
    32768
280
     0
281
     1
  0
CLASS
  1
XRECORD
  2
AcDbXrecord
  3
AutoCAD 2000
 90
    32768
280
     0
281
     0
  0
ENDSEC
  0
SECTION
  2
TABLES
  0
TABLE
  2
VPORT
  5
8
330
0
100
AcDbSymbolTable
 70
     3
  0
VPORT
  5
3B5E
330
8
100
AcDbSymbolTableRecord
100
AcDbViewportTableRecord
  2
*ACTIVE
 70
     0
 10
0.0
 20
0.0
 11
1.0
 21
1.0
 12
5.652557400582075
 22
8.19895937584685
 13
0.0
 23
0.0
 14
1.0
 24
1.0
 15
0.0
 25
0.0
 16
0.0
 26
0.0
 36
1.0
 17
0.0
 27
0.0
 37
0.0
 40
1.889505721632301
 41
1.647569444444444
 42
50.0
 43
0.0
 44
0.0
 50
0.0
 51
0.0
 71
     0
 72
   100
 73
     1
 74
     1
 75
     0
 76
     0
 77
     0
 78
     0
  0
ENDTAB
  0
TABLE
  2
LTYPE
  5
5
330
0
100
AcDbSymbolTable
 70
    25
  0
LTYPE
  5
13
330
5
100
AcDbSymbolTableRecord
100
AcDbLinetypeTableRecord
  2
BYBLOCK
 70
     0
  3

 72
    65
 73
     0
 40
0.0
  0
LTYPE
  5
14
330
5
100
AcDbSymbolTableRecord
100
AcDbLinetypeTableRecord
  2
BYLAYER
 70
     0
  3

 72
    65
 73
     0
 40
0.0
  0
LTYPE
  5
15
330
5
100
AcDbSymbolTableRecord
100
AcDbLinetypeTableRecord
  2
CONTINUOUS
 70
     0
  3
Solid line
 72
    65
 73
     0
 40
0.0
  0
LTYPE
  5
22
330
5
100
AcDbSymbolTableRecord
100
AcDbLinetypeTableRecord
  2
BORDER
 70
     0
  3
__ __ . __ __ . __ __ . __ __ . __ __ . __ __ .
 72
    65
 73
     6
 40
1.75
 49
0.5
 74
     0
 49
-0.25
 74
     0
 49
0.5
 74
     0
 49
-0.25
 74
     0
 49
0.5
 74
     0
 49
-0.25
 74
     0
  0
LTYPE
  5
23
330
5
100
AcDbSymbolTableRecord
100
AcDbLinetypeTableRecord
  2
BORDER2
 70
     0
  3
__.__.__.__.__.__.__.__.__.__.__.__.__.__.__.__
 72
    65
 73
     6
 40
0.875
 49
0.25
 74
     0
 49
-0.125
 74
     0
 49
0.25
 74
     0
 49
-0.125
 74
     0
 49
0.25
 74
     0
 49
-0.125
 74
     0
  0
LTYPE
  5
24
330
5
100
AcDbSymbolTableRecord
100
AcDbLinetypeTableRecord
  2
BORDERX2
 70
     0
  3
____  ____  .  ____  ____  .  
 72
    65
 73
     6
 40
3.5
 49
1.0
 74
     0
 49
-0.5
 74
     0
 49
1.0
 74
     0
 49
-0.5
 74
     0
 49
1.0
 74
     0
 49
-0.5
 74
     0
  0
LTYPE
  5
25
330
5
100
AcDbSymbolTableRecord
100
AcDbLinetypeTableRecord
  2
CENTER
 70
     0
  3
____ _ ____ _ ____ _ ____ _ ____ _ ____ _ ____
 72
    65
 73
     4
 40
2.0
 49
1.25
 74
     0
 49
-0.25
 74
     0
 49
0.25
 74
     0
 49
-0.25
 74
     0
  0
LTYPE
  5
26
330
5
100
AcDbSymbolTableRecord
100
AcDbLinetypeTableRecord
  2
CENTER2
 70
     0
  3
____ _ ____ _ ____ _ ____ _ ____ _ ____ _ ____
 72
    65
 73
     4
 40
1.125
 49
0.75
 74
     0
 49
-0.125
 74
     0
 49
0.125
 74
     0
 49
-0.125
 74
     0
  0
LTYPE
  5
27
330
5
100
AcDbSymbolTableRecord
100
AcDbLinetypeTableRecord
  2
CENTERX2
 70
     0
  3
________  __  ________  __  ________  __  
 72
    65
 73
     4
 40
4.0
 49
2.5
 74
     0
 49
-0.5
 74
     0
 49
0.5
 74
     0
 49
-0.5
 74
     0
  0
LTYPE
  5
28
330
5
100
AcDbSymbolTableRecord
100
AcDbLinetypeTableRecord
  2
DASHDOT
 70
     0
  3
__ . __ . __ . __ . __ . __ . __ . 
 72
    65
 73
     4
 40
1.0
 49
0.5
 74
     0
 49
-0.25
 74
     0
 49
0.0
 74
     0
 49
-0.25
 74
     0
  0
LTYPE
  5
29
330
5
100
AcDbSymbolTableRecord
100
AcDbLinetypeTableRecord
  2
DASHDOT2
 70
     0
  3
_._._._._._._._._._._._._._._._.
 72
    65
 73
     4
 40
0.5
 49
0.25
 74
     0
 49
-0.125
 74
     0
 49
0.0
 74
     0
 49
-0.125
 74
     0
  0
LTYPE
  5
2A
330
5
100
AcDbSymbolTableRecord
100
AcDbLinetypeTableRecord
  2
DASHDOTX2
 70
     0
  3
____  .  ____  .  ____  .  ____  .  
 72
    65
 73
     4
 40
2.0
 49
1.0
 74
     0
 49
-0.5
 74
     0
 49
0.0
 74
     0
 49
-0.5
 74
     0
  0
LTYPE
  5
2B
330
5
100
AcDbSymbolTableRecord
100
AcDbLinetypeTableRecord
  2
DASHED
 70
     0
  3
__ __ __ __ __ __ __ __ __ __ __ __ 
 72
    65
 73
     2
 40
0.75
 49
0.5
 74
     0
 49
-0.25
 74
     0
  0
LTYPE
  5
2C
330
5
100
AcDbSymbolTableRecord
100
AcDbLinetypeTableRecord
  2
DASHED2
 70
     0
  3
_ _ _ _ _ _ _ _ _ _ _ _ _ _ _ _ _ _ 
 72
    65
 73
     2
 40
0.375
 49
0.25
 74
     0
 49
-0.125
 74
     0
  0
LTYPE
  5
2D
330
5
100
AcDbSymbolTableRecord
100
AcDbLinetypeTableRecord
  2
DASHEDX2
 70
     0
  3
____  ____  ____  ____  ____  ____  
 72
    65
 73
     2
 40
1.5
 49
1.0
 74
     0
 49
-0.5
 74
     0
  0
LTYPE
  5
2E
330
5
100
AcDbSymbolTableRecord
100
AcDbLinetypeTableRecord
  2
DIVIDE
 70
     0
  3
____ . . ____ . . ____ . . ____ . . 
 72
    65
 73
     6
 40
1.25
 49
0.5
 74
     0
 49
-0.25
 74
     0
 49
0.0
 74
     0
 49
-0.25
 74
     0
 49
0.0
 74
     0
 49
-0.25
 74
     0
  0
LTYPE
  5
2F
330
5
100
AcDbSymbolTableRecord
100
AcDbLinetypeTableRecord
  2
DIVIDE2
 70
     0
  3
__..__..__..__..__..__..__..__..__..
 72
    65
 73
     6
 40
0.625
 49
0.25
 74
     0
 49
-0.125
 74
     0
 49
0.0
 74
     0
 49
-0.125
 74
     0
 49
0.0
 74
     0
 49
-0.125
 74
     0
  0
LTYPE
  5
30
330
5
100
AcDbSymbolTableRecord
100
AcDbLinetypeTableRecord
  2
DIVIDEX2
 70
     0
  3
________  .  .  ________  .  .  ________  .  . 
 72
    65
 73
     6
 40
2.5
 49
1.0
 74
     0
 49
-0.5
 74
     0
 49
0.0
 74
     0
 49
-0.5
 74
     0
 49
0.0
 74
     0
 49
-0.5
 74
     0
  0
LTYPE
  5
31
330
5
100
AcDbSymbolTableRecord
100
AcDbLinetypeTableRecord
  2
DOT
 70
     0
  3
. . . . . . . . . . . . . . . . . . 
 72
    65
 73
     2
 40
0.25
 49
0.0
 74
     0
 49
-0.25
 74
     0
  0
LTYPE
  5
32
330
5
100
AcDbSymbolTableRecord
100
AcDbLinetypeTableRecord
  2
DOT2
 70
     0
  3
....................................
 72
    65
 73
     2
 40
0.125
 49
0.0
 74
     0
 49
-0.125
 74
     0
  0
LTYPE
  5
33
330
5
100
AcDbSymbolTableRecord
100
AcDbLinetypeTableRecord
  2
DOTX2
 70
     0
  3
.  .  .  .  .  .  .  .  .  .  .  .  .  
 72
    65
 73
     2
 40
0.5
 49
0.0
 74
     0
 49
-0.5
 74
     0
  0
LTYPE
  5
34
330
5
100
AcDbSymbolTableRecord
100
AcDbLinetypeTableRecord
  2
HIDDEN
 70
     0
  3
__ __ __ __ __ __ __ __ __ __ __ __ 
 72
    65
 73
     2
 40
0.375
 49
0.25
 74
     0
 49
-0.125
 74
     0
  0
LTYPE
  5
35
330
5
100
AcDbSymbolTableRecord
100
AcDbLinetypeTableRecord
  2
HIDDEN2
 70
     0
  3
_ _ _ _ _ _ _ _ _ _ _ _ _ _ _ _ _ _ 
 72
    65
 73
     2
 40
0.1875
 49
0.125
 74
     0
 49
-0.0625
 74
     0
  0
LTYPE
  5
36
330
5
100
AcDbSymbolTableRecord
100
AcDbLinetypeTableRecord
  2
HIDDENX2
 70
     0
  3
____ ____ ____ ____ ____ ____ ____ 
 72
    65
 73
     2
 40
0.75
 49
0.5
 74
     0
 49
-0.25
 74
     0
  0
LTYPE
  5
37
330
5
100
AcDbSymbolTableRecord
100
AcDbLinetypeTableRecord
  2
PHANTOM
 70
     0
  3
______  __  __  ______  __  __  
 72
    65
 73
     6
 40
2.5
 49
1.25
 74
     0
 49
-0.25
 74
     0
 49
0.25
 74
     0
 49
-0.25
 74
     0
 49
0.25
 74
     0
 49
-0.25
 74
     0
  0
LTYPE
  5
38
330
5
100
AcDbSymbolTableRecord
100
AcDbLinetypeTableRecord
  2
PHANTOM2
 70
     0
  3
___ _ _ ___ _ _ ___ _ _ ___ _ _ 
 72
    65
 73
     6
 40
1.25
 49
0.625
 74
     0
 49
-0.125
 74
     0
 49
0.125
 74
     0
 49
-0.125
 74
     0
 49
0.125
 74
     0
 49
-0.125
 74
     0
  0
LTYPE
  5
39
330
5
100
AcDbSymbolTableRecord
100
AcDbLinetypeTableRecord
  2
PHANTOMX2
 70
     0
  3
___ _ _ ___ _ _ ___ _ _ ___ _ _ 
 72
    65
 73
     6
 40
5.0
 49
2.5
 74
     0
 49
-0.5
 74
     0
 49
0.5
 74
     0
 49
-0.5
 74
     0
 49
0.5
 74
     0
 49
-0.5
 74
     0
  0
ENDTAB
  0
TABLE
  2
LAYER
  5
2
330
0
100
AcDbSymbolTable
 70
   257
  0
LAYER
  5
10
330
2
100
AcDbSymbolTableRecord
100
AcDbLayerTableRecord
  2
0
 70
     0
 62
     7
  6
CONTINUOUS
  0
LAYER
  5
3A
330
2
100
AcDbSymbolTableRecord
100
AcDbLayerTableRecord
  2
1
 70
     0
 62
     1
  6
CONTINUOUS
  0
LAYER
  5
3B
330
2
100
AcDbSymbolTableRecord
100
AcDbLayerTableRecord
  2
2
 70
     0
 62
     2
  6
CONTINUOUS
  0
LAYER
  5
3C
330
2
100
AcDbSymbolTableRecord
100
AcDbLayerTableRecord
  2
3
 70
     0
 62
     3
  6
CONTINUOUS
  0
LAYER
  5
3D
330
2
100
AcDbSymbolTableRecord
100
AcDbLayerTableRecord
  2
4
 70
     0
 62
     4
  6
CONTINUOUS
  0
LAYER
  5
3E
330
2
100
AcDbSymbolTableRecord
100
AcDbLayerTableRecord
  2
5
 70
     0
 62
     5
  6
CONTINUOUS
  0
LAYER
  5
3F
330
2
100
AcDbSymbolTableRecord
100
AcDbLayerTableRecord
  2
6
 70
     0
 62
     6
  6
CONTINUOUS
  0
LAYER
  5
40
330
2
100
AcDbSymbolTableRecord
100
AcDbLayerTableRecord
  2
7
 70
     0
 62
     7
  6
CONTINUOUS
  0
LAYER
  5
41
330
2
100
AcDbSymbolTableRecord
100
AcDbLayerTableRecord
  2
8
 70
     0
 62
     8
  6
CONTINUOUS
  0
LAYER
  5
42
330
2
100
AcDbSymbolTableRecord
100
AcDbLayerTableRecord
  2
9
 70
     0
 62
     9
  6
CONTINUOUS
  0
LAYER
  5
43
330
2
100
AcDbSymbolTableRecord
100
AcDbLayerTableRecord
  2
10
 70
     0
 62
    10
  6
CONTINUOUS
  0
LAYER
  5
44
330
2
100
AcDbSymbolTableRecord
100
AcDbLayerTableRecord
  2
11
 70
     0
 62
    11
  6
CONTINUOUS
  0
LAYER
  5
45
330
2
100
AcDbSymbolTableRecord
100
AcDbLayerTableRecord
  2
12
 70
     0
 62
    12
  6
CONTINUOUS
  0
LAYER
  5
46
330
2
100
AcDbSymbolTableRecord
100
AcDbLayerTableRecord
  2
13
 70
     0
 62
    13
  6
CONTINUOUS
  0
LAYER
  5
47
330
2
100
AcDbSymbolTableRecord
100
AcDbLayerTableRecord
  2
14
 70
     0
 62
    14
  6
CONTINUOUS
  0
LAYER
  5
48
330
2
100
AcDbSymbolTableRecord
100
AcDbLayerTableRecord
  2
15
 70
     0
 62
    15
  6
CONTINUOUS
  0
LAYER
  5
49
330
2
100
AcDbSymbolTableRecord
100
AcDbLayerTableRecord
  2
16
 70
     0
 62
    16
  6
CONTINUOUS
  0
LAYER
  5
4A
330
2
100
AcDbSymbolTableRecord
100
AcDbLayerTableRecord
  2
17
 70
     0
 62
    17
  6
CONTINUOUS
  0
LAYER
  5
4B
330
2
100
AcDbSymbolTableRecord
100
AcDbLayerTableRecord
  2
18
 70
     0
 62
    18
  6
CONTINUOUS
  0
LAYER
  5
4C
330
2
100
AcDbSymbolTableRecord
100
AcDbLayerTableRecord
  2
19
 70
     0
 62
    19
  6
CONTINUOUS
  0
LAYER
  5
4D
330
2
100
AcDbSymbolTableRecord
100
AcDbLayerTableRecord
  2
20
 70
     0
 62
    20
  6
CONTINUOUS
  0
LAYER
  5
4E
330
2
100
AcDbSymbolTableRecord
100
AcDbLayerTableRecord
  2
21
 70
     0
 62
    21
  6
CONTINUOUS
  0
LAYER
  5
4F
330
2
100
AcDbSymbolTableRecord
100
AcDbLayerTableRecord
  2
22
 70
     0
 62
    22
  6
CONTINUOUS
  0
LAYER
  5
50
330
2
100
AcDbSymbolTableRecord
100
AcDbLayerTableRecord
  2
23
 70
     0
 62
    23
  6
CONTINUOUS
  0
LAYER
  5
51
330
2
100
AcDbSymbolTableRecord
100
AcDbLayerTableRecord
  2
24
 70
     0
 62
    24
  6
CONTINUOUS
  0
LAYER
  5
52
330
2
100
AcDbSymbolTableRecord
100
AcDbLayerTableRecord
  2
25
 70
     0
 62
    25
  6
CONTINUOUS
  0
LAYER
  5
53
330
2
100
AcDbSymbolTableRecord
100
AcDbLayerTableRecord
  2
26
 70
     0
 62
    26
  6
CONTINUOUS
  0
LAYER
  5
54
330
2
100
AcDbSymbolTableRecord
100
AcDbLayerTableRecord
  2
27
 70
     0
 62
    27
  6
CONTINUOUS
  0
LAYER
  5
55
330
2
100
AcDbSymbolTableRecord
100
AcDbLayerTableRecord
  2
28
 70
     0
 62
    28
  6
CONTINUOUS
  0
LAYER
  5
56
330
2
100
AcDbSymbolTableRecord
100
AcDbLayerTableRecord
  2
29
 70
     0
 62
    29
  6
CONTINUOUS
  0
LAYER
  5
57
330
2
100
AcDbSymbolTableRecord
100
AcDbLayerTableRecord
  2
30
 70
     0
 62
    30
  6
CONTINUOUS
  0
LAYER
  5
58
330
2
100
AcDbSymbolTableRecord
100
AcDbLayerTableRecord
  2
31
 70
     0
 62
    31
  6
CONTINUOUS
  0
LAYER
  5
59
330
2
100
AcDbSymbolTableRecord
100
AcDbLayerTableRecord
  2
32
 70
     0
 62
    32
  6
CONTINUOUS
  0
LAYER
  5
5A
330
2
100
AcDbSymbolTableRecord
100
AcDbLayerTableRecord
  2
33
 70
     0
 62
    33
  6
CONTINUOUS
  0
LAYER
  5
5B
330
2
100
AcDbSymbolTableRecord
100
AcDbLayerTableRecord
  2
34
 70
     0
 62
    34
  6
CONTINUOUS
  0
LAYER
  5
5C
330
2
100
AcDbSymbolTableRecord
100
AcDbLayerTableRecord
  2
35
 70
     0
 62
    35
  6
CONTINUOUS
  0
LAYER
  5
5D
330
2
100
AcDbSymbolTableRecord
100
AcDbLayerTableRecord
  2
36
 70
     0
 62
    36
  6
CONTINUOUS
  0
LAYER
  5
5E
330
2
100
AcDbSymbolTableRecord
100
AcDbLayerTableRecord
  2
37
 70
     0
 62
    37
  6
CONTINUOUS
  0
LAYER
  5
5F
330
2
100
AcDbSymbolTableRecord
100
AcDbLayerTableRecord
  2
38
 70
     0
 62
    38
  6
CONTINUOUS
  0
LAYER
  5
60
330
2
100
AcDbSymbolTableRecord
100
AcDbLayerTableRecord
  2
39
 70
     0
 62
    39
  6
CONTINUOUS
  0
LAYER
  5
61
330
2
100
AcDbSymbolTableRecord
100
AcDbLayerTableRecord
  2
40
 70
     0
 62
    40
  6
CONTINUOUS
  0
LAYER
  5
62
330
2
100
AcDbSymbolTableRecord
100
AcDbLayerTableRecord
  2
41
 70
     0
 62
    41
  6
CONTINUOUS
  0
LAYER
  5
63
330
2
100
AcDbSymbolTableRecord
100
AcDbLayerTableRecord
  2
42
 70
     0
 62
    42
  6
CONTINUOUS
  0
LAYER
  5
64
330
2
100
AcDbSymbolTableRecord
100
AcDbLayerTableRecord
  2
43
 70
     0
 62
    43
  6
CONTINUOUS
  0
LAYER
  5
65
330
2
100
AcDbSymbolTableRecord
100
AcDbLayerTableRecord
  2
44
 70
     0
 62
    44
  6
CONTINUOUS
  0
LAYER
  5
66
330
2
100
AcDbSymbolTableRecord
100
AcDbLayerTableRecord
  2
45
 70
     0
 62
    45
  6
CONTINUOUS
  0
LAYER
  5
67
330
2
100
AcDbSymbolTableRecord
100
AcDbLayerTableRecord
  2
46
 70
     0
 62
    46
  6
CONTINUOUS
  0
LAYER
  5
68
330
2
100
AcDbSymbolTableRecord
100
AcDbLayerTableRecord
  2
47
 70
     0
 62
    47
  6
CONTINUOUS
  0
LAYER
  5
69
330
2
100
AcDbSymbolTableRecord
100
AcDbLayerTableRecord
  2
48
 70
     0
 62
    48
  6
CONTINUOUS
  0
LAYER
  5
6A
330
2
100
AcDbSymbolTableRecord
100
AcDbLayerTableRecord
  2
49
 70
     0
 62
    49
  6
CONTINUOUS
  0
LAYER
  5
6B
330
2
100
AcDbSymbolTableRecord
100
AcDbLayerTableRecord
  2
50
 70
     0
 62
    50
  6
CONTINUOUS
  0
LAYER
  5
6C
330
2
100
AcDbSymbolTableRecord
100
AcDbLayerTableRecord
  2
51
 70
     0
 62
    51
  6
CONTINUOUS
  0
LAYER
  5
6D
330
2
100
AcDbSymbolTableRecord
100
AcDbLayerTableRecord
  2
52
 70
     0
 62
    52
  6
CONTINUOUS
  0
LAYER
  5
6E
330
2
100
AcDbSymbolTableRecord
100
AcDbLayerTableRecord
  2
53
 70
     0
 62
    53
  6
CONTINUOUS
  0
LAYER
  5
6F
330
2
100
AcDbSymbolTableRecord
100
AcDbLayerTableRecord
  2
54
 70
     0
 62
    54
  6
CONTINUOUS
  0
LAYER
  5
70
330
2
100
AcDbSymbolTableRecord
100
AcDbLayerTableRecord
  2
55
 70
     0
 62
    55
  6
CONTINUOUS
  0
LAYER
  5
71
330
2
100
AcDbSymbolTableRecord
100
AcDbLayerTableRecord
  2
56
 70
     0
 62
    56
  6
CONTINUOUS
  0
LAYER
  5
72
330
2
100
AcDbSymbolTableRecord
100
AcDbLayerTableRecord
  2
57
 70
     0
 62
    57
  6
CONTINUOUS
  0
LAYER
  5
73
330
2
100
AcDbSymbolTableRecord
100
AcDbLayerTableRecord
  2
58
 70
     0
 62
    58
  6
CONTINUOUS
  0
LAYER
  5
74
330
2
100
AcDbSymbolTableRecord
100
AcDbLayerTableRecord
  2
59
 70
     0
 62
    59
  6
CONTINUOUS
  0
LAYER
  5
75
330
2
100
AcDbSymbolTableRecord
100
AcDbLayerTableRecord
  2
60
 70
     0
 62
    60
  6
CONTINUOUS
  0
LAYER
  5
76
330
2
100
AcDbSymbolTableRecord
100
AcDbLayerTableRecord
  2
61
 70
     0
 62
    61
  6
CONTINUOUS
  0
LAYER
  5
77
330
2
100
AcDbSymbolTableRecord
100
AcDbLayerTableRecord
  2
62
 70
     0
 62
    62
  6
CONTINUOUS
  0
LAYER
  5
78
330
2
100
AcDbSymbolTableRecord
100
AcDbLayerTableRecord
  2
63
 70
     0
 62
    63
  6
CONTINUOUS
  0
LAYER
  5
79
330
2
100
AcDbSymbolTableRecord
100
AcDbLayerTableRecord
  2
64
 70
     0
 62
    64
  6
CONTINUOUS
  0
LAYER
  5
7A
330
2
100
AcDbSymbolTableRecord
100
AcDbLayerTableRecord
  2
65
 70
     0
 62
    65
  6
CONTINUOUS
  0
LAYER
  5
7B
330
2
100
AcDbSymbolTableRecord
100
AcDbLayerTableRecord
  2
66
 70
     0
 62
    66
  6
CONTINUOUS
  0
LAYER
  5
7C
330
2
100
AcDbSymbolTableRecord
100
AcDbLayerTableRecord
  2
67
 70
     0
 62
    67
  6
CONTINUOUS
  0
LAYER
  5
7D
330
2
100
AcDbSymbolTableRecord
100
AcDbLayerTableRecord
  2
68
 70
     0
 62
    68
  6
CONTINUOUS
  0
LAYER
  5
7E
330
2
100
AcDbSymbolTableRecord
100
AcDbLayerTableRecord
  2
69
 70
     0
 62
    69
  6
CONTINUOUS
  0
LAYER
  5
7F
330
2
100
AcDbSymbolTableRecord
100
AcDbLayerTableRecord
  2
70
 70
     0
 62
    70
  6
CONTINUOUS
  0
LAYER
  5
80
330
2
100
AcDbSymbolTableRecord
100
AcDbLayerTableRecord
  2
71
 70
     0
 62
    71
  6
CONTINUOUS
  0
LAYER
  5
81
330
2
100
AcDbSymbolTableRecord
100
AcDbLayerTableRecord
  2
72
 70
     0
 62
    72
  6
CONTINUOUS
  0
LAYER
  5
82
330
2
100
AcDbSymbolTableRecord
100
AcDbLayerTableRecord
  2
73
 70
     0
 62
    73
  6
CONTINUOUS
  0
LAYER
  5
83
330
2
100
AcDbSymbolTableRecord
100
AcDbLayerTableRecord
  2
74
 70
     0
 62
    74
  6
CONTINUOUS
  0
LAYER
  5
84
330
2
100
AcDbSymbolTableRecord
100
AcDbLayerTableRecord
  2
75
 70
     0
 62
    75
  6
CONTINUOUS
  0
LAYER
  5
85
330
2
100
AcDbSymbolTableRecord
100
AcDbLayerTableRecord
  2
76
 70
     0
 62
    76
  6
CONTINUOUS
  0
LAYER
  5
86
330
2
100
AcDbSymbolTableRecord
100
AcDbLayerTableRecord
  2
77
 70
     0
 62
    77
  6
CONTINUOUS
  0
LAYER
  5
87
330
2
100
AcDbSymbolTableRecord
100
AcDbLayerTableRecord
  2
78
 70
     0
 62
    78
  6
CONTINUOUS
  0
LAYER
  5
88
330
2
100
AcDbSymbolTableRecord
100
AcDbLayerTableRecord
  2
79
 70
     0
 62
    79
  6
CONTINUOUS
  0
LAYER
  5
89
330
2
100
AcDbSymbolTableRecord
100
AcDbLayerTableRecord
  2
80
 70
     0
 62
    80
  6
CONTINUOUS
  0
LAYER
  5
8A
330
2
100
AcDbSymbolTableRecord
100
AcDbLayerTableRecord
  2
81
 70
     0
 62
    81
  6
CONTINUOUS
  0
LAYER
  5
8B
330
2
100
AcDbSymbolTableRecord
100
AcDbLayerTableRecord
  2
82
 70
     0
 62
    82
  6
CONTINUOUS
  0
LAYER
  5
8C
330
2
100
AcDbSymbolTableRecord
100
AcDbLayerTableRecord
  2
83
 70
     0
 62
    83
  6
CONTINUOUS
  0
LAYER
  5
8D
330
2
100
AcDbSymbolTableRecord
100
AcDbLayerTableRecord
  2
84
 70
     0
 62
    84
  6
CONTINUOUS
  0
LAYER
  5
8E
330
2
100
AcDbSymbolTableRecord
100
AcDbLayerTableRecord
  2
85
 70
     0
 62
    85
  6
CONTINUOUS
  0
LAYER
  5
8F
330
2
100
AcDbSymbolTableRecord
100
AcDbLayerTableRecord
  2
86
 70
     0
 62
    86
  6
CONTINUOUS
  0
LAYER
  5
90
330
2
100
AcDbSymbolTableRecord
100
AcDbLayerTableRecord
  2
87
 70
     0
 62
    87
  6
CONTINUOUS
  0
LAYER
  5
91
330
2
100
AcDbSymbolTableRecord
100
AcDbLayerTableRecord
  2
88
 70
     0
 62
    88
  6
CONTINUOUS
  0
LAYER
  5
92
330
2
100
AcDbSymbolTableRecord
100
AcDbLayerTableRecord
  2
89
 70
     0
 62
    89
  6
CONTINUOUS
  0
LAYER
  5
93
330
2
100
AcDbSymbolTableRecord
100
AcDbLayerTableRecord
  2
90
 70
     0
 62
    90
  6
CONTINUOUS
  0
LAYER
  5
94
330
2
100
AcDbSymbolTableRecord
100
AcDbLayerTableRecord
  2
91
 70
     0
 62
    91
  6
CONTINUOUS
  0
LAYER
  5
95
330
2
100
AcDbSymbolTableRecord
100
AcDbLayerTableRecord
  2
92
 70
     0
 62
    92
  6
CONTINUOUS
  0
LAYER
  5
96
330
2
100
AcDbSymbolTableRecord
100
AcDbLayerTableRecord
  2
93
 70
     0
 62
    93
  6
CONTINUOUS
  0
LAYER
  5
97
330
2
100
AcDbSymbolTableRecord
100
AcDbLayerTableRecord
  2
94
 70
     0
 62
    94
  6
CONTINUOUS
  0
LAYER
  5
98
330
2
100
AcDbSymbolTableRecord
100
AcDbLayerTableRecord
  2
95
 70
     0
 62
    95
  6
CONTINUOUS
  0
LAYER
  5
99
330
2
100
AcDbSymbolTableRecord
100
AcDbLayerTableRecord
  2
96
 70
     0
 62
    96
  6
CONTINUOUS
  0
LAYER
  5
9A
330
2
100
AcDbSymbolTableRecord
100
AcDbLayerTableRecord
  2
97
 70
     0
 62
    97
  6
CONTINUOUS
  0
LAYER
  5
9B
330
2
100
AcDbSymbolTableRecord
100
AcDbLayerTableRecord
  2
98
 70
     0
 62
    98
  6
CONTINUOUS
  0
LAYER
  5
9C
330
2
100
AcDbSymbolTableRecord
100
AcDbLayerTableRecord
  2
99
 70
     0
 62
    99
  6
CONTINUOUS
  0
LAYER
  5
9D
330
2
100
AcDbSymbolTableRecord
100
AcDbLayerTableRecord
  2
100
 70
     0
 62
   100
  6
CONTINUOUS
  0
LAYER
  5
9E
330
2
100
AcDbSymbolTableRecord
100
AcDbLayerTableRecord
  2
101
 70
     0
 62
   101
  6
CONTINUOUS
  0
LAYER
  5
9F
330
2
100
AcDbSymbolTableRecord
100
AcDbLayerTableRecord
  2
102
 70
     0
 62
   102
  6
CONTINUOUS
  0
LAYER
  5
A0
330
2
100
AcDbSymbolTableRecord
100
AcDbLayerTableRecord
  2
103
 70
     0
 62
   103
  6
CONTINUOUS
  0
LAYER
  5
A1
330
2
100
AcDbSymbolTableRecord
100
AcDbLayerTableRecord
  2
104
 70
     0
 62
   104
  6
CONTINUOUS
  0
LAYER
  5
A2
330
2
100
AcDbSymbolTableRecord
100
AcDbLayerTableRecord
  2
105
 70
     0
 62
   105
  6
CONTINUOUS
  0
LAYER
  5
A3
330
2
100
AcDbSymbolTableRecord
100
AcDbLayerTableRecord
  2
106
 70
     0
 62
   106
  6
CONTINUOUS
  0
LAYER
  5
A4
330
2
100
AcDbSymbolTableRecord
100
AcDbLayerTableRecord
  2
107
 70
     0
 62
   107
  6
CONTINUOUS
  0
LAYER
  5
A5
330
2
100
AcDbSymbolTableRecord
100
AcDbLayerTableRecord
  2
108
 70
     0
 62
   108
  6
CONTINUOUS
  0
LAYER
  5
A6
330
2
100
AcDbSymbolTableRecord
100
AcDbLayerTableRecord
  2
109
 70
     0
 62
   109
  6
CONTINUOUS
  0
LAYER
  5
A7
330
2
100
AcDbSymbolTableRecord
100
AcDbLayerTableRecord
  2
110
 70
     0
 62
   110
  6
CONTINUOUS
  0
LAYER
  5
A8
330
2
100
AcDbSymbolTableRecord
100
AcDbLayerTableRecord
  2
111
 70
     0
 62
   111
  6
CONTINUOUS
  0
LAYER
  5
A9
330
2
100
AcDbSymbolTableRecord
100
AcDbLayerTableRecord
  2
112
 70
     0
 62
   112
  6
CONTINUOUS
  0
LAYER
  5
AA
330
2
100
AcDbSymbolTableRecord
100
AcDbLayerTableRecord
  2
113
 70
     0
 62
   113
  6
CONTINUOUS
  0
LAYER
  5
AB
330
2
100
AcDbSymbolTableRecord
100
AcDbLayerTableRecord
  2
114
 70
     0
 62
   114
  6
CONTINUOUS
  0
LAYER
  5
AC
330
2
100
AcDbSymbolTableRecord
100
AcDbLayerTableRecord
  2
115
 70
     0
 62
   115
  6
CONTINUOUS
  0
LAYER
  5
AD
330
2
100
AcDbSymbolTableRecord
100
AcDbLayerTableRecord
  2
116
 70
     0
 62
   116
  6
CONTINUOUS
  0
LAYER
  5
AE
330
2
100
AcDbSymbolTableRecord
100
AcDbLayerTableRecord
  2
117
 70
     0
 62
   117
  6
CONTINUOUS
  0
LAYER
  5
AF
330
2
100
AcDbSymbolTableRecord
100
AcDbLayerTableRecord
  2
118
 70
     0
 62
   118
  6
CONTINUOUS
  0
LAYER
  5
B0
330
2
100
AcDbSymbolTableRecord
100
AcDbLayerTableRecord
  2
119
 70
     0
 62
   119
  6
CONTINUOUS
  0
LAYER
  5
B1
330
2
100
AcDbSymbolTableRecord
100
AcDbLayerTableRecord
  2
120
 70
     0
 62
   120
  6
CONTINUOUS
  0
LAYER
  5
B2
330
2
100
AcDbSymbolTableRecord
100
AcDbLayerTableRecord
  2
121
 70
     0
 62
   121
  6
CONTINUOUS
  0
LAYER
  5
B3
330
2
100
AcDbSymbolTableRecord
100
AcDbLayerTableRecord
  2
122
 70
     0
 62
   122
  6
CONTINUOUS
  0
LAYER
  5
B4
330
2
100
AcDbSymbolTableRecord
100
AcDbLayerTableRecord
  2
123
 70
     0
 62
   123
  6
CONTINUOUS
  0
LAYER
  5
B5
330
2
100
AcDbSymbolTableRecord
100
AcDbLayerTableRecord
  2
124
 70
     0
 62
   124
  6
CONTINUOUS
  0
LAYER
  5
B6
330
2
100
AcDbSymbolTableRecord
100
AcDbLayerTableRecord
  2
125
 70
     0
 62
   125
  6
CONTINUOUS
  0
LAYER
  5
B7
330
2
100
AcDbSymbolTableRecord
100
AcDbLayerTableRecord
  2
126
 70
     0
 62
   126
  6
CONTINUOUS
  0
LAYER
  5
B8
330
2
100
AcDbSymbolTableRecord
100
AcDbLayerTableRecord
  2
127
 70
     0
 62
   127
  6
CONTINUOUS
  0
LAYER
  5
B9
330
2
100
AcDbSymbolTableRecord
100
AcDbLayerTableRecord
  2
128
 70
     0
 62
   128
  6
CONTINUOUS
  0
LAYER
  5
BA
330
2
100
AcDbSymbolTableRecord
100
AcDbLayerTableRecord
  2
129
 70
     0
 62
   129
  6
CONTINUOUS
  0
LAYER
  5
BB
330
2
100
AcDbSymbolTableRecord
100
AcDbLayerTableRecord
  2
130
 70
     0
 62
   130
  6
CONTINUOUS
  0
LAYER
  5
BC
330
2
100
AcDbSymbolTableRecord
100
AcDbLayerTableRecord
  2
131
 70
     0
 62
   131
  6
CONTINUOUS
  0
LAYER
  5
BD
330
2
100
AcDbSymbolTableRecord
100
AcDbLayerTableRecord
  2
132
 70
     0
 62
   132
  6
CONTINUOUS
  0
LAYER
  5
BE
330
2
100
AcDbSymbolTableRecord
100
AcDbLayerTableRecord
  2
133
 70
     0
 62
   133
  6
CONTINUOUS
  0
LAYER
  5
BF
330
2
100
AcDbSymbolTableRecord
100
AcDbLayerTableRecord
  2
134
 70
     0
 62
   134
  6
CONTINUOUS
  0
LAYER
  5
C0
330
2
100
AcDbSymbolTableRecord
100
AcDbLayerTableRecord
  2
135
 70
     0
 62
   135
  6
CONTINUOUS
  0
LAYER
  5
C1
330
2
100
AcDbSymbolTableRecord
100
AcDbLayerTableRecord
  2
136
 70
     0
 62
   136
  6
CONTINUOUS
  0
LAYER
  5
C2
330
2
100
AcDbSymbolTableRecord
100
AcDbLayerTableRecord
  2
137
 70
     0
 62
   137
  6
CONTINUOUS
  0
LAYER
  5
C3
330
2
100
AcDbSymbolTableRecord
100
AcDbLayerTableRecord
  2
138
 70
     0
 62
   138
  6
CONTINUOUS
  0
LAYER
  5
C4
330
2
100
AcDbSymbolTableRecord
100
AcDbLayerTableRecord
  2
139
 70
     0
 62
   139
  6
CONTINUOUS
  0
LAYER
  5
C5
330
2
100
AcDbSymbolTableRecord
100
AcDbLayerTableRecord
  2
140
 70
     0
 62
   140
  6
CONTINUOUS
  0
LAYER
  5
C6
330
2
100
AcDbSymbolTableRecord
100
AcDbLayerTableRecord
  2
141
 70
     0
 62
   141
  6
CONTINUOUS
  0
LAYER
  5
C7
330
2
100
AcDbSymbolTableRecord
100
AcDbLayerTableRecord
  2
142
 70
     0
 62
   142
  6
CONTINUOUS
  0
LAYER
  5
C8
330
2
100
AcDbSymbolTableRecord
100
AcDbLayerTableRecord
  2
143
 70
     0
 62
   143
  6
CONTINUOUS
  0
LAYER
  5
C9
330
2
100
AcDbSymbolTableRecord
100
AcDbLayerTableRecord
  2
144
 70
     0
 62
   144
  6
CONTINUOUS
  0
LAYER
  5
CA
330
2
100
AcDbSymbolTableRecord
100
AcDbLayerTableRecord
  2
145
 70
     0
 62
   145
  6
CONTINUOUS
  0
LAYER
  5
CB
330
2
100
AcDbSymbolTableRecord
100
AcDbLayerTableRecord
  2
146
 70
     0
 62
   146
  6
CONTINUOUS
  0
LAYER
  5
CC
330
2
100
AcDbSymbolTableRecord
100
AcDbLayerTableRecord
  2
147
 70
     0
 62
   147
  6
CONTINUOUS
  0
LAYER
  5
CD
330
2
100
AcDbSymbolTableRecord
100
AcDbLayerTableRecord
  2
148
 70
     0
 62
   148
  6
CONTINUOUS
  0
LAYER
  5
CE
330
2
100
AcDbSymbolTableRecord
100
AcDbLayerTableRecord
  2
149
 70
     0
 62
   149
  6
CONTINUOUS
  0
LAYER
  5
CF
330
2
100
AcDbSymbolTableRecord
100
AcDbLayerTableRecord
  2
150
 70
     0
 62
   150
  6
CONTINUOUS
  0
LAYER
  5
D0
330
2
100
AcDbSymbolTableRecord
100
AcDbLayerTableRecord
  2
151
 70
     0
 62
   151
  6
CONTINUOUS
  0
LAYER
  5
D1
330
2
100
AcDbSymbolTableRecord
100
AcDbLayerTableRecord
  2
152
 70
     0
 62
   152
  6
CONTINUOUS
  0
LAYER
  5
D2
330
2
100
AcDbSymbolTableRecord
100
AcDbLayerTableRecord
  2
153
 70
     0
 62
   153
  6
CONTINUOUS
  0
LAYER
  5
D3
330
2
100
AcDbSymbolTableRecord
100
AcDbLayerTableRecord
  2
154
 70
     0
 62
   154
  6
CONTINUOUS
  0
LAYER
  5
D4
330
2
100
AcDbSymbolTableRecord
100
AcDbLayerTableRecord
  2
155
 70
     0
 62
   155
  6
CONTINUOUS
  0
LAYER
  5
D5
330
2
100
AcDbSymbolTableRecord
100
AcDbLayerTableRecord
  2
156
 70
     0
 62
   156
  6
CONTINUOUS
  0
LAYER
  5
D6
330
2
100
AcDbSymbolTableRecord
100
AcDbLayerTableRecord
  2
157
 70
     0
 62
   157
  6
CONTINUOUS
  0
LAYER
  5
D7
330
2
100
AcDbSymbolTableRecord
100
AcDbLayerTableRecord
  2
158
 70
     0
 62
   158
  6
CONTINUOUS
  0
LAYER
  5
D8
330
2
100
AcDbSymbolTableRecord
100
AcDbLayerTableRecord
  2
159
 70
     0
 62
   159
  6
CONTINUOUS
  0
LAYER
  5
D9
330
2
100
AcDbSymbolTableRecord
100
AcDbLayerTableRecord
  2
160
 70
     0
 62
   160
  6
CONTINUOUS
  0
LAYER
  5
DA
330
2
100
AcDbSymbolTableRecord
100
AcDbLayerTableRecord
  2
161
 70
     0
 62
   161
  6
CONTINUOUS
  0
LAYER
  5
DB
330
2
100
AcDbSymbolTableRecord
100
AcDbLayerTableRecord
  2
162
 70
     0
 62
   162
  6
CONTINUOUS
  0
LAYER
  5
DC
330
2
100
AcDbSymbolTableRecord
100
AcDbLayerTableRecord
  2
163
 70
     0
 62
   163
  6
CONTINUOUS
  0
LAYER
  5
DD
330
2
100
AcDbSymbolTableRecord
100
AcDbLayerTableRecord
  2
164
 70
     0
 62
   164
  6
CONTINUOUS
  0
LAYER
  5
DE
330
2
100
AcDbSymbolTableRecord
100
AcDbLayerTableRecord
  2
165
 70
     0
 62
   165
  6
CONTINUOUS
  0
LAYER
  5
DF
330
2
100
AcDbSymbolTableRecord
100
AcDbLayerTableRecord
  2
166
 70
     0
 62
   166
  6
CONTINUOUS
  0
LAYER
  5
E0
330
2
100
AcDbSymbolTableRecord
100
AcDbLayerTableRecord
  2
167
 70
     0
 62
   167
  6
CONTINUOUS
  0
LAYER
  5
E1
330
2
100
AcDbSymbolTableRecord
100
AcDbLayerTableRecord
  2
168
 70
     0
 62
   168
  6
CONTINUOUS
  0
LAYER
  5
E2
330
2
100
AcDbSymbolTableRecord
100
AcDbLayerTableRecord
  2
169
 70
     0
 62
   169
  6
CONTINUOUS
  0
LAYER
  5
E3
330
2
100
AcDbSymbolTableRecord
100
AcDbLayerTableRecord
  2
170
 70
     0
 62
   170
  6
CONTINUOUS
  0
LAYER
  5
E4
330
2
100
AcDbSymbolTableRecord
100
AcDbLayerTableRecord
  2
171
 70
     0
 62
   171
  6
CONTINUOUS
  0
LAYER
  5
E5
330
2
100
AcDbSymbolTableRecord
100
AcDbLayerTableRecord
  2
172
 70
     0
 62
   172
  6
CONTINUOUS
  0
LAYER
  5
E6
330
2
100
AcDbSymbolTableRecord
100
AcDbLayerTableRecord
  2
173
 70
     0
 62
   173
  6
CONTINUOUS
  0
LAYER
  5
E7
330
2
100
AcDbSymbolTableRecord
100
AcDbLayerTableRecord
  2
174
 70
     0
 62
   174
  6
CONTINUOUS
  0
LAYER
  5
E8
330
2
100
AcDbSymbolTableRecord
100
AcDbLayerTableRecord
  2
175
 70
     0
 62
   175
  6
CONTINUOUS
  0
LAYER
  5
E9
330
2
100
AcDbSymbolTableRecord
100
AcDbLayerTableRecord
  2
176
 70
     0
 62
   176
  6
CONTINUOUS
  0
LAYER
  5
EA
330
2
100
AcDbSymbolTableRecord
100
AcDbLayerTableRecord
  2
177
 70
     0
 62
   177
  6
CONTINUOUS
  0
LAYER
  5
EB
330
2
100
AcDbSymbolTableRecord
100
AcDbLayerTableRecord
  2
178
 70
     0
 62
   178
  6
CONTINUOUS
  0
LAYER
  5
EC
330
2
100
AcDbSymbolTableRecord
100
AcDbLayerTableRecord
  2
179
 70
     0
 62
   179
  6
CONTINUOUS
  0
LAYER
  5
ED
330
2
100
AcDbSymbolTableRecord
100
AcDbLayerTableRecord
  2
180
 70
     0
 62
   180
  6
CONTINUOUS
  0
LAYER
  5
EE
330
2
100
AcDbSymbolTableRecord
100
AcDbLayerTableRecord
  2
181
 70
     0
 62
   181
  6
CONTINUOUS
  0
LAYER
  5
EF
330
2
100
AcDbSymbolTableRecord
100
AcDbLayerTableRecord
  2
182
 70
     0
 62
   182
  6
CONTINUOUS
  0
LAYER
  5
F0
330
2
100
AcDbSymbolTableRecord
100
AcDbLayerTableRecord
  2
183
 70
     0
 62
   183
  6
CONTINUOUS
  0
LAYER
  5
F1
330
2
100
AcDbSymbolTableRecord
100
AcDbLayerTableRecord
  2
184
 70
     0
 62
   184
  6
CONTINUOUS
  0
LAYER
  5
F2
330
2
100
AcDbSymbolTableRecord
100
AcDbLayerTableRecord
  2
185
 70
     0
 62
   185
  6
CONTINUOUS
  0
LAYER
  5
F3
330
2
100
AcDbSymbolTableRecord
100
AcDbLayerTableRecord
  2
186
 70
     0
 62
   186
  6
CONTINUOUS
  0
LAYER
  5
F4
330
2
100
AcDbSymbolTableRecord
100
AcDbLayerTableRecord
  2
187
 70
     0
 62
   187
  6
CONTINUOUS
  0
LAYER
  5
F5
330
2
100
AcDbSymbolTableRecord
100
AcDbLayerTableRecord
  2
188
 70
     0
 62
   188
  6
CONTINUOUS
  0
LAYER
  5
F6
330
2
100
AcDbSymbolTableRecord
100
AcDbLayerTableRecord
  2
189
 70
     0
 62
   189
  6
CONTINUOUS
  0
LAYER
  5
F7
330
2
100
AcDbSymbolTableRecord
100
AcDbLayerTableRecord
  2
190
 70
     0
 62
   190
  6
CONTINUOUS
  0
LAYER
  5
F8
330
2
100
AcDbSymbolTableRecord
100
AcDbLayerTableRecord
  2
191
 70
     0
 62
   191
  6
CONTINUOUS
  0
LAYER
  5
F9
330
2
100
AcDbSymbolTableRecord
100
AcDbLayerTableRecord
  2
192
 70
     0
 62
   192
  6
CONTINUOUS
  0
LAYER
  5
FA
330
2
100
AcDbSymbolTableRecord
100
AcDbLayerTableRecord
  2
193
 70
     0
 62
   193
  6
CONTINUOUS
  0
LAYER
  5
FB
330
2
100
AcDbSymbolTableRecord
100
AcDbLayerTableRecord
  2
194
 70
     0
 62
   194
  6
CONTINUOUS
  0
LAYER
  5
FC
330
2
100
AcDbSymbolTableRecord
100
AcDbLayerTableRecord
  2
195
 70
     0
 62
   195
  6
CONTINUOUS
  0
LAYER
  5
FD
330
2
100
AcDbSymbolTableRecord
100
AcDbLayerTableRecord
  2
196
 70
     0
 62
   196
  6
CONTINUOUS
  0
LAYER
  5
FE
330
2
100
AcDbSymbolTableRecord
100
AcDbLayerTableRecord
  2
197
 70
     0
 62
   197
  6
CONTINUOUS
  0
LAYER
  5
FF
330
2
100
AcDbSymbolTableRecord
100
AcDbLayerTableRecord
  2
198
 70
     0
 62
   198
  6
CONTINUOUS
  0
LAYER
  5
100
330
2
100
AcDbSymbolTableRecord
100
AcDbLayerTableRecord
  2
199
 70
     0
 62
   199
  6
CONTINUOUS
  0
LAYER
  5
101
330
2
100
AcDbSymbolTableRecord
100
AcDbLayerTableRecord
  2
200
 70
     0
 62
   200
  6
CONTINUOUS
  0
LAYER
  5
102
330
2
100
AcDbSymbolTableRecord
100
AcDbLayerTableRecord
  2
201
 70
     0
 62
   201
  6
CONTINUOUS
  0
LAYER
  5
103
330
2
100
AcDbSymbolTableRecord
100
AcDbLayerTableRecord
  2
202
 70
     0
 62
   202
  6
CONTINUOUS
  0
LAYER
  5
104
330
2
100
AcDbSymbolTableRecord
100
AcDbLayerTableRecord
  2
203
 70
     0
 62
   203
  6
CONTINUOUS
  0
LAYER
  5
105
330
2
100
AcDbSymbolTableRecord
100
AcDbLayerTableRecord
  2
204
 70
     0
 62
   204
  6
CONTINUOUS
  0
LAYER
  5
106
330
2
100
AcDbSymbolTableRecord
100
AcDbLayerTableRecord
  2
205
 70
     0
 62
   205
  6
CONTINUOUS
  0
LAYER
  5
107
330
2
100
AcDbSymbolTableRecord
100
AcDbLayerTableRecord
  2
206
 70
     0
 62
   206
  6
CONTINUOUS
  0
LAYER
  5
108
330
2
100
AcDbSymbolTableRecord
100
AcDbLayerTableRecord
  2
207
 70
     0
 62
   207
  6
CONTINUOUS
  0
LAYER
  5
109
330
2
100
AcDbSymbolTableRecord
100
AcDbLayerTableRecord
  2
208
 70
     0
 62
   208
  6
CONTINUOUS
  0
LAYER
  5
10A
330
2
100
AcDbSymbolTableRecord
100
AcDbLayerTableRecord
  2
209
 70
     0
 62
   209
  6
CONTINUOUS
  0
LAYER
  5
10B
330
2
100
AcDbSymbolTableRecord
100
AcDbLayerTableRecord
  2
210
 70
     0
 62
   210
  6
CONTINUOUS
  0
LAYER
  5
10C
330
2
100
AcDbSymbolTableRecord
100
AcDbLayerTableRecord
  2
211
 70
     0
 62
   211
  6
CONTINUOUS
  0
LAYER
  5
10D
330
2
100
AcDbSymbolTableRecord
100
AcDbLayerTableRecord
  2
212
 70
     0
 62
   212
  6
CONTINUOUS
  0
LAYER
  5
10E
330
2
100
AcDbSymbolTableRecord
100
AcDbLayerTableRecord
  2
213
 70
     0
 62
   213
  6
CONTINUOUS
  0
LAYER
  5
10F
330
2
100
AcDbSymbolTableRecord
100
AcDbLayerTableRecord
  2
214
 70
     0
 62
   214
  6
CONTINUOUS
  0
LAYER
  5
110
330
2
100
AcDbSymbolTableRecord
100
AcDbLayerTableRecord
  2
215
 70
     0
 62
   215
  6
CONTINUOUS
  0
LAYER
  5
111
330
2
100
AcDbSymbolTableRecord
100
AcDbLayerTableRecord
  2
216
 70
     0
 62
   216
  6
CONTINUOUS
  0
LAYER
  5
112
330
2
100
AcDbSymbolTableRecord
100
AcDbLayerTableRecord
  2
217
 70
     0
 62
   217
  6
CONTINUOUS
  0
LAYER
  5
113
330
2
100
AcDbSymbolTableRecord
100
AcDbLayerTableRecord
  2
218
 70
     0
 62
   218
  6
CONTINUOUS
  0
LAYER
  5
114
330
2
100
AcDbSymbolTableRecord
100
AcDbLayerTableRecord
  2
219
 70
     0
 62
   219
  6
CONTINUOUS
  0
LAYER
  5
115
330
2
100
AcDbSymbolTableRecord
100
AcDbLayerTableRecord
  2
220
 70
     0
 62
   220
  6
CONTINUOUS
  0
LAYER
  5
116
330
2
100
AcDbSymbolTableRecord
100
AcDbLayerTableRecord
  2
221
 70
     0
 62
   221
  6
CONTINUOUS
  0
LAYER
  5
117
330
2
100
AcDbSymbolTableRecord
100
AcDbLayerTableRecord
  2
222
 70
     0
 62
   222
  6
CONTINUOUS
  0
LAYER
  5
118
330
2
100
AcDbSymbolTableRecord
100
AcDbLayerTableRecord
  2
223
 70
     0
 62
   223
  6
CONTINUOUS
  0
LAYER
  5
119
330
2
100
AcDbSymbolTableRecord
100
AcDbLayerTableRecord
  2
224
 70
     0
 62
   224
  6
CONTINUOUS
  0
LAYER
  5
11A
330
2
100
AcDbSymbolTableRecord
100
AcDbLayerTableRecord
  2
225
 70
     0
 62
   225
  6
CONTINUOUS
  0
LAYER
  5
11B
330
2
100
AcDbSymbolTableRecord
100
AcDbLayerTableRecord
  2
226
 70
     0
 62
   226
  6
CONTINUOUS
  0
LAYER
  5
11C
330
2
100
AcDbSymbolTableRecord
100
AcDbLayerTableRecord
  2
227
 70
     0
 62
   227
  6
CONTINUOUS
  0
LAYER
  5
11D
330
2
100
AcDbSymbolTableRecord
100
AcDbLayerTableRecord
  2
228
 70
     0
 62
   228
  6
CONTINUOUS
  0
LAYER
  5
11E
330
2
100
AcDbSymbolTableRecord
100
AcDbLayerTableRecord
  2
229
 70
     0
 62
   229
  6
CONTINUOUS
  0
LAYER
  5
11F
330
2
100
AcDbSymbolTableRecord
100
AcDbLayerTableRecord
  2
230
 70
     0
 62
   230
  6
CONTINUOUS
  0
LAYER
  5
120
330
2
100
AcDbSymbolTableRecord
100
AcDbLayerTableRecord
  2
231
 70
     0
 62
   231
  6
CONTINUOUS
  0
LAYER
  5
121
330
2
100
AcDbSymbolTableRecord
100
AcDbLayerTableRecord
  2
232
 70
     0
 62
   232
  6
CONTINUOUS
  0
LAYER
  5
122
330
2
100
AcDbSymbolTableRecord
100
AcDbLayerTableRecord
  2
233
 70
     0
 62
   233
  6
CONTINUOUS
  0
LAYER
  5
123
330
2
100
AcDbSymbolTableRecord
100
AcDbLayerTableRecord
  2
234
 70
     0
 62
   234
  6
CONTINUOUS
  0
LAYER
  5
124
330
2
100
AcDbSymbolTableRecord
100
AcDbLayerTableRecord
  2
235
 70
     0
 62
   235
  6
CONTINUOUS
  0
LAYER
  5
125
330
2
100
AcDbSymbolTableRecord
100
AcDbLayerTableRecord
  2
236
 70
     0
 62
   236
  6
CONTINUOUS
  0
LAYER
  5
126
330
2
100
AcDbSymbolTableRecord
100
AcDbLayerTableRecord
  2
237
 70
     0
 62
   237
  6
CONTINUOUS
  0
LAYER
  5
127
330
2
100
AcDbSymbolTableRecord
100
AcDbLayerTableRecord
  2
238
 70
     0
 62
   238
  6
CONTINUOUS
  0
LAYER
  5
128
330
2
100
AcDbSymbolTableRecord
100
AcDbLayerTableRecord
  2
239
 70
     0
 62
   239
  6
CONTINUOUS
  0
LAYER
  5
129
330
2
100
AcDbSymbolTableRecord
100
AcDbLayerTableRecord
  2
240
 70
     0
 62
   240
  6
CONTINUOUS
  0
LAYER
  5
12A
330
2
100
AcDbSymbolTableRecord
100
AcDbLayerTableRecord
  2
241
 70
     0
 62
   241
  6
CONTINUOUS
  0
LAYER
  5
12B
330
2
100
AcDbSymbolTableRecord
100
AcDbLayerTableRecord
  2
242
 70
     0
 62
   242
  6
CONTINUOUS
  0
LAYER
  5
12C
330
2
100
AcDbSymbolTableRecord
100
AcDbLayerTableRecord
  2
243
 70
     0
 62
   243
  6
CONTINUOUS
  0
LAYER
  5
12D
330
2
100
AcDbSymbolTableRecord
100
AcDbLayerTableRecord
  2
244
 70
     0
 62
   244
  6
CONTINUOUS
  0
LAYER
  5
12E
330
2
100
AcDbSymbolTableRecord
100
AcDbLayerTableRecord
  2
245
 70
     0
 62
   245
  6
CONTINUOUS
  0
LAYER
  5
12F
330
2
100
AcDbSymbolTableRecord
100
AcDbLayerTableRecord
  2
246
 70
     0
 62
   246
  6
CONTINUOUS
  0
LAYER
  5
130
330
2
100
AcDbSymbolTableRecord
100
AcDbLayerTableRecord
  2
247
 70
     0
 62
   247
  6
CONTINUOUS
  0
LAYER
  5
131
330
2
100
AcDbSymbolTableRecord
100
AcDbLayerTableRecord
  2
248
 70
     0
 62
   248
  6
CONTINUOUS
  0
LAYER
  5
132
330
2
100
AcDbSymbolTableRecord
100
AcDbLayerTableRecord
  2
249
 70
     0
 62
   249
  6
CONTINUOUS
  0
LAYER
  5
133
330
2
100
AcDbSymbolTableRecord
100
AcDbLayerTableRecord
  2
250
 70
     0
 62
   250
  6
CONTINUOUS
  0
LAYER
  5
134
330
2
100
AcDbSymbolTableRecord
100
AcDbLayerTableRecord
  2
251
 70
     0
 62
   251
  6
CONTINUOUS
  0
LAYER
  5
135
330
2
100
AcDbSymbolTableRecord
100
AcDbLayerTableRecord
  2
252
 70
     0
 62
   252
  6
CONTINUOUS
  0
LAYER
  5
136
330
2
100
AcDbSymbolTableRecord
100
AcDbLayerTableRecord
  2
253
 70
     0
 62
   253
  6
CONTINUOUS
  0
LAYER
  5
137
330
2
100
AcDbSymbolTableRecord
100
AcDbLayerTableRecord
  2
254
 70
     0
 62
   254
  6
CONTINUOUS
  0
LAYER
  5
138
330
2
100
AcDbSymbolTableRecord
100
AcDbLayerTableRecord
  2
255
 70
     0
 62
   255
  6
CONTINUOUS
  0
LAYER
  5
3B16
330
2
100
AcDbSymbolTableRecord
100
AcDbLayerTableRecord
  2
DEFPOINTS
 70
     0
 62
     7
  6
CONTINUOUS
  0
ENDTAB
  0
TABLE
  2
STYLE
  5
3
330
0
100
AcDbSymbolTable
 70
     1
  0
STYLE
  5
11
330
3
100
AcDbSymbolTableRecord
100
AcDbTextStyleTableRecord
  2
STANDARD
 70
     0
 40
0.0
 41
1.0
 50
0.0
 71
     0
 42
0.2
  3
monotxt
  4

  0
ENDTAB
  0
TABLE
  2
VIEW
  5
6
330
0
100
AcDbSymbolTable
 70
     0
  0
ENDTAB
  0
TABLE
  2
UCS
  5
7
330
0
100
AcDbSymbolTable
 70
     0
  0
ENDTAB
  0
TABLE
  2
APPID
  5
9
330
0
100
AcDbSymbolTable
 70
     1
  0
APPID
  5
12
330
9
100
AcDbSymbolTableRecord
100
AcDbRegAppTableRecord
  2
ACAD
 70
     0
  0
ENDTAB
  0
TABLE
  2
DIMSTYLE
  5
A
330
0
100
AcDbSymbolTable
 70
     1
  0
DIMSTYLE
105
34FE
330
A
100
AcDbSymbolTableRecord
100
AcDbDimStyleTableRecord
  2
STANDARD
 70
     0
  3

  4

  5

  6

  7

 40
1.0
 41
0.18
 42
0.0625
 43
0.38
 44
0.18
 45
0.0
 46
0.0
 47
0.0
 48
0.0
140
0.18
141
0.09
142
0.0
143
25.4
144
1.0
145
0.0
146
1.0
147
0.09
 71
     0
 72
     0
 73
     1
 74
     1
 75
     0
 76
     0
 77
     0
 78
     0
170
     0
171
     2
172
     0
173
     0
174
     0
175
     0
176
     0
177
     0
178
     0
270
     2
271
     4
272
     4
273
     2
274
     2
340
11
275
     0
280
     0
281
     0
282
     0
283
     1
284
     0
285
     0
286
     0
287
     3
288
     0
  0
ENDTAB
  0
TABLE
  2
BLOCK_RECORD
  5
1
330
0
100
AcDbSymbolTable
 70
     1
  0
BLOCK_RECORD
  5
1E
102
{ACAD_XDICTIONARY
360
3B25
102
}
330
1
100
AcDbSymbolTableRecord
100
AcDbBlockTableRecord
  2
*MODEL_SPACE
  0
BLOCK_RECORD
  5
1A
102
{ACAD_XDICTIONARY
360
3B27
102
}
330
1
100
AcDbSymbolTableRecord
100
AcDbBlockTableRecord
  2
*PAPER_SPACE
  0
ENDTAB
  0
ENDSEC
  0
SECTION
  2
BLOCKS
  0
BLOCK
  5
13B
330
1E
100
AcDbEntity
  8
0
100
AcDbBlockBegin
  2
*MODEL_SPACE
 70
     0
 10
0.0
 20
0.0
 30
0.0
  3
*MODEL_SPACE
  1

  0
ENDBLK
  5
13C
330
1E
100
AcDbEntity
  8
0
100
AcDbBlockEnd
  0
BLOCK
  5
139
330
1A
100
AcDbEntity
 67
     1
  8
0
100
AcDbBlockBegin
  2
*PAPER_SPACE
 70
     0
 10
0.0
 20
0.0
 30
0.0
  3
*PAPER_SPACE
  1

  0
ENDBLK
  5
13A
330
1A
100
AcDbEntity
 67
     1
  8
0
100
AcDbBlockEnd
  0
ENDSEC
  0
SECTION
  2
ENTITIES
  0
LINE
  5
2F0F
330
1E
100
AcDbEntity
  8
3
100
AcDbLine
 10
7.160433070866141
 20
7.464566929133857
 30
0.0
 11
7.160433070866141
 21
8.933070866141731
 31
0.0
  0
LINE
  5
2F1E
330
1E
100
AcDbEntity
  8
3
100
AcDbLine
 10
6.987204724409448
 20
7.616141732283464
 30
0.0
 11
6.987204724409448
 21
8.781496062992125
 31
0.0
  0
LINE
  5
2F1F
330
1E
100
AcDbEntity
  8
3
100
AcDbLine
 10
7.008858267716535
 20
8.834645669291338
 30
0.0
 11
7.160433070866141
 21
8.986220472440944
 31
0.0
  0
LINE
  5
2F26
330
1E
100
AcDbEntity
  8
3
100
AcDbLine
 10
7.160433070866141
 20
7.411417322834644
 30
0.0
 11
7.008858267716535
 21
7.562992125984251
 31
0.0
  0
LINE
  5
2F47
330
1E
100
AcDbEntity
  8
3
100
AcDbLine
 10
7.17027559055118
 20
8.115157480314961
 30
0.0
 11
7.160433070866141
 21
8.11023622047244
 31
0.0
  0
LINE
  5
2F5E
330
1E
100
AcDbEntity
  8
3
100
AcDbLine
 10
6.931102362204724
 20
7.692913385826772
 30
0.0
 11
6.928149606299212
 21
7.702755905511811
 31
0.0
  0
LINE
  5
2F5F
330
1E
100
AcDbEntity
  8
3
100
AcDbLine
 10
6.987204724409448
 20
7.666338582677164
 30
0.0
 11
6.950787401574802
 21
7.668307086614172
 31
0.0
  0
LINE
  5
2F60
330
1E
100
AcDbEntity
  8
3
100
AcDbLine
 10
6.945866141732283
 20
7.708661417322835
 30
0.0
 11
6.987204724409448
 21
7.705708661417322
 31
0.0
  0
LINE
  5
2F61
330
1E
100
AcDbEntity
  8
3
100
AcDbLine
 10
7.198818897637794
 20
8.151574803149605
 30
0.0
 11
7.160433070866141
 21
8.151574803149605
 31
0.0
  0
LINE
  5
2F62
330
1E
100
AcDbEntity
  8
3
100
AcDbLine
 10
7.173228346456692
 20
8.122047244094487
 30
0.0
 11
7.17027559055118
 21
8.115157480314961
 31
0.0
  0
LINE
  5
2F63
330
1E
100
AcDbEntity
  8
3
100
AcDbLine
 10
7.167322834645668
 20
8.133858267716535
 30
0.0
 11
7.173228346456692
 21
8.122047244094487
 31
0.0
  0
LINE
  5
2F64
330
1E
100
AcDbEntity
  8
3
100
AcDbLine
 10
7.160433070866141
 20
8.14271653543307
 30
0.0
 11
7.167322834645668
 21
8.133858267716535
 31
0.0
  0
LINE
  5
2F65
330
1E
100
AcDbEntity
  8
3
100
AcDbLine
 10
6.940944881889762
 20
8.756889763779527
 30
0.0
 11
6.987204724409448
 21
8.760826771653542
 31
0.0
  0
LINE
  5
2F82
330
1E
100
AcDbEntity
  8
3
100
AcDbLine
 10
6.744094488188975
 20
8.433070866141731
 30
0.0
 11
6.913385826771652
 21
8.727362204724409
 31
0.0
  0
LINE
  5
2F92
330
1E
100
AcDbEntity
  8
3
100
AcDbLine
 10
6.759842519685038
 20
8.423228346456692
 30
0.0
 11
6.759842519685038
 21
8.403543307086613
 31
0.0
  0
LINE
  5
2F93
330
1E
100
AcDbEntity
  8
3
100
AcDbLine
 10
6.741141732283463
 20
8.403543307086613
 30
0.0
 11
6.741141732283463
 21
8.423228346456692
 31
0.0
  0
LINE
  5
2F99
330
1E
100
AcDbEntity
  8
3
100
AcDbLine
 10
6.759842519685038
 20
8.403543307086613
 30
0.0
 11
6.945866141732283
 21
7.708661417322835
 31
0.0
  0
LINE
  5
3235
330
1E
100
AcDbEntity
  8
3
100
AcDbLine
 10
4.532480314960629
 20
8.658464566929133
 30
0.0
 11
4.560039370078739
 21
8.658464566929133
 31
0.0
  0
LINE
  5
3236
330
1E
100
AcDbEntity
  8
3
100
AcDbLine
 10
5.68011811023622
 20
7.464566929133857
 30
0.0
 11
5.68011811023622
 21
8.933070866141731
 31
0.0
  0
LINE
  5
323E
330
1E
100
AcDbEntity
  8
3
100
AcDbLine
 10
4.158464566929133
 20
7.411417322834644
 30
0.0
 11
5.626968503937007
 21
7.411417322834644
 31
0.0
  0
LINE
  5
3246
330
1E
100
AcDbEntity
  8
3
100
AcDbLine
 10
4.106299212598425
 20
8.933070866141731
 30
0.0
 11
4.106299212598425
 21
7.464566929133857
 31
0.0
  0
LINE
  5
324E
330
1E
100
AcDbEntity
  8
3
100
AcDbLine
 10
5.626968503937007
 20
8.986220472440944
 30
0.0
 11
4.158464566929133
 21
8.986220472440944
 31
0.0
  0
LINE
  5
3255
330
1E
100
AcDbEntity
  8
3
100
AcDbLine
 10
5.677165354330708
 20
8.954724409448818
 30
0.0
 11
5.68011811023622
 21
8.933070866141731
 31
0.0
  0
LINE
  5
325D
330
1E
100
AcDbEntity
  8
3
100
AcDbLine
 10
5.226377952755905
 20
8.658464566929133
 30
0.0
 11
5.253937007874015
 21
8.658464566929133
 31
0.0
  0
LINE
  5
325E
330
1E
100
AcDbEntity
  8
3
100
AcDbLine
 10
5.353346456692912
 20
8.315944881889762
 30
0.0
 11
5.353346456692912
 21
8.047244094488188
 31
0.0
  0
LINE
  5
325F
330
1E
100
AcDbEntity
  8
3
100
AcDbLine
 10
4.433070866141731
 20
8.047244094488188
 30
0.0
 11
4.433070866141731
 21
8.315944881889762
 31
0.0
  0
LINE
  5
3278
330
1E
100
AcDbEntity
  8
3
100
AcDbLine
 10
5.529527559055117
 20
7.616141732283464
 30
0.0
 11
5.515748031496062
 21
7.594488188976377
 31
0.0
  0
LINE
  5
32B5
330
1E
100
AcDbEntity
  8
3
100
AcDbLine
 10
5.167322834645668
 20
8.339566929133857
 30
0.0
 11
5.160433070866141
 21
8.339566929133857
 31
0.0
  0
LINE
  5
32B6
330
1E
100
AcDbEntity
  8
3
100
AcDbLine
 10
5.156496062992125
 20
8.315944881889762
 30
0.0
 11
5.160433070866141
 21
8.339566929133857
 31
0.0
  0
LINE
  5
32B7
330
1E
100
AcDbEntity
  8
3
100
AcDbLine
 10
5.156496062992125
 20
8.315944881889762
 30
0.0
 11
4.94783464566929
 21
8.315944881889762
 31
0.0
  0
LINE
  5
32B8
330
1E
100
AcDbEntity
  8
3
100
AcDbLine
 10
4.942913385826771
 20
8.339566929133857
 30
0.0
 11
4.94783464566929
 21
8.315944881889762
 31
0.0
  0
LINE
  5
32B9
330
1E
100
AcDbEntity
  8
3
100
AcDbLine
 10
4.942913385826771
 20
8.339566929133857
 30
0.0
 11
4.937007874015747
 21
8.339566929133857
 31
0.0
  0
LINE
  5
32BA
330
1E
100
AcDbEntity
  8
3
100
AcDbLine
 10
5.260826771653542
 20
8.339566929133857
 30
0.0
 11
5.264763779527558
 21
8.315944881889762
 31
0.0
  0
LINE
  5
32BB
330
1E
100
AcDbEntity
  8
3
100
AcDbLine
 10
5.260826771653542
 20
8.339566929133857
 30
0.0
 11
5.253937007874015
 21
8.339566929133857
 31
0.0
  0
LINE
  5
32BC
330
1E
100
AcDbEntity
  8
3
100
AcDbLine
 10
5.367125984251968
 20
8.315944881889762
 30
0.0
 11
5.264763779527558
 21
8.315944881889762
 31
0.0
  0
LINE
  5
32C7
330
1E
100
AcDbEntity
  8
3
100
AcDbLine
 10
4.849409448818897
 20
8.339566929133857
 30
0.0
 11
4.843503937007874
 21
8.339566929133857
 31
0.0
  0
LINE
  5
32C8
330
1E
100
AcDbEntity
  8
3
100
AcDbLine
 10
4.838582677165353
 20
8.315944881889762
 30
0.0
 11
4.843503937007874
 21
8.339566929133857
 31
0.0
  0
LINE
  5
32C9
330
1E
100
AcDbEntity
  8
3
100
AcDbLine
 10
4.838582677165353
 20
8.315944881889762
 30
0.0
 11
4.629921259842519
 21
8.315944881889762
 31
0.0
  0
LINE
  5
32CA
330
1E
100
AcDbEntity
  8
3
100
AcDbLine
 10
4.625
 20
8.339566929133857
 30
0.0
 11
4.629921259842519
 21
8.315944881889762
 31
0.0
  0
LINE
  5
32CB
330
1E
100
AcDbEntity
  8
3
100
AcDbLine
 10
4.625
 20
8.339566929133857
 30
0.0
 11
4.619094488188975
 21
8.339566929133857
 31
0.0
  0
LINE
  5
32CC
330
1E
100
AcDbEntity
  8
3
100
AcDbLine
 10
4.937007874015747
 20
8.32283464566929
 30
0.0
 11
4.849409448818897
 21
8.32283464566929
 31
0.0
  0
LINE
  5
32D3
330
1E
100
AcDbEntity
  8
3
100
AcDbLine
 10
4.531496062992125
 20
8.339566929133857
 30
0.0
 11
4.525590551181101
 21
8.339566929133857
 31
0.0
  0
LINE
  5
32D4
330
1E
100
AcDbEntity
  8
3
100
AcDbLine
 10
4.520669291338582
 20
8.315944881889762
 30
0.0
 11
4.525590551181101
 21
8.339566929133857
 31
0.0
  0
LINE
  5
32D5
330
1E
100
AcDbEntity
  8
3
100
AcDbLine
 10
4.520669291338582
 20
8.315944881889762
 30
0.0
 11
4.419291338582676
 21
8.315944881889762
 31
0.0
  0
LINE
  5
32D6
330
1E
100
AcDbEntity
  8
3
100
AcDbLine
 10
4.619094488188975
 20
8.32283464566929
 30
0.0
 11
4.531496062992125
 21
8.32283464566929
 31
0.0
  0
LINE
  5
32D7
330
1E
100
AcDbEntity
  8
3
100
AcDbLine
 10
4.619094488188975
 20
8.348425196850392
 30
0.0
 11
4.619094488188975
 21
8.32283464566929
 31
0.0
  0
LINE
  5
32D8
330
1E
100
AcDbEntity
  8
3
100
AcDbLine
 10
4.619094488188975
 20
8.348425196850392
 30
0.0
 11
4.531496062992125
 21
8.348425196850392
 31
0.0
  0
LINE
  5
32D9
330
1E
100
AcDbEntity
  8
3
100
AcDbLine
 10
4.531496062992125
 20
8.32283464566929
 30
0.0
 11
4.531496062992125
 21
8.348425196850392
 31
0.0
  0
LINE
  5
32DA
330
1E
100
AcDbEntity
  8
3
100
AcDbLine
 10
4.853346456692912
 20
8.635826771653542
 30
0.0
 11
4.932086614173227
 21
8.635826771653542
 31
0.0
  0
LINE
  5
32DB
330
1E
100
AcDbEntity
  8
3
100
AcDbLine
 10
4.932086614173227
 20
8.562992125984251
 30
0.0
 11
4.853346456692912
 21
8.562992125984251
 31
0.0
  0
LINE
  5
32DC
330
1E
100
AcDbEntity
  8
3
100
AcDbLine
 10
5.257874015748031
 20
8.115157480314961
 30
0.0
 11
5.261811023622047
 21
8.019685039370077
 31
0.0
  0
LINE
  5
32E6
330
1E
100
AcDbEntity
  8
3
100
AcDbLine
 10
4.943897637795275
 20
8.019685039370077
 30
0.0
 11
5.015748031496062
 21
8.019685039370077
 31
0.0
  0
LINE
  5
32E7
330
1E
100
AcDbEntity
  8
3
100
AcDbLine
 10
4.939960629921259
 20
8.115157480314961
 30
0.0
 11
4.943897637795275
 21
8.019685039370077
 31
0.0
  0
LINE
  5
32E8
330
1E
100
AcDbEntity
  8
3
100
AcDbLine
 10
4.845472440944881
 20
8.115157480314961
 30
0.0
 11
4.939960629921259
 21
8.115157480314961
 31
0.0
  0
LINE
  5
32F1
330
1E
100
AcDbEntity
  8
3
100
AcDbLine
 10
4.626968503937007
 20
8.019685039370077
 30
0.0
 11
4.69783464566929
 21
8.019685039370077
 31
0.0
  0
LINE
  5
32F2
330
1E
100
AcDbEntity
  8
3
100
AcDbLine
 10
4.623031496062991
 20
8.115157480314961
 30
0.0
 11
4.626968503937007
 21
8.019685039370077
 31
0.0
  0
LINE
  5
32F8
330
1E
100
AcDbEntity
  8
3
100
AcDbLine
 10
4.452755905511811
 20
8.019685039370077
 30
0.0
 11
4.524606299212598
 21
8.019685039370077
 31
0.0
  0
LINE
  5
32FE
330
1E
100
AcDbEntity
  8
3
100
AcDbLine
 10
4.419291338582676
 20
7.956692913385825
 30
0.0
 11
5.367125984251968
 21
7.956692913385825
 31
0.0
  0
LINE
  5
3305
330
1E
100
AcDbEntity
  8
3
100
AcDbLine
 10
4.345472440944881
 20
8.721456692913385
 30
0.0
 11
4.345472440944881
 21
7.705708661417322
 31
0.0
  0
LINE
  5
330C
330
1E
100
AcDbEntity
  8
3
100
AcDbLine
 10
5.401574803149605
 20
8.760826771653542
 30
0.0
 11
4.384842519685038
 21
8.760826771653542
 31
0.0
  0
LINE
  5
3313
330
1E
100
AcDbEntity
  8
3
100
AcDbLine
 10
5.439960629921259
 20
7.705708661417322
 30
0.0
 11
5.439960629921259
 21
8.721456692913385
 31
0.0
  0
LINE
  5
331A
330
1E
100
AcDbEntity
  8
3
100
AcDbLine
 10
4.384842519685038
 20
7.666338582677164
 30
0.0
 11
5.401574803149605
 21
7.666338582677164
 31
0.0
  0
LINE
  5
3320
330
1E
100
AcDbEntity
  8
3
100
AcDbLine
 10
4.351377952755905
 20
7.686023622047244
 30
0.0
 11
4.345472440944881
 21
7.705708661417322
 31
0.0
  0
LINE
  5
3338
330
1E
100
AcDbEntity
  8
3
100
AcDbLine
 10
4.38779527559055
 20
7.683070866141731
 30
0.0
 11
5.398622047244094
 21
7.683070866141731
 31
0.0
  0
LINE
  5
333E
330
1E
100
AcDbEntity
  8
3
100
AcDbLine
 10
5.398622047244094
 20
7.668307086614172
 30
0.0
 11
4.38779527559055
 21
7.668307086614172
 31
0.0
  0
LINE
  5
3351
330
1E
100
AcDbEntity
  8
3
100
AcDbLine
 10
4.38779527559055
 20
7.668307086614172
 30
0.0
 11
4.384842519685038
 21
7.666338582677164
 31
0.0
  0
LINE
  5
3352
330
1E
100
AcDbEntity
  8
3
100
AcDbLine
 10
4.345472440944881
 20
7.705708661417322
 30
0.0
 11
4.348425196850393
 21
7.708661417322835
 31
0.0
  0
LINE
  5
3353
330
1E
100
AcDbEntity
  8
3
100
AcDbLine
 10
5.401574803149605
 20
7.666338582677164
 30
0.0
 11
5.398622047244094
 21
7.668307086614172
 31
0.0
  0
LINE
  5
3354
330
1E
100
AcDbEntity
  8
3
100
AcDbLine
 10
5.437007874015747
 20
7.708661417322835
 30
0.0
 11
5.439960629921259
 21
7.705708661417322
 31
0.0
  0
LINE
  5
3355
330
1E
100
AcDbEntity
  8
3
100
AcDbLine
 10
5.163385826771652
 20
8.151574803149605
 30
0.0
 11
5.257874015748031
 21
8.151574803149605
 31
0.0
  0
LINE
  5
3356
330
1E
100
AcDbEntity
  8
3
100
AcDbLine
 10
5.163385826771652
 20
8.122047244094487
 30
0.0
 11
5.163385826771652
 21
8.115157480314961
 31
0.0
  0
LINE
  5
3357
330
1E
100
AcDbEntity
  8
3
100
AcDbLine
 10
5.257874015748031
 20
8.122047244094487
 30
0.0
 11
5.257874015748031
 21
8.115157480314961
 31
0.0
  0
LINE
  5
3358
330
1E
100
AcDbEntity
  8
3
100
AcDbLine
 10
5.257874015748031
 20
8.122047244094487
 30
0.0
 11
5.163385826771652
 21
8.122047244094487
 31
0.0
  0
LINE
  5
3359
330
1E
100
AcDbEntity
  8
3
100
AcDbLine
 10
5.163385826771652
 20
8.133858267716535
 30
0.0
 11
5.163385826771652
 21
8.122047244094487
 31
0.0
  0
LINE
  5
335A
330
1E
100
AcDbEntity
  8
3
100
AcDbLine
 10
5.257874015748031
 20
8.133858267716535
 30
0.0
 11
5.257874015748031
 21
8.122047244094487
 31
0.0
  0
LINE
  5
335B
330
1E
100
AcDbEntity
  8
3
100
AcDbLine
 10
5.257874015748031
 20
8.133858267716535
 30
0.0
 11
5.163385826771652
 21
8.133858267716535
 31
0.0
  0
LINE
  5
335C
330
1E
100
AcDbEntity
  8
3
100
AcDbLine
 10
5.163385826771652
 20
8.145669291338581
 30
0.0
 11
5.163385826771652
 21
8.133858267716535
 31
0.0
  0
LINE
  5
335D
330
1E
100
AcDbEntity
  8
3
100
AcDbLine
 10
5.257874015748031
 20
8.145669291338581
 30
0.0
 11
5.257874015748031
 21
8.133858267716535
 31
0.0
  0
LINE
  5
335E
330
1E
100
AcDbEntity
  8
3
100
AcDbLine
 10
5.257874015748031
 20
8.145669291338581
 30
0.0
 11
5.163385826771652
 21
8.145669291338581
 31
0.0
  0
LINE
  5
3364
330
1E
100
AcDbEntity
  8
3
100
AcDbLine
 10
5.163385826771652
 20
8.145669291338581
 30
0.0
 11
5.163385826771652
 21
8.146653543307087
 31
0.0
  0
LINE
  5
3365
330
1E
100
AcDbEntity
  8
3
100
AcDbLine
 10
5.163385826771652
 20
8.151574803149605
 30
0.0
 11
5.163385826771652
 21
8.146653543307087
 31
0.0
  0
LINE
  5
3366
330
1E
100
AcDbEntity
  8
3
100
AcDbLine
 10
5.257874015748031
 20
8.151574803149605
 30
0.0
 11
5.257874015748031
 21
8.146653543307087
 31
0.0
  0
LINE
  5
3367
330
1E
100
AcDbEntity
  8
3
100
AcDbLine
 10
4.845472440944881
 20
8.151574803149605
 30
0.0
 11
4.939960629921259
 21
8.151574803149605
 31
0.0
  0
LINE
  5
3368
330
1E
100
AcDbEntity
  8
3
100
AcDbLine
 10
4.939960629921259
 20
8.122047244094487
 30
0.0
 11
4.939960629921259
 21
8.115157480314961
 31
0.0
  0
LINE
  5
3369
330
1E
100
AcDbEntity
  8
3
100
AcDbLine
 10
4.846456692913385
 20
8.122047244094487
 30
0.0
 11
4.939960629921259
 21
8.122047244094487
 31
0.0
  0
LINE
  5
336A
330
1E
100
AcDbEntity
  8
3
100
AcDbLine
 10
4.846456692913385
 20
8.122047244094487
 30
0.0
 11
4.845472440944881
 21
8.115157480314961
 31
0.0
  0
LINE
  5
336B
330
1E
100
AcDbEntity
  8
3
100
AcDbLine
 10
4.939960629921259
 20
8.133858267716535
 30
0.0
 11
4.939960629921259
 21
8.122047244094487
 31
0.0
  0
LINE
  5
336C
330
1E
100
AcDbEntity
  8
3
100
AcDbLine
 10
4.846456692913385
 20
8.133858267716535
 30
0.0
 11
4.939960629921259
 21
8.133858267716535
 31
0.0
  0
LINE
  5
336D
330
1E
100
AcDbEntity
  8
3
100
AcDbLine
 10
4.846456692913385
 20
8.133858267716535
 30
0.0
 11
4.846456692913385
 21
8.122047244094487
 31
0.0
  0
LINE
  5
336E
330
1E
100
AcDbEntity
  8
3
100
AcDbLine
 10
4.939960629921259
 20
8.145669291338581
 30
0.0
 11
4.939960629921259
 21
8.133858267716535
 31
0.0
  0
LINE
  5
336F
330
1E
100
AcDbEntity
  8
3
100
AcDbLine
 10
4.845472440944881
 20
8.145669291338581
 30
0.0
 11
4.939960629921259
 21
8.145669291338581
 31
0.0
  0
LINE
  5
3370
330
1E
100
AcDbEntity
  8
3
100
AcDbLine
 10
4.845472440944881
 20
8.145669291338581
 30
0.0
 11
4.846456692913385
 21
8.133858267716535
 31
0.0
  0
LINE
  5
3371
330
1E
100
AcDbEntity
  8
3
100
AcDbLine
 10
4.939960629921259
 20
8.145669291338581
 30
0.0
 11
4.939960629921259
 21
8.146653543307087
 31
0.0
  0
LINE
  5
3372
330
1E
100
AcDbEntity
  8
3
100
AcDbLine
 10
4.845472440944881
 20
8.146653543307087
 30
0.0
 11
4.939960629921259
 21
8.146653543307087
 31
0.0
  0
LINE
  5
3373
330
1E
100
AcDbEntity
  8
3
100
AcDbLine
 10
4.845472440944881
 20
8.145669291338581
 30
0.0
 11
4.845472440944881
 21
8.146653543307087
 31
0.0
  0
LINE
  5
3374
330
1E
100
AcDbEntity
  8
3
100
AcDbLine
 10
4.939960629921259
 20
8.151574803149605
 30
0.0
 11
4.939960629921259
 21
8.146653543307087
 31
0.0
  0
LINE
  5
3375
330
1E
100
AcDbEntity
  8
3
100
AcDbLine
 10
4.845472440944881
 20
8.151574803149605
 30
0.0
 11
4.845472440944881
 21
8.146653543307087
 31
0.0
  0
LINE
  5
3376
330
1E
100
AcDbEntity
  8
3
100
AcDbLine
 10
4.528543307086613
 20
8.151574803149605
 30
0.0
 11
4.623031496062991
 21
8.151574803149605
 31
0.0
  0
LINE
  5
3377
330
1E
100
AcDbEntity
  8
3
100
AcDbLine
 10
4.528543307086613
 20
8.122047244094487
 30
0.0
 11
4.528543307086613
 21
8.115157480314961
 31
0.0
  0
LINE
  5
3378
330
1E
100
AcDbEntity
  8
3
100
AcDbLine
 10
4.623031496062991
 20
8.122047244094487
 30
0.0
 11
4.623031496062991
 21
8.115157480314961
 31
0.0
  0
LINE
  5
3379
330
1E
100
AcDbEntity
  8
3
100
AcDbLine
 10
4.623031496062991
 20
8.122047244094487
 30
0.0
 11
4.528543307086613
 21
8.122047244094487
 31
0.0
  0
LINE
  5
337A
330
1E
100
AcDbEntity
  8
3
100
AcDbLine
 10
4.528543307086613
 20
8.133858267716535
 30
0.0
 11
4.528543307086613
 21
8.122047244094487
 31
0.0
  0
LINE
  5
337B
330
1E
100
AcDbEntity
  8
3
100
AcDbLine
 10
4.623031496062991
 20
8.133858267716535
 30
0.0
 11
4.623031496062991
 21
8.122047244094487
 31
0.0
  0
LINE
  5
337C
330
1E
100
AcDbEntity
  8
3
100
AcDbLine
 10
4.623031496062991
 20
8.133858267716535
 30
0.0
 11
4.528543307086613
 21
8.133858267716535
 31
0.0
  0
LINE
  5
337D
330
1E
100
AcDbEntity
  8
3
100
AcDbLine
 10
4.528543307086613
 20
8.145669291338581
 30
0.0
 11
4.528543307086613
 21
8.133858267716535
 31
0.0
  0
LINE
  5
337E
330
1E
100
AcDbEntity
  8
3
100
AcDbLine
 10
4.623031496062991
 20
8.145669291338581
 30
0.0
 11
4.623031496062991
 21
8.133858267716535
 31
0.0
  0
LINE
  5
337F
330
1E
100
AcDbEntity
  8
3
100
AcDbLine
 10
4.623031496062991
 20
8.145669291338581
 30
0.0
 11
4.528543307086613
 21
8.145669291338581
 31
0.0
  0
LINE
  5
3385
330
1E
100
AcDbEntity
  8
3
100
AcDbLine
 10
4.528543307086613
 20
8.145669291338581
 30
0.0
 11
4.528543307086613
 21
8.146653543307087
 31
0.0
  0
LINE
  5
3386
330
1E
100
AcDbEntity
  8
3
100
AcDbLine
 10
4.528543307086613
 20
8.151574803149605
 30
0.0
 11
4.528543307086613
 21
8.146653543307087
 31
0.0
  0
LINE
  5
3387
330
1E
100
AcDbEntity
  8
3
100
AcDbLine
 10
4.623031496062991
 20
8.151574803149605
 30
0.0
 11
4.623031496062991
 21
8.146653543307087
 31
0.0
  0
LINE
  5
3388
330
1E
100
AcDbEntity
  8
3
100
AcDbLine
 10
4.826771653543306
 20
8.574803149606298
 30
0.0
 11
4.959645669291337
 21
8.574803149606298
 31
0.0
  0
LINE
  5
3389
330
1E
100
AcDbEntity
  8
3
100
AcDbLine
 10
4.826771653543306
 20
8.623031496062992
 30
0.0
 11
4.959645669291337
 21
8.623031496062992
 31
0.0
  0
LINE
  5
338A
330
1E
100
AcDbEntity
  8
3
100
AcDbLine
 10
4.853346456692912
 20
8.635826771653542
 30
0.0
 11
4.835629921259842
 21
8.630905511811024
 31
0.0
  0
LINE
  5
33B0
330
1E
100
AcDbEntity
  8
3
100
AcDbLine
 10
4.932086614173227
 20
8.536417322834644
 30
0.0
 11
4.853346456692912
 21
8.536417322834644
 31
0.0
  0
LINE
  5
33BB
330
1E
100
AcDbEntity
  8
3
100
AcDbLine
 10
4.955708661417322
 20
8.656496062992125
 30
0.0
 11
4.932086614173227
 21
8.661417322834644
 31
0.0
  0
LINE
  5
33BC
330
1E
100
AcDbEntity
  8
3
100
AcDbLine
 10
4.932086614173227
 20
8.661417322834644
 30
0.0
 11
4.853346456692912
 21
8.661417322834644
 31
0.0
  0
LINE
  5
33D9
330
1E
100
AcDbEntity
  8
3
100
AcDbLine
 10
5.397637795275589
 20
8.747047244094487
 30
0.0
 11
4.388779527559054
 21
8.747047244094487
 31
0.0
  0
LINE
  5
33EC
330
1E
100
AcDbEntity
  8
3
100
AcDbLine
 10
4.3503937007874
 20
8.71751968503937
 30
0.0
 11
4.345472440944881
 21
8.721456692913385
 31
0.0
  0
LINE
  5
33ED
330
1E
100
AcDbEntity
  8
3
100
AcDbLine
 10
5.439960629921259
 20
8.721456692913385
 30
0.0
 11
5.436023622047243
 21
8.71751968503937
 31
0.0
  0
LINE
  5
33EE
330
1E
100
AcDbEntity
  8
3
100
AcDbLine
 10
5.238188976377952
 20
8.676181102362203
 30
0.0
 11
4.548228346456692
 21
8.676181102362203
 31
0.0
  0
LINE
  5
33EF
330
1E
100
AcDbEntity
  8
3
100
AcDbLine
 10
4.932086614173227
 20
8.662401574803149
 30
0.0
 11
4.853346456692912
 21
8.662401574803149
 31
0.0
  0
LINE
  5
33F0
330
1E
100
AcDbEntity
  8
3
100
AcDbLine
 10
4.853346456692912
 20
8.661417322834644
 30
0.0
 11
4.853346456692912
 21
8.662401574803149
 31
0.0
  0
LINE
  5
33F1
330
1E
100
AcDbEntity
  8
3
100
AcDbLine
 10
4.932086614173227
 20
8.661417322834644
 30
0.0
 11
4.932086614173227
 21
8.662401574803149
 31
0.0
  0
LINE
  5
33F2
330
1E
100
AcDbEntity
  8
3
100
AcDbLine
 10
5.333661417322834
 20
8.027559055118109
 30
0.0
 11
5.367125984251968
 21
8.027559055118109
 31
0.0
  0
LINE
  5
33F3
330
1E
100
AcDbEntity
  8
3
100
AcDbLine
 10
5.333661417322834
 20
7.998031496062992
 30
0.0
 11
5.333661417322834
 21
8.027559055118109
 31
0.0
  0
LINE
  5
33F4
330
1E
100
AcDbEntity
  8
3
100
AcDbLine
 10
4.451771653543306
 20
8.027559055118109
 30
0.0
 11
4.419291338582676
 21
8.027559055118109
 31
0.0
  0
LINE
  5
33F5
330
1E
100
AcDbEntity
  8
3
100
AcDbLine
 10
4.452755905511811
 20
8.047244094488188
 30
0.0
 11
4.451771653543306
 21
8.027559055118109
 31
0.0
  0
LINE
  5
33F6
330
1E
100
AcDbEntity
  8
3
100
AcDbLine
 10
4.419291338582676
 20
8.047244094488188
 30
0.0
 11
4.452755905511811
 21
8.047244094488188
 31
0.0
  0
LINE
  5
33F7
330
1E
100
AcDbEntity
  8
3
100
AcDbLine
 10
4.451771653543306
 20
7.998031496062992
 30
0.0
 11
4.451771653543306
 21
8.027559055118109
 31
0.0
  0
LINE
  5
33F8
330
1E
100
AcDbEntity
  8
3
100
AcDbLine
 10
4.560039370078739
 20
8.52263779527559
 30
0.0
 11
4.560039370078739
 21
8.676181102362203
 31
0.0
  0
LINE
  5
33F9
330
1E
100
AcDbEntity
  8
3
100
AcDbLine
 10
5.226377952755905
 20
8.676181102362203
 30
0.0
 11
5.226377952755905
 21
8.52263779527559
 31
0.0
  0
LINE
  5
3407
330
1E
100
AcDbEntity
  8
3
100
AcDbLine
 10
4.932086614173227
 20
8.536417322834644
 30
0.0
 11
4.932086614173227
 21
8.534448818897637
 31
0.0
  0
LINE
  5
3408
330
1E
100
AcDbEntity
  8
3
100
AcDbLine
 10
4.853346456692912
 20
8.536417322834644
 30
0.0
 11
4.853346456692912
 21
8.534448818897637
 31
0.0
  0
LINE
  5
3409
330
1E
100
AcDbEntity
  8
3
100
AcDbLine
 10
4.932086614173227
 20
8.534448818897637
 30
0.0
 11
4.853346456692912
 21
8.534448818897637
 31
0.0
  0
LINE
  5
341A
330
1E
100
AcDbEntity
  8
3
100
AcDbLine
 10
5.33267716535433
 20
8.047244094488188
 30
0.0
 11
5.333661417322834
 21
8.027559055118109
 31
0.0
  0
LINE
  5
341B
330
1E
100
AcDbEntity
  8
3
100
AcDbLine
 10
5.33267716535433
 20
8.047244094488188
 30
0.0
 11
5.33267716535433
 21
8.019685039370077
 31
0.0
  0
LINE
  5
341C
330
1E
100
AcDbEntity
  8
3
100
AcDbLine
 10
5.367125984251968
 20
8.047244094488188
 30
0.0
 11
5.33267716535433
 21
8.047244094488188
 31
0.0
  0
LINE
  5
341D
330
1E
100
AcDbEntity
  8
3
100
AcDbLine
 10
5.08759842519685
 20
8.027559055118109
 30
0.0
 11
5.08759842519685
 21
7.998031496062992
 31
0.0
  0
LINE
  5
341E
330
1E
100
AcDbEntity
  8
3
100
AcDbLine
 10
5.016732283464566
 20
8.027559055118109
 30
0.0
 11
5.08759842519685
 21
8.027559055118109
 31
0.0
  0
LINE
  5
341F
330
1E
100
AcDbEntity
  8
3
100
AcDbLine
 10
5.016732283464566
 20
7.998031496062992
 30
0.0
 11
5.016732283464566
 21
8.027559055118109
 31
0.0
  0
LINE
  5
3420
330
1E
100
AcDbEntity
  8
3
100
AcDbLine
 10
5.015748031496062
 20
8.047244094488188
 30
0.0
 11
5.016732283464566
 21
8.027559055118109
 31
0.0
  0
LINE
  5
3421
330
1E
100
AcDbEntity
  8
3
100
AcDbLine
 10
5.015748031496062
 20
8.047244094488188
 30
0.0
 11
5.015748031496062
 21
8.019685039370077
 31
0.0
  0
LINE
  5
3422
330
1E
100
AcDbEntity
  8
3
100
AcDbLine
 10
5.08759842519685
 20
8.047244094488188
 30
0.0
 11
5.015748031496062
 21
8.047244094488188
 31
0.0
  0
LINE
  5
3423
330
1E
100
AcDbEntity
  8
3
100
AcDbLine
 10
5.08759842519685
 20
8.019685039370077
 30
0.0
 11
5.08759842519685
 21
8.047244094488188
 31
0.0
  0
LINE
  5
3424
330
1E
100
AcDbEntity
  8
3
100
AcDbLine
 10
5.08759842519685
 20
8.047244094488188
 30
0.0
 11
5.08759842519685
 21
8.027559055118109
 31
0.0
  0
LINE
  5
3425
330
1E
100
AcDbEntity
  8
3
100
AcDbLine
 10
4.769685039370078
 20
8.027559055118109
 30
0.0
 11
4.769685039370078
 21
7.998031496062992
 31
0.0
  0
LINE
  5
3426
330
1E
100
AcDbEntity
  8
3
100
AcDbLine
 10
4.698818897637795
 20
8.027559055118109
 30
0.0
 11
4.769685039370078
 21
8.027559055118109
 31
0.0
  0
LINE
  5
3427
330
1E
100
AcDbEntity
  8
3
100
AcDbLine
 10
4.698818897637795
 20
7.998031496062992
 30
0.0
 11
4.698818897637795
 21
8.027559055118109
 31
0.0
  0
LINE
  5
3428
330
1E
100
AcDbEntity
  8
3
100
AcDbLine
 10
4.69783464566929
 20
8.047244094488188
 30
0.0
 11
4.698818897637795
 21
8.027559055118109
 31
0.0
  0
LINE
  5
3429
330
1E
100
AcDbEntity
  8
3
100
AcDbLine
 10
4.69783464566929
 20
8.047244094488188
 30
0.0
 11
4.69783464566929
 21
8.019685039370077
 31
0.0
  0
LINE
  5
342A
330
1E
100
AcDbEntity
  8
3
100
AcDbLine
 10
4.770669291338582
 20
8.047244094488188
 30
0.0
 11
4.69783464566929
 21
8.047244094488188
 31
0.0
  0
LINE
  5
3430
330
1E
100
AcDbEntity
  8
3
100
AcDbLine
 10
4.452755905511811
 20
8.047244094488188
 30
0.0
 11
4.452755905511811
 21
8.019685039370077
 31
0.0
  0
LINE
  5
3431
330
1E
100
AcDbEntity
  8
3
100
AcDbLine
 10
4.864173228346456
 20
7.853346456692912
 30
0.0
 11
4.922244094488188
 21
7.853346456692912
 31
0.0
  0
LINE
  5
3432
330
1E
100
AcDbEntity
  8
3
100
AcDbLine
 10
4.954724409448818
 20
7.831692913385825
 30
0.0
 11
4.950787401574802
 21
7.854330708661416
 31
0.0
  0
LINE
  5
3474
330
1E
100
AcDbEntity
  8
3
100
AcDbLine
 10
4.525590551181101
 20
8.348425196850392
 30
0.0
 11
4.525590551181101
 21
8.339566929133857
 31
0.0
  0
LINE
  5
347A
330
1E
100
AcDbEntity
  8
3
100
AcDbLine
 10
4.629921259842519
 20
8.349409448818898
 30
0.0
 11
4.521653543307086
 21
8.349409448818898
 31
0.0
  0
LINE
  5
347B
330
1E
100
AcDbEntity
  8
3
100
AcDbLine
 10
4.531496062992125
 20
8.348425196850392
 30
0.0
 11
4.525590551181101
 21
8.348425196850392
 31
0.0
  0
LINE
  5
347C
330
1E
100
AcDbEntity
  8
3
100
AcDbLine
 10
4.625
 20
8.348425196850392
 30
0.0
 11
4.619094488188975
 21
8.348425196850392
 31
0.0
  0
LINE
  5
347D
330
1E
100
AcDbEntity
  8
3
100
AcDbLine
 10
4.625
 20
8.348425196850392
 30
0.0
 11
4.629921259842519
 21
8.349409448818898
 31
0.0
  0
LINE
  5
347E
330
1E
100
AcDbEntity
  8
3
100
AcDbLine
 10
4.629921259842519
 20
8.315944881889762
 30
0.0
 11
4.629921259842519
 21
8.349409448818898
 31
0.0
  0
LINE
  5
347F
330
1E
100
AcDbEntity
  8
3
100
AcDbLine
 10
4.625
 20
8.348425196850392
 30
0.0
 11
4.625
 21
8.339566929133857
 31
0.0
  0
LINE
  5
3480
330
1E
100
AcDbEntity
  8
3
100
AcDbLine
 10
4.843503937007874
 20
8.348425196850392
 30
0.0
 11
4.843503937007874
 21
8.339566929133857
 31
0.0
  0
LINE
  5
3486
330
1E
100
AcDbEntity
  8
3
100
AcDbLine
 10
4.946850393700787
 20
8.349409448818898
 30
0.0
 11
4.838582677165353
 21
8.349409448818898
 31
0.0
  0
LINE
  5
3487
330
1E
100
AcDbEntity
  8
3
100
AcDbLine
 10
4.849409448818897
 20
8.348425196850392
 30
0.0
 11
4.843503937007874
 21
8.348425196850392
 31
0.0
  0
LINE
  5
3488
330
1E
100
AcDbEntity
  8
3
100
AcDbLine
 10
4.942913385826771
 20
8.348425196850392
 30
0.0
 11
4.937007874015747
 21
8.348425196850392
 31
0.0
  0
LINE
  5
3489
330
1E
100
AcDbEntity
  8
3
100
AcDbLine
 10
4.942913385826771
 20
8.348425196850392
 30
0.0
 11
4.946850393700787
 21
8.349409448818898
 31
0.0
  0
LINE
  5
348A
330
1E
100
AcDbEntity
  8
3
100
AcDbLine
 10
4.94783464566929
 20
8.315944881889762
 30
0.0
 11
4.946850393700787
 21
8.349409448818898
 31
0.0
  0
LINE
  5
348B
330
1E
100
AcDbEntity
  8
3
100
AcDbLine
 10
4.942913385826771
 20
8.348425196850392
 30
0.0
 11
4.942913385826771
 21
8.339566929133857
 31
0.0
  0
LINE
  5
348C
330
1E
100
AcDbEntity
  8
3
100
AcDbLine
 10
5.160433070866141
 20
8.348425196850392
 30
0.0
 11
5.160433070866141
 21
8.339566929133857
 31
0.0
  0
LINE
  5
3492
330
1E
100
AcDbEntity
  8
3
100
AcDbLine
 10
5.264763779527558
 20
8.349409448818898
 30
0.0
 11
5.156496062992125
 21
8.349409448818898
 31
0.0
  0
LINE
  5
3493
330
1E
100
AcDbEntity
  8
3
100
AcDbLine
 10
5.160433070866141
 20
8.348425196850392
 30
0.0
 11
5.167322834645668
 21
8.348425196850392
 31
0.0
  0
LINE
  5
3499
330
1E
100
AcDbEntity
  8
3
100
AcDbLine
 10
5.264763779527558
 20
8.315944881889762
 30
0.0
 11
5.264763779527558
 21
8.349409448818898
 31
0.0
  0
LINE
  5
349A
330
1E
100
AcDbEntity
  8
3
100
AcDbLine
 10
5.260826771653542
 20
8.348425196850392
 30
0.0
 11
5.260826771653542
 21
8.339566929133857
 31
0.0
  0
LINE
  5
349B
330
1E
100
AcDbEntity
  8
3
100
AcDbLine
 10
5.367125984251968
 20
7.956692913385825
 30
0.0
 11
5.367125984251968
 21
8.315944881889762
 31
0.0
  0
LINE
  5
349C
330
1E
100
AcDbEntity
  8
3
100
AcDbLine
 10
4.419291338582676
 20
8.315944881889762
 30
0.0
 11
4.419291338582676
 21
7.956692913385825
 31
0.0
  0
LINE
  5
349D
330
1E
100
AcDbEntity
  8
3
100
AcDbLine
 10
5.436023622047243
 20
8.71751968503937
 30
0.0
 11
5.424212598425196
 21
8.423228346456692
 31
0.0
  0
LINE
  5
349E
330
1E
100
AcDbEntity
  8
3
100
AcDbLine
 10
5.404527559055117
 20
8.433070866141731
 30
0.0
 11
5.416338582677164
 21
8.727362204724409
 31
0.0
  0
LINE
  5
34AB
330
1E
100
AcDbEntity
  8
3
100
AcDbLine
 10
4.381889763779526
 20
8.433070866141731
 30
0.0
 11
5.404527559055117
 21
8.433070866141731
 31
0.0
  0
LINE
  5
34B1
330
1E
100
AcDbEntity
  8
3
100
AcDbLine
 10
5.404527559055117
 20
8.423228346456692
 30
0.0
 11
4.381889763779526
 21
8.423228346456692
 31
0.0
  0
LINE
  5
34B2
330
1E
100
AcDbEntity
  8
3
100
AcDbLine
 10
4.369094488188975
 20
8.727362204724409
 30
0.0
 11
4.381889763779526
 21
8.433070866141731
 31
0.0
  0
LINE
  5
34B3
330
1E
100
AcDbEntity
  8
3
100
AcDbLine
 10
4.362204724409448
 20
8.423228346456692
 30
0.0
 11
4.3503937007874
 21
8.71751968503937
 31
0.0
  0
LINE
  5
34C8
330
1E
100
AcDbEntity
  8
3
100
AcDbLine
 10
5.253937007874015
 20
8.537401574803149
 30
0.0
 11
5.253937007874015
 21
8.66043307086614
 31
0.0
  0
LINE
  5
34CE
330
1E
100
AcDbEntity
  8
3
100
AcDbLine
 10
4.548228346456692
 20
8.52263779527559
 30
0.0
 11
5.238188976377952
 21
8.52263779527559
 31
0.0
  0
LINE
  5
34D4
330
1E
100
AcDbEntity
  8
3
100
AcDbLine
 10
4.532480314960629
 20
8.66043307086614
 30
0.0
 11
4.532480314960629
 21
8.537401574803149
 31
0.0
  0
LINE
  5
34D5
330
1E
100
AcDbEntity
  8
3
100
AcDbLine
 10
4.381889763779526
 20
8.423228346456692
 30
0.0
 11
4.381889763779526
 21
8.403543307086613
 31
0.0
  0
LINE
  5
34D6
330
1E
100
AcDbEntity
  8
3
100
AcDbLine
 10
4.362204724409448
 20
8.403543307086613
 30
0.0
 11
4.362204724409448
 21
8.423228346456692
 31
0.0
  0
LINE
  5
34DC
330
1E
100
AcDbEntity
  8
3
100
AcDbLine
 10
5.424212598425196
 20
8.423228346456692
 30
0.0
 11
5.424212598425196
 21
8.403543307086613
 31
0.0
  0
LINE
  5
34DD
330
1E
100
AcDbEntity
  8
3
100
AcDbLine
 10
5.404527559055117
 20
8.403543307086613
 30
0.0
 11
5.404527559055117
 21
8.423228346456692
 31
0.0
  0
LINE
  5
34E3
330
1E
100
AcDbEntity
  8
3
100
AcDbLine
 10
4.381889763779526
 20
8.403543307086613
 30
0.0
 11
5.404527559055117
 21
8.403543307086613
 31
0.0
  0
LINE
  5
34E4
330
1E
100
AcDbEntity
  8
3
100
AcDbLine
 10
4.348425196850393
 20
7.708661417322835
 30
0.0
 11
4.362204724409448
 21
8.403543307086613
 31
0.0
  0
LINE
  5
34E5
330
1E
100
AcDbEntity
  8
3
100
AcDbLine
 10
5.424212598425196
 20
8.403543307086613
 30
0.0
 11
5.437007874015747
 21
7.708661417322835
 31
0.0
  0
LINE
  5
34E6
330
1E
100
AcDbEntity
  8
3
100
AcDbLine
 10
4.381889763779526
 20
8.398622047244094
 30
0.0
 11
4.368110236220472
 21
7.702755905511811
 31
0.0
  0
LINE
  5
34FC
330
1E
100
AcDbEntity
  8
3
100
AcDbLine
 10
5.404527559055117
 20
8.398622047244094
 30
0.0
 11
4.381889763779526
 21
8.398622047244094
 31
0.0
  0
LINE
  5
34FD
330
1E
100
AcDbEntity
  8
3
100
AcDbLine
 10
4.864173228346456
 20
7.810039370078738
 30
0.0
 11
4.922244094488188
 21
7.810039370078738
 31
0.0
  0
LINE
  5
3506
330
1E
100
AcDbEntity
  8
3
100
AcDbLine
 10
5.404527559055117
 20
8.398622047244094
 30
0.0
 11
5.404527559055117
 21
8.400590551181101
 31
0.0
  0
LINE
  5
3507
330
1E
100
AcDbEntity
  8
3
100
AcDbLine
 10
5.404527559055117
 20
8.400590551181101
 30
0.0
 11
5.404527559055117
 21
8.403543307086613
 31
0.0
  0
LINE
  5
3508
330
1E
100
AcDbEntity
  8
3
100
AcDbLine
 10
4.381889763779526
 20
8.403543307086613
 30
0.0
 11
4.381889763779526
 21
8.400590551181101
 31
0.0
  0
LINE
  5
3509
330
1E
100
AcDbEntity
  8
3
100
AcDbLine
 10
4.381889763779526
 20
8.400590551181101
 30
0.0
 11
4.381889763779526
 21
8.398622047244094
 31
0.0
  0
LINE
  5
350A
330
1E
100
AcDbEntity
  8
3
100
AcDbLine
 10
5.418307086614173
 20
7.702755905511811
 30
0.0
 11
5.404527559055117
 21
8.398622047244094
 31
0.0
  0
LINE
  5
350B
330
1E
100
AcDbEntity
  8
3
100
AcDbLine
 10
5.404527559055117
 20
8.398622047244094
 30
0.0
 11
5.418307086614173
 21
8.399606299212598
 31
0.0
  0
LINE
  5
350C
330
1E
100
AcDbEntity
  8
3
100
AcDbLine
 10
5.418307086614173
 20
8.399606299212598
 30
0.0
 11
5.424212598425196
 21
8.403543307086613
 31
0.0
  0
LINE
  5
350D
330
1E
100
AcDbEntity
  8
3
100
AcDbLine
 10
4.362204724409448
 20
8.403543307086613
 30
0.0
 11
4.368110236220472
 21
8.399606299212598
 31
0.0
  0
LINE
  5
350E
330
1E
100
AcDbEntity
  8
3
100
AcDbLine
 10
4.368110236220472
 20
8.399606299212598
 30
0.0
 11
4.381889763779526
 21
8.398622047244094
 31
0.0
  0
LINE
  5
350F
330
1E
100
AcDbEntity
  8
3
100
AcDbLine
 10
5.424212598425196
 20
8.403543307086613
 30
0.0
 11
5.418307086614173
 21
8.403543307086613
 31
0.0
  0
LINE
  5
3510
330
1E
100
AcDbEntity
  8
3
100
AcDbLine
 10
5.418307086614173
 20
8.403543307086613
 30
0.0
 11
5.404527559055117
 21
8.403543307086613
 31
0.0
  0
LINE
  5
3511
330
1E
100
AcDbEntity
  8
3
100
AcDbLine
 10
4.381889763779526
 20
8.403543307086613
 30
0.0
 11
4.368110236220472
 21
8.403543307086613
 31
0.0
  0
LINE
  5
3512
330
1E
100
AcDbEntity
  8
3
100
AcDbLine
 10
4.368110236220472
 20
8.403543307086613
 30
0.0
 11
4.362204724409448
 21
8.403543307086613
 31
0.0
  0
LINE
  5
3513
330
1E
100
AcDbEntity
  8
3
100
AcDbLine
 10
4.532480314960629
 20
8.537401574803149
 30
0.0
 11
4.536417322834645
 21
8.526574803149605
 31
0.0
  0
LINE
  5
3514
330
1E
100
AcDbEntity
  8
3
100
AcDbLine
 10
4.536417322834645
 20
8.526574803149605
 30
0.0
 11
4.548228346456692
 21
8.52263779527559
 31
0.0
  0
LINE
  5
3515
330
1E
100
AcDbEntity
  8
3
100
AcDbLine
 10
5.238188976377952
 20
8.52263779527559
 30
0.0
 11
5.249015748031495
 21
8.526574803149605
 31
0.0
  0
LINE
  5
3516
330
1E
100
AcDbEntity
  8
3
100
AcDbLine
 10
5.249015748031495
 20
8.526574803149605
 30
0.0
 11
5.253937007874015
 21
8.537401574803149
 31
0.0
  0
LINE
  5
3517
330
1E
100
AcDbEntity
  8
3
100
AcDbLine
 10
5.253937007874015
 20
8.66043307086614
 30
0.0
 11
5.249015748031495
 21
8.671259842519685
 31
0.0
  0
LINE
  5
3518
330
1E
100
AcDbEntity
  8
3
100
AcDbLine
 10
5.249015748031495
 20
8.671259842519685
 30
0.0
 11
5.238188976377952
 21
8.676181102362203
 31
0.0
  0
LINE
  5
3519
330
1E
100
AcDbEntity
  8
3
100
AcDbLine
 10
4.548228346456692
 20
8.676181102362203
 30
0.0
 11
4.536417322834645
 21
8.671259842519685
 31
0.0
  0
LINE
  5
351A
330
1E
100
AcDbEntity
  8
3
100
AcDbLine
 10
4.536417322834645
 20
8.671259842519685
 30
0.0
 11
4.532480314960629
 21
8.66043307086614
 31
0.0
  0
LINE
  5
351B
330
1E
100
AcDbEntity
  8
3
100
AcDbLine
 10
4.381889763779526
 20
8.423228346456692
 30
0.0
 11
4.368110236220472
 21
8.423228346456692
 31
0.0
  0
LINE
  5
351C
330
1E
100
AcDbEntity
  8
3
100
AcDbLine
 10
4.368110236220472
 20
8.423228346456692
 30
0.0
 11
4.362204724409448
 21
8.423228346456692
 31
0.0
  0
LINE
  5
351D
330
1E
100
AcDbEntity
  8
3
100
AcDbLine
 10
4.381889763779526
 20
8.433070866141731
 30
0.0
 11
4.368110236220472
 21
8.43011811023622
 31
0.0
  0
LINE
  5
351E
330
1E
100
AcDbEntity
  8
3
100
AcDbLine
 10
4.368110236220472
 20
8.43011811023622
 30
0.0
 11
4.362204724409448
 21
8.423228346456692
 31
0.0
  0
LINE
  5
351F
330
1E
100
AcDbEntity
  8
3
100
AcDbLine
 10
4.381889763779526
 20
8.423228346456692
 30
0.0
 11
4.381889763779526
 21
8.428149606299212
 31
0.0
  0
LINE
  5
3520
330
1E
100
AcDbEntity
  8
3
100
AcDbLine
 10
4.381889763779526
 20
8.428149606299212
 30
0.0
 11
4.381889763779526
 21
8.433070866141731
 31
0.0
  0
LINE
  5
3521
330
1E
100
AcDbEntity
  8
3
100
AcDbLine
 10
5.424212598425196
 20
8.423228346456692
 30
0.0
 11
5.418307086614173
 21
8.423228346456692
 31
0.0
  0
LINE
  5
3522
330
1E
100
AcDbEntity
  8
3
100
AcDbLine
 10
5.418307086614173
 20
8.423228346456692
 30
0.0
 11
5.404527559055117
 21
8.423228346456692
 31
0.0
  0
LINE
  5
3523
330
1E
100
AcDbEntity
  8
3
100
AcDbLine
 10
5.404527559055117
 20
8.423228346456692
 30
0.0
 11
5.404527559055117
 21
8.428149606299212
 31
0.0
  0
LINE
  5
3524
330
1E
100
AcDbEntity
  8
3
100
AcDbLine
 10
5.404527559055117
 20
8.428149606299212
 30
0.0
 11
5.404527559055117
 21
8.433070866141731
 31
0.0
  0
LINE
  5
3525
330
1E
100
AcDbEntity
  8
3
100
AcDbLine
 10
5.424212598425196
 20
8.423228346456692
 30
0.0
 11
5.418307086614173
 21
8.43011811023622
 31
0.0
  0
LINE
  5
3526
330
1E
100
AcDbEntity
  8
3
100
AcDbLine
 10
5.418307086614173
 20
8.43011811023622
 30
0.0
 11
5.404527559055117
 21
8.433070866141731
 31
0.0
  0
LINE
  5
3527
330
1E
100
AcDbEntity
  8
3
100
AcDbLine
 10
5.253937007874015
 20
8.348425196850392
 30
0.0
 11
5.260826771653542
 21
8.348425196850392
 31
0.0
  0
LINE
  5
3528
330
1E
100
AcDbEntity
  8
3
100
AcDbLine
 10
5.260826771653542
 20
8.348425196850392
 30
0.0
 11
5.264763779527558
 21
8.349409448818898
 31
0.0
  0
LINE
  5
3529
330
1E
100
AcDbEntity
  8
3
100
AcDbLine
 10
5.160433070866141
 20
8.348425196850392
 30
0.0
 11
5.156496062992125
 21
8.349409448818898
 31
0.0
  0
LINE
  5
352A
330
1E
100
AcDbEntity
  8
3
100
AcDbLine
 10
5.156496062992125
 20
8.349409448818898
 30
0.0
 11
5.156496062992125
 21
8.315944881889762
 31
0.0
  0
LINE
  5
352B
330
1E
100
AcDbEntity
  8
3
100
AcDbLine
 10
4.843503937007874
 20
8.348425196850392
 30
0.0
 11
4.838582677165353
 21
8.349409448818898
 31
0.0
  0
LINE
  5
352C
330
1E
100
AcDbEntity
  8
3
100
AcDbLine
 10
4.838582677165353
 20
8.349409448818898
 30
0.0
 11
4.838582677165353
 21
8.315944881889762
 31
0.0
  0
LINE
  5
352D
330
1E
100
AcDbEntity
  8
3
100
AcDbLine
 10
4.525590551181101
 20
8.348425196850392
 30
0.0
 11
4.521653543307086
 21
8.349409448818898
 31
0.0
  0
LINE
  5
352E
330
1E
100
AcDbEntity
  8
3
100
AcDbLine
 10
4.521653543307086
 20
8.349409448818898
 30
0.0
 11
4.520669291338582
 21
8.315944881889762
 31
0.0
  0
LINE
  5
352F
330
1E
100
AcDbEntity
  8
3
100
AcDbLine
 10
4.92027559055118
 20
7.807086614173227
 30
0.0
 11
4.928149606299212
 21
7.82283464566929
 31
0.0
  0
LINE
  5
3530
330
1E
100
AcDbEntity
  8
3
100
AcDbLine
 10
4.928149606299212
 20
7.82283464566929
 30
0.0
 11
4.928149606299212
 21
7.840551181102361
 31
0.0
  0
LINE
  5
3531
330
1E
100
AcDbEntity
  8
3
100
AcDbLine
 10
4.928149606299212
 20
7.840551181102361
 30
0.0
 11
4.92027559055118
 21
7.856299212598424
 31
0.0
  0
LINE
  5
3532
330
1E
100
AcDbEntity
  8
3
100
AcDbLine
 10
4.92027559055118
 20
7.856299212598424
 30
0.0
 11
4.905511811023621
 21
7.866141732283464
 31
0.0
  0
LINE
  5
3533
330
1E
100
AcDbEntity
  8
3
100
AcDbLine
 10
4.905511811023621
 20
7.866141732283464
 30
0.0
 11
4.888779527559054
 21
7.868110236220472
 31
0.0
  0
LINE
  5
3534
330
1E
100
AcDbEntity
  8
3
100
AcDbLine
 10
4.888779527559054
 20
7.868110236220472
 30
0.0
 11
4.872047244094487
 21
7.861220472440944
 31
0.0
  0
LINE
  5
3535
330
1E
100
AcDbEntity
  8
3
100
AcDbLine
 10
4.872047244094487
 20
7.861220472440944
 30
0.0
 11
4.86023622047244
 21
7.848425196850392
 31
0.0
  0
LINE
  5
3536
330
1E
100
AcDbEntity
  8
3
100
AcDbLine
 10
4.86023622047244
 20
7.848425196850392
 30
0.0
 11
4.856299212598425
 21
7.831692913385825
 31
0.0
  0
LINE
  5
3537
330
1E
100
AcDbEntity
  8
3
100
AcDbLine
 10
4.856299212598425
 20
7.831692913385825
 30
0.0
 11
4.86023622047244
 21
7.814960629921259
 31
0.0
  0
LINE
  5
3538
330
1E
100
AcDbEntity
  8
3
100
AcDbLine
 10
4.86023622047244
 20
7.814960629921259
 30
0.0
 11
4.872047244094487
 21
7.802165354330707
 31
0.0
  0
LINE
  5
3539
330
1E
100
AcDbEntity
  8
3
100
AcDbLine
 10
4.872047244094487
 20
7.802165354330707
 30
0.0
 11
4.888779527559054
 21
7.795275590551181
 31
0.0
  0
LINE
  5
353A
330
1E
100
AcDbEntity
  8
3
100
AcDbLine
 10
4.888779527559054
 20
7.795275590551181
 30
0.0
 11
4.905511811023621
 21
7.797244094488188
 31
0.0
  0
LINE
  5
353B
330
1E
100
AcDbEntity
  8
3
100
AcDbLine
 10
4.905511811023621
 20
7.797244094488188
 30
0.0
 11
4.92027559055118
 21
7.807086614173227
 31
0.0
  0
LINE
  5
353C
330
1E
100
AcDbEntity
  8
3
100
AcDbLine
 10
4.915354330708661
 20
7.771653543307087
 30
0.0
 11
4.934055118110236
 21
7.782480314960629
 31
0.0
  0
LINE
  5
353D
330
1E
100
AcDbEntity
  8
3
100
AcDbLine
 10
4.934055118110236
 20
7.782480314960629
 30
0.0
 11
4.948818897637795
 21
7.799212598425196
 31
0.0
  0
LINE
  5
353E
330
1E
100
AcDbEntity
  8
3
100
AcDbLine
 10
4.948818897637795
 20
7.799212598425196
 30
0.0
 11
4.955708661417322
 21
7.820866141732283
 31
0.0
  0
LINE
  5
353F
330
1E
100
AcDbEntity
  8
3
100
AcDbLine
 10
4.955708661417322
 20
7.820866141732283
 30
0.0
 11
4.955708661417322
 21
7.84251968503937
 31
0.0
  0
LINE
  5
3540
330
1E
100
AcDbEntity
  8
3
100
AcDbLine
 10
4.955708661417322
 20
7.84251968503937
 30
0.0
 11
4.948818897637795
 21
7.863188976377951
 31
0.0
  0
LINE
  5
3541
330
1E
100
AcDbEntity
  8
3
100
AcDbLine
 10
4.948818897637795
 20
7.863188976377951
 30
0.0
 11
4.934055118110236
 21
7.880905511811024
 31
0.0
  0
LINE
  5
3542
330
1E
100
AcDbEntity
  8
3
100
AcDbLine
 10
4.934055118110236
 20
7.880905511811024
 30
0.0
 11
4.915354330708661
 21
7.891732283464566
 31
0.0
  0
LINE
  5
3543
330
1E
100
AcDbEntity
  8
3
100
AcDbLine
 10
4.915354330708661
 20
7.891732283464566
 30
0.0
 11
4.89271653543307
 21
7.895669291338581
 31
0.0
  0
LINE
  5
3544
330
1E
100
AcDbEntity
  8
3
100
AcDbLine
 10
4.89271653543307
 20
7.895669291338581
 30
0.0
 11
4.871062992125984
 21
7.891732283464566
 31
0.0
  0
LINE
  5
3545
330
1E
100
AcDbEntity
  8
3
100
AcDbLine
 10
4.871062992125984
 20
7.891732283464566
 30
0.0
 11
4.852362204724409
 21
7.880905511811024
 31
0.0
  0
LINE
  5
3546
330
1E
100
AcDbEntity
  8
3
100
AcDbLine
 10
4.852362204724409
 20
7.880905511811024
 30
0.0
 11
4.83759842519685
 21
7.863188976377951
 31
0.0
  0
LINE
  5
3547
330
1E
100
AcDbEntity
  8
3
100
AcDbLine
 10
4.83759842519685
 20
7.863188976377951
 30
0.0
 11
4.829724409448818
 21
7.84251968503937
 31
0.0
  0
LINE
  5
3548
330
1E
100
AcDbEntity
  8
3
100
AcDbLine
 10
4.829724409448818
 20
7.84251968503937
 30
0.0
 11
4.829724409448818
 21
7.820866141732283
 31
0.0
  0
LINE
  5
3549
330
1E
100
AcDbEntity
  8
3
100
AcDbLine
 10
4.829724409448818
 20
7.820866141732283
 30
0.0
 11
4.83759842519685
 21
7.799212598425196
 31
0.0
  0
LINE
  5
354A
330
1E
100
AcDbEntity
  8
3
100
AcDbLine
 10
4.83759842519685
 20
7.799212598425196
 30
0.0
 11
4.852362204724409
 21
7.782480314960629
 31
0.0
  0
LINE
  5
354B
330
1E
100
AcDbEntity
  8
3
100
AcDbLine
 10
4.852362204724409
 20
7.782480314960629
 30
0.0
 11
4.871062992125984
 21
7.771653543307087
 31
0.0
  0
LINE
  5
354C
330
1E
100
AcDbEntity
  8
3
100
AcDbLine
 10
4.871062992125984
 20
7.771653543307087
 30
0.0
 11
4.89271653543307
 21
7.76771653543307
 31
0.0
  0
LINE
  5
354D
330
1E
100
AcDbEntity
  8
3
100
AcDbLine
 10
4.89271653543307
 20
7.76771653543307
 30
0.0
 11
4.915354330708661
 21
7.771653543307087
 31
0.0
  0
LINE
  5
354E
330
1E
100
AcDbEntity
  8
3
100
AcDbLine
 10
4.938976377952755
 20
7.790354330708661
 30
0.0
 11
4.950787401574802
 21
7.809055118110235
 31
0.0
  0
LINE
  5
354F
330
1E
100
AcDbEntity
  8
3
100
AcDbLine
 10
4.950787401574802
 20
7.809055118110235
 30
0.0
 11
4.954724409448818
 21
7.831692913385825
 31
0.0
  0
LINE
  5
3550
330
1E
100
AcDbEntity
  8
3
100
AcDbLine
 10
4.950787401574802
 20
7.854330708661416
 30
0.0
 11
4.938976377952755
 21
7.873031496062992
 31
0.0
  0
LINE
  5
3551
330
1E
100
AcDbEntity
  8
3
100
AcDbLine
 10
4.938976377952755
 20
7.873031496062992
 30
0.0
 11
4.92027559055118
 21
7.886811023622046
 31
0.0
  0
LINE
  5
3552
330
1E
100
AcDbEntity
  8
3
100
AcDbLine
 10
4.92027559055118
 20
7.886811023622046
 30
0.0
 11
4.898622047244094
 21
7.893700787401574
 31
0.0
  0
LINE
  5
3553
330
1E
100
AcDbEntity
  8
3
100
AcDbLine
 10
4.898622047244094
 20
7.893700787401574
 30
0.0
 11
4.875984251968503
 21
7.891732283464566
 31
0.0
  0
LINE
  5
3554
330
1E
100
AcDbEntity
  8
3
100
AcDbLine
 10
4.875984251968503
 20
7.891732283464566
 30
0.0
 11
4.855314960629921
 21
7.880905511811024
 31
0.0
  0
LINE
  5
3555
330
1E
100
AcDbEntity
  8
3
100
AcDbLine
 10
4.855314960629921
 20
7.880905511811024
 30
0.0
 11
4.839566929133858
 21
7.864173228346455
 31
0.0
  0
LINE
  5
3556
330
1E
100
AcDbEntity
  8
3
100
AcDbLine
 10
4.839566929133858
 20
7.864173228346455
 30
0.0
 11
4.831692913385826
 21
7.843503937007874
 31
0.0
  0
LINE
  5
3557
330
1E
100
AcDbEntity
  8
3
100
AcDbLine
 10
4.831692913385826
 20
7.843503937007874
 30
0.0
 11
4.831692913385826
 21
7.819881889763779
 31
0.0
  0
LINE
  5
3558
330
1E
100
AcDbEntity
  8
3
100
AcDbLine
 10
4.831692913385826
 20
7.819881889763779
 30
0.0
 11
4.839566929133858
 21
7.799212598425196
 31
0.0
  0
LINE
  5
3559
330
1E
100
AcDbEntity
  8
3
100
AcDbLine
 10
4.839566929133858
 20
7.799212598425196
 30
0.0
 11
4.855314960629921
 21
7.782480314960629
 31
0.0
  0
LINE
  5
355A
330
1E
100
AcDbEntity
  8
3
100
AcDbLine
 10
4.855314960629921
 20
7.782480314960629
 30
0.0
 11
4.875984251968503
 21
7.771653543307087
 31
0.0
  0
LINE
  5
355B
330
1E
100
AcDbEntity
  8
3
100
AcDbLine
 10
4.875984251968503
 20
7.771653543307087
 30
0.0
 11
4.898622047244094
 21
7.769685039370077
 31
0.0
  0
LINE
  5
355C
330
1E
100
AcDbEntity
  8
3
100
AcDbLine
 10
4.898622047244094
 20
7.769685039370077
 30
0.0
 11
4.92027559055118
 21
7.776574803149605
 31
0.0
  0
LINE
  5
355D
330
1E
100
AcDbEntity
  8
3
100
AcDbLine
 10
4.92027559055118
 20
7.776574803149605
 30
0.0
 11
4.938976377952755
 21
7.790354330708661
 31
0.0
  0
LINE
  5
355E
330
1E
100
AcDbEntity
  8
3
100
AcDbLine
 10
4.770669291338582
 20
8.019685039370077
 30
0.0
 11
4.770669291338582
 21
8.047244094488188
 31
0.0
  0
LINE
  5
355F
330
1E
100
AcDbEntity
  8
3
100
AcDbLine
 10
4.770669291338582
 20
8.047244094488188
 30
0.0
 11
4.769685039370078
 21
8.027559055118109
 31
0.0
  0
LINE
  5
3560
330
1E
100
AcDbEntity
  8
3
100
AcDbLine
 10
4.792322834645668
 20
8.578740157480314
 30
0.0
 11
4.802165354330708
 21
8.561023622047244
 31
0.0
  0
LINE
  5
3561
330
1E
100
AcDbEntity
  8
3
100
AcDbLine
 10
4.802165354330708
 20
8.561023622047244
 30
0.0
 11
4.815944881889763
 21
8.546259842519685
 31
0.0
  0
LINE
  5
3562
330
1E
100
AcDbEntity
  8
3
100
AcDbLine
 10
4.815944881889763
 20
8.546259842519685
 30
0.0
 11
4.833661417322834
 21
8.537401574803149
 31
0.0
  0
LINE
  5
3563
330
1E
100
AcDbEntity
  8
3
100
AcDbLine
 10
4.833661417322834
 20
8.537401574803149
 30
0.0
 11
4.853346456692912
 21
8.534448818897637
 31
0.0
  0
LINE
  5
3564
330
1E
100
AcDbEntity
  8
3
100
AcDbLine
 10
4.853346456692912
 20
8.662401574803149
 30
0.0
 11
4.833661417322834
 21
8.659448818897637
 31
0.0
  0
LINE
  5
3565
330
1E
100
AcDbEntity
  8
3
100
AcDbLine
 10
4.833661417322834
 20
8.659448818897637
 30
0.0
 11
4.815944881889763
 21
8.650590551181101
 31
0.0
  0
LINE
  5
3566
330
1E
100
AcDbEntity
  8
3
100
AcDbLine
 10
4.815944881889763
 20
8.650590551181101
 30
0.0
 11
4.802165354330708
 21
8.635826771653542
 31
0.0
  0
LINE
  5
3567
330
1E
100
AcDbEntity
  8
3
100
AcDbLine
 10
4.802165354330708
 20
8.635826771653542
 30
0.0
 11
4.792322834645668
 21
8.618110236220472
 31
0.0
  0
LINE
  5
3568
330
1E
100
AcDbEntity
  8
3
100
AcDbLine
 10
4.792322834645668
 20
8.618110236220472
 30
0.0
 11
4.789370078740157
 21
8.598425196850392
 31
0.0
  0
LINE
  5
3569
330
1E
100
AcDbEntity
  8
3
100
AcDbLine
 10
4.789370078740157
 20
8.598425196850392
 30
0.0
 11
4.792322834645668
 21
8.578740157480314
 31
0.0
  0
LINE
  5
356A
330
1E
100
AcDbEntity
  8
3
100
AcDbLine
 10
4.932086614173227
 20
8.534448818897637
 30
0.0
 11
4.952755905511811
 21
8.537401574803149
 31
0.0
  0
LINE
  5
356B
330
1E
100
AcDbEntity
  8
3
100
AcDbLine
 10
4.952755905511811
 20
8.537401574803149
 30
0.0
 11
4.970472440944881
 21
8.546259842519685
 31
0.0
  0
LINE
  5
356C
330
1E
100
AcDbEntity
  8
3
100
AcDbLine
 10
4.970472440944881
 20
8.546259842519685
 30
0.0
 11
4.984251968503937
 21
8.561023622047244
 31
0.0
  0
LINE
  5
356D
330
1E
100
AcDbEntity
  8
3
100
AcDbLine
 10
4.984251968503937
 20
8.561023622047244
 30
0.0
 11
4.994094488188975
 21
8.578740157480314
 31
0.0
  0
LINE
  5
356E
330
1E
100
AcDbEntity
  8
3
100
AcDbLine
 10
4.994094488188975
 20
8.578740157480314
 30
0.0
 11
4.997047244094487
 21
8.598425196850392
 31
0.0
  0
LINE
  5
356F
330
1E
100
AcDbEntity
  8
3
100
AcDbLine
 10
4.997047244094487
 20
8.598425196850392
 30
0.0
 11
4.994094488188975
 21
8.618110236220472
 31
0.0
  0
LINE
  5
3570
330
1E
100
AcDbEntity
  8
3
100
AcDbLine
 10
4.994094488188975
 20
8.618110236220472
 30
0.0
 11
4.984251968503937
 21
8.635826771653542
 31
0.0
  0
LINE
  5
3571
330
1E
100
AcDbEntity
  8
3
100
AcDbLine
 10
4.984251968503937
 20
8.635826771653542
 30
0.0
 11
4.970472440944881
 21
8.650590551181101
 31
0.0
  0
LINE
  5
3572
330
1E
100
AcDbEntity
  8
3
100
AcDbLine
 10
4.970472440944881
 20
8.650590551181101
 30
0.0
 11
4.952755905511811
 21
8.659448818897637
 31
0.0
  0
LINE
  5
3573
330
1E
100
AcDbEntity
  8
3
100
AcDbLine
 10
4.952755905511811
 20
8.659448818897637
 30
0.0
 11
4.932086614173227
 21
8.662401574803149
 31
0.0
  0
LINE
  5
3574
330
1E
100
AcDbEntity
  8
3
100
AcDbLine
 10
5.397637795275589
 20
8.756889763779527
 30
0.0
 11
5.412401574803149
 21
8.753937007874014
 31
0.0
  0
LINE
  5
3575
330
1E
100
AcDbEntity
  8
3
100
AcDbLine
 10
5.412401574803149
 20
8.753937007874014
 30
0.0
 11
5.4251968503937
 21
8.745078740157479
 31
0.0
  0
LINE
  5
3576
330
1E
100
AcDbEntity
  8
3
100
AcDbLine
 10
5.4251968503937
 20
8.745078740157479
 30
0.0
 11
5.434055118110236
 21
8.732283464566929
 31
0.0
  0
LINE
  5
3577
330
1E
100
AcDbEntity
  8
3
100
AcDbLine
 10
5.434055118110236
 20
8.732283464566929
 30
0.0
 11
5.436023622047243
 21
8.71751968503937
 31
0.0
  0
LINE
  5
3578
330
1E
100
AcDbEntity
  8
3
100
AcDbLine
 10
5.436023622047243
 20
8.71751968503937
 30
0.0
 11
5.43011811023622
 21
8.724409448818898
 31
0.0
  0
LINE
  5
3579
330
1E
100
AcDbEntity
  8
3
100
AcDbLine
 10
5.43011811023622
 20
8.724409448818898
 30
0.0
 11
5.416338582677164
 21
8.727362204724409
 31
0.0
  0
LINE
  5
357A
330
1E
100
AcDbEntity
  8
3
100
AcDbLine
 10
5.416338582677164
 20
8.727362204724409
 30
0.0
 11
5.414370078740157
 21
8.737204724409448
 31
0.0
  0
LINE
  5
357B
330
1E
100
AcDbEntity
  8
3
100
AcDbLine
 10
5.414370078740157
 20
8.737204724409448
 30
0.0
 11
5.407480314960629
 21
8.745078740157479
 31
0.0
  0
LINE
  5
357C
330
1E
100
AcDbEntity
  8
3
100
AcDbLine
 10
5.407480314960629
 20
8.745078740157479
 30
0.0
 11
5.397637795275589
 21
8.747047244094487
 31
0.0
  0
LINE
  5
357D
330
1E
100
AcDbEntity
  8
3
100
AcDbLine
 10
5.397637795275589
 20
8.747047244094487
 30
0.0
 11
5.397637795275589
 21
8.753937007874014
 31
0.0
  0
LINE
  5
357E
330
1E
100
AcDbEntity
  8
3
100
AcDbLine
 10
5.397637795275589
 20
8.753937007874014
 30
0.0
 11
5.397637795275589
 21
8.756889763779527
 31
0.0
  0
LINE
  5
357F
330
1E
100
AcDbEntity
  8
3
100
AcDbLine
 10
4.388779527559054
 20
8.747047244094487
 30
0.0
 11
4.378937007874015
 21
8.745078740157479
 31
0.0
  0
LINE
  5
3580
330
1E
100
AcDbEntity
  8
3
100
AcDbLine
 10
4.378937007874015
 20
8.745078740157479
 30
0.0
 11
4.372047244094487
 21
8.737204724409448
 31
0.0
  0
LINE
  5
3581
330
1E
100
AcDbEntity
  8
3
100
AcDbLine
 10
4.372047244094487
 20
8.737204724409448
 30
0.0
 11
4.369094488188975
 21
8.727362204724409
 31
0.0
  0
LINE
  5
3582
330
1E
100
AcDbEntity
  8
3
100
AcDbLine
 10
4.369094488188975
 20
8.727362204724409
 30
0.0
 11
4.356299212598425
 21
8.724409448818898
 31
0.0
  0
LINE
  5
3583
330
1E
100
AcDbEntity
  8
3
100
AcDbLine
 10
4.356299212598425
 20
8.724409448818898
 30
0.0
 11
4.3503937007874
 21
8.71751968503937
 31
0.0
  0
LINE
  5
3584
330
1E
100
AcDbEntity
  8
3
100
AcDbLine
 10
4.3503937007874
 20
8.71751968503937
 30
0.0
 11
4.352362204724409
 21
8.732283464566929
 31
0.0
  0
LINE
  5
3585
330
1E
100
AcDbEntity
  8
3
100
AcDbLine
 10
4.352362204724409
 20
8.732283464566929
 30
0.0
 11
4.361220472440944
 21
8.745078740157479
 31
0.0
  0
LINE
  5
3586
330
1E
100
AcDbEntity
  8
3
100
AcDbLine
 10
4.361220472440944
 20
8.745078740157479
 30
0.0
 11
4.373031496062991
 21
8.753937007874014
 31
0.0
  0
LINE
  5
3587
330
1E
100
AcDbEntity
  8
3
100
AcDbLine
 10
4.373031496062991
 20
8.753937007874014
 30
0.0
 11
4.388779527559054
 21
8.756889763779527
 31
0.0
  0
LINE
  5
3588
330
1E
100
AcDbEntity
  8
3
100
AcDbLine
 10
4.388779527559054
 20
8.747047244094487
 30
0.0
 11
4.388779527559054
 21
8.753937007874014
 31
0.0
  0
LINE
  5
3589
330
1E
100
AcDbEntity
  8
3
100
AcDbLine
 10
4.388779527559054
 20
8.753937007874014
 30
0.0
 11
4.388779527559054
 21
8.756889763779527
 31
0.0
  0
LINE
  5
358A
330
1E
100
AcDbEntity
  8
3
100
AcDbLine
 10
4.932086614173227
 20
8.537401574803149
 30
0.0
 11
4.955708661417322
 21
8.542322834645668
 31
0.0
  0
LINE
  5
358B
330
1E
100
AcDbEntity
  8
3
100
AcDbLine
 10
4.955708661417322
 20
8.542322834645668
 30
0.0
 11
4.976377952755905
 21
8.55511811023622
 31
0.0
  0
LINE
  5
358C
330
1E
100
AcDbEntity
  8
3
100
AcDbLine
 10
4.976377952755905
 20
8.55511811023622
 30
0.0
 11
4.989173228346456
 21
8.575787401574803
 31
0.0
  0
LINE
  5
358D
330
1E
100
AcDbEntity
  8
3
100
AcDbLine
 10
4.989173228346456
 20
8.575787401574803
 30
0.0
 11
4.994094488188975
 21
8.599409448818898
 31
0.0
  0
LINE
  5
358E
330
1E
100
AcDbEntity
  8
3
100
AcDbLine
 10
4.994094488188975
 20
8.599409448818898
 30
0.0
 11
4.989173228346456
 21
8.623031496062992
 31
0.0
  0
LINE
  5
358F
330
1E
100
AcDbEntity
  8
3
100
AcDbLine
 10
4.989173228346456
 20
8.623031496062992
 30
0.0
 11
4.976377952755905
 21
8.643700787401574
 31
0.0
  0
LINE
  5
3590
330
1E
100
AcDbEntity
  8
3
100
AcDbLine
 10
4.976377952755905
 20
8.643700787401574
 30
0.0
 11
4.955708661417322
 21
8.656496062992125
 31
0.0
  0
LINE
  5
3591
330
1E
100
AcDbEntity
  8
3
100
AcDbLine
 10
4.809055118110236
 20
8.55511811023622
 30
0.0
 11
4.829724409448818
 21
8.542322834645668
 31
0.0
  0
LINE
  5
3592
330
1E
100
AcDbEntity
  8
3
100
AcDbLine
 10
4.829724409448818
 20
8.542322834645668
 30
0.0
 11
4.853346456692912
 21
8.537401574803149
 31
0.0
  0
LINE
  5
3593
330
1E
100
AcDbEntity
  8
3
100
AcDbLine
 10
4.853346456692912
 20
8.661417322834644
 30
0.0
 11
4.829724409448818
 21
8.656496062992125
 31
0.0
  0
LINE
  5
3594
330
1E
100
AcDbEntity
  8
3
100
AcDbLine
 10
4.829724409448818
 20
8.656496062992125
 30
0.0
 11
4.809055118110236
 21
8.643700787401574
 31
0.0
  0
LINE
  5
3595
330
1E
100
AcDbEntity
  8
3
100
AcDbLine
 10
4.809055118110236
 20
8.643700787401574
 30
0.0
 11
4.796259842519684
 21
8.623031496062992
 31
0.0
  0
LINE
  5
3596
330
1E
100
AcDbEntity
  8
3
100
AcDbLine
 10
4.796259842519684
 20
8.623031496062992
 30
0.0
 11
4.791338582677164
 21
8.599409448818898
 31
0.0
  0
LINE
  5
3597
330
1E
100
AcDbEntity
  8
3
100
AcDbLine
 10
4.791338582677164
 20
8.599409448818898
 30
0.0
 11
4.796259842519684
 21
8.575787401574803
 31
0.0
  0
LINE
  5
3598
330
1E
100
AcDbEntity
  8
3
100
AcDbLine
 10
4.796259842519684
 20
8.575787401574803
 30
0.0
 11
4.809055118110236
 21
8.55511811023622
 31
0.0
  0
LINE
  5
3599
330
1E
100
AcDbEntity
  8
3
100
AcDbLine
 10
4.384842519685038
 20
8.760826771653542
 30
0.0
 11
4.388779527559054
 21
8.756889763779527
 31
0.0
  0
LINE
  5
359A
330
1E
100
AcDbEntity
  8
3
100
AcDbLine
 10
4.388779527559054
 20
8.756889763779527
 30
0.0
 11
5.397637795275589
 21
8.756889763779527
 31
0.0
  0
LINE
  5
359B
330
1E
100
AcDbEntity
  8
3
100
AcDbLine
 10
5.397637795275589
 20
8.756889763779527
 30
0.0
 11
5.401574803149605
 21
8.760826771653542
 31
0.0
  0
LINE
  5
359C
330
1E
100
AcDbEntity
  8
3
100
AcDbLine
 10
4.932086614173227
 20
8.562992125984251
 30
0.0
 11
4.949803149606299
 21
8.56791338582677
 31
0.0
  0
LINE
  5
359D
330
1E
100
AcDbEntity
  8
3
100
AcDbLine
 10
4.949803149606299
 20
8.56791338582677
 30
0.0
 11
4.963582677165353
 21
8.580708661417322
 31
0.0
  0
LINE
  5
359E
330
1E
100
AcDbEntity
  8
3
100
AcDbLine
 10
4.963582677165353
 20
8.580708661417322
 30
0.0
 11
4.968503937007874
 21
8.599409448818898
 31
0.0
  0
LINE
  5
359F
330
1E
100
AcDbEntity
  8
3
100
AcDbLine
 10
4.968503937007874
 20
8.599409448818898
 30
0.0
 11
4.963582677165353
 21
8.617125984251968
 31
0.0
  0
LINE
  5
35A0
330
1E
100
AcDbEntity
  8
3
100
AcDbLine
 10
4.963582677165353
 20
8.617125984251968
 30
0.0
 11
4.950787401574802
 21
8.630905511811024
 31
0.0
  0
LINE
  5
35A1
330
1E
100
AcDbEntity
  8
3
100
AcDbLine
 10
4.950787401574802
 20
8.630905511811024
 30
0.0
 11
4.932086614173227
 21
8.635826771653542
 31
0.0
  0
LINE
  5
35A2
330
1E
100
AcDbEntity
  8
3
100
AcDbLine
 10
4.835629921259842
 20
8.630905511811024
 30
0.0
 11
4.821850393700787
 21
8.618110236220472
 31
0.0
  0
LINE
  5
35A3
330
1E
100
AcDbEntity
  8
3
100
AcDbLine
 10
4.821850393700787
 20
8.618110236220472
 30
0.0
 11
4.816929133858267
 21
8.599409448818898
 31
0.0
  0
LINE
  5
35A4
330
1E
100
AcDbEntity
  8
3
100
AcDbLine
 10
4.816929133858267
 20
8.599409448818898
 30
0.0
 11
4.821850393700787
 21
8.581692913385825
 31
0.0
  0
LINE
  5
35A5
330
1E
100
AcDbEntity
  8
3
100
AcDbLine
 10
4.821850393700787
 20
8.581692913385825
 30
0.0
 11
4.834645669291337
 21
8.56791338582677
 31
0.0
  0
LINE
  5
35A6
330
1E
100
AcDbEntity
  8
3
100
AcDbLine
 10
4.834645669291337
 20
8.56791338582677
 30
0.0
 11
4.853346456692912
 21
8.562992125984251
 31
0.0
  0
LINE
  5
35A7
330
1E
100
AcDbEntity
  8
3
100
AcDbLine
 10
4.623031496062991
 20
8.145669291338581
 30
0.0
 11
4.623031496062991
 21
8.146653543307087
 31
0.0
  0
LINE
  5
35A8
330
1E
100
AcDbEntity
  8
3
100
AcDbLine
 10
4.623031496062991
 20
8.146653543307087
 30
0.0
 11
4.528543307086613
 21
8.146653543307087
 31
0.0
  0
LINE
  5
35A9
330
1E
100
AcDbEntity
  8
3
100
AcDbLine
 10
5.257874015748031
 20
8.145669291338581
 30
0.0
 11
5.257874015748031
 21
8.146653543307087
 31
0.0
  0
LINE
  5
35AA
330
1E
100
AcDbEntity
  8
3
100
AcDbLine
 10
5.257874015748031
 20
8.146653543307087
 30
0.0
 11
5.163385826771652
 21
8.146653543307087
 31
0.0
  0
LINE
  5
35AB
330
1E
100
AcDbEntity
  8
3
100
AcDbLine
 10
4.38779527559055
 20
7.668307086614172
 30
0.0
 11
4.373031496062991
 21
7.671259842519685
 31
0.0
  0
LINE
  5
35AC
330
1E
100
AcDbEntity
  8
3
100
AcDbLine
 10
4.373031496062991
 20
7.671259842519685
 30
0.0
 11
4.36023622047244
 21
7.68011811023622
 31
0.0
  0
LINE
  5
35AD
330
1E
100
AcDbEntity
  8
3
100
AcDbLine
 10
4.36023622047244
 20
7.68011811023622
 30
0.0
 11
4.351377952755905
 21
7.692913385826772
 31
0.0
  0
LINE
  5
35AE
330
1E
100
AcDbEntity
  8
3
100
AcDbLine
 10
4.351377952755905
 20
7.692913385826772
 30
0.0
 11
4.348425196850393
 21
7.708661417322835
 31
0.0
  0
LINE
  5
35AF
330
1E
100
AcDbEntity
  8
3
100
AcDbLine
 10
4.348425196850393
 20
7.708661417322835
 30
0.0
 11
4.355314960629921
 21
7.704724409448818
 31
0.0
  0
LINE
  5
35B0
330
1E
100
AcDbEntity
  8
3
100
AcDbLine
 10
4.355314960629921
 20
7.704724409448818
 30
0.0
 11
4.368110236220472
 21
7.702755905511811
 31
0.0
  0
LINE
  5
35B1
330
1E
100
AcDbEntity
  8
3
100
AcDbLine
 10
4.368110236220472
 20
7.702755905511811
 30
0.0
 11
4.371062992125984
 21
7.692913385826772
 31
0.0
  0
LINE
  5
35B2
330
1E
100
AcDbEntity
  8
3
100
AcDbLine
 10
4.371062992125984
 20
7.692913385826772
 30
0.0
 11
4.377952755905511
 21
7.686023622047244
 31
0.0
  0
LINE
  5
35B3
330
1E
100
AcDbEntity
  8
3
100
AcDbLine
 10
4.377952755905511
 20
7.686023622047244
 30
0.0
 11
4.38779527559055
 21
7.683070866141731
 31
0.0
  0
LINE
  5
35B4
330
1E
100
AcDbEntity
  8
3
100
AcDbLine
 10
4.38779527559055
 20
7.668307086614172
 30
0.0
 11
4.38779527559055
 21
7.673228346456692
 31
0.0
  0
LINE
  5
35B5
330
1E
100
AcDbEntity
  8
3
100
AcDbLine
 10
4.38779527559055
 20
7.673228346456692
 30
0.0
 11
4.38779527559055
 21
7.683070866141731
 31
0.0
  0
LINE
  5
35B6
330
1E
100
AcDbEntity
  8
3
100
AcDbLine
 10
5.398622047244094
 20
7.683070866141731
 30
0.0
 11
5.408464566929133
 21
7.686023622047244
 31
0.0
  0
LINE
  5
35B7
330
1E
100
AcDbEntity
  8
3
100
AcDbLine
 10
5.408464566929133
 20
7.686023622047244
 30
0.0
 11
5.415354330708661
 21
7.692913385826772
 31
0.0
  0
LINE
  5
35B8
330
1E
100
AcDbEntity
  8
3
100
AcDbLine
 10
5.415354330708661
 20
7.692913385826772
 30
0.0
 11
5.418307086614173
 21
7.702755905511811
 31
0.0
  0
LINE
  5
35B9
330
1E
100
AcDbEntity
  8
3
100
AcDbLine
 10
5.418307086614173
 20
7.702755905511811
 30
0.0
 11
5.431102362204724
 21
7.704724409448818
 31
0.0
  0
LINE
  5
35BA
330
1E
100
AcDbEntity
  8
3
100
AcDbLine
 10
5.431102362204724
 20
7.704724409448818
 30
0.0
 11
5.437007874015747
 21
7.708661417322835
 31
0.0
  0
LINE
  5
35BB
330
1E
100
AcDbEntity
  8
3
100
AcDbLine
 10
5.437007874015747
 20
7.708661417322835
 30
0.0
 11
5.435039370078739
 21
7.692913385826772
 31
0.0
  0
LINE
  5
35BC
330
1E
100
AcDbEntity
  8
3
100
AcDbLine
 10
5.435039370078739
 20
7.692913385826772
 30
0.0
 11
5.426181102362204
 21
7.68011811023622
 31
0.0
  0
LINE
  5
35BD
330
1E
100
AcDbEntity
  8
3
100
AcDbLine
 10
5.426181102362204
 20
7.68011811023622
 30
0.0
 11
5.413385826771652
 21
7.671259842519685
 31
0.0
  0
LINE
  5
35BE
330
1E
100
AcDbEntity
  8
3
100
AcDbLine
 10
5.413385826771652
 20
7.671259842519685
 30
0.0
 11
5.398622047244094
 21
7.668307086614172
 31
0.0
  0
LINE
  5
35BF
330
1E
100
AcDbEntity
  8
3
100
AcDbLine
 10
5.398622047244094
 20
7.683070866141731
 30
0.0
 11
5.398622047244094
 21
7.673228346456692
 31
0.0
  0
LINE
  5
35C0
330
1E
100
AcDbEntity
  8
3
100
AcDbLine
 10
5.398622047244094
 20
7.673228346456692
 30
0.0
 11
5.398622047244094
 21
7.668307086614172
 31
0.0
  0
LINE
  5
35C1
330
1E
100
AcDbEntity
  8
3
100
AcDbLine
 10
4.384842519685038
 20
7.666338582677164
 30
0.0
 11
4.36515748031496
 21
7.671259842519685
 31
0.0
  0
LINE
  5
35C2
330
1E
100
AcDbEntity
  8
3
100
AcDbLine
 10
4.36515748031496
 20
7.671259842519685
 30
0.0
 11
4.351377952755905
 21
7.686023622047244
 31
0.0
  0
LINE
  5
35C3
330
1E
100
AcDbEntity
  8
3
100
AcDbLine
 10
5.439960629921259
 20
7.705708661417322
 30
0.0
 11
5.435039370078739
 21
7.686023622047244
 31
0.0
  0
LINE
  5
35C4
330
1E
100
AcDbEntity
  8
3
100
AcDbLine
 10
5.435039370078739
 20
7.686023622047244
 30
0.0
 11
5.42027559055118
 21
7.671259842519685
 31
0.0
  0
LINE
  5
35C5
330
1E
100
AcDbEntity
  8
3
100
AcDbLine
 10
5.42027559055118
 20
7.671259842519685
 30
0.0
 11
5.401574803149605
 21
7.666338582677164
 31
0.0
  0
LINE
  5
35C6
330
1E
100
AcDbEntity
  8
3
100
AcDbLine
 10
5.401574803149605
 20
8.760826771653542
 30
0.0
 11
5.42027559055118
 21
8.754921259842518
 31
0.0
  0
LINE
  5
35C7
330
1E
100
AcDbEntity
  8
3
100
AcDbLine
 10
5.42027559055118
 20
8.754921259842518
 30
0.0
 11
5.435039370078739
 21
8.741141732283464
 31
0.0
  0
LINE
  5
35C8
330
1E
100
AcDbEntity
  8
3
100
AcDbLine
 10
5.435039370078739
 20
8.741141732283464
 30
0.0
 11
5.439960629921259
 21
8.721456692913385
 31
0.0
  0
LINE
  5
35C9
330
1E
100
AcDbEntity
  8
3
100
AcDbLine
 10
4.345472440944881
 20
8.721456692913385
 30
0.0
 11
4.351377952755905
 21
8.741141732283464
 31
0.0
  0
LINE
  5
35CA
330
1E
100
AcDbEntity
  8
3
100
AcDbLine
 10
4.351377952755905
 20
8.741141732283464
 30
0.0
 11
4.36515748031496
 21
8.754921259842518
 31
0.0
  0
LINE
  5
35CB
330
1E
100
AcDbEntity
  8
3
100
AcDbLine
 10
4.36515748031496
 20
8.754921259842518
 30
0.0
 11
4.384842519685038
 21
8.760826771653542
 31
0.0
  0
LINE
  5
35CC
330
1E
100
AcDbEntity
  8
3
100
AcDbLine
 10
5.367125984251968
 20
7.998031496062992
 30
0.0
 11
5.333661417322834
 21
7.998031496062992
 31
0.0
  0
LINE
  5
35CD
330
1E
100
AcDbEntity
  8
3
100
AcDbLine
 10
5.333661417322834
 20
7.998031496062992
 30
0.0
 11
5.33267716535433
 21
8.019685039370077
 31
0.0
  0
LINE
  5
35CE
330
1E
100
AcDbEntity
  8
3
100
AcDbLine
 10
5.33267716535433
 20
8.019685039370077
 30
0.0
 11
5.261811023622047
 21
8.019685039370077
 31
0.0
  0
LINE
  5
35CF
330
1E
100
AcDbEntity
  8
3
100
AcDbLine
 10
4.452755905511811
 20
8.019685039370077
 30
0.0
 11
4.451771653543306
 21
7.998031496062992
 31
0.0
  0
LINE
  5
35D0
330
1E
100
AcDbEntity
  8
3
100
AcDbLine
 10
4.451771653543306
 20
7.998031496062992
 30
0.0
 11
4.419291338582676
 21
7.998031496062992
 31
0.0
  0
LINE
  5
35D1
330
1E
100
AcDbEntity
  8
3
100
AcDbLine
 10
4.623031496062991
 20
8.115157480314961
 30
0.0
 11
4.528543307086613
 21
8.115157480314961
 31
0.0
  0
LINE
  5
35D2
330
1E
100
AcDbEntity
  8
3
100
AcDbLine
 10
4.528543307086613
 20
8.115157480314961
 30
0.0
 11
4.524606299212598
 21
8.019685039370077
 31
0.0
  0
LINE
  5
35D3
330
1E
100
AcDbEntity
  8
3
100
AcDbLine
 10
4.845472440944881
 20
8.115157480314961
 30
0.0
 11
4.842519685039369
 21
8.019685039370077
 31
0.0
  0
LINE
  5
35D4
330
1E
100
AcDbEntity
  8
3
100
AcDbLine
 10
4.842519685039369
 20
8.019685039370077
 30
0.0
 11
4.770669291338582
 21
8.019685039370077
 31
0.0
  0
LINE
  5
35D5
330
1E
100
AcDbEntity
  8
3
100
AcDbLine
 10
4.770669291338582
 20
8.019685039370077
 30
0.0
 11
4.769685039370078
 21
7.998031496062992
 31
0.0
  0
LINE
  5
35D6
330
1E
100
AcDbEntity
  8
3
100
AcDbLine
 10
4.769685039370078
 20
7.998031496062992
 30
0.0
 11
4.698818897637795
 21
7.998031496062992
 31
0.0
  0
LINE
  5
35D7
330
1E
100
AcDbEntity
  8
3
100
AcDbLine
 10
4.698818897637795
 20
7.998031496062992
 30
0.0
 11
4.69783464566929
 21
8.019685039370077
 31
0.0
  0
LINE
  5
35D8
330
1E
100
AcDbEntity
  8
3
100
AcDbLine
 10
5.257874015748031
 20
8.115157480314961
 30
0.0
 11
5.163385826771652
 21
8.115157480314961
 31
0.0
  0
LINE
  5
35D9
330
1E
100
AcDbEntity
  8
3
100
AcDbLine
 10
5.163385826771652
 20
8.115157480314961
 30
0.0
 11
5.159448818897637
 21
8.019685039370077
 31
0.0
  0
LINE
  5
35DA
330
1E
100
AcDbEntity
  8
3
100
AcDbLine
 10
5.159448818897637
 20
8.019685039370077
 30
0.0
 11
5.08759842519685
 21
8.019685039370077
 31
0.0
  0
LINE
  5
35DB
330
1E
100
AcDbEntity
  8
3
100
AcDbLine
 10
5.08759842519685
 20
8.019685039370077
 30
0.0
 11
5.08759842519685
 21
7.998031496062992
 31
0.0
  0
LINE
  5
35DC
330
1E
100
AcDbEntity
  8
3
100
AcDbLine
 10
5.08759842519685
 20
7.998031496062992
 30
0.0
 11
5.016732283464566
 21
7.998031496062992
 31
0.0
  0
LINE
  5
35DD
330
1E
100
AcDbEntity
  8
3
100
AcDbLine
 10
5.016732283464566
 20
7.998031496062992
 30
0.0
 11
5.015748031496062
 21
8.019685039370077
 31
0.0
  0
LINE
  5
35DE
330
1E
100
AcDbEntity
  8
3
100
AcDbLine
 10
4.937007874015747
 20
8.32283464566929
 30
0.0
 11
4.937007874015747
 21
8.348425196850392
 31
0.0
  0
LINE
  5
35DF
330
1E
100
AcDbEntity
  8
3
100
AcDbLine
 10
4.937007874015747
 20
8.348425196850392
 30
0.0
 11
4.849409448818897
 21
8.348425196850392
 31
0.0
  0
LINE
  5
35E0
330
1E
100
AcDbEntity
  8
3
100
AcDbLine
 10
4.849409448818897
 20
8.348425196850392
 30
0.0
 11
4.849409448818897
 21
8.32283464566929
 31
0.0
  0
LINE
  5
35E1
330
1E
100
AcDbEntity
  8
3
100
AcDbLine
 10
5.253937007874015
 20
8.348425196850392
 30
0.0
 11
5.167322834645668
 21
8.348425196850392
 31
0.0
  0
LINE
  5
35E2
330
1E
100
AcDbEntity
  8
3
100
AcDbLine
 10
5.167322834645668
 20
8.348425196850392
 30
0.0
 11
5.167322834645668
 21
8.32283464566929
 31
0.0
  0
LINE
  5
35E3
330
1E
100
AcDbEntity
  8
3
100
AcDbLine
 10
5.167322834645668
 20
8.32283464566929
 30
0.0
 11
5.253937007874015
 21
8.32283464566929
 31
0.0
  0
LINE
  5
35E4
330
1E
100
AcDbEntity
  8
3
100
AcDbLine
 10
5.253937007874015
 20
8.32283464566929
 30
0.0
 11
5.253937007874015
 21
8.348425196850392
 31
0.0
  0
LINE
  5
35E5
330
1E
100
AcDbEntity
  8
3
100
AcDbLine
 10
5.529527559055117
 20
7.616141732283464
 30
0.0
 11
5.504921259842519
 21
7.616141732283464
 31
0.0
  0
LINE
  5
35E6
330
1E
100
AcDbEntity
  8
3
100
AcDbLine
 10
5.504921259842519
 20
7.616141732283464
 30
0.0
 11
5.476377952755905
 21
7.616141732283464
 31
0.0
  0
LINE
  5
35E7
330
1E
100
AcDbEntity
  8
3
100
AcDbLine
 10
5.476377952755905
 20
7.616141732283464
 30
0.0
 11
5.476377952755905
 21
7.586614173228346
 31
0.0
  0
LINE
  5
35E8
330
1E
100
AcDbEntity
  8
3
100
AcDbLine
 10
5.476377952755905
 20
7.586614173228346
 30
0.0
 11
5.476377952755905
 21
7.562992125984251
 31
0.0
  0
LINE
  5
35E9
330
1E
100
AcDbEntity
  8
3
100
AcDbLine
 10
5.529527559055117
 20
8.781496062992125
 30
0.0
 11
5.504921259842519
 21
8.781496062992125
 31
0.0
  0
LINE
  5
35EA
330
1E
100
AcDbEntity
  8
3
100
AcDbLine
 10
5.504921259842519
 20
8.781496062992125
 30
0.0
 11
5.476377952755905
 21
8.781496062992125
 31
0.0
  0
LINE
  5
35EB
330
1E
100
AcDbEntity
  8
3
100
AcDbLine
 10
4.310039370078739
 20
7.616141732283464
 30
0.0
 11
4.310039370078739
 21
7.586614173228346
 31
0.0
  0
LINE
  5
35EC
330
1E
100
AcDbEntity
  8
3
100
AcDbLine
 10
4.310039370078739
 20
7.586614173228346
 30
0.0
 11
4.310039370078739
 21
7.562992125984251
 31
0.0
  0
LINE
  5
35ED
330
1E
100
AcDbEntity
  8
3
100
AcDbLine
 10
5.476377952755905
 20
8.834645669291338
 30
0.0
 11
5.476377952755905
 21
8.810039370078738
 31
0.0
  0
LINE
  5
35EE
330
1E
100
AcDbEntity
  8
3
100
AcDbLine
 10
5.476377952755905
 20
8.810039370078738
 30
0.0
 11
5.476377952755905
 21
8.781496062992125
 31
0.0
  0
LINE
  5
35EF
330
1E
100
AcDbEntity
  8
3
100
AcDbLine
 10
4.310039370078739
 20
7.616141732283464
 30
0.0
 11
4.281496062992125
 21
7.616141732283464
 31
0.0
  0
LINE
  5
35F0
330
1E
100
AcDbEntity
  8
3
100
AcDbLine
 10
4.281496062992125
 20
7.616141732283464
 30
0.0
 11
4.256889763779526
 21
7.616141732283464
 31
0.0
  0
LINE
  5
35F1
330
1E
100
AcDbEntity
  8
3
100
AcDbLine
 10
4.310039370078739
 20
8.834645669291338
 30
0.0
 11
4.310039370078739
 21
8.810039370078738
 31
0.0
  0
LINE
  5
35F2
330
1E
100
AcDbEntity
  8
3
100
AcDbLine
 10
4.310039370078739
 20
8.810039370078738
 30
0.0
 11
4.310039370078739
 21
8.781496062992125
 31
0.0
  0
LINE
  5
35F3
330
1E
100
AcDbEntity
  8
3
100
AcDbLine
 10
4.310039370078739
 20
8.781496062992125
 30
0.0
 11
4.281496062992125
 21
8.781496062992125
 31
0.0
  0
LINE
  5
35F4
330
1E
100
AcDbEntity
  8
3
100
AcDbLine
 10
4.281496062992125
 20
8.781496062992125
 30
0.0
 11
4.256889763779526
 21
8.781496062992125
 31
0.0
  0
LINE
  5
35F5
330
1E
100
AcDbEntity
  8
3
100
AcDbLine
 10
4.310039370078739
 20
7.562992125984251
 30
0.0
 11
4.289370078740157
 21
7.576771653543307
 31
0.0
  0
LINE
  5
35F6
330
1E
100
AcDbEntity
  8
3
100
AcDbLine
 10
4.289370078740157
 20
7.576771653543307
 30
0.0
 11
4.270669291338582
 21
7.594488188976377
 31
0.0
  0
LINE
  5
35F7
330
1E
100
AcDbEntity
  8
3
100
AcDbLine
 10
4.270669291338582
 20
7.594488188976377
 30
0.0
 11
4.256889763779526
 21
7.616141732283464
 31
0.0
  0
LINE
  5
35F8
330
1E
100
AcDbEntity
  8
3
100
AcDbLine
 10
4.256889763779526
 20
8.781496062992125
 30
0.0
 11
4.270669291338582
 21
8.802165354330707
 31
0.0
  0
LINE
  5
35F9
330
1E
100
AcDbEntity
  8
3
100
AcDbLine
 10
4.270669291338582
 20
8.802165354330707
 30
0.0
 11
4.289370078740157
 21
8.820866141732283
 31
0.0
  0
LINE
  5
35FA
330
1E
100
AcDbEntity
  8
3
100
AcDbLine
 10
4.289370078740157
 20
8.820866141732283
 30
0.0
 11
4.310039370078739
 21
8.834645669291338
 31
0.0
  0
LINE
  5
35FB
330
1E
100
AcDbEntity
  8
3
100
AcDbLine
 10
5.476377952755905
 20
8.834645669291338
 30
0.0
 11
5.497047244094487
 21
8.820866141732283
 31
0.0
  0
LINE
  5
35FC
330
1E
100
AcDbEntity
  8
3
100
AcDbLine
 10
5.497047244094487
 20
8.820866141732283
 30
0.0
 11
5.515748031496062
 21
8.802165354330707
 31
0.0
  0
LINE
  5
35FD
330
1E
100
AcDbEntity
  8
3
100
AcDbLine
 10
5.515748031496062
 20
8.802165354330707
 30
0.0
 11
5.529527559055117
 21
8.781496062992125
 31
0.0
  0
LINE
  5
35FE
330
1E
100
AcDbEntity
  8
3
100
AcDbLine
 10
5.515748031496062
 20
7.594488188976377
 30
0.0
 11
5.497047244094487
 21
7.576771653543307
 31
0.0
  0
LINE
  5
35FF
330
1E
100
AcDbEntity
  8
3
100
AcDbLine
 10
5.497047244094487
 20
7.576771653543307
 30
0.0
 11
5.476377952755905
 21
7.562992125984251
 31
0.0
  0
LINE
  5
3600
330
1E
100
AcDbEntity
  8
3
100
AcDbLine
 10
5.626968503937007
 20
7.411417322834644
 30
0.0
 11
5.476377952755905
 21
7.562992125984251
 31
0.0
  0
LINE
  5
3601
330
1E
100
AcDbEntity
  8
3
100
AcDbLine
 10
5.476377952755905
 20
7.562992125984251
 30
0.0
 11
4.310039370078739
 21
7.562992125984251
 31
0.0
  0
LINE
  5
3602
330
1E
100
AcDbEntity
  8
3
100
AcDbLine
 10
4.310039370078739
 20
7.562992125984251
 30
0.0
 11
4.158464566929133
 21
7.411417322834644
 31
0.0
  0
LINE
  5
3603
330
1E
100
AcDbEntity
  8
3
100
AcDbLine
 10
4.106299212598425
 20
7.464566929133857
 30
0.0
 11
4.256889763779526
 21
7.616141732283464
 31
0.0
  0
LINE
  5
3604
330
1E
100
AcDbEntity
  8
3
100
AcDbLine
 10
4.256889763779526
 20
7.616141732283464
 30
0.0
 11
4.256889763779526
 21
8.781496062992125
 31
0.0
  0
LINE
  5
3605
330
1E
100
AcDbEntity
  8
3
100
AcDbLine
 10
4.256889763779526
 20
8.781496062992125
 30
0.0
 11
4.106299212598425
 21
8.933070866141731
 31
0.0
  0
LINE
  5
3606
330
1E
100
AcDbEntity
  8
3
100
AcDbLine
 10
5.68011811023622
 20
8.933070866141731
 30
0.0
 11
5.529527559055117
 21
8.781496062992125
 31
0.0
  0
LINE
  5
3607
330
1E
100
AcDbEntity
  8
3
100
AcDbLine
 10
5.529527559055117
 20
8.781496062992125
 30
0.0
 11
5.529527559055117
 21
7.616141732283464
 31
0.0
  0
LINE
  5
3608
330
1E
100
AcDbEntity
  8
3
100
AcDbLine
 10
5.529527559055117
 20
7.616141732283464
 30
0.0
 11
5.68011811023622
 21
7.464566929133857
 31
0.0
  0
LINE
  5
3609
330
1E
100
AcDbEntity
  8
3
100
AcDbLine
 10
4.158464566929133
 20
8.986220472440944
 30
0.0
 11
4.310039370078739
 21
8.834645669291338
 31
0.0
  0
LINE
  5
360A
330
1E
100
AcDbEntity
  8
3
100
AcDbLine
 10
4.310039370078739
 20
8.834645669291338
 30
0.0
 11
5.476377952755905
 21
8.834645669291338
 31
0.0
  0
LINE
  5
360B
330
1E
100
AcDbEntity
  8
3
100
AcDbLine
 10
5.476377952755905
 20
8.834645669291338
 30
0.0
 11
5.626968503937007
 21
8.986220472440944
 31
0.0
  0
LINE
  5
360C
330
1E
100
AcDbEntity
  8
3
100
AcDbLine
 10
4.310039370078739
 20
7.616141732283464
 30
0.0
 11
5.476377952755905
 21
7.616141732283464
 31
0.0
  0
LINE
  5
360D
330
1E
100
AcDbEntity
  8
3
100
AcDbLine
 10
5.476377952755905
 20
7.616141732283464
 30
0.0
 11
5.476377952755905
 21
8.781496062992125
 31
0.0
  0
LINE
  5
360E
330
1E
100
AcDbEntity
  8
3
100
AcDbLine
 10
5.476377952755905
 20
8.781496062992125
 30
0.0
 11
4.310039370078739
 21
8.781496062992125
 31
0.0
  0
LINE
  5
360F
330
1E
100
AcDbEntity
  8
3
100
AcDbLine
 10
4.310039370078739
 20
8.781496062992125
 30
0.0
 11
4.310039370078739
 21
7.616141732283464
 31
0.0
  0
LINE
  5
3610
330
1E
100
AcDbEntity
  8
3
100
AcDbLine
 10
5.626968503937007
 20
8.986220472440944
 30
0.0
 11
5.649606299212598
 21
8.982283464566929
 31
0.0
  0
LINE
  5
3611
330
1E
100
AcDbEntity
  8
3
100
AcDbLine
 10
5.649606299212598
 20
8.982283464566929
 30
0.0
 11
5.666338582677164
 21
8.971456692913385
 31
0.0
  0
LINE
  5
3612
330
1E
100
AcDbEntity
  8
3
100
AcDbLine
 10
5.666338582677164
 20
8.971456692913385
 30
0.0
 11
5.677165354330708
 21
8.954724409448818
 31
0.0
  0
LINE
  5
3613
330
1E
100
AcDbEntity
  8
3
100
AcDbLine
 10
4.106299212598425
 20
8.933070866141731
 30
0.0
 11
4.109251968503937
 21
8.954724409448818
 31
0.0
  0
LINE
  5
3614
330
1E
100
AcDbEntity
  8
3
100
AcDbLine
 10
4.109251968503937
 20
8.954724409448818
 30
0.0
 11
4.120078740157479
 21
8.971456692913385
 31
0.0
  0
LINE
  5
3615
330
1E
100
AcDbEntity
  8
3
100
AcDbLine
 10
4.120078740157479
 20
8.971456692913385
 30
0.0
 11
4.136811023622047
 21
8.982283464566929
 31
0.0
  0
LINE
  5
3616
330
1E
100
AcDbEntity
  8
3
100
AcDbLine
 10
4.136811023622047
 20
8.982283464566929
 30
0.0
 11
4.158464566929133
 21
8.986220472440944
 31
0.0
  0
LINE
  5
3617
330
1E
100
AcDbEntity
  8
3
100
AcDbLine
 10
4.158464566929133
 20
7.411417322834644
 30
0.0
 11
4.136811023622047
 21
7.415354330708661
 31
0.0
  0
LINE
  5
3618
330
1E
100
AcDbEntity
  8
3
100
AcDbLine
 10
4.136811023622047
 20
7.415354330708661
 30
0.0
 11
4.120078740157479
 21
7.426181102362203
 31
0.0
  0
LINE
  5
3619
330
1E
100
AcDbEntity
  8
3
100
AcDbLine
 10
4.120078740157479
 20
7.426181102362203
 30
0.0
 11
4.109251968503937
 21
7.442913385826772
 31
0.0
  0
LINE
  5
361A
330
1E
100
AcDbEntity
  8
3
100
AcDbLine
 10
4.109251968503937
 20
7.442913385826772
 30
0.0
 11
4.106299212598425
 21
7.464566929133857
 31
0.0
  0
LINE
  5
361B
330
1E
100
AcDbEntity
  8
3
100
AcDbLine
 10
5.68011811023622
 20
7.464566929133857
 30
0.0
 11
5.677165354330708
 21
7.442913385826772
 31
0.0
  0
LINE
  5
361C
330
1E
100
AcDbEntity
  8
3
100
AcDbLine
 10
5.677165354330708
 20
7.442913385826772
 30
0.0
 11
5.666338582677164
 21
7.426181102362203
 31
0.0
  0
LINE
  5
361D
330
1E
100
AcDbEntity
  8
3
100
AcDbLine
 10
5.666338582677164
 20
7.426181102362203
 30
0.0
 11
5.649606299212598
 21
7.415354330708661
 31
0.0
  0
LINE
  5
361E
330
1E
100
AcDbEntity
  8
3
100
AcDbLine
 10
5.649606299212598
 20
7.415354330708661
 30
0.0
 11
5.626968503937007
 21
7.411417322834644
 31
0.0
  0
LINE
  5
3715
330
1E
100
AcDbEntity
  8
3
100
AcDbLine
 10
6.741141732283463
 20
8.403543307086613
 30
0.0
 11
6.741141732283463
 21
8.400590551181101
 31
0.0
  0
LINE
  5
3716
330
1E
100
AcDbEntity
  8
3
100
AcDbLine
 10
6.741141732283463
 20
8.400590551181101
 30
0.0
 11
6.742125984251968
 21
8.398622047244094
 31
0.0
  0
LINE
  5
3717
330
1E
100
AcDbEntity
  8
3
100
AcDbLine
 10
6.928149606299212
 20
7.702755905511811
 30
0.0
 11
6.742125984251968
 21
8.398622047244094
 31
0.0
  0
LINE
  5
3718
330
1E
100
AcDbEntity
  8
3
100
AcDbLine
 10
6.742125984251968
 20
8.398622047244094
 30
0.0
 11
6.747047244094487
 21
8.399606299212598
 31
0.0
  0
LINE
  5
3719
330
1E
100
AcDbEntity
  8
3
100
AcDbLine
 10
6.747047244094487
 20
8.399606299212598
 30
0.0
 11
6.759842519685038
 21
8.403543307086613
 31
0.0
  0
LINE
  5
371A
330
1E
100
AcDbEntity
  8
3
100
AcDbLine
 10
6.759842519685038
 20
8.403543307086613
 30
0.0
 11
6.746062992125984
 21
8.403543307086613
 31
0.0
  0
LINE
  5
371B
330
1E
100
AcDbEntity
  8
3
100
AcDbLine
 10
6.746062992125984
 20
8.403543307086613
 30
0.0
 11
6.741141732283463
 21
8.403543307086613
 31
0.0
  0
LINE
  5
371C
330
1E
100
AcDbEntity
  8
3
100
AcDbLine
 10
6.744094488188975
 20
8.433070866141731
 30
0.0
 11
6.742125984251968
 21
8.428149606299212
 31
0.0
  0
LINE
  5
371D
330
1E
100
AcDbEntity
  8
3
100
AcDbLine
 10
6.742125984251968
 20
8.428149606299212
 30
0.0
 11
6.741141732283463
 21
8.423228346456692
 31
0.0
  0
LINE
  5
371E
330
1E
100
AcDbEntity
  8
3
100
AcDbLine
 10
6.759842519685038
 20
8.423228346456692
 30
0.0
 11
6.746062992125984
 21
8.423228346456692
 31
0.0
  0
LINE
  5
371F
330
1E
100
AcDbEntity
  8
3
100
AcDbLine
 10
6.746062992125984
 20
8.423228346456692
 30
0.0
 11
6.741141732283463
 21
8.423228346456692
 31
0.0
  0
LINE
  5
3720
330
1E
100
AcDbEntity
  8
3
100
AcDbLine
 10
6.759842519685038
 20
8.423228346456692
 30
0.0
 11
6.748031496062991
 21
8.43011811023622
 31
0.0
  0
LINE
  5
3721
330
1E
100
AcDbEntity
  8
3
100
AcDbLine
 10
6.748031496062991
 20
8.43011811023622
 30
0.0
 11
6.744094488188975
 21
8.433070866141731
 31
0.0
  0
LINE
  5
3722
330
1E
100
AcDbEntity
  8
3
100
AcDbLine
 10
6.987204724409448
 20
8.721456692913385
 30
0.0
 11
6.929133858267715
 21
8.71751968503937
 31
0.0
  0
LINE
  5
3723
330
1E
100
AcDbEntity
  8
3
100
AcDbLine
 10
6.929133858267715
 20
8.71751968503937
 30
0.0
 11
6.759842519685038
 21
8.423228346456692
 31
0.0
  0
LINE
  5
3724
330
1E
100
AcDbEntity
  8
3
100
AcDbLine
 10
6.940944881889762
 20
8.756889763779527
 30
0.0
 11
6.939960629921259
 21
8.753937007874014
 31
0.0
  0
LINE
  5
3725
330
1E
100
AcDbEntity
  8
3
100
AcDbLine
 10
6.939960629921259
 20
8.753937007874014
 30
0.0
 11
6.937007874015747
 21
8.745078740157479
 31
0.0
  0
LINE
  5
3726
330
1E
100
AcDbEntity
  8
3
100
AcDbLine
 10
6.937007874015747
 20
8.745078740157479
 30
0.0
 11
6.933070866141731
 21
8.732283464566929
 31
0.0
  0
LINE
  5
3727
330
1E
100
AcDbEntity
  8
3
100
AcDbLine
 10
6.933070866141731
 20
8.732283464566929
 30
0.0
 11
6.929133858267715
 21
8.71751968503937
 31
0.0
  0
LINE
  5
3728
330
1E
100
AcDbEntity
  8
3
100
AcDbLine
 10
6.929133858267715
 20
8.71751968503937
 30
0.0
 11
6.918307086614173
 21
8.724409448818898
 31
0.0
  0
LINE
  5
3729
330
1E
100
AcDbEntity
  8
3
100
AcDbLine
 10
6.918307086614173
 20
8.724409448818898
 30
0.0
 11
6.913385826771652
 21
8.727362204724409
 31
0.0
  0
LINE
  5
372A
330
1E
100
AcDbEntity
  8
3
100
AcDbLine
 10
6.913385826771652
 20
8.727362204724409
 30
0.0
 11
6.919291338582676
 21
8.737204724409448
 31
0.0
  0
LINE
  5
372B
330
1E
100
AcDbEntity
  8
3
100
AcDbLine
 10
6.919291338582676
 20
8.737204724409448
 30
0.0
 11
6.924212598425196
 21
8.745078740157479
 31
0.0
  0
LINE
  5
372C
330
1E
100
AcDbEntity
  8
3
100
AcDbLine
 10
6.924212598425196
 20
8.745078740157479
 30
0.0
 11
6.9251968503937
 21
8.747047244094487
 31
0.0
  0
LINE
  5
372D
330
1E
100
AcDbEntity
  8
3
100
AcDbLine
 10
6.940944881889762
 20
8.756889763779527
 30
0.0
 11
6.931102362204724
 21
8.753937007874014
 31
0.0
  0
LINE
  5
372E
330
1E
100
AcDbEntity
  8
3
100
AcDbLine
 10
6.931102362204724
 20
8.753937007874014
 30
0.0
 11
6.9251968503937
 21
8.747047244094487
 31
0.0
  0
LINE
  5
372F
330
1E
100
AcDbEntity
  8
3
100
AcDbLine
 10
6.933070866141731
 20
7.683070866141731
 30
0.0
 11
6.933070866141731
 21
7.686023622047244
 31
0.0
  0
LINE
  5
3730
330
1E
100
AcDbEntity
  8
3
100
AcDbLine
 10
6.933070866141731
 20
7.686023622047244
 30
0.0
 11
6.931102362204724
 21
7.692913385826772
 31
0.0
  0
LINE
  5
3731
330
1E
100
AcDbEntity
  8
3
100
AcDbLine
 10
6.928149606299212
 20
7.702755905511811
 30
0.0
 11
6.933070866141731
 21
7.704724409448818
 31
0.0
  0
LINE
  5
3732
330
1E
100
AcDbEntity
  8
3
100
AcDbLine
 10
6.933070866141731
 20
7.704724409448818
 30
0.0
 11
6.945866141732283
 21
7.708661417322835
 31
0.0
  0
LINE
  5
3733
330
1E
100
AcDbEntity
  8
3
100
AcDbLine
 10
6.945866141732283
 20
7.708661417322835
 30
0.0
 11
6.94783464566929
 21
7.692913385826772
 31
0.0
  0
LINE
  5
3734
330
1E
100
AcDbEntity
  8
3
100
AcDbLine
 10
6.94783464566929
 20
7.692913385826772
 30
0.0
 11
6.948818897637794
 21
7.68011811023622
 31
0.0
  0
LINE
  5
3735
330
1E
100
AcDbEntity
  8
3
100
AcDbLine
 10
6.948818897637794
 20
7.68011811023622
 30
0.0
 11
6.950787401574802
 21
7.671259842519685
 31
0.0
  0
LINE
  5
3736
330
1E
100
AcDbEntity
  8
3
100
AcDbLine
 10
6.950787401574802
 20
7.671259842519685
 30
0.0
 11
6.950787401574802
 21
7.668307086614172
 31
0.0
  0
LINE
  5
3737
330
1E
100
AcDbEntity
  8
3
100
AcDbLine
 10
6.934055118110236
 20
7.683070866141731
 30
0.0
 11
6.939960629921259
 21
7.673228346456692
 31
0.0
  0
LINE
  5
3738
330
1E
100
AcDbEntity
  8
3
100
AcDbLine
 10
6.939960629921259
 20
7.673228346456692
 30
0.0
 11
6.951771653543306
 21
7.668307086614172
 31
0.0
  0
LINE
  5
3739
330
1E
100
AcDbEntity
  8
3
100
AcDbLine
 10
7.008858267716535
 20
7.616141732283464
 30
0.0
 11
6.993110236220472
 21
7.616141732283464
 31
0.0
  0
LINE
  5
373A
330
1E
100
AcDbEntity
  8
3
100
AcDbLine
 10
6.993110236220472
 20
7.616141732283464
 30
0.0
 11
6.987204724409448
 21
7.616141732283464
 31
0.0
  0
LINE
  5
373B
330
1E
100
AcDbEntity
  8
3
100
AcDbLine
 10
6.987204724409448
 20
7.616141732283464
 30
0.0
 11
6.993110236220472
 21
7.58759842519685
 31
0.0
  0
LINE
  5
373C
330
1E
100
AcDbEntity
  8
3
100
AcDbLine
 10
6.993110236220472
 20
7.58759842519685
 30
0.0
 11
7.008858267716535
 21
7.562992125984251
 31
0.0
  0
LINE
  5
373D
330
1E
100
AcDbEntity
  8
3
100
AcDbLine
 10
7.008858267716535
 20
8.781496062992125
 30
0.0
 11
6.993110236220472
 21
8.781496062992125
 31
0.0
  0
LINE
  5
373E
330
1E
100
AcDbEntity
  8
3
100
AcDbLine
 10
6.993110236220472
 20
8.781496062992125
 30
0.0
 11
6.987204724409448
 21
8.781496062992125
 31
0.0
  0
LINE
  5
373F
330
1E
100
AcDbEntity
  8
3
100
AcDbLine
 10
7.008858267716535
 20
8.834645669291338
 30
0.0
 11
6.993110236220472
 21
8.810039370078738
 31
0.0
  0
LINE
  5
3740
330
1E
100
AcDbEntity
  8
3
100
AcDbLine
 10
6.993110236220472
 20
8.810039370078738
 30
0.0
 11
6.987204724409448
 21
8.781496062992125
 31
0.0
  0
LINE
  5
3741
330
1E
100
AcDbEntity
  8
3
100
AcDbLine
 10
7.008858267716535
 20
8.834645669291338
 30
0.0
 11
7.001968503937007
 21
8.820866141732283
 31
0.0
  0
LINE
  5
3742
330
1E
100
AcDbEntity
  8
3
100
AcDbLine
 10
7.001968503937007
 20
8.820866141732283
 30
0.0
 11
7.001968503937007
 21
8.802165354330707
 31
0.0
  0
LINE
  5
3743
330
1E
100
AcDbEntity
  8
3
100
AcDbLine
 10
7.001968503937007
 20
8.802165354330707
 30
0.0
 11
7.008858267716535
 21
8.781496062992125
 31
0.0
  0
LINE
  5
3744
330
1E
100
AcDbEntity
  8
3
100
AcDbLine
 10
7.008858267716535
 20
7.616141732283464
 30
0.0
 11
7.001968503937007
 21
7.594488188976377
 31
0.0
  0
LINE
  5
3745
330
1E
100
AcDbEntity
  8
3
100
AcDbLine
 10
7.001968503937007
 20
7.594488188976377
 30
0.0
 11
7.001968503937007
 21
7.576771653543307
 31
0.0
  0
LINE
  5
3746
330
1E
100
AcDbEntity
  8
3
100
AcDbLine
 10
7.001968503937007
 20
7.576771653543307
 30
0.0
 11
7.008858267716535
 21
7.562992125984251
 31
0.0
  0
LINE
  5
3747
330
1E
100
AcDbEntity
  8
3
100
AcDbLine
 10
7.160433070866141
 20
8.933070866141731
 30
0.0
 11
7.008858267716535
 21
8.781496062992125
 31
0.0
  0
LINE
  5
3748
330
1E
100
AcDbEntity
  8
3
100
AcDbLine
 10
7.008858267716535
 20
8.781496062992125
 30
0.0
 11
7.008858267716535
 21
7.616141732283464
 31
0.0
  0
LINE
  5
3749
330
1E
100
AcDbEntity
  8
3
100
AcDbLine
 10
7.008858267716535
 20
7.616141732283464
 30
0.0
 11
7.160433070866141
 21
7.464566929133857
 31
0.0
  0
LINE
  5
374A
330
1E
100
AcDbEntity
  8
3
100
AcDbLine
 10
7.160433070866141
 20
8.986220472440944
 30
0.0
 11
7.160433070866141
 21
8.982283464566929
 31
0.0
  0
LINE
  5
374B
330
1E
100
AcDbEntity
  8
3
100
AcDbLine
 10
7.160433070866141
 20
8.982283464566929
 30
0.0
 11
7.160433070866141
 21
8.971456692913385
 31
0.0
  0
LINE
  5
374C
330
1E
100
AcDbEntity
  8
3
100
AcDbLine
 10
7.160433070866141
 20
8.971456692913385
 30
0.0
 11
7.160433070866141
 21
8.954724409448818
 31
0.0
  0
LINE
  5
374D
330
1E
100
AcDbEntity
  8
3
100
AcDbLine
 10
7.160433070866141
 20
8.954724409448818
 30
0.0
 11
7.160433070866141
 21
8.933070866141731
 31
0.0
  0
LINE
  5
374E
330
1E
100
AcDbEntity
  8
3
100
AcDbLine
 10
7.160433070866141
 20
7.464566929133857
 30
0.0
 11
7.160433070866141
 21
7.442913385826772
 31
0.0
  0
LINE
  5
374F
330
1E
100
AcDbEntity
  8
3
100
AcDbLine
 10
7.160433070866141
 20
7.442913385826772
 30
0.0
 11
7.160433070866141
 21
7.426181102362203
 31
0.0
  0
LINE
  5
3750
330
1E
100
AcDbEntity
  8
3
100
AcDbLine
 10
7.160433070866141
 20
7.426181102362203
 30
0.0
 11
7.160433070866141
 21
7.415354330708661
 31
0.0
  0
LINE
  5
3751
330
1E
100
AcDbEntity
  8
3
100
AcDbLine
 10
7.160433070866141
 20
7.415354330708661
 30
0.0
 11
7.160433070866141
 21
7.411417322834644
 31
0.0
  0
ENDSEC
  0
SECTION
  2
OBJECTS
  0
DICTIONARY
  5
C
330
0
100
AcDbDictionary
  3
ACAD_GROUP
350
D
  3
ACAD_LAYOUT
350
19
  3
ACAD_MLINESTYLE
350
16
  3
ACAD_PLOTSETTINGS
350
18
1001
ACAD
1000
TREAT_AS_HARD
1070
     0
  0
DICTIONARY
  5
3B25
330
1E
100
AcDbDictionary
  3
ACAD_LAYOUTSELFREF
350
3B60
1001
ACAD
1000
TREAT_AS_HARD
1070
     1
  0
DICTIONARY
  5
3B27
330
1A
100
AcDbDictionary
  3
ACAD_LAYOUTSELFREF
350
3B5F
1001
ACAD
1000
TREAT_AS_HARD
1070
     1
  0
DICTIONARY
  5
D
102
{ACAD_REACTORS
330
C
102
}
330
C
100
AcDbDictionary
1001
ACAD
1000
TREAT_AS_HARD
1070
     0
  0
DICTIONARY
  5
19
102
{ACAD_REACTORS
330
C
102
}
330
C
100
AcDbDictionary
1001
ACAD
1000
TREAT_AS_HARD
1070
     0
  0
DICTIONARY
  5
16
102
{ACAD_REACTORS
330
C
102
}
330
C
100
AcDbDictionary
  3
STANDARD
350
17
1001
ACAD
1000
TREAT_AS_HARD
1070
     0
  0
DICTIONARY
  5
18
102
{ACAD_REACTORS
330
C
102
}
330
C
100
AcDbDictionary
1001
ACAD
1000
TREAT_AS_HARD
1070
     0
  0
XRECORD
  5
3B60
102
{ACAD_REACTORS
330
3B25
102
}
330
3B25
100
AcDbXrecord
340
1E
  0
XRECORD
  5
3B5F
102
{ACAD_REACTORS
330
3B27
102
}
330
3B27
100
AcDbXrecord
340
1A
  0
MLINESTYLE
  5
17
102
{ACAD_REACTORS
330
16
102
}
330
16
100
AcDbMlineStyle
  2
STANDARD
 70
     0
  3

 62
   256
 51
90.0
 52
90.0
 71
     2
 49
0.5
 62
   256
  6
BYLAYER
 49
-0.5
 62
   256
  6
BYLAYER
  0
ENDSEC
  0
EOF
