  0
SECTION
  2
HEADER
  9
$ACADVER
  1
AC1012
  9
$DWGCODEPAGE
  3
ANSI_1252
  9
$INSBASE
 10
0.0
 20
0.0
 30
0.0
  9
$EXTMIN
 10
-10.75598142989443
 20
-1.938674908059969
 30
-0.0015258207003583
  9
$EXTMAX
 10
-8.983520504300855
 20
1.651107800485458
 30
0.0000000349246037
  9
$LIMMIN
 10
0.0
 20
0.0
  9
$LIMMAX
 10
12.0
 20
9.0
  9
$ORTHOMODE
 70
     0
  9
$REGENMODE
 70
     1
  9
$FILLMODE
 70
     1
  9
$QTEXTMODE
 70
     0
  9
$MIRRTEXT
 70
     1
  9
$DRAGMODE
 70
     2
  9
$LTSCALE
 40
1.0
  9
$OSMODE
 70
    33
  9
$ATTMODE
 70
     1
  9
$TEXTSIZE
 40
0.2
  9
$TRACEWID
 40
0.05
  9
$TEXTSTYLE
  7
STANDARD
  9
$CLAYER
  8
0
  9
$CELTYPE
  6
BYLAYER
  9
$CECOLOR
 62
   256
  9
$CELTSCALE
 40
1.0
  9
$DELOBJ
 70
     1
  9
$DISPSILH
 70
     0
  9
$DIMSCALE
 40
1.0
  9
$DIMASZ
 40
0.18
  9
$DIMEXO
 40
0.0625
  9
$DIMDLI
 40
0.38
  9
$DIMRND
 40
0.0
  9
$DIMDLE
 40
0.0
  9
$DIMEXE
 40
0.18
  9
$DIMTP
 40
0.0
  9
$DIMTM
 40
0.0
  9
$DIMTXT
 40
0.18
  9
$DIMCEN
 40
0.09
  9
$DIMTSZ
 40
0.0
  9
$DIMTOL
 70
     0
  9
$DIMLIM
 70
     0
  9
$DIMTIH
 70
     1
  9
$DIMTOH
 70
     1
  9
$DIMSE1
 70
     0
  9
$DIMSE2
 70
     0
  9
$DIMTAD
 70
     0
  9
$DIMZIN
 70
     0
  9
$DIMBLK
  1

  9
$DIMASO
 70
     1
  9
$DIMSHO
 70
     1
  9
$DIMPOST
  1

  9
$DIMAPOST
  1

  9
$DIMALT
 70
     0
  9
$DIMALTD
 70
     2
  9
$DIMALTF
 40
25.4
  9
$DIMLFAC
 40
1.0
  9
$DIMTOFL
 70
     0
  9
$DIMTVP
 40
0.0
  9
$DIMTIX
 70
     0
  9
$DIMSOXD
 70
     0
  9
$DIMSAH
 70
     0
  9
$DIMBLK1
  1

  9
$DIMBLK2
  1

  9
$DIMSTYLE
  2
STANDARD
  9
$DIMCLRD
 70
     0
  9
$DIMCLRE
 70
     0
  9
$DIMCLRT
 70
     0
  9
$DIMTFAC
 40
1.0
  9
$DIMGAP
 40
0.09
  9
$DIMJUST
 70
     0
  9
$DIMSD1
 70
     0
  9
$DIMSD2
 70
     0
  9
$DIMTOLJ
 70
     1
  9
$DIMTZIN
 70
     0
  9
$DIMALTZ
 70
     0
  9
$DIMALTTZ
 70
     0
  9
$DIMFIT
 70
     5
  9
$DIMUPT
 70
     0
  9
$DIMUNIT
 70
     2
  9
$DIMDEC
 70
     4
  9
$DIMTDEC
 70
     4
  9
$DIMALTU
 70
     2
  9
$DIMALTTD
 70
     2
  9
$DIMTXSTY
  7
STANDARD
  9
$DIMAUNIT
 70
     0
  9
$LUNITS
 70
     2
  9
$LUPREC
 70
     4
  9
$SKETCHINC
 40
0.1
  9
$FILLETRAD
 40
0.0
  9
$AUNITS
 70
     0
  9
$AUPREC
 70
     0
  9
$MENU
  1
acad
  9
$ELEVATION
 40
0.0
  9
$PELEVATION
 40
0.0
  9
$THICKNESS
 40
0.0
  9
$LIMCHECK
 70
     0
  9
$BLIPMODE
 70
     0
  9
$CHAMFERA
 40
0.0
  9
$CHAMFERB
 40
0.0
  9
$CHAMFERC
 40
0.0
  9
$CHAMFERD
 40
0.0
  9
$SKPOLY
 70
     0
  9
$TDCREATE
 40
2452612.404976851
  9
$TDUPDATE
 40
2452614.392938345
  9
$TDINDWG
 40
0.0153166667
  9
$TDUSRTIMER
 40
0.0153166667
  9
$USRTIMER
 70
     1
  9
$ANGBASE
 50
0.0
  9
$ANGDIR
 70
     0
  9
$PDMODE
 70
     0
  9
$PDSIZE
 40
0.0
  9
$PLINEWID
 40
0.0
  9
$COORDS
 70
     2
  9
$SPLFRAME
 70
     0
  9
$SPLINETYPE
 70
     6
  9
$SPLINESEGS
 70
     8
  9
$ATTDIA
 70
     0
  9
$ATTREQ
 70
     1
  9
$HANDLING
 70
  4097
  9
$HANDSEED
  5
3C05
  9
$SURFTAB1
 70
     6
  9
$SURFTAB2
 70
     6
  9
$SURFTYPE
 70
     6
  9
$SURFU
 70
     6
  9
$SURFV
 70
     6
  9
$UCSNAME
  2

  9
$UCSORG
 10
0.0
 20
0.0
 30
0.0
  9
$UCSXDIR
 10
1.0
 20
0.0
 30
0.0
  9
$UCSYDIR
 10
0.0
 20
1.0
 30
0.0
  9
$PUCSNAME
  2

  9
$PUCSORG
 10
0.0
 20
0.0
 30
0.0
  9
$PUCSXDIR
 10
1.0
 20
0.0
 30
0.0
  9
$PUCSYDIR
 10
0.0
 20
1.0
 30
0.0
  9
$USERI1
 70
     0
  9
$USERI2
 70
     0
  9
$USERI3
 70
     0
  9
$USERI4
 70
     0
  9
$USERI5
 70
     0
  9
$USERR1
 40
0.0
  9
$USERR2
 40
0.0
  9
$USERR3
 40
0.0
  9
$USERR4
 40
0.0
  9
$USERR5
 40
0.0
  9
$WORLDVIEW
 70
     1
  9
$SHADEDGE
 70
     3
  9
$SHADEDIF
 70
    70
  9
$TILEMODE
 70
     1
  9
$MAXACTVP
 70
    16
  9
$PINSBASE
 10
0.0
 20
0.0
 30
0.0
  9
$PLIMCHECK
 70
     0
  9
$PEXTMIN
 10
1.000000000000000E+20
 20
1.000000000000000E+20
 30
1.000000000000000E+20
  9
$PEXTMAX
 10
-1.000000000000000E+20
 20
-1.000000000000000E+20
 30
-1.000000000000000E+20
  9
$PLIMMIN
 10
0.0
 20
0.0
  9
$PLIMMAX
 10
12.0
 20
9.0
  9
$UNITMODE
 70
     0
  9
$VISRETAIN
 70
     0
  9
$PLINEGEN
 70
     0
  9
$PSLTSCALE
 70
     1
  9
$TREEDEPTH
 70
  3020
  9
$PICKSTYLE
 70
     1
  9
$CMLSTYLE
  2
STANDARD
  9
$CMLJUST
 70
     0
  9
$CMLSCALE
 40
1.0
  9
$SAVEIMAGES
 70
     1
  0
ENDSEC
  0
SECTION
  2
CLASSES
  0
CLASS
  1
ACDBDICTIONARYWDFLT
  2
AcDbDictionaryWithDefault
  3
AutoCAD 2000
 90
    32768
280
     0
281
     0
  0
CLASS
  1
ACDBPLACEHOLDER
  2
AcDbPlaceHolder
  3
AutoCAD 2000
 90
    32768
280
     0
281
     0
  0
CLASS
  1
LAYOUT
  2
AcDbLayout
  3
AutoCAD 2000
 90
    32768
280
     0
281
     0
  0
CLASS
  1
LONG_TRANSACTION
  2
AcDbLongTransaction
  3
AutoCAD 2000
 90
    32768
280
     0
281
     0
  0
CLASS
  1
LWPOLYLINE
  2
AcDbPolyline
  3
AutoCAD 2000
 90
    32768
280
     0
281
     1
  0
CLASS
  1
HATCH
  2
AcDbHatch
  3
AutoCAD 2000
 90
    32768
280
     0
281
     1
  0
CLASS
  1
XRECORD
  2
AcDbXrecord
  3
AutoCAD 2000
 90
    32768
280
     0
281
     0
  0
ENDSEC
  0
SECTION
  2
TABLES
  0
TABLE
  2
VPORT
  5
8
330
0
100
AcDbSymbolTable
 70
     3
  0
VPORT
  5
3C00
330
8
100
AcDbSymbolTableRecord
100
AcDbViewportTableRecord
  2
*ACTIVE
 70
     0
 10
0.0
 20
0.0
 11
1.0
 21
1.0
 12
-9.869750967097644
 22
-0.1437835537872552
 13
0.0
 23
0.0
 14
1.0
 24
1.0
 15
0.0
 25
0.0
 16
0.0
 26
0.0
 36
1.0
 17
0.0
 27
0.0
 37
0.0
 40
3.618160437466735
 41
1.62928759894459
 42
50.0
 43
0.0
 44
0.0
 50
0.0
 51
0.0
 71
     0
 72
   100
 73
     1
 74
     1
 75
     0
 76
     0
 77
     0
 78
     0
  0
ENDTAB
  0
TABLE
  2
LTYPE
  5
5
330
0
100
AcDbSymbolTable
 70
    25
  0
LTYPE
  5
13
330
5
100
AcDbSymbolTableRecord
100
AcDbLinetypeTableRecord
  2
BYBLOCK
 70
     0
  3

 72
    65
 73
     0
 40
0.0
  0
LTYPE
  5
14
330
5
100
AcDbSymbolTableRecord
100
AcDbLinetypeTableRecord
  2
BYLAYER
 70
     0
  3

 72
    65
 73
     0
 40
0.0
  0
LTYPE
  5
15
330
5
100
AcDbSymbolTableRecord
100
AcDbLinetypeTableRecord
  2
CONTINUOUS
 70
     0
  3
Solid line
 72
    65
 73
     0
 40
0.0
  0
LTYPE
  5
22
330
5
100
AcDbSymbolTableRecord
100
AcDbLinetypeTableRecord
  2
BORDER
 70
     0
  3
__ __ . __ __ . __ __ . __ __ . __ __ . __ __ .
 72
    65
 73
     6
 40
1.75
 49
0.5
 74
     0
 49
-0.25
 74
     0
 49
0.5
 74
     0
 49
-0.25
 74
     0
 49
0.5
 74
     0
 49
-0.25
 74
     0
  0
LTYPE
  5
23
330
5
100
AcDbSymbolTableRecord
100
AcDbLinetypeTableRecord
  2
BORDER2
 70
     0
  3
__.__.__.__.__.__.__.__.__.__.__.__.__.__.__.__
 72
    65
 73
     6
 40
0.875
 49
0.25
 74
     0
 49
-0.125
 74
     0
 49
0.25
 74
     0
 49
-0.125
 74
     0
 49
0.25
 74
     0
 49
-0.125
 74
     0
  0
LTYPE
  5
24
330
5
100
AcDbSymbolTableRecord
100
AcDbLinetypeTableRecord
  2
BORDERX2
 70
     0
  3
____  ____  .  ____  ____  .  
 72
    65
 73
     6
 40
3.5
 49
1.0
 74
     0
 49
-0.5
 74
     0
 49
1.0
 74
     0
 49
-0.5
 74
     0
 49
1.0
 74
     0
 49
-0.5
 74
     0
  0
LTYPE
  5
25
330
5
100
AcDbSymbolTableRecord
100
AcDbLinetypeTableRecord
  2
CENTER
 70
     0
  3
____ _ ____ _ ____ _ ____ _ ____ _ ____ _ ____
 72
    65
 73
     4
 40
2.0
 49
1.25
 74
     0
 49
-0.25
 74
     0
 49
0.25
 74
     0
 49
-0.25
 74
     0
  0
LTYPE
  5
26
330
5
100
AcDbSymbolTableRecord
100
AcDbLinetypeTableRecord
  2
CENTER2
 70
     0
  3
____ _ ____ _ ____ _ ____ _ ____ _ ____ _ ____
 72
    65
 73
     4
 40
1.125
 49
0.75
 74
     0
 49
-0.125
 74
     0
 49
0.125
 74
     0
 49
-0.125
 74
     0
  0
LTYPE
  5
27
330
5
100
AcDbSymbolTableRecord
100
AcDbLinetypeTableRecord
  2
CENTERX2
 70
     0
  3
________  __  ________  __  ________  __  
 72
    65
 73
     4
 40
4.0
 49
2.5
 74
     0
 49
-0.5
 74
     0
 49
0.5
 74
     0
 49
-0.5
 74
     0
  0
LTYPE
  5
28
330
5
100
AcDbSymbolTableRecord
100
AcDbLinetypeTableRecord
  2
DASHDOT
 70
     0
  3
__ . __ . __ . __ . __ . __ . __ . 
 72
    65
 73
     4
 40
1.0
 49
0.5
 74
     0
 49
-0.25
 74
     0
 49
0.0
 74
     0
 49
-0.25
 74
     0
  0
LTYPE
  5
29
330
5
100
AcDbSymbolTableRecord
100
AcDbLinetypeTableRecord
  2
DASHDOT2
 70
     0
  3
_._._._._._._._._._._._._._._._.
 72
    65
 73
     4
 40
0.5
 49
0.25
 74
     0
 49
-0.125
 74
     0
 49
0.0
 74
     0
 49
-0.125
 74
     0
  0
LTYPE
  5
2A
330
5
100
AcDbSymbolTableRecord
100
AcDbLinetypeTableRecord
  2
DASHDOTX2
 70
     0
  3
____  .  ____  .  ____  .  ____  .  
 72
    65
 73
     4
 40
2.0
 49
1.0
 74
     0
 49
-0.5
 74
     0
 49
0.0
 74
     0
 49
-0.5
 74
     0
  0
LTYPE
  5
2B
330
5
100
AcDbSymbolTableRecord
100
AcDbLinetypeTableRecord
  2
DASHED
 70
     0
  3
__ __ __ __ __ __ __ __ __ __ __ __ 
 72
    65
 73
     2
 40
0.75
 49
0.5
 74
     0
 49
-0.25
 74
     0
  0
LTYPE
  5
2C
330
5
100
AcDbSymbolTableRecord
100
AcDbLinetypeTableRecord
  2
DASHED2
 70
     0
  3
_ _ _ _ _ _ _ _ _ _ _ _ _ _ _ _ _ _ 
 72
    65
 73
     2
 40
0.375
 49
0.25
 74
     0
 49
-0.125
 74
     0
  0
LTYPE
  5
2D
330
5
100
AcDbSymbolTableRecord
100
AcDbLinetypeTableRecord
  2
DASHEDX2
 70
     0
  3
____  ____  ____  ____  ____  ____  
 72
    65
 73
     2
 40
1.5
 49
1.0
 74
     0
 49
-0.5
 74
     0
  0
LTYPE
  5
2E
330
5
100
AcDbSymbolTableRecord
100
AcDbLinetypeTableRecord
  2
DIVIDE
 70
     0
  3
____ . . ____ . . ____ . . ____ . . 
 72
    65
 73
     6
 40
1.25
 49
0.5
 74
     0
 49
-0.25
 74
     0
 49
0.0
 74
     0
 49
-0.25
 74
     0
 49
0.0
 74
     0
 49
-0.25
 74
     0
  0
LTYPE
  5
2F
330
5
100
AcDbSymbolTableRecord
100
AcDbLinetypeTableRecord
  2
DIVIDE2
 70
     0
  3
__..__..__..__..__..__..__..__..__..
 72
    65
 73
     6
 40
0.625
 49
0.25
 74
     0
 49
-0.125
 74
     0
 49
0.0
 74
     0
 49
-0.125
 74
     0
 49
0.0
 74
     0
 49
-0.125
 74
     0
  0
LTYPE
  5
30
330
5
100
AcDbSymbolTableRecord
100
AcDbLinetypeTableRecord
  2
DIVIDEX2
 70
     0
  3
________  .  .  ________  .  .  ________  .  . 
 72
    65
 73
     6
 40
2.5
 49
1.0
 74
     0
 49
-0.5
 74
     0
 49
0.0
 74
     0
 49
-0.5
 74
     0
 49
0.0
 74
     0
 49
-0.5
 74
     0
  0
LTYPE
  5
31
330
5
100
AcDbSymbolTableRecord
100
AcDbLinetypeTableRecord
  2
DOT
 70
     0
  3
. . . . . . . . . . . . . . . . . . 
 72
    65
 73
     2
 40
0.25
 49
0.0
 74
     0
 49
-0.25
 74
     0
  0
LTYPE
  5
32
330
5
100
AcDbSymbolTableRecord
100
AcDbLinetypeTableRecord
  2
DOT2
 70
     0
  3
....................................
 72
    65
 73
     2
 40
0.125
 49
0.0
 74
     0
 49
-0.125
 74
     0
  0
LTYPE
  5
33
330
5
100
AcDbSymbolTableRecord
100
AcDbLinetypeTableRecord
  2
DOTX2
 70
     0
  3
.  .  .  .  .  .  .  .  .  .  .  .  .  
 72
    65
 73
     2
 40
0.5
 49
0.0
 74
     0
 49
-0.5
 74
     0
  0
LTYPE
  5
34
330
5
100
AcDbSymbolTableRecord
100
AcDbLinetypeTableRecord
  2
HIDDEN
 70
     0
  3
__ __ __ __ __ __ __ __ __ __ __ __ 
 72
    65
 73
     2
 40
0.375
 49
0.25
 74
     0
 49
-0.125
 74
     0
  0
LTYPE
  5
35
330
5
100
AcDbSymbolTableRecord
100
AcDbLinetypeTableRecord
  2
HIDDEN2
 70
     0
  3
_ _ _ _ _ _ _ _ _ _ _ _ _ _ _ _ _ _ 
 72
    65
 73
     2
 40
0.1875
 49
0.125
 74
     0
 49
-0.0625
 74
     0
  0
LTYPE
  5
36
330
5
100
AcDbSymbolTableRecord
100
AcDbLinetypeTableRecord
  2
HIDDENX2
 70
     0
  3
____ ____ ____ ____ ____ ____ ____ 
 72
    65
 73
     2
 40
0.75
 49
0.5
 74
     0
 49
-0.25
 74
     0
  0
LTYPE
  5
37
330
5
100
AcDbSymbolTableRecord
100
AcDbLinetypeTableRecord
  2
PHANTOM
 70
     0
  3
______  __  __  ______  __  __  
 72
    65
 73
     6
 40
2.5
 49
1.25
 74
     0
 49
-0.25
 74
     0
 49
0.25
 74
     0
 49
-0.25
 74
     0
 49
0.25
 74
     0
 49
-0.25
 74
     0
  0
LTYPE
  5
38
330
5
100
AcDbSymbolTableRecord
100
AcDbLinetypeTableRecord
  2
PHANTOM2
 70
     0
  3
___ _ _ ___ _ _ ___ _ _ ___ _ _ 
 72
    65
 73
     6
 40
1.25
 49
0.625
 74
     0
 49
-0.125
 74
     0
 49
0.125
 74
     0
 49
-0.125
 74
     0
 49
0.125
 74
     0
 49
-0.125
 74
     0
  0
LTYPE
  5
39
330
5
100
AcDbSymbolTableRecord
100
AcDbLinetypeTableRecord
  2
PHANTOMX2
 70
     0
  3
___ _ _ ___ _ _ ___ _ _ ___ _ _ 
 72
    65
 73
     6
 40
5.0
 49
2.5
 74
     0
 49
-0.5
 74
     0
 49
0.5
 74
     0
 49
-0.5
 74
     0
 49
0.5
 74
     0
 49
-0.5
 74
     0
  0
ENDTAB
  0
TABLE
  2
LAYER
  5
2
330
0
100
AcDbSymbolTable
 70
   257
  0
LAYER
  5
10
330
2
100
AcDbSymbolTableRecord
100
AcDbLayerTableRecord
  2
0
 70
     0
 62
     7
  6
CONTINUOUS
  0
LAYER
  5
3A
330
2
100
AcDbSymbolTableRecord
100
AcDbLayerTableRecord
  2
1
 70
     0
 62
     1
  6
CONTINUOUS
  0
LAYER
  5
3B
330
2
100
AcDbSymbolTableRecord
100
AcDbLayerTableRecord
  2
2
 70
     0
 62
     2
  6
CONTINUOUS
  0
LAYER
  5
3C
330
2
100
AcDbSymbolTableRecord
100
AcDbLayerTableRecord
  2
3
 70
     0
 62
     3
  6
CONTINUOUS
  0
LAYER
  5
3D
330
2
100
AcDbSymbolTableRecord
100
AcDbLayerTableRecord
  2
4
 70
     0
 62
     4
  6
CONTINUOUS
  0
LAYER
  5
3E
330
2
100
AcDbSymbolTableRecord
100
AcDbLayerTableRecord
  2
5
 70
     0
 62
     5
  6
CONTINUOUS
  0
LAYER
  5
3F
330
2
100
AcDbSymbolTableRecord
100
AcDbLayerTableRecord
  2
6
 70
     0
 62
     6
  6
CONTINUOUS
  0
LAYER
  5
40
330
2
100
AcDbSymbolTableRecord
100
AcDbLayerTableRecord
  2
7
 70
     0
 62
     7
  6
CONTINUOUS
  0
LAYER
  5
41
330
2
100
AcDbSymbolTableRecord
100
AcDbLayerTableRecord
  2
8
 70
     0
 62
     8
  6
CONTINUOUS
  0
LAYER
  5
42
330
2
100
AcDbSymbolTableRecord
100
AcDbLayerTableRecord
  2
9
 70
     0
 62
     9
  6
CONTINUOUS
  0
LAYER
  5
43
330
2
100
AcDbSymbolTableRecord
100
AcDbLayerTableRecord
  2
10
 70
     0
 62
    10
  6
CONTINUOUS
  0
LAYER
  5
44
330
2
100
AcDbSymbolTableRecord
100
AcDbLayerTableRecord
  2
11
 70
     0
 62
    11
  6
CONTINUOUS
  0
LAYER
  5
45
330
2
100
AcDbSymbolTableRecord
100
AcDbLayerTableRecord
  2
12
 70
     0
 62
    12
  6
CONTINUOUS
  0
LAYER
  5
46
330
2
100
AcDbSymbolTableRecord
100
AcDbLayerTableRecord
  2
13
 70
     0
 62
    13
  6
CONTINUOUS
  0
LAYER
  5
47
330
2
100
AcDbSymbolTableRecord
100
AcDbLayerTableRecord
  2
14
 70
     0
 62
    14
  6
CONTINUOUS
  0
LAYER
  5
48
330
2
100
AcDbSymbolTableRecord
100
AcDbLayerTableRecord
  2
15
 70
     0
 62
    15
  6
CONTINUOUS
  0
LAYER
  5
49
330
2
100
AcDbSymbolTableRecord
100
AcDbLayerTableRecord
  2
16
 70
     0
 62
    16
  6
CONTINUOUS
  0
LAYER
  5
4A
330
2
100
AcDbSymbolTableRecord
100
AcDbLayerTableRecord
  2
17
 70
     0
 62
    17
  6
CONTINUOUS
  0
LAYER
  5
4B
330
2
100
AcDbSymbolTableRecord
100
AcDbLayerTableRecord
  2
18
 70
     0
 62
    18
  6
CONTINUOUS
  0
LAYER
  5
4C
330
2
100
AcDbSymbolTableRecord
100
AcDbLayerTableRecord
  2
19
 70
     0
 62
    19
  6
CONTINUOUS
  0
LAYER
  5
4D
330
2
100
AcDbSymbolTableRecord
100
AcDbLayerTableRecord
  2
20
 70
     0
 62
    20
  6
CONTINUOUS
  0
LAYER
  5
4E
330
2
100
AcDbSymbolTableRecord
100
AcDbLayerTableRecord
  2
21
 70
     0
 62
    21
  6
CONTINUOUS
  0
LAYER
  5
4F
330
2
100
AcDbSymbolTableRecord
100
AcDbLayerTableRecord
  2
22
 70
     0
 62
    22
  6
CONTINUOUS
  0
LAYER
  5
50
330
2
100
AcDbSymbolTableRecord
100
AcDbLayerTableRecord
  2
23
 70
     0
 62
    23
  6
CONTINUOUS
  0
LAYER
  5
51
330
2
100
AcDbSymbolTableRecord
100
AcDbLayerTableRecord
  2
24
 70
     0
 62
    24
  6
CONTINUOUS
  0
LAYER
  5
52
330
2
100
AcDbSymbolTableRecord
100
AcDbLayerTableRecord
  2
25
 70
     0
 62
    25
  6
CONTINUOUS
  0
LAYER
  5
53
330
2
100
AcDbSymbolTableRecord
100
AcDbLayerTableRecord
  2
26
 70
     0
 62
    26
  6
CONTINUOUS
  0
LAYER
  5
54
330
2
100
AcDbSymbolTableRecord
100
AcDbLayerTableRecord
  2
27
 70
     0
 62
    27
  6
CONTINUOUS
  0
LAYER
  5
55
330
2
100
AcDbSymbolTableRecord
100
AcDbLayerTableRecord
  2
28
 70
     0
 62
    28
  6
CONTINUOUS
  0
LAYER
  5
56
330
2
100
AcDbSymbolTableRecord
100
AcDbLayerTableRecord
  2
29
 70
     0
 62
    29
  6
CONTINUOUS
  0
LAYER
  5
57
330
2
100
AcDbSymbolTableRecord
100
AcDbLayerTableRecord
  2
30
 70
     0
 62
    30
  6
CONTINUOUS
  0
LAYER
  5
58
330
2
100
AcDbSymbolTableRecord
100
AcDbLayerTableRecord
  2
31
 70
     0
 62
    31
  6
CONTINUOUS
  0
LAYER
  5
59
330
2
100
AcDbSymbolTableRecord
100
AcDbLayerTableRecord
  2
32
 70
     0
 62
    32
  6
CONTINUOUS
  0
LAYER
  5
5A
330
2
100
AcDbSymbolTableRecord
100
AcDbLayerTableRecord
  2
33
 70
     0
 62
    33
  6
CONTINUOUS
  0
LAYER
  5
5B
330
2
100
AcDbSymbolTableRecord
100
AcDbLayerTableRecord
  2
34
 70
     0
 62
    34
  6
CONTINUOUS
  0
LAYER
  5
5C
330
2
100
AcDbSymbolTableRecord
100
AcDbLayerTableRecord
  2
35
 70
     0
 62
    35
  6
CONTINUOUS
  0
LAYER
  5
5D
330
2
100
AcDbSymbolTableRecord
100
AcDbLayerTableRecord
  2
36
 70
     0
 62
    36
  6
CONTINUOUS
  0
LAYER
  5
5E
330
2
100
AcDbSymbolTableRecord
100
AcDbLayerTableRecord
  2
37
 70
     0
 62
    37
  6
CONTINUOUS
  0
LAYER
  5
5F
330
2
100
AcDbSymbolTableRecord
100
AcDbLayerTableRecord
  2
38
 70
     0
 62
    38
  6
CONTINUOUS
  0
LAYER
  5
60
330
2
100
AcDbSymbolTableRecord
100
AcDbLayerTableRecord
  2
39
 70
     0
 62
    39
  6
CONTINUOUS
  0
LAYER
  5
61
330
2
100
AcDbSymbolTableRecord
100
AcDbLayerTableRecord
  2
40
 70
     0
 62
    40
  6
CONTINUOUS
  0
LAYER
  5
62
330
2
100
AcDbSymbolTableRecord
100
AcDbLayerTableRecord
  2
41
 70
     0
 62
    41
  6
CONTINUOUS
  0
LAYER
  5
63
330
2
100
AcDbSymbolTableRecord
100
AcDbLayerTableRecord
  2
42
 70
     0
 62
    42
  6
CONTINUOUS
  0
LAYER
  5
64
330
2
100
AcDbSymbolTableRecord
100
AcDbLayerTableRecord
  2
43
 70
     0
 62
    43
  6
CONTINUOUS
  0
LAYER
  5
65
330
2
100
AcDbSymbolTableRecord
100
AcDbLayerTableRecord
  2
44
 70
     0
 62
    44
  6
CONTINUOUS
  0
LAYER
  5
66
330
2
100
AcDbSymbolTableRecord
100
AcDbLayerTableRecord
  2
45
 70
     0
 62
    45
  6
CONTINUOUS
  0
LAYER
  5
67
330
2
100
AcDbSymbolTableRecord
100
AcDbLayerTableRecord
  2
46
 70
     0
 62
    46
  6
CONTINUOUS
  0
LAYER
  5
68
330
2
100
AcDbSymbolTableRecord
100
AcDbLayerTableRecord
  2
47
 70
     0
 62
    47
  6
CONTINUOUS
  0
LAYER
  5
69
330
2
100
AcDbSymbolTableRecord
100
AcDbLayerTableRecord
  2
48
 70
     0
 62
    48
  6
CONTINUOUS
  0
LAYER
  5
6A
330
2
100
AcDbSymbolTableRecord
100
AcDbLayerTableRecord
  2
49
 70
     0
 62
    49
  6
CONTINUOUS
  0
LAYER
  5
6B
330
2
100
AcDbSymbolTableRecord
100
AcDbLayerTableRecord
  2
50
 70
     0
 62
    50
  6
CONTINUOUS
  0
LAYER
  5
6C
330
2
100
AcDbSymbolTableRecord
100
AcDbLayerTableRecord
  2
51
 70
     0
 62
    51
  6
CONTINUOUS
  0
LAYER
  5
6D
330
2
100
AcDbSymbolTableRecord
100
AcDbLayerTableRecord
  2
52
 70
     0
 62
    52
  6
CONTINUOUS
  0
LAYER
  5
6E
330
2
100
AcDbSymbolTableRecord
100
AcDbLayerTableRecord
  2
53
 70
     0
 62
    53
  6
CONTINUOUS
  0
LAYER
  5
6F
330
2
100
AcDbSymbolTableRecord
100
AcDbLayerTableRecord
  2
54
 70
     0
 62
    54
  6
CONTINUOUS
  0
LAYER
  5
70
330
2
100
AcDbSymbolTableRecord
100
AcDbLayerTableRecord
  2
55
 70
     0
 62
    55
  6
CONTINUOUS
  0
LAYER
  5
71
330
2
100
AcDbSymbolTableRecord
100
AcDbLayerTableRecord
  2
56
 70
     0
 62
    56
  6
CONTINUOUS
  0
LAYER
  5
72
330
2
100
AcDbSymbolTableRecord
100
AcDbLayerTableRecord
  2
57
 70
     0
 62
    57
  6
CONTINUOUS
  0
LAYER
  5
73
330
2
100
AcDbSymbolTableRecord
100
AcDbLayerTableRecord
  2
58
 70
     0
 62
    58
  6
CONTINUOUS
  0
LAYER
  5
74
330
2
100
AcDbSymbolTableRecord
100
AcDbLayerTableRecord
  2
59
 70
     0
 62
    59
  6
CONTINUOUS
  0
LAYER
  5
75
330
2
100
AcDbSymbolTableRecord
100
AcDbLayerTableRecord
  2
60
 70
     0
 62
    60
  6
CONTINUOUS
  0
LAYER
  5
76
330
2
100
AcDbSymbolTableRecord
100
AcDbLayerTableRecord
  2
61
 70
     0
 62
    61
  6
CONTINUOUS
  0
LAYER
  5
77
330
2
100
AcDbSymbolTableRecord
100
AcDbLayerTableRecord
  2
62
 70
     0
 62
    62
  6
CONTINUOUS
  0
LAYER
  5
78
330
2
100
AcDbSymbolTableRecord
100
AcDbLayerTableRecord
  2
63
 70
     0
 62
    63
  6
CONTINUOUS
  0
LAYER
  5
79
330
2
100
AcDbSymbolTableRecord
100
AcDbLayerTableRecord
  2
64
 70
     0
 62
    64
  6
CONTINUOUS
  0
LAYER
  5
7A
330
2
100
AcDbSymbolTableRecord
100
AcDbLayerTableRecord
  2
65
 70
     0
 62
    65
  6
CONTINUOUS
  0
LAYER
  5
7B
330
2
100
AcDbSymbolTableRecord
100
AcDbLayerTableRecord
  2
66
 70
     0
 62
    66
  6
CONTINUOUS
  0
LAYER
  5
7C
330
2
100
AcDbSymbolTableRecord
100
AcDbLayerTableRecord
  2
67
 70
     0
 62
    67
  6
CONTINUOUS
  0
LAYER
  5
7D
330
2
100
AcDbSymbolTableRecord
100
AcDbLayerTableRecord
  2
68
 70
     0
 62
    68
  6
CONTINUOUS
  0
LAYER
  5
7E
330
2
100
AcDbSymbolTableRecord
100
AcDbLayerTableRecord
  2
69
 70
     0
 62
    69
  6
CONTINUOUS
  0
LAYER
  5
7F
330
2
100
AcDbSymbolTableRecord
100
AcDbLayerTableRecord
  2
70
 70
     0
 62
    70
  6
CONTINUOUS
  0
LAYER
  5
80
330
2
100
AcDbSymbolTableRecord
100
AcDbLayerTableRecord
  2
71
 70
     0
 62
    71
  6
CONTINUOUS
  0
LAYER
  5
81
330
2
100
AcDbSymbolTableRecord
100
AcDbLayerTableRecord
  2
72
 70
     0
 62
    72
  6
CONTINUOUS
  0
LAYER
  5
82
330
2
100
AcDbSymbolTableRecord
100
AcDbLayerTableRecord
  2
73
 70
     0
 62
    73
  6
CONTINUOUS
  0
LAYER
  5
83
330
2
100
AcDbSymbolTableRecord
100
AcDbLayerTableRecord
  2
74
 70
     0
 62
    74
  6
CONTINUOUS
  0
LAYER
  5
84
330
2
100
AcDbSymbolTableRecord
100
AcDbLayerTableRecord
  2
75
 70
     0
 62
    75
  6
CONTINUOUS
  0
LAYER
  5
85
330
2
100
AcDbSymbolTableRecord
100
AcDbLayerTableRecord
  2
76
 70
     0
 62
    76
  6
CONTINUOUS
  0
LAYER
  5
86
330
2
100
AcDbSymbolTableRecord
100
AcDbLayerTableRecord
  2
77
 70
     0
 62
    77
  6
CONTINUOUS
  0
LAYER
  5
87
330
2
100
AcDbSymbolTableRecord
100
AcDbLayerTableRecord
  2
78
 70
     0
 62
    78
  6
CONTINUOUS
  0
LAYER
  5
88
330
2
100
AcDbSymbolTableRecord
100
AcDbLayerTableRecord
  2
79
 70
     0
 62
    79
  6
CONTINUOUS
  0
LAYER
  5
89
330
2
100
AcDbSymbolTableRecord
100
AcDbLayerTableRecord
  2
80
 70
     0
 62
    80
  6
CONTINUOUS
  0
LAYER
  5
8A
330
2
100
AcDbSymbolTableRecord
100
AcDbLayerTableRecord
  2
81
 70
     0
 62
    81
  6
CONTINUOUS
  0
LAYER
  5
8B
330
2
100
AcDbSymbolTableRecord
100
AcDbLayerTableRecord
  2
82
 70
     0
 62
    82
  6
CONTINUOUS
  0
LAYER
  5
8C
330
2
100
AcDbSymbolTableRecord
100
AcDbLayerTableRecord
  2
83
 70
     0
 62
    83
  6
CONTINUOUS
  0
LAYER
  5
8D
330
2
100
AcDbSymbolTableRecord
100
AcDbLayerTableRecord
  2
84
 70
     0
 62
    84
  6
CONTINUOUS
  0
LAYER
  5
8E
330
2
100
AcDbSymbolTableRecord
100
AcDbLayerTableRecord
  2
85
 70
     0
 62
    85
  6
CONTINUOUS
  0
LAYER
  5
8F
330
2
100
AcDbSymbolTableRecord
100
AcDbLayerTableRecord
  2
86
 70
     0
 62
    86
  6
CONTINUOUS
  0
LAYER
  5
90
330
2
100
AcDbSymbolTableRecord
100
AcDbLayerTableRecord
  2
87
 70
     0
 62
    87
  6
CONTINUOUS
  0
LAYER
  5
91
330
2
100
AcDbSymbolTableRecord
100
AcDbLayerTableRecord
  2
88
 70
     0
 62
    88
  6
CONTINUOUS
  0
LAYER
  5
92
330
2
100
AcDbSymbolTableRecord
100
AcDbLayerTableRecord
  2
89
 70
     0
 62
    89
  6
CONTINUOUS
  0
LAYER
  5
93
330
2
100
AcDbSymbolTableRecord
100
AcDbLayerTableRecord
  2
90
 70
     0
 62
    90
  6
CONTINUOUS
  0
LAYER
  5
94
330
2
100
AcDbSymbolTableRecord
100
AcDbLayerTableRecord
  2
91
 70
     0
 62
    91
  6
CONTINUOUS
  0
LAYER
  5
95
330
2
100
AcDbSymbolTableRecord
100
AcDbLayerTableRecord
  2
92
 70
     0
 62
    92
  6
CONTINUOUS
  0
LAYER
  5
96
330
2
100
AcDbSymbolTableRecord
100
AcDbLayerTableRecord
  2
93
 70
     0
 62
    93
  6
CONTINUOUS
  0
LAYER
  5
97
330
2
100
AcDbSymbolTableRecord
100
AcDbLayerTableRecord
  2
94
 70
     0
 62
    94
  6
CONTINUOUS
  0
LAYER
  5
98
330
2
100
AcDbSymbolTableRecord
100
AcDbLayerTableRecord
  2
95
 70
     0
 62
    95
  6
CONTINUOUS
  0
LAYER
  5
99
330
2
100
AcDbSymbolTableRecord
100
AcDbLayerTableRecord
  2
96
 70
     0
 62
    96
  6
CONTINUOUS
  0
LAYER
  5
9A
330
2
100
AcDbSymbolTableRecord
100
AcDbLayerTableRecord
  2
97
 70
     0
 62
    97
  6
CONTINUOUS
  0
LAYER
  5
9B
330
2
100
AcDbSymbolTableRecord
100
AcDbLayerTableRecord
  2
98
 70
     0
 62
    98
  6
CONTINUOUS
  0
LAYER
  5
9C
330
2
100
AcDbSymbolTableRecord
100
AcDbLayerTableRecord
  2
99
 70
     0
 62
    99
  6
CONTINUOUS
  0
LAYER
  5
9D
330
2
100
AcDbSymbolTableRecord
100
AcDbLayerTableRecord
  2
100
 70
     0
 62
   100
  6
CONTINUOUS
  0
LAYER
  5
9E
330
2
100
AcDbSymbolTableRecord
100
AcDbLayerTableRecord
  2
101
 70
     0
 62
   101
  6
CONTINUOUS
  0
LAYER
  5
9F
330
2
100
AcDbSymbolTableRecord
100
AcDbLayerTableRecord
  2
102
 70
     0
 62
   102
  6
CONTINUOUS
  0
LAYER
  5
A0
330
2
100
AcDbSymbolTableRecord
100
AcDbLayerTableRecord
  2
103
 70
     0
 62
   103
  6
CONTINUOUS
  0
LAYER
  5
A1
330
2
100
AcDbSymbolTableRecord
100
AcDbLayerTableRecord
  2
104
 70
     0
 62
   104
  6
CONTINUOUS
  0
LAYER
  5
A2
330
2
100
AcDbSymbolTableRecord
100
AcDbLayerTableRecord
  2
105
 70
     0
 62
   105
  6
CONTINUOUS
  0
LAYER
  5
A3
330
2
100
AcDbSymbolTableRecord
100
AcDbLayerTableRecord
  2
106
 70
     0
 62
   106
  6
CONTINUOUS
  0
LAYER
  5
A4
330
2
100
AcDbSymbolTableRecord
100
AcDbLayerTableRecord
  2
107
 70
     0
 62
   107
  6
CONTINUOUS
  0
LAYER
  5
A5
330
2
100
AcDbSymbolTableRecord
100
AcDbLayerTableRecord
  2
108
 70
     0
 62
   108
  6
CONTINUOUS
  0
LAYER
  5
A6
330
2
100
AcDbSymbolTableRecord
100
AcDbLayerTableRecord
  2
109
 70
     0
 62
   109
  6
CONTINUOUS
  0
LAYER
  5
A7
330
2
100
AcDbSymbolTableRecord
100
AcDbLayerTableRecord
  2
110
 70
     0
 62
   110
  6
CONTINUOUS
  0
LAYER
  5
A8
330
2
100
AcDbSymbolTableRecord
100
AcDbLayerTableRecord
  2
111
 70
     0
 62
   111
  6
CONTINUOUS
  0
LAYER
  5
A9
330
2
100
AcDbSymbolTableRecord
100
AcDbLayerTableRecord
  2
112
 70
     0
 62
   112
  6
CONTINUOUS
  0
LAYER
  5
AA
330
2
100
AcDbSymbolTableRecord
100
AcDbLayerTableRecord
  2
113
 70
     0
 62
   113
  6
CONTINUOUS
  0
LAYER
  5
AB
330
2
100
AcDbSymbolTableRecord
100
AcDbLayerTableRecord
  2
114
 70
     0
 62
   114
  6
CONTINUOUS
  0
LAYER
  5
AC
330
2
100
AcDbSymbolTableRecord
100
AcDbLayerTableRecord
  2
115
 70
     0
 62
   115
  6
CONTINUOUS
  0
LAYER
  5
AD
330
2
100
AcDbSymbolTableRecord
100
AcDbLayerTableRecord
  2
116
 70
     0
 62
   116
  6
CONTINUOUS
  0
LAYER
  5
AE
330
2
100
AcDbSymbolTableRecord
100
AcDbLayerTableRecord
  2
117
 70
     0
 62
   117
  6
CONTINUOUS
  0
LAYER
  5
AF
330
2
100
AcDbSymbolTableRecord
100
AcDbLayerTableRecord
  2
118
 70
     0
 62
   118
  6
CONTINUOUS
  0
LAYER
  5
B0
330
2
100
AcDbSymbolTableRecord
100
AcDbLayerTableRecord
  2
119
 70
     0
 62
   119
  6
CONTINUOUS
  0
LAYER
  5
B1
330
2
100
AcDbSymbolTableRecord
100
AcDbLayerTableRecord
  2
120
 70
     0
 62
   120
  6
CONTINUOUS
  0
LAYER
  5
B2
330
2
100
AcDbSymbolTableRecord
100
AcDbLayerTableRecord
  2
121
 70
     0
 62
   121
  6
CONTINUOUS
  0
LAYER
  5
B3
330
2
100
AcDbSymbolTableRecord
100
AcDbLayerTableRecord
  2
122
 70
     0
 62
   122
  6
CONTINUOUS
  0
LAYER
  5
B4
330
2
100
AcDbSymbolTableRecord
100
AcDbLayerTableRecord
  2
123
 70
     0
 62
   123
  6
CONTINUOUS
  0
LAYER
  5
B5
330
2
100
AcDbSymbolTableRecord
100
AcDbLayerTableRecord
  2
124
 70
     0
 62
   124
  6
CONTINUOUS
  0
LAYER
  5
B6
330
2
100
AcDbSymbolTableRecord
100
AcDbLayerTableRecord
  2
125
 70
     0
 62
   125
  6
CONTINUOUS
  0
LAYER
  5
B7
330
2
100
AcDbSymbolTableRecord
100
AcDbLayerTableRecord
  2
126
 70
     0
 62
   126
  6
CONTINUOUS
  0
LAYER
  5
B8
330
2
100
AcDbSymbolTableRecord
100
AcDbLayerTableRecord
  2
127
 70
     0
 62
   127
  6
CONTINUOUS
  0
LAYER
  5
B9
330
2
100
AcDbSymbolTableRecord
100
AcDbLayerTableRecord
  2
128
 70
     0
 62
   128
  6
CONTINUOUS
  0
LAYER
  5
BA
330
2
100
AcDbSymbolTableRecord
100
AcDbLayerTableRecord
  2
129
 70
     0
 62
   129
  6
CONTINUOUS
  0
LAYER
  5
BB
330
2
100
AcDbSymbolTableRecord
100
AcDbLayerTableRecord
  2
130
 70
     0
 62
   130
  6
CONTINUOUS
  0
LAYER
  5
BC
330
2
100
AcDbSymbolTableRecord
100
AcDbLayerTableRecord
  2
131
 70
     0
 62
   131
  6
CONTINUOUS
  0
LAYER
  5
BD
330
2
100
AcDbSymbolTableRecord
100
AcDbLayerTableRecord
  2
132
 70
     0
 62
   132
  6
CONTINUOUS
  0
LAYER
  5
BE
330
2
100
AcDbSymbolTableRecord
100
AcDbLayerTableRecord
  2
133
 70
     0
 62
   133
  6
CONTINUOUS
  0
LAYER
  5
BF
330
2
100
AcDbSymbolTableRecord
100
AcDbLayerTableRecord
  2
134
 70
     0
 62
   134
  6
CONTINUOUS
  0
LAYER
  5
C0
330
2
100
AcDbSymbolTableRecord
100
AcDbLayerTableRecord
  2
135
 70
     0
 62
   135
  6
CONTINUOUS
  0
LAYER
  5
C1
330
2
100
AcDbSymbolTableRecord
100
AcDbLayerTableRecord
  2
136
 70
     0
 62
   136
  6
CONTINUOUS
  0
LAYER
  5
C2
330
2
100
AcDbSymbolTableRecord
100
AcDbLayerTableRecord
  2
137
 70
     0
 62
   137
  6
CONTINUOUS
  0
LAYER
  5
C3
330
2
100
AcDbSymbolTableRecord
100
AcDbLayerTableRecord
  2
138
 70
     0
 62
   138
  6
CONTINUOUS
  0
LAYER
  5
C4
330
2
100
AcDbSymbolTableRecord
100
AcDbLayerTableRecord
  2
139
 70
     0
 62
   139
  6
CONTINUOUS
  0
LAYER
  5
C5
330
2
100
AcDbSymbolTableRecord
100
AcDbLayerTableRecord
  2
140
 70
     0
 62
   140
  6
CONTINUOUS
  0
LAYER
  5
C6
330
2
100
AcDbSymbolTableRecord
100
AcDbLayerTableRecord
  2
141
 70
     0
 62
   141
  6
CONTINUOUS
  0
LAYER
  5
C7
330
2
100
AcDbSymbolTableRecord
100
AcDbLayerTableRecord
  2
142
 70
     0
 62
   142
  6
CONTINUOUS
  0
LAYER
  5
C8
330
2
100
AcDbSymbolTableRecord
100
AcDbLayerTableRecord
  2
143
 70
     0
 62
   143
  6
CONTINUOUS
  0
LAYER
  5
C9
330
2
100
AcDbSymbolTableRecord
100
AcDbLayerTableRecord
  2
144
 70
     0
 62
   144
  6
CONTINUOUS
  0
LAYER
  5
CA
330
2
100
AcDbSymbolTableRecord
100
AcDbLayerTableRecord
  2
145
 70
     0
 62
   145
  6
CONTINUOUS
  0
LAYER
  5
CB
330
2
100
AcDbSymbolTableRecord
100
AcDbLayerTableRecord
  2
146
 70
     0
 62
   146
  6
CONTINUOUS
  0
LAYER
  5
CC
330
2
100
AcDbSymbolTableRecord
100
AcDbLayerTableRecord
  2
147
 70
     0
 62
   147
  6
CONTINUOUS
  0
LAYER
  5
CD
330
2
100
AcDbSymbolTableRecord
100
AcDbLayerTableRecord
  2
148
 70
     0
 62
   148
  6
CONTINUOUS
  0
LAYER
  5
CE
330
2
100
AcDbSymbolTableRecord
100
AcDbLayerTableRecord
  2
149
 70
     0
 62
   149
  6
CONTINUOUS
  0
LAYER
  5
CF
330
2
100
AcDbSymbolTableRecord
100
AcDbLayerTableRecord
  2
150
 70
     0
 62
   150
  6
CONTINUOUS
  0
LAYER
  5
D0
330
2
100
AcDbSymbolTableRecord
100
AcDbLayerTableRecord
  2
151
 70
     0
 62
   151
  6
CONTINUOUS
  0
LAYER
  5
D1
330
2
100
AcDbSymbolTableRecord
100
AcDbLayerTableRecord
  2
152
 70
     0
 62
   152
  6
CONTINUOUS
  0
LAYER
  5
D2
330
2
100
AcDbSymbolTableRecord
100
AcDbLayerTableRecord
  2
153
 70
     0
 62
   153
  6
CONTINUOUS
  0
LAYER
  5
D3
330
2
100
AcDbSymbolTableRecord
100
AcDbLayerTableRecord
  2
154
 70
     0
 62
   154
  6
CONTINUOUS
  0
LAYER
  5
D4
330
2
100
AcDbSymbolTableRecord
100
AcDbLayerTableRecord
  2
155
 70
     0
 62
   155
  6
CONTINUOUS
  0
LAYER
  5
D5
330
2
100
AcDbSymbolTableRecord
100
AcDbLayerTableRecord
  2
156
 70
     0
 62
   156
  6
CONTINUOUS
  0
LAYER
  5
D6
330
2
100
AcDbSymbolTableRecord
100
AcDbLayerTableRecord
  2
157
 70
     0
 62
   157
  6
CONTINUOUS
  0
LAYER
  5
D7
330
2
100
AcDbSymbolTableRecord
100
AcDbLayerTableRecord
  2
158
 70
     0
 62
   158
  6
CONTINUOUS
  0
LAYER
  5
D8
330
2
100
AcDbSymbolTableRecord
100
AcDbLayerTableRecord
  2
159
 70
     0
 62
   159
  6
CONTINUOUS
  0
LAYER
  5
D9
330
2
100
AcDbSymbolTableRecord
100
AcDbLayerTableRecord
  2
160
 70
     0
 62
   160
  6
CONTINUOUS
  0
LAYER
  5
DA
330
2
100
AcDbSymbolTableRecord
100
AcDbLayerTableRecord
  2
161
 70
     0
 62
   161
  6
CONTINUOUS
  0
LAYER
  5
DB
330
2
100
AcDbSymbolTableRecord
100
AcDbLayerTableRecord
  2
162
 70
     0
 62
   162
  6
CONTINUOUS
  0
LAYER
  5
DC
330
2
100
AcDbSymbolTableRecord
100
AcDbLayerTableRecord
  2
163
 70
     0
 62
   163
  6
CONTINUOUS
  0
LAYER
  5
DD
330
2
100
AcDbSymbolTableRecord
100
AcDbLayerTableRecord
  2
164
 70
     0
 62
   164
  6
CONTINUOUS
  0
LAYER
  5
DE
330
2
100
AcDbSymbolTableRecord
100
AcDbLayerTableRecord
  2
165
 70
     0
 62
   165
  6
CONTINUOUS
  0
LAYER
  5
DF
330
2
100
AcDbSymbolTableRecord
100
AcDbLayerTableRecord
  2
166
 70
     0
 62
   166
  6
CONTINUOUS
  0
LAYER
  5
E0
330
2
100
AcDbSymbolTableRecord
100
AcDbLayerTableRecord
  2
167
 70
     0
 62
   167
  6
CONTINUOUS
  0
LAYER
  5
E1
330
2
100
AcDbSymbolTableRecord
100
AcDbLayerTableRecord
  2
168
 70
     0
 62
   168
  6
CONTINUOUS
  0
LAYER
  5
E2
330
2
100
AcDbSymbolTableRecord
100
AcDbLayerTableRecord
  2
169
 70
     0
 62
   169
  6
CONTINUOUS
  0
LAYER
  5
E3
330
2
100
AcDbSymbolTableRecord
100
AcDbLayerTableRecord
  2
170
 70
     0
 62
   170
  6
CONTINUOUS
  0
LAYER
  5
E4
330
2
100
AcDbSymbolTableRecord
100
AcDbLayerTableRecord
  2
171
 70
     0
 62
   171
  6
CONTINUOUS
  0
LAYER
  5
E5
330
2
100
AcDbSymbolTableRecord
100
AcDbLayerTableRecord
  2
172
 70
     0
 62
   172
  6
CONTINUOUS
  0
LAYER
  5
E6
330
2
100
AcDbSymbolTableRecord
100
AcDbLayerTableRecord
  2
173
 70
     0
 62
   173
  6
CONTINUOUS
  0
LAYER
  5
E7
330
2
100
AcDbSymbolTableRecord
100
AcDbLayerTableRecord
  2
174
 70
     0
 62
   174
  6
CONTINUOUS
  0
LAYER
  5
E8
330
2
100
AcDbSymbolTableRecord
100
AcDbLayerTableRecord
  2
175
 70
     0
 62
   175
  6
CONTINUOUS
  0
LAYER
  5
E9
330
2
100
AcDbSymbolTableRecord
100
AcDbLayerTableRecord
  2
176
 70
     0
 62
   176
  6
CONTINUOUS
  0
LAYER
  5
EA
330
2
100
AcDbSymbolTableRecord
100
AcDbLayerTableRecord
  2
177
 70
     0
 62
   177
  6
CONTINUOUS
  0
LAYER
  5
EB
330
2
100
AcDbSymbolTableRecord
100
AcDbLayerTableRecord
  2
178
 70
     0
 62
   178
  6
CONTINUOUS
  0
LAYER
  5
EC
330
2
100
AcDbSymbolTableRecord
100
AcDbLayerTableRecord
  2
179
 70
     0
 62
   179
  6
CONTINUOUS
  0
LAYER
  5
ED
330
2
100
AcDbSymbolTableRecord
100
AcDbLayerTableRecord
  2
180
 70
     0
 62
   180
  6
CONTINUOUS
  0
LAYER
  5
EE
330
2
100
AcDbSymbolTableRecord
100
AcDbLayerTableRecord
  2
181
 70
     0
 62
   181
  6
CONTINUOUS
  0
LAYER
  5
EF
330
2
100
AcDbSymbolTableRecord
100
AcDbLayerTableRecord
  2
182
 70
     0
 62
   182
  6
CONTINUOUS
  0
LAYER
  5
F0
330
2
100
AcDbSymbolTableRecord
100
AcDbLayerTableRecord
  2
183
 70
     0
 62
   183
  6
CONTINUOUS
  0
LAYER
  5
F1
330
2
100
AcDbSymbolTableRecord
100
AcDbLayerTableRecord
  2
184
 70
     0
 62
   184
  6
CONTINUOUS
  0
LAYER
  5
F2
330
2
100
AcDbSymbolTableRecord
100
AcDbLayerTableRecord
  2
185
 70
     0
 62
   185
  6
CONTINUOUS
  0
LAYER
  5
F3
330
2
100
AcDbSymbolTableRecord
100
AcDbLayerTableRecord
  2
186
 70
     0
 62
   186
  6
CONTINUOUS
  0
LAYER
  5
F4
330
2
100
AcDbSymbolTableRecord
100
AcDbLayerTableRecord
  2
187
 70
     0
 62
   187
  6
CONTINUOUS
  0
LAYER
  5
F5
330
2
100
AcDbSymbolTableRecord
100
AcDbLayerTableRecord
  2
188
 70
     0
 62
   188
  6
CONTINUOUS
  0
LAYER
  5
F6
330
2
100
AcDbSymbolTableRecord
100
AcDbLayerTableRecord
  2
189
 70
     0
 62
   189
  6
CONTINUOUS
  0
LAYER
  5
F7
330
2
100
AcDbSymbolTableRecord
100
AcDbLayerTableRecord
  2
190
 70
     0
 62
   190
  6
CONTINUOUS
  0
LAYER
  5
F8
330
2
100
AcDbSymbolTableRecord
100
AcDbLayerTableRecord
  2
191
 70
     0
 62
   191
  6
CONTINUOUS
  0
LAYER
  5
F9
330
2
100
AcDbSymbolTableRecord
100
AcDbLayerTableRecord
  2
192
 70
     0
 62
   192
  6
CONTINUOUS
  0
LAYER
  5
FA
330
2
100
AcDbSymbolTableRecord
100
AcDbLayerTableRecord
  2
193
 70
     0
 62
   193
  6
CONTINUOUS
  0
LAYER
  5
FB
330
2
100
AcDbSymbolTableRecord
100
AcDbLayerTableRecord
  2
194
 70
     0
 62
   194
  6
CONTINUOUS
  0
LAYER
  5
FC
330
2
100
AcDbSymbolTableRecord
100
AcDbLayerTableRecord
  2
195
 70
     0
 62
   195
  6
CONTINUOUS
  0
LAYER
  5
FD
330
2
100
AcDbSymbolTableRecord
100
AcDbLayerTableRecord
  2
196
 70
     0
 62
   196
  6
CONTINUOUS
  0
LAYER
  5
FE
330
2
100
AcDbSymbolTableRecord
100
AcDbLayerTableRecord
  2
197
 70
     0
 62
   197
  6
CONTINUOUS
  0
LAYER
  5
FF
330
2
100
AcDbSymbolTableRecord
100
AcDbLayerTableRecord
  2
198
 70
     0
 62
   198
  6
CONTINUOUS
  0
LAYER
  5
100
330
2
100
AcDbSymbolTableRecord
100
AcDbLayerTableRecord
  2
199
 70
     0
 62
   199
  6
CONTINUOUS
  0
LAYER
  5
101
330
2
100
AcDbSymbolTableRecord
100
AcDbLayerTableRecord
  2
200
 70
     0
 62
   200
  6
CONTINUOUS
  0
LAYER
  5
102
330
2
100
AcDbSymbolTableRecord
100
AcDbLayerTableRecord
  2
201
 70
     0
 62
   201
  6
CONTINUOUS
  0
LAYER
  5
103
330
2
100
AcDbSymbolTableRecord
100
AcDbLayerTableRecord
  2
202
 70
     0
 62
   202
  6
CONTINUOUS
  0
LAYER
  5
104
330
2
100
AcDbSymbolTableRecord
100
AcDbLayerTableRecord
  2
203
 70
     0
 62
   203
  6
CONTINUOUS
  0
LAYER
  5
105
330
2
100
AcDbSymbolTableRecord
100
AcDbLayerTableRecord
  2
204
 70
     0
 62
   204
  6
CONTINUOUS
  0
LAYER
  5
106
330
2
100
AcDbSymbolTableRecord
100
AcDbLayerTableRecord
  2
205
 70
     0
 62
   205
  6
CONTINUOUS
  0
LAYER
  5
107
330
2
100
AcDbSymbolTableRecord
100
AcDbLayerTableRecord
  2
206
 70
     0
 62
   206
  6
CONTINUOUS
  0
LAYER
  5
108
330
2
100
AcDbSymbolTableRecord
100
AcDbLayerTableRecord
  2
207
 70
     0
 62
   207
  6
CONTINUOUS
  0
LAYER
  5
109
330
2
100
AcDbSymbolTableRecord
100
AcDbLayerTableRecord
  2
208
 70
     0
 62
   208
  6
CONTINUOUS
  0
LAYER
  5
10A
330
2
100
AcDbSymbolTableRecord
100
AcDbLayerTableRecord
  2
209
 70
     0
 62
   209
  6
CONTINUOUS
  0
LAYER
  5
10B
330
2
100
AcDbSymbolTableRecord
100
AcDbLayerTableRecord
  2
210
 70
     0
 62
   210
  6
CONTINUOUS
  0
LAYER
  5
10C
330
2
100
AcDbSymbolTableRecord
100
AcDbLayerTableRecord
  2
211
 70
     0
 62
   211
  6
CONTINUOUS
  0
LAYER
  5
10D
330
2
100
AcDbSymbolTableRecord
100
AcDbLayerTableRecord
  2
212
 70
     0
 62
   212
  6
CONTINUOUS
  0
LAYER
  5
10E
330
2
100
AcDbSymbolTableRecord
100
AcDbLayerTableRecord
  2
213
 70
     0
 62
   213
  6
CONTINUOUS
  0
LAYER
  5
10F
330
2
100
AcDbSymbolTableRecord
100
AcDbLayerTableRecord
  2
214
 70
     0
 62
   214
  6
CONTINUOUS
  0
LAYER
  5
110
330
2
100
AcDbSymbolTableRecord
100
AcDbLayerTableRecord
  2
215
 70
     0
 62
   215
  6
CONTINUOUS
  0
LAYER
  5
111
330
2
100
AcDbSymbolTableRecord
100
AcDbLayerTableRecord
  2
216
 70
     0
 62
   216
  6
CONTINUOUS
  0
LAYER
  5
112
330
2
100
AcDbSymbolTableRecord
100
AcDbLayerTableRecord
  2
217
 70
     0
 62
   217
  6
CONTINUOUS
  0
LAYER
  5
113
330
2
100
AcDbSymbolTableRecord
100
AcDbLayerTableRecord
  2
218
 70
     0
 62
   218
  6
CONTINUOUS
  0
LAYER
  5
114
330
2
100
AcDbSymbolTableRecord
100
AcDbLayerTableRecord
  2
219
 70
     0
 62
   219
  6
CONTINUOUS
  0
LAYER
  5
115
330
2
100
AcDbSymbolTableRecord
100
AcDbLayerTableRecord
  2
220
 70
     0
 62
   220
  6
CONTINUOUS
  0
LAYER
  5
116
330
2
100
AcDbSymbolTableRecord
100
AcDbLayerTableRecord
  2
221
 70
     0
 62
   221
  6
CONTINUOUS
  0
LAYER
  5
117
330
2
100
AcDbSymbolTableRecord
100
AcDbLayerTableRecord
  2
222
 70
     0
 62
   222
  6
CONTINUOUS
  0
LAYER
  5
118
330
2
100
AcDbSymbolTableRecord
100
AcDbLayerTableRecord
  2
223
 70
     0
 62
   223
  6
CONTINUOUS
  0
LAYER
  5
119
330
2
100
AcDbSymbolTableRecord
100
AcDbLayerTableRecord
  2
224
 70
     0
 62
   224
  6
CONTINUOUS
  0
LAYER
  5
11A
330
2
100
AcDbSymbolTableRecord
100
AcDbLayerTableRecord
  2
225
 70
     0
 62
   225
  6
CONTINUOUS
  0
LAYER
  5
11B
330
2
100
AcDbSymbolTableRecord
100
AcDbLayerTableRecord
  2
226
 70
     0
 62
   226
  6
CONTINUOUS
  0
LAYER
  5
11C
330
2
100
AcDbSymbolTableRecord
100
AcDbLayerTableRecord
  2
227
 70
     0
 62
   227
  6
CONTINUOUS
  0
LAYER
  5
11D
330
2
100
AcDbSymbolTableRecord
100
AcDbLayerTableRecord
  2
228
 70
     0
 62
   228
  6
CONTINUOUS
  0
LAYER
  5
11E
330
2
100
AcDbSymbolTableRecord
100
AcDbLayerTableRecord
  2
229
 70
     0
 62
   229
  6
CONTINUOUS
  0
LAYER
  5
11F
330
2
100
AcDbSymbolTableRecord
100
AcDbLayerTableRecord
  2
230
 70
     0
 62
   230
  6
CONTINUOUS
  0
LAYER
  5
120
330
2
100
AcDbSymbolTableRecord
100
AcDbLayerTableRecord
  2
231
 70
     0
 62
   231
  6
CONTINUOUS
  0
LAYER
  5
121
330
2
100
AcDbSymbolTableRecord
100
AcDbLayerTableRecord
  2
232
 70
     0
 62
   232
  6
CONTINUOUS
  0
LAYER
  5
122
330
2
100
AcDbSymbolTableRecord
100
AcDbLayerTableRecord
  2
233
 70
     0
 62
   233
  6
CONTINUOUS
  0
LAYER
  5
123
330
2
100
AcDbSymbolTableRecord
100
AcDbLayerTableRecord
  2
234
 70
     0
 62
   234
  6
CONTINUOUS
  0
LAYER
  5
124
330
2
100
AcDbSymbolTableRecord
100
AcDbLayerTableRecord
  2
235
 70
     0
 62
   235
  6
CONTINUOUS
  0
LAYER
  5
125
330
2
100
AcDbSymbolTableRecord
100
AcDbLayerTableRecord
  2
236
 70
     0
 62
   236
  6
CONTINUOUS
  0
LAYER
  5
126
330
2
100
AcDbSymbolTableRecord
100
AcDbLayerTableRecord
  2
237
 70
     0
 62
   237
  6
CONTINUOUS
  0
LAYER
  5
127
330
2
100
AcDbSymbolTableRecord
100
AcDbLayerTableRecord
  2
238
 70
     0
 62
   238
  6
CONTINUOUS
  0
LAYER
  5
128
330
2
100
AcDbSymbolTableRecord
100
AcDbLayerTableRecord
  2
239
 70
     0
 62
   239
  6
CONTINUOUS
  0
LAYER
  5
129
330
2
100
AcDbSymbolTableRecord
100
AcDbLayerTableRecord
  2
240
 70
     0
 62
   240
  6
CONTINUOUS
  0
LAYER
  5
12A
330
2
100
AcDbSymbolTableRecord
100
AcDbLayerTableRecord
  2
241
 70
     0
 62
   241
  6
CONTINUOUS
  0
LAYER
  5
12B
330
2
100
AcDbSymbolTableRecord
100
AcDbLayerTableRecord
  2
242
 70
     0
 62
   242
  6
CONTINUOUS
  0
LAYER
  5
12C
330
2
100
AcDbSymbolTableRecord
100
AcDbLayerTableRecord
  2
243
 70
     0
 62
   243
  6
CONTINUOUS
  0
LAYER
  5
12D
330
2
100
AcDbSymbolTableRecord
100
AcDbLayerTableRecord
  2
244
 70
     0
 62
   244
  6
CONTINUOUS
  0
LAYER
  5
12E
330
2
100
AcDbSymbolTableRecord
100
AcDbLayerTableRecord
  2
245
 70
     0
 62
   245
  6
CONTINUOUS
  0
LAYER
  5
12F
330
2
100
AcDbSymbolTableRecord
100
AcDbLayerTableRecord
  2
246
 70
     0
 62
   246
  6
CONTINUOUS
  0
LAYER
  5
130
330
2
100
AcDbSymbolTableRecord
100
AcDbLayerTableRecord
  2
247
 70
     0
 62
   247
  6
CONTINUOUS
  0
LAYER
  5
131
330
2
100
AcDbSymbolTableRecord
100
AcDbLayerTableRecord
  2
248
 70
     0
 62
   248
  6
CONTINUOUS
  0
LAYER
  5
132
330
2
100
AcDbSymbolTableRecord
100
AcDbLayerTableRecord
  2
249
 70
     0
 62
   249
  6
CONTINUOUS
  0
LAYER
  5
133
330
2
100
AcDbSymbolTableRecord
100
AcDbLayerTableRecord
  2
250
 70
     0
 62
   250
  6
CONTINUOUS
  0
LAYER
  5
134
330
2
100
AcDbSymbolTableRecord
100
AcDbLayerTableRecord
  2
251
 70
     0
 62
   251
  6
CONTINUOUS
  0
LAYER
  5
135
330
2
100
AcDbSymbolTableRecord
100
AcDbLayerTableRecord
  2
252
 70
     0
 62
   252
  6
CONTINUOUS
  0
LAYER
  5
136
330
2
100
AcDbSymbolTableRecord
100
AcDbLayerTableRecord
  2
253
 70
     0
 62
   253
  6
CONTINUOUS
  0
LAYER
  5
137
330
2
100
AcDbSymbolTableRecord
100
AcDbLayerTableRecord
  2
254
 70
     0
 62
   254
  6
CONTINUOUS
  0
LAYER
  5
138
330
2
100
AcDbSymbolTableRecord
100
AcDbLayerTableRecord
  2
255
 70
     0
 62
   255
  6
CONTINUOUS
  0
LAYER
  5
3BBC
330
2
100
AcDbSymbolTableRecord
100
AcDbLayerTableRecord
  2
DEFPOINTS
 70
     0
 62
     7
  6
CONTINUOUS
  0
ENDTAB
  0
TABLE
  2
STYLE
  5
3
330
0
100
AcDbSymbolTable
 70
     1
  0
STYLE
  5
11
330
3
100
AcDbSymbolTableRecord
100
AcDbTextStyleTableRecord
  2
STANDARD
 70
     0
 40
0.0
 41
1.0
 50
0.0
 71
     0
 42
0.2
  3
monotxt
  4

  0
ENDTAB
  0
TABLE
  2
VIEW
  5
6
330
0
100
AcDbSymbolTable
 70
     0
  0
ENDTAB
  0
TABLE
  2
UCS
  5
7
330
0
100
AcDbSymbolTable
 70
     0
  0
ENDTAB
  0
TABLE
  2
APPID
  5
9
330
0
100
AcDbSymbolTable
 70
     1
  0
APPID
  5
12
330
9
100
AcDbSymbolTableRecord
100
AcDbRegAppTableRecord
  2
ACAD
 70
     0
  0
ENDTAB
  0
TABLE
  2
DIMSTYLE
  5
A
330
0
100
AcDbSymbolTable
 70
     1
  0
DIMSTYLE
105
2AD0
102
{ACAD_REACTORS
330
3BBB
102
}
330
A
100
AcDbSymbolTableRecord
100
AcDbDimStyleTableRecord
  2
STANDARD
 70
     0
  3

  4

  5

  6

  7

 40
1.0
 41
0.18
 42
0.0625
 43
0.38
 44
0.18
 45
0.0
 46
0.0
 47
0.0
 48
0.0
140
0.18
141
0.09
142
0.0
143
25.4
144
1.0
145
0.0
146
1.0
147
0.09
 71
     0
 72
     0
 73
     1
 74
     1
 75
     0
 76
     0
 77
     0
 78
     0
170
     0
171
     2
172
     0
173
     0
174
     0
175
     0
176
     0
177
     0
178
     0
270
     2
271
     4
272
     4
273
     2
274
     2
340
11
275
     0
280
     0
281
     0
282
     0
283
     1
284
     0
285
     0
286
     0
287
     3
288
     0
  0
ENDTAB
  0
TABLE
  2
BLOCK_RECORD
  5
1
330
0
100
AcDbSymbolTable
 70
     1
  0
BLOCK_RECORD
  5
1E
102
{ACAD_XDICTIONARY
360
3C03
102
}
330
1
100
AcDbSymbolTableRecord
100
AcDbBlockTableRecord
  2
*MODEL_SPACE
  0
BLOCK_RECORD
  5
1A
102
{ACAD_XDICTIONARY
360
3C01
102
}
330
1
100
AcDbSymbolTableRecord
100
AcDbBlockTableRecord
  2
*PAPER_SPACE
  0
BLOCK_RECORD
  5
3BBD
330
1
100
AcDbSymbolTableRecord
100
AcDbBlockTableRecord
  2
*D0
  0
ENDTAB
  0
ENDSEC
  0
SECTION
  2
BLOCKS
  0
BLOCK
  5
13B
330
1E
100
AcDbEntity
  8
0
100
AcDbBlockBegin
  2
*MODEL_SPACE
 70
     0
 10
0.0
 20
0.0
 30
0.0
  3
*MODEL_SPACE
  1

  0
ENDBLK
  5
13C
330
1E
100
AcDbEntity
  8
0
100
AcDbBlockEnd
  0
BLOCK
  5
139
330
1A
100
AcDbEntity
 67
     1
  8
0
100
AcDbBlockBegin
  2
*PAPER_SPACE
 70
     0
 10
0.0
 20
0.0
 30
0.0
  3
*PAPER_SPACE
  1

  0
ENDBLK
  5
13A
330
1A
100
AcDbEntity
 67
     1
  8
0
100
AcDbBlockEnd
  0
BLOCK
  5
3BC8
330
3BBD
100
AcDbEntity
  8
0
100
AcDbBlockBegin
  2
*D0
 70
     1
 10
0.0
 20
0.0
 30
0.0
  3
*D0
  1

  0
LINE
  5
3BBE
330
3BBD
100
AcDbEntity
  8
0
 62
     0
100
AcDbLine
 10
-8.258366141732283
 20
-0.1210629921259843
 30
0.0
 11
-7.229662598801549
 21
-0.1210629921259846
 31
0.0
  0
LINE
  5
3BBF
330
3BBD
100
AcDbEntity
  8
0
 62
     0
100
AcDbLine
 10
-8.258366141732283
 20
1.650590551181102
 30
0.0
 11
-7.229662598801549
 21
1.650590551181102
 31
0.0
  0
LINE
  5
3BC0
330
3BBD
100
AcDbEntity
  8
0
 62
     0
100
AcDbLine
 10
-7.409662598801549
 20
0.0589370078740155
 30
0.0
 11
-7.409662598801549
 21
0.5847637795275592
 31
0.0
  0
LINE
  5
3BC1
330
3BBD
100
AcDbEntity
  8
0
 62
     0
100
AcDbLine
 10
-7.409662598801549
 20
1.470590551181102
 30
0.0
 11
-7.409662598801549
 21
0.9447637795275591
 31
0.0
  0
SOLID
  5
3BC2
330
3BBD
100
AcDbEntity
  8
0
 62
     0
100
AcDbTrace
 10
-7.439662598801549
 20
0.0589370078740155
 30
0.0
 11
-7.379662598801549
 21
0.0589370078740155
 31
0.0
 12
-7.409662598801549
 22
-0.1210629921259845
 32
0.0
 13
-7.409662598801549
 23
-0.1210629921259845
 33
0.0
  0
SOLID
  5
3BC3
330
3BBD
100
AcDbEntity
  8
0
 62
     0
100
AcDbTrace
 10
-7.439662598801549
 20
1.470590551181102
 30
0.0
 11
-7.379662598801549
 21
1.470590551181102
 31
0.0
 12
-7.409662598801549
 22
1.650590551181102
 32
0.0
 13
-7.409662598801549
 23
1.650590551181102
 33
0.0
  0
MTEXT
  5
3BC4
330
3BBD
100
AcDbEntity
  8
0
 62
     0
100
AcDbMText
 10
-7.409662598801549
 20
0.764763779527558
 30
0.0
 40
0.18
 41
0.0
 71
     5
 72
     1
  1
\A1;1.7717
1001
ACAD
1000
MTEXTBEGIN
1070
    73
1070
     1
1070
    44
1040
1.0
1070
    74
1070
     0
1000
MTEXTEND
  0
POINT
  5
3BC5
330
3BBD
100
AcDbEntity
  8
DEFPOINTS
 62
     0
100
AcDbPoint
 10
-8.320866141732283
 20
-0.1210629921259843
 30
0.0
  0
POINT
  5
3BC6
330
3BBD
100
AcDbEntity
  8
DEFPOINTS
 62
     0
100
AcDbPoint
 10
-8.320866141732283
 20
1.650590551181102
 30
0.0
  0
POINT
  5
3BC7
330
3BBD
100
AcDbEntity
  8
DEFPOINTS
 62
     0
100
AcDbPoint
 10
-7.409662598801549
 20
1.650590551181102
 30
0.0
  0
ENDBLK
  5
3BC9
330
3BBD
100
AcDbEntity
  8
0
100
AcDbBlockEnd
  0
ENDSEC
  0
SECTION
  2
ENTITIES
  0
LINE
  5
2316
330
1E
100
AcDbEntity
  8
7
100
AcDbLine
 10
-10.64370078740157
 20
1.045275590551181
 30
0.0
 11
-10.61515748031496
 21
1.045275590551181
 31
0.0
  0
LINE
  5
2317
330
1E
100
AcDbEntity
  8
7
100
AcDbLine
 10
-10.63779527559055
 20
0.8366141732283463
 30
0.0
 11
-10.64370078740157
 21
1.045275590551181
 31
0.0
  0
LINE
  5
2318
330
1E
100
AcDbEntity
  8
7
100
AcDbLine
 10
-10.65649606299212
 20
0.9783464566929129
 30
0.0
 11
-10.70570866141732
 21
0.9783464566929129
 31
0.0
  0
LINE
  5
231E
330
1E
100
AcDbEntity
  8
7
100
AcDbLine
 10
-10.65649606299212
 20
0.66240157480315
 30
0.0
 11
-10.65649606299212
 21
0.1564960629921259
 31
0.0
  0
LINE
  5
231F
330
1E
100
AcDbEntity
  8
7
100
AcDbLine
 10
-10.68996062992126
 20
0.66240157480315
 30
0.0
 11
-10.65649606299212
 21
0.66240157480315
 31
0.0
  0
LINE
  5
2320
330
1E
100
AcDbEntity
  8
7
100
AcDbLine
 10
-10.68996062992126
 20
0.9114173228346453
 30
0.0
 11
-10.68996062992126
 21
0.66240157480315
 31
0.0
  0
LINE
  5
2321
330
1E
100
AcDbEntity
  8
7
100
AcDbLine
 10
-10.65649606299212
 20
0.9114173228346453
 30
0.0
 11
-10.68996062992126
 21
0.9114173228346453
 31
0.0
  0
LINE
  5
2322
330
1E
100
AcDbEntity
  8
7
100
AcDbLine
 10
-10.65649606299212
 20
0.9783464566929129
 30
0.0
 11
-10.65649606299212
 21
0.9114173228346453
 31
0.0
  0
LINE
  5
232F
330
1E
100
AcDbEntity
  8
7
100
AcDbLine
 10
-10.65649606299212
 20
0.6653543307086612
 30
0.0
 11
-10.65649606299212
 21
0.66240157480315
 31
0.0
  0
LINE
  5
2330
330
1E
100
AcDbEntity
  8
7
100
AcDbLine
 10
-10.65649606299212
 20
0.2293307086614176
 30
0.0
 11
-10.61614173228346
 21
0.2293307086614176
 31
0.0
  0
LINE
  5
2336
330
1E
100
AcDbEntity
  8
7
100
AcDbLine
 10
-10.61614173228346
 20
1.38779527559055
 30
0.0
 11
-10.65649606299212
 21
1.38779527559055
 31
0.0
  0
LINE
  5
2337
330
1E
100
AcDbEntity
  8
7
100
AcDbLine
 10
-10.65649606299212
 20
1.11023622047244
 30
0.0
 11
-10.61614173228346
 21
1.11023622047244
 31
0.0
  0
LINE
  5
233E
330
1E
100
AcDbEntity
  8
7
100
AcDbLine
 10
-10.65649606299212
 20
1.553149606299212
 30
0.0
 11
-10.65649606299212
 21
1.003937007874015
 31
0.0
  0
LINE
  5
233F
330
1E
100
AcDbEntity
  8
7
100
AcDbLine
 10
-10.65649606299212
 20
1.553149606299212
 30
0.0
 11
-9.083661417322835
 21
1.553149606299212
 31
0.0
  0
LINE
  5
2340
330
1E
100
AcDbEntity
  8
7
100
AcDbLine
 10
-9.083661417322835
 20
1.003937007874015
 30
0.0
 11
-9.083661417322835
 21
1.553149606299212
 31
0.0
  0
LINE
  5
2346
330
1E
100
AcDbEntity
  8
7
100
AcDbLine
 10
-9.034448818897638
 20
-0.1210629921259843
 30
0.0
 11
-10.70570866141732
 21
-0.1210629921259843
 31
0.0
  0
LINE
  5
2347
330
1E
100
AcDbEntity
  8
7
100
AcDbLine
 10
-10.70570866141732
 20
-0.1210629921259843
 30
0.0
 11
-9.913385826771653
 21
-0.1210629921259843
 31
0.0
  0
LINE
  5
2348
330
1E
100
AcDbEntity
  8
7
100
AcDbLine
 10
-9.826771653543307
 20
-0.1210629921259843
 30
0.0
 11
-9.913385826771653
 21
-0.1210629921259843
 31
0.0
  0
LINE
  5
2349
330
1E
100
AcDbEntity
  8
7
100
AcDbLine
 10
-9.826771653543307
 20
-0.1210629921259843
 30
0.0
 11
-9.034448818897638
 21
-0.1210629921259843
 31
0.0
  0
LINE
  5
2350
330
1E
100
AcDbEntity
  8
7
100
AcDbLine
 10
-10.75590551181102
 20
0.3031496062992129
 30
0.0
 11
-10.75590551181102
 21
0.3897637795275592
 31
0.0
  0
LINE
  5
2363
330
1E
100
AcDbEntity
  8
7
100
AcDbLine
 10
-10.33070866141732
 20
1.650590551181102
 30
0.0
 11
-10.70570866141732
 21
1.650590551181102
 31
0.0
  0
LINE
  5
236B
330
1E
100
AcDbEntity
  8
7
100
AcDbLine
 10
-9.495078740157481
 20
1.650590551181102
 30
0.0
 11
-9.409448818897638
 21
1.650590551181102
 31
0.0
  0
LINE
  5
236C
330
1E
100
AcDbEntity
  8
7
100
AcDbLine
 10
-9.495078740157481
 20
1.650590551181102
 30
0.0
 11
-10.24507874015748
 21
1.650590551181102
 31
0.0
  0
LINE
  5
236D
330
1E
100
AcDbEntity
  8
7
100
AcDbLine
 10
-10.33070866141732
 20
1.650590551181102
 30
0.0
 11
-10.24507874015748
 21
1.650590551181102
 31
0.0
  0
LINE
  5
2379
330
1E
100
AcDbEntity
  8
7
100
AcDbLine
 10
-8.984251968503937
 20
0.3897637795275592
 30
0.0
 11
-8.984251968503937
 21
0.3031496062992129
 31
0.0
  0
LINE
  5
2393
330
1E
100
AcDbEntity
  8
7
100
AcDbLine
 10
-9.083661417322835
 20
0.9114173228346453
 30
0.0
 11
-9.083661417322835
 21
0.9783464566929129
 31
0.0
  0
LINE
  5
2394
330
1E
100
AcDbEntity
  8
7
100
AcDbLine
 10
-9.051181102362205
 20
0.9114173228346453
 30
0.0
 11
-9.083661417322835
 21
0.9114173228346453
 31
0.0
  0
LINE
  5
2395
330
1E
100
AcDbEntity
  8
7
100
AcDbLine
 10
-9.051181102362205
 20
0.66240157480315
 30
0.0
 11
-9.051181102362205
 21
0.9114173228346453
 31
0.0
  0
LINE
  5
2396
330
1E
100
AcDbEntity
  8
7
100
AcDbLine
 10
-9.083661417322835
 20
0.66240157480315
 30
0.0
 11
-9.051181102362205
 21
0.66240157480315
 31
0.0
  0
LINE
  5
2397
330
1E
100
AcDbEntity
  8
7
100
AcDbLine
 10
-10.65649606299212
 20
1.417322834645669
 30
0.0
 11
-10.61614173228346
 21
1.417322834645669
 31
0.0
  0
LINE
  5
2398
330
1E
100
AcDbEntity
  8
7
100
AcDbLine
 10
-9.083661417322835
 20
1.437007874015748
 30
0.0
 11
-10.65649606299212
 21
1.437007874015748
 31
0.0
  0
LINE
  5
239E
330
1E
100
AcDbEntity
  8
7
100
AcDbLine
 10
-10.65649606299212
 20
0.9114173228346453
 30
0.0
 11
-10.65649606299212
 21
0.8110236220472444
 31
0.0
  0
LINE
  5
239F
330
1E
100
AcDbEntity
  8
7
100
AcDbLine
 10
-9.083661417322835
 20
0.8110236220472444
 30
0.0
 11
-9.083661417322835
 21
0.9114173228346453
 31
0.0
  0
LINE
  5
23A5
330
1E
100
AcDbEntity
  8
7
100
AcDbLine
 10
-10.65649606299212
 20
0.1368110236220472
 30
0.0
 11
-9.083661417322835
 21
0.1368110236220472
 31
0.0
  0
LINE
  5
23A6
330
1E
100
AcDbEntity
  8
7
100
AcDbLine
 10
-10.63779527559055
 20
0.4753937007874019
 30
0.0
 11
-10.65649606299212
 21
0.4724409448818899
 31
0.0
  0
LINE
  5
23A7
330
1E
100
AcDbEntity
  8
7
100
AcDbLine
 10
-10.64370078740157
 20
1.045275590551181
 30
0.0
 11
-10.65649606299212
 21
1.11023622047244
 31
0.0
  0
LINE
  5
23AF
330
1E
100
AcDbEntity
  8
7
100
AcDbLine
 10
-10.68602362204724
 20
0.6653543307086612
 30
0.0
 11
-10.68996062992126
 21
0.66240157480315
 31
0.0
  0
LINE
  5
23B0
330
1E
100
AcDbEntity
  8
7
100
AcDbLine
 10
-10.68602362204724
 20
0.8110236220472444
 30
0.0
 11
-10.68996062992126
 21
0.9114173228346453
 31
0.0
  0
LINE
  5
23B7
330
1E
100
AcDbEntity
  8
7
100
AcDbLine
 10
-9.054133858267716
 20
0.6653543307086612
 30
0.0
 11
-9.051181102362205
 21
0.66240157480315
 31
0.0
  0
LINE
  5
23B8
330
1E
100
AcDbEntity
  8
7
100
AcDbLine
 10
-9.054133858267716
 20
0.8110236220472444
 30
0.0
 11
-9.051181102362205
 21
0.9114173228346453
 31
0.0
  0
LINE
  5
23D1
330
1E
100
AcDbEntity
  8
7
100
AcDbLine
 10
-9.038385826771653
 20
0.0354330708661417
 30
0.0
 11
-9.038385826771653
 21
0.0492125984251972
 31
0.0
  0
LINE
  5
23D9
330
1E
100
AcDbEntity
  8
7
100
AcDbLine
 10
-9.035433070866142
 20
0.9783464566929129
 30
0.0
 11
-9.035433070866142
 21
1.003937007874015
 31
0.0
  0
LINE
  5
23DA
330
1E
100
AcDbEntity
  8
7
100
AcDbLine
 10
-10.70570866141732
 20
1.003937007874015
 30
0.0
 11
-10.70570866141732
 21
0.9783464566929129
 31
0.0
  0
LINE
  5
2408
330
1E
100
AcDbEntity
  8
7
100
AcDbLine
 10
-8.991141732283464
 20
-0.0964566929133861
 30
0.0
 11
-8.98523622047244
 21
-0.0708661417322834
 31
0.0
  0
LINE
  5
2432
330
1E
100
AcDbEntity
  8
7
100
AcDbLine
 10
-8.992125984251968
 20
1.625
 30
0.0
 11
-8.98523622047244
 21
1.599409448818897
 31
0.0
  0
LINE
  5
2453
330
1E
100
AcDbEntity
  8
7
100
AcDbLine
 10
-10.751968503937
 20
0.1427165354330713
 30
0.0
 11
-10.74409448818897
 21
0.1496062992125982
 31
0.0
  0
LINE
  5
2471
330
1E
100
AcDbEntity
  8
7
100
AcDbLine
 10
-9.102362204724409
 20
0.3395669291338583
 30
0.0
 11
-9.102362204724409
 21
0.3415354330708658
 31
0.0
  0
LINE
  5
2477
330
1E
100
AcDbEntity
  8
7
100
AcDbLine
 10
-9.102362204724409
 20
1.200787401574802
 30
0.0
 11
-9.102362204724409
 21
1.202755905511811
 31
0.0
  0
LINE
  5
247D
330
1E
100
AcDbEntity
  8
7
100
AcDbLine
 10
-10.56692913385826
 20
0.3415354330708658
 30
0.0
 11
-10.56692913385826
 21
0.3395669291338583
 31
0.0
  0
LINE
  5
247E
330
1E
100
AcDbEntity
  8
7
100
AcDbLine
 10
-10.56791338582677
 20
1.202755905511811
 30
0.0
 11
-10.58464566929133
 21
1.227362204724409
 31
0.0
  0
LINE
  5
247F
330
1E
100
AcDbEntity
  8
7
100
AcDbLine
 10
-10.58464566929133
 20
1.227362204724409
 30
0.0
 11
-10.61122047244094
 21
1.241141732283464
 31
0.0
  0
LINE
  5
2480
330
1E
100
AcDbEntity
  8
7
100
AcDbLine
 10
-10.56692913385826
 20
1.202755905511811
 30
0.0
 11
-10.56692913385826
 21
1.200787401574802
 31
0.0
  0
LINE
  5
2486
330
1E
100
AcDbEntity
  8
7
100
AcDbLine
 10
-10.52854330708661
 20
1.202755905511811
 30
0.0
 11
-10.52854330708661
 21
1.308070866141732
 31
0.0
  0
LINE
  5
2487
330
1E
100
AcDbEntity
  8
7
100
AcDbLine
 10
-10.52854330708661
 20
1.202755905511811
 30
0.0
 11
-10.56692913385826
 21
1.202755905511811
 31
0.0
  0
LINE
  5
2488
330
1E
100
AcDbEntity
  8
7
100
AcDbLine
 10
-10.56692913385826
 20
1.159448818897637
 30
0.0
 11
-10.52854330708661
 21
1.159448818897637
 31
0.0
  0
LINE
  5
2489
330
1E
100
AcDbEntity
  8
7
100
AcDbLine
 10
-10.61515748031496
 20
1.0501968503937
 30
0.0
 11
-10.61515748031496
 21
0.9133858267716536
 31
0.0
  0
LINE
  5
248A
330
1E
100
AcDbEntity
  8
7
100
AcDbLine
 10
-10.61614173228346
 20
1.0501968503937
 30
0.0
 11
-10.61515748031496
 21
1.0501968503937
 31
0.0
  0
LINE
  5
248B
330
1E
100
AcDbEntity
  8
7
100
AcDbLine
 10
-10.52854330708661
 20
0.3415354330708658
 30
0.0
 11
-10.56692913385826
 21
0.3415354330708658
 31
0.0
  0
LINE
  5
2496
330
1E
100
AcDbEntity
  8
7
100
AcDbLine
 10
-10.61614173228346
 20
0.4498031496062991
 30
0.0
 11
-10.61515748031496
 21
0.4498031496062991
 31
0.0
  0
LINE
  5
2497
330
1E
100
AcDbEntity
  8
7
100
AcDbLine
 10
-10.61515748031496
 20
0.5866141732283463
 30
0.0
 11
-10.61515748031496
 21
0.4498031496062991
 31
0.0
  0
LINE
  5
2498
330
1E
100
AcDbEntity
  8
7
100
AcDbLine
 10
-9.102362204724409
 20
0.3415354330708658
 30
0.0
 11
-9.140748031496062
 21
0.3415354330708658
 31
0.0
  0
LINE
  5
2499
330
1E
100
AcDbEntity
  8
7
100
AcDbLine
 10
-9.140748031496062
 20
0.2982283464566926
 30
0.0
 11
-9.140748031496062
 21
0.1919291338582676
 31
0.0
  0
LINE
  5
249A
330
1E
100
AcDbEntity
  8
7
100
AcDbLine
 10
-9.140748031496062
 20
0.2982283464566926
 30
0.0
 11
-9.102362204724409
 21
0.2982283464566926
 31
0.0
  0
LINE
  5
24A5
330
1E
100
AcDbEntity
  8
7
100
AcDbLine
 10
-9.140748031496062
 20
1.159448818897637
 30
0.0
 11
-9.102362204724409
 21
1.159448818897637
 31
0.0
  0
LINE
  5
24A6
330
1E
100
AcDbEntity
  8
7
100
AcDbLine
 10
-10.52854330708661
 20
0.3415354330708658
 30
0.0
 11
-10.5265748031496
 21
0.3395669291338583
 31
0.0
  0
LINE
  5
24A7
330
1E
100
AcDbEntity
  8
7
100
AcDbLine
 10
-10.5265748031496
 20
0.2992125984251972
 30
0.0
 11
-10.52854330708661
 21
0.2982283464566926
 31
0.0
  0
LINE
  5
24A8
330
1E
100
AcDbEntity
  8
7
100
AcDbLine
 10
-10.5265748031496
 20
0.3395669291338583
 30
0.0
 11
-10.5265748031496
 21
0.2992125984251972
 31
0.0
  0
LINE
  5
24A9
330
1E
100
AcDbEntity
  8
7
100
AcDbLine
 10
-10.52854330708661
 20
1.202755905511811
 30
0.0
 11
-10.5265748031496
 21
1.200787401574802
 31
0.0
  0
LINE
  5
24AA
330
1E
100
AcDbEntity
  8
7
100
AcDbLine
 10
-10.5265748031496
 20
1.161417322834645
 30
0.0
 11
-10.52854330708661
 21
1.159448818897637
 31
0.0
  0
LINE
  5
24AB
330
1E
100
AcDbEntity
  8
7
100
AcDbLine
 10
-10.5265748031496
 20
1.200787401574802
 30
0.0
 11
-10.5265748031496
 21
1.161417322834645
 31
0.0
  0
LINE
  5
24AC
330
1E
100
AcDbEntity
  8
7
100
AcDbLine
 10
-9.14271653543307
 20
1.200787401574802
 30
0.0
 11
-9.140748031496062
 21
1.202755905511811
 31
0.0
  0
LINE
  5
24AD
330
1E
100
AcDbEntity
  8
7
100
AcDbLine
 10
-9.14271653543307
 20
1.161417322834645
 30
0.0
 11
-9.14271653543307
 21
1.200787401574802
 31
0.0
  0
LINE
  5
24AE
330
1E
100
AcDbEntity
  8
7
100
AcDbLine
 10
-9.140748031496062
 20
1.159448818897637
 30
0.0
 11
-9.14271653543307
 21
1.161417322834645
 31
0.0
  0
LINE
  5
24AF
330
1E
100
AcDbEntity
  8
7
100
AcDbLine
 10
-9.14271653543307
 20
0.3395669291338583
 30
0.0
 11
-9.140748031496062
 21
0.3415354330708658
 31
0.0
  0
LINE
  5
24B0
330
1E
100
AcDbEntity
  8
7
100
AcDbLine
 10
-9.14271653543307
 20
0.2992125984251972
 30
0.0
 11
-9.14271653543307
 21
0.3395669291338583
 31
0.0
  0
LINE
  5
24B1
330
1E
100
AcDbEntity
  8
7
100
AcDbLine
 10
-9.140748031496062
 20
0.2982283464566926
 30
0.0
 11
-9.14271653543307
 21
0.2992125984251972
 31
0.0
  0
LINE
  5
24B2
330
1E
100
AcDbEntity
  8
7
100
AcDbLine
 10
-10.61712598425196
 20
0.5964566929133861
 30
0.0
 11
-10.63779527559055
 21
0.5964566929133861
 31
0.0
  0
LINE
  5
24B8
330
1E
100
AcDbEntity
  8
7
100
AcDbLine
 10
-10.29724409448818
 20
0.4399606299212602
 30
0.0
 11
-10.00688976377952
 21
0.4399606299212602
 31
0.0
  0
LINE
  5
24BE
330
1E
100
AcDbEntity
  8
7
100
AcDbLine
 10
-10.29724409448818
 20
0.4498031496062991
 30
0.0
 11
-10.00688976377952
 21
0.4498031496062991
 31
0.0
  0
LINE
  5
24C4
330
1E
100
AcDbEntity
  8
7
100
AcDbLine
 10
-10.00688976377952
 20
0.4498031496062991
 30
0.0
 11
-10.29724409448818
 21
0.4498031496062991
 31
0.0
  0
LINE
  5
24CA
330
1E
100
AcDbEntity
  8
7
100
AcDbLine
 10
-10.04921259842519
 20
1.037401574803149
 30
0.0
 11
-10.04921259842519
 21
1.068897637795275
 31
0.0
  0
LINE
  5
24CB
330
1E
100
AcDbEntity
  8
7
100
AcDbLine
 10
-10.04921259842519
 20
1.068897637795275
 30
0.0
 11
-10.25492125984251
 21
1.068897637795275
 31
0.0
  0
LINE
  5
24D1
330
1E
100
AcDbEntity
  8
7
100
AcDbLine
 10
-10.04921259842519
 20
1.071850393700787
 30
0.0
 11
-10.04921259842519
 21
1.068897637795275
 31
0.0
  0
LINE
  5
24ED
330
1E
100
AcDbEntity
  8
7
100
AcDbLine
 10
-10.25590551181102
 20
1.134842519685039
 30
0.0
 11
-10.04921259842519
 21
1.134842519685039
 31
0.0
  0
LINE
  5
24EE
330
1E
100
AcDbEntity
  8
7
100
AcDbLine
 10
-10.61515748031496
 20
0.9133858267716536
 30
0.0
 11
-10.61712598425196
 21
0.9035433070866139
 31
0.0
  0
LINE
  5
24EF
330
1E
100
AcDbEntity
  8
7
100
AcDbLine
 10
-10.27854330708661
 20
1.146653543307087
 30
0.0
 11
-10.39763779527559
 21
1.146653543307087
 31
0.0
  0
LINE
  5
24F0
330
1E
100
AcDbEntity
  8
7
100
AcDbLine
 10
-10.27854330708661
 20
1.146653543307087
 30
0.0
 11
-10.25590551181102
 21
1.134842519685039
 31
0.0
  0
LINE
  5
24F1
330
1E
100
AcDbEntity
  8
7
100
AcDbLine
 10
-10.0255905511811
 20
1.146653543307087
 30
0.0
 11
-10.04921259842519
 21
1.134842519685039
 31
0.0
  0
LINE
  5
2502
330
1E
100
AcDbEntity
  8
7
100
AcDbLine
 10
-10.46555118110236
 20
1.08267716535433
 30
0.0
 11
-10.39862204724409
 21
1.08267716535433
 31
0.0
  0
LINE
  5
2503
330
1E
100
AcDbEntity
  8
7
100
AcDbLine
 10
-10.46456692913386
 20
1.081692913385826
 30
0.0
 11
-10.46555118110236
 21
1.08267716535433
 31
0.0
  0
LINE
  5
2504
330
1E
100
AcDbEntity
  8
7
100
AcDbLine
 10
-10.46456692913386
 20
1.081692913385826
 30
0.0
 11
-10.39763779527559
 21
1.081692913385826
 31
0.0
  0
LINE
  5
2505
330
1E
100
AcDbEntity
  8
7
100
AcDbLine
 10
-10.61614173228346
 20
0.4468503937007871
 30
0.0
 11
-10.61614173228346
 21
0.1368110236220472
 31
0.0
  0
LINE
  5
250B
330
1E
100
AcDbEntity
  8
7
100
AcDbLine
 10
-10.61515748031496
 20
0.4498031496062991
 30
0.0
 11
-10.61417322834645
 21
0.4468503937007871
 31
0.0
  0
LINE
  5
250C
330
1E
100
AcDbEntity
  8
7
100
AcDbLine
 10
-10.61515748031496
 20
0.5866141732283463
 30
0.0
 11
-10.61712598425196
 21
0.5964566929133861
 31
0.0
  0
LINE
  5
250D
330
1E
100
AcDbEntity
  8
7
100
AcDbLine
 10
-10.61417322834645
 20
0.4468503937007871
 30
0.0
 11
-10.61417322834645
 21
1.053149606299212
 31
0.0
  0
LINE
  5
250E
330
1E
100
AcDbEntity
  8
7
100
AcDbLine
 10
-10.61515748031496
 20
1.0501968503937
 30
0.0
 11
-10.61417322834645
 21
1.053149606299212
 31
0.0
  0
LINE
  5
2514
330
1E
100
AcDbEntity
  8
7
100
AcDbLine
 10
-10.61614173228346
 20
1.417322834645669
 30
0.0
 11
-10.61614173228346
 21
1.053149606299212
 31
0.0
  0
LINE
  5
2515
330
1E
100
AcDbEntity
  8
7
100
AcDbLine
 10
-9.907480314960629
 20
1.081692913385826
 30
0.0
 11
-9.907480314960629
 21
1.146653543307087
 31
0.0
  0
LINE
  5
2516
330
1E
100
AcDbEntity
  8
7
100
AcDbLine
 10
-9.906496062992125
 20
1.08267716535433
 30
0.0
 11
-9.907480314960629
 21
1.081692913385826
 31
0.0
  0
LINE
  5
2517
330
1E
100
AcDbEntity
  8
7
100
AcDbLine
 10
-9.906496062992125
 20
1.08267716535433
 30
0.0
 11
-9.906496062992125
 21
1.14763779527559
 31
0.0
  0
LINE
  5
2518
330
1E
100
AcDbEntity
  8
7
100
AcDbLine
 10
-10.46456692913386
 20
1.081692913385826
 30
0.0
 11
-10.46456692913386
 21
0.4212598425196852
 31
0.0
  0
LINE
  5
2519
330
1E
100
AcDbEntity
  8
7
100
AcDbLine
 10
-10.46555118110236
 20
0.4202755905511815
 30
0.0
 11
-10.46555118110236
 21
1.08267716535433
 31
0.0
  0
LINE
  5
251A
330
1E
100
AcDbEntity
  8
7
100
AcDbLine
 10
-10.46456692913386
 20
0.4212598425196852
 30
0.0
 11
-10.46555118110236
 21
0.4202755905511815
 31
0.0
  0
LINE
  5
251B
330
1E
100
AcDbEntity
  8
7
100
AcDbLine
 10
-10.29724409448818
 20
0.4212598425196852
 30
0.0
 11
-10.29724409448818
 21
0.4399606299212602
 31
0.0
  0
LINE
  5
2521
330
1E
100
AcDbEntity
  8
7
100
AcDbLine
 10
-10.46456692913386
 20
0.4212598425196852
 30
0.0
 11
-10.29724409448818
 21
0.4212598425196852
 31
0.0
  0
LINE
  5
2522
330
1E
100
AcDbEntity
  8
7
100
AcDbLine
 10
-9.372047244094488
 20
0.4399606299212602
 30
0.0
 11
-9.662401574803149
 21
0.4399606299212602
 31
0.0
  0
LINE
  5
252E
330
1E
100
AcDbEntity
  8
7
100
AcDbLine
 10
-9.662401574803149
 20
0.4498031496062991
 30
0.0
 11
-9.372047244094488
 21
0.4498031496062991
 31
0.0
  0
LINE
  5
2534
330
1E
100
AcDbEntity
  8
7
100
AcDbLine
 10
-9.620078740157481
 20
1.068897637795275
 30
0.0
 11
-9.414370078740157
 21
1.068897637795275
 31
0.0
  0
LINE
  5
2535
330
1E
100
AcDbEntity
  8
7
100
AcDbLine
 10
-9.620078740157481
 20
1.037401574803149
 30
0.0
 11
-9.620078740157481
 21
1.068897637795275
 31
0.0
  0
LINE
  5
2536
330
1E
100
AcDbEntity
  8
7
100
AcDbLine
 10
-9.620078740157481
 20
1.071850393700787
 30
0.0
 11
-9.414370078740157
 21
1.071850393700787
 31
0.0
  0
LINE
  5
2537
330
1E
100
AcDbEntity
  8
7
100
AcDbLine
 10
-9.620078740157481
 20
1.071850393700787
 30
0.0
 11
-9.620078740157481
 21
1.068897637795275
 31
0.0
  0
LINE
  5
2538
330
1E
100
AcDbEntity
  8
7
100
AcDbLine
 10
-9.414370078740157
 20
1.071850393700787
 30
0.0
 11
-9.414370078740157
 21
1.068897637795275
 31
0.0
  0
LINE
  5
253E
330
1E
100
AcDbEntity
  8
7
100
AcDbLine
 10
-9.620078740157481
 20
1.099409448818897
 30
0.0
 11
-9.414370078740157
 21
1.099409448818897
 31
0.0
  0
LINE
  5
2545
330
1E
100
AcDbEntity
  8
7
100
AcDbLine
 10
-9.414370078740157
 20
1.099409448818897
 30
0.0
 11
-9.414370078740157
 21
1.119094488188976
 31
0.0
  0
LINE
  5
254F
330
1E
100
AcDbEntity
  8
7
100
AcDbLine
 10
-9.390748031496062
 20
1.146653543307087
 30
0.0
 11
-9.27263779527559
 21
1.146653543307087
 31
0.0
  0
LINE
  5
2550
330
1E
100
AcDbEntity
  8
7
100
AcDbLine
 10
-9.271653543307087
 20
1.14763779527559
 30
0.0
 11
-9.27263779527559
 21
1.146653543307087
 31
0.0
  0
LINE
  5
2551
330
1E
100
AcDbEntity
  8
7
100
AcDbLine
 10
-9.763779527559055
 20
1.14763779527559
 30
0.0
 11
-9.271653543307087
 21
1.14763779527559
 31
0.0
  0
LINE
  5
2552
330
1E
100
AcDbEntity
  8
7
100
AcDbLine
 10
-9.761811023622048
 20
1.146653543307087
 30
0.0
 11
-9.763779527559055
 21
1.14763779527559
 31
0.0
  0
LINE
  5
2553
330
1E
100
AcDbEntity
  8
7
100
AcDbLine
 10
-9.643700787401575
 20
1.146653543307087
 30
0.0
 11
-9.761811023622048
 21
1.146653543307087
 31
0.0
  0
LINE
  5
2554
330
1E
100
AcDbEntity
  8
7
100
AcDbLine
 10
-9.643700787401575
 20
1.146653543307087
 30
0.0
 11
-9.620078740157481
 21
1.134842519685039
 31
0.0
  0
LINE
  5
2555
330
1E
100
AcDbEntity
  8
7
100
AcDbLine
 10
-9.390748031496062
 20
1.146653543307087
 30
0.0
 11
-9.414370078740157
 21
1.134842519685039
 31
0.0
  0
LINE
  5
2556
330
1E
100
AcDbEntity
  8
7
100
AcDbLine
 10
-9.27263779527559
 20
1.146653543307087
 30
0.0
 11
-9.27263779527559
 21
1.081692913385826
 31
0.0
  0
LINE
  5
2557
330
1E
100
AcDbEntity
  8
7
100
AcDbLine
 10
-9.271653543307087
 20
1.08267716535433
 30
0.0
 11
-9.27263779527559
 21
1.081692913385826
 31
0.0
  0
LINE
  5
2558
330
1E
100
AcDbEntity
  8
7
100
AcDbLine
 10
-9.271653543307087
 20
1.14763779527559
 30
0.0
 11
-9.271653543307087
 21
1.08267716535433
 31
0.0
  0
LINE
  5
2559
330
1E
100
AcDbEntity
  8
7
100
AcDbLine
 10
-9.203740157480314
 20
1.08267716535433
 30
0.0
 11
-9.271653543307087
 21
1.08267716535433
 31
0.0
  0
LINE
  5
255A
330
1E
100
AcDbEntity
  8
7
100
AcDbLine
 10
-9.204724409448818
 20
1.081692913385826
 30
0.0
 11
-9.27263779527559
 21
1.081692913385826
 31
0.0
  0
LINE
  5
255B
330
1E
100
AcDbEntity
  8
7
100
AcDbLine
 10
-9.204724409448818
 20
1.081692913385826
 30
0.0
 11
-9.203740157480314
 21
1.08267716535433
 31
0.0
  0
LINE
  5
255C
330
1E
100
AcDbEntity
  8
7
100
AcDbLine
 10
-9.763779527559055
 20
1.08267716535433
 30
0.0
 11
-9.763779527559055
 21
1.14763779527559
 31
0.0
  0
LINE
  5
2568
330
1E
100
AcDbEntity
  8
7
100
AcDbLine
 10
-9.372047244094488
 20
0.4212598425196852
 30
0.0
 11
-9.372047244094488
 21
0.4399606299212602
 31
0.0
  0
LINE
  5
256E
330
1E
100
AcDbEntity
  8
7
100
AcDbLine
 10
-9.204724409448818
 20
0.4212598425196852
 30
0.0
 11
-9.372047244094488
 21
0.4212598425196852
 31
0.0
  0
LINE
  5
256F
330
1E
100
AcDbEntity
  8
7
100
AcDbLine
 10
-9.906496062992125
 20
1.08267716535433
 30
0.0
 11
-9.763779527559055
 21
1.08267716535433
 31
0.0
  0
LINE
  5
2570
330
1E
100
AcDbEntity
  8
7
100
AcDbLine
 10
-9.907480314960629
 20
1.081692913385826
 30
0.0
 11
-9.761811023622048
 21
1.081692913385826
 31
0.0
  0
LINE
  5
2571
330
1E
100
AcDbEntity
  8
7
100
AcDbLine
 10
-9.203740157480314
 20
0.4202755905511815
 30
0.0
 11
-10.46555118110236
 21
0.4202755905511815
 31
0.0
  0
LINE
  5
2572
330
1E
100
AcDbEntity
  8
7
100
AcDbLine
 10
-10.00688976377952
 20
0.4212598425196852
 30
0.0
 11
-9.662401574803149
 21
0.4212598425196852
 31
0.0
  0
LINE
  5
2578
330
1E
100
AcDbEntity
  8
7
100
AcDbLine
 10
-9.14271653543307
 20
1.200787401574802
 30
0.0
 11
-9.102362204724409
 21
1.200787401574802
 31
0.0
  0
LINE
  5
2579
330
1E
100
AcDbEntity
  8
7
100
AcDbLine
 10
-9.102362204724409
 20
0.2982283464566926
 30
0.0
 11
-9.102362204724409
 21
0.2992125984251972
 31
0.0
  0
LINE
  5
257F
330
1E
100
AcDbEntity
  8
7
100
AcDbLine
 10
-9.102362204724409
 20
0.2992125984251972
 30
0.0
 11
-9.14271653543307
 21
0.2992125984251972
 31
0.0
  0
LINE
  5
2580
330
1E
100
AcDbEntity
  8
7
100
AcDbLine
 10
-9.14271653543307
 20
0.3395669291338583
 30
0.0
 11
-9.102362204724409
 21
0.3395669291338583
 31
0.0
  0
LINE
  5
2586
330
1E
100
AcDbEntity
  8
7
100
AcDbLine
 10
-10.56692913385826
 20
0.2992125984251972
 30
0.0
 11
-10.56692913385826
 21
0.2982283464566926
 31
0.0
  0
LINE
  5
2587
330
1E
100
AcDbEntity
  8
7
100
AcDbLine
 10
-10.56692913385826
 20
0.3395669291338583
 30
0.0
 11
-10.5265748031496
 21
0.3395669291338583
 31
0.0
  0
LINE
  5
2588
330
1E
100
AcDbEntity
  8
7
100
AcDbLine
 10
-10.5265748031496
 20
0.2992125984251972
 30
0.0
 11
-10.56692913385826
 21
0.2992125984251972
 31
0.0
  0
LINE
  5
2589
330
1E
100
AcDbEntity
  8
7
100
AcDbLine
 10
-10.56692913385826
 20
1.161417322834645
 30
0.0
 11
-10.56692913385826
 21
1.159448818897637
 31
0.0
  0
LINE
  5
258A
330
1E
100
AcDbEntity
  8
7
100
AcDbLine
 10
-10.56692913385826
 20
1.200787401574802
 30
0.0
 11
-10.5265748031496
 21
1.200787401574802
 31
0.0
  0
LINE
  5
258B
330
1E
100
AcDbEntity
  8
7
100
AcDbLine
 10
-10.5265748031496
 20
1.161417322834645
 30
0.0
 11
-10.56692913385826
 21
1.161417322834645
 31
0.0
  0
LINE
  5
258C
330
1E
100
AcDbEntity
  8
7
100
AcDbLine
 10
-10.24606299212598
 20
-1.937007874015748
 30
0.0
 11
-10.05807086614173
 21
-1.937007874015748
 31
0.0
  0
LINE
  5
258D
330
1E
100
AcDbEntity
  8
7
100
AcDbLine
 10
-9.611220472440944
 20
-1.937007874015748
 30
0.0
 11
-9.423228346456692
 21
-1.937007874015748
 31
0.0
  0
LINE
  5
258E
330
1E
100
AcDbEntity
  8
7
100
AcDbLine
 10
-9.039370078740157
 20
-1.060039370078739
 30
0.0
 11
-10.7017716535433
 21
-1.060039370078739
 31
0.0
  0
LINE
  5
259E
330
1E
100
AcDbEntity
  8
7
100
AcDbLine
 10
-8.989173228346457
 20
-1.623031496062992
 30
0.0
 11
-8.992125984251968
 21
-1.623031496062992
 31
0.0
  0
LINE
  5
25A5
330
1E
100
AcDbEntity
  8
7
100
AcDbLine
 10
-9.80511811023622
 20
-1.623031496062992
 30
0.0
 11
-9.038385826771653
 21
-1.623031496062992
 31
0.0
  0
LINE
  5
25A6
330
1E
100
AcDbEntity
  8
7
100
AcDbLine
 10
-9.80511811023622
 20
-1.623031496062992
 30
0.0
 11
-9.807086614173229
 21
-1.623031496062992
 31
0.0
  0
LINE
  5
25AE
330
1E
100
AcDbEntity
  8
7
100
AcDbLine
 10
-10.7017716535433
 20
-1.623031496062992
 30
0.0
 11
-9.93503937007874
 21
-1.623031496062992
 31
0.0
  0
LINE
  5
25B6
330
1E
100
AcDbEntity
  8
7
100
AcDbLine
 10
-9.934055118110237
 20
-1.623031496062992
 30
0.0
 11
-9.93503937007874
 21
-1.623031496062992
 31
0.0
  0
LINE
  5
25BD
330
1E
100
AcDbEntity
  8
7
100
AcDbLine
 10
-9.826771653543307
 20
-1.37007874015748
 30
0.0
 11
-9.913385826771653
 21
-1.37007874015748
 31
0.0
  0
LINE
  5
25E9
330
1E
100
AcDbEntity
  8
7
100
AcDbLine
 10
-9.773622047244094
 20
-1.820866141732283
 30
0.0
 11
-9.77263779527559
 21
-1.808070866141732
 31
0.0
  0
LINE
  5
25FD
330
1E
100
AcDbEntity
  8
7
100
AcDbLine
 10
-9.910433070866142
 20
-1.373031496062991
 30
0.0
 11
-9.829724409448818
 21
-1.373031496062991
 31
0.0
  0
LINE
  5
25FE
330
1E
100
AcDbEntity
  8
7
100
AcDbLine
 10
-9.936023622047244
 20
-1.662401574803149
 30
0.0
 11
-9.910433070866142
 21
-1.373031496062991
 31
0.0
  0
LINE
  5
25FF
330
1E
100
AcDbEntity
  8
7
100
AcDbLine
 10
-9.936023622047244
 20
-1.662401574803149
 30
0.0
 11
-9.970472440944881
 21
-1.662401574803149
 31
0.0
  0
LINE
  5
2600
330
1E
100
AcDbEntity
  8
7
100
AcDbLine
 10
-9.96751968503937
 20
-1.808070866141732
 30
0.0
 11
-9.970472440944881
 21
-1.662401574803149
 31
0.0
  0
LINE
  5
2601
330
1E
100
AcDbEntity
  8
7
100
AcDbLine
 10
-9.775590551181103
 20
-1.937992125984251
 30
0.0
 11
-9.965551181102362
 21
-1.937992125984251
 31
0.0
  0
LINE
  5
260F
330
1E
100
AcDbEntity
  8
7
100
AcDbLine
 10
-9.965551181102362
 20
-1.937992125984251
 30
0.0
 11
-9.965551181102362
 21
-1.93011811023622
 31
0.0
  0
LINE
  5
2610
330
1E
100
AcDbEntity
  8
7
100
AcDbLine
 10
-9.77263779527559
 20
-1.808070866141732
 30
0.0
 11
-9.96751968503937
 21
-1.808070866141732
 31
0.0
  0
LINE
  5
2611
330
1E
100
AcDbEntity
  8
7
100
AcDbLine
 10
-9.96751968503937
 20
-1.820866141732283
 30
0.0
 11
-9.773622047244094
 21
-1.820866141732283
 31
0.0
  0
LINE
  5
2612
330
1E
100
AcDbEntity
  8
7
100
AcDbLine
 10
-9.773622047244094
 20
-1.83267716535433
 30
0.0
 11
-9.96751968503937
 21
-1.83267716535433
 31
0.0
  0
LINE
  5
2613
330
1E
100
AcDbEntity
  8
7
100
AcDbLine
 10
-9.965551181102362
 20
-1.93011811023622
 30
0.0
 11
-9.774606299212599
 21
-1.93011811023622
 31
0.0
  0
LINE
  5
2614
330
1E
100
AcDbEntity
  8
7
100
AcDbLine
 10
-10.38385826771653
 20
-1.918307086614173
 30
0.0
 11
-10.38877952755905
 21
-1.623031496062992
 31
0.0
  0
LINE
  5
2615
330
1E
100
AcDbEntity
  8
7
100
AcDbLine
 10
-10.38385826771653
 20
-1.918307086614173
 30
0.0
 11
-10.24704724409448
 21
-1.918307086614173
 31
0.0
  0
LINE
  5
261D
330
1E
100
AcDbEntity
  8
7
100
AcDbLine
 10
-10.66830708661417
 20
-1.808070866141732
 30
0.0
 11
-10.66830708661417
 21
-1.662401574803149
 31
0.0
  0
LINE
  5
261E
330
1E
100
AcDbEntity
  8
7
100
AcDbLine
 10
-10.60334645669291
 20
-1.918307086614173
 30
0.0
 11
-10.59842519685039
 21
-1.623031496062992
 31
0.0
  0
LINE
  5
261F
330
1E
100
AcDbEntity
  8
7
100
AcDbLine
 10
-10.62401574803149
 20
-1.937992125984251
 30
0.0
 11
-10.62303149606299
 21
-1.937992125984251
 31
0.0
  0
LINE
  5
2627
330
1E
100
AcDbEntity
  8
7
100
AcDbLine
 10
-10.66830708661417
 20
-1.808070866141732
 30
0.0
 11
-10.72047244094488
 21
-1.808070866141732
 31
0.0
  0
LINE
  5
2628
330
1E
100
AcDbEntity
  8
7
100
AcDbLine
 10
-10.72047244094488
 20
-1.820866141732283
 30
0.0
 11
-10.72047244094488
 21
-1.808070866141732
 31
0.0
  0
LINE
  5
2634
330
1E
100
AcDbEntity
  8
7
100
AcDbLine
 10
-9.071850393700788
 20
-1.808070866141732
 30
0.0
 11
-9.071850393700788
 21
-1.662401574803149
 31
0.0
  0
LINE
  5
2635
330
1E
100
AcDbEntity
  8
7
100
AcDbLine
 10
-9.136811023622048
 20
-1.918307086614173
 30
0.0
 11
-9.14271653543307
 21
-1.623031496062992
 31
0.0
  0
LINE
  5
2649
330
1E
100
AcDbEntity
  8
7
100
AcDbLine
 10
-9.547244094488188
 20
-1.937992125984251
 30
0.0
 11
-9.547244094488188
 21
-1.937007874015748
 31
0.0
  0
LINE
  5
264A
330
1E
100
AcDbEntity
  8
7
100
AcDbLine
 10
-9.357283464566929
 20
-1.937992125984251
 30
0.0
 11
-9.547244094488188
 21
-1.937992125984251
 31
0.0
  0
LINE
  5
265D
330
1E
100
AcDbEntity
  8
7
100
AcDbLine
 10
-10.7017716535433
 20
-1.060039370078739
 30
0.0
 11
-10.7017716535433
 21
-1.06496062992126
 31
0.0
  0
LINE
  5
266B
330
1E
100
AcDbEntity
  8
7
100
AcDbLine
 10
-9.913385826771653
 20
-1.37007874015748
 30
0.0
 11
-9.910433070866142
 21
-1.373031496062991
 31
0.0
  0
LINE
  5
266C
330
1E
100
AcDbEntity
  8
7
100
AcDbLine
 10
-9.829724409448818
 20
-1.373031496062991
 30
0.0
 11
-9.826771653543307
 21
-1.37007874015748
 31
0.0
  0
LINE
  5
266D
330
1E
100
AcDbEntity
  8
7
100
AcDbLine
 10
-9.913385826771653
 20
-1.37007874015748
 30
0.0
 11
-9.93503937007874
 21
-1.623031496062992
 31
0.0
  0
LINE
  5
2675
330
1E
100
AcDbEntity
  8
7
100
AcDbLine
 10
-9.80511811023622
 20
-1.623031496062992
 30
0.0
 11
-9.826771653543307
 21
-1.37007874015748
 31
0.0
  0
LINE
  5
267D
330
1E
100
AcDbEntity
  8
7
100
AcDbLine
 10
-10.751968503937
 20
-1.623031496062992
 30
0.0
 11
-10.75590551181102
 21
-1.37007874015748
 31
0.0
  0
LINE
  5
267E
330
1E
100
AcDbEntity
  8
7
100
AcDbLine
 10
-10.70570866141732
 20
-1.37007874015748
 30
0.0
 11
-10.7017716535433
 21
-1.623031496062992
 31
0.0
  0
LINE
  5
267F
330
1E
100
AcDbEntity
  8
7
100
AcDbLine
 10
-9.038385826771653
 20
-1.623031496062992
 30
0.0
 11
-9.034448818897638
 21
-1.37007874015748
 31
0.0
  0
LINE
  5
2680
330
1E
100
AcDbEntity
  8
7
100
AcDbLine
 10
-8.984251968503937
 20
-1.37007874015748
 30
0.0
 11
-8.989173228346457
 21
-1.623031496062992
 31
0.0
  0
LINE
  5
2699
330
1E
100
AcDbEntity
  8
7
100
AcDbLine
 10
-9.034448818897638
 20
-1.348425196850393
 30
0.0
 11
-9.00984251968504
 21
-1.348425196850393
 31
0.0
  0
LINE
  5
26C7
330
1E
100
AcDbEntity
  8
7
100
AcDbLine
 10
-9.102362204724409
 20
-1.440944881889763
 30
0.0
 11
-9.102362204724409
 21
-1.346456692913386
 31
0.0
  0
LINE
  5
26D3
330
1E
100
AcDbEntity
  8
7
100
AcDbLine
 10
-10.56692913385826
 20
-1.346456692913386
 30
0.0
 11
-10.56692913385826
 21
-1.440944881889763
 31
0.0
  0
LINE
  5
26D4
330
1E
100
AcDbEntity
  8
7
100
AcDbLine
 10
-10.56692913385826
 20
-1.346456692913386
 30
0.0
 11
-10.58464566929133
 21
-1.346456692913386
 31
0.0
  0
LINE
  5
26D5
330
1E
100
AcDbEntity
  8
7
100
AcDbLine
 10
-10.58464566929133
 20
-1.346456692913386
 30
0.0
 11
-10.61122047244094
 21
-1.346456692913386
 31
0.0
  0
LINE
  5
26E4
330
1E
100
AcDbEntity
  8
7
100
AcDbLine
 10
-10.56692913385826
 20
-1.346456692913386
 30
0.0
 11
-10.52854330708661
 21
-1.346456692913386
 31
0.0
  0
LINE
  5
26FB
330
1E
100
AcDbEntity
  8
7
100
AcDbLine
 10
-9.14271653543307
 20
-1.440944881889763
 30
0.0
 11
-9.140748031496062
 21
-1.346456692913386
 31
0.0
  0
LINE
  5
2701
330
1E
100
AcDbEntity
  8
7
100
AcDbLine
 10
-9.140748031496062
 20
-1.346456692913386
 30
0.0
 11
-9.14271653543307
 21
-1.440944881889763
 31
0.0
  0
LINE
  5
2702
330
1E
100
AcDbEntity
  8
7
100
AcDbLine
 10
-10.2017716535433
 20
-1.881889763779527
 30
0.0
 11
-10.10334645669291
 21
-1.881889763779527
 31
0.0
  0
LINE
  5
2703
330
1E
100
AcDbEntity
  8
7
100
AcDbLine
 10
-10.2017716535433
 20
-1.928149606299212
 30
0.0
 11
-10.2007874015748
 21
-1.845472440944881
 31
0.0
  0
LINE
  5
270A
330
1E
100
AcDbEntity
  8
7
100
AcDbLine
 10
-10.57775590551181
 20
-1.771653543307086
 30
0.0
 11
-10.6003937007874
 21
-1.732283464566929
 31
0.0
  0
LINE
  5
270B
330
1E
100
AcDbEntity
  8
7
100
AcDbLine
 10
-10.54625984251968
 20
-1.771653543307086
 30
0.0
 11
-10.57775590551181
 21
-1.771653543307086
 31
0.0
  0
LINE
  5
270C
330
1E
100
AcDbEntity
  8
7
100
AcDbLine
 10
-10.2017716535433
 20
-1.928149606299212
 30
0.0
 11
-10.24704724409448
 21
-1.928149606299212
 31
0.0
  0
LINE
  5
270D
330
1E
100
AcDbEntity
  8
7
100
AcDbLine
 10
-10.2007874015748
 20
-1.845472440944881
 30
0.0
 11
-10.2509842519685
 21
-1.845472440944881
 31
0.0
  0
LINE
  5
270E
330
1E
100
AcDbEntity
  8
7
100
AcDbLine
 10
-10.24704724409448
 20
-1.928149606299212
 30
0.0
 11
-10.2509842519685
 21
-1.845472440944881
 31
0.0
  0
LINE
  5
270F
330
1E
100
AcDbEntity
  8
7
100
AcDbLine
 10
-10.05807086614173
 20
-1.928149606299212
 30
0.0
 11
-10.1023622047244
 21
-1.928149606299212
 31
0.0
  0
LINE
  5
2715
330
1E
100
AcDbEntity
  8
7
100
AcDbLine
 10
-10.05807086614173
 20
-1.928149606299212
 30
0.0
 11
-10.05807086614173
 21
-1.93503937007874
 31
0.0
  0
LINE
  5
2716
330
1E
100
AcDbEntity
  8
7
100
AcDbLine
 10
-10.05807086614173
 20
-1.93503937007874
 30
0.0
 11
-10.05807086614173
 21
-1.937007874015748
 31
0.0
  0
LINE
  5
2727
330
1E
100
AcDbEntity
  8
7
100
AcDbLine
 10
-10.04921259842519
 20
-1.764763779527558
 30
0.0
 11
-10.0501968503937
 21
-1.783464566929133
 31
0.0
  0
LINE
  5
272D
330
1E
100
AcDbEntity
  8
7
100
AcDbLine
 10
-10.25492125984251
 20
-1.764763779527558
 30
0.0
 11
-10.25590551181102
 21
-1.76279527559055
 31
0.0
  0
LINE
  5
272E
330
1E
100
AcDbEntity
  8
7
100
AcDbLine
 10
-10.04921259842519
 20
-1.76279527559055
 30
0.0
 11
-10.04921259842519
 21
-1.764763779527558
 31
0.0
  0
LINE
  5
272F
330
1E
100
AcDbEntity
  8
7
100
AcDbLine
 10
-10.25590551181102
 20
-1.76279527559055
 30
0.0
 11
-10.04921259842519
 21
-1.76279527559055
 31
0.0
  0
LINE
  5
2730
330
1E
100
AcDbEntity
  8
7
100
AcDbLine
 10
-10.26279527559055
 20
-1.623031496062992
 30
0.0
 11
-10.25590551181102
 21
-1.76279527559055
 31
0.0
  0
LINE
  5
2731
330
1E
100
AcDbEntity
  8
7
100
AcDbLine
 10
-10.04133858267716
 20
-1.623031496062992
 30
0.0
 11
-10.04921259842519
 21
-1.76279527559055
 31
0.0
  0
LINE
  5
2732
330
1E
100
AcDbEntity
  8
7
100
AcDbLine
 10
-10.54625984251968
 20
-1.771653543307086
 30
0.0
 11
-10.54429133858267
 21
-1.623031496062992
 31
0.0
  0
LINE
  5
2733
330
1E
100
AcDbEntity
  8
7
100
AcDbLine
 10
-9.016732283464566
 20
-1.623031496062992
 30
0.0
 11
-9.016732283464566
 21
-1.641732283464566
 31
0.0
  0
LINE
  5
2734
330
1E
100
AcDbEntity
  8
7
100
AcDbLine
 10
-9.468503937007874
 20
-1.881889763779527
 30
0.0
 11
-9.565944881889764
 21
-1.881889763779527
 31
0.0
  0
LINE
  5
2735
330
1E
100
AcDbEntity
  8
7
100
AcDbLine
 10
-9.46751968503937
 20
-1.928149606299212
 30
0.0
 11
-9.468503937007874
 21
-1.845472440944881
 31
0.0
  0
LINE
  5
273C
330
1E
100
AcDbEntity
  8
7
100
AcDbLine
 10
-9.071850393700788
 20
-1.737204724409448
 30
0.0
 11
-9.016732283464566
 21
-1.641732283464566
 31
0.0
  0
LINE
  5
2742
330
1E
100
AcDbEntity
  8
7
100
AcDbLine
 10
-9.468503937007874
 20
-1.845472440944881
 30
0.0
 11
-9.418307086614174
 21
-1.845472440944881
 31
0.0
  0
LINE
  5
2743
330
1E
100
AcDbEntity
  8
7
100
AcDbLine
 10
-9.612204724409448
 20
-1.928149606299212
 30
0.0
 11
-9.566929133858268
 21
-1.928149606299212
 31
0.0
  0
LINE
  5
274E
330
1E
100
AcDbEntity
  8
7
100
AcDbLine
 10
-9.616141732283464
 20
-1.845472440944881
 30
0.0
 11
-9.565944881889764
 21
-1.845472440944881
 31
0.0
  0
LINE
  5
274F
330
1E
100
AcDbEntity
  8
7
100
AcDbLine
 10
-9.612204724409448
 20
-1.928149606299212
 30
0.0
 11
-9.616141732283464
 21
-1.845472440944881
 31
0.0
  0
LINE
  5
2750
330
1E
100
AcDbEntity
  8
7
100
AcDbLine
 10
-9.619094488188977
 20
-1.783464566929133
 30
0.0
 11
-9.415354330708662
 21
-1.783464566929133
 31
0.0
  0
LINE
  5
275B
330
1E
100
AcDbEntity
  8
7
100
AcDbLine
 10
-9.620078740157481
 20
-1.764763779527558
 30
0.0
 11
-9.619094488188977
 21
-1.783464566929133
 31
0.0
  0
LINE
  5
275C
330
1E
100
AcDbEntity
  8
7
100
AcDbLine
 10
-9.414370078740157
 20
-1.764763779527558
 30
0.0
 11
-9.415354330708662
 21
-1.783464566929133
 31
0.0
  0
LINE
  5
275D
330
1E
100
AcDbEntity
  8
7
100
AcDbLine
 10
-9.620078740157481
 20
-1.764763779527558
 30
0.0
 11
-9.414370078740157
 21
-1.764763779527558
 31
0.0
  0
LINE
  5
2764
330
1E
100
AcDbEntity
  8
7
100
AcDbLine
 10
-9.627952755905511
 20
-1.623031496062992
 30
0.0
 11
-9.620078740157481
 21
-1.76279527559055
 31
0.0
  0
LINE
  5
2765
330
1E
100
AcDbEntity
  8
7
100
AcDbLine
 10
-9.406496062992125
 20
-1.623031496062992
 30
0.0
 11
-9.414370078740157
 21
-1.76279527559055
 31
0.0
  0
LINE
  5
277C
330
1E
100
AcDbEntity
  8
7
100
AcDbLine
 10
-10.56692913385826
 20
-1.440944881889763
 30
0.0
 11
-10.56692913385826
 21
-1.346456692913386
 31
0.0
  0
LINE
  5
2782
330
1E
100
AcDbEntity
  8
7
100
AcDbLine
 10
-10.56692913385826
 20
-1.440944881889763
 30
0.0
 11
-10.56692913385826
 21
-1.346456692913386
 31
0.0
  0
LINE
  5
2BDA
330
1E
100
AcDbEntity
  8
7
100
AcDbLine
 10
-10.56692913385826
 20
-1.440944881889763
 30
0.0
 11
-10.5265748031496
 21
-1.440944881889763
 31
0.0
  0
LINE
  5
2BDB
330
1E
100
AcDbEntity
  8
7
100
AcDbLine
 10
-10.5265748031496
 20
-1.440944881889763
 30
0.0
 11
-10.56692913385826
 21
-1.440944881889763
 31
0.0
  0
LINE
  5
2BDC
330
1E
100
AcDbEntity
  8
7
100
AcDbLine
 10
-10.56692913385826
 20
-1.440944881889763
 30
0.0
 11
-10.5265748031496
 21
-1.440944881889763
 31
0.0
  0
LINE
  5
2BDD
330
1E
100
AcDbEntity
  8
7
100
AcDbLine
 10
-10.5265748031496
 20
-1.440944881889763
 30
0.0
 11
-10.56692913385826
 21
-1.440944881889763
 31
0.0
  0
LINE
  5
2BDE
330
1E
100
AcDbEntity
  8
7
100
AcDbLine
 10
-10.56692913385826
 20
-1.440944881889763
 30
0.0
 11
-10.58267716535433
 21
-1.440944881889763
 31
0.0
  0
LINE
  5
2BDF
330
1E
100
AcDbEntity
  8
7
100
AcDbLine
 10
-10.58267716535433
 20
-1.440944881889763
 30
0.0
 11
-10.60925196850393
 21
-1.440944881889763
 31
0.0
  0
LINE
  5
2BE0
330
1E
100
AcDbEntity
  8
7
100
AcDbLine
 10
-9.102362204724409
 20
-1.440944881889763
 30
0.0
 11
-9.14271653543307
 21
-1.440944881889763
 31
0.0
  0
LINE
  5
2BE1
330
1E
100
AcDbEntity
  8
7
100
AcDbLine
 10
-9.14271653543307
 20
-1.440944881889763
 30
0.0
 11
-9.102362204724409
 21
-1.440944881889763
 31
0.0
  0
LINE
  5
2BE2
330
1E
100
AcDbEntity
  8
7
100
AcDbLine
 10
-9.102362204724409
 20
-1.346456692913386
 30
0.0
 11
-9.102362204724409
 21
-1.440944881889763
 31
0.0
  0
LINE
  5
2BE3
330
1E
100
AcDbEntity
  8
7
100
AcDbLine
 10
-9.102362204724409
 20
-1.440944881889763
 30
0.0
 11
-9.086614173228346
 21
-1.440944881889763
 31
0.0
  0
LINE
  5
2BE4
330
1E
100
AcDbEntity
  8
7
100
AcDbLine
 10
-9.086614173228346
 20
-1.440944881889763
 30
0.0
 11
-9.06003937007874
 21
-1.440944881889763
 31
0.0
  0
LINE
  5
2BE5
330
1E
100
AcDbEntity
  8
7
100
AcDbLine
 10
-9.102362204724409
 20
-1.346456692913386
 30
0.0
 11
-9.102362204724409
 21
-1.440944881889763
 31
0.0
  0
LINE
  5
2BE6
330
1E
100
AcDbEntity
  8
7
100
AcDbLine
 10
-9.102362204724409
 20
-1.440944881889763
 30
0.0
 11
-9.14271653543307
 21
-1.440944881889763
 31
0.0
  0
LINE
  5
2BE7
330
1E
100
AcDbEntity
  8
7
100
AcDbLine
 10
-9.14271653543307
 20
-1.440944881889763
 30
0.0
 11
-9.102362204724409
 21
-1.440944881889763
 31
0.0
  0
LINE
  5
2BE8
330
1E
100
AcDbEntity
  8
7
100
AcDbLine
 10
-9.414370078740157
 20
-1.764763779527558
 30
0.0
 11
-9.414370078740157
 21
-1.76279527559055
 31
0.0
  0
LINE
  5
2BE9
330
1E
100
AcDbEntity
  8
7
100
AcDbLine
 10
-9.414370078740157
 20
-1.76279527559055
 30
0.0
 11
-9.620078740157481
 21
-1.76279527559055
 31
0.0
  0
LINE
  5
2BEA
330
1E
100
AcDbEntity
  8
7
100
AcDbLine
 10
-9.620078740157481
 20
-1.76279527559055
 30
0.0
 11
-9.620078740157481
 21
-1.764763779527558
 31
0.0
  0
LINE
  5
2BEB
330
1E
100
AcDbEntity
  8
7
100
AcDbLine
 10
-9.415354330708662
 20
-1.783464566929133
 30
0.0
 11
-9.41732283464567
 21
-1.816929133858267
 31
0.0
  0
LINE
  5
2BEC
330
1E
100
AcDbEntity
  8
7
100
AcDbLine
 10
-9.41732283464567
 20
-1.816929133858267
 30
0.0
 11
-9.418307086614174
 21
-1.845472440944881
 31
0.0
  0
LINE
  5
2BED
330
1E
100
AcDbEntity
  8
7
100
AcDbLine
 10
-9.619094488188977
 20
-1.783464566929133
 30
0.0
 11
-9.617125984251968
 21
-1.816929133858267
 31
0.0
  0
LINE
  5
2BEE
330
1E
100
AcDbEntity
  8
7
100
AcDbLine
 10
-9.617125984251968
 20
-1.816929133858267
 30
0.0
 11
-9.616141732283464
 21
-1.845472440944881
 31
0.0
  0
LINE
  5
2BEF
330
1E
100
AcDbEntity
  8
7
100
AcDbLine
 10
-9.423228346456692
 20
-1.928149606299212
 30
0.0
 11
-9.423228346456692
 21
-1.93503937007874
 31
0.0
  0
LINE
  5
2BF0
330
1E
100
AcDbEntity
  8
7
100
AcDbLine
 10
-9.423228346456692
 20
-1.93503937007874
 30
0.0
 11
-9.423228346456692
 21
-1.937007874015748
 31
0.0
  0
LINE
  5
2BF1
330
1E
100
AcDbEntity
  8
7
100
AcDbLine
 10
-9.612204724409448
 20
-1.928149606299212
 30
0.0
 11
-9.611220472440944
 21
-1.93503937007874
 31
0.0
  0
LINE
  5
2BF2
330
1E
100
AcDbEntity
  8
7
100
AcDbLine
 10
-9.611220472440944
 20
-1.93503937007874
 30
0.0
 11
-9.611220472440944
 21
-1.937007874015748
 31
0.0
  0
LINE
  5
2BF3
330
1E
100
AcDbEntity
  8
7
100
AcDbLine
 10
-9.46751968503937
 20
-1.928149606299212
 30
0.0
 11
-9.423228346456692
 21
-1.928149606299212
 31
0.0
  0
LINE
  5
2BF4
330
1E
100
AcDbEntity
  8
7
100
AcDbLine
 10
-9.423228346456692
 20
-1.928149606299212
 30
0.0
 11
-9.418307086614174
 21
-1.845472440944881
 31
0.0
  0
LINE
  5
2BF5
330
1E
100
AcDbEntity
  8
7
100
AcDbLine
 10
-9.46751968503937
 20
-1.928149606299212
 30
0.0
 11
-9.566929133858268
 21
-1.928149606299212
 31
0.0
  0
LINE
  5
2BF6
330
1E
100
AcDbEntity
  8
7
100
AcDbLine
 10
-9.566929133858268
 20
-1.928149606299212
 30
0.0
 11
-9.565944881889764
 21
-1.845472440944881
 31
0.0
  0
LINE
  5
2BF7
330
1E
100
AcDbEntity
  8
7
100
AcDbLine
 10
-9.565944881889764
 20
-1.845472440944881
 30
0.0
 11
-9.468503937007874
 21
-1.845472440944881
 31
0.0
  0
LINE
  5
2BF8
330
1E
100
AcDbEntity
  8
7
100
AcDbLine
 10
-10.04921259842519
 20
-1.764763779527558
 30
0.0
 11
-10.25492125984251
 21
-1.764763779527558
 31
0.0
  0
LINE
  5
2BF9
330
1E
100
AcDbEntity
  8
7
100
AcDbLine
 10
-10.25492125984251
 20
-1.764763779527558
 30
0.0
 11
-10.25393700787401
 21
-1.783464566929133
 31
0.0
  0
LINE
  5
2BFA
330
1E
100
AcDbEntity
  8
7
100
AcDbLine
 10
-10.0501968503937
 20
-1.783464566929133
 30
0.0
 11
-10.0521653543307
 21
-1.816929133858267
 31
0.0
  0
LINE
  5
2BFB
330
1E
100
AcDbEntity
  8
7
100
AcDbLine
 10
-10.0521653543307
 20
-1.816929133858267
 30
0.0
 11
-10.05314960629921
 21
-1.845472440944881
 31
0.0
  0
LINE
  5
2BFC
330
1E
100
AcDbEntity
  8
7
100
AcDbLine
 10
-10.0501968503937
 20
-1.783464566929133
 30
0.0
 11
-10.25393700787401
 21
-1.783464566929133
 31
0.0
  0
LINE
  5
2BFD
330
1E
100
AcDbEntity
  8
7
100
AcDbLine
 10
-10.25393700787401
 20
-1.783464566929133
 30
0.0
 11
-10.25295275590551
 21
-1.816929133858267
 31
0.0
  0
LINE
  5
2BFE
330
1E
100
AcDbEntity
  8
7
100
AcDbLine
 10
-10.25295275590551
 20
-1.816929133858267
 30
0.0
 11
-10.2509842519685
 21
-1.845472440944881
 31
0.0
  0
LINE
  5
2BFF
330
1E
100
AcDbEntity
  8
7
100
AcDbLine
 10
-10.05807086614173
 20
-1.928149606299212
 30
0.0
 11
-10.05314960629921
 21
-1.845472440944881
 31
0.0
  0
LINE
  5
2C00
330
1E
100
AcDbEntity
  8
7
100
AcDbLine
 10
-10.05314960629921
 20
-1.845472440944881
 30
0.0
 11
-10.10334645669291
 21
-1.845472440944881
 31
0.0
  0
LINE
  5
2C01
330
1E
100
AcDbEntity
  8
7
100
AcDbLine
 10
-10.24704724409448
 20
-1.928149606299212
 30
0.0
 11
-10.24606299212598
 21
-1.93503937007874
 31
0.0
  0
LINE
  5
2C02
330
1E
100
AcDbEntity
  8
7
100
AcDbLine
 10
-10.24606299212598
 20
-1.93503937007874
 30
0.0
 11
-10.24606299212598
 21
-1.937007874015748
 31
0.0
  0
LINE
  5
2C03
330
1E
100
AcDbEntity
  8
7
100
AcDbLine
 10
-10.2017716535433
 20
-1.928149606299212
 30
0.0
 11
-10.1023622047244
 21
-1.928149606299212
 31
0.0
  0
LINE
  5
2C04
330
1E
100
AcDbEntity
  8
7
100
AcDbLine
 10
-10.1023622047244
 20
-1.928149606299212
 30
0.0
 11
-10.10334645669291
 21
-1.845472440944881
 31
0.0
  0
LINE
  5
2C05
330
1E
100
AcDbEntity
  8
7
100
AcDbLine
 10
-10.10334645669291
 20
-1.845472440944881
 30
0.0
 11
-10.2007874015748
 21
-1.845472440944881
 31
0.0
  0
LINE
  5
2C06
330
1E
100
AcDbEntity
  8
7
100
AcDbLine
 10
-9.140748031496062
 20
-1.346456692913386
 30
0.0
 11
-9.14271653543307
 21
-1.440944881889763
 31
0.0
  0
LINE
  5
2C07
330
1E
100
AcDbEntity
  8
7
100
AcDbLine
 10
-9.14271653543307
 20
-1.440944881889763
 30
0.0
 11
-9.140748031496062
 21
-1.346456692913386
 31
0.0
  0
LINE
  5
2C08
330
1E
100
AcDbEntity
  8
7
100
AcDbLine
 10
-10.52854330708661
 20
-1.346456692913386
 30
0.0
 11
-10.5265748031496
 21
-1.440944881889763
 31
0.0
  0
LINE
  5
2C09
330
1E
100
AcDbEntity
  8
7
100
AcDbLine
 10
-10.5265748031496
 20
-1.440944881889763
 30
0.0
 11
-10.52854330708661
 21
-1.346456692913386
 31
0.0
  0
LINE
  5
2C0A
330
1E
100
AcDbEntity
  8
7
100
AcDbLine
 10
-10.52854330708661
 20
-1.346456692913386
 30
0.0
 11
-10.5265748031496
 21
-1.440944881889763
 31
0.0
  0
LINE
  5
2C0B
330
1E
100
AcDbEntity
  8
7
100
AcDbLine
 10
-10.5265748031496
 20
-1.440944881889763
 30
0.0
 11
-10.52854330708661
 21
-1.346456692913386
 31
0.0
  0
LINE
  5
2C0C
330
1E
100
AcDbEntity
  8
7
100
AcDbLine
 10
-9.102362204724409
 20
-1.346456692913386
 30
0.0
 11
-9.140748031496062
 21
-1.346456692913386
 31
0.0
  0
LINE
  5
2C0D
330
1E
100
AcDbEntity
  8
7
100
AcDbLine
 10
-9.140748031496062
 20
-1.346456692913386
 30
0.0
 11
-9.102362204724409
 21
-1.346456692913386
 31
0.0
  0
LINE
  5
2C0E
330
1E
100
AcDbEntity
  8
7
100
AcDbLine
 10
-9.102362204724409
 20
-1.346456692913386
 30
0.0
 11
-9.140748031496062
 21
-1.346456692913386
 31
0.0
  0
LINE
  5
2C0F
330
1E
100
AcDbEntity
  8
7
100
AcDbLine
 10
-9.140748031496062
 20
-1.346456692913386
 30
0.0
 11
-9.102362204724409
 21
-1.346456692913386
 31
0.0
  0
LINE
  5
2C10
330
1E
100
AcDbEntity
  8
7
100
AcDbLine
 10
-9.102362204724409
 20
-1.346456692913386
 30
0.0
 11
-9.085629921259842
 21
-1.346456692913386
 31
0.0
  0
LINE
  5
2C11
330
1E
100
AcDbEntity
  8
7
100
AcDbLine
 10
-9.085629921259842
 20
-1.346456692913386
 30
0.0
 11
-9.058070866141733
 21
-1.346456692913386
 31
0.0
  0
LINE
  5
2C12
330
1E
100
AcDbEntity
  8
7
100
AcDbLine
 10
-10.52854330708661
 20
-1.346456692913386
 30
0.0
 11
-10.56692913385826
 21
-1.346456692913386
 31
0.0
  0
LINE
  5
2C13
330
1E
100
AcDbEntity
  8
7
100
AcDbLine
 10
-10.56692913385826
 20
-1.346456692913386
 30
0.0
 11
-10.52854330708661
 21
-1.346456692913386
 31
0.0
  0
LINE
  5
2C14
330
1E
100
AcDbEntity
  8
7
100
AcDbLine
 10
-10.52854330708661
 20
-1.346456692913386
 30
0.0
 11
-10.56692913385826
 21
-1.346456692913386
 31
0.0
  0
LINE
  5
2C15
330
1E
100
AcDbEntity
  8
7
100
AcDbLine
 10
-10.56692913385826
 20
-1.346456692913386
 30
0.0
 11
-10.58464566929133
 21
-1.346456692913386
 31
0.0
  0
LINE
  5
2C16
330
1E
100
AcDbEntity
  8
7
100
AcDbLine
 10
-10.58464566929133
 20
-1.346456692913386
 30
0.0
 11
-10.61122047244094
 21
-1.346456692913386
 31
0.0
  0
LINE
  5
2C17
330
1E
100
AcDbEntity
  8
7
100
AcDbLine
 10
-10.56692913385826
 20
-1.346456692913386
 30
0.0
 11
-10.56692913385826
 21
-1.440944881889763
 31
0.0
  0
LINE
  5
2C18
330
1E
100
AcDbEntity
  8
7
100
AcDbLine
 10
-10.56692913385826
 20
-1.440944881889763
 30
0.0
 11
-10.58267716535433
 21
-1.440944881889763
 31
0.0
  0
LINE
  5
2C19
330
1E
100
AcDbEntity
  8
7
100
AcDbLine
 10
-10.58267716535433
 20
-1.440944881889763
 30
0.0
 11
-10.60925196850393
 21
-1.440944881889763
 31
0.0
  0
LINE
  5
2C1A
330
1E
100
AcDbEntity
  8
7
100
AcDbLine
 10
-9.102362204724409
 20
-1.440944881889763
 30
0.0
 11
-9.102362204724409
 21
-1.346456692913386
 31
0.0
  0
LINE
  5
2C1B
330
1E
100
AcDbEntity
  8
7
100
AcDbLine
 10
-9.102362204724409
 20
-1.346456692913386
 30
0.0
 11
-9.085629921259842
 21
-1.346456692913386
 31
0.0
  0
LINE
  5
2C1C
330
1E
100
AcDbEntity
  8
7
100
AcDbLine
 10
-9.085629921259842
 20
-1.346456692913386
 30
0.0
 11
-9.058070866141733
 21
-1.346456692913386
 31
0.0
  0
LINE
  5
2C1D
330
1E
100
AcDbEntity
  8
7
100
AcDbLine
 10
-9.102362204724409
 20
-1.440944881889763
 30
0.0
 11
-9.086614173228346
 21
-1.440944881889763
 31
0.0
  0
LINE
  5
2C1E
330
1E
100
AcDbEntity
  8
7
100
AcDbLine
 10
-9.086614173228346
 20
-1.440944881889763
 30
0.0
 11
-9.06003937007874
 21
-1.440944881889763
 31
0.0
  0
LINE
  5
2C1F
330
1E
100
AcDbEntity
  8
7
100
AcDbLine
 10
-10.751968503937
 20
-1.143700787401574
 30
0.0
 11
-10.74507874015748
 21
-1.135826771653543
 31
0.0
  0
LINE
  5
2C20
330
1E
100
AcDbEntity
  8
7
100
AcDbLine
 10
-10.74507874015748
 20
-1.135826771653543
 30
0.0
 11
-10.7273622047244
 21
-1.130905511811023
 31
0.0
  0
LINE
  5
2C21
330
1E
100
AcDbEntity
  8
7
100
AcDbLine
 10
-10.7273622047244
 20
-1.130905511811023
 30
0.0
 11
-10.7017716535433
 21
-1.128937007874015
 31
0.0
  0
LINE
  5
2C22
330
1E
100
AcDbEntity
  8
7
100
AcDbLine
 10
-10.75492125984252
 20
-1.307086614173228
 30
0.0
 11
-10.74803149606299
 21
-1.285433070866141
 31
0.0
  0
LINE
  5
2C23
330
1E
100
AcDbEntity
  8
7
100
AcDbLine
 10
-10.74803149606299
 20
-1.285433070866141
 30
0.0
 11
-10.72933070866141
 21
-1.270669291338582
 31
0.0
  0
LINE
  5
2C24
330
1E
100
AcDbEntity
  8
7
100
AcDbLine
 10
-10.72933070866141
 20
-1.270669291338582
 30
0.0
 11
-10.70472440944881
 21
-1.264763779527559
 31
0.0
  0
LINE
  5
2C25
330
1E
100
AcDbEntity
  8
7
100
AcDbLine
 10
-10.75590551181102
 20
-1.348425196850393
 30
0.0
 11
-10.74901574803149
 21
-1.348425196850393
 31
0.0
  0
LINE
  5
2C26
330
1E
100
AcDbEntity
  8
7
100
AcDbLine
 10
-10.74901574803149
 20
-1.348425196850393
 30
0.0
 11
-10.73031496062992
 21
-1.348425196850393
 31
0.0
  0
LINE
  5
2C27
330
1E
100
AcDbEntity
  8
7
100
AcDbLine
 10
-10.73031496062992
 20
-1.348425196850393
 30
0.0
 11
-10.70570866141732
 21
-1.348425196850393
 31
0.0
  0
LINE
  5
2C28
330
1E
100
AcDbEntity
  8
7
100
AcDbLine
 10
-10.74114173228346
 20
-1.37007874015748
 30
0.0
 11
-10.751968503937
 21
-1.37007874015748
 31
0.0
  0
LINE
  5
2C29
330
1E
100
AcDbEntity
  8
7
100
AcDbLine
 10
-10.751968503937
 20
-1.37007874015748
 30
0.0
 11
-10.75590551181102
 21
-1.37007874015748
 31
0.0
  0
LINE
  5
2C2A
330
1E
100
AcDbEntity
  8
7
100
AcDbLine
 10
-10.70570866141732
 20
-1.37007874015748
 30
0.0
 11
-10.7253937007874
 21
-1.37007874015748
 31
0.0
  0
LINE
  5
2C2B
330
1E
100
AcDbEntity
  8
7
100
AcDbLine
 10
-10.7253937007874
 20
-1.37007874015748
 30
0.0
 11
-10.74114173228346
 21
-1.37007874015748
 31
0.0
  0
LINE
  5
2C2C
330
1E
100
AcDbEntity
  8
7
100
AcDbLine
 10
-9.038385826771653
 20
-1.128937007874015
 30
0.0
 11
-9.013779527559055
 21
-1.130905511811023
 31
0.0
  0
LINE
  5
2C2D
330
1E
100
AcDbEntity
  8
7
100
AcDbLine
 10
-9.013779527559055
 20
-1.130905511811023
 30
0.0
 11
-8.995078740157481
 21
-1.135826771653543
 31
0.0
  0
LINE
  5
2C2E
330
1E
100
AcDbEntity
  8
7
100
AcDbLine
 10
-8.995078740157481
 20
-1.135826771653543
 30
0.0
 11
-8.988188976377953
 21
-1.143700787401574
 31
0.0
  0
LINE
  5
2C2F
330
1E
100
AcDbEntity
  8
7
100
AcDbLine
 10
-9.035433070866142
 20
-1.264763779527559
 30
0.0
 11
-9.010826771653544
 21
-1.270669291338582
 31
0.0
  0
LINE
  5
2C30
330
1E
100
AcDbEntity
  8
7
100
AcDbLine
 10
-9.010826771653544
 20
-1.270669291338582
 30
0.0
 11
-8.992125984251968
 21
-1.285433070866141
 31
0.0
  0
LINE
  5
2C31
330
1E
100
AcDbEntity
  8
7
100
AcDbLine
 10
-8.992125984251968
 20
-1.285433070866141
 30
0.0
 11
-8.98523622047244
 21
-1.307086614173228
 31
0.0
  0
LINE
  5
2C32
330
1E
100
AcDbEntity
  8
7
100
AcDbLine
 10
-9.00984251968504
 20
-1.348425196850393
 30
0.0
 11
-8.991141732283464
 21
-1.348425196850393
 31
0.0
  0
LINE
  5
2C33
330
1E
100
AcDbEntity
  8
7
100
AcDbLine
 10
-8.991141732283464
 20
-1.348425196850393
 30
0.0
 11
-8.98523622047244
 21
-1.348425196850393
 31
0.0
  0
LINE
  5
2C34
330
1E
100
AcDbEntity
  8
7
100
AcDbLine
 10
-8.984251968503937
 20
-1.37007874015748
 30
0.0
 11
-8.988188976377953
 21
-1.37007874015748
 31
0.0
  0
LINE
  5
2C35
330
1E
100
AcDbEntity
  8
7
100
AcDbLine
 10
-8.988188976377953
 20
-1.37007874015748
 30
0.0
 11
-8.999015748031496
 21
-1.37007874015748
 31
0.0
  0
LINE
  5
2C36
330
1E
100
AcDbEntity
  8
7
100
AcDbLine
 10
-8.999015748031496
 20
-1.37007874015748
 30
0.0
 11
-9.014763779527559
 21
-1.37007874015748
 31
0.0
  0
LINE
  5
2C37
330
1E
100
AcDbEntity
  8
7
100
AcDbLine
 10
-9.014763779527559
 20
-1.37007874015748
 30
0.0
 11
-9.034448818897638
 21
-1.37007874015748
 31
0.0
  0
LINE
  5
2C38
330
1E
100
AcDbEntity
  8
7
100
AcDbLine
 10
-9.034448818897638
 20
-1.348425196850393
 30
0.0
 11
-9.035433070866142
 21
-1.323818897637795
 31
0.0
  0
LINE
  5
2C39
330
1E
100
AcDbEntity
  8
7
100
AcDbLine
 10
-9.035433070866142
 20
-1.323818897637795
 30
0.0
 11
-9.035433070866142
 21
-1.3001968503937
 31
0.0
  0
LINE
  5
2C3A
330
1E
100
AcDbEntity
  8
7
100
AcDbLine
 10
-9.035433070866142
 20
-1.3001968503937
 30
0.0
 11
-9.035433070866142
 21
-1.280511811023622
 31
0.0
  0
LINE
  5
2C3B
330
1E
100
AcDbEntity
  8
7
100
AcDbLine
 10
-9.035433070866142
 20
-1.280511811023622
 30
0.0
 11
-9.035433070866142
 21
-1.264763779527559
 31
0.0
  0
LINE
  5
2C3C
330
1E
100
AcDbEntity
  8
7
100
AcDbLine
 10
-10.70570866141732
 20
-1.3001968503937
 30
0.0
 11
-10.70570866141732
 21
-1.323818897637795
 31
0.0
  0
LINE
  5
2C3D
330
1E
100
AcDbEntity
  8
7
100
AcDbLine
 10
-10.70570866141732
 20
-1.323818897637795
 30
0.0
 11
-10.70570866141732
 21
-1.348425196850393
 31
0.0
  0
LINE
  5
2C3E
330
1E
100
AcDbEntity
  8
7
100
AcDbLine
 10
-10.70472440944881
 20
-1.264763779527559
 30
0.0
 11
-10.70472440944881
 21
-1.280511811023622
 31
0.0
  0
LINE
  5
2C3F
330
1E
100
AcDbEntity
  8
7
100
AcDbLine
 10
-10.70472440944881
 20
-1.280511811023622
 30
0.0
 11
-10.70570866141732
 21
-1.3001968503937
 31
0.0
  0
LINE
  5
2C40
330
1E
100
AcDbEntity
  8
7
100
AcDbLine
 10
-9.804133858267716
 20
-1.662401574803149
 30
0.0
 11
-9.806102362204725
 21
-1.64763779527559
 31
0.0
  0
LINE
  5
2C41
330
1E
100
AcDbEntity
  8
7
100
AcDbLine
 10
-9.806102362204725
 20
-1.64763779527559
 30
0.0
 11
-9.807086614173229
 21
-1.634842519685039
 31
0.0
  0
LINE
  5
2C42
330
1E
100
AcDbEntity
  8
7
100
AcDbLine
 10
-9.807086614173229
 20
-1.634842519685039
 30
0.0
 11
-9.807086614173229
 21
-1.625984251968503
 31
0.0
  0
LINE
  5
2C43
330
1E
100
AcDbEntity
  8
7
100
AcDbLine
 10
-9.807086614173229
 20
-1.625984251968503
 30
0.0
 11
-9.807086614173229
 21
-1.623031496062992
 31
0.0
  0
LINE
  5
2C44
330
1E
100
AcDbEntity
  8
7
100
AcDbLine
 10
-9.934055118110237
 20
-1.623031496062992
 30
0.0
 11
-9.933070866141733
 21
-1.625984251968503
 31
0.0
  0
LINE
  5
2C45
330
1E
100
AcDbEntity
  8
7
100
AcDbLine
 10
-9.933070866141733
 20
-1.625984251968503
 30
0.0
 11
-9.934055118110237
 21
-1.634842519685039
 31
0.0
  0
LINE
  5
2C46
330
1E
100
AcDbEntity
  8
7
100
AcDbLine
 10
-9.934055118110237
 20
-1.634842519685039
 30
0.0
 11
-9.93503937007874
 21
-1.64763779527559
 31
0.0
  0
LINE
  5
2C47
330
1E
100
AcDbEntity
  8
7
100
AcDbLine
 10
-9.93503937007874
 20
-1.64763779527559
 30
0.0
 11
-9.936023622047244
 21
-1.662401574803149
 31
0.0
  0
LINE
  5
2C48
330
1E
100
AcDbEntity
  8
7
100
AcDbLine
 10
-9.038385826771653
 20
-1.128937007874015
 30
0.0
 11
-9.038385826771653
 21
-1.101377952755905
 31
0.0
  0
LINE
  5
2C49
330
1E
100
AcDbEntity
  8
7
100
AcDbLine
 10
-9.038385826771653
 20
-1.101377952755905
 30
0.0
 11
-9.038385826771653
 21
-1.079724409448818
 31
0.0
  0
LINE
  5
2C4A
330
1E
100
AcDbEntity
  8
7
100
AcDbLine
 10
-9.038385826771653
 20
-1.079724409448818
 30
0.0
 11
-9.039370078740157
 21
-1.06496062992126
 31
0.0
  0
LINE
  5
2C4B
330
1E
100
AcDbEntity
  8
7
100
AcDbLine
 10
-9.039370078740157
 20
-1.06496062992126
 30
0.0
 11
-9.039370078740157
 21
-1.060039370078739
 31
0.0
  0
LINE
  5
2C4C
330
1E
100
AcDbEntity
  8
7
100
AcDbLine
 10
-10.7017716535433
 20
-1.06496062992126
 30
0.0
 11
-10.7017716535433
 21
-1.078740157480314
 31
0.0
  0
LINE
  5
2C4D
330
1E
100
AcDbEntity
  8
7
100
AcDbLine
 10
-10.7017716535433
 20
-1.078740157480314
 30
0.0
 11
-10.7017716535433
 21
-1.101377952755905
 31
0.0
  0
LINE
  5
2C4E
330
1E
100
AcDbEntity
  8
7
100
AcDbLine
 10
-10.7017716535433
 20
-1.101377952755905
 30
0.0
 11
-10.7017716535433
 21
-1.128937007874015
 31
0.0
  0
LINE
  5
2C4F
330
1E
100
AcDbEntity
  8
7
100
AcDbLine
 10
-9.038385826771653
 20
-1.128937007874015
 30
0.0
 11
-10.7017716535433
 21
-1.128937007874015
 31
0.0
  0
LINE
  5
2C50
330
1E
100
AcDbEntity
  8
7
100
AcDbLine
 10
-10.7017716535433
 20
-1.128937007874015
 30
0.0
 11
-10.70275590551181
 21
-1.170275590551181
 31
0.0
  0
LINE
  5
2C51
330
1E
100
AcDbEntity
  8
7
100
AcDbLine
 10
-10.70275590551181
 20
-1.170275590551181
 30
0.0
 11
-10.70374015748031
 21
-1.206692913385826
 31
0.0
  0
LINE
  5
2C52
330
1E
100
AcDbEntity
  8
7
100
AcDbLine
 10
-10.70374015748031
 20
-1.206692913385826
 30
0.0
 11
-10.70472440944881
 21
-1.239173228346456
 31
0.0
  0
LINE
  5
2C53
330
1E
100
AcDbEntity
  8
7
100
AcDbLine
 10
-10.70472440944881
 20
-1.239173228346456
 30
0.0
 11
-10.70472440944881
 21
-1.264763779527559
 31
0.0
  0
LINE
  5
2C54
330
1E
100
AcDbEntity
  8
7
100
AcDbLine
 10
-10.70472440944881
 20
-1.264763779527559
 30
0.0
 11
-9.035433070866142
 21
-1.264763779527559
 31
0.0
  0
LINE
  5
2C55
330
1E
100
AcDbEntity
  8
7
100
AcDbLine
 10
-9.035433070866142
 20
-1.264763779527559
 30
0.0
 11
-9.036417322834646
 21
-1.239173228346456
 31
0.0
  0
LINE
  5
2C56
330
1E
100
AcDbEntity
  8
7
100
AcDbLine
 10
-9.036417322834646
 20
-1.239173228346456
 30
0.0
 11
-9.036417322834646
 21
-1.206692913385826
 31
0.0
  0
LINE
  5
2C57
330
1E
100
AcDbEntity
  8
7
100
AcDbLine
 10
-9.036417322834646
 20
-1.206692913385826
 30
0.0
 11
-9.037401574803149
 21
-1.170275590551181
 31
0.0
  0
LINE
  5
2C58
330
1E
100
AcDbEntity
  8
7
100
AcDbLine
 10
-9.037401574803149
 20
-1.170275590551181
 30
0.0
 11
-9.038385826771653
 21
-1.128937007874015
 31
0.0
  0
LINE
  5
2C59
330
1E
100
AcDbEntity
  8
7
100
AcDbLine
 10
-9.357283464566929
 20
-1.918307086614173
 30
0.0
 11
-9.357283464566929
 21
-1.932086614173228
 31
0.0
  0
LINE
  5
2C5A
330
1E
100
AcDbEntity
  8
7
100
AcDbLine
 10
-9.357283464566929
 20
-1.932086614173228
 30
0.0
 11
-9.357283464566929
 21
-1.937992125984251
 31
0.0
  0
LINE
  5
2C5B
330
1E
100
AcDbEntity
  8
7
100
AcDbLine
 10
-9.422244094488188
 20
-1.918307086614173
 30
0.0
 11
-9.357283464566929
 21
-1.918307086614173
 31
0.0
  0
LINE
  5
2C5C
330
1E
100
AcDbEntity
  8
7
100
AcDbLine
 10
-9.357283464566929
 20
-1.918307086614173
 30
0.0
 11
-9.352362204724409
 21
-1.623031496062992
 31
0.0
  0
LINE
  5
2C5D
330
1E
100
AcDbEntity
  8
7
100
AcDbLine
 10
-9.019685039370079
 20
-1.820866141732283
 30
0.0
 11
-9.019685039370079
 21
-1.808070866141732
 31
0.0
  0
LINE
  5
2C5E
330
1E
100
AcDbEntity
  8
7
100
AcDbLine
 10
-9.019685039370079
 20
-1.808070866141732
 30
0.0
 11
-9.071850393700788
 21
-1.808070866141732
 31
0.0
  0
LINE
  5
2C5F
330
1E
100
AcDbEntity
  8
7
100
AcDbLine
 10
-9.136811023622048
 20
-1.918307086614173
 30
0.0
 11
-9.130905511811024
 21
-1.932086614173228
 31
0.0
  0
LINE
  5
2C60
330
1E
100
AcDbEntity
  8
7
100
AcDbLine
 10
-9.130905511811024
 20
-1.932086614173228
 30
0.0
 11
-9.117125984251968
 21
-1.937992125984251
 31
0.0
  0
LINE
  5
2C61
330
1E
100
AcDbEntity
  8
7
100
AcDbLine
 10
-9.117125984251968
 20
-1.937992125984251
 30
0.0
 11
-9.116141732283464
 21
-1.937992125984251
 31
0.0
  0
LINE
  5
2C62
330
1E
100
AcDbEntity
  8
7
100
AcDbLine
 10
-9.116141732283464
 20
-1.937992125984251
 30
0.0
 11
-9.100393700787401
 21
-1.93011811023622
 31
0.0
  0
LINE
  5
2C63
330
1E
100
AcDbEntity
  8
7
100
AcDbLine
 10
-9.100393700787401
 20
-1.93011811023622
 30
0.0
 11
-9.023622047244094
 21
-1.83267716535433
 31
0.0
  0
LINE
  5
2C64
330
1E
100
AcDbEntity
  8
7
100
AcDbLine
 10
-9.023622047244094
 20
-1.83267716535433
 30
0.0
 11
-9.019685039370079
 21
-1.820866141732283
 31
0.0
  0
LINE
  5
2C65
330
1E
100
AcDbEntity
  8
7
100
AcDbLine
 10
-10.62303149606299
 20
-1.937992125984251
 30
0.0
 11
-10.60925196850393
 21
-1.932086614173228
 31
0.0
  0
LINE
  5
2C66
330
1E
100
AcDbEntity
  8
7
100
AcDbLine
 10
-10.60925196850393
 20
-1.932086614173228
 30
0.0
 11
-10.60334645669291
 21
-1.918307086614173
 31
0.0
  0
LINE
  5
2C67
330
1E
100
AcDbEntity
  8
7
100
AcDbLine
 10
-10.72047244094488
 20
-1.820866141732283
 30
0.0
 11
-10.71653543307086
 21
-1.83267716535433
 31
0.0
  0
LINE
  5
2C68
330
1E
100
AcDbEntity
  8
7
100
AcDbLine
 10
-10.71653543307086
 20
-1.83267716535433
 30
0.0
 11
-10.63976377952756
 21
-1.93011811023622
 31
0.0
  0
LINE
  5
2C69
330
1E
100
AcDbEntity
  8
7
100
AcDbLine
 10
-10.63976377952756
 20
-1.93011811023622
 30
0.0
 11
-10.62401574803149
 21
-1.937992125984251
 31
0.0
  0
LINE
  5
2C6A
330
1E
100
AcDbEntity
  8
7
100
AcDbLine
 10
-10.66830708661417
 20
-1.662401574803149
 30
0.0
 11
-10.67125984251968
 21
-1.64763779527559
 31
0.0
  0
LINE
  5
2C6B
330
1E
100
AcDbEntity
  8
7
100
AcDbLine
 10
-10.67125984251968
 20
-1.64763779527559
 30
0.0
 11
-10.68011811023622
 21
-1.634842519685039
 31
0.0
  0
LINE
  5
2C6C
330
1E
100
AcDbEntity
  8
7
100
AcDbLine
 10
-10.68011811023622
 20
-1.634842519685039
 30
0.0
 11
-10.69291338582677
 21
-1.625984251968503
 31
0.0
  0
LINE
  5
2C6D
330
1E
100
AcDbEntity
  8
7
100
AcDbLine
 10
-10.69291338582677
 20
-1.625984251968503
 30
0.0
 11
-10.70866141732283
 21
-1.623031496062992
 31
0.0
  0
LINE
  5
2C6E
330
1E
100
AcDbEntity
  8
7
100
AcDbLine
 10
-10.19291338582677
 20
-1.937007874015748
 30
0.0
 11
-10.19291338582677
 21
-1.937992125984251
 31
0.0
  0
LINE
  5
2C6F
330
1E
100
AcDbEntity
  8
7
100
AcDbLine
 10
-10.19291338582677
 20
-1.937992125984251
 30
0.0
 11
-10.38287401574803
 21
-1.937992125984251
 31
0.0
  0
LINE
  5
2C70
330
1E
100
AcDbEntity
  8
7
100
AcDbLine
 10
-10.38287401574803
 20
-1.937992125984251
 30
0.0
 11
-10.38287401574803
 21
-1.932086614173228
 31
0.0
  0
LINE
  5
2C71
330
1E
100
AcDbEntity
  8
7
100
AcDbLine
 10
-10.38287401574803
 20
-1.932086614173228
 30
0.0
 11
-10.38385826771653
 21
-1.918307086614173
 31
0.0
  0
LINE
  5
2C72
330
1E
100
AcDbEntity
  8
7
100
AcDbLine
 10
-9.970472440944881
 20
-1.662401574803149
 30
0.0
 11
-9.970472440944881
 21
-1.64763779527559
 31
0.0
  0
LINE
  5
2C73
330
1E
100
AcDbEntity
  8
7
100
AcDbLine
 10
-9.970472440944881
 20
-1.64763779527559
 30
0.0
 11
-9.970472440944881
 21
-1.634842519685039
 31
0.0
  0
LINE
  5
2C74
330
1E
100
AcDbEntity
  8
7
100
AcDbLine
 10
-9.970472440944881
 20
-1.634842519685039
 30
0.0
 11
-9.970472440944881
 21
-1.625984251968503
 31
0.0
  0
LINE
  5
2C75
330
1E
100
AcDbEntity
  8
7
100
AcDbLine
 10
-9.970472440944881
 20
-1.625984251968503
 30
0.0
 11
-9.970472440944881
 21
-1.623031496062992
 31
0.0
  0
LINE
  5
2C76
330
1E
100
AcDbEntity
  8
7
100
AcDbLine
 10
-9.965551181102362
 20
-1.93011811023622
 30
0.0
 11
-9.96751968503937
 21
-1.83267716535433
 31
0.0
  0
LINE
  5
2C77
330
1E
100
AcDbEntity
  8
7
100
AcDbLine
 10
-9.96751968503937
 20
-1.83267716535433
 30
0.0
 11
-9.96751968503937
 21
-1.820866141732283
 31
0.0
  0
LINE
  5
2C78
330
1E
100
AcDbEntity
  8
7
100
AcDbLine
 10
-9.96751968503937
 20
-1.820866141732283
 30
0.0
 11
-9.96751968503937
 21
-1.808070866141732
 31
0.0
  0
LINE
  5
2C79
330
1E
100
AcDbEntity
  8
7
100
AcDbLine
 10
-9.77263779527559
 20
-1.808070866141732
 30
0.0
 11
-9.770669291338583
 21
-1.662401574803149
 31
0.0
  0
LINE
  5
2C7A
330
1E
100
AcDbEntity
  8
7
100
AcDbLine
 10
-9.770669291338583
 20
-1.662401574803149
 30
0.0
 11
-9.804133858267716
 21
-1.662401574803149
 31
0.0
  0
LINE
  5
2C7B
330
1E
100
AcDbEntity
  8
7
100
AcDbLine
 10
-9.804133858267716
 20
-1.662401574803149
 30
0.0
 11
-9.829724409448818
 21
-1.373031496062991
 31
0.0
  0
LINE
  5
2C7C
330
1E
100
AcDbEntity
  8
7
100
AcDbLine
 10
-9.769685039370079
 20
-1.623031496062992
 30
0.0
 11
-9.769685039370079
 21
-1.625984251968503
 31
0.0
  0
LINE
  5
2C7D
330
1E
100
AcDbEntity
  8
7
100
AcDbLine
 10
-9.769685039370079
 20
-1.625984251968503
 30
0.0
 11
-9.769685039370079
 21
-1.634842519685039
 31
0.0
  0
LINE
  5
2C7E
330
1E
100
AcDbEntity
  8
7
100
AcDbLine
 10
-9.769685039370079
 20
-1.634842519685039
 30
0.0
 11
-9.769685039370079
 21
-1.64763779527559
 31
0.0
  0
LINE
  5
2C7F
330
1E
100
AcDbEntity
  8
7
100
AcDbLine
 10
-9.769685039370079
 20
-1.64763779527559
 30
0.0
 11
-9.770669291338583
 21
-1.662401574803149
 31
0.0
  0
LINE
  5
2C80
330
1E
100
AcDbEntity
  8
7
100
AcDbLine
 10
-9.773622047244094
 20
-1.820866141732283
 30
0.0
 11
-9.773622047244094
 21
-1.83267716535433
 31
0.0
  0
LINE
  5
2C81
330
1E
100
AcDbEntity
  8
7
100
AcDbLine
 10
-9.773622047244094
 20
-1.83267716535433
 30
0.0
 11
-9.774606299212599
 21
-1.93011811023622
 31
0.0
  0
LINE
  5
2C82
330
1E
100
AcDbEntity
  8
7
100
AcDbLine
 10
-9.774606299212599
 20
-1.93011811023622
 30
0.0
 11
-9.775590551181103
 21
-1.937992125984251
 31
0.0
  0
LINE
  5
2C83
330
1E
100
AcDbEntity
  8
7
100
AcDbLine
 10
-8.986220472440944
 20
-1.237204724409449
 30
0.0
 11
-8.986220472440944
 21
-1.275590551181101
 31
0.0
  0
LINE
  5
2C84
330
1E
100
AcDbEntity
  8
7
100
AcDbLine
 10
-8.986220472440944
 20
-1.275590551181101
 30
0.0
 11
-8.98523622047244
 21
-1.307086614173228
 31
0.0
  0
LINE
  5
2C85
330
1E
100
AcDbEntity
  8
7
100
AcDbLine
 10
-8.989173228346457
 20
-1.109251968503937
 30
0.0
 11
-8.989173228346457
 21
-1.114173228346456
 31
0.0
  0
LINE
  5
2C86
330
1E
100
AcDbEntity
  8
7
100
AcDbLine
 10
-8.989173228346457
 20
-1.114173228346456
 30
0.0
 11
-8.988188976377953
 21
-1.125984251968503
 31
0.0
  0
LINE
  5
2C87
330
1E
100
AcDbEntity
  8
7
100
AcDbLine
 10
-8.988188976377953
 20
-1.125984251968503
 30
0.0
 11
-8.988188976377953
 21
-1.143700787401574
 31
0.0
  0
LINE
  5
2C88
330
1E
100
AcDbEntity
  8
7
100
AcDbLine
 10
-8.988188976377953
 20
-1.143700787401574
 30
0.0
 11
-8.987204724409448
 21
-1.192913385826771
 31
0.0
  0
LINE
  5
2C89
330
1E
100
AcDbEntity
  8
7
100
AcDbLine
 10
-8.987204724409448
 20
-1.192913385826771
 30
0.0
 11
-8.986220472440944
 21
-1.237204724409449
 31
0.0
  0
LINE
  5
2C8A
330
1E
100
AcDbEntity
  8
7
100
AcDbLine
 10
-8.98523622047244
 20
-1.307086614173228
 30
0.0
 11
-8.98523622047244
 21
-1.317913385826771
 31
0.0
  0
LINE
  5
2C8B
330
1E
100
AcDbEntity
  8
7
100
AcDbLine
 10
-8.98523622047244
 20
-1.317913385826771
 30
0.0
 11
-8.98523622047244
 21
-1.33267716535433
 31
0.0
  0
LINE
  5
2C8C
330
1E
100
AcDbEntity
  8
7
100
AcDbLine
 10
-8.98523622047244
 20
-1.33267716535433
 30
0.0
 11
-8.98523622047244
 21
-1.348425196850393
 31
0.0
  0
LINE
  5
2C8D
330
1E
100
AcDbEntity
  8
7
100
AcDbLine
 10
-8.98523622047244
 20
-1.348425196850393
 30
0.0
 11
-8.984251968503937
 21
-1.37007874015748
 31
0.0
  0
LINE
  5
2C8E
330
1E
100
AcDbEntity
  8
7
100
AcDbLine
 10
-10.751968503937
 20
-1.127952755905512
 30
0.0
 11
-10.751968503937
 21
-1.11515748031496
 31
0.0
  0
LINE
  5
2C8F
330
1E
100
AcDbEntity
  8
7
100
AcDbLine
 10
-10.751968503937
 20
-1.11515748031496
 30
0.0
 11
-10.751968503937
 21
-1.11023622047244
 31
0.0
  0
LINE
  5
2C90
330
1E
100
AcDbEntity
  8
7
100
AcDbLine
 10
-10.751968503937
 20
-1.11023622047244
 30
0.0
 11
-10.751968503937
 21
-1.111220472440944
 31
0.0
  0
LINE
  5
2C91
330
1E
100
AcDbEntity
  8
7
100
AcDbLine
 10
-10.75590551181102
 20
-1.37007874015748
 30
0.0
 11
-10.75590551181102
 21
-1.348425196850393
 31
0.0
  0
LINE
  5
2C92
330
1E
100
AcDbEntity
  8
7
100
AcDbLine
 10
-10.75590551181102
 20
-1.348425196850393
 30
0.0
 11
-10.75492125984252
 21
-1.33267716535433
 31
0.0
  0
LINE
  5
2C93
330
1E
100
AcDbEntity
  8
7
100
AcDbLine
 10
-10.75492125984252
 20
-1.33267716535433
 30
0.0
 11
-10.75492125984252
 21
-1.317913385826771
 31
0.0
  0
LINE
  5
2C94
330
1E
100
AcDbEntity
  8
7
100
AcDbLine
 10
-10.75492125984252
 20
-1.317913385826771
 30
0.0
 11
-10.75492125984252
 21
-1.307086614173228
 31
0.0
  0
LINE
  5
2C95
330
1E
100
AcDbEntity
  8
7
100
AcDbLine
 10
-10.75492125984252
 20
-1.307086614173228
 30
0.0
 11
-10.75393700787401
 21
-1.275590551181101
 31
0.0
  0
LINE
  5
2C96
330
1E
100
AcDbEntity
  8
7
100
AcDbLine
 10
-10.75393700787401
 20
-1.275590551181101
 30
0.0
 11
-10.75393700787401
 21
-1.237204724409449
 31
0.0
  0
LINE
  5
2C97
330
1E
100
AcDbEntity
  8
7
100
AcDbLine
 10
-10.75393700787401
 20
-1.237204724409449
 30
0.0
 11
-10.75295275590551
 21
-1.192913385826771
 31
0.0
  0
LINE
  5
2C98
330
1E
100
AcDbEntity
  8
7
100
AcDbLine
 10
-10.75295275590551
 20
-1.192913385826771
 30
0.0
 11
-10.751968503937
 21
-1.143700787401574
 31
0.0
  0
LINE
  5
2C99
330
1E
100
AcDbEntity
  8
7
100
AcDbLine
 10
-10.751968503937
 20
-1.143700787401574
 30
0.0
 11
-10.751968503937
 21
-1.127952755905512
 31
0.0
  0
LINE
  5
2C9A
330
1E
100
AcDbEntity
  8
7
100
AcDbLine
 10
-9.826771653543307
 20
-1.37007874015748
 30
0.0
 11
-9.034448818897638
 21
-1.37007874015748
 31
0.0
  0
LINE
  5
2C9B
330
1E
100
AcDbEntity
  8
7
100
AcDbLine
 10
-9.034448818897638
 20
-1.37007874015748
 30
0.0
 11
-9.034448818897638
 21
-1.348425196850393
 31
0.0
  0
LINE
  5
2C9C
330
1E
100
AcDbEntity
  8
7
100
AcDbLine
 10
-9.034448818897638
 20
-1.348425196850393
 30
0.0
 11
-10.70570866141732
 21
-1.348425196850393
 31
0.0
  0
LINE
  5
2C9D
330
1E
100
AcDbEntity
  8
7
100
AcDbLine
 10
-10.70570866141732
 20
-1.348425196850393
 30
0.0
 11
-10.70570866141732
 21
-1.37007874015748
 31
0.0
  0
LINE
  5
2C9E
330
1E
100
AcDbEntity
  8
7
100
AcDbLine
 10
-10.70570866141732
 20
-1.37007874015748
 30
0.0
 11
-9.913385826771653
 21
-1.37007874015748
 31
0.0
  0
LINE
  5
2C9F
330
1E
100
AcDbEntity
  8
7
100
AcDbLine
 10
-10.7017716535433
 20
-1.623031496062992
 30
0.0
 11
-10.72047244094488
 21
-1.623031496062992
 31
0.0
  0
LINE
  5
2CA0
330
1E
100
AcDbEntity
  8
7
100
AcDbLine
 10
-10.72047244094488
 20
-1.623031496062992
 30
0.0
 11
-10.73720472440945
 21
-1.623031496062992
 31
0.0
  0
LINE
  5
2CA1
330
1E
100
AcDbEntity
  8
7
100
AcDbLine
 10
-10.73720472440945
 20
-1.623031496062992
 30
0.0
 11
-10.74803149606299
 21
-1.623031496062992
 31
0.0
  0
LINE
  5
2CA2
330
1E
100
AcDbEntity
  8
7
100
AcDbLine
 10
-10.74803149606299
 20
-1.623031496062992
 30
0.0
 11
-10.751968503937
 21
-1.623031496062992
 31
0.0
  0
LINE
  5
2CA3
330
1E
100
AcDbEntity
  8
7
100
AcDbLine
 10
-9.031496062992125
 20
-1.623031496062992
 30
0.0
 11
-9.047244094488188
 21
-1.625984251968503
 31
0.0
  0
LINE
  5
2CA4
330
1E
100
AcDbEntity
  8
7
100
AcDbLine
 10
-9.047244094488188
 20
-1.625984251968503
 30
0.0
 11
-9.06003937007874
 21
-1.634842519685039
 31
0.0
  0
LINE
  5
2CA5
330
1E
100
AcDbEntity
  8
7
100
AcDbLine
 10
-9.06003937007874
 20
-1.634842519685039
 30
0.0
 11
-9.068897637795275
 21
-1.64763779527559
 31
0.0
  0
LINE
  5
2CA6
330
1E
100
AcDbEntity
  8
7
100
AcDbLine
 10
-9.068897637795275
 20
-1.64763779527559
 30
0.0
 11
-9.071850393700788
 21
-1.662401574803149
 31
0.0
  0
LINE
  5
2CA7
330
1E
100
AcDbEntity
  8
7
100
AcDbLine
 10
-8.992125984251968
 20
-1.623031496062992
 30
0.0
 11
-9.003937007874016
 21
-1.623031496062992
 31
0.0
  0
LINE
  5
2CA8
330
1E
100
AcDbEntity
  8
7
100
AcDbLine
 10
-9.003937007874016
 20
-1.623031496062992
 30
0.0
 11
-9.019685039370079
 21
-1.623031496062992
 31
0.0
  0
LINE
  5
2CA9
330
1E
100
AcDbEntity
  8
7
100
AcDbLine
 10
-9.019685039370079
 20
-1.623031496062992
 30
0.0
 11
-9.038385826771653
 21
-1.623031496062992
 31
0.0
  0
LINE
  5
2CAA
330
1E
100
AcDbEntity
  8
7
100
AcDbLine
 10
-8.989173228346457
 20
-1.109251968503937
 30
0.0
 11
-8.993110236220472
 21
-1.090551181102362
 31
0.0
  0
LINE
  5
2CAB
330
1E
100
AcDbEntity
  8
7
100
AcDbLine
 10
-8.993110236220472
 20
-1.090551181102362
 30
0.0
 11
-9.003937007874016
 21
-1.074803149606299
 31
0.0
  0
LINE
  5
2CAC
330
1E
100
AcDbEntity
  8
7
100
AcDbLine
 10
-9.003937007874016
 20
-1.074803149606299
 30
0.0
 11
-9.019685039370079
 21
-1.063976377952755
 31
0.0
  0
LINE
  5
2CAD
330
1E
100
AcDbEntity
  8
7
100
AcDbLine
 10
-9.019685039370079
 20
-1.063976377952755
 30
0.0
 11
-9.039370078740157
 21
-1.060039370078739
 31
0.0
  0
LINE
  5
2CAE
330
1E
100
AcDbEntity
  8
7
100
AcDbLine
 10
-10.7017716535433
 20
-1.060039370078739
 30
0.0
 11
-10.72047244094488
 21
-1.06496062992126
 31
0.0
  0
LINE
  5
2CAF
330
1E
100
AcDbEntity
  8
7
100
AcDbLine
 10
-10.72047244094488
 20
-1.06496062992126
 30
0.0
 11
-10.73622047244094
 21
-1.075787401574802
 31
0.0
  0
LINE
  5
2CB0
330
1E
100
AcDbEntity
  8
7
100
AcDbLine
 10
-10.73622047244094
 20
-1.075787401574802
 30
0.0
 11
-10.74704724409448
 21
-1.091535433070865
 31
0.0
  0
LINE
  5
2CB1
330
1E
100
AcDbEntity
  8
7
100
AcDbLine
 10
-10.74704724409448
 20
-1.091535433070865
 30
0.0
 11
-10.74999999999999
 21
-1.101377952755905
 31
0.0
  0
LINE
  5
2CB2
330
1E
100
AcDbEntity
  8
7
100
AcDbLine
 10
-10.74999999999999
 20
-1.101377952755905
 30
0.0
 11
-10.751968503937
 21
-1.111220472440944
 31
0.0
  0
LINE
  5
2CB3
330
1E
100
AcDbEntity
  8
7
100
AcDbLine
 10
-10.61023622047244
 20
0.2598425196850398
 30
0.0
 11
-10.58366141732283
 21
0.2746062992125982
 31
0.0
  0
LINE
  5
2CB4
330
1E
100
AcDbEntity
  8
7
100
AcDbLine
 10
-10.58366141732283
 20
0.2746062992125982
 30
0.0
 11
-10.56692913385826
 21
0.3001968503937009
 31
0.0
  0
LINE
  5
2CB5
330
1E
100
AcDbEntity
  8
7
100
AcDbLine
 10
-9.103346456692914
 20
0.3001968503937009
 30
0.0
 11
-9.086614173228346
 21
0.2746062992125982
 31
0.0
  0
LINE
  5
2CB6
330
1E
100
AcDbEntity
  8
7
100
AcDbLine
 10
-9.086614173228346
 20
0.2746062992125982
 30
0.0
 11
-9.06003937007874
 21
0.2598425196850398
 31
0.0
  0
LINE
  5
2CB7
330
1E
100
AcDbEntity
  8
7
100
AcDbLine
 10
-9.102362204724409
 20
1.159448818897637
 30
0.0
 11
-9.102362204724409
 21
1.161417322834645
 31
0.0
  0
LINE
  5
2CB8
330
1E
100
AcDbEntity
  8
7
100
AcDbLine
 10
-9.102362204724409
 20
1.161417322834645
 30
0.0
 11
-9.14271653543307
 21
1.161417322834645
 31
0.0
  0
LINE
  5
2CB9
330
1E
100
AcDbEntity
  8
7
100
AcDbLine
 10
-9.372047244094488
 20
0.4212598425196852
 30
0.0
 11
-9.662401574803149
 21
0.4212598425196852
 31
0.0
  0
LINE
  5
2CBA
330
1E
100
AcDbEntity
  8
7
100
AcDbLine
 10
-9.662401574803149
 20
0.4212598425196852
 30
0.0
 11
-9.662401574803149
 21
0.4399606299212602
 31
0.0
  0
LINE
  5
2CBB
330
1E
100
AcDbEntity
  8
7
100
AcDbLine
 10
-9.204724409448818
 20
1.081692913385826
 30
0.0
 11
-9.204724409448818
 21
0.4212598425196852
 31
0.0
  0
LINE
  5
2CBC
330
1E
100
AcDbEntity
  8
7
100
AcDbLine
 10
-9.204724409448818
 20
0.4212598425196852
 30
0.0
 11
-9.203740157480314
 21
0.4202755905511815
 31
0.0
  0
LINE
  5
2CBD
330
1E
100
AcDbEntity
  8
7
100
AcDbLine
 10
-9.203740157480314
 20
0.4202755905511815
 30
0.0
 11
-9.203740157480314
 21
1.08267716535433
 31
0.0
  0
LINE
  5
2CBE
330
1E
100
AcDbEntity
  8
7
100
AcDbLine
 10
-9.763779527559055
 20
1.08267716535433
 30
0.0
 11
-9.761811023622048
 21
1.081692913385826
 31
0.0
  0
LINE
  5
2CBF
330
1E
100
AcDbEntity
  8
7
100
AcDbLine
 10
-9.761811023622048
 20
1.081692913385826
 30
0.0
 11
-9.761811023622048
 21
1.146653543307087
 31
0.0
  0
LINE
  5
2CC0
330
1E
100
AcDbEntity
  8
7
100
AcDbLine
 10
-9.620078740157481
 20
1.119094488188976
 30
0.0
 11
-9.414370078740157
 21
1.119094488188976
 31
0.0
  0
LINE
  5
2CC1
330
1E
100
AcDbEntity
  8
7
100
AcDbLine
 10
-9.414370078740157
 20
1.119094488188976
 30
0.0
 11
-9.414370078740157
 21
1.129921259842519
 31
0.0
  0
LINE
  5
2CC2
330
1E
100
AcDbEntity
  8
7
100
AcDbLine
 10
-9.414370078740157
 20
1.129921259842519
 30
0.0
 11
-9.414370078740157
 21
1.134842519685039
 31
0.0
  0
LINE
  5
2CC3
330
1E
100
AcDbEntity
  8
7
100
AcDbLine
 10
-9.414370078740157
 20
1.134842519685039
 30
0.0
 11
-9.620078740157481
 21
1.134842519685039
 31
0.0
  0
LINE
  5
2CC4
330
1E
100
AcDbEntity
  8
7
100
AcDbLine
 10
-9.620078740157481
 20
1.134842519685039
 30
0.0
 11
-9.620078740157481
 21
1.129921259842519
 31
0.0
  0
LINE
  5
2CC5
330
1E
100
AcDbEntity
  8
7
100
AcDbLine
 10
-9.620078740157481
 20
1.129921259842519
 30
0.0
 11
-9.620078740157481
 21
1.119094488188976
 31
0.0
  0
LINE
  5
2CC6
330
1E
100
AcDbEntity
  8
7
100
AcDbLine
 10
-9.620078740157481
 20
1.071850393700787
 30
0.0
 11
-9.620078740157481
 21
1.084645669291338
 31
0.0
  0
LINE
  5
2CC7
330
1E
100
AcDbEntity
  8
7
100
AcDbLine
 10
-9.620078740157481
 20
1.084645669291338
 30
0.0
 11
-9.620078740157481
 21
1.099409448818897
 31
0.0
  0
LINE
  5
2CC8
330
1E
100
AcDbEntity
  8
7
100
AcDbLine
 10
-9.620078740157481
 20
1.099409448818897
 30
0.0
 11
-9.620078740157481
 21
1.119094488188976
 31
0.0
  0
LINE
  5
2CC9
330
1E
100
AcDbEntity
  8
7
100
AcDbLine
 10
-9.414370078740157
 20
1.071850393700787
 30
0.0
 11
-9.414370078740157
 21
1.084645669291338
 31
0.0
  0
LINE
  5
2CCA
330
1E
100
AcDbEntity
  8
7
100
AcDbLine
 10
-9.414370078740157
 20
1.084645669291338
 30
0.0
 11
-9.414370078740157
 21
1.099409448818897
 31
0.0
  0
LINE
  5
2CCB
330
1E
100
AcDbEntity
  8
7
100
AcDbLine
 10
-9.620078740157481
 20
1.037401574803149
 30
0.0
 11
-9.414370078740157
 21
1.037401574803149
 31
0.0
  0
LINE
  5
2CCC
330
1E
100
AcDbEntity
  8
7
100
AcDbLine
 10
-9.414370078740157
 20
1.037401574803149
 30
0.0
 11
-9.414370078740157
 21
1.068897637795275
 31
0.0
  0
LINE
  5
2CCD
330
1E
100
AcDbEntity
  8
7
100
AcDbLine
 10
-9.372047244094488
 20
0.4498031496062991
 30
0.0
 11
-9.662401574803149
 21
0.4498031496062991
 31
0.0
  0
LINE
  5
2CCE
330
1E
100
AcDbEntity
  8
7
100
AcDbLine
 10
-9.662401574803149
 20
0.4498031496062991
 30
0.0
 11
-9.662401574803149
 21
0.4468503937007871
 31
0.0
  0
LINE
  5
2CCF
330
1E
100
AcDbEntity
  8
7
100
AcDbLine
 10
-9.662401574803149
 20
0.4468503937007871
 30
0.0
 11
-9.662401574803149
 21
0.4399606299212602
 31
0.0
  0
LINE
  5
2CD0
330
1E
100
AcDbEntity
  8
7
100
AcDbLine
 10
-9.372047244094488
 20
0.4498031496062991
 30
0.0
 11
-9.372047244094488
 21
0.4468503937007871
 31
0.0
  0
LINE
  5
2CD1
330
1E
100
AcDbEntity
  8
7
100
AcDbLine
 10
-9.372047244094488
 20
0.4468503937007871
 30
0.0
 11
-9.372047244094488
 21
0.4399606299212602
 31
0.0
  0
LINE
  5
2CD2
330
1E
100
AcDbEntity
  8
7
100
AcDbLine
 10
-10.29724409448818
 20
0.4212598425196852
 30
0.0
 11
-10.00688976377952
 21
0.4212598425196852
 31
0.0
  0
LINE
  5
2CD3
330
1E
100
AcDbEntity
  8
7
100
AcDbLine
 10
-10.00688976377952
 20
0.4212598425196852
 30
0.0
 11
-10.00688976377952
 21
0.4399606299212602
 31
0.0
  0
LINE
  5
2CD4
330
1E
100
AcDbEntity
  8
7
100
AcDbLine
 10
-10.61614173228346
 20
1.0501968503937
 30
0.0
 11
-10.61614173228346
 21
1.053149606299212
 31
0.0
  0
LINE
  5
2CD5
330
1E
100
AcDbEntity
  8
7
100
AcDbLine
 10
-10.61614173228346
 20
1.053149606299212
 30
0.0
 11
-10.61417322834645
 21
1.053149606299212
 31
0.0
  0
LINE
  5
2CD6
330
1E
100
AcDbEntity
  8
7
100
AcDbLine
 10
-10.61614173228346
 20
0.4498031496062991
 30
0.0
 11
-10.61614173228346
 21
0.4468503937007871
 31
0.0
  0
LINE
  5
2CD7
330
1E
100
AcDbEntity
  8
7
100
AcDbLine
 10
-10.61614173228346
 20
0.4468503937007871
 30
0.0
 11
-10.61417322834645
 21
0.4468503937007871
 31
0.0
  0
LINE
  5
2CD8
330
1E
100
AcDbEntity
  8
7
100
AcDbLine
 10
-10.39862204724409
 20
1.14763779527559
 30
0.0
 11
-10.39862204724409
 21
1.08267716535433
 31
0.0
  0
LINE
  5
2CD9
330
1E
100
AcDbEntity
  8
7
100
AcDbLine
 10
-10.39862204724409
 20
1.08267716535433
 30
0.0
 11
-10.39763779527559
 21
1.081692913385826
 31
0.0
  0
LINE
  5
2CDA
330
1E
100
AcDbEntity
  8
7
100
AcDbLine
 10
-9.906496062992125
 20
1.14763779527559
 30
0.0
 11
-10.39862204724409
 21
1.14763779527559
 31
0.0
  0
LINE
  5
2CDB
330
1E
100
AcDbEntity
  8
7
100
AcDbLine
 10
-10.39862204724409
 20
1.14763779527559
 30
0.0
 11
-10.39763779527559
 21
1.146653543307087
 31
0.0
  0
LINE
  5
2CDC
330
1E
100
AcDbEntity
  8
7
100
AcDbLine
 10
-10.39763779527559
 20
1.146653543307087
 30
0.0
 11
-10.39763779527559
 21
1.081692913385826
 31
0.0
  0
LINE
  5
2CDD
330
1E
100
AcDbEntity
  8
7
100
AcDbLine
 10
-10.0255905511811
 20
1.146653543307087
 30
0.0
 11
-9.907480314960629
 21
1.146653543307087
 31
0.0
  0
LINE
  5
2CDE
330
1E
100
AcDbEntity
  8
7
100
AcDbLine
 10
-9.907480314960629
 20
1.146653543307087
 30
0.0
 11
-9.906496062992125
 21
1.14763779527559
 31
0.0
  0
LINE
  5
2CDF
330
1E
100
AcDbEntity
  8
7
100
AcDbLine
 10
-10.04921259842519
 20
1.134842519685039
 30
0.0
 11
-10.04921259842519
 21
1.129921259842519
 31
0.0
  0
LINE
  5
2CE0
330
1E
100
AcDbEntity
  8
7
100
AcDbLine
 10
-10.04921259842519
 20
1.129921259842519
 30
0.0
 11
-10.0501968503937
 21
1.119094488188976
 31
0.0
  0
LINE
  5
2CE1
330
1E
100
AcDbEntity
  8
7
100
AcDbLine
 10
-10.25492125984251
 20
1.099409448818897
 30
0.0
 11
-10.25492125984251
 21
1.119094488188976
 31
0.0
  0
LINE
  5
2CE2
330
1E
100
AcDbEntity
  8
7
100
AcDbLine
 10
-10.25492125984251
 20
1.119094488188976
 30
0.0
 11
-10.25492125984251
 21
1.129921259842519
 31
0.0
  0
LINE
  5
2CE3
330
1E
100
AcDbEntity
  8
7
100
AcDbLine
 10
-10.25492125984251
 20
1.129921259842519
 30
0.0
 11
-10.25590551181102
 21
1.134842519685039
 31
0.0
  0
LINE
  5
2CE4
330
1E
100
AcDbEntity
  8
7
100
AcDbLine
 10
-10.0501968503937
 20
1.099409448818897
 30
0.0
 11
-10.0501968503937
 21
1.119094488188976
 31
0.0
  0
LINE
  5
2CE5
330
1E
100
AcDbEntity
  8
7
100
AcDbLine
 10
-10.0501968503937
 20
1.119094488188976
 30
0.0
 11
-10.25492125984251
 21
1.119094488188976
 31
0.0
  0
LINE
  5
2CE6
330
1E
100
AcDbEntity
  8
7
100
AcDbLine
 10
-10.04921259842519
 20
1.071850393700787
 30
0.0
 11
-10.04921259842519
 21
1.084645669291338
 31
0.0
  0
LINE
  5
2CE7
330
1E
100
AcDbEntity
  8
7
100
AcDbLine
 10
-10.04921259842519
 20
1.084645669291338
 30
0.0
 11
-10.0501968503937
 21
1.099409448818897
 31
0.0
  0
LINE
  5
2CE8
330
1E
100
AcDbEntity
  8
7
100
AcDbLine
 10
-10.0501968503937
 20
1.099409448818897
 30
0.0
 11
-10.25492125984251
 21
1.099409448818897
 31
0.0
  0
LINE
  5
2CE9
330
1E
100
AcDbEntity
  8
7
100
AcDbLine
 10
-10.25492125984251
 20
1.071850393700787
 30
0.0
 11
-10.25492125984251
 21
1.084645669291338
 31
0.0
  0
LINE
  5
2CEA
330
1E
100
AcDbEntity
  8
7
100
AcDbLine
 10
-10.25492125984251
 20
1.084645669291338
 30
0.0
 11
-10.25492125984251
 21
1.099409448818897
 31
0.0
  0
LINE
  5
2CEB
330
1E
100
AcDbEntity
  8
7
100
AcDbLine
 10
-10.04921259842519
 20
1.071850393700787
 30
0.0
 11
-10.25492125984251
 21
1.071850393700787
 31
0.0
  0
LINE
  5
2CEC
330
1E
100
AcDbEntity
  8
7
100
AcDbLine
 10
-10.25492125984251
 20
1.071850393700787
 30
0.0
 11
-10.25492125984251
 21
1.068897637795275
 31
0.0
  0
LINE
  5
2CED
330
1E
100
AcDbEntity
  8
7
100
AcDbLine
 10
-10.04921259842519
 20
1.037401574803149
 30
0.0
 11
-10.25492125984251
 21
1.037401574803149
 31
0.0
  0
LINE
  5
2CEE
330
1E
100
AcDbEntity
  8
7
100
AcDbLine
 10
-10.25492125984251
 20
1.037401574803149
 30
0.0
 11
-10.25492125984251
 21
1.068897637795275
 31
0.0
  0
LINE
  5
2CEF
330
1E
100
AcDbEntity
  8
7
100
AcDbLine
 10
-10.29724409448818
 20
0.4498031496062991
 30
0.0
 11
-10.29724409448818
 21
0.4468503937007871
 31
0.0
  0
LINE
  5
2CF0
330
1E
100
AcDbEntity
  8
7
100
AcDbLine
 10
-10.29724409448818
 20
0.4468503937007871
 30
0.0
 11
-10.29724409448818
 21
0.4399606299212602
 31
0.0
  0
LINE
  5
2CF1
330
1E
100
AcDbEntity
  8
7
100
AcDbLine
 10
-10.00688976377952
 20
0.4498031496062991
 30
0.0
 11
-10.00688976377952
 21
0.4468503937007871
 31
0.0
  0
LINE
  5
2CF2
330
1E
100
AcDbEntity
  8
7
100
AcDbLine
 10
-10.00688976377952
 20
0.4468503937007871
 30
0.0
 11
-10.00688976377952
 21
0.4399606299212602
 31
0.0
  0
LINE
  5
2CF3
330
1E
100
AcDbEntity
  8
7
100
AcDbLine
 10
-10.61712598425196
 20
0.5964566929133861
 30
0.0
 11
-10.61712598425196
 21
0.9035433070866139
 31
0.0
  0
LINE
  5
2CF4
330
1E
100
AcDbEntity
  8
7
100
AcDbLine
 10
-10.61712598425196
 20
0.9035433070866139
 30
0.0
 11
-10.63976377952756
 21
0.9035433070866139
 31
0.0
  0
LINE
  5
2CF5
330
1E
100
AcDbEntity
  8
7
100
AcDbLine
 10
-9.102362204724409
 20
1.202755905511811
 30
0.0
 11
-9.140748031496062
 21
1.202755905511811
 31
0.0
  0
LINE
  5
2CF6
330
1E
100
AcDbEntity
  8
7
100
AcDbLine
 10
-9.140748031496062
 20
1.202755905511811
 30
0.0
 11
-9.140748031496062
 21
1.308070866141732
 31
0.0
  0
LINE
  5
2CF7
330
1E
100
AcDbEntity
  8
7
100
AcDbLine
 10
-9.102362204724409
 20
0.2982283464566926
 30
0.0
 11
-9.085629921259842
 21
0.2736220472440944
 31
0.0
  0
LINE
  5
2CF8
330
1E
100
AcDbEntity
  8
7
100
AcDbLine
 10
-9.085629921259842
 20
0.2736220472440944
 30
0.0
 11
-9.059055118110237
 21
0.2598425196850398
 31
0.0
  0
LINE
  5
2CF9
330
1E
100
AcDbEntity
  8
7
100
AcDbLine
 10
-10.56692913385826
 20
0.2982283464566926
 30
0.0
 11
-10.52854330708661
 21
0.2982283464566926
 31
0.0
  0
LINE
  5
2CFA
330
1E
100
AcDbEntity
  8
7
100
AcDbLine
 10
-10.52854330708661
 20
0.2982283464566926
 30
0.0
 11
-10.52854330708661
 21
0.1919291338582676
 31
0.0
  0
LINE
  5
2CFB
330
1E
100
AcDbEntity
  8
7
100
AcDbLine
 10
-10.61122047244094
 20
0.2598425196850398
 30
0.0
 11
-10.58464566929133
 21
0.2736220472440944
 31
0.0
  0
LINE
  5
2CFC
330
1E
100
AcDbEntity
  8
7
100
AcDbLine
 10
-10.58464566929133
 20
0.2736220472440944
 30
0.0
 11
-10.56791338582677
 21
0.2982283464566926
 31
0.0
  0
LINE
  5
2CFD
330
1E
100
AcDbEntity
  8
7
100
AcDbLine
 10
-10.56692913385826
 20
1.200787401574802
 30
0.0
 11
-10.58366141732283
 21
1.226377952755905
 31
0.0
  0
LINE
  5
2CFE
330
1E
100
AcDbEntity
  8
7
100
AcDbLine
 10
-10.58366141732283
 20
1.226377952755905
 30
0.0
 11
-10.61023622047244
 21
1.241141732283464
 31
0.0
  0
LINE
  5
2CFF
330
1E
100
AcDbEntity
  8
7
100
AcDbLine
 10
-9.059055118110237
 20
1.241141732283464
 30
0.0
 11
-9.085629921259842
 21
1.227362204724409
 31
0.0
  0
LINE
  5
2D00
330
1E
100
AcDbEntity
  8
7
100
AcDbLine
 10
-9.085629921259842
 20
1.227362204724409
 30
0.0
 11
-9.102362204724409
 21
1.202755905511811
 31
0.0
  0
LINE
  5
2D01
330
1E
100
AcDbEntity
  8
7
100
AcDbLine
 10
-9.06003937007874
 20
1.241141732283464
 30
0.0
 11
-9.086614173228346
 21
1.226377952755905
 31
0.0
  0
LINE
  5
2D02
330
1E
100
AcDbEntity
  8
7
100
AcDbLine
 10
-9.086614173228346
 20
1.226377952755905
 30
0.0
 11
-9.103346456692914
 21
1.200787401574802
 31
0.0
  0
LINE
  5
2D03
330
1E
100
AcDbEntity
  8
7
100
AcDbLine
 10
-10.70570866141732
 20
1.649606299212598
 30
0.0
 11
-10.73031496062992
 21
1.642716535433071
 31
0.0
  0
LINE
  5
2D04
330
1E
100
AcDbEntity
  8
7
100
AcDbLine
 10
-10.73031496062992
 20
1.642716535433071
 30
0.0
 11
-10.74901574803149
 21
1.625
 31
0.0
  0
LINE
  5
2D05
330
1E
100
AcDbEntity
  8
7
100
AcDbLine
 10
-10.74901574803149
 20
1.625
 30
0.0
 11
-10.75590551181102
 21
1.599409448818897
 31
0.0
  0
LINE
  5
2D06
330
1E
100
AcDbEntity
  8
7
100
AcDbLine
 10
-10.75590551181102
 20
1.599409448818897
 30
0.0
 11
-10.74803149606299
 21
1.599409448818897
 31
0.0
  0
LINE
  5
2D07
330
1E
100
AcDbEntity
  8
7
100
AcDbLine
 10
-10.74803149606299
 20
1.599409448818897
 30
0.0
 11
-10.73031496062992
 21
1.599409448818897
 31
0.0
  0
LINE
  5
2D08
330
1E
100
AcDbEntity
  8
7
100
AcDbLine
 10
-10.73031496062992
 20
1.599409448818897
 30
0.0
 11
-10.70570866141732
 21
1.599409448818897
 31
0.0
  0
LINE
  5
2D09
330
1E
100
AcDbEntity
  8
7
100
AcDbLine
 10
-10.75590551181102
 20
1.003937007874015
 30
0.0
 11
-10.74803149606299
 21
1.003937007874015
 31
0.0
  0
LINE
  5
2D0A
330
1E
100
AcDbEntity
  8
7
100
AcDbLine
 10
-10.74803149606299
 20
1.003937007874015
 30
0.0
 11
-10.73031496062992
 21
1.003937007874015
 31
0.0
  0
LINE
  5
2D0B
330
1E
100
AcDbEntity
  8
7
100
AcDbLine
 10
-10.73031496062992
 20
1.003937007874015
 30
0.0
 11
-10.70570866141732
 21
1.003937007874015
 31
0.0
  0
LINE
  5
2D0C
330
1E
100
AcDbEntity
  8
7
100
AcDbLine
 10
-10.75492125984252
 20
0.965551181102362
 30
0.0
 11
-10.74803149606299
 21
0.971456692913386
 31
0.0
  0
LINE
  5
2D0D
330
1E
100
AcDbEntity
  8
7
100
AcDbLine
 10
-10.74803149606299
 20
0.971456692913386
 30
0.0
 11
-10.73031496062992
 21
0.9763779527559055
 31
0.0
  0
LINE
  5
2D0E
330
1E
100
AcDbEntity
  8
7
100
AcDbLine
 10
-10.73031496062992
 20
0.9763779527559055
 30
0.0
 11
-10.70570866141732
 21
0.9783464566929129
 31
0.0
  0
LINE
  5
2D0F
330
1E
100
AcDbEntity
  8
7
100
AcDbLine
 10
-10.74409448818897
 20
0.1496062992125982
 30
0.0
 11
-10.7263779527559
 21
0.1545275590551185
 31
0.0
  0
LINE
  5
2D10
330
1E
100
AcDbEntity
  8
7
100
AcDbLine
 10
-10.7263779527559
 20
0.1545275590551185
 30
0.0
 11
-10.7017716535433
 21
0.1564960629921259
 31
0.0
  0
LINE
  5
2D11
330
1E
100
AcDbEntity
  8
7
100
AcDbLine
 10
-10.751968503937
 20
0.0826771653543306
 30
0.0
 11
-10.74507874015748
 21
0.0590551181102361
 31
0.0
  0
LINE
  5
2D12
330
1E
100
AcDbEntity
  8
7
100
AcDbLine
 10
-10.74507874015748
 20
0.0590551181102361
 30
0.0
 11
-10.7273622047244
 21
0.0413385826771657
 31
0.0
  0
LINE
  5
2D13
330
1E
100
AcDbEntity
  8
7
100
AcDbLine
 10
-10.7273622047244
 20
0.0413385826771657
 30
0.0
 11
-10.7017716535433
 21
0.0354330708661417
 31
0.0
  0
LINE
  5
2D14
330
1E
100
AcDbEntity
  8
7
100
AcDbLine
 10
-10.75492125984252
 20
-0.0472440944881889
 30
0.0
 11
-10.74803149606299
 21
-0.0600393700787398
 31
0.0
  0
LINE
  5
2D15
330
1E
100
AcDbEntity
  8
7
100
AcDbLine
 10
-10.74803149606299
 20
-0.0600393700787398
 30
0.0
 11
-10.72933070866141
 21
-0.0688976377952759
 31
0.0
  0
LINE
  5
2D16
330
1E
100
AcDbEntity
  8
7
100
AcDbLine
 10
-10.72933070866141
 20
-0.0688976377952759
 30
0.0
 11
-10.70472440944881
 21
-0.0728346456692917
 31
0.0
  0
LINE
  5
2D17
330
1E
100
AcDbEntity
  8
7
100
AcDbLine
 10
-10.75590551181102
 20
-0.0708661417322834
 30
0.0
 11
-10.74901574803149
 21
-0.0964566929133861
 31
0.0
  0
LINE
  5
2D18
330
1E
100
AcDbEntity
  8
7
100
AcDbLine
 10
-10.74901574803149
 20
-0.0964566929133861
 30
0.0
 11
-10.73031496062992
 21
-0.1141732283464565
 31
0.0
  0
LINE
  5
2D19
330
1E
100
AcDbEntity
  8
7
100
AcDbLine
 10
-10.73031496062992
 20
-0.1141732283464565
 30
0.0
 11
-10.70570866141732
 21
-0.1210629921259843
 31
0.0
  0
LINE
  5
2D1A
330
1E
100
AcDbEntity
  8
7
100
AcDbLine
 10
-10.75590551181102
 20
1.600393700787401
 30
0.0
 11
-10.751968503937
 21
1.619094488188975
 31
0.0
  0
LINE
  5
2D1B
330
1E
100
AcDbEntity
  8
7
100
AcDbLine
 10
-10.751968503937
 20
1.619094488188975
 30
0.0
 11
-10.74114173228346
 21
1.635826771653543
 31
0.0
  0
LINE
  5
2D1C
330
1E
100
AcDbEntity
  8
7
100
AcDbLine
 10
-10.74114173228346
 20
1.635826771653543
 30
0.0
 11
-10.7253937007874
 21
1.646653543307087
 31
0.0
  0
LINE
  5
2D1D
330
1E
100
AcDbEntity
  8
7
100
AcDbLine
 10
-10.7253937007874
 20
1.646653543307087
 30
0.0
 11
-10.70570866141732
 21
1.650590551181102
 31
0.0
  0
LINE
  5
2D1E
330
1E
100
AcDbEntity
  8
7
100
AcDbLine
 10
-10.70570866141732
 20
-0.1210629921259843
 30
0.0
 11
-10.7253937007874
 21
-0.1181102362204722
 31
0.0
  0
LINE
  5
2D1F
330
1E
100
AcDbEntity
  8
7
100
AcDbLine
 10
-10.7253937007874
 20
-0.1181102362204722
 30
0.0
 11
-10.74114173228346
 21
-0.1072834645669287
 31
0.0
  0
LINE
  5
2D20
330
1E
100
AcDbEntity
  8
7
100
AcDbLine
 10
-10.74114173228346
 20
-0.1072834645669287
 30
0.0
 11
-10.751968503937
 21
-0.0905511811023621
 31
0.0
  0
LINE
  5
2D21
330
1E
100
AcDbEntity
  8
7
100
AcDbLine
 10
-10.751968503937
 20
-0.0905511811023621
 30
0.0
 11
-10.75590551181102
 21
-0.0718503937007871
 31
0.0
  0
LINE
  5
2D22
330
1E
100
AcDbEntity
  8
7
100
AcDbLine
 10
-9.035433070866142
 20
1.649606299212598
 30
0.0
 11
-9.00984251968504
 21
1.642716535433071
 31
0.0
  0
LINE
  5
2D23
330
1E
100
AcDbEntity
  8
7
100
AcDbLine
 10
-9.00984251968504
 20
1.642716535433071
 30
0.0
 11
-8.992125984251968
 21
1.625
 31
0.0
  0
LINE
  5
2D24
330
1E
100
AcDbEntity
  8
7
100
AcDbLine
 10
-9.035433070866142
 20
1.599409448818897
 30
0.0
 11
-9.00984251968504
 21
1.599409448818897
 31
0.0
  0
LINE
  5
2D25
330
1E
100
AcDbEntity
  8
7
100
AcDbLine
 10
-9.00984251968504
 20
1.599409448818897
 30
0.0
 11
-8.992125984251968
 21
1.599409448818897
 31
0.0
  0
LINE
  5
2D26
330
1E
100
AcDbEntity
  8
7
100
AcDbLine
 10
-8.992125984251968
 20
1.599409448818897
 30
0.0
 11
-8.98523622047244
 21
1.599409448818897
 31
0.0
  0
LINE
  5
2D27
330
1E
100
AcDbEntity
  8
7
100
AcDbLine
 10
-9.035433070866142
 20
1.003937007874015
 30
0.0
 11
-9.00984251968504
 21
1.003937007874015
 31
0.0
  0
LINE
  5
2D28
330
1E
100
AcDbEntity
  8
7
100
AcDbLine
 10
-9.00984251968504
 20
1.003937007874015
 30
0.0
 11
-8.992125984251968
 21
1.003937007874015
 31
0.0
  0
LINE
  5
2D29
330
1E
100
AcDbEntity
  8
7
100
AcDbLine
 10
-8.992125984251968
 20
1.003937007874015
 30
0.0
 11
-8.98523622047244
 21
1.003937007874015
 31
0.0
  0
LINE
  5
2D2A
330
1E
100
AcDbEntity
  8
7
100
AcDbLine
 10
-9.035433070866142
 20
0.9783464566929129
 30
0.0
 11
-9.00984251968504
 21
0.9763779527559055
 31
0.0
  0
LINE
  5
2D2B
330
1E
100
AcDbEntity
  8
7
100
AcDbLine
 10
-9.00984251968504
 20
0.9763779527559055
 30
0.0
 11
-8.992125984251968
 21
0.971456692913386
 31
0.0
  0
LINE
  5
2D2C
330
1E
100
AcDbEntity
  8
7
100
AcDbLine
 10
-8.992125984251968
 20
0.971456692913386
 30
0.0
 11
-8.98523622047244
 21
0.965551181102362
 31
0.0
  0
LINE
  5
2D2D
330
1E
100
AcDbEntity
  8
7
100
AcDbLine
 10
-9.039370078740157
 20
0.1564960629921259
 30
0.0
 11
-9.013779527559055
 21
0.1545275590551185
 31
0.0
  0
LINE
  5
2D2E
330
1E
100
AcDbEntity
  8
7
100
AcDbLine
 10
-9.013779527559055
 20
0.1545275590551185
 30
0.0
 11
-8.996062992125985
 21
0.1496062992125982
 31
0.0
  0
LINE
  5
2D2F
330
1E
100
AcDbEntity
  8
7
100
AcDbLine
 10
-8.996062992125985
 20
0.1496062992125982
 30
0.0
 11
-8.989173228346457
 21
0.1427165354330713
 31
0.0
  0
LINE
  5
2D30
330
1E
100
AcDbEntity
  8
7
100
AcDbLine
 10
-9.038385826771653
 20
0.0354330708661417
 30
0.0
 11
-9.013779527559055
 21
0.0413385826771657
 31
0.0
  0
LINE
  5
2D31
330
1E
100
AcDbEntity
  8
7
100
AcDbLine
 10
-9.013779527559055
 20
0.0413385826771657
 30
0.0
 11
-8.995078740157481
 21
0.0590551181102361
 31
0.0
  0
LINE
  5
2D32
330
1E
100
AcDbEntity
  8
7
100
AcDbLine
 10
-8.995078740157481
 20
0.0590551181102361
 30
0.0
 11
-8.988188976377953
 21
0.0826771653543306
 31
0.0
  0
LINE
  5
2D33
330
1E
100
AcDbEntity
  8
7
100
AcDbLine
 10
-9.035433070866142
 20
-0.0728346456692917
 30
0.0
 11
-9.010826771653544
 21
-0.0688976377952759
 31
0.0
  0
LINE
  5
2D34
330
1E
100
AcDbEntity
  8
7
100
AcDbLine
 10
-9.010826771653544
 20
-0.0688976377952759
 30
0.0
 11
-8.992125984251968
 21
-0.0600393700787398
 31
0.0
  0
LINE
  5
2D35
330
1E
100
AcDbEntity
  8
7
100
AcDbLine
 10
-8.992125984251968
 20
-0.0600393700787398
 30
0.0
 11
-8.98523622047244
 21
-0.0472440944881889
 31
0.0
  0
LINE
  5
2D36
330
1E
100
AcDbEntity
  8
7
100
AcDbLine
 10
-9.034448818897638
 20
-0.1210629921259843
 30
0.0
 11
-9.00984251968504
 21
-0.1141732283464565
 31
0.0
  0
LINE
  5
2D37
330
1E
100
AcDbEntity
  8
7
100
AcDbLine
 10
-9.00984251968504
 20
-0.1141732283464565
 30
0.0
 11
-8.991141732283464
 21
-0.0964566929133861
 31
0.0
  0
LINE
  5
2D38
330
1E
100
AcDbEntity
  8
7
100
AcDbLine
 10
-9.034448818897638
 20
1.650590551181102
 30
0.0
 11
-9.014763779527559
 21
1.646653543307087
 31
0.0
  0
LINE
  5
2D39
330
1E
100
AcDbEntity
  8
7
100
AcDbLine
 10
-9.014763779527559
 20
1.646653543307087
 30
0.0
 11
-8.999015748031496
 21
1.635826771653543
 31
0.0
  0
LINE
  5
2D3A
330
1E
100
AcDbEntity
  8
7
100
AcDbLine
 10
-8.999015748031496
 20
1.635826771653543
 30
0.0
 11
-8.988188976377953
 21
1.619094488188975
 31
0.0
  0
LINE
  5
2D3B
330
1E
100
AcDbEntity
  8
7
100
AcDbLine
 10
-8.988188976377953
 20
1.619094488188975
 30
0.0
 11
-8.984251968503937
 21
1.600393700787401
 31
0.0
  0
LINE
  5
2D3C
330
1E
100
AcDbEntity
  8
7
100
AcDbLine
 10
-8.984251968503937
 20
-0.0718503937007871
 30
0.0
 11
-8.988188976377953
 21
-0.0905511811023621
 31
0.0
  0
LINE
  5
2D3D
330
1E
100
AcDbEntity
  8
7
100
AcDbLine
 10
-8.988188976377953
 20
-0.0905511811023621
 30
0.0
 11
-8.999015748031496
 21
-0.1072834645669287
 31
0.0
  0
LINE
  5
2D3E
330
1E
100
AcDbEntity
  8
7
100
AcDbLine
 10
-8.999015748031496
 20
-0.1072834645669287
 30
0.0
 11
-9.014763779527559
 21
-0.1181102362204722
 31
0.0
  0
LINE
  5
2D3F
330
1E
100
AcDbEntity
  8
7
100
AcDbLine
 10
-9.014763779527559
 20
-0.1181102362204722
 30
0.0
 11
-9.034448818897638
 21
-0.1210629921259843
 31
0.0
  0
LINE
  5
2D40
330
1E
100
AcDbEntity
  8
7
100
AcDbLine
 10
-9.035433070866142
 20
1.599409448818897
 30
0.0
 11
-9.035433070866142
 21
1.624015748031496
 31
0.0
  0
LINE
  5
2D41
330
1E
100
AcDbEntity
  8
7
100
AcDbLine
 10
-9.035433070866142
 20
1.624015748031496
 30
0.0
 11
-9.035433070866142
 21
1.642716535433071
 31
0.0
  0
LINE
  5
2D42
330
1E
100
AcDbEntity
  8
7
100
AcDbLine
 10
-9.035433070866142
 20
1.642716535433071
 30
0.0
 11
-9.035433070866142
 21
1.649606299212598
 31
0.0
  0
LINE
  5
2D43
330
1E
100
AcDbEntity
  8
7
100
AcDbLine
 10
-10.70570866141732
 20
1.649606299212598
 30
0.0
 11
-10.70570866141732
 21
1.642716535433071
 31
0.0
  0
LINE
  5
2D44
330
1E
100
AcDbEntity
  8
7
100
AcDbLine
 10
-10.70570866141732
 20
1.642716535433071
 30
0.0
 11
-10.70570866141732
 21
1.624015748031496
 31
0.0
  0
LINE
  5
2D45
330
1E
100
AcDbEntity
  8
7
100
AcDbLine
 10
-10.70570866141732
 20
1.624015748031496
 30
0.0
 11
-10.70570866141732
 21
1.599409448818897
 31
0.0
  0
LINE
  5
2D46
330
1E
100
AcDbEntity
  8
7
100
AcDbLine
 10
-9.034448818897638
 20
-0.1210629921259843
 30
0.0
 11
-9.035433070866142
 21
-0.1171259842519685
 31
0.0
  0
LINE
  5
2D47
330
1E
100
AcDbEntity
  8
7
100
AcDbLine
 10
-9.035433070866142
 20
-0.1171259842519685
 30
0.0
 11
-9.035433070866142
 21
-0.1082677165354333
 31
0.0
  0
LINE
  5
2D48
330
1E
100
AcDbEntity
  8
7
100
AcDbLine
 10
-9.035433070866142
 20
-0.1082677165354333
 30
0.0
 11
-9.035433070866142
 21
-0.0925196850393704
 31
0.0
  0
LINE
  5
2D49
330
1E
100
AcDbEntity
  8
7
100
AcDbLine
 10
-9.035433070866142
 20
-0.0925196850393704
 30
0.0
 11
-9.035433070866142
 21
-0.0728346456692917
 31
0.0
  0
LINE
  5
2D4A
330
1E
100
AcDbEntity
  8
7
100
AcDbLine
 10
-10.70472440944881
 20
-0.0728346456692917
 30
0.0
 11
-10.70472440944881
 21
-0.0925196850393704
 31
0.0
  0
LINE
  5
2D4B
330
1E
100
AcDbEntity
  8
7
100
AcDbLine
 10
-10.70472440944881
 20
-0.0925196850393704
 30
0.0
 11
-10.70570866141732
 21
-0.1082677165354333
 31
0.0
  0
LINE
  5
2D4C
330
1E
100
AcDbEntity
  8
7
100
AcDbLine
 10
-10.70570866141732
 20
-0.1082677165354333
 30
0.0
 11
-10.70570866141732
 21
-0.1171259842519685
 31
0.0
  0
LINE
  5
2D4D
330
1E
100
AcDbEntity
  8
7
100
AcDbLine
 10
-10.70570866141732
 20
-0.1171259842519685
 30
0.0
 11
-10.70570866141732
 21
-0.1210629921259843
 31
0.0
  0
LINE
  5
2D4E
330
1E
100
AcDbEntity
  8
7
100
AcDbLine
 10
-9.038385826771653
 20
0.0492125984251972
 30
0.0
 11
-9.038385826771653
 21
0.0698818897637796
 31
0.0
  0
LINE
  5
2D4F
330
1E
100
AcDbEntity
  8
7
100
AcDbLine
 10
-9.038385826771653
 20
0.0698818897637796
 30
0.0
 11
-9.038385826771653
 21
0.0964566929133861
 31
0.0
  0
LINE
  5
2D50
330
1E
100
AcDbEntity
  8
7
100
AcDbLine
 10
-9.038385826771653
 20
0.0964566929133861
 30
0.0
 11
-9.039370078740157
 21
0.1259842519685037
 31
0.0
  0
LINE
  5
2D51
330
1E
100
AcDbEntity
  8
7
100
AcDbLine
 10
-9.039370078740157
 20
0.1259842519685037
 30
0.0
 11
-9.039370078740157
 21
0.1564960629921259
 31
0.0
  0
LINE
  5
2D52
330
1E
100
AcDbEntity
  8
7
100
AcDbLine
 10
-10.7017716535433
 20
0.1564960629921259
 30
0.0
 11
-10.7017716535433
 21
0.1259842519685037
 31
0.0
  0
LINE
  5
2D53
330
1E
100
AcDbEntity
  8
7
100
AcDbLine
 10
-10.7017716535433
 20
0.1259842519685037
 30
0.0
 11
-10.7017716535433
 21
0.0964566929133861
 31
0.0
  0
LINE
  5
2D54
330
1E
100
AcDbEntity
  8
7
100
AcDbLine
 10
-10.7017716535433
 20
0.0964566929133861
 30
0.0
 11
-10.7017716535433
 21
0.0698818897637796
 31
0.0
  0
LINE
  5
2D55
330
1E
100
AcDbEntity
  8
7
100
AcDbLine
 10
-10.7017716535433
 20
0.0698818897637796
 30
0.0
 11
-10.7017716535433
 21
0.0492125984251972
 31
0.0
  0
LINE
  5
2D56
330
1E
100
AcDbEntity
  8
7
100
AcDbLine
 10
-10.7017716535433
 20
0.0492125984251972
 30
0.0
 11
-10.7017716535433
 21
0.0354330708661417
 31
0.0
  0
LINE
  5
2D57
330
1E
100
AcDbEntity
  8
7
100
AcDbLine
 10
-10.70472440944881
 20
-0.03740157480315
 30
0.0
 11
-10.70472440944881
 21
-0.0728346456692917
 31
0.0
  0
LINE
  5
2D58
330
1E
100
AcDbEntity
  8
7
100
AcDbLine
 10
-10.70472440944881
 20
-0.0728346456692917
 30
0.0
 11
-9.035433070866142
 21
-0.0728346456692917
 31
0.0
  0
LINE
  5
2D59
330
1E
100
AcDbEntity
  8
7
100
AcDbLine
 10
-9.035433070866142
 20
-0.0728346456692917
 30
0.0
 11
-9.036417322834646
 21
-0.03740157480315
 31
0.0
  0
LINE
  5
2D5A
330
1E
100
AcDbEntity
  8
7
100
AcDbLine
 10
-9.036417322834646
 20
-0.03740157480315
 30
0.0
 11
-9.036417322834646
 21
-0.0068897637795278
 31
0.0
  0
LINE
  5
2D5B
330
1E
100
AcDbEntity
  8
7
100
AcDbLine
 10
-9.036417322834646
 20
-0.0068897637795278
 30
0.0
 11
-9.037401574803149
 21
0.0177165354330713
 31
0.0
  0
LINE
  5
2D5C
330
1E
100
AcDbEntity
  8
7
100
AcDbLine
 10
-9.037401574803149
 20
0.0177165354330713
 30
0.0
 11
-9.038385826771653
 21
0.0354330708661417
 31
0.0
  0
LINE
  5
2D5D
330
1E
100
AcDbEntity
  8
7
100
AcDbLine
 10
-9.038385826771653
 20
0.0354330708661417
 30
0.0
 11
-10.7017716535433
 21
0.0354330708661417
 31
0.0
  0
LINE
  5
2D5E
330
1E
100
AcDbEntity
  8
7
100
AcDbLine
 10
-10.7017716535433
 20
0.0354330708661417
 30
0.0
 11
-10.70275590551181
 21
0.0177165354330713
 31
0.0
  0
LINE
  5
2D5F
330
1E
100
AcDbEntity
  8
7
100
AcDbLine
 10
-10.70275590551181
 20
0.0177165354330713
 30
0.0
 11
-10.70374015748031
 21
-0.0068897637795278
 31
0.0
  0
LINE
  5
2D60
330
1E
100
AcDbEntity
  8
7
100
AcDbLine
 10
-10.70374015748031
 20
-0.0068897637795278
 30
0.0
 11
-10.70472440944881
 21
-0.03740157480315
 31
0.0
  0
LINE
  5
2D61
330
1E
100
AcDbEntity
  8
7
100
AcDbLine
 10
-9.083661417322835
 20
0.6653543307086612
 30
0.0
 11
-9.054133858267716
 21
0.6653543307086612
 31
0.0
  0
LINE
  5
2D62
330
1E
100
AcDbEntity
  8
7
100
AcDbLine
 10
-9.054133858267716
 20
0.6653543307086612
 30
0.0
 11
-9.054133858267716
 21
0.8110236220472444
 31
0.0
  0
LINE
  5
2D63
330
1E
100
AcDbEntity
  8
7
100
AcDbLine
 10
-9.054133858267716
 20
0.8110236220472444
 30
0.0
 11
-9.083661417322835
 21
0.8110236220472444
 31
0.0
  0
LINE
  5
2D64
330
1E
100
AcDbEntity
  8
7
100
AcDbLine
 10
-10.65649606299212
 20
0.6653543307086612
 30
0.0
 11
-10.65649606299212
 21
0.8110236220472444
 31
0.0
  0
LINE
  5
2D65
330
1E
100
AcDbEntity
  8
7
100
AcDbLine
 10
-10.65649606299212
 20
0.8110236220472444
 30
0.0
 11
-10.68602362204724
 21
0.8110236220472444
 31
0.0
  0
LINE
  5
2D66
330
1E
100
AcDbEntity
  8
7
100
AcDbLine
 10
-10.68602362204724
 20
0.8110236220472444
 30
0.0
 11
-10.68602362204724
 21
0.6653543307086612
 31
0.0
  0
LINE
  5
2D67
330
1E
100
AcDbEntity
  8
7
100
AcDbLine
 10
-10.68602362204724
 20
0.6653543307086612
 30
0.0
 11
-10.65649606299212
 21
0.6653543307086612
 31
0.0
  0
LINE
  5
2D68
330
1E
100
AcDbEntity
  8
7
100
AcDbLine
 10
-9.083661417322835
 20
0.9783464566929129
 30
0.0
 11
-9.083661417322835
 21
0.9911417322834648
 31
0.0
  0
LINE
  5
2D69
330
1E
100
AcDbEntity
  8
7
100
AcDbLine
 10
-9.083661417322835
 20
0.9911417322834648
 30
0.0
 11
-9.083661417322835
 21
1.003937007874015
 31
0.0
  0
LINE
  5
2D6A
330
1E
100
AcDbEntity
  8
7
100
AcDbLine
 10
-10.65649606299212
 20
1.003937007874015
 30
0.0
 11
-10.65649606299212
 21
0.9911417322834648
 31
0.0
  0
LINE
  5
2D6B
330
1E
100
AcDbEntity
  8
7
100
AcDbLine
 10
-10.65649606299212
 20
0.9911417322834648
 30
0.0
 11
-10.65649606299212
 21
0.9783464566929129
 31
0.0
  0
LINE
  5
2D6C
330
1E
100
AcDbEntity
  8
7
100
AcDbLine
 10
-9.083661417322835
 20
0.1564960629921259
 30
0.0
 11
-9.039370078740157
 21
0.1564960629921259
 31
0.0
  0
LINE
  5
2D6D
330
1E
100
AcDbEntity
  8
7
100
AcDbLine
 10
-9.039370078740157
 20
0.1564960629921259
 30
0.0
 11
-9.035433070866142
 21
0.9783464566929129
 31
0.0
  0
LINE
  5
2D6E
330
1E
100
AcDbEntity
  8
7
100
AcDbLine
 10
-9.035433070866142
 20
0.9783464566929129
 30
0.0
 11
-9.083661417322835
 21
0.9783464566929129
 31
0.0
  0
LINE
  5
2D6F
330
1E
100
AcDbEntity
  8
7
100
AcDbLine
 10
-8.988188976377953
 20
0.0915354330708658
 30
0.0
 11
-8.988188976377953
 21
0.0826771653543306
 31
0.0
  0
LINE
  5
2D70
330
1E
100
AcDbEntity
  8
7
100
AcDbLine
 10
-8.988188976377953
 20
0.0826771653543306
 30
0.0
 11
-8.987204724409448
 21
0.0620078740157482
 31
0.0
  0
LINE
  5
2D71
330
1E
100
AcDbEntity
  8
7
100
AcDbLine
 10
-8.987204724409448
 20
0.0620078740157482
 30
0.0
 11
-8.986220472440944
 21
0.0324803149606297
 31
0.0
  0
LINE
  5
2D72
330
1E
100
AcDbEntity
  8
7
100
AcDbLine
 10
-8.986220472440944
 20
0.0324803149606297
 30
0.0
 11
-8.986220472440944
 21
-0.0039370078740157
 31
0.0
  0
LINE
  5
2D73
330
1E
100
AcDbEntity
  8
7
100
AcDbLine
 10
-8.986220472440944
 20
-0.0039370078740157
 30
0.0
 11
-8.98523622047244
 21
-0.0472440944881889
 31
0.0
  0
LINE
  5
2D74
330
1E
100
AcDbEntity
  8
7
100
AcDbLine
 10
-8.984251968503937
 20
0.3897637795275592
 30
0.0
 11
-8.984251968503937
 21
1.600393700787401
 31
0.0
  0
LINE
  5
2D75
330
1E
100
AcDbEntity
  8
7
100
AcDbLine
 10
-8.984251968503937
 20
1.600393700787401
 30
0.0
 11
-8.98523622047244
 21
1.599409448818897
 31
0.0
  0
LINE
  5
2D76
330
1E
100
AcDbEntity
  8
7
100
AcDbLine
 10
-8.98523622047244
 20
1.599409448818897
 30
0.0
 11
-8.98523622047244
 21
1.003937007874015
 31
0.0
  0
LINE
  5
2D77
330
1E
100
AcDbEntity
  8
7
100
AcDbLine
 10
-8.98523622047244
 20
1.003937007874015
 30
0.0
 11
-8.98523622047244
 21
0.965551181102362
 31
0.0
  0
LINE
  5
2D78
330
1E
100
AcDbEntity
  8
7
100
AcDbLine
 10
-8.98523622047244
 20
0.965551181102362
 30
0.0
 11
-8.989173228346457
 21
0.1427165354330713
 31
0.0
  0
LINE
  5
2D79
330
1E
100
AcDbEntity
  8
7
100
AcDbLine
 10
-8.989173228346457
 20
0.1427165354330713
 30
0.0
 11
-8.989173228346457
 21
0.1240157480314963
 31
0.0
  0
LINE
  5
2D7A
330
1E
100
AcDbEntity
  8
7
100
AcDbLine
 10
-8.989173228346457
 20
0.1240157480314963
 30
0.0
 11
-8.989173228346457
 21
0.106299212598425
 31
0.0
  0
LINE
  5
2D7B
330
1E
100
AcDbEntity
  8
7
100
AcDbLine
 10
-8.989173228346457
 20
0.106299212598425
 30
0.0
 11
-8.988188976377953
 21
0.0915354330708658
 31
0.0
  0
LINE
  5
2D7C
330
1E
100
AcDbEntity
  8
7
100
AcDbLine
 10
-8.98523622047244
 20
-0.0679133858267713
 30
0.0
 11
-8.98523622047244
 21
-0.0708661417322834
 31
0.0
  0
LINE
  5
2D7D
330
1E
100
AcDbEntity
  8
7
100
AcDbLine
 10
-8.98523622047244
 20
-0.0708661417322834
 30
0.0
 11
-8.984251968503937
 21
-0.0718503937007871
 31
0.0
  0
LINE
  5
2D7E
330
1E
100
AcDbEntity
  8
7
100
AcDbLine
 10
-8.984251968503937
 20
-0.0718503937007871
 30
0.0
 11
-8.984251968503937
 21
0.3031496062992129
 31
0.0
  0
LINE
  5
2D7F
330
1E
100
AcDbEntity
  8
7
100
AcDbLine
 10
-8.98523622047244
 20
-0.0472440944881889
 30
0.0
 11
-8.98523622047244
 21
-0.0600393700787398
 31
0.0
  0
LINE
  5
2D80
330
1E
100
AcDbEntity
  8
7
100
AcDbLine
 10
-8.98523622047244
 20
-0.0600393700787398
 30
0.0
 11
-8.98523622047244
 21
-0.0679133858267713
 31
0.0
  0
LINE
  5
2D81
330
1E
100
AcDbEntity
  8
7
100
AcDbLine
 10
-10.70570866141732
 20
1.650590551181102
 30
0.0
 11
-10.70570866141732
 21
1.649606299212598
 31
0.0
  0
LINE
  5
2D82
330
1E
100
AcDbEntity
  8
7
100
AcDbLine
 10
-10.70570866141732
 20
1.649606299212598
 30
0.0
 11
-9.035433070866142
 21
1.649606299212598
 31
0.0
  0
LINE
  5
2D83
330
1E
100
AcDbEntity
  8
7
100
AcDbLine
 10
-9.035433070866142
 20
1.649606299212598
 30
0.0
 11
-9.034448818897638
 21
1.650590551181102
 31
0.0
  0
LINE
  5
2D84
330
1E
100
AcDbEntity
  8
7
100
AcDbLine
 10
-9.034448818897638
 20
1.650590551181102
 30
0.0
 11
-9.409448818897638
 21
1.650590551181102
 31
0.0
  0
LINE
  5
2D85
330
1E
100
AcDbEntity
  8
7
100
AcDbLine
 10
-10.75590551181102
 20
0.3031496062992129
 30
0.0
 11
-10.75590551181102
 21
-0.0718503937007871
 31
0.0
  0
LINE
  5
2D86
330
1E
100
AcDbEntity
  8
7
100
AcDbLine
 10
-10.75590551181102
 20
-0.0718503937007871
 30
0.0
 11
-10.75590551181102
 21
-0.0708661417322834
 31
0.0
  0
LINE
  5
2D87
330
1E
100
AcDbEntity
  8
7
100
AcDbLine
 10
-10.75590551181102
 20
-0.0708661417322834
 30
0.0
 11
-10.75492125984252
 21
-0.0679133858267713
 31
0.0
  0
LINE
  5
2D88
330
1E
100
AcDbEntity
  8
7
100
AcDbLine
 10
-10.75492125984252
 20
-0.0679133858267713
 30
0.0
 11
-10.75492125984252
 21
-0.0600393700787398
 31
0.0
  0
LINE
  5
2D89
330
1E
100
AcDbEntity
  8
7
100
AcDbLine
 10
-10.75492125984252
 20
-0.0600393700787398
 30
0.0
 11
-10.75492125984252
 21
-0.0472440944881889
 31
0.0
  0
LINE
  5
2D8A
330
1E
100
AcDbEntity
  8
7
100
AcDbLine
 10
-10.75492125984252
 20
-0.0472440944881889
 30
0.0
 11
-10.75393700787401
 21
-0.0039370078740157
 31
0.0
  0
LINE
  5
2D8B
330
1E
100
AcDbEntity
  8
7
100
AcDbLine
 10
-10.75393700787401
 20
-0.0039370078740157
 30
0.0
 11
-10.75393700787401
 21
0.0324803149606297
 31
0.0
  0
LINE
  5
2D8C
330
1E
100
AcDbEntity
  8
7
100
AcDbLine
 10
-10.75393700787401
 20
0.0324803149606297
 30
0.0
 11
-10.75295275590551
 21
0.0620078740157482
 31
0.0
  0
LINE
  5
2D8D
330
1E
100
AcDbEntity
  8
7
100
AcDbLine
 10
-10.75295275590551
 20
0.0620078740157482
 30
0.0
 11
-10.751968503937
 21
0.0826771653543306
 31
0.0
  0
LINE
  5
2D8E
330
1E
100
AcDbEntity
  8
7
100
AcDbLine
 10
-10.751968503937
 20
0.0826771653543306
 30
0.0
 11
-10.751968503937
 21
0.0915354330708658
 31
0.0
  0
LINE
  5
2D8F
330
1E
100
AcDbEntity
  8
7
100
AcDbLine
 10
-10.751968503937
 20
0.0915354330708658
 30
0.0
 11
-10.751968503937
 21
0.106299212598425
 31
0.0
  0
LINE
  5
2D90
330
1E
100
AcDbEntity
  8
7
100
AcDbLine
 10
-10.751968503937
 20
0.106299212598425
 30
0.0
 11
-10.751968503937
 21
0.1240157480314963
 31
0.0
  0
LINE
  5
2D91
330
1E
100
AcDbEntity
  8
7
100
AcDbLine
 10
-10.751968503937
 20
0.1240157480314963
 30
0.0
 11
-10.751968503937
 21
0.1427165354330713
 31
0.0
  0
LINE
  5
2D92
330
1E
100
AcDbEntity
  8
7
100
AcDbLine
 10
-10.751968503937
 20
0.1427165354330713
 30
0.0
 11
-10.75492125984252
 21
0.965551181102362
 31
0.0
  0
LINE
  5
2D93
330
1E
100
AcDbEntity
  8
7
100
AcDbLine
 10
-10.75492125984252
 20
0.965551181102362
 30
0.0
 11
-10.75590551181102
 21
1.003937007874015
 31
0.0
  0
LINE
  5
2D94
330
1E
100
AcDbEntity
  8
7
100
AcDbLine
 10
-10.75590551181102
 20
1.003937007874015
 30
0.0
 11
-10.75590551181102
 21
1.599409448818897
 31
0.0
  0
LINE
  5
2D95
330
1E
100
AcDbEntity
  8
7
100
AcDbLine
 10
-10.75590551181102
 20
1.599409448818897
 30
0.0
 11
-10.75590551181102
 21
1.600393700787401
 31
0.0
  0
LINE
  5
2D96
330
1E
100
AcDbEntity
  8
7
100
AcDbLine
 10
-10.75590551181102
 20
1.600393700787401
 30
0.0
 11
-10.75590551181102
 21
0.3897637795275592
 31
0.0
  0
LINE
  5
2D97
330
1E
100
AcDbEntity
  8
7
100
AcDbLine
 10
-9.083661417322835
 20
1.003937007874015
 30
0.0
 11
-9.035433070866142
 21
1.003937007874015
 31
0.0
  0
LINE
  5
2D98
330
1E
100
AcDbEntity
  8
7
100
AcDbLine
 10
-9.035433070866142
 20
1.003937007874015
 30
0.0
 11
-9.035433070866142
 21
1.599409448818897
 31
0.0
  0
LINE
  5
2D99
330
1E
100
AcDbEntity
  8
7
100
AcDbLine
 10
-9.035433070866142
 20
1.599409448818897
 30
0.0
 11
-10.70570866141732
 21
1.599409448818897
 31
0.0
  0
LINE
  5
2D9A
330
1E
100
AcDbEntity
  8
7
100
AcDbLine
 10
-10.70570866141732
 20
1.599409448818897
 30
0.0
 11
-10.70570866141732
 21
1.003937007874015
 31
0.0
  0
LINE
  5
2D9B
330
1E
100
AcDbEntity
  8
7
100
AcDbLine
 10
-10.70570866141732
 20
1.003937007874015
 30
0.0
 11
-10.65649606299212
 21
1.003937007874015
 31
0.0
  0
LINE
  5
2D9C
330
1E
100
AcDbEntity
  8
7
100
AcDbLine
 10
-10.63779527559055
 20
0.8366141732283463
 30
0.0
 11
-10.63779527559055
 21
0.4753937007874019
 31
0.0
  0
LINE
  5
2D9D
330
1E
100
AcDbEntity
  8
7
100
AcDbLine
 10
-10.63779527559055
 20
0.4753937007874019
 30
0.0
 11
-10.61515748031496
 21
0.4753937007874019
 31
0.0
  0
LINE
  5
2D9E
330
1E
100
AcDbEntity
  8
7
100
AcDbLine
 10
-10.65649606299212
 20
0.1564960629921259
 30
0.0
 11
-10.65649606299212
 21
0.146653543307087
 31
0.0
  0
LINE
  5
2D9F
330
1E
100
AcDbEntity
  8
7
100
AcDbLine
 10
-10.65649606299212
 20
0.146653543307087
 30
0.0
 11
-10.65649606299212
 21
0.1368110236220472
 31
0.0
  0
LINE
  5
2DA0
330
1E
100
AcDbEntity
  8
7
100
AcDbLine
 10
-9.083661417322835
 20
0.1368110236220472
 30
0.0
 11
-9.083661417322835
 21
0.146653543307087
 31
0.0
  0
LINE
  5
2DA1
330
1E
100
AcDbEntity
  8
7
100
AcDbLine
 10
-9.083661417322835
 20
0.146653543307087
 30
0.0
 11
-9.083661417322835
 21
0.1564960629921259
 31
0.0
  0
LINE
  5
2DA2
330
1E
100
AcDbEntity
  8
7
100
AcDbLine
 10
-9.083661417322835
 20
0.1564960629921259
 30
0.0
 11
-9.083661417322835
 21
0.66240157480315
 31
0.0
  0
LINE
  5
2DA3
330
1E
100
AcDbEntity
  8
7
100
AcDbLine
 10
-9.083661417322835
 20
0.66240157480315
 30
0.0
 11
-9.083661417322835
 21
0.6653543307086612
 31
0.0
  0
LINE
  5
2DA4
330
1E
100
AcDbEntity
  8
7
100
AcDbLine
 10
-10.70570866141732
 20
0.9783464566929129
 30
0.0
 11
-10.7017716535433
 21
0.1564960629921259
 31
0.0
  0
LINE
  5
2DA5
330
1E
100
AcDbEntity
  8
7
100
AcDbLine
 10
-10.7017716535433
 20
0.1564960629921259
 30
0.0
 11
-10.65649606299212
 21
0.1564960629921259
 31
0.0
  0
ENDSEC
  0
SECTION
  2
OBJECTS
  0
DICTIONARY
  5
C
330
0
100
AcDbDictionary
  3
ACAD_GROUP
350
D
  3
ACAD_MLINESTYLE
350
16
  3
ACAD_PLOTSETTINGS
350
18
  3
ACAD_LAYOUT
350
19
1001
ACAD
1000
TREAT_AS_HARD
1070
     0
  0
DICTIONARY
  5
3C03
330
1E
100
AcDbDictionary
  3
ACAD_LAYOUTSELFREF
350
3C04
  0
DICTIONARY
  5
3C01
330
1A
100
AcDbDictionary
  3
ACAD_LAYOUTSELFREF
350
3C02
  0
DICTIONARY
  5
D
102
{ACAD_REACTORS
330
C
102
}
330
C
100
AcDbDictionary
1001
ACAD
1000
TREAT_AS_HARD
1070
     0
  0
DICTIONARY
  5
16
102
{ACAD_REACTORS
330
C
102
}
330
C
100
AcDbDictionary
  3
STANDARD
350
17
1001
ACAD
1000
TREAT_AS_HARD
1070
     0
  0
DICTIONARY
  5
18
102
{ACAD_REACTORS
330
C
102
}
330
C
100
AcDbDictionary
1001
ACAD
1000
TREAT_AS_HARD
1070
     0
  0
DICTIONARY
  5
19
102
{ACAD_REACTORS
330
C
102
}
330
C
100
AcDbDictionary
1001
ACAD
1000
TREAT_AS_HARD
1070
     0
  0
XRECORD
  5
3C04
102
{ACAD_REACTORS
330
3C03
102
}
330
3C03
100
AcDbXrecord
340
1E
  0
XRECORD
  5
3C02
102
{ACAD_REACTORS
330
3C01
102
}
330
3C01
100
AcDbXrecord
340
1A
  0
MLINESTYLE
  5
17
102
{ACAD_REACTORS
330
16
102
}
330
16
100
AcDbMlineStyle
  2
STANDARD
 70
     0
  3

 62
   256
 51
90.0
 52
90.0
 71
     2
 49
0.5
 62
   256
  6
BYLAYER
 49
-0.5
 62
   256
  6
BYLAYER
  0
ENDSEC
  0
EOF
