  0
SECTION
  2
HEADER
  9
$ACADVER
  1
AC1015
  9
$ACADMAINTVER
 70
     6
  9
$DWGCODEPAGE
  3
ANSI_1252
  9
$INSBASE
 10
0.0
 20
0.0
 30
0.0
  9
$EXTMIN
 10
-3.955444312602566
 20
-1.884429912879632
 30
-0.0015258207003583
  9
$EXTMAX
 10
-0.0882568220704059
 20
-0.1266174213106481
 30
0.0000000349246037
  9
$LIMMIN
 10
0.0
 20
0.0
  9
$LIMMAX
 10
12.0
 20
9.0
  9
$ORTHOMODE
 70
     0
  9
$REGENMODE
 70
     1
  9
$FILLMODE
 70
     1
  9
$QTEXTMODE
 70
     0
  9
$MIRRTEXT
 70
     1
  9
$LTSCALE
 40
1.0
  9
$ATTMODE
 70
     1
  9
$TEXTSIZE
 40
0.2
  9
$TRACEWID
 40
0.05
  9
$TEXTSTYLE
  7
STANDARD
  9
$CLAYER
  8
0
  9
$CELTYPE
  6
ByLayer
  9
$CECOLOR
 62
   256
  9
$CELTSCALE
 40
1.0
  9
$DISPSILH
 70
     0
  9
$DIMSCALE
 40
1.0
  9
$DIMASZ
 40
0.18
  9
$DIMEXO
 40
0.0625
  9
$DIMDLI
 40
0.38
  9
$DIMRND
 40
0.0
  9
$DIMDLE
 40
0.0
  9
$DIMEXE
 40
0.18
  9
$DIMTP
 40
0.0
  9
$DIMTM
 40
0.0
  9
$DIMTXT
 40
0.18
  9
$DIMCEN
 40
0.09
  9
$DIMTSZ
 40
0.0
  9
$DIMTOL
 70
     0
  9
$DIMLIM
 70
     0
  9
$DIMTIH
 70
     1
  9
$DIMTOH
 70
     1
  9
$DIMSE1
 70
     0
  9
$DIMSE2
 70
     0
  9
$DIMTAD
 70
     0
  9
$DIMZIN
 70
     0
  9
$DIMBLK
  1

  9
$DIMASO
 70
     1
  9
$DIMSHO
 70
     1
  9
$DIMPOST
  1

  9
$DIMAPOST
  1

  9
$DIMALT
 70
     0
  9
$DIMALTD
 70
     2
  9
$DIMALTF
 40
25.4
  9
$DIMLFAC
 40
1.0
  9
$DIMTOFL
 70
     0
  9
$DIMTVP
 40
0.0
  9
$DIMTIX
 70
     0
  9
$DIMSOXD
 70
     0
  9
$DIMSAH
 70
     0
  9
$DIMBLK1
  1

  9
$DIMBLK2
  1

  9
$DIMSTYLE
  2
Standard
  9
$DIMCLRD
 70
     0
  9
$DIMCLRE
 70
     0
  9
$DIMCLRT
 70
     0
  9
$DIMTFAC
 40
1.0
  9
$DIMGAP
 40
0.09
  9
$DIMJUST
 70
     0
  9
$DIMSD1
 70
     0
  9
$DIMSD2
 70
     0
  9
$DIMTOLJ
 70
     1
  9
$DIMTZIN
 70
     0
  9
$DIMALTZ
 70
     0
  9
$DIMALTTZ
 70
     0
  9
$DIMUPT
 70
     0
  9
$DIMDEC
 70
     4
  9
$DIMTDEC
 70
     4
  9
$DIMALTU
 70
     2
  9
$DIMALTTD
 70
     2
  9
$DIMTXSTY
  7
STANDARD
  9
$DIMAUNIT
 70
     0
  9
$DIMADEC
 70
     0
  9
$DIMALTRND
 40
0.0
  9
$DIMAZIN
 70
     0
  9
$DIMDSEP
 70
    46
  9
$DIMATFIT
 70
     3
  9
$DIMFRAC
 70
     0
  9
$DIMLDRBLK
  1

  9
$DIMLUNIT
 70
     2
  9
$DIMLWD
 70
    -2
  9
$DIMLWE
 70
    -2
  9
$DIMTMOVE
 70
     2
  9
$LUNITS
 70
     2
  9
$LUPREC
 70
     4
  9
$SKETCHINC
 40
0.1
  9
$FILLETRAD
 40
0.0
  9
$AUNITS
 70
     0
  9
$AUPREC
 70
     0
  9
$MENU
  1
acad
  9
$ELEVATION
 40
0.0
  9
$PELEVATION
 40
0.0
  9
$THICKNESS
 40
0.0
  9
$LIMCHECK
 70
     0
  9
$CHAMFERA
 40
0.0
  9
$CHAMFERB
 40
0.0
  9
$CHAMFERC
 40
0.0
  9
$CHAMFERD
 40
0.0
  9
$SKPOLY
 70
     0
  9
$TDCREATE
 40
2452496.757025463
  9
$TDUCREATE
 40
2452496.965358796
  9
$TDUPDATE
 40
2452499.425964965
  9
$TDUUPDATE
 40
2452499.634298298
  9
$TDINDWG
 40
0.0002009259
  9
$TDUSRTIMER
 40
0.0002009259
  9
$USRTIMER
 70
     1
  9
$ANGBASE
 50
0.0
  9
$ANGDIR
 70
     0
  9
$PDMODE
 70
     0
  9
$PDSIZE
 40
0.0
  9
$PLINEWID
 40
0.0
  9
$SPLFRAME
 70
     0
  9
$SPLINETYPE
 70
     6
  9
$SPLINESEGS
 70
     8
  9
$HANDSEED
  5
38F
  9
$SURFTAB1
 70
     6
  9
$SURFTAB2
 70
     6
  9
$SURFTYPE
 70
     6
  9
$SURFU
 70
     6
  9
$SURFV
 70
     6
  9
$UCSBASE
  2

  9
$UCSNAME
  2

  9
$UCSORG
 10
0.0
 20
0.0
 30
0.0
  9
$UCSXDIR
 10
1.0
 20
0.0
 30
0.0
  9
$UCSYDIR
 10
0.0
 20
1.0
 30
0.0
  9
$UCSORTHOREF
  2

  9
$UCSORTHOVIEW
 70
     0
  9
$UCSORGTOP
 10
0.0
 20
0.0
 30
0.0
  9
$UCSORGBOTTOM
 10
0.0
 20
0.0
 30
0.0
  9
$UCSORGLEFT
 10
0.0
 20
0.0
 30
0.0
  9
$UCSORGRIGHT
 10
0.0
 20
0.0
 30
0.0
  9
$UCSORGFRONT
 10
0.0
 20
0.0
 30
0.0
  9
$UCSORGBACK
 10
0.0
 20
0.0
 30
0.0
  9
$PUCSBASE
  2

  9
$PUCSNAME
  2

  9
$PUCSORG
 10
0.0
 20
0.0
 30
0.0
  9
$PUCSXDIR
 10
1.0
 20
0.0
 30
0.0
  9
$PUCSYDIR
 10
0.0
 20
1.0
 30
0.0
  9
$PUCSORTHOREF
  2

  9
$PUCSORTHOVIEW
 70
     0
  9
$PUCSORGTOP
 10
0.0
 20
0.0
 30
0.0
  9
$PUCSORGBOTTOM
 10
0.0
 20
0.0
 30
0.0
  9
$PUCSORGLEFT
 10
0.0
 20
0.0
 30
0.0
  9
$PUCSORGRIGHT
 10
0.0
 20
0.0
 30
0.0
  9
$PUCSORGFRONT
 10
0.0
 20
0.0
 30
0.0
  9
$PUCSORGBACK
 10
0.0
 20
0.0
 30
0.0
  9
$USERI1
 70
     0
  9
$USERI2
 70
     0
  9
$USERI3
 70
     0
  9
$USERI4
 70
     0
  9
$USERI5
 70
     0
  9
$USERR1
 40
0.0
  9
$USERR2
 40
0.0
  9
$USERR3
 40
0.0
  9
$USERR4
 40
0.0
  9
$USERR5
 40
0.0
  9
$WORLDVIEW
 70
     1
  9
$SHADEDGE
 70
     3
  9
$SHADEDIF
 70
    70
  9
$TILEMODE
 70
     1
  9
$MAXACTVP
 70
    16
  9
$PINSBASE
 10
0.0
 20
0.0
 30
0.0
  9
$PLIMCHECK
 70
     0
  9
$PEXTMIN
 10
1.000000000000000E+20
 20
1.000000000000000E+20
 30
1.000000000000000E+20
  9
$PEXTMAX
 10
-1.000000000000000E+20
 20
-1.000000000000000E+20
 30
-1.000000000000000E+20
  9
$PLIMMIN
 10
0.0
 20
0.0
  9
$PLIMMAX
 10
12.0
 20
9.0
  9
$UNITMODE
 70
     0
  9
$VISRETAIN
 70
     0
  9
$PLINEGEN
 70
     0
  9
$PSLTSCALE
 70
     1
  9
$TREEDEPTH
 70
  3020
  9
$CMLSTYLE
  2
Standard
  9
$CMLJUST
 70
     0
  9
$CMLSCALE
 40
1.0
  9
$PROXYGRAPHICS
 70
     1
  9
$MEASUREMENT
 70
     0
  9
$CELWEIGHT
370
    -1
  9
$ENDCAPS
280
     0
  9
$JOINSTYLE
280
     0
  9
$LWDISPLAY
290
     0
  9
$INSUNITS
 70
     0
  9
$HYPERLINKBASE
  1

  9
$STYLESHEET
  1

  9
$XEDIT
290
     1
  9
$CEPSNTYPE
380
     0
  9
$PSTYLEMODE
290
     1
  9
$FINGERPRINTGUID
  2
{00CCA33A-AE06-11D6-A1BF-00B0D0A1FBDD}
  9
$VERSIONGUID
  2
{00CCA33C-AE06-11D6-A1BF-00B0D0A1FBDD}
  9
$EXTNAMES
290
     1
  9
$PSVPSCALE
 40
0.0
  9
$OLESTARTUP
290
     0
  0
ENDSEC
  0
SECTION
  2
CLASSES
  0
CLASS
  1
ACDBDICTIONARYWDFLT
  2
AcDbDictionaryWithDefault
  3
AutoCAD 2000
 90
        0
280
     0
281
     0
  0
CLASS
  1
ACDBPLACEHOLDER
  2
AcDbPlaceHolder
  3
AutoCAD 2000
 90
        0
280
     0
281
     0
  0
CLASS
  1
LAYOUT
  2
AcDbLayout
  3
AutoCAD 2000
 90
        0
280
     0
281
     0
  0
ENDSEC
  0
SECTION
  2
TABLES
  0
TABLE
  2
VPORT
  5
8
330
0
100
AcDbSymbolTable
 70
     3
  0
VPORT
  5
38E
330
8
100
AcDbSymbolTableRecord
100
AcDbViewportTableRecord
  2
*Active
 70
     0
 10
0.0
 20
0.0
 11
1.0
 21
1.0
 12
-2.021850567336485
 22
-1.00552366709514
 13
0.0
 23
0.0
 14
1.0
 24
1.0
 15
0.0
 25
0.0
 16
0.0
 26
0.0
 36
1.0
 17
0.0
 27
0.0
 37
0.0
 40
2.593096346640388
 41
1.498756218905472
 42
50.0
 43
0.0
 44
0.0
 50
0.0
 51
0.0
 71
     0
 72
   100
 73
     1
 74
     1
 75
     0
 76
     0
 77
     0
 78
     0
281
     0
 65
     1
110
0.0
120
0.0
130
0.0
111
1.0
121
0.0
131
0.0
112
0.0
122
1.0
132
0.0
 79
     0
146
0.0
  0
ENDTAB
  0
TABLE
  2
LTYPE
  5
5
330
0
100
AcDbSymbolTable
 70
    25
  0
LTYPE
  5
13
330
5
100
AcDbSymbolTableRecord
100
AcDbLinetypeTableRecord
  2
ByBlock
 70
     0
  3

 72
    65
 73
     0
 40
0.0
  0
LTYPE
  5
14
330
5
100
AcDbSymbolTableRecord
100
AcDbLinetypeTableRecord
  2
ByLayer
 70
     0
  3

 72
    65
 73
     0
 40
0.0
  0
LTYPE
  5
15
330
5
100
AcDbSymbolTableRecord
100
AcDbLinetypeTableRecord
  2
CONTINUOUS
 70
     0
  3
Solid line
 72
    65
 73
     0
 40
0.0
  0
LTYPE
  5
22
330
5
100
AcDbSymbolTableRecord
100
AcDbLinetypeTableRecord
  2
BORDER
 70
     0
  3
__ __ . __ __ . __ __ . __ __ . __ __ . __ __ .
 72
    65
 73
     6
 40
1.75
 49
0.5
 74
     0
 49
-0.25
 74
     0
 49
0.5
 74
     0
 49
-0.25
 74
     0
 49
0.5
 74
     0
 49
-0.25
 74
     0
  0
LTYPE
  5
23
330
5
100
AcDbSymbolTableRecord
100
AcDbLinetypeTableRecord
  2
BORDER2
 70
     0
  3
__.__.__.__.__.__.__.__.__.__.__.__.__.__.__.__
 72
    65
 73
     6
 40
0.875
 49
0.25
 74
     0
 49
-0.125
 74
     0
 49
0.25
 74
     0
 49
-0.125
 74
     0
 49
0.25
 74
     0
 49
-0.125
 74
     0
  0
LTYPE
  5
24
330
5
100
AcDbSymbolTableRecord
100
AcDbLinetypeTableRecord
  2
BORDERX2
 70
     0
  3
____  ____  .  ____  ____  .  
 72
    65
 73
     6
 40
3.5
 49
1.0
 74
     0
 49
-0.5
 74
     0
 49
1.0
 74
     0
 49
-0.5
 74
     0
 49
1.0
 74
     0
 49
-0.5
 74
     0
  0
LTYPE
  5
25
330
5
100
AcDbSymbolTableRecord
100
AcDbLinetypeTableRecord
  2
CENTER
 70
     0
  3
____ _ ____ _ ____ _ ____ _ ____ _ ____ _ ____
 72
    65
 73
     4
 40
2.0
 49
1.25
 74
     0
 49
-0.25
 74
     0
 49
0.25
 74
     0
 49
-0.25
 74
     0
  0
LTYPE
  5
26
330
5
100
AcDbSymbolTableRecord
100
AcDbLinetypeTableRecord
  2
CENTER2
 70
     0
  3
____ _ ____ _ ____ _ ____ _ ____ _ ____ _ ____
 72
    65
 73
     4
 40
1.125
 49
0.75
 74
     0
 49
-0.125
 74
     0
 49
0.125
 74
     0
 49
-0.125
 74
     0
  0
LTYPE
  5
27
330
5
100
AcDbSymbolTableRecord
100
AcDbLinetypeTableRecord
  2
CENTERX2
 70
     0
  3
________  __  ________  __  ________  __  
 72
    65
 73
     4
 40
4.0
 49
2.5
 74
     0
 49
-0.5
 74
     0
 49
0.5
 74
     0
 49
-0.5
 74
     0
  0
LTYPE
  5
28
330
5
100
AcDbSymbolTableRecord
100
AcDbLinetypeTableRecord
  2
DASHDOT
 70
     0
  3
__ . __ . __ . __ . __ . __ . __ . 
 72
    65
 73
     4
 40
1.0
 49
0.5
 74
     0
 49
-0.25
 74
     0
 49
0.0
 74
     0
 49
-0.25
 74
     0
  0
LTYPE
  5
29
330
5
100
AcDbSymbolTableRecord
100
AcDbLinetypeTableRecord
  2
DASHDOT2
 70
     0
  3
_._._._._._._._._._._._._._._._.
 72
    65
 73
     4
 40
0.5
 49
0.25
 74
     0
 49
-0.125
 74
     0
 49
0.0
 74
     0
 49
-0.125
 74
     0
  0
LTYPE
  5
2A
330
5
100
AcDbSymbolTableRecord
100
AcDbLinetypeTableRecord
  2
DASHDOTX2
 70
     0
  3
____  .  ____  .  ____  .  ____  .  
 72
    65
 73
     4
 40
2.0
 49
1.0
 74
     0
 49
-0.5
 74
     0
 49
0.0
 74
     0
 49
-0.5
 74
     0
  0
LTYPE
  5
2B
330
5
100
AcDbSymbolTableRecord
100
AcDbLinetypeTableRecord
  2
DASHED
 70
     0
  3
__ __ __ __ __ __ __ __ __ __ __ __ 
 72
    65
 73
     2
 40
0.75
 49
0.5
 74
     0
 49
-0.25
 74
     0
  0
LTYPE
  5
2C
330
5
100
AcDbSymbolTableRecord
100
AcDbLinetypeTableRecord
  2
DASHED2
 70
     0
  3
_ _ _ _ _ _ _ _ _ _ _ _ _ _ _ _ _ _ 
 72
    65
 73
     2
 40
0.375
 49
0.25
 74
     0
 49
-0.125
 74
     0
  0
LTYPE
  5
2D
330
5
100
AcDbSymbolTableRecord
100
AcDbLinetypeTableRecord
  2
DASHEDX2
 70
     0
  3
____  ____  ____  ____  ____  ____  
 72
    65
 73
     2
 40
1.5
 49
1.0
 74
     0
 49
-0.5
 74
     0
  0
LTYPE
  5
2E
330
5
100
AcDbSymbolTableRecord
100
AcDbLinetypeTableRecord
  2
DIVIDE
 70
     0
  3
____ . . ____ . . ____ . . ____ . . 
 72
    65
 73
     6
 40
1.25
 49
0.5
 74
     0
 49
-0.25
 74
     0
 49
0.0
 74
     0
 49
-0.25
 74
     0
 49
0.0
 74
     0
 49
-0.25
 74
     0
  0
LTYPE
  5
2F
330
5
100
AcDbSymbolTableRecord
100
AcDbLinetypeTableRecord
  2
DIVIDE2
 70
     0
  3
__..__..__..__..__..__..__..__..__..
 72
    65
 73
     6
 40
0.625
 49
0.25
 74
     0
 49
-0.125
 74
     0
 49
0.0
 74
     0
 49
-0.125
 74
     0
 49
0.0
 74
     0
 49
-0.125
 74
     0
  0
LTYPE
  5
30
330
5
100
AcDbSymbolTableRecord
100
AcDbLinetypeTableRecord
  2
DIVIDEX2
 70
     0
  3
________  .  .  ________  .  .  ________  .  . 
 72
    65
 73
     6
 40
2.5
 49
1.0
 74
     0
 49
-0.5
 74
     0
 49
0.0
 74
     0
 49
-0.5
 74
     0
 49
0.0
 74
     0
 49
-0.5
 74
     0
  0
LTYPE
  5
31
330
5
100
AcDbSymbolTableRecord
100
AcDbLinetypeTableRecord
  2
DOT
 70
     0
  3
. . . . . . . . . . . . . . . . . . 
 72
    65
 73
     2
 40
0.25
 49
0.0
 74
     0
 49
-0.25
 74
     0
  0
LTYPE
  5
32
330
5
100
AcDbSymbolTableRecord
100
AcDbLinetypeTableRecord
  2
DOT2
 70
     0
  3
....................................
 72
    65
 73
     2
 40
0.125
 49
0.0
 74
     0
 49
-0.125
 74
     0
  0
LTYPE
  5
33
330
5
100
AcDbSymbolTableRecord
100
AcDbLinetypeTableRecord
  2
DOTX2
 70
     0
  3
.  .  .  .  .  .  .  .  .  .  .  .  .  
 72
    65
 73
     2
 40
0.5
 49
0.0
 74
     0
 49
-0.5
 74
     0
  0
LTYPE
  5
34
330
5
100
AcDbSymbolTableRecord
100
AcDbLinetypeTableRecord
  2
HIDDEN
 70
     0
  3
__ __ __ __ __ __ __ __ __ __ __ __ 
 72
    65
 73
     2
 40
0.375
 49
0.25
 74
     0
 49
-0.125
 74
     0
  0
LTYPE
  5
35
330
5
100
AcDbSymbolTableRecord
100
AcDbLinetypeTableRecord
  2
HIDDEN2
 70
     0
  3
_ _ _ _ _ _ _ _ _ _ _ _ _ _ _ _ _ _ 
 72
    65
 73
     2
 40
0.1875
 49
0.125
 74
     0
 49
-0.0625
 74
     0
  0
LTYPE
  5
36
330
5
100
AcDbSymbolTableRecord
100
AcDbLinetypeTableRecord
  2
HIDDENX2
 70
     0
  3
____ ____ ____ ____ ____ ____ ____ 
 72
    65
 73
     2
 40
0.75
 49
0.5
 74
     0
 49
-0.25
 74
     0
  0
LTYPE
  5
37
330
5
100
AcDbSymbolTableRecord
100
AcDbLinetypeTableRecord
  2
PHANTOM
 70
     0
  3
______  __  __  ______  __  __  
 72
    65
 73
     6
 40
2.5
 49
1.25
 74
     0
 49
-0.25
 74
     0
 49
0.25
 74
     0
 49
-0.25
 74
     0
 49
0.25
 74
     0
 49
-0.25
 74
     0
  0
LTYPE
  5
38
330
5
100
AcDbSymbolTableRecord
100
AcDbLinetypeTableRecord
  2
PHANTOM2
 70
     0
  3
___ _ _ ___ _ _ ___ _ _ ___ _ _ 
 72
    65
 73
     6
 40
1.25
 49
0.625
 74
     0
 49
-0.125
 74
     0
 49
0.125
 74
     0
 49
-0.125
 74
     0
 49
0.125
 74
     0
 49
-0.125
 74
     0
  0
LTYPE
  5
39
330
5
100
AcDbSymbolTableRecord
100
AcDbLinetypeTableRecord
  2
PHANTOMX2
 70
     0
  3
___ _ _ ___ _ _ ___ _ _ ___ _ _ 
 72
    65
 73
     6
 40
5.0
 49
2.5
 74
     0
 49
-0.5
 74
     0
 49
0.5
 74
     0
 49
-0.5
 74
     0
 49
0.5
 74
     0
 49
-0.5
 74
     0
  0
ENDTAB
  0
TABLE
  2
LAYER
  5
2
330
0
100
AcDbSymbolTable
 70
   256
  0
LAYER
  5
10
330
2
100
AcDbSymbolTableRecord
100
AcDbLayerTableRecord
  2
0
 70
     0
 62
     7
  6
CONTINUOUS
370
    -3
390
F
  0
LAYER
  5
3A
330
2
100
AcDbSymbolTableRecord
100
AcDbLayerTableRecord
  2
1
 70
     0
 62
     1
  6
CONTINUOUS
370
    -3
390
F
  0
LAYER
  5
3B
330
2
100
AcDbSymbolTableRecord
100
AcDbLayerTableRecord
  2
2
 70
     0
 62
     2
  6
CONTINUOUS
370
    -3
390
F
  0
LAYER
  5
3C
330
2
100
AcDbSymbolTableRecord
100
AcDbLayerTableRecord
  2
3
 70
     0
 62
     3
  6
CONTINUOUS
370
    -3
390
F
  0
LAYER
  5
3D
330
2
100
AcDbSymbolTableRecord
100
AcDbLayerTableRecord
  2
4
 70
     0
 62
     4
  6
CONTINUOUS
370
    -3
390
F
  0
LAYER
  5
3E
330
2
100
AcDbSymbolTableRecord
100
AcDbLayerTableRecord
  2
5
 70
     0
 62
     5
  6
CONTINUOUS
370
    -3
390
F
  0
LAYER
  5
3F
330
2
100
AcDbSymbolTableRecord
100
AcDbLayerTableRecord
  2
6
 70
     0
 62
     6
  6
CONTINUOUS
370
    -3
390
F
  0
LAYER
  5
40
330
2
100
AcDbSymbolTableRecord
100
AcDbLayerTableRecord
  2
7
 70
     0
 62
     7
  6
CONTINUOUS
370
    -3
390
F
  0
LAYER
  5
41
330
2
100
AcDbSymbolTableRecord
100
AcDbLayerTableRecord
  2
8
 70
     0
 62
     8
  6
CONTINUOUS
370
    -3
390
F
  0
LAYER
  5
42
330
2
100
AcDbSymbolTableRecord
100
AcDbLayerTableRecord
  2
9
 70
     0
 62
     9
  6
CONTINUOUS
370
    -3
390
F
  0
LAYER
  5
43
330
2
100
AcDbSymbolTableRecord
100
AcDbLayerTableRecord
  2
10
 70
     0
 62
    10
  6
CONTINUOUS
370
    -3
390
F
  0
LAYER
  5
44
330
2
100
AcDbSymbolTableRecord
100
AcDbLayerTableRecord
  2
11
 70
     0
 62
    11
  6
CONTINUOUS
370
    -3
390
F
  0
LAYER
  5
45
330
2
100
AcDbSymbolTableRecord
100
AcDbLayerTableRecord
  2
12
 70
     0
 62
    12
  6
CONTINUOUS
370
    -3
390
F
  0
LAYER
  5
46
330
2
100
AcDbSymbolTableRecord
100
AcDbLayerTableRecord
  2
13
 70
     0
 62
    13
  6
CONTINUOUS
370
    -3
390
F
  0
LAYER
  5
47
330
2
100
AcDbSymbolTableRecord
100
AcDbLayerTableRecord
  2
14
 70
     0
 62
    14
  6
CONTINUOUS
370
    -3
390
F
  0
LAYER
  5
48
330
2
100
AcDbSymbolTableRecord
100
AcDbLayerTableRecord
  2
15
 70
     0
 62
    15
  6
CONTINUOUS
370
    -3
390
F
  0
LAYER
  5
49
330
2
100
AcDbSymbolTableRecord
100
AcDbLayerTableRecord
  2
16
 70
     0
 62
    16
  6
CONTINUOUS
370
    -3
390
F
  0
LAYER
  5
4A
330
2
100
AcDbSymbolTableRecord
100
AcDbLayerTableRecord
  2
17
 70
     0
 62
    17
  6
CONTINUOUS
370
    -3
390
F
  0
LAYER
  5
4B
330
2
100
AcDbSymbolTableRecord
100
AcDbLayerTableRecord
  2
18
 70
     0
 62
    18
  6
CONTINUOUS
370
    -3
390
F
  0
LAYER
  5
4C
330
2
100
AcDbSymbolTableRecord
100
AcDbLayerTableRecord
  2
19
 70
     0
 62
    19
  6
CONTINUOUS
370
    -3
390
F
  0
LAYER
  5
4D
330
2
100
AcDbSymbolTableRecord
100
AcDbLayerTableRecord
  2
20
 70
     0
 62
    20
  6
CONTINUOUS
370
    -3
390
F
  0
LAYER
  5
4E
330
2
100
AcDbSymbolTableRecord
100
AcDbLayerTableRecord
  2
21
 70
     0
 62
    21
  6
CONTINUOUS
370
    -3
390
F
  0
LAYER
  5
4F
330
2
100
AcDbSymbolTableRecord
100
AcDbLayerTableRecord
  2
22
 70
     0
 62
    22
  6
CONTINUOUS
370
    -3
390
F
  0
LAYER
  5
50
330
2
100
AcDbSymbolTableRecord
100
AcDbLayerTableRecord
  2
23
 70
     0
 62
    23
  6
CONTINUOUS
370
    -3
390
F
  0
LAYER
  5
51
330
2
100
AcDbSymbolTableRecord
100
AcDbLayerTableRecord
  2
24
 70
     0
 62
    24
  6
CONTINUOUS
370
    -3
390
F
  0
LAYER
  5
52
330
2
100
AcDbSymbolTableRecord
100
AcDbLayerTableRecord
  2
25
 70
     0
 62
    25
  6
CONTINUOUS
370
    -3
390
F
  0
LAYER
  5
53
330
2
100
AcDbSymbolTableRecord
100
AcDbLayerTableRecord
  2
26
 70
     0
 62
    26
  6
CONTINUOUS
370
    -3
390
F
  0
LAYER
  5
54
330
2
100
AcDbSymbolTableRecord
100
AcDbLayerTableRecord
  2
27
 70
     0
 62
    27
  6
CONTINUOUS
370
    -3
390
F
  0
LAYER
  5
55
330
2
100
AcDbSymbolTableRecord
100
AcDbLayerTableRecord
  2
28
 70
     0
 62
    28
  6
CONTINUOUS
370
    -3
390
F
  0
LAYER
  5
56
330
2
100
AcDbSymbolTableRecord
100
AcDbLayerTableRecord
  2
29
 70
     0
 62
    29
  6
CONTINUOUS
370
    -3
390
F
  0
LAYER
  5
57
330
2
100
AcDbSymbolTableRecord
100
AcDbLayerTableRecord
  2
30
 70
     0
 62
    30
  6
CONTINUOUS
370
    -3
390
F
  0
LAYER
  5
58
330
2
100
AcDbSymbolTableRecord
100
AcDbLayerTableRecord
  2
31
 70
     0
 62
    31
  6
CONTINUOUS
370
    -3
390
F
  0
LAYER
  5
59
330
2
100
AcDbSymbolTableRecord
100
AcDbLayerTableRecord
  2
32
 70
     0
 62
    32
  6
CONTINUOUS
370
    -3
390
F
  0
LAYER
  5
5A
330
2
100
AcDbSymbolTableRecord
100
AcDbLayerTableRecord
  2
33
 70
     0
 62
    33
  6
CONTINUOUS
370
    -3
390
F
  0
LAYER
  5
5B
330
2
100
AcDbSymbolTableRecord
100
AcDbLayerTableRecord
  2
34
 70
     0
 62
    34
  6
CONTINUOUS
370
    -3
390
F
  0
LAYER
  5
5C
330
2
100
AcDbSymbolTableRecord
100
AcDbLayerTableRecord
  2
35
 70
     0
 62
    35
  6
CONTINUOUS
370
    -3
390
F
  0
LAYER
  5
5D
330
2
100
AcDbSymbolTableRecord
100
AcDbLayerTableRecord
  2
36
 70
     0
 62
    36
  6
CONTINUOUS
370
    -3
390
F
  0
LAYER
  5
5E
330
2
100
AcDbSymbolTableRecord
100
AcDbLayerTableRecord
  2
37
 70
     0
 62
    37
  6
CONTINUOUS
370
    -3
390
F
  0
LAYER
  5
5F
330
2
100
AcDbSymbolTableRecord
100
AcDbLayerTableRecord
  2
38
 70
     0
 62
    38
  6
CONTINUOUS
370
    -3
390
F
  0
LAYER
  5
60
330
2
100
AcDbSymbolTableRecord
100
AcDbLayerTableRecord
  2
39
 70
     0
 62
    39
  6
CONTINUOUS
370
    -3
390
F
  0
LAYER
  5
61
330
2
100
AcDbSymbolTableRecord
100
AcDbLayerTableRecord
  2
40
 70
     0
 62
    40
  6
CONTINUOUS
370
    -3
390
F
  0
LAYER
  5
62
330
2
100
AcDbSymbolTableRecord
100
AcDbLayerTableRecord
  2
41
 70
     0
 62
    41
  6
CONTINUOUS
370
    -3
390
F
  0
LAYER
  5
63
330
2
100
AcDbSymbolTableRecord
100
AcDbLayerTableRecord
  2
42
 70
     0
 62
    42
  6
CONTINUOUS
370
    -3
390
F
  0
LAYER
  5
64
330
2
100
AcDbSymbolTableRecord
100
AcDbLayerTableRecord
  2
43
 70
     0
 62
    43
  6
CONTINUOUS
370
    -3
390
F
  0
LAYER
  5
65
330
2
100
AcDbSymbolTableRecord
100
AcDbLayerTableRecord
  2
44
 70
     0
 62
    44
  6
CONTINUOUS
370
    -3
390
F
  0
LAYER
  5
66
330
2
100
AcDbSymbolTableRecord
100
AcDbLayerTableRecord
  2
45
 70
     0
 62
    45
  6
CONTINUOUS
370
    -3
390
F
  0
LAYER
  5
67
330
2
100
AcDbSymbolTableRecord
100
AcDbLayerTableRecord
  2
46
 70
     0
 62
    46
  6
CONTINUOUS
370
    -3
390
F
  0
LAYER
  5
68
330
2
100
AcDbSymbolTableRecord
100
AcDbLayerTableRecord
  2
47
 70
     0
 62
    47
  6
CONTINUOUS
370
    -3
390
F
  0
LAYER
  5
69
330
2
100
AcDbSymbolTableRecord
100
AcDbLayerTableRecord
  2
48
 70
     0
 62
    48
  6
CONTINUOUS
370
    -3
390
F
  0
LAYER
  5
6A
330
2
100
AcDbSymbolTableRecord
100
AcDbLayerTableRecord
  2
49
 70
     0
 62
    49
  6
CONTINUOUS
370
    -3
390
F
  0
LAYER
  5
6B
330
2
100
AcDbSymbolTableRecord
100
AcDbLayerTableRecord
  2
50
 70
     0
 62
    50
  6
CONTINUOUS
370
    -3
390
F
  0
LAYER
  5
6C
330
2
100
AcDbSymbolTableRecord
100
AcDbLayerTableRecord
  2
51
 70
     0
 62
    51
  6
CONTINUOUS
370
    -3
390
F
  0
LAYER
  5
6D
330
2
100
AcDbSymbolTableRecord
100
AcDbLayerTableRecord
  2
52
 70
     0
 62
    52
  6
CONTINUOUS
370
    -3
390
F
  0
LAYER
  5
6E
330
2
100
AcDbSymbolTableRecord
100
AcDbLayerTableRecord
  2
53
 70
     0
 62
    53
  6
CONTINUOUS
370
    -3
390
F
  0
LAYER
  5
6F
330
2
100
AcDbSymbolTableRecord
100
AcDbLayerTableRecord
  2
54
 70
     0
 62
    54
  6
CONTINUOUS
370
    -3
390
F
  0
LAYER
  5
70
330
2
100
AcDbSymbolTableRecord
100
AcDbLayerTableRecord
  2
55
 70
     0
 62
    55
  6
CONTINUOUS
370
    -3
390
F
  0
LAYER
  5
71
330
2
100
AcDbSymbolTableRecord
100
AcDbLayerTableRecord
  2
56
 70
     0
 62
    56
  6
CONTINUOUS
370
    -3
390
F
  0
LAYER
  5
72
330
2
100
AcDbSymbolTableRecord
100
AcDbLayerTableRecord
  2
57
 70
     0
 62
    57
  6
CONTINUOUS
370
    -3
390
F
  0
LAYER
  5
73
330
2
100
AcDbSymbolTableRecord
100
AcDbLayerTableRecord
  2
58
 70
     0
 62
    58
  6
CONTINUOUS
370
    -3
390
F
  0
LAYER
  5
74
330
2
100
AcDbSymbolTableRecord
100
AcDbLayerTableRecord
  2
59
 70
     0
 62
    59
  6
CONTINUOUS
370
    -3
390
F
  0
LAYER
  5
75
330
2
100
AcDbSymbolTableRecord
100
AcDbLayerTableRecord
  2
60
 70
     0
 62
    60
  6
CONTINUOUS
370
    -3
390
F
  0
LAYER
  5
76
330
2
100
AcDbSymbolTableRecord
100
AcDbLayerTableRecord
  2
61
 70
     0
 62
    61
  6
CONTINUOUS
370
    -3
390
F
  0
LAYER
  5
77
330
2
100
AcDbSymbolTableRecord
100
AcDbLayerTableRecord
  2
62
 70
     0
 62
    62
  6
CONTINUOUS
370
    -3
390
F
  0
LAYER
  5
78
330
2
100
AcDbSymbolTableRecord
100
AcDbLayerTableRecord
  2
63
 70
     0
 62
    63
  6
CONTINUOUS
370
    -3
390
F
  0
LAYER
  5
79
330
2
100
AcDbSymbolTableRecord
100
AcDbLayerTableRecord
  2
64
 70
     0
 62
    64
  6
CONTINUOUS
370
    -3
390
F
  0
LAYER
  5
7A
330
2
100
AcDbSymbolTableRecord
100
AcDbLayerTableRecord
  2
65
 70
     0
 62
    65
  6
CONTINUOUS
370
    -3
390
F
  0
LAYER
  5
7B
330
2
100
AcDbSymbolTableRecord
100
AcDbLayerTableRecord
  2
66
 70
     0
 62
    66
  6
CONTINUOUS
370
    -3
390
F
  0
LAYER
  5
7C
330
2
100
AcDbSymbolTableRecord
100
AcDbLayerTableRecord
  2
67
 70
     0
 62
    67
  6
CONTINUOUS
370
    -3
390
F
  0
LAYER
  5
7D
330
2
100
AcDbSymbolTableRecord
100
AcDbLayerTableRecord
  2
68
 70
     0
 62
    68
  6
CONTINUOUS
370
    -3
390
F
  0
LAYER
  5
7E
330
2
100
AcDbSymbolTableRecord
100
AcDbLayerTableRecord
  2
69
 70
     0
 62
    69
  6
CONTINUOUS
370
    -3
390
F
  0
LAYER
  5
7F
330
2
100
AcDbSymbolTableRecord
100
AcDbLayerTableRecord
  2
70
 70
     0
 62
    70
  6
CONTINUOUS
370
    -3
390
F
  0
LAYER
  5
80
330
2
100
AcDbSymbolTableRecord
100
AcDbLayerTableRecord
  2
71
 70
     0
 62
    71
  6
CONTINUOUS
370
    -3
390
F
  0
LAYER
  5
81
330
2
100
AcDbSymbolTableRecord
100
AcDbLayerTableRecord
  2
72
 70
     0
 62
    72
  6
CONTINUOUS
370
    -3
390
F
  0
LAYER
  5
82
330
2
100
AcDbSymbolTableRecord
100
AcDbLayerTableRecord
  2
73
 70
     0
 62
    73
  6
CONTINUOUS
370
    -3
390
F
  0
LAYER
  5
83
330
2
100
AcDbSymbolTableRecord
100
AcDbLayerTableRecord
  2
74
 70
     0
 62
    74
  6
CONTINUOUS
370
    -3
390
F
  0
LAYER
  5
84
330
2
100
AcDbSymbolTableRecord
100
AcDbLayerTableRecord
  2
75
 70
     0
 62
    75
  6
CONTINUOUS
370
    -3
390
F
  0
LAYER
  5
85
330
2
100
AcDbSymbolTableRecord
100
AcDbLayerTableRecord
  2
76
 70
     0
 62
    76
  6
CONTINUOUS
370
    -3
390
F
  0
LAYER
  5
86
330
2
100
AcDbSymbolTableRecord
100
AcDbLayerTableRecord
  2
77
 70
     0
 62
    77
  6
CONTINUOUS
370
    -3
390
F
  0
LAYER
  5
87
330
2
100
AcDbSymbolTableRecord
100
AcDbLayerTableRecord
  2
78
 70
     0
 62
    78
  6
CONTINUOUS
370
    -3
390
F
  0
LAYER
  5
88
330
2
100
AcDbSymbolTableRecord
100
AcDbLayerTableRecord
  2
79
 70
     0
 62
    79
  6
CONTINUOUS
370
    -3
390
F
  0
LAYER
  5
89
330
2
100
AcDbSymbolTableRecord
100
AcDbLayerTableRecord
  2
80
 70
     0
 62
    80
  6
CONTINUOUS
370
    -3
390
F
  0
LAYER
  5
8A
330
2
100
AcDbSymbolTableRecord
100
AcDbLayerTableRecord
  2
81
 70
     0
 62
    81
  6
CONTINUOUS
370
    -3
390
F
  0
LAYER
  5
8B
330
2
100
AcDbSymbolTableRecord
100
AcDbLayerTableRecord
  2
82
 70
     0
 62
    82
  6
CONTINUOUS
370
    -3
390
F
  0
LAYER
  5
8C
330
2
100
AcDbSymbolTableRecord
100
AcDbLayerTableRecord
  2
83
 70
     0
 62
    83
  6
CONTINUOUS
370
    -3
390
F
  0
LAYER
  5
8D
330
2
100
AcDbSymbolTableRecord
100
AcDbLayerTableRecord
  2
84
 70
     0
 62
    84
  6
CONTINUOUS
370
    -3
390
F
  0
LAYER
  5
8E
330
2
100
AcDbSymbolTableRecord
100
AcDbLayerTableRecord
  2
85
 70
     0
 62
    85
  6
CONTINUOUS
370
    -3
390
F
  0
LAYER
  5
8F
330
2
100
AcDbSymbolTableRecord
100
AcDbLayerTableRecord
  2
86
 70
     0
 62
    86
  6
CONTINUOUS
370
    -3
390
F
  0
LAYER
  5
90
330
2
100
AcDbSymbolTableRecord
100
AcDbLayerTableRecord
  2
87
 70
     0
 62
    87
  6
CONTINUOUS
370
    -3
390
F
  0
LAYER
  5
91
330
2
100
AcDbSymbolTableRecord
100
AcDbLayerTableRecord
  2
88
 70
     0
 62
    88
  6
CONTINUOUS
370
    -3
390
F
  0
LAYER
  5
92
330
2
100
AcDbSymbolTableRecord
100
AcDbLayerTableRecord
  2
89
 70
     0
 62
    89
  6
CONTINUOUS
370
    -3
390
F
  0
LAYER
  5
93
330
2
100
AcDbSymbolTableRecord
100
AcDbLayerTableRecord
  2
90
 70
     0
 62
    90
  6
CONTINUOUS
370
    -3
390
F
  0
LAYER
  5
94
330
2
100
AcDbSymbolTableRecord
100
AcDbLayerTableRecord
  2
91
 70
     0
 62
    91
  6
CONTINUOUS
370
    -3
390
F
  0
LAYER
  5
95
330
2
100
AcDbSymbolTableRecord
100
AcDbLayerTableRecord
  2
92
 70
     0
 62
    92
  6
CONTINUOUS
370
    -3
390
F
  0
LAYER
  5
96
330
2
100
AcDbSymbolTableRecord
100
AcDbLayerTableRecord
  2
93
 70
     0
 62
    93
  6
CONTINUOUS
370
    -3
390
F
  0
LAYER
  5
97
330
2
100
AcDbSymbolTableRecord
100
AcDbLayerTableRecord
  2
94
 70
     0
 62
    94
  6
CONTINUOUS
370
    -3
390
F
  0
LAYER
  5
98
330
2
100
AcDbSymbolTableRecord
100
AcDbLayerTableRecord
  2
95
 70
     0
 62
    95
  6
CONTINUOUS
370
    -3
390
F
  0
LAYER
  5
99
330
2
100
AcDbSymbolTableRecord
100
AcDbLayerTableRecord
  2
96
 70
     0
 62
    96
  6
CONTINUOUS
370
    -3
390
F
  0
LAYER
  5
9A
330
2
100
AcDbSymbolTableRecord
100
AcDbLayerTableRecord
  2
97
 70
     0
 62
    97
  6
CONTINUOUS
370
    -3
390
F
  0
LAYER
  5
9B
330
2
100
AcDbSymbolTableRecord
100
AcDbLayerTableRecord
  2
98
 70
     0
 62
    98
  6
CONTINUOUS
370
    -3
390
F
  0
LAYER
  5
9C
330
2
100
AcDbSymbolTableRecord
100
AcDbLayerTableRecord
  2
99
 70
     0
 62
    99
  6
CONTINUOUS
370
    -3
390
F
  0
LAYER
  5
9D
330
2
100
AcDbSymbolTableRecord
100
AcDbLayerTableRecord
  2
100
 70
     0
 62
   100
  6
CONTINUOUS
370
    -3
390
F
  0
LAYER
  5
9E
330
2
100
AcDbSymbolTableRecord
100
AcDbLayerTableRecord
  2
101
 70
     0
 62
   101
  6
CONTINUOUS
370
    -3
390
F
  0
LAYER
  5
9F
330
2
100
AcDbSymbolTableRecord
100
AcDbLayerTableRecord
  2
102
 70
     0
 62
   102
  6
CONTINUOUS
370
    -3
390
F
  0
LAYER
  5
A0
330
2
100
AcDbSymbolTableRecord
100
AcDbLayerTableRecord
  2
103
 70
     0
 62
   103
  6
CONTINUOUS
370
    -3
390
F
  0
LAYER
  5
A1
330
2
100
AcDbSymbolTableRecord
100
AcDbLayerTableRecord
  2
104
 70
     0
 62
   104
  6
CONTINUOUS
370
    -3
390
F
  0
LAYER
  5
A2
330
2
100
AcDbSymbolTableRecord
100
AcDbLayerTableRecord
  2
105
 70
     0
 62
   105
  6
CONTINUOUS
370
    -3
390
F
  0
LAYER
  5
A3
330
2
100
AcDbSymbolTableRecord
100
AcDbLayerTableRecord
  2
106
 70
     0
 62
   106
  6
CONTINUOUS
370
    -3
390
F
  0
LAYER
  5
A4
330
2
100
AcDbSymbolTableRecord
100
AcDbLayerTableRecord
  2
107
 70
     0
 62
   107
  6
CONTINUOUS
370
    -3
390
F
  0
LAYER
  5
A5
330
2
100
AcDbSymbolTableRecord
100
AcDbLayerTableRecord
  2
108
 70
     0
 62
   108
  6
CONTINUOUS
370
    -3
390
F
  0
LAYER
  5
A6
330
2
100
AcDbSymbolTableRecord
100
AcDbLayerTableRecord
  2
109
 70
     0
 62
   109
  6
CONTINUOUS
370
    -3
390
F
  0
LAYER
  5
A7
330
2
100
AcDbSymbolTableRecord
100
AcDbLayerTableRecord
  2
110
 70
     0
 62
   110
  6
CONTINUOUS
370
    -3
390
F
  0
LAYER
  5
A8
330
2
100
AcDbSymbolTableRecord
100
AcDbLayerTableRecord
  2
111
 70
     0
 62
   111
  6
CONTINUOUS
370
    -3
390
F
  0
LAYER
  5
A9
330
2
100
AcDbSymbolTableRecord
100
AcDbLayerTableRecord
  2
112
 70
     0
 62
   112
  6
CONTINUOUS
370
    -3
390
F
  0
LAYER
  5
AA
330
2
100
AcDbSymbolTableRecord
100
AcDbLayerTableRecord
  2
113
 70
     0
 62
   113
  6
CONTINUOUS
370
    -3
390
F
  0
LAYER
  5
AB
330
2
100
AcDbSymbolTableRecord
100
AcDbLayerTableRecord
  2
114
 70
     0
 62
   114
  6
CONTINUOUS
370
    -3
390
F
  0
LAYER
  5
AC
330
2
100
AcDbSymbolTableRecord
100
AcDbLayerTableRecord
  2
115
 70
     0
 62
   115
  6
CONTINUOUS
370
    -3
390
F
  0
LAYER
  5
AD
330
2
100
AcDbSymbolTableRecord
100
AcDbLayerTableRecord
  2
116
 70
     0
 62
   116
  6
CONTINUOUS
370
    -3
390
F
  0
LAYER
  5
AE
330
2
100
AcDbSymbolTableRecord
100
AcDbLayerTableRecord
  2
117
 70
     0
 62
   117
  6
CONTINUOUS
370
    -3
390
F
  0
LAYER
  5
AF
330
2
100
AcDbSymbolTableRecord
100
AcDbLayerTableRecord
  2
118
 70
     0
 62
   118
  6
CONTINUOUS
370
    -3
390
F
  0
LAYER
  5
B0
330
2
100
AcDbSymbolTableRecord
100
AcDbLayerTableRecord
  2
119
 70
     0
 62
   119
  6
CONTINUOUS
370
    -3
390
F
  0
LAYER
  5
B1
330
2
100
AcDbSymbolTableRecord
100
AcDbLayerTableRecord
  2
120
 70
     0
 62
   120
  6
CONTINUOUS
370
    -3
390
F
  0
LAYER
  5
B2
330
2
100
AcDbSymbolTableRecord
100
AcDbLayerTableRecord
  2
121
 70
     0
 62
   121
  6
CONTINUOUS
370
    -3
390
F
  0
LAYER
  5
B3
330
2
100
AcDbSymbolTableRecord
100
AcDbLayerTableRecord
  2
122
 70
     0
 62
   122
  6
CONTINUOUS
370
    -3
390
F
  0
LAYER
  5
B4
330
2
100
AcDbSymbolTableRecord
100
AcDbLayerTableRecord
  2
123
 70
     0
 62
   123
  6
CONTINUOUS
370
    -3
390
F
  0
LAYER
  5
B5
330
2
100
AcDbSymbolTableRecord
100
AcDbLayerTableRecord
  2
124
 70
     0
 62
   124
  6
CONTINUOUS
370
    -3
390
F
  0
LAYER
  5
B6
330
2
100
AcDbSymbolTableRecord
100
AcDbLayerTableRecord
  2
125
 70
     0
 62
   125
  6
CONTINUOUS
370
    -3
390
F
  0
LAYER
  5
B7
330
2
100
AcDbSymbolTableRecord
100
AcDbLayerTableRecord
  2
126
 70
     0
 62
   126
  6
CONTINUOUS
370
    -3
390
F
  0
LAYER
  5
B8
330
2
100
AcDbSymbolTableRecord
100
AcDbLayerTableRecord
  2
127
 70
     0
 62
   127
  6
CONTINUOUS
370
    -3
390
F
  0
LAYER
  5
B9
330
2
100
AcDbSymbolTableRecord
100
AcDbLayerTableRecord
  2
128
 70
     0
 62
   128
  6
CONTINUOUS
370
    -3
390
F
  0
LAYER
  5
BA
330
2
100
AcDbSymbolTableRecord
100
AcDbLayerTableRecord
  2
129
 70
     0
 62
   129
  6
CONTINUOUS
370
    -3
390
F
  0
LAYER
  5
BB
330
2
100
AcDbSymbolTableRecord
100
AcDbLayerTableRecord
  2
130
 70
     0
 62
   130
  6
CONTINUOUS
370
    -3
390
F
  0
LAYER
  5
BC
330
2
100
AcDbSymbolTableRecord
100
AcDbLayerTableRecord
  2
131
 70
     0
 62
   131
  6
CONTINUOUS
370
    -3
390
F
  0
LAYER
  5
BD
330
2
100
AcDbSymbolTableRecord
100
AcDbLayerTableRecord
  2
132
 70
     0
 62
   132
  6
CONTINUOUS
370
    -3
390
F
  0
LAYER
  5
BE
330
2
100
AcDbSymbolTableRecord
100
AcDbLayerTableRecord
  2
133
 70
     0
 62
   133
  6
CONTINUOUS
370
    -3
390
F
  0
LAYER
  5
BF
330
2
100
AcDbSymbolTableRecord
100
AcDbLayerTableRecord
  2
134
 70
     0
 62
   134
  6
CONTINUOUS
370
    -3
390
F
  0
LAYER
  5
C0
330
2
100
AcDbSymbolTableRecord
100
AcDbLayerTableRecord
  2
135
 70
     0
 62
   135
  6
CONTINUOUS
370
    -3
390
F
  0
LAYER
  5
C1
330
2
100
AcDbSymbolTableRecord
100
AcDbLayerTableRecord
  2
136
 70
     0
 62
   136
  6
CONTINUOUS
370
    -3
390
F
  0
LAYER
  5
C2
330
2
100
AcDbSymbolTableRecord
100
AcDbLayerTableRecord
  2
137
 70
     0
 62
   137
  6
CONTINUOUS
370
    -3
390
F
  0
LAYER
  5
C3
330
2
100
AcDbSymbolTableRecord
100
AcDbLayerTableRecord
  2
138
 70
     0
 62
   138
  6
CONTINUOUS
370
    -3
390
F
  0
LAYER
  5
C4
330
2
100
AcDbSymbolTableRecord
100
AcDbLayerTableRecord
  2
139
 70
     0
 62
   139
  6
CONTINUOUS
370
    -3
390
F
  0
LAYER
  5
C5
330
2
100
AcDbSymbolTableRecord
100
AcDbLayerTableRecord
  2
140
 70
     0
 62
   140
  6
CONTINUOUS
370
    -3
390
F
  0
LAYER
  5
C6
330
2
100
AcDbSymbolTableRecord
100
AcDbLayerTableRecord
  2
141
 70
     0
 62
   141
  6
CONTINUOUS
370
    -3
390
F
  0
LAYER
  5
C7
330
2
100
AcDbSymbolTableRecord
100
AcDbLayerTableRecord
  2
142
 70
     0
 62
   142
  6
CONTINUOUS
370
    -3
390
F
  0
LAYER
  5
C8
330
2
100
AcDbSymbolTableRecord
100
AcDbLayerTableRecord
  2
143
 70
     0
 62
   143
  6
CONTINUOUS
370
    -3
390
F
  0
LAYER
  5
C9
330
2
100
AcDbSymbolTableRecord
100
AcDbLayerTableRecord
  2
144
 70
     0
 62
   144
  6
CONTINUOUS
370
    -3
390
F
  0
LAYER
  5
CA
330
2
100
AcDbSymbolTableRecord
100
AcDbLayerTableRecord
  2
145
 70
     0
 62
   145
  6
CONTINUOUS
370
    -3
390
F
  0
LAYER
  5
CB
330
2
100
AcDbSymbolTableRecord
100
AcDbLayerTableRecord
  2
146
 70
     0
 62
   146
  6
CONTINUOUS
370
    -3
390
F
  0
LAYER
  5
CC
330
2
100
AcDbSymbolTableRecord
100
AcDbLayerTableRecord
  2
147
 70
     0
 62
   147
  6
CONTINUOUS
370
    -3
390
F
  0
LAYER
  5
CD
330
2
100
AcDbSymbolTableRecord
100
AcDbLayerTableRecord
  2
148
 70
     0
 62
   148
  6
CONTINUOUS
370
    -3
390
F
  0
LAYER
  5
CE
330
2
100
AcDbSymbolTableRecord
100
AcDbLayerTableRecord
  2
149
 70
     0
 62
   149
  6
CONTINUOUS
370
    -3
390
F
  0
LAYER
  5
CF
330
2
100
AcDbSymbolTableRecord
100
AcDbLayerTableRecord
  2
150
 70
     0
 62
   150
  6
CONTINUOUS
370
    -3
390
F
  0
LAYER
  5
D0
330
2
100
AcDbSymbolTableRecord
100
AcDbLayerTableRecord
  2
151
 70
     0
 62
   151
  6
CONTINUOUS
370
    -3
390
F
  0
LAYER
  5
D1
330
2
100
AcDbSymbolTableRecord
100
AcDbLayerTableRecord
  2
152
 70
     0
 62
   152
  6
CONTINUOUS
370
    -3
390
F
  0
LAYER
  5
D2
330
2
100
AcDbSymbolTableRecord
100
AcDbLayerTableRecord
  2
153
 70
     0
 62
   153
  6
CONTINUOUS
370
    -3
390
F
  0
LAYER
  5
D3
330
2
100
AcDbSymbolTableRecord
100
AcDbLayerTableRecord
  2
154
 70
     0
 62
   154
  6
CONTINUOUS
370
    -3
390
F
  0
LAYER
  5
D4
330
2
100
AcDbSymbolTableRecord
100
AcDbLayerTableRecord
  2
155
 70
     0
 62
   155
  6
CONTINUOUS
370
    -3
390
F
  0
LAYER
  5
D5
330
2
100
AcDbSymbolTableRecord
100
AcDbLayerTableRecord
  2
156
 70
     0
 62
   156
  6
CONTINUOUS
370
    -3
390
F
  0
LAYER
  5
D6
330
2
100
AcDbSymbolTableRecord
100
AcDbLayerTableRecord
  2
157
 70
     0
 62
   157
  6
CONTINUOUS
370
    -3
390
F
  0
LAYER
  5
D7
330
2
100
AcDbSymbolTableRecord
100
AcDbLayerTableRecord
  2
158
 70
     0
 62
   158
  6
CONTINUOUS
370
    -3
390
F
  0
LAYER
  5
D8
330
2
100
AcDbSymbolTableRecord
100
AcDbLayerTableRecord
  2
159
 70
     0
 62
   159
  6
CONTINUOUS
370
    -3
390
F
  0
LAYER
  5
D9
330
2
100
AcDbSymbolTableRecord
100
AcDbLayerTableRecord
  2
160
 70
     0
 62
   160
  6
CONTINUOUS
370
    -3
390
F
  0
LAYER
  5
DA
330
2
100
AcDbSymbolTableRecord
100
AcDbLayerTableRecord
  2
161
 70
     0
 62
   161
  6
CONTINUOUS
370
    -3
390
F
  0
LAYER
  5
DB
330
2
100
AcDbSymbolTableRecord
100
AcDbLayerTableRecord
  2
162
 70
     0
 62
   162
  6
CONTINUOUS
370
    -3
390
F
  0
LAYER
  5
DC
330
2
100
AcDbSymbolTableRecord
100
AcDbLayerTableRecord
  2
163
 70
     0
 62
   163
  6
CONTINUOUS
370
    -3
390
F
  0
LAYER
  5
DD
330
2
100
AcDbSymbolTableRecord
100
AcDbLayerTableRecord
  2
164
 70
     0
 62
   164
  6
CONTINUOUS
370
    -3
390
F
  0
LAYER
  5
DE
330
2
100
AcDbSymbolTableRecord
100
AcDbLayerTableRecord
  2
165
 70
     0
 62
   165
  6
CONTINUOUS
370
    -3
390
F
  0
LAYER
  5
DF
330
2
100
AcDbSymbolTableRecord
100
AcDbLayerTableRecord
  2
166
 70
     0
 62
   166
  6
CONTINUOUS
370
    -3
390
F
  0
LAYER
  5
E0
330
2
100
AcDbSymbolTableRecord
100
AcDbLayerTableRecord
  2
167
 70
     0
 62
   167
  6
CONTINUOUS
370
    -3
390
F
  0
LAYER
  5
E1
330
2
100
AcDbSymbolTableRecord
100
AcDbLayerTableRecord
  2
168
 70
     0
 62
   168
  6
CONTINUOUS
370
    -3
390
F
  0
LAYER
  5
E2
330
2
100
AcDbSymbolTableRecord
100
AcDbLayerTableRecord
  2
169
 70
     0
 62
   169
  6
CONTINUOUS
370
    -3
390
F
  0
LAYER
  5
E3
330
2
100
AcDbSymbolTableRecord
100
AcDbLayerTableRecord
  2
170
 70
     0
 62
   170
  6
CONTINUOUS
370
    -3
390
F
  0
LAYER
  5
E4
330
2
100
AcDbSymbolTableRecord
100
AcDbLayerTableRecord
  2
171
 70
     0
 62
   171
  6
CONTINUOUS
370
    -3
390
F
  0
LAYER
  5
E5
330
2
100
AcDbSymbolTableRecord
100
AcDbLayerTableRecord
  2
172
 70
     0
 62
   172
  6
CONTINUOUS
370
    -3
390
F
  0
LAYER
  5
E6
330
2
100
AcDbSymbolTableRecord
100
AcDbLayerTableRecord
  2
173
 70
     0
 62
   173
  6
CONTINUOUS
370
    -3
390
F
  0
LAYER
  5
E7
330
2
100
AcDbSymbolTableRecord
100
AcDbLayerTableRecord
  2
174
 70
     0
 62
   174
  6
CONTINUOUS
370
    -3
390
F
  0
LAYER
  5
E8
330
2
100
AcDbSymbolTableRecord
100
AcDbLayerTableRecord
  2
175
 70
     0
 62
   175
  6
CONTINUOUS
370
    -3
390
F
  0
LAYER
  5
E9
330
2
100
AcDbSymbolTableRecord
100
AcDbLayerTableRecord
  2
176
 70
     0
 62
   176
  6
CONTINUOUS
370
    -3
390
F
  0
LAYER
  5
EA
330
2
100
AcDbSymbolTableRecord
100
AcDbLayerTableRecord
  2
177
 70
     0
 62
   177
  6
CONTINUOUS
370
    -3
390
F
  0
LAYER
  5
EB
330
2
100
AcDbSymbolTableRecord
100
AcDbLayerTableRecord
  2
178
 70
     0
 62
   178
  6
CONTINUOUS
370
    -3
390
F
  0
LAYER
  5
EC
330
2
100
AcDbSymbolTableRecord
100
AcDbLayerTableRecord
  2
179
 70
     0
 62
   179
  6
CONTINUOUS
370
    -3
390
F
  0
LAYER
  5
ED
330
2
100
AcDbSymbolTableRecord
100
AcDbLayerTableRecord
  2
180
 70
     0
 62
   180
  6
CONTINUOUS
370
    -3
390
F
  0
LAYER
  5
EE
330
2
100
AcDbSymbolTableRecord
100
AcDbLayerTableRecord
  2
181
 70
     0
 62
   181
  6
CONTINUOUS
370
    -3
390
F
  0
LAYER
  5
EF
330
2
100
AcDbSymbolTableRecord
100
AcDbLayerTableRecord
  2
182
 70
     0
 62
   182
  6
CONTINUOUS
370
    -3
390
F
  0
LAYER
  5
F0
330
2
100
AcDbSymbolTableRecord
100
AcDbLayerTableRecord
  2
183
 70
     0
 62
   183
  6
CONTINUOUS
370
    -3
390
F
  0
LAYER
  5
F1
330
2
100
AcDbSymbolTableRecord
100
AcDbLayerTableRecord
  2
184
 70
     0
 62
   184
  6
CONTINUOUS
370
    -3
390
F
  0
LAYER
  5
F2
330
2
100
AcDbSymbolTableRecord
100
AcDbLayerTableRecord
  2
185
 70
     0
 62
   185
  6
CONTINUOUS
370
    -3
390
F
  0
LAYER
  5
F3
330
2
100
AcDbSymbolTableRecord
100
AcDbLayerTableRecord
  2
186
 70
     0
 62
   186
  6
CONTINUOUS
370
    -3
390
F
  0
LAYER
  5
F4
330
2
100
AcDbSymbolTableRecord
100
AcDbLayerTableRecord
  2
187
 70
     0
 62
   187
  6
CONTINUOUS
370
    -3
390
F
  0
LAYER
  5
F5
330
2
100
AcDbSymbolTableRecord
100
AcDbLayerTableRecord
  2
188
 70
     0
 62
   188
  6
CONTINUOUS
370
    -3
390
F
  0
LAYER
  5
F6
330
2
100
AcDbSymbolTableRecord
100
AcDbLayerTableRecord
  2
189
 70
     0
 62
   189
  6
CONTINUOUS
370
    -3
390
F
  0
LAYER
  5
F7
330
2
100
AcDbSymbolTableRecord
100
AcDbLayerTableRecord
  2
190
 70
     0
 62
   190
  6
CONTINUOUS
370
    -3
390
F
  0
LAYER
  5
F8
330
2
100
AcDbSymbolTableRecord
100
AcDbLayerTableRecord
  2
191
 70
     0
 62
   191
  6
CONTINUOUS
370
    -3
390
F
  0
LAYER
  5
F9
330
2
100
AcDbSymbolTableRecord
100
AcDbLayerTableRecord
  2
192
 70
     0
 62
   192
  6
CONTINUOUS
370
    -3
390
F
  0
LAYER
  5
FA
330
2
100
AcDbSymbolTableRecord
100
AcDbLayerTableRecord
  2
193
 70
     0
 62
   193
  6
CONTINUOUS
370
    -3
390
F
  0
LAYER
  5
FB
330
2
100
AcDbSymbolTableRecord
100
AcDbLayerTableRecord
  2
194
 70
     0
 62
   194
  6
CONTINUOUS
370
    -3
390
F
  0
LAYER
  5
FC
330
2
100
AcDbSymbolTableRecord
100
AcDbLayerTableRecord
  2
195
 70
     0
 62
   195
  6
CONTINUOUS
370
    -3
390
F
  0
LAYER
  5
FD
330
2
100
AcDbSymbolTableRecord
100
AcDbLayerTableRecord
  2
196
 70
     0
 62
   196
  6
CONTINUOUS
370
    -3
390
F
  0
LAYER
  5
FE
330
2
100
AcDbSymbolTableRecord
100
AcDbLayerTableRecord
  2
197
 70
     0
 62
   197
  6
CONTINUOUS
370
    -3
390
F
  0
LAYER
  5
FF
330
2
100
AcDbSymbolTableRecord
100
AcDbLayerTableRecord
  2
198
 70
     0
 62
   198
  6
CONTINUOUS
370
    -3
390
F
  0
LAYER
  5
100
330
2
100
AcDbSymbolTableRecord
100
AcDbLayerTableRecord
  2
199
 70
     0
 62
   199
  6
CONTINUOUS
370
    -3
390
F
  0
LAYER
  5
101
330
2
100
AcDbSymbolTableRecord
100
AcDbLayerTableRecord
  2
200
 70
     0
 62
   200
  6
CONTINUOUS
370
    -3
390
F
  0
LAYER
  5
102
330
2
100
AcDbSymbolTableRecord
100
AcDbLayerTableRecord
  2
201
 70
     0
 62
   201
  6
CONTINUOUS
370
    -3
390
F
  0
LAYER
  5
103
330
2
100
AcDbSymbolTableRecord
100
AcDbLayerTableRecord
  2
202
 70
     0
 62
   202
  6
CONTINUOUS
370
    -3
390
F
  0
LAYER
  5
104
330
2
100
AcDbSymbolTableRecord
100
AcDbLayerTableRecord
  2
203
 70
     0
 62
   203
  6
CONTINUOUS
370
    -3
390
F
  0
LAYER
  5
105
330
2
100
AcDbSymbolTableRecord
100
AcDbLayerTableRecord
  2
204
 70
     0
 62
   204
  6
CONTINUOUS
370
    -3
390
F
  0
LAYER
  5
106
330
2
100
AcDbSymbolTableRecord
100
AcDbLayerTableRecord
  2
205
 70
     0
 62
   205
  6
CONTINUOUS
370
    -3
390
F
  0
LAYER
  5
107
330
2
100
AcDbSymbolTableRecord
100
AcDbLayerTableRecord
  2
206
 70
     0
 62
   206
  6
CONTINUOUS
370
    -3
390
F
  0
LAYER
  5
108
330
2
100
AcDbSymbolTableRecord
100
AcDbLayerTableRecord
  2
207
 70
     0
 62
   207
  6
CONTINUOUS
370
    -3
390
F
  0
LAYER
  5
109
330
2
100
AcDbSymbolTableRecord
100
AcDbLayerTableRecord
  2
208
 70
     0
 62
   208
  6
CONTINUOUS
370
    -3
390
F
  0
LAYER
  5
10A
330
2
100
AcDbSymbolTableRecord
100
AcDbLayerTableRecord
  2
209
 70
     0
 62
   209
  6
CONTINUOUS
370
    -3
390
F
  0
LAYER
  5
10B
330
2
100
AcDbSymbolTableRecord
100
AcDbLayerTableRecord
  2
210
 70
     0
 62
   210
  6
CONTINUOUS
370
    -3
390
F
  0
LAYER
  5
10C
330
2
100
AcDbSymbolTableRecord
100
AcDbLayerTableRecord
  2
211
 70
     0
 62
   211
  6
CONTINUOUS
370
    -3
390
F
  0
LAYER
  5
10D
330
2
100
AcDbSymbolTableRecord
100
AcDbLayerTableRecord
  2
212
 70
     0
 62
   212
  6
CONTINUOUS
370
    -3
390
F
  0
LAYER
  5
10E
330
2
100
AcDbSymbolTableRecord
100
AcDbLayerTableRecord
  2
213
 70
     0
 62
   213
  6
CONTINUOUS
370
    -3
390
F
  0
LAYER
  5
10F
330
2
100
AcDbSymbolTableRecord
100
AcDbLayerTableRecord
  2
214
 70
     0
 62
   214
  6
CONTINUOUS
370
    -3
390
F
  0
LAYER
  5
110
330
2
100
AcDbSymbolTableRecord
100
AcDbLayerTableRecord
  2
215
 70
     0
 62
   215
  6
CONTINUOUS
370
    -3
390
F
  0
LAYER
  5
111
330
2
100
AcDbSymbolTableRecord
100
AcDbLayerTableRecord
  2
216
 70
     0
 62
   216
  6
CONTINUOUS
370
    -3
390
F
  0
LAYER
  5
112
330
2
100
AcDbSymbolTableRecord
100
AcDbLayerTableRecord
  2
217
 70
     0
 62
   217
  6
CONTINUOUS
370
    -3
390
F
  0
LAYER
  5
113
330
2
100
AcDbSymbolTableRecord
100
AcDbLayerTableRecord
  2
218
 70
     0
 62
   218
  6
CONTINUOUS
370
    -3
390
F
  0
LAYER
  5
114
330
2
100
AcDbSymbolTableRecord
100
AcDbLayerTableRecord
  2
219
 70
     0
 62
   219
  6
CONTINUOUS
370
    -3
390
F
  0
LAYER
  5
115
330
2
100
AcDbSymbolTableRecord
100
AcDbLayerTableRecord
  2
220
 70
     0
 62
   220
  6
CONTINUOUS
370
    -3
390
F
  0
LAYER
  5
116
330
2
100
AcDbSymbolTableRecord
100
AcDbLayerTableRecord
  2
221
 70
     0
 62
   221
  6
CONTINUOUS
370
    -3
390
F
  0
LAYER
  5
117
330
2
100
AcDbSymbolTableRecord
100
AcDbLayerTableRecord
  2
222
 70
     0
 62
   222
  6
CONTINUOUS
370
    -3
390
F
  0
LAYER
  5
118
330
2
100
AcDbSymbolTableRecord
100
AcDbLayerTableRecord
  2
223
 70
     0
 62
   223
  6
CONTINUOUS
370
    -3
390
F
  0
LAYER
  5
119
330
2
100
AcDbSymbolTableRecord
100
AcDbLayerTableRecord
  2
224
 70
     0
 62
   224
  6
CONTINUOUS
370
    -3
390
F
  0
LAYER
  5
11A
330
2
100
AcDbSymbolTableRecord
100
AcDbLayerTableRecord
  2
225
 70
     0
 62
   225
  6
CONTINUOUS
370
    -3
390
F
  0
LAYER
  5
11B
330
2
100
AcDbSymbolTableRecord
100
AcDbLayerTableRecord
  2
226
 70
     0
 62
   226
  6
CONTINUOUS
370
    -3
390
F
  0
LAYER
  5
11C
330
2
100
AcDbSymbolTableRecord
100
AcDbLayerTableRecord
  2
227
 70
     0
 62
   227
  6
CONTINUOUS
370
    -3
390
F
  0
LAYER
  5
11D
330
2
100
AcDbSymbolTableRecord
100
AcDbLayerTableRecord
  2
228
 70
     0
 62
   228
  6
CONTINUOUS
370
    -3
390
F
  0
LAYER
  5
11E
330
2
100
AcDbSymbolTableRecord
100
AcDbLayerTableRecord
  2
229
 70
     0
 62
   229
  6
CONTINUOUS
370
    -3
390
F
  0
LAYER
  5
11F
330
2
100
AcDbSymbolTableRecord
100
AcDbLayerTableRecord
  2
230
 70
     0
 62
   230
  6
CONTINUOUS
370
    -3
390
F
  0
LAYER
  5
120
330
2
100
AcDbSymbolTableRecord
100
AcDbLayerTableRecord
  2
231
 70
     0
 62
   231
  6
CONTINUOUS
370
    -3
390
F
  0
LAYER
  5
121
330
2
100
AcDbSymbolTableRecord
100
AcDbLayerTableRecord
  2
232
 70
     0
 62
   232
  6
CONTINUOUS
370
    -3
390
F
  0
LAYER
  5
122
330
2
100
AcDbSymbolTableRecord
100
AcDbLayerTableRecord
  2
233
 70
     0
 62
   233
  6
CONTINUOUS
370
    -3
390
F
  0
LAYER
  5
123
330
2
100
AcDbSymbolTableRecord
100
AcDbLayerTableRecord
  2
234
 70
     0
 62
   234
  6
CONTINUOUS
370
    -3
390
F
  0
LAYER
  5
124
330
2
100
AcDbSymbolTableRecord
100
AcDbLayerTableRecord
  2
235
 70
     0
 62
   235
  6
CONTINUOUS
370
    -3
390
F
  0
LAYER
  5
125
330
2
100
AcDbSymbolTableRecord
100
AcDbLayerTableRecord
  2
236
 70
     0
 62
   236
  6
CONTINUOUS
370
    -3
390
F
  0
LAYER
  5
126
330
2
100
AcDbSymbolTableRecord
100
AcDbLayerTableRecord
  2
237
 70
     0
 62
   237
  6
CONTINUOUS
370
    -3
390
F
  0
LAYER
  5
127
330
2
100
AcDbSymbolTableRecord
100
AcDbLayerTableRecord
  2
238
 70
     0
 62
   238
  6
CONTINUOUS
370
    -3
390
F
  0
LAYER
  5
128
330
2
100
AcDbSymbolTableRecord
100
AcDbLayerTableRecord
  2
239
 70
     0
 62
   239
  6
CONTINUOUS
370
    -3
390
F
  0
LAYER
  5
129
330
2
100
AcDbSymbolTableRecord
100
AcDbLayerTableRecord
  2
240
 70
     0
 62
   240
  6
CONTINUOUS
370
    -3
390
F
  0
LAYER
  5
12A
330
2
100
AcDbSymbolTableRecord
100
AcDbLayerTableRecord
  2
241
 70
     0
 62
   241
  6
CONTINUOUS
370
    -3
390
F
  0
LAYER
  5
12B
330
2
100
AcDbSymbolTableRecord
100
AcDbLayerTableRecord
  2
242
 70
     0
 62
   242
  6
CONTINUOUS
370
    -3
390
F
  0
LAYER
  5
12C
330
2
100
AcDbSymbolTableRecord
100
AcDbLayerTableRecord
  2
243
 70
     0
 62
   243
  6
CONTINUOUS
370
    -3
390
F
  0
LAYER
  5
12D
330
2
100
AcDbSymbolTableRecord
100
AcDbLayerTableRecord
  2
244
 70
     0
 62
   244
  6
CONTINUOUS
370
    -3
390
F
  0
LAYER
  5
12E
330
2
100
AcDbSymbolTableRecord
100
AcDbLayerTableRecord
  2
245
 70
     0
 62
   245
  6
CONTINUOUS
370
    -3
390
F
  0
LAYER
  5
12F
330
2
100
AcDbSymbolTableRecord
100
AcDbLayerTableRecord
  2
246
 70
     0
 62
   246
  6
CONTINUOUS
370
    -3
390
F
  0
LAYER
  5
130
330
2
100
AcDbSymbolTableRecord
100
AcDbLayerTableRecord
  2
247
 70
     0
 62
   247
  6
CONTINUOUS
370
    -3
390
F
  0
LAYER
  5
131
330
2
100
AcDbSymbolTableRecord
100
AcDbLayerTableRecord
  2
248
 70
     0
 62
   248
  6
CONTINUOUS
370
    -3
390
F
  0
LAYER
  5
132
330
2
100
AcDbSymbolTableRecord
100
AcDbLayerTableRecord
  2
249
 70
     0
 62
   249
  6
CONTINUOUS
370
    -3
390
F
  0
LAYER
  5
133
330
2
100
AcDbSymbolTableRecord
100
AcDbLayerTableRecord
  2
250
 70
     0
 62
   250
  6
CONTINUOUS
370
    -3
390
F
  0
LAYER
  5
134
330
2
100
AcDbSymbolTableRecord
100
AcDbLayerTableRecord
  2
251
 70
     0
 62
   251
  6
CONTINUOUS
370
    -3
390
F
  0
LAYER
  5
135
330
2
100
AcDbSymbolTableRecord
100
AcDbLayerTableRecord
  2
252
 70
     0
 62
   252
  6
CONTINUOUS
370
    -3
390
F
  0
LAYER
  5
136
330
2
100
AcDbSymbolTableRecord
100
AcDbLayerTableRecord
  2
253
 70
     0
 62
   253
  6
CONTINUOUS
370
    -3
390
F
  0
LAYER
  5
137
330
2
100
AcDbSymbolTableRecord
100
AcDbLayerTableRecord
  2
254
 70
     0
 62
   254
  6
CONTINUOUS
370
    -3
390
F
  0
LAYER
  5
138
330
2
100
AcDbSymbolTableRecord
100
AcDbLayerTableRecord
  2
255
 70
     0
 62
   255
  6
CONTINUOUS
370
    -3
390
F
  0
ENDTAB
  0
TABLE
  2
STYLE
  5
3
330
0
100
AcDbSymbolTable
 70
     1
  0
STYLE
  5
11
330
3
100
AcDbSymbolTableRecord
100
AcDbTextStyleTableRecord
  2
STANDARD
 70
     0
 40
0.0
 41
1.0
 50
0.0
 71
     0
 42
0.2
  3
monotxt
  4

  0
ENDTAB
  0
TABLE
  2
VIEW
  5
6
330
0
100
AcDbSymbolTable
 70
     0
  0
ENDTAB
  0
TABLE
  2
UCS
  5
7
330
0
100
AcDbSymbolTable
 70
     0
  0
ENDTAB
  0
TABLE
  2
APPID
  5
9
330
0
100
AcDbSymbolTable
 70
     1
  0
APPID
  5
12
330
9
100
AcDbSymbolTableRecord
100
AcDbRegAppTableRecord
  2
ACAD
 70
     0
  0
ENDTAB
  0
TABLE
  2
DIMSTYLE
  5
A
330
0
100
AcDbSymbolTable
 70
     1
100
AcDbDimStyleTable
 71
     0
  0
DIMSTYLE
105
2D3
330
A
100
AcDbSymbolTableRecord
100
AcDbDimStyleTableRecord
  2
Standard
 70
     0
340
11
  0
ENDTAB
  0
TABLE
  2
BLOCK_RECORD
  5
1
330
0
100
AcDbSymbolTable
 70
     0
  0
BLOCK_RECORD
  5
1E
330
1
100
AcDbSymbolTableRecord
100
AcDbBlockTableRecord
  2
*Model_Space
340
21
  0
BLOCK_RECORD
  5
1A
330
1
100
AcDbSymbolTableRecord
100
AcDbBlockTableRecord
  2
*Paper_Space
340
1D
  0
ENDTAB
  0
ENDSEC
  0
SECTION
  2
BLOCKS
  0
BLOCK
  5
13B
330
1E
100
AcDbEntity
  8
0
100
AcDbBlockBegin
  2
*Model_Space
 70
     0
 10
0.0
 20
0.0
 30
0.0
  3
*Model_Space
  1

  0
ENDBLK
  5
13C
330
1E
100
AcDbEntity
  8
0
100
AcDbBlockEnd
  0
BLOCK
  5
139
330
1A
100
AcDbEntity
 67
     1
  8
0
100
AcDbBlockBegin
  2
*Paper_Space
 70
     0
 10
0.0
 20
0.0
 30
0.0
  3
*Paper_Space
  1

  0
ENDBLK
  5
13A
330
1A
100
AcDbEntity
 67
     1
  8
0
100
AcDbBlockEnd
  0
ENDSEC
  0
SECTION
  2
ENTITIES
  0
LINE
  5
13E
330
1E
100
AcDbEntity
  8
7
100
AcDbLine
 10
-0.3041338582677165
 20
-0.156496062992126
 30
0.0
 11
-0.3041338582677165
 21
-0.1318897637795275
 31
0.0
  0
LINE
  5
144
330
1E
100
AcDbEntity
  8
7
100
AcDbLine
 10
-0.2864173228346457
 20
-0.1742125984251968
 30
0.0
 11
-0.2618110236220472
 21
-0.1742125984251968
 31
0.0
  0
LINE
  5
150
330
1E
100
AcDbEntity
  8
7
100
AcDbLine
 10
-0.2618110236220472
 20
-0.1742125984251968
 30
0.0
 11
-0.2618110236220472
 21
-0.8001968503937007
 31
0.0
  0
LINE
  5
151
330
1E
100
AcDbEntity
  8
7
100
AcDbLine
 10
-3.739173228346456
 20
-0.156496062992126
 30
0.0
 11
-3.739173228346456
 21
-0.1318897637795275
 31
0.0
  0
LINE
  5
158
330
1E
100
AcDbEntity
  8
7
100
AcDbLine
 10
-3.781496062992125
 20
-0.1742125984251968
 30
0.0
 11
-3.756889763779527
 21
-0.1742125984251968
 31
0.0
  0
LINE
  5
15E
330
1E
100
AcDbEntity
  8
7
100
AcDbLine
 10
-3.781496062992125
 20
-0.1742125984251968
 30
0.0
 11
-3.781496062992125
 21
-0.8001968503937007
 31
0.0
  0
LINE
  5
15F
330
1E
100
AcDbEntity
  8
7
100
AcDbLine
 10
-3.781496062992125
 20
-0.8001968503937007
 30
0.0
 11
-3.756889763779527
 21
-0.8001968503937007
 31
0.0
  0
LINE
  5
160
330
1E
100
AcDbEntity
  8
7
100
AcDbLine
 10
-3.756889763779527
 20
-0.1742125984251968
 30
0.0
 11
-3.756889763779527
 21
-0.8001968503937007
 31
0.0
  0
LINE
  5
161
330
1E
100
AcDbEntity
  8
7
100
AcDbLine
 10
-0.3041338582677165
 20
-0.1318897637795275
 30
0.0
 11
-3.739173228346456
 21
-0.1318897637795275
 31
0.0
  0
LINE
  5
162
330
1E
100
AcDbEntity
  8
7
100
AcDbLine
 10
-3.739173228346456
 20
-0.156496062992126
 30
0.0
 11
-0.3041338582677165
 21
-0.156496062992126
 31
0.0
  0
LINE
  5
168
330
1E
100
AcDbEntity
  8
7
100
AcDbLine
 10
-0.265748031496063
 20
-0.8366141732283464
 30
0.0
 11
-0.2440944881889763
 21
-0.84251968503937
 31
0.0
  0
LINE
  5
169
330
1E
100
AcDbEntity
  8
7
100
AcDbLine
 10
-0.2440944881889763
 20
-0.84251968503937
 30
0.0
 11
-0.2440944881889763
 21
-0.8179133858267716
 31
0.0
  0
LINE
  5
174
330
1E
100
AcDbEntity
  8
7
100
AcDbLine
 10
-0.2440944881889763
 20
-0.8179133858267716
 30
0.0
 11
-0.1259842519685039
 21
-0.8179133858267716
 31
0.0
  0
LINE
  5
187
330
1E
100
AcDbEntity
  8
7
100
AcDbLine
 10
-3.8001968503937
 20
-0.8179133858267716
 30
0.0
 11
-3.8001968503937
 21
-0.84251968503937
 31
0.0
  0
LINE
  5
1A3
330
1E
100
AcDbEntity
  8
7
100
AcDbLine
 10
-3.949803149606299
 20
-0.84251968503937
 30
0.0
 11
-3.949803149606299
 21
-0.8179133858267716
 31
0.0
  0
LINE
  5
1A4
330
1E
100
AcDbEntity
  8
7
100
AcDbLine
 10
-0.2440944881889763
 20
-1.878937007874015
 30
0.0
 11
-0.2303149606299212
 21
-1.878937007874015
 31
0.0
  0
LINE
  5
1A5
330
1E
100
AcDbEntity
  8
7
100
AcDbLine
 10
-3.89271653543307
 20
-1.878937007874015
 30
0.0
 11
-3.917322834645669
 21
-1.878937007874015
 31
0.0
  0
LINE
  5
1B0
330
1E
100
AcDbEntity
  8
7
100
AcDbLine
 10
-0.3041338582677165
 20
-1.559055118110236
 30
0.0
 11
-0.3041338582677165
 21
-1.878937007874015
 31
0.0
  0
LINE
  5
1B1
330
1E
100
AcDbEntity
  8
7
100
AcDbLine
 10
-0.2864173228346457
 20
-1.878937007874015
 30
0.0
 11
-0.2864173228346457
 21
-1.559055118110236
 31
0.0
  0
LINE
  5
1BC
330
1E
100
AcDbEntity
  8
7
100
AcDbLine
 10
-3.739173228346456
 20
-1.878937007874015
 30
0.0
 11
-3.739173228346456
 21
-1.559055118110236
 31
0.0
  0
LINE
  5
1BD
330
1E
100
AcDbEntity
  8
7
100
AcDbLine
 10
-3.756889763779527
 20
-1.559055118110236
 30
0.0
 11
-3.756889763779527
 21
-1.878937007874015
 31
0.0
  0
LINE
  5
1BE
330
1E
100
AcDbEntity
  8
7
100
AcDbLine
 10
-0.3041338582677165
 20
-1.878937007874015
 30
0.0
 11
-3.739173228346456
 21
-1.878937007874015
 31
0.0
  0
LINE
  5
1BF
330
1E
100
AcDbEntity
  8
7
100
AcDbLine
 10
-3.739173228346456
 20
-1.559055118110236
 30
0.0
 11
-0.3041338582677165
 21
-1.559055118110236
 31
0.0
  0
LINE
  5
222
330
1E
100
AcDbEntity
  8
7
100
AcDbLine
 10
-0.264763779527559
 20
-1.559055118110236
 30
0.0
 11
-0.2440944881889763
 21
-1.559055118110236
 31
0.0
  0
LINE
  5
223
330
1E
100
AcDbEntity
  8
7
100
AcDbLine
 10
-0.2440944881889763
 20
-1.878937007874015
 30
0.0
 11
-0.2440944881889763
 21
-1.559055118110236
 31
0.0
  0
LINE
  5
224
330
1E
100
AcDbEntity
  8
7
100
AcDbLine
 10
-0.1515748031496063
 20
-1.878937007874015
 30
0.0
 11
-0.1259842519685039
 21
-1.878937007874015
 31
0.0
  0
LINE
  5
225
330
1E
100
AcDbEntity
  8
7
100
AcDbLine
 10
-0.2440944881889763
 20
-1.559055118110236
 30
0.0
 11
-0.1259842519685039
 21
-1.559055118110236
 31
0.0
  0
LINE
  5
226
330
1E
100
AcDbEntity
  8
7
100
AcDbLine
 10
-0.1653543307086614
 20
-1.839566929133858
 30
0.0
 11
-0.1653543307086614
 21
-1.719488188976377
 31
0.0
  0
LINE
  5
227
330
1E
100
AcDbEntity
  8
7
100
AcDbLine
 10
-0.1653543307086614
 20
-1.839566929133858
 30
0.0
 11
-0.1515748031496063
 21
-1.878937007874015
 31
0.0
  0
LINE
  5
22E
330
1E
100
AcDbEntity
  8
7
100
AcDbLine
 10
-0.093503937007874
 20
-1.846456692913385
 30
0.0
 11
-0.093503937007874
 21
-1.591535433070866
 31
0.0
  0
LINE
  5
242
330
1E
100
AcDbEntity
  8
7
100
AcDbLine
 10
-3.756889763779527
 20
-1.559055118110236
 30
0.0
 11
-3.76279527559055
 21
-1.559055118110236
 31
0.0
  0
LINE
  5
24E
330
1E
100
AcDbEntity
  8
7
100
AcDbLine
 10
-3.8001968503937
 20
-1.559055118110236
 30
0.0
 11
-3.8001968503937
 21
-1.878937007874015
 31
0.0
  0
LINE
  5
24F
330
1E
100
AcDbEntity
  8
7
100
AcDbLine
 10
-3.8001968503937
 20
-1.559055118110236
 30
0.0
 11
-3.917322834645669
 21
-1.559055118110236
 31
0.0
  0
LINE
  5
250
330
1E
100
AcDbEntity
  8
7
100
AcDbLine
 10
-3.8001968503937
 20
-1.878937007874015
 30
0.0
 11
-3.812992125984251
 21
-1.878937007874015
 31
0.0
  0
LINE
  5
251
330
1E
100
AcDbEntity
  8
7
100
AcDbLine
 10
-3.827755905511811
 20
-1.839566929133858
 30
0.0
 11
-3.827755905511811
 21
-1.719488188976377
 31
0.0
  0
LINE
  5
252
330
1E
100
AcDbEntity
  8
7
100
AcDbLine
 10
-3.827755905511811
 20
-1.839566929133858
 30
0.0
 11
-3.812992125984251
 21
-1.878937007874015
 31
0.0
  0
LINE
  5
259
330
1E
100
AcDbEntity
  8
7
100
AcDbLine
 10
-3.949803149606299
 20
-1.591535433070866
 30
0.0
 11
-3.949803149606299
 21
-1.846456692913385
 31
0.0
  0
LINE
  5
270
330
1E
100
AcDbEntity
  8
7
100
AcDbLine
 10
-0.3041338582677165
 20
-0.156496062992126
 30
0.0
 11
-0.3041338582677165
 21
-0.1318897637795275
 31
0.0
  0
LINE
  5
276
330
1E
100
AcDbEntity
  8
7
100
AcDbLine
 10
-0.2864173228346457
 20
-0.1742125984251968
 30
0.0
 11
-0.2618110236220472
 21
-0.1742125984251968
 31
0.0
  0
LINE
  5
282
330
1E
100
AcDbEntity
  8
7
100
AcDbLine
 10
-0.2618110236220472
 20
-0.1742125984251968
 30
0.0
 11
-0.2618110236220472
 21
-0.8001968503937007
 31
0.0
  0
LINE
  5
283
330
1E
100
AcDbEntity
  8
7
100
AcDbLine
 10
-3.739173228346456
 20
-0.156496062992126
 30
0.0
 11
-3.739173228346456
 21
-0.1318897637795275
 31
0.0
  0
LINE
  5
28A
330
1E
100
AcDbEntity
  8
7
100
AcDbLine
 10
-3.781496062992125
 20
-0.1742125984251968
 30
0.0
 11
-3.756889763779527
 21
-0.1742125984251968
 31
0.0
  0
LINE
  5
295
330
1E
100
AcDbEntity
  8
7
100
AcDbLine
 10
-3.756889763779527
 20
-0.1742125984251968
 30
0.0
 11
-3.756889763779527
 21
-0.8001968503937007
 31
0.0
  0
LINE
  5
296
330
1E
100
AcDbEntity
  8
7
100
AcDbLine
 10
-0.3041338582677165
 20
-0.1318897637795275
 30
0.0
 11
-3.739173228346456
 21
-0.1318897637795275
 31
0.0
  0
LINE
  5
297
330
1E
100
AcDbEntity
  8
7
100
AcDbLine
 10
-3.739173228346456
 20
-0.156496062992126
 30
0.0
 11
-0.3041338582677165
 21
-0.156496062992126
 31
0.0
  0
LINE
  5
29E
330
1E
100
AcDbEntity
  8
7
100
AcDbLine
 10
-0.2440944881889763
 20
-0.84251968503937
 30
0.0
 11
-0.2440944881889763
 21
-0.8179133858267716
 31
0.0
  0
LINE
  5
2A9
330
1E
100
AcDbEntity
  8
7
100
AcDbLine
 10
-0.2440944881889763
 20
-0.8179133858267716
 30
0.0
 11
-0.1259842519685039
 21
-0.8179133858267716
 31
0.0
  0
LINE
  5
2B7
330
1E
100
AcDbEntity
  8
7
100
AcDbLine
 10
-3.8001968503937
 20
-0.8179133858267716
 30
0.0
 11
-3.787401574803149
 21
-0.812992125984252
 31
0.0
  0
LINE
  5
2B8
330
1E
100
AcDbEntity
  8
7
100
AcDbLine
 10
-3.787401574803149
 20
-0.812992125984252
 30
0.0
 11
-3.782480314960629
 21
-0.8001968503937007
 31
0.0
  0
LINE
  5
2B9
330
1E
100
AcDbEntity
  8
7
100
AcDbLine
 10
-3.8001968503937
 20
-0.8179133858267716
 30
0.0
 11
-3.8001968503937
 21
-0.84251968503937
 31
0.0
  0
LINE
  5
2D2
330
1E
100
AcDbEntity
  8
7
100
AcDbLine
 10
-3.949803149606299
 20
-0.84251968503937
 30
0.0
 11
-3.949803149606299
 21
-0.8179133858267716
 31
0.0
  0
LINE
  5
2D6
330
1E
100
AcDbEntity
  8
7
100
AcDbLine
 10
-3.949803149606299
 20
-0.8179133858267716
 30
0.0
 11
-3.945866141732283
 21
-0.8179133858267716
 31
0.0
  0
LINE
  5
2D7
330
1E
100
AcDbEntity
  8
7
100
AcDbLine
 10
-3.945866141732283
 20
-0.8179133858267716
 30
0.0
 11
-3.934055118110236
 21
-0.8179133858267716
 31
0.0
  0
LINE
  5
2D8
330
1E
100
AcDbEntity
  8
7
100
AcDbLine
 10
-3.934055118110236
 20
-0.8179133858267716
 30
0.0
 11
-3.917322834645669
 21
-0.8179133858267716
 31
0.0
  0
LINE
  5
2D9
330
1E
100
AcDbEntity
  8
7
100
AcDbLine
 10
-3.8001968503937
 20
-0.84251968503937
 30
0.0
 11
-3.917322834645669
 21
-0.84251968503937
 31
0.0
  0
LINE
  5
2DA
330
1E
100
AcDbEntity
  8
7
100
AcDbLine
 10
-3.917322834645669
 20
-0.84251968503937
 30
0.0
 11
-3.934055118110236
 21
-0.84251968503937
 31
0.0
  0
LINE
  5
2DB
330
1E
100
AcDbEntity
  8
7
100
AcDbLine
 10
-3.934055118110236
 20
-0.84251968503937
 30
0.0
 11
-3.945866141732283
 21
-0.84251968503937
 31
0.0
  0
LINE
  5
2DC
330
1E
100
AcDbEntity
  8
7
100
AcDbLine
 10
-3.945866141732283
 20
-0.84251968503937
 30
0.0
 11
-3.949803149606299
 21
-0.84251968503937
 31
0.0
  0
LINE
  5
2DD
330
1E
100
AcDbEntity
  8
7
100
AcDbLine
 10
-3.8001968503937
 20
-0.8179133858267716
 30
0.0
 11
-3.917322834645669
 21
-0.8179133858267716
 31
0.0
  0
LINE
  5
2DE
330
1E
100
AcDbEntity
  8
7
100
AcDbLine
 10
-3.917322834645669
 20
-0.8179133858267716
 30
0.0
 11
-3.917322834645669
 21
-0.84251968503937
 31
0.0
  0
LINE
  5
2DF
330
1E
100
AcDbEntity
  8
7
100
AcDbLine
 10
-3.8001968503937
 20
-0.84251968503937
 30
0.0
 11
-3.779527559055118
 21
-0.8366141732283464
 31
0.0
  0
LINE
  5
2E0
330
1E
100
AcDbEntity
  8
7
100
AcDbLine
 10
-3.779527559055118
 20
-0.8366141732283464
 30
0.0
 11
-3.763779527559055
 21
-0.8218503937007874
 31
0.0
  0
LINE
  5
2E1
330
1E
100
AcDbEntity
  8
7
100
AcDbLine
 10
-3.763779527559055
 20
-0.8218503937007874
 30
0.0
 11
-3.757874015748031
 21
-0.8001968503937007
 31
0.0
  0
LINE
  5
2E2
330
1E
100
AcDbEntity
  8
7
100
AcDbLine
 10
-0.1259842519685039
 20
-0.8179133858267716
 30
0.0
 11
-0.1102362204724409
 21
-0.8179133858267716
 31
0.0
  0
LINE
  5
2E3
330
1E
100
AcDbEntity
  8
7
100
AcDbLine
 10
-0.1102362204724409
 20
-0.8179133858267716
 30
0.0
 11
-0.0984251968503937
 21
-0.8179133858267716
 31
0.0
  0
LINE
  5
2E4
330
1E
100
AcDbEntity
  8
7
100
AcDbLine
 10
-0.0984251968503937
 20
-0.8179133858267716
 30
0.0
 11
-0.093503937007874
 21
-0.8179133858267716
 31
0.0
  0
LINE
  5
2E5
330
1E
100
AcDbEntity
  8
7
100
AcDbLine
 10
-0.093503937007874
 20
-0.8179133858267716
 30
0.0
 11
-0.093503937007874
 21
-0.84251968503937
 31
0.0
  0
LINE
  5
2E6
330
1E
100
AcDbEntity
  8
7
100
AcDbLine
 10
-0.093503937007874
 20
-0.84251968503937
 30
0.0
 11
-0.0984251968503937
 21
-0.84251968503937
 31
0.0
  0
LINE
  5
2E7
330
1E
100
AcDbEntity
  8
7
100
AcDbLine
 10
-0.0984251968503937
 20
-0.84251968503937
 30
0.0
 11
-0.1102362204724409
 21
-0.84251968503937
 31
0.0
  0
LINE
  5
2E8
330
1E
100
AcDbEntity
  8
7
100
AcDbLine
 10
-0.1102362204724409
 20
-0.84251968503937
 30
0.0
 11
-0.1259842519685039
 21
-0.84251968503937
 31
0.0
  0
LINE
  5
2E9
330
1E
100
AcDbEntity
  8
7
100
AcDbLine
 10
-0.2440944881889763
 20
-0.84251968503937
 30
0.0
 11
-0.1259842519685039
 21
-0.84251968503937
 31
0.0
  0
LINE
  5
2EA
330
1E
100
AcDbEntity
  8
7
100
AcDbLine
 10
-0.1259842519685039
 20
-0.84251968503937
 30
0.0
 11
-0.1259842519685039
 21
-0.8179133858267716
 31
0.0
  0
LINE
  5
2EB
330
1E
100
AcDbEntity
  8
7
100
AcDbLine
 10
-0.2618110236220472
 20
-0.8001968503937007
 30
0.0
 11
-0.2568897637795275
 21
-0.812992125984252
 31
0.0
  0
LINE
  5
2EC
330
1E
100
AcDbEntity
  8
7
100
AcDbLine
 10
-0.2568897637795275
 20
-0.812992125984252
 30
0.0
 11
-0.2440944881889763
 21
-0.8179133858267716
 31
0.0
  0
LINE
  5
2ED
330
1E
100
AcDbEntity
  8
7
100
AcDbLine
 10
-0.2864173228346457
 20
-0.8001968503937007
 30
0.0
 11
-0.280511811023622
 21
-0.8208661417322835
 31
0.0
  0
LINE
  5
2EE
330
1E
100
AcDbEntity
  8
7
100
AcDbLine
 10
-0.280511811023622
 20
-0.8208661417322835
 30
0.0
 11
-0.265748031496063
 21
-0.8366141732283464
 31
0.0
  0
LINE
  5
2EF
330
1E
100
AcDbEntity
  8
7
100
AcDbLine
 10
-0.265748031496063
 20
-0.8366141732283464
 30
0.0
 11
-0.2440944881889763
 21
-0.84251968503937
 31
0.0
  0
LINE
  5
2F0
330
1E
100
AcDbEntity
  8
7
100
AcDbLine
 10
-3.781496062992125
 20
-0.1742125984251968
 30
0.0
 11
-3.781496062992125
 21
-0.8001968503937007
 31
0.0
  0
LINE
  5
2F1
330
1E
100
AcDbEntity
  8
7
100
AcDbLine
 10
-3.781496062992125
 20
-0.8001968503937007
 30
0.0
 11
-3.756889763779527
 21
-0.8001968503937007
 31
0.0
  0
LINE
  5
2F2
330
1E
100
AcDbEntity
  8
7
100
AcDbLine
 10
-3.739173228346456
 20
-0.156496062992126
 30
0.0
 11
-3.751968503937007
 21
-0.1614173228346456
 31
0.0
  0
LINE
  5
2F3
330
1E
100
AcDbEntity
  8
7
100
AcDbLine
 10
-3.751968503937007
 20
-0.1614173228346456
 30
0.0
 11
-3.756889763779527
 21
-0.1742125984251968
 31
0.0
  0
LINE
  5
2F4
330
1E
100
AcDbEntity
  8
7
100
AcDbLine
 10
-3.739173228346456
 20
-0.1318897637795275
 30
0.0
 11
-3.759842519685039
 21
-0.1377952755905512
 31
0.0
  0
LINE
  5
2F5
330
1E
100
AcDbEntity
  8
7
100
AcDbLine
 10
-3.759842519685039
 20
-0.1377952755905512
 30
0.0
 11
-3.775590551181102
 21
-0.1525590551181102
 31
0.0
  0
LINE
  5
2F6
330
1E
100
AcDbEntity
  8
7
100
AcDbLine
 10
-3.775590551181102
 20
-0.1525590551181102
 30
0.0
 11
-3.781496062992125
 21
-0.1742125984251968
 31
0.0
  0
LINE
  5
2F7
330
1E
100
AcDbEntity
  8
7
100
AcDbLine
 10
-0.2864173228346457
 20
-0.1742125984251968
 30
0.0
 11
-0.2864173228346457
 21
-0.8001968503937007
 31
0.0
  0
LINE
  5
2F8
330
1E
100
AcDbEntity
  8
7
100
AcDbLine
 10
-0.2864173228346457
 20
-0.8001968503937007
 30
0.0
 11
-0.2618110236220472
 21
-0.8001968503937007
 31
0.0
  0
LINE
  5
2F9
330
1E
100
AcDbEntity
  8
7
100
AcDbLine
 10
-0.2618110236220472
 20
-0.1742125984251968
 30
0.0
 11
-0.2677165354330708
 21
-0.1535433070866142
 31
0.0
  0
LINE
  5
2FA
330
1E
100
AcDbEntity
  8
7
100
AcDbLine
 10
-0.2677165354330708
 20
-0.1535433070866142
 30
0.0
 11
-0.2824803149606299
 21
-0.1377952755905512
 31
0.0
  0
LINE
  5
2FB
330
1E
100
AcDbEntity
  8
7
100
AcDbLine
 10
-0.2824803149606299
 20
-0.1377952755905512
 30
0.0
 11
-0.3041338582677165
 21
-0.1318897637795275
 31
0.0
  0
LINE
  5
2FC
330
1E
100
AcDbEntity
  8
7
100
AcDbLine
 10
-0.2864173228346457
 20
-0.1742125984251968
 30
0.0
 11
-0.2913385826771653
 21
-0.1614173228346456
 31
0.0
  0
LINE
  5
2FD
330
1E
100
AcDbEntity
  8
7
100
AcDbLine
 10
-0.2913385826771653
 20
-0.1614173228346456
 30
0.0
 11
-0.3041338582677165
 21
-0.156496062992126
 31
0.0
  0
LINE
  5
2FE
330
1E
100
AcDbEntity
  8
7
100
AcDbLine
 10
-3.86023622047244
 20
-1.695866141732283
 30
0.0
 11
-3.872047244094487
 21
-1.704724409448818
 31
0.0
  0
LINE
  5
2FF
330
1E
100
AcDbEntity
  8
7
100
AcDbLine
 10
-3.872047244094487
 20
-1.704724409448818
 30
0.0
 11
-3.876968503937007
 21
-1.719488188976377
 31
0.0
  0
LINE
  5
300
330
1E
100
AcDbEntity
  8
7
100
AcDbLine
 10
-3.827755905511811
 20
-1.719488188976377
 30
0.0
 11
-3.83267716535433
 21
-1.704724409448818
 31
0.0
  0
LINE
  5
301
330
1E
100
AcDbEntity
  8
7
100
AcDbLine
 10
-3.83267716535433
 20
-1.704724409448818
 30
0.0
 11
-3.844488188976377
 21
-1.695866141732283
 31
0.0
  0
LINE
  5
302
330
1E
100
AcDbEntity
  8
7
100
AcDbLine
 10
-3.844488188976377
 20
-1.695866141732283
 30
0.0
 11
-3.86023622047244
 21
-1.695866141732283
 31
0.0
  0
LINE
  5
303
330
1E
100
AcDbEntity
  8
7
100
AcDbLine
 10
-3.89271653543307
 20
-1.878937007874015
 30
0.0
 11
-3.877952755905511
 21
-1.839566929133858
 31
0.0
  0
LINE
  5
304
330
1E
100
AcDbEntity
  8
7
100
AcDbLine
 10
-3.877952755905511
 20
-1.839566929133858
 30
0.0
 11
-3.877952755905511
 21
-1.719488188976377
 31
0.0
  0
LINE
  5
305
330
1E
100
AcDbEntity
  8
7
100
AcDbLine
 10
-3.949803149606299
 20
-1.846456692913385
 30
0.0
 11
-3.945866141732283
 21
-1.862204724409448
 31
0.0
  0
LINE
  5
306
330
1E
100
AcDbEntity
  8
7
100
AcDbLine
 10
-3.945866141732283
 20
-1.862204724409448
 30
0.0
 11
-3.934055118110236
 21
-1.875
 31
0.0
  0
LINE
  5
307
330
1E
100
AcDbEntity
  8
7
100
AcDbLine
 10
-3.934055118110236
 20
-1.875
 30
0.0
 11
-3.917322834645669
 21
-1.878937007874015
 31
0.0
  0
LINE
  5
308
330
1E
100
AcDbEntity
  8
7
100
AcDbLine
 10
-3.917322834645669
 20
-1.559055118110236
 30
0.0
 11
-3.933070866141732
 21
-1.562992125984251
 31
0.0
  0
LINE
  5
309
330
1E
100
AcDbEntity
  8
7
100
AcDbLine
 10
-3.933070866141732
 20
-1.562992125984251
 30
0.0
 11
-3.945866141732283
 21
-1.574803149606299
 31
0.0
  0
LINE
  5
30A
330
1E
100
AcDbEntity
  8
7
100
AcDbLine
 10
-3.945866141732283
 20
-1.574803149606299
 30
0.0
 11
-3.949803149606299
 21
-1.591535433070866
 31
0.0
  0
LINE
  5
30B
330
1E
100
AcDbEntity
  8
7
100
AcDbLine
 10
-3.756889763779527
 20
-1.878937007874015
 30
0.0
 11
-3.76279527559055
 21
-1.878937007874015
 31
0.0
  0
LINE
  5
30C
330
1E
100
AcDbEntity
  8
7
100
AcDbLine
 10
-3.76279527559055
 20
-1.878937007874015
 30
0.0
 11
-3.778543307086613
 21
-1.878937007874015
 31
0.0
  0
LINE
  5
30D
330
1E
100
AcDbEntity
  8
7
100
AcDbLine
 10
-3.778543307086613
 20
-1.878937007874015
 30
0.0
 11
-3.8001968503937
 21
-1.878937007874015
 31
0.0
  0
LINE
  5
30E
330
1E
100
AcDbEntity
  8
7
100
AcDbLine
 10
-3.76279527559055
 20
-1.559055118110236
 30
0.0
 11
-3.778543307086613
 21
-1.559055118110236
 31
0.0
  0
LINE
  5
30F
330
1E
100
AcDbEntity
  8
7
100
AcDbLine
 10
-3.778543307086613
 20
-1.559055118110236
 30
0.0
 11
-3.8001968503937
 21
-1.559055118110236
 31
0.0
  0
LINE
  5
310
330
1E
100
AcDbEntity
  8
7
100
AcDbLine
 10
-0.1663385826771653
 20
-1.719488188976377
 30
0.0
 11
-0.171259842519685
 21
-1.704724409448818
 31
0.0
  0
LINE
  5
311
330
1E
100
AcDbEntity
  8
7
100
AcDbLine
 10
-0.171259842519685
 20
-1.704724409448818
 30
0.0
 11
-0.1830708661417323
 21
-1.695866141732283
 31
0.0
  0
LINE
  5
312
330
1E
100
AcDbEntity
  8
7
100
AcDbLine
 10
-0.1830708661417323
 20
-1.695866141732283
 30
0.0
 11
-0.1988188976377952
 21
-1.695866141732283
 31
0.0
  0
LINE
  5
313
330
1E
100
AcDbEntity
  8
7
100
AcDbLine
 10
-0.1988188976377952
 20
-1.695866141732283
 30
0.0
 11
-0.2106299212598425
 21
-1.704724409448818
 31
0.0
  0
LINE
  5
314
330
1E
100
AcDbEntity
  8
7
100
AcDbLine
 10
-0.2106299212598425
 20
-1.704724409448818
 30
0.0
 11
-0.2155511811023622
 21
-1.719488188976377
 31
0.0
  0
LINE
  5
315
330
1E
100
AcDbEntity
  8
7
100
AcDbLine
 10
-0.2303149606299212
 20
-1.878937007874015
 30
0.0
 11
-0.2155511811023622
 21
-1.839566929133858
 31
0.0
  0
LINE
  5
316
330
1E
100
AcDbEntity
  8
7
100
AcDbLine
 10
-0.2155511811023622
 20
-1.839566929133858
 30
0.0
 11
-0.2155511811023622
 21
-1.719488188976377
 31
0.0
  0
LINE
  5
317
330
1E
100
AcDbEntity
  8
7
100
AcDbLine
 10
-0.093503937007874
 20
-1.591535433070866
 30
0.0
 11
-0.0974409448818898
 21
-1.575787401574803
 31
0.0
  0
LINE
  5
318
330
1E
100
AcDbEntity
  8
7
100
AcDbLine
 10
-0.0974409448818898
 20
-1.575787401574803
 30
0.0
 11
-0.109251968503937
 21
-1.562992125984251
 31
0.0
  0
LINE
  5
319
330
1E
100
AcDbEntity
  8
7
100
AcDbLine
 10
-0.109251968503937
 20
-1.562992125984251
 30
0.0
 11
-0.1259842519685039
 21
-1.559055118110236
 31
0.0
  0
LINE
  5
31A
330
1E
100
AcDbEntity
  8
7
100
AcDbLine
 10
-0.1259842519685039
 20
-1.878937007874015
 30
0.0
 11
-0.1102362204724409
 21
-1.875
 31
0.0
  0
LINE
  5
31B
330
1E
100
AcDbEntity
  8
7
100
AcDbLine
 10
-0.1102362204724409
 20
-1.875
 30
0.0
 11
-0.0974409448818898
 21
-1.863188976377952
 31
0.0
  0
LINE
  5
31C
330
1E
100
AcDbEntity
  8
7
100
AcDbLine
 10
-0.0974409448818898
 20
-1.863188976377952
 30
0.0
 11
-0.093503937007874
 21
-1.846456692913385
 31
0.0
  0
LINE
  5
31D
330
1E
100
AcDbEntity
  8
7
100
AcDbLine
 10
-0.2864173228346457
 20
-1.559055118110236
 30
0.0
 11
-0.280511811023622
 21
-1.559055118110236
 31
0.0
  0
LINE
  5
31E
330
1E
100
AcDbEntity
  8
7
100
AcDbLine
 10
-0.280511811023622
 20
-1.559055118110236
 30
0.0
 11
-0.264763779527559
 21
-1.559055118110236
 31
0.0
  0
LINE
  5
31F
330
1E
100
AcDbEntity
  8
7
100
AcDbLine
 10
-0.2864173228346457
 20
-1.878937007874015
 30
0.0
 11
-0.280511811023622
 21
-1.878937007874015
 31
0.0
  0
LINE
  5
320
330
1E
100
AcDbEntity
  8
7
100
AcDbLine
 10
-0.280511811023622
 20
-1.878937007874015
 30
0.0
 11
-0.264763779527559
 21
-1.878937007874015
 31
0.0
  0
LINE
  5
321
330
1E
100
AcDbEntity
  8
7
100
AcDbLine
 10
-0.264763779527559
 20
-1.878937007874015
 30
0.0
 11
-0.2440944881889763
 21
-1.878937007874015
 31
0.0
  0
LINE
  5
322
330
1E
100
AcDbEntity
  8
7
100
AcDbLine
 10
-3.577755905511811
 20
-1.702755905511811
 30
0.0
 11
-3.589566929133858
 21
-1.698818897637795
 31
0.0
  0
LINE
  5
323
330
1E
100
AcDbEntity
  8
7
100
AcDbLine
 10
-3.589566929133858
 20
-1.698818897637795
 30
0.0
 11
-3.601377952755905
 21
-1.702755905511811
 31
0.0
  0
LINE
  5
324
330
1E
100
AcDbEntity
  8
7
100
AcDbLine
 10
-3.601377952755905
 20
-1.702755905511811
 30
0.0
 11
-3.609251968503937
 21
-1.713582677165354
 31
0.0
  0
LINE
  5
325
330
1E
100
AcDbEntity
  8
7
100
AcDbLine
 10
-3.609251968503937
 20
-1.713582677165354
 30
0.0
 11
-3.609251968503937
 21
-1.725393700787401
 31
0.0
  0
LINE
  5
326
330
1E
100
AcDbEntity
  8
7
100
AcDbLine
 10
-3.609251968503937
 20
-1.725393700787401
 30
0.0
 11
-3.601377952755905
 21
-1.736220472440944
 31
0.0
  0
LINE
  5
327
330
1E
100
AcDbEntity
  8
7
100
AcDbLine
 10
-3.601377952755905
 20
-1.736220472440944
 30
0.0
 11
-3.589566929133858
 21
-1.74015748031496
 31
0.0
  0
LINE
  5
328
330
1E
100
AcDbEntity
  8
7
100
AcDbLine
 10
-3.589566929133858
 20
-1.74015748031496
 30
0.0
 11
-3.577755905511811
 21
-1.736220472440944
 31
0.0
  0
LINE
  5
329
330
1E
100
AcDbEntity
  8
7
100
AcDbLine
 10
-3.577755905511811
 20
-1.736220472440944
 30
0.0
 11
-3.569881889763779
 21
-1.725393700787401
 31
0.0
  0
LINE
  5
32A
330
1E
100
AcDbEntity
  8
7
100
AcDbLine
 10
-3.569881889763779
 20
-1.725393700787401
 30
0.0
 11
-3.569881889763779
 21
-1.713582677165354
 31
0.0
  0
LINE
  5
32B
330
1E
100
AcDbEntity
  8
7
100
AcDbLine
 10
-3.569881889763779
 20
-1.713582677165354
 30
0.0
 11
-3.577755905511811
 21
-1.702755905511811
 31
0.0
  0
LINE
  5
32C
330
1E
100
AcDbEntity
  8
7
100
AcDbLine
 10
-0.4350393700787402
 20
-1.725393700787401
 30
0.0
 11
-0.4350393700787402
 21
-1.713582677165354
 31
0.0
  0
LINE
  5
32D
330
1E
100
AcDbEntity
  8
7
100
AcDbLine
 10
-0.4350393700787402
 20
-1.713582677165354
 30
0.0
 11
-0.4429133858267717
 21
-1.702755905511811
 31
0.0
  0
LINE
  5
32E
330
1E
100
AcDbEntity
  8
7
100
AcDbLine
 10
-0.4429133858267717
 20
-1.702755905511811
 30
0.0
 11
-0.4547244094488189
 21
-1.698818897637795
 31
0.0
  0
LINE
  5
32F
330
1E
100
AcDbEntity
  8
7
100
AcDbLine
 10
-0.4547244094488189
 20
-1.698818897637795
 30
0.0
 11
-0.4665354330708662
 21
-1.702755905511811
 31
0.0
  0
LINE
  5
330
330
1E
100
AcDbEntity
  8
7
100
AcDbLine
 10
-0.4665354330708662
 20
-1.702755905511811
 30
0.0
 11
-0.4744094488188976
 21
-1.713582677165354
 31
0.0
  0
LINE
  5
331
330
1E
100
AcDbEntity
  8
7
100
AcDbLine
 10
-0.4744094488188976
 20
-1.713582677165354
 30
0.0
 11
-0.4744094488188976
 21
-1.725393700787401
 31
0.0
  0
LINE
  5
332
330
1E
100
AcDbEntity
  8
7
100
AcDbLine
 10
-0.4744094488188976
 20
-1.725393700787401
 30
0.0
 11
-0.4665354330708662
 21
-1.736220472440944
 31
0.0
  0
LINE
  5
333
330
1E
100
AcDbEntity
  8
7
100
AcDbLine
 10
-0.4665354330708662
 20
-1.736220472440944
 30
0.0
 11
-0.4547244094488189
 21
-1.74015748031496
 31
0.0
  0
LINE
  5
334
330
1E
100
AcDbEntity
  8
7
100
AcDbLine
 10
-0.4547244094488189
 20
-1.74015748031496
 30
0.0
 11
-0.4429133858267717
 21
-1.736220472440944
 31
0.0
  0
LINE
  5
335
330
1E
100
AcDbEntity
  8
7
100
AcDbLine
 10
-0.4429133858267717
 20
-1.736220472440944
 30
0.0
 11
-0.4350393700787402
 21
-1.725393700787401
 31
0.0
  0
LINE
  5
336
330
1E
100
AcDbEntity
  8
7
100
AcDbLine
 10
-1.854330708661417
 20
-1.74015748031496
 30
0.0
 11
-1.84251968503937
 21
-1.736220472440944
 31
0.0
  0
LINE
  5
337
330
1E
100
AcDbEntity
  8
7
100
AcDbLine
 10
-1.84251968503937
 20
-1.736220472440944
 30
0.0
 11
-1.834645669291338
 21
-1.725393700787401
 31
0.0
  0
LINE
  5
338
330
1E
100
AcDbEntity
  8
7
100
AcDbLine
 10
-1.834645669291338
 20
-1.725393700787401
 30
0.0
 11
-1.834645669291338
 21
-1.713582677165354
 31
0.0
  0
LINE
  5
339
330
1E
100
AcDbEntity
  8
7
100
AcDbLine
 10
-1.834645669291338
 20
-1.713582677165354
 30
0.0
 11
-1.84251968503937
 21
-1.702755905511811
 31
0.0
  0
LINE
  5
33A
330
1E
100
AcDbEntity
  8
7
100
AcDbLine
 10
-1.84251968503937
 20
-1.702755905511811
 30
0.0
 11
-1.854330708661417
 21
-1.698818897637795
 31
0.0
  0
LINE
  5
33B
330
1E
100
AcDbEntity
  8
7
100
AcDbLine
 10
-1.854330708661417
 20
-1.698818897637795
 30
0.0
 11
-1.866141732283464
 21
-1.702755905511811
 31
0.0
  0
LINE
  5
33C
330
1E
100
AcDbEntity
  8
7
100
AcDbLine
 10
-1.866141732283464
 20
-1.702755905511811
 30
0.0
 11
-1.874015748031496
 21
-1.713582677165354
 31
0.0
  0
LINE
  5
33D
330
1E
100
AcDbEntity
  8
7
100
AcDbLine
 10
-1.874015748031496
 20
-1.713582677165354
 30
0.0
 11
-1.874015748031496
 21
-1.725393700787401
 31
0.0
  0
LINE
  5
33E
330
1E
100
AcDbEntity
  8
7
100
AcDbLine
 10
-1.874015748031496
 20
-1.725393700787401
 30
0.0
 11
-1.866141732283464
 21
-1.736220472440944
 31
0.0
  0
LINE
  5
33F
330
1E
100
AcDbEntity
  8
7
100
AcDbLine
 10
-1.866141732283464
 20
-1.736220472440944
 30
0.0
 11
-1.854330708661417
 21
-1.74015748031496
 31
0.0
  0
LINE
  5
340
330
1E
100
AcDbEntity
  8
7
100
AcDbLine
 10
-2.188976377952756
 20
-1.74015748031496
 30
0.0
 11
-2.177165354330708
 21
-1.736220472440944
 31
0.0
  0
LINE
  5
341
330
1E
100
AcDbEntity
  8
7
100
AcDbLine
 10
-2.177165354330708
 20
-1.736220472440944
 30
0.0
 11
-2.169291338582677
 21
-1.725393700787401
 31
0.0
  0
LINE
  5
342
330
1E
100
AcDbEntity
  8
7
100
AcDbLine
 10
-2.169291338582677
 20
-1.725393700787401
 30
0.0
 11
-2.169291338582677
 21
-1.713582677165354
 31
0.0
  0
LINE
  5
343
330
1E
100
AcDbEntity
  8
7
100
AcDbLine
 10
-2.169291338582677
 20
-1.713582677165354
 30
0.0
 11
-2.177165354330708
 21
-1.702755905511811
 31
0.0
  0
LINE
  5
344
330
1E
100
AcDbEntity
  8
7
100
AcDbLine
 10
-2.177165354330708
 20
-1.702755905511811
 30
0.0
 11
-2.188976377952756
 21
-1.698818897637795
 31
0.0
  0
LINE
  5
345
330
1E
100
AcDbEntity
  8
7
100
AcDbLine
 10
-2.188976377952756
 20
-1.698818897637795
 30
0.0
 11
-2.200787401574803
 21
-1.702755905511811
 31
0.0
  0
LINE
  5
346
330
1E
100
AcDbEntity
  8
7
100
AcDbLine
 10
-2.200787401574803
 20
-1.702755905511811
 30
0.0
 11
-2.208661417322834
 21
-1.713582677165354
 31
0.0
  0
LINE
  5
347
330
1E
100
AcDbEntity
  8
7
100
AcDbLine
 10
-2.208661417322834
 20
-1.713582677165354
 30
0.0
 11
-2.208661417322834
 21
-1.725393700787401
 31
0.0
  0
LINE
  5
348
330
1E
100
AcDbEntity
  8
7
100
AcDbLine
 10
-2.208661417322834
 20
-1.725393700787401
 30
0.0
 11
-2.200787401574803
 21
-1.736220472440944
 31
0.0
  0
LINE
  5
349
330
1E
100
AcDbEntity
  8
7
100
AcDbLine
 10
-2.200787401574803
 20
-1.736220472440944
 30
0.0
 11
-2.188976377952756
 21
-1.74015748031496
 31
0.0
  0
LINE
  5
34A
330
1E
100
AcDbEntity
  8
7
100
AcDbLine
 10
-1.931102362204724
 20
-1.74015748031496
 30
0.0
 11
-1.919291338582677
 21
-1.736220472440944
 31
0.0
  0
LINE
  5
34B
330
1E
100
AcDbEntity
  8
7
100
AcDbLine
 10
-1.919291338582677
 20
-1.736220472440944
 30
0.0
 11
-1.911417322834645
 21
-1.725393700787401
 31
0.0
  0
LINE
  5
34C
330
1E
100
AcDbEntity
  8
7
100
AcDbLine
 10
-1.911417322834645
 20
-1.725393700787401
 30
0.0
 11
-1.911417322834645
 21
-1.713582677165354
 31
0.0
  0
LINE
  5
34D
330
1E
100
AcDbEntity
  8
7
100
AcDbLine
 10
-1.911417322834645
 20
-1.713582677165354
 30
0.0
 11
-1.919291338582677
 21
-1.702755905511811
 31
0.0
  0
LINE
  5
34E
330
1E
100
AcDbEntity
  8
7
100
AcDbLine
 10
-1.919291338582677
 20
-1.702755905511811
 30
0.0
 11
-1.931102362204724
 21
-1.698818897637795
 31
0.0
  0
LINE
  5
34F
330
1E
100
AcDbEntity
  8
7
100
AcDbLine
 10
-1.931102362204724
 20
-1.698818897637795
 30
0.0
 11
-1.942913385826771
 21
-1.702755905511811
 31
0.0
  0
LINE
  5
350
330
1E
100
AcDbEntity
  8
7
100
AcDbLine
 10
-1.942913385826771
 20
-1.702755905511811
 30
0.0
 11
-1.950787401574802
 21
-1.713582677165354
 31
0.0
  0
LINE
  5
351
330
1E
100
AcDbEntity
  8
7
100
AcDbLine
 10
-1.950787401574802
 20
-1.713582677165354
 30
0.0
 11
-1.950787401574802
 21
-1.725393700787401
 31
0.0
  0
LINE
  5
352
330
1E
100
AcDbEntity
  8
7
100
AcDbLine
 10
-1.950787401574802
 20
-1.725393700787401
 30
0.0
 11
-1.942913385826771
 21
-1.736220472440944
 31
0.0
  0
LINE
  5
353
330
1E
100
AcDbEntity
  8
7
100
AcDbLine
 10
-1.942913385826771
 20
-1.736220472440944
 30
0.0
 11
-1.931102362204724
 21
-1.74015748031496
 31
0.0
  0
LINE
  5
354
330
1E
100
AcDbEntity
  8
7
100
AcDbLine
 10
-0.4055118110236221
 20
-1.725393700787401
 30
0.0
 11
-0.3976377952755905
 21
-1.736220472440944
 31
0.0
  0
LINE
  5
355
330
1E
100
AcDbEntity
  8
7
100
AcDbLine
 10
-0.3976377952755905
 20
-1.736220472440944
 30
0.0
 11
-0.3858267716535433
 21
-1.74015748031496
 31
0.0
  0
LINE
  5
356
330
1E
100
AcDbEntity
  8
7
100
AcDbLine
 10
-0.3858267716535433
 20
-1.74015748031496
 30
0.0
 11
-0.3740157480314961
 21
-1.736220472440944
 31
0.0
  0
LINE
  5
357
330
1E
100
AcDbEntity
  8
7
100
AcDbLine
 10
-0.3740157480314961
 20
-1.736220472440944
 30
0.0
 11
-0.3661417322834645
 21
-1.725393700787401
 31
0.0
  0
LINE
  5
358
330
1E
100
AcDbEntity
  8
7
100
AcDbLine
 10
-0.3661417322834645
 20
-1.725393700787401
 30
0.0
 11
-0.3661417322834645
 21
-1.713582677165354
 31
0.0
  0
LINE
  5
359
330
1E
100
AcDbEntity
  8
7
100
AcDbLine
 10
-0.3661417322834645
 20
-1.713582677165354
 30
0.0
 11
-0.3740157480314961
 21
-1.702755905511811
 31
0.0
  0
LINE
  5
35A
330
1E
100
AcDbEntity
  8
7
100
AcDbLine
 10
-0.3740157480314961
 20
-1.702755905511811
 30
0.0
 11
-0.3858267716535433
 21
-1.698818897637795
 31
0.0
  0
LINE
  5
35B
330
1E
100
AcDbEntity
  8
7
100
AcDbLine
 10
-0.3858267716535433
 20
-1.698818897637795
 30
0.0
 11
-0.3976377952755905
 21
-1.702755905511811
 31
0.0
  0
LINE
  5
35C
330
1E
100
AcDbEntity
  8
7
100
AcDbLine
 10
-0.3976377952755905
 20
-1.702755905511811
 30
0.0
 11
-0.4055118110236221
 21
-1.713582677165354
 31
0.0
  0
LINE
  5
35D
330
1E
100
AcDbEntity
  8
7
100
AcDbLine
 10
-0.4055118110236221
 20
-1.713582677165354
 30
0.0
 11
-0.4055118110236221
 21
-1.725393700787401
 31
0.0
  0
LINE
  5
35E
330
1E
100
AcDbEntity
  8
7
100
AcDbLine
 10
-3.739173228346456
 20
-1.559055118110236
 30
0.0
 11
-3.751968503937007
 21
-1.559055118110236
 31
0.0
  0
LINE
  5
35F
330
1E
100
AcDbEntity
  8
7
100
AcDbLine
 10
-3.751968503937007
 20
-1.559055118110236
 30
0.0
 11
-3.756889763779527
 21
-1.559055118110236
 31
0.0
  0
LINE
  5
360
330
1E
100
AcDbEntity
  8
7
100
AcDbLine
 10
-3.739173228346456
 20
-1.878937007874015
 30
0.0
 11
-3.751968503937007
 21
-1.878937007874015
 31
0.0
  0
LINE
  5
361
330
1E
100
AcDbEntity
  8
7
100
AcDbLine
 10
-3.751968503937007
 20
-1.878937007874015
 30
0.0
 11
-3.756889763779527
 21
-1.878937007874015
 31
0.0
  0
LINE
  5
362
330
1E
100
AcDbEntity
  8
7
100
AcDbLine
 10
-0.3041338582677165
 20
-1.878937007874015
 30
0.0
 11
-0.2913385826771653
 21
-1.878937007874015
 31
0.0
  0
LINE
  5
363
330
1E
100
AcDbEntity
  8
7
100
AcDbLine
 10
-0.2913385826771653
 20
-1.878937007874015
 30
0.0
 11
-0.2864173228346457
 21
-1.878937007874015
 31
0.0
  0
LINE
  5
364
330
1E
100
AcDbEntity
  8
7
100
AcDbLine
 10
-0.3041338582677165
 20
-1.559055118110236
 30
0.0
 11
-0.2913385826771653
 21
-1.559055118110236
 31
0.0
  0
LINE
  5
365
330
1E
100
AcDbEntity
  8
7
100
AcDbLine
 10
-0.2913385826771653
 20
-1.559055118110236
 30
0.0
 11
-0.2864173228346457
 21
-1.559055118110236
 31
0.0
  0
LINE
  5
366
330
1E
100
AcDbEntity
  8
7
100
AcDbLine
 10
-3.949803149606299
 20
-0.8179133858267716
 30
0.0
 11
-3.945866141732283
 21
-0.8179133858267716
 31
0.0
  0
LINE
  5
367
330
1E
100
AcDbEntity
  8
7
100
AcDbLine
 10
-3.945866141732283
 20
-0.8179133858267716
 30
0.0
 11
-3.934055118110236
 21
-0.8179133858267716
 31
0.0
  0
LINE
  5
368
330
1E
100
AcDbEntity
  8
7
100
AcDbLine
 10
-3.934055118110236
 20
-0.8179133858267716
 30
0.0
 11
-3.917322834645669
 21
-0.8179133858267716
 31
0.0
  0
LINE
  5
369
330
1E
100
AcDbEntity
  8
7
100
AcDbLine
 10
-3.934055118110236
 20
-0.84251968503937
 30
0.0
 11
-3.945866141732283
 21
-0.84251968503937
 31
0.0
  0
LINE
  5
36A
330
1E
100
AcDbEntity
  8
7
100
AcDbLine
 10
-3.945866141732283
 20
-0.84251968503937
 30
0.0
 11
-3.949803149606299
 21
-0.84251968503937
 31
0.0
  0
LINE
  5
36B
330
1E
100
AcDbEntity
  8
7
100
AcDbLine
 10
-3.8001968503937
 20
-0.84251968503937
 30
0.0
 11
-3.917322834645669
 21
-0.84251968503937
 31
0.0
  0
LINE
  5
36C
330
1E
100
AcDbEntity
  8
7
100
AcDbLine
 10
-3.917322834645669
 20
-0.84251968503937
 30
0.0
 11
-3.934055118110236
 21
-0.84251968503937
 31
0.0
  0
LINE
  5
36D
330
1E
100
AcDbEntity
  8
7
100
AcDbLine
 10
-3.8001968503937
 20
-0.8179133858267716
 30
0.0
 11
-3.917322834645669
 21
-0.8179133858267716
 31
0.0
  0
LINE
  5
36E
330
1E
100
AcDbEntity
  8
7
100
AcDbLine
 10
-3.917322834645669
 20
-0.8179133858267716
 30
0.0
 11
-3.917322834645669
 21
-0.84251968503937
 31
0.0
  0
LINE
  5
36F
330
1E
100
AcDbEntity
  8
7
100
AcDbLine
 10
-3.8001968503937
 20
-0.84251968503937
 30
0.0
 11
-3.779527559055118
 21
-0.8366141732283464
 31
0.0
  0
LINE
  5
370
330
1E
100
AcDbEntity
  8
7
100
AcDbLine
 10
-3.779527559055118
 20
-0.8366141732283464
 30
0.0
 11
-3.763779527559055
 21
-0.8218503937007874
 31
0.0
  0
LINE
  5
371
330
1E
100
AcDbEntity
  8
7
100
AcDbLine
 10
-3.763779527559055
 20
-0.8218503937007874
 30
0.0
 11
-3.757874015748031
 21
-0.8001968503937007
 31
0.0
  0
LINE
  5
372
330
1E
100
AcDbEntity
  8
7
100
AcDbLine
 10
-3.8001968503937
 20
-0.8179133858267716
 30
0.0
 11
-3.787401574803149
 21
-0.812992125984252
 31
0.0
  0
LINE
  5
373
330
1E
100
AcDbEntity
  8
7
100
AcDbLine
 10
-3.787401574803149
 20
-0.812992125984252
 30
0.0
 11
-3.782480314960629
 21
-0.8001968503937007
 31
0.0
  0
LINE
  5
374
330
1E
100
AcDbEntity
  8
7
100
AcDbLine
 10
-0.1259842519685039
 20
-0.8179133858267716
 30
0.0
 11
-0.1102362204724409
 21
-0.8179133858267716
 31
0.0
  0
LINE
  5
375
330
1E
100
AcDbEntity
  8
7
100
AcDbLine
 10
-0.1102362204724409
 20
-0.8179133858267716
 30
0.0
 11
-0.0984251968503937
 21
-0.8179133858267716
 31
0.0
  0
LINE
  5
376
330
1E
100
AcDbEntity
  8
7
100
AcDbLine
 10
-0.0984251968503937
 20
-0.8179133858267716
 30
0.0
 11
-0.093503937007874
 21
-0.8179133858267716
 31
0.0
  0
LINE
  5
377
330
1E
100
AcDbEntity
  8
7
100
AcDbLine
 10
-0.093503937007874
 20
-0.8179133858267716
 30
0.0
 11
-0.093503937007874
 21
-0.84251968503937
 31
0.0
  0
LINE
  5
378
330
1E
100
AcDbEntity
  8
7
100
AcDbLine
 10
-0.093503937007874
 20
-0.84251968503937
 30
0.0
 11
-0.0984251968503937
 21
-0.84251968503937
 31
0.0
  0
LINE
  5
379
330
1E
100
AcDbEntity
  8
7
100
AcDbLine
 10
-0.0984251968503937
 20
-0.84251968503937
 30
0.0
 11
-0.1102362204724409
 21
-0.84251968503937
 31
0.0
  0
LINE
  5
37A
330
1E
100
AcDbEntity
  8
7
100
AcDbLine
 10
-0.1102362204724409
 20
-0.84251968503937
 30
0.0
 11
-0.1259842519685039
 21
-0.84251968503937
 31
0.0
  0
LINE
  5
37B
330
1E
100
AcDbEntity
  8
7
100
AcDbLine
 10
-0.2440944881889763
 20
-0.84251968503937
 30
0.0
 11
-0.1259842519685039
 21
-0.84251968503937
 31
0.0
  0
LINE
  5
37C
330
1E
100
AcDbEntity
  8
7
100
AcDbLine
 10
-0.1259842519685039
 20
-0.84251968503937
 30
0.0
 11
-0.1259842519685039
 21
-0.8179133858267716
 31
0.0
  0
LINE
  5
37D
330
1E
100
AcDbEntity
  8
7
100
AcDbLine
 10
-0.2618110236220472
 20
-0.8001968503937007
 30
0.0
 11
-0.2568897637795275
 21
-0.812992125984252
 31
0.0
  0
LINE
  5
37E
330
1E
100
AcDbEntity
  8
7
100
AcDbLine
 10
-0.2568897637795275
 20
-0.812992125984252
 30
0.0
 11
-0.2440944881889763
 21
-0.8179133858267716
 31
0.0
  0
LINE
  5
37F
330
1E
100
AcDbEntity
  8
7
100
AcDbLine
 10
-0.2864173228346457
 20
-0.8001968503937007
 30
0.0
 11
-0.280511811023622
 21
-0.8208661417322835
 31
0.0
  0
LINE
  5
380
330
1E
100
AcDbEntity
  8
7
100
AcDbLine
 10
-0.280511811023622
 20
-0.8208661417322835
 30
0.0
 11
-0.265748031496063
 21
-0.8366141732283464
 31
0.0
  0
LINE
  5
381
330
1E
100
AcDbEntity
  8
7
100
AcDbLine
 10
-3.739173228346456
 20
-0.156496062992126
 30
0.0
 11
-3.751968503937007
 21
-0.1614173228346456
 31
0.0
  0
LINE
  5
382
330
1E
100
AcDbEntity
  8
7
100
AcDbLine
 10
-3.751968503937007
 20
-0.1614173228346456
 30
0.0
 11
-3.756889763779527
 21
-0.1742125984251968
 31
0.0
  0
LINE
  5
383
330
1E
100
AcDbEntity
  8
7
100
AcDbLine
 10
-3.739173228346456
 20
-0.1318897637795275
 30
0.0
 11
-3.759842519685039
 21
-0.1377952755905512
 31
0.0
  0
LINE
  5
384
330
1E
100
AcDbEntity
  8
7
100
AcDbLine
 10
-3.759842519685039
 20
-0.1377952755905512
 30
0.0
 11
-3.775590551181102
 21
-0.1525590551181102
 31
0.0
  0
LINE
  5
385
330
1E
100
AcDbEntity
  8
7
100
AcDbLine
 10
-3.775590551181102
 20
-0.1525590551181102
 30
0.0
 11
-3.781496062992125
 21
-0.1742125984251968
 31
0.0
  0
LINE
  5
386
330
1E
100
AcDbEntity
  8
7
100
AcDbLine
 10
-0.2864173228346457
 20
-0.1742125984251968
 30
0.0
 11
-0.2864173228346457
 21
-0.8001968503937007
 31
0.0
  0
LINE
  5
387
330
1E
100
AcDbEntity
  8
7
100
AcDbLine
 10
-0.2864173228346457
 20
-0.8001968503937007
 30
0.0
 11
-0.2618110236220472
 21
-0.8001968503937007
 31
0.0
  0
LINE
  5
388
330
1E
100
AcDbEntity
  8
7
100
AcDbLine
 10
-0.2618110236220472
 20
-0.1742125984251968
 30
0.0
 11
-0.2677165354330708
 21
-0.1535433070866142
 31
0.0
  0
LINE
  5
389
330
1E
100
AcDbEntity
  8
7
100
AcDbLine
 10
-0.2677165354330708
 20
-0.1535433070866142
 30
0.0
 11
-0.2824803149606299
 21
-0.1377952755905512
 31
0.0
  0
LINE
  5
38A
330
1E
100
AcDbEntity
  8
7
100
AcDbLine
 10
-0.2824803149606299
 20
-0.1377952755905512
 30
0.0
 11
-0.3041338582677165
 21
-0.1318897637795275
 31
0.0
  0
LINE
  5
38B
330
1E
100
AcDbEntity
  8
7
100
AcDbLine
 10
-0.2864173228346457
 20
-0.1742125984251968
 30
0.0
 11
-0.2913385826771653
 21
-0.1614173228346456
 31
0.0
  0
LINE
  5
38C
330
1E
100
AcDbEntity
  8
7
100
AcDbLine
 10
-0.2913385826771653
 20
-0.1614173228346456
 30
0.0
 11
-0.3041338582677165
 21
-0.156496062992126
 31
0.0
  0
ENDSEC
  0
SECTION
  2
OBJECTS
  0
DICTIONARY
  5
C
330
0
100
AcDbDictionary
281
     1
  3
ACAD_GROUP
350
D
  3
ACAD_PLOTSTYLENAME
350
E
  3
ACAD_MLINESTYLE
350
16
  3
ACAD_PLOTSETTINGS
350
18
  3
ACAD_LAYOUT
350
19
  0
DICTIONARY
  5
D
102
{ACAD_REACTORS
330
C
102
}
330
C
100
AcDbDictionary
281
     1
  0
ACDBDICTIONARYWDFLT
  5
E
102
{ACAD_REACTORS
330
C
102
}
330
C
100
AcDbDictionary
281
     1
  3
Normal
350
F
100
AcDbDictionaryWithDefault
340
F
  0
DICTIONARY
  5
16
102
{ACAD_REACTORS
330
C
102
}
330
C
100
AcDbDictionary
281
     1
  3
Standard
350
17
  0
DICTIONARY
  5
18
102
{ACAD_REACTORS
330
C
102
}
330
C
100
AcDbDictionary
281
     1
  0
DICTIONARY
  5
19
102
{ACAD_REACTORS
330
C
102
}
330
C
100
AcDbDictionary
281
     1
  3
Layout1
350
1D
  3
Model
350
21
  0
ACDBPLACEHOLDER
  5
F
102
{ACAD_REACTORS
330
E
102
}
330
E
  0
MLINESTYLE
  5
17
102
{ACAD_REACTORS
330
16
102
}
330
16
100
AcDbMlineStyle
  2
STANDARD
 70
     0
  3

 62
   256
 51
90.0
 52
90.0
 71
     2
 49
0.5
 62
   256
  6
BYLAYER
 49
-0.5
 62
   256
  6
BYLAYER
  0
LAYOUT
  5
1D
102
{ACAD_REACTORS
330
19
102
}
330
19
100
AcDbPlotSettings
  1

  2
\\nseng\OPlaser1
  4

  6

 40
0.0
 41
0.0
 42
0.0
 43
0.0
 44
0.0
 45
0.0
 46
0.0
 47
0.0
 48
0.0
 49
0.0
140
0.0
141
0.0
142
1.0
143
1.0
 70
   688
 72
     0
 73
     0
 74
     5
  7

 75
    16
147
1.0
148
0.0
149
0.0
100
AcDbLayout
  1
Layout1
 70
     1
 71
     1
 10
0.0
 20
0.0
 11
12.0
 21
9.0
 12
0.0
 22
0.0
 32
0.0
 14
1.000000000000000E+20
 24
1.000000000000000E+20
 34
1.000000000000000E+20
 15
-1.000000000000000E+20
 25
-1.000000000000000E+20
 35
-1.000000000000000E+20
146
0.0
 13
0.0
 23
0.0
 33
0.0
 16
1.0
 26
0.0
 36
0.0
 17
0.0
 27
1.0
 37
0.0
 76
     0
330
1A
  0
LAYOUT
  5
21
102
{ACAD_REACTORS
330
19
102
}
330
19
100
AcDbPlotSettings
  1

  2
\\nseng\OPlaser1
  4

  6

 40
0.0
 41
0.0
 42
0.0
 43
0.0
 44
0.0
 45
0.0
 46
0.0
 47
0.0
 48
0.0
 49
0.0
140
0.0
141
0.0
142
1.0
143
1.0
 70
  1712
 72
     0
 73
     0
 74
     0
  7

 75
     0
147
1.0
148
0.0
149
0.0
100
AcDbLayout
  1
Model
 70
     1
 71
     0
 10
0.0
 20
0.0
 11
12.0
 21
9.0
 12
0.0
 22
0.0
 32
0.0
 14
0.0
 24
0.0
 34
0.0
 15
0.0
 25
0.0
 35
0.0
146
0.0
 13
0.0
 23
0.0
 33
0.0
 16
1.0
 26
0.0
 36
0.0
 17
0.0
 27
1.0
 37
0.0
 76
     0
330
1E
  0
ENDSEC
  0
EOF
