  0
SECTION
  2
HEADER
  9
$ACADVER
  1
AC1015
  9
$ACADMAINTVER
 70
     6
  9
$DWGCODEPAGE
  3
ANSI_1252
  9
$INSBASE
 10
0.0
 20
0.0
 30
0.0
  9
$EXTMIN
 10
-0.5
 20
-0.5
 30
-0.5
  9
$EXTMAX
 10
5.0
 20
5.0
 30
5.0
  9
$LIMMIN
 10
-0.5
 20
-0.5
  9
$LIMMAX
 10
5.0
 20
5.0
  9
$ORTHOMODE
 70
     0
  9
$REGENMODE
 70
     1
  9
$FILLMODE
 70
     1
  9
$QTEXTMODE
 70
     0
  9
$MIRRTEXT
 70
     1
  9
$LTSCALE
 40
1.0
  9
$ATTMODE
 70
     1
  9
$TEXTSIZE
 40
0.2
  9
$TRACEWID
 40
0.05
  9
$TEXTSTYLE
  7
Standard
  9
$CLAYER
  8
0
  9
$CELTYPE
  6
Continuous
  9
$CECOLOR
 62
   256
  9
$CELTSCALE
 40
1.0
  9
$DISPSILH
 70
     0
  9
$DIMSCALE
 40
1.0
  9
$DIMASZ
 40
0.18
  9
$DIMEXO
 40
0.0625
  9
$DIMDLI
 40
0.38
  9
$DIMRND
 40
0.0
  9
$DIMDLE
 40
0.0
  9
$DIMEXE
 40
0.18
  9
$DIMTP
 40
0.0
  9
$DIMTM
 40
0.0
  9
$DIMTXT
 40
0.18
  9
$DIMCEN
 40
0.09
  9
$DIMTSZ
 40
0.0
  9
$DIMTOL
 70
     0
  9
$DIMLIM
 70
     0
  9
$DIMTIH
 70
     1
  9
$DIMTOH
 70
     1
  9
$DIMSE1
 70
     0
  9
$DIMSE2
 70
     0
  9
$DIMTAD
 70
     0
  9
$DIMZIN
 70
     0
  9
$DIMBLK
  1

  9
$DIMASO
 70
     1
  9
$DIMSHO
 70
     1
  9
$DIMPOST
  1

  9
$DIMAPOST
  1

  9
$DIMALT
 70
     0
  9
$DIMALTD
 70
     2
  9
$DIMALTF
 40
25.4
  9
$DIMLFAC
 40
1.0
  9
$DIMTOFL
 70
     0
  9
$DIMTVP
 40
0.0
  9
$DIMTIX
 70
     0
  9
$DIMSOXD
 70
     0
  9
$DIMSAH
 70
     0
  9
$DIMBLK1
  1

  9
$DIMBLK2
  1

  9
$DIMSTYLE
  2
Standard
  9
$DIMCLRD
 70
     0
  9
$DIMCLRE
 70
     0
  9
$DIMCLRT
 70
     0
  9
$DIMTFAC
 40
1.0
  9
$DIMGAP
 40
0.09
  9
$DIMJUST
 70
     0
  9
$DIMSD1
 70
     0
  9
$DIMSD2
 70
     0
  9
$DIMTOLJ
 70
     1
  9
$DIMTZIN
 70
     0
  9
$DIMALTZ
 70
     0
  9
$DIMALTTZ
 70
     0
  9
$DIMUPT
 70
     0
  9
$DIMDEC
 70
     4
  9
$DIMTDEC
 70
     4
  9
$DIMALTU
 70
     2
  9
$DIMALTTD
 70
     2
  9
$DIMTXSTY
  7
Standard
  9
$DIMAUNIT
 70
     0
  9
$DIMADEC
 70
     0
  9
$DIMALTRND
 40
0.0
  9
$DIMAZIN
 70
     0
  9
$DIMDSEP
 70
     0
  9
$DIMATFIT
 70
     3
  9
$DIMFRAC
 70
     0
  9
$DIMLDRBLK
  1

  9
$DIMLUNIT
 70
     2
  9
$DIMLWD
 70
     0
  9
$DIMLWE
 70
     0
  9
$DIMTMOVE
 70
     0
  9
$LUNITS
 70
     2
  9
$LUPREC
 70
     4
  9
$SKETCHINC
 40
0.1
  9
$FILLETRAD
 40
0.0
  9
$AUNITS
 70
     0
  9
$AUPREC
 70
     0
  9
$MENU
  1
acad
  9
$ELEVATION
 40
0.0
  9
$PELEVATION
 40
0.0
  9
$THICKNESS
 40
0.0
  9
$LIMCHECK
 70
     0
  9
$CHAMFERA
 40
0.0
  9
$CHAMFERB
 40
0.0
  9
$CHAMFERC
 40
0.0
  9
$CHAMFERD
 40
0.0
  9
$SKPOLY
 70
     0
  9
$TDCREATE
 40
0.000000000
  9
$TDUCREATE
 40
0.000000000
  9
$TDUPDATE
 40
0.000000000
  9
$TDUUPDATE
 40
0.000000000
  9
$TDINDWG
 40
0.0000000000
  9
$TDUSRTIMER
 40
0.0000000000
  9
$USRTIMER
 70
     1
  9
$ANGBASE
 50
0.0
  9
$ANGDIR
 70
     0
  9
$PDMODE
 70
     0
  9
$PDSIZE
 40
0.0
  9
$PLINEWID
 40
0.0
  9
$SPLFRAME
 70
     0
  9
$SPLINETYPE
 70
     6
  9
$SPLINESEGS
 70
     8
  9
$HANDSEED
  5
3C0
  9
$SURFTAB1
 70
     6
  9
$SURFTAB2
 70
     6
  9
$SURFTYPE
 70
     6
  9
$SURFU
 70
     6
  9
$SURFV
 70
     6
  9
$UCSBASE
  2

  9
$UCSNAME
  2

  9
$UCSORG
 10
0.0
 20
0.0
 30
0.0
  9
$UCSXDIR
 10
1.0
 20
0.0
 30
0.0
  9
$UCSYDIR
 10
0.0
 20
1.0
 30
0.0
  9
$UCSORTHOREF
  2

  9
$UCSORTHOVIEW
 70
     0
  9
$UCSORGTOP
 10
0.0
 20
0.0
 30
0.0
  9
$UCSORGBOTTOM
 10
0.0
 20
0.0
 30
0.0
  9
$UCSORGLEFT
 10
0.0
 20
0.0
 30
0.0
  9
$UCSORGRIGHT
 10
0.0
 20
0.0
 30
0.0
  9
$UCSORGFRONT
 10
0.0
 20
0.0
 30
0.0
  9
$UCSORGBACK
 10
0.0
 20
0.0
 30
0.0
  9
$PUCSBASE
  2

  9
$PUCSNAME
  2

  9
$PUCSORG
 10
0.0
 20
0.0
 30
0.0
  9
$PUCSXDIR
 10
1.0
 20
0.0
 30
0.0
  9
$PUCSYDIR
 10
0.0
 20
1.0
 30
0.0
  9
$PUCSORTHOREF
  2

  9
$PUCSORTHOVIEW
 70
     0
  9
$PUCSORGTOP
 10
0.0
 20
0.0
 30
0.0
  9
$PUCSORGBOTTOM
 10
0.0
 20
0.0
 30
0.0
  9
$PUCSORGLEFT
 10
0.0
 20
0.0
 30
0.0
  9
$PUCSORGRIGHT
 10
0.0
 20
0.0
 30
0.0
  9
$PUCSORGFRONT
 10
0.0
 20
0.0
 30
0.0
  9
$PUCSORGBACK
 10
0.0
 20
0.0
 30
0.0
  9
$USERI1
 70
     0
  9
$USERI2
 70
     0
  9
$USERI3
 70
     0
  9
$USERI4
 70
     0
  9
$USERI5
 70
     0
  9
$USERR1
 40
0.0
  9
$USERR2
 40
0.0
  9
$USERR3
 40
0.0
  9
$USERR4
 40
0.0
  9
$USERR5
 40
0.0
  9
$WORLDVIEW
 70
     1
  9
$SHADEDGE
 70
     3
  9
$SHADEDIF
 70
    70
  9
$TILEMODE
 70
     0
  9
$MAXACTVP
 70
    16
  9
$PINSBASE
 10
0.0
 20
0.0
 30
0.0
  9
$PLIMCHECK
 70
     0
  9
$PEXTMIN
 10
-0.5
 20
-0.5
 30
-0.5
  9
$PEXTMAX
 10
17.339996
 20
11.219986
 30
5.0
  9
$PLIMMIN
 10
-0.5
 20
-0.5
  9
$PLIMMAX
 10
17.339996
 20
11.219986
  9
$UNITMODE
 70
     0
  9
$VISRETAIN
 70
     0
  9
$PLINEGEN
 70
     1
  9
$PSLTSCALE
 70
     0
  9
$TREEDEPTH
 70
  3020
  9
$CMLSTYLE
  2
Standard
  9
$CMLJUST
 70
     0
  9
$CMLSCALE
 40
1.0
  9
$PROXYGRAPHICS
 70
     0
  9
$MEASUREMENT
 70
     0
  9
$CELWEIGHT
370
     0
  9
$ENDCAPS
280
     0
  9
$JOINSTYLE
280
     0
  9
$LWDISPLAY
290
     0
  9
$INSUNITS
 70
     0
  9
$HYPERLINKBASE
  1

  9
$XEDIT
290
     1
  9
$CEPSNTYPE
380
     0
  9
$PSTYLEMODE
290
     1
  9
$FINGERPRINTGUID
  2

  9
$VERSIONGUID
  2

  9
$EXTNAMES
290
     1
  9
$PSVPSCALE
 40
0.0
  0
ENDSEC
  0
SECTION
  2
CLASSES
  0
CLASS
  1
LWPOLYLINE
  2
AcDbPolyline
  3
"AutoCAD"
 90
        0
280
     0
281
     1
  0
CLASS
  1
IMAGE
  2
AcDbRasterImage
  3
ISM
 90
      127
280
     0
281
     1
  0
CLASS
  1
OLE2FRAME
  2
AcDbOle2Frame
  3
""
 90
        0
280
     0
281
     1
  0
CLASS
  1
HATCH
  2
AcDbHatch
  3
"ACAD_SEDONA"
 90
        0
280
     0
281
     1
  0
CLASS
  1
DICTIONARYVAR
  2
AcDbDictionaryVar
  3
"AutoCAD"
 90
        0
280
     0
281
     0
  0
CLASS
  1
RASTERVARIABLES
  2
AcDbRasterVariables
  3
ISM
 90
        0
280
     0
281
     0
  0
CLASS
  1
IMAGEDEF
  2
AcDbRasterImageDef
  3
ISM
 90
        0
280
     0
281
     0
  0
CLASS
  1
IMAGEDEF_REACTOR
  2
AcDbRasterImageDefReactor
  3
ISM
 90
        1
280
     0
281
     0
  0
CLASS
  1
IDBUFFER
  2
AcDbIdBuffer
  3
"Acad"
 90
        0
280
     0
281
     0
  0
CLASS
  1
SPATIAL_FILTER
  2
AcDbSpatialFilter
  3
"Acad"
 90
        0
280
     0
281
     0
  0
CLASS
  1
XRECORD
  2
AcDbXrecord
  3
"<Built In>"
 90
        0
280
     0
281
     0
  0
CLASS
  1
SORTENTSTABLE
  2
AcDbSortentsTable
  3
"AutoCAD"
 90
        0
280
     0
281
     0
  0
CLASS
  1
LAYER_INDEX
  2
AcDbLayerIndex
  3
"Acad"
 90
        0
280
     0
281
     0
  0
CLASS
  1
SPATIAL_INDEX
  2
AcDbSpatialIndex
  3
"Acad"
 90
        0
280
     0
281
     0
  0
CLASS
  1
OBJECT_PTR
  2
CAseDLPNTableRecord
  3
"ASE-LPNTableRecord"
 90
        1
280
     0
281
     0
  0
CLASS
  1
LAYOUT
  2
AcDbLayout
  3
"AutoCAD 2000"
 90
        1
280
     0
281
     0
  0
CLASS
  1
PLOTSETTINGS
  2
AcDbPlotSettings
  3
"AutoCAD 2000"
 90
        1
280
     0
281
     0
  0
CLASS
  1
ACDBDICTIONARYWDFLT
  2
AcDbDictionaryWithDefault
  3
"AutoCAD 2000"
 90
        1
280
     0
281
     0
  0
CLASS
  1
ACDBPLACEHOLDER
  2
AcDbPlaceHolder
  3
"AutoCAD 2000"
 90
        1
280
     0
281
     0
  0
CLASS
  1
VBA_PROJECT
  2
AcDbVbaProject
  3
"acadvba"
 90
        1
280
     0
281
     0
  0
CLASS
  1
RTEXT
  2
RText
  3
RText|AutoCAD Express Tool|expresstools@autodesk.com
 90
        0
280
     0
281
     1
  0
CLASS
  1
ARCALIGNEDTEXT
  2
AcDbArcAlignedText
  3
ATEXT|AutoCAD Express Tool|expresstools@autodesk.com
 90
        0
280
     0
281
     1
  0
ENDSEC
  0
SECTION
  2
TABLES
  0
TABLE
  2
VPORT
  5
7
100
AcDbSymbolTable
 70
    16
  0
VPORT
  5
3B0
100
AcDbSymbolTableRecord
100
AcDbViewportTableRecord
  2
*ACTIVE
 70
     0
 10
0.0
 20
0.0
 11
1.0
 21
1.0
 12
0.0
 22
0.0
 13
0.0
 23
0.0
 14
1.0
 24
1.0
 15
0.0
 25
0.0
 16
0.0
 26
0.0
 36
1.0
 17
0.0
 27
0.0
 37
0.0
 40
9.896346
 41
0.688564
 42
50.0
 43
27.661251
 44
-27.661251
 50
0.0
 51
0.0
 71
    16
 72
   100
 73
     1
 74
     1
 75
     0
 76
     0
 77
     0
 78
     0
281
     0
 65
     0
110
0.0
120
0.0
130
0.0
111
1.0
121
0.0
131
0.0
112
0.0
122
1.0
132
0.0
345
0
346
0
 79
     0
146
0.0
  0
VPORT
  5
3B1
100
AcDbSymbolTableRecord
100
AcDbViewportTableRecord
  2
L1
 70
     0
 10
0.0
 20
0.0
 11
1.0
 21
1.0
 12
0.0
 22
0.0
 13
0.0
 23
0.0
 14
1.0
 24
1.0
 15
0.0
 25
0.0
 16
0.0
 26
0.0
 36
1.0
 17
0.0
 27
0.0
 37
0.0
 40
9.896346
 41
0.688564
 42
50.0
 43
27.661251
 44
-27.661251
 50
0.0
 51
0.0
 71
    16
 72
   100
 73
     1
 74
     1
 75
     0
 76
     0
 77
     0
 78
     0
281
     0
 65
     0
110
0.0
120
0.0
130
0.0
111
1.0
121
0.0
131
0.0
112
0.0
122
1.0
132
0.0
345
0
346
0
 79
     0
146
0.0
  0
VPORT
  5
3B2
100
AcDbSymbolTableRecord
100
AcDbViewportTableRecord
  2
L2
 70
     0
 10
0.0
 20
0.0
 11
0.5
 21
1.0
 12
0.0
 22
0.0
 13
0.0
 23
0.0
 14
1.0
 24
1.0
 15
0.0
 25
0.0
 16
0.0
 26
-1.0
 36
0.0
 17
0.0
 27
0.0
 37
0.0
 40
55.322503
 41
0.688564
 42
50.0
 43
28.305337
 44
-28.305337
 50
0.0
 51
0.0
 71
    16
 72
   100
 73
     1
 74
     1
 75
     0
 76
     0
 77
     0
 78
     0
281
     0
 65
     0
110
0.0
120
0.0
130
0.0
111
1.0
121
0.0
131
0.0
112
0.0
122
1.0
132
0.0
345
0
346
0
 79
     0
146
0.0
  0
VPORT
  5
3B3
100
AcDbSymbolTableRecord
100
AcDbViewportTableRecord
  2
L2
 70
     0
 10
0.5
 20
0.0
 11
1.0
 21
1.0
 12
0.0
 22
0.0
 13
0.0
 23
0.0
 14
1.0
 24
1.0
 15
0.0
 25
0.0
 16
1.0
 26
0.0
 36
0.0
 17
0.0
 27
0.0
 37
0.0
 40
55.322503
 41
0.688564
 42
50.0
 43
28.100342
 44
-28.100342
 50
0.0
 51
0.0
 71
    16
 72
   100
 73
     1
 74
     1
 75
     0
 76
     0
 77
     0
 78
     0
281
     0
 65
     0
110
0.0
120
0.0
130
0.0
111
1.0
121
0.0
131
0.0
112
0.0
122
1.0
132
0.0
345
0
346
0
 79
     0
146
0.0
  0
VPORT
  5
3B4
100
AcDbSymbolTableRecord
100
AcDbViewportTableRecord
  2
L3
 70
     0
 10
0.0
 20
0.5
 11
1.0
 21
1.0
 12
0.0
 22
0.0
 13
0.0
 23
0.0
 14
1.0
 24
1.0
 15
0.0
 25
0.0
 16
0.0
 26
0.0
 36
1.0
 17
0.0
 27
0.0
 37
0.0
 40
9.896346
 41
0.688564
 42
50.0
 43
27.661251
 44
-27.661251
 50
0.0
 51
0.0
 71
    16
 72
   100
 73
     1
 74
     1
 75
     0
 76
     0
 77
     0
 78
     0
281
     0
 65
     0
110
0.0
120
0.0
130
0.0
111
1.0
121
0.0
131
0.0
112
0.0
122
1.0
132
0.0
345
0
346
0
 79
     0
146
0.0
  0
VPORT
  5
3B5
100
AcDbSymbolTableRecord
100
AcDbViewportTableRecord
  2
L3
 70
     0
 10
0.0
 20
0.0
 11
1.0
 21
0.5
 12
0.0
 22
0.0
 13
0.0
 23
0.0
 14
1.0
 24
1.0
 15
0.0
 25
0.0
 16
0.0
 26
-1.0
 36
0.0
 17
0.0
 27
0.0
 37
0.0
 40
55.322503
 41
0.688564
 42
50.0
 43
28.305337
 44
-28.305337
 50
0.0
 51
0.0
 71
    16
 72
   100
 73
     1
 74
     1
 75
     0
 76
     0
 77
     0
 78
     0
281
     0
 65
     0
110
0.0
120
0.0
130
0.0
111
1.0
121
0.0
131
0.0
112
0.0
122
1.0
132
0.0
345
0
346
0
 79
     0
146
0.0
  0
VPORT
  5
3B6
100
AcDbSymbolTableRecord
100
AcDbViewportTableRecord
  2
L4
 70
     0
 10
0.0
 20
0.5
 11
0.5
 21
1.0
 12
0.0
 22
0.0
 13
0.0
 23
0.0
 14
1.0
 24
1.0
 15
0.0
 25
0.0
 16
0.0
 26
0.0
 36
1.0
 17
0.0
 27
0.0
 37
0.0
 40
9.896346
 41
0.688564
 42
50.0
 43
27.661251
 44
-27.661251
 50
0.0
 51
0.0
 71
    16
 72
   100
 73
     1
 74
     1
 75
     0
 76
     0
 77
     0
 78
     0
281
     0
 65
     0
110
0.0
120
0.0
130
0.0
111
1.0
121
0.0
131
0.0
112
0.0
122
1.0
132
0.0
345
0
346
0
 79
     0
146
0.0
  0
VPORT
  5
3B7
100
AcDbSymbolTableRecord
100
AcDbViewportTableRecord
  2
L4
 70
     0
 10
0.0
 20
0.0
 11
0.5
 21
0.5
 12
0.0
 22
0.0
 13
0.0
 23
0.0
 14
1.0
 24
1.0
 15
0.0
 25
0.0
 16
0.0
 26
-1.0
 36
0.0
 17
0.0
 27
0.0
 37
0.0
 40
55.322503
 41
0.688564
 42
50.0
 43
28.305337
 44
-28.305337
 50
0.0
 51
0.0
 71
    16
 72
   100
 73
     1
 74
     1
 75
     0
 76
     0
 77
     0
 78
     0
281
     0
 65
     0
110
0.0
120
0.0
130
0.0
111
1.0
121
0.0
131
0.0
112
0.0
122
1.0
132
0.0
345
0
346
0
 79
     0
146
0.0
  0
VPORT
  5
3B8
100
AcDbSymbolTableRecord
100
AcDbViewportTableRecord
  2
L4
 70
     0
 10
0.5
 20
0.0
 11
1.0
 21
0.5
 12
0.0
 22
0.0
 13
0.0
 23
0.0
 14
1.0
 24
1.0
 15
0.0
 25
0.0
 16
1.0
 26
0.0
 36
0.0
 17
0.0
 27
0.0
 37
0.0
 40
55.322503
 41
0.688564
 42
50.0
 43
28.100342
 44
-28.100342
 50
0.0
 51
0.0
 71
    16
 72
   100
 73
     1
 74
     1
 75
     0
 76
     0
 77
     0
 78
     0
281
     0
 65
     0
110
0.0
120
0.0
130
0.0
111
1.0
121
0.0
131
0.0
112
0.0
122
1.0
132
0.0
345
0
346
0
 79
     0
146
0.0
  0
VPORT
  5
3B9
100
AcDbSymbolTableRecord
100
AcDbViewportTableRecord
  2
L4
 70
     0
 10
0.5
 20
0.5
 11
1.0
 21
1.0
 12
0.0
 22
0.0
 13
0.0
 23
0.0
 14
1.0
 24
1.0
 15
0.0
 25
0.0
 16
0.57735
 26
-0.57735
 36
0.57735
 17
0.0
 27
0.0
 37
0.0
 40
54.112995
 41
0.688564
 42
50.0
 43
28.142999
 44
-28.142999
 50
0.0
 51
0.0
 71
    16
 72
   100
 73
     1
 74
     1
 75
     0
 76
     0
 77
     0
 78
     0
281
     0
 65
     0
110
0.0
120
0.0
130
0.0
111
1.0
121
0.0
131
0.0
112
0.0
122
1.0
132
0.0
345
0
346
0
 79
     0
146
0.0
  0
VPORT
  5
3BA
100
AcDbSymbolTableRecord
100
AcDbViewportTableRecord
  2
L6
 70
     0
 10
0.0
 20
0.5
 11
0.333333
 21
1.0
 12
0.0
 22
0.0
 13
0.0
 23
0.0
 14
1.0
 24
1.0
 15
0.0
 25
0.0
 16
0.718873
 26
-0.585049
 36
0.375419
 17
0.0
 27
0.0
 37
0.0
 40
57.117514
 41
0.688564
 42
50.0
 43
29.559825
 44
-29.559825
 50
0.0
 51
0.0
 71
    16
 72
   100
 73
     1
 74
     1
 75
     0
 76
     0
 77
     0
 78
     0
281
     0
 65
     0
110
0.0
120
0.0
130
0.0
111
1.0
121
0.0
131
0.0
112
0.0
122
1.0
132
0.0
345
0
346
0
 79
     0
146
0.0
  0
VPORT
  5
3BB
100
AcDbSymbolTableRecord
100
AcDbViewportTableRecord
  2
L6
 70
     0
 10
0.0
 20
0.0
 11
0.333333
 21
0.5
 12
0.0
 22
0.0
 13
0.0
 23
0.0
 14
1.0
 24
1.0
 15
0.0
 25
0.0
 16
-1.0
 26
0.0
 36
0.0
 17
0.0
 27
0.0
 37
0.0
 40
55.322503
 41
0.688564
 42
50.0
 43
28.100342
 44
-28.100342
 50
0.0
 51
0.0
 71
    16
 72
   100
 73
     1
 74
     1
 75
     0
 76
     0
 77
     0
 78
     0
281
     0
 65
     0
110
0.0
120
0.0
130
0.0
111
1.0
121
0.0
131
0.0
112
0.0
122
1.0
132
0.0
345
0
346
0
 79
     0
146
0.0
  0
VPORT
  5
3BC
100
AcDbSymbolTableRecord
100
AcDbViewportTableRecord
  2
L6
 70
     0
 10
0.333333
 20
0.5
 11
0.666667
 21
1.0
 12
0.0
 22
0.0
 13
0.0
 23
0.0
 14
1.0
 24
1.0
 15
0.0
 25
0.0
 16
0.0
 26
0.0
 36
1.0
 17
0.0
 27
0.0
 37
0.0
 40
9.896346
 41
0.688564
 42
50.0
 43
27.661251
 44
-27.661251
 50
0.0
 51
0.0
 71
    16
 72
   100
 73
     1
 74
     1
 75
     0
 76
     0
 77
     0
 78
     0
281
     0
 65
     0
110
0.0
120
0.0
130
0.0
111
1.0
121
0.0
131
0.0
112
0.0
122
1.0
132
0.0
345
0
346
0
 79
     0
146
0.0
  0
VPORT
  5
3BD
100
AcDbSymbolTableRecord
100
AcDbViewportTableRecord
  2
L6
 70
     0
 10
0.333333
 20
0.0
 11
0.666667
 21
0.5
 12
0.0
 22
0.0
 13
0.0
 23
0.0
 14
1.0
 24
1.0
 15
0.0
 25
0.0
 16
0.0
 26
-1.0
 36
0.0
 17
0.0
 27
0.0
 37
0.0
 40
55.322503
 41
0.688564
 42
50.0
 43
28.305337
 44
-28.305337
 50
0.0
 51
0.0
 71
    16
 72
   100
 73
     1
 74
     1
 75
     0
 76
     0
 77
     0
 78
     0
281
     0
 65
     0
110
0.0
120
0.0
130
0.0
111
1.0
121
0.0
131
0.0
112
0.0
122
1.0
132
0.0
345
0
346
0
 79
     0
146
0.0
  0
VPORT
  5
3BE
100
AcDbSymbolTableRecord
100
AcDbViewportTableRecord
  2
L6
 70
     0
 10
0.666667
 20
0.5
 11
1.0
 21
1.0
 12
0.0
 22
0.0
 13
0.0
 23
0.0
 14
1.0
 24
1.0
 15
0.0
 25
0.0
 16
0.57735
 26
-0.57735
 36
0.57735
 17
0.0
 27
0.0
 37
0.0
 40
54.112995
 41
0.688564
 42
50.0
 43
28.142999
 44
-28.142999
 50
0.0
 51
0.0
 71
    16
 72
   100
 73
     1
 74
     1
 75
     0
 76
     0
 77
     0
 78
     0
281
     0
 65
     0
110
0.0
120
0.0
130
0.0
111
1.0
121
0.0
131
0.0
112
0.0
122
1.0
132
0.0
345
0
346
0
 79
     0
146
0.0
  0
VPORT
  5
3BF
100
AcDbSymbolTableRecord
100
AcDbViewportTableRecord
  2
L6
 70
     0
 10
0.666667
 20
0.0
 11
1.0
 21
0.5
 12
0.0
 22
0.0
 13
0.0
 23
0.0
 14
1.0
 24
1.0
 15
0.0
 25
0.0
 16
1.0
 26
0.0
 36
0.0
 17
0.0
 27
0.0
 37
0.0
 40
55.322503
 41
0.688564
 42
50.0
 43
28.100342
 44
-28.100342
 50
0.0
 51
0.0
 71
    16
 72
   100
 73
     1
 74
     1
 75
     0
 76
     0
 77
     0
 78
     0
281
     0
 65
     0
110
0.0
120
0.0
130
0.0
111
1.0
121
0.0
131
0.0
112
0.0
122
1.0
132
0.0
345
0
346
0
 79
     0
146
0.0
  0
ENDTAB
  0
TABLE
  2
LTYPE
  5
4
100
AcDbSymbolTable
 70
     9
  0
LTYPE
  5
11
100
AcDbSymbolTableRecord
100
AcDbLinetypeTableRecord
  2
ByBlock
 70
    64
  3

 72
    65
 73
     0
 40
0.0
  0
LTYPE
  5
12
100
AcDbSymbolTableRecord
100
AcDbLinetypeTableRecord
  2
ByLayer
 70
    64
  3

 72
    65
 73
     0
 40
0.0
  0
LTYPE
  5
13
100
AcDbSymbolTableRecord
100
AcDbLinetypeTableRecord
  2
Continuous
 70
    64
  3
Solid line
 72
    65
 73
     0
 40
0.0
  0
LTYPE
  5
22
100
AcDbSymbolTableRecord
100
AcDbLinetypeTableRecord
  2
DASHED
 70
    64
  3
__ __ __ __ __ __ __ __ __
 72
    65
 73
     2
 40
0.75
 49
0.5
 74
     0
 49
-0.25
 74
     0
  0
LTYPE
  5
23
100
AcDbSymbolTableRecord
100
AcDbLinetypeTableRecord
  2
HIDDEN
 70
    64
  3
_ _ _ _ _ _ _ _ _ _ _ _ _ _ _
 72
    65
 73
     2
 40
0.5
 49
0.25
 74
     0
 49
-0.25
 74
     0
  0
LTYPE
  5
24
100
AcDbSymbolTableRecord
100
AcDbLinetypeTableRecord
  2
PHANTOM
 70
    64
  3
____ _ _ ____ _ _ _____ _ _ ____
 72
    65
 73
     6
 40
2.5
 49
1.25
 74
     0
 49
-0.25
 74
     0
 49
0.25
 74
     0
 49
-0.25
 74
     0
 49
0.25
 74
     0
 49
-0.25
 74
     0
  0
LTYPE
  5
25
100
AcDbSymbolTableRecord
100
AcDbLinetypeTableRecord
  2
CENTER
 70
    64
  3
____ _ ____ _ ____ _ ____
 72
    65
 73
     4
 40
2.0
 49
1.25
 74
     0
 49
-0.25
 74
     0
 49
0.25
 74
     0
 49
-0.25
 74
     0
  0
LTYPE
  5
26
100
AcDbSymbolTableRecord
100
AcDbLinetypeTableRecord
  2
DOT
 70
    64
  3
.........................
 72
    65
 73
     2
 40
0.25
 49
0.0
 74
     0
 49
-0.25
 74
     0
  0
LTYPE
  5
27
100
AcDbSymbolTableRecord
100
AcDbLinetypeTableRecord
  2
DASHDOT
 70
    64
  3
_._._._._._._._._._._._._._._._.
 72
    65
 73
     4
 40
1.0
 49
0.5
 74
     0
 49
-0.25
 74
     0
 49
0.0
 74
     0
 49
-0.25
 74
     0
  0
ENDTAB
  0
TABLE
  2
LAYER
  5
2
100
AcDbSymbolTable
 70
     2
  0
LAYER
  5
14
100
AcDbSymbolTableRecord
100
AcDbLayerTableRecord
  2
0
 70
     0
 62
     7
  6
Continuous
290
     1
370
    -3
390
1D
  0
LAYER
  5
32
100
AcDbSymbolTableRecord
100
AcDbLayerTableRecord
  2
1
 70
     0
 62
     7
  6
Continuous
290
     1
370
    -3
390
1F
  0
ENDTAB
  0
TABLE
  2
STYLE
  5
3
100
AcDbSymbolTable
 70
     2
  0
STYLE
  5
17
100
AcDbSymbolTableRecord
100
AcDbTextStyleTableRecord
  2
Standard
 70
     0
 40
0.0
 41
1.0
 50
0.0
 71
     0
 42
0.0
  3
txt
  4

  0
STYLE
  5
36B
100
AcDbSymbolTableRecord
100
AcDbTextStyleTableRecord
  2
blockfont
 70
     0
 40
0.0
 41
1.0
 50
0.0
 71
     0
 42
0.0
  3
simplex.shx
  4
bigfont
  0
ENDTAB
  0
TABLE
  2
VIEW
  5
5
100
AcDbSymbolTable
 70
     8
  0
VIEW
  5
28
100
AcDbSymbolTableRecord
100
AcDbViewTableRecord
  2
TOP
 70
     0
 40
9.896346
 10
0.0
 20
0.0
 41
12.007874
 11
0.0
 21
0.0
 31
1.0
 12
0.0
 22
0.0
 32
0.0
 42
50.0
 43
27.661251
 44
-27.661251
 50
0.0
 71
    16
281
     0
 72
     0
110
0.0
120
0.0
130
0.0
111
1.0
121
0.0
131
0.0
112
0.0
122
1.0
132
0.0
  0
VIEW
  5
29
100
AcDbSymbolTableRecord
100
AcDbViewTableRecord
  2
FRONT
 70
     0
 40
55.322503
 10
0.0
 20
0.0
 41
12.007874
 11
0.0
 21
-1.0
 31
0.0
 12
0.0
 22
0.0
 32
0.0
 42
50.0
 43
28.305337
 44
-28.305337
 50
0.0
 71
    16
281
     0
 72
     0
110
0.0
120
0.0
130
0.0
111
1.0
121
0.0
131
0.0
112
0.0
122
1.0
132
0.0
  0
VIEW
  5
2A
100
AcDbSymbolTableRecord
100
AcDbViewTableRecord
  2
RIGHT
 70
     0
 40
55.322503
 10
0.0
 20
0.0
 41
9.896346
 11
1.0
 21
0.0
 31
0.0
 12
0.0
 22
0.0
 32
0.0
 42
50.0
 43
28.100342
 44
-28.100342
 50
0.0
 71
    16
281
     0
 72
     0
110
0.0
120
0.0
130
0.0
111
1.0
121
0.0
131
0.0
112
0.0
122
1.0
132
0.0
  0
VIEW
  5
2B
100
AcDbSymbolTableRecord
100
AcDbViewTableRecord
  2
BACK
 70
     0
 40
55.322503
 10
0.0
 20
0.0
 41
12.007874
 11
0.0
 21
1.0
 31
0.0
 12
0.0
 22
0.0
 32
0.0
 42
50.0
 43
28.305337
 44
-28.305337
 50
0.0
 71
    16
281
     0
 72
     0
110
0.0
120
0.0
130
0.0
111
1.0
121
0.0
131
0.0
112
0.0
122
1.0
132
0.0
  0
VIEW
  5
2C
100
AcDbSymbolTableRecord
100
AcDbViewTableRecord
  2
BOTTOM
 70
     0
 40
9.896346
 10
0.0
 20
0.0
 41
12.007874
 11
0.0
 21
0.0
 31
-1.0
 12
0.0
 22
0.0
 32
0.0
 42
50.0
 43
27.661251
 44
-27.661251
 50
180.0
 71
    16
281
     0
 72
     0
110
0.0
120
0.0
130
0.0
111
1.0
121
0.0
131
0.0
112
0.0
122
1.0
132
0.0
  0
VIEW
  5
2D
100
AcDbSymbolTableRecord
100
AcDbViewTableRecord
  2
LEFT
 70
     0
 40
55.322503
 10
0.0
 20
0.0
 41
9.896346
 11
-1.0
 21
0.0
 31
0.0
 12
0.0
 22
0.0
 32
0.0
 42
50.0
 43
28.100342
 44
-28.100342
 50
0.0
 71
    16
281
     0
 72
     0
110
0.0
120
0.0
130
0.0
111
1.0
121
0.0
131
0.0
112
0.0
122
1.0
132
0.0
  0
VIEW
  5
2E
100
AcDbSymbolTableRecord
100
AcDbViewTableRecord
  2
TFR-ISO
 70
     0
 40
54.112995
 10
0.0
 20
0.0
 41
15.488622
 11
0.57735
 21
-0.57735
 31
0.57735
 12
0.0
 22
0.0
 32
0.0
 42
50.0
 43
28.142999
 44
-28.142999
 50
0.0
 71
    16
281
     0
 72
     0
110
0.0
120
0.0
130
0.0
111
1.0
121
0.0
131
0.0
112
0.0
122
1.0
132
0.0
  0
VIEW
  5
2F
100
AcDbSymbolTableRecord
100
AcDbViewTableRecord
  2
TFR-TRI
 70
     0
 40
57.117514
 10
0.0
 20
0.0
 41
15.25525
 11
0.718873
 21
-0.585049
 31
0.375419
 12
0.0
 22
0.0
 32
0.0
 42
50.0
 43
29.559825
 44
-29.559825
 50
0.0
 71
    16
281
     0
 72
     0
110
0.0
120
0.0
130
0.0
111
1.0
121
0.0
131
0.0
112
0.0
122
1.0
132
0.0
  0
ENDTAB
  0
TABLE
  2
UCS
  5
6
100
AcDbSymbolTable
 70
     0
  0
ENDTAB
  0
TABLE
  2
APPID
  5
8
100
AcDbSymbolTable
 70
     1
  0
APPID
  5
16
100
AcDbSymbolTableRecord
100
AcDbRegAppTableRecord
  2
ACAD
 70
     0
  0
ENDTAB
  0
TABLE
  2
DIMSTYLE
  5
9
100
AcDbSymbolTable
 70
     1
100
AcDbDimStyleTable
 71
     0
  0
DIMSTYLE
105
18
100
AcDbSymbolTableRecord
100
AcDbDimStyleTableRecord
  2
Standard
 70
     0
  3

  4

 40
1.0
 41
0.18
 42
0.0625
 43
0.38
 44
0.18
 45
0.0
 46
0.0
 47
0.0
 48
0.0
 71
     0
 72
     0
 73
     1
 74
     1
 75
     0
 76
     0
 77
     0
 78
     0
 79
     0
140
0.18
141
0.09
142
0.0
143
25.4
144
1.0
145
0.0
146
1.0
147
0.09
148
0.0
170
     0
171
     2
172
     0
173
     0
174
     0
175
     0
176
     0
177
     0
178
     0
179
     0
271
     4
272
     4
273
     2
274
     2
275
     0
276
     0
277
     2
278
    46
279
     0
280
     0
281
     0
282
     0
283
     1
284
     0
285
     0
286
     0
288
     0
340
17
341
0
342
0
343
0
344
0
371
    -2
372
    -2
  0
ENDTAB
  0
TABLE
  2
BLOCK_RECORD
  5
1
100
AcDbSymbolTable
 70
     0
  0
BLOCK_RECORD
  5
A
100
AcDbSymbolTableRecord
100
AcDbBlockTableRecord
  2
*MODEL_SPACE
340
20
  0
BLOCK_RECORD
  5
B
100
AcDbSymbolTableRecord
100
AcDbBlockTableRecord
  2
*PAPER_SPACE
340
0
  0
ENDTAB
  0
ENDSEC
  0
SECTION
  2
BLOCKS
  0
BLOCK
  5
D
100
AcDbEntity
  8
0
100
AcDbBlockBegin
  2
*MODEL_SPACE
 70
     0
 10
0.0
 20
0.0
 30
0.0
  3
*MODEL_SPACE
  1

  0
ENDBLK
  5
E
100
AcDbEntity
  8
0
100
AcDbBlockEnd
  0
BLOCK
  5
F
100
AcDbEntity
 67
     1
  8
0
100
AcDbBlockBegin
  2
*PAPER_SPACE
 70
     0
 10
0.0
 20
0.0
 30
0.0
  3
*PAPER_SPACE
  1

  0
ENDBLK
  5
10
100
AcDbEntity
 67
     1
  8
0
100
AcDbBlockEnd
  0
ENDSEC
  0
SECTION
  2
ENTITIES
  0
VIEWPORT
  5
30
100
AcDbEntity
 67
     1
  8
0
100
AcDbViewport
 10
8.669998
 20
5.609993
 30
0.0
 40
17.339996
 41
11.219986
 68
     1
 69
     1
 12
8.669998
 22
5.609993
 13
0.0
 23
0.0
 14
0.0
 24
0.0
 15
0.0
 25
0.0
 16
0.0
 26
0.0
 36
1.0
 17
0.0
 27
0.0
 37
0.0
 42
33.780281
 43
0.0
 44
0.0
 45
11.219986
 50
0.0
 51
0.0
 72
   100
 90
    32800
340
0
  1

281
     0
 71
     0
 74
     1
110
0.0
120
0.0
130
0.0
111
1.0
121
0.0
131
0.0
112
0.0
122
1.0
132
0.0
345
0
346
0
 79
     0
146
0.0
  0
LINE
  5
31
100
AcDbEntity
 67
     1
  8
1
  6
Continuous
 62
     7
100
AcDbLine
 10
5.110603
 20
3.746119
 30
0.0
 11
5.110603
 21
3.654708
 31
0.0
  0
LINE
  5
33
100
AcDbEntity
 67
     1
  8
1
  6
Continuous
 62
     7
100
AcDbLine
 10
4.211668
 20
5.616119
 30
0.0
 11
4.211668
 21
5.685139
 31
0.0
  0
LINE
  5
34
100
AcDbEntity
 67
     1
  8
1
  6
Continuous
 62
     7
100
AcDbLine
 10
5.128603
 20
5.485824
 30
0.0
 11
5.128603
 21
5.577235
 31
0.0
  0
LINE
  5
35
100
AcDbEntity
 67
     1
  8
1
  6
Continuous
 62
     7
100
AcDbLine
 10
5.132603
 20
3.746119
 30
0.0
 11
5.132603
 21
3.669636
 31
0.0
  0
LINE
  5
36
100
AcDbEntity
 67
     1
  8
1
  6
Continuous
 62
     7
100
AcDbLine
 10
11.800874
 20
9.572577
 30
0.0
 11
11.800874
 21
9.565506
 31
0.0
  0
LINE
  5
37
100
AcDbEntity
 67
     1
  8
1
  6
Continuous
 62
     7
100
AcDbLine
 10
4.197669
 20
5.616119
 30
0.0
 11
4.197669
 21
5.737387
 31
0.0
  0
LINE
  5
38
100
AcDbEntity
 67
     1
  8
1
  6
Continuous
 62
     7
100
AcDbLine
 10
11.800749
 20
5.587742
 30
0.0
 11
5.800874
 21
5.587742
 31
0.0
  0
LINE
  5
39
100
AcDbEntity
 67
     1
  8
1
  6
Continuous
 62
     7
100
AcDbLine
 10
1.710581
 20
4.433915
 30
0.0
 11
1.589313
 21
4.433983
 31
0.0
  0
LINE
  5
3A
100
AcDbEntity
 67
     1
  8
1
  6
Continuous
 62
     7
100
AcDbLine
 10
5.124603
 20
3.746119
 30
0.0
 11
5.124603
 21
3.63978
 31
0.0
  0
LINE
  5
3B
100
AcDbEntity
 67
     1
  8
1
  6
Continuous
 62
     7
100
AcDbLine
 10
1.630138
 20
6.288576
 30
0.0
 11
1.628295
 21
6.288576
 31
0.0
  0
LINE
  5
3C
100
AcDbEntity
 67
     1
  8
1
  6
Continuous
 62
     7
100
AcDbLine
 10
12.365643
 20
7.233634
 30
0.0
 11
12.282697
 21
7.322099
 31
0.0
  0
LINE
  5
3D
100
AcDbEntity
 67
     1
  8
1
  6
Continuous
 62
     7
100
AcDbLine
 10
12.280874
 20
5.741119
 30
0.0
 11
12.379914
 21
5.824413
 31
0.0
  0
LINE
  5
3E
100
AcDbEntity
 67
     1
  8
1
  6
Continuous
 62
     7
100
AcDbLine
 10
3.630138
 20
6.348576
 30
0.0
 11
3.654372
 21
6.348576
 31
0.0
  0
LINE
  5
3F
100
AcDbEntity
 67
     1
  8
1
  6
Continuous
 62
     7
100
AcDbLine
 10
15.967458
 20
0.974686
 30
0.0
 11
15.967458
 21
0.440085
 31
0.0
  0
LINE
  5
40
100
AcDbEntity
 67
     1
  8
1
  6
Continuous
 62
     7
100
AcDbLine
 10
1.630138
 20
3.331502
 30
0.0
 11
1.583511
 21
3.331502
 31
0.0
  0
LINE
  5
41
100
AcDbEntity
 67
     1
  8
1
  6
Continuous
 62
     7
100
AcDbLine
 10
5.086603
 20
5.485824
 30
0.0
 11
5.086603
 21
5.487666
 31
0.0
  0
LINE
  5
42
100
AcDbEntity
 67
     1
  8
1
  6
Continuous
 62
     7
100
AcDbLine
 10
11.800749
 20
7.559671
 30
0.0
 11
5.800874
 21
7.559671
 31
0.0
  0
LINE
  5
43
100
AcDbEntity
 67
     1
  8
1
  6
Continuous
 62
     7
100
AcDbLine
 10
16.025434
 20
9.083318
 30
0.0
 11
16.025873
 21
9.013005
 31
0.0
  0
LINE
  5
44
100
AcDbEntity
 67
     1
  8
1
  6
Continuous
 62
     7
100
AcDbLine
 10
15.590013
 20
4.075405
 30
0.0
 11
15.601756
 21
3.999691
 31
0.0
  0
LINE
  5
45
100
AcDbEntity
 67
     1
  8
1
  6
Continuous
 62
     7
100
AcDbLine
 10
11.293383
 20
3.507643
 30
0.0
 11
11.243127
 21
3.609749
 31
0.0
  0
LINE
  5
46
100
AcDbEntity
 67
     1
  8
1
  6
Continuous
 62
     7
100
AcDbLine
 10
12.33524
 20
5.855619
 30
0.0
 11
12.308539
 21
5.817395
 31
0.0
  0
LINE
  5
47
100
AcDbEntity
 67
     1
  8
1
  6
Continuous
 62
     7
100
AcDbLine
 10
3.630138
 20
6.314576
 30
0.0
 11
3.729013
 21
6.314576
 31
0.0
  0
LINE
  5
48
100
AcDbEntity
 67
     1
  8
1
  6
Continuous
 62
     7
100
AcDbLine
 10
4.167668
 20
3.746119
 30
0.0
 11
4.167668
 21
3.729349
 31
0.0
  0
LINE
  5
49
100
AcDbEntity
 67
     1
  8
1
  6
Continuous
 62
     7
100
AcDbLine
 10
1.630138
 20
3.277503
 30
0.0
 11
1.628295
 21
3.277503
 31
0.0
  0
LINE
  5
4A
100
AcDbEntity
 67
     1
  8
1
  6
Continuous
 62
     7
100
AcDbLine
 10
1.566166
 20
3.701119
 30
0.0
 11
3.694109
 21
3.701119
 31
0.0
  0
LINE
  5
4B
100
AcDbEntity
 67
     1
  8
1
  6
Continuous
 62
     7
100
AcDbLine
 10
1.505138
 20
6.321576
 30
0.0
 11
2.336638
 21
6.321576
 31
0.0
  0
LINE
  5
4C
100
AcDbEntity
 67
     1
  8
1
  6
Continuous
 62
     7
100
AcDbLine
 10
4.221668
 20
5.616119
 30
0.0
 11
4.221668
 21
5.647818
 31
0.0
  0
LINE
  5
4D
100
AcDbEntity
 67
     1
  8
1
  6
Continuous
 62
     7
100
AcDbLine
 10
4.217669
 20
5.616119
 30
0.0
 11
4.217669
 21
5.662746
 31
0.0
  0
LINE
  5
4E
100
AcDbEntity
 67
     1
  8
1
  6
Continuous
 62
     7
100
AcDbLine
 10
5.134603
 20
5.485824
 30
0.0
 11
5.134603
 21
5.554843
 31
0.0
  0
LINE
  5
4F
100
AcDbEntity
 67
     1
  8
1
  6
Continuous
 62
     7
100
AcDbLine
 10
15.79318
 20
7.335505
 30
0.0
 11
11.800874
 21
7.335505
 31
0.0
  0
LINE
  5
50
100
AcDbEntity
 67
     1
  8
1
  6
Continuous
 62
     7
100
AcDbLine
 10
11.800749
 20
5.596912
 30
0.0
 11
5.800874
 21
5.596912
 31
0.0
  0
LINE
  5
51
100
AcDbEntity
 67
     1
  8
1
  6
Continuous
 62
     7
100
AcDbLine
 10
5.138603
 20
5.485824
 30
0.0
 11
5.138603
 21
5.539915
 31
0.0
  0
LINE
  5
52
100
AcDbEntity
 67
     1
  8
1
  6
Continuous
 62
     7
100
AcDbLine
 10
1.710577
 20
4.427915
 30
0.0
 11
1.611702
 21
4.42797
 31
0.0
  0
LINE
  5
53
100
AcDbEntity
 67
     1
  8
1
  6
Continuous
 62
     7
100
AcDbLine
 10
1.585175
 20
3.716395
 30
0.0
 11
1.586053
 21
5.268727
 31
0.0
  0
LINE
  5
54
100
AcDbEntity
 67
     1
  8
1
  6
Continuous
 62
     7
100
AcDbLine
 10
1.505138
 20
6.321576
 30
0.0
 11
1.630138
 21
6.288082
 31
0.0
  0
LINE
  5
55
100
AcDbEntity
 67
     1
  8
1
  6
Continuous
 62
     7
100
AcDbLine
 10
12.361265
 20
7.22953
 30
0.0
 11
12.293636
 21
7.30166
 31
0.0
  0
LINE
  5
56
100
AcDbEntity
 67
     1
  8
1
  6
Continuous
 62
     7
100
AcDbLine
 10
3.630138
 20
6.354576
 30
0.0
 11
3.63198
 21
6.354576
 31
0.0
  0
LINE
  5
57
100
AcDbEntity
 67
     1
  8
1
  6
Continuous
 62
     7
100
AcDbLine
 10
1.630138
 20
3.343503
 30
0.0
 11
1.628295
 21
3.343503
 31
0.0
  0
LINE
  5
58
100
AcDbEntity
 67
     1
  8
1
  6
Continuous
 62
     7
100
AcDbLine
 10
11.266467
 20
3.494395
 30
0.0
 11
11.265654
 21
3.496048
 31
0.0
  0
LINE
  5
59
100
AcDbEntity
 67
     1
  8
1
  6
Continuous
 62
     7
100
AcDbLine
 10
5.106603
 20
3.746119
 30
0.0
 11
5.106603
 21
3.669636
 31
0.0
  0
LINE
  5
5A
100
AcDbEntity
 67
     1
  8
1
  6
Continuous
 62
     7
100
AcDbLine
 10
16.369932
 20
8.393945
 30
0.0
 11
16.369932
 21
0.440085
 31
0.0
  0
LINE
  5
5B
100
AcDbEntity
 67
     1
  8
1
  6
Continuous
 62
     7
100
AcDbLine
 10
4.181668
 20
5.616119
 30
0.0
 11
4.181668
 21
5.685139
 31
0.0
  0
LINE
  5
5C
100
AcDbEntity
 67
     1
  8
1
  6
Continuous
 62
     7
100
AcDbLine
 10
5.800874
 20
7.592547
 30
0.0
 11
5.800874
 21
7.588034
 31
0.0
  0
LINE
  5
5D
100
AcDbEntity
 67
     1
  8
1
  6
Continuous
 62
     7
100
AcDbLine
 10
15.973641
 20
9.294255
 30
0.0
 11
15.998941
 21
9.223943
 31
0.0
  0
LINE
  5
5E
100
AcDbEntity
 67
     1
  8
1
  6
Continuous
 62
     7
100
AcDbLine
 10
4.185668
 20
5.616119
 30
0.0
 11
4.185668
 21
5.700067
 31
0.0
  0
LINE
  5
5F
100
AcDbEntity
 67
     1
  8
1
  6
Continuous
 62
     7
100
AcDbLine
 10
15.61765
 20
4.302548
 30
0.0
 11
15.598489
 21
4.226834
 31
0.0
  0
LINE
  5
60
100
AcDbEntity
 67
     1
  8
1
  6
Continuous
 62
     7
100
AcDbLine
 10
12.330322
 20
5.859056
 30
0.0
 11
12.316443
 21
5.839188
 31
0.0
  0
LINE
  5
61
100
AcDbEntity
 67
     1
  8
1
  6
Continuous
 62
     7
100
AcDbLine
 10
4.163669
 20
3.746119
 30
0.0
 11
4.163669
 21
3.744277
 31
0.0
  0
LINE
  5
62
100
AcDbEntity
 67
     1
  8
1
  6
Continuous
 62
     7
100
AcDbLine
 10
1.505138
 20
3.310503
 30
0.0
 11
1.630138
 21
3.277009
 31
0.0
  0
LINE
  5
63
100
AcDbEntity
 67
     1
  8
1
  6
Continuous
 62
     7
100
AcDbLine
 10
2.861138
 20
6.186576
 30
0.0
 11
2.816138
 21
6.186576
 31
0.0
  0
LINE
  5
64
100
AcDbEntity
 67
     1
  8
1
  6
Continuous
 62
     7
100
AcDbLine
 10
4.197669
 20
3.746119
 30
0.0
 11
4.197669
 21
3.624851
 31
0.0
  0
LINE
  5
65
100
AcDbEntity
 67
     1
  8
1
  6
Continuous
 62
     7
100
AcDbLine
 10
1.380575
 20
4.424101
 30
0.0
 11
1.464522
 21
4.424054
 31
0.0
  0
LINE
  5
66
100
AcDbEntity
 67
     1
  8
1
  6
Continuous
 62
     7
100
AcDbLine
 10
5.140603
 20
5.485824
 30
0.0
 11
5.140603
 21
5.532451
 31
0.0
  0
LINE
  5
67
100
AcDbEntity
 67
     1
  8
1
  6
Continuous
 62
     7
100
AcDbLine
 10
11.800874
 20
7.335505
 30
0.0
 11
11.800874
 21
7.328434
 31
0.0
  0
LINE
  5
68
100
AcDbEntity
 67
     1
  8
1
  6
Continuous
 62
     7
100
AcDbLine
 10
1.380576
 20
4.426101
 30
0.0
 11
1.471988
 21
4.426049
 31
0.0
  0
LINE
  5
69
100
AcDbEntity
 67
     1
  8
1
  6
Continuous
 62
     7
100
AcDbLine
 10
1.710574
 20
4.421915
 30
0.0
 11
1.634091
 21
4.421958
 31
0.0
  0
LINE
  5
6A
100
AcDbEntity
 67
     1
  8
1
  6
Continuous
 62
     7
100
AcDbLine
 10
12.356888
 20
7.225427
 30
0.0
 11
12.304575
 21
7.281221
 31
0.0
  0
LINE
  5
6B
100
AcDbEntity
 67
     1
  8
1
  6
Continuous
 62
     7
100
AcDbLine
 10
3.630138
 20
6.355069
 30
0.0
 11
3.630138
 21
6.288082
 31
0.0
  0
LINE
  5
6C
100
AcDbEntity
 67
     1
  8
1
  6
Continuous
 62
     7
100
AcDbLine
 10
7.910086
 20
0.440085
 30
0.0
 11
7.910086
 21
2.257467
 31
0.0
  0
LINE
  5
6D
100
AcDbEntity
 67
     1
  8
1
  6
Continuous
 62
     7
100
AcDbLine
 10
15.885289
 20
4.832548
 30
0.0
 11
15.843876
 21
4.756834
 31
0.0
  0
LINE
  5
6E
100
AcDbEntity
 67
     1
  8
1
  6
Continuous
 62
     7
100
AcDbLine
 10
3.630138
 20
6.308576
 30
0.0
 11
3.706621
 21
6.308576
 31
0.0
  0
LINE
  5
6F
100
AcDbEntity
 67
     1
  8
1
  6
Continuous
 62
     7
100
AcDbLine
 10
5.130603
 20
3.746119
 30
0.0
 11
5.130603
 21
3.662172
 31
0.0
  0
LINE
  5
70
100
AcDbEntity
 67
     1
  8
1
  6
Continuous
 62
     7
100
AcDbLine
 10
3.630138
 20
3.335503
 30
0.0
 11
3.661836
 21
3.335503
 31
0.0
  0
LINE
  5
71
100
AcDbEntity
 67
     1
  8
1
  6
Continuous
 62
     7
100
AcDbLine
 10
11.266024
 20
3.494177
 30
0.0
 11
11.326125
 21
3.523759
 31
0.0
  0
LINE
  5
72
100
AcDbEntity
 67
     1
  8
1
  6
Continuous
 62
     7
100
AcDbLine
 10
3.673031
 20
5.587742
 30
0.0
 11
3.675757
 21
5.553108
 31
0.0
  0
LINE
  5
73
100
AcDbEntity
 67
     1
  8
1
  6
Continuous
 62
     7
100
AcDbLine
 10
3.630138
 20
6.310576
 30
0.0
 11
3.714085
 21
6.310576
 31
0.0
  0
LINE
  5
74
100
AcDbEntity
 67
     1
  8
1
  6
Continuous
 62
     7
100
AcDbLine
 10
5.344978
 20
4.441597
 30
0.0
 11
5.389978
 21
4.441597
 31
0.0
  0
LINE
  5
75
100
AcDbEntity
 67
     1
  8
1
  6
Continuous
 62
     7
100
AcDbLine
 10
5.800874
 20
9.312977
 30
0.0
 11
5.800874
 21
9.325157
 31
0.0
  0
LINE
  5
76
100
AcDbEntity
 67
     1
  8
1
  6
Continuous
 62
     7
100
AcDbLine
 10
15.854048
 20
9.505193
 30
0.0
 11
15.900818
 21
9.43488
 31
0.0
  0
LINE
  5
77
100
AcDbEntity
 67
     1
  8
1
  6
Continuous
 62
     7
100
AcDbLine
 10
15.716458
 20
4.529691
 30
0.0
 11
15.678225
 21
4.453977
 31
0.0
  0
LINE
  5
78
100
AcDbEntity
 67
     1
  8
1
  6
Continuous
 62
     7
100
AcDbLine
 10
15.906482
 20
5.589691
 30
0.0
 11
15.946835
 21
5.513977
 31
0.0
  0
LINE
  5
79
100
AcDbEntity
 67
     1
  8
1
  6
Continuous
 62
     7
100
AcDbLine
 10
3.703773
 20
5.400058
 30
0.0
 11
3.617513
 21
5.48756
 31
0.0
  0
LINE
  5
7A
100
AcDbEntity
 67
     1
  8
1
  6
Continuous
 62
     7
100
AcDbLine
 10
1.505581
 20
4.43503
 30
0.0
 11
1.301758
 21
4.435146
 31
0.0
  0
LINE
  5
7B
100
AcDbEntity
 67
     1
  8
1
  6
Continuous
 62
     7
100
AcDbLine
 10
12.325403
 20
5.862492
 30
0.0
 11
12.324348
 21
5.860981
 31
0.0
  0
LINE
  5
7C
100
AcDbEntity
 67
     1
  8
1
  6
Continuous
 62
     7
100
AcDbLine
 10
5.142603
 20
3.746119
 30
0.0
 11
5.142603
 21
3.706957
 31
0.0
  0
LINE
  5
7D
100
AcDbEntity
 67
     1
  8
1
  6
Continuous
 62
     7
100
AcDbLine
 10
3.630138
 20
6.302576
 30
0.0
 11
3.684229
 21
6.302576
 31
0.0
  0
LINE
  5
7E
100
AcDbEntity
 67
     1
  8
1
  6
Continuous
 62
     7
100
AcDbLine
 10
11.313122
 20
3.517359
 30
0.0
 11
11.289235
 21
3.56589
 31
0.0
  0
LINE
  5
7F
100
AcDbEntity
 67
     1
  8
1
  6
Continuous
 62
     7
100
AcDbLine
 10
5.092603
 20
3.746119
 30
0.0
 11
5.092603
 21
3.721885
 31
0.0
  0
LINE
  5
80
100
AcDbEntity
 67
     1
  8
1
  6
Continuous
 62
     7
100
AcDbLine
 10
1.630138
 20
3.335503
 30
0.0
 11
1.598439
 21
3.335503
 31
0.0
  0
LINE
  5
81
100
AcDbEntity
 67
     1
  8
1
  6
Continuous
 62
     7
100
AcDbLine
 10
5.146603
 20
5.485824
 30
0.0
 11
5.146603
 21
5.510058
 31
0.0
  0
LINE
  5
82
100
AcDbEntity
 67
     1
  8
1
  6
Continuous
 62
     7
100
AcDbLine
 10
16.019606
 20
5.48383
 30
0.0
 11
16.279413
 21
5.48383
 31
0.0
  0
LINE
  5
83
100
AcDbEntity
 67
     1
  8
1
  6
Continuous
 62
     7
100
AcDbLine
 10
4.205668
 20
3.746119
 30
0.0
 11
4.205668
 21
3.654708
 31
0.0
  0
LINE
  5
84
100
AcDbEntity
 67
     1
  8
1
  6
Continuous
 62
     7
100
AcDbLine
 10
15.660939
 20
7.536443
 30
0.0
 11
15.70093
 21
7.466131
 31
0.0
  0
LINE
  5
85
100
AcDbEntity
 67
     1
  8
1
  6
Continuous
 62
     7
100
AcDbLine
 10
1.380573
 20
4.420101
 30
0.0
 11
1.449592
 21
4.420062
 31
0.0
  0
LINE
  5
86
100
AcDbEntity
 67
     1
  8
1
  6
Continuous
 62
     7
100
AcDbLine
 10
1.71057
 20
4.415915
 30
0.0
 11
1.656479
 21
4.415945
 31
0.0
  0
LINE
  5
87
100
AcDbEntity
 67
     1
  8
1
  6
Continuous
 62
     7
100
AcDbLine
 10
1.739303
 20
5.610686
 30
0.0
 11
1.596255
 21
5.596912
 31
0.0
  0
LINE
  5
88
100
AcDbEntity
 67
     1
  8
1
  6
Continuous
 62
     7
100
AcDbLine
 10
12.352511
 20
7.221323
 30
0.0
 11
12.315514
 21
7.260782
 31
0.0
  0
LINE
  5
89
100
AcDbEntity
 67
     1
  8
1
  6
Continuous
 62
     7
100
AcDbLine
 10
3.630138
 20
3.341502
 30
0.0
 11
3.639444
 21
3.341502
 31
0.0
  0
LINE
  5
8A
100
AcDbEntity
 67
     1
  8
1
  6
Continuous
 62
     7
100
AcDbLine
 10
4.207668
 20
5.616119
 30
0.0
 11
4.207668
 21
5.700067
 31
0.0
  0
LINE
  5
8B
100
AcDbEntity
 67
     1
  8
1
  6
Continuous
 62
     7
100
AcDbLine
 10
3.755138
 20
3.651136
 30
0.0
 11
3.754193
 21
5.32005
 31
0.0
  0
LINE
  5
8C
100
AcDbEntity
 67
     1
  8
1
  6
Continuous
 62
     7
100
AcDbLine
 10
12.358347
 20
7.226794
 30
0.0
 11
12.300929
 21
7.288034
 31
0.0
  0
LINE
  5
8D
100
AcDbEntity
 67
     1
  8
1
  6
Continuous
 62
     7
100
AcDbLine
 10
2.444138
 20
3.175503
 30
0.0
 11
2.399138
 21
3.175503
 31
0.0
  0
LINE
  5
8E
100
AcDbEntity
 67
     1
  8
1
  6
Continuous
 62
     7
100
AcDbLine
 10
5.800874
 20
9.34134
 30
0.0
 11
5.800874
 21
9.484388
 31
0.0
  0
LINE
  5
8F
100
AcDbEntity
 67
     1
  8
1
  6
Continuous
 62
     7
100
AcDbLine
 10
4.205668
 20
5.616119
 30
0.0
 11
4.205668
 21
5.707531
 31
0.0
  0
LINE
  5
90
100
AcDbEntity
 67
     1
  8
1
  6
Continuous
 62
     7
100
AcDbLine
 10
15.843876
 20
4.756834
 30
0.0
 11
15.800874
 21
4.681119
 31
0.0
  0
LINE
  5
91
100
AcDbEntity
 67
     1
  8
1
  6
Continuous
 62
     7
100
AcDbLine
 10
11.800874
 20
5.391119
 30
0.0
 11
15.992612
 21
5.391119
 31
0.0
  0
LINE
  5
92
100
AcDbEntity
 67
     1
  8
1
  6
Continuous
 62
     7
100
AcDbLine
 10
1.068008
 20
4.300146
 30
0.0
 11
1.023008
 21
4.300146
 31
0.0
  0
LINE
  5
93
100
AcDbEntity
 67
     1
  8
1
  6
Continuous
 62
     7
100
AcDbLine
 10
12.354916
 20
5.841876
 30
0.0
 11
12.289745
 21
5.74858
 31
0.0
  0
LINE
  5
94
100
AcDbEntity
 67
     1
  8
1
  6
Continuous
 62
     7
100
AcDbLine
 10
3.630138
 20
6.296576
 30
0.0
 11
3.661836
 21
6.296576
 31
0.0
  0
LINE
  5
95
100
AcDbEntity
 67
     1
  8
1
  6
Continuous
 62
     7
100
AcDbLine
 10
4.203669
 20
5.616119
 30
0.0
 11
4.203669
 21
5.714995
 31
0.0
  0
LINE
  5
96
100
AcDbEntity
 67
     1
  8
1
  6
Continuous
 62
     7
100
AcDbLine
 10
4.196669
 20
5.741119
 30
0.0
 11
4.196669
 21
4.917994
 31
0.0
  0
LINE
  5
97
100
AcDbEntity
 67
     1
  8
1
  6
Continuous
 62
     7
100
AcDbLine
 10
11.318505
 20
3.520009
 30
0.0
 11
11.304506
 21
3.548449
 31
0.0
  0
LINE
  5
98
100
AcDbEntity
 67
     1
  8
1
  6
Continuous
 62
     7
100
AcDbLine
 10
3.630138
 20
3.315502
 30
0.0
 11
3.736477
 21
3.315502
 31
0.0
  0
LINE
  5
99
100
AcDbEntity
 67
     1
  8
1
  6
Continuous
 62
     7
100
AcDbLine
 10
5.086603
 20
3.746119
 30
0.0
 11
5.086603
 21
3.744277
 31
0.0
  0
LINE
  5
9A
100
AcDbEntity
 67
     1
  8
1
  6
Continuous
 62
     7
100
AcDbLine
 10
4.201668
 20
5.616119
 30
0.0
 11
4.201668
 21
5.722459
 31
0.0
  0
LINE
  5
9B
100
AcDbEntity
 67
     1
  8
1
  6
Continuous
 62
     7
100
AcDbLine
 10
5.152603
 20
5.485824
 30
0.0
 11
5.152603
 21
5.487666
 31
0.0
  0
LINE
  5
9C
100
AcDbEntity
 67
     1
  8
1
  6
Continuous
 62
     7
100
AcDbLine
 10
11.800749
 20
5.610824
 30
0.0
 11
5.800874
 21
5.610824
 31
0.0
  0
LINE
  5
9D
100
AcDbEntity
 67
     1
  8
1
  6
Continuous
 62
     7
100
AcDbLine
 10
4.196669
 20
5.741119
 30
0.0
 11
4.163175
 21
5.616119
 31
0.0
  0
LINE
  5
9E
100
AcDbEntity
 67
     1
  8
1
  6
Continuous
 62
     7
100
AcDbLine
 10
1.505138
 20
3.310503
 30
0.0
 11
2.336638
 21
3.310503
 31
0.0
  0
LINE
  5
9F
100
AcDbEntity
 67
     1
  8
1
  6
Continuous
 62
     7
100
AcDbLine
 10
4.211668
 20
3.746119
 30
0.0
 11
4.211668
 21
3.6771
 31
0.0
  0
LINE
  5
A0
100
AcDbEntity
 67
     1
  8
1
  6
Continuous
 62
     7
100
AcDbLine
 10
15.585417
 20
7.747381
 30
0.0
 11
15.602806
 21
7.677068
 31
0.0
  0
LINE
  5
A1
100
AcDbEntity
 67
     1
  8
1
  6
Continuous
 62
     7
100
AcDbLine
 10
4.181668
 20
3.746119
 30
0.0
 11
4.181668
 21
3.6771
 31
0.0
  0
LINE
  5
A2
100
AcDbEntity
 67
     1
  8
1
  6
Continuous
 62
     7
100
AcDbLine
 10
5.800874
 20
3.651136
 30
0.0
 11
5.800874
 21
3.636129
 31
0.0
  0
LINE
  5
A3
100
AcDbEntity
 67
     1
  8
1
  6
Continuous
 62
     7
100
AcDbLine
 10
1.710567
 20
4.409914
 30
0.0
 11
1.678868
 21
4.409933
 31
0.0
  0
LINE
  5
A4
100
AcDbEntity
 67
     1
  8
1
  6
Continuous
 62
     7
100
AcDbLine
 10
12.348134
 20
7.217219
 30
0.0
 11
12.326453
 21
7.240343
 31
0.0
  0
LINE
  5
A5
100
AcDbEntity
 67
     1
  8
1
  6
Continuous
 62
     7
100
AcDbLine
 10
1.710595
 20
4.459915
 30
0.0
 11
1.678897
 21
4.459932
 31
0.0
  0
LINE
  5
A6
100
AcDbEntity
 67
     1
  8
1
  6
Continuous
 62
     7
100
AcDbLine
 10
15.601756
 20
3.999691
 30
0.0
 11
15.623567
 21
3.923977
 31
0.0
  0
LINE
  5
A7
100
AcDbEntity
 67
     1
  8
1
  6
Continuous
 62
     7
100
AcDbLine
 10
11.300561
 20
3.511176
 30
0.0
 11
11.2536
 21
3.606585
 31
0.0
  0
LINE
  5
A8
100
AcDbEntity
 67
     1
  8
1
  6
Continuous
 62
     7
100
AcDbLine
 10
3.630138
 20
3.277009
 30
0.0
 11
3.755138
 21
3.310503
 31
0.0
  0
LINE
  5
A9
100
AcDbEntity
 67
     1
  8
1
  6
Continuous
 62
     7
100
AcDbLine
 10
12.205371
 20
2.257467
 30
0.0
 11
6.526266
 21
2.257467
 31
0.0
  0
LINE
  5
AA
100
AcDbEntity
 67
     1
  8
1
  6
Continuous
 62
     7
100
AcDbLine
 10
13.786798
 20
3.286128
 30
0.0
 11
13.656895
 21
3.061127
 31
0.0
  0
LINE
  5
AB
100
AcDbEntity
 67
     1
  8
1
  6
Continuous
 62
     7
100
AcDbLine
 10
5.800874
 20
9.484388
 30
0.0
 11
5.800874
 21
9.490562
 31
0.0
  0
LINE
  5
AC
100
AcDbEntity
 67
     1
  8
1
  6
Continuous
 62
     7
100
AcDbLine
 10
4.163669
 20
5.616119
 30
0.0
 11
4.163669
 21
5.617962
 31
0.0
  0
LINE
  5
AD
100
AcDbEntity
 67
     1
  8
1
  6
Continuous
 62
     7
100
AcDbLine
 10
1.710584
 20
4.439914
 30
0.0
 11
1.604244
 21
4.439975
 31
0.0
  0
LINE
  5
AE
100
AcDbEntity
 67
     1
  8
1
  6
Continuous
 62
     7
100
AcDbLine
 10
1.630138
 20
3.305502
 30
0.0
 11
1.523798
 21
3.305502
 31
0.0
  0
LINE
  5
AF
100
AcDbEntity
 67
     1
  8
1
  6
Continuous
 62
     7
100
AcDbLine
 10
0.704071
 20
4.131396
 30
0.0
 11
0.749071
 21
4.131396
 31
0.0
  0
LINE
  5
B0
100
AcDbEntity
 67
     1
  8
1
  6
Continuous
 62
     7
100
AcDbLine
 10
12.359835
 20
5.83844
 30
0.0
 11
12.307487
 21
5.763501
 31
0.0
  0
LINE
  5
B1
100
AcDbEntity
 67
     1
  8
1
  6
Continuous
 62
     7
100
AcDbLine
 10
3.630138
 20
6.290576
 30
0.0
 11
3.639444
 21
6.290576
 31
0.0
  0
LINE
  5
B2
100
AcDbEntity
 67
     1
  8
1
  6
Continuous
 62
     7
100
AcDbLine
 10
4.163669
 20
5.616119
 30
0.0
 11
4.163669
 21
5.617962
 31
0.0
  0
LINE
  5
B3
100
AcDbEntity
 67
     1
  8
1
  6
Continuous
 62
     7
100
AcDbLine
 10
5.094603
 20
3.746119
 30
0.0
 11
5.094603
 21
3.714421
 31
0.0
  0
LINE
  5
B4
100
AcDbEntity
 67
     1
  8
1
  6
Continuous
 62
     7
100
AcDbLine
 10
11.323888
 20
3.522658
 30
0.0
 11
11.319778
 21
3.531008
 31
0.0
  0
LINE
  5
B5
100
AcDbEntity
 67
     1
  8
1
  6
Continuous
 62
     7
100
AcDbLine
 10
5.122603
 20
3.746119
 30
0.0
 11
5.122603
 21
3.632316
 31
0.0
  0
LINE
  5
B6
100
AcDbEntity
 67
     1
  8
1
  6
Continuous
 62
     7
100
AcDbLine
 10
1.630138
 20
6.328576
 30
0.0
 11
1.531262
 21
6.328576
 31
0.0
  0
LINE
  5
B7
100
AcDbEntity
 67
     1
  8
1
  6
Continuous
 62
     7
100
AcDbLine
 10
5.116603
 20
5.485824
 30
0.0
 11
5.116603
 21
5.599627
 31
0.0
  0
LINE
  5
B8
100
AcDbEntity
 67
     1
  8
1
  6
Continuous
 62
     7
100
AcDbLine
 10
12.205371
 20
2.488467
 30
0.0
 11
12.205371
 21
0.440085
 31
0.0
  0
LINE
  5
B9
100
AcDbEntity
 67
     1
  8
1
  6
Continuous
 62
     7
100
AcDbLine
 10
4.175668
 20
3.746119
 30
0.0
 11
4.175668
 21
3.699492
 31
0.0
  0
LINE
  5
BA
100
AcDbEntity
 67
     1
  8
1
  6
Continuous
 62
     7
100
AcDbLine
 10
15.777779
 20
3.651136
 30
0.0
 11
11.800874
 21
3.651136
 31
0.0
  0
LINE
  5
BB
100
AcDbEntity
 67
     1
  8
1
  6
Continuous
 62
     7
100
AcDbLine
 10
4.167668
 20
5.616119
 30
0.0
 11
4.167668
 21
5.63289
 31
0.0
  0
LINE
  5
BC
100
AcDbEntity
 67
     1
  8
1
  6
Continuous
 62
     7
100
AcDbLine
 10
1.710564
 20
4.403914
 30
0.0
 11
1.701257
 21
4.40392
 31
0.0
  0
LINE
  5
BD
100
AcDbEntity
 67
     1
  8
1
  6
Continuous
 62
     7
100
AcDbLine
 10
1.51498
 20
5.341357
 30
0.0
 11
1.668739
 21
5.493511
 31
0.0
  0
LINE
  5
BE
100
AcDbEntity
 67
     1
  8
1
  6
Continuous
 62
     7
100
AcDbLine
 10
12.343758
 20
7.213115
 30
0.0
 11
12.337392
 21
7.219904
 31
0.0
  0
LINE
  5
BF
100
AcDbEntity
 67
     1
  8
1
  6
Continuous
 62
     7
100
AcDbLine
 10
5.098603
 20
3.746119
 30
0.0
 11
5.098603
 21
3.699492
 31
0.0
  0
LINE
  5
C0
100
AcDbEntity
 67
     1
  8
1
  6
Continuous
 62
     7
100
AcDbLine
 10
4.165668
 20
5.616119
 30
0.0
 11
4.165668
 21
5.625426
 31
0.0
  0
LINE
  5
C1
100
AcDbEntity
 67
     1
  8
1
  6
Continuous
 62
     7
100
AcDbLine
 10
16.186428
 20
9.550544
 30
0.0
 11
16.056524
 21
9.325544
 31
0.0
  0
LINE
  5
C2
100
AcDbEntity
 67
     1
  8
1
  6
Continuous
 62
     7
100
AcDbLine
 10
4.171669
 20
5.616119
 30
0.0
 11
4.171669
 21
5.647818
 31
0.0
  0
LINE
  5
C3
100
AcDbEntity
 67
     1
  8
1
  6
Continuous
 62
     7
100
AcDbLine
 10
15.448773
 20
6.452911
 30
0.0
 11
15.31887
 21
6.677911
 31
0.0
  0
LINE
  5
C4
100
AcDbEntity
 67
     1
  8
1
  6
Continuous
 62
     7
100
AcDbLine
 10
5.102603
 20
3.746119
 30
0.0
 11
5.102603
 21
3.684564
 31
0.0
  0
LINE
  5
C5
100
AcDbEntity
 67
     1
  8
1
  6
Continuous
 62
     7
100
AcDbLine
 10
11.800749
 20
9.496125
 30
0.0
 11
5.800874
 21
9.496125
 31
0.0
  0
LINE
  5
C6
100
AcDbEntity
 67
     1
  8
1
  6
Continuous
 62
     7
100
AcDbLine
 10
5.800874
 20
5.341357
 30
0.0
 11
5.800874
 21
5.331594
 31
0.0
  0
LINE
  5
C7
100
AcDbEntity
 67
     1
  8
1
  6
Continuous
 62
     7
100
AcDbLine
 10
16.012884
 20
5.21112
 30
0.0
 11
16.003258
 21
5.135405
 31
0.0
  0
LINE
  5
C8
100
AcDbEntity
 67
     1
  8
1
  6
Continuous
 62
     7
100
AcDbLine
 10
11.800749
 20
5.610686
 30
0.0
 11
5.800874
 21
5.610686
 31
0.0
  0
LINE
  5
C9
100
AcDbEntity
 67
     1
  8
1
  6
Continuous
 62
     7
100
AcDbLine
 10
4.173668
 20
5.616119
 30
0.0
 11
4.173668
 21
5.655282
 31
0.0
  0
LINE
  5
CA
100
AcDbEntity
 67
     1
  8
1
  6
Continuous
 62
     7
100
AcDbLine
 10
3.597739
 20
5.517618
 30
0.0
 11
3.669126
 21
5.542897
 31
0.0
  0
LINE
  5
CB
100
AcDbEntity
 67
     1
  8
1
  6
Continuous
 62
     7
100
AcDbLine
 10
12.374396
 20
7.241842
 30
0.0
 11
12.316978
 21
7.303082
 31
0.0
  0
LINE
  5
CC
100
AcDbEntity
 67
     1
  8
1
  6
Continuous
 62
     7
100
AcDbLine
 10
4.195668
 20
3.746119
 30
0.0
 11
4.195668
 21
3.624851
 31
0.0
  0
LINE
  5
CD
100
AcDbEntity
 67
     1
  8
1
  6
Continuous
 62
     7
100
AcDbLine
 10
12.364753
 20
5.835004
 30
0.0
 11
12.325229
 21
5.778422
 31
0.0
  0
LINE
  5
CE
100
AcDbEntity
 67
     1
  8
1
  6
Continuous
 62
     7
100
AcDbLine
 10
3.630138
 20
6.322576
 30
0.0
 11
3.751406
 21
6.322576
 31
0.0
  0
LINE
  5
CF
100
AcDbEntity
 67
     1
  8
1
  6
Continuous
 62
     7
100
AcDbLine
 10
13.916702
 20
3.061127
 30
0.0
 11
13.786798
 21
3.286128
 31
0.0
  0
LINE
  5
D0
100
AcDbEntity
 67
     1
  8
1
  6
Continuous
 62
     7
100
AcDbLine
 10
4.005044
 20
4.506744
 30
0.0
 11
4.050044
 21
4.506744
 31
0.0
  0
LINE
  5
D1
100
AcDbEntity
 67
     1
  8
1
  6
Continuous
 62
     7
100
AcDbLine
 10
11.295177
 20
3.508527
 30
0.0
 11
11.241625
 21
3.617329
 31
0.0
  0
LINE
  5
D2
100
AcDbEntity
 67
     1
  8
1
  6
Continuous
 62
     7
100
AcDbLine
 10
4.467043
 20
4.506744
 30
0.0
 11
4.467043
 21
4.675495
 31
0.0
  0
LINE
  5
D3
100
AcDbEntity
 67
     1
  8
1
  6
Continuous
 62
     7
100
AcDbLine
 10
4.227668
 20
3.746119
 30
0.0
 11
4.227668
 21
3.736813
 31
0.0
  0
LINE
  5
D4
100
AcDbEntity
 67
     1
  8
1
  6
Continuous
 62
     7
100
AcDbLine
 10
5.110603
 20
5.485824
 30
0.0
 11
5.110603
 21
5.577235
 31
0.0
  0
LINE
  5
D5
100
AcDbEntity
 67
     1
  8
1
  6
Continuous
 62
     7
100
AcDbLine
 10
5.800874
 20
7.328767
 30
0.0
 11
5.800874
 21
7.32645
 31
0.0
  0
LINE
  5
D6
100
AcDbEntity
 67
     1
  8
1
  6
Continuous
 62
     7
100
AcDbLine
 10
15.652213
 20
8.169255
 30
0.0
 11
15.623523
 21
8.098943
 31
0.0
  0
LINE
  5
D7
100
AcDbEntity
 67
     1
  8
1
  6
Continuous
 62
     7
100
AcDbLine
 10
4.467043
 20
4.675495
 30
0.0
 11
4.422043
 21
4.675495
 31
0.0
  0
LINE
  5
D8
100
AcDbEntity
 67
     1
  8
1
  6
Continuous
 62
     7
100
AcDbLine
 10
1.380563
 20
4.402101
 30
0.0
 11
1.382405
 21
4.4021
 31
0.0
  0
LINE
  5
D9
100
AcDbEntity
 67
     1
  8
1
  6
Continuous
 62
     7
100
AcDbLine
 10
1.7106
 20
4.468408
 30
0.0
 11
1.585581
 21
4.434985
 31
0.0
  0
LINE
  5
DA
100
AcDbEntity
 67
     1
  8
1
  6
Continuous
 62
     7
100
AcDbLine
 10
11.800874
 20
5.42112
 30
0.0
 11
11.800874
 21
5.40612
 31
0.0
  0
LINE
  5
DB
100
AcDbEntity
 67
     1
  8
1
  6
Continuous
 62
     7
100
AcDbLine
 10
4.179668
 20
5.616119
 30
0.0
 11
4.179668
 21
5.677675
 31
0.0
  0
LINE
  5
DC
100
AcDbEntity
 67
     1
  8
1
  6
Continuous
 62
     7
100
AcDbLine
 10
12.390805
 20
7.257227
 30
0.0
 11
12.280874
 21
7.325506
 31
0.0
  0
LINE
  5
DD
100
AcDbEntity
 67
     1
  8
1
  6
Continuous
 62
     7
100
AcDbLine
 10
1.710592
 20
4.453915
 30
0.0
 11
1.656501
 21
4.453945
 31
0.0
  0
LINE
  5
DE
100
AcDbEntity
 67
     1
  8
1
  6
Continuous
 62
     7
100
AcDbLine
 10
3.807638
 20
5.741119
 30
0.0
 11
4.321669
 21
5.741119
 31
0.0
  0
LINE
  5
DF
100
AcDbEntity
 67
     1
  8
1
  6
Continuous
 62
     7
100
AcDbLine
 10
4.230162
 20
5.616119
 30
0.0
 11
4.196669
 21
5.741119
 31
0.0
  0
LINE
  5
E0
100
AcDbEntity
 67
     1
  8
1
  6
Continuous
 62
     7
100
AcDbLine
 10
16.369932
 20
2.488467
 30
0.0
 11
12.205371
 21
2.488467
 31
0.0
  0
LINE
  5
E1
100
AcDbEntity
 67
     1
  8
1
  6
Continuous
 62
     7
100
AcDbLine
 10
11.800874
 20
5.40612
 30
0.0
 11
11.800874
 21
5.395139
 31
0.0
  0
LINE
  5
E2
100
AcDbEntity
 67
     1
  8
1
  6
Continuous
 62
     7
100
AcDbLine
 10
1.630138
 20
3.301502
 30
0.0
 11
1.538726
 21
3.301502
 31
0.0
  0
LINE
  5
E3
100
AcDbEntity
 67
     1
  8
1
  6
Continuous
 62
     7
100
AcDbLine
 10
4.183669
 20
5.616119
 30
0.0
 11
4.183669
 21
5.692603
 31
0.0
  0
LINE
  5
E4
100
AcDbEntity
 67
     1
  8
1
  6
Continuous
 62
     7
100
AcDbLine
 10
16.369932
 20
2.257467
 30
0.0
 11
12.205371
 21
2.257467
 31
0.0
  0
LINE
  5
E5
100
AcDbEntity
 67
     1
  8
1
  6
Continuous
 62
     7
100
AcDbLine
 10
5.800874
 20
9.565663
 30
0.0
 11
5.800874
 21
9.496155
 31
0.0
  0
LINE
  5
E6
100
AcDbEntity
 67
     1
  8
1
  6
Continuous
 62
     7
100
AcDbLine
 10
11.800749
 20
5.493511
 30
0.0
 11
5.800874
 21
5.493511
 31
0.0
  0
LINE
  5
E7
100
AcDbEntity
 67
     1
  8
1
  6
Continuous
 62
     7
100
AcDbLine
 10
1.710591
 20
4.451914
 30
0.0
 11
1.649036
 21
4.451949
 31
0.0
  0
LINE
  5
E8
100
AcDbEntity
 67
     1
  8
1
  6
Continuous
 62
     7
100
AcDbLine
 10
1.630138
 20
6.306576
 30
0.0
 11
1.561118
 21
6.306576
 31
0.0
  0
LINE
  5
E9
100
AcDbEntity
 67
     1
  8
1
  6
Continuous
 62
     7
100
AcDbLine
 10
15.800874
 20
3.621119
 30
0.0
 11
11.800874
 21
3.621119
 31
0.0
  0
LINE
  5
EA
100
AcDbEntity
 67
     1
  8
1
  6
Continuous
 62
     7
100
AcDbLine
 10
12.378773
 20
7.245946
 30
0.0
 11
12.336671
 21
7.29085
 31
0.0
  0
LINE
  5
EB
100
AcDbEntity
 67
     1
  8
1
  6
Continuous
 62
     7
100
AcDbLine
 10
12.369672
 20
5.831568
 30
0.0
 11
12.342971
 21
5.793344
 31
0.0
  0
LINE
  5
EC
100
AcDbEntity
 67
     1
  8
1
  6
Continuous
 62
     7
100
AcDbLine
 10
3.630138
 20
6.328576
 30
0.0
 11
3.729013
 21
6.328576
 31
0.0
  0
LINE
  5
ED
100
AcDbEntity
 67
     1
  8
1
  6
Continuous
 62
     7
100
AcDbLine
 10
5.116603
 20
3.746119
 30
0.0
 11
5.116603
 21
3.632316
 31
0.0
  0
LINE
  5
EE
100
AcDbEntity
 67
     1
  8
1
  6
Continuous
 62
     7
100
AcDbLine
 10
1.630138
 20
3.311502
 30
0.0
 11
1.50887
 21
3.311502
 31
0.0
  0
LINE
  5
EF
100
AcDbEntity
 67
     1
  8
1
  6
Continuous
 62
     7
100
AcDbLine
 10
11.289794
 20
3.505877
 30
0.0
 11
11.24613
 21
3.594589
 31
0.0
  0
LINE
  5
F0
100
AcDbEntity
 67
     1
  8
1
  6
Continuous
 62
     7
100
AcDbLine
 10
15.916325
 20
8.661443
 30
0.0
 11
15.879725
 21
8.59113
 31
0.0
  0
LINE
  5
F1
100
AcDbEntity
 67
     1
  8
1
  6
Continuous
 62
     7
100
AcDbLine
 10
4.229669
 20
5.616119
 30
0.0
 11
4.229669
 21
5.617962
 31
0.0
  0
LINE
  5
F2
100
AcDbEntity
 67
     1
  8
1
  6
Continuous
 62
     7
100
AcDbLine
 10
5.738374
 20
5.610824
 30
0.0
 11
4.994603
 21
5.610824
 31
0.0
  0
LINE
  5
F3
100
AcDbEntity
 67
     1
  8
1
  6
Continuous
 62
     7
100
AcDbLine
 10
5.104603
 20
5.485824
 30
0.0
 11
5.104603
 21
5.554843
 31
0.0
  0
LINE
  5
F4
100
AcDbEntity
 67
     1
  8
1
  6
Continuous
 62
     7
100
AcDbLine
 10
5.800874
 20
7.335348
 30
0.0
 11
5.800874
 21
7.404857
 31
0.0
  0
LINE
  5
F5
100
AcDbEntity
 67
     1
  8
1
  6
Continuous
 62
     7
100
AcDbLine
 10
15.760883
 20
8.380193
 30
0.0
 11
15.722024
 21
8.30988
 31
0.0
  0
LINE
  5
F6
100
AcDbEntity
 67
     1
  8
1
  6
Continuous
 62
     7
100
AcDbLine
 10
11.800874
 20
5.73112
 30
0.0
 11
11.800874
 21
5.42112
 31
0.0
  0
LINE
  5
F7
100
AcDbEntity
 67
     1
  8
1
  6
Continuous
 62
     7
100
AcDbLine
 10
4.219668
 20
3.746119
 30
0.0
 11
4.219668
 21
3.706957
 31
0.0
  0
LINE
  5
F8
100
AcDbEntity
 67
     1
  8
1
  6
Continuous
 62
     7
100
AcDbLine
 10
16.007639
 20
5.32005
 30
0.0
 11
11.800874
 21
5.32005
 31
0.0
  0
LINE
  5
F9
100
AcDbEntity
 67
     1
  8
1
  6
Continuous
 62
     7
100
AcDbLine
 10
3.755138
 20
3.588636
 30
0.0
 11
3.755138
 21
3.185503
 31
0.0
  0
LINE
  5
FA
100
AcDbEntity
 67
     1
  8
1
  6
Continuous
 62
     7
100
AcDbLine
 10
1.710576
 20
4.425914
 30
0.0
 11
1.619165
 21
4.425966
 31
0.0
  0
LINE
  5
FB
100
AcDbEntity
 67
     1
  8
1
  6
Continuous
 62
     7
100
AcDbLine
 10
4.163175
 20
3.746119
 30
0.0
 11
4.196669
 21
3.621119
 31
0.0
  0
LINE
  5
FC
100
AcDbEntity
 67
     1
  8
1
  6
Continuous
 62
     7
100
AcDbLine
 10
11.800749
 20
9.574561
 30
0.0
 11
5.800874
 21
9.574561
 31
0.0
  0
LINE
  5
FD
100
AcDbEntity
 67
     1
  8
1
  6
Continuous
 62
     7
100
AcDbLine
 10
5.086109
 20
3.746119
 30
0.0
 11
5.119603
 21
3.621119
 31
0.0
  0
LINE
  5
FE
100
AcDbEntity
 67
     1
  8
1
  6
Continuous
 62
     7
100
AcDbLine
 10
5.800874
 20
9.565663
 30
0.0
 11
5.800874
 21
9.572245
 31
0.0
  0
LINE
  5
FF
100
AcDbEntity
 67
     1
  8
1
  6
Continuous
 62
     7
100
AcDbLine
 10
15.685423
 20
8.239568
 30
0.0
 11
15.652213
 21
8.169255
 31
0.0
  0
LINE
  5
100
100
AcDbEntity
 67
     1
  8
1
  6
Continuous
 62
     7
100
AcDbLine
 10
5.119603
 20
5.610824
 30
0.0
 11
5.119603
 21
4.852847
 31
0.0
  0
LINE
  5
101
100
AcDbEntity
 67
     1
  8
1
  6
Continuous
 62
     7
100
AcDbLine
 10
1.710594
 20
4.457914
 30
0.0
 11
1.671431
 21
4.457937
 31
0.0
  0
LINE
  5
102
100
AcDbEntity
 67
     1
  8
1
  6
Continuous
 62
     7
100
AcDbLine
 10
4.189669
 20
5.616119
 30
0.0
 11
4.189669
 21
5.714995
 31
0.0
  0
LINE
  5
103
100
AcDbEntity
 67
     1
  8
1
  6
Continuous
 62
     7
100
AcDbLine
 10
3.488189
 20
5.57847
 30
0.0
 11
3.495094
 21
5.490741
 31
0.0
  0
LINE
  5
104
100
AcDbEntity
 67
     1
  8
1
  6
Continuous
 62
     7
100
AcDbLine
 10
5.800874
 20
5.596912
 30
0.0
 11
5.800874
 21
5.593967
 31
0.0
  0
LINE
  5
105
100
AcDbEntity
 67
     1
  8
1
  6
Continuous
 62
     7
100
AcDbLine
 10
12.38315
 20
7.25005
 30
0.0
 11
12.356363
 21
7.278619
 31
0.0
  0
LINE
  5
106
100
AcDbEntity
 67
     1
  8
1
  6
Continuous
 62
     7
100
AcDbLine
 10
12.374591
 20
5.828132
 30
0.0
 11
12.360713
 21
5.808265
 31
0.0
  0
LINE
  5
107
100
AcDbEntity
 67
     1
  8
1
  6
Continuous
 62
     7
100
AcDbLine
 10
3.630138
 20
6.334576
 30
0.0
 11
3.706621
 21
6.334576
 31
0.0
  0
LINE
  5
108
100
AcDbEntity
 67
     1
  8
1
  6
Continuous
 62
     7
100
AcDbLine
 10
1.630138
 20
6.312576
 30
0.0
 11
1.538726
 21
6.312576
 31
0.0
  0
LINE
  5
109
100
AcDbEntity
 67
     1
  8
1
  6
Continuous
 62
     7
100
AcDbLine
 10
16.039162
 20
2.566863
 30
0.0
 11
16.298969
 21
2.566863
 31
0.0
  0
LINE
  5
10A
100
AcDbEntity
 67
     1
  8
1
  6
Continuous
 62
     7
100
AcDbLine
 10
1.630138
 20
3.317502
 30
0.0
 11
1.531262
 21
3.317502
 31
0.0
  0
LINE
  5
10B
100
AcDbEntity
 67
     1
  8
1
  6
Continuous
 62
     7
100
AcDbLine
 10
11.28441
 20
3.503227
 30
0.0
 11
11.250635
 21
3.571849
 31
0.0
  0
LINE
  5
10C
100
AcDbEntity
 67
     1
  8
1
  6
Continuous
 62
     7
100
AcDbLine
 10
13.800874
 20
3.621119
 30
0.0
 11
5.800874
 21
3.621119
 31
0.0
  0
LINE
  5
10D
100
AcDbEntity
 67
     1
  8
1
  6
Continuous
 62
     7
100
AcDbLine
 10
1.630138
 20
6.346576
 30
0.0
 11
1.598439
 21
6.346576
 31
0.0
  0
LINE
  5
10E
100
AcDbEntity
 67
     1
  8
1
  6
Continuous
 62
     7
100
AcDbLine
 10
15.628106
 20
7.606756
 30
0.0
 11
15.660939
 21
7.536443
 31
0.0
  0
LINE
  5
10F
100
AcDbEntity
 67
     1
  8
1
  6
Continuous
 62
     7
100
AcDbLine
 10
5.098603
 20
5.485824
 30
0.0
 11
5.098603
 21
5.532451
 31
0.0
  0
LINE
  5
110
100
AcDbEntity
 67
     1
  8
1
  6
Continuous
 62
     7
100
AcDbLine
 10
11.800749
 20
7.404886
 30
0.0
 11
5.800874
 21
7.404886
 31
0.0
  0
LINE
  5
111
100
AcDbEntity
 67
     1
  8
1
  6
Continuous
 62
     7
100
AcDbLine
 10
15.879725
 20
8.59113
 30
0.0
 11
15.840864
 21
8.520818
 31
0.0
  0
LINE
  5
112
100
AcDbEntity
 67
     1
  8
1
  6
Continuous
 62
     7
100
AcDbLine
 10
11.800874
 20
5.738191
 30
0.0
 11
11.800874
 21
5.73112
 31
0.0
  0
LINE
  5
113
100
AcDbEntity
 67
     1
  8
1
  6
Continuous
 62
     7
100
AcDbLine
 10
12.346718
 20
5.847602
 30
0.0
 11
12.290095
 21
5.766545
 31
0.0
  0
LINE
  5
114
100
AcDbEntity
 67
     1
  8
1
  6
Continuous
 62
     7
100
AcDbLine
 10
2.816138
 20
3.006752
 30
0.0
 11
2.861138
 21
3.006752
 31
0.0
  0
LINE
  5
115
100
AcDbEntity
 67
     1
  8
1
  6
Continuous
 62
     7
100
AcDbLine
 10
1.710589
 20
4.447915
 30
0.0
 11
1.634105
 21
4.447958
 31
0.0
  0
LINE
  5
116
100
AcDbEntity
 67
     1
  8
1
  6
Continuous
 62
     7
100
AcDbLine
 10
5.118603
 20
3.746119
 30
0.0
 11
5.118603
 21
3.624851
 31
0.0
  0
LINE
  5
117
100
AcDbEntity
 67
     1
  8
1
  6
Continuous
 62
     7
100
AcDbLine
 10
5.800874
 20
5.610789
 30
0.0
 11
5.800874
 21
5.610686
 31
0.0
  0
LINE
  5
118
100
AcDbEntity
 67
     1
  8
1
  6
Continuous
 62
     7
100
AcDbLine
 10
5.120603
 20
5.485824
 30
0.0
 11
5.120603
 21
5.607092
 31
0.0
  0
LINE
  5
119
100
AcDbEntity
 67
     1
  8
1
  6
Continuous
 62
     7
100
AcDbLine
 10
11.800749
 20
9.575505
 30
0.0
 11
5.800874
 21
9.575505
 31
0.0
  0
LINE
  5
11A
100
AcDbEntity
 67
     1
  8
1
  6
Continuous
 62
     7
100
AcDbLine
 10
12.342299
 20
7.211747
 30
0.0
 11
12.341038
 21
7.213091
 31
0.0
  0
LINE
  5
11B
100
AcDbEntity
 67
     1
  8
1
  6
Continuous
 62
     7
100
AcDbLine
 10
1.710598
 20
4.463914
 30
0.0
 11
1.693827
 21
4.463924
 31
0.0
  0
LINE
  5
11C
100
AcDbEntity
 67
     1
  8
1
  6
Continuous
 62
     7
100
AcDbLine
 10
1.630138
 20
6.294576
 30
0.0
 11
1.605903
 21
6.294576
 31
0.0
  0
LINE
  5
11D
100
AcDbEntity
 67
     1
  8
1
  6
Continuous
 62
     7
100
AcDbLine
 10
12.387527
 20
7.254154
 30
0.0
 11
12.376057
 21
7.266388
 31
0.0
  0
LINE
  5
11E
100
AcDbEntity
 67
     1
  8
1
  6
Continuous
 62
     7
100
AcDbLine
 10
12.37951
 20
5.824696
 30
0.0
 11
12.378454
 21
5.823185
 31
0.0
  0
LINE
  5
11F
100
AcDbEntity
 67
     1
  8
1
  6
Continuous
 62
     7
100
AcDbLine
 10
1.630138
 20
3.307503
 30
0.0
 11
1.516334
 21
3.307503
 31
0.0
  0
LINE
  5
120
100
AcDbEntity
 67
     1
  8
1
  6
Continuous
 62
     7
100
AcDbLine
 10
3.630138
 20
6.340576
 30
0.0
 11
3.684229
 21
6.340576
 31
0.0
  0
LINE
  5
121
100
AcDbEntity
 67
     1
  8
1
  6
Continuous
 62
     7
100
AcDbLine
 10
1.630138
 20
3.323503
 30
0.0
 11
1.553654
 21
3.323503
 31
0.0
  0
LINE
  5
122
100
AcDbEntity
 67
     1
  8
1
  6
Continuous
 62
     7
100
AcDbLine
 10
11.279028
 20
3.500578
 30
0.0
 11
11.25514
 21
3.549109
 31
0.0
  0
LINE
  5
123
100
AcDbEntity
 67
     1
  8
1
  6
Continuous
 62
     7
100
AcDbLine
 10
5.092603
 20
5.485824
 30
0.0
 11
5.092603
 21
5.510058
 31
0.0
  0
LINE
  5
124
100
AcDbEntity
 67
     1
  8
1
  6
Continuous
 62
     7
100
AcDbLine
 10
16.298969
 20
2.566863
 30
0.0
 11
16.169065
 21
2.791863
 31
0.0
  0
LINE
  5
125
100
AcDbEntity
 67
     1
  8
1
  6
Continuous
 62
     7
100
AcDbLine
 10
4.225668
 20
5.616119
 30
0.0
 11
4.225668
 21
5.63289
 31
0.0
  0
LINE
  5
126
100
AcDbEntity
 67
     1
  8
1
  6
Continuous
 62
     7
100
AcDbLine
 10
15.978225
 20
8.802068
 30
0.0
 11
15.949534
 21
8.731755
 31
0.0
  0
LINE
  5
127
100
AcDbEntity
 67
     1
  8
1
  6
Continuous
 62
     7
100
AcDbLine
 10
15.695267
 20
3.772548
 30
0.0
 11
15.744097
 21
3.696834
 31
0.0
  0
LINE
  5
128
100
AcDbEntity
 67
     1
  8
1
  6
Continuous
 62
     7
100
AcDbLine
 10
1.573832
 20
5.509975
 30
0.0
 11
1.637964
 21
5.501532
 31
0.0
  0
LINE
  5
129
100
AcDbEntity
 67
     1
  8
1
  6
Continuous
 62
     7
100
AcDbLine
 10
12.341799
 20
5.851038
 30
0.0
 11
12.298
 21
5.788338
 31
0.0
  0
LINE
  5
12A
100
AcDbEntity
 67
     1
  8
1
  6
Continuous
 62
     7
100
AcDbLine
 10
15.800874
 20
7.325506
 30
0.0
 11
11.800874
 21
7.325506
 31
0.0
  0
LINE
  5
12B
100
AcDbEntity
 67
     1
  8
1
  6
Continuous
 62
     7
100
AcDbLine
 10
6.526266
 20
0.974686
 30
0.0
 11
12.205371
 21
0.974686
 31
0.0
  0
LINE
  5
12C
100
AcDbEntity
 67
     1
  8
1
  6
Continuous
 62
     7
100
AcDbLine
 10
5.112603
 20
3.746119
 30
0.0
 11
5.112603
 21
3.647244
 31
0.0
  0
LINE
  5
12D
100
AcDbEntity
 67
     1
  8
1
  6
Continuous
 62
     7
100
AcDbLine
 10
6.876266
 20
0.440085
 30
0.0
 11
6.876266
 21
2.257467
 31
0.0
  0
LINE
  5
12E
100
AcDbEntity
 67
     1
  8
1
  6
Continuous
 62
     7
100
AcDbLine
 10
5.800874
 20
5.587742
 30
0.0
 11
5.800874
 21
5.553108
 31
0.0
  0
LINE
  5
12F
100
AcDbEntity
 67
     1
  8
1
  6
Continuous
 62
     7
100
AcDbLine
 10
1.7106
 20
4.467915
 30
0.0
 11
1.708758
 21
4.467916
 31
0.0
  0
LINE
  5
130
100
AcDbEntity
 67
     1
  8
1
  6
Continuous
 62
     7
100
AcDbLine
 10
3.694109
 20
3.701119
 30
0.0
 11
3.6941
 21
3.71789
 31
0.0
  0
LINE
  5
131
100
AcDbEntity
 67
     1
  8
1
  6
Continuous
 62
     7
100
AcDbLine
 10
1.630138
 20
6.288576
 30
0.0
 11
1.628295
 21
6.288576
 31
0.0
  0
LINE
  5
132
100
AcDbEntity
 67
     1
  8
1
  6
Continuous
 62
     7
100
AcDbLine
 10
12.390445
 20
7.25689
 30
0.0
 11
12.389185
 21
7.258234
 31
0.0
  0
LINE
  5
133
100
AcDbEntity
 67
     1
  8
1
  6
Continuous
 62
     7
100
AcDbLine
 10
12.379914
 20
5.824413
 30
0.0
 11
12.324999
 21
5.862774
 31
0.0
  0
LINE
  5
134
100
AcDbEntity
 67
     1
  8
1
  6
Continuous
 62
     7
100
AcDbLine
 10
3.630138
 20
6.346576
 30
0.0
 11
3.661836
 21
6.346576
 31
0.0
  0
LINE
  5
135
100
AcDbEntity
 67
     1
  8
1
  6
Continuous
 62
     7
100
AcDbLine
 10
4.195668
 20
5.616119
 30
0.0
 11
4.195668
 21
5.737387
 31
0.0
  0
LINE
  5
136
100
AcDbEntity
 67
     1
  8
1
  6
Continuous
 62
     7
100
AcDbLine
 10
11.273644
 20
3.497928
 30
0.0
 11
11.259646
 21
3.526369
 31
0.0
  0
LINE
  5
137
100
AcDbEntity
 67
     1
  8
1
  6
Continuous
 62
     7
100
AcDbLine
 10
11.240874
 20
3.621119
 30
0.0
 11
11.266024
 21
3.494177
 31
0.0
  0
LINE
  5
138
100
AcDbEntity
 67
     1
  8
1
  6
Continuous
 62
     7
100
AcDbLine
 10
5.086603
 20
5.485824
 30
0.0
 11
5.086603
 21
5.487666
 31
0.0
  0
LINE
  5
139
100
AcDbEntity
 67
     1
  8
1
  6
Continuous
 62
     7
100
AcDbLine
 10
1.566166
 20
3.701119
 30
0.0
 11
1.566175
 21
3.71789
 31
0.0
  0
LINE
  5
13A
100
AcDbEntity
 67
     1
  8
1
  6
Continuous
 62
     7
100
AcDbLine
 10
3.630138
 20
6.300576
 30
0.0
 11
3.676765
 21
6.300576
 31
0.0
  0
LINE
  5
13B
100
AcDbEntity
 67
     1
  8
1
  6
Continuous
 62
     7
100
AcDbLine
 10
16.025873
 20
9.013005
 30
0.0
 11
16.017525
 21
8.942693
 31
0.0
  0
LINE
  5
13C
100
AcDbEntity
 67
     1
  8
1
  6
Continuous
 62
     7
100
AcDbLine
 10
5.152603
 20
5.485824
 30
0.0
 11
5.152603
 21
5.487666
 31
0.0
  0
LINE
  5
13D
100
AcDbEntity
 67
     1
  8
1
  6
Continuous
 62
     7
100
AcDbLine
 10
1.380593
 20
4.456101
 30
0.0
 11
1.42722
 21
4.456075
 31
0.0
  0
LINE
  5
13E
100
AcDbEntity
 67
     1
  8
1
  6
Continuous
 62
     7
100
AcDbLine
 10
5.800874
 20
5.546877
 30
0.0
 11
5.800874
 21
5.542897
 31
0.0
  0
LINE
  5
13F
100
AcDbEntity
 67
     1
  8
1
  6
Continuous
 62
     7
100
AcDbLine
 10
12.33688
 20
5.854474
 30
0.0
 11
12.305904
 21
5.810131
 31
0.0
  0
LINE
  5
140
100
AcDbEntity
 67
     1
  8
1
  6
Continuous
 62
     7
100
AcDbLine
 10
1.710565
 20
4.405914
 30
0.0
 11
1.693794
 21
4.405924
 31
0.0
  0
LINE
  5
141
100
AcDbEntity
 67
     1
  8
1
  6
Continuous
 62
     7
100
AcDbLine
 10
3.630138
 20
6.316576
 30
0.0
 11
3.736477
 21
6.316576
 31
0.0
  0
LINE
  5
142
100
AcDbEntity
 67
     1
  8
1
  6
Continuous
 62
     7
100
AcDbLine
 10
5.800874
 20
7.559671
 30
0.0
 11
5.800874
 21
7.416623
 31
0.0
  0
LINE
  5
143
100
AcDbEntity
 67
     1
  8
1
  6
Continuous
 62
     7
100
AcDbLine
 10
4.169668
 20
3.746119
 30
0.0
 11
4.169668
 21
3.721885
 31
0.0
  0
LINE
  5
144
100
AcDbEntity
 67
     1
  8
1
  6
Continuous
 62
     7
100
AcDbLine
 10
1.380597
 20
4.462101
 30
0.0
 11
1.404831
 21
4.462088
 31
0.0
  0
LINE
  5
145
100
AcDbEntity
 67
     1
  8
1
  6
Continuous
 62
     7
100
AcDbLine
 10
3.755138
 20
6.321576
 30
0.0
 11
2.844888
 21
6.321576
 31
0.0
  0
LINE
  5
146
100
AcDbEntity
 67
     1
  8
1
  6
Continuous
 62
     7
100
AcDbLine
 10
4.215668
 20
5.616119
 30
0.0
 11
4.215668
 21
5.67021
 31
0.0
  0
LINE
  5
147
100
AcDbEntity
 67
     1
  8
1
  6
Continuous
 62
     7
100
AcDbLine
 10
0.684069
 20
1.33786
 30
0.0
 11
0.943877
 21
1.33786
 31
0.0
  0
LINE
  5
148
100
AcDbEntity
 67
     1
  8
1
  6
Continuous
 62
     7
100
AcDbLine
 10
6.526266
 20
0.440085
 30
0.0
 11
6.526266
 21
2.257467
 31
0.0
  0
LINE
  5
149
100
AcDbEntity
 67
     1
  8
1
  6
Continuous
 62
     7
100
AcDbLine
 10
1.710578
 20
4.429914
 30
0.0
 11
1.604239
 21
4.429975
 31
0.0
  0
LINE
  5
14A
100
AcDbEntity
 67
     1
  8
1
  6
Continuous
 62
     7
100
AcDbLine
 10
1.630138
 20
6.288082
 30
0.0
 11
1.630138
 21
6.355069
 31
0.0
  0
LINE
  5
14B
100
AcDbEntity
 67
     1
  8
1
  6
Continuous
 62
     7
100
AcDbLine
 10
12.370019
 20
7.237738
 30
0.0
 11
12.297285
 21
7.315313
 31
0.0
  0
LINE
  5
14C
100
AcDbEntity
 67
     1
  8
1
  6
Continuous
 62
     7
100
AcDbLine
 10
16.279413
 20
5.48383
 30
0.0
 11
16.149509
 21
5.70883
 31
0.0
  0
LINE
  5
14D
100
AcDbEntity
 67
     1
  8
1
  6
Continuous
 62
     7
100
AcDbLine
 10
15.946835
 20
5.513977
 30
0.0
 11
15.978181
 21
5.438262
 31
0.0
  0
LINE
  5
14E
100
AcDbEntity
 67
     1
  8
1
  6
Continuous
 62
     7
100
AcDbLine
 10
15.999991
 20
5.362548
 30
0.0
 11
16.011736
 21
5.286834
 31
0.0
  0
LINE
  5
14F
100
AcDbEntity
 67
     1
  8
1
  6
Continuous
 62
     7
100
AcDbLine
 10
1.630138
 20
3.339503
 30
0.0
 11
1.613367
 21
3.339503
 31
0.0
  0
LINE
  5
150
100
AcDbEntity
 67
     1
  8
1
  6
Continuous
 62
     7
100
AcDbLine
 10
11.268261
 20
3.495279
 30
0.0
 11
11.264152
 21
3.503628
 31
0.0
  0
LINE
  5
151
100
AcDbEntity
 67
     1
  8
1
  6
Continuous
 62
     7
100
AcDbLine
 10
3.630138
 20
3.323503
 30
0.0
 11
3.706621
 21
3.323503
 31
0.0
  0
LINE
  5
152
100
AcDbEntity
 67
     1
  8
1
  6
Continuous
 62
     7
100
AcDbLine
 10
5.086109
 20
5.485824
 30
0.0
 11
5.153096
 21
5.485824
 31
0.0
  0
LINE
  5
153
100
AcDbEntity
 67
     1
  8
1
  6
Continuous
 62
     7
100
AcDbLine
 10
11.27185
 20
3.497045
 30
0.0
 11
11.261147
 21
3.518789
 31
0.0
  0
LINE
  5
154
100
AcDbEntity
 67
     1
  8
1
  6
Continuous
 62
     7
100
AcDbLine
 10
3.695138
 20
5.67112
 30
0.0
 11
3.695138
 21
5.519889
 31
0.0
  0
LINE
  5
155
100
AcDbEntity
 67
     1
  8
1
  6
Continuous
 62
     7
100
AcDbLine
 10
12.331962
 20
5.85791
 30
0.0
 11
12.313808
 21
5.831924
 31
0.0
  0
LINE
  5
156
100
AcDbEntity
 67
     1
  8
1
  6
Continuous
 62
     7
100
AcDbLine
 10
4.163669
 20
3.746119
 30
0.0
 11
4.163669
 21
3.744277
 31
0.0
  0
LINE
  5
157
100
AcDbEntity
 67
     1
  8
1
  6
Continuous
 62
     7
100
AcDbLine
 10
4.177669
 20
5.616119
 30
0.0
 11
4.177669
 21
5.67021
 31
0.0
  0
LINE
  5
158
100
AcDbEntity
 67
     1
  8
1
  6
Continuous
 62
     7
100
AcDbLine
 10
1.505138
 20
5.79362
 30
0.0
 11
1.505138
 21
6.446576
 31
0.0
  0
LINE
  5
159
100
AcDbEntity
 67
     1
  8
1
  6
Continuous
 62
     7
100
AcDbLine
 10
12.353276
 20
5.843021
 30
0.0
 11
12.283831
 21
5.743606
 31
0.0
  0
LINE
  5
15A
100
AcDbEntity
 67
     1
  8
1
  6
Continuous
 62
     7
100
AcDbLine
 10
12.343438
 20
5.849893
 30
0.0
 11
12.295365
 21
5.781074
 31
0.0
  0
LINE
  5
15B
100
AcDbEntity
 67
     1
  8
1
  6
Continuous
 62
     7
100
AcDbLine
 10
1.380577
 20
4.428101
 30
0.0
 11
1.479453
 21
4.428045
 31
0.0
  0
LINE
  5
15C
100
AcDbEntity
 67
     1
  8
1
  6
Continuous
 62
     7
100
AcDbLine
 10
1.710575
 20
4.423914
 30
0.0
 11
1.626628
 21
4.423962
 31
0.0
  0
LINE
  5
15D
100
AcDbEntity
 67
     1
  8
1
  6
Continuous
 62
     7
100
AcDbLine
 10
1.593634
 20
5.288644
 30
0.0
 11
1.757694
 21
5.473161
 31
0.0
  0
LINE
  5
15E
100
AcDbEntity
 67
     1
  8
1
  6
Continuous
 62
     7
100
AcDbLine
 10
5.128603
 20
3.746119
 30
0.0
 11
5.128603
 21
3.654708
 31
0.0
  0
LINE
  5
15F
100
AcDbEntity
 67
     1
  8
1
  6
Continuous
 62
     7
100
AcDbLine
 10
11.326125
 20
3.523759
 30
0.0
 11
11.240874
 21
3.621119
 31
0.0
  0
LINE
  5
160
100
AcDbEntity
 67
     1
  8
1
  6
Continuous
 62
     7
100
AcDbLine
 10
5.800874
 20
5.331594
 30
0.0
 11
5.800874
 21
5.32005
 31
0.0
  0
LINE
  5
161
100
AcDbEntity
 67
     1
  8
1
  6
Continuous
 62
     7
100
AcDbLine
 10
4.221668
 20
3.746119
 30
0.0
 11
4.221668
 21
3.714421
 31
0.0
  0
LINE
  5
162
100
AcDbEntity
 67
     1
  8
1
  6
Continuous
 62
     7
100
AcDbLine
 10
4.217669
 20
3.746119
 30
0.0
 11
4.217669
 21
3.699492
 31
0.0
  0
LINE
  5
163
100
AcDbEntity
 67
     1
  8
1
  6
Continuous
 62
     7
100
AcDbLine
 10
3.520972
 20
5.610686
 30
0.0
 11
3.664021
 21
5.596912
 31
0.0
  0
LINE
  5
164
100
AcDbEntity
 67
     1
  8
1
  6
Continuous
 62
     7
100
AcDbLine
 10
5.800874
 20
9.325157
 30
0.0
 11
5.800874
 21
9.34134
 31
0.0
  0
LINE
  5
165
100
AcDbEntity
 67
     1
  8
1
  6
Continuous
 62
     7
100
AcDbLine
 10
15.900818
 20
9.43488
 30
0.0
 11
15.940808
 21
9.364568
 31
0.0
  0
LINE
  5
166
100
AcDbEntity
 67
     1
  8
1
  6
Continuous
 62
     7
100
AcDbLine
 10
15.678225
 20
4.453977
 30
0.0
 11
15.644759
 21
4.378263
 31
0.0
  0
LINE
  5
167
100
AcDbEntity
 67
     1
  8
1
  6
Continuous
 62
     7
100
AcDbLine
 10
16.149509
 20
5.70883
 30
0.0
 11
16.019606
 21
5.48383
 31
0.0
  0
LINE
  5
168
100
AcDbEntity
 67
     1
  8
1
  6
Continuous
 62
     7
100
AcDbLine
 10
11.282617
 20
3.502344
 30
0.0
 11
11.252137
 21
3.564269
 31
0.0
  0
LINE
  5
169
100
AcDbEntity
 67
     1
  8
1
  6
Continuous
 62
     7
100
AcDbLine
 10
3.630138
 20
6.304576
 30
0.0
 11
3.691693
 21
6.304576
 31
0.0
  0
LINE
  5
16A
100
AcDbEntity
 67
     1
  8
1
  6
Continuous
 62
     7
100
AcDbLine
 10
4.199668
 20
3.746119
 30
0.0
 11
4.199668
 21
3.632316
 31
0.0
  0
LINE
  5
16B
100
AcDbEntity
 67
     1
  8
1
  6
Continuous
 62
     7
100
AcDbLine
 10
11.311327
 20
3.516476
 30
0.0
 11
11.284144
 21
3.571703
 31
0.0
  0
LINE
  5
16C
100
AcDbEntity
 67
     1
  8
1
  6
Continuous
 62
     7
100
AcDbLine
 10
2.816138
 20
6.017826
 30
0.0
 11
2.861138
 21
6.017826
 31
0.0
  0
LINE
  5
16D
100
AcDbEntity
 67
     1
  8
1
  6
Continuous
 62
     7
100
AcDbLine
 10
4.185668
 20
3.746119
 30
0.0
 11
4.185668
 21
3.662172
 31
0.0
  0
LINE
  5
16E
100
AcDbEntity
 67
     1
  8
1
  6
Continuous
 62
     7
100
AcDbLine
 10
1.772086
 20
5.57847
 30
0.0
 11
1.765182
 21
5.490741
 31
0.0
  0
LINE
  5
16F
100
AcDbEntity
 67
     1
  8
1
  6
Continuous
 62
     7
100
AcDbLine
 10
15.70093
 20
7.466131
 30
0.0
 11
15.7477
 21
7.395818
 31
0.0
  0
LINE
  5
170
100
AcDbEntity
 67
     1
  8
1
  6
Continuous
 62
     7
100
AcDbLine
 10
1.380574
 20
4.422101
 30
0.0
 11
1.457057
 21
4.422058
 31
0.0
  0
LINE
  5
171
100
AcDbEntity
 67
     1
  8
1
  6
Continuous
 62
     7
100
AcDbLine
 10
5.800874
 20
9.308465
 30
0.0
 11
11.800749
 21
9.308465
 31
0.0
  0
LINE
  5
172
100
AcDbEntity
 67
     1
  8
1
  6
Continuous
 62
     7
100
AcDbLine
 10
1.630138
 20
6.322576
 30
0.0
 11
1.50887
 21
6.322576
 31
0.0
  0
LINE
  5
173
100
AcDbEntity
 67
     1
  8
1
  6
Continuous
 62
     7
100
AcDbLine
 10
5.800874
 20
7.404855
 30
0.0
 11
11.800749
 21
7.404855
 31
0.0
  0
LINE
  5
174
100
AcDbEntity
 67
     1
  8
1
  6
Continuous
 62
     7
100
AcDbLine
 10
11.800749
 20
9.496156
 30
0.0
 11
5.800874
 21
9.496156
 31
0.0
  0
LINE
  5
175
100
AcDbEntity
 67
     1
  8
1
  6
Continuous
 62
     7
100
AcDbLine
 10
3.630138
 20
3.339503
 30
0.0
 11
3.646908
 21
3.339503
 31
0.0
  0
LINE
  5
176
100
AcDbEntity
 67
     1
  8
1
  6
Continuous
 62
     7
100
AcDbLine
 10
12.615018
 20
3.20328
 30
0.0
 11
13.684706
 21
3.20328
 31
0.0
  0
LINE
  5
177
100
AcDbEntity
 67
     1
  8
1
  6
Continuous
 62
     7
100
AcDbLine
 10
1.630138
 20
6.352576
 30
0.0
 11
1.620831
 21
6.352576
 31
0.0
  0
LINE
  5
178
100
AcDbEntity
 67
     1
  8
1
  6
Continuous
 62
     7
100
AcDbLine
 10
12.325403
 20
5.862492
 30
0.0
 11
12.324348
 21
5.860981
 31
0.0
  0
LINE
  5
179
100
AcDbEntity
 67
     1
  8
1
  6
Continuous
 62
     7
100
AcDbLine
 10
11.800749
 20
9.34134
 30
0.0
 11
5.800874
 21
9.34134
 31
0.0
  0
LINE
  5
17A
100
AcDbEntity
 67
     1
  8
1
  6
Continuous
 62
     7
100
AcDbLine
 10
15.800874
 20
4.681119
 30
0.0
 11
15.757872
 21
4.605405
 31
0.0
  0
LINE
  5
17B
100
AcDbEntity
 67
     1
  8
1
  6
Continuous
 62
     7
100
AcDbLine
 10
15.800874
 20
5.741119
 30
0.0
 11
15.857651
 21
5.665405
 31
0.0
  0
LINE
  5
17C
100
AcDbEntity
 67
     1
  8
1
  6
Continuous
 62
     7
100
AcDbLine
 10
3.755138
 20
5.73112
 30
0.0
 11
3.755138
 21
5.42112
 31
0.0
  0
LINE
  5
17D
100
AcDbEntity
 67
     1
  8
1
  6
Continuous
 62
     7
100
AcDbLine
 10
1.301758
 20
4.435146
 30
0.0
 11
1.051758
 21
4.435146
 31
0.0
  0
LINE
  5
17E
100
AcDbEntity
 67
     1
  8
1
  6
Continuous
 62
     7
100
AcDbLine
 10
3.630138
 20
6.298576
 30
0.0
 11
3.669301
 21
6.298576
 31
0.0
  0
LINE
  5
17F
100
AcDbEntity
 67
     1
  8
1
  6
Continuous
 62
     7
100
AcDbLine
 10
1.630138
 20
6.350576
 30
0.0
 11
1.613367
 21
6.350576
 31
0.0
  0
LINE
  5
180
100
AcDbEntity
 67
     1
  8
1
  6
Continuous
 62
     7
100
AcDbLine
 10
4.196669
 20
3.621119
 30
0.0
 11
4.196669
 21
4.444244
 31
0.0
  0
LINE
  5
181
100
AcDbEntity
 67
     1
  8
1
  6
Continuous
 62
     7
100
AcDbLine
 10
12.327043
 20
5.861346
 30
0.0
 11
12.321713
 21
5.853717
 31
0.0
  0
LINE
  5
182
100
AcDbEntity
 67
     1
  8
1
  6
Continuous
 62
     7
100
AcDbLine
 10
11.31671
 20
3.519125
 30
0.0
 11
11.299416
 21
3.554262
 31
0.0
  0
LINE
  5
183
100
AcDbEntity
 67
     1
  8
1
  6
Continuous
 62
     7
100
AcDbLine
 10
5.088603
 20
3.746119
 30
0.0
 11
5.088603
 21
3.736813
 31
0.0
  0
LINE
  5
184
100
AcDbEntity
 67
     1
  8
1
  6
Continuous
 62
     7
100
AcDbLine
 10
1.710572
 20
4.417914
 30
0.0
 11
1.649016
 21
4.417949
 31
0.0
  0
LINE
  5
185
100
AcDbEntity
 67
     1
  8
1
  6
Continuous
 62
     7
100
AcDbLine
 10
5.150603
 20
5.485824
 30
0.0
 11
5.150603
 21
5.49513
 31
0.0
  0
LINE
  5
186
100
AcDbEntity
 67
     1
  8
1
  6
Continuous
 62
     7
100
AcDbLine
 10
4.209669
 20
3.746119
 30
0.0
 11
4.209669
 21
3.669636
 31
0.0
  0
LINE
  5
187
100
AcDbEntity
 67
     1
  8
1
  6
Continuous
 62
     7
100
AcDbLine
 10
15.602806
 20
7.677068
 30
0.0
 11
15.628106
 21
7.606756
 31
0.0
  0
LINE
  5
188
100
AcDbEntity
 67
     1
  8
1
  6
Continuous
 62
     7
100
AcDbLine
 10
4.183669
 20
3.746119
 30
0.0
 11
4.183669
 21
3.669636
 31
0.0
  0
LINE
  5
189
100
AcDbEntity
 67
     1
  8
1
  6
Continuous
 62
     7
100
AcDbLine
 10
5.800874
 20
3.636129
 30
0.0
 11
5.800874
 21
3.625142
 31
0.0
  0
LINE
  5
18A
100
AcDbEntity
 67
     1
  8
1
  6
Continuous
 62
     7
100
AcDbLine
 10
1.710568
 20
4.411914
 30
0.0
 11
1.671405
 21
4.411937
 31
0.0
  0
LINE
  5
18B
100
AcDbEntity
 67
     1
  8
1
  6
Continuous
 62
     7
100
AcDbLine
 10
1.587244
 20
5.587742
 30
0.0
 11
1.584518
 21
5.553108
 31
0.0
  0
LINE
  5
18C
100
AcDbEntity
 67
     1
  8
1
  6
Continuous
 62
     7
100
AcDbLine
 10
12.349593
 20
7.218587
 30
0.0
 11
12.322806
 21
7.247156
 31
0.0
  0
LINE
  5
18D
100
AcDbEntity
 67
     1
  8
1
  6
Continuous
 62
     7
100
AcDbLine
 10
11.800749
 20
5.517618
 30
0.0
 11
5.800874
 21
5.517618
 31
0.0
  0
LINE
  5
18E
100
AcDbEntity
 67
     1
  8
1
  6
Continuous
 62
     7
100
AcDbLine
 10
4.225668
 20
3.746119
 30
0.0
 11
4.225668
 21
3.729349
 31
0.0
  0
LINE
  5
18F
100
AcDbEntity
 67
     1
  8
1
  6
Continuous
 62
     7
100
AcDbLine
 10
1.380599
 20
4.466101
 30
0.0
 11
1.389905
 21
4.466096
 31
0.0
  0
LINE
  5
190
100
AcDbEntity
 67
     1
  8
1
  6
Continuous
 62
     7
100
AcDbLine
 10
15.998941
 20
9.223943
 30
0.0
 11
16.016331
 21
9.15363
 31
0.0
  0
LINE
  5
191
100
AcDbEntity
 67
     1
  8
1
  6
Continuous
 62
     7
100
AcDbLine
 10
5.800874
 20
9.490562
 30
0.0
 11
5.800874
 21
9.4934
 31
0.0
  0
LINE
  5
192
100
AcDbEntity
 67
     1
  8
1
  6
Continuous
 62
     7
100
AcDbLine
 10
4.187668
 20
3.746119
 30
0.0
 11
4.187668
 21
3.654708
 31
0.0
  0
LINE
  5
193
100
AcDbEntity
 67
     1
  8
1
  6
Continuous
 62
     7
100
AcDbLine
 10
11.800749
 20
7.592547
 30
0.0
 11
5.800874
 21
7.592547
 31
0.0
  0
LINE
  5
194
100
AcDbEntity
 67
     1
  8
1
  6
Continuous
 62
     7
100
AcDbLine
 10
15.923523
 20
4.908262
 30
0.0
 11
15.885289
 21
4.832548
 31
0.0
  0
LINE
  5
195
100
AcDbEntity
 67
     1
  8
1
  6
Continuous
 62
     7
100
AcDbLine
 10
12.36856
 20
7.23637
 30
0.0
 11
12.29072
 21
7.31939
 31
0.0
  0
LINE
  5
196
100
AcDbEntity
 67
     1
  8
1
  6
Continuous
 62
     7
100
AcDbLine
 10
1.023008
 20
4.131396
 30
0.0
 11
1.068008
 21
4.131396
 31
0.0
  0
LINE
  5
197
100
AcDbEntity
 67
     1
  8
1
  6
Continuous
 62
     7
100
AcDbLine
 10
12.358195
 20
5.839585
 30
0.0
 11
12.301573
 21
5.758527
 31
0.0
  0
LINE
  5
198
100
AcDbEntity
 67
     1
  8
1
  6
Continuous
 62
     7
100
AcDbLine
 10
2.444138
 20
6.186576
 30
0.0
 11
2.399138
 21
6.186576
 31
0.0
  0
LINE
  5
199
100
AcDbEntity
 67
     1
  8
1
  6
Continuous
 62
     7
100
AcDbLine
 10
3.630138
 20
6.292576
 30
0.0
 11
3.646908
 21
6.292576
 31
0.0
  0
LINE
  5
19A
100
AcDbEntity
 67
     1
  8
1
  6
Continuous
 62
     7
100
AcDbLine
 10
3.630138
 20
3.287503
 30
0.0
 11
3.669301
 21
3.287503
 31
0.0
  0
LINE
  5
19B
100
AcDbEntity
 67
     1
  8
1
  6
Continuous
 62
     7
100
AcDbLine
 10
11.320299
 20
3.520892
 30
0.0
 11
11.309597
 21
3.542635
 31
0.0
  0
LINE
  5
19C
100
AcDbEntity
 67
     1
  8
1
  6
Continuous
 62
     7
100
AcDbLine
 10
3.630138
 20
3.295502
 30
0.0
 11
3.699157
 21
3.295502
 31
0.0
  0
LINE
  5
19D
100
AcDbEntity
 67
     1
  8
1
  6
Continuous
 62
     7
100
AcDbLine
 10
11.322094
 20
3.521775
 30
0.0
 11
11.314688
 21
3.536822
 31
0.0
  0
LINE
  5
19E
100
AcDbEntity
 67
     1
  8
1
  6
Continuous
 62
     7
100
AcDbLine
 10
4.177669
 20
3.746119
 30
0.0
 11
4.177669
 21
3.692029
 31
0.0
  0
LINE
  5
19F
100
AcDbEntity
 67
     1
  8
1
  6
Continuous
 62
     7
100
AcDbLine
 10
1.380567
 20
4.410101
 30
0.0
 11
1.412266
 21
4.410083
 31
0.0
  0
LINE
  5
1A0
100
AcDbEntity
 67
     1
  8
1
  6
Continuous
 62
     7
100
AcDbLine
 10
12.345216
 20
7.214483
 30
0.0
 11
12.333745
 21
7.226717
 31
0.0
  0
LINE
  5
1A1
100
AcDbEntity
 67
     1
  8
1
  6
Continuous
 62
     7
100
AcDbLine
 10
11.314916
 20
3.518242
 30
0.0
 11
11.294325
 21
3.560076
 31
0.0
  0
LINE
  5
1A2
100
AcDbEntity
 67
     1
  8
1
  6
Continuous
 62
     7
100
AcDbLine
 10
16.056524
 20
9.325544
 30
0.0
 11
16.316332
 21
9.325544
 31
0.0
  0
LINE
  5
1A3
100
AcDbEntity
 67
     1
  8
1
  6
Continuous
 62
     7
100
AcDbLine
 10
12.205371
 20
0.974686
 30
0.0
 11
12.977928
 21
0.974686
 31
0.0
  0
LINE
  5
1A4
100
AcDbEntity
 67
     1
  8
1
  6
Continuous
 62
     7
100
AcDbLine
 10
5.800874
 20
9.4934
 30
0.0
 11
5.800874
 21
9.496125
 31
0.0
  0
LINE
  5
1A5
100
AcDbEntity
 67
     1
  8
1
  6
Continuous
 62
     7
100
AcDbLine
 10
16.003258
 20
5.135405
 30
0.0
 11
15.984097
 21
5.059691
 31
0.0
  0
LINE
  5
1A6
100
AcDbEntity
 67
     1
  8
1
  6
Continuous
 62
     7
100
AcDbLine
 10
0.749071
 20
4.300146
 30
0.0
 11
0.704071
 21
4.300146
 31
0.0
  0
LINE
  5
1A7
100
AcDbEntity
 67
     1
  8
1
  6
Continuous
 62
     7
100
AcDbLine
 10
12.363113
 20
5.836149
 30
0.0
 11
12.319315
 21
5.773448
 31
0.0
  0
LINE
  5
1A8
100
AcDbEntity
 67
     1
  8
1
  6
Continuous
 62
     7
100
AcDbLine
 10
3.630138
 20
6.288576
 30
0.0
 11
3.63198
 21
6.288576
 31
0.0
  0
LINE
  5
1A9
100
AcDbEntity
 67
     1
  8
1
  6
Continuous
 62
     7
100
AcDbLine
 10
4.422043
 20
4.506744
 30
0.0
 11
4.467043
 21
4.506744
 31
0.0
  0
LINE
  5
1AA
100
AcDbEntity
 67
     1
  8
1
  6
Continuous
 62
     7
100
AcDbLine
 10
11.325683
 20
3.523541
 30
0.0
 11
11.324869
 21
3.525194
 31
0.0
  0
LINE
  5
1AB
100
AcDbEntity
 67
     1
  8
1
  6
Continuous
 62
     7
100
AcDbLine
 10
5.800874
 20
5.493511
 30
0.0
 11
5.800874
 21
5.507216
 31
0.0
  0
LINE
  5
1AC
100
AcDbEntity
 67
     1
  8
1
  6
Continuous
 62
     7
100
AcDbLine
 10
5.112603
 20
5.485824
 30
0.0
 11
5.112603
 21
5.5847
 31
0.0
  0
LINE
  5
1AD
100
AcDbEntity
 67
     1
  8
1
  6
Continuous
 62
     7
100
AcDbLine
 10
11.800749
 20
7.32645
 30
0.0
 11
5.800874
 21
7.32645
 31
0.0
  0
LINE
  5
1AE
100
AcDbEntity
 67
     1
  8
1
  6
Continuous
 62
     7
100
AcDbLine
 10
1.630138
 20
6.342576
 30
0.0
 11
1.583511
 21
6.342576
 31
0.0
  0
LINE
  5
1AF
100
AcDbEntity
 67
     1
  8
1
  6
Continuous
 62
     7
100
AcDbLine
 10
15.623523
 20
8.098943
 30
0.0
 11
15.600483
 21
8.02863
 31
0.0
  0
LINE
  5
1B0
100
AcDbEntity
 67
     1
  8
1
  6
Continuous
 62
     7
100
AcDbLine
 10
4.171669
 20
3.746119
 30
0.0
 11
4.171669
 21
3.714421
 31
0.0
  0
LINE
  5
1B1
100
AcDbEntity
 67
     1
  8
1
  6
Continuous
 62
     7
100
AcDbLine
 10
11.800874
 20
5.395139
 30
0.0
 11
11.800874
 21
5.391119
 31
0.0
  0
LINE
  5
1B2
100
AcDbEntity
 67
     1
  8
1
  6
Continuous
 62
     7
100
AcDbLine
 10
1.710563
 20
4.401915
 30
0.0
 11
1.70872
 21
4.401916
 31
0.0
  0
LINE
  5
1B3
100
AcDbEntity
 67
     1
  8
1
  6
Continuous
 62
     7
100
AcDbLine
 10
1.505138
 20
3.651136
 30
0.0
 11
1.506082
 21
5.32005
 31
0.0
  0
LINE
  5
1B4
100
AcDbEntity
 67
     1
  8
1
  6
Continuous
 62
     7
100
AcDbLine
 10
4.223669
 20
5.616119
 30
0.0
 11
4.223669
 21
5.640354
 31
0.0
  0
LINE
  5
1B5
100
AcDbEntity
 67
     1
  8
1
  6
Continuous
 62
     7
100
AcDbLine
 10
12.342299
 20
7.211747
 30
0.0
 11
12.341038
 21
7.213091
 31
0.0
  0
LINE
  5
1B6
100
AcDbEntity
 67
     1
  8
1
  6
Continuous
 62
     7
100
AcDbLine
 10
4.219668
 20
5.616119
 30
0.0
 11
4.219668
 21
5.655282
 31
0.0
  0
LINE
  5
1B7
100
AcDbEntity
 67
     1
  8
1
  6
Continuous
 62
     7
100
AcDbLine
 10
6.526266
 20
0.70173
 30
0.0
 11
12.977928
 21
0.70173
 31
0.0
  0
LINE
  5
1B8
100
AcDbEntity
 67
     1
  8
1
  6
Continuous
 62
     7
100
AcDbLine
 10
5.800874
 20
9.496125
 30
0.0
 11
5.800874
 21
9.496148
 31
0.0
  0
LINE
  5
1B9
100
AcDbEntity
 67
     1
  8
1
  6
Continuous
 62
     7
100
AcDbLine
 10
5.800874
 20
5.341357
 30
0.0
 11
5.800874
 21
5.493511
 31
0.0
  0
LINE
  5
1BA
100
AcDbEntity
 67
     1
  8
1
  6
Continuous
 62
     7
100
AcDbLine
 10
1.71059
 20
4.449914
 30
0.0
 11
1.641571
 21
4.449954
 31
0.0
  0
LINE
  5
1BB
100
AcDbEntity
 67
     1
  8
1
  6
Continuous
 62
     7
100
AcDbLine
 10
1.630138
 20
6.308576
 30
0.0
 11
1.553654
 21
6.308576
 31
0.0
  0
LINE
  5
1BC
100
AcDbEntity
 67
     1
  8
1
  6
Continuous
 62
     7
100
AcDbLine
 10
12.377315
 20
7.244578
 30
0.0
 11
12.330106
 21
7.294928
 31
0.0
  0
LINE
  5
1BD
100
AcDbEntity
 67
     1
  8
1
  6
Continuous
 62
     7
100
AcDbLine
 10
4.191669
 20
3.746119
 30
0.0
 11
4.191669
 21
3.63978
 31
0.0
  0
LINE
  5
1BE
100
AcDbEntity
 67
     1
  8
1
  6
Continuous
 62
     7
100
AcDbLine
 10
12.368032
 20
5.832713
 30
0.0
 11
12.337057
 21
5.78837
 31
0.0
  0
LINE
  5
1BF
100
AcDbEntity
 67
     1
  8
1
  6
Continuous
 62
     7
100
AcDbLine
 10
3.630138
 20
6.326576
 30
0.0
 11
3.736477
 21
6.326576
 31
0.0
  0
LINE
  5
1C0
100
AcDbEntity
 67
     1
  8
1
  6
Continuous
 62
     7
100
AcDbLine
 10
4.207668
 20
3.746119
 30
0.0
 11
4.207668
 21
3.662172
 31
0.0
  0
LINE
  5
1C1
100
AcDbEntity
 67
     1
  8
1
  6
Continuous
 62
     7
100
AcDbLine
 10
4.050044
 20
4.675495
 30
0.0
 11
4.005044
 21
4.675495
 31
0.0
  0
LINE
  5
1C2
100
AcDbEntity
 67
     1
  8
1
  6
Continuous
 62
     7
100
AcDbLine
 10
11.291589
 20
3.50676
 30
0.0
 11
11.244628
 21
3.602169
 31
0.0
  0
LINE
  5
1C3
100
AcDbEntity
 67
     1
  8
1
  6
Continuous
 62
     7
100
AcDbLine
 10
1.630138
 20
6.338576
 30
0.0
 11
1.568583
 21
6.338576
 31
0.0
  0
LINE
  5
1C4
100
AcDbEntity
 67
     1
  8
1
  6
Continuous
 62
     7
100
AcDbLine
 10
5.106603
 20
5.485824
 30
0.0
 11
5.106603
 21
5.562307
 31
0.0
  0
LINE
  5
1C5
100
AcDbEntity
 67
     1
  8
1
  6
Continuous
 62
     7
100
AcDbLine
 10
11.800749
 20
7.335348
 30
0.0
 11
5.800874
 21
7.335348
 31
0.0
  0
LINE
  5
1C6
100
AcDbEntity
 67
     1
  8
1
  6
Continuous
 62
     7
100
AcDbLine
 10
15.722024
 20
8.30988
 30
0.0
 11
15.685423
 21
8.239568
 31
0.0
  0
LINE
  5
1C7
100
AcDbEntity
 67
     1
  8
1
  6
Continuous
 62
     7
100
AcDbLine
 10
11.296972
 20
3.50941
 30
0.0
 11
11.24342
 21
3.618213
 31
0.0
  0
LINE
  5
1C8
100
AcDbEntity
 67
     1
  8
1
  6
Continuous
 62
     7
100
AcDbLine
 10
1.380582
 20
4.436101
 30
0.0
 11
1.50185
 21
4.436033
 31
0.0
  0
LINE
  5
1C9
100
AcDbEntity
 67
     1
  8
1
  6
Continuous
 62
     7
100
AcDbLine
 10
1.630138
 20
6.330576
 30
0.0
 11
1.538726
 21
6.330576
 31
0.0
  0
LINE
  5
1CA
100
AcDbEntity
 67
     1
  8
1
  6
Continuous
 62
     7
100
AcDbLine
 10
1.585581
 20
4.434985
 30
0.0
 11
1.710562
 21
4.401421
 31
0.0
  0
LINE
  5
1CB
100
AcDbEntity
 67
     1
  8
1
  6
Continuous
 62
     7
100
AcDbLine
 10
12.280874
 20
7.325506
 30
0.0
 11
12.341938
 21
7.211409
 31
0.0
  0
LINE
  5
1CC
100
AcDbEntity
 67
     1
  8
1
  6
Continuous
 62
     7
100
AcDbLine
 10
1.505138
 20
3.588636
 30
0.0
 11
1.505138
 21
3.185503
 31
0.0
  0
LINE
  5
1CD
100
AcDbEntity
 67
     1
  8
1
  6
Continuous
 62
     7
100
AcDbLine
 10
4.229669
 20
3.746119
 30
0.0
 11
4.229669
 21
3.744277
 31
0.0
  0
LINE
  5
1CE
100
AcDbEntity
 67
     1
  8
1
  6
Continuous
 62
     7
100
AcDbLine
 10
5.152603
 20
3.746119
 30
0.0
 11
5.152603
 21
3.744277
 31
0.0
  0
LINE
  5
1CF
100
AcDbEntity
 67
     1
  8
1
  6
Continuous
 62
     7
100
AcDbLine
 10
5.800874
 20
9.572245
 30
0.0
 11
5.800874
 21
9.574561
 31
0.0
  0
LINE
  5
1D0
100
AcDbEntity
 67
     1
  8
1
  6
Continuous
 62
     7
100
AcDbLine
 10
1.710593
 20
4.455914
 30
0.0
 11
1.663966
 21
4.455941
 31
0.0
  0
LINE
  5
1D1
100
AcDbEntity
 67
     1
  8
1
  6
Continuous
 62
     7
100
AcDbLine
 10
1.630138
 20
6.302576
 30
0.0
 11
1.576047
 21
6.302576
 31
0.0
  0
LINE
  5
1D2
100
AcDbEntity
 67
     1
  8
1
  6
Continuous
 62
     7
100
AcDbLine
 10
12.381691
 20
7.248682
 30
0.0
 11
12.349799
 21
7.282696
 31
0.0
  0
LINE
  5
1D3
100
AcDbEntity
 67
     1
  8
1
  6
Continuous
 62
     7
100
AcDbLine
 10
12.372952
 20
5.829277
 30
0.0
 11
12.354798
 21
5.803291
 31
0.0
  0
LINE
  5
1D4
100
AcDbEntity
 67
     1
  8
1
  6
Continuous
 62
     7
100
AcDbLine
 10
3.630138
 20
6.332576
 30
0.0
 11
3.714085
 21
6.332576
 31
0.0
  0
LINE
  5
1D5
100
AcDbEntity
 67
     1
  8
1
  6
Continuous
 62
     7
100
AcDbLine
 10
1.630138
 20
6.332576
 30
0.0
 11
1.54619
 21
6.332576
 31
0.0
  0
LINE
  5
1D6
100
AcDbEntity
 67
     1
  8
1
  6
Continuous
 62
     7
100
AcDbLine
 10
3.630138
 20
3.277503
 30
0.0
 11
3.63198
 21
3.277503
 31
0.0
  0
LINE
  5
1D7
100
AcDbEntity
 67
     1
  8
1
  6
Continuous
 62
     7
100
AcDbLine
 10
1.630138
 20
3.315502
 30
0.0
 11
1.523798
 21
3.315502
 31
0.0
  0
LINE
  5
1D8
100
AcDbEntity
 67
     1
  8
1
  6
Continuous
 62
     7
100
AcDbLine
 10
11.286205
 20
3.504111
 30
0.0
 11
11.249134
 21
3.579429
 31
0.0
  0
LINE
  5
1D9
100
AcDbEntity
 67
     1
  8
1
  6
Continuous
 62
     7
100
AcDbLine
 10
1.710585
 20
4.441915
 30
0.0
 11
1.61171
 21
4.44197
 31
0.0
  0
LINE
  5
1DA
100
AcDbEntity
 67
     1
  8
1
  6
Continuous
 62
     7
100
AcDbLine
 10
1.630138
 20
6.344576
 30
0.0
 11
1.590975
 21
6.344576
 31
0.0
  0
LINE
  5
1DB
100
AcDbEntity
 67
     1
  8
1
  6
Continuous
 62
     7
100
AcDbLine
 10
5.100603
 20
5.485824
 30
0.0
 11
5.100603
 21
5.539915
 31
0.0
  0
LINE
  5
1DC
100
AcDbEntity
 67
     1
  8
1
  6
Continuous
 62
     7
100
AcDbLine
 10
5.800874
 20
7.404886
 30
0.0
 11
5.800874
 21
7.404863
 31
0.0
  0
LINE
  5
1DD
100
AcDbEntity
 67
     1
  8
1
  6
Continuous
 62
     7
100
AcDbLine
 10
15.840864
 20
8.520818
 30
0.0
 11
15.800874
 21
8.450505
 31
0.0
  0
LINE
  5
1DE
100
AcDbEntity
 67
     1
  8
1
  6
Continuous
 62
     7
100
AcDbLine
 10
1.380585
 20
4.442101
 30
0.0
 11
1.479461
 21
4.442045
 31
0.0
  0
LINE
  5
1DF
100
AcDbEntity
 67
     1
  8
1
  6
Continuous
 62
     7
100
AcDbLine
 10
1.505138
 20
5.73112
 30
0.0
 11
1.505138
 21
5.42112
 31
0.0
  0
LINE
  5
1E0
100
AcDbEntity
 67
     1
  8
1
  6
Continuous
 62
     7
100
AcDbLine
 10
12.348357
 20
5.846457
 30
0.0
 11
12.287461
 21
5.75928
 31
0.0
  0
LINE
  5
1E1
100
AcDbEntity
 67
     1
  8
1
  6
Continuous
 62
     7
100
AcDbLine
 10
2.861138
 20
3.006752
 30
0.0
 11
2.861138
 21
3.175503
 31
0.0
  0
LINE
  5
1E2
100
AcDbEntity
 67
     1
  8
1
  6
Continuous
 62
     7
100
AcDbLine
 10
11.669955
 20
3.25728
 30
0.0
 11
11.419955
 21
3.25728
 31
0.0
  0
LINE
  5
1E3
100
AcDbEntity
 67
     1
  8
1
  6
Continuous
 62
     7
100
AcDbLine
 10
5.119603
 20
3.621119
 30
0.0
 11
5.153096
 21
3.746119
 31
0.0
  0
LINE
  5
1E4
100
AcDbEntity
 67
     1
  8
1
  6
Continuous
 62
     7
100
AcDbLine
 10
5.800874
 20
9.575505
 30
0.0
 11
5.800874
 21
9.574561
 31
0.0
  0
LINE
  5
1E5
100
AcDbEntity
 67
     1
  8
1
  6
Continuous
 62
     7
100
AcDbLine
 10
11.800749
 20
5.542897
 30
0.0
 11
5.800874
 21
5.542897
 31
0.0
  0
LINE
  5
1E6
100
AcDbEntity
 67
     1
  8
1
  6
Continuous
 62
     7
100
AcDbLine
 10
1.710597
 20
4.461915
 30
0.0
 11
1.686362
 21
4.461928
 31
0.0
  0
LINE
  5
1E7
100
AcDbEntity
 67
     1
  8
1
  6
Continuous
 62
     7
100
AcDbLine
 10
3.666642
 20
5.288644
 30
0.0
 11
3.502581
 21
5.473161
 31
0.0
  0
LINE
  5
1E8
100
AcDbEntity
 67
     1
  8
1
  6
Continuous
 62
     7
100
AcDbLine
 10
1.630138
 20
6.296576
 30
0.0
 11
1.598439
 21
6.296576
 31
0.0
  0
LINE
  5
1E9
100
AcDbEntity
 67
     1
  8
1
  6
Continuous
 62
     7
100
AcDbLine
 10
12.386068
 20
7.252786
 30
0.0
 11
12.369493
 21
7.270465
 31
0.0
  0
LINE
  5
1EA
100
AcDbEntity
 67
     1
  8
1
  6
Continuous
 62
     7
100
AcDbLine
 10
12.37787
 20
5.825841
 30
0.0
 11
12.37254
 21
5.818212
 31
0.0
  0
LINE
  5
1EB
100
AcDbEntity
 67
     1
  8
1
  6
Continuous
 62
     7
100
AcDbLine
 10
3.630138
 20
6.338576
 30
0.0
 11
3.691693
 21
6.338576
 31
0.0
  0
LINE
  5
1EC
100
AcDbEntity
 67
     1
  8
1
  6
Continuous
 62
     7
100
AcDbLine
 10
1.630138
 20
3.321502
 30
0.0
 11
1.54619
 21
3.321502
 31
0.0
  0
LINE
  5
1ED
100
AcDbEntity
 67
     1
  8
1
  6
Continuous
 62
     7
100
AcDbLine
 10
11.280822
 20
3.501461
 30
0.0
 11
11.253639
 21
3.556689
 31
0.0
  0
LINE
  5
1EE
100
AcDbEntity
 67
     1
  8
1
  6
Continuous
 62
     7
100
AcDbLine
 10
5.094603
 20
5.485824
 30
0.0
 11
5.094603
 21
5.517522
 31
0.0
  0
LINE
  5
1EF
100
AcDbEntity
 67
     1
  8
1
  6
Continuous
 62
     7
100
AcDbLine
 10
16.169065
 20
2.791863
 30
0.0
 11
16.039162
 21
2.566863
 31
0.0
  0
LINE
  5
1F0
100
AcDbEntity
 67
     1
  8
1
  6
Continuous
 62
     7
100
AcDbLine
 10
11.800749
 20
7.407612
 30
0.0
 11
5.800874
 21
7.407612
 31
0.0
  0
LINE
  5
1F1
100
AcDbEntity
 67
     1
  8
1
  6
Continuous
 62
     7
100
AcDbLine
 10
15.949534
 20
8.731755
 30
0.0
 11
15.916325
 21
8.661443
 31
0.0
  0
LINE
  5
1F2
100
AcDbEntity
 67
     1
  8
1
  6
Continuous
 62
     7
100
AcDbLine
 10
15.744097
 20
3.696834
 30
0.0
 11
15.800874
 21
3.621119
 31
0.0
  0
LINE
  5
1F3
100
AcDbEntity
 67
     1
  8
1
  6
Continuous
 62
     7
100
AcDbLine
 10
2.399138
 20
3.175503
 30
0.0
 11
2.399138
 21
3.006752
 31
0.0
  0
LINE
  5
1F4
100
AcDbEntity
 67
     1
  8
1
  6
Continuous
 62
     7
100
AcDbLine
 10
12.280874
 20
5.741119
 30
0.0
 11
12.915109
 21
6.649064
 31
0.0
  0
LINE
  5
1F5
100
AcDbEntity
 67
     1
  8
1
  6
Continuous
 62
     7
100
AcDbLine
 10
5.114603
 20
3.746119
 30
0.0
 11
5.114603
 21
3.63978
 31
0.0
  0
LINE
  5
1F6
100
AcDbEntity
 67
     1
  8
1
  6
Continuous
 62
     7
100
AcDbLine
 10
5.124603
 20
5.485824
 30
0.0
 11
5.124603
 21
5.592164
 31
0.0
  0
LINE
  5
1F7
100
AcDbEntity
 67
     1
  8
1
  6
Continuous
 62
     7
100
AcDbLine
 10
11.800749
 20
5.553108
 30
0.0
 11
5.800874
 21
5.553108
 31
0.0
  0
LINE
  5
1F8
100
AcDbEntity
 67
     1
  8
1
  6
Continuous
 62
     7
100
AcDbLine
 10
1.7106
 20
4.467915
 30
0.0
 11
1.708758
 21
4.467916
 31
0.0
  0
LINE
  5
1F9
100
AcDbEntity
 67
     1
  8
1
  6
Continuous
 62
     7
100
AcDbLine
 10
3.675101
 20
3.716395
 30
0.0
 11
3.6941
 21
3.71789
 31
0.0
  0
LINE
  5
1FA
100
AcDbEntity
 67
     1
  8
1
  6
Continuous
 62
     7
100
AcDbLine
 10
1.630138
 20
6.290576
 30
0.0
 11
1.620831
 21
6.290576
 31
0.0
  0
LINE
  5
1FB
100
AcDbEntity
 67
     1
  8
1
  6
Continuous
 62
     7
100
AcDbLine
 10
12.390445
 20
7.25689
 30
0.0
 11
12.389185
 21
7.258234
 31
0.0
  0
LINE
  5
1FC
100
AcDbEntity
 67
     1
  8
1
  6
Continuous
 62
     7
100
AcDbLine
 10
12.324999
 20
5.862774
 30
0.0
 11
12.280874
 21
5.741119
 31
0.0
  0
LINE
  5
1FD
100
AcDbEntity
 67
     1
  8
1
  6
Continuous
 62
     7
100
AcDbLine
 10
3.630138
 20
6.344576
 30
0.0
 11
3.669301
 21
6.344576
 31
0.0
  0
LINE
  5
1FE
100
AcDbEntity
 67
     1
  8
1
  6
Continuous
 62
     7
100
AcDbLine
 10
1.380598
 20
4.464101
 30
0.0
 11
1.397368
 21
4.464092
 31
0.0
  0
LINE
  5
1FF
100
AcDbEntity
 67
     1
  8
1
  6
Continuous
 62
     7
100
AcDbLine
 10
1.630138
 20
3.327502
 30
0.0
 11
1.568583
 21
3.327502
 31
0.0
  0
LINE
  5
200
100
AcDbEntity
 67
     1
  8
1
  6
Continuous
 62
     7
100
AcDbLine
 10
11.275439
 20
3.498811
 30
0.0
 11
11.258144
 21
3.533949
 31
0.0
  0
LINE
  5
201
100
AcDbEntity
 67
     1
  8
1
  6
Continuous
 62
     7
100
AcDbLine
 10
1.710586
 20
4.443914
 30
0.0
 11
1.619175
 21
4.443966
 31
0.0
  0
LINE
  5
202
100
AcDbEntity
 67
     1
  8
1
  6
Continuous
 62
     7
100
AcDbLine
 10
11.800749
 20
7.416623
 30
0.0
 11
5.800874
 21
7.416623
 31
0.0
  0
LINE
  5
203
100
AcDbEntity
 67
     1
  8
1
  6
Continuous
 62
     7
100
AcDbLine
 10
16.017525
 20
8.942693
 30
0.0
 11
16.001265
 21
8.87238
 31
0.0
  0
LINE
  5
204
100
AcDbEntity
 67
     1
  8
1
  6
Continuous
 62
     7
100
AcDbLine
 10
15.623567
 20
3.923977
 30
0.0
 11
15.654913
 21
3.848262
 31
0.0
  0
LINE
  5
205
100
AcDbEntity
 67
     1
  8
1
  6
Continuous
 62
     7
100
AcDbLine
 10
1.565138
 20
5.67112
 30
0.0
 11
1.565138
 21
5.519889
 31
0.0
  0
LINE
  5
206
100
AcDbEntity
 67
     1
  8
1
  6
Continuous
 62
     7
100
AcDbLine
 10
12.33852
 20
5.853329
 30
0.0
 11
12.303269
 21
5.802866
 31
0.0
  0
LINE
  5
207
100
AcDbEntity
 67
     1
  8
1
  6
Continuous
 62
     7
100
AcDbLine
 10
3.630138
 20
6.318576
 30
0.0
 11
3.743942
 21
6.318576
 31
0.0
  0
LINE
  5
208
100
AcDbEntity
 67
     1
  8
1
  6
Continuous
 62
     7
100
AcDbLine
 10
11.298766
 20
3.510293
 30
0.0
 11
11.248509
 21
3.612399
 31
0.0
  0
LINE
  5
209
100
AcDbEntity
 67
     1
  8
1
  6
Continuous
 62
     7
100
AcDbLine
 10
5.108603
 20
3.746119
 30
0.0
 11
5.108603
 21
3.662172
 31
0.0
  0
LINE
  5
20A
100
AcDbEntity
 67
     1
  8
1
  6
Continuous
 62
     7
100
AcDbLine
 10
4.213668
 20
5.616119
 30
0.0
 11
4.213668
 21
5.677675
 31
0.0
  0
LINE
  5
20B
100
AcDbEntity
 67
     1
  8
1
  6
Continuous
 62
     7
100
AcDbLine
 10
12.205371
 20
1.483599
 30
0.0
 11
6.526266
 21
1.483599
 31
0.0
  0
LINE
  5
20C
100
AcDbEntity
 67
     1
  8
1
  6
Continuous
 62
     7
100
AcDbLine
 10
5.130603
 20
5.485824
 30
0.0
 11
5.130603
 21
5.569771
 31
0.0
  0
LINE
  5
20D
100
AcDbEntity
 67
     1
  8
1
  6
Continuous
 62
     7
100
AcDbLine
 10
11.800874
 20
9.575505
 30
0.0
 11
11.800874
 21
9.572577
 31
0.0
  0
LINE
  5
20E
100
AcDbEntity
 67
     1
  8
1
  6
Continuous
 62
     7
100
AcDbLine
 10
3.630138
 20
3.327502
 30
0.0
 11
3.691693
 21
3.327502
 31
0.0
  0
LINE
  5
20F
100
AcDbEntity
 67
     1
  8
1
  6
Continuous
 62
     7
100
AcDbLine
 10
5.800874
 20
5.593967
 30
0.0
 11
5.800874
 21
5.587742
 31
0.0
  0
LINE
  5
210
100
AcDbEntity
 67
     1
  8
1
  6
Continuous
 62
     7
100
AcDbLine
 10
11.800874
 20
7.335505
 30
0.0
 11
11.800874
 21
9.565506
 31
0.0
  0
LINE
  5
211
100
AcDbEntity
 67
     1
  8
1
  6
Continuous
 62
     7
100
AcDbLine
 10
1.630138
 20
6.355069
 30
0.0
 11
1.505138
 21
6.321576
 31
0.0
  0
LINE
  5
212
100
AcDbEntity
 67
     1
  8
1
  6
Continuous
 62
     7
100
AcDbLine
 10
12.364183
 20
7.232266
 30
0.0
 11
12.286344
 21
7.315286
 31
0.0
  0
LINE
  5
213
100
AcDbEntity
 67
     1
  8
1
  6
Continuous
 62
     7
100
AcDbLine
 10
14.110171
 20
6.595064
 30
0.0
 11
15.179859
 21
6.595064
 31
0.0
  0
LINE
  5
214
100
AcDbEntity
 67
     1
  8
1
  6
Continuous
 62
     7
100
AcDbLine
 10
3.630138
 20
6.350576
 30
0.0
 11
3.646908
 21
6.350576
 31
0.0
  0
LINE
  5
215
100
AcDbEntity
 67
     1
  8
1
  6
Continuous
 62
     7
100
AcDbLine
 10
1.630138
 20
6.298576
 30
0.0
 11
1.590975
 21
6.298576
 31
0.0
  0
LINE
  5
216
100
AcDbEntity
 67
     1
  8
1
  6
Continuous
 62
     7
100
AcDbLine
 10
1.380591
 20
4.452101
 30
0.0
 11
1.442146
 21
4.452066
 31
0.0
  0
LINE
  5
217
100
AcDbEntity
 67
     1
  8
1
  6
Continuous
 62
     7
100
AcDbLine
 10
3.630138
 20
3.325503
 30
0.0
 11
3.699157
 21
3.325503
 31
0.0
  0
LINE
  5
218
100
AcDbEntity
 67
     1
  8
1
  6
Continuous
 62
     7
100
AcDbLine
 10
1.630138
 20
3.333503
 30
0.0
 11
1.590975
 21
3.333503
 31
0.0
  0
LINE
  5
219
100
AcDbEntity
 67
     1
  8
1
  6
Continuous
 62
     7
100
AcDbLine
 10
11.270056
 20
3.496162
 30
0.0
 11
11.26265
 21
3.511209
 31
0.0
  0
LINE
  5
21A
100
AcDbEntity
 67
     1
  8
1
  6
Continuous
 62
     7
100
AcDbLine
 10
1.630138
 20
6.300576
 30
0.0
 11
1.583511
 21
6.300576
 31
0.0
  0
LINE
  5
21B
100
AcDbEntity
 67
     1
  8
1
  6
Continuous
 62
     7
100
AcDbLine
 10
12.205371
 20
1.741555
 30
0.0
 11
16.369932
 21
1.741555
 31
0.0
  0
LINE
  5
21C
100
AcDbEntity
 67
     1
  8
1
  6
Continuous
 62
     7
100
AcDbLine
 10
5.153096
 20
5.485824
 30
0.0
 11
5.119603
 21
5.610824
 31
0.0
  0
LINE
  5
21D
100
AcDbEntity
 67
     1
  8
1
  6
Continuous
 62
     7
100
AcDbLine
 10
5.800874
 20
7.575854
 30
0.0
 11
5.800874
 21
7.559671
 31
0.0
  0
LINE
  5
21E
100
AcDbEntity
 67
     1
  8
1
  6
Continuous
 62
     7
100
AcDbLine
 10
16.016331
 20
9.15363
 30
0.0
 11
16.025434
 21
9.083318
 31
0.0
  0
LINE
  5
21F
100
AcDbEntity
 67
     1
  8
1
  6
Continuous
 62
     7
100
AcDbLine
 10
1.380595
 20
4.460101
 30
0.0
 11
1.412294
 21
4.460083
 31
0.0
  0
LINE
  5
220
100
AcDbEntity
 67
     1
  8
1
  6
Continuous
 62
     7
100
AcDbLine
 10
12.333601
 20
5.856765
 30
0.0
 11
12.311174
 21
5.824659
 31
0.0
  0
LINE
  5
221
100
AcDbEntity
 67
     1
  8
1
  6
Continuous
 62
     7
100
AcDbLine
 10
3.630138
 20
6.312576
 30
0.0
 11
3.721549
 21
6.312576
 31
0.0
  0
LINE
  5
222
100
AcDbEntity
 67
     1
  8
1
  6
Continuous
 62
     7
100
AcDbLine
 10
4.165668
 20
3.746119
 30
0.0
 11
4.165668
 21
3.736813
 31
0.0
  0
LINE
  5
223
100
AcDbEntity
 67
     1
  8
1
  6
Continuous
 62
     7
100
AcDbLine
 10
3.630138
 20
3.319503
 30
0.0
 11
3.721549
 21
3.319503
 31
0.0
  0
LINE
  5
224
100
AcDbEntity
 67
     1
  8
1
  6
Continuous
 62
     7
100
AcDbLine
 10
11.30415
 20
3.512943
 30
0.0
 11
11.263782
 21
3.594958
 31
0.0
  0
LINE
  5
225
100
AcDbEntity
 67
     1
  8
1
  6
Continuous
 62
     7
100
AcDbLine
 10
3.755138
 20
5.79362
 30
0.0
 11
3.755138
 21
6.446576
 31
0.0
  0
LINE
  5
226
100
AcDbEntity
 67
     1
  8
1
  6
Continuous
 62
     7
100
AcDbLine
 10
5.136603
 20
5.485824
 30
0.0
 11
5.136603
 21
5.547379
 31
0.0
  0
LINE
  5
227
100
AcDbEntity
 67
     1
  8
1
  6
Continuous
 62
     7
100
AcDbLine
 10
12.205371
 20
1.994511
 30
0.0
 11
6.526266
 21
1.994511
 31
0.0
  0
LINE
  5
228
100
AcDbEntity
 67
     1
  8
1
  6
Continuous
 62
     7
100
AcDbLine
 10
5.800874
 20
5.610686
 30
0.0
 11
5.800874
 21
5.596912
 31
0.0
  0
LINE
  5
229
100
AcDbEntity
 67
     1
  8
1
  6
Continuous
 62
     7
100
AcDbLine
 10
1.380592
 20
4.454101
 30
0.0
 11
1.434683
 21
4.454071
 31
0.0
  0
LINE
  5
22A
100
AcDbEntity
 67
     1
  8
1
  6
Continuous
 62
     7
100
AcDbLine
 10
12.359806
 20
7.228162
 30
0.0
 11
12.297282
 21
7.294847
 31
0.0
  0
LINE
  5
22B
100
AcDbEntity
 67
     1
  8
1
  6
Continuous
 62
     7
100
AcDbLine
 10
3.630138
 20
6.354576
 30
0.0
 11
3.63198
 21
6.354576
 31
0.0
  0
LINE
  5
22C
100
AcDbEntity
 67
     1
  8
1
  6
Continuous
 62
     7
100
AcDbLine
 10
4.187668
 20
5.616119
 30
0.0
 11
4.187668
 21
5.707531
 31
0.0
  0
LINE
  5
22D
100
AcDbEntity
 67
     1
  8
1
  6
Continuous
 62
     7
100
AcDbLine
 10
3.630138
 20
3.313503
 30
0.0
 11
3.743942
 21
3.313503
 31
0.0
  0
LINE
  5
22E
100
AcDbEntity
 67
     1
  8
1
  6
Continuous
 62
     7
100
AcDbLine
 10
3.630138
 20
3.331502
 30
0.0
 11
3.676765
 21
3.331502
 31
0.0
  0
LINE
  5
22F
100
AcDbEntity
 67
     1
  8
1
  6
Continuous
 62
     7
100
AcDbLine
 10
0.943877
 20
1.33786
 30
0.0
 11
0.813973
 21
1.56286
 31
0.0
  0
LINE
  5
230
100
AcDbEntity
 67
     1
  8
1
  6
Continuous
 62
     7
100
AcDbLine
 10
11.266467
 20
3.494395
 30
0.0
 11
11.265654
 21
3.496048
 31
0.0
  0
LINE
  5
231
100
AcDbEntity
 67
     1
  8
1
  6
Continuous
 62
     7
100
AcDbLine
 10
4.227668
 20
5.616119
 30
0.0
 11
4.227668
 21
5.625426
 31
0.0
  0
LINE
  5
232
100
AcDbEntity
 67
     1
  8
1
  6
Continuous
 62
     7
100
AcDbLine
 10
4.215668
 20
3.746119
 30
0.0
 11
4.215668
 21
3.692029
 31
0.0
  0
LINE
  5
233
100
AcDbEntity
 67
     1
  8
1
  6
Continuous
 62
     7
100
AcDbLine
 10
5.800874
 20
9.308433
 30
0.0
 11
5.800874
 21
7.592579
 31
0.0
  0
LINE
  5
234
100
AcDbEntity
 67
     1
  8
1
  6
Continuous
 62
     7
100
AcDbLine
 10
15.644759
 20
4.378263
 30
0.0
 11
15.61765
 21
4.302548
 31
0.0
  0
LINE
  5
235
100
AcDbEntity
 67
     1
  8
1
  6
Continuous
 62
     7
100
AcDbLine
 10
1.630138
 20
6.314576
 30
0.0
 11
1.531262
 21
6.314576
 31
0.0
  0
LINE
  5
236
100
AcDbEntity
 67
     1
  8
1
  6
Continuous
 62
     7
100
AcDbLine
 10
3.630138
 20
3.277503
 30
0.0
 11
3.63198
 21
3.277503
 31
0.0
  0
LINE
  5
237
100
AcDbEntity
 67
     1
  8
1
  6
Continuous
 62
     7
100
AcDbLine
 10
3.686443
 20
5.509975
 30
0.0
 11
3.622311
 21
5.501532
 31
0.0
  0
LINE
  5
238
100
AcDbEntity
 67
     1
  8
1
  6
Continuous
 62
     7
100
AcDbLine
 10
11.309533
 20
3.515592
 30
0.0
 11
11.279054
 21
3.577517
 31
0.0
  0
LINE
  5
239
100
AcDbEntity
 67
     1
  8
1
  6
Continuous
 62
     7
100
AcDbLine
 10
14.476377
 20
0.974686
 30
0.0
 11
16.369932
 21
0.974686
 31
0.0
  0
LINE
  5
23A
100
AcDbEntity
 67
     1
  8
1
  6
Continuous
 62
     7
100
AcDbLine
 10
5.142603
 20
5.485824
 30
0.0
 11
5.142603
 21
5.524987
 31
0.0
  0
LINE
  5
23B
100
AcDbEntity
 67
     1
  8
1
  6
Continuous
 62
     7
100
AcDbLine
 10
4.201668
 20
3.746119
 30
0.0
 11
4.201668
 21
3.63978
 31
0.0
  0
LINE
  5
23C
100
AcDbEntity
 67
     1
  8
1
  6
Continuous
 62
     7
100
AcDbLine
 10
5.800874
 20
5.610824
 30
0.0
 11
5.800874
 21
5.610789
 31
0.0
  0
LINE
  5
23D
100
AcDbEntity
 67
     1
  8
1
  6
Continuous
 62
     7
100
AcDbLine
 10
1.710573
 20
4.419914
 30
0.0
 11
1.641554
 21
4.419953
 31
0.0
  0
LINE
  5
23E
100
AcDbEntity
 67
     1
  8
1
  6
Continuous
 62
     7
100
AcDbLine
 10
12.372937
 20
7.240474
 30
0.0
 11
12.310413
 21
7.307159
 31
0.0
  0
LINE
  5
23F
100
AcDbEntity
 67
     1
  8
1
  6
Continuous
 62
     7
100
AcDbLine
 10
12.35543
 20
7.224059
 30
0.0
 11
12.308221
 21
7.274408
 31
0.0
  0
LINE
  5
240
100
AcDbEntity
 67
     1
  8
1
  6
Continuous
 62
     7
100
AcDbLine
 10
3.630138
 20
3.281502
 30
0.0
 11
3.646908
 21
3.281502
 31
0.0
  0
LINE
  5
241
100
AcDbEntity
 67
     1
  8
1
  6
Continuous
 62
     7
100
AcDbLine
 10
1.380564
 20
4.404101
 30
0.0
 11
1.38987
 21
4.404096
 31
0.0
  0
LINE
  5
242
100
AcDbEntity
 67
     1
  8
1
  6
Continuous
 62
     7
100
AcDbLine
 10
3.755138
 20
6.321576
 30
0.0
 11
3.630138
 21
6.355069
 31
0.0
  0
LINE
  5
243
100
AcDbEntity
 67
     1
  8
1
  6
Continuous
 62
     7
100
AcDbLine
 10
3.630138
 20
3.337502
 30
0.0
 11
3.654372
 21
3.337502
 31
0.0
  0
LINE
  5
244
100
AcDbEntity
 67
     1
  8
1
  6
Continuous
 62
     7
100
AcDbLine
 10
4.191669
 20
5.616119
 30
0.0
 11
4.191669
 21
5.722459
 31
0.0
  0
LINE
  5
245
100
AcDbEntity
 67
     1
  8
1
  6
Continuous
 62
     7
100
AcDbLine
 10
16.369932
 20
10.641915
 30
0.0
 11
16.369932
 21
0.440085
 31
0.0
  0
LINE
  5
246
100
AcDbEntity
 67
     1
  8
1
  6
Continuous
 62
     7
100
AcDbLine
 10
3.630138
 20
3.285502
 30
0.0
 11
3.661836
 21
3.285502
 31
0.0
  0
LINE
  5
247
100
AcDbEntity
 67
     1
  8
1
  6
Continuous
 62
     7
100
AcDbLine
 10
5.800874
 20
9.308465
 30
0.0
 11
5.800874
 21
9.312977
 31
0.0
  0
LINE
  5
248
100
AcDbEntity
 67
     1
  8
1
  6
Continuous
 62
     7
100
AcDbLine
 10
15.800874
 20
9.575505
 30
0.0
 11
15.854048
 21
9.505193
 31
0.0
  0
LINE
  5
249
100
AcDbEntity
 67
     1
  8
1
  6
Continuous
 62
     7
100
AcDbLine
 10
1.380562
 20
4.401608
 30
0.0
 11
1.505581
 21
4.43503
 31
0.0
  0
LINE
  5
24A
100
AcDbEntity
 67
     1
  8
1
  6
Continuous
 62
     7
100
AcDbLine
 10
15.857651
 20
5.665405
 30
0.0
 11
15.906482
 21
5.589691
 31
0.0
  0
LINE
  5
24B
100
AcDbEntity
 67
     1
  8
1
  6
Continuous
 62
     7
100
AcDbLine
 10
1.380589
 20
4.448101
 30
0.0
 11
1.457072
 21
4.448058
 31
0.0
  0
LINE
  5
24C
100
AcDbEntity
 67
     1
  8
1
  6
Continuous
 62
     7
100
AcDbLine
 10
1.585581
 20
4.434985
 30
0.0
 11
1.810581
 21
4.434858
 31
0.0
  0
LINE
  5
24D
100
AcDbEntity
 67
     1
  8
1
  6
Continuous
 62
     7
100
AcDbLine
 10
3.630138
 20
3.289503
 30
0.0
 11
3.676765
 21
3.289503
 31
0.0
  0
LINE
  5
24E
100
AcDbEntity
 67
     1
  8
1
  6
Continuous
 62
     7
100
AcDbLine
 10
2.399138
 20
6.186576
 30
0.0
 11
2.399138
 21
6.017826
 31
0.0
  0
LINE
  5
24F
100
AcDbEntity
 67
     1
  8
1
  6
Continuous
 62
     7
100
AcDbLine
 10
5.148603
 20
5.485824
 30
0.0
 11
5.148603
 21
5.502594
 31
0.0
  0
LINE
  5
250
100
AcDbEntity
 67
     1
  8
1
  6
Continuous
 62
     7
100
AcDbLine
 10
5.800874
 20
3.625142
 30
0.0
 11
5.800874
 21
3.621119
 31
0.0
  0
LINE
  5
251
100
AcDbEntity
 67
     1
  8
1
  6
Continuous
 62
     7
100
AcDbLine
 10
1.380569
 20
4.414101
 30
0.0
 11
1.427196
 21
4.414075
 31
0.0
  0
LINE
  5
252
100
AcDbEntity
 67
     1
  8
1
  6
Continuous
 62
     7
100
AcDbLine
 10
12.351052
 20
7.219954
 30
0.0
 11
12.31916
 21
7.253969
 31
0.0
  0
LINE
  5
253
100
AcDbEntity
 67
     1
  8
1
  6
Continuous
 62
     7
100
AcDbLine
 10
3.630138
 20
3.293503
 30
0.0
 11
3.691693
 21
3.293503
 31
0.0
  0
LINE
  5
254
100
AcDbEntity
 67
     1
  8
1
  6
Continuous
 62
     7
100
AcDbLine
 10
1.630138
 20
3.341502
 30
0.0
 11
1.620831
 21
3.341502
 31
0.0
  0
LINE
  5
255
100
AcDbEntity
 67
     1
  8
1
  6
Continuous
 62
     7
100
AcDbLine
 10
3.630138
 20
3.343503
 30
0.0
 11
3.63198
 21
3.343503
 31
0.0
  0
LINE
  5
256
100
AcDbEntity
 67
     1
  8
1
  6
Continuous
 62
     7
100
AcDbLine
 10
1.380572
 20
4.418101
 30
0.0
 11
1.442127
 21
4.418067
 31
0.0
  0
LINE
  5
257
100
AcDbEntity
 67
     1
  8
1
  6
Continuous
 62
     7
100
AcDbLine
 10
11.800749
 20
9.484388
 30
0.0
 11
5.800874
 21
9.484388
 31
0.0
  0
LINE
  5
258
100
AcDbEntity
 67
     1
  8
1
  6
Continuous
 62
     7
100
AcDbLine
 10
1.710582
 20
4.435915
 30
0.0
 11
1.589314
 21
4.435983
 31
0.0
  0
LINE
  5
259
100
AcDbEntity
 67
     1
  8
1
  6
Continuous
 62
     7
100
AcDbLine
 10
1.630138
 20
3.309503
 30
0.0
 11
1.50887
 21
3.309503
 31
0.0
  0
LINE
  5
25A
100
AcDbEntity
 67
     1
  8
1
  6
Continuous
 62
     7
100
AcDbLine
 10
12.367101
 20
7.235002
 30
0.0
 11
12.284156
 21
7.323467
 31
0.0
  0
LINE
  5
25B
100
AcDbEntity
 67
     1
  8
1
  6
Continuous
 62
     7
100
AcDbLine
 10
1.068008
 20
4.131396
 30
0.0
 11
1.068008
 21
4.300146
 31
0.0
  0
LINE
  5
25C
100
AcDbEntity
 67
     1
  8
1
  6
Continuous
 62
     7
100
AcDbLine
 10
12.356555
 20
5.84073
 30
0.0
 11
12.295659
 21
5.753554
 31
0.0
  0
LINE
  5
25D
100
AcDbEntity
 67
     1
  8
1
  6
Continuous
 62
     7
100
AcDbLine
 10
3.630138
 20
6.294576
 30
0.0
 11
3.654372
 21
6.294576
 31
0.0
  0
LINE
  5
25E
100
AcDbEntity
 67
     1
  8
1
  6
Continuous
 62
     7
100
AcDbLine
 10
3.630138
 20
3.299503
 30
0.0
 11
3.714085
 21
3.299503
 31
0.0
  0
LINE
  5
25F
100
AcDbEntity
 67
     1
  8
1
  6
Continuous
 62
     7
100
AcDbLine
 10
3.630138
 20
3.297503
 30
0.0
 11
3.706621
 21
3.297503
 31
0.0
  0
LINE
  5
260
100
AcDbEntity
 67
     1
  8
1
  6
Continuous
 62
     7
100
AcDbLine
 10
3.787638
 20
3.621119
 30
0.0
 11
4.321669
 21
3.621119
 31
0.0
  0
LINE
  5
261
100
AcDbEntity
 67
     1
  8
1
  6
Continuous
 62
     7
100
AcDbLine
 10
5.086603
 20
3.746119
 30
0.0
 11
5.086603
 21
3.744277
 31
0.0
  0
LINE
  5
262
100
AcDbEntity
 67
     1
  8
1
  6
Continuous
 62
     7
100
AcDbLine
 10
1.630138
 20
6.324576
 30
0.0
 11
1.516334
 21
6.324576
 31
0.0
  0
LINE
  5
263
100
AcDbEntity
 67
     1
  8
1
  6
Continuous
 62
     7
100
AcDbLine
 10
4.213668
 20
3.746119
 30
0.0
 11
4.213668
 21
3.684564
 31
0.0
  0
LINE
  5
264
100
AcDbEntity
 67
     1
  8
1
  6
Continuous
 62
     7
100
AcDbLine
 10
15.576313
 20
7.817693
 30
0.0
 11
15.585417
 21
7.747381
 31
0.0
  0
LINE
  5
265
100
AcDbEntity
 67
     1
  8
1
  6
Continuous
 62
     7
100
AcDbLine
 10
4.179668
 20
3.746119
 30
0.0
 11
4.179668
 21
3.684564
 31
0.0
  0
LINE
  5
266
100
AcDbEntity
 67
     1
  8
1
  6
Continuous
 62
     7
100
AcDbLine
 10
1.380568
 20
4.412101
 30
0.0
 11
1.419731
 21
4.412079
 31
0.0
  0
LINE
  5
267
100
AcDbEntity
 67
     1
  8
1
  6
Continuous
 62
     7
100
AcDbLine
 10
3.630138
 20
3.303503
 30
0.0
 11
3.729013
 21
3.303503
 31
0.0
  0
LINE
  5
268
100
AcDbEntity
 67
     1
  8
1
  6
Continuous
 62
     7
100
AcDbLine
 10
1.710566
 20
4.407915
 30
0.0
 11
1.686331
 21
4.407928
 31
0.0
  0
LINE
  5
269
100
AcDbEntity
 67
     1
  8
1
  6
Continuous
 62
     7
100
AcDbLine
 10
1.662536
 20
5.517618
 30
0.0
 11
1.591149
 21
5.542897
 31
0.0
  0
LINE
  5
26A
100
AcDbEntity
 67
     1
  8
1
  6
Continuous
 62
     7
100
AcDbLine
 10
12.346675
 20
7.215851
 30
0.0
 11
12.330099
 21
7.23353
 31
0.0
  0
LINE
  5
26B
100
AcDbEntity
 67
     1
  8
1
  6
Continuous
 62
     7
100
AcDbLine
 10
3.630138
 20
3.305502
 30
0.0
 11
3.736477
 21
3.305502
 31
0.0
  0
LINE
  5
26C
100
AcDbEntity
 67
     1
  8
1
  6
Continuous
 62
     7
100
AcDbLine
 10
5.144603
 20
3.746119
 30
0.0
 11
5.144603
 21
3.714421
 31
0.0
  0
LINE
  5
26D
100
AcDbEntity
 67
     1
  8
1
  6
Continuous
 62
     7
100
AcDbLine
 10
3.630138
 20
3.343996
 30
0.0
 11
3.630138
 21
3.277009
 31
0.0
  0
LINE
  5
26E
100
AcDbEntity
 67
     1
  8
1
  6
Continuous
 62
     7
100
AcDbLine
 10
3.630138
 20
3.307503
 30
0.0
 11
3.743942
 21
3.307503
 31
0.0
  0
LINE
  5
26F
100
AcDbEntity
 67
     1
  8
1
  6
Continuous
 62
     7
100
AcDbLine
 10
12.205371
 20
1.227643
 30
0.0
 11
16.369932
 21
1.227643
 31
0.0
  0
LINE
  5
270
100
AcDbEntity
 67
     1
  8
1
  6
Continuous
 62
     7
100
AcDbLine
 10
11.800749
 20
9.4934
 30
0.0
 11
5.800874
 21
9.4934
 31
0.0
  0
LINE
  5
271
100
AcDbEntity
 67
     1
  8
1
  6
Continuous
 62
     7
100
AcDbLine
 10
13.800874
 20
5.32005
 30
0.0
 11
5.800874
 21
5.32005
 31
0.0
  0
LINE
  5
272
100
AcDbEntity
 67
     1
  8
1
  6
Continuous
 62
     7
100
AcDbLine
 10
15.984097
 20
5.059691
 30
0.0
 11
15.956989
 21
4.983977
 31
0.0
  0
LINE
  5
273
100
AcDbEntity
 67
     1
  8
1
  6
Continuous
 62
     7
100
AcDbLine
 10
3.630138
 20
3.321502
 30
0.0
 11
3.714085
 21
3.321502
 31
0.0
  0
LINE
  5
274
100
AcDbEntity
 67
     1
  8
1
  6
Continuous
 62
     7
100
AcDbLine
 10
1.630138
 20
3.329503
 30
0.0
 11
1.576047
 21
3.329503
 31
0.0
  0
LINE
  5
275
100
AcDbEntity
 67
     1
  8
1
  6
Continuous
 62
     7
100
AcDbLine
 10
3.745295
 20
5.341357
 30
0.0
 11
3.591537
 21
5.493511
 31
0.0
  0
LINE
  5
276
100
AcDbEntity
 67
     1
  8
1
  6
Continuous
 62
     7
100
AcDbLine
 10
1.630138
 20
3.303503
 30
0.0
 11
1.531262
 21
3.303503
 31
0.0
  0
LINE
  5
277
100
AcDbEntity
 67
     1
  8
1
  6
Continuous
 62
     7
100
AcDbLine
 10
12.371478
 20
7.239106
 30
0.0
 11
12.303849
 21
7.311236
 31
0.0
  0
LINE
  5
278
100
AcDbEntity
 67
     1
  8
1
  6
Continuous
 62
     7
100
AcDbLine
 10
0.704071
 20
4.300146
 30
0.0
 11
0.704071
 21
4.131396
 31
0.0
  0
LINE
  5
279
100
AcDbEntity
 67
     1
  8
1
  6
Continuous
 62
     7
100
AcDbLine
 10
12.361474
 20
5.837295
 30
0.0
 11
12.313401
 21
5.768475
 31
0.0
  0
LINE
  5
27A
100
AcDbEntity
 67
     1
  8
1
  6
Continuous
 62
     7
100
AcDbLine
 10
3.630138
 20
6.288576
 30
0.0
 11
3.63198
 21
6.288576
 31
0.0
  0
LINE
  5
27B
100
AcDbEntity
 67
     1
  8
1
  6
Continuous
 62
     7
100
AcDbLine
 10
11.325683
 20
3.523541
 30
0.0
 11
11.324869
 21
3.525194
 31
0.0
  0
LINE
  5
27C
100
AcDbEntity
 67
     1
  8
1
  6
Continuous
 62
     7
100
AcDbLine
 10
5.152603
 20
3.746119
 30
0.0
 11
5.152603
 21
3.744277
 31
0.0
  0
LINE
  5
27D
100
AcDbEntity
 67
     1
  8
1
  6
Continuous
 62
     7
100
AcDbLine
 10
5.800874
 20
5.507216
 30
0.0
 11
5.800874
 21
5.517618
 31
0.0
  0
LINE
  5
27E
100
AcDbEntity
 67
     1
  8
1
  6
Continuous
 62
     7
100
AcDbLine
 10
5.800874
 20
7.325506
 30
0.0
 11
5.800874
 21
7.32645
 31
0.0
  0
LINE
  5
27F
100
AcDbEntity
 67
     1
  8
1
  6
Continuous
 62
     7
100
AcDbLine
 10
15.600483
 20
8.02863
 30
0.0
 11
15.584224
 21
7.958318
 31
0.0
  0
LINE
  5
280
100
AcDbEntity
 67
     1
  8
1
  6
Continuous
 62
     7
100
AcDbLine
 10
4.173668
 20
3.746119
 30
0.0
 11
4.173668
 21
3.706957
 31
0.0
  0
LINE
  5
281
100
AcDbEntity
 67
     1
  8
1
  6
Continuous
 62
     7
100
AcDbLine
 10
1.380565
 20
4.406101
 30
0.0
 11
1.397335
 21
4.406092
 31
0.0
  0
LINE
  5
282
100
AcDbEntity
 67
     1
  8
1
  6
Continuous
 62
     7
100
AcDbLine
 10
1.630138
 20
3.277503
 30
0.0
 11
1.628295
 21
3.277503
 31
0.0
  0
LINE
  5
283
100
AcDbEntity
 67
     1
  8
1
  6
Continuous
 62
     7
100
AcDbLine
 10
1.710563
 20
4.401915
 30
0.0
 11
1.70872
 21
4.401916
 31
0.0
  0
LINE
  5
284
100
AcDbEntity
 67
     1
  8
1
  6
Continuous
 62
     7
100
AcDbLine
 10
4.209669
 20
5.616119
 30
0.0
 11
4.209669
 21
5.692603
 31
0.0
  0
LINE
  5
285
100
AcDbEntity
 67
     1
  8
1
  6
Continuous
 62
     7
100
AcDbLine
 10
5.132603
 20
5.485824
 30
0.0
 11
5.132603
 21
5.562307
 31
0.0
  0
LINE
  5
286
100
AcDbEntity
 67
     1
  8
1
  6
Continuous
 62
     7
100
AcDbLine
 10
15.800874
 20
9.575505
 30
0.0
 11
11.800874
 21
9.575505
 31
0.0
  0
LINE
  5
287
100
AcDbEntity
 67
     1
  8
1
  6
Continuous
 62
     7
100
AcDbLine
 10
1.380581
 20
4.434101
 30
0.0
 11
1.501849
 21
4.434032
 31
0.0
  0
LINE
  5
288
100
AcDbEntity
 67
     1
  8
1
  6
Continuous
 62
     7
100
AcDbLine
 10
16.316332
 20
9.325544
 30
0.0
 11
16.186428
 21
9.550544
 31
0.0
  0
LINE
  5
289
100
AcDbEntity
 67
     1
  8
1
  6
Continuous
 62
     7
100
AcDbLine
 10
1.585175
 20
3.716395
 30
0.0
 11
1.566175
 21
3.71789
 31
0.0
  0
LINE
  5
28A
100
AcDbEntity
 67
     1
  8
1
  6
Continuous
 62
     7
100
AcDbLine
 10
12.362724
 20
7.230898
 30
0.0
 11
12.289989
 21
7.308473
 31
0.0
  0
LINE
  5
28B
100
AcDbEntity
 67
     1
  8
1
  6
Continuous
 62
     7
100
AcDbLine
 10
3.630138
 20
6.352576
 30
0.0
 11
3.639444
 21
6.352576
 31
0.0
  0
LINE
  5
28C
100
AcDbEntity
 67
     1
  8
1
  6
Continuous
 62
     7
100
AcDbLine
 10
5.136603
 20
3.746119
 30
0.0
 11
5.136603
 21
3.684564
 31
0.0
  0
LINE
  5
28D
100
AcDbEntity
 67
     1
  8
1
  6
Continuous
 62
     7
100
AcDbLine
 10
5.800874
 20
9.496148
 30
0.0
 11
5.800874
 21
9.496156
 31
0.0
  0
LINE
  5
28E
100
AcDbEntity
 67
     1
  8
1
  6
Continuous
 62
     7
100
AcDbLine
 10
15.978181
 20
5.438262
 30
0.0
 11
15.999991
 21
5.362548
 31
0.0
  0
LINE
  5
28F
100
AcDbEntity
 67
     1
  8
1
  6
Continuous
 62
     7
100
AcDbLine
 10
13.800874
 20
5.341357
 30
0.0
 11
5.800874
 21
5.341357
 31
0.0
  0
LINE
  5
290
100
AcDbEntity
 67
     1
  8
1
  6
Continuous
 62
     7
100
AcDbLine
 10
16.011736
 20
5.286834
 30
0.0
 11
16.012884
 21
5.21112
 31
0.0
  0
LINE
  5
291
100
AcDbEntity
 67
     1
  8
1
  6
Continuous
 62
     7
100
AcDbLine
 10
13.656895
 20
3.061127
 30
0.0
 11
13.916702
 21
3.061127
 31
0.0
  0
LINE
  5
292
100
AcDbEntity
 67
     1
  8
1
  6
Continuous
 62
     7
100
AcDbLine
 10
1.630138
 20
6.310576
 30
0.0
 11
1.54619
 21
6.310576
 31
0.0
  0
LINE
  5
293
100
AcDbEntity
 67
     1
  8
1
  6
Continuous
 62
     7
100
AcDbLine
 10
12.375855
 20
7.24321
 30
0.0
 11
12.323542
 21
7.299005
 31
0.0
  0
LINE
  5
294
100
AcDbEntity
 67
     1
  8
1
  6
Continuous
 62
     7
100
AcDbLine
 10
4.193668
 20
3.746119
 30
0.0
 11
4.193668
 21
3.632316
 31
0.0
  0
LINE
  5
295
100
AcDbEntity
 67
     1
  8
1
  6
Continuous
 62
     7
100
AcDbLine
 10
12.366393
 20
5.833858
 30
0.0
 11
12.331142
 21
5.783396
 31
0.0
  0
LINE
  5
296
100
AcDbEntity
 67
     1
  8
1
  6
Continuous
 62
     7
100
AcDbLine
 10
3.630138
 20
6.324576
 30
0.0
 11
3.743942
 21
6.324576
 31
0.0
  0
LINE
  5
297
100
AcDbEntity
 67
     1
  8
1
  6
Continuous
 62
     7
100
AcDbLine
 10
5.800874
 20
7.588034
 30
0.0
 11
5.800874
 21
7.575854
 31
0.0
  0
LINE
  5
298
100
AcDbEntity
 67
     1
  8
1
  6
Continuous
 62
     7
100
AcDbLine
 10
15.598489
 20
4.226834
 30
0.0
 11
15.588864
 21
4.151119
 31
0.0
  0
LINE
  5
299
100
AcDbEntity
 67
     1
  8
1
  6
Continuous
 62
     7
100
AcDbLine
 10
4.005044
 20
4.675495
 30
0.0
 11
4.005044
 21
4.506744
 31
0.0
  0
LINE
  5
29A
100
AcDbEntity
 67
     1
  8
1
  6
Continuous
 62
     7
100
AcDbLine
 10
1.630138
 20
6.336576
 30
0.0
 11
1.561118
 21
6.336576
 31
0.0
  0
LINE
  5
29B
100
AcDbEntity
 67
     1
  8
1
  6
Continuous
 62
     7
100
AcDbLine
 10
5.800874
 20
7.335348
 30
0.0
 11
5.800874
 21
7.328767
 31
0.0
  0
LINE
  5
29C
100
AcDbEntity
 67
     1
  8
1
  6
Continuous
 62
     7
100
AcDbLine
 10
1.380563
 20
4.402101
 30
0.0
 11
1.382405
 21
4.4021
 31
0.0
  0
LINE
  5
29D
100
AcDbEntity
 67
     1
  8
1
  6
Continuous
 62
     7
100
AcDbLine
 10
1.630138
 20
3.277009
 30
0.0
 11
1.630138
 21
3.343996
 31
0.0
  0
LINE
  5
29E
100
AcDbEntity
 67
     1
  8
1
  6
Continuous
 62
     7
100
AcDbLine
 10
1.710562
 20
4.401421
 30
0.0
 11
1.7106
 21
4.468408
 31
0.0
  0
LINE
  5
29F
100
AcDbEntity
 67
     1
  8
1
  6
Continuous
 62
     7
100
AcDbLine
 10
11.305944
 20
3.513826
 30
0.0
 11
11.268872
 21
3.589144
 31
0.0
  0
LINE
  5
2A0
100
AcDbEntity
 67
     1
  8
1
  6
Continuous
 62
     7
100
AcDbLine
 10
3.630138
 20
3.301502
 30
0.0
 11
3.721549
 21
3.301502
 31
0.0
  0
LINE
  5
2A1
100
AcDbEntity
 67
     1
  8
1
  6
Continuous
 62
     7
100
AcDbLine
 10
5.100603
 20
3.746119
 30
0.0
 11
5.100603
 21
3.692029
 31
0.0
  0
LINE
  5
2A2
100
AcDbEntity
 67
     1
  8
1
  6
Continuous
 62
     7
100
AcDbLine
 10
12.341938
 20
7.211409
 30
0.0
 11
12.390805
 21
7.257227
 31
0.0
  0
LINE
  5
2A3
100
AcDbEntity
 67
     1
  8
1
  6
Continuous
 62
     7
100
AcDbLine
 10
3.755138
 20
3.310503
 30
0.0
 11
2.844888
 21
3.310503
 31
0.0
  0
LINE
  5
2A4
100
AcDbEntity
 67
     1
  8
1
  6
Continuous
 62
     7
100
AcDbLine
 10
4.163175
 20
5.616119
 30
0.0
 11
4.230162
 21
5.616119
 31
0.0
  0
LINE
  5
2A5
100
AcDbEntity
 67
     1
  8
1
  6
Continuous
 62
     7
100
AcDbLine
 10
11.800874
 20
7.328434
 30
0.0
 11
11.800874
 21
7.325506
 31
0.0
  0
LINE
  5
2A6
100
AcDbEntity
 67
     1
  8
1
  6
Continuous
 62
     7
100
AcDbLine
 10
3.630138
 20
6.288082
 30
0.0
 11
3.755138
 21
6.321576
 31
0.0
  0
LINE
  5
2A7
100
AcDbEntity
 67
     1
  8
1
  6
Continuous
 62
     7
100
AcDbLine
 10
12.388987
 20
7.255522
 30
0.0
 11
12.382621
 21
7.262311
 31
0.0
  0
LINE
  5
2A8
100
AcDbEntity
 67
     1
  8
1
  6
Continuous
 62
     7
100
AcDbLine
 10
0.633067
 20
10.641915
 30
0.0
 11
0.633067
 21
0.440085
 31
0.0
  0
LINE
  5
2A9
100
AcDbEntity
 67
     1
  8
1
  6
Continuous
 62
     7
100
AcDbLine
 10
11.800749
 20
9.565663
 30
0.0
 11
5.800874
 21
9.565663
 31
0.0
  0
LINE
  5
2AA
100
AcDbEntity
 67
     1
  8
1
  6
Continuous
 62
     7
100
AcDbLine
 10
3.630138
 20
3.333503
 30
0.0
 11
3.669301
 21
3.333503
 31
0.0
  0
LINE
  5
2AB
100
AcDbEntity
 67
     1
  8
1
  6
Continuous
 62
     7
100
AcDbLine
 10
1.630138
 20
6.304576
 30
0.0
 11
1.568583
 21
6.304576
 31
0.0
  0
LINE
  5
2AC
100
AcDbEntity
 67
     1
  8
1
  6
Continuous
 62
     7
100
AcDbLine
 10
4.229669
 20
5.616119
 30
0.0
 11
4.229669
 21
5.617962
 31
0.0
  0
LINE
  5
2AD
100
AcDbEntity
 67
     1
  8
1
  6
Continuous
 62
     7
100
AcDbLine
 10
12.371311
 20
5.830422
 30
0.0
 11
12.348885
 21
5.798317
 31
0.0
  0
LINE
  5
2AE
100
AcDbEntity
 67
     1
  8
1
  6
Continuous
 62
     7
100
AcDbLine
 10
4.223669
 20
3.746119
 30
0.0
 11
4.223669
 21
3.721885
 31
0.0
  0
LINE
  5
2AF
100
AcDbEntity
 67
     1
  8
1
  6
Continuous
 62
     7
100
AcDbLine
 10
3.630138
 20
6.330576
 30
0.0
 11
3.721549
 21
6.330576
 31
0.0
  0
LINE
  5
2B0
100
AcDbEntity
 67
     1
  8
1
  6
Continuous
 62
     7
100
AcDbLine
 10
1.3806
 20
4.468101
 30
0.0
 11
1.382442
 21
4.4681
 31
0.0
  0
LINE
  5
2B1
100
AcDbEntity
 67
     1
  8
1
  6
Continuous
 62
     7
100
AcDbLine
 10
1.630138
 20
3.313503
 30
0.0
 11
1.516334
 21
3.313503
 31
0.0
  0
LINE
  5
2B2
100
AcDbEntity
 67
     1
  8
1
  6
Continuous
 62
     7
100
AcDbLine
 10
5.102603
 20
5.485824
 30
0.0
 11
5.102603
 21
5.547379
 31
0.0
  0
LINE
  5
2B3
100
AcDbEntity
 67
     1
  8
1
  6
Continuous
 62
     7
100
AcDbLine
 10
5.800874
 20
7.404863
 30
0.0
 11
5.800874
 21
7.404855
 31
0.0
  0
LINE
  5
2B4
100
AcDbEntity
 67
     1
  8
1
  6
Continuous
 62
     7
100
AcDbLine
 10
15.800874
 20
8.450505
 30
0.0
 11
15.760883
 21
8.380193
 31
0.0
  0
LINE
  5
2B5
100
AcDbEntity
 67
     1
  8
1
  6
Continuous
 62
     7
100
AcDbLine
 10
15.800874
 20
5.741119
 30
0.0
 11
11.800874
 21
5.741119
 31
0.0
  0
LINE
  5
2B6
100
AcDbEntity
 67
     1
  8
1
  6
Continuous
 62
     7
100
AcDbLine
 10
12.349997
 20
5.845312
 30
0.0
 11
12.284826
 21
5.752016
 31
0.0
  0
LINE
  5
2B7
100
AcDbEntity
 67
     1
  8
1
  6
Continuous
 62
     7
100
AcDbLine
 10
2.861138
 20
3.175503
 30
0.0
 11
2.816138
 21
3.175503
 31
0.0
  0
LINE
  5
2B8
100
AcDbEntity
 67
     1
  8
1
  6
Continuous
 62
     7
100
AcDbLine
 10
3.630138
 20
6.342576
 30
0.0
 11
3.676765
 21
6.342576
 31
0.0
  0
LINE
  5
2B9
100
AcDbEntity
 67
     1
  8
1
  6
Continuous
 62
     7
100
AcDbLine
 10
5.144603
 20
5.485824
 30
0.0
 11
5.144603
 21
5.517522
 31
0.0
  0
LINE
  5
2BA
100
AcDbEntity
 67
     1
  8
1
  6
Continuous
 62
     7
100
AcDbLine
 10
13.800874
 20
3.651136
 30
0.0
 11
5.800874
 21
3.651136
 31
0.0
  0
LINE
  5
2BB
100
AcDbEntity
 67
     1
  8
1
  6
Continuous
 62
     7
100
AcDbLine
 10
11.240874
 20
3.621119
 30
0.0
 11
11.419955
 21
3.25728
 31
0.0
  0
LINE
  5
2BC
100
AcDbEntity
 67
     1
  8
1
  6
Continuous
 62
     7
100
AcDbLine
 10
12.353971
 20
7.222691
 30
0.0
 11
12.311868
 21
7.267595
 31
0.0
  0
LINE
  5
2BD
100
AcDbEntity
 67
     1
  8
1
  6
Continuous
 62
     7
100
AcDbLine
 10
4.230162
 20
3.746119
 30
0.0
 11
4.163175
 21
3.746119
 31
0.0
  0
LINE
  5
2BE
100
AcDbEntity
 67
     1
  8
1
  6
Continuous
 62
     7
100
AcDbLine
 10
5.153096
 20
3.746119
 30
0.0
 11
5.086109
 21
3.746119
 31
0.0
  0
LINE
  5
2BF
100
AcDbEntity
 67
     1
  8
1
  6
Continuous
 62
     7
100
AcDbLine
 10
5.738374
 20
3.621119
 30
0.0
 11
4.994603
 21
3.621119
 31
0.0
  0
LINE
  5
2C0
100
AcDbEntity
 67
     1
  8
1
  6
Continuous
 62
     7
100
AcDbLine
 10
12.37623
 20
5.826987
 30
0.0
 11
12.366627
 21
5.813238
 31
0.0
  0
LINE
  5
2C1
100
AcDbEntity
 67
     1
  8
1
  6
Continuous
 62
     7
100
AcDbLine
 10
3.630138
 20
6.336576
 30
0.0
 11
3.699157
 21
6.336576
 31
0.0
  0
LINE
  5
2C2
100
AcDbEntity
 67
     1
  8
1
  6
Continuous
 62
     7
100
AcDbLine
 10
3.630138
 20
3.317502
 30
0.0
 11
3.729013
 21
3.317502
 31
0.0
  0
LINE
  5
2C3
100
AcDbEntity
 67
     1
  8
1
  6
Continuous
 62
     7
100
AcDbLine
 10
1.3806
 20
4.468595
 30
0.0
 11
1.380562
 21
4.401608
 31
0.0
  0
LINE
  5
2C4
100
AcDbEntity
 67
     1
  8
1
  6
Continuous
 62
     7
100
AcDbLine
 10
3.630138
 20
3.311502
 30
0.0
 11
3.751406
 21
3.311502
 31
0.0
  0
LINE
  5
2C5
100
AcDbEntity
 67
     1
  8
1
  6
Continuous
 62
     7
100
AcDbLine
 10
1.630138
 20
3.319503
 30
0.0
 11
1.538726
 21
3.319503
 31
0.0
  0
LINE
  5
2C6
100
AcDbEntity
 67
     1
  8
1
  6
Continuous
 62
     7
100
AcDbLine
 10
1.630138
 20
3.343503
 30
0.0
 11
1.628295
 21
3.343503
 31
0.0
  0
LINE
  5
2C7
100
AcDbEntity
 67
     1
  8
1
  6
Continuous
 62
     7
100
AcDbLine
 10
1.630138
 20
6.354576
 30
0.0
 11
1.628295
 21
6.354576
 31
0.0
  0
LINE
  5
2C8
100
AcDbEntity
 67
     1
  8
1
  6
Continuous
 62
     7
100
AcDbLine
 10
1.630138
 20
6.354576
 30
0.0
 11
1.628295
 21
6.354576
 31
0.0
  0
LINE
  5
2C9
100
AcDbEntity
 67
     1
  8
1
  6
Continuous
 62
     7
100
AcDbLine
 10
1.630138
 20
6.348576
 30
0.0
 11
1.605903
 21
6.348576
 31
0.0
  0
LINE
  5
2CA
100
AcDbEntity
 67
     1
  8
1
  6
Continuous
 62
     7
100
AcDbLine
 10
5.096603
 20
5.485824
 30
0.0
 11
5.096603
 21
5.524987
 31
0.0
  0
LINE
  5
2CB
100
AcDbEntity
 67
     1
  8
1
  6
Continuous
 62
     7
100
AcDbLine
 10
5.800874
 20
7.407612
 30
0.0
 11
5.800874
 21
7.404886
 31
0.0
  0
LINE
  5
2CC
100
AcDbEntity
 67
     1
  8
1
  6
Continuous
 62
     7
100
AcDbLine
 10
11.288
 20
3.504994
 30
0.0
 11
11.247632
 21
3.587009
 31
0.0
  0
LINE
  5
2CD
100
AcDbEntity
 67
     1
  8
1
  6
Continuous
 62
     7
100
AcDbLine
 10
4.229669
 20
3.746119
 30
0.0
 11
4.229669
 21
3.744277
 31
0.0
  0
LINE
  5
2CE
100
AcDbEntity
 67
     1
  8
1
  6
Continuous
 62
     7
100
AcDbLine
 10
11.800874
 20
5.741119
 30
0.0
 11
11.800874
 21
5.738191
 31
0.0
  0
LINE
  5
2CF
100
AcDbEntity
 67
     1
  8
1
  6
Continuous
 62
     7
100
AcDbLine
 10
1.556502
 20
5.400058
 30
0.0
 11
1.642763
 21
5.48756
 31
0.0
  0
LINE
  5
2D0
100
AcDbEntity
 67
     1
  8
1
  6
Continuous
 62
     7
100
AcDbLine
 10
12.345078
 20
5.848748
 30
0.0
 11
12.29273
 21
5.773809
 31
0.0
  0
LINE
  5
2D1
100
AcDbEntity
 67
     1
  8
1
  6
Continuous
 62
     7
100
AcDbLine
 10
1.535138
 20
3.621119
 30
0.0
 11
3.725138
 21
3.621119
 31
0.0
  0
LINE
  5
2D2
100
AcDbEntity
 67
     1
  8
1
  6
Continuous
 62
     7
100
AcDbLine
 10
1.380588
 20
4.446101
 30
0.0
 11
1.464535
 21
4.446054
 31
0.0
  0
LINE
  5
2D3
100
AcDbEntity
 67
     1
  8
1
  6
Continuous
 62
     7
100
AcDbLine
 10
7.606014
 20
0.440085
 30
0.0
 11
7.606014
 21
2.257467
 31
0.0
  0
LINE
  5
2D4
100
AcDbEntity
 67
     1
  8
1
  6
Continuous
 62
     7
100
AcDbLine
 10
1.380571
 20
4.416101
 30
0.0
 11
1.434662
 21
4.41607
 31
0.0
  0
LINE
  5
2D5
100
AcDbEntity
 67
     1
  8
1
  6
Continuous
 62
     7
100
AcDbLine
 10
1.630138
 20
3.287503
 30
0.0
 11
1.590975
 21
3.287503
 31
0.0
  0
LINE
  5
2D6
100
AcDbEntity
 67
     1
  8
1
  6
Continuous
 62
     7
100
AcDbLine
 10
1.630138
 20
6.320576
 30
0.0
 11
1.50887
 21
6.320576
 31
0.0
  0
LINE
  5
2D7
100
AcDbEntity
 67
     1
  8
1
  6
Continuous
 62
     7
100
AcDbLine
 10
12.280874
 20
7.325506
 30
0.0
 11
12.915109
 21
6.649064
 31
0.0
  0
LINE
  5
2D8
100
AcDbEntity
 67
     1
  8
1
  6
Continuous
 62
     7
100
AcDbLine
 10
4.199668
 20
5.616119
 30
0.0
 11
4.199668
 21
5.729923
 31
0.0
  0
LINE
  5
2D9
100
AcDbEntity
 67
     1
  8
1
  6
Continuous
 62
     7
100
AcDbLine
 10
5.122603
 20
5.485824
 30
0.0
 11
5.122603
 21
5.599627
 31
0.0
  0
LINE
  5
2DA
100
AcDbEntity
 67
     1
  8
1
  6
Continuous
 62
     7
100
AcDbLine
 10
12.384609
 20
7.251418
 30
0.0
 11
12.362927
 21
7.274542
 31
0.0
  0
LINE
  5
2DB
100
AcDbEntity
 67
     1
  8
1
  6
Continuous
 62
     7
100
AcDbLine
 10
11.800749
 20
7.325506
 30
0.0
 11
5.800874
 21
7.325506
 31
0.0
  0
LINE
  5
2DC
100
AcDbEntity
 67
     1
  8
1
  6
Continuous
 62
     7
100
AcDbLine
 10
4.203669
 20
3.746119
 30
0.0
 11
4.203669
 21
3.647244
 31
0.0
  0
LINE
  5
2DD
100
AcDbEntity
 67
     1
  8
1
  6
Continuous
 62
     7
100
AcDbLine
 10
3.675101
 20
3.716395
 30
0.0
 11
3.674222
 21
5.268727
 31
0.0
  0
LINE
  5
2DE
100
AcDbEntity
 67
     1
  8
1
  6
Continuous
 62
     7
100
AcDbLine
 10
1.630138
 20
6.292576
 30
0.0
 11
1.613367
 21
6.292576
 31
0.0
  0
LINE
  5
2DF
100
AcDbEntity
 67
     1
  8
1
  6
Continuous
 62
     7
100
AcDbLine
 10
12.37951
 20
5.824696
 30
0.0
 11
12.378454
 21
5.823185
 31
0.0
  0
LINE
  5
2E0
100
AcDbEntity
 67
     1
  8
1
  6
Continuous
 62
     7
100
AcDbLine
 10
1.710583
 20
4.437914
 30
0.0
 11
1.596779
 21
4.437979
 31
0.0
  0
LINE
  5
2E1
100
AcDbEntity
 67
     1
  8
1
  6
Continuous
 62
     7
100
AcDbLine
 10
1.630138
 20
3.325503
 30
0.0
 11
1.561118
 21
3.325503
 31
0.0
  0
LINE
  5
2E2
100
AcDbEntity
 67
     1
  8
1
  6
Continuous
 62
     7
100
AcDbLine
 10
11.277233
 20
3.499695
 30
0.0
 11
11.256642
 21
3.541529
 31
0.0
  0
LINE
  5
2E3
100
AcDbEntity
 67
     1
  8
1
  6
Continuous
 62
     7
100
AcDbLine
 10
15.31887
 20
6.677911
 30
0.0
 11
15.188966
 21
6.452911
 31
0.0
  0
LINE
  5
2E4
100
AcDbEntity
 67
     1
  8
1
  6
Continuous
 62
     7
100
AcDbLine
 10
5.800874
 20
7.416623
 30
0.0
 11
5.800874
 21
7.410449
 31
0.0
  0
LINE
  5
2E5
100
AcDbEntity
 67
     1
  8
1
  6
Continuous
 62
     7
100
AcDbLine
 10
5.140603
 20
3.746119
 30
0.0
 11
5.140603
 21
3.699492
 31
0.0
  0
LINE
  5
2E6
100
AcDbEntity
 67
     1
  8
1
  6
Continuous
 62
     7
100
AcDbLine
 10
4.927978
 20
4.610347
 30
0.0
 11
4.927978
 21
4.441597
 31
0.0
  0
LINE
  5
2E7
100
AcDbEntity
 67
     1
  8
1
  6
Continuous
 62
     7
100
AcDbLine
 10
3.755138
 20
3.310503
 30
0.0
 11
3.630138
 21
3.343996
 31
0.0
  0
LINE
  5
2E8
100
AcDbEntity
 67
     1
  8
1
  6
Continuous
 62
     7
100
AcDbLine
 10
15.757872
 20
4.605405
 30
0.0
 11
15.716458
 21
4.529691
 31
0.0
  0
LINE
  5
2E9
100
AcDbEntity
 67
     1
  8
1
  6
Continuous
 62
     7
100
AcDbLine
 10
1.380594
 20
4.458101
 30
0.0
 11
1.419757
 21
4.458079
 31
0.0
  0
LINE
  5
2EA
100
AcDbEntity
 67
     1
  8
1
  6
Continuous
 62
     7
100
AcDbLine
 10
5.148603
 20
3.746119
 30
0.0
 11
5.148603
 21
3.729349
 31
0.0
  0
LINE
  5
2EB
100
AcDbEntity
 67
     1
  8
1
  6
Continuous
 62
     7
100
AcDbLine
 10
3.685138
 20
5.681119
 30
0.0
 11
1.575138
 21
5.681119
 31
0.0
  0
LINE
  5
2EC
100
AcDbEntity
 67
     1
  8
1
  6
Continuous
 62
     7
100
AcDbLine
 10
1.380586
 20
4.444101
 30
0.0
 11
1.471998
 21
4.444049
 31
0.0
  0
LINE
  5
2ED
100
AcDbEntity
 67
     1
  8
1
  6
Continuous
 62
     7
100
AcDbLine
 10
11.302355
 20
3.512059
 30
0.0
 11
11.258691
 21
3.600772
 31
0.0
  0
LINE
  5
2EE
100
AcDbEntity
 67
     1
  8
1
  6
Continuous
 62
     7
100
AcDbLine
 10
5.090603
 20
3.746119
 30
0.0
 11
5.090603
 21
3.729349
 31
0.0
  0
LINE
  5
2EF
100
AcDbEntity
 67
     1
  8
1
  6
Continuous
 62
     7
100
AcDbLine
 10
5.104603
 20
3.746119
 30
0.0
 11
5.104603
 21
3.6771
 31
0.0
  0
LINE
  5
2F0
100
AcDbEntity
 67
     1
  8
1
  6
Continuous
 62
     7
100
AcDbLine
 10
1.630138
 20
3.289503
 30
0.0
 11
1.583511
 21
3.289503
 31
0.0
  0
LINE
  5
2F1
100
AcDbEntity
 67
     1
  8
1
  6
Continuous
 62
     7
100
AcDbLine
 10
1.710569
 20
4.413915
 30
0.0
 11
1.663942
 21
4.413941
 31
0.0
  0
LINE
  5
2F2
100
AcDbEntity
 67
     1
  8
1
  6
Continuous
 62
     7
100
AcDbLine
 10
0.813973
 20
1.56286
 30
0.0
 11
0.684069
 21
1.33786
 31
0.0
  0
LINE
  5
2F3
100
AcDbEntity
 67
     1
  8
1
  6
Continuous
 62
     7
100
AcDbLine
 10
12.340159
 20
5.852184
 30
0.0
 11
12.300635
 21
5.795602
 31
0.0
  0
LINE
  5
2F4
100
AcDbEntity
 67
     1
  8
1
  6
Continuous
 62
     7
100
AcDbLine
 10
1.38058
 20
4.432101
 30
0.0
 11
1.494383
 21
4.432037
 31
0.0
  0
LINE
  5
2F5
100
AcDbEntity
 67
     1
  8
1
  6
Continuous
 62
     7
100
AcDbLine
 10
4.175668
 20
5.616119
 30
0.0
 11
4.175668
 21
5.662746
 31
0.0
  0
LINE
  5
2F6
100
AcDbEntity
 67
     1
  8
1
  6
Continuous
 62
     7
100
AcDbLine
 10
5.389978
 20
4.610347
 30
0.0
 11
5.344978
 21
4.610347
 31
0.0
  0
LINE
  5
2F7
100
AcDbEntity
 67
     1
  8
1
  6
Continuous
 62
     7
100
AcDbLine
 10
5.138603
 20
3.746119
 30
0.0
 11
5.138603
 21
3.692029
 31
0.0
  0
LINE
  5
2F8
100
AcDbEntity
 67
     1
  8
1
  6
Continuous
 62
     7
100
AcDbLine
 10
3.630138
 20
3.329503
 30
0.0
 11
3.684229
 21
3.329503
 31
0.0
  0
LINE
  5
2F9
100
AcDbEntity
 67
     1
  8
1
  6
Continuous
 62
     7
100
AcDbLine
 10
5.119603
 20
5.610824
 30
0.0
 11
5.086109
 21
5.485824
 31
0.0
  0
LINE
  5
2FA
100
AcDbEntity
 67
     1
  8
1
  6
Continuous
 62
     7
100
AcDbLine
 10
3.630138
 20
3.283503
 30
0.0
 11
3.654372
 21
3.283503
 31
0.0
  0
LINE
  5
2FB
100
AcDbEntity
 67
     1
  8
1
  6
Continuous
 62
     7
100
AcDbLine
 10
5.800874
 20
7.410449
 30
0.0
 11
5.800874
 21
7.407612
 31
0.0
  0
LINE
  5
2FC
100
AcDbEntity
 67
     1
  8
1
  6
Continuous
 62
     7
100
AcDbLine
 10
1.38059
 20
4.450101
 30
0.0
 11
1.449609
 21
4.450062
 31
0.0
  0
LINE
  5
2FD
100
AcDbEntity
 67
     1
  8
1
  6
Continuous
 62
     7
100
AcDbLine
 10
15.983668
 20
5.42112
 30
0.0
 11
11.800874
 21
5.42112
 31
0.0
  0
LINE
  5
2FE
100
AcDbEntity
 67
     1
  8
1
  6
Continuous
 62
     7
100
AcDbLine
 10
11.307738
 20
3.514709
 30
0.0
 11
11.273963
 21
3.583331
 31
0.0
  0
LINE
  5
2FF
100
AcDbEntity
 67
     1
  8
1
  6
Continuous
 62
     7
100
AcDbLine
 10
1.630138
 20
3.283503
 30
0.0
 11
1.605903
 21
3.283503
 31
0.0
  0
LINE
  5
300
100
AcDbEntity
 67
     1
  8
1
  6
Continuous
 62
     7
100
AcDbLine
 10
1.630138
 20
6.316576
 30
0.0
 11
1.523798
 21
6.316576
 31
0.0
  0
LINE
  5
301
100
AcDbEntity
 67
     1
  8
1
  6
Continuous
 62
     7
100
AcDbLine
 10
13.165109
 20
6.649064
 30
0.0
 11
12.915109
 21
6.649064
 31
0.0
  0
LINE
  5
302
100
AcDbEntity
 67
     1
  8
1
  6
Continuous
 62
     7
100
AcDbLine
 10
16.369932
 20
0.440085
 30
0.0
 11
0.633067
 21
0.440085
 31
0.0
  0
LINE
  5
303
100
AcDbEntity
 67
     1
  8
1
  6
Continuous
 62
     7
100
AcDbLine
 10
1.630138
 20
3.297503
 30
0.0
 11
1.553654
 21
3.297503
 31
0.0
  0
LINE
  5
304
100
AcDbEntity
 67
     1
  8
1
  6
Continuous
 62
     7
100
AcDbLine
 10
5.126603
 20
5.485824
 30
0.0
 11
5.126603
 21
5.5847
 31
0.0
  0
LINE
  5
305
100
AcDbEntity
 67
     1
  8
1
  6
Continuous
 62
     7
100
AcDbLine
 10
1.630138
 20
6.326576
 30
0.0
 11
1.523798
 21
6.326576
 31
0.0
  0
LINE
  5
306
100
AcDbEntity
 67
     1
  8
1
  6
Continuous
 62
     7
100
AcDbLine
 10
8.214109
 20
0.440085
 30
0.0
 11
8.214109
 21
2.257467
 31
0.0
  0
LINE
  5
307
100
AcDbEntity
 67
     1
  8
1
  6
Continuous
 62
     7
100
AcDbLine
 10
5.146603
 20
3.746119
 30
0.0
 11
5.146603
 21
3.721885
 31
0.0
  0
LINE
  5
308
100
AcDbEntity
 67
     1
  8
1
  6
Continuous
 62
     7
100
AcDbLine
 10
5.119603
 20
3.621119
 30
0.0
 11
5.119603
 21
4.379097
 31
0.0
  0
LINE
  5
309
100
AcDbEntity
 67
     1
  8
1
  6
Continuous
 62
     7
100
AcDbLine
 10
15.654913
 20
3.848262
 30
0.0
 11
15.695267
 21
3.772548
 31
0.0
  0
LINE
  5
30A
100
AcDbEntity
 67
     1
  8
1
  6
Continuous
 62
     7
100
AcDbLine
 10
1.3806
 20
4.468101
 30
0.0
 11
1.382442
 21
4.4681
 31
0.0
  0
LINE
  5
30B
100
AcDbEntity
 67
     1
  8
1
  6
Continuous
 62
     7
100
AcDbLine
 10
15.808597
 20
5.73112
 30
0.0
 11
11.800874
 21
5.73112
 31
0.0
  0
LINE
  5
30C
100
AcDbEntity
 67
     1
  8
1
  6
Continuous
 62
     7
100
AcDbLine
 10
3.630138
 20
3.291502
 30
0.0
 11
3.684229
 21
3.291502
 31
0.0
  0
LINE
  5
30D
100
AcDbEntity
 67
     1
  8
1
  6
Continuous
 62
     7
100
AcDbLine
 10
5.114603
 20
5.485824
 30
0.0
 11
5.114603
 21
5.592164
 31
0.0
  0
LINE
  5
30E
100
AcDbEntity
 67
     1
  8
1
  6
Continuous
 62
     7
100
AcDbLine
 10
2.399138
 20
6.017826
 30
0.0
 11
2.444138
 21
6.017826
 31
0.0
  0
LINE
  5
30F
100
AcDbEntity
 67
     1
  8
1
  6
Continuous
 62
     7
100
AcDbLine
 10
1.630138
 20
3.291502
 30
0.0
 11
1.576047
 21
3.291502
 31
0.0
  0
LINE
  5
310
100
AcDbEntity
 67
     1
  8
1
  6
Continuous
 62
     7
100
AcDbLine
 10
4.196669
 20
3.621119
 30
0.0
 11
4.230162
 21
3.746119
 31
0.0
  0
LINE
  5
311
100
AcDbEntity
 67
     1
  8
1
  6
Continuous
 62
     7
100
AcDbLine
 10
5.150603
 20
3.746119
 30
0.0
 11
5.150603
 21
3.736813
 31
0.0
  0
LINE
  5
312
100
AcDbEntity
 67
     1
  8
1
  6
Continuous
 62
     7
100
AcDbLine
 10
14.476377
 20
1.227643
 30
0.0
 11
14.476377
 21
0.440085
 31
0.0
  0
LINE
  5
313
100
AcDbEntity
 67
     1
  8
1
  6
Continuous
 62
     7
100
AcDbLine
 10
1.630138
 20
3.293503
 30
0.0
 11
1.568583
 21
3.293503
 31
0.0
  0
LINE
  5
314
100
AcDbEntity
 67
     1
  8
1
  6
Continuous
 62
     7
100
AcDbLine
 10
1.630138
 20
3.337502
 30
0.0
 11
1.605903
 21
3.337502
 31
0.0
  0
LINE
  5
315
100
AcDbEntity
 67
     1
  8
1
  6
Continuous
 62
     7
100
AcDbLine
 10
1.505581
 20
4.43503
 30
0.0
 11
1.3806
 21
4.468595
 31
0.0
  0
LINE
  5
316
100
AcDbEntity
 67
     1
  8
1
  6
Continuous
 62
     7
100
AcDbLine
 10
5.108603
 20
5.485824
 30
0.0
 11
5.108603
 21
5.569771
 31
0.0
  0
LINE
  5
317
100
AcDbEntity
 67
     1
  8
1
  6
Continuous
 62
     7
100
AcDbLine
 10
2.861138
 20
6.017826
 30
0.0
 11
2.861138
 21
6.186576
 31
0.0
  0
LINE
  5
318
100
AcDbEntity
 67
     1
  8
1
  6
Continuous
 62
     7
100
AcDbLine
 10
5.090603
 20
5.485824
 30
0.0
 11
5.090603
 21
5.502594
 31
0.0
  0
LINE
  5
319
100
AcDbEntity
 67
     1
  8
1
  6
Continuous
 62
     7
100
AcDbLine
 10
12.328682
 20
5.860201
 30
0.0
 11
12.319078
 21
5.846452
 31
0.0
  0
LINE
  5
31A
100
AcDbEntity
 67
     1
  8
1
  6
Continuous
 62
     7
100
AcDbLine
 10
16.001265
 20
8.87238
 30
0.0
 11
15.978225
 21
8.802068
 31
0.0
  0
LINE
  5
31B
100
AcDbEntity
 67
     1
  8
1
  6
Continuous
 62
     7
100
AcDbLine
 10
3.630138
 20
6.306576
 30
0.0
 11
3.699157
 21
6.306576
 31
0.0
  0
LINE
  5
31C
100
AcDbEntity
 67
     1
  8
1
  6
Continuous
 62
     7
100
AcDbLine
 10
1.630138
 20
6.340576
 30
0.0
 11
1.576047
 21
6.340576
 31
0.0
  0
LINE
  5
31D
100
AcDbEntity
 67
     1
  8
1
  6
Continuous
 62
     7
100
AcDbLine
 10
5.120603
 20
3.746119
 30
0.0
 11
5.120603
 21
3.624851
 31
0.0
  0
LINE
  5
31E
100
AcDbEntity
 67
     1
  8
1
  6
Continuous
 62
     7
100
AcDbLine
 10
3.630138
 20
6.320576
 30
0.0
 11
3.751406
 21
6.320576
 31
0.0
  0
LINE
  5
31F
100
AcDbEntity
 67
     1
  8
1
  6
Continuous
 62
     7
100
AcDbLine
 10
1.380583
 20
4.438101
 30
0.0
 11
1.494387
 21
4.438037
 31
0.0
  0
LINE
  5
320
100
AcDbEntity
 67
     1
  8
1
  6
Continuous
 62
     7
100
AcDbLine
 10
3.630138
 20
3.309503
 30
0.0
 11
3.751406
 21
3.309503
 31
0.0
  0
LINE
  5
321
100
AcDbEntity
 67
     1
  8
1
  6
Continuous
 62
     7
100
AcDbLine
 10
5.118603
 20
5.485824
 30
0.0
 11
5.118603
 21
5.607092
 31
0.0
  0
LINE
  5
322
100
AcDbEntity
 67
     1
  8
1
  6
Continuous
 62
     7
100
AcDbLine
 10
5.096603
 20
3.746119
 30
0.0
 11
5.096603
 21
3.706957
 31
0.0
  0
LINE
  5
323
100
AcDbEntity
 67
     1
  8
1
  6
Continuous
 62
     7
100
AcDbLine
 10
3.745138
 20
5.741119
 30
0.0
 11
1.515138
 21
5.741119
 31
0.0
  0
LINE
  5
324
100
AcDbEntity
 67
     1
  8
1
  6
Continuous
 62
     7
100
AcDbLine
 10
12.351637
 20
5.844166
 30
0.0
 11
12.282191
 21
5.744751
 31
0.0
  0
LINE
  5
325
100
AcDbEntity
 67
     1
  8
1
  6
Continuous
 62
     7
100
AcDbLine
 10
15.575874
 20
7.888006
 30
0.0
 11
15.576313
 21
7.817693
 31
0.0
  0
LINE
  5
326
100
AcDbEntity
 67
     1
  8
1
  6
Continuous
 62
     7
100
AcDbLine
 10
16.004009
 20
5.341357
 30
0.0
 11
11.800874
 21
5.341357
 31
0.0
  0
LINE
  5
327
100
AcDbEntity
 67
     1
  8
1
  6
Continuous
 62
     7
100
AcDbLine
 10
1.630138
 20
3.281502
 30
0.0
 11
1.613367
 21
3.281502
 31
0.0
  0
LINE
  5
328
100
AcDbEntity
 67
     1
  8
1
  6
Continuous
 62
     7
100
AcDbLine
 10
12.205371
 20
1.741555
 30
0.0
 11
6.526266
 21
1.741555
 31
0.0
  0
LINE
  5
329
100
AcDbEntity
 67
     1
  8
1
  6
Continuous
 62
     7
100
AcDbLine
 10
15.7477
 20
7.395818
 30
0.0
 11
15.800874
 21
7.325506
 31
0.0
  0
LINE
  5
32A
100
AcDbEntity
 67
     1
  8
1
  6
Continuous
 62
     7
100
AcDbLine
 10
4.193668
 20
5.616119
 30
0.0
 11
4.193668
 21
5.729923
 31
0.0
  0
LINE
  5
32B
100
AcDbEntity
 67
     1
  8
1
  6
Continuous
 62
     7
100
AcDbLine
 10
1.630138
 20
3.285502
 30
0.0
 11
1.598439
 21
3.285502
 31
0.0
  0
LINE
  5
32C
100
AcDbEntity
 67
     1
  8
1
  6
Continuous
 62
     7
100
AcDbLine
 10
1.630138
 20
6.318576
 30
0.0
 11
1.516334
 21
6.318576
 31
0.0
  0
LINE
  5
32D
100
AcDbEntity
 67
     1
  8
1
  6
Continuous
 62
     7
100
AcDbLine
 10
1.630138
 20
3.299503
 30
0.0
 11
1.54619
 21
3.299503
 31
0.0
  0
LINE
  5
32E
100
AcDbEntity
 67
     1
  8
1
  6
Continuous
 62
     7
100
AcDbLine
 10
16.369932
 20
10.641915
 30
0.0
 11
0.633067
 21
10.641915
 31
0.0
  0
LINE
  5
32F
100
AcDbEntity
 67
     1
  8
1
  6
Continuous
 62
     7
100
AcDbLine
 10
15.808596
 20
9.565506
 30
0.0
 11
11.800874
 21
9.565506
 31
0.0
  0
LINE
  5
330
100
AcDbEntity
 67
     1
  8
1
  6
Continuous
 62
     7
100
AcDbLine
 10
12.380232
 20
7.247314
 30
0.0
 11
12.343235
 21
7.286773
 31
0.0
  0
LINE
  5
331
100
AcDbEntity
 67
     1
  8
1
  6
Continuous
 62
     7
100
AcDbLine
 10
5.800874
 20
3.651136
 30
0.0
 11
5.800874
 21
5.32005
 31
0.0
  0
LINE
  5
332
100
AcDbEntity
 67
     1
  8
1
  6
Continuous
 62
     7
100
AcDbLine
 10
6.526266
 20
1.227643
 30
0.0
 11
12.205371
 21
1.227643
 31
0.0
  0
LINE
  5
333
100
AcDbEntity
 67
     1
  8
1
  6
Continuous
 62
     7
100
AcDbLine
 10
3.630138
 20
3.279503
 30
0.0
 11
3.639444
 21
3.279503
 31
0.0
  0
LINE
  5
334
100
AcDbEntity
 67
     1
  8
1
  6
Continuous
 62
     7
100
AcDbLine
 10
5.088603
 20
5.485824
 30
0.0
 11
5.088603
 21
5.49513
 31
0.0
  0
LINE
  5
335
100
AcDbEntity
 67
     1
  8
1
  6
Continuous
 62
     7
100
AcDbLine
 10
15.188966
 20
6.452911
 30
0.0
 11
15.448773
 21
6.452911
 31
0.0
  0
LINE
  5
336
100
AcDbEntity
 67
     1
  8
1
  6
Continuous
 62
     7
100
AcDbLine
 10
1.380584
 20
4.440101
 30
0.0
 11
1.486924
 21
4.440041
 31
0.0
  0
LINE
  5
337
100
AcDbEntity
 67
     1
  8
1
  6
Continuous
 62
     7
100
AcDbLine
 10
15.940808
 20
9.364568
 30
0.0
 11
15.973641
 21
9.294255
 31
0.0
  0
LINE
  5
338
100
AcDbEntity
 67
     1
  8
1
  6
Continuous
 62
     7
100
AcDbLine
 10
15.584224
 20
7.958318
 30
0.0
 11
15.575874
 21
7.888006
 31
0.0
  0
LINE
  5
339
100
AcDbEntity
 67
     1
  8
1
  6
Continuous
 62
     7
100
AcDbLine
 10
1.380566
 20
4.408101
 30
0.0
 11
1.404801
 21
4.408087
 31
0.0
  0
LINE
  5
33A
100
AcDbEntity
 67
     1
  8
1
  6
Continuous
 62
     7
100
AcDbLine
 10
1.630138
 20
3.279503
 30
0.0
 11
1.620831
 21
3.279503
 31
0.0
  0
LINE
  5
33B
100
AcDbEntity
 67
     1
  8
1
  6
Continuous
 62
     7
100
AcDbLine
 10
12.977928
 20
0.440085
 30
0.0
 11
12.977928
 21
1.227643
 31
0.0
  0
LINE
  5
33C
100
AcDbEntity
 67
     1
  8
1
  6
Continuous
 62
     7
100
AcDbLine
 10
4.972978
 20
4.610347
 30
0.0
 11
4.927978
 21
4.610347
 31
0.0
  0
LINE
  5
33D
100
AcDbEntity
 67
     1
  8
1
  6
Continuous
 62
     7
100
AcDbLine
 10
1.71058
 20
4.431914
 30
0.0
 11
1.596776
 21
4.431979
 31
0.0
  0
LINE
  5
33E
100
AcDbEntity
 67
     1
  8
1
  6
Continuous
 62
     7
100
AcDbLine
 10
5.800874
 20
5.517618
 30
0.0
 11
5.800874
 21
5.542897
 31
0.0
  0
LINE
  5
33F
100
AcDbEntity
 67
     1
  8
1
  6
Continuous
 62
     7
100
AcDbLine
 10
5.134603
 20
3.746119
 30
0.0
 11
5.134603
 21
3.6771
 31
0.0
  0
LINE
  5
340
100
AcDbEntity
 67
     1
  8
1
  6
Continuous
 62
     7
100
AcDbLine
 10
1.630138
 20
3.295502
 30
0.0
 11
1.561118
 21
3.295502
 31
0.0
  0
LINE
  5
341
100
AcDbEntity
 67
     1
  8
1
  6
Continuous
 62
     7
100
AcDbLine
 10
1.710588
 20
4.445914
 30
0.0
 11
1.62664
 21
4.445962
 31
0.0
  0
LINE
  5
342
100
AcDbEntity
 67
     1
  8
1
  6
Continuous
 62
     7
100
AcDbLine
 10
4.169668
 20
5.616119
 30
0.0
 11
4.169668
 21
5.640354
 31
0.0
  0
LINE
  5
343
100
AcDbEntity
 67
     1
  8
1
  6
Continuous
 62
     7
100
AcDbLine
 10
15.588864
 20
4.151119
 30
0.0
 11
15.590013
 21
4.075405
 31
0.0
  0
LINE
  5
344
100
AcDbEntity
 67
     1
  8
1
  6
Continuous
 62
     7
100
AcDbLine
 10
4.927978
 20
4.441597
 30
0.0
 11
4.972978
 21
4.441597
 31
0.0
  0
LINE
  5
345
100
AcDbEntity
 67
     1
  8
1
  6
Continuous
 62
     7
100
AcDbLine
 10
1.630138
 20
6.334576
 30
0.0
 11
1.553654
 21
6.334576
 31
0.0
  0
LINE
  5
346
100
AcDbEntity
 67
     1
  8
1
  6
Continuous
 62
     7
100
AcDbLine
 10
2.399138
 20
3.006752
 30
0.0
 11
2.444138
 21
3.006752
 31
0.0
  0
LINE
  5
347
100
AcDbEntity
 67
     1
  8
1
  6
Continuous
 62
     7
100
AcDbLine
 10
1.630138
 20
3.343996
 30
0.0
 11
1.505138
 21
3.310503
 31
0.0
  0
LINE
  5
348
100
AcDbEntity
 67
     1
  8
1
  6
Continuous
 62
     7
100
AcDbLine
 10
5.800874
 20
5.553108
 30
0.0
 11
5.800874
 21
5.546877
 31
0.0
  0
LINE
  5
349
100
AcDbEntity
 67
     1
  8
1
  6
Continuous
 62
     7
100
AcDbLine
 10
1.380579
 20
4.430101
 30
0.0
 11
1.486918
 21
4.430041
 31
0.0
  0
LINE
  5
34A
100
AcDbEntity
 67
     1
  8
1
  6
Continuous
 62
     7
100
AcDbLine
 10
15.956989
 20
4.983977
 30
0.0
 11
15.923523
 21
4.908262
 31
0.0
  0
LINE
  5
34B
100
AcDbEntity
 67
     1
  8
1
  6
Continuous
 62
     7
100
AcDbLine
 10
5.389978
 20
4.441597
 30
0.0
 11
5.389978
 21
4.610347
 31
0.0
  0
LINE
  5
34C
100
AcDbEntity
 67
     1
  8
1
  6
Continuous
 62
     7
100
AcDbLine
 10
1.710599
 20
4.465914
 30
0.0
 11
1.701292
 21
4.465919
 31
0.0
  0
LINE
  5
34D
100
AcDbEntity
 67
     1
  8
1
  6
Continuous
 62
     7
100
AcDbLine
 10
3.630138
 20
3.343503
 30
0.0
 11
3.63198
 21
3.343503
 31
0.0
  0
LINE
  5
34E
100
AcDbEntity
 67
     1
  8
1
  6
Continuous
 62
     7
100
AcDbLine
 10
5.126603
 20
3.746119
 30
0.0
 11
5.126603
 21
3.647244
 31
0.0
  0
LINE
  5
34F
100
AcDbEntity
 67
     1
  8
1
  6
Continuous
 62
     7
100
AcDbLine
 10
4.189669
 20
3.746119
 30
0.0
 11
4.189669
 21
3.647244
 31
0.0
  0
ARC
  5
350
100
AcDbEntity
 67
     1
  8
1
  6
Continuous
 62
     7
100
AcDbCircle
 10
3.518097
 20
5.580824
 30
0.0
 40
0.03
100
AcDbArc
 50
84.5
 51
184.5
  0
ARC
  5
351
100
AcDbEntity
 67
     1
  8
1
  6
Continuous
 62
     7
100
AcDbCircle
 10
3.685138
 20
5.519889
 30
0.0
 40
0.01
100
AcDbArc
 50
277.5
 51
360.0
  0
ARC
  5
352
100
AcDbEntity
 67
     1
  8
1
  6
Continuous
 62
     7
100
AcDbCircle
 10
1.735274
 20
5.493095
 30
0.0
 40
0.03
100
AcDbArc
 50
318.358624
 51
355.5
  0
ARC
  5
353
100
AcDbEntity
 67
     1
  8
1
  6
Continuous
 62
     7
100
AcDbCircle
 10
3.745138
 20
5.73112
 30
0.0
 40
0.01
100
AcDbArc
 50
0.0
 51
90.0
  0
ARC
  5
354
100
AcDbEntity
 67
     1
  8
1
  6
Continuous
 62
     7
100
AcDbCircle
 10
1.594487
 20
5.552324
 30
0.0
 40
0.01
100
AcDbArc
 50
175.5
 51
250.500001
  0
ARC
  5
355
100
AcDbEntity
 67
     1
  8
1
  6
Continuous
 62
     7
100
AcDbCircle
 10
3.724193
 20
5.320033
 30
0.0
 40
0.03
100
AcDbArc
 50
0.032421
 51
45.30043
  0
ARC
  5
356
100
AcDbEntity
 67
     1
  8
1
  6
Continuous
 62
     7
100
AcDbCircle
 10
3.623388
 20
5.493352
 30
0.0
 40
0.00825
100
AcDbArc
 50
97.5
 51
224.590932
  0
ARC
  5
357
100
AcDbEntity
 67
     1
  8
1
  6
Continuous
 62
     7
100
AcDbCircle
 10
1.535138
 20
3.651119
 30
0.0
 40
0.03
100
AcDbArc
 50
179.967579
 51
270.0
  0
ARC
  5
358
100
AcDbEntity
 67
     1
  8
1
  6
Continuous
 62
     7
100
AcDbCircle
 10
3.663062
 20
5.586958
 30
0.0
 40
0.01
100
AcDbArc
 50
4.5
 51
84.5
  0
ARC
  5
359
100
AcDbEntity
 67
     1
  8
1
  6
Continuous
 62
     7
100
AcDbCircle
 10
1.535138
 20
5.42112
 30
0.0
 40
0.03
100
AcDbArc
 50
180.0
 51
315.409064
  0
ARC
  5
35A
100
AcDbEntity
 67
     1
  8
1
  6
Continuous
 62
     7
100
AcDbCircle
 10
3.644222
 20
5.26871
 30
0.0
 40
0.03
100
AcDbArc
 50
0.032421
 51
41.641376
  0
ARC
  5
35B
100
AcDbEntity
 67
     1
  8
1
  6
Continuous
 62
     7
100
AcDbCircle
 10
3.665788
 20
5.552324
 30
0.0
 40
0.01
100
AcDbArc
 50
289.499999
 51
364.5
  0
ARC
  5
35C
100
AcDbEntity
 67
     1
  8
1
  6
Continuous
 62
     7
100
AcDbCircle
 10
1.742179
 20
5.580824
 30
0.0
 40
0.03
100
AcDbArc
 50
355.5
 51
455.5
  0
ARC
  5
35D
100
AcDbEntity
 67
     1
  8
1
  6
Continuous
 62
     7
100
AcDbCircle
 10
1.657529
 20
5.503479
 30
0.0
 40
0.015
100
AcDbArc
 50
318.358624
 51
430.499999
  0
ARC
  5
35E
100
AcDbEntity
 67
     1
  8
1
  6
Continuous
 62
     7
100
AcDbCircle
 10
3.602746
 20
5.503479
 30
0.0
 40
0.015
100
AcDbArc
 50
109.500001
 51
221.641376
  0
ARC
  5
35F
100
AcDbEntity
 67
     1
  8
1
  6
Continuous
 62
     7
100
AcDbCircle
 10
3.725138
 20
3.651119
 30
0.0
 40
0.03
100
AcDbArc
 50
270.0
 51
360.032421
  0
ARC
  5
360
100
AcDbEntity
 67
     1
  8
1
  6
Continuous
 62
     7
100
AcDbCircle
 10
3.685138
 20
5.67112
 30
0.0
 40
0.01
100
AcDbArc
 50
0.0
 51
90.0
  0
ARC
  5
361
100
AcDbEntity
 67
     1
  8
1
  6
Continuous
 62
     7
100
AcDbCircle
 10
3.725138
 20
5.42112
 30
0.0
 40
0.03
100
AcDbArc
 50
224.590936
 51
360.0
  0
ARC
  5
362
100
AcDbEntity
 67
     1
  8
1
  6
Continuous
 62
     7
100
AcDbCircle
 10
1.597213
 20
5.586958
 30
0.0
 40
0.01
100
AcDbArc
 50
95.5
 51
175.5
  0
ARC
  5
363
100
AcDbEntity
 67
     1
  8
1
  6
Continuous
 62
     7
100
AcDbCircle
 10
1.575138
 20
5.67112
 30
0.0
 40
0.01
100
AcDbArc
 50
90.0
 51
180.0
  0
ARC
  5
364
100
AcDbEntity
 67
     1
  8
1
  6
Continuous
 62
     7
100
AcDbCircle
 10
1.536082
 20
5.320033
 30
0.0
 40
0.03
100
AcDbArc
 50
134.69957
 51
179.967579
  0
ARC
  5
365
100
AcDbEntity
 67
     1
  8
1
  6
Continuous
 62
     7
100
AcDbCircle
 10
1.515138
 20
5.73112
 30
0.0
 40
0.01
100
AcDbArc
 50
90.0
 51
180.0
  0
ARC
  5
366
100
AcDbEntity
 67
     1
  8
1
  6
Continuous
 62
     7
100
AcDbCircle
 10
3.525001
 20
5.493095
 30
0.0
 40
0.03
100
AcDbArc
 50
184.5
 51
221.641376
  0
ARC
  5
367
100
AcDbEntity
 67
     1
  8
1
  6
Continuous
 62
     7
100
AcDbCircle
 10
1.636887
 20
5.493352
 30
0.0
 40
0.00825
100
AcDbArc
 50
315.409068
 51
442.5
  0
ARC
  5
368
100
AcDbEntity
 67
     1
  8
1
  6
Continuous
 62
     7
100
AcDbCircle
 10
1.575138
 20
5.519889
 30
0.0
 40
0.01
100
AcDbArc
 50
180.0
 51
262.5
  0
ARC
  5
369
100
AcDbEntity
 67
     1
  8
1
  6
Continuous
 62
     7
100
AcDbCircle
 10
1.616053
 20
5.26871
 30
0.0
 40
0.03
100
AcDbArc
 50
138.358624
 51
179.967579
  0
MTEXT
  5
36A
100
AcDbEntity
 67
     1
  8
1
  6
Continuous
 62
     7
100
AcDbMText
 10
14.623236
 20
0.607277
 30
0.0
 40
0.125
 41
0.0
 71
     7
 72
     5
  1
\W01.000;36897-898
  7
blockfont
210
0.0
220
0.0
230
1.0
 73
     2
 44
0.903614
  0
MTEXT
  5
36C
100
AcDbEntity
 67
     1
  8
1
  6
Continuous
 62
     7
100
AcDbMText
 10
2.424138
 20
6.247513
 30
0.0
 40
0.09
 41
0.0
 71
     7
 72
     5
  1
\W01.000;2.25
  7
blockfont
210
0.0
220
0.0
230
1.0
 73
     2
 44
0.903614
  0
MTEXT
  5
36D
100
AcDbEntity
 67
     1
  8
1
  6
Continuous
 62
     7
100
AcDbMText
 10
7.648345
 20
0.77569
 30
0.0
 40
0.067
 41
0.0
 71
     7
 72
     5
  1
\W01.000;JHNU
  7
blockfont
210
0.0
220
0.0
230
1.0
 73
     2
 44
0.903614
  0
MTEXT
  5
36E
100
AcDbEntity
 67
     1
  8
1
  6
Continuous
 62
     7
100
AcDbMText
 10
15.299338
 20
6.453849
 30
0.0
 40
0.09
 41
0.0
 71
     7
 72
     5
  1
\W01.000;A
  7
blockfont
210
0.0
220
0.0
230
1.0
 73
     2
 44
0.903614
  0
MTEXT
  5
36F
100
AcDbEntity
 67
     1
  8
1
  6
Continuous
 62
     7
100
AcDbMText
 10
12.391632
 20
1.025985
 30
0.0
 40
0.072
 41
0.0
 71
     7
 72
     5
  1
\W01.000;JHNU
  7
blockfont
210
0.0
220
0.0
230
1.0
 73
     2
 44
0.903614
  0
MTEXT
  5
370
100
AcDbEntity
 67
     1
  8
1
  6
Continuous
 62
     7
100
AcDbMText
 10
8.39581
 20
1.073623
 30
0.0
 40
0.072
 41
0.0
 71
     7
 72
     5
  1
\W01.000;B. CHANGED DRAWING SIZE         
  7
blockfont
210
0.0
220
0.0
230
1.0
 73
     2
 44
0.903614
  0
MTEXT
  5
371
100
AcDbEntity
 67
     1
  8
1
  6
Continuous
 62
     7
100
AcDbMText
 10
1.064675
 20
1.151936
 30
0.0
 40
0.09
 41
0.0
 71
     7
 72
     5
  1
\W01.000;1. ALL DIMENSIONS ARE REFERENCE ONLY.
  7
blockfont
210
0.0
220
0.0
230
1.0
 73
     2
 44
0.903614
  0
MTEXT
  5
372
100
AcDbEntity
 67
     1
  8
1
  6
Continuous
 62
     7
100
AcDbMText
 10
11.757455
 20
3.048218
 30
0.0
 40
0.09
 41
0.0
 71
     7
 72
     5
  1
\W01.000;         FS2X2**6NM
  7
blockfont
210
0.0
220
0.0
230
1.0
 73
     2
 44
0.903614
  0
MTEXT
  5
373
100
AcDbEntity
 67
     1
  8
1
  6
Continuous
 62
     7
100
AcDbMText
 10
1.028333
 20
10.453232
 30
0.0
 40
0.070866
 41
0.0
 71
     7
 72
     5
  1
\W01.000;THIS COPY IS PROVIDED ON A RESTRICTED BASIS AND IS NOT TO BE USED IN ANY WAY DETRIMENTAL TO THE INTE
  7
blockfont
210
0.0
220
0.0
230
1.0
 73
     2
 44
0.903614
  0
MTEXT
  5
374
100
AcDbEntity
 67
     1
  8
1
  6
Continuous
 62
     7
100
AcDbMText
 10
7.9878
 20
0.506482
 30
0.0
 40
0.059805
 41
0.0
 71
     7
 72
     5
  1
\W01.000;CHK
  7
blockfont
210
0.0
220
0.0
230
1.0
 73
     2
 44
0.903614
  0
MTEXT
  5
375
100
AcDbEntity
 67
     1
  8
1
  6
Continuous
 62
     7
100
AcDbMText
 10
12.261506
 20
0.613807
 30
0.0
 40
0.037378
 41
0.0
 71
     7
 72
     5
  1
\W01.000;CHECKED BY
  7
blockfont
210
0.0
220
0.0
230
1.0
 73
     2
 44
0.903614
  0
MTEXT
  5
376
100
AcDbEntity
 67
     1
  8
1
  6
Continuous
 62
     7
100
AcDbMText
 10
11.757455
 20
3.183218
 30
0.0
 40
0.09
 41
0.0
 71
     7
 72
     5
  1
\W01.000;DUCT - - PART NUMBER
  7
blockfont
210
0.0
220
0.0
230
1.0
 73
     2
 44
0.903614
  0
MTEXT
  5
377
100
AcDbEntity
 67
     1
  8
1
  6
Continuous
 62
     7
100
AcDbMText
 10
1.751112
 20
0.582873
 30
0.0
 40
0.18
 41
0.0
 71
     7
 72
     5
  1
\W01.000;**
  7
blockfont
210
0.0
220
0.0
230
1.0
 73
     2
 44
0.903614
  0
MTEXT
  5
378
100
AcDbEntity
 67
     1
  8
1
  6
Continuous
 62
     7
100
AcDbMText
 10
13.767267
 20
3.062065
 30
0.0
 40
0.09
 41
0.0
 71
     7
 72
     5
  1
\W01.000;A
  7
blockfont
210
0.0
220
0.0
230
1.0
 73
     2
 44
0.903614
  0
MTEXT
  5
379
100
AcDbEntity
 67
     1
  8
1
  6
Continuous
 62
     7
100
AcDbMText
 10
8.749774
 20
10.453232
 30
0.0
 40
0.070866
 41
0.0
 71
     7
 72
     5
  1
\W01.000;RESTS OF PANDUIT CORP.
  7
blockfont
210
0.0
220
0.0
230
1.0
 73
     2
 44
0.903614
  0
MTEXT
  5
37A
100
AcDbEntity
 67
     1
  8
1
  6
Continuous
 62
     7
100
AcDbMText
 10
14.81818
 20
1.796432
 30
0.0
 40
0.056067
 41
0.0
 71
     7
 72
     5
  1
\W01.000;TINLEY PARK, ILLINOIS
  7
blockfont
210
0.0
220
0.0
230
1.0
 73
     2
 44
0.903614
  0
MTEXT
  5
37B
100
AcDbEntity
 67
     1
  8
1
  6
Continuous
 62
     7
100
AcDbMText
 10
13.722902
 20
0.793422
 30
0.0
 40
0.09
 41
0.0
 71
     7
 72
     5
  1
\W01.000;PVC
  7
blockfont
210
0.0
220
0.0
230
1.0
 73
     2
 44
0.903614
  0
MTEXT
  5
37C
100
AcDbEntity
 67
     1
  8
1
  6
Continuous
 62
     7
100
AcDbMText
 10
13.52108
 20
2.275784
 30
0.0
 40
0.09
 41
0.0
 71
     7
 72
     5
  1
\W01.000;FS2X2(36897-898)_01.prt
  7
blockfont
210
0.0
220
0.0
230
1.0
 73
     2
 44
0.903614
  0
MTEXT
  5
37D
100
AcDbEntity
 67
     1
  8
1
  6
Continuous
 62
     7
100
AcDbMText
 10
7.718938
 20
0.500068
 30
0.0
 40
0.059805
 41
0.0
 71
     7
 72
     5
  1
\W01.000;BY
  7
blockfont
210
0.0
220
0.0
230
1.0
 73
     2
 44
0.903614
  0
MTEXT
  5
37E
100
AcDbEntity
 67
     1
  8
1
  6
Continuous
 62
     7
100
AcDbMText
 10
8.39581
 20
0.965623
 30
0.0
 40
0.072
 41
0.0
 71
     7
 72
     5
  1
\W01.000;A. ADDED SIDE & TOP VIEWS, LABELS, AND NOTE
  7
blockfont
210
0.0
220
0.0
230
1.0
 73
     2
 44
0.903614
  0
MTEXT
  5
37F
100
AcDbEntity
 67
     1
  8
1
  6
Continuous
 62
     7
100
AcDbMText
 10
0.729071
 20
4.361084
 30
0.0
 40
0.09
 41
0.0
 71
     7
 72
     5
  1
\W01.000;.08
  7
blockfont
210
0.0
220
0.0
230
1.0
 73
     2
 44
0.903614
  0
MTEXT
  5
380
100
AcDbEntity
 67
     1
  8
1
  6
Continuous
 62
     7
100
AcDbMText
 10
14.543476
 20
1.138067
 30
0.0
 40
0.037378
 41
0.0
 71
     7
 72
     5
  1
\W01.000;SCALE
  7
blockfont
210
0.0
220
0.0
230
1.0
 73
     2
 44
0.903614
  0
MTEXT
  5
381
100
AcDbEntity
 67
     1
  8
1
  6
Continuous
 62
     7
100
AcDbMText
 10
9.860338
 20
0.506482
 30
0.0
 40
0.059805
 41
0.0
 71
     7
 72
     5
  1
\W01.000;DESCRIPTION
  7
blockfont
210
0.0
220
0.0
230
1.0
 73
     2
 44
0.903614
  0
MTEXT
  5
382
100
AcDbEntity
 67
     1
  8
1
  6
Continuous
 62
     7
100
AcDbMText
 10
2.143362
 20
0.611936
 30
0.0
 40
0.09
 41
0.0
 71
     7
 72
     5
  1
\W01.000; DENOTE COLOR.
  7
blockfont
210
0.0
220
0.0
230
1.0
 73
     2
 44
0.903614
  0
MTEXT
  5
383
100
AcDbEntity
 67
     1
  8
1
  6
Continuous
 62
     7
100
AcDbMText
 10
13.252609
 20
6.440001
 30
0.0
 40
0.09
 41
0.0
 71
     7
 72
     5
  1
\W01.000;            C2**6
  7
blockfont
210
0.0
220
0.0
230
1.0
 73
     2
 44
0.903614
  0
MTEXT
  5
384
100
AcDbEntity
 67
     1
  8
1
  6
Continuous
 62
     7
100
AcDbMText
 10
6.634647
 20
0.500068
 30
0.0
 40
0.059805
 41
0.0
 71
     7
 72
     5
  1
\W01.000;REV
  7
blockfont
210
0.0
220
0.0
230
1.0
 73
     2
 44
0.903614
  0
MTEXT
  5
385
100
AcDbEntity
 67
     1
  8
1
  6
Continuous
 62
     7
100
AcDbMText
 10
4.992353
 20
4.451909
 30
0.0
 40
0.09
 41
0.0
 71
     7
 72
     5
  1
\W01.000;50.5
  7
blockfont
210
0.0
220
0.0
230
1.0
 73
     2
 44
0.903614
  0
MTEXT
  5
386
100
AcDbEntity
 67
     1
  8
1
  6
Continuous
 62
     7
100
AcDbMText
 10
16.123362
 20
0.864938
 30
0.0
 40
0.037378
 41
0.0
 71
     7
 72
     5
  1
\W01.000;DWG
  7
blockfont
210
0.0
220
0.0
230
1.0
 73
     2
 44
0.903614
  0
MTEXT
  5
387
100
AcDbEntity
 67
     1
  8
1
  6
Continuous
 62
     7
100
AcDbMText
 10
1.064675
 20
0.611936
 30
0.0
 40
0.09
 41
0.0
 71
     7
 72
     5
  1
\W01.000;3. THE 
  7
blockfont
210
0.0
220
0.0
230
1.0
 73
     2
 44
0.903614
  0
MTEXT
  5
388
100
AcDbEntity
 67
     1
  8
1
  6
Continuous
 62
     7
100
AcDbMText
 10
2.463513
 20
3.017065
 30
0.0
 40
0.09
 41
0.0
 71
     7
 72
     5
  1
\W01.000;57.1
  7
blockfont
210
0.0
220
0.0
230
1.0
 73
     2
 44
0.903614
  0
MTEXT
  5
389
100
AcDbEntity
 67
     1
  8
1
  6
Continuous
 62
     7
100
AcDbMText
 10
12.261904
 20
1.145399
 30
0.0
 40
0.037378
 41
0.0
 71
     7
 72
     5
  1
\W01.000;DRAWN BY
  7
blockfont
210
0.0
220
0.0
230
1.0
 73
     2
 44
0.903614
  0
MTEXT
  5
38A
100
AcDbEntity
 67
     1
  8
1
  6
Continuous
 62
     7
100
AcDbMText
 10
6.695374
 20
0.771575
 30
0.0
 40
0.072
 41
0.0
 71
     7
 72
     5
  1
\W01.000;R
  7
blockfont
210
0.0
220
0.0
230
1.0
 73
     2
 44
0.903614
  0
MTEXT
  5
38B
100
AcDbEntity
 67
     1
  8
1
  6
Continuous
 62
     7
100
AcDbMText
 10
13.053443
 20
1.075821
 30
0.0
 40
0.056067
 41
0.0
 71
     7
 72
     5
  1
\W01.000;MAT'L:
  7
blockfont
210
0.0
220
0.0
230
1.0
 73
     2
 44
0.903614
  0
MTEXT
  5
38C
100
AcDbEntity
 67
     1
  8
1
  6
Continuous
 62
     7
100
AcDbMText
 10
7.952368
 20
1.02569
 30
0.0
 40
0.067
 41
0.0
 71
     7
 72
     5
  1
\W01.000;MKBE
  7
blockfont
210
0.0
220
0.0
230
1.0
 73
     2
 44
0.903614
  0
MTEXT
  5
38D
100
AcDbEntity
 67
     1
  8
1
  6
Continuous
 62
     7
100
AcDbMText
 10
7.980947
 20
0.771575
 30
0.0
 40
0.072
 41
0.0
 71
     7
 72
     5
  1
\W01.000;JGG
  7
blockfont
210
0.0
220
0.0
230
1.0
 73
     2
 44
0.903614
  0
MTEXT
  5
38E
100
AcDbEntity
 67
     1
  8
1
  6
Continuous
 62
     7
100
AcDbMText
 10
12.323958
 20
0.775985
 30
0.0
 40
0.072
 41
0.0
 71
     7
 72
     5
  1
\W01.000;10-2-03
  7
blockfont
210
0.0
220
0.0
230
1.0
 73
     2
 44
0.903614
  0
MTEXT
  5
38F
100
AcDbEntity
 67
     1
  8
1
  6
Continuous
 62
     7
100
AcDbMText
 10
16.105538
 20
0.57651
 30
0.0
 40
0.149512
 41
0.0
 71
     7
 72
     5
  1
\W01.000;B
  7
blockfont
210
0.0
220
0.0
230
1.0
 73
     2
 44
0.903614
  0
MTEXT
  5
390
100
AcDbEntity
 67
     1
  8
1
  6
Continuous
 62
     7
100
AcDbMText
 10
13.448734
 20
1.256841
 30
0.0
 40
0.09
 41
0.0
 71
     7
 72
     5
  1
\W01.000;MARKETING DRAWING
  7
blockfont
210
0.0
220
0.0
230
1.0
 73
     2
 44
0.903614
  0
MTEXT
  5
391
100
AcDbEntity
 67
     1
  8
1
  6
Continuous
 62
     7
100
AcDbMText
 10
16.149535
 20
2.5678
 30
0.0
 40
0.09
 41
0.0
 71
     7
 72
     5
  1
\W01.000;B
  7
blockfont
210
0.0
220
0.0
230
1.0
 73
     2
 44
0.903614
  0
MTEXT
  5
392
100
AcDbEntity
 67
     1
  8
1
  6
Continuous
 62
     7
100
AcDbMText
 10
4.030044
 20
4.736432
 30
0.0
 40
0.09
 41
0.0
 71
     7
 72
     5
  1
\W01.000;2.12
  7
blockfont
210
0.0
220
0.0
230
1.0
 73
     2
 44
0.903614
  0
MTEXT
  5
393
100
AcDbEntity
 67
     1
  8
1
  6
Continuous
 62
     7
100
AcDbMText
 10
14.289995
 20
1.790397
 30
0.0
 40
0.074756
 41
0.0
 71
     7
 72
     5
  1
\W01.000;CORP.
  7
blockfont
210
0.0
220
0.0
230
1.0
 73
     2
 44
0.903614
  0
MTEXT
  5
394
100
AcDbEntity
 67
     1
  8
1
  6
Continuous
 62
     7
100
AcDbMText
 10
1.064675
 20
0.881936
 30
0.0
 40
0.09
 41
0.0
 71
     7
 72
     5
  1
\W01.000;2. DIMENSIONS IN PARENTHESES ARE METRIC.
  7
blockfont
210
0.0
220
0.0
230
1.0
 73
     2
 44
0.903614
  0
MTEXT
  5
395
100
AcDbEntity
 67
     1
  8
1
  6
Continuous
 62
     7
100
AcDbMText
 10
12.287075
 20
1.718164
 30
0.0
 40
0.336401
 41
0.0
 71
     7
 72
     5
  1
\W01.000;P
  7
blockfont
210
0.0
220
0.0
230
1.0
 73
     2
 44
0.903614
  0
MTEXT
  5
396
100
AcDbEntity
 67
     1
  8
1
  6
Continuous
 62
     7
100
AcDbMText
 10
7.648345
 20
1.02569
 30
0.0
 40
0.067
 41
0.0
 71
     7
 72
     5
  1
\W01.000;JCST
  7
blockfont
210
0.0
220
0.0
230
1.0
 73
     2
 44
0.903614
  0
MTEXT
  5
397
100
AcDbEntity
 67
     1
  8
1
  6
Continuous
 62
     7
100
AcDbMText
 10
0.794442
 20
1.338797
 30
0.0
 40
0.09
 41
0.0
 71
     7
 72
     5
  1
\W01.000;A
  7
blockfont
210
0.0
220
0.0
230
1.0
 73
     2
 44
0.903614
  0
MTEXT
  5
398
100
AcDbEntity
 67
     1
  8
1
  6
Continuous
 62
     7
100
AcDbMText
 10
16.166895
 20
9.326482
 30
0.0
 40
0.09
 41
0.0
 71
     7
 72
     5
  1
\W01.000;A
  7
blockfont
210
0.0
220
0.0
230
1.0
 73
     2
 44
0.903614
  0
MTEXT
  5
399
100
AcDbEntity
 67
     1
  8
1
  6
Continuous
 62
     7
100
AcDbMText
 10
2.463513
 20
6.028138
 30
0.0
 40
0.09
 41
0.0
 71
     7
 72
     5
  1
\W01.000;57.2
  7
blockfont
210
0.0
220
0.0
230
1.0
 73
     2
 44
0.903614
  0
MTEXT
  5
39A
100
AcDbEntity
 67
     1
  8
1
  6
Continuous
 62
     7
100
AcDbMText
 10
12.260868
 20
0.8961
 30
0.0
 40
0.037378
 41
0.0
 71
     7
 72
     5
  1
\W01.000;DATE
  7
blockfont
210
0.0
220
0.0
230
1.0
 73
     2
 44
0.903614
  0
MTEXT
  5
39B
100
AcDbEntity
 67
     1
  8
1
  6
Continuous
 62
     7
100
AcDbMText
 10
4.952978
 20
4.671284
 30
0.0
 40
0.09
 41
0.0
 71
     7
 72
     5
  1
\W01.000;1.99
  7
blockfont
210
0.0
220
0.0
230
1.0
 73
     2
 44
0.903614
  0
MTEXT
  5
39C
100
AcDbEntity
 67
     1
  8
1
  6
Continuous
 62
     7
100
AcDbMText
 10
12.311009
 20
1.555497
 30
0.0
 40
0.115
 41
0.0
 71
     7
 72
     5
  1
\W01.000;WIRING DUCT - TYPE FS WITH COVER
  7
blockfont
210
0.0
220
0.0
230
1.0
 73
     2
 44
0.903614
  0
MTEXT
  5
39D
100
AcDbEntity
 67
     1
  8
1
  6
Continuous
 62
     7
100
AcDbMText
 10
15.299307
 20
0.98737
 30
0.0
 40
0.125
 41
0.0
 71
     7
 72
     5
  1
\W01.000;FULL
  7
blockfont
210
0.0
220
0.0
230
1.0
 73
     2
 44
0.903614
  0
MTEXT
  5
39E
100
AcDbEntity
 67
     1
  8
1
  6
Continuous
 62
     7
100
AcDbMText
 10
7.055187
 20
0.78145
 30
0.0
 40
0.06
 41
0.0
 71
     7
 72
     5
  1
\W01.000;10-2-03
  7
blockfont
210
0.0
220
0.0
230
1.0
 73
     2
 44
0.903614
  0
MTEXT
  5
39F
100
AcDbEntity
 67
     1
  8
1
  6
Continuous
 62
     7
100
AcDbMText
 10
16.129979
 20
5.484767
 30
0.0
 40
0.09
 41
0.0
 71
     7
 72
     5
  1
\W01.000;A
  7
blockfont
210
0.0
220
0.0
230
1.0
 73
     2
 44
0.903614
  0
MTEXT
  5
3A0
100
AcDbEntity
 67
     1
  8
1
  6
Continuous
 62
     7
100
AcDbMText
 10
6.695374
 20
1.021575
 30
0.0
 40
0.072
 41
0.0
 71
     7
 72
     5
  1
\W01.000;1
  7
blockfont
210
0.0
220
0.0
230
1.0
 73
     2
 44
0.903614
  0
MTEXT
  5
3A1
100
AcDbEntity
 67
     1
  8
1
  6
Continuous
 62
     7
100
AcDbMText
 10
14.549612
 20
0.881436
 30
0.0
 40
0.037378
 41
0.0
 71
     7
 72
     5
  1
\W01.000;DRAWING NO.
  7
blockfont
210
0.0
220
0.0
230
1.0
 73
     2
 44
0.903614
  0
MTEXT
  5
3A2
100
AcDbEntity
 67
     1
  8
1
  6
Continuous
 62
     7
100
AcDbMText
 10
13.252609
 20
6.575001
 30
0.0
 40
0.09
 41
0.0
 71
     7
 72
     5
  1
\W01.000;DUCT - - PART NUMBER
  7
blockfont
210
0.0
220
0.0
230
1.0
 73
     2
 44
0.903614
  0
MTEXT
  5
3A3
100
AcDbEntity
 67
     1
  8
1
  6
Continuous
 62
     7
100
AcDbMText
 10
8.39581
 20
0.769623
 30
0.0
 40
0.072
 41
0.0
 71
     7
 72
     5
  1
\W01.000;DRAWING RELEASED
  7
blockfont
210
0.0
220
0.0
230
1.0
 73
     2
 44
0.903614
  0
MTEXT
  5
3A4
100
AcDbEntity
 67
     1
  8
1
  6
Continuous
 62
     7
100
AcDbMText
 10
12.538276
 20
1.749781
 30
0.0
 40
0.261645
 41
0.0
 71
     7
 72
     5
  1
\W01.000;ANDUIT
  7
blockfont
210
0.0
220
0.0
230
1.0
 73
     2
 44
0.903614
  0
MTEXT
  5
3A5
100
AcDbEntity
 67
     1
  8
1
  6
Continuous
 62
     7
100
AcDbMText
 10
12.430857
 20
0.510072
 30
0.0
 40
0.072
 41
0.0
 71
     7
 72
     5
  1
\W01.000;JGG
  7
blockfont
210
0.0
220
0.0
230
1.0
 73
     2
 44
0.903614
  0
MTEXT
  5
3A6
100
AcDbEntity
 67
     1
  8
1
  6
Continuous
 62
     7
100
AcDbMText
 10
4.069418
 20
4.517057
 30
0.0
 40
0.09
 41
0.0
 71
     7
 72
     5
  1
\W01.000;53.8
  7
blockfont
210
0.0
220
0.0
230
1.0
 73
     2
 44
0.903614
  0
MTEXT
  5
3A7
100
AcDbEntity
 67
     1
  8
1
  6
Continuous
 62
     7
100
AcDbMText
 10
7.022499
 20
1.03145
 30
0.0
 40
0.06
 41
0.0
 71
     7
 72
     5
  1
\W01.000;10-20-05
  7
blockfont
210
0.0
220
0.0
230
1.0
 73
     2
 44
0.903614
  0
MTEXT
  5
3A8
100
AcDbEntity
 67
     1
  8
1
  6
Continuous
 62
     7
100
AcDbMText
 10
14.002767
 20
1.382997
 30
0.0
 40
0.115
 41
0.0
 71
     7
 72
     5
  1
\W01.000;2 X 2
  7
blockfont
210
0.0
220
0.0
230
1.0
 73
     2
 44
0.903614
  0
MTEXT
  5
3A9
100
AcDbEntity
 67
     1
  8
1
  6
Continuous
 62
     7
100
AcDbMText
 10
0.768446
 20
4.141708
 30
0.0
 40
0.09
 41
0.0
 71
     7
 72
     5
  1
\W01.000;2.0
  7
blockfont
210
0.0
220
0.0
230
1.0
 73
     2
 44
0.903614
  0
MTEXT
  5
3AA
100
AcDbEntity
 67
     1
  8
1
  6
Continuous
 62
     7
100
AcDbMText
 10
1.064675
 20
1.421936
 30
0.0
 40
0.09
 41
0.0
 71
     7
 72
     5
  1
\W01.000;NOTE.
  7
blockfont
210
0.0
220
0.0
230
1.0
 73
     2
 44
0.903614
  0
MTEXT
  5
3AB
100
AcDbEntity
 67
     1
  8
1
  6
Continuous
 62
     7
100
AcDbMText
 10
16.106665
 20
0.481825
 30
0.0
 40
0.037378
 41
0.0
 71
     7
 72
     5
  1
\W01.000;SIZE
  7
blockfont
210
0.0
220
0.0
230
1.0
 73
     2
 44
0.903614
  0
MTEXT
  5
3AC
100
AcDbEntity
 67
     1
  8
1
  6
Continuous
 62
     7
100
AcDbMText
 10
12.258039
 20
2.406414
 30
0.0
 40
0.037378
 41
0.0
 71
     7
 72
     5
  1
\W01.000;CAD FILENAME/LAYERS
  7
blockfont
210
0.0
220
0.0
230
1.0
 73
     2
 44
0.903614
  0
MTEXT
  5
3AD
100
AcDbEntity
 67
     1
  8
1
  6
Continuous
 62
     7
100
AcDbMText
 10
2.424138
 20
3.23644
 30
0.0
 40
0.09
 41
0.0
 71
     7
 72
     5
  1
\W01.000;2.25
  7
blockfont
210
0.0
220
0.0
230
1.0
 73
     2
 44
0.903614
  0
MTEXT
  5
3AE
100
AcDbEntity
 67
     1
  8
1
  6
Continuous
 62
     7
100
AcDbMText
 10
7.12561
 20
0.496674
 30
0.0
 40
0.059805
 41
0.0
 71
     7
 72
     5
  1
\W01.000;DATE
  7
blockfont
210
0.0
220
0.0
230
1.0
 73
     2
 44
0.903614
  0
ENDSEC
  0
SECTION
  2
OBJECTS
  0
DICTIONARY
  5
19
100
AcDbDictionary
280
     0
281
     1
  3
ACAD_GROUP
350
1A
  3
ACAD_MLINESTYLE
350
1B
  3
ACAD_LAYOUT
350
1E
  3
ACAD_PLOTSETTINGS
350
21
  3
ACAD_PLOTSTYLENAME
350
1F
  0
DICTIONARY
  5
1A
102
{ACAD_REACTORS
330
19
102
}
100
AcDbDictionary
280
     0
281
     1
  0
DICTIONARY
  5
1B
102
{ACAD_REACTORS
330
19
102
}
100
AcDbDictionary
280
     0
281
     1
  3
Standard
350
1C
  0
MLINESTYLE
  5
1C
102
{ACAD_REACTORS
330
1B
102
}
100
AcDbMlineStyle
  2
Standard
 70
     0
  3

 62
     0
 51
90.0
 52
90.0
 71
     2
 49
0.5
 62
   256
  6
BYLAYER
 49
-0.5
 62
   256
  6
BYLAYER
  0
ACDBDICTIONARYWDFLT
  5
1F
102
{ACAD_REACTORS
330
19
102
}
100
AcDbDictionary
281
     1
  3
Normal
350
1D
100
AcDbDictionaryWithDefault
340
1D
  0
ACDBPLACEHOLDER
  5
1D
102
{ACAD_REACTORS
330
1F
102
}
  0
LAYOUT
  5
20
102
{ACAD_REACTORS
330
1E
102
}
100
AcDbPlotSettings
  1

  2

  4

  6

 40
0.0
 41
0.0
 42
0.0
 43
0.0
 44
0.0
 45
0.0
 46
0.0
 47
0.0
 48
0.0
 49
0.0
140
0.0
141
0.0
142
1.0
143
1.0
 70
  1024
 72
     0
 73
     0
 74
     0
  7

 75
     0
147
1.0
148
0.0
149
0.0
100
AcDbLayout
  1
Model
 70
     0
 71
     0
 10
0.0
 20
0.0
 11
0.0
 21
0.0
 12
0.0
 22
0.0
 32
0.0
 14
0.0
 24
0.0
 34
0.0
 15
0.0
 25
0.0
 35
0.0
146
0.0
 13
0.0
 23
0.0
 33
0.0
 16
0.0
 26
0.0
 36
0.0
 17
0.0
 27
0.0
 37
0.0
 76
     0
330
A
331
0
345
0
346
0
  0
DICTIONARY
  5
1E
102
{ACAD_REACTORS
330
19
102
}
100
AcDbDictionary
280
     0
281
     1
  3
Model
350
20
  3
DRAWING1
350
3AF
  0
DICTIONARY
  5
21
102
{ACAD_REACTORS
330
19
102
}
100
AcDbDictionary
280
     0
281
     1
  0
LAYOUT
  5
3AF
102
{ACAD_REACTORS
330
1E
102
}
100
AcDbPlotSettings
  1

  2

  4

  6

 40
0.0
 41
0.0
 42
0.0
 43
0.0
 44
0.0
 45
0.0
 46
0.0
 47
0.0
 48
0.0
 49
0.0
140
0.0
141
0.0
142
1.0
143
1.0
 70
     0
 72
     0
 73
     0
 74
     0
  7

 75
     0
147
1.0
148
0.0
149
0.0
100
AcDbLayout
  1
DRAWING1
 70
     0
 71
     1
 10
0.0
 20
0.0
 11
0.0
 21
0.0
 12
0.0
 22
0.0
 32
0.0
 14
0.0
 24
0.0
 34
0.0
 15
0.0
 25
0.0
 35
0.0
146
0.0
 13
0.0
 23
0.0
 33
0.0
 16
0.0
 26
0.0
 36
0.0
 17
0.0
 27
0.0
 37
0.0
 76
     0
330
B
331
30
345
0
346
0
  0
ENDSEC
  0
EOF
