  0
SECTION
  2
HEADER
  9
$ACADVER
  1
AC1012
  9
$DWGCODEPAGE
  3
ANSI_1252
  9
$INSBASE
 10
0.0
 20
0.0
 30
0.0
  9
$EXTMIN
 10
1.453740157480314
 20
3.686023622047243
 30
0.0
  9
$EXTMAX
 10
5.08759842519685
 20
4.681102362204724
 30
0.0
  9
$LIMMIN
 10
0.0
 20
0.0
  9
$LIMMAX
 10
12.0
 20
9.0
  9
$ORTHOMODE
 70
     0
  9
$REGENMODE
 70
     1
  9
$FILLMODE
 70
     1
  9
$QTEXTMODE
 70
     0
  9
$MIRRTEXT
 70
     1
  9
$DRAGMODE
 70
     2
  9
$LTSCALE
 40
1.0
  9
$OSMODE
 70
   547
  9
$ATTMODE
 70
     1
  9
$TEXTSIZE
 40
0.2
  9
$TRACEWID
 40
0.05
  9
$TEXTSTYLE
  7
STANDARD
  9
$CLAYER
  8
0
  9
$CELTYPE
  6
BYLAYER
  9
$CECOLOR
 62
   256
  9
$CELTSCALE
 40
1.0
  9
$DELOBJ
 70
     1
  9
$DISPSILH
 70
     0
  9
$DIMSCALE
 40
1.0
  9
$DIMASZ
 40
0.18
  9
$DIMEXO
 40
0.0625
  9
$DIMDLI
 40
0.38
  9
$DIMRND
 40
0.0
  9
$DIMDLE
 40
0.0
  9
$DIMEXE
 40
0.18
  9
$DIMTP
 40
0.0
  9
$DIMTM
 40
0.0
  9
$DIMTXT
 40
0.18
  9
$DIMCEN
 40
0.09
  9
$DIMTSZ
 40
0.0
  9
$DIMTOL
 70
     0
  9
$DIMLIM
 70
     0
  9
$DIMTIH
 70
     1
  9
$DIMTOH
 70
     1
  9
$DIMSE1
 70
     0
  9
$DIMSE2
 70
     0
  9
$DIMTAD
 70
     0
  9
$DIMZIN
 70
     0
  9
$DIMBLK
  1

  9
$DIMASO
 70
     1
  9
$DIMSHO
 70
     1
  9
$DIMPOST
  1

  9
$DIMAPOST
  1

  9
$DIMALT
 70
     0
  9
$DIMALTD
 70
     2
  9
$DIMALTF
 40
25.4
  9
$DIMLFAC
 40
1.0
  9
$DIMTOFL
 70
     0
  9
$DIMTVP
 40
0.0
  9
$DIMTIX
 70
     0
  9
$DIMSOXD
 70
     0
  9
$DIMSAH
 70
     0
  9
$DIMBLK1
  1

  9
$DIMBLK2
  1

  9
$DIMSTYLE
  2
STANDARD
  9
$DIMCLRD
 70
     0
  9
$DIMCLRE
 70
     0
  9
$DIMCLRT
 70
     0
  9
$DIMTFAC
 40
1.0
  9
$DIMGAP
 40
0.09
  9
$DIMJUST
 70
     0
  9
$DIMSD1
 70
     0
  9
$DIMSD2
 70
     0
  9
$DIMTOLJ
 70
     1
  9
$DIMTZIN
 70
     0
  9
$DIMALTZ
 70
     0
  9
$DIMALTTZ
 70
     0
  9
$DIMFIT
 70
     5
  9
$DIMUPT
 70
     0
  9
$DIMUNIT
 70
     2
  9
$DIMDEC
 70
     4
  9
$DIMTDEC
 70
     4
  9
$DIMALTU
 70
     2
  9
$DIMALTTD
 70
     2
  9
$DIMTXSTY
  7
STANDARD
  9
$DIMAUNIT
 70
     0
  9
$LUNITS
 70
     2
  9
$LUPREC
 70
     4
  9
$SKETCHINC
 40
0.1
  9
$FILLETRAD
 40
0.0
  9
$AUNITS
 70
     0
  9
$AUPREC
 70
     0
  9
$MENU
  1
acad
  9
$ELEVATION
 40
0.0
  9
$PELEVATION
 40
0.0
  9
$THICKNESS
 40
0.0
  9
$LIMCHECK
 70
     0
  9
$BLIPMODE
 70
     0
  9
$CHAMFERA
 40
0.0
  9
$CHAMFERB
 40
0.0
  9
$CHAMFERC
 40
0.0
  9
$CHAMFERD
 40
0.0
  9
$SKPOLY
 70
     0
  9
$TDCREATE
 40
2454119.569733796
  9
$TDUPDATE
 40
2454120.392545104
  9
$TDINDWG
 40
0.0007228356
  9
$TDUSRTIMER
 40
0.0007228356
  9
$USRTIMER
 70
     1
  9
$ANGBASE
 50
0.0
  9
$ANGDIR
 70
     0
  9
$PDMODE
 70
     0
  9
$PDSIZE
 40
0.0
  9
$PLINEWID
 40
0.0
  9
$COORDS
 70
     1
  9
$SPLFRAME
 70
     0
  9
$SPLINETYPE
 70
     6
  9
$SPLINESEGS
 70
     8
  9
$ATTDIA
 70
     0
  9
$ATTREQ
 70
     1
  9
$HANDLING
 70
  4097
  9
$HANDSEED
  5
34A8
  9
$SURFTAB1
 70
     6
  9
$SURFTAB2
 70
     6
  9
$SURFTYPE
 70
     6
  9
$SURFU
 70
     6
  9
$SURFV
 70
     6
  9
$UCSNAME
  2

  9
$UCSORG
 10
0.0
 20
0.0
 30
0.0
  9
$UCSXDIR
 10
1.0
 20
0.0
 30
0.0
  9
$UCSYDIR
 10
0.0
 20
1.0
 30
0.0
  9
$PUCSNAME
  2

  9
$PUCSORG
 10
0.0
 20
0.0
 30
0.0
  9
$PUCSXDIR
 10
1.0
 20
0.0
 30
0.0
  9
$PUCSYDIR
 10
0.0
 20
1.0
 30
0.0
  9
$USERI1
 70
     0
  9
$USERI2
 70
     0
  9
$USERI3
 70
     0
  9
$USERI4
 70
     0
  9
$USERI5
 70
     0
  9
$USERR1
 40
0.0
  9
$USERR2
 40
0.0
  9
$USERR3
 40
0.0
  9
$USERR4
 40
0.0
  9
$USERR5
 40
0.0
  9
$WORLDVIEW
 70
     1
  9
$SHADEDGE
 70
     3
  9
$SHADEDIF
 70
    70
  9
$TILEMODE
 70
     1
  9
$MAXACTVP
 70
    16
  9
$PINSBASE
 10
0.0
 20
0.0
 30
0.0
  9
$PLIMCHECK
 70
     0
  9
$PEXTMIN
 10
1.000000000000000E+20
 20
1.000000000000000E+20
 30
1.000000000000000E+20
  9
$PEXTMAX
 10
-1.000000000000000E+20
 20
-1.000000000000000E+20
 30
-1.000000000000000E+20
  9
$PLIMMIN
 10
0.0
 20
0.0
  9
$PLIMMAX
 10
12.0
 20
9.0
  9
$UNITMODE
 70
     0
  9
$VISRETAIN
 70
     0
  9
$PLINEGEN
 70
     0
  9
$PSLTSCALE
 70
     1
  9
$TREEDEPTH
 70
  3020
  9
$PICKSTYLE
 70
     1
  9
$CMLSTYLE
  2
STANDARD
  9
$CMLJUST
 70
     0
  9
$CMLSCALE
 40
1.0
  9
$SAVEIMAGES
 70
     1
  0
ENDSEC
  0
SECTION
  2
CLASSES
  0
CLASS
  1
ACDBDICTIONARYWDFLT
  2
AcDbDictionaryWithDefault
  3
AutoCAD 2000
 90
    32768
280
     0
281
     0
  0
CLASS
  1
ACDBPLACEHOLDER
  2
AcDbPlaceHolder
  3
AutoCAD 2000
 90
    32768
280
     0
281
     0
  0
CLASS
  1
LAYOUT
  2
AcDbLayout
  3
AutoCAD 2000
 90
    32768
280
     0
281
     0
  0
CLASS
  1
LONG_TRANSACTION
  2
AcDbLongTransaction
  3
AutoCAD 2000
 90
    32768
280
     0
281
     0
  0
CLASS
  1
LWPOLYLINE
  2
AcDbPolyline
  3
AutoCAD 2000
 90
    32768
280
     0
281
     1
  0
CLASS
  1
HATCH
  2
AcDbHatch
  3
AutoCAD 2000
 90
    32768
280
     0
281
     1
  0
CLASS
  1
XRECORD
  2
AcDbXrecord
  3
AutoCAD 2000
 90
    32768
280
     0
281
     0
  0
ENDSEC
  0
SECTION
  2
TABLES
  0
TABLE
  2
VPORT
  5
8
330
0
100
AcDbSymbolTable
 70
     2
  0
VPORT
  5
3374
330
8
100
AcDbSymbolTableRecord
100
AcDbViewportTableRecord
  2
*ACTIVE
 70
     0
 10
0.0
 20
0.0
 11
1.0
 21
1.0
 12
3.270813013043735
 22
4.18345644148469
 13
0.0
 23
0.0
 14
1.0
 24
1.0
 15
0.0
 25
0.0
 16
0.0
 26
0.0
 36
1.0
 17
0.0
 27
0.0
 37
0.0
 40
2.101472698099867
 41
1.740671641791044
 42
50.0
 43
0.0
 44
0.0
 50
0.0
 51
0.0
 71
     0
 72
   100
 73
     1
 74
     1
 75
     0
 76
     0
 77
     0
 78
     0
  0
ENDTAB
  0
TABLE
  2
LTYPE
  5
5
330
0
100
AcDbSymbolTable
 70
    25
  0
LTYPE
  5
13
330
5
100
AcDbSymbolTableRecord
100
AcDbLinetypeTableRecord
  2
BYBLOCK
 70
     0
  3

 72
    65
 73
     0
 40
0.0
  0
LTYPE
  5
14
330
5
100
AcDbSymbolTableRecord
100
AcDbLinetypeTableRecord
  2
BYLAYER
 70
     0
  3

 72
    65
 73
     0
 40
0.0
  0
LTYPE
  5
15
330
5
100
AcDbSymbolTableRecord
100
AcDbLinetypeTableRecord
  2
CONTINUOUS
 70
     0
  3
Solid line
 72
    65
 73
     0
 40
0.0
  0
LTYPE
  5
22
330
5
100
AcDbSymbolTableRecord
100
AcDbLinetypeTableRecord
  2
BORDER
 70
     0
  3
__ __ . __ __ . __ __ . __ __ . __ __ . __ __ .
 72
    65
 73
     6
 40
1.75
 49
0.5
 74
     0
 49
-0.25
 74
     0
 49
0.5
 74
     0
 49
-0.25
 74
     0
 49
0.5
 74
     0
 49
-0.25
 74
     0
  0
LTYPE
  5
23
330
5
100
AcDbSymbolTableRecord
100
AcDbLinetypeTableRecord
  2
BORDER2
 70
     0
  3
__.__.__.__.__.__.__.__.
 72
    65
 73
     6
 40
0.875
 49
0.25
 74
     0
 49
-0.125
 74
     0
 49
0.25
 74
     0
 49
-0.125
 74
     0
 49
0.25
 74
     0
 49
-0.125
 74
     0
  0
LTYPE
  5
24
330
5
100
AcDbSymbolTableRecord
100
AcDbLinetypeTableRecord
  2
BORDERX2
 70
     0
  3
____  ____  .  
 72
    65
 73
     6
 40
3.5
 49
1.0
 74
     0
 49
-0.5
 74
     0
 49
1.0
 74
     0
 49
-0.5
 74
     0
 49
1.0
 74
     0
 49
-0.5
 74
     0
  0
LTYPE
  5
25
330
5
100
AcDbSymbolTableRecord
100
AcDbLinetypeTableRecord
  2
CENTER
 70
     0
  3
____ _ ____ _ ____ _ 
 72
    65
 73
     4
 40
2.0
 49
1.25
 74
     0
 49
-0.25
 74
     0
 49
0.25
 74
     0
 49
-0.25
 74
     0
  0
LTYPE
  5
26
330
5
100
AcDbSymbolTableRecord
100
AcDbLinetypeTableRecord
  2
CENTER2
 70
     0
  3
____ _ ____ _ ____ _ 
 72
    65
 73
     4
 40
1.125
 49
0.75
 74
     0
 49
-0.125
 74
     0
 49
0.125
 74
     0
 49
-0.125
 74
     0
  0
LTYPE
  5
27
330
5
100
AcDbSymbolTableRecord
100
AcDbLinetypeTableRecord
  2
CENTERX2
 70
     0
  3
________  __  
 72
    65
 73
     4
 40
4.0
 49
2.5
 74
     0
 49
-0.5
 74
     0
 49
0.5
 74
     0
 49
-0.5
 74
     0
  0
LTYPE
  5
28
330
5
100
AcDbSymbolTableRecord
100
AcDbLinetypeTableRecord
  2
DASHDOT
 70
     0
  3
__ . __ . __ . __ . 
 72
    65
 73
     4
 40
1.0
 49
0.5
 74
     0
 49
-0.25
 74
     0
 49
0.0
 74
     0
 49
-0.25
 74
     0
  0
LTYPE
  5
29
330
5
100
AcDbSymbolTableRecord
100
AcDbLinetypeTableRecord
  2
DASHDOT2
 70
     0
  3
_._._._._._._._._.
 72
    65
 73
     4
 40
0.5
 49
0.25
 74
     0
 49
-0.125
 74
     0
 49
0.0
 74
     0
 49
-0.125
 74
     0
  0
LTYPE
  5
2A
330
5
100
AcDbSymbolTableRecord
100
AcDbLinetypeTableRecord
  2
DASHDOTX2
 70
     0
  3
____  .  ____  .  
 72
    65
 73
     4
 40
2.0
 49
1.0
 74
     0
 49
-0.5
 74
     0
 49
0.0
 74
     0
 49
-0.5
 74
     0
  0
LTYPE
  5
2B
330
5
100
AcDbSymbolTableRecord
100
AcDbLinetypeTableRecord
  2
DASHED
 70
     0
  3
__ __ __ __ __ __ __ 
 72
    65
 73
     2
 40
0.75
 49
0.5
 74
     0
 49
-0.25
 74
     0
  0
LTYPE
  5
2C
330
5
100
AcDbSymbolTableRecord
100
AcDbLinetypeTableRecord
  2
DASHED2
 70
     0
  3
_ _ _ _ _ _ _ _ _ _ 
 72
    65
 73
     2
 40
0.375
 49
0.25
 74
     0
 49
-0.125
 74
     0
  0
LTYPE
  5
2D
330
5
100
AcDbSymbolTableRecord
100
AcDbLinetypeTableRecord
  2
DASHEDX2
 70
     0
  3
____  ____  ____  
 72
    65
 73
     2
 40
1.5
 49
1.0
 74
     0
 49
-0.5
 74
     0
  0
LTYPE
  5
2E
330
5
100
AcDbSymbolTableRecord
100
AcDbLinetypeTableRecord
  2
DIVIDE
 70
     0
  3
____ . . ____ . . 
 72
    65
 73
     6
 40
1.25
 49
0.5
 74
     0
 49
-0.25
 74
     0
 49
0.0
 74
     0
 49
-0.25
 74
     0
 49
0.0
 74
     0
 49
-0.25
 74
     0
  0
LTYPE
  5
2F
330
5
100
AcDbSymbolTableRecord
100
AcDbLinetypeTableRecord
  2
DIVIDE2
 70
     0
  3
__..__..__..__..__..
 72
    65
 73
     6
 40
0.625
 49
0.25
 74
     0
 49
-0.125
 74
     0
 49
0.0
 74
     0
 49
-0.125
 74
     0
 49
0.0
 74
     0
 49
-0.125
 74
     0
  0
LTYPE
  5
30
330
5
100
AcDbSymbolTableRecord
100
AcDbLinetypeTableRecord
  2
DIVIDEX2
 70
     0
  3
________  .  .  
 72
    65
 73
     6
 40
2.5
 49
1.0
 74
     0
 49
-0.5
 74
     0
 49
0.0
 74
     0
 49
-0.5
 74
     0
 49
0.0
 74
     0
 49
-0.5
 74
     0
  0
LTYPE
  5
31
330
5
100
AcDbSymbolTableRecord
100
AcDbLinetypeTableRecord
  2
DOT
 70
     0
  3
. . . . . . . . . 
 72
    65
 73
     2
 40
0.25
 49
0.0
 74
     0
 49
-0.25
 74
     0
  0
LTYPE
  5
32
330
5
100
AcDbSymbolTableRecord
100
AcDbLinetypeTableRecord
  2
DOT2
 70
     0
  3
..................
 72
    65
 73
     2
 40
0.125
 49
0.0
 74
     0
 49
-0.125
 74
     0
  0
LTYPE
  5
33
330
5
100
AcDbSymbolTableRecord
100
AcDbLinetypeTableRecord
  2
DOTX2
 70
     0
  3
.  .  .  .  .  .  
 72
    65
 73
     2
 40
0.5
 49
0.0
 74
     0
 49
-0.5
 74
     0
  0
LTYPE
  5
34
330
5
100
AcDbSymbolTableRecord
100
AcDbLinetypeTableRecord
  2
HIDDEN
 70
     0
  3
__ __ __ __ __ __ 
 72
    65
 73
     2
 40
0.375
 49
0.25
 74
     0
 49
-0.125
 74
     0
  0
LTYPE
  5
35
330
5
100
AcDbSymbolTableRecord
100
AcDbLinetypeTableRecord
  2
HIDDEN2
 70
     0
  3
_ _ _ _ _ _ _ _ _ 
 72
    65
 73
     2
 40
0.1875
 49
0.125
 74
     0
 49
-0.0625
 74
     0
  0
LTYPE
  5
36
330
5
100
AcDbSymbolTableRecord
100
AcDbLinetypeTableRecord
  2
HIDDENX2
 70
     0
  3
____ ____ ____ ____ 
 72
    65
 73
     2
 40
0.75
 49
0.5
 74
     0
 49
-0.25
 74
     0
  0
LTYPE
  5
37
330
5
100
AcDbSymbolTableRecord
100
AcDbLinetypeTableRecord
  2
PHANTOM
 70
     0
  3
______  __  __  
 72
    65
 73
     6
 40
2.5
 49
1.25
 74
     0
 49
-0.25
 74
     0
 49
0.25
 74
     0
 49
-0.25
 74
     0
 49
0.25
 74
     0
 49
-0.25
 74
     0
  0
LTYPE
  5
38
330
5
100
AcDbSymbolTableRecord
100
AcDbLinetypeTableRecord
  2
PHANTOM2
 70
     0
  3
___ _ _ ___ _ _ 
 72
    65
 73
     6
 40
1.25
 49
0.625
 74
     0
 49
-0.125
 74
     0
 49
0.125
 74
     0
 49
-0.125
 74
     0
 49
0.125
 74
     0
 49
-0.125
 74
     0
  0
LTYPE
  5
39
330
5
100
AcDbSymbolTableRecord
100
AcDbLinetypeTableRecord
  2
PHANTOMX2
 70
     0
  3
___ _ _ ___ _ _ 
 72
    65
 73
     6
 40
5.0
 49
2.5
 74
     0
 49
-0.5
 74
     0
 49
0.5
 74
     0
 49
-0.5
 74
     0
 49
0.5
 74
     0
 49
-0.5
 74
     0
  0
ENDTAB
  0
TABLE
  2
LAYER
  5
2
330
0
100
AcDbSymbolTable
 70
   257
  0
LAYER
  5
10
330
2
100
AcDbSymbolTableRecord
100
AcDbLayerTableRecord
  2
0
 70
     0
 62
     7
  6
CONTINUOUS
  0
LAYER
  5
3A
330
2
100
AcDbSymbolTableRecord
100
AcDbLayerTableRecord
  2
1
 70
     0
 62
     1
  6
CONTINUOUS
  0
LAYER
  5
3B
330
2
100
AcDbSymbolTableRecord
100
AcDbLayerTableRecord
  2
2
 70
     0
 62
     2
  6
CONTINUOUS
  0
LAYER
  5
3C
330
2
100
AcDbSymbolTableRecord
100
AcDbLayerTableRecord
  2
3
 70
     0
 62
     3
  6
CONTINUOUS
  0
LAYER
  5
3D
330
2
100
AcDbSymbolTableRecord
100
AcDbLayerTableRecord
  2
4
 70
     0
 62
     4
  6
CONTINUOUS
  0
LAYER
  5
3E
330
2
100
AcDbSymbolTableRecord
100
AcDbLayerTableRecord
  2
5
 70
     0
 62
     5
  6
CONTINUOUS
  0
LAYER
  5
3F
330
2
100
AcDbSymbolTableRecord
100
AcDbLayerTableRecord
  2
6
 70
     0
 62
     6
  6
CONTINUOUS
  0
LAYER
  5
40
330
2
100
AcDbSymbolTableRecord
100
AcDbLayerTableRecord
  2
7
 70
     0
 62
     7
  6
CONTINUOUS
  0
LAYER
  5
41
330
2
100
AcDbSymbolTableRecord
100
AcDbLayerTableRecord
  2
8
 70
     0
 62
     8
  6
CONTINUOUS
  0
LAYER
  5
42
330
2
100
AcDbSymbolTableRecord
100
AcDbLayerTableRecord
  2
9
 70
     0
 62
     9
  6
CONTINUOUS
  0
LAYER
  5
43
330
2
100
AcDbSymbolTableRecord
100
AcDbLayerTableRecord
  2
10
 70
     0
 62
    10
  6
CONTINUOUS
  0
LAYER
  5
44
330
2
100
AcDbSymbolTableRecord
100
AcDbLayerTableRecord
  2
11
 70
     0
 62
    11
  6
CONTINUOUS
  0
LAYER
  5
45
330
2
100
AcDbSymbolTableRecord
100
AcDbLayerTableRecord
  2
12
 70
     0
 62
    12
  6
CONTINUOUS
  0
LAYER
  5
46
330
2
100
AcDbSymbolTableRecord
100
AcDbLayerTableRecord
  2
13
 70
     0
 62
    13
  6
CONTINUOUS
  0
LAYER
  5
47
330
2
100
AcDbSymbolTableRecord
100
AcDbLayerTableRecord
  2
14
 70
     0
 62
    14
  6
CONTINUOUS
  0
LAYER
  5
48
330
2
100
AcDbSymbolTableRecord
100
AcDbLayerTableRecord
  2
15
 70
     0
 62
    15
  6
CONTINUOUS
  0
LAYER
  5
49
330
2
100
AcDbSymbolTableRecord
100
AcDbLayerTableRecord
  2
16
 70
     0
 62
    16
  6
CONTINUOUS
  0
LAYER
  5
4A
330
2
100
AcDbSymbolTableRecord
100
AcDbLayerTableRecord
  2
17
 70
     0
 62
    17
  6
CONTINUOUS
  0
LAYER
  5
4B
330
2
100
AcDbSymbolTableRecord
100
AcDbLayerTableRecord
  2
18
 70
     0
 62
    18
  6
CONTINUOUS
  0
LAYER
  5
4C
330
2
100
AcDbSymbolTableRecord
100
AcDbLayerTableRecord
  2
19
 70
     0
 62
    19
  6
CONTINUOUS
  0
LAYER
  5
4D
330
2
100
AcDbSymbolTableRecord
100
AcDbLayerTableRecord
  2
20
 70
     0
 62
    20
  6
CONTINUOUS
  0
LAYER
  5
4E
330
2
100
AcDbSymbolTableRecord
100
AcDbLayerTableRecord
  2
21
 70
     0
 62
    21
  6
CONTINUOUS
  0
LAYER
  5
4F
330
2
100
AcDbSymbolTableRecord
100
AcDbLayerTableRecord
  2
22
 70
     0
 62
    22
  6
CONTINUOUS
  0
LAYER
  5
50
330
2
100
AcDbSymbolTableRecord
100
AcDbLayerTableRecord
  2
23
 70
     0
 62
    23
  6
CONTINUOUS
  0
LAYER
  5
51
330
2
100
AcDbSymbolTableRecord
100
AcDbLayerTableRecord
  2
24
 70
     0
 62
    24
  6
CONTINUOUS
  0
LAYER
  5
52
330
2
100
AcDbSymbolTableRecord
100
AcDbLayerTableRecord
  2
25
 70
     0
 62
    25
  6
CONTINUOUS
  0
LAYER
  5
53
330
2
100
AcDbSymbolTableRecord
100
AcDbLayerTableRecord
  2
26
 70
     0
 62
    26
  6
CONTINUOUS
  0
LAYER
  5
54
330
2
100
AcDbSymbolTableRecord
100
AcDbLayerTableRecord
  2
27
 70
     0
 62
    27
  6
CONTINUOUS
  0
LAYER
  5
55
330
2
100
AcDbSymbolTableRecord
100
AcDbLayerTableRecord
  2
28
 70
     0
 62
    28
  6
CONTINUOUS
  0
LAYER
  5
56
330
2
100
AcDbSymbolTableRecord
100
AcDbLayerTableRecord
  2
29
 70
     0
 62
    29
  6
CONTINUOUS
  0
LAYER
  5
57
330
2
100
AcDbSymbolTableRecord
100
AcDbLayerTableRecord
  2
30
 70
     0
 62
    30
  6
CONTINUOUS
  0
LAYER
  5
58
330
2
100
AcDbSymbolTableRecord
100
AcDbLayerTableRecord
  2
31
 70
     0
 62
    31
  6
CONTINUOUS
  0
LAYER
  5
59
330
2
100
AcDbSymbolTableRecord
100
AcDbLayerTableRecord
  2
32
 70
     0
 62
    32
  6
CONTINUOUS
  0
LAYER
  5
5A
330
2
100
AcDbSymbolTableRecord
100
AcDbLayerTableRecord
  2
33
 70
     0
 62
    33
  6
CONTINUOUS
  0
LAYER
  5
5B
330
2
100
AcDbSymbolTableRecord
100
AcDbLayerTableRecord
  2
34
 70
     0
 62
    34
  6
CONTINUOUS
  0
LAYER
  5
5C
330
2
100
AcDbSymbolTableRecord
100
AcDbLayerTableRecord
  2
35
 70
     0
 62
    35
  6
CONTINUOUS
  0
LAYER
  5
5D
330
2
100
AcDbSymbolTableRecord
100
AcDbLayerTableRecord
  2
36
 70
     0
 62
    36
  6
CONTINUOUS
  0
LAYER
  5
5E
330
2
100
AcDbSymbolTableRecord
100
AcDbLayerTableRecord
  2
37
 70
     0
 62
    37
  6
CONTINUOUS
  0
LAYER
  5
5F
330
2
100
AcDbSymbolTableRecord
100
AcDbLayerTableRecord
  2
38
 70
     0
 62
    38
  6
CONTINUOUS
  0
LAYER
  5
60
330
2
100
AcDbSymbolTableRecord
100
AcDbLayerTableRecord
  2
39
 70
     0
 62
    39
  6
CONTINUOUS
  0
LAYER
  5
61
330
2
100
AcDbSymbolTableRecord
100
AcDbLayerTableRecord
  2
40
 70
     0
 62
    40
  6
CONTINUOUS
  0
LAYER
  5
62
330
2
100
AcDbSymbolTableRecord
100
AcDbLayerTableRecord
  2
41
 70
     0
 62
    41
  6
CONTINUOUS
  0
LAYER
  5
63
330
2
100
AcDbSymbolTableRecord
100
AcDbLayerTableRecord
  2
42
 70
     0
 62
    42
  6
CONTINUOUS
  0
LAYER
  5
64
330
2
100
AcDbSymbolTableRecord
100
AcDbLayerTableRecord
  2
43
 70
     0
 62
    43
  6
CONTINUOUS
  0
LAYER
  5
65
330
2
100
AcDbSymbolTableRecord
100
AcDbLayerTableRecord
  2
44
 70
     0
 62
    44
  6
CONTINUOUS
  0
LAYER
  5
66
330
2
100
AcDbSymbolTableRecord
100
AcDbLayerTableRecord
  2
45
 70
     0
 62
    45
  6
CONTINUOUS
  0
LAYER
  5
67
330
2
100
AcDbSymbolTableRecord
100
AcDbLayerTableRecord
  2
46
 70
     0
 62
    46
  6
CONTINUOUS
  0
LAYER
  5
68
330
2
100
AcDbSymbolTableRecord
100
AcDbLayerTableRecord
  2
47
 70
     0
 62
    47
  6
CONTINUOUS
  0
LAYER
  5
69
330
2
100
AcDbSymbolTableRecord
100
AcDbLayerTableRecord
  2
48
 70
     0
 62
    48
  6
CONTINUOUS
  0
LAYER
  5
6A
330
2
100
AcDbSymbolTableRecord
100
AcDbLayerTableRecord
  2
49
 70
     0
 62
    49
  6
CONTINUOUS
  0
LAYER
  5
6B
330
2
100
AcDbSymbolTableRecord
100
AcDbLayerTableRecord
  2
50
 70
     0
 62
    50
  6
CONTINUOUS
  0
LAYER
  5
6C
330
2
100
AcDbSymbolTableRecord
100
AcDbLayerTableRecord
  2
51
 70
     0
 62
    51
  6
CONTINUOUS
  0
LAYER
  5
6D
330
2
100
AcDbSymbolTableRecord
100
AcDbLayerTableRecord
  2
52
 70
     0
 62
    52
  6
CONTINUOUS
  0
LAYER
  5
6E
330
2
100
AcDbSymbolTableRecord
100
AcDbLayerTableRecord
  2
53
 70
     0
 62
    53
  6
CONTINUOUS
  0
LAYER
  5
6F
330
2
100
AcDbSymbolTableRecord
100
AcDbLayerTableRecord
  2
54
 70
     0
 62
    54
  6
CONTINUOUS
  0
LAYER
  5
70
330
2
100
AcDbSymbolTableRecord
100
AcDbLayerTableRecord
  2
55
 70
     0
 62
    55
  6
CONTINUOUS
  0
LAYER
  5
71
330
2
100
AcDbSymbolTableRecord
100
AcDbLayerTableRecord
  2
56
 70
     0
 62
    56
  6
CONTINUOUS
  0
LAYER
  5
72
330
2
100
AcDbSymbolTableRecord
100
AcDbLayerTableRecord
  2
57
 70
     0
 62
    57
  6
CONTINUOUS
  0
LAYER
  5
73
330
2
100
AcDbSymbolTableRecord
100
AcDbLayerTableRecord
  2
58
 70
     0
 62
    58
  6
CONTINUOUS
  0
LAYER
  5
74
330
2
100
AcDbSymbolTableRecord
100
AcDbLayerTableRecord
  2
59
 70
     0
 62
    59
  6
CONTINUOUS
  0
LAYER
  5
75
330
2
100
AcDbSymbolTableRecord
100
AcDbLayerTableRecord
  2
60
 70
     0
 62
    60
  6
CONTINUOUS
  0
LAYER
  5
76
330
2
100
AcDbSymbolTableRecord
100
AcDbLayerTableRecord
  2
61
 70
     0
 62
    61
  6
CONTINUOUS
  0
LAYER
  5
77
330
2
100
AcDbSymbolTableRecord
100
AcDbLayerTableRecord
  2
62
 70
     0
 62
    62
  6
CONTINUOUS
  0
LAYER
  5
78
330
2
100
AcDbSymbolTableRecord
100
AcDbLayerTableRecord
  2
63
 70
     0
 62
    63
  6
CONTINUOUS
  0
LAYER
  5
79
330
2
100
AcDbSymbolTableRecord
100
AcDbLayerTableRecord
  2
64
 70
     0
 62
    64
  6
CONTINUOUS
  0
LAYER
  5
7A
330
2
100
AcDbSymbolTableRecord
100
AcDbLayerTableRecord
  2
65
 70
     0
 62
    65
  6
CONTINUOUS
  0
LAYER
  5
7B
330
2
100
AcDbSymbolTableRecord
100
AcDbLayerTableRecord
  2
66
 70
     0
 62
    66
  6
CONTINUOUS
  0
LAYER
  5
7C
330
2
100
AcDbSymbolTableRecord
100
AcDbLayerTableRecord
  2
67
 70
     0
 62
    67
  6
CONTINUOUS
  0
LAYER
  5
7D
330
2
100
AcDbSymbolTableRecord
100
AcDbLayerTableRecord
  2
68
 70
     0
 62
    68
  6
CONTINUOUS
  0
LAYER
  5
7E
330
2
100
AcDbSymbolTableRecord
100
AcDbLayerTableRecord
  2
69
 70
     0
 62
    69
  6
CONTINUOUS
  0
LAYER
  5
7F
330
2
100
AcDbSymbolTableRecord
100
AcDbLayerTableRecord
  2
70
 70
     0
 62
    70
  6
CONTINUOUS
  0
LAYER
  5
80
330
2
100
AcDbSymbolTableRecord
100
AcDbLayerTableRecord
  2
71
 70
     0
 62
    71
  6
CONTINUOUS
  0
LAYER
  5
81
330
2
100
AcDbSymbolTableRecord
100
AcDbLayerTableRecord
  2
72
 70
     0
 62
    72
  6
CONTINUOUS
  0
LAYER
  5
82
330
2
100
AcDbSymbolTableRecord
100
AcDbLayerTableRecord
  2
73
 70
     0
 62
    73
  6
CONTINUOUS
  0
LAYER
  5
83
330
2
100
AcDbSymbolTableRecord
100
AcDbLayerTableRecord
  2
74
 70
     0
 62
    74
  6
CONTINUOUS
  0
LAYER
  5
84
330
2
100
AcDbSymbolTableRecord
100
AcDbLayerTableRecord
  2
75
 70
     0
 62
    75
  6
CONTINUOUS
  0
LAYER
  5
85
330
2
100
AcDbSymbolTableRecord
100
AcDbLayerTableRecord
  2
76
 70
     0
 62
    76
  6
CONTINUOUS
  0
LAYER
  5
86
330
2
100
AcDbSymbolTableRecord
100
AcDbLayerTableRecord
  2
77
 70
     0
 62
    77
  6
CONTINUOUS
  0
LAYER
  5
87
330
2
100
AcDbSymbolTableRecord
100
AcDbLayerTableRecord
  2
78
 70
     0
 62
    78
  6
CONTINUOUS
  0
LAYER
  5
88
330
2
100
AcDbSymbolTableRecord
100
AcDbLayerTableRecord
  2
79
 70
     0
 62
    79
  6
CONTINUOUS
  0
LAYER
  5
89
330
2
100
AcDbSymbolTableRecord
100
AcDbLayerTableRecord
  2
80
 70
     0
 62
    80
  6
CONTINUOUS
  0
LAYER
  5
8A
330
2
100
AcDbSymbolTableRecord
100
AcDbLayerTableRecord
  2
81
 70
     0
 62
    81
  6
CONTINUOUS
  0
LAYER
  5
8B
330
2
100
AcDbSymbolTableRecord
100
AcDbLayerTableRecord
  2
82
 70
     0
 62
    82
  6
CONTINUOUS
  0
LAYER
  5
8C
330
2
100
AcDbSymbolTableRecord
100
AcDbLayerTableRecord
  2
83
 70
     0
 62
    83
  6
CONTINUOUS
  0
LAYER
  5
8D
330
2
100
AcDbSymbolTableRecord
100
AcDbLayerTableRecord
  2
84
 70
     0
 62
    84
  6
CONTINUOUS
  0
LAYER
  5
8E
330
2
100
AcDbSymbolTableRecord
100
AcDbLayerTableRecord
  2
85
 70
     0
 62
    85
  6
CONTINUOUS
  0
LAYER
  5
8F
330
2
100
AcDbSymbolTableRecord
100
AcDbLayerTableRecord
  2
86
 70
     0
 62
    86
  6
CONTINUOUS
  0
LAYER
  5
90
330
2
100
AcDbSymbolTableRecord
100
AcDbLayerTableRecord
  2
87
 70
     0
 62
    87
  6
CONTINUOUS
  0
LAYER
  5
91
330
2
100
AcDbSymbolTableRecord
100
AcDbLayerTableRecord
  2
88
 70
     0
 62
    88
  6
CONTINUOUS
  0
LAYER
  5
92
330
2
100
AcDbSymbolTableRecord
100
AcDbLayerTableRecord
  2
89
 70
     0
 62
    89
  6
CONTINUOUS
  0
LAYER
  5
93
330
2
100
AcDbSymbolTableRecord
100
AcDbLayerTableRecord
  2
90
 70
     0
 62
    90
  6
CONTINUOUS
  0
LAYER
  5
94
330
2
100
AcDbSymbolTableRecord
100
AcDbLayerTableRecord
  2
91
 70
     0
 62
    91
  6
CONTINUOUS
  0
LAYER
  5
95
330
2
100
AcDbSymbolTableRecord
100
AcDbLayerTableRecord
  2
92
 70
     0
 62
    92
  6
CONTINUOUS
  0
LAYER
  5
96
330
2
100
AcDbSymbolTableRecord
100
AcDbLayerTableRecord
  2
93
 70
     0
 62
    93
  6
CONTINUOUS
  0
LAYER
  5
97
330
2
100
AcDbSymbolTableRecord
100
AcDbLayerTableRecord
  2
94
 70
     0
 62
    94
  6
CONTINUOUS
  0
LAYER
  5
98
330
2
100
AcDbSymbolTableRecord
100
AcDbLayerTableRecord
  2
95
 70
     0
 62
    95
  6
CONTINUOUS
  0
LAYER
  5
99
330
2
100
AcDbSymbolTableRecord
100
AcDbLayerTableRecord
  2
96
 70
     0
 62
    96
  6
CONTINUOUS
  0
LAYER
  5
9A
330
2
100
AcDbSymbolTableRecord
100
AcDbLayerTableRecord
  2
97
 70
     0
 62
    97
  6
CONTINUOUS
  0
LAYER
  5
9B
330
2
100
AcDbSymbolTableRecord
100
AcDbLayerTableRecord
  2
98
 70
     0
 62
    98
  6
CONTINUOUS
  0
LAYER
  5
9C
330
2
100
AcDbSymbolTableRecord
100
AcDbLayerTableRecord
  2
99
 70
     0
 62
    99
  6
CONTINUOUS
  0
LAYER
  5
9D
330
2
100
AcDbSymbolTableRecord
100
AcDbLayerTableRecord
  2
100
 70
     0
 62
   100
  6
CONTINUOUS
  0
LAYER
  5
9E
330
2
100
AcDbSymbolTableRecord
100
AcDbLayerTableRecord
  2
101
 70
     0
 62
   101
  6
CONTINUOUS
  0
LAYER
  5
9F
330
2
100
AcDbSymbolTableRecord
100
AcDbLayerTableRecord
  2
102
 70
     0
 62
   102
  6
CONTINUOUS
  0
LAYER
  5
A0
330
2
100
AcDbSymbolTableRecord
100
AcDbLayerTableRecord
  2
103
 70
     0
 62
   103
  6
CONTINUOUS
  0
LAYER
  5
A1
330
2
100
AcDbSymbolTableRecord
100
AcDbLayerTableRecord
  2
104
 70
     0
 62
   104
  6
CONTINUOUS
  0
LAYER
  5
A2
330
2
100
AcDbSymbolTableRecord
100
AcDbLayerTableRecord
  2
105
 70
     0
 62
   105
  6
CONTINUOUS
  0
LAYER
  5
A3
330
2
100
AcDbSymbolTableRecord
100
AcDbLayerTableRecord
  2
106
 70
     0
 62
   106
  6
CONTINUOUS
  0
LAYER
  5
A4
330
2
100
AcDbSymbolTableRecord
100
AcDbLayerTableRecord
  2
107
 70
     0
 62
   107
  6
CONTINUOUS
  0
LAYER
  5
A5
330
2
100
AcDbSymbolTableRecord
100
AcDbLayerTableRecord
  2
108
 70
     0
 62
   108
  6
CONTINUOUS
  0
LAYER
  5
A6
330
2
100
AcDbSymbolTableRecord
100
AcDbLayerTableRecord
  2
109
 70
     0
 62
   109
  6
CONTINUOUS
  0
LAYER
  5
A7
330
2
100
AcDbSymbolTableRecord
100
AcDbLayerTableRecord
  2
110
 70
     0
 62
   110
  6
CONTINUOUS
  0
LAYER
  5
A8
330
2
100
AcDbSymbolTableRecord
100
AcDbLayerTableRecord
  2
111
 70
     0
 62
   111
  6
CONTINUOUS
  0
LAYER
  5
A9
330
2
100
AcDbSymbolTableRecord
100
AcDbLayerTableRecord
  2
112
 70
     0
 62
   112
  6
CONTINUOUS
  0
LAYER
  5
AA
330
2
100
AcDbSymbolTableRecord
100
AcDbLayerTableRecord
  2
113
 70
     0
 62
   113
  6
CONTINUOUS
  0
LAYER
  5
AB
330
2
100
AcDbSymbolTableRecord
100
AcDbLayerTableRecord
  2
114
 70
     0
 62
   114
  6
CONTINUOUS
  0
LAYER
  5
AC
330
2
100
AcDbSymbolTableRecord
100
AcDbLayerTableRecord
  2
115
 70
     0
 62
   115
  6
CONTINUOUS
  0
LAYER
  5
AD
330
2
100
AcDbSymbolTableRecord
100
AcDbLayerTableRecord
  2
116
 70
     0
 62
   116
  6
CONTINUOUS
  0
LAYER
  5
AE
330
2
100
AcDbSymbolTableRecord
100
AcDbLayerTableRecord
  2
117
 70
     0
 62
   117
  6
CONTINUOUS
  0
LAYER
  5
AF
330
2
100
AcDbSymbolTableRecord
100
AcDbLayerTableRecord
  2
118
 70
     0
 62
   118
  6
CONTINUOUS
  0
LAYER
  5
B0
330
2
100
AcDbSymbolTableRecord
100
AcDbLayerTableRecord
  2
119
 70
     0
 62
   119
  6
CONTINUOUS
  0
LAYER
  5
B1
330
2
100
AcDbSymbolTableRecord
100
AcDbLayerTableRecord
  2
120
 70
     0
 62
   120
  6
CONTINUOUS
  0
LAYER
  5
B2
330
2
100
AcDbSymbolTableRecord
100
AcDbLayerTableRecord
  2
121
 70
     0
 62
   121
  6
CONTINUOUS
  0
LAYER
  5
B3
330
2
100
AcDbSymbolTableRecord
100
AcDbLayerTableRecord
  2
122
 70
     0
 62
   122
  6
CONTINUOUS
  0
LAYER
  5
B4
330
2
100
AcDbSymbolTableRecord
100
AcDbLayerTableRecord
  2
123
 70
     0
 62
   123
  6
CONTINUOUS
  0
LAYER
  5
B5
330
2
100
AcDbSymbolTableRecord
100
AcDbLayerTableRecord
  2
124
 70
     0
 62
   124
  6
CONTINUOUS
  0
LAYER
  5
B6
330
2
100
AcDbSymbolTableRecord
100
AcDbLayerTableRecord
  2
125
 70
     0
 62
   125
  6
CONTINUOUS
  0
LAYER
  5
B7
330
2
100
AcDbSymbolTableRecord
100
AcDbLayerTableRecord
  2
126
 70
     0
 62
   126
  6
CONTINUOUS
  0
LAYER
  5
B8
330
2
100
AcDbSymbolTableRecord
100
AcDbLayerTableRecord
  2
127
 70
     0
 62
   127
  6
CONTINUOUS
  0
LAYER
  5
B9
330
2
100
AcDbSymbolTableRecord
100
AcDbLayerTableRecord
  2
128
 70
     0
 62
   128
  6
CONTINUOUS
  0
LAYER
  5
BA
330
2
100
AcDbSymbolTableRecord
100
AcDbLayerTableRecord
  2
129
 70
     0
 62
   129
  6
CONTINUOUS
  0
LAYER
  5
BB
330
2
100
AcDbSymbolTableRecord
100
AcDbLayerTableRecord
  2
130
 70
     0
 62
   130
  6
CONTINUOUS
  0
LAYER
  5
BC
330
2
100
AcDbSymbolTableRecord
100
AcDbLayerTableRecord
  2
131
 70
     0
 62
   131
  6
CONTINUOUS
  0
LAYER
  5
BD
330
2
100
AcDbSymbolTableRecord
100
AcDbLayerTableRecord
  2
132
 70
     0
 62
   132
  6
CONTINUOUS
  0
LAYER
  5
BE
330
2
100
AcDbSymbolTableRecord
100
AcDbLayerTableRecord
  2
133
 70
     0
 62
   133
  6
CONTINUOUS
  0
LAYER
  5
BF
330
2
100
AcDbSymbolTableRecord
100
AcDbLayerTableRecord
  2
134
 70
     0
 62
   134
  6
CONTINUOUS
  0
LAYER
  5
C0
330
2
100
AcDbSymbolTableRecord
100
AcDbLayerTableRecord
  2
135
 70
     0
 62
   135
  6
CONTINUOUS
  0
LAYER
  5
C1
330
2
100
AcDbSymbolTableRecord
100
AcDbLayerTableRecord
  2
136
 70
     0
 62
   136
  6
CONTINUOUS
  0
LAYER
  5
C2
330
2
100
AcDbSymbolTableRecord
100
AcDbLayerTableRecord
  2
137
 70
     0
 62
   137
  6
CONTINUOUS
  0
LAYER
  5
C3
330
2
100
AcDbSymbolTableRecord
100
AcDbLayerTableRecord
  2
138
 70
     0
 62
   138
  6
CONTINUOUS
  0
LAYER
  5
C4
330
2
100
AcDbSymbolTableRecord
100
AcDbLayerTableRecord
  2
139
 70
     0
 62
   139
  6
CONTINUOUS
  0
LAYER
  5
C5
330
2
100
AcDbSymbolTableRecord
100
AcDbLayerTableRecord
  2
140
 70
     0
 62
   140
  6
CONTINUOUS
  0
LAYER
  5
C6
330
2
100
AcDbSymbolTableRecord
100
AcDbLayerTableRecord
  2
141
 70
     0
 62
   141
  6
CONTINUOUS
  0
LAYER
  5
C7
330
2
100
AcDbSymbolTableRecord
100
AcDbLayerTableRecord
  2
142
 70
     0
 62
   142
  6
CONTINUOUS
  0
LAYER
  5
C8
330
2
100
AcDbSymbolTableRecord
100
AcDbLayerTableRecord
  2
143
 70
     0
 62
   143
  6
CONTINUOUS
  0
LAYER
  5
C9
330
2
100
AcDbSymbolTableRecord
100
AcDbLayerTableRecord
  2
144
 70
     0
 62
   144
  6
CONTINUOUS
  0
LAYER
  5
CA
330
2
100
AcDbSymbolTableRecord
100
AcDbLayerTableRecord
  2
145
 70
     0
 62
   145
  6
CONTINUOUS
  0
LAYER
  5
CB
330
2
100
AcDbSymbolTableRecord
100
AcDbLayerTableRecord
  2
146
 70
     0
 62
   146
  6
CONTINUOUS
  0
LAYER
  5
CC
330
2
100
AcDbSymbolTableRecord
100
AcDbLayerTableRecord
  2
147
 70
     0
 62
   147
  6
CONTINUOUS
  0
LAYER
  5
CD
330
2
100
AcDbSymbolTableRecord
100
AcDbLayerTableRecord
  2
148
 70
     0
 62
   148
  6
CONTINUOUS
  0
LAYER
  5
CE
330
2
100
AcDbSymbolTableRecord
100
AcDbLayerTableRecord
  2
149
 70
     0
 62
   149
  6
CONTINUOUS
  0
LAYER
  5
CF
330
2
100
AcDbSymbolTableRecord
100
AcDbLayerTableRecord
  2
150
 70
     0
 62
   150
  6
CONTINUOUS
  0
LAYER
  5
D0
330
2
100
AcDbSymbolTableRecord
100
AcDbLayerTableRecord
  2
151
 70
     0
 62
   151
  6
CONTINUOUS
  0
LAYER
  5
D1
330
2
100
AcDbSymbolTableRecord
100
AcDbLayerTableRecord
  2
152
 70
     0
 62
   152
  6
CONTINUOUS
  0
LAYER
  5
D2
330
2
100
AcDbSymbolTableRecord
100
AcDbLayerTableRecord
  2
153
 70
     0
 62
   153
  6
CONTINUOUS
  0
LAYER
  5
D3
330
2
100
AcDbSymbolTableRecord
100
AcDbLayerTableRecord
  2
154
 70
     0
 62
   154
  6
CONTINUOUS
  0
LAYER
  5
D4
330
2
100
AcDbSymbolTableRecord
100
AcDbLayerTableRecord
  2
155
 70
     0
 62
   155
  6
CONTINUOUS
  0
LAYER
  5
D5
330
2
100
AcDbSymbolTableRecord
100
AcDbLayerTableRecord
  2
156
 70
     0
 62
   156
  6
CONTINUOUS
  0
LAYER
  5
D6
330
2
100
AcDbSymbolTableRecord
100
AcDbLayerTableRecord
  2
157
 70
     0
 62
   157
  6
CONTINUOUS
  0
LAYER
  5
D7
330
2
100
AcDbSymbolTableRecord
100
AcDbLayerTableRecord
  2
158
 70
     0
 62
   158
  6
CONTINUOUS
  0
LAYER
  5
D8
330
2
100
AcDbSymbolTableRecord
100
AcDbLayerTableRecord
  2
159
 70
     0
 62
   159
  6
CONTINUOUS
  0
LAYER
  5
D9
330
2
100
AcDbSymbolTableRecord
100
AcDbLayerTableRecord
  2
160
 70
     0
 62
   160
  6
CONTINUOUS
  0
LAYER
  5
DA
330
2
100
AcDbSymbolTableRecord
100
AcDbLayerTableRecord
  2
161
 70
     0
 62
   161
  6
CONTINUOUS
  0
LAYER
  5
DB
330
2
100
AcDbSymbolTableRecord
100
AcDbLayerTableRecord
  2
162
 70
     0
 62
   162
  6
CONTINUOUS
  0
LAYER
  5
DC
330
2
100
AcDbSymbolTableRecord
100
AcDbLayerTableRecord
  2
163
 70
     0
 62
   163
  6
CONTINUOUS
  0
LAYER
  5
DD
330
2
100
AcDbSymbolTableRecord
100
AcDbLayerTableRecord
  2
164
 70
     0
 62
   164
  6
CONTINUOUS
  0
LAYER
  5
DE
330
2
100
AcDbSymbolTableRecord
100
AcDbLayerTableRecord
  2
165
 70
     0
 62
   165
  6
CONTINUOUS
  0
LAYER
  5
DF
330
2
100
AcDbSymbolTableRecord
100
AcDbLayerTableRecord
  2
166
 70
     0
 62
   166
  6
CONTINUOUS
  0
LAYER
  5
E0
330
2
100
AcDbSymbolTableRecord
100
AcDbLayerTableRecord
  2
167
 70
     0
 62
   167
  6
CONTINUOUS
  0
LAYER
  5
E1
330
2
100
AcDbSymbolTableRecord
100
AcDbLayerTableRecord
  2
168
 70
     0
 62
   168
  6
CONTINUOUS
  0
LAYER
  5
E2
330
2
100
AcDbSymbolTableRecord
100
AcDbLayerTableRecord
  2
169
 70
     0
 62
   169
  6
CONTINUOUS
  0
LAYER
  5
E3
330
2
100
AcDbSymbolTableRecord
100
AcDbLayerTableRecord
  2
170
 70
     0
 62
   170
  6
CONTINUOUS
  0
LAYER
  5
E4
330
2
100
AcDbSymbolTableRecord
100
AcDbLayerTableRecord
  2
171
 70
     0
 62
   171
  6
CONTINUOUS
  0
LAYER
  5
E5
330
2
100
AcDbSymbolTableRecord
100
AcDbLayerTableRecord
  2
172
 70
     0
 62
   172
  6
CONTINUOUS
  0
LAYER
  5
E6
330
2
100
AcDbSymbolTableRecord
100
AcDbLayerTableRecord
  2
173
 70
     0
 62
   173
  6
CONTINUOUS
  0
LAYER
  5
E7
330
2
100
AcDbSymbolTableRecord
100
AcDbLayerTableRecord
  2
174
 70
     0
 62
   174
  6
CONTINUOUS
  0
LAYER
  5
E8
330
2
100
AcDbSymbolTableRecord
100
AcDbLayerTableRecord
  2
175
 70
     0
 62
   175
  6
CONTINUOUS
  0
LAYER
  5
E9
330
2
100
AcDbSymbolTableRecord
100
AcDbLayerTableRecord
  2
176
 70
     0
 62
   176
  6
CONTINUOUS
  0
LAYER
  5
EA
330
2
100
AcDbSymbolTableRecord
100
AcDbLayerTableRecord
  2
177
 70
     0
 62
   177
  6
CONTINUOUS
  0
LAYER
  5
EB
330
2
100
AcDbSymbolTableRecord
100
AcDbLayerTableRecord
  2
178
 70
     0
 62
   178
  6
CONTINUOUS
  0
LAYER
  5
EC
330
2
100
AcDbSymbolTableRecord
100
AcDbLayerTableRecord
  2
179
 70
     0
 62
   179
  6
CONTINUOUS
  0
LAYER
  5
ED
330
2
100
AcDbSymbolTableRecord
100
AcDbLayerTableRecord
  2
180
 70
     0
 62
   180
  6
CONTINUOUS
  0
LAYER
  5
EE
330
2
100
AcDbSymbolTableRecord
100
AcDbLayerTableRecord
  2
181
 70
     0
 62
   181
  6
CONTINUOUS
  0
LAYER
  5
EF
330
2
100
AcDbSymbolTableRecord
100
AcDbLayerTableRecord
  2
182
 70
     0
 62
   182
  6
CONTINUOUS
  0
LAYER
  5
F0
330
2
100
AcDbSymbolTableRecord
100
AcDbLayerTableRecord
  2
183
 70
     0
 62
   183
  6
CONTINUOUS
  0
LAYER
  5
F1
330
2
100
AcDbSymbolTableRecord
100
AcDbLayerTableRecord
  2
184
 70
     0
 62
   184
  6
CONTINUOUS
  0
LAYER
  5
F2
330
2
100
AcDbSymbolTableRecord
100
AcDbLayerTableRecord
  2
185
 70
     0
 62
   185
  6
CONTINUOUS
  0
LAYER
  5
F3
330
2
100
AcDbSymbolTableRecord
100
AcDbLayerTableRecord
  2
186
 70
     0
 62
   186
  6
CONTINUOUS
  0
LAYER
  5
F4
330
2
100
AcDbSymbolTableRecord
100
AcDbLayerTableRecord
  2
187
 70
     0
 62
   187
  6
CONTINUOUS
  0
LAYER
  5
F5
330
2
100
AcDbSymbolTableRecord
100
AcDbLayerTableRecord
  2
188
 70
     0
 62
   188
  6
CONTINUOUS
  0
LAYER
  5
F6
330
2
100
AcDbSymbolTableRecord
100
AcDbLayerTableRecord
  2
189
 70
     0
 62
   189
  6
CONTINUOUS
  0
LAYER
  5
F7
330
2
100
AcDbSymbolTableRecord
100
AcDbLayerTableRecord
  2
190
 70
     0
 62
   190
  6
CONTINUOUS
  0
LAYER
  5
F8
330
2
100
AcDbSymbolTableRecord
100
AcDbLayerTableRecord
  2
191
 70
     0
 62
   191
  6
CONTINUOUS
  0
LAYER
  5
F9
330
2
100
AcDbSymbolTableRecord
100
AcDbLayerTableRecord
  2
192
 70
     0
 62
   192
  6
CONTINUOUS
  0
LAYER
  5
FA
330
2
100
AcDbSymbolTableRecord
100
AcDbLayerTableRecord
  2
193
 70
     0
 62
   193
  6
CONTINUOUS
  0
LAYER
  5
FB
330
2
100
AcDbSymbolTableRecord
100
AcDbLayerTableRecord
  2
194
 70
     0
 62
   194
  6
CONTINUOUS
  0
LAYER
  5
FC
330
2
100
AcDbSymbolTableRecord
100
AcDbLayerTableRecord
  2
195
 70
     0
 62
   195
  6
CONTINUOUS
  0
LAYER
  5
FD
330
2
100
AcDbSymbolTableRecord
100
AcDbLayerTableRecord
  2
196
 70
     0
 62
   196
  6
CONTINUOUS
  0
LAYER
  5
FE
330
2
100
AcDbSymbolTableRecord
100
AcDbLayerTableRecord
  2
197
 70
     0
 62
   197
  6
CONTINUOUS
  0
LAYER
  5
FF
330
2
100
AcDbSymbolTableRecord
100
AcDbLayerTableRecord
  2
198
 70
     0
 62
   198
  6
CONTINUOUS
  0
LAYER
  5
100
330
2
100
AcDbSymbolTableRecord
100
AcDbLayerTableRecord
  2
199
 70
     0
 62
   199
  6
CONTINUOUS
  0
LAYER
  5
101
330
2
100
AcDbSymbolTableRecord
100
AcDbLayerTableRecord
  2
200
 70
     0
 62
   200
  6
CONTINUOUS
  0
LAYER
  5
102
330
2
100
AcDbSymbolTableRecord
100
AcDbLayerTableRecord
  2
201
 70
     0
 62
   201
  6
CONTINUOUS
  0
LAYER
  5
103
330
2
100
AcDbSymbolTableRecord
100
AcDbLayerTableRecord
  2
202
 70
     0
 62
   202
  6
CONTINUOUS
  0
LAYER
  5
104
330
2
100
AcDbSymbolTableRecord
100
AcDbLayerTableRecord
  2
203
 70
     0
 62
   203
  6
CONTINUOUS
  0
LAYER
  5
105
330
2
100
AcDbSymbolTableRecord
100
AcDbLayerTableRecord
  2
204
 70
     0
 62
   204
  6
CONTINUOUS
  0
LAYER
  5
106
330
2
100
AcDbSymbolTableRecord
100
AcDbLayerTableRecord
  2
205
 70
     0
 62
   205
  6
CONTINUOUS
  0
LAYER
  5
107
330
2
100
AcDbSymbolTableRecord
100
AcDbLayerTableRecord
  2
206
 70
     0
 62
   206
  6
CONTINUOUS
  0
LAYER
  5
108
330
2
100
AcDbSymbolTableRecord
100
AcDbLayerTableRecord
  2
207
 70
     0
 62
   207
  6
CONTINUOUS
  0
LAYER
  5
109
330
2
100
AcDbSymbolTableRecord
100
AcDbLayerTableRecord
  2
208
 70
     0
 62
   208
  6
CONTINUOUS
  0
LAYER
  5
10A
330
2
100
AcDbSymbolTableRecord
100
AcDbLayerTableRecord
  2
209
 70
     0
 62
   209
  6
CONTINUOUS
  0
LAYER
  5
10B
330
2
100
AcDbSymbolTableRecord
100
AcDbLayerTableRecord
  2
210
 70
     0
 62
   210
  6
CONTINUOUS
  0
LAYER
  5
10C
330
2
100
AcDbSymbolTableRecord
100
AcDbLayerTableRecord
  2
211
 70
     0
 62
   211
  6
CONTINUOUS
  0
LAYER
  5
10D
330
2
100
AcDbSymbolTableRecord
100
AcDbLayerTableRecord
  2
212
 70
     0
 62
   212
  6
CONTINUOUS
  0
LAYER
  5
10E
330
2
100
AcDbSymbolTableRecord
100
AcDbLayerTableRecord
  2
213
 70
     0
 62
   213
  6
CONTINUOUS
  0
LAYER
  5
10F
330
2
100
AcDbSymbolTableRecord
100
AcDbLayerTableRecord
  2
214
 70
     0
 62
   214
  6
CONTINUOUS
  0
LAYER
  5
110
330
2
100
AcDbSymbolTableRecord
100
AcDbLayerTableRecord
  2
215
 70
     0
 62
   215
  6
CONTINUOUS
  0
LAYER
  5
111
330
2
100
AcDbSymbolTableRecord
100
AcDbLayerTableRecord
  2
216
 70
     0
 62
   216
  6
CONTINUOUS
  0
LAYER
  5
112
330
2
100
AcDbSymbolTableRecord
100
AcDbLayerTableRecord
  2
217
 70
     0
 62
   217
  6
CONTINUOUS
  0
LAYER
  5
113
330
2
100
AcDbSymbolTableRecord
100
AcDbLayerTableRecord
  2
218
 70
     0
 62
   218
  6
CONTINUOUS
  0
LAYER
  5
114
330
2
100
AcDbSymbolTableRecord
100
AcDbLayerTableRecord
  2
219
 70
     0
 62
   219
  6
CONTINUOUS
  0
LAYER
  5
115
330
2
100
AcDbSymbolTableRecord
100
AcDbLayerTableRecord
  2
220
 70
     0
 62
   220
  6
CONTINUOUS
  0
LAYER
  5
116
330
2
100
AcDbSymbolTableRecord
100
AcDbLayerTableRecord
  2
221
 70
     0
 62
   221
  6
CONTINUOUS
  0
LAYER
  5
117
330
2
100
AcDbSymbolTableRecord
100
AcDbLayerTableRecord
  2
222
 70
     0
 62
   222
  6
CONTINUOUS
  0
LAYER
  5
118
330
2
100
AcDbSymbolTableRecord
100
AcDbLayerTableRecord
  2
223
 70
     0
 62
   223
  6
CONTINUOUS
  0
LAYER
  5
119
330
2
100
AcDbSymbolTableRecord
100
AcDbLayerTableRecord
  2
224
 70
     0
 62
   224
  6
CONTINUOUS
  0
LAYER
  5
11A
330
2
100
AcDbSymbolTableRecord
100
AcDbLayerTableRecord
  2
225
 70
     0
 62
   225
  6
CONTINUOUS
  0
LAYER
  5
11B
330
2
100
AcDbSymbolTableRecord
100
AcDbLayerTableRecord
  2
226
 70
     0
 62
   226
  6
CONTINUOUS
  0
LAYER
  5
11C
330
2
100
AcDbSymbolTableRecord
100
AcDbLayerTableRecord
  2
227
 70
     0
 62
   227
  6
CONTINUOUS
  0
LAYER
  5
11D
330
2
100
AcDbSymbolTableRecord
100
AcDbLayerTableRecord
  2
228
 70
     0
 62
   228
  6
CONTINUOUS
  0
LAYER
  5
11E
330
2
100
AcDbSymbolTableRecord
100
AcDbLayerTableRecord
  2
229
 70
     0
 62
   229
  6
CONTINUOUS
  0
LAYER
  5
11F
330
2
100
AcDbSymbolTableRecord
100
AcDbLayerTableRecord
  2
230
 70
     0
 62
   230
  6
CONTINUOUS
  0
LAYER
  5
120
330
2
100
AcDbSymbolTableRecord
100
AcDbLayerTableRecord
  2
231
 70
     0
 62
   231
  6
CONTINUOUS
  0
LAYER
  5
121
330
2
100
AcDbSymbolTableRecord
100
AcDbLayerTableRecord
  2
232
 70
     0
 62
   232
  6
CONTINUOUS
  0
LAYER
  5
122
330
2
100
AcDbSymbolTableRecord
100
AcDbLayerTableRecord
  2
233
 70
     0
 62
   233
  6
CONTINUOUS
  0
LAYER
  5
123
330
2
100
AcDbSymbolTableRecord
100
AcDbLayerTableRecord
  2
234
 70
     0
 62
   234
  6
CONTINUOUS
  0
LAYER
  5
124
330
2
100
AcDbSymbolTableRecord
100
AcDbLayerTableRecord
  2
235
 70
     0
 62
   235
  6
CONTINUOUS
  0
LAYER
  5
125
330
2
100
AcDbSymbolTableRecord
100
AcDbLayerTableRecord
  2
236
 70
     0
 62
   236
  6
CONTINUOUS
  0
LAYER
  5
126
330
2
100
AcDbSymbolTableRecord
100
AcDbLayerTableRecord
  2
237
 70
     0
 62
   237
  6
CONTINUOUS
  0
LAYER
  5
127
330
2
100
AcDbSymbolTableRecord
100
AcDbLayerTableRecord
  2
238
 70
     0
 62
   238
  6
CONTINUOUS
  0
LAYER
  5
128
330
2
100
AcDbSymbolTableRecord
100
AcDbLayerTableRecord
  2
239
 70
     0
 62
   239
  6
CONTINUOUS
  0
LAYER
  5
129
330
2
100
AcDbSymbolTableRecord
100
AcDbLayerTableRecord
  2
240
 70
     0
 62
   240
  6
CONTINUOUS
  0
LAYER
  5
12A
330
2
100
AcDbSymbolTableRecord
100
AcDbLayerTableRecord
  2
241
 70
     0
 62
   241
  6
CONTINUOUS
  0
LAYER
  5
12B
330
2
100
AcDbSymbolTableRecord
100
AcDbLayerTableRecord
  2
242
 70
     0
 62
   242
  6
CONTINUOUS
  0
LAYER
  5
12C
330
2
100
AcDbSymbolTableRecord
100
AcDbLayerTableRecord
  2
243
 70
     0
 62
   243
  6
CONTINUOUS
  0
LAYER
  5
12D
330
2
100
AcDbSymbolTableRecord
100
AcDbLayerTableRecord
  2
244
 70
     0
 62
   244
  6
CONTINUOUS
  0
LAYER
  5
12E
330
2
100
AcDbSymbolTableRecord
100
AcDbLayerTableRecord
  2
245
 70
     0
 62
   245
  6
CONTINUOUS
  0
LAYER
  5
12F
330
2
100
AcDbSymbolTableRecord
100
AcDbLayerTableRecord
  2
246
 70
     0
 62
   246
  6
CONTINUOUS
  0
LAYER
  5
130
330
2
100
AcDbSymbolTableRecord
100
AcDbLayerTableRecord
  2
247
 70
     0
 62
   247
  6
CONTINUOUS
  0
LAYER
  5
131
330
2
100
AcDbSymbolTableRecord
100
AcDbLayerTableRecord
  2
248
 70
     0
 62
   248
  6
CONTINUOUS
  0
LAYER
  5
132
330
2
100
AcDbSymbolTableRecord
100
AcDbLayerTableRecord
  2
249
 70
     0
 62
   249
  6
CONTINUOUS
  0
LAYER
  5
133
330
2
100
AcDbSymbolTableRecord
100
AcDbLayerTableRecord
  2
250
 70
     0
 62
   250
  6
CONTINUOUS
  0
LAYER
  5
134
330
2
100
AcDbSymbolTableRecord
100
AcDbLayerTableRecord
  2
251
 70
     0
 62
   251
  6
CONTINUOUS
  0
LAYER
  5
135
330
2
100
AcDbSymbolTableRecord
100
AcDbLayerTableRecord
  2
252
 70
     0
 62
   252
  6
CONTINUOUS
  0
LAYER
  5
136
330
2
100
AcDbSymbolTableRecord
100
AcDbLayerTableRecord
  2
253
 70
     0
 62
   253
  6
CONTINUOUS
  0
LAYER
  5
137
330
2
100
AcDbSymbolTableRecord
100
AcDbLayerTableRecord
  2
254
 70
     0
 62
   254
  6
CONTINUOUS
  0
LAYER
  5
138
330
2
100
AcDbSymbolTableRecord
100
AcDbLayerTableRecord
  2
255
 70
     0
 62
   255
  6
CONTINUOUS
  0
LAYER
  5
3363
330
2
100
AcDbSymbolTableRecord
100
AcDbLayerTableRecord
  2
DEFPOINTS
 70
     0
 62
     7
  6
CONTINUOUS
  0
ENDTAB
  0
TABLE
  2
STYLE
  5
3
330
0
100
AcDbSymbolTable
 70
     1
  0
STYLE
  5
11
330
3
100
AcDbSymbolTableRecord
100
AcDbTextStyleTableRecord
  2
STANDARD
 70
     0
 40
0.0
 41
1.0
 50
0.0
 71
     0
 42
0.2
  3
txt
  4

  0
ENDTAB
  0
TABLE
  2
VIEW
  5
6
330
0
100
AcDbSymbolTable
 70
     0
  0
ENDTAB
  0
TABLE
  2
UCS
  5
7
330
0
100
AcDbSymbolTable
 70
     0
  0
ENDTAB
  0
TABLE
  2
APPID
  5
9
330
0
100
AcDbSymbolTable
 70
     1
  0
APPID
  5
12
330
9
100
AcDbSymbolTableRecord
100
AcDbRegAppTableRecord
  2
ACAD
 70
     0
  0
ENDTAB
  0
TABLE
  2
DIMSTYLE
  5
A
330
0
100
AcDbSymbolTable
 70
     1
  0
DIMSTYLE
105
335F
330
A
100
AcDbSymbolTableRecord
100
AcDbDimStyleTableRecord
  2
STANDARD
 70
     0
  3

  4

  5

  6

  7

 40
1.0
 41
0.18
 42
0.0625
 43
0.38
 44
0.18
 45
0.0
 46
0.0
 47
0.0
 48
0.0
140
0.18
141
0.09
142
0.0
143
25.4
144
1.0
145
0.0
146
1.0
147
0.09
 71
     0
 72
     0
 73
     1
 74
     1
 75
     0
 76
     0
 77
     0
 78
     0
170
     0
171
     2
172
     0
173
     0
174
     0
175
     0
176
     0
177
     0
178
     0
270
     2
271
     4
272
     4
273
     2
274
     2
340
11
275
     0
280
     0
281
     0
282
     0
283
     1
284
     0
285
     0
286
     0
287
     3
288
     0
  0
ENDTAB
  0
TABLE
  2
BLOCK_RECORD
  5
1
330
0
100
AcDbSymbolTable
 70
     1
  0
BLOCK_RECORD
  5
1E
102
{ACAD_XDICTIONARY
360
3377
102
}
330
1
100
AcDbSymbolTableRecord
100
AcDbBlockTableRecord
  2
*MODEL_SPACE
  0
BLOCK_RECORD
  5
1A
102
{ACAD_XDICTIONARY
360
3375
102
}
330
1
100
AcDbSymbolTableRecord
100
AcDbBlockTableRecord
  2
*PAPER_SPACE
  0
ENDTAB
  0
ENDSEC
  0
SECTION
  2
BLOCKS
  0
BLOCK
  5
13B
330
1E
100
AcDbEntity
  8
0
100
AcDbBlockBegin
  2
*MODEL_SPACE
 70
     0
 10
0.0
 20
0.0
 30
0.0
  3
*MODEL_SPACE
  1

  0
ENDBLK
  5
13C
330
1E
100
AcDbEntity
  8
0
100
AcDbBlockEnd
  0
BLOCK
  5
139
330
1A
100
AcDbEntity
 67
     1
  8
0
100
AcDbBlockBegin
  2
*PAPER_SPACE
 70
     0
 10
0.0
 20
0.0
 30
0.0
  3
*PAPER_SPACE
  1

  0
ENDBLK
  5
13A
330
1A
100
AcDbEntity
 67
     1
  8
0
100
AcDbBlockEnd
  0
ENDSEC
  0
SECTION
  2
ENTITIES
  0
LINE
  5
2D9E
330
1E
100
AcDbEntity
  8
0
100
AcDbLine
 10
1.453740157480314
 20
4.388779527559054
 30
0.0
 11
1.453740157480314
 21
4.081692913385826
 31
0.0
  0
LINE
  5
2D9F
330
1E
100
AcDbEntity
  8
0
100
AcDbLine
 10
3.089566929133858
 20
4.388779527559054
 30
0.0
 11
3.089566929133858
 21
4.081692913385826
 31
0.0
  0
LINE
  5
2DA0
330
1E
100
AcDbEntity
  8
0
100
AcDbLine
 10
1.453740157480314
 20
4.081692913385826
 30
0.0
 11
1.488188976377952
 21
4.081692913385826
 31
0.0
  0
LINE
  5
2DA1
330
1E
100
AcDbEntity
  8
0
100
AcDbLine
 10
1.488188976377952
 20
4.388779527559054
 30
0.0
 11
1.488188976377952
 21
4.081692913385826
 31
0.0
  0
LINE
  5
2DA2
330
1E
100
AcDbEntity
  8
0
100
AcDbLine
 10
1.488188976377952
 20
4.388779527559054
 30
0.0
 11
1.453740157480314
 21
4.388779527559054
 31
0.0
  0
LINE
  5
2DA3
330
1E
100
AcDbEntity
  8
0
100
AcDbLine
 10
3.054133858267716
 20
4.388779527559054
 30
0.0
 11
3.054133858267716
 21
4.081692913385826
 31
0.0
  0
LINE
  5
2DA4
330
1E
100
AcDbEntity
  8
0
100
AcDbLine
 10
3.089566929133858
 20
4.081692913385826
 30
0.0
 11
3.054133858267716
 21
4.081692913385826
 31
0.0
  0
LINE
  5
2DA5
330
1E
100
AcDbEntity
  8
0
100
AcDbLine
 10
3.054133858267716
 20
4.388779527559054
 30
0.0
 11
3.089566929133858
 21
4.388779527559054
 31
0.0
  0
POLYLINE
  5
2DA6
330
1E
100
AcDbEntity
  8
0
100
AcDb2dPolyline
 66
     1
 10
0.0
 20
0.0
 30
0.0
  0
VERTEX
  5
3379
330
2DA6
100
AcDbEntity
  8
0
100
AcDbVertex
100
AcDb2dVertex
 10
1.493110236220472
 20
4.406496062992125
 30
0.0
  0
VERTEX
  5
337A
330
2DA6
100
AcDbEntity
  8
0
100
AcDbVertex
100
AcDb2dVertex
 10
1.493110236220472
 20
4.399606299212598
 30
0.0
  0
VERTEX
  5
337B
330
2DA6
100
AcDbEntity
  8
0
100
AcDbVertex
100
AcDb2dVertex
 10
1.493110236220472
 20
4.396653543307086
 30
0.0
  0
SEQEND
  5
337C
330
2DA6
100
AcDbEntity
  8
0
  0
LINE
  5
2DAB
330
1E
100
AcDbEntity
  8
0
100
AcDbLine
 10
1.493110236220472
 20
4.396653543307086
 30
0.0
 11
1.488188976377952
 21
4.388779527559054
 31
0.0
  0
LINE
  5
2DAC
330
1E
100
AcDbEntity
  8
0
100
AcDbLine
 10
1.488188976377952
 20
4.081692913385826
 30
0.0
 11
1.493110236220472
 21
4.072834645669291
 31
0.0
  0
POLYLINE
  5
2DAD
330
1E
100
AcDbEntity
  8
0
100
AcDb2dPolyline
 66
     1
 10
0.0
 20
0.0
 30
0.0
  0
VERTEX
  5
337D
330
2DAD
100
AcDbEntity
  8
0
100
AcDbVertex
100
AcDb2dVertex
 10
1.493110236220472
 20
4.072834645669291
 30
0.0
  0
VERTEX
  5
337E
330
2DAD
100
AcDbEntity
  8
0
100
AcDbVertex
100
AcDb2dVertex
 10
1.493110236220472
 20
4.069881889763779
 30
0.0
  0
VERTEX
  5
337F
330
2DAD
100
AcDbEntity
  8
0
100
AcDbVertex
100
AcDb2dVertex
 10
1.493110236220472
 20
4.062992125984251
 30
0.0
  0
SEQEND
  5
3380
330
2DAD
100
AcDbEntity
  8
0
  0
LINE
  5
2DB2
330
1E
100
AcDbEntity
  8
0
100
AcDbLine
 10
1.493110236220472
 20
4.039370078740157
 30
0.0
 11
1.49015748031496
 21
4.039370078740157
 31
0.0
  0
LINE
  5
2DB3
330
1E
100
AcDbEntity
  8
0
100
AcDbLine
 10
1.493110236220472
 20
4.039370078740157
 30
0.0
 11
1.493110236220472
 21
4.062992125984251
 31
0.0
  0
LINE
  5
2DB4
330
1E
100
AcDbEntity
  8
0
100
AcDbLine
 10
1.493110236220472
 20
4.406496062992125
 30
0.0
 11
1.493110236220472
 21
4.43011811023622
 31
0.0
  0
LINE
  5
2DB5
330
1E
100
AcDbEntity
  8
0
100
AcDbLine
 10
1.493110236220472
 20
4.43011811023622
 30
0.0
 11
1.49015748031496
 21
4.43011811023622
 31
0.0
  0
LINE
  5
2DB6
330
1E
100
AcDbEntity
  8
0
100
AcDbLine
 10
3.0501968503937
 20
4.396653543307086
 30
0.0
 11
3.054133858267716
 21
4.388779527559054
 31
0.0
  0
POLYLINE
  5
2DB7
330
1E
100
AcDbEntity
  8
0
100
AcDb2dPolyline
 66
     1
 10
0.0
 20
0.0
 30
0.0
  0
VERTEX
  5
3381
330
2DB7
100
AcDbEntity
  8
0
100
AcDbVertex
100
AcDb2dVertex
 10
3.0501968503937
 20
4.406496062992125
 30
0.0
  0
VERTEX
  5
3382
330
2DB7
100
AcDbEntity
  8
0
100
AcDbVertex
100
AcDb2dVertex
 10
3.0501968503937
 20
4.399606299212598
 30
0.0
  0
VERTEX
  5
3383
330
2DB7
100
AcDbEntity
  8
0
100
AcDbVertex
100
AcDb2dVertex
 10
3.0501968503937
 20
4.396653543307086
 30
0.0
  0
SEQEND
  5
3384
330
2DB7
100
AcDbEntity
  8
0
  0
LINE
  5
2DBC
330
1E
100
AcDbEntity
  8
0
100
AcDbLine
 10
3.0501968503937
 20
4.43011811023622
 30
0.0
 11
3.052165354330708
 21
4.43011811023622
 31
0.0
  0
LINE
  5
2DBD
330
1E
100
AcDbEntity
  8
0
100
AcDbLine
 10
3.0501968503937
 20
4.406496062992125
 30
0.0
 11
3.0501968503937
 21
4.43011811023622
 31
0.0
  0
POLYLINE
  5
2DBE
330
1E
100
AcDbEntity
  8
0
100
AcDb2dPolyline
 66
     1
 10
0.0
 20
0.0
 30
0.0
  0
VERTEX
  5
3385
330
2DBE
100
AcDbEntity
  8
0
100
AcDbVertex
100
AcDb2dVertex
 10
3.0501968503937
 20
4.072834645669291
 30
0.0
  0
VERTEX
  5
3386
330
2DBE
100
AcDbEntity
  8
0
100
AcDbVertex
100
AcDb2dVertex
 10
3.0501968503937
 20
4.069881889763779
 30
0.0
  0
VERTEX
  5
3387
330
2DBE
100
AcDbEntity
  8
0
100
AcDbVertex
100
AcDb2dVertex
 10
3.0501968503937
 20
4.062992125984251
 30
0.0
  0
SEQEND
  5
3388
330
2DBE
100
AcDbEntity
  8
0
  0
LINE
  5
2DC3
330
1E
100
AcDbEntity
  8
0
100
AcDbLine
 10
3.054133858267716
 20
4.081692913385826
 30
0.0
 11
3.0501968503937
 21
4.072834645669291
 31
0.0
  0
LINE
  5
2DC4
330
1E
100
AcDbEntity
  8
0
100
AcDbLine
 10
1.489173228346456
 20
4.435039370078739
 30
0.0
 11
1.49015748031496
 21
4.43011811023622
 31
0.0
  0
LINE
  5
2DC5
330
1E
100
AcDbEntity
  8
0
100
AcDbLine
 10
1.489173228346456
 20
4.435039370078739
 30
0.0
 11
1.489173228346456
 21
4.681102362204724
 31
0.0
  0
LINE
  5
2DC6
330
1E
100
AcDbEntity
  8
0
100
AcDbLine
 10
3.0501968503937
 20
4.039370078740157
 30
0.0
 11
3.048228346456693
 21
4.034448818897637
 31
0.0
  0
LINE
  5
2DC7
330
1E
100
AcDbEntity
  8
0
100
AcDbLine
 10
3.048228346456693
 20
4.034448818897637
 30
0.0
 11
3.053149606299212
 21
4.034448818897637
 31
0.0
  0
LINE
  5
2DC8
330
1E
100
AcDbEntity
  8
0
100
AcDbLine
 10
3.052165354330708
 20
4.039370078740157
 30
0.0
 11
3.053149606299212
 21
4.034448818897637
 31
0.0
  0
LINE
  5
2DC9
330
1E
100
AcDbEntity
  8
0
100
AcDbLine
 10
3.0501968503937
 20
4.039370078740157
 30
0.0
 11
3.052165354330708
 21
4.039370078740157
 31
0.0
  0
LINE
  5
2DCA
330
1E
100
AcDbEntity
  8
0
100
AcDbLine
 10
3.053149606299212
 20
3.789370078740157
 30
0.0
 11
1.489173228346456
 21
3.789370078740157
 31
0.0
  0
LINE
  5
2DCB
330
1E
100
AcDbEntity
  8
0
100
AcDbLine
 10
3.053149606299212
 20
3.789370078740157
 30
0.0
 11
3.053149606299212
 21
4.034448818897637
 31
0.0
  0
LINE
  5
2DCC
330
1E
100
AcDbEntity
  8
0
100
AcDbLine
 10
1.49015748031496
 20
4.039370078740157
 30
0.0
 11
1.489173228346456
 21
4.034448818897637
 31
0.0
  0
LINE
  5
2DCD
330
1E
100
AcDbEntity
  8
0
100
AcDbLine
 10
1.49507874015748
 20
4.034448818897637
 30
0.0
 11
1.489173228346456
 21
4.034448818897637
 31
0.0
  0
LINE
  5
2DCE
330
1E
100
AcDbEntity
  8
0
100
AcDbLine
 10
1.493110236220472
 20
4.039370078740157
 30
0.0
 11
1.49507874015748
 21
4.034448818897637
 31
0.0
  0
LINE
  5
2DCF
330
1E
100
AcDbEntity
  8
0
100
AcDbLine
 10
1.489173228346456
 20
3.789370078740157
 30
0.0
 11
1.489173228346456
 21
4.034448818897637
 31
0.0
  0
LINE
  5
2DD0
330
1E
100
AcDbEntity
  8
0
100
AcDbLine
 10
3.0501968503937
 20
4.43011811023622
 30
0.0
 11
3.048228346456693
 21
4.435039370078739
 31
0.0
  0
LINE
  5
2DD1
330
1E
100
AcDbEntity
  8
0
100
AcDbLine
 10
3.048228346456693
 20
4.435039370078739
 30
0.0
 11
3.048228346456693
 21
4.034448818897637
 31
0.0
  0
LINE
  5
2DD2
330
1E
100
AcDbEntity
  8
0
100
AcDbLine
 10
3.0501968503937
 20
4.039370078740157
 30
0.0
 11
3.0501968503937
 21
4.062992125984251
 31
0.0
  0
LINE
  5
2DD3
330
1E
100
AcDbEntity
  8
0
100
AcDbLine
 10
3.053149606299212
 20
4.435039370078739
 30
0.0
 11
3.053149606299212
 21
4.681102362204724
 31
0.0
  0
LINE
  5
2DD4
330
1E
100
AcDbEntity
  8
0
100
AcDbLine
 10
3.053149606299212
 20
4.435039370078739
 30
0.0
 11
3.052165354330708
 21
4.43011811023622
 31
0.0
  0
LINE
  5
2DD5
330
1E
100
AcDbEntity
  8
0
100
AcDbLine
 10
3.053149606299212
 20
4.435039370078739
 30
0.0
 11
3.048228346456693
 21
4.435039370078739
 31
0.0
  0
LINE
  5
2DD6
330
1E
100
AcDbEntity
  8
0
100
AcDbLine
 10
1.49507874015748
 20
4.435039370078739
 30
0.0
 11
1.49507874015748
 21
4.034448818897637
 31
0.0
  0
LINE
  5
2DD7
330
1E
100
AcDbEntity
  8
0
100
AcDbLine
 10
1.493110236220472
 20
4.43011811023622
 30
0.0
 11
1.49507874015748
 21
4.435039370078739
 31
0.0
  0
LINE
  5
2DD8
330
1E
100
AcDbEntity
  8
0
100
AcDbLine
 10
1.489173228346456
 20
4.435039370078739
 30
0.0
 11
1.49507874015748
 21
4.435039370078739
 31
0.0
  0
LINE
  5
2DD9
330
1E
100
AcDbEntity
  8
0
100
AcDbLine
 10
3.053149606299212
 20
4.681102362204724
 30
0.0
 11
1.489173228346456
 21
4.681102362204724
 31
0.0
  0
LINE
  5
2DDA
330
1E
100
AcDbEntity
  8
0
100
AcDbLine
 10
2.401574803149606
 20
4.62007874015748
 30
0.0
 11
2.531496062992125
 21
4.394685039370078
 31
0.0
  0
LINE
  5
2DDB
330
1E
100
AcDbEntity
  8
0
100
AcDbLine
 10
2.400590551181102
 20
4.619094488188975
 30
0.0
 11
2.401574803149606
 21
4.62007874015748
 31
0.0
  0
LINE
  5
2DDC
330
1E
100
AcDbEntity
  8
0
100
AcDbLine
 10
2.400590551181102
 20
4.619094488188975
 30
0.0
 11
2.529527559055118
 21
4.394685039370078
 31
0.0
  0
LINE
  5
2DDD
330
1E
100
AcDbEntity
  8
0
100
AcDbLine
 10
2.529527559055118
 20
4.394685039370078
 30
0.0
 11
2.531496062992125
 21
4.394685039370078
 31
0.0
  0
LINE
  5
2DDE
330
1E
100
AcDbEntity
  8
0
100
AcDbLine
 10
2.400590551181102
 20
4.619094488188975
 30
0.0
 11
2.14271653543307
 21
4.619094488188975
 31
0.0
  0
LINE
  5
2DDF
330
1E
100
AcDbEntity
  8
0
100
AcDbLine
 10
2.401574803149606
 20
4.62007874015748
 30
0.0
 11
2.141732283464566
 21
4.62007874015748
 31
0.0
  0
LINE
  5
2DE0
330
1E
100
AcDbEntity
  8
0
100
AcDbLine
 10
2.14271653543307
 20
4.619094488188975
 30
0.0
 11
2.141732283464566
 21
4.62007874015748
 31
0.0
  0
LINE
  5
2DE1
330
1E
100
AcDbEntity
  8
0
100
AcDbLine
 10
2.141732283464566
 20
4.62007874015748
 30
0.0
 11
2.011811023622047
 21
4.394685039370078
 31
0.0
  0
LINE
  5
2DE2
330
1E
100
AcDbEntity
  8
0
100
AcDbLine
 10
2.01279527559055
 20
4.394685039370078
 30
0.0
 11
2.011811023622047
 21
4.394685039370078
 31
0.0
  0
LINE
  5
2DE3
330
1E
100
AcDbEntity
  8
0
100
AcDbLine
 10
2.14271653543307
 20
4.619094488188975
 30
0.0
 11
2.01279527559055
 21
4.394685039370078
 31
0.0
  0
LINE
  5
2DE4
330
1E
100
AcDbEntity
  8
0
100
AcDbLine
 10
2.011811023622047
 20
4.394685039370078
 30
0.0
 11
2.141732283464566
 21
4.170275590551181
 31
0.0
  0
LINE
  5
2DE5
330
1E
100
AcDbEntity
  8
0
100
AcDbLine
 10
2.14271653543307
 20
4.171259842519685
 30
0.0
 11
2.141732283464566
 21
4.170275590551181
 31
0.0
  0
LINE
  5
2DE6
330
1E
100
AcDbEntity
  8
0
100
AcDbLine
 10
2.01279527559055
 20
4.394685039370078
 30
0.0
 11
2.14271653543307
 21
4.171259842519685
 31
0.0
  0
LINE
  5
2DE7
330
1E
100
AcDbEntity
  8
0
100
AcDbLine
 10
2.141732283464566
 20
4.170275590551181
 30
0.0
 11
2.401574803149606
 21
4.170275590551181
 31
0.0
  0
LINE
  5
2DE8
330
1E
100
AcDbEntity
  8
0
100
AcDbLine
 10
2.400590551181102
 20
4.171259842519685
 30
0.0
 11
2.401574803149606
 21
4.170275590551181
 31
0.0
  0
LINE
  5
2DE9
330
1E
100
AcDbEntity
  8
0
100
AcDbLine
 10
2.14271653543307
 20
4.171259842519685
 30
0.0
 11
2.400590551181102
 21
4.171259842519685
 31
0.0
  0
LINE
  5
2DEA
330
1E
100
AcDbEntity
  8
0
100
AcDbLine
 10
2.529527559055118
 20
4.394685039370078
 30
0.0
 11
2.400590551181102
 21
4.171259842519685
 31
0.0
  0
LINE
  5
2DEB
330
1E
100
AcDbEntity
  8
0
100
AcDbLine
 10
2.531496062992125
 20
4.394685039370078
 30
0.0
 11
2.401574803149606
 21
4.170275590551181
 31
0.0
  0
LINE
  5
2DEC
330
1E
100
AcDbEntity
  8
0
100
AcDbLine
 10
1.950787401574802
 20
3.851377952755905
 30
0.0
 11
2.079724409448818
 21
4.074803149606299
 31
0.0
  0
LINE
  5
2DED
330
1E
100
AcDbEntity
  8
0
100
AcDbLine
 10
1.950787401574802
 20
3.851377952755905
 30
0.0
 11
1.951771653543307
 21
3.849409448818897
 31
0.0
  0
LINE
  5
2DEE
330
1E
100
AcDbEntity
  8
0
100
AcDbLine
 10
1.951771653543307
 20
3.849409448818897
 30
0.0
 11
2.081692913385826
 21
4.074803149606299
 31
0.0
  0
LINE
  5
2DEF
330
1E
100
AcDbEntity
  8
0
100
AcDbLine
 10
2.079724409448818
 20
4.074803149606299
 30
0.0
 11
2.081692913385826
 21
4.074803149606299
 31
0.0
  0
LINE
  5
2DF0
330
1E
100
AcDbEntity
  8
0
100
AcDbLine
 10
2.079724409448818
 20
4.074803149606299
 30
0.0
 11
1.950787401574802
 21
4.298228346456692
 31
0.0
  0
LINE
  5
2DF1
330
1E
100
AcDbEntity
  8
0
100
AcDbLine
 10
2.081692913385826
 20
4.074803149606299
 30
0.0
 11
1.951771653543307
 21
4.3001968503937
 31
0.0
  0
LINE
  5
2DF2
330
1E
100
AcDbEntity
  8
0
100
AcDbLine
 10
1.950787401574802
 20
4.298228346456692
 30
0.0
 11
1.951771653543307
 21
4.3001968503937
 31
0.0
  0
LINE
  5
2DF3
330
1E
100
AcDbEntity
  8
0
100
AcDbLine
 10
1.951771653543307
 20
4.3001968503937
 30
0.0
 11
1.691929133858267
 21
4.3001968503937
 31
0.0
  0
LINE
  5
2DF4
330
1E
100
AcDbEntity
  8
0
100
AcDbLine
 10
1.691929133858267
 20
4.298228346456692
 30
0.0
 11
1.691929133858267
 21
4.3001968503937
 31
0.0
  0
LINE
  5
2DF5
330
1E
100
AcDbEntity
  8
0
100
AcDbLine
 10
1.950787401574802
 20
4.298228346456692
 30
0.0
 11
1.691929133858267
 21
4.298228346456692
 31
0.0
  0
LINE
  5
2DF6
330
1E
100
AcDbEntity
  8
0
100
AcDbLine
 10
1.691929133858267
 20
4.3001968503937
 30
0.0
 11
1.562007874015747
 21
4.074803149606299
 31
0.0
  0
LINE
  5
2DF7
330
1E
100
AcDbEntity
  8
0
100
AcDbLine
 10
1.562992125984251
 20
4.074803149606299
 30
0.0
 11
1.562007874015747
 21
4.074803149606299
 31
0.0
  0
LINE
  5
2DF8
330
1E
100
AcDbEntity
  8
0
100
AcDbLine
 10
1.691929133858267
 20
4.298228346456692
 30
0.0
 11
1.562992125984251
 21
4.074803149606299
 31
0.0
  0
LINE
  5
2DF9
330
1E
100
AcDbEntity
  8
0
100
AcDbLine
 10
1.562007874015747
 20
4.074803149606299
 30
0.0
 11
1.691929133858267
 21
3.849409448818897
 31
0.0
  0
LINE
  5
2DFA
330
1E
100
AcDbEntity
  8
0
100
AcDbLine
 10
1.691929133858267
 20
3.851377952755905
 30
0.0
 11
1.691929133858267
 21
3.849409448818897
 31
0.0
  0
LINE
  5
2DFB
330
1E
100
AcDbEntity
  8
0
100
AcDbLine
 10
1.562992125984251
 20
4.074803149606299
 30
0.0
 11
1.691929133858267
 21
3.851377952755905
 31
0.0
  0
LINE
  5
2DFC
330
1E
100
AcDbEntity
  8
0
100
AcDbLine
 10
1.691929133858267
 20
3.851377952755905
 30
0.0
 11
1.950787401574802
 21
3.851377952755905
 31
0.0
  0
LINE
  5
2DFD
330
1E
100
AcDbEntity
  8
0
100
AcDbLine
 10
1.691929133858267
 20
3.849409448818897
 30
0.0
 11
1.951771653543307
 21
3.849409448818897
 31
0.0
  0
LINE
  5
2DFE
330
1E
100
AcDbEntity
  8
0
100
AcDbLine
 10
2.850393700787401
 20
4.298228346456692
 30
0.0
 11
2.980314960629921
 21
4.074803149606299
 31
0.0
  0
LINE
  5
2DFF
330
1E
100
AcDbEntity
  8
0
100
AcDbLine
 10
2.980314960629921
 20
4.074803149606299
 30
0.0
 11
2.981299212598425
 21
4.074803149606299
 31
0.0
  0
LINE
  5
2E00
330
1E
100
AcDbEntity
  8
0
100
AcDbLine
 10
2.851377952755905
 20
4.3001968503937
 30
0.0
 11
2.981299212598425
 21
4.074803149606299
 31
0.0
  0
LINE
  5
2E01
330
1E
100
AcDbEntity
  8
0
100
AcDbLine
 10
2.850393700787401
 20
4.298228346456692
 30
0.0
 11
2.851377952755905
 21
4.3001968503937
 31
0.0
  0
LINE
  5
2E02
330
1E
100
AcDbEntity
  8
0
100
AcDbLine
 10
2.591535433070866
 20
4.3001968503937
 30
0.0
 11
2.851377952755905
 21
4.3001968503937
 31
0.0
  0
LINE
  5
2E03
330
1E
100
AcDbEntity
  8
0
100
AcDbLine
 10
2.592519685039369
 20
4.298228346456692
 30
0.0
 11
2.591535433070866
 21
4.3001968503937
 31
0.0
  0
LINE
  5
2E04
330
1E
100
AcDbEntity
  8
0
100
AcDbLine
 10
2.592519685039369
 20
4.298228346456692
 30
0.0
 11
2.850393700787401
 21
4.298228346456692
 31
0.0
  0
LINE
  5
2E05
330
1E
100
AcDbEntity
  8
0
100
AcDbLine
 10
2.461614173228346
 20
4.074803149606299
 30
0.0
 11
2.591535433070866
 21
4.3001968503937
 31
0.0
  0
LINE
  5
2E06
330
1E
100
AcDbEntity
  8
0
100
AcDbLine
 10
2.463582677165354
 20
4.074803149606299
 30
0.0
 11
2.461614173228346
 21
4.074803149606299
 31
0.0
  0
LINE
  5
2E07
330
1E
100
AcDbEntity
  8
0
100
AcDbLine
 10
2.463582677165354
 20
4.074803149606299
 30
0.0
 11
2.592519685039369
 21
4.298228346456692
 31
0.0
  0
LINE
  5
2E08
330
1E
100
AcDbEntity
  8
0
100
AcDbLine
 10
2.591535433070866
 20
3.849409448818897
 30
0.0
 11
2.461614173228346
 21
4.074803149606299
 31
0.0
  0
LINE
  5
2E09
330
1E
100
AcDbEntity
  8
0
100
AcDbLine
 10
2.592519685039369
 20
3.851377952755905
 30
0.0
 11
2.591535433070866
 21
3.849409448818897
 31
0.0
  0
LINE
  5
2E0A
330
1E
100
AcDbEntity
  8
0
100
AcDbLine
 10
2.592519685039369
 20
3.851377952755905
 30
0.0
 11
2.463582677165354
 21
4.074803149606299
 31
0.0
  0
LINE
  5
2E0B
330
1E
100
AcDbEntity
  8
0
100
AcDbLine
 10
2.851377952755905
 20
3.849409448818897
 30
0.0
 11
2.591535433070866
 21
3.849409448818897
 31
0.0
  0
LINE
  5
2E0C
330
1E
100
AcDbEntity
  8
0
100
AcDbLine
 10
2.850393700787401
 20
3.851377952755905
 30
0.0
 11
2.851377952755905
 21
3.849409448818897
 31
0.0
  0
LINE
  5
2E0D
330
1E
100
AcDbEntity
  8
0
100
AcDbLine
 10
2.850393700787401
 20
3.851377952755905
 30
0.0
 11
2.592519685039369
 21
3.851377952755905
 31
0.0
  0
LINE
  5
2E0E
330
1E
100
AcDbEntity
  8
0
100
AcDbLine
 10
2.980314960629921
 20
4.074803149606299
 30
0.0
 11
2.850393700787401
 21
3.851377952755905
 31
0.0
  0
LINE
  5
2E0F
330
1E
100
AcDbEntity
  8
0
100
AcDbLine
 10
2.981299212598425
 20
4.074803149606299
 30
0.0
 11
2.851377952755905
 21
3.849409448818897
 31
0.0
  0
CIRCLE
  5
2E10
330
1E
100
AcDbEntity
  8
0
100
AcDbCircle
 10
1.821850393700787
 20
4.074803149606299
 30
0.0
 40
0.0984251968503937
  0
LINE
  5
2E11
330
1E
100
AcDbEntity
  8
0
100
AcDbLine
 10
1.570866141732283
 20
4.074803149606299
 30
0.0
 11
1.695866141732283
 21
3.857283464566929
 31
0.0
  0
LINE
  5
2E12
330
1E
100
AcDbEntity
  8
0
100
AcDbLine
 10
1.695866141732283
 20
3.857283464566929
 30
0.0
 11
1.946850393700787
 21
3.857283464566929
 31
0.0
  0
LINE
  5
2E13
330
1E
100
AcDbEntity
  8
0
100
AcDbLine
 10
1.946850393700787
 20
3.857283464566929
 30
0.0
 11
2.072834645669291
 21
4.074803149606299
 31
0.0
  0
LINE
  5
2E14
330
1E
100
AcDbEntity
  8
0
100
AcDbLine
 10
2.072834645669291
 20
4.074803149606299
 30
0.0
 11
1.946850393700787
 21
4.292322834645669
 31
0.0
  0
LINE
  5
2E15
330
1E
100
AcDbEntity
  8
0
100
AcDbLine
 10
1.946850393700787
 20
4.292322834645669
 30
0.0
 11
1.695866141732283
 21
4.292322834645669
 31
0.0
  0
LINE
  5
2E16
330
1E
100
AcDbEntity
  8
0
100
AcDbLine
 10
1.695866141732283
 20
4.292322834645669
 30
0.0
 11
1.570866141732283
 21
4.074803149606299
 31
0.0
  0
CIRCLE
  5
2E17
330
1E
100
AcDbEntity
  8
0
100
AcDbCircle
 10
1.821358267716535
 20
4.074803149606299
 30
0.0
 40
0.1437016300805839
  0
CIRCLE
  5
2E18
330
1E
100
AcDbEntity
  8
0
100
AcDbCircle
 10
1.821850393700787
 20
4.074803149606299
 30
0.0
 40
0.1633858267716535
  0
POLYLINE
  5
2E19
330
1E
100
AcDbEntity
  8
0
100
AcDb2dPolyline
 66
     1
 10
0.0
 20
0.0
 30
0.0
  0
VERTEX
  5
3389
330
2E19
100
AcDbEntity
  8
0
100
AcDbVertex
100
AcDb2dVertex
 10
1.821850393700787
 20
4.014763779527559
 30
0.0
  0
VERTEX
  5
338A
330
2E19
100
AcDbEntity
  8
0
100
AcDbVertex
100
AcDb2dVertex
 10
1.8001968503937
 20
4.018700787401574
 30
0.0
  0
VERTEX
  5
338B
330
2E19
100
AcDbEntity
  8
0
100
AcDbVertex
100
AcDb2dVertex
 10
1.781496062992125
 20
4.030511811023622
 30
0.0
  0
VERTEX
  5
338C
330
2E19
100
AcDbEntity
  8
0
100
AcDbVertex
100
AcDb2dVertex
 10
1.76771653543307
 20
4.048228346456692
 30
0.0
  0
VERTEX
  5
338D
330
2E19
100
AcDbEntity
  8
0
100
AcDbVertex
100
AcDb2dVertex
 10
1.761811023622047
 20
4.068897637795275
 30
0.0
  0
VERTEX
  5
338E
330
2E19
100
AcDbEntity
  8
0
100
AcDbVertex
100
AcDb2dVertex
 10
1.763779527559055
 20
4.091535433070865
 30
0.0
  0
VERTEX
  5
338F
330
2E19
100
AcDbEntity
  8
0
100
AcDbVertex
100
AcDb2dVertex
 10
1.773622047244094
 20
4.111220472440944
 30
0.0
  0
VERTEX
  5
3390
330
2E19
100
AcDbEntity
  8
0
100
AcDbVertex
100
AcDb2dVertex
 10
1.790354330708661
 20
4.125984251968503
 30
0.0
  0
VERTEX
  5
3391
330
2E19
100
AcDbEntity
  8
0
100
AcDbVertex
100
AcDb2dVertex
 10
1.81003937007874
 20
4.133858267716535
 30
0.0
  0
VERTEX
  5
3392
330
2E19
100
AcDbEntity
  8
0
100
AcDbVertex
100
AcDb2dVertex
 10
1.83267716535433
 20
4.133858267716535
 30
0.0
  0
VERTEX
  5
3393
330
2E19
100
AcDbEntity
  8
0
100
AcDbVertex
100
AcDb2dVertex
 10
1.853346456692913
 20
4.125984251968503
 30
0.0
  0
VERTEX
  5
3394
330
2E19
100
AcDbEntity
  8
0
100
AcDbVertex
100
AcDb2dVertex
 10
1.869094488188976
 20
4.111220472440944
 30
0.0
  0
VERTEX
  5
3395
330
2E19
100
AcDbEntity
  8
0
100
AcDbVertex
100
AcDb2dVertex
 10
1.878937007874015
 20
4.091535433070865
 30
0.0
  0
VERTEX
  5
3396
330
2E19
100
AcDbEntity
  8
0
100
AcDbVertex
100
AcDb2dVertex
 10
1.880905511811023
 20
4.068897637795275
 30
0.0
  0
VERTEX
  5
3397
330
2E19
100
AcDbEntity
  8
0
100
AcDbVertex
100
AcDb2dVertex
 10
1.875
 20
4.048228346456692
 30
0.0
  0
VERTEX
  5
3398
330
2E19
100
AcDbEntity
  8
0
100
AcDbVertex
100
AcDb2dVertex
 10
1.862204724409448
 20
4.030511811023622
 30
0.0
  0
VERTEX
  5
3399
330
2E19
100
AcDbEntity
  8
0
100
AcDbVertex
100
AcDb2dVertex
 10
1.843503937007874
 20
4.018700787401574
 30
0.0
  0
VERTEX
  5
339A
330
2E19
100
AcDbEntity
  8
0
100
AcDbVertex
100
AcDb2dVertex
 10
1.821850393700787
 20
4.014763779527559
 30
0.0
  0
SEQEND
  5
339B
330
2E19
100
AcDbEntity
  8
0
  0
CIRCLE
  5
2E2D
330
1E
100
AcDbEntity
  8
0
100
AcDbCircle
 10
2.271653543307086
 20
4.394685039370078
 30
0.0
 40
0.0984251968503937
  0
LINE
  5
2E2E
330
1E
100
AcDbEntity
  8
0
100
AcDbLine
 10
2.020669291338582
 20
4.394685039370078
 30
0.0
 11
2.145669291338582
 21
4.177165354330708
 31
0.0
  0
LINE
  5
2E2F
330
1E
100
AcDbEntity
  8
0
100
AcDbLine
 10
2.145669291338582
 20
4.177165354330708
 30
0.0
 11
2.396653543307086
 21
4.177165354330708
 31
0.0
  0
LINE
  5
2E30
330
1E
100
AcDbEntity
  8
0
100
AcDbLine
 10
2.396653543307086
 20
4.177165354330708
 30
0.0
 11
2.52263779527559
 21
4.394685039370078
 31
0.0
  0
LINE
  5
2E31
330
1E
100
AcDbEntity
  8
0
100
AcDbLine
 10
2.52263779527559
 20
4.394685039370078
 30
0.0
 11
2.396653543307086
 21
4.612204724409449
 31
0.0
  0
LINE
  5
2E32
330
1E
100
AcDbEntity
  8
0
100
AcDbLine
 10
2.396653543307086
 20
4.612204724409449
 30
0.0
 11
2.145669291338582
 21
4.612204724409449
 31
0.0
  0
LINE
  5
2E33
330
1E
100
AcDbEntity
  8
0
100
AcDbLine
 10
2.145669291338582
 20
4.612204724409449
 30
0.0
 11
2.020669291338582
 21
4.394685039370078
 31
0.0
  0
CIRCLE
  5
2E34
330
1E
100
AcDbEntity
  8
0
100
AcDbCircle
 10
2.271653543307086
 20
4.394685039370078
 30
0.0
 40
0.1437007874015748
  0
CIRCLE
  5
2E35
330
1E
100
AcDbEntity
  8
0
100
AcDbCircle
 10
2.271653543307086
 20
4.394685039370078
 30
0.0
 40
0.1633858267716535
  0
POLYLINE
  5
2E36
330
1E
100
AcDbEntity
  8
0
100
AcDb2dPolyline
 66
     1
 10
0.0
 20
0.0
 30
0.0
  0
VERTEX
  5
339C
330
2E36
100
AcDbEntity
  8
0
100
AcDbVertex
100
AcDb2dVertex
 10
2.271653543307086
 20
4.334645669291338
 30
0.0
  0
VERTEX
  5
339D
330
2E36
100
AcDbEntity
  8
0
100
AcDbVertex
100
AcDb2dVertex
 10
2.25
 20
4.338582677165354
 30
0.0
  0
VERTEX
  5
339E
330
2E36
100
AcDbEntity
  8
0
100
AcDbVertex
100
AcDb2dVertex
 10
2.231299212598425
 20
4.350393700787401
 30
0.0
  0
VERTEX
  5
339F
330
2E36
100
AcDbEntity
  8
0
100
AcDbVertex
100
AcDb2dVertex
 10
2.217519685039369
 20
4.368110236220472
 30
0.0
  0
VERTEX
  5
33A0
330
2E36
100
AcDbEntity
  8
0
100
AcDbVertex
100
AcDb2dVertex
 10
2.211614173228346
 20
4.389763779527559
 30
0.0
  0
VERTEX
  5
33A1
330
2E36
100
AcDbEntity
  8
0
100
AcDbVertex
100
AcDb2dVertex
 10
2.213582677165354
 20
4.411417322834645
 30
0.0
  0
VERTEX
  5
33A2
330
2E36
100
AcDbEntity
  8
0
100
AcDbVertex
100
AcDb2dVertex
 10
2.223425196850393
 20
4.431102362204724
 30
0.0
  0
VERTEX
  5
33A3
330
2E36
100
AcDbEntity
  8
0
100
AcDbVertex
100
AcDb2dVertex
 10
2.24015748031496
 20
4.445866141732283
 30
0.0
  0
VERTEX
  5
33A4
330
2E36
100
AcDbEntity
  8
0
100
AcDbVertex
100
AcDb2dVertex
 10
2.260826771653543
 20
4.453740157480314
 30
0.0
  0
VERTEX
  5
33A5
330
2E36
100
AcDbEntity
  8
0
100
AcDbVertex
100
AcDb2dVertex
 10
2.28248031496063
 20
4.453740157480314
 30
0.0
  0
VERTEX
  5
33A6
330
2E36
100
AcDbEntity
  8
0
100
AcDbVertex
100
AcDb2dVertex
 10
2.303149606299212
 20
4.445866141732283
 30
0.0
  0
VERTEX
  5
33A7
330
2E36
100
AcDbEntity
  8
0
100
AcDbVertex
100
AcDb2dVertex
 10
2.318897637795275
 20
4.431102362204724
 30
0.0
  0
VERTEX
  5
33A8
330
2E36
100
AcDbEntity
  8
0
100
AcDbVertex
100
AcDb2dVertex
 10
2.328740157480314
 20
4.411417322834645
 30
0.0
  0
VERTEX
  5
33A9
330
2E36
100
AcDbEntity
  8
0
100
AcDbVertex
100
AcDb2dVertex
 10
2.331692913385826
 20
4.389763779527559
 30
0.0
  0
VERTEX
  5
33AA
330
2E36
100
AcDbEntity
  8
0
100
AcDbVertex
100
AcDb2dVertex
 10
2.324803149606299
 20
4.368110236220472
 30
0.0
  0
VERTEX
  5
33AB
330
2E36
100
AcDbEntity
  8
0
100
AcDbVertex
100
AcDb2dVertex
 10
2.312007874015748
 20
4.350393700787401
 30
0.0
  0
VERTEX
  5
33AC
330
2E36
100
AcDbEntity
  8
0
100
AcDbVertex
100
AcDb2dVertex
 10
2.293307086614173
 20
4.338582677165354
 30
0.0
  0
VERTEX
  5
33AD
330
2E36
100
AcDbEntity
  8
0
100
AcDbVertex
100
AcDb2dVertex
 10
2.271653543307086
 20
4.334645669291338
 30
0.0
  0
SEQEND
  5
33AE
330
2E36
100
AcDbEntity
  8
0
  0
CIRCLE
  5
2E4A
330
1E
100
AcDbEntity
  8
0
100
AcDbCircle
 10
2.721456692913385
 20
4.074803149606299
 30
0.0
 40
0.0984251968503937
  0
LINE
  5
2E4B
330
1E
100
AcDbEntity
  8
0
100
AcDbLine
 10
2.470472440944881
 20
4.074803149606299
 30
0.0
 11
2.596456692913385
 21
3.857283464566929
 31
0.0
  0
LINE
  5
2E4C
330
1E
100
AcDbEntity
  8
0
100
AcDbLine
 10
2.596456692913385
 20
3.857283464566929
 30
0.0
 11
2.847440944881889
 21
3.857283464566929
 31
0.0
  0
LINE
  5
2E4D
330
1E
100
AcDbEntity
  8
0
100
AcDbLine
 10
2.847440944881889
 20
3.857283464566929
 30
0.0
 11
2.972440944881889
 21
4.074803149606299
 31
0.0
  0
LINE
  5
2E4E
330
1E
100
AcDbEntity
  8
0
100
AcDbLine
 10
2.972440944881889
 20
4.074803149606299
 30
0.0
 11
2.847440944881889
 21
4.292322834645669
 31
0.0
  0
LINE
  5
2E4F
330
1E
100
AcDbEntity
  8
0
100
AcDbLine
 10
2.847440944881889
 20
4.292322834645669
 30
0.0
 11
2.596456692913385
 21
4.292322834645669
 31
0.0
  0
LINE
  5
2E50
330
1E
100
AcDbEntity
  8
0
100
AcDbLine
 10
2.596456692913385
 20
4.292322834645669
 30
0.0
 11
2.470472440944881
 21
4.074803149606299
 31
0.0
  0
CIRCLE
  5
2E51
330
1E
100
AcDbEntity
  8
0
100
AcDbCircle
 10
2.721456692913385
 20
4.074803149606299
 30
0.0
 40
0.1437007874015748
  0
CIRCLE
  5
2E52
330
1E
100
AcDbEntity
  8
0
100
AcDbCircle
 10
2.721456692913385
 20
4.074803149606299
 30
0.0
 40
0.1633858267716535
  0
POLYLINE
  5
2E53
330
1E
100
AcDbEntity
  8
0
100
AcDb2dPolyline
 66
     1
 10
0.0
 20
0.0
 30
0.0
  0
VERTEX
  5
33AF
330
2E53
100
AcDbEntity
  8
0
100
AcDbVertex
100
AcDb2dVertex
 10
2.721456692913385
 20
4.014763779527559
 30
0.0
  0
VERTEX
  5
33B0
330
2E53
100
AcDbEntity
  8
0
100
AcDbVertex
100
AcDb2dVertex
 10
2.699803149606299
 20
4.018700787401574
 30
0.0
  0
VERTEX
  5
33B1
330
2E53
100
AcDbEntity
  8
0
100
AcDbVertex
100
AcDb2dVertex
 10
2.681102362204724
 20
4.030511811023622
 30
0.0
  0
VERTEX
  5
33B2
330
2E53
100
AcDbEntity
  8
0
100
AcDbVertex
100
AcDb2dVertex
 10
2.667322834645669
 20
4.048228346456692
 30
0.0
  0
VERTEX
  5
33B3
330
2E53
100
AcDbEntity
  8
0
100
AcDbVertex
100
AcDb2dVertex
 10
2.661417322834645
 20
4.068897637795275
 30
0.0
  0
VERTEX
  5
33B4
330
2E53
100
AcDbEntity
  8
0
100
AcDbVertex
100
AcDb2dVertex
 10
2.663385826771653
 20
4.091535433070865
 30
0.0
  0
VERTEX
  5
33B5
330
2E53
100
AcDbEntity
  8
0
100
AcDbVertex
100
AcDb2dVertex
 10
2.673228346456693
 20
4.111220472440944
 30
0.0
  0
VERTEX
  5
33B6
330
2E53
100
AcDbEntity
  8
0
100
AcDbVertex
100
AcDb2dVertex
 10
2.689960629921259
 20
4.125984251968503
 30
0.0
  0
VERTEX
  5
33B7
330
2E53
100
AcDbEntity
  8
0
100
AcDbVertex
100
AcDb2dVertex
 10
2.710629921259842
 20
4.133858267716535
 30
0.0
  0
VERTEX
  5
33B8
330
2E53
100
AcDbEntity
  8
0
100
AcDbVertex
100
AcDb2dVertex
 10
2.732283464566929
 20
4.133858267716535
 30
0.0
  0
VERTEX
  5
33B9
330
2E53
100
AcDbEntity
  8
0
100
AcDbVertex
100
AcDb2dVertex
 10
2.752952755905511
 20
4.125984251968503
 30
0.0
  0
VERTEX
  5
33BA
330
2E53
100
AcDbEntity
  8
0
100
AcDbVertex
100
AcDb2dVertex
 10
2.769685039370078
 20
4.111220472440944
 30
0.0
  0
VERTEX
  5
33BB
330
2E53
100
AcDbEntity
  8
0
100
AcDbVertex
100
AcDb2dVertex
 10
2.779527559055118
 20
4.091535433070865
 30
0.0
  0
VERTEX
  5
33BC
330
2E53
100
AcDbEntity
  8
0
100
AcDbVertex
100
AcDb2dVertex
 10
2.781496062992125
 20
4.068897637795275
 30
0.0
  0
VERTEX
  5
33BD
330
2E53
100
AcDbEntity
  8
0
100
AcDbVertex
100
AcDb2dVertex
 10
2.775590551181102
 20
4.048228346456692
 30
0.0
  0
VERTEX
  5
33BE
330
2E53
100
AcDbEntity
  8
0
100
AcDbVertex
100
AcDb2dVertex
 10
2.761811023622047
 20
4.030511811023622
 30
0.0
  0
VERTEX
  5
33BF
330
2E53
100
AcDbEntity
  8
0
100
AcDbVertex
100
AcDb2dVertex
 10
2.743110236220472
 20
4.018700787401574
 30
0.0
  0
VERTEX
  5
33C0
330
2E53
100
AcDbEntity
  8
0
100
AcDbVertex
100
AcDb2dVertex
 10
2.721456692913385
 20
4.014763779527559
 30
0.0
  0
SEQEND
  5
33C1
330
2E53
100
AcDbEntity
  8
0
  0
LINE
  5
2E67
330
1E
100
AcDbEntity
  8
0
100
AcDbLine
 10
4.52263779527559
 20
3.73523622047244
 30
0.0
 11
4.539370078740157
 21
3.73523622047244
 31
0.0
  0
LINE
  5
2E68
330
1E
100
AcDbEntity
  8
0
100
AcDbLine
 10
4.539370078740157
 20
4.528543307086613
 30
0.0
 11
4.52263779527559
 21
4.528543307086613
 31
0.0
  0
LINE
  5
2E69
330
1E
100
AcDbEntity
  8
0
100
AcDbLine
 10
4.450787401574802
 20
3.730314960629921
 30
0.0
 11
4.52263779527559
 21
3.731299212598425
 31
0.0
  0
LINE
  5
2E6A
330
1E
100
AcDbEntity
  8
0
100
AcDbLine
 10
4.52263779527559
 20
4.531496062992125
 30
0.0
 11
4.450787401574802
 21
4.532480314960629
 31
0.0
  0
LINE
  5
2E6B
330
1E
100
AcDbEntity
  8
0
100
AcDbLine
 10
4.631889763779527
 20
3.787401574803149
 30
0.0
 11
4.738188976377952
 21
3.787401574803149
 31
0.0
  0
LINE
  5
2E6C
330
1E
100
AcDbEntity
  8
0
100
AcDbLine
 10
3.953740157480314
 20
3.808070866141732
 30
0.0
 11
4.218503937007874
 21
3.808070866141732
 31
0.0
  0
LINE
  5
2E6D
330
1E
100
AcDbEntity
  8
0
100
AcDbLine
 10
4.218503937007874
 20
4.134842519685038
 30
0.0
 11
3.953740157480314
 21
4.134842519685038
 31
0.0
  0
LINE
  5
2E6E
330
1E
100
AcDbEntity
  8
0
100
AcDbLine
 10
5.067913385826771
 20
4.134842519685038
 30
0.0
 11
4.781496062992125
 21
4.134842519685038
 31
0.0
  0
LINE
  5
2E6F
330
1E
100
AcDbEntity
  8
0
100
AcDbLine
 10
4.738188976377952
 20
3.808070866141732
 30
0.0
 11
5.067913385826771
 21
3.808070866141732
 31
0.0
  0
LINE
  5
2E70
330
1E
100
AcDbEntity
  8
0
100
AcDbLine
 10
4.738188976377952
 20
4.475393700787401
 30
0.0
 11
4.631889763779527
 21
4.475393700787401
 31
0.0
  0
LINE
  5
2E71
330
1E
100
AcDbEntity
  8
0
100
AcDbLine
 10
5.067913385826771
 20
4.454724409448818
 30
0.0
 11
4.738188976377952
 21
4.454724409448818
 31
0.0
  0
LINE
  5
2E72
330
1E
100
AcDbEntity
  8
0
100
AcDbLine
 10
4.218503937007874
 20
4.454724409448818
 30
0.0
 11
3.953740157480314
 21
4.454724409448818
 31
0.0
  0
POLYLINE
  5
2E73
330
1E
100
AcDbEntity
  8
0
100
AcDb2dPolyline
 66
     1
 10
0.0
 20
0.0
 30
0.0
  0
VERTEX
  5
33C2
330
2E73
100
AcDbEntity
  8
0
100
AcDbVertex
100
AcDb2dVertex
 10
5.08759842519685
 20
4.11515748031496
 30
0.0
  0
VERTEX
  5
33C3
330
2E73
100
AcDbEntity
  8
0
100
AcDbVertex
100
AcDb2dVertex
 10
5.081692913385826
 20
4.128937007874015
 30
0.0
  0
VERTEX
  5
33C4
330
2E73
100
AcDbEntity
  8
0
100
AcDbVertex
100
AcDb2dVertex
 10
5.067913385826771
 20
4.134842519685038
 30
0.0
  0
SEQEND
  5
33C5
330
2E73
100
AcDbEntity
  8
0
  0
POLYLINE
  5
2E78
330
1E
100
AcDbEntity
  8
0
100
AcDb2dPolyline
 66
     1
 10
0.0
 20
0.0
 30
0.0
  0
VERTEX
  5
33C6
330
2E78
100
AcDbEntity
  8
0
100
AcDbVertex
100
AcDb2dVertex
 10
5.067913385826771
 20
3.808070866141732
 30
0.0
  0
VERTEX
  5
33C7
330
2E78
100
AcDbEntity
  8
0
100
AcDbVertex
100
AcDb2dVertex
 10
5.081692913385826
 20
3.813976377952755
 30
0.0
  0
VERTEX
  5
33C8
330
2E78
100
AcDbEntity
  8
0
100
AcDbVertex
100
AcDb2dVertex
 10
5.08759842519685
 20
3.827755905511811
 30
0.0
  0
SEQEND
  5
33C9
330
2E78
100
AcDbEntity
  8
0
  0
POLYLINE
  5
2E7D
330
1E
100
AcDbEntity
  8
0
100
AcDb2dPolyline
 66
     1
 10
0.0
 20
0.0
 30
0.0
  0
VERTEX
  5
33CA
330
2E7D
100
AcDbEntity
  8
0
100
AcDbVertex
100
AcDb2dVertex
 10
3.934055118110236
 20
3.827755905511811
 30
0.0
  0
VERTEX
  5
33CB
330
2E7D
100
AcDbEntity
  8
0
100
AcDbVertex
100
AcDb2dVertex
 10
3.939960629921259
 20
3.813976377952755
 30
0.0
  0
VERTEX
  5
33CC
330
2E7D
100
AcDbEntity
  8
0
100
AcDbVertex
100
AcDb2dVertex
 10
3.953740157480314
 20
3.808070866141732
 30
0.0
  0
SEQEND
  5
33CD
330
2E7D
100
AcDbEntity
  8
0
  0
POLYLINE
  5
2E82
330
1E
100
AcDbEntity
  8
0
100
AcDb2dPolyline
 66
     1
 10
0.0
 20
0.0
 30
0.0
  0
VERTEX
  5
33CE
330
2E82
100
AcDbEntity
  8
0
100
AcDbVertex
100
AcDb2dVertex
 10
3.953740157480314
 20
4.134842519685038
 30
0.0
  0
VERTEX
  5
33CF
330
2E82
100
AcDbEntity
  8
0
100
AcDbVertex
100
AcDb2dVertex
 10
3.939960629921259
 20
4.128937007874015
 30
0.0
  0
VERTEX
  5
33D0
330
2E82
100
AcDbEntity
  8
0
100
AcDbVertex
100
AcDb2dVertex
 10
3.934055118110236
 20
4.11515748031496
 30
0.0
  0
SEQEND
  5
33D1
330
2E82
100
AcDbEntity
  8
0
  0
POLYLINE
  5
2E87
330
1E
100
AcDbEntity
  8
0
100
AcDb2dPolyline
 66
     1
 10
0.0
 20
0.0
 30
0.0
  0
VERTEX
  5
33D2
330
2E87
100
AcDbEntity
  8
0
100
AcDbVertex
100
AcDb2dVertex
 10
5.08759842519685
 20
4.435039370078739
 30
0.0
  0
VERTEX
  5
33D3
330
2E87
100
AcDbEntity
  8
0
100
AcDbVertex
100
AcDb2dVertex
 10
5.081692913385826
 20
4.448818897637795
 30
0.0
  0
VERTEX
  5
33D4
330
2E87
100
AcDbEntity
  8
0
100
AcDbVertex
100
AcDb2dVertex
 10
5.067913385826771
 20
4.454724409448818
 30
0.0
  0
SEQEND
  5
33D5
330
2E87
100
AcDbEntity
  8
0
  0
POLYLINE
  5
2E8C
330
1E
100
AcDbEntity
  8
0
100
AcDb2dPolyline
 66
     1
 10
0.0
 20
0.0
 30
0.0
  0
VERTEX
  5
33D6
330
2E8C
100
AcDbEntity
  8
0
100
AcDbVertex
100
AcDb2dVertex
 10
5.078740157480314
 20
4.131889763779527
 30
0.0
  0
VERTEX
  5
33D7
330
2E8C
100
AcDbEntity
  8
0
100
AcDbVertex
100
AcDb2dVertex
 10
5.085629921259842
 20
4.138779527559054
 30
0.0
  0
VERTEX
  5
33D8
330
2E8C
100
AcDbEntity
  8
0
100
AcDbVertex
100
AcDb2dVertex
 10
5.08759842519685
 20
4.14763779527559
 30
0.0
  0
SEQEND
  5
33D9
330
2E8C
100
AcDbEntity
  8
0
  0
POLYLINE
  5
2E91
330
1E
100
AcDbEntity
  8
0
100
AcDb2dPolyline
 66
     1
 10
0.0
 20
0.0
 30
0.0
  0
VERTEX
  5
33DA
330
2E91
100
AcDbEntity
  8
0
100
AcDbVertex
100
AcDb2dVertex
 10
3.934055118110236
 20
4.14763779527559
 30
0.0
  0
VERTEX
  5
33DB
330
2E91
100
AcDbEntity
  8
0
100
AcDbVertex
100
AcDb2dVertex
 10
3.936023622047244
 20
4.138779527559054
 30
0.0
  0
VERTEX
  5
33DC
330
2E91
100
AcDbEntity
  8
0
100
AcDbVertex
100
AcDb2dVertex
 10
3.942913385826771
 20
4.131889763779527
 30
0.0
  0
SEQEND
  5
33DD
330
2E91
100
AcDbEntity
  8
0
  0
POLYLINE
  5
2E96
330
1E
100
AcDbEntity
  8
0
100
AcDb2dPolyline
 66
     1
 10
0.0
 20
0.0
 30
0.0
  0
VERTEX
  5
33DE
330
2E96
100
AcDbEntity
  8
0
100
AcDbVertex
100
AcDb2dVertex
 10
3.953740157480314
 20
4.454724409448818
 30
0.0
  0
VERTEX
  5
33DF
330
2E96
100
AcDbEntity
  8
0
100
AcDbVertex
100
AcDb2dVertex
 10
3.939960629921259
 20
4.448818897637795
 30
0.0
  0
VERTEX
  5
33E0
330
2E96
100
AcDbEntity
  8
0
100
AcDbVertex
100
AcDb2dVertex
 10
3.934055118110236
 20
4.435039370078739
 30
0.0
  0
SEQEND
  5
33E1
330
2E96
100
AcDbEntity
  8
0
  0
LINE
  5
2E9B
330
1E
100
AcDbEntity
  8
0
100
AcDbLine
 10
4.631889763779527
 20
4.285433070866141
 30
0.0
 11
4.631889763779527
 21
3.978346456692913
 31
0.0
  0
LINE
  5
2E9C
330
1E
100
AcDbEntity
  8
0
100
AcDbLine
 10
4.651574803149606
 20
3.978346456692913
 30
0.0
 11
4.631889763779527
 21
3.978346456692913
 31
0.0
  0
LINE
  5
2E9D
330
1E
100
AcDbEntity
  8
0
100
AcDbLine
 10
4.651574803149606
 20
4.284448818897637
 30
0.0
 11
4.651574803149606
 21
3.978346456692913
 31
0.0
  0
LINE
  5
2E9E
330
1E
100
AcDbEntity
  8
0
100
AcDbLine
 10
4.631889763779527
 20
4.285433070866141
 30
0.0
 11
4.651574803149606
 21
4.284448818897637
 31
0.0
  0
LINE
  5
2E9F
330
1E
100
AcDbEntity
  8
0
100
AcDbLine
 10
4.651574803149606
 20
3.978346456692913
 30
0.0
 11
4.781496062992125
 21
3.983267716535432
 31
0.0
  0
LINE
  5
2EA0
330
1E
100
AcDbEntity
  8
0
100
AcDbLine
 10
4.781496062992125
 20
4.279527559055117
 30
0.0
 11
4.781496062992125
 21
3.983267716535432
 31
0.0
  0
LINE
  5
2EA1
330
1E
100
AcDbEntity
  8
0
100
AcDbLine
 10
4.781496062992125
 20
4.279527559055117
 30
0.0
 11
4.651574803149606
 21
4.284448818897637
 31
0.0
  0
LINE
  5
2EA2
330
1E
100
AcDbEntity
  8
0
100
AcDbLine
 10
4.39271653543307
 20
4.355314960629921
 30
0.0
 11
4.450787401574802
 21
4.356299212598425
 31
0.0
  0
LINE
  5
2EA3
330
1E
100
AcDbEntity
  8
0
100
AcDbLine
 10
4.450787401574802
 20
4.575787401574802
 30
0.0
 11
4.359251968503937
 21
4.576771653543307
 31
0.0
  0
LINE
  5
2EA4
330
1E
100
AcDbEntity
  8
0
100
AcDbLine
 10
4.359251968503937
 20
4.576771653543307
 30
0.0
 11
4.359251968503937
 21
4.451771653543307
 31
0.0
  0
LINE
  5
2EA5
330
1E
100
AcDbEntity
  8
0
100
AcDbLine
 10
4.450787401574802
 20
4.575787401574802
 30
0.0
 11
4.450787401574802
 21
4.450787401574802
 31
0.0
  0
LINE
  5
2EA6
330
1E
100
AcDbEntity
  8
0
100
AcDbLine
 10
4.39271653543307
 20
3.907480314960629
 30
0.0
 11
4.450787401574802
 21
3.906496062992125
 31
0.0
  0
LINE
  5
2EA7
330
1E
100
AcDbEntity
  8
0
100
AcDbLine
 10
4.450787401574802
 20
3.906496062992125
 30
0.0
 11
4.52263779527559
 21
3.905511811023622
 31
0.0
  0
POLYLINE
  5
2EA8
330
1E
100
AcDbEntity
  8
0
100
AcDb2dPolyline
 66
     1
 10
0.0
 20
0.0
 30
0.0
  0
VERTEX
  5
33E2
330
2EA8
100
AcDbEntity
  8
0
100
AcDbVertex
100
AcDb2dVertex
 10
4.52263779527559
 20
3.901574803149605
 30
0.0
  0
VERTEX
  5
33E3
330
2EA8
100
AcDbEntity
  8
0
100
AcDbVertex
100
AcDb2dVertex
 10
4.52263779527559
 20
3.900590551181102
 30
0.0
  0
VERTEX
  5
33E4
330
2EA8
100
AcDbEntity
  8
0
100
AcDbVertex
100
AcDb2dVertex
 10
4.52263779527559
 20
3.89763779527559
 30
0.0
  0
VERTEX
  5
33E5
330
2EA8
100
AcDbEntity
  8
0
100
AcDbVertex
100
AcDb2dVertex
 10
4.52263779527559
 20
3.894685039370078
 30
0.0
  0
VERTEX
  5
33E6
330
2EA8
100
AcDbEntity
  8
0
100
AcDbVertex
100
AcDb2dVertex
 10
4.52263779527559
 20
3.89271653543307
 30
0.0
  0
SEQEND
  5
33E7
330
2EA8
100
AcDbEntity
  8
0
  0
POLYLINE
  5
2EAF
330
1E
100
AcDbEntity
  8
0
100
AcDb2dPolyline
 66
     1
 10
0.0
 20
0.0
 30
0.0
  0
VERTEX
  5
33E8
330
2EAF
100
AcDbEntity
  8
0
100
AcDbVertex
100
AcDb2dVertex
 10
4.52263779527559
 20
3.731299212598425
 30
0.0
  0
VERTEX
  5
33E9
330
2EAF
100
AcDbEntity
  8
0
100
AcDbVertex
100
AcDb2dVertex
 10
4.52263779527559
 20
3.736220472440944
 30
0.0
  0
VERTEX
  5
33EA
330
2EAF
100
AcDbEntity
  8
0
100
AcDbVertex
100
AcDb2dVertex
 10
4.52263779527559
 20
3.751968503937007
 30
0.0
  0
VERTEX
  5
33EB
330
2EAF
100
AcDbEntity
  8
0
100
AcDbVertex
100
AcDb2dVertex
 10
4.52263779527559
 20
3.775590551181102
 30
0.0
  0
VERTEX
  5
33EC
330
2EAF
100
AcDbEntity
  8
0
100
AcDbVertex
100
AcDb2dVertex
 10
4.52263779527559
 20
3.808070866141732
 30
0.0
  0
VERTEX
  5
33ED
330
2EAF
100
AcDbEntity
  8
0
100
AcDbVertex
100
AcDb2dVertex
 10
4.52263779527559
 20
3.847440944881889
 30
0.0
  0
VERTEX
  5
33EE
330
2EAF
100
AcDbEntity
  8
0
100
AcDbVertex
100
AcDb2dVertex
 10
4.52263779527559
 20
3.89271653543307
 30
0.0
  0
SEQEND
  5
33EF
330
2EAF
100
AcDbEntity
  8
0
  0
LINE
  5
2EB8
330
1E
100
AcDbEntity
  8
0
100
AcDbLine
 10
4.450787401574802
 20
3.906496062992125
 30
0.0
 11
4.450787401574802
 21
3.687007874015748
 31
0.0
  0
POLYLINE
  5
2EB9
330
1E
100
AcDbEntity
  8
0
100
AcDb2dPolyline
 66
     1
 10
0.0
 20
0.0
 30
0.0
  0
VERTEX
  5
33F0
330
2EB9
100
AcDbEntity
  8
0
100
AcDbVertex
100
AcDb2dVertex
 10
4.52263779527559
 20
4.531496062992125
 30
0.0
  0
VERTEX
  5
33F1
330
2EB9
100
AcDbEntity
  8
0
100
AcDbVertex
100
AcDb2dVertex
 10
4.52263779527559
 20
4.526574803149606
 30
0.0
  0
VERTEX
  5
33F2
330
2EB9
100
AcDbEntity
  8
0
100
AcDbVertex
100
AcDb2dVertex
 10
4.52263779527559
 20
4.51279527559055
 30
0.0
  0
VERTEX
  5
33F3
330
2EB9
100
AcDbEntity
  8
0
100
AcDbVertex
100
AcDb2dVertex
 10
4.52263779527559
 20
4.49015748031496
 30
0.0
  0
VERTEX
  5
33F4
330
2EB9
100
AcDbEntity
  8
0
100
AcDbVertex
100
AcDb2dVertex
 10
4.52263779527559
 20
4.460629921259842
 30
0.0
  0
VERTEX
  5
33F5
330
2EB9
100
AcDbEntity
  8
0
100
AcDbVertex
100
AcDb2dVertex
 10
4.52263779527559
 20
4.423228346456692
 30
0.0
  0
VERTEX
  5
33F6
330
2EB9
100
AcDbEntity
  8
0
100
AcDbVertex
100
AcDb2dVertex
 10
4.52263779527559
 20
4.381889763779527
 30
0.0
  0
VERTEX
  5
33F7
330
2EB9
100
AcDbEntity
  8
0
100
AcDbVertex
100
AcDb2dVertex
 10
4.52263779527559
 20
4.336614173228346
 30
0.0
  0
VERTEX
  5
33F8
330
2EB9
100
AcDbEntity
  8
0
100
AcDbVertex
100
AcDb2dVertex
 10
4.52263779527559
 20
4.289370078740157
 30
0.0
  0
SEQEND
  5
33F9
330
2EB9
100
AcDbEntity
  8
0
  0
LINE
  5
2EC4
330
1E
100
AcDbEntity
  8
0
100
AcDbLine
 10
4.450787401574802
 20
4.450787401574802
 30
0.0
 11
4.450787401574802
 21
4.356299212598425
 31
0.0
  0
LINE
  5
2EC5
330
1E
100
AcDbEntity
  8
0
100
AcDbLine
 10
4.40255905511811
 20
4.293307086614173
 30
0.0
 11
4.631889763779527
 21
4.285433070866141
 31
0.0
  0
POLYLINE
  5
2EC6
330
1E
100
AcDbEntity
  8
0
100
AcDb2dPolyline
 66
     1
 10
0.0
 20
0.0
 30
0.0
  0
VERTEX
  5
33FA
330
2EC6
100
AcDbEntity
  8
0
100
AcDbVertex
100
AcDb2dVertex
 10
4.39271653543307
 20
4.303149606299212
 30
0.0
  0
VERTEX
  5
33FB
330
2EC6
100
AcDbEntity
  8
0
100
AcDbVertex
100
AcDb2dVertex
 10
4.395669291338582
 20
4.296259842519685
 30
0.0
  0
VERTEX
  5
33FC
330
2EC6
100
AcDbEntity
  8
0
100
AcDbVertex
100
AcDb2dVertex
 10
4.40255905511811
 20
4.293307086614173
 30
0.0
  0
SEQEND
  5
33FD
330
2EC6
100
AcDbEntity
  8
0
  0
LINE
  5
2ECB
330
1E
100
AcDbEntity
  8
0
100
AcDbLine
 10
4.39271653543307
 20
4.355314960629921
 30
0.0
 11
4.39271653543307
 21
4.326771653543307
 31
0.0
  0
LINE
  5
2ECC
330
1E
100
AcDbEntity
  8
0
100
AcDbLine
 10
4.39271653543307
 20
4.303149606299212
 30
0.0
 11
4.39271653543307
 21
4.326771653543307
 31
0.0
  0
POLYLINE
  5
2ECD
330
1E
100
AcDbEntity
  8
0
100
AcDb2dPolyline
 66
     1
 10
0.0
 20
0.0
 30
0.0
  0
VERTEX
  5
33FE
330
2ECD
100
AcDbEntity
  8
0
100
AcDbVertex
100
AcDb2dVertex
 10
4.40255905511811
 20
3.969488188976377
 30
0.0
  0
VERTEX
  5
33FF
330
2ECD
100
AcDbEntity
  8
0
100
AcDbVertex
100
AcDb2dVertex
 10
4.395669291338582
 20
3.966535433070866
 30
0.0
  0
VERTEX
  5
3400
330
2ECD
100
AcDbEntity
  8
0
100
AcDbVertex
100
AcDb2dVertex
 10
4.39271653543307
 20
3.959645669291338
 30
0.0
  0
SEQEND
  5
3401
330
2ECD
100
AcDbEntity
  8
0
  0
LINE
  5
2ED2
330
1E
100
AcDbEntity
  8
0
100
AcDbLine
 10
4.631889763779527
 20
3.978346456692913
 30
0.0
 11
4.40255905511811
 21
3.969488188976377
 31
0.0
  0
LINE
  5
2ED3
330
1E
100
AcDbEntity
  8
0
100
AcDbLine
 10
4.359251968503937
 20
4.576771653543307
 30
0.0
 11
4.349409448818897
 21
4.576771653543307
 31
0.0
  0
LINE
  5
2ED4
330
1E
100
AcDbEntity
  8
0
100
AcDbLine
 10
4.349409448818897
 20
4.576771653543307
 30
0.0
 11
4.349409448818897
 21
4.451771653543307
 31
0.0
  0
LINE
  5
2ED5
330
1E
100
AcDbEntity
  8
0
100
AcDbLine
 10
4.39271653543307
 20
3.936023622047244
 30
0.0
 11
4.26279527559055
 21
3.932086614173228
 31
0.0
  0
LINE
  5
2ED6
330
1E
100
AcDbEntity
  8
0
100
AcDbLine
 10
4.26279527559055
 20
3.686023622047243
 30
0.0
 11
4.450787401574802
 21
3.687007874015748
 31
0.0
  0
LINE
  5
2ED7
330
1E
100
AcDbEntity
  8
0
100
AcDbLine
 10
4.26279527559055
 20
3.686023622047243
 30
0.0
 11
4.26279527559055
 21
3.932086614173228
 31
0.0
  0
LINE
  5
2ED8
330
1E
100
AcDbEntity
  8
0
100
AcDbLine
 10
4.39271653543307
 20
3.936023622047244
 30
0.0
 11
4.39271653543307
 21
3.907480314960629
 31
0.0
  0
LINE
  5
2ED9
330
1E
100
AcDbEntity
  8
0
100
AcDbLine
 10
4.26279527559055
 20
4.331692913385826
 30
0.0
 11
4.26279527559055
 21
3.932086614173228
 31
0.0
  0
LINE
  5
2EDA
330
1E
100
AcDbEntity
  8
0
100
AcDbLine
 10
4.39271653543307
 20
3.936023622047244
 30
0.0
 11
4.39271653543307
 21
3.959645669291338
 31
0.0
  0
LINE
  5
2EDB
330
1E
100
AcDbEntity
  8
0
100
AcDbLine
 10
4.450787401574802
 20
4.450787401574802
 30
0.0
 11
4.349409448818897
 21
4.451771653543307
 31
0.0
  0
LINE
  5
2EDC
330
1E
100
AcDbEntity
  8
0
100
AcDbLine
 10
4.26279527559055
 20
4.577755905511811
 30
0.0
 11
4.349409448818897
 21
4.576771653543307
 31
0.0
  0
LINE
  5
2EDD
330
1E
100
AcDbEntity
  8
0
100
AcDbLine
 10
4.26279527559055
 20
4.331692913385826
 30
0.0
 11
4.26279527559055
 21
4.577755905511811
 31
0.0
  0
LINE
  5
2EDE
330
1E
100
AcDbEntity
  8
0
100
AcDbLine
 10
4.26279527559055
 20
4.331692913385826
 30
0.0
 11
4.39271653543307
 21
4.326771653543307
 31
0.0
  0
POLYLINE
  5
2EDF
330
1E
100
AcDbEntity
  8
0
100
AcDb2dPolyline
 66
     1
 10
0.0
 20
0.0
 30
0.0
  0
VERTEX
  5
3402
330
2EDF
100
AcDbEntity
  8
0
100
AcDbVertex
100
AcDb2dVertex
 10
4.52263779527559
 20
3.89271653543307
 30
0.0
  0
VERTEX
  5
3403
330
2EDF
100
AcDbEntity
  8
0
100
AcDbVertex
100
AcDb2dVertex
 10
4.502952755905512
 20
3.89271653543307
 30
0.0
  0
VERTEX
  5
3404
330
2EDF
100
AcDbEntity
  8
0
100
AcDbVertex
100
AcDb2dVertex
 10
4.450787401574802
 20
3.893700787401574
 30
0.0
  0
SEQEND
  5
3405
330
2EDF
100
AcDbEntity
  8
0
  0
POLYLINE
  5
2EE4
330
1E
100
AcDbEntity
  8
0
100
AcDb2dPolyline
 66
     1
 10
0.0
 20
0.0
 30
0.0
  0
VERTEX
  5
3406
330
2EE4
100
AcDbEntity
  8
0
100
AcDbVertex
100
AcDb2dVertex
 10
4.539370078740157
 20
4.319881889763779
 30
0.0
  0
VERTEX
  5
3407
330
2EE4
100
AcDbEntity
  8
0
100
AcDbVertex
100
AcDb2dVertex
 10
4.539370078740157
 20
4.366141732283464
 30
0.0
  0
VERTEX
  5
3408
330
2EE4
100
AcDbEntity
  8
0
100
AcDbVertex
100
AcDb2dVertex
 10
4.539370078740157
 20
4.409448818897637
 30
0.0
  0
VERTEX
  5
3409
330
2EE4
100
AcDbEntity
  8
0
100
AcDbVertex
100
AcDb2dVertex
 10
4.539370078740157
 20
4.448818897637795
 30
0.0
  0
VERTEX
  5
340A
330
2EE4
100
AcDbEntity
  8
0
100
AcDbVertex
100
AcDb2dVertex
 10
4.539370078740157
 20
4.481299212598425
 30
0.0
  0
SEQEND
  5
340B
330
2EE4
100
AcDbEntity
  8
0
  0
POLYLINE
  5
2EEB
330
1E
100
AcDbEntity
  8
0
100
AcDb2dPolyline
 66
     1
 10
0.0
 20
0.0
 30
0.0
  0
VERTEX
  5
340C
330
2EEB
100
AcDbEntity
  8
0
100
AcDbVertex
100
AcDb2dVertex
 10
4.539370078740157
 20
4.508858267716535
 30
0.0
  0
VERTEX
  5
340D
330
2EEB
100
AcDbEntity
  8
0
100
AcDbVertex
100
AcDb2dVertex
 10
4.539370078740157
 20
4.523622047244094
 30
0.0
  0
VERTEX
  5
340E
330
2EEB
100
AcDbEntity
  8
0
100
AcDbVertex
100
AcDb2dVertex
 10
4.539370078740157
 20
4.528543307086613
 30
0.0
  0
SEQEND
  5
340F
330
2EEB
100
AcDbEntity
  8
0
  0
LINE
  5
2EF0
330
1E
100
AcDbEntity
  8
0
100
AcDbLine
 10
4.631889763779527
 20
4.508858267716535
 30
0.0
 11
4.539370078740157
 21
4.508858267716535
 31
0.0
  0
LINE
  5
2EF1
330
1E
100
AcDbEntity
  8
0
100
AcDbLine
 10
4.631889763779527
 20
4.291338582677165
 30
0.0
 11
4.539370078740157
 21
4.291338582677165
 31
0.0
  0
LINE
  5
2EF2
330
1E
100
AcDbEntity
  8
0
100
AcDbLine
 10
4.539370078740157
 20
4.288385826771653
 30
0.0
 11
4.539370078740157
 21
4.291338582677165
 31
0.0
  0
LINE
  5
2EF3
330
1E
100
AcDbEntity
  8
0
100
AcDbLine
 10
4.631889763779527
 20
4.285433070866141
 30
0.0
 11
4.631889763779527
 21
4.291338582677165
 31
0.0
  0
LINE
  5
2EF4
330
1E
100
AcDbEntity
  8
0
100
AcDbLine
 10
4.631889763779527
 20
4.291338582677165
 30
0.0
 11
4.631889763779527
 21
4.508858267716535
 31
0.0
  0
LINE
  5
2EF5
330
1E
100
AcDbEntity
  8
0
100
AcDbLine
 10
4.539370078740157
 20
4.291338582677165
 30
0.0
 11
4.539370078740157
 21
4.319881889763779
 31
0.0
  0
LINE
  5
2EF6
330
1E
100
AcDbEntity
  8
0
100
AcDbLine
 10
4.539370078740157
 20
4.481299212598425
 30
0.0
 11
4.539370078740157
 21
4.508858267716535
 31
0.0
  0
POLYLINE
  5
2EF7
330
1E
100
AcDbEntity
  8
0
100
AcDb2dPolyline
 66
     1
 10
0.0
 20
0.0
 30
0.0
  0
VERTEX
  5
3410
330
2EF7
100
AcDbEntity
  8
0
100
AcDbVertex
100
AcDb2dVertex
 10
5.08759842519685
 20
4.435039370078739
 30
0.0
  0
VERTEX
  5
3411
330
2EF7
100
AcDbEntity
  8
0
100
AcDbVertex
100
AcDb2dVertex
 10
5.08759842519685
 20
4.431102362204724
 30
0.0
  0
VERTEX
  5
3412
330
2EF7
100
AcDbEntity
  8
0
100
AcDbVertex
100
AcDb2dVertex
 10
5.08759842519685
 20
4.418307086614173
 30
0.0
  0
VERTEX
  5
3413
330
2EF7
100
AcDbEntity
  8
0
100
AcDbVertex
100
AcDb2dVertex
 10
5.08759842519685
 20
4.398622047244094
 30
0.0
  0
VERTEX
  5
3414
330
2EF7
100
AcDbEntity
  8
0
100
AcDbVertex
100
AcDb2dVertex
 10
5.08759842519685
 20
4.373031496062991
 30
0.0
  0
VERTEX
  5
3415
330
2EF7
100
AcDbEntity
  8
0
100
AcDbVertex
100
AcDb2dVertex
 10
5.08759842519685
 20
4.34251968503937
 30
0.0
  0
VERTEX
  5
3416
330
2EF7
100
AcDbEntity
  8
0
100
AcDbVertex
100
AcDb2dVertex
 10
5.08759842519685
 20
4.309055118110236
 30
0.0
  0
VERTEX
  5
3417
330
2EF7
100
AcDbEntity
  8
0
100
AcDbVertex
100
AcDb2dVertex
 10
5.08759842519685
 20
4.274606299212598
 30
0.0
  0
VERTEX
  5
3418
330
2EF7
100
AcDbEntity
  8
0
100
AcDbVertex
100
AcDb2dVertex
 10
5.08759842519685
 20
4.241141732283464
 30
0.0
  0
VERTEX
  5
3419
330
2EF7
100
AcDbEntity
  8
0
100
AcDbVertex
100
AcDb2dVertex
 10
5.08759842519685
 20
4.209645669291338
 30
0.0
  0
VERTEX
  5
341A
330
2EF7
100
AcDbEntity
  8
0
100
AcDbVertex
100
AcDb2dVertex
 10
5.08759842519685
 20
4.184055118110236
 30
0.0
  0
VERTEX
  5
341B
330
2EF7
100
AcDbEntity
  8
0
100
AcDbVertex
100
AcDb2dVertex
 10
5.08759842519685
 20
4.164370078740157
 30
0.0
  0
VERTEX
  5
341C
330
2EF7
100
AcDbEntity
  8
0
100
AcDbVertex
100
AcDb2dVertex
 10
5.08759842519685
 20
4.15255905511811
 30
0.0
  0
VERTEX
  5
341D
330
2EF7
100
AcDbEntity
  8
0
100
AcDbVertex
100
AcDb2dVertex
 10
5.08759842519685
 20
4.14763779527559
 30
0.0
  0
SEQEND
  5
341E
330
2EF7
100
AcDbEntity
  8
0
  0
POLYLINE
  5
2F07
330
1E
100
AcDbEntity
  8
0
100
AcDb2dPolyline
 66
     1
 10
0.0
 20
0.0
 30
0.0
  0
VERTEX
  5
341F
330
2F07
100
AcDbEntity
  8
0
100
AcDbVertex
100
AcDb2dVertex
 10
5.067913385826771
 20
4.134842519685038
 30
0.0
  0
VERTEX
  5
3420
330
2F07
100
AcDbEntity
  8
0
100
AcDbVertex
100
AcDb2dVertex
 10
5.067913385826771
 20
4.150590551181101
 30
0.0
  0
VERTEX
  5
3421
330
2F07
100
AcDbEntity
  8
0
100
AcDbVertex
100
AcDb2dVertex
 10
5.067913385826771
 20
4.174212598425197
 30
0.0
  0
VERTEX
  5
3422
330
2F07
100
AcDbEntity
  8
0
100
AcDbVertex
100
AcDb2dVertex
 10
5.067913385826771
 20
4.203740157480314
 30
0.0
  0
VERTEX
  5
3423
330
2F07
100
AcDbEntity
  8
0
100
AcDbVertex
100
AcDb2dVertex
 10
5.067913385826771
 20
4.239173228346456
 30
0.0
  0
VERTEX
  5
3424
330
2F07
100
AcDbEntity
  8
0
100
AcDbVertex
100
AcDb2dVertex
 10
5.067913385826771
 20
4.276574803149606
 30
0.0
  0
VERTEX
  5
3425
330
2F07
100
AcDbEntity
  8
0
100
AcDbVertex
100
AcDb2dVertex
 10
5.067913385826771
 20
4.315944881889763
 30
0.0
  0
VERTEX
  5
3426
330
2F07
100
AcDbEntity
  8
0
100
AcDbVertex
100
AcDb2dVertex
 10
5.067913385826771
 20
4.353346456692912
 30
0.0
  0
VERTEX
  5
3427
330
2F07
100
AcDbEntity
  8
0
100
AcDbVertex
100
AcDb2dVertex
 10
5.067913385826771
 20
4.386811023622047
 30
0.0
  0
VERTEX
  5
3428
330
2F07
100
AcDbEntity
  8
0
100
AcDbVertex
100
AcDb2dVertex
 10
5.067913385826771
 20
4.415354330708661
 30
0.0
  0
VERTEX
  5
3429
330
2F07
100
AcDbEntity
  8
0
100
AcDbVertex
100
AcDb2dVertex
 10
5.067913385826771
 20
4.437007874015748
 30
0.0
  0
VERTEX
  5
342A
330
2F07
100
AcDbEntity
  8
0
100
AcDbVertex
100
AcDb2dVertex
 10
5.067913385826771
 20
4.450787401574802
 30
0.0
  0
VERTEX
  5
342B
330
2F07
100
AcDbEntity
  8
0
100
AcDbVertex
100
AcDb2dVertex
 10
5.067913385826771
 20
4.454724409448818
 30
0.0
  0
SEQEND
  5
342C
330
2F07
100
AcDbEntity
  8
0
  0
POLYLINE
  5
2F16
330
1E
100
AcDbEntity
  8
0
100
AcDb2dPolyline
 66
     1
 10
0.0
 20
0.0
 30
0.0
  0
VERTEX
  5
342D
330
2F16
100
AcDbEntity
  8
0
100
AcDbVertex
100
AcDb2dVertex
 10
4.738188976377952
 20
4.281496062992125
 30
0.0
  0
VERTEX
  5
342E
330
2F16
100
AcDbEntity
  8
0
100
AcDbVertex
100
AcDb2dVertex
 10
4.738188976377952
 20
4.323818897637795
 30
0.0
  0
VERTEX
  5
342F
330
2F16
100
AcDbEntity
  8
0
100
AcDbVertex
100
AcDb2dVertex
 10
4.738188976377952
 20
4.36515748031496
 30
0.0
  0
VERTEX
  5
3430
330
2F16
100
AcDbEntity
  8
0
100
AcDbVertex
100
AcDb2dVertex
 10
4.738188976377952
 20
4.401574803149606
 30
0.0
  0
VERTEX
  5
3431
330
2F16
100
AcDbEntity
  8
0
100
AcDbVertex
100
AcDb2dVertex
 10
4.738188976377952
 20
4.432086614173228
 30
0.0
  0
VERTEX
  5
3432
330
2F16
100
AcDbEntity
  8
0
100
AcDbVertex
100
AcDb2dVertex
 10
4.738188976377952
 20
4.455708661417323
 30
0.0
  0
VERTEX
  5
3433
330
2F16
100
AcDbEntity
  8
0
100
AcDbVertex
100
AcDb2dVertex
 10
4.738188976377952
 20
4.470472440944881
 30
0.0
  0
VERTEX
  5
3434
330
2F16
100
AcDbEntity
  8
0
100
AcDbVertex
100
AcDb2dVertex
 10
4.738188976377952
 20
4.475393700787401
 30
0.0
  0
SEQEND
  5
3435
330
2F16
100
AcDbEntity
  8
0
  0
LINE
  5
2F20
330
1E
100
AcDbEntity
  8
0
100
AcDbLine
 10
4.218503937007874
 20
4.291338582677165
 30
0.0
 11
4.26279527559055
 21
4.291338582677165
 31
0.0
  0
LINE
  5
2F21
330
1E
100
AcDbEntity
  8
0
100
AcDbLine
 10
4.218503937007874
 20
4.188976377952755
 30
0.0
 11
4.218503937007874
 21
4.291338582677165
 31
0.0
  0
LINE
  5
2F22
330
1E
100
AcDbEntity
  8
0
100
AcDbLine
 10
4.218503937007874
 20
4.508858267716535
 30
0.0
 11
4.26279527559055
 21
4.508858267716535
 31
0.0
  0
LINE
  5
2F23
330
1E
100
AcDbEntity
  8
0
100
AcDbLine
 10
4.218503937007874
 20
4.291338582677165
 30
0.0
 11
4.218503937007874
 21
4.508858267716535
 31
0.0
  0
POLYLINE
  5
2F24
330
1E
100
AcDbEntity
  8
0
100
AcDb2dPolyline
 66
     1
 10
0.0
 20
0.0
 30
0.0
  0
VERTEX
  5
3436
330
2F24
100
AcDbEntity
  8
0
100
AcDbVertex
100
AcDb2dVertex
 10
3.934055118110236
 20
4.14763779527559
 30
0.0
  0
VERTEX
  5
3437
330
2F24
100
AcDbEntity
  8
0
100
AcDbVertex
100
AcDb2dVertex
 10
3.934055118110236
 20
4.15255905511811
 30
0.0
  0
VERTEX
  5
3438
330
2F24
100
AcDbEntity
  8
0
100
AcDbVertex
100
AcDb2dVertex
 10
3.934055118110236
 20
4.164370078740157
 30
0.0
  0
VERTEX
  5
3439
330
2F24
100
AcDbEntity
  8
0
100
AcDbVertex
100
AcDb2dVertex
 10
3.934055118110236
 20
4.184055118110236
 30
0.0
  0
VERTEX
  5
343A
330
2F24
100
AcDbEntity
  8
0
100
AcDbVertex
100
AcDb2dVertex
 10
3.934055118110236
 20
4.209645669291338
 30
0.0
  0
VERTEX
  5
343B
330
2F24
100
AcDbEntity
  8
0
100
AcDbVertex
100
AcDb2dVertex
 10
3.934055118110236
 20
4.241141732283464
 30
0.0
  0
VERTEX
  5
343C
330
2F24
100
AcDbEntity
  8
0
100
AcDbVertex
100
AcDb2dVertex
 10
3.934055118110236
 20
4.274606299212598
 30
0.0
  0
VERTEX
  5
343D
330
2F24
100
AcDbEntity
  8
0
100
AcDbVertex
100
AcDb2dVertex
 10
3.934055118110236
 20
4.309055118110236
 30
0.0
  0
VERTEX
  5
343E
330
2F24
100
AcDbEntity
  8
0
100
AcDbVertex
100
AcDb2dVertex
 10
3.934055118110236
 20
4.34251968503937
 30
0.0
  0
VERTEX
  5
343F
330
2F24
100
AcDbEntity
  8
0
100
AcDbVertex
100
AcDb2dVertex
 10
3.934055118110236
 20
4.373031496062991
 30
0.0
  0
VERTEX
  5
3440
330
2F24
100
AcDbEntity
  8
0
100
AcDbVertex
100
AcDb2dVertex
 10
3.934055118110236
 20
4.398622047244094
 30
0.0
  0
VERTEX
  5
3441
330
2F24
100
AcDbEntity
  8
0
100
AcDbVertex
100
AcDb2dVertex
 10
3.934055118110236
 20
4.418307086614173
 30
0.0
  0
VERTEX
  5
3442
330
2F24
100
AcDbEntity
  8
0
100
AcDbVertex
100
AcDb2dVertex
 10
3.934055118110236
 20
4.431102362204724
 30
0.0
  0
VERTEX
  5
3443
330
2F24
100
AcDbEntity
  8
0
100
AcDbVertex
100
AcDb2dVertex
 10
3.934055118110236
 20
4.435039370078739
 30
0.0
  0
SEQEND
  5
3444
330
2F24
100
AcDbEntity
  8
0
  0
POLYLINE
  5
2F34
330
1E
100
AcDbEntity
  8
0
100
AcDb2dPolyline
 66
     1
 10
0.0
 20
0.0
 30
0.0
  0
VERTEX
  5
3445
330
2F34
100
AcDbEntity
  8
0
100
AcDbVertex
100
AcDb2dVertex
 10
3.953740157480314
 20
4.454724409448818
 30
0.0
  0
VERTEX
  5
3446
330
2F34
100
AcDbEntity
  8
0
100
AcDbVertex
100
AcDb2dVertex
 10
3.953740157480314
 20
4.450787401574802
 30
0.0
  0
VERTEX
  5
3447
330
2F34
100
AcDbEntity
  8
0
100
AcDbVertex
100
AcDb2dVertex
 10
3.953740157480314
 20
4.437007874015748
 30
0.0
  0
VERTEX
  5
3448
330
2F34
100
AcDbEntity
  8
0
100
AcDbVertex
100
AcDb2dVertex
 10
3.953740157480314
 20
4.415354330708661
 30
0.0
  0
VERTEX
  5
3449
330
2F34
100
AcDbEntity
  8
0
100
AcDbVertex
100
AcDb2dVertex
 10
3.953740157480314
 20
4.386811023622047
 30
0.0
  0
VERTEX
  5
344A
330
2F34
100
AcDbEntity
  8
0
100
AcDbVertex
100
AcDb2dVertex
 10
3.953740157480314
 20
4.353346456692912
 30
0.0
  0
VERTEX
  5
344B
330
2F34
100
AcDbEntity
  8
0
100
AcDbVertex
100
AcDb2dVertex
 10
3.953740157480314
 20
4.315944881889763
 30
0.0
  0
VERTEX
  5
344C
330
2F34
100
AcDbEntity
  8
0
100
AcDbVertex
100
AcDb2dVertex
 10
3.953740157480314
 20
4.276574803149606
 30
0.0
  0
VERTEX
  5
344D
330
2F34
100
AcDbEntity
  8
0
100
AcDbVertex
100
AcDb2dVertex
 10
3.953740157480314
 20
4.239173228346456
 30
0.0
  0
VERTEX
  5
344E
330
2F34
100
AcDbEntity
  8
0
100
AcDbVertex
100
AcDb2dVertex
 10
3.953740157480314
 20
4.203740157480314
 30
0.0
  0
VERTEX
  5
344F
330
2F34
100
AcDbEntity
  8
0
100
AcDbVertex
100
AcDb2dVertex
 10
3.953740157480314
 20
4.174212598425197
 30
0.0
  0
VERTEX
  5
3450
330
2F34
100
AcDbEntity
  8
0
100
AcDbVertex
100
AcDb2dVertex
 10
3.953740157480314
 20
4.150590551181101
 30
0.0
  0
VERTEX
  5
3451
330
2F34
100
AcDbEntity
  8
0
100
AcDbVertex
100
AcDb2dVertex
 10
3.953740157480314
 20
4.134842519685038
 30
0.0
  0
SEQEND
  5
3452
330
2F34
100
AcDbEntity
  8
0
  0
POLYLINE
  5
2F43
330
1E
100
AcDbEntity
  8
0
100
AcDb2dPolyline
 66
     1
 10
0.0
 20
0.0
 30
0.0
  0
VERTEX
  5
3453
330
2F43
100
AcDbEntity
  8
0
100
AcDbVertex
100
AcDb2dVertex
 10
4.52263779527559
 20
3.974409448818897
 30
0.0
  0
VERTEX
  5
3454
330
2F43
100
AcDbEntity
  8
0
100
AcDbVertex
100
AcDb2dVertex
 10
4.52263779527559
 20
3.933070866141732
 30
0.0
  0
VERTEX
  5
3455
330
2F43
100
AcDbEntity
  8
0
100
AcDbVertex
100
AcDb2dVertex
 10
4.52263779527559
 20
3.89271653543307
 30
0.0
  0
SEQEND
  5
3456
330
2F43
100
AcDbEntity
  8
0
  0
POLYLINE
  5
2F48
330
1E
100
AcDbEntity
  8
0
100
AcDb2dPolyline
 66
     1
 10
0.0
 20
0.0
 30
0.0
  0
VERTEX
  5
3457
330
2F48
100
AcDbEntity
  8
0
100
AcDbVertex
100
AcDb2dVertex
 10
4.539370078740157
 20
3.73523622047244
 30
0.0
  0
VERTEX
  5
3458
330
2F48
100
AcDbEntity
  8
0
100
AcDbVertex
100
AcDb2dVertex
 10
4.539370078740157
 20
3.74015748031496
 30
0.0
  0
VERTEX
  5
3459
330
2F48
100
AcDbEntity
  8
0
100
AcDbVertex
100
AcDb2dVertex
 10
4.539370078740157
 20
3.753937007874015
 30
0.0
  0
SEQEND
  5
345A
330
2F48
100
AcDbEntity
  8
0
  0
POLYLINE
  5
2F4D
330
1E
100
AcDbEntity
  8
0
100
AcDb2dPolyline
 66
     1
 10
0.0
 20
0.0
 30
0.0
  0
VERTEX
  5
345B
330
2F4D
100
AcDbEntity
  8
0
100
AcDbVertex
100
AcDb2dVertex
 10
4.539370078740157
 20
3.78248031496063
 30
0.0
  0
VERTEX
  5
345C
330
2F4D
100
AcDbEntity
  8
0
100
AcDbVertex
100
AcDb2dVertex
 10
4.539370078740157
 20
3.814960629921259
 30
0.0
  0
VERTEX
  5
345D
330
2F4D
100
AcDbEntity
  8
0
100
AcDbVertex
100
AcDb2dVertex
 10
4.539370078740157
 20
3.853346456692913
 30
0.0
  0
VERTEX
  5
345E
330
2F4D
100
AcDbEntity
  8
0
100
AcDbVertex
100
AcDb2dVertex
 10
4.539370078740157
 20
3.896653543307086
 30
0.0
  0
VERTEX
  5
345F
330
2F4D
100
AcDbEntity
  8
0
100
AcDbVertex
100
AcDb2dVertex
 10
4.539370078740157
 20
3.943897637795275
 30
0.0
  0
SEQEND
  5
3460
330
2F4D
100
AcDbEntity
  8
0
  0
LINE
  5
2F54
330
1E
100
AcDbEntity
  8
0
100
AcDbLine
 10
4.631889763779527
 20
3.753937007874015
 30
0.0
 11
4.539370078740157
 21
3.753937007874015
 31
0.0
  0
LINE
  5
2F55
330
1E
100
AcDbEntity
  8
0
100
AcDbLine
 10
4.631889763779527
 20
3.971456692913385
 30
0.0
 11
4.539370078740157
 21
3.971456692913385
 31
0.0
  0
LINE
  5
2F56
330
1E
100
AcDbEntity
  8
0
100
AcDbLine
 10
4.539370078740157
 20
3.753937007874015
 30
0.0
 11
4.539370078740157
 21
3.78248031496063
 31
0.0
  0
LINE
  5
2F57
330
1E
100
AcDbEntity
  8
0
100
AcDbLine
 10
4.539370078740157
 20
3.943897637795275
 30
0.0
 11
4.539370078740157
 21
3.971456692913385
 31
0.0
  0
LINE
  5
2F58
330
1E
100
AcDbEntity
  8
0
100
AcDbLine
 10
4.631889763779527
 20
3.753937007874015
 30
0.0
 11
4.631889763779527
 21
3.971456692913385
 31
0.0
  0
LINE
  5
2F59
330
1E
100
AcDbEntity
  8
0
100
AcDbLine
 10
4.631889763779527
 20
3.971456692913385
 30
0.0
 11
4.631889763779527
 21
3.978346456692913
 31
0.0
  0
LINE
  5
2F5A
330
1E
100
AcDbEntity
  8
0
100
AcDbLine
 10
4.539370078740157
 20
3.971456692913385
 30
0.0
 11
4.539370078740157
 21
3.974409448818897
 31
0.0
  0
POLYLINE
  5
2F5B
330
1E
100
AcDbEntity
  8
0
100
AcDb2dPolyline
 66
     1
 10
0.0
 20
0.0
 30
0.0
  0
VERTEX
  5
3461
330
2F5B
100
AcDbEntity
  8
0
100
AcDbVertex
100
AcDb2dVertex
 10
5.08759842519685
 20
4.11515748031496
 30
0.0
  0
VERTEX
  5
3462
330
2F5B
100
AcDbEntity
  8
0
100
AcDbVertex
100
AcDb2dVertex
 10
5.08759842519685
 20
4.111220472440944
 30
0.0
  0
VERTEX
  5
3463
330
2F5B
100
AcDbEntity
  8
0
100
AcDbVertex
100
AcDb2dVertex
 10
5.08759842519685
 20
4.098425196850393
 30
0.0
  0
VERTEX
  5
3464
330
2F5B
100
AcDbEntity
  8
0
100
AcDbVertex
100
AcDb2dVertex
 10
5.08759842519685
 20
4.078740157480314
 30
0.0
  0
VERTEX
  5
3465
330
2F5B
100
AcDbEntity
  8
0
100
AcDbVertex
100
AcDb2dVertex
 10
5.08759842519685
 20
4.053149606299212
 30
0.0
  0
VERTEX
  5
3466
330
2F5B
100
AcDbEntity
  8
0
100
AcDbVertex
100
AcDb2dVertex
 10
5.08759842519685
 20
4.02263779527559
 30
0.0
  0
VERTEX
  5
3467
330
2F5B
100
AcDbEntity
  8
0
100
AcDbVertex
100
AcDb2dVertex
 10
5.08759842519685
 20
3.989173228346456
 30
0.0
  0
VERTEX
  5
3468
330
2F5B
100
AcDbEntity
  8
0
100
AcDbVertex
100
AcDb2dVertex
 10
5.08759842519685
 20
3.954724409448818
 30
0.0
  0
VERTEX
  5
3469
330
2F5B
100
AcDbEntity
  8
0
100
AcDbVertex
100
AcDb2dVertex
 10
5.08759842519685
 20
3.920275590551181
 30
0.0
  0
VERTEX
  5
346A
330
2F5B
100
AcDbEntity
  8
0
100
AcDbVertex
100
AcDb2dVertex
 10
5.08759842519685
 20
3.889763779527558
 30
0.0
  0
VERTEX
  5
346B
330
2F5B
100
AcDbEntity
  8
0
100
AcDbVertex
100
AcDb2dVertex
 10
5.08759842519685
 20
3.864173228346456
 30
0.0
  0
VERTEX
  5
346C
330
2F5B
100
AcDbEntity
  8
0
100
AcDbVertex
100
AcDb2dVertex
 10
5.08759842519685
 20
3.844488188976377
 30
0.0
  0
VERTEX
  5
346D
330
2F5B
100
AcDbEntity
  8
0
100
AcDbVertex
100
AcDb2dVertex
 10
5.08759842519685
 20
3.83267716535433
 30
0.0
  0
VERTEX
  5
346E
330
2F5B
100
AcDbEntity
  8
0
100
AcDbVertex
100
AcDb2dVertex
 10
5.08759842519685
 20
3.827755905511811
 30
0.0
  0
SEQEND
  5
346F
330
2F5B
100
AcDbEntity
  8
0
  0
POLYLINE
  5
2F6B
330
1E
100
AcDbEntity
  8
0
100
AcDb2dPolyline
 66
     1
 10
0.0
 20
0.0
 30
0.0
  0
VERTEX
  5
3470
330
2F6B
100
AcDbEntity
  8
0
100
AcDbVertex
100
AcDb2dVertex
 10
5.067913385826771
 20
3.808070866141732
 30
0.0
  0
VERTEX
  5
3471
330
2F6B
100
AcDbEntity
  8
0
100
AcDbVertex
100
AcDb2dVertex
 10
5.067913385826771
 20
3.812007874015748
 30
0.0
  0
VERTEX
  5
3472
330
2F6B
100
AcDbEntity
  8
0
100
AcDbVertex
100
AcDb2dVertex
 10
5.067913385826771
 20
3.823818897637795
 30
0.0
  0
VERTEX
  5
3473
330
2F6B
100
AcDbEntity
  8
0
100
AcDbVertex
100
AcDb2dVertex
 10
5.067913385826771
 20
3.843503937007874
 30
0.0
  0
VERTEX
  5
3474
330
2F6B
100
AcDbEntity
  8
0
100
AcDbVertex
100
AcDb2dVertex
 10
5.067913385826771
 20
3.87007874015748
 30
0.0
  0
VERTEX
  5
3475
330
2F6B
100
AcDbEntity
  8
0
100
AcDbVertex
100
AcDb2dVertex
 10
5.067913385826771
 20
3.900590551181102
 30
0.0
  0
VERTEX
  5
3476
330
2F6B
100
AcDbEntity
  8
0
100
AcDbVertex
100
AcDb2dVertex
 10
5.067913385826771
 20
3.93503937007874
 30
0.0
  0
VERTEX
  5
3477
330
2F6B
100
AcDbEntity
  8
0
100
AcDbVertex
100
AcDb2dVertex
 10
5.067913385826771
 20
3.971456692913385
 30
0.0
  0
VERTEX
  5
3478
330
2F6B
100
AcDbEntity
  8
0
100
AcDbVertex
100
AcDb2dVertex
 10
5.067913385826771
 20
4.007874015748031
 30
0.0
  0
VERTEX
  5
3479
330
2F6B
100
AcDbEntity
  8
0
100
AcDbVertex
100
AcDb2dVertex
 10
5.067913385826771
 20
4.042322834645669
 30
0.0
  0
VERTEX
  5
347A
330
2F6B
100
AcDbEntity
  8
0
100
AcDbVertex
100
AcDb2dVertex
 10
5.067913385826771
 20
4.073818897637795
 30
0.0
  0
VERTEX
  5
347B
330
2F6B
100
AcDbEntity
  8
0
100
AcDbVertex
100
AcDb2dVertex
 10
5.067913385826771
 20
4.099409448818897
 30
0.0
  0
VERTEX
  5
347C
330
2F6B
100
AcDbEntity
  8
0
100
AcDbVertex
100
AcDb2dVertex
 10
5.067913385826771
 20
4.119094488188975
 30
0.0
  0
VERTEX
  5
347D
330
2F6B
100
AcDbEntity
  8
0
100
AcDbVertex
100
AcDb2dVertex
 10
5.067913385826771
 20
4.130905511811023
 30
0.0
  0
VERTEX
  5
347E
330
2F6B
100
AcDbEntity
  8
0
100
AcDbVertex
100
AcDb2dVertex
 10
5.067913385826771
 20
4.134842519685038
 30
0.0
  0
SEQEND
  5
347F
330
2F6B
100
AcDbEntity
  8
0
  0
POLYLINE
  5
2F7C
330
1E
100
AcDbEntity
  8
0
100
AcDb2dPolyline
 66
     1
 10
0.0
 20
0.0
 30
0.0
  0
VERTEX
  5
3480
330
2F7C
100
AcDbEntity
  8
0
100
AcDbVertex
100
AcDb2dVertex
 10
4.738188976377952
 20
3.787401574803149
 30
0.0
  0
VERTEX
  5
3481
330
2F7C
100
AcDbEntity
  8
0
100
AcDbVertex
100
AcDb2dVertex
 10
4.738188976377952
 20
3.792322834645669
 30
0.0
  0
VERTEX
  5
3482
330
2F7C
100
AcDbEntity
  8
0
100
AcDbVertex
100
AcDb2dVertex
 10
4.738188976377952
 20
3.807086614173228
 30
0.0
  0
VERTEX
  5
3483
330
2F7C
100
AcDbEntity
  8
0
100
AcDbVertex
100
AcDb2dVertex
 10
4.738188976377952
 20
3.830708661417322
 30
0.0
  0
VERTEX
  5
3484
330
2F7C
100
AcDbEntity
  8
0
100
AcDbVertex
100
AcDb2dVertex
 10
4.738188976377952
 20
3.861220472440944
 30
0.0
  0
VERTEX
  5
3485
330
2F7C
100
AcDbEntity
  8
0
100
AcDbVertex
100
AcDb2dVertex
 10
4.738188976377952
 20
3.898622047244094
 30
0.0
  0
VERTEX
  5
3486
330
2F7C
100
AcDbEntity
  8
0
100
AcDbVertex
100
AcDb2dVertex
 10
4.738188976377952
 20
3.938976377952755
 30
0.0
  0
VERTEX
  5
3487
330
2F7C
100
AcDbEntity
  8
0
100
AcDbVertex
100
AcDb2dVertex
 10
4.738188976377952
 20
3.981299212598425
 30
0.0
  0
SEQEND
  5
3488
330
2F7C
100
AcDbEntity
  8
0
  0
LINE
  5
2F86
330
1E
100
AcDbEntity
  8
0
100
AcDbLine
 10
4.218503937007874
 20
3.753937007874015
 30
0.0
 11
4.26279527559055
 21
3.753937007874015
 31
0.0
  0
LINE
  5
2F87
330
1E
100
AcDbEntity
  8
0
100
AcDbLine
 10
4.218503937007874
 20
3.971456692913385
 30
0.0
 11
4.26279527559055
 21
3.971456692913385
 31
0.0
  0
LINE
  5
2F88
330
1E
100
AcDbEntity
  8
0
100
AcDbLine
 10
4.218503937007874
 20
3.753937007874015
 30
0.0
 11
4.218503937007874
 21
3.971456692913385
 31
0.0
  0
LINE
  5
2F89
330
1E
100
AcDbEntity
  8
0
100
AcDbLine
 10
4.218503937007874
 20
4.188976377952755
 30
0.0
 11
4.26279527559055
 21
4.188976377952755
 31
0.0
  0
LINE
  5
2F8A
330
1E
100
AcDbEntity
  8
0
100
AcDbLine
 10
4.218503937007874
 20
3.971456692913385
 30
0.0
 11
4.218503937007874
 21
4.188976377952755
 31
0.0
  0
POLYLINE
  5
2F8B
330
1E
100
AcDbEntity
  8
0
100
AcDb2dPolyline
 66
     1
 10
0.0
 20
0.0
 30
0.0
  0
VERTEX
  5
3489
330
2F8B
100
AcDbEntity
  8
0
100
AcDbVertex
100
AcDb2dVertex
 10
3.934055118110236
 20
3.827755905511811
 30
0.0
  0
VERTEX
  5
348A
330
2F8B
100
AcDbEntity
  8
0
100
AcDbVertex
100
AcDb2dVertex
 10
3.934055118110236
 20
3.83267716535433
 30
0.0
  0
VERTEX
  5
348B
330
2F8B
100
AcDbEntity
  8
0
100
AcDbVertex
100
AcDb2dVertex
 10
3.934055118110236
 20
3.844488188976377
 30
0.0
  0
VERTEX
  5
348C
330
2F8B
100
AcDbEntity
  8
0
100
AcDbVertex
100
AcDb2dVertex
 10
3.934055118110236
 20
3.864173228346456
 30
0.0
  0
VERTEX
  5
348D
330
2F8B
100
AcDbEntity
  8
0
100
AcDbVertex
100
AcDb2dVertex
 10
3.934055118110236
 20
3.889763779527558
 30
0.0
  0
VERTEX
  5
348E
330
2F8B
100
AcDbEntity
  8
0
100
AcDbVertex
100
AcDb2dVertex
 10
3.934055118110236
 20
3.920275590551181
 30
0.0
  0
VERTEX
  5
348F
330
2F8B
100
AcDbEntity
  8
0
100
AcDbVertex
100
AcDb2dVertex
 10
3.934055118110236
 20
3.954724409448818
 30
0.0
  0
VERTEX
  5
3490
330
2F8B
100
AcDbEntity
  8
0
100
AcDbVertex
100
AcDb2dVertex
 10
3.934055118110236
 20
3.989173228346456
 30
0.0
  0
VERTEX
  5
3491
330
2F8B
100
AcDbEntity
  8
0
100
AcDbVertex
100
AcDb2dVertex
 10
3.934055118110236
 20
4.02263779527559
 30
0.0
  0
VERTEX
  5
3492
330
2F8B
100
AcDbEntity
  8
0
100
AcDbVertex
100
AcDb2dVertex
 10
3.934055118110236
 20
4.053149606299212
 30
0.0
  0
VERTEX
  5
3493
330
2F8B
100
AcDbEntity
  8
0
100
AcDbVertex
100
AcDb2dVertex
 10
3.934055118110236
 20
4.078740157480314
 30
0.0
  0
VERTEX
  5
3494
330
2F8B
100
AcDbEntity
  8
0
100
AcDbVertex
100
AcDb2dVertex
 10
3.934055118110236
 20
4.098425196850393
 30
0.0
  0
VERTEX
  5
3495
330
2F8B
100
AcDbEntity
  8
0
100
AcDbVertex
100
AcDb2dVertex
 10
3.934055118110236
 20
4.111220472440944
 30
0.0
  0
VERTEX
  5
3496
330
2F8B
100
AcDbEntity
  8
0
100
AcDbVertex
100
AcDb2dVertex
 10
3.934055118110236
 20
4.11515748031496
 30
0.0
  0
SEQEND
  5
3497
330
2F8B
100
AcDbEntity
  8
0
  0
POLYLINE
  5
2F9B
330
1E
100
AcDbEntity
  8
0
100
AcDb2dPolyline
 66
     1
 10
0.0
 20
0.0
 30
0.0
  0
VERTEX
  5
3498
330
2F9B
100
AcDbEntity
  8
0
100
AcDbVertex
100
AcDb2dVertex
 10
3.953740157480314
 20
4.134842519685038
 30
0.0
  0
VERTEX
  5
3499
330
2F9B
100
AcDbEntity
  8
0
100
AcDbVertex
100
AcDb2dVertex
 10
3.953740157480314
 20
4.130905511811023
 30
0.0
  0
VERTEX
  5
349A
330
2F9B
100
AcDbEntity
  8
0
100
AcDbVertex
100
AcDb2dVertex
 10
3.953740157480314
 20
4.119094488188975
 30
0.0
  0
VERTEX
  5
349B
330
2F9B
100
AcDbEntity
  8
0
100
AcDbVertex
100
AcDb2dVertex
 10
3.953740157480314
 20
4.099409448818897
 30
0.0
  0
VERTEX
  5
349C
330
2F9B
100
AcDbEntity
  8
0
100
AcDbVertex
100
AcDb2dVertex
 10
3.953740157480314
 20
4.073818897637795
 30
0.0
  0
VERTEX
  5
349D
330
2F9B
100
AcDbEntity
  8
0
100
AcDbVertex
100
AcDb2dVertex
 10
3.953740157480314
 20
4.042322834645669
 30
0.0
  0
VERTEX
  5
349E
330
2F9B
100
AcDbEntity
  8
0
100
AcDbVertex
100
AcDb2dVertex
 10
3.953740157480314
 20
4.007874015748031
 30
0.0
  0
VERTEX
  5
349F
330
2F9B
100
AcDbEntity
  8
0
100
AcDbVertex
100
AcDb2dVertex
 10
3.953740157480314
 20
3.971456692913385
 30
0.0
  0
VERTEX
  5
34A0
330
2F9B
100
AcDbEntity
  8
0
100
AcDbVertex
100
AcDb2dVertex
 10
3.953740157480314
 20
3.93503937007874
 30
0.0
  0
VERTEX
  5
34A1
330
2F9B
100
AcDbEntity
  8
0
100
AcDbVertex
100
AcDb2dVertex
 10
3.953740157480314
 20
3.900590551181102
 30
0.0
  0
VERTEX
  5
34A2
330
2F9B
100
AcDbEntity
  8
0
100
AcDbVertex
100
AcDb2dVertex
 10
3.953740157480314
 20
3.87007874015748
 30
0.0
  0
VERTEX
  5
34A3
330
2F9B
100
AcDbEntity
  8
0
100
AcDbVertex
100
AcDb2dVertex
 10
3.953740157480314
 20
3.843503937007874
 30
0.0
  0
VERTEX
  5
34A4
330
2F9B
100
AcDbEntity
  8
0
100
AcDbVertex
100
AcDb2dVertex
 10
3.953740157480314
 20
3.823818897637795
 30
0.0
  0
VERTEX
  5
34A5
330
2F9B
100
AcDbEntity
  8
0
100
AcDbVertex
100
AcDb2dVertex
 10
3.953740157480314
 20
3.812007874015748
 30
0.0
  0
VERTEX
  5
34A6
330
2F9B
100
AcDbEntity
  8
0
100
AcDbVertex
100
AcDb2dVertex
 10
3.953740157480314
 20
3.808070866141732
 30
0.0
  0
SEQEND
  5
34A7
330
2F9B
100
AcDbEntity
  8
0
  0
ENDSEC
  0
SECTION
  2
OBJECTS
  0
DICTIONARY
  5
C
330
0
100
AcDbDictionary
  3
ACAD_GROUP
350
D
  3
ACAD_LAYOUT
350
19
  3
ACAD_MLINESTYLE
350
16
  3
ACAD_PLOTSETTINGS
350
18
1001
ACAD
1000
TREAT_AS_HARD
1070
     0
  0
DICTIONARY
  5
3377
330
1E
100
AcDbDictionary
  3
ACAD_LAYOUTSELFREF
350
3378
  0
DICTIONARY
  5
3375
330
1A
100
AcDbDictionary
  3
ACAD_LAYOUTSELFREF
350
3376
  0
DICTIONARY
  5
D
102
{ACAD_REACTORS
330
C
102
}
330
C
100
AcDbDictionary
1001
ACAD
1000
TREAT_AS_HARD
1070
     0
  0
DICTIONARY
  5
19
102
{ACAD_REACTORS
330
C
102
}
330
C
100
AcDbDictionary
1001
ACAD
1000
TREAT_AS_HARD
1070
     0
  0
DICTIONARY
  5
16
102
{ACAD_REACTORS
330
C
102
}
330
C
100
AcDbDictionary
  3
STANDARD
350
17
1001
ACAD
1000
TREAT_AS_HARD
1070
     0
  0
DICTIONARY
  5
18
102
{ACAD_REACTORS
330
C
102
}
330
C
100
AcDbDictionary
1001
ACAD
1000
TREAT_AS_HARD
1070
     0
  0
XRECORD
  5
3378
102
{ACAD_REACTORS
330
3377
102
}
330
3377
100
AcDbXrecord
340
1E
  0
XRECORD
  5
3376
102
{ACAD_REACTORS
330
3375
102
}
330
3375
100
AcDbXrecord
340
1A
  0
MLINESTYLE
  5
17
102
{ACAD_REACTORS
330
16
102
}
330
16
100
AcDbMlineStyle
  2
STANDARD
 70
     0
  3

 62
   256
 51
90.0
 52
90.0
 71
     2
 49
0.5
 62
   256
  6
BYLAYER
 49
-0.5
 62
   256
  6
BYLAYER
  0
ENDSEC
  0
EOF
