  0
SECTION
  2
HEADER
  9
$ACADVER
  1
AC1014
  9
$ACADMAINTVER
 70
     9
  9
$DWGCODEPAGE
  3
ANSI_1252
  9
$INSBASE
 10
0.0
 20
0.0
 30
0.0
  9
$EXTMIN
 10
10.27666084468364
 20
13.5789566040039
 30
0.0
  9
$EXTMAX
 10
25.98406982421875
 20
31.57413490116596
 30
0.0
  9
$LIMMIN
 10
-0.5
 20
-0.5
  9
$LIMMAX
 10
5.0
 20
5.0
  9
$ORTHOMODE
 70
     0
  9
$REGENMODE
 70
     1
  9
$FILLMODE
 70
     1
  9
$QTEXTMODE
 70
     0
  9
$MIRRTEXT
 70
     1
  9
$DRAGMODE
 70
     2
  9
$LTSCALE
 40
1.0
  9
$OSMODE
 70
   261
  9
$ATTMODE
 70
     1
  9
$TEXTSIZE
 40
0.0
  9
$TRACEWID
 40
0.05
  9
$TEXTSTYLE
  7
STANDARD
  9
$CLAYER
  8
0
  9
$CELTYPE
  6
CONTINUOUS
  9
$CECOLOR
 62
   256
  9
$CELTSCALE
 40
1.0
  9
$DELOBJ
 70
     1
  9
$DISPSILH
 70
     0
  9
$DIMSCALE
 40
1.0
  9
$DIMASZ
 40
0.18
  9
$DIMEXO
 40
0.0625
  9
$DIMDLI
 40
0.38
  9
$DIMRND
 40
0.0
  9
$DIMDLE
 40
0.0
  9
$DIMEXE
 40
0.18
  9
$DIMTP
 40
0.0
  9
$DIMTM
 40
0.0
  9
$DIMTXT
 40
0.18
  9
$DIMCEN
 40
0.09
  9
$DIMTSZ
 40
0.0
  9
$DIMTOL
 70
     0
  9
$DIMLIM
 70
     0
  9
$DIMTIH
 70
     1
  9
$DIMTOH
 70
     1
  9
$DIMSE1
 70
     0
  9
$DIMSE2
 70
     0
  9
$DIMTAD
 70
     0
  9
$DIMZIN
 70
     0
  9
$DIMBLK
  1

  9
$DIMASO
 70
     1
  9
$DIMSHO
 70
     1
  9
$DIMPOST
  1

  9
$DIMAPOST
  1

  9
$DIMALT
 70
     0
  9
$DIMALTD
 70
     2
  9
$DIMALTF
 40
25.4
  9
$DIMLFAC
 40
1.0
  9
$DIMTOFL
 70
     0
  9
$DIMTVP
 40
0.0
  9
$DIMTIX
 70
     0
  9
$DIMSOXD
 70
     0
  9
$DIMSAH
 70
     0
  9
$DIMBLK1
  1

  9
$DIMBLK2
  1

  9
$DIMSTYLE
  2
STANDARD
  9
$DIMCLRD
 70
     0
  9
$DIMCLRE
 70
     0
  9
$DIMCLRT
 70
     0
  9
$DIMTFAC
 40
1.0
  9
$DIMGAP
 40
0.09
  9
$DIMJUST
 70
     0
  9
$DIMSD1
 70
     0
  9
$DIMSD2
 70
     0
  9
$DIMTOLJ
 70
     1
  9
$DIMTZIN
 70
     0
  9
$DIMALTZ
 70
     0
  9
$DIMALTTZ
 70
     0
  9
$DIMFIT
 70
     3
  9
$DIMUPT
 70
     0
  9
$DIMUNIT
 70
     2
  9
$DIMDEC
 70
     4
  9
$DIMTDEC
 70
     4
  9
$DIMALTU
 70
     2
  9
$DIMALTTD
 70
     2
  9
$DIMTXSTY
  7
STANDARD
  9
$DIMAUNIT
 70
     0
  9
$LUNITS
 70
     2
  9
$LUPREC
 70
     4
  9
$SKETCHINC
 40
0.1
  9
$FILLETRAD
 40
0.0
  9
$AUNITS
 70
     0
  9
$AUPREC
 70
     0
  9
$MENU
  1
acad
  9
$ELEVATION
 40
0.0
  9
$PELEVATION
 40
0.0
  9
$THICKNESS
 40
0.0
  9
$LIMCHECK
 70
     0
  9
$BLIPMODE
 70
     0
  9
$CHAMFERA
 40
0.0
  9
$CHAMFERB
 40
0.0
  9
$CHAMFERC
 40
0.0
  9
$CHAMFERD
 40
0.0
  9
$SKPOLY
 70
     0
  9
$TDCREATE
 40
2452796.474032245
  9
$TDUPDATE
 40
2452796.474264815
  9
$TDINDWG
 40
0.0002390741
  9
$TDUSRTIMER
 40
0.0002390741
  9
$USRTIMER
 70
     1
  9
$ANGBASE
 50
0.0
  9
$ANGDIR
 70
     0
  9
$PDMODE
 70
     0
  9
$PDSIZE
 40
0.0
  9
$PLINEWID
 40
0.0
  9
$COORDS
 70
     1
  9
$SPLFRAME
 70
     0
  9
$SPLINETYPE
 70
     6
  9
$SPLINESEGS
 70
     8
  9
$ATTDIA
 70
     0
  9
$ATTREQ
 70
     1
  9
$HANDLING
 70
  4097
  9
$HANDSEED
  5
3A5
  9
$SURFTAB1
 70
     6
  9
$SURFTAB2
 70
     6
  9
$SURFTYPE
 70
     6
  9
$SURFU
 70
     6
  9
$SURFV
 70
     6
  9
$UCSNAME
  2

  9
$UCSORG
 10
0.0
 20
0.0
 30
0.0
  9
$UCSXDIR
 10
1.0
 20
0.0
 30
0.0
  9
$UCSYDIR
 10
0.0
 20
1.0
 30
0.0
  9
$PUCSNAME
  2

  9
$PUCSORG
 10
0.0
 20
0.0
 30
0.0
  9
$PUCSXDIR
 10
1.0
 20
0.0
 30
0.0
  9
$PUCSYDIR
 10
0.0
 20
1.0
 30
0.0
  9
$USERI1
 70
     0
  9
$USERI2
 70
     0
  9
$USERI3
 70
     0
  9
$USERI4
 70
     0
  9
$USERI5
 70
     0
  9
$USERR1
 40
0.0
  9
$USERR2
 40
0.0
  9
$USERR3
 40
0.0
  9
$USERR4
 40
0.0
  9
$USERR5
 40
0.0
  9
$WORLDVIEW
 70
     1
  9
$SHADEDGE
 70
     3
  9
$SHADEDIF
 70
    70
  9
$TILEMODE
 70
     1
  9
$MAXACTVP
 70
    16
  9
$PINSBASE
 10
0.0
 20
0.0
 30
0.0
  9
$PLIMCHECK
 70
     0
  9
$PEXTMIN
 10
1.000000000000000E+20
 20
1.000000000000000E+20
 30
1.000000000000000E+20
  9
$PEXTMAX
 10
-1.000000000000000E+20
 20
-1.000000000000000E+20
 30
-1.000000000000000E+20
  9
$PLIMMIN
 10
-0.1979161059762549
 20
-0.2112499935420479
  9
$PLIMMAX
 10
10.80208365372785
 20
8.288749766162061
  9
$UNITMODE
 70
     0
  9
$VISRETAIN
 70
     0
  9
$PLINEGEN
 70
     1
  9
$PSLTSCALE
 70
     0
  9
$TREEDEPTH
 70
  3020
  9
$PICKSTYLE
 70
     1
  9
$CMLSTYLE
  2
STANDARD
  9
$CMLJUST
 70
     0
  9
$CMLSCALE
 40
1.0
  9
$PROXYGRAPHICS
 70
     0
  9
$MEASUREMENT
 70
     0
  0
ENDSEC
  0
SECTION
  2
CLASSES
  0
CLASS
  1
LWPOLYLINE
  2
AcDbPolyline
  3
AutoCAD 2000
 90
        0
280
     0
281
     1
  0
CLASS
  1
IMAGE
  2
AcDbRasterImage
  3
ISM
 90
      127
280
     0
281
     1
  0
CLASS
  1
OLE2FRAME
  2
AcDbOle2Frame
  3
AutoCAD 2000
 90
        0
280
     0
281
     1
  0
CLASS
  1
HATCH
  2
AcDbHatch
  3
AutoCAD 2000
 90
        0
280
     0
281
     1
  0
CLASS
  1
DICTIONARYVAR
  2
AcDbDictionaryVar
  3
AutoCAD 2000
 90
        0
280
     0
281
     0
  0
CLASS
  1
RASTERVARIABLES
  2
AcDbRasterVariables
  3
ISM
 90
        0
280
     0
281
     0
  0
CLASS
  1
IMAGEDEF
  2
AcDbRasterImageDef
  3
ISM
 90
        0
280
     0
281
     0
  0
CLASS
  1
IMAGEDEF_REACTOR
  2
AcDbRasterImageDefReactor
  3
ISM
 90
        1
280
     0
281
     0
  0
CLASS
  1
IDBUFFER
  2
AcDbIdBuffer
  3
AutoCAD 2000
 90
        0
280
     0
281
     0
  0
CLASS
  1
SPATIAL_FILTER
  2
AcDbSpatialFilter
  3
AutoCAD 2000
 90
        0
280
     0
281
     0
  0
CLASS
  1
XRECORD
  2
AcDbXrecord
  3
AutoCAD 2000
 90
        0
280
     0
281
     0
  0
CLASS
  1
SORTENTSTABLE
  2
AcDbSortentsTable
  3
AutoCAD 2000
 90
        0
280
     0
281
     0
  0
CLASS
  1
LAYER_INDEX
  2
AcDbLayerIndex
  3
AutoCAD 2000
 90
        0
280
     0
281
     0
  0
CLASS
  1
SPATIAL_INDEX
  2
AcDbSpatialIndex
  3
AutoCAD 2000
 90
        0
280
     0
281
     0
  0
CLASS
  1
OBJECT_PTR
  2
CAseDLPNTableRecord
  3
ASE-LPNTableRecord
 90
        1
280
     0
281
     0
  0
CLASS
  1
LAYOUT
  2
AcDbLayout
  3
AutoCAD 2000
 90
        0
280
     0
281
     0
  0
CLASS
  1
PLOTSETTINGS
  2
AcDbPlotSettings
  3
AutoCAD 2000
 90
        0
280
     0
281
     0
  0
CLASS
  1
ACDBDICTIONARYWDFLT
  2
AcDbDictionaryWithDefault
  3
AutoCAD 2000
 90
        0
280
     0
281
     0
  0
CLASS
  1
ACDBPLACEHOLDER
  2
AcDbPlaceHolder
  3
AutoCAD 2000
 90
        0
280
     0
281
     0
  0
CLASS
  1
VBA_PROJECT
  2
AcDbVbaProject
  3
acadvba
 90
        0
280
     0
281
     0
  0
CLASS
  1
RTEXT
  2
RText
  3
RText|AutoCAD Express Tool|expresstools@autodesk.com
 90
        0
280
     0
281
     1
  0
CLASS
  1
ARCALIGNEDTEXT
  2
AcDbArcAlignedText
  3
ATEXT|AutoCAD Express Tool|expresstools@autodesk.com
 90
        0
280
     0
281
     1
  0
CLASS
  1
LONG_TRANSACTION
  2
AcDbLongTransaction
  3
AutoCAD 2000
 90
        0
280
     0
281
     0
  0
CLASS
  1
LWPOLYLINE
  2
AcDbPolyline
  3
AutoCAD 2000
 90
        0
280
     0
281
     1
  0
CLASS
  1
HATCH
  2
AcDbHatch
  3
AutoCAD 2000
 90
        0
280
     0
281
     1
  0
CLASS
  1
XRECORD
  2
AcDbXrecord
  3
AutoCAD 2000
 90
        0
280
     0
281
     0
  0
ENDSEC
  0
SECTION
  2
TABLES
  0
TABLE
  2
VPORT
  5
7
330
0
100
AcDbSymbolTable
 70
    24
  0
VPORT
  5
35E
330
7
100
AcDbSymbolTableRecord
100
AcDbViewportTableRecord
  2
L1
 70
     0
 10
0.0
 20
0.0
 11
1.0
 21
1.0
 12
0.0
 22
0.0
 13
0.0
 23
0.0
 14
1.0
 24
1.0
 15
0.0
 25
0.0
 16
0.0
 26
0.0
 36
1.0
 17
0.0
 27
0.0
 37
0.0
 40
7.926304133858266
 41
0.688564
 42
50.0
 43
22.86983526390032
 44
-22.86983526390032
 50
0.0
 51
0.0
 71
    16
 72
   100
 73
     1
 74
     1
 75
     0
 76
     0
 77
     0
 78
     0
  0
VPORT
  5
35F
330
7
100
AcDbSymbolTableRecord
100
AcDbViewportTableRecord
  2
L2
 70
     0
 10
0.0
 20
0.0
 11
0.5
 21
1.0
 12
0.0
 22
0.0
 13
0.0
 23
0.0
 14
1.0
 24
1.0
 15
0.0
 25
0.0
 16
0.0
 26
-1.0
 36
0.0
 17
0.0
 27
0.0
 37
0.0
 40
45.73967052780065
 41
0.688564
 42
50.0
 43
23.44633426093276
 44
-23.44633426093276
 50
0.0
 51
0.0
 71
    16
 72
   100
 73
     1
 74
     1
 75
     0
 76
     0
 77
     0
 78
     0
  0
VPORT
  5
360
330
7
100
AcDbSymbolTableRecord
100
AcDbViewportTableRecord
  2
L2
 70
     0
 10
0.5
 20
0.0
 11
1.0
 21
1.0
 12
0.0
 22
0.0
 13
0.0
 23
0.0
 14
1.0
 24
1.0
 15
0.0
 25
0.0
 16
1.0
 26
0.0
 36
0.0
 17
0.0
 27
0.0
 37
0.0
 40
45.73967052780065
 41
0.688564
 42
50.0
 43
23.21068588610736
 44
-23.21068588610736
 50
0.0
 51
0.0
 71
    16
 72
   100
 73
     1
 74
     1
 75
     0
 76
     0
 77
     0
 78
     0
  0
VPORT
  5
361
330
7
100
AcDbSymbolTableRecord
100
AcDbViewportTableRecord
  2
L3
 70
     0
 10
0.0
 20
0.5
 11
1.0
 21
1.0
 12
0.0
 22
0.0
 13
0.0
 23
0.0
 14
1.0
 24
1.0
 15
0.0
 25
0.0
 16
0.0
 26
0.0
 36
1.0
 17
0.0
 27
0.0
 37
0.0
 40
7.926304133858266
 41
0.688564
 42
50.0
 43
22.86983526390032
 44
-22.86983526390032
 50
0.0
 51
0.0
 71
    16
 72
   100
 73
     1
 74
     1
 75
     0
 76
     0
 77
     0
 78
     0
  0
VPORT
  5
362
330
7
100
AcDbSymbolTableRecord
100
AcDbViewportTableRecord
  2
L3
 70
     0
 10
0.0
 20
0.0
 11
1.0
 21
0.5
 12
0.0
 22
0.0
 13
0.0
 23
0.0
 14
1.0
 24
1.0
 15
0.0
 25
0.0
 16
0.0
 26
-1.0
 36
0.0
 17
0.0
 27
0.0
 37
0.0
 40
45.73967052780065
 41
0.688564
 42
50.0
 43
23.44633426093276
 44
-23.44633426093276
 50
0.0
 51
0.0
 71
    16
 72
   100
 73
     1
 74
     1
 75
     0
 76
     0
 77
     0
 78
     0
  0
VPORT
  5
363
330
7
100
AcDbSymbolTableRecord
100
AcDbViewportTableRecord
  2
L4
 70
     0
 10
0.0
 20
0.5
 11
0.5
 21
1.0
 12
0.0
 22
0.0
 13
0.0
 23
0.0
 14
1.0
 24
1.0
 15
0.0
 25
0.0
 16
0.0
 26
0.0
 36
1.0
 17
0.0
 27
0.0
 37
0.0
 40
7.926304133858266
 41
0.688564
 42
50.0
 43
22.86983526390032
 44
-22.86983526390032
 50
0.0
 51
0.0
 71
    16
 72
   100
 73
     1
 74
     1
 75
     0
 76
     0
 77
     0
 78
     0
  0
VPORT
  5
364
330
7
100
AcDbSymbolTableRecord
100
AcDbViewportTableRecord
  2
L4
 70
     0
 10
0.0
 20
0.0
 11
0.5
 21
0.5
 12
0.0
 22
0.0
 13
0.0
 23
0.0
 14
1.0
 24
1.0
 15
0.0
 25
0.0
 16
0.0
 26
-1.0
 36
0.0
 17
0.0
 27
0.0
 37
0.0
 40
45.73967052780065
 41
0.688564
 42
50.0
 43
23.44633426093276
 44
-23.44633426093276
 50
0.0
 51
0.0
 71
    16
 72
   100
 73
     1
 74
     1
 75
     0
 76
     0
 77
     0
 78
     0
  0
VPORT
  5
365
330
7
100
AcDbSymbolTableRecord
100
AcDbViewportTableRecord
  2
L4
 70
     0
 10
0.5
 20
0.0
 11
1.0
 21
0.5
 12
0.0
 22
0.0
 13
0.0
 23
0.0
 14
1.0
 24
1.0
 15
0.0
 25
0.0
 16
1.0
 26
0.0
 36
0.0
 17
0.0
 27
0.0
 37
0.0
 40
45.73967052780065
 41
0.688564
 42
50.0
 43
23.21068588610736
 44
-23.21068588610736
 50
0.0
 51
0.0
 71
    16
 72
   100
 73
     1
 74
     1
 75
     0
 76
     0
 77
     0
 78
     0
  0
VPORT
  5
366
330
7
100
AcDbSymbolTableRecord
100
AcDbViewportTableRecord
  2
L4
 70
     0
 10
0.5
 20
0.5
 11
1.0
 21
1.0
 12
0.0
 22
0.0
 13
0.0
 23
0.0
 14
1.0
 24
1.0
 15
0.0
 25
0.0
 16
0.5773502691896259
 26
-0.5773502691896259
 36
0.5773502691896259
 17
0.0
 27
0.0
 37
0.0
 40
44.80128613809216
 41
0.688564
 42
50.0
 43
23.31247725727461
 44
-23.31247725727461
 50
0.0
 51
0.0
 71
    16
 72
   100
 73
     1
 74
     1
 75
     0
 76
     0
 77
     0
 78
     0
  0
VPORT
  5
367
330
7
100
AcDbSymbolTableRecord
100
AcDbViewportTableRecord
  2
L6
 70
     0
 10
0.0
 20
0.5
 11
0.3333333333333334
 21
1.0
 12
0.0
 22
0.0
 13
0.0
 23
0.0
 14
1.0
 24
1.0
 15
0.0
 25
0.0
 16
0.7188730927569434
 26
-0.5850486126764432
 36
0.3754192287502549
 17
0.0
 27
0.0
 37
0.0
 40
47.28156778779488
 41
0.688564
 42
50.0
 43
24.4750051625393
 44
-24.4750051625393
 50
0.0
 51
0.0
 71
    16
 72
   100
 73
     1
 74
     1
 75
     0
 76
     0
 77
     0
 78
     0
  0
VPORT
  5
368
330
7
100
AcDbSymbolTableRecord
100
AcDbViewportTableRecord
  2
L6
 70
     0
 10
0.0
 20
0.0
 11
0.3333333333333334
 21
0.5
 12
0.0
 22
0.0
 13
0.0
 23
0.0
 14
1.0
 24
1.0
 15
0.0
 25
0.0
 16
-1.0
 26
0.0
 36
0.0
 17
0.0
 27
0.0
 37
0.0
 40
45.73967052780065
 41
0.688564
 42
50.0
 43
23.21068588610736
 44
-23.21068588610736
 50
0.0
 51
0.0
 71
    16
 72
   100
 73
     1
 74
     1
 75
     0
 76
     0
 77
     0
 78
     0
  0
VPORT
  5
369
330
7
100
AcDbSymbolTableRecord
100
AcDbViewportTableRecord
  2
L6
 70
     0
 10
0.3333333333333334
 20
0.5
 11
0.6666666666666666
 21
1.0
 12
0.0
 22
0.0
 13
0.0
 23
0.0
 14
1.0
 24
1.0
 15
0.0
 25
0.0
 16
0.0
 26
0.0
 36
1.0
 17
0.0
 27
0.0
 37
0.0
 40
7.926304133858266
 41
0.688564
 42
50.0
 43
22.86983526390032
 44
-22.86983526390032
 50
0.0
 51
0.0
 71
    16
 72
   100
 73
     1
 74
     1
 75
     0
 76
     0
 77
     0
 78
     0
  0
VPORT
  5
36A
330
7
100
AcDbSymbolTableRecord
100
AcDbViewportTableRecord
  2
L6
 70
     0
 10
0.3333333333333334
 20
0.0
 11
0.6666666666666666
 21
0.5
 12
0.0
 22
0.0
 13
0.0
 23
0.0
 14
1.0
 24
1.0
 15
0.0
 25
0.0
 16
0.0
 26
-1.0
 36
0.0
 17
0.0
 27
0.0
 37
0.0
 40
45.73967052780065
 41
0.688564
 42
50.0
 43
23.44633426093276
 44
-23.44633426093276
 50
0.0
 51
0.0
 71
    16
 72
   100
 73
     1
 74
     1
 75
     0
 76
     0
 77
     0
 78
     0
  0
VPORT
  5
36B
330
7
100
AcDbSymbolTableRecord
100
AcDbViewportTableRecord
  2
L6
 70
     0
 10
0.6666666666666666
 20
0.5
 11
1.0
 21
1.0
 12
0.0
 22
0.0
 13
0.0
 23
0.0
 14
1.0
 24
1.0
 15
0.0
 25
0.0
 16
0.5773502691896259
 26
-0.5773502691896259
 36
0.5773502691896259
 17
0.0
 27
0.0
 37
0.0
 40
44.80128613809216
 41
0.688564
 42
50.0
 43
23.31247725727461
 44
-23.31247725727461
 50
0.0
 51
0.0
 71
    16
 72
   100
 73
     1
 74
     1
 75
     0
 76
     0
 77
     0
 78
     0
  0
VPORT
  5
36C
330
7
100
AcDbSymbolTableRecord
100
AcDbViewportTableRecord
  2
L6
 70
     0
 10
0.6666666666666666
 20
0.0
 11
1.0
 21
0.5
 12
0.0
 22
0.0
 13
0.0
 23
0.0
 14
1.0
 24
1.0
 15
0.0
 25
0.0
 16
1.0
 26
0.0
 36
0.0
 17
0.0
 27
0.0
 37
0.0
 40
45.73967052780065
 41
0.688564
 42
50.0
 43
23.21068588610736
 44
-23.21068588610736
 50
0.0
 51
0.0
 71
    16
 72
   100
 73
     1
 74
     1
 75
     0
 76
     0
 77
     0
 78
     0
  0
VPORT
  5
37F
330
7
100
AcDbSymbolTableRecord
100
AcDbViewportTableRecord
  2
*ACTIVE
 70
     0
 10
0.0
 20
0.0
 11
1.0
 21
1.0
 12
18.1303653344512
 22
22.57654575258493
 13
0.0
 23
0.0
 14
1.0
 24
1.0
 15
0.0
 25
0.0
 16
0.0
 26
0.0
 36
1.0
 17
0.0
 27
0.0
 37
0.0
 40
18.12717227000187
 41
1.507955936352509
 42
50.0
 43
22.86983526390032
 44
-22.86983526390032
 50
0.0
 51
0.0
 71
    16
 72
   100
 73
     1
 74
     1
 75
     0
 76
     0
 77
     0
 78
     0
  0
ENDTAB
  0
TABLE
  2
LTYPE
  5
4
330
0
100
AcDbSymbolTable
 70
     7
  0
LTYPE
  5
11
330
4
100
AcDbSymbolTableRecord
100
AcDbLinetypeTableRecord
  2
BYBLOCK
 70
     0
  3

 72
    65
 73
     0
 40
0.0
  0
LTYPE
  5
12
330
4
100
AcDbSymbolTableRecord
100
AcDbLinetypeTableRecord
  2
BYLAYER
 70
     0
  3

 72
    65
 73
     0
 40
0.0
  0
LTYPE
  5
13
330
4
100
AcDbSymbolTableRecord
100
AcDbLinetypeTableRecord
  2
CONTINUOUS
 70
     0
  3
Solid line
 72
    65
 73
     0
 40
0.0
  0
LTYPE
  5
22
330
4
100
AcDbSymbolTableRecord
100
AcDbLinetypeTableRecord
  2
DASHED
 70
     0
  3
__ __ __ __ __ __ __ __ __
 72
    65
 73
     2
 40
0.75
 49
0.5
 74
     0
 49
-0.25
 74
     0
  0
LTYPE
  5
23
330
4
100
AcDbSymbolTableRecord
100
AcDbLinetypeTableRecord
  2
HIDDEN
 70
     0
  3
_ _ _ _ _ _ _ _ _ _ _ _ _ _ _
 72
    65
 73
     2
 40
0.5
 49
0.25
 74
     0
 49
-0.25
 74
     0
  0
LTYPE
  5
24
330
4
100
AcDbSymbolTableRecord
100
AcDbLinetypeTableRecord
  2
PHANTOM
 70
     0
  3
____ _ _ ____ _ _ _____ _ _ ____
 72
    65
 73
     6
 40
2.5
 49
1.25
 74
     0
 49
-0.25
 74
     0
 49
0.25
 74
     0
 49
-0.25
 74
     0
 49
0.25
 74
     0
 49
-0.25
 74
     0
  0
LTYPE
  5
25
330
4
100
AcDbSymbolTableRecord
100
AcDbLinetypeTableRecord
  2
CENTER
 70
     0
  3
____ _ ____ _ ____ _ ____
 72
    65
 73
     4
 40
2.0
 49
1.25
 74
     0
 49
-0.25
 74
     0
 49
0.25
 74
     0
 49
-0.25
 74
     0
  0
LTYPE
  5
26
330
4
100
AcDbSymbolTableRecord
100
AcDbLinetypeTableRecord
  2
DOT
 70
     0
  3
.........................
 72
    65
 73
     2
 40
0.25
 49
0.0
 74
     0
 49
-0.25
 74
     0
  0
LTYPE
  5
27
330
4
100
AcDbSymbolTableRecord
100
AcDbLinetypeTableRecord
  2
DASHDOT
 70
     0
  3
_._._._._._._._._._._._._._._._.
 72
    65
 73
     4
 40
1.0
 49
0.5
 74
     0
 49
-0.25
 74
     0
 49
0.0
 74
     0
 49
-0.25
 74
     0
  0
ENDTAB
  0
TABLE
  2
LAYER
  5
2
330
0
100
AcDbSymbolTable
 70
     3
  0
LAYER
  5
14
330
2
100
AcDbSymbolTableRecord
100
AcDbLayerTableRecord
  2
0
 70
     0
 62
     7
  6
CONTINUOUS
  0
LAYER
  5
29
330
2
100
AcDbSymbolTableRecord
100
AcDbLayerTableRecord
  2
1
 70
     0
 62
     7
  6
CONTINUOUS
  0
LAYER
  5
2A
330
2
100
AcDbSymbolTableRecord
100
AcDbLayerTableRecord
  2
TOP
 70
     0
 62
     7
  6
CONTINUOUS
  0
ENDTAB
  0
TABLE
  2
STYLE
  5
3
330
0
100
AcDbSymbolTable
 70
     1
  0
STYLE
  5
17
330
3
100
AcDbSymbolTableRecord
100
AcDbTextStyleTableRecord
  2
STANDARD
 70
     0
 40
0.0
 41
1.0
 50
0.0
 71
     0
 42
0.0
  3
txt
  4

  0
ENDTAB
  0
TABLE
  2
VIEW
  5
5
330
0
100
AcDbSymbolTable
 70
     8
  0
VIEW
  5
355
330
5
100
AcDbSymbolTableRecord
100
AcDbViewTableRecord
  2
TOP
 70
     0
 40
7.926304133858266
 10
0.0
 20
0.0
 41
10.33464566929133
 11
0.0
 21
0.0
 31
1.0
 12
0.0
 22
0.0
 32
0.0
 42
50.0
 43
22.86983526390032
 44
-22.86983526390032
 50
0.0
 71
    16
  0
VIEW
  5
356
330
5
100
AcDbSymbolTableRecord
100
AcDbViewTableRecord
  2
FRONT
 70
     0
 40
45.73967052780065
 10
0.0
 20
0.0
 41
10.33464566929133
 11
0.0
 21
-1.0
 31
0.0
 12
0.0
 22
0.0
 32
0.0
 42
50.0
 43
23.44633426093276
 44
-23.44633426093276
 50
0.0
 71
    16
  0
VIEW
  5
357
330
5
100
AcDbSymbolTableRecord
100
AcDbViewTableRecord
  2
RIGHT
 70
     0
 40
45.73967052780065
 10
0.0
 20
0.0
 41
7.926304133858266
 11
1.0
 21
0.0
 31
0.0
 12
0.0
 22
0.0
 32
0.0
 42
50.0
 43
23.21068588610736
 44
-23.21068588610736
 50
0.0
 71
    16
  0
VIEW
  5
358
330
5
100
AcDbSymbolTableRecord
100
AcDbViewTableRecord
  2
BACK
 70
     0
 40
45.73967052780065
 10
0.0
 20
0.0
 41
10.33464566929133
 11
0.0
 21
1.0
 31
0.0
 12
0.0
 22
0.0
 32
0.0
 42
50.0
 43
23.44633426093276
 44
-23.44633426093276
 50
0.0
 71
    16
  0
VIEW
  5
359
330
5
100
AcDbSymbolTableRecord
100
AcDbViewTableRecord
  2
BOTTOM
 70
     0
 40
7.926304133858266
 10
0.0
 20
0.0
 41
10.33464566929133
 11
0.0
 21
0.0
 31
-1.0
 12
0.0
 22
0.0
 32
0.0
 42
50.0
 43
22.86983526390032
 44
-22.86983526390032
 50
180.0
 71
    16
  0
VIEW
  5
35A
330
5
100
AcDbSymbolTableRecord
100
AcDbViewTableRecord
  2
LEFT
 70
     0
 40
45.73967052780065
 10
0.0
 20
0.0
 41
7.926304133858266
 11
-1.0
 21
0.0
 31
0.0
 12
0.0
 22
0.0
 32
0.0
 42
50.0
 43
23.21068588610736
 44
-23.21068588610736
 50
0.0
 71
    16
  0
VIEW
  5
35B
330
5
100
AcDbSymbolTableRecord
100
AcDbViewTableRecord
  2
TFR-ISO
 70
     0
 40
44.80128613809216
 10
0.0
 20
0.0
 41
12.91244143671423
 11
0.5773502691896259
 21
-0.5773502691896259
 31
0.5773502691896259
 12
0.0
 22
0.0
 32
0.0
 42
50.0
 43
23.31247725727461
 44
-23.31247725727461
 50
0.0
 71
    16
  0
VIEW
  5
35C
330
5
100
AcDbSymbolTableRecord
100
AcDbViewTableRecord
  2
TFR-TRI
 70
     0
 40
47.28156778779488
 10
0.0
 20
0.0
 41
12.67110328082996
 11
0.7188730927569434
 21
-0.5850486126764432
 31
0.3754192287502549
 12
0.0
 22
0.0
 32
0.0
 42
50.0
 43
24.4750051625393
 44
-24.4750051625393
 50
0.0
 71
    16
  0
ENDTAB
  0
TABLE
  2
UCS
  5
6
330
0
100
AcDbSymbolTable
 70
     0
  0
ENDTAB
  0
TABLE
  2
APPID
  5
8
330
0
100
AcDbSymbolTable
 70
     2
  0
APPID
  5
16
330
8
100
AcDbSymbolTableRecord
100
AcDbRegAppTableRecord
  2
ACAD
 70
     0
  0
APPID
  5
376
330
8
100
AcDbSymbolTableRecord
100
AcDbRegAppTableRecord
  2
DCO15
 70
     0
  0
ENDTAB
  0
TABLE
  2
DIMSTYLE
  5
9
330
0
100
AcDbSymbolTable
 70
     1
  0
DIMSTYLE
105
18
330
9
100
AcDbSymbolTableRecord
100
AcDbDimStyleTableRecord
  2
STANDARD
 70
     0
  3

  4

  5

  6

  7

 40
1.0
 41
0.18
 42
0.0625
 43
0.38
 44
0.18
 45
0.0
 46
0.0
 47
0.0
 48
0.0
140
0.18
141
0.09
142
0.0
143
25.4
144
1.0
145
0.0
146
1.0
147
0.09
 71
     0
 72
     0
 73
     1
 74
     1
 75
     0
 76
     0
 77
     0
 78
     0
170
     0
171
     2
172
     0
173
     0
174
     0
175
     0
176
     0
177
     0
178
     0
270
     2
271
     4
272
     4
273
     2
274
     2
340
17
275
     0
280
     0
281
     0
282
     0
283
     1
284
     0
285
     0
286
     0
287
     0
288
     0
  0
ENDTAB
  0
TABLE
  2
BLOCK_RECORD
  5
1
330
0
100
AcDbSymbolTable
 70
     0
  0
BLOCK_RECORD
  5
A
102
{ACAD_XDICTIONARY
360
3A1
102
}
330
1
100
AcDbSymbolTableRecord
100
AcDbBlockTableRecord
  2
*MODEL_SPACE
  0
BLOCK_RECORD
  5
B
102
{ACAD_XDICTIONARY
360
3A3
102
}
330
1
100
AcDbSymbolTableRecord
100
AcDbBlockTableRecord
  2
*PAPER_SPACE
  0
ENDTAB
  0
ENDSEC
  0
SECTION
  2
BLOCKS
  0
BLOCK
  5
D
330
A
100
AcDbEntity
  8
0
100
AcDbBlockBegin
  2
*MODEL_SPACE
 70
     0
 71
     1
 10
0.0
 20
0.0
 30
0.0
  3
*MODEL_SPACE
  1

  0
ENDBLK
  5
E
330
A
100
AcDbEntity
  8
0
100
AcDbBlockEnd
  0
BLOCK
  5
F
330
B
100
AcDbEntity
 67
     1
  8
0
100
AcDbBlockBegin
  2
*PAPER_SPACE
 70
     0
 71
     1
 10
0.0
 20
0.0
 30
0.0
  3
*PAPER_SPACE
  1

  0
ENDBLK
  5
10
330
B
100
AcDbEntity
 67
     1
  8
0
100
AcDbBlockEnd
  0
ENDSEC
  0
SECTION
  2
ENTITIES
  0
LINE
  5
28
330
A
100
AcDbEntity
  8
TOP
  6
CONTINUOUS
 62
     3
100
AcDbLine
 10
22.51152992248535
 20
22.25784301757812
 30
0.0
 11
22.48406982421875
 21
22.32413482666015
 31
0.0
  0
LINE
  5
2B
330
A
100
AcDbEntity
  8
TOP
  6
CONTINUOUS
 62
     3
100
AcDbLine
 10
22.81620788574219
 20
22.23038482666015
 30
0.0
 11
22.85918235778808
 21
22.23038482666015
 31
0.0
  0
LINE
  5
2C
330
A
100
AcDbEntity
  8
TOP
  6
CONTINUOUS
 62
     3
100
AcDbLine
 10
22.48406982421875
 20
30.07413482666015
 30
0.0
 11
22.48407363891601
 21
30.0748291015625
 31
0.0
  0
LINE
  5
2D
330
A
100
AcDbEntity
  8
TOP
  6
CONTINUOUS
 62
     3
100
AcDbLine
 10
13.48053359985351
 20
21.87095260620117
 30
0.0
 11
13.46109390258789
 21
21.89034652709961
 31
0.0
  0
LINE
  5
2E
330
A
100
AcDbEntity
  8
TOP
  6
CONTINUOUS
 62
     3
100
AcDbLine
 10
14.64604473114013
 20
30.51221847534179
 30
0.0
 11
14.60502624511718
 21
30.47129821777343
 31
0.0
  0
LINE
  5
2F
330
A
100
AcDbEntity
  8
TOP
  6
CONTINUOUS
 62
     3
100
AcDbLine
 10
10.85777950286865
 20
22.41788482666015
 30
0.0
 11
10.82026100158691
 21
22.41788482666015
 31
0.0
  0
LINE
  5
30
330
A
100
AcDbEntity
  8
TOP
  6
CONTINUOUS
 62
     3
100
AcDbLine
 10
16.25164413452148
 20
29.98038482666015
 30
0.0
 11
16.29179763793945
 21
29.98038482666015
 31
0.0
  0
LINE
  5
31
330
A
100
AcDbEntity
  8
TOP
  6
CONTINUOUS
 62
     3
100
AcDbLine
 10
13.35969161987304
 20
22.35310554504394
 30
0.0
 11
13.35962200164795
 21
22.29516410827636
 31
0.0
  0
LINE
  5
32
330
A
100
AcDbEntity
  8
TOP
  6
CONTINUOUS
 62
     3
100
AcDbLine
 10
13.87771797180175
 20
30.05797004699707
 30
0.0
 11
13.46109390258789
 21
29.64034652709961
 31
0.0
  0
LINE
  5
33
330
A
100
AcDbEntity
  8
TOP
  6
CONTINUOUS
 62
     3
100
AcDbLine
 10
13.3595905303955
 20
14.24855232238769
 30
0.0
 11
13.35955047607422
 21
14.20167732238769
 31
0.0
  0
LINE
  5
34
330
A
100
AcDbEntity
  8
TOP
  6
CONTINUOUS
 62
     3
100
AcDbLine
 10
22.57330322265624
 20
22.41521263122558
 30
0.0
 11
22.54956817626953
 21
22.40787506103515
 31
0.0
  0
LINE
  5
35
330
A
100
AcDbEntity
  8
TOP
  6
CONTINUOUS
 62
     3
100
AcDbLine
 10
13.98309993743896
 20
16.90936088562011
 30
0.0
 11
14.00721073150634
 21
16.95623588562011
 31
0.0
  0
LINE
  5
36
330
A
100
AcDbEntity
  8
TOP
  6
CONTINUOUS
 62
     3
100
AcDbLine
 10
16.1517276763916
 20
17.06105232238769
 30
0.0
 11
16.15166091918945
 21
17.0789566040039
 31
0.0
  0
LINE
  5
37
330
A
100
AcDbEntity
  8
TOP
  6
CONTINUOUS
 62
     3
100
AcDbLine
 10
22.54587936401367
 20
22.41227531433105
 30
0.0
 11
22.60227394104004
 21
22.41463851928711
 31
0.0
  0
LINE
  5
38
330
A
100
AcDbEntity
  8
TOP
  6
CONTINUOUS
 62
     3
100
AcDbLine
 10
22.50197601318359
 20
29.53521537780761
 30
0.0
 11
22.48406982421875
 21
29.57413482666015
 31
0.0
  0
LINE
  5
39
330
A
100
AcDbEntity
  8
TOP
  6
CONTINUOUS
 62
     3
100
AcDbLine
 10
13.17560577392578
 20
22.34029960632324
 30
0.0
 11
13.15616703033447
 21
22.35969161987304
 31
0.0
  0
LINE
  5
3A
330
A
100
AcDbEntity
  8
TOP
  6
CONTINUOUS
 62
     3
100
AcDbLine
 10
13.83770275115966
 20
22.46147918701172
 30
0.0
 11
13.86791896820068
 21
22.43119239807128
 31
0.0
  0
LINE
  5
3B
330
A
100
AcDbEntity
  8
TOP
  6
CONTINUOUS
 62
     3
100
AcDbLine
 10
12.37422180175781
 20
30.54545402526855
 30
0.0
 11
12.40732765197753
 21
30.51226806640625
 31
0.0
  0
LINE
  5
3C
330
A
100
AcDbEntity
  8
TOP
  6
CONTINUOUS
 62
     3
100
AcDbLine
 10
10.3566608428955
 20
31.55070304870605
 30
0.0
 11
10.3566608428955
 21
31.57413482666015
 31
0.0
  0
LINE
  5
3D
330
A
100
AcDbEntity
  8
TOP
  6
CONTINUOUS
 62
     3
100
AcDbLine
 10
10.70934772491455
 20
30.16787147521972
 30
0.0
 11
10.68265914916992
 21
30.16783332824707
 31
0.0
  0
LINE
  5
3E
330
A
100
AcDbEntity
  8
TOP
  6
CONTINUOUS
 62
     3
100
AcDbLine
 10
15.02715396881103
 20
22.47272300720215
 30
0.0
 11
14.69190597534179
 21
22.80797004699707
 31
0.0
  0
LINE
  5
3F
330
A
100
AcDbEntity
  8
TOP
  6
CONTINUOUS
 62
     3
100
AcDbLine
 10
11.89360046386718
 20
14.09686183929443
 30
0.0
 11
11.89366626739501
 21
14.0789566040039
 31
0.0
  0
LINE
  5
40
330
A
100
AcDbEntity
  8
TOP
  6
CONTINUOUS
 62
     3
100
AcDbLine
 10
10.3566608428955
 20
13.99895668029785
 30
0.0
 11
10.3566608428955
 21
13.5789566040039
 31
0.0
  0
LINE
  5
41
330
A
100
AcDbEntity
  8
TOP
  6
CONTINUOUS
 62
     3
100
AcDbLine
 10
22.4905834197998
 20
22.35354232788086
 30
0.0
 11
22.48406982421875
 21
22.32413482666015
 31
0.0
  0
LINE
  5
42
330
A
100
AcDbEntity
  8
TOP
  6
CONTINUOUS
 62
     3
100
AcDbLine
 10
14.5624132156372
 20
14.20167732238769
 30
0.0
 11
14.5624132156372
 21
14.14373683929443
 31
0.0
  0
LINE
  5
43
330
A
100
AcDbEntity
  8
TOP
  6
CONTINUOUS
 62
     3
100
AcDbLine
 10
22.48406982421875
 20
22.32413482666015
 30
0.0
 11
22.48407363891601
 21
22.3248291015625
 31
0.0
  0
LINE
  5
44
330
A
100
AcDbEntity
  8
TOP
  6
CONTINUOUS
 62
     3
100
AcDbLine
 10
25.31447601318359
 20
30.53067588806152
 30
0.0
 11
25.29656982421875
 21
30.49175834655761
 31
0.0
  0
LINE
  5
45
330
A
100
AcDbEntity
  8
TOP
  6
CONTINUOUS
 62
     3
100
AcDbLine
 10
22.48423385620117
 20
22.33665657043457
 30
0.0
 11
22.48443794250488
 21
22.33540153503418
 31
0.0
  0
LINE
  5
46
330
A
100
AcDbEntity
  8
TOP
  6
CONTINUOUS
 62
     3
100
AcDbLine
 10
14.01045894622802
 20
22.17554664611816
 30
0.0
 11
13.9910192489624
 21
22.19493865966796
 31
0.0
  0
LINE
  5
47
330
A
100
AcDbEntity
  8
TOP
  6
CONTINUOUS
 62
     3
100
AcDbLine
 10
15.01158428192138
 20
30.20719146728515
 30
0.0
 11
14.97218132019042
 21
30.16788101196289
 31
0.0
  0
LINE
  5
48
330
A
100
AcDbEntity
  8
TOP
  6
CONTINUOUS
 62
     3
100
AcDbLine
 10
10.53548622131347
 20
22.36093711853027
 30
0.0
 11
10.52888965606689
 21
22.34207153320312
 31
0.0
  0
LINE
  5
49
330
A
100
AcDbEntity
  8
TOP
  6
CONTINUOUS
 62
     3
100
AcDbLine
 10
14.03533267974853
 20
17.0789566040039
 30
0.0
 11
13.94408798217773
 21
17.0789566040039
 31
0.0
  0
LINE
  5
4A
330
A
100
AcDbEntity
  8
TOP
  6
CONTINUOUS
 62
     3
100
AcDbLine
 10
13.69357585906982
 20
22.24828910827636
 30
0.0
 11
13.69355392456054
 21
22.23038482666015
 31
0.0
  0
LINE
  5
4B
330
A
100
AcDbEntity
  8
TOP
  6
CONTINUOUS
 62
     3
100
AcDbLine
 10
13.1723575592041
 20
16.95623588562011
 30
0.0
 11
13.1723575592041
 21
17.01417732238769
 31
0.0
  0
LINE
  5
4C
330
A
100
AcDbEntity
  8
TOP
  6
CONTINUOUS
 62
     3
100
AcDbLine
 10
10.63249015808105
 20
22.41788482666015
 30
0.0
 11
10.62345600128173
 21
22.41788482666015
 31
0.0
  0
LINE
  5
4D
330
A
100
AcDbEntity
  8
TOP
  6
CONTINUOUS
 62
     3
100
AcDbLine
 10
22.60679054260254
 20
21.76116371154785
 30
0.0
 11
22.54885101318359
 21
21.76116371154785
 31
0.0
  0
LINE
  5
4E
330
A
100
AcDbEntity
  8
TOP
  6
CONTINUOUS
 62
     3
100
AcDbLine
 10
16.1517276763916
 20
16.90936088562011
 30
0.0
 11
16.15176773071289
 21
16.95623588562011
 31
0.0
  0
LINE
  5
4F
330
A
100
AcDbEntity
  8
TOP
  6
CONTINUOUS
 62
     3
100
AcDbLine
 10
22.50197601318359
 20
21.78521537780761
 30
0.0
 11
22.48406982421875
 21
21.82413482666015
 31
0.0
  0
LINE
  5
50
330
A
100
AcDbEntity
  8
TOP
  6
CONTINUOUS
 62
     3
100
AcDbLine
 10
25.4185733795166
 20
29.99039459228515
 30
0.0
 11
25.45600509643554
 21
30.01465988159179
 31
0.0
  0
LINE
  5
51
330
A
100
AcDbEntity
  8
TOP
  6
CONTINUOUS
 62
     3
100
AcDbLine
 10
22.65366554260253
 20
29.53521537780761
 30
0.0
 11
22.60679054260254
 21
29.51116371154785
 31
0.0
  0
LINE
  5
52
330
A
100
AcDbEntity
  8
TOP
  6
CONTINUOUS
 62
     3
100
AcDbLine
 10
12.91044044494628
 20
22.25784301757812
 30
0.0
 11
12.91036128997802
 21
22.32413482666015
 31
0.0
  0
LINE
  5
53
330
A
100
AcDbEntity
  8
TOP
  6
CONTINUOUS
 62
     3
100
AcDbLine
 10
14.24824810028076
 20
22.72124862670898
 30
0.0
 11
14.2813549041748
 21
22.68806266784668
 31
0.0
  0
LINE
  5
54
330
A
100
AcDbEntity
  8
TOP
  6
CONTINUOUS
 62
     3
100
AcDbLine
 10
12.80502605438232
 20
30.47129821777343
 30
0.0
 11
12.77184009552001
 21
30.43819236755371
 31
0.0
  0
LINE
  5
55
330
A
100
AcDbEntity
  8
TOP
  6
CONTINUOUS
 62
     3
100
AcDbLine
 10
16.69666099548339
 20
31.4941349029541
 30
0.0
 11
16.69666099548339
 21
31.55070304870605
 31
0.0
  0
LINE
  5
56
330
A
100
AcDbEntity
  8
TOP
  6
CONTINUOUS
 62
     3
100
AcDbLine
 10
10.85777950286865
 20
30.16788482666015
 30
0.0
 11
10.82026100158691
 21
30.16788482666015
 31
0.0
  0
LINE
  5
57
330
A
100
AcDbEntity
  8
TOP
  6
CONTINUOUS
 62
     3
100
AcDbLine
 10
16.15154838562011
 20
22.41788482666015
 30
0.0
 11
14.14284992218017
 21
22.41788482666015
 31
0.0
  0
LINE
  5
58
330
A
100
AcDbEntity
  8
TOP
  6
CONTINUOUS
 62
     3
100
AcDbLine
 10
16.4176959991455
 20
22.23038482666015
 30
0.0
 11
16.4290714263916
 21
22.23038482666015
 31
0.0
  0
LINE
  5
59
330
A
100
AcDbEntity
  8
TOP
  6
CONTINUOUS
 62
     3
100
AcDbLine
 10
11.89360046386718
 20
14.24855232238769
 30
0.0
 11
11.89355945587158
 21
14.20167732238769
 31
0.0
  0
LINE
  5
5A
330
A
100
AcDbEntity
  8
TOP
  6
CONTINUOUS
 62
     3
100
AcDbLine
 10
16.69666099548339
 20
14.0555248260498
 30
0.0
 11
16.69666099548339
 21
13.99895668029785
 31
0.0
  0
LINE
  5
5B
330
A
100
AcDbEntity
  8
TOP
  6
CONTINUOUS
 62
     3
100
AcDbLine
 10
10.64186286926269
 20
22.23038482666015
 30
0.0
 11
10.70286655426025
 21
22.23038482666015
 31
0.0
  0
LINE
  5
5C
330
A
100
AcDbEntity
  8
TOP
  6
CONTINUOUS
 62
     3
100
AcDbLine
 10
25.36895561218261
 20
22.23038482666015
 30
0.0
 11
25.39483642578125
 21
22.23305702209472
 31
0.0
  0
LINE
  5
5D
330
A
100
AcDbEntity
  8
TOP
  6
CONTINUOUS
 62
     3
100
AcDbLine
 10
14.92177104949951
 20
14.09686183929443
 30
0.0
 11
14.96078300476074
 21
14.0789566040039
 31
0.0
  0
LINE
  5
5E
330
A
100
AcDbEntity
  8
TOP
  6
CONTINUOUS
 62
     3
100
AcDbLine
 10
25.31447601318359
 20
22.78067588806152
 30
0.0
 11
25.29656982421875
 21
22.74175834655761
 31
0.0
  0
LINE
  5
5F
330
A
100
AcDbEntity
  8
TOP
  6
CONTINUOUS
 62
     3
100
AcDbLine
 10
25.46616554260253
 20
30.53067588806152
 30
0.0
 11
25.41929054260254
 21
30.55472946166992
 31
0.0
  0
LINE
  5
60
330
A
100
AcDbEntity
  8
TOP
  6
CONTINUOUS
 62
     3
100
AcDbLine
 10
22.7773208618164
 20
30.16788482666015
 30
0.0
 11
22.70272254943847
 21
30.16788482666015
 31
0.0
  0
LINE
  5
61
330
A
100
AcDbEntity
  8
TOP
  6
CONTINUOUS
 62
     3
100
AcDbLine
 10
22.48822784423828
 20
22.25035285949707
 30
0.0
 11
22.48406982421875
 21
22.24175834655761
 31
0.0
  0
LINE
  5
62
330
A
100
AcDbEntity
  8
TOP
  6
CONTINUOUS
 62
     3
100
AcDbLine
 10
13.57279014587402
 20
30.52731704711914
 30
0.0
 11
13.52585887908935
 21
30.57413482666015
 31
0.0
  0
LINE
  5
63
330
A
100
AcDbEntity
  8
TOP
  6
CONTINUOUS
 62
     3
100
AcDbLine
 10
16.52666091918945
 20
30.07398796081543
 30
0.0
 11
16.52666091918945
 21
30.07406044006347
 31
0.0
  0
LINE
  5
64
330
A
100
AcDbEntity
  8
TOP
  6
CONTINUOUS
 62
     3
100
AcDbLine
 10
10.57883930206298
 20
22.40737533569336
 30
0.0
 11
10.56159400939941
 21
22.39578628540038
 31
0.0
  0
LINE
  5
65
330
A
100
AcDbEntity
  8
TOP
  6
CONTINUOUS
 62
     3
100
AcDbLine
 10
13.94408798217773
 20
16.8914566040039
 30
0.0
 11
14.03533267974853
 21
16.8914566040039
 31
0.0
  0
LINE
  5
66
330
A
100
AcDbEntity
  8
TOP
  6
CONTINUOUS
 62
     3
100
AcDbLine
 10
10.70286655426025
 20
22.23038482666015
 30
0.0
 11
10.79413509368896
 21
22.23038482666015
 31
0.0
  0
LINE
  5
67
330
A
100
AcDbEntity
  8
TOP
  6
CONTINUOUS
 62
     3
100
AcDbLine
 10
16.4290714263916
 20
29.98038482666015
 30
0.0
 11
16.43291091918945
 21
29.98038482666015
 31
0.0
  0
LINE
  5
68
330
A
100
AcDbEntity
  8
TOP
  6
CONTINUOUS
 62
     3
100
AcDbLine
 10
13.69366645812988
 20
14.2664566040039
 30
0.0
 11
13.69360065460205
 21
14.24855232238769
 31
0.0
  0
LINE
  5
69
330
A
100
AcDbEntity
  8
TOP
  6
CONTINUOUS
 62
     3
100
AcDbLine
 10
14.14306926727294
 20
17.01417732238769
 30
0.0
 11
14.14302825927734
 21
17.06105232238769
 31
0.0
  0
LINE
  5
6A
330
A
100
AcDbEntity
  8
TOP
  6
CONTINUOUS
 62
     3
100
AcDbLine
 10
15.15959072113037
 20
14.09686183929443
 30
0.0
 11
15.1596565246582
 21
14.0789566040039
 31
0.0
  0
LINE
  5
6B
330
A
100
AcDbEntity
  8
TOP
  6
CONTINUOUS
 62
     3
100
AcDbLine
 10
22.65366554260253
 20
21.78521537780761
 30
0.0
 11
22.60679054260254
 21
21.76116371154785
 31
0.0
  0
LINE
  5
6C
330
A
100
AcDbEntity
  8
TOP
  6
CONTINUOUS
 62
     3
100
AcDbLine
 10
22.54310226440429
 20
29.93025398254394
 30
0.0
 11
22.50044441223144
 21
29.95437240600586
 31
0.0
  0
LINE
  5
6D
330
A
100
AcDbEntity
  8
TOP
  6
CONTINUOUS
 62
     3
100
AcDbLine
 10
14.16157627105713
 20
22.80812835693359
 30
0.0
 11
14.17422103881835
 21
22.79545402526855
 31
0.0
  0
LINE
  5
6E
330
A
100
AcDbEntity
  8
TOP
  6
CONTINUOUS
 62
     3
100
AcDbLine
 10
12.89190578460693
 20
30.55797004699707
 30
0.0
 11
12.87923049926757
 21
30.54532432556152
 31
0.0
  0
LINE
  5
6F
330
A
100
AcDbEntity
  8
TOP
  6
CONTINUOUS
 62
     3
100
AcDbLine
 10
16.69666099548339
 20
31.4941349029541
 30
0.0
 11
16.75322914123535
 21
31.4941349029541
 31
0.0
  0
LINE
  5
70
330
A
100
AcDbEntity
  8
TOP
  6
CONTINUOUS
 62
     3
100
AcDbLine
 10
10.53548622131347
 20
30.11093711853027
 30
0.0
 11
10.52888965606689
 21
30.09207153320312
 31
0.0
  0
LINE
  5
71
330
A
100
AcDbEntity
  8
TOP
  6
CONTINUOUS
 62
     3
100
AcDbLine
 10
13.45948886871338
 20
30.64034652709961
 30
0.0
 11
13.04286479949951
 21
30.22272300720215
 31
0.0
  0
LINE
  5
72
330
A
100
AcDbEntity
  8
TOP
  6
CONTINUOUS
 62
     3
100
AcDbLine
 10
16.41145896911621
 20
22.41788482666015
 30
0.0
 11
16.35045623779296
 21
22.41788482666015
 31
0.0
  0
LINE
  5
73
330
A
100
AcDbEntity
  8
TOP
  6
CONTINUOUS
 62
     3
100
AcDbLine
 10
10.3566608428955
 20
14.0789566040039
 30
0.0
 11
10.3566608428955
 21
14.0555248260498
 31
0.0
  0
LINE
  5
74
330
A
100
AcDbEntity
  8
TOP
  6
CONTINUOUS
 62
     3
100
AcDbLine
 10
25.19082069396972
 20
29.98038482666015
 30
0.0
 11
25.26541709899902
 21
29.98038482666015
 31
0.0
  0
LINE
  5
75
330
A
100
AcDbEntity
  8
TOP
  6
CONTINUOUS
 62
     3
100
AcDbLine
 10
25.46616554260253
 20
22.78067588806152
 30
0.0
 11
25.41929054260254
 21
22.80472946166992
 31
0.0
  0
LINE
  5
76
330
A
100
AcDbEntity
  8
TOP
  6
CONTINUOUS
 62
     3
100
AcDbLine
 10
25.37084197998046
 20
30.22127723693847
 30
0.0
 11
25.32290458679199
 21
30.2025203704834
 31
0.0
  0
LINE
  5
77
330
A
100
AcDbEntity
  8
TOP
  6
CONTINUOUS
 62
     3
100
AcDbLine
 10
22.85895919799804
 20
22.23038482666015
 30
0.0
 11
22.85920524597167
 21
22.23038482666015
 31
0.0
  0
LINE
  5
78
330
A
100
AcDbEntity
  8
TOP
  6
CONTINUOUS
 62
     3
100
AcDbLine
 10
22.85918235778808
 20
22.23038482666015
 30
0.0
 11
22.85914993286132
 21
22.25784301757812
 31
0.0
  0
LINE
  5
79
330
A
100
AcDbEntity
  8
TOP
  6
CONTINUOUS
 62
     3
100
AcDbLine
 10
13.52585887908935
 20
30.57413482666015
 30
0.0
 11
13.47892761230468
 21
30.6209545135498
 31
0.0
  0
LINE
  5
7A
330
A
100
AcDbEntity
  8
TOP
  6
CONTINUOUS
 62
     3
100
AcDbLine
 10
16.15174102783203
 20
30.00784301757812
 30
0.0
 11
16.15166091918945
 21
30.07413482666015
 31
0.0
  0
LINE
  5
7B
330
A
100
AcDbEntity
  8
TOP
  6
CONTINUOUS
 62
     3
100
AcDbLine
 10
10.61073112487793
 20
22.41731452941894
 30
0.0
 11
10.60427474975585
 21
22.41628837585449
 31
0.0
  0
LINE
  5
7C
330
A
100
AcDbEntity
  8
TOP
  6
CONTINUOUS
 62
     3
100
AcDbLine
 10
10.62345600128173
 20
22.41788482666015
 30
0.0
 11
10.62041091918945
 21
22.41788482666015
 31
0.0
  0
LINE
  5
7D
330
A
100
AcDbEntity
  8
TOP
  6
CONTINUOUS
 62
     3
100
AcDbLine
 10
14.14296245574951
 20
16.8914566040039
 30
0.0
 11
14.14302825927734
 21
16.90936088562011
 31
0.0
  0
LINE
  5
7E
330
A
100
AcDbEntity
  8
TOP
  6
CONTINUOUS
 62
     3
100
AcDbLine
 10
22.54310226440429
 20
22.18025398254394
 30
0.0
 11
22.50044441223144
 21
22.20437240600586
 31
0.0
  0
LINE
  5
7F
330
A
100
AcDbEntity
  8
TOP
  6
CONTINUOUS
 62
     3
100
AcDbLine
 10
22.67012596130371
 20
29.98017692565918
 30
0.0
 11
22.64530181884765
 21
29.9457950592041
 31
0.0
  0
LINE
  5
80
330
A
100
AcDbEntity
  8
TOP
  6
CONTINUOUS
 62
     3
100
AcDbLine
 10
10.90158176422119
 20
22.39042663574218
 30
0.0
 11
10.90154933929443
 21
22.41788482666015
 31
0.0
  0
LINE
  5
81
330
A
100
AcDbEntity
  8
TOP
  6
CONTINUOUS
 62
     3
100
AcDbLine
 10
14.64604473114013
 20
22.76221847534179
 30
0.0
 11
14.60502624511718
 21
22.72129821777344
 31
0.0
  0
LINE
  5
82
330
A
100
AcDbEntity
  8
TOP
  6
CONTINUOUS
 62
     3
100
AcDbLine
 10
13.35969161987304
 20
30.10310554504394
 30
0.0
 11
13.35962200164795
 21
30.04516410827636
 31
0.0
  0
LINE
  5
83
330
A
100
AcDbEntity
  8
TOP
  6
CONTINUOUS
 62
     3
100
AcDbLine
 10
10.3566608428955
 20
31.4941349029541
 30
0.0
 11
16.69666099548339
 21
31.4941349029541
 31
0.0
  0
LINE
  5
84
330
A
100
AcDbEntity
  8
TOP
  6
CONTINUOUS
 62
     3
100
AcDbLine
 10
10.57883930206298
 20
30.15737533569335
 30
0.0
 11
10.56159400939941
 21
30.14578628540039
 31
0.0
  0
LINE
  5
85
330
A
100
AcDbEntity
  8
TOP
  6
CONTINUOUS
 62
     3
100
AcDbLine
 10
12.91024875640869
 20
30.16788482666015
 30
0.0
 11
10.90154933929443
 21
30.16788482666015
 31
0.0
  0
LINE
  5
86
330
A
100
AcDbEntity
  8
TOP
  6
CONTINUOUS
 62
     3
100
AcDbLine
 10
12.09254074096679
 20
14.2664566040039
 30
0.0
 11
12.1314582824707
 21
14.24855232238769
 31
0.0
  0
LINE
  5
87
330
A
100
AcDbEntity
  8
TOP
  6
CONTINUOUS
 62
     3
100
AcDbLine
 10
13.017991065979
 20
16.8914566040039
 30
0.0
 11
13.1092357635498
 21
16.8914566040039
 31
0.0
  0
LINE
  5
88
330
A
100
AcDbEntity
  8
TOP
  6
CONTINUOUS
 62
     3
100
AcDbLine
 10
15.15954971313476
 20
14.14373683929443
 30
0.0
 11
15.15959072113037
 21
14.09686183929443
 31
0.0
  0
LINE
  5
89
330
A
100
AcDbEntity
  8
TOP
  6
CONTINUOUS
 62
     3
100
AcDbLine
 10
25.37084197998046
 20
22.47127723693847
 30
0.0
 11
25.32290458679199
 21
22.45252037048339
 31
0.0
  0
LINE
  5
8A
330
A
100
AcDbEntity
  8
TOP
  6
CONTINUOUS
 62
     3
100
AcDbLine
 10
25.48406982421875
 20
30.15653610229492
 30
0.0
 11
25.46803092956543
 21
30.19354820251464
 31
0.0
  0
LINE
  5
8B
330
A
100
AcDbEntity
  8
TOP
  6
CONTINUOUS
 62
     3
100
AcDbLine
 10
22.48406982421875
 20
22.24175834655761
 30
0.0
 11
22.48406982421875
 21
21.82413482666015
 31
0.0
  0
LINE
  5
8C
330
A
100
AcDbEntity
  8
TOP
  6
CONTINUOUS
 62
     3
100
AcDbLine
 10
13.69355964660644
 20
14.14373683929443
 30
0.0
 11
13.69360065460205
 21
14.09686183929443
 31
0.0
  0
LINE
  5
8D
330
A
100
AcDbEntity
  8
TOP
  6
CONTINUOUS
 62
     3
100
AcDbLine
 10
13.06230449676513
 20
30.20332908630371
 30
0.0
 11
13.04286479949951
 21
30.22272300720215
 31
0.0
  0
LINE
  5
8E
330
A
100
AcDbEntity
  8
TOP
  6
CONTINUOUS
 62
     3
100
AcDbLine
 10
16.15166091918945
 20
30.07413482666015
 30
0.0
 11
16.1515827178955
 21
30.14042663574219
 31
0.0
  0
LINE
  5
8F
330
A
100
AcDbEntity
  8
TOP
  6
CONTINUOUS
 62
     3
100
AcDbLine
 10
16.51783561706543
 20
22.28733253479004
 30
0.0
 11
16.52443313598632
 21
22.30619621276855
 31
0.0
  0
LINE
  5
90
330
A
100
AcDbEntity
  8
TOP
  6
CONTINUOUS
 62
     3
100
AcDbLine
 10
25.45600509643554
 20
22.26465988159179
 30
0.0
 11
25.47755813598632
 21
22.29472732543945
 31
0.0
  0
LINE
  5
91
330
A
100
AcDbEntity
  8
TOP
  6
CONTINUOUS
 62
     3
100
AcDbLine
 10
13.69360065460205
 20
14.09686183929443
 30
0.0
 11
13.69366645812988
 21
14.0789566040039
 31
0.0
  0
LINE
  5
92
330
A
100
AcDbEntity
  8
TOP
  6
CONTINUOUS
 62
     3
100
AcDbLine
 10
13.59058666229248
 20
16.95623588562011
 30
0.0
 11
13.59058666229248
 21
17.01417732238769
 31
0.0
  0
LINE
  5
93
330
A
100
AcDbEntity
  8
TOP
  6
CONTINUOUS
 62
     3
100
AcDbLine
 10
22.67012596130371
 20
22.23017692565917
 30
0.0
 11
22.64530181884765
 21
22.1957950592041
 31
0.0
  0
LINE
  5
94
330
A
100
AcDbEntity
  8
TOP
  6
CONTINUOUS
 62
     3
100
AcDbLine
 10
25.5640697479248
 20
31.53413391113281
 30
0.0
 11
25.98406982421875
 21
31.53413391113281
 31
0.0
  0
LINE
  5
95
330
A
100
AcDbEntity
  8
TOP
  6
CONTINUOUS
 62
     3
100
AcDbLine
 10
10.62041091918945
 20
22.23038482666015
 30
0.0
 11
10.55412006378173
 21
22.25784301757812
 31
0.0
  0
LINE
  5
96
330
A
100
AcDbEntity
  8
TOP
  6
CONTINUOUS
 62
     3
100
AcDbLine
 10
15.01158428192138
 20
22.45719146728515
 30
0.0
 11
14.97218132019042
 21
22.41788101196289
 31
0.0
  0
LINE
  5
97
330
A
100
AcDbEntity
  8
TOP
  6
CONTINUOUS
 62
     3
100
AcDbLine
 10
16.45671653747558
 20
29.98383903503418
 30
0.0
 11
16.47448348999023
 21
29.99089431762695
 31
0.0
  0
LINE
  5
98
330
A
100
AcDbEntity
  8
TOP
  6
CONTINUOUS
 62
     3
100
AcDbLine
 10
13.69357585906982
 20
29.99828910827636
 30
0.0
 11
13.69355392456054
 21
29.98038482666015
 31
0.0
  0
LINE
  5
99
330
A
100
AcDbEntity
  8
TOP
  6
CONTINUOUS
 62
     3
100
AcDbLine
 10
10.61073112487793
 20
30.16731452941894
 30
0.0
 11
10.60427474975585
 21
30.16628837585449
 31
0.0
  0
LINE
  5
9A
330
A
100
AcDbEntity
  8
TOP
  6
CONTINUOUS
 62
     3
100
AcDbLine
 10
12.23649787902832
 20
30.16788673400879
 30
0.0
 11
12.49399948120117
 21
30.42538833618164
 31
0.0
  0
LINE
  5
9B
330
A
100
AcDbEntity
  8
TOP
  6
CONTINUOUS
 62
     3
100
AcDbLine
 10
10.79413509368896
 20
29.98038482666015
 30
0.0
 11
10.90177345275878
 21
29.98038482666015
 31
0.0
  0
LINE
  5
9C
330
A
100
AcDbEntity
  8
TOP
  6
CONTINUOUS
 62
     3
100
AcDbLine
 10
13.35955047607422
 20
14.20167732238769
 30
0.0
 11
13.35955047607422
 21
14.14373683929443
 31
0.0
  0
LINE
  5
9D
330
A
100
AcDbEntity
  8
TOP
  6
CONTINUOUS
 62
     3
100
AcDbLine
 10
25.36895561218261
 20
29.98038482666015
 30
0.0
 11
25.39483642578125
 21
29.98305702209473
 31
0.0
  0
LINE
  5
9E
330
A
100
AcDbEntity
  8
TOP
  6
CONTINUOUS
 62
     3
100
AcDbLine
 10
15.1596565246582
 20
14.2664566040039
 30
0.0
 11
15.15959072113037
 21
14.24855232238769
 31
0.0
  0
LINE
  5
9F
330
A
100
AcDbEntity
  8
TOP
  6
CONTINUOUS
 62
     3
100
AcDbLine
 10
25.48406982421875
 20
22.40653610229492
 30
0.0
 11
25.46803092956543
 21
22.44354820251464
 31
0.0
  0
LINE
  5
A0
330
A
100
AcDbEntity
  8
TOP
  6
CONTINUOUS
 62
     3
100
AcDbLine
 10
22.48406982421875
 20
30.15651130676269
 30
0.0
 11
22.48407554626465
 21
30.1099853515625
 31
0.0
  0
LINE
  5
A1
330
A
100
AcDbEntity
  8
TOP
  6
CONTINUOUS
 62
     3
100
AcDbLine
 10
13.35955047607422
 20
14.14373683929443
 30
0.0
 11
13.3595905303955
 21
14.09686183929443
 31
0.0
  0
LINE
  5
A2
330
A
100
AcDbEntity
  8
TOP
  6
CONTINUOUS
 62
     3
100
AcDbLine
 10
25.47299003601074
 20
22.86834907531738
 30
0.0
 11
25.44942474365234
 21
22.89690589904785
 31
0.0
  0
LINE
  5
A3
330
A
100
AcDbEntity
  8
TOP
  6
CONTINUOUS
 62
     3
100
AcDbLine
 10
16.15166091918945
 20
14.2664566040039
 30
0.0
 11
15.1596565246582
 21
14.2664566040039
 31
0.0
  0
LINE
  5
A4
330
A
100
AcDbEntity
  8
TOP
  6
CONTINUOUS
 62
     3
100
AcDbLine
 10
12.1314582824707
 20
14.09686183929443
 30
0.0
 11
12.09254074096679
 21
14.0789566040039
 31
0.0
  0
LINE
  5
A5
330
A
100
AcDbEntity
  8
TOP
  6
CONTINUOUS
 62
     3
100
AcDbLine
 10
16.46188163757324
 20
16.70384979248046
 30
0.0
 11
16.50875663757324
 21
16.70389175415039
 31
0.0
  0
LINE
  5
A6
330
A
100
AcDbEntity
  8
TOP
  6
CONTINUOUS
 62
     3
100
AcDbLine
 10
14.14288234710693
 20
30.14042663574219
 30
0.0
 11
14.14284992218017
 21
30.16788482666015
 31
0.0
  0
LINE
  5
A7
330
A
100
AcDbEntity
  8
TOP
  6
CONTINUOUS
 62
     3
100
AcDbLine
 10
13.3595905303955
 20
14.09686183929443
 30
0.0
 11
13.35965728759765
 21
14.0789566040039
 31
0.0
  0
LINE
  5
A8
330
A
100
AcDbEntity
  8
TOP
  6
CONTINUOUS
 62
     3
100
AcDbLine
 10
16.47448348999023
 20
22.24089431762695
 30
0.0
 11
16.49172782897949
 21
22.25248336791992
 31
0.0
  0
LINE
  5
A9
330
A
100
AcDbEntity
  8
TOP
  6
CONTINUOUS
 62
     3
100
AcDbLine
 10
13.17560577392578
 20
22.34029960632324
 30
0.0
 11
13.59222984313964
 21
22.7579231262207
 31
0.0
  0
LINE
  5
AA
330
A
100
AcDbEntity
  8
TOP
  6
CONTINUOUS
 62
     3
100
AcDbLine
 10
13.48845291137695
 20
16.90936088562011
 30
0.0
 11
13.52746486663818
 21
16.8914566040039
 31
0.0
  0
LINE
  5
AB
330
A
100
AcDbEntity
  8
TOP
  6
CONTINUOUS
 62
     3
100
AcDbLine
 10
22.60679054260254
 20
30.51116371154785
 30
0.0
 11
22.54885101318359
 21
30.51116371154785
 31
0.0
  0
LINE
  5
AC
330
A
100
AcDbEntity
  8
TOP
  6
CONTINUOUS
 62
     3
100
AcDbLine
 10
12.04186916351318
 20
22.45730400085449
 30
0.0
 11
12.08119487762451
 21
22.41788291931152
 31
0.0
  0
LINE
  5
AD
330
A
100
AcDbEntity
  8
TOP
  6
CONTINUOUS
 62
     3
100
AcDbLine
 10
16.52666091918945
 20
22.32398796081543
 30
0.0
 11
16.52666091918945
 21
22.32406044006347
 31
0.0
  0
LINE
  5
AE
330
A
100
AcDbEntity
  8
TOP
  6
CONTINUOUS
 62
     3
100
AcDbLine
 10
13.69375705718994
 20
30.14998054504394
 30
0.0
 11
13.69370079040527
 21
30.10310554504394
 31
0.0
  0
LINE
  5
AF
330
A
100
AcDbEntity
  8
TOP
  6
CONTINUOUS
 62
     3
100
AcDbLine
 10
16.51783561706543
 20
30.03733253479003
 30
0.0
 11
16.52443313598632
 21
30.05619621276855
 31
0.0
  0
LINE
  5
B0
330
A
100
AcDbEntity
  8
TOP
  6
CONTINUOUS
 62
     3
100
AcDbLine
 10
12.75916481018066
 20
30.42554664611816
 30
0.0
 11
12.99608039855957
 21
30.18863105773926
 31
0.0
  0
LINE
  5
B1
330
A
100
AcDbEntity
  8
TOP
  6
CONTINUOUS
 62
     3
100
AcDbLine
 10
10.62041091918945
 20
29.98038482666015
 30
0.0
 11
10.64186286926269
 21
29.98038482666015
 31
0.0
  0
LINE
  5
B2
330
A
100
AcDbEntity
  8
TOP
  6
CONTINUOUS
 62
     3
100
AcDbLine
 10
12.00129604339599
 20
14.2664566040039
 30
0.0
 11
11.89366626739501
 21
14.2664566040039
 31
0.0
  0
LINE
  5
B3
330
A
100
AcDbEntity
  8
TOP
  6
CONTINUOUS
 62
     3
100
AcDbLine
 10
16.15166091918945
 20
22.32413482666015
 30
0.0
 11
16.1515827178955
 21
22.39042663574218
 31
0.0
  0
LINE
  5
B4
330
A
100
AcDbEntity
  8
TOP
  6
CONTINUOUS
 62
     3
100
AcDbLine
 10
16.35045623779296
 20
30.16788482666015
 30
0.0
 11
16.25918769836425
 21
30.16788482666015
 31
0.0
  0
LINE
  5
B5
330
A
100
AcDbEntity
  8
TOP
  6
CONTINUOUS
 62
     3
100
AcDbLine
 10
13.09766101837158
 20
14.14373683929443
 30
0.0
 11
13.12177181243896
 21
14.09686183929443
 31
0.0
  0
LINE
  5
B6
330
A
100
AcDbEntity
  8
TOP
  6
CONTINUOUS
 62
     3
100
AcDbLine
 10
16.15155410766601
 20
14.20167732238769
 30
0.0
 11
16.15155410766601
 21
14.14373683929443
 31
0.0
  0
LINE
  5
B7
330
A
100
AcDbEntity
  8
TOP
  6
CONTINUOUS
 62
     3
100
AcDbLine
 10
25.36713981628418
 20
22.23329544067382
 30
0.0
 11
25.42308616638183
 21
22.23629570007324
 31
0.0
  0
LINE
  5
B8
330
A
100
AcDbEntity
  8
TOP
  6
CONTINUOUS
 62
     3
100
AcDbLine
 10
25.3120002746582
 20
30.62565994262695
 30
0.0
 11
25.30085372924804
 21
30.6021499633789
 31
0.0
  0
LINE
  5
B9
330
A
100
AcDbEntity
  8
TOP
  6
CONTINUOUS
 62
     3
100
AcDbLine
 10
25.10914993286132
 20
30.00784301757812
 30
0.0
 11
25.10906982421875
 21
30.07413482666015
 31
0.0
  0
LINE
  5
BA
330
A
100
AcDbEntity
  8
TOP
  6
CONTINUOUS
 62
     3
100
AcDbLine
 10
25.34478759765625
 20
30.65608406066894
 30
0.0
 11
25.32741737365722
 21
30.64364814758301
 31
0.0
  0
LINE
  5
BB
330
A
100
AcDbEntity
  8
TOP
  6
CONTINUOUS
 62
     3
100
AcDbLine
 10
25.29656982421875
 20
22.77673530578613
 30
0.0
 11
25.29656982421875
 21
22.74175834655761
 31
0.0
  0
LINE
  5
BC
330
A
100
AcDbEntity
  8
TOP
  6
CONTINUOUS
 62
     3
100
AcDbLine
 10
13.12177181243896
 20
14.09686183929443
 30
0.0
 11
13.16078281402587
 21
14.0789566040039
 31
0.0
  0
LINE
  5
BD
330
A
100
AcDbEntity
  8
TOP
  6
CONTINUOUS
 62
     3
100
AcDbLine
 10
13.16078281402587
 20
14.2664566040039
 30
0.0
 11
12.82553577423095
 21
14.2664566040039
 31
0.0
  0
LINE
  5
BE
330
A
100
AcDbEntity
  8
TOP
  6
CONTINUOUS
 62
     3
100
AcDbLine
 10
10.90174102783203
 20
30.00784301757812
 30
0.0
 11
10.90166091918945
 21
30.07413482666015
 31
0.0
  0
LINE
  5
BF
330
A
100
AcDbEntity
  8
TOP
  6
CONTINUOUS
 62
     3
100
AcDbLine
 10
13.59383487701416
 20
29.5079231262207
 30
0.0
 11
13.57439517974853
 21
29.52731513977051
 31
0.0
  0
LINE
  5
C0
330
A
100
AcDbEntity
  8
TOP
  6
CONTINUOUS
 62
     3
100
AcDbLine
 10
25.15193367004394
 20
22.41788482666015
 30
0.0
 11
25.10895919799804
 21
22.41788482666015
 31
0.0
  0
LINE
  5
C1
330
A
100
AcDbEntity
  8
TOP
  6
CONTINUOUS
 62
     3
100
AcDbLine
 10
16.4425926208496
 20
22.23095321655273
 30
0.0
 11
16.44904708862304
 21
22.23198127746582
 31
0.0
  0
LINE
  5
C2
330
A
100
AcDbEntity
  8
TOP
  6
CONTINUOUS
 62
     3
100
AcDbLine
 10
25.19082069396972
 20
22.23038482666015
 30
0.0
 11
25.26541709899902
 21
22.23038482666015
 31
0.0
  0
LINE
  5
C3
330
A
100
AcDbEntity
  8
TOP
  6
CONTINUOUS
 62
     3
100
AcDbLine
 10
12.23649787902832
 20
22.41788673400879
 30
0.0
 11
12.49399948120117
 21
22.67538833618164
 31
0.0
  0
LINE
  5
C4
330
A
100
AcDbEntity
  8
TOP
  6
CONTINUOUS
 62
     3
100
AcDbLine
 10
10.64938163757324
 20
16.70406341552734
 30
0.0
 11
10.59144115447998
 21
16.70406341552734
 31
0.0
  0
LINE
  5
C5
330
A
100
AcDbEntity
  8
TOP
  6
CONTINUOUS
 62
     3
100
AcDbLine
 10
12.42778778076171
 20
14.2664566040039
 30
0.0
 11
12.09254074096679
 21
14.2664566040039
 31
0.0
  0
LINE
  5
C6
330
A
100
AcDbEntity
  8
TOP
  6
CONTINUOUS
 62
     3
100
AcDbLine
 10
13.48845291137695
 20
17.06105232238769
 30
0.0
 11
13.46434211730957
 21
17.01417732238769
 31
0.0
  0
LINE
  5
C7
330
A
100
AcDbEntity
  8
TOP
  6
CONTINUOUS
 62
     3
100
AcDbLine
 10
22.60679054260254
 20
22.76116371154785
 30
0.0
 11
22.54885101318359
 21
22.76116371154785
 31
0.0
  0
LINE
  5
C8
330
A
100
AcDbEntity
  8
TOP
  6
CONTINUOUS
 62
     3
100
AcDbLine
 10
22.65366554260253
 20
30.61305236816406
 30
0.0
 11
22.67156982421874
 21
30.57413482666015
 31
0.0
  0
LINE
  5
C9
330
A
100
AcDbEntity
  8
TOP
  6
CONTINUOUS
 62
     3
100
AcDbLine
 10
22.4905834197998
 20
30.10354232788086
 30
0.0
 11
22.48406982421875
 21
30.07413482666015
 31
0.0
  0
LINE
  5
CA
330
A
100
AcDbEntity
  8
TOP
  6
CONTINUOUS
 62
     3
100
AcDbLine
 10
25.5640697479248
 20
20.90413475036621
 30
0.0
 11
25.98406982421875
 21
20.90413475036621
 31
0.0
  0
LINE
  5
CB
330
A
100
AcDbEntity
  8
TOP
  6
CONTINUOUS
 62
     3
100
AcDbLine
 10
12.44824886322021
 20
22.72124862670898
 30
0.0
 11
12.48135471343994
 21
22.68806266784668
 31
0.0
  0
LINE
  5
CC
330
A
100
AcDbEntity
  8
TOP
  6
CONTINUOUS
 62
     3
100
AcDbLine
 10
12.76241302490234
 20
14.20167732238769
 30
0.0
 11
12.76241302490234
 21
14.14373683929443
 31
0.0
  0
LINE
  5
CD
330
A
100
AcDbEntity
  8
TOP
  6
CONTINUOUS
 62
     3
100
AcDbLine
 10
16.15174102783203
 20
22.25784301757812
 30
0.0
 11
16.15166091918945
 21
22.32413482666015
 31
0.0
  0
LINE
  5
CE
330
A
100
AcDbEntity
  8
TOP
  6
CONTINUOUS
 62
     3
100
AcDbLine
 10
13.86791896820068
 20
30.18119239807129
 30
0.0
 11
13.9065933227539
 21
30.14242362976074
 31
0.0
  0
LINE
  5
CF
330
A
100
AcDbEntity
  8
TOP
  6
CONTINUOUS
 62
     3
100
AcDbLine
 10
16.69666099548339
 20
20.84756660461426
 30
0.0
 11
16.69666099548339
 21
20.82413482666015
 31
0.0
  0
LINE
  5
D0
330
A
100
AcDbEntity
  8
TOP
  6
CONTINUOUS
 62
     3
100
AcDbLine
 10
16.47448348999023
 20
29.99089431762695
 30
0.0
 11
16.49172782897949
 21
30.00248336791992
 31
0.0
  0
LINE
  5
D1
330
A
100
AcDbEntity
  8
TOP
  6
CONTINUOUS
 62
     3
100
AcDbLine
 10
12.40732765197753
 20
22.76226806640625
 30
0.0
 11
12.44824886322021
 21
22.72124862670898
 31
0.0
  0
LINE
  5
D2
330
A
100
AcDbEntity
  8
TOP
  6
CONTINUOUS
 62
     3
100
AcDbLine
 10
13.35954475402832
 20
29.98038482666015
 30
0.0
 11
13.69355392456054
 21
29.98038482666015
 31
0.0
  0
LINE
  5
D3
330
A
100
AcDbEntity
  8
TOP
  6
CONTINUOUS
 62
     3
100
AcDbLine
 10
12.76241302490234
 20
14.14373683929443
 30
0.0
 11
12.78652381896972
 21
14.09686183929443
 31
0.0
  0
LINE
  5
D4
330
A
100
AcDbEntity
  8
TOP
  6
CONTINUOUS
 62
     3
100
AcDbLine
 10
12.78652381896972
 20
14.24855232238769
 30
0.0
 11
12.76241302490234
 21
14.20167732238769
 31
0.0
  0
LINE
  5
D5
330
A
100
AcDbEntity
  8
TOP
  6
CONTINUOUS
 62
     3
100
AcDbLine
 10
12.62666130065918
 20
14.2664566040039
 30
0.0
 11
12.5190315246582
 21
14.2664566040039
 31
0.0
  0
LINE
  5
D6
330
A
100
AcDbEntity
  8
TOP
  6
CONTINUOUS
 62
     3
100
AcDbLine
 10
10.71416091918945
 20
14.4539566040039
 30
0.0
 11
10.71416091918945
 21
16.7039566040039
 31
0.0
  0
LINE
  5
D7
330
A
100
AcDbEntity
  8
TOP
  6
CONTINUOUS
 62
     3
100
AcDbLine
 10
16.50875663757324
 20
14.45389080047607
 30
0.0
 11
16.52666091918945
 21
14.4539566040039
 31
0.0
  0
LINE
  5
D8
330
A
100
AcDbEntity
  8
TOP
  6
CONTINUOUS
 62
     3
100
AcDbLine
 10
12.78652381896972
 20
14.09686183929443
 30
0.0
 11
12.82553577423095
 21
14.0789566040039
 31
0.0
  0
LINE
  5
D9
330
A
100
AcDbEntity
  8
TOP
  6
CONTINUOUS
 62
     3
100
AcDbLine
 10
12.91036128997802
 20
17.0789566040039
 30
0.0
 11
10.90166091918945
 21
17.0789566040039
 31
0.0
  0
LINE
  5
DA
330
A
100
AcDbEntity
  8
TOP
  6
CONTINUOUS
 62
     3
100
AcDbLine
 10
25.10914993286132
 20
22.25784301757812
 30
0.0
 11
25.10906982421875
 21
22.32413482666015
 31
0.0
  0
LINE
  5
DB
330
A
100
AcDbEntity
  8
TOP
  6
CONTINUOUS
 62
     3
100
AcDbLine
 10
25.10906982421875
 20
30.07413482666015
 30
0.0
 11
25.1089916229248
 21
30.14044570922851
 31
0.0
  0
LINE
  5
DC
330
A
100
AcDbEntity
  8
TOP
  6
CONTINUOUS
 62
     3
100
AcDbLine
 10
22.48406982421875
 20
29.99175834655761
 30
0.0
 11
22.48406982421875
 21
29.57413482666015
 31
0.0
  0
LINE
  5
DD
330
A
100
AcDbEntity
  8
TOP
  6
CONTINUOUS
 62
     3
100
AcDbLine
 10
12.42778778076171
 20
14.2664566040039
 30
0.0
 11
12.46670627593994
 21
14.24855232238769
 31
0.0
  0
LINE
  5
DE
330
A
100
AcDbEntity
  8
TOP
  6
CONTINUOUS
 62
     3
100
AcDbLine
 10
10.90166091918945
 20
30.07413482666015
 30
0.0
 11
10.90158176422119
 21
30.14042663574219
 31
0.0
  0
LINE
  5
DF
330
A
100
AcDbEntity
  8
TOP
  6
CONTINUOUS
 62
     3
100
AcDbLine
 10
10.90166091918945
 20
16.8914566040039
 30
0.0
 11
12.91036128997802
 21
16.8914566040039
 31
0.0
  0
LINE
  5
E0
330
A
100
AcDbEntity
  8
TOP
  6
CONTINUOUS
 62
     3
100
AcDbLine
 10
13.9910192489624
 20
29.94493865966797
 30
0.0
 11
13.94408798217773
 21
29.99175834655761
 31
0.0
  0
LINE
  5
E1
330
A
100
AcDbEntity
  8
TOP
  6
CONTINUOUS
 62
     3
100
AcDbLine
 10
16.39857292175292
 20
22.2305736541748
 30
0.0
 11
16.40326309204101
 21
22.23133087158203
 31
0.0
  0
LINE
  5
E2
330
A
100
AcDbEntity
  8
TOP
  6
CONTINUOUS
 62
     3
100
AcDbLine
 10
12.75916481018066
 20
22.67554664611816
 30
0.0
 11
12.99608039855957
 21
22.43863105773925
 31
0.0
  0
LINE
  5
E3
330
A
100
AcDbEntity
  8
TOP
  6
CONTINUOUS
 62
     3
100
AcDbLine
 10
10.54456615447998
 20
14.45402240753173
 30
0.0
 11
10.52666091918945
 21
14.4539566040039
 31
0.0
  0
LINE
  5
E4
330
A
100
AcDbEntity
  8
TOP
  6
CONTINUOUS
 62
     3
100
AcDbLine
 10
14.2667064666748
 20
14.09686183929443
 30
0.0
 11
14.22778797149658
 21
14.0789566040039
 31
0.0
  0
LINE
  5
E5
330
A
100
AcDbEntity
  8
TOP
  6
CONTINUOUS
 62
     3
100
AcDbLine
 10
13.1092357635498
 20
16.8914566040039
 30
0.0
 11
13.52585887908935
 21
16.8914566040039
 31
0.0
  0
LINE
  5
E6
330
A
100
AcDbEntity
  8
TOP
  6
CONTINUOUS
 62
     3
100
AcDbLine
 10
14.00721073150634
 20
17.01417732238769
 30
0.0
 11
13.98309993743896
 21
17.06105232238769
 31
0.0
  0
LINE
  5
E7
330
A
100
AcDbEntity
  8
TOP
  6
CONTINUOUS
 62
     3
100
AcDbLine
 10
22.65366554260253
 20
22.86305236816406
 30
0.0
 11
22.67156982421874
 21
22.82413482666015
 31
0.0
  0
LINE
  5
E8
330
A
100
AcDbEntity
  8
TOP
  6
CONTINUOUS
 62
     3
100
AcDbLine
 10
22.50197601318359
 20
30.61305236816406
 30
0.0
 11
22.54885101318359
 21
30.63710594177246
 31
0.0
  0
LINE
  5
E9
330
A
100
AcDbEntity
  8
TOP
  6
CONTINUOUS
 62
     3
100
AcDbLine
 10
22.57330322265624
 20
30.16521263122558
 30
0.0
 11
22.54956817626953
 21
30.15787506103515
 31
0.0
  0
LINE
  5
EA
330
A
100
AcDbEntity
  8
TOP
  6
CONTINUOUS
 62
     3
100
AcDbLine
 10
25.48406982421875
 20
31.4941349029541
 30
0.0
 11
25.50750160217285
 21
31.4941349029541
 31
0.0
  0
LINE
  5
EB
330
A
100
AcDbEntity
  8
TOP
  6
CONTINUOUS
 62
     3
100
AcDbLine
 10
15.15954971313476
 20
14.20167732238769
 30
0.0
 11
15.15954971313476
 21
14.14373683929443
 31
0.0
  0
LINE
  5
EC
330
A
100
AcDbEntity
  8
TOP
  6
CONTINUOUS
 62
     3
100
AcDbLine
 10
14.2813549041748
 20
30.43806266784668
 30
0.0
 11
14.29399967193603
 21
30.42538833618164
 31
0.0
  0
LINE
  5
ED
330
A
100
AcDbEntity
  8
TOP
  6
CONTINUOUS
 62
     3
100
AcDbLine
 10
10.3566608428955
 20
20.90413475036621
 30
0.0
 11
10.3566608428955
 21
20.84756660461426
 31
0.0
  0
LINE
  5
EE
330
A
100
AcDbEntity
  8
TOP
  6
CONTINUOUS
 62
     3
100
AcDbLine
 10
14.31903171539306
 20
14.2664566040039
 30
0.0
 11
14.22778797149658
 21
14.2664566040039
 31
0.0
  0
LINE
  5
EF
330
A
100
AcDbEntity
  8
TOP
  6
CONTINUOUS
 62
     3
100
AcDbLine
 10
16.4425926208496
 20
29.98095321655273
 30
0.0
 11
16.44904708862304
 21
29.98198127746582
 31
0.0
  0
LINE
  5
F0
330
A
100
AcDbEntity
  8
TOP
  6
CONTINUOUS
 62
     3
100
AcDbLine
 10
12.77184009552001
 20
22.68819236755371
 30
0.0
 11
12.75916481018066
 21
22.67554664611816
 31
0.0
  0
LINE
  5
F1
330
A
100
AcDbEntity
  8
TOP
  6
CONTINUOUS
 62
     3
100
AcDbLine
 10
14.01340770721435
 20
30.14479637145996
 30
0.0
 11
14.29399967193603
 21
30.42538833618164
 31
0.0
  0
LINE
  5
F2
330
A
100
AcDbEntity
  8
TOP
  6
CONTINUOUS
 62
     3
100
AcDbLine
 10
16.35706520080566
 20
14.45389080047607
 30
0.0
 11
16.40394020080566
 21
14.45384979248046
 31
0.0
  0
LINE
  5
F3
330
A
100
AcDbEntity
  8
TOP
  6
CONTINUOUS
 62
     3
100
AcDbLine
 10
25.10906982421875
 20
22.32413482666015
 30
0.0
 11
25.1089916229248
 21
22.39044570922851
 31
0.0
  0
LINE
  5
F4
330
A
100
AcDbEntity
  8
TOP
  6
CONTINUOUS
 62
     3
100
AcDbLine
 10
22.8589916229248
 20
30.14044570922851
 30
0.0
 11
22.85895919799804
 21
30.16788482666015
 31
0.0
  0
LINE
  5
F5
330
A
100
AcDbEntity
  8
TOP
  6
CONTINUOUS
 62
     3
100
AcDbLine
 10
25.10895919799804
 20
30.16788482666015
 30
0.0
 11
22.85895919799804
 21
30.16788482666015
 31
0.0
  0
LINE
  5
F6
330
A
100
AcDbEntity
  8
TOP
  6
CONTINUOUS
 62
     3
100
AcDbLine
 10
10.52666187286376
 20
30.07453918457031
 30
0.0
 11
10.52666473388671
 21
30.07494354248047
 31
0.0
  0
LINE
  5
F7
330
A
100
AcDbEntity
  8
TOP
  6
CONTINUOUS
 62
     3
100
AcDbLine
 10
12.1314582824707
 20
14.24855232238769
 30
0.0
 11
12.1555118560791
 21
14.20167732238769
 31
0.0
  0
LINE
  5
F8
330
A
100
AcDbEntity
  8
TOP
  6
CONTINUOUS
 62
     3
100
AcDbLine
 10
13.94408798217773
 20
29.99175834655761
 30
0.0
 11
13.89715766906738
 21
30.03857803344726
 31
0.0
  0
LINE
  5
F9
330
A
100
AcDbEntity
  8
TOP
  6
CONTINUOUS
 62
     3
100
AcDbLine
 10
16.29179763793945
 20
22.23038482666015
 30
0.0
 11
16.32502555847167
 21
22.23038482666015
 31
0.0
  0
LINE
  5
FA
330
A
100
AcDbEntity
  8
TOP
  6
CONTINUOUS
 62
     3
100
AcDbLine
 10
10.90166091918945
 20
14.2664566040039
 30
0.0
 11
10.90159511566162
 21
14.24855232238769
 31
0.0
  0
LINE
  5
FB
330
A
100
AcDbEntity
  8
TOP
  6
CONTINUOUS
 62
     3
100
AcDbLine
 10
13.35954475402832
 20
22.23038482666015
 30
0.0
 11
13.69355392456054
 21
22.23038482666015
 31
0.0
  0
LINE
  5
FC
330
A
100
AcDbEntity
  8
TOP
  6
CONTINUOUS
 62
     3
100
AcDbLine
 10
16.73666191101074
 20
13.5789566040039
 30
0.0
 11
16.77666091918945
 21
13.5789566040039
 31
0.0
  0
LINE
  5
FD
330
A
100
AcDbEntity
  8
TOP
  6
CONTINUOUS
 62
     3
100
AcDbLine
 10
14.92177104949951
 20
14.24855232238769
 30
0.0
 11
14.89766120910644
 21
14.20167732238769
 31
0.0
  0
LINE
  5
FE
330
A
100
AcDbEntity
  8
TOP
  6
CONTINUOUS
 62
     3
100
AcDbLine
 10
12.1555118560791
 20
14.20167732238769
 30
0.0
 11
12.1555118560791
 21
14.14373683929443
 31
0.0
  0
LINE
  5
FF
330
A
100
AcDbEntity
  8
TOP
  6
CONTINUOUS
 62
     3
100
AcDbLine
 10
13.94408798217773
 20
16.8914566040039
 30
0.0
 11
13.98309993743896
 21
16.90936088562011
 31
0.0
  0
LINE
  5
100
330
A
100
AcDbEntity
  8
TOP
  6
CONTINUOUS
 62
     3
100
AcDbLine
 10
22.50197601318359
 20
22.86305236816406
 30
0.0
 11
22.54885101318359
 21
22.88710594177246
 31
0.0
  0
LINE
  5
101
330
A
100
AcDbEntity
  8
TOP
  6
CONTINUOUS
 62
     3
100
AcDbLine
 10
22.51213645935058
 20
22.38360977172851
 30
0.0
 11
22.4905834197998
 21
22.35354232788086
 31
0.0
  0
LINE
  5
102
330
A
100
AcDbEntity
  8
TOP
  6
CONTINUOUS
 62
     3
100
AcDbLine
 10
22.49746131896972
 20
30.12240982055664
 30
0.0
 11
22.48748016357422
 21
30.13881683349609
 31
0.0
  0
LINE
  5
103
330
A
100
AcDbEntity
  8
TOP
  6
CONTINUOUS
 62
     3
100
AcDbLine
 10
12.1555118560791
 20
14.14373683929443
 30
0.0
 11
12.1314582824707
 21
14.09686183929443
 31
0.0
  0
LINE
  5
104
330
A
100
AcDbEntity
  8
TOP
  6
CONTINUOUS
 62
     3
100
AcDbLine
 10
25.48406982421875
 20
31.4941349029541
 30
0.0
 11
25.48406982421875
 21
20.90413475036621
 31
0.0
  0
LINE
  5
105
330
A
100
AcDbEntity
  8
TOP
  6
CONTINUOUS
 62
     3
100
AcDbLine
 10
14.14288234710693
 20
22.39042663574218
 30
0.0
 11
14.14284992218017
 21
22.41788482666015
 31
0.0
  0
LINE
  5
106
330
A
100
AcDbEntity
  8
TOP
  6
CONTINUOUS
 62
     3
100
AcDbLine
 10
14.17422103881835
 20
30.54545402526855
 30
0.0
 11
14.20732688903808
 21
30.51226806640625
 31
0.0
  0
LINE
  5
107
330
A
100
AcDbEntity
  8
TOP
  6
CONTINUOUS
 62
     3
100
AcDbLine
 10
13.52585887908935
 20
22.82413482666015
 30
0.0
 11
13.47892761230468
 21
22.8709545135498
 31
0.0
  0
LINE
  5
108
330
A
100
AcDbEntity
  8
TOP
  6
CONTINUOUS
 62
     3
100
AcDbLine
 10
10.68265914916992
 20
22.41783332824707
 30
0.0
 11
10.65919399261474
 21
22.41774368286133
 31
0.0
  0
LINE
  5
109
330
A
100
AcDbEntity
  8
TOP
  6
CONTINUOUS
 62
     3
100
AcDbLine
 10
14.6255350112915
 20
14.2664566040039
 30
0.0
 11
14.53429126739502
 21
14.2664566040039
 31
0.0
  0
LINE
  5
10A
330
A
100
AcDbEntity
  8
TOP
  6
CONTINUOUS
 62
     3
100
AcDbLine
 10
16.39857292175292
 20
29.9805736541748
 30
0.0
 11
16.40326309204101
 21
29.98133087158203
 31
0.0
  0
LINE
  5
10B
330
A
100
AcDbEntity
  8
TOP
  6
CONTINUOUS
 62
     3
100
AcDbLine
 10
12.87923049926757
 20
22.79532432556152
 30
0.0
 11
12.84604549407958
 21
22.76221847534179
 31
0.0
  0
LINE
  5
10C
330
A
100
AcDbEntity
  8
TOP
  6
CONTINUOUS
 62
     3
100
AcDbLine
 10
14.55916500091552
 20
30.42554664611816
 30
0.0
 11
14.81682395935058
 21
30.16788864135742
 31
0.0
  0
LINE
  5
10D
330
A
100
AcDbEntity
  8
TOP
  6
CONTINUOUS
 62
     3
100
AcDbLine
 10
13.16078281402587
 20
14.2664566040039
 30
0.0
 11
13.12177181243896
 21
14.24855232238769
 31
0.0
  0
LINE
  5
10E
330
A
100
AcDbEntity
  8
TOP
  6
CONTINUOUS
 62
     3
100
AcDbLine
 10
13.80129623413085
 20
14.2664566040039
 30
0.0
 11
13.69366645812988
 21
14.2664566040039
 31
0.0
  0
LINE
  5
10F
330
A
100
AcDbEntity
  8
TOP
  6
CONTINUOUS
 62
     3
100
AcDbLine
 10
25.48406982421875
 20
30.57413482666015
 30
0.0
 11
25.48098564147949
 21
30.59798622131348
 31
0.0
  0
LINE
  5
110
330
A
100
AcDbEntity
  8
TOP
  6
CONTINUOUS
 62
     3
100
AcDbLine
 10
22.57781982421875
 20
29.98038482666015
 30
0.0
 11
22.51152992248535
 21
30.00784301757812
 31
0.0
  0
LINE
  5
111
330
A
100
AcDbEntity
  8
TOP
  6
CONTINUOUS
 62
     3
100
AcDbLine
 10
13.69375705718994
 20
22.39998054504394
 30
0.0
 11
13.69370079040527
 21
22.35310554504394
 31
0.0
  0
LINE
  5
112
330
A
100
AcDbEntity
  8
TOP
  6
CONTINUOUS
 62
     3
100
AcDbLine
 10
14.2813549041748
 20
22.68806266784668
 30
0.0
 11
14.29399967193603
 21
22.67538833618164
 31
0.0
  0
LINE
  5
113
330
A
100
AcDbEntity
  8
TOP
  6
CONTINUOUS
 62
     3
100
AcDbLine
 10
12.02632808685302
 20
30.22288131713867
 30
0.0
 11
12.04186916351318
 21
30.20730400085449
 31
0.0
  0
LINE
  5
114
330
A
100
AcDbEntity
  8
TOP
  6
CONTINUOUS
 62
     3
100
AcDbLine
 10
25.32741737365722
 20
22.893648147583
 30
0.0
 11
25.3120002746582
 21
22.87565994262695
 31
0.0
  0
LINE
  5
115
330
A
100
AcDbEntity
  8
TOP
  6
CONTINUOUS
 62
     3
100
AcDbLine
 10
10.3566608428955
 20
20.90413475036621
 30
0.0
 11
10.30009269714355
 21
20.90413475036621
 31
0.0
  0
LINE
  5
116
330
A
100
AcDbEntity
  8
TOP
  6
CONTINUOUS
 62
     3
100
AcDbLine
 10
16.15177345275879
 20
22.23038482666015
 30
0.0
 11
16.20469856262207
 21
22.23038482666015
 31
0.0
  0
LINE
  5
117
330
A
100
AcDbEntity
  8
TOP
  6
CONTINUOUS
 62
     3
100
AcDbLine
 10
11.89355945587158
 20
14.20167732238769
 30
0.0
 11
11.89355945587158
 21
14.14373683929443
 31
0.0
  0
LINE
  5
118
330
A
100
AcDbEntity
  8
TOP
  6
CONTINUOUS
 62
     3
100
AcDbLine
 10
14.01340770721435
 20
22.39479637145996
 30
0.0
 11
14.29399967193603
 21
22.67538833618164
 31
0.0
  0
LINE
  5
119
330
A
100
AcDbEntity
  8
TOP
  6
CONTINUOUS
 62
     3
100
AcDbLine
 10
22.51213645935058
 20
30.13360977172851
 30
0.0
 11
22.4905834197998
 21
30.10354232788086
 31
0.0
  0
LINE
  5
11A
330
A
100
AcDbEntity
  8
TOP
  6
CONTINUOUS
 62
     3
100
AcDbLine
 10
16.73666191101074
 20
13.99895668029785
 30
0.0
 11
16.77666091918945
 21
13.99895668029785
 31
0.0
  0
LINE
  5
11B
330
A
100
AcDbEntity
  8
TOP
  6
CONTINUOUS
 62
     3
100
AcDbLine
 10
11.89355945587158
 20
14.14373683929443
 30
0.0
 11
11.89360046386718
 21
14.09686183929443
 31
0.0
  0
LINE
  5
11C
330
A
100
AcDbEntity
  8
TOP
  6
CONTINUOUS
 62
     3
100
AcDbLine
 10
14.2667064666748
 20
14.24855232238769
 30
0.0
 11
14.29075908660888
 21
14.20167732238769
 31
0.0
  0
LINE
  5
11D
330
A
100
AcDbEntity
  8
TOP
  6
CONTINUOUS
 62
     3
100
AcDbLine
 10
10.27666091918945
 20
13.99895668029785
 30
0.0
 11
10.27666091918945
 21
13.5789566040039
 31
0.0
  0
LINE
  5
11E
330
A
100
AcDbEntity
  8
TOP
  6
CONTINUOUS
 62
     3
100
AcDbLine
 10
22.49746131896972
 20
22.37240982055664
 30
0.0
 11
22.48748016357422
 21
22.38881683349609
 31
0.0
  0
LINE
  5
11F
330
A
100
AcDbEntity
  8
TOP
  6
CONTINUOUS
 62
     3
100
AcDbLine
 10
22.59918594360351
 20
22.41788482666015
 30
0.0
 11
22.57330322265624
 21
22.41521263122558
 31
0.0
  0
LINE
  5
120
330
A
100
AcDbEntity
  8
TOP
  6
CONTINUOUS
 62
     3
100
AcDbLine
 10
22.48407363891601
 20
30.0748291015625
 30
0.0
 11
22.48408126831054
 21
30.07552337646484
 31
0.0
  0
LINE
  5
121
330
A
100
AcDbEntity
  8
TOP
  6
CONTINUOUS
 62
     3
100
AcDbLine
 10
25.5640697479248
 20
20.82413482666015
 30
0.0
 11
25.98406982421875
 21
20.82413482666015
 31
0.0
  0
LINE
  5
122
330
A
100
AcDbEntity
  8
TOP
  6
CONTINUOUS
 62
     3
100
AcDbLine
 10
13.59383487701416
 20
21.7579231262207
 30
0.0
 11
13.57439517974853
 21
21.7773151397705
 31
0.0
  0
LINE
  5
123
330
A
100
AcDbEntity
  8
TOP
  6
CONTINUOUS
 62
     3
100
AcDbLine
 10
14.60502624511718
 20
30.47129821777343
 30
0.0
 11
14.57184028625488
 21
30.43819236755371
 31
0.0
  0
LINE
  5
124
330
A
100
AcDbEntity
  8
TOP
  6
CONTINUOUS
 62
     3
100
AcDbLine
 10
10.82026100158691
 20
22.41788482666015
 30
0.0
 11
10.76356601715087
 21
22.41788482666015
 31
0.0
  0
LINE
  5
125
330
A
100
AcDbEntity
  8
TOP
  6
CONTINUOUS
 62
     3
100
AcDbLine
 10
16.29179763793945
 20
29.98038482666015
 30
0.0
 11
16.32502555847167
 21
29.98038482666015
 31
0.0
  0
LINE
  5
126
330
A
100
AcDbEntity
  8
TOP
  6
CONTINUOUS
 62
     3
100
AcDbLine
 10
13.35962200164795
 20
22.29516410827636
 30
0.0
 11
13.35956573486328
 21
22.24828910827636
 31
0.0
  0
LINE
  5
127
330
A
100
AcDbEntity
  8
TOP
  6
CONTINUOUS
 62
     3
100
AcDbLine
 10
13.59383487701416
 20
29.5079231262207
 30
0.0
 11
14.01045894622802
 21
29.92554664611816
 31
0.0
  0
LINE
  5
128
330
A
100
AcDbEntity
  8
TOP
  6
CONTINUOUS
 62
     3
100
AcDbLine
 10
16.33916091918945
 20
16.7039566040039
 30
0.0
 11
16.35706520080566
 21
16.70389175415039
 31
0.0
  0
LINE
  5
129
330
A
100
AcDbEntity
  8
TOP
  6
CONTINUOUS
 62
     3
100
AcDbLine
 10
25.24307250976562
 20
30.16788482666015
 30
0.0
 11
25.19718742370605
 21
30.16788482666015
 31
0.0
  0
LINE
  5
12A
330
A
100
AcDbEntity
  8
TOP
  6
CONTINUOUS
 62
     3
100
AcDbLine
 10
22.57781982421875
 20
22.23038482666015
 30
0.0
 11
22.51152992248535
 21
22.25784301757812
 31
0.0
  0
LINE
  5
12B
330
A
100
AcDbEntity
  8
TOP
  6
CONTINUOUS
 62
     3
100
AcDbLine
 10
22.48406982421875
 20
30.07413482666015
 30
0.0
 11
22.50062942504882
 21
30.12733840942383
 31
0.0
  0
LINE
  5
12C
330
A
100
AcDbEntity
  8
TOP
  6
CONTINUOUS
 62
     3
100
AcDbLine
 10
13.86791896820068
 20
22.43119239807128
 30
0.0
 11
13.9065933227539
 21
22.39242362976074
 31
0.0
  0
LINE
  5
12D
330
A
100
AcDbEntity
  8
TOP
  6
CONTINUOUS
 62
     3
100
AcDbLine
 10
12.40732765197753
 20
30.51226806640625
 30
0.0
 11
12.44824886322021
 21
30.47124862670898
 31
0.0
  0
LINE
  5
12E
330
A
100
AcDbEntity
  8
TOP
  6
CONTINUOUS
 62
     3
100
AcDbLine
 10
12.49075889587402
 20
14.20167732238769
 30
0.0
 11
12.49075889587402
 21
14.14373683929443
 31
0.0
  0
LINE
  5
12F
330
A
100
AcDbEntity
  8
TOP
  6
CONTINUOUS
 62
     3
100
AcDbLine
 10
10.68265914916992
 20
30.16783332824707
 30
0.0
 11
10.65919399261474
 21
30.16774368286132
 31
0.0
  0
LINE
  5
130
330
A
100
AcDbEntity
  8
TOP
  6
CONTINUOUS
 62
     3
100
AcDbLine
 10
14.55916500091552
 20
22.67554664611816
 30
0.0
 11
14.81682395935058
 21
22.41788864135742
 31
0.0
  0
LINE
  5
131
330
A
100
AcDbEntity
  8
TOP
  6
CONTINUOUS
 62
     3
100
AcDbLine
 10
16.69666099548339
 20
13.99895668029785
 30
0.0
 11
16.69666099548339
 21
13.5789566040039
 31
0.0
  0
LINE
  5
132
330
A
100
AcDbEntity
  8
TOP
  6
CONTINUOUS
 62
     3
100
AcDbLine
 10
14.5624132156372
 20
14.14373683929443
 30
0.0
 11
14.58652400970459
 21
14.09686183929443
 31
0.0
  0
LINE
  5
133
330
A
100
AcDbEntity
  8
TOP
  6
CONTINUOUS
 62
     3
100
AcDbLine
 10
22.48407363891601
 20
22.3248291015625
 30
0.0
 11
22.48408126831054
 21
22.32552337646484
 31
0.0
  0
LINE
  5
134
330
A
100
AcDbEntity
  8
TOP
  6
CONTINUOUS
 62
     3
100
AcDbLine
 10
22.7250690460205
 20
22.23038482666015
 30
0.0
 11
22.77095413208007
 21
22.23038482666015
 31
0.0
  0
LINE
  5
135
330
A
100
AcDbEntity
  8
TOP
  6
CONTINUOUS
 62
     3
100
AcDbLine
 10
25.48406982421875
 20
30.07429122924804
 30
0.0
 11
25.48320198059082
 21
30.08686065673828
 31
0.0
  0
LINE
  5
136
330
A
100
AcDbEntity
  8
TOP
  6
CONTINUOUS
 62
     3
100
AcDbLine
 10
22.57781982421875
 20
29.98038482666015
 30
0.0
 11
22.58586120605468
 21
29.98038482666015
 31
0.0
  0
LINE
  5
137
330
A
100
AcDbEntity
  8
TOP
  6
CONTINUOUS
 62
     3
100
AcDbLine
 10
13.9910192489624
 20
22.19493865966796
 30
0.0
 11
13.94408798217773
 21
22.24175834655761
 31
0.0
  0
LINE
  5
138
330
A
100
AcDbEntity
  8
TOP
  6
CONTINUOUS
 62
     3
100
AcDbLine
 10
14.69190597534179
 20
30.55797004699707
 30
0.0
 11
14.67923069000244
 21
30.54532432556152
 31
0.0
  0
LINE
  5
139
330
A
100
AcDbEntity
  8
TOP
  6
CONTINUOUS
 62
     3
100
AcDbLine
 10
10.52888965606689
 20
22.34207153320312
 30
0.0
 11
10.52666091918945
 21
22.32413482666015
 31
0.0
  0
LINE
  5
13A
330
A
100
AcDbEntity
  8
TOP
  6
CONTINUOUS
 62
     3
100
AcDbLine
 10
16.15177345275879
 20
29.98038482666015
 30
0.0
 11
16.20469856262207
 21
29.98038482666015
 31
0.0
  0
LINE
  5
13B
330
A
100
AcDbEntity
  8
TOP
  6
CONTINUOUS
 62
     3
100
AcDbLine
 10
13.35976886749267
 20
22.41788482666015
 30
0.0
 11
13.35974788665771
 21
22.39998054504394
 31
0.0
  0
LINE
  5
13C
330
A
100
AcDbEntity
  8
TOP
  6
CONTINUOUS
 62
     3
100
AcDbLine
 10
13.1723575592041
 20
17.01417732238769
 30
0.0
 11
13.14824676513671
 21
17.06105232238769
 31
0.0
  0
LINE
  5
13D
330
A
100
AcDbEntity
  8
TOP
  6
CONTINUOUS
 62
     3
100
AcDbLine
 10
10.69625663757324
 20
14.45402240753173
 30
0.0
 11
10.64938163757324
 21
14.45406341552734
 31
0.0
  0
LINE
  5
13E
330
A
100
AcDbEntity
  8
TOP
  6
CONTINUOUS
 62
     3
100
AcDbLine
 10
16.15176773071289
 20
16.95623588562011
 30
0.0
 11
16.15176773071289
 21
17.01417732238769
 31
0.0
  0
LINE
  5
13F
330
A
100
AcDbEntity
  8
TOP
  6
CONTINUOUS
 62
     3
100
AcDbLine
 10
22.48406982421875
 20
22.32413482666015
 30
0.0
 11
22.50106239318847
 21
22.37796020507812
 31
0.0
  0
LINE
  5
140
330
A
100
AcDbEntity
  8
TOP
  6
CONTINUOUS
 62
     3
100
AcDbLine
 10
22.60679054260254
 20
29.51116371154785
 30
0.0
 11
22.54885101318359
 21
29.51116371154785
 31
0.0
  0
LINE
  5
141
330
A
100
AcDbEntity
  8
TOP
  6
CONTINUOUS
 62
     3
100
AcDbLine
 10
25.29656982421875
 20
22.82413482666015
 30
0.0
 11
25.29656982421875
 21
22.81873130798339
 31
0.0
  0
LINE
  5
142
330
A
100
AcDbEntity
  8
TOP
  6
CONTINUOUS
 62
     3
100
AcDbLine
 10
16.69666099548339
 20
31.55070304870605
 30
0.0
 11
16.69666099548339
 21
31.57413482666015
 31
0.0
  0
LINE
  5
143
330
A
100
AcDbEntity
  8
TOP
  6
CONTINUOUS
 62
     3
100
AcDbLine
 10
10.82026100158691
 20
30.16788482666015
 30
0.0
 11
10.76356601715087
 21
30.16788482666015
 31
0.0
  0
LINE
  5
144
330
A
100
AcDbEntity
  8
TOP
  6
CONTINUOUS
 62
     3
100
AcDbLine
 10
14.14307403564453
 20
22.23038482666015
 30
0.0
 11
16.15177345275879
 21
22.23038482666015
 31
0.0
  0
LINE
  5
145
330
A
100
AcDbEntity
  8
TOP
  6
CONTINUOUS
 62
     3
100
AcDbLine
 10
16.4290714263916
 20
22.23038482666015
 30
0.0
 11
16.43291091918945
 21
22.23038482666015
 31
0.0
  0
LINE
  5
146
330
A
100
AcDbEntity
  8
TOP
  6
CONTINUOUS
 62
     3
100
AcDbLine
 10
25.29656982421875
 20
22.81873130798339
 30
0.0
 11
25.29656982421875
 21
22.80272483825683
 31
0.0
  0
LINE
  5
147
330
A
100
AcDbEntity
  8
TOP
  6
CONTINUOUS
 62
     3
100
AcDbLine
 10
14.6255350112915
 20
14.2664566040039
 30
0.0
 11
14.58652400970459
 21
14.24855232238769
 31
0.0
  0
LINE
  5
148
330
A
100
AcDbEntity
  8
TOP
  6
CONTINUOUS
 62
     3
100
AcDbLine
 10
10.52666187286376
 20
22.32453918457031
 30
0.0
 11
10.52666473388671
 21
22.32494354248046
 31
0.0
  0
LINE
  5
149
330
A
100
AcDbEntity
  8
TOP
  6
CONTINUOUS
 62
     3
100
AcDbLine
 10
25.48406982421875
 20
22.32429122924804
 30
0.0
 11
25.48320198059082
 21
22.33686065673828
 31
0.0
  0
LINE
  5
14A
330
A
100
AcDbEntity
  8
TOP
  6
CONTINUOUS
 62
     3
100
AcDbLine
 10
22.60790252685546
 20
22.23038482666015
 30
0.0
 11
22.64064216613769
 21
22.23038482666015
 31
0.0
  0
LINE
  5
14B
330
A
100
AcDbEntity
  8
TOP
  6
CONTINUOUS
 62
     3
100
AcDbLine
 10
25.41929054260254
 20
30.55472946166992
 30
0.0
 11
25.36135101318359
 21
30.55472946166992
 31
0.0
  0
LINE
  5
14C
330
A
100
AcDbEntity
  8
TOP
  6
CONTINUOUS
 62
     3
100
AcDbLine
 10
22.48406982421875
 20
22.40651130676269
 30
0.0
 11
22.48407554626465
 21
22.35998535156249
 31
0.0
  0
LINE
  5
14D
330
A
100
AcDbEntity
  8
TOP
  6
CONTINUOUS
 62
     3
100
AcDbLine
 10
10.3566608428955
 20
13.99895668029785
 30
0.0
 11
16.69666099548339
 21
13.99895668029785
 31
0.0
  0
LINE
  5
14E
330
A
100
AcDbEntity
  8
TOP
  6
CONTINUOUS
 62
     3
100
AcDbLine
 10
13.94408798217773
 20
22.24175834655761
 30
0.0
 11
13.89715766906738
 21
22.28857803344726
 31
0.0
  0
LINE
  5
14F
330
A
100
AcDbEntity
  8
TOP
  6
CONTINUOUS
 62
     3
100
AcDbLine
 10
16.52666091918945
 20
30.07406044006347
 30
0.0
 11
16.52666091918945
 21
30.07413482666015
 31
0.0
  0
LINE
  5
150
330
A
100
AcDbEntity
  8
TOP
  6
CONTINUOUS
 62
     3
100
AcDbLine
 10
10.56159400939941
 20
22.39578628540038
 30
0.0
 11
10.54650592803955
 21
22.37957000732421
 31
0.0
  0
LINE
  5
151
330
A
100
AcDbEntity
  8
TOP
  6
CONTINUOUS
 62
     3
100
AcDbLine
 10
14.03533267974853
 20
16.8914566040039
 30
0.0
 11
14.14296245574951
 21
16.8914566040039
 31
0.0
  0
LINE
  5
152
330
A
100
AcDbEntity
  8
TOP
  6
CONTINUOUS
 62
     3
100
AcDbLine
 10
10.79413509368896
 20
22.23038482666015
 30
0.0
 11
10.90177345275878
 21
22.23038482666015
 31
0.0
  0
LINE
  5
153
330
A
100
AcDbEntity
  8
TOP
  6
CONTINUOUS
 62
     3
100
AcDbLine
 10
13.1092357635498
 20
16.8914566040039
 30
0.0
 11
13.14824676513671
 21
16.90936088562011
 31
0.0
  0
LINE
  5
154
330
A
100
AcDbEntity
  8
TOP
  6
CONTINUOUS
 62
     3
100
AcDbLine
 10
10.55412006378173
 20
22.25784301757812
 30
0.0
 11
10.52666091918945
 21
22.32413482666015
 31
0.0
  0
LINE
  5
155
330
A
100
AcDbEntity
  8
TOP
  6
CONTINUOUS
 62
     3
100
AcDbLine
 10
22.67156982421874
 20
22.41788482666015
 30
0.0
 11
22.67156982421874
 21
22.82413482666015
 31
0.0
  0
LINE
  5
156
330
A
100
AcDbEntity
  8
TOP
  6
CONTINUOUS
 62
     3
100
AcDbLine
 10
14.14302825927734
 20
17.06105232238769
 30
0.0
 11
14.14296245574951
 21
17.0789566040039
 31
0.0
  0
LINE
  5
157
330
A
100
AcDbEntity
  8
TOP
  6
CONTINUOUS
 62
     3
100
AcDbLine
 10
13.89253997802734
 20
14.2664566040039
 30
0.0
 11
13.80129623413085
 21
14.2664566040039
 31
0.0
  0
LINE
  5
158
330
A
100
AcDbEntity
  8
TOP
  6
CONTINUOUS
 62
     3
100
AcDbLine
 10
13.35965728759765
 20
14.2664566040039
 30
0.0
 11
13.25202751159668
 21
14.2664566040039
 31
0.0
  0
LINE
  5
159
330
A
100
AcDbEntity
  8
TOP
  6
CONTINUOUS
 62
     3
100
AcDbLine
 10
10.90166091918945
 20
22.32413482666015
 30
0.0
 11
10.90158176422119
 21
22.39042663574218
 31
0.0
  0
LINE
  5
15A
330
A
100
AcDbEntity
  8
TOP
  6
CONTINUOUS
 62
     3
100
AcDbLine
 10
12.82553577423095
 20
14.2664566040039
 30
0.0
 11
12.73429107666015
 21
14.2664566040039
 31
0.0
  0
LINE
  5
15B
330
A
100
AcDbEntity
  8
TOP
  6
CONTINUOUS
 62
     3
100
AcDbLine
 10
22.50044441223144
 20
29.95437240600586
 30
0.0
 11
22.48407363891601
 21
29.99119186401367
 31
0.0
  0
LINE
  5
15C
330
A
100
AcDbEntity
  8
TOP
  6
CONTINUOUS
 62
     3
100
AcDbLine
 10
12.91028213500976
 20
22.39042663574218
 30
0.0
 11
12.91024875640869
 21
22.41788482666015
 31
0.0
  0
LINE
  5
15D
330
A
100
AcDbEntity
  8
TOP
  6
CONTINUOUS
 62
     3
100
AcDbLine
 10
14.17422103881835
 20
22.79545402526855
 30
0.0
 11
14.20732688903808
 21
22.76226806640625
 31
0.0
  0
LINE
  5
15E
330
A
100
AcDbEntity
  8
TOP
  6
CONTINUOUS
 62
     3
100
AcDbLine
 10
12.87923049926757
 20
30.54532432556152
 30
0.0
 11
12.84604549407958
 21
30.51221847534179
 31
0.0
  0
LINE
  5
15F
330
A
100
AcDbEntity
  8
TOP
  6
CONTINUOUS
 62
     3
100
AcDbLine
 10
16.75322914123535
 20
31.4941349029541
 30
0.0
 11
16.77666091918945
 21
31.4941349029541
 31
0.0
  0
LINE
  5
160
330
A
100
AcDbEntity
  8
TOP
  6
CONTINUOUS
 62
     3
100
AcDbLine
 10
10.52888965606689
 20
30.09207153320312
 30
0.0
 11
10.52666091918945
 21
30.07413482666015
 31
0.0
  0
LINE
  5
161
330
A
100
AcDbEntity
  8
TOP
  6
CONTINUOUS
 62
     3
100
AcDbLine
 10
13.87771797180175
 20
22.30797004699707
 30
0.0
 11
13.46109390258789
 21
21.89034652709961
 31
0.0
  0
LINE
  5
162
330
A
100
AcDbEntity
  8
TOP
  6
CONTINUOUS
 62
     3
100
AcDbLine
 10
16.35045623779296
 20
22.41788482666015
 30
0.0
 11
16.25918769836425
 21
22.41788482666015
 31
0.0
  0
LINE
  5
163
330
A
100
AcDbEntity
  8
TOP
  6
CONTINUOUS
 62
     3
100
AcDbLine
 10
10.3566608428955
 20
14.0555248260498
 30
0.0
 11
10.3566608428955
 21
13.99895668029785
 31
0.0
  0
LINE
  5
164
330
A
100
AcDbEntity
  8
TOP
  6
CONTINUOUS
 62
     3
100
AcDbLine
 10
10.90155410766601
 20
14.14373683929443
 30
0.0
 11
10.90159511566162
 21
14.09686183929443
 31
0.0
  0
LINE
  5
165
330
A
100
AcDbEntity
  8
TOP
  6
CONTINUOUS
 62
     3
100
AcDbLine
 10
10.90177345275878
 20
22.23038482666015
 30
0.0
 11
10.90174102783203
 21
22.25784301757812
 31
0.0
  0
LINE
  5
166
330
A
100
AcDbEntity
  8
TOP
  6
CONTINUOUS
 62
     3
100
AcDbLine
 10
10.90166091918945
 20
16.8914566040039
 30
0.0
 11
10.90172672271728
 21
16.90936088562011
 31
0.0
  0
LINE
  5
167
330
A
100
AcDbEntity
  8
TOP
  6
CONTINUOUS
 62
     3
100
AcDbLine
 10
14.89766120910644
 20
14.20167732238769
 30
0.0
 11
14.89766120910644
 21
14.14373683929443
 31
0.0
  0
LINE
  5
168
330
A
100
AcDbEntity
  8
TOP
  6
CONTINUOUS
 62
     3
100
AcDbLine
 10
25.41929054260254
 20
22.80472946166992
 30
0.0
 11
25.36135101318359
 21
22.80472946166992
 31
0.0
  0
LINE
  5
169
330
A
100
AcDbEntity
  8
TOP
  6
CONTINUOUS
 62
     3
100
AcDbLine
 10
25.32290458679199
 20
30.2025203704834
 30
0.0
 11
25.29800415039062
 21
30.16804122924805
 31
0.0
  0
LINE
  5
16A
330
A
100
AcDbEntity
  8
TOP
  6
CONTINUOUS
 62
     3
100
AcDbLine
 10
10.90174102783203
 20
22.25784301757812
 30
0.0
 11
10.90166091918945
 21
22.32413482666015
 31
0.0
  0
LINE
  5
16B
330
A
100
AcDbEntity
  8
TOP
  6
CONTINUOUS
 62
     3
100
AcDbLine
 10
11.89366626739501
 20
14.2664566040039
 30
0.0
 11
11.89360046386718
 21
14.24855232238769
 31
0.0
  0
LINE
  5
16C
330
A
100
AcDbEntity
  8
TOP
  6
CONTINUOUS
 62
     3
100
AcDbLine
 10
13.47892761230468
 20
30.6209545135498
 30
0.0
 11
13.45948886871338
 21
30.64034652709961
 31
0.0
  0
LINE
  5
16D
330
A
100
AcDbEntity
  8
TOP
  6
CONTINUOUS
 62
     3
100
AcDbLine
 10
16.52666091918945
 20
30.07413482666015
 30
0.0
 11
16.49920272827148
 21
30.14042663574219
 31
0.0
  0
LINE
  5
16E
330
A
100
AcDbEntity
  8
TOP
  6
CONTINUOUS
 62
     3
100
AcDbLine
 10
10.60427474975585
 20
22.41628837585449
 30
0.0
 11
10.59660530090332
 21
22.4144287109375
 31
0.0
  0
LINE
  5
16F
330
A
100
AcDbEntity
  8
TOP
  6
CONTINUOUS
 62
     3
100
AcDbLine
 10
12.91036128997802
 20
22.32413482666015
 30
0.0
 11
12.91028213500976
 21
22.39042663574218
 31
0.0
  0
LINE
  5
170
330
A
100
AcDbEntity
  8
TOP
  6
CONTINUOUS
 62
     3
100
AcDbLine
 10
10.62041091918945
 20
22.23038482666015
 30
0.0
 11
10.64186286926269
 21
22.23038482666015
 31
0.0
  0
LINE
  5
171
330
A
100
AcDbEntity
  8
TOP
  6
CONTINUOUS
 62
     3
100
AcDbLine
 10
10.90176773071289
 20
16.95623588562011
 30
0.0
 11
10.90176773071289
 21
17.01417732238769
 31
0.0
  0
LINE
  5
172
330
A
100
AcDbEntity
  8
TOP
  6
CONTINUOUS
 62
     3
100
AcDbLine
 10
16.25918769836425
 20
30.16788482666015
 30
0.0
 11
16.15154838562011
 21
30.16788482666015
 31
0.0
  0
LINE
  5
173
330
A
100
AcDbEntity
  8
TOP
  6
CONTINUOUS
 62
     3
100
AcDbLine
 10
10.90176773071289
 20
17.01417732238769
 30
0.0
 11
10.90172672271728
 21
17.06105232238769
 31
0.0
  0
LINE
  5
174
330
A
100
AcDbEntity
  8
TOP
  6
CONTINUOUS
 62
     3
100
AcDbLine
 10
14.14302825927734
 20
16.90936088562011
 30
0.0
 11
14.14306926727294
 21
16.95623588562011
 31
0.0
  0
LINE
  5
175
330
A
100
AcDbEntity
  8
TOP
  6
CONTINUOUS
 62
     3
100
AcDbLine
 10
22.50044441223144
 20
22.20437240600586
 30
0.0
 11
22.48407363891601
 21
22.24119186401367
 31
0.0
  0
LINE
  5
176
330
A
100
AcDbEntity
  8
TOP
  6
CONTINUOUS
 62
     3
100
AcDbLine
 10
22.64530181884765
 20
29.9457950592041
 30
0.0
 11
22.59755325317382
 21
29.92703056335449
 31
0.0
  0
LINE
  5
177
330
A
100
AcDbEntity
  8
TOP
  6
CONTINUOUS
 62
     3
100
AcDbLine
 10
10.90172672271728
 20
17.06105232238769
 30
0.0
 11
10.90166091918945
 21
17.0789566040039
 31
0.0
  0
LINE
  5
178
330
A
100
AcDbEntity
  8
TOP
  6
CONTINUOUS
 62
     3
100
AcDbLine
 10
25.4185733795166
 20
22.24039459228515
 30
0.0
 11
25.45600509643554
 21
22.26465988159179
 31
0.0
  0
LINE
  5
179
330
A
100
AcDbEntity
  8
TOP
  6
CONTINUOUS
 62
     3
100
AcDbLine
 10
14.60502624511718
 20
22.72129821777344
 30
0.0
 11
14.57184028625488
 21
22.68819236755371
 31
0.0
  0
LINE
  5
17A
330
A
100
AcDbEntity
  8
TOP
  6
CONTINUOUS
 62
     3
100
AcDbLine
 10
25.29656982421875
 20
22.80272483825683
 30
0.0
 11
25.29656982421875
 21
22.77673530578613
 31
0.0
  0
LINE
  5
17B
330
A
100
AcDbEntity
  8
TOP
  6
CONTINUOUS
 62
     3
100
AcDbLine
 10
13.35962200164795
 20
30.04516410827636
 30
0.0
 11
13.35956573486328
 21
29.99828910827636
 31
0.0
  0
LINE
  5
17C
330
A
100
AcDbEntity
  8
TOP
  6
CONTINUOUS
 62
     3
100
AcDbLine
 10
16.69666099548339
 20
20.90413475036621
 30
0.0
 11
16.75322914123535
 21
20.90413475036621
 31
0.0
  0
LINE
  5
17D
330
A
100
AcDbEntity
  8
TOP
  6
CONTINUOUS
 62
     3
100
AcDbLine
 10
10.56159400939941
 20
30.14578628540039
 30
0.0
 11
10.54650592803955
 21
30.12957000732422
 31
0.0
  0
LINE
  5
17E
330
A
100
AcDbEntity
  8
TOP
  6
CONTINUOUS
 62
     3
100
AcDbLine
 10
10.90177345275878
 20
29.98038482666015
 30
0.0
 11
12.91047382354736
 21
29.98038482666015
 31
0.0
  0
LINE
  5
17F
330
A
100
AcDbEntity
  8
TOP
  6
CONTINUOUS
 62
     3
100
AcDbLine
 10
13.1092357635498
 20
22.40651130676269
 30
0.0
 11
13.06230449676513
 21
22.45332908630371
 31
0.0
  0
LINE
  5
180
330
A
100
AcDbEntity
  8
TOP
  6
CONTINUOUS
 62
     3
100
AcDbLine
 10
13.09766101837158
 20
14.20167732238769
 30
0.0
 11
13.09766101837158
 21
14.14373683929443
 31
0.0
  0
LINE
  5
181
330
A
100
AcDbEntity
  8
TOP
  6
CONTINUOUS
 62
     3
100
AcDbLine
 10
12.91042709350586
 20
16.90936088562011
 30
0.0
 11
12.91046810150146
 21
16.95623588562011
 31
0.0
  0
LINE
  5
182
330
A
100
AcDbEntity
  8
TOP
  6
CONTINUOUS
 62
     3
100
AcDbLine
 10
25.32290458679199
 20
22.45252037048339
 30
0.0
 11
25.29800415039062
 21
22.41804122924804
 31
0.0
  0
LINE
  5
183
330
A
100
AcDbEntity
  8
TOP
  6
CONTINUOUS
 62
     3
100
AcDbLine
 10
22.7773208618164
 20
22.41788482666015
 30
0.0
 11
22.70272254943847
 21
22.41788482666015
 31
0.0
  0
LINE
  5
184
330
A
100
AcDbEntity
  8
TOP
  6
CONTINUOUS
 62
     3
100
AcDbLine
 10
25.48406982421875
 20
22.82413482666015
 30
0.0
 11
25.48098564147949
 21
22.84798622131347
 31
0.0
  0
LINE
  5
185
330
A
100
AcDbEntity
  8
TOP
  6
CONTINUOUS
 62
     3
100
AcDbLine
 10
22.48406982421875
 20
22.82413482666015
 30
0.0
 11
22.48406982421875
 21
22.40651130676269
 31
0.0
  0
LINE
  5
186
330
A
100
AcDbEntity
  8
TOP
  6
CONTINUOUS
 62
     3
100
AcDbLine
 10
25.37858009338378
 20
22.91714668273925
 30
0.0
 11
25.34478759765625
 21
22.90608406066894
 31
0.0
  0
LINE
  5
187
330
A
100
AcDbEntity
  8
TOP
  6
CONTINUOUS
 62
     3
100
AcDbLine
 10
13.06230449676513
 20
22.45332908630371
 30
0.0
 11
13.04286479949951
 21
22.47272300720215
 31
0.0
  0
LINE
  5
188
330
A
100
AcDbEntity
  8
TOP
  6
CONTINUOUS
 62
     3
100
AcDbLine
 10
12.91046810150146
 20
16.95623588562011
 30
0.0
 11
12.91046810150146
 21
17.01417732238769
 31
0.0
  0
LINE
  5
189
330
A
100
AcDbEntity
  8
TOP
  6
CONTINUOUS
 62
     3
100
AcDbLine
 10
13.17560577392578
 20
30.09029960632324
 30
0.0
 11
13.15616703033447
 21
30.10969161987304
 31
0.0
  0
LINE
  5
18A
330
A
100
AcDbEntity
  8
TOP
  6
CONTINUOUS
 62
     3
100
AcDbLine
 10
16.1515827178955
 20
30.14042663574219
 30
0.0
 11
16.15154838562011
 21
30.16788482666015
 31
0.0
  0
LINE
  5
18B
330
A
100
AcDbEntity
  8
TOP
  6
CONTINUOUS
 62
     3
100
AcDbLine
 10
16.52443313598632
 20
22.30619621276855
 30
0.0
 11
16.52666091918945
 21
22.32413482666015
 31
0.0
  0
LINE
  5
18C
330
A
100
AcDbEntity
  8
TOP
  6
CONTINUOUS
 62
     3
100
AcDbLine
 10
25.47755813598632
 20
22.29472732543945
 30
0.0
 11
25.48406982421875
 21
22.32413482666015
 31
0.0
  0
LINE
  5
18D
330
A
100
AcDbEntity
  8
TOP
  6
CONTINUOUS
 62
     3
100
AcDbLine
 10
16.43291091918945
 20
30.16788482666015
 30
0.0
 11
16.41145896911621
 21
30.16788482666015
 31
0.0
  0
LINE
  5
18E
330
A
100
AcDbEntity
  8
TOP
  6
CONTINUOUS
 62
     3
100
AcDbLine
 10
12.91046810150146
 20
17.01417732238769
 30
0.0
 11
12.91042709350586
 21
17.06105232238769
 31
0.0
  0
LINE
  5
18F
330
A
100
AcDbEntity
  8
TOP
  6
CONTINUOUS
 62
     3
100
AcDbLine
 10
25.37003135681152
 20
29.98260688781738
 30
0.0
 11
25.42493438720703
 21
29.98700904846191
 31
0.0
  0
LINE
  5
190
330
A
100
AcDbEntity
  8
TOP
  6
CONTINUOUS
 62
     3
100
AcDbLine
 10
13.15616703033447
 20
22.35969161987304
 30
0.0
 11
13.1092357635498
 21
22.40651130676269
 31
0.0
  0
LINE
  5
191
330
A
100
AcDbEntity
  8
TOP
  6
CONTINUOUS
 62
     3
100
AcDbLine
 10
13.59058666229248
 20
17.01417732238769
 30
0.0
 11
13.56647586822509
 21
17.06105232238769
 31
0.0
  0
LINE
  5
192
330
A
100
AcDbEntity
  8
TOP
  6
CONTINUOUS
 62
     3
100
AcDbLine
 10
22.64530181884765
 20
22.1957950592041
 30
0.0
 11
22.59755325317382
 21
22.17703056335449
 31
0.0
  0
LINE
  5
193
330
A
100
AcDbEntity
  8
TOP
  6
CONTINUOUS
 62
     3
100
AcDbLine
 10
25.19718742370605
 20
30.16788482666015
 30
0.0
 11
25.15193367004394
 21
30.16788482666015
 31
0.0
  0
LINE
  5
194
330
A
100
AcDbEntity
  8
TOP
  6
CONTINUOUS
 62
     3
100
AcDbLine
 10
25.98406982421875
 20
31.53413391113281
 30
0.0
 11
25.98406982421875
 21
31.57413482666015
 31
0.0
  0
LINE
  5
195
330
A
100
AcDbEntity
  8
TOP
  6
CONTINUOUS
 62
     3
100
AcDbLine
 10
25.44942474365234
 20
22.89690589904785
 30
0.0
 11
25.4249324798584
 21
22.9112606048584
 31
0.0
  0
LINE
  5
196
330
A
100
AcDbEntity
  8
TOP
  6
CONTINUOUS
 62
     3
100
AcDbLine
 10
13.93145847320556
 20
14.09686183929443
 30
0.0
 11
13.89253997802734
 21
14.0789566040039
 31
0.0
  0
LINE
  5
197
330
A
100
AcDbEntity
  8
TOP
  6
CONTINUOUS
 62
     3
100
AcDbLine
 10
14.69190597534179
 20
22.80797004699707
 30
0.0
 11
14.67923069000244
 21
22.79532432556152
 31
0.0
  0
LINE
  5
198
330
A
100
AcDbEntity
  8
TOP
  6
CONTINUOUS
 62
     3
100
AcDbLine
 10
13.35976886749267
 20
30.16788482666015
 30
0.0
 11
13.35974788665771
 21
30.14998054504394
 31
0.0
  0
LINE
  5
199
330
A
100
AcDbEntity
  8
TOP
  6
CONTINUOUS
 62
     3
100
AcDbLine
 10
10.3566608428955
 20
20.90413475036621
 30
0.0
 11
10.3566608428955
 21
31.4941349029541
 31
0.0
  0
LINE
  5
19A
330
A
100
AcDbEntity
  8
TOP
  6
CONTINUOUS
 62
     3
100
AcDbLine
 10
10.60427474975585
 20
30.16628837585449
 30
0.0
 11
10.59660530090332
 21
30.1644287109375
 31
0.0
  0
LINE
  5
19B
330
A
100
AcDbEntity
  8
TOP
  6
CONTINUOUS
 62
     3
100
AcDbLine
 10
12.36157608032226
 20
30.55812835693359
 30
0.0
 11
12.02632808685302
 21
30.22288131713867
 31
0.0
  0
LINE
  5
19C
330
A
100
AcDbEntity
  8
TOP
  6
CONTINUOUS
 62
     3
100
AcDbLine
 10
25.40487670898437
 20
22.916748046875
 30
0.0
 11
25.37858009338378
 21
22.91714668273925
 31
0.0
  0
LINE
  5
19D
330
A
100
AcDbEntity
  8
TOP
  6
CONTINUOUS
 62
     3
100
AcDbLine
 10
15.15959072113037
 20
14.24855232238769
 30
0.0
 11
15.15954971313476
 21
14.20167732238769
 31
0.0
  0
LINE
  5
19E
330
A
100
AcDbEntity
  8
TOP
  6
CONTINUOUS
 62
     3
100
AcDbLine
 10
13.59222984313964
 20
22.7579231262207
 30
0.0
 11
13.57279014587402
 21
22.77731704711914
 31
0.0
  0
LINE
  5
19F
330
A
100
AcDbEntity
  8
TOP
  6
CONTINUOUS
 62
     3
100
AcDbLine
 10
13.52746486663818
 20
16.8914566040039
 30
0.0
 11
13.94408798217773
 21
16.8914566040039
 31
0.0
  0
LINE
  5
1A0
330
A
100
AcDbEntity
  8
TOP
  6
CONTINUOUS
 62
     3
100
AcDbLine
 10
25.42493438720703
 20
29.98700904846191
 30
0.0
 11
25.4678897857666
 21
30.021484375
 31
0.0
  0
LINE
  5
1A1
330
A
100
AcDbEntity
  8
TOP
  6
CONTINUOUS
 62
     3
100
AcDbLine
 10
14.96078300476074
 20
14.2664566040039
 30
0.0
 11
14.6255350112915
 21
14.2664566040039
 31
0.0
  0
LINE
  5
1A2
330
A
100
AcDbEntity
  8
TOP
  6
CONTINUOUS
 62
     3
100
AcDbLine
 10
12.91044044494628
 20
30.00784301757812
 30
0.0
 11
12.91036128997802
 21
30.07413482666015
 31
0.0
  0
LINE
  5
1A3
330
A
100
AcDbEntity
  8
TOP
  6
CONTINUOUS
 62
     3
100
AcDbLine
 10
14.14307403564453
 20
29.98038482666015
 30
0.0
 11
14.14304161071777
 21
30.00784301757812
 31
0.0
  0
LINE
  5
1A4
330
A
100
AcDbEntity
  8
TOP
  6
CONTINUOUS
 62
     3
100
AcDbLine
 10
16.49172782897949
 20
22.25248336791992
 30
0.0
 11
16.50681686401367
 21
22.26869964599609
 31
0.0
  0
LINE
  5
1A5
330
A
100
AcDbEntity
  8
TOP
  6
CONTINUOUS
 62
     3
100
AcDbLine
 10
25.39483642578125
 20
22.23305702209472
 30
0.0
 11
25.4185733795166
 21
22.24039459228515
 31
0.0
  0
LINE
  5
1A6
330
A
100
AcDbEntity
  8
TOP
  6
CONTINUOUS
 62
     3
100
AcDbLine
 10
13.45948886871338
 20
22.89034652709961
 30
0.0
 11
13.04286479949951
 21
22.47272300720215
 31
0.0
  0
LINE
  5
1A7
330
A
100
AcDbEntity
  8
TOP
  6
CONTINUOUS
 62
     3
100
AcDbLine
 10
10.90172672271728
 20
16.90936088562011
 30
0.0
 11
10.90176773071289
 21
16.95623588562011
 31
0.0
  0
LINE
  5
1A8
330
A
100
AcDbEntity
  8
TOP
  6
CONTINUOUS
 62
     3
100
AcDbLine
 10
13.52746486663818
 20
16.8914566040039
 30
0.0
 11
13.56647586822509
 21
16.90936088562011
 31
0.0
  0
LINE
  5
1A9
330
A
100
AcDbEntity
  8
TOP
  6
CONTINUOUS
 62
     3
100
AcDbLine
 10
13.1092357635498
 20
17.0789566040039
 30
0.0
 11
13.017991065979
 21
17.0789566040039
 31
0.0
  0
LINE
  5
1AA
330
A
100
AcDbEntity
  8
TOP
  6
CONTINUOUS
 62
     3
100
AcDbLine
 10
22.54885101318359
 20
30.51116371154785
 30
0.0
 11
22.50197601318359
 21
30.53521728515625
 31
0.0
  0
LINE
  5
1AB
330
A
100
AcDbEntity
  8
TOP
  6
CONTINUOUS
 62
     3
100
AcDbLine
 10
25.5640697479248
 20
31.53413391113281
 30
0.0
 11
25.5640697479248
 21
31.57413482666015
 31
0.0
  0
LINE
  5
1AC
330
A
100
AcDbEntity
  8
TOP
  6
CONTINUOUS
 62
     3
100
AcDbLine
 10
10.52666091918945
 20
22.32413482666015
 30
0.0
 11
10.52666187286376
 21
22.32453918457031
 31
0.0
  0
LINE
  5
1AD
330
A
100
AcDbEntity
  8
TOP
  6
CONTINUOUS
 62
     3
100
AcDbLine
 10
16.52666091918945
 20
22.32406044006347
 30
0.0
 11
16.52666091918945
 21
22.32413482666015
 31
0.0
  0
LINE
  5
1AE
330
A
100
AcDbEntity
  8
TOP
  6
CONTINUOUS
 62
     3
100
AcDbLine
 10
13.69370079040527
 20
30.10310554504394
 30
0.0
 11
13.69363212585449
 21
30.04516410827636
 31
0.0
  0
LINE
  5
1AF
330
A
100
AcDbEntity
  8
TOP
  6
CONTINUOUS
 62
     3
100
AcDbLine
 10
16.52443313598632
 20
30.05619621276855
 30
0.0
 11
16.52666091918945
 21
30.07413482666015
 31
0.0
  0
LINE
  5
1B0
330
A
100
AcDbEntity
  8
TOP
  6
CONTINUOUS
 62
     3
100
AcDbLine
 10
13.13489723205566
 20
30.31497764587402
 30
0.0
 11
12.89190578460693
 21
30.55797004699707
 31
0.0
  0
LINE
  5
1B1
330
A
100
AcDbEntity
  8
TOP
  6
CONTINUOUS
 62
     3
100
AcDbLine
 10
10.64186286926269
 20
29.98038482666015
 30
0.0
 11
10.70286655426025
 21
29.98038482666015
 31
0.0
  0
LINE
  5
1B2
330
A
100
AcDbEntity
  8
TOP
  6
CONTINUOUS
 62
     3
100
AcDbLine
 10
25.29656982421875
 20
30.57413482666015
 30
0.0
 11
25.29656982421875
 21
30.5687313079834
 31
0.0
  0
LINE
  5
1B3
330
A
100
AcDbEntity
  8
TOP
  6
CONTINUOUS
 62
     3
100
AcDbLine
 10
13.35974788665771
 20
22.39998054504394
 30
0.0
 11
13.35969161987304
 21
22.35310554504394
 31
0.0
  0
LINE
  5
1B4
330
A
100
AcDbEntity
  8
TOP
  6
CONTINUOUS
 62
     3
100
AcDbLine
 10
16.15155410766601
 20
14.14373683929443
 30
0.0
 11
16.15159606933593
 21
14.09686183929443
 31
0.0
  0
LINE
  5
1B5
330
A
100
AcDbEntity
  8
TOP
  6
CONTINUOUS
 62
     3
100
AcDbLine
 10
25.42308616638183
 20
22.23629570007324
 30
0.0
 11
25.46732902526855
 21
22.27066802978515
 31
0.0
  0
LINE
  5
1B6
330
A
100
AcDbEntity
  8
TOP
  6
CONTINUOUS
 62
     3
100
AcDbLine
 10
25.48406982421875
 20
30.07413482666015
 30
0.0
 11
25.45659255981445
 21
30.14044570922851
 31
0.0
  0
LINE
  5
1B7
330
A
100
AcDbEntity
  8
TOP
  6
CONTINUOUS
 62
     3
100
AcDbLine
 10
25.10918235778808
 20
30.16788482666015
 30
0.0
 11
25.10893630981445
 21
30.16788482666015
 31
0.0
  0
LINE
  5
1B8
330
A
100
AcDbEntity
  8
TOP
  6
CONTINUOUS
 62
     3
100
AcDbLine
 10
12.91036128997802
 20
30.07413482666015
 30
0.0
 11
12.91028213500976
 21
30.14042663574219
 31
0.0
  0
LINE
  5
1B9
330
A
100
AcDbEntity
  8
TOP
  6
CONTINUOUS
 62
     3
100
AcDbLine
 10
13.57439517974853
 20
29.52731513977051
 30
0.0
 11
13.52746486663818
 21
29.57413482666015
 31
0.0
  0
LINE
  5
1BA
330
A
100
AcDbEntity
  8
TOP
  6
CONTINUOUS
 62
     3
100
AcDbLine
 10
16.44904708862304
 20
22.23198127746582
 30
0.0
 11
16.45671653747558
 21
22.23383903503417
 31
0.0
  0
LINE
  5
1BB
330
A
100
AcDbEntity
  8
TOP
  6
CONTINUOUS
 62
     3
100
AcDbLine
 10
25.26541709899902
 20
22.23038482666015
 30
0.0
 11
25.32655143737793
 21
22.23038482666015
 31
0.0
  0
LINE
  5
1BC
330
A
100
AcDbEntity
  8
TOP
  6
CONTINUOUS
 62
     3
100
AcDbLine
 10
12.91024875640869
 20
22.41788482666015
 30
0.0
 11
10.90154933929443
 21
22.41788482666015
 31
0.0
  0
LINE
  5
1BD
330
A
100
AcDbEntity
  8
TOP
  6
CONTINUOUS
 62
     3
100
AcDbLine
 10
22.68073463439941
 20
22.23038482666015
 30
0.0
 11
22.7250690460205
 21
22.23038482666015
 31
0.0
  0
LINE
  5
1BE
330
A
100
AcDbEntity
  8
TOP
  6
CONTINUOUS
 62
     3
100
AcDbLine
 10
10.59144115447998
 20
16.70406341552734
 30
0.0
 11
10.54456615447998
 21
16.70402336120605
 31
0.0
  0
LINE
  5
1BF
330
A
100
AcDbEntity
  8
TOP
  6
CONTINUOUS
 62
     3
100
AcDbLine
 10
22.57781982421875
 20
30.16788482666015
 30
0.0
 11
22.57782173156738
 21
30.16788482666015
 31
0.0
  0
LINE
  5
1C0
330
A
100
AcDbEntity
  8
TOP
  6
CONTINUOUS
 62
     3
100
AcDbLine
 10
13.46434211730957
 20
17.01417732238769
 30
0.0
 11
13.46434211730957
 21
16.95623588562011
 31
0.0
  0
LINE
  5
1C1
330
A
100
AcDbEntity
  8
TOP
  6
CONTINUOUS
 62
     3
100
AcDbLine
 10
22.54885101318359
 20
22.76116371154785
 30
0.0
 11
22.50197601318359
 21
22.78521728515625
 31
0.0
  0
LINE
  5
1C2
330
A
100
AcDbEntity
  8
TOP
  6
CONTINUOUS
 62
     3
100
AcDbLine
 10
22.67156982421874
 20
30.57413482666015
 30
0.0
 11
22.65366554260253
 21
30.53521728515625
 31
0.0
  0
LINE
  5
1C3
330
A
100
AcDbEntity
  8
TOP
  6
CONTINUOUS
 62
     3
100
AcDbLine
 10
25.5640697479248
 20
31.4941349029541
 30
0.0
 11
25.98406982421875
 21
31.4941349029541
 31
0.0
  0
LINE
  5
1C4
330
A
100
AcDbEntity
  8
TOP
  6
CONTINUOUS
 62
     3
100
AcDbLine
 10
12.48135471343994
 20
22.68806266784668
 30
0.0
 11
12.49399948120117
 21
22.67538833618164
 31
0.0
  0
LINE
  5
1C5
330
A
100
AcDbEntity
  8
TOP
  6
CONTINUOUS
 62
     3
100
AcDbLine
 10
10.52666091918945
 20
16.7039566040039
 30
0.0
 11
10.52666091918945
 21
14.4539566040039
 31
0.0
  0
LINE
  5
1C6
330
A
100
AcDbEntity
  8
TOP
  6
CONTINUOUS
 62
     3
100
AcDbLine
 10
13.35965728759765
 20
14.2664566040039
 30
0.0
 11
13.3595905303955
 21
14.24855232238769
 31
0.0
  0
LINE
  5
1C7
330
A
100
AcDbEntity
  8
TOP
  6
CONTINUOUS
 62
     3
100
AcDbLine
 10
13.9065933227539
 20
30.14242362976074
 30
0.0
 11
13.94044017791748
 21
30.10849571228027
 31
0.0
  0
LINE
  5
1C8
330
A
100
AcDbEntity
  8
TOP
  6
CONTINUOUS
 62
     3
100
AcDbLine
 10
16.69666099548339
 20
20.90413475036621
 30
0.0
 11
10.3566608428955
 21
20.90413475036621
 31
0.0
  0
LINE
  5
1C9
330
A
100
AcDbEntity
  8
TOP
  6
CONTINUOUS
 62
     3
100
AcDbLine
 10
16.49172782897949
 20
30.00248336791992
 30
0.0
 11
16.50681686401367
 21
30.01869964599609
 31
0.0
  0
LINE
  5
1CA
330
A
100
AcDbEntity
  8
TOP
  6
CONTINUOUS
 62
     3
100
AcDbLine
 10
13.69377899169921
 20
30.16788482666015
 30
0.0
 11
13.35976886749267
 21
30.16788482666015
 31
0.0
  0
LINE
  5
1CB
330
A
100
AcDbEntity
  8
TOP
  6
CONTINUOUS
 62
     3
100
AcDbLine
 10
10.63249015808105
 20
30.16788482666015
 30
0.0
 11
10.62345600128173
 21
30.16788482666015
 31
0.0
  0
LINE
  5
1CC
330
A
100
AcDbEntity
  8
TOP
  6
CONTINUOUS
 62
     3
100
AcDbLine
 10
12.5190315246582
 20
14.2664566040039
 30
0.0
 11
12.42778778076171
 21
14.2664566040039
 31
0.0
  0
LINE
  5
1CD
330
A
100
AcDbEntity
  8
TOP
  6
CONTINUOUS
 62
     3
100
AcDbLine
 10
22.85918235778808
 20
29.98038482666015
 30
0.0
 11
25.10918235778808
 21
29.98038482666015
 31
0.0
  0
LINE
  5
1CE
330
A
100
AcDbEntity
  8
TOP
  6
CONTINUOUS
 62
     3
100
AcDbLine
 10
16.15166091918945
 20
14.2664566040039
 30
0.0
 11
16.15159606933593
 21
14.24855232238769
 31
0.0
  0
LINE
  5
1CF
330
A
100
AcDbEntity
  8
TOP
  6
CONTINUOUS
 62
     3
100
AcDbLine
 10
25.48406982421875
 20
22.32413482666015
 30
0.0
 11
25.45659255981445
 21
22.39044570922851
 31
0.0
  0
LINE
  5
1D0
330
A
100
AcDbEntity
  8
TOP
  6
CONTINUOUS
 62
     3
100
AcDbLine
 10
25.1089916229248
 20
30.14044570922851
 30
0.0
 11
25.10895919799804
 21
30.16788482666015
 31
0.0
  0
LINE
  5
1D1
330
A
100
AcDbEntity
  8
TOP
  6
CONTINUOUS
 62
     3
100
AcDbLine
 10
22.48406982421875
 20
30.57413482666015
 30
0.0
 11
22.48406982421875
 21
30.15651130676269
 31
0.0
  0
LINE
  5
1D2
330
A
100
AcDbEntity
  8
TOP
  6
CONTINUOUS
 62
     3
100
AcDbLine
 10
10.90158176422119
 20
30.14042663574219
 30
0.0
 11
10.90154933929443
 21
30.16788482666015
 31
0.0
  0
LINE
  5
1D3
330
A
100
AcDbEntity
  8
TOP
  6
CONTINUOUS
 62
     3
100
AcDbLine
 10
16.15159606933593
 20
14.24855232238769
 30
0.0
 11
16.15155410766601
 21
14.20167732238769
 31
0.0
  0
LINE
  5
1D4
330
A
100
AcDbEntity
  8
TOP
  6
CONTINUOUS
 62
     3
100
AcDbLine
 10
13.52746486663818
 20
29.57413482666015
 30
0.0
 11
13.48053359985351
 21
29.62095260620117
 31
0.0
  0
LINE
  5
1D5
330
A
100
AcDbEntity
  8
TOP
  6
CONTINUOUS
 62
     3
100
AcDbLine
 10
16.40326309204101
 20
22.23133087158203
 30
0.0
 11
16.40359878540039
 21
22.23158073425293
 31
0.0
  0
LINE
  5
1D6
330
A
100
AcDbEntity
  8
TOP
  6
CONTINUOUS
 62
     3
100
AcDbLine
 10
12.23649787902832
 20
22.41788673400879
 30
0.0
 11
12.49399948120117
 21
22.67538833618164
 31
0.0
  0
LINE
  5
1D7
330
A
100
AcDbEntity
  8
TOP
  6
CONTINUOUS
 62
     3
100
AcDbLine
 10
22.58586120605468
 20
22.23038482666015
 30
0.0
 11
22.60790252685546
 21
22.23038482666015
 31
0.0
  0
LINE
  5
1D8
330
A
100
AcDbEntity
  8
TOP
  6
CONTINUOUS
 62
     3
100
AcDbLine
 10
10.71416091918945
 20
16.7039566040039
 30
0.0
 11
10.69625663757324
 21
16.70402336120605
 31
0.0
  0
LINE
  5
1D9
330
A
100
AcDbEntity
  8
TOP
  6
CONTINUOUS
 62
     3
100
AcDbLine
 10
13.98309993743896
 20
17.06105232238769
 30
0.0
 11
13.94408798217773
 21
17.0789566040039
 31
0.0
  0
LINE
  5
1DA
330
A
100
AcDbEntity
  8
TOP
  6
CONTINUOUS
 62
     3
100
AcDbLine
 10
22.67156982421874
 20
22.82413482666015
 30
0.0
 11
22.65366554260253
 21
22.78521728515625
 31
0.0
  0
LINE
  5
1DB
330
A
100
AcDbEntity
  8
TOP
  6
CONTINUOUS
 62
     3
100
AcDbLine
 10
25.36023902893066
 20
22.41788482666015
 30
0.0
 11
25.32749938964844
 21
22.41788482666015
 31
0.0
  0
LINE
  5
1DC
330
A
100
AcDbEntity
  8
TOP
  6
CONTINUOUS
 62
     3
100
AcDbLine
 10
12.91042709350586
 20
17.06105232238769
 30
0.0
 11
12.91036128997802
 21
17.0789566040039
 31
0.0
  0
LINE
  5
1DD
330
A
100
AcDbEntity
  8
TOP
  6
CONTINUOUS
 62
     3
100
AcDbLine
 10
22.54885101318359
 20
30.63710594177246
 30
0.0
 11
22.60679054260254
 21
30.63710594177246
 31
0.0
  0
LINE
  5
1DE
330
A
100
AcDbEntity
  8
TOP
  6
CONTINUOUS
 62
     3
100
AcDbLine
 10
25.50750160217285
 20
31.4941349029541
 30
0.0
 11
25.5640697479248
 21
31.4941349029541
 31
0.0
  0
LINE
  5
1DF
330
A
100
AcDbEntity
  8
TOP
  6
CONTINUOUS
 62
     3
100
AcDbLine
 10
25.50750160217285
 20
20.90413475036621
 30
0.0
 11
25.5640697479248
 21
20.90413475036621
 31
0.0
  0
LINE
  5
1E0
330
A
100
AcDbEntity
  8
TOP
  6
CONTINUOUS
 62
     3
100
AcDbLine
 10
22.48822784423828
 20
30.00035285949707
 30
0.0
 11
22.48406982421875
 21
29.99175834655761
 31
0.0
  0
LINE
  5
1E1
330
A
100
AcDbEntity
  8
TOP
  6
CONTINUOUS
 62
     3
100
AcDbLine
 10
16.1515827178955
 20
22.39042663574218
 30
0.0
 11
16.15154838562011
 21
22.41788482666015
 31
0.0
  0
LINE
  5
1E2
330
A
100
AcDbEntity
  8
TOP
  6
CONTINUOUS
 62
     3
100
AcDbLine
 10
13.82632827758789
 20
30.22288131713867
 30
0.0
 11
13.83770275115966
 21
30.21147918701172
 31
0.0
  0
LINE
  5
1E3
330
A
100
AcDbEntity
  8
TOP
  6
CONTINUOUS
 62
     3
100
AcDbLine
 10
10.3566608428955
 20
20.84756660461426
 30
0.0
 11
10.3566608428955
 21
20.82413482666015
 31
0.0
  0
LINE
  5
1E4
330
A
100
AcDbEntity
  8
TOP
  6
CONTINUOUS
 62
     3
100
AcDbLine
 10
16.77666091918945
 20
13.99895668029785
 30
0.0
 11
16.77666091918945
 21
13.5789566040039
 31
0.0
  0
LINE
  5
1E5
330
A
100
AcDbEntity
  8
TOP
  6
CONTINUOUS
 62
     3
100
AcDbLine
 10
16.44904708862304
 20
29.98198127746582
 30
0.0
 11
16.45671653747558
 21
29.98383903503418
 31
0.0
  0
LINE
  5
1E6
330
A
100
AcDbEntity
  8
TOP
  6
CONTINUOUS
 62
     3
100
AcDbLine
 10
12.36157608032226
 20
22.80812835693359
 30
0.0
 11
12.37422180175781
 21
22.79545402526855
 31
0.0
  0
LINE
  5
1E7
330
A
100
AcDbEntity
  8
TOP
  6
CONTINUOUS
 62
     3
100
AcDbLine
 10
14.16157627105713
 20
30.55812835693359
 30
0.0
 11
13.82632827758789
 21
30.22288131713867
 31
0.0
  0
LINE
  5
1E8
330
A
100
AcDbEntity
  8
TOP
  6
CONTINUOUS
 62
     3
100
AcDbLine
 10
25.32655143737793
 20
29.98038482666015
 30
0.0
 11
25.36895561218261
 21
29.98038482666015
 31
0.0
  0
LINE
  5
1E9
330
A
100
AcDbEntity
  8
TOP
  6
CONTINUOUS
 62
     3
100
AcDbLine
 10
13.35956573486328
 20
22.24828910827636
 30
0.0
 11
13.35954475402832
 21
22.23038482666015
 31
0.0
  0
LINE
  5
1EA
330
A
100
AcDbEntity
  8
TOP
  6
CONTINUOUS
 62
     3
100
AcDbLine
 10
25.24307250976562
 20
22.41788482666015
 30
0.0
 11
25.19718742370605
 21
22.41788482666015
 31
0.0
  0
LINE
  5
1EB
330
A
100
AcDbEntity
  8
TOP
  6
CONTINUOUS
 62
     3
100
AcDbLine
 10
16.40394020080566
 20
14.45384979248046
 30
0.0
 11
16.46188163757324
 21
14.45384979248046
 31
0.0
  0
LINE
  5
1EC
330
A
100
AcDbEntity
  8
TOP
  6
CONTINUOUS
 62
     3
100
AcDbLine
 10
25.1089916229248
 20
22.39044570922851
 30
0.0
 11
25.10895919799804
 21
22.41788482666015
 31
0.0
  0
LINE
  5
1ED
330
A
100
AcDbEntity
  8
TOP
  6
CONTINUOUS
 62
     3
100
AcDbLine
 10
22.85918235778808
 20
29.98038482666015
 30
0.0
 11
22.85914993286132
 21
30.00784301757812
 31
0.0
  0
LINE
  5
1EE
330
A
100
AcDbEntity
  8
TOP
  6
CONTINUOUS
 62
     3
100
AcDbLine
 10
10.62041091918945
 20
29.98038482666015
 30
0.0
 11
10.55412006378173
 21
30.00784301757812
 31
0.0
  0
LINE
  5
1EF
330
A
100
AcDbEntity
  8
TOP
  6
CONTINUOUS
 62
     3
100
AcDbLine
 10
13.89715766906738
 20
30.03857803344726
 30
0.0
 11
13.87771797180175
 21
30.05797004699707
 31
0.0
  0
LINE
  5
1F0
330
A
100
AcDbEntity
  8
TOP
  6
CONTINUOUS
 62
     3
100
AcDbLine
 10
16.32502555847167
 20
22.23038482666015
 30
0.0
 11
16.37242317199707
 21
22.23038482666015
 31
0.0
  0
LINE
  5
1F1
330
A
100
AcDbEntity
  8
TOP
  6
CONTINUOUS
 62
     3
100
AcDbLine
 10
12.75916481018066
 20
22.67554664611816
 30
0.0
 11
12.99608039855957
 21
22.43863105773925
 31
0.0
  0
LINE
  5
1F2
330
A
100
AcDbEntity
  8
TOP
  6
CONTINUOUS
 62
     3
100
AcDbLine
 10
22.6415901184082
 20
22.41788482666015
 30
0.0
 11
22.59918594360351
 21
22.41788482666015
 31
0.0
  0
LINE
  5
1F3
330
A
100
AcDbEntity
  8
TOP
  6
CONTINUOUS
 62
     3
100
AcDbLine
 10
10.64938163757324
 20
14.45406341552734
 30
0.0
 11
10.59144115447998
 21
14.45406341552734
 31
0.0
  0
LINE
  5
1F4
330
A
100
AcDbEntity
  8
TOP
  6
CONTINUOUS
 62
     3
100
AcDbLine
 10
14.29075908660888
 20
14.20167732238769
 30
0.0
 11
14.29075908660888
 21
14.14373683929443
 31
0.0
  0
LINE
  5
1F5
330
A
100
AcDbEntity
  8
TOP
  6
CONTINUOUS
 62
     3
100
AcDbLine
 10
22.54885101318359
 20
22.88710594177246
 30
0.0
 11
22.60679054260254
 21
22.88710594177246
 31
0.0
  0
LINE
  5
1F6
330
A
100
AcDbEntity
  8
TOP
  6
CONTINUOUS
 62
     3
100
AcDbLine
 10
22.48748016357422
 20
30.13881683349609
 30
0.0
 11
22.48406982421875
 21
30.15651130676269
 31
0.0
  0
LINE
  5
1F7
330
A
100
AcDbEntity
  8
TOP
  6
CONTINUOUS
 62
     3
100
AcDbLine
 10
25.48406982421875
 20
20.90413475036621
 30
0.0
 11
25.50750160217285
 21
20.90413475036621
 31
0.0
  0
LINE
  5
1F8
330
A
100
AcDbEntity
  8
TOP
  6
CONTINUOUS
 62
     3
100
AcDbLine
 10
14.14307403564453
 20
22.23038482666015
 30
0.0
 11
14.14304161071777
 21
22.25784301757812
 31
0.0
  0
LINE
  5
1F9
330
A
100
AcDbEntity
  8
TOP
  6
CONTINUOUS
 62
     3
100
AcDbLine
 10
14.20732688903808
 20
30.51226806640625
 30
0.0
 11
14.24824810028076
 21
30.47124862670898
 31
0.0
  0
LINE
  5
1FA
330
A
100
AcDbEntity
  8
TOP
  6
CONTINUOUS
 62
     3
100
AcDbLine
 10
10.65919399261474
 20
22.41774368286133
 30
0.0
 11
10.64602279663086
 21
22.41740608215331
 31
0.0
  0
LINE
  5
1FB
330
A
100
AcDbEntity
  8
TOP
  6
CONTINUOUS
 62
     3
100
AcDbLine
 10
14.53429126739502
 20
14.2664566040039
 30
0.0
 11
14.42666149139404
 21
14.2664566040039
 31
0.0
  0
LINE
  5
1FC
330
A
100
AcDbEntity
  8
TOP
  6
CONTINUOUS
 62
     3
100
AcDbLine
 10
16.40326309204101
 20
29.98133087158203
 30
0.0
 11
16.40359878540039
 21
29.98158073425293
 31
0.0
  0
LINE
  5
1FD
330
A
100
AcDbEntity
  8
TOP
  6
CONTINUOUS
 62
     3
100
AcDbLine
 10
12.84604549407958
 20
22.76221847534179
 30
0.0
 11
12.80502605438232
 21
22.72129821777344
 31
0.0
  0
LINE
  5
1FE
330
A
100
AcDbEntity
  8
TOP
  6
CONTINUOUS
 62
     3
100
AcDbLine
 10
15.02715396881103
 20
30.22272300720215
 30
0.0
 11
14.69190597534179
 21
30.55797004699707
 31
0.0
  0
LINE
  5
1FF
330
A
100
AcDbEntity
  8
TOP
  6
CONTINUOUS
 62
     3
100
AcDbLine
 10
25.10918235778808
 20
29.98038482666015
 30
0.0
 11
25.19082069396972
 21
29.98038482666015
 31
0.0
  0
LINE
  5
200
330
A
100
AcDbEntity
  8
TOP
  6
CONTINUOUS
 62
     3
100
AcDbLine
 10
12.82553577423095
 20
14.2664566040039
 30
0.0
 11
12.78652381896972
 21
14.24855232238769
 31
0.0
  0
LINE
  5
201
330
A
100
AcDbEntity
  8
TOP
  6
CONTINUOUS
 62
     3
100
AcDbLine
 10
16.50875663757324
 20
16.70389175415039
 30
0.0
 11
16.52666091918945
 21
16.7039566040039
 31
0.0
  0
LINE
  5
202
330
A
100
AcDbEntity
  8
TOP
  6
CONTINUOUS
 62
     3
100
AcDbLine
 10
25.48098564147949
 20
30.59798622131348
 30
0.0
 11
25.47299003601074
 21
30.61834907531738
 31
0.0
  0
LINE
  5
203
330
A
100
AcDbEntity
  8
TOP
  6
CONTINUOUS
 62
     3
100
AcDbLine
 10
22.51152992248535
 20
30.00784301757812
 30
0.0
 11
22.48406982421875
 21
30.07413482666015
 31
0.0
  0
LINE
  5
204
330
A
100
AcDbEntity
  8
TOP
  6
CONTINUOUS
 62
     3
100
AcDbLine
 10
13.57279014587402
 20
22.77731704711914
 30
0.0
 11
13.52585887908935
 21
22.82413482666015
 31
0.0
  0
LINE
  5
205
330
A
100
AcDbEntity
  8
TOP
  6
CONTINUOUS
 62
     3
100
AcDbLine
 10
13.69370079040527
 20
22.35310554504394
 30
0.0
 11
13.69363212585449
 21
22.29516410827636
 31
0.0
  0
LINE
  5
206
330
A
100
AcDbEntity
  8
TOP
  6
CONTINUOUS
 62
     3
100
AcDbLine
 10
12.04186916351318
 20
30.20730400085449
 30
0.0
 11
12.08119487762451
 21
30.16788291931152
 31
0.0
  0
LINE
  5
207
330
A
100
AcDbEntity
  8
TOP
  6
CONTINUOUS
 62
     3
100
AcDbLine
 10
10.30009269714355
 20
20.90413475036621
 30
0.0
 11
10.27666091918945
 21
20.90413475036621
 31
0.0
  0
LINE
  5
208
330
A
100
AcDbEntity
  8
TOP
  6
CONTINUOUS
 62
     3
100
AcDbLine
 10
16.20469856262207
 20
22.23038482666015
 30
0.0
 11
16.25164413452148
 21
22.23038482666015
 31
0.0
  0
LINE
  5
209
330
A
100
AcDbEntity
  8
TOP
  6
CONTINUOUS
 62
     3
100
AcDbLine
 10
16.15159606933593
 20
14.09686183929443
 30
0.0
 11
16.15166091918945
 21
14.0789566040039
 31
0.0
  0
LINE
  5
20A
330
A
100
AcDbEntity
  8
TOP
  6
CONTINUOUS
 62
     3
100
AcDbLine
 10
25.4249324798584
 20
30.6612606048584
 30
0.0
 11
25.40487670898437
 21
30.666748046875
 31
0.0
  0
LINE
  5
20B
330
A
100
AcDbEntity
  8
TOP
  6
CONTINUOUS
 62
     3
100
AcDbLine
 10
16.15166091918945
 20
17.0789566040039
 30
0.0
 11
14.14296245574951
 21
17.0789566040039
 31
0.0
  0
LINE
  5
20C
330
A
100
AcDbEntity
  8
TOP
  6
CONTINUOUS
 62
     3
100
AcDbLine
 10
22.85895919799804
 20
22.41788482666015
 30
0.0
 11
22.7773208618164
 21
22.41788482666015
 31
0.0
  0
LINE
  5
20D
330
A
100
AcDbEntity
  8
TOP
  6
CONTINUOUS
 62
     3
100
AcDbLine
 10
10.90159511566162
 20
14.09686183929443
 30
0.0
 11
10.90166091918945
 21
14.0789566040039
 31
0.0
  0
LINE
  5
20E
330
A
100
AcDbEntity
  8
TOP
  6
CONTINUOUS
 62
     3
100
AcDbLine
 10
10.27666091918945
 20
13.5789566040039
 30
0.0
 11
10.31666088104248
 21
13.5789566040039
 31
0.0
  0
LINE
  5
20F
330
A
100
AcDbEntity
  8
TOP
  6
CONTINUOUS
 62
     3
100
AcDbLine
 10
22.48748016357422
 20
22.38881683349609
 30
0.0
 11
22.48406982421875
 21
22.40651130676269
 31
0.0
  0
LINE
  5
210
330
A
100
AcDbEntity
  8
TOP
  6
CONTINUOUS
 62
     3
100
AcDbLine
 10
22.57781982421875
 20
29.98038482666015
 30
0.0
 11
22.51152992248535
 21
30.00784301757812
 31
0.0
  0
LINE
  5
211
330
A
100
AcDbEntity
  8
TOP
  6
CONTINUOUS
 62
     3
100
AcDbLine
 10
25.98406982421875
 20
20.82413482666015
 30
0.0
 11
25.98406982421875
 21
20.86413383483886
 31
0.0
  0
LINE
  5
212
330
A
100
AcDbEntity
  8
TOP
  6
CONTINUOUS
 62
     3
100
AcDbLine
 10
13.57439517974853
 20
21.7773151397705
 30
0.0
 11
13.52746486663818
 21
21.82413482666015
 31
0.0
  0
LINE
  5
213
330
A
100
AcDbEntity
  8
TOP
  6
CONTINUOUS
 62
     3
100
AcDbLine
 10
14.57184028625488
 20
30.43819236755371
 30
0.0
 11
14.55916500091552
 21
30.42554664611816
 31
0.0
  0
LINE
  5
214
330
A
100
AcDbEntity
  8
TOP
  6
CONTINUOUS
 62
     3
100
AcDbLine
 10
10.76356601715087
 20
22.41788482666015
 30
0.0
 11
10.70934772491455
 21
22.41787147521972
 31
0.0
  0
LINE
  5
215
330
A
100
AcDbEntity
  8
TOP
  6
CONTINUOUS
 62
     3
100
AcDbLine
 10
15.1596565246582
 20
14.2664566040039
 30
0.0
 11
15.05202674865722
 21
14.2664566040039
 31
0.0
  0
LINE
  5
216
330
A
100
AcDbEntity
  8
TOP
  6
CONTINUOUS
 62
     3
100
AcDbLine
 10
16.32502555847167
 20
29.98038482666015
 30
0.0
 11
16.37242317199707
 21
29.98038482666015
 31
0.0
  0
LINE
  5
217
330
A
100
AcDbEntity
  8
TOP
  6
CONTINUOUS
 62
     3
100
AcDbLine
 10
16.15154838562011
 20
30.16788482666015
 30
0.0
 11
14.14284992218017
 21
30.16788482666015
 31
0.0
  0
LINE
  5
218
330
A
100
AcDbEntity
  8
TOP
  6
CONTINUOUS
 62
     3
100
AcDbLine
 10
22.51152992248535
 20
22.25784301757812
 30
0.0
 11
22.48406982421875
 21
22.32413482666015
 31
0.0
  0
LINE
  5
219
330
A
100
AcDbEntity
  8
TOP
  6
CONTINUOUS
 62
     3
100
AcDbLine
 10
22.50062942504882
 20
30.12733840942383
 30
0.0
 11
22.54445838928222
 21
30.16174697875976
 31
0.0
  0
LINE
  5
21A
330
A
100
AcDbEntity
  8
TOP
  6
CONTINUOUS
 62
     3
100
AcDbLine
 10
13.9065933227539
 20
22.39242362976074
 30
0.0
 11
13.94044017791748
 21
22.35849571228027
 31
0.0
  0
LINE
  5
21B
330
A
100
AcDbEntity
  8
TOP
  6
CONTINUOUS
 62
     3
100
AcDbLine
 10
16.35706520080566
 20
16.70389175415039
 30
0.0
 11
16.40394020080566
 21
16.70384979248046
 31
0.0
  0
LINE
  5
21C
330
A
100
AcDbEntity
  8
TOP
  6
CONTINUOUS
 62
     3
100
AcDbLine
 10
10.3566608428955
 20
31.4941349029541
 30
0.0
 11
10.30009269714355
 21
31.4941349029541
 31
0.0
  0
LINE
  5
21D
330
A
100
AcDbEntity
  8
TOP
  6
CONTINUOUS
 62
     3
100
AcDbLine
 10
10.65919399261474
 20
30.16774368286132
 30
0.0
 11
10.64602279663086
 21
30.16740608215332
 31
0.0
  0
LINE
  5
21E
330
A
100
AcDbEntity
  8
TOP
  6
CONTINUOUS
 62
     3
100
AcDbLine
 10
14.01340770721435
 20
22.39479637145996
 30
0.0
 11
14.29399967193603
 21
22.67538833618164
 31
0.0
  0
LINE
  5
21F
330
A
100
AcDbEntity
  8
TOP
  6
CONTINUOUS
 62
     3
100
AcDbLine
 10
10.90159511566162
 20
14.24855232238769
 30
0.0
 11
10.90155410766601
 21
14.20167732238769
 31
0.0
  0
LINE
  5
220
330
A
100
AcDbEntity
  8
TOP
  6
CONTINUOUS
 62
     3
100
AcDbLine
 10
25.10895919799804
 20
22.41788482666015
 30
0.0
 11
22.85895919799804
 21
22.41788482666015
 31
0.0
  0
LINE
  5
221
330
A
100
AcDbEntity
  8
TOP
  6
CONTINUOUS
 62
     3
100
AcDbLine
 10
25.47299003601074
 20
30.61834907531738
 30
0.0
 11
25.44942474365234
 21
30.64690589904785
 31
0.0
  0
LINE
  5
222
330
A
100
AcDbEntity
  8
TOP
  6
CONTINUOUS
 62
     3
100
AcDbLine
 10
12.91047382354736
 20
29.98038482666015
 30
0.0
 11
12.91044044494628
 21
30.00784301757812
 31
0.0
  0
LINE
  5
223
330
A
100
AcDbEntity
  8
TOP
  6
CONTINUOUS
 62
     3
100
AcDbLine
 10
14.58652400970459
 20
14.09686183929443
 30
0.0
 11
14.6255350112915
 21
14.0789566040039
 31
0.0
  0
LINE
  5
224
330
A
100
AcDbEntity
  8
TOP
  6
CONTINUOUS
 62
     3
100
AcDbLine
 10
10.27666091918945
 20
13.99895668029785
 30
0.0
 11
10.31666088104248
 21
13.99895668029785
 31
0.0
  0
LINE
  5
225
330
A
100
AcDbEntity
  8
TOP
  6
CONTINUOUS
 62
     3
100
AcDbLine
 10
22.57781982421875
 20
22.23038482666015
 30
0.0
 11
22.51152992248535
 21
22.25784301757812
 31
0.0
  0
LINE
  5
226
330
A
100
AcDbEntity
  8
TOP
  6
CONTINUOUS
 62
     3
100
AcDbLine
 10
25.48320198059082
 20
30.08686065673828
 30
0.0
 11
25.48065757751464
 21
30.09920120239257
 31
0.0
  0
LINE
  5
227
330
A
100
AcDbEntity
  8
TOP
  6
CONTINUOUS
 62
     3
100
AcDbLine
 10
22.58586120605468
 20
29.98038482666015
 30
0.0
 11
22.60790252685546
 21
29.98038482666015
 31
0.0
  0
LINE
  5
228
330
A
100
AcDbEntity
  8
TOP
  6
CONTINUOUS
 62
     3
100
AcDbLine
 10
25.5640697479248
 20
20.82413482666015
 30
0.0
 11
25.5640697479248
 21
20.86413383483886
 31
0.0
  0
LINE
  5
229
330
A
100
AcDbEntity
  8
TOP
  6
CONTINUOUS
 62
     3
100
AcDbLine
 10
22.68073463439941
 20
29.98038482666015
 30
0.0
 11
22.7250690460205
 21
29.98038482666015
 31
0.0
  0
LINE
  5
22A
330
A
100
AcDbEntity
  8
TOP
  6
CONTINUOUS
 62
     3
100
AcDbLine
 10
13.52746486663818
 20
21.82413482666015
 30
0.0
 11
13.48053359985351
 21
21.87095260620117
 31
0.0
  0
LINE
  5
22B
330
A
100
AcDbEntity
  8
TOP
  6
CONTINUOUS
 62
     3
100
AcDbLine
 10
10.90154933929443
 20
22.41788482666015
 30
0.0
 11
10.85777950286865
 21
22.41788482666015
 31
0.0
  0
LINE
  5
22C
330
A
100
AcDbEntity
  8
TOP
  6
CONTINUOUS
 62
     3
100
AcDbLine
 10
16.20469856262207
 20
29.98038482666015
 30
0.0
 11
16.25164413452148
 21
29.98038482666015
 31
0.0
  0
LINE
  5
22D
330
A
100
AcDbEntity
  8
TOP
  6
CONTINUOUS
 62
     3
100
AcDbLine
 10
13.14824676513671
 20
17.06105232238769
 30
0.0
 11
13.1092357635498
 21
17.0789566040039
 31
0.0
  0
LINE
  5
22E
330
A
100
AcDbEntity
  8
TOP
  6
CONTINUOUS
 62
     3
100
AcDbLine
 10
25.36023902893066
 20
30.16788482666015
 30
0.0
 11
25.32749938964844
 21
30.16788482666015
 31
0.0
  0
LINE
  5
22F
330
A
100
AcDbEntity
  8
TOP
  6
CONTINUOUS
 62
     3
100
AcDbLine
 10
10.90155410766601
 20
14.20167732238769
 30
0.0
 11
10.90155410766601
 21
14.14373683929443
 31
0.0
  0
LINE
  5
230
330
A
100
AcDbEntity
  8
TOP
  6
CONTINUOUS
 62
     3
100
AcDbLine
 10
16.15176773071289
 20
17.01417732238769
 30
0.0
 11
16.1517276763916
 21
17.06105232238769
 31
0.0
  0
LINE
  5
231
330
A
100
AcDbEntity
  8
TOP
  6
CONTINUOUS
 62
     3
100
AcDbLine
 10
22.50106239318847
 20
22.37796020507812
 30
0.0
 11
22.54587936401367
 21
22.41227531433105
 31
0.0
  0
LINE
  5
232
330
A
100
AcDbEntity
  8
TOP
  6
CONTINUOUS
 62
     3
100
AcDbLine
 10
22.54885101318359
 20
29.51116371154785
 30
0.0
 11
22.50197601318359
 21
29.53521537780761
 31
0.0
  0
LINE
  5
233
330
A
100
AcDbEntity
  8
TOP
  6
CONTINUOUS
 62
     3
100
AcDbLine
 10
13.82632827758789
 20
22.47288131713867
 30
0.0
 11
13.83770275115966
 21
22.46147918701172
 31
0.0
  0
LINE
  5
234
330
A
100
AcDbEntity
  8
TOP
  6
CONTINUOUS
 62
     3
100
AcDbLine
 10
12.36157608032226
 20
30.55812835693359
 30
0.0
 11
12.37422180175781
 21
30.54545402526855
 31
0.0
  0
LINE
  5
235
330
A
100
AcDbEntity
  8
TOP
  6
CONTINUOUS
 62
     3
100
AcDbLine
 10
10.3566608428955
 20
31.4941349029541
 30
0.0
 11
10.3566608428955
 21
31.55070304870605
 31
0.0
  0
LINE
  5
236
330
A
100
AcDbEntity
  8
TOP
  6
CONTINUOUS
 62
     3
100
AcDbLine
 10
10.76356601715087
 20
30.16788482666015
 30
0.0
 11
10.70934772491455
 21
30.16787147521972
 31
0.0
  0
LINE
  5
237
330
A
100
AcDbEntity
  8
TOP
  6
CONTINUOUS
 62
     3
100
AcDbLine
 10
14.55916500091552
 20
22.67554664611816
 30
0.0
 11
14.81682395935058
 21
22.41788864135742
 31
0.0
  0
LINE
  5
238
330
A
100
AcDbEntity
  8
TOP
  6
CONTINUOUS
 62
     3
100
AcDbLine
 10
22.85895919799804
 20
29.98038482666015
 30
0.0
 11
22.85920524597167
 21
29.98038482666015
 31
0.0
  0
LINE
  5
239
330
A
100
AcDbEntity
  8
TOP
  6
CONTINUOUS
 62
     3
100
AcDbLine
 10
25.19718742370605
 20
22.41788482666015
 30
0.0
 11
25.15193367004394
 21
22.41788482666015
 31
0.0
  0
LINE
  5
23A
330
A
100
AcDbEntity
  8
TOP
  6
CONTINUOUS
 62
     3
100
AcDbLine
 10
14.58652400970459
 20
14.24855232238769
 30
0.0
 11
14.5624132156372
 21
14.20167732238769
 31
0.0
  0
LINE
  5
23B
330
A
100
AcDbEntity
  8
TOP
  6
CONTINUOUS
 62
     3
100
AcDbLine
 10
25.10918235778808
 20
22.23038482666015
 30
0.0
 11
25.19082069396972
 21
22.23038482666015
 31
0.0
  0
LINE
  5
23C
330
A
100
AcDbEntity
  8
TOP
  6
CONTINUOUS
 62
     3
100
AcDbLine
 10
25.48320198059082
 20
22.33686065673828
 30
0.0
 11
25.48065757751464
 21
22.34920120239257
 31
0.0
  0
LINE
  5
23D
330
A
100
AcDbEntity
  8
TOP
  6
CONTINUOUS
 62
     3
100
AcDbLine
 10
25.36135101318359
 20
30.55472946166992
 30
0.0
 11
25.31447601318359
 21
30.53067588806152
 31
0.0
  0
LINE
  5
23E
330
A
100
AcDbEntity
  8
TOP
  6
CONTINUOUS
 62
     3
100
AcDbLine
 10
22.6415901184082
 20
30.16788482666015
 30
0.0
 11
22.59918594360351
 21
30.16788482666015
 31
0.0
  0
LINE
  5
23F
330
A
100
AcDbEntity
  8
TOP
  6
CONTINUOUS
 62
     3
100
AcDbLine
 10
22.48407554626465
 20
22.35998535156249
 30
0.0
 11
22.48423385620117
 21
22.33665657043457
 31
0.0
  0
LINE
  5
240
330
A
100
AcDbEntity
  8
TOP
  6
CONTINUOUS
 62
     3
100
AcDbLine
 10
13.89715766906738
 20
22.28857803344726
 30
0.0
 11
13.87771797180175
 21
22.30797004699707
 31
0.0
  0
LINE
  5
241
330
A
100
AcDbEntity
  8
TOP
  6
CONTINUOUS
 62
     3
100
AcDbLine
 10
15.02715396881103
 20
30.22272300720215
 30
0.0
 11
15.01158428192138
 21
30.20719146728515
 31
0.0
  0
LINE
  5
242
330
A
100
AcDbEntity
  8
TOP
  6
CONTINUOUS
 62
     3
100
AcDbLine
 10
10.54650592803955
 20
22.37957000732421
 30
0.0
 11
10.53548622131347
 21
22.36093711853027
 31
0.0
  0
LINE
  5
243
330
A
100
AcDbEntity
  8
TOP
  6
CONTINUOUS
 62
     3
100
AcDbLine
 10
14.14296245574951
 20
17.0789566040039
 30
0.0
 11
14.03533267974853
 21
17.0789566040039
 31
0.0
  0
LINE
  5
244
330
A
100
AcDbEntity
  8
TOP
  6
CONTINUOUS
 62
     3
100
AcDbLine
 10
13.69363212585449
 20
22.29516410827636
 30
0.0
 11
13.69357585906982
 21
22.24828910827636
 31
0.0
  0
LINE
  5
245
330
A
100
AcDbEntity
  8
TOP
  6
CONTINUOUS
 62
     3
100
AcDbLine
 10
25.28740692138672
 20
22.41788482666015
 30
0.0
 11
25.24307250976562
 21
22.41788482666015
 31
0.0
  0
LINE
  5
246
330
A
100
AcDbEntity
  8
TOP
  6
CONTINUOUS
 62
     3
100
AcDbLine
 10
13.14824676513671
 20
16.90936088562011
 30
0.0
 11
13.1723575592041
 21
16.95623588562011
 31
0.0
  0
LINE
  5
247
330
A
100
AcDbEntity
  8
TOP
  6
CONTINUOUS
 62
     3
100
AcDbLine
 10
13.69355964660644
 20
14.20167732238769
 30
0.0
 11
13.69355964660644
 21
14.14373683929443
 31
0.0
  0
LINE
  5
248
330
A
100
AcDbEntity
  8
TOP
  6
CONTINUOUS
 62
     3
100
AcDbLine
 10
16.73666191101074
 20
13.99895668029785
 30
0.0
 11
16.73666191101074
 21
13.5789566040039
 31
0.0
  0
LINE
  5
249
330
A
100
AcDbEntity
  8
TOP
  6
CONTINUOUS
 62
     3
100
AcDbLine
 10
12.46670627593994
 20
14.09686183929443
 30
0.0
 11
12.42778778076171
 21
14.0789566040039
 31
0.0
  0
LINE
  5
24A
330
A
100
AcDbEntity
  8
TOP
  6
CONTINUOUS
 62
     3
100
AcDbLine
 10
16.15166091918945
 20
16.8914566040039
 30
0.0
 11
16.1517276763916
 21
16.90936088562011
 31
0.0
  0
LINE
  5
24B
330
A
100
AcDbEntity
  8
TOP
  6
CONTINUOUS
 62
     3
100
AcDbLine
 10
22.54885101318359
 20
21.76116371154785
 30
0.0
 11
22.50197601318359
 21
21.78521537780761
 31
0.0
  0
LINE
  5
24C
330
A
100
AcDbEntity
  8
TOP
  6
CONTINUOUS
 62
     3
100
AcDbLine
 10
22.67156982421874
 20
29.57413482666015
 30
0.0
 11
22.65366554260253
 21
29.53521537780761
 31
0.0
  0
LINE
  5
24D
330
A
100
AcDbEntity
  8
TOP
  6
CONTINUOUS
 62
     3
100
AcDbLine
 10
12.91047382354736
 20
22.23038482666015
 30
0.0
 11
12.91044044494628
 21
22.25784301757812
 31
0.0
  0
LINE
  5
24E
330
A
100
AcDbEntity
  8
TOP
  6
CONTINUOUS
 62
     3
100
AcDbLine
 10
16.40394020080566
 20
16.70384979248046
 30
0.0
 11
16.46188163757324
 21
16.70384979248046
 31
0.0
  0
LINE
  5
24F
330
A
100
AcDbEntity
  8
TOP
  6
CONTINUOUS
 62
     3
100
AcDbLine
 10
14.20732688903808
 20
22.76226806640625
 30
0.0
 11
14.24824810028076
 21
22.72124862670898
 31
0.0
  0
LINE
  5
250
330
A
100
AcDbEntity
  8
TOP
  6
CONTINUOUS
 62
     3
100
AcDbLine
 10
12.84604549407958
 20
30.51221847534179
 30
0.0
 11
12.80502605438232
 21
30.47129821777343
 31
0.0
  0
LINE
  5
251
330
A
100
AcDbEntity
  8
TOP
  6
CONTINUOUS
 62
     3
100
AcDbLine
 10
16.77666091918945
 20
20.90413475036621
 30
0.0
 11
16.77666091918945
 21
31.4941349029541
 31
0.0
  0
LINE
  5
252
330
A
100
AcDbEntity
  8
TOP
  6
CONTINUOUS
 62
     3
100
AcDbLine
 10
10.90154933929443
 20
30.16788482666015
 30
0.0
 11
10.85777950286865
 21
30.16788482666015
 31
0.0
  0
LINE
  5
253
330
A
100
AcDbEntity
  8
TOP
  6
CONTINUOUS
 62
     3
100
AcDbLine
 10
13.59383487701416
 20
21.7579231262207
 30
0.0
 11
14.01045894622802
 21
22.17554664611816
 31
0.0
  0
LINE
  5
254
330
A
100
AcDbEntity
  8
TOP
  6
CONTINUOUS
 62
     3
100
AcDbLine
 10
16.25918769836425
 20
22.41788482666015
 30
0.0
 11
16.15154838562011
 21
22.41788482666015
 31
0.0
  0
LINE
  5
255
330
A
100
AcDbEntity
  8
TOP
  6
CONTINUOUS
 62
     3
100
AcDbLine
 10
25.37858009338378
 20
30.66714668273926
 30
0.0
 11
25.34478759765625
 21
30.65608406066894
 31
0.0
  0
LINE
  5
256
330
A
100
AcDbEntity
  8
TOP
  6
CONTINUOUS
 62
     3
100
AcDbLine
 10
16.69666099548339
 20
14.0789566040039
 30
0.0
 11
16.69666099548339
 21
14.0555248260498
 31
0.0
  0
LINE
  5
257
330
A
100
AcDbEntity
  8
TOP
  6
CONTINUOUS
 62
     3
100
AcDbLine
 10
22.64064216613769
 20
22.23038482666015
 30
0.0
 11
22.68073463439941
 21
22.23038482666015
 31
0.0
  0
LINE
  5
258
330
A
100
AcDbEntity
  8
TOP
  6
CONTINUOUS
 62
     3
100
AcDbLine
 10
14.89766120910644
 20
14.14373683929443
 30
0.0
 11
14.92177104949951
 21
14.09686183929443
 31
0.0
  0
LINE
  5
259
330
A
100
AcDbEntity
  8
TOP
  6
CONTINUOUS
 62
     3
100
AcDbLine
 10
25.36135101318359
 20
22.80472946166992
 30
0.0
 11
25.31447601318359
 21
22.78067588806152
 31
0.0
  0
LINE
  5
25A
330
A
100
AcDbEntity
  8
TOP
  6
CONTINUOUS
 62
     3
100
AcDbLine
 10
22.57781982421875
 20
22.23038482666015
 30
0.0
 11
22.58586120605468
 21
22.23038482666015
 31
0.0
  0
LINE
  5
25B
330
A
100
AcDbEntity
  8
TOP
  6
CONTINUOUS
 62
     3
100
AcDbLine
 10
25.48406982421875
 20
30.49175834655761
 30
0.0
 11
25.46616554260253
 21
30.53067588806152
 31
0.0
  0
LINE
  5
25C
330
A
100
AcDbEntity
  8
TOP
  6
CONTINUOUS
 62
     3
100
AcDbLine
 10
22.85895919799804
 20
30.16788482666015
 30
0.0
 11
22.7773208618164
 21
30.16788482666015
 31
0.0
  0
LINE
  5
25D
330
A
100
AcDbEntity
  8
TOP
  6
CONTINUOUS
 62
     3
100
AcDbLine
 10
25.30085372924804
 20
22.8521499633789
 30
0.0
 11
25.29656982421875
 21
22.82413482666015
 31
0.0
  0
LINE
  5
25E
330
A
100
AcDbEntity
  8
TOP
  6
CONTINUOUS
 62
     3
100
AcDbLine
 10
14.14296245574951
 20
16.8914566040039
 30
0.0
 11
16.15166091918945
 21
16.8914566040039
 31
0.0
  0
LINE
  5
25F
330
A
100
AcDbEntity
  8
TOP
  6
CONTINUOUS
 62
     3
100
AcDbLine
 10
22.81620788574219
 20
29.98038482666015
 30
0.0
 11
22.85918235778808
 21
29.98038482666015
 31
0.0
  0
LINE
  5
260
330
A
100
AcDbEntity
  8
TOP
  6
CONTINUOUS
 62
     3
100
AcDbLine
 10
13.59222984313964
 20
30.5079231262207
 30
0.0
 11
13.57279014587402
 21
30.52731704711914
 31
0.0
  0
LINE
  5
261
330
A
100
AcDbEntity
  8
TOP
  6
CONTINUOUS
 62
     3
100
AcDbLine
 10
16.49920272827148
 20
30.14042663574219
 30
0.0
 11
16.43291091918945
 21
30.16788482666015
 31
0.0
  0
LINE
  5
262
330
A
100
AcDbEntity
  8
TOP
  6
CONTINUOUS
 62
     3
100
AcDbLine
 10
10.59660530090332
 20
22.4144287109375
 30
0.0
 11
10.57883930206298
 21
22.40737533569336
 31
0.0
  0
LINE
  5
263
330
A
100
AcDbEntity
  8
TOP
  6
CONTINUOUS
 62
     3
100
AcDbLine
 10
13.52585887908935
 20
17.0789566040039
 30
0.0
 11
13.1092357635498
 21
17.0789566040039
 31
0.0
  0
LINE
  5
264
330
A
100
AcDbEntity
  8
TOP
  6
CONTINUOUS
 62
     3
100
AcDbLine
 10
13.89253997802734
 20
14.2664566040039
 30
0.0
 11
13.93145847320556
 21
14.24855232238769
 31
0.0
  0
LINE
  5
265
330
A
100
AcDbEntity
  8
TOP
  6
CONTINUOUS
 62
     3
100
AcDbLine
 10
13.93145847320556
 20
14.24855232238769
 30
0.0
 11
13.95551204681396
 21
14.20167732238769
 31
0.0
  0
LINE
  5
266
330
A
100
AcDbEntity
  8
TOP
  6
CONTINUOUS
 62
     3
100
AcDbLine
 10
25.38228034973144
 20
22.41788482666015
 30
0.0
 11
25.36023902893066
 21
22.41788482666015
 31
0.0
  0
LINE
  5
267
330
A
100
AcDbEntity
  8
TOP
  6
CONTINUOUS
 62
     3
100
AcDbLine
 10
13.95551204681396
 20
14.14373683929443
 30
0.0
 11
13.93145847320556
 21
14.09686183929443
 31
0.0
  0
LINE
  5
268
330
A
100
AcDbEntity
  8
TOP
  6
CONTINUOUS
 62
     3
100
AcDbLine
 10
25.32749938964844
 20
30.16788482666015
 30
0.0
 11
25.28740692138672
 21
30.16788482666015
 31
0.0
  0
LINE
  5
269
330
A
100
AcDbEntity
  8
TOP
  6
CONTINUOUS
 62
     3
100
AcDbLine
 10
14.14306926727294
 20
16.95623588562011
 30
0.0
 11
14.14306926727294
 21
17.01417732238769
 31
0.0
  0
LINE
  5
26A
330
A
100
AcDbEntity
  8
TOP
  6
CONTINUOUS
 62
     3
100
AcDbLine
 10
22.67156982421874
 20
21.82413482666015
 30
0.0
 11
22.65366554260253
 21
21.78521537780761
 31
0.0
  0
LINE
  5
26B
330
A
100
AcDbEntity
  8
TOP
  6
CONTINUOUS
 62
     3
100
AcDbLine
 10
22.59755325317382
 20
29.92703056335449
 30
0.0
 11
22.54310226440429
 21
29.93025398254394
 31
0.0
  0
LINE
  5
26C
330
A
100
AcDbEntity
  8
TOP
  6
CONTINUOUS
 62
     3
100
AcDbLine
 10
13.35956573486328
 20
29.99828910827636
 30
0.0
 11
13.35954475402832
 21
29.98038482666015
 31
0.0
  0
LINE
  5
26D
330
A
100
AcDbEntity
  8
TOP
  6
CONTINUOUS
 62
     3
100
AcDbLine
 10
16.75322914123535
 20
20.90413475036621
 30
0.0
 11
16.77666091918945
 21
20.90413475036621
 31
0.0
  0
LINE
  5
26E
330
A
100
AcDbEntity
  8
TOP
  6
CONTINUOUS
 62
     3
100
AcDbLine
 10
10.54650592803955
 20
30.12957000732422
 30
0.0
 11
10.53548622131347
 21
30.11093711853027
 31
0.0
  0
LINE
  5
26F
330
A
100
AcDbEntity
  8
TOP
  6
CONTINUOUS
 62
     3
100
AcDbLine
 10
13.17560577392578
 20
30.09029960632324
 30
0.0
 11
13.59222984313964
 21
30.5079231262207
 31
0.0
  0
LINE
  5
270
330
A
100
AcDbEntity
  8
TOP
  6
CONTINUOUS
 62
     3
100
AcDbLine
 10
16.43291091918945
 20
22.41788482666015
 30
0.0
 11
16.41145896911621
 21
22.41788482666015
 31
0.0
  0
LINE
  5
271
330
A
100
AcDbEntity
  8
TOP
  6
CONTINUOUS
 62
     3
100
AcDbLine
 10
25.44942474365234
 20
30.64690589904785
 30
0.0
 11
25.4249324798584
 21
30.6612606048584
 31
0.0
  0
LINE
  5
272
330
A
100
AcDbEntity
  8
TOP
  6
CONTINUOUS
 62
     3
100
AcDbLine
 10
13.017991065979
 20
17.0789566040039
 30
0.0
 11
12.91036128997802
 21
17.0789566040039
 31
0.0
  0
LINE
  5
273
330
A
100
AcDbEntity
  8
TOP
  6
CONTINUOUS
 62
     3
100
AcDbLine
 10
25.30085372924804
 20
30.6021499633789
 30
0.0
 11
25.29656982421875
 21
30.57413482666015
 31
0.0
  0
LINE
  5
274
330
A
100
AcDbEntity
  8
TOP
  6
CONTINUOUS
 62
     3
100
AcDbLine
 10
16.69666099548339
 20
14.0789566040039
 30
0.0
 11
10.3566608428955
 21
14.0789566040039
 31
0.0
  0
LINE
  5
275
330
A
100
AcDbEntity
  8
TOP
  6
CONTINUOUS
 62
     3
100
AcDbLine
 10
14.96078300476074
 20
14.2664566040039
 30
0.0
 11
14.92177104949951
 21
14.24855232238769
 31
0.0
  0
LINE
  5
276
330
A
100
AcDbEntity
  8
TOP
  6
CONTINUOUS
 62
     3
100
AcDbLine
 10
14.01340770721435
 20
30.14479637145996
 30
0.0
 11
14.29399967193603
 21
30.42538833618164
 31
0.0
  0
LINE
  5
277
330
A
100
AcDbEntity
  8
TOP
  6
CONTINUOUS
 62
     3
100
AcDbLine
 10
25.48406982421875
 20
22.74175834655761
 30
0.0
 11
25.46616554260253
 21
22.78067588806152
 31
0.0
  0
LINE
  5
278
330
A
100
AcDbEntity
  8
TOP
  6
CONTINUOUS
 62
     3
100
AcDbLine
 10
25.42543792724609
 20
30.21790122985839
 30
0.0
 11
25.37084197998046
 21
30.22127723693847
 31
0.0
  0
LINE
  5
279
330
A
100
AcDbEntity
  8
TOP
  6
CONTINUOUS
 62
     3
100
AcDbLine
 10
25.34478759765625
 20
22.90608406066894
 30
0.0
 11
25.32741737365722
 21
22.893648147583
 31
0.0
  0
LINE
  5
27A
330
A
100
AcDbEntity
  8
TOP
  6
CONTINUOUS
 62
     3
100
AcDbLine
 10
11.89366626739501
 20
14.2664566040039
 30
0.0
 11
10.90166091918945
 21
14.2664566040039
 31
0.0
  0
LINE
  5
27B
330
A
100
AcDbEntity
  8
TOP
  6
CONTINUOUS
 62
     3
100
AcDbLine
 10
13.15616703033447
 20
30.10969161987304
 30
0.0
 11
13.1092357635498
 21
30.15651130676269
 31
0.0
  0
LINE
  5
27C
330
A
100
AcDbEntity
  8
TOP
  6
CONTINUOUS
 62
     3
100
AcDbLine
 10
16.15177345275879
 20
29.98038482666015
 30
0.0
 11
16.15174102783203
 21
30.00784301757812
 31
0.0
  0
LINE
  5
27D
330
A
100
AcDbEntity
  8
TOP
  6
CONTINUOUS
 62
     3
100
AcDbLine
 10
10.62041091918945
 20
22.41788482666015
 30
0.0
 11
10.61073112487793
 21
22.41731452941894
 31
0.0
  0
LINE
  5
27E
330
A
100
AcDbEntity
  8
TOP
  6
CONTINUOUS
 62
     3
100
AcDbLine
 10
12.91036128997802
 20
16.8914566040039
 30
0.0
 11
12.91042709350586
 21
16.90936088562011
 31
0.0
  0
LINE
  5
27F
330
A
100
AcDbEntity
  8
TOP
  6
CONTINUOUS
 62
     3
100
AcDbLine
 10
22.77095413208007
 20
29.98038482666015
 30
0.0
 11
22.81620788574219
 21
29.98038482666015
 31
0.0
  0
LINE
  5
280
330
A
100
AcDbEntity
  8
TOP
  6
CONTINUOUS
 62
     3
100
AcDbLine
 10
25.29656982421875
 20
22.74175834655761
 30
0.0
 11
25.29656982421875
 21
22.41788864135742
 31
0.0
  0
LINE
  5
281
330
A
100
AcDbEntity
  8
TOP
  6
CONTINUOUS
 62
     3
100
AcDbLine
 10
25.39031982421875
 20
30.16788482666015
 30
0.0
 11
25.38228034973144
 21
30.16788482666015
 31
0.0
  0
LINE
  5
282
330
A
100
AcDbEntity
  8
TOP
  6
CONTINUOUS
 62
     3
100
AcDbLine
 10
13.56647586822509
 20
17.06105232238769
 30
0.0
 11
13.52746486663818
 21
17.0789566040039
 31
0.0
  0
LINE
  5
283
330
A
100
AcDbEntity
  8
TOP
  6
CONTINUOUS
 62
     3
100
AcDbLine
 10
22.59755325317382
 20
22.17703056335449
 30
0.0
 11
22.54310226440429
 21
22.18025398254394
 31
0.0
  0
LINE
  5
284
330
A
100
AcDbEntity
  8
TOP
  6
CONTINUOUS
 62
     3
100
AcDbLine
 10
25.15193367004394
 20
30.16788482666015
 30
0.0
 11
25.10895919799804
 21
30.16788482666015
 31
0.0
  0
LINE
  5
285
330
A
100
AcDbEntity
  8
TOP
  6
CONTINUOUS
 62
     3
100
AcDbLine
 10
25.5640697479248
 20
31.57413482666015
 30
0.0
 11
25.98406982421875
 21
31.57413482666015
 31
0.0
  0
LINE
  5
286
330
A
100
AcDbEntity
  8
TOP
  6
CONTINUOUS
 62
     3
100
AcDbLine
 10
16.49920272827148
 20
22.39042663574218
 30
0.0
 11
16.43291091918945
 21
22.41788482666015
 31
0.0
  0
LINE
  5
287
330
A
100
AcDbEntity
  8
TOP
  6
CONTINUOUS
 62
     3
100
AcDbLine
 10
14.67923069000244
 20
22.79532432556152
 30
0.0
 11
14.64604473114013
 21
22.76221847534179
 31
0.0
  0
LINE
  5
288
330
A
100
AcDbEntity
  8
TOP
  6
CONTINUOUS
 62
     3
100
AcDbLine
 10
13.35974788665771
 20
30.14998054504394
 30
0.0
 11
13.35969161987304
 21
30.10310554504394
 31
0.0
  0
LINE
  5
289
330
A
100
AcDbEntity
  8
TOP
  6
CONTINUOUS
 62
     3
100
AcDbLine
 10
16.69666099548339
 20
31.4941349029541
 30
0.0
 11
16.69666099548339
 21
20.90413475036621
 31
0.0
  0
LINE
  5
28A
330
A
100
AcDbEntity
  8
TOP
  6
CONTINUOUS
 62
     3
100
AcDbLine
 10
10.59660530090332
 20
30.1644287109375
 30
0.0
 11
10.57883930206298
 21
30.15737533569335
 31
0.0
  0
LINE
  5
28B
330
A
100
AcDbEntity
  8
TOP
  6
CONTINUOUS
 62
     3
100
AcDbLine
 10
12.23649787902832
 20
30.16788673400879
 30
0.0
 11
12.49399948120117
 21
30.42538833618164
 31
0.0
  0
LINE
  5
28C
330
A
100
AcDbEntity
  8
TOP
  6
CONTINUOUS
 62
     3
100
AcDbLine
 10
12.91036128997802
 20
16.8914566040039
 30
0.0
 11
13.017991065979
 21
16.8914566040039
 31
0.0
  0
LINE
  5
28D
330
A
100
AcDbEntity
  8
TOP
  6
CONTINUOUS
 62
     3
100
AcDbLine
 10
25.26541709899902
 20
29.98038482666015
 30
0.0
 11
25.32655143737793
 21
29.98038482666015
 31
0.0
  0
LINE
  5
28E
330
A
100
AcDbEntity
  8
TOP
  6
CONTINUOUS
 62
     3
100
AcDbLine
 10
25.42543792724609
 20
22.4679012298584
 30
0.0
 11
25.37084197998046
 21
22.47127723693847
 31
0.0
  0
LINE
  5
28F
330
A
100
AcDbEntity
  8
TOP
  6
CONTINUOUS
 62
     3
100
AcDbLine
 10
22.48423385620117
 20
30.08665657043457
 30
0.0
 11
22.48443794250488
 21
30.08540153503417
 31
0.0
  0
LINE
  5
290
330
A
100
AcDbEntity
  8
TOP
  6
CONTINUOUS
 62
     3
100
AcDbLine
 10
25.4678897857666
 20
30.021484375
 30
0.0
 11
25.48406982421875
 21
30.07413482666015
 31
0.0
  0
LINE
  5
291
330
A
100
AcDbEntity
  8
TOP
  6
CONTINUOUS
 62
     3
100
AcDbLine
 10
22.67156982421874
 20
21.82413482666015
 30
0.0
 11
22.67156982421874
 21
22.23038482666015
 31
0.0
  0
LINE
  5
292
330
A
100
AcDbEntity
  8
TOP
  6
CONTINUOUS
 62
     3
100
AcDbLine
 10
10.54456615447998
 20
16.70402336120605
 30
0.0
 11
10.52666091918945
 21
16.7039566040039
 31
0.0
  0
LINE
  5
293
330
A
100
AcDbEntity
  8
TOP
  6
CONTINUOUS
 62
     3
100
AcDbLine
 10
25.4249324798584
 20
22.9112606048584
 30
0.0
 11
25.40487670898437
 21
22.916748046875
 31
0.0
  0
LINE
  5
294
330
A
100
AcDbEntity
  8
TOP
  6
CONTINUOUS
 62
     3
100
AcDbLine
 10
14.22778797149658
 20
14.2664566040039
 30
0.0
 11
13.89253997802734
 21
14.2664566040039
 31
0.0
  0
LINE
  5
295
330
A
100
AcDbEntity
  8
TOP
  6
CONTINUOUS
 62
     3
100
AcDbLine
 10
14.57184028625488
 20
22.68819236755371
 30
0.0
 11
14.55916500091552
 21
22.67554664611816
 31
0.0
  0
LINE
  5
296
330
A
100
AcDbEntity
  8
TOP
  6
CONTINUOUS
 62
     3
100
AcDbLine
 10
13.1092357635498
 20
30.15651130676269
 30
0.0
 11
13.06230449676513
 21
30.20332908630371
 31
0.0
  0
LINE
  5
297
330
A
100
AcDbEntity
  8
TOP
  6
CONTINUOUS
 62
     3
100
AcDbLine
 10
14.14304161071777
 20
30.00784301757812
 30
0.0
 11
14.14296245574951
 21
30.07413482666015
 31
0.0
  0
LINE
  5
298
330
A
100
AcDbEntity
  8
TOP
  6
CONTINUOUS
 62
     3
100
AcDbLine
 10
16.50681686401367
 20
22.26869964599609
 30
0.0
 11
16.51783561706543
 21
22.28733253479004
 31
0.0
  0
LINE
  5
299
330
A
100
AcDbEntity
  8
TOP
  6
CONTINUOUS
 62
     3
100
AcDbLine
 10
22.64064216613769
 20
29.98038482666015
 30
0.0
 11
22.68073463439941
 21
29.98038482666015
 31
0.0
  0
LINE
  5
29A
330
A
100
AcDbEntity
  8
TOP
  6
CONTINUOUS
 62
     3
100
AcDbLine
 10
22.54956817626953
 20
30.15787506103515
 30
0.0
 11
22.51213645935058
 21
30.13360977172851
 31
0.0
  0
LINE
  5
29B
330
A
100
AcDbEntity
  8
TOP
  6
CONTINUOUS
 62
     3
100
AcDbLine
 10
13.56647586822509
 20
16.90936088562011
 30
0.0
 11
13.59058666229248
 21
16.95623588562011
 31
0.0
  0
LINE
  5
29C
330
A
100
AcDbEntity
  8
TOP
  6
CONTINUOUS
 62
     3
100
AcDbLine
 10
22.50197601318359
 20
30.53521728515625
 30
0.0
 11
22.48406982421875
 21
30.57413482666015
 31
0.0
  0
LINE
  5
29D
330
A
100
AcDbEntity
  8
TOP
  6
CONTINUOUS
 62
     3
100
AcDbLine
 10
25.28740692138672
 20
30.16788482666015
 30
0.0
 11
25.24307250976562
 21
30.16788482666015
 31
0.0
  0
LINE
  5
29E
330
A
100
AcDbEntity
  8
TOP
  6
CONTINUOUS
 62
     3
100
AcDbLine
 10
16.41145896911621
 20
30.16788482666015
 30
0.0
 11
16.35045623779296
 21
30.16788482666015
 31
0.0
  0
LINE
  5
29F
330
A
100
AcDbEntity
  8
TOP
  6
CONTINUOUS
 62
     3
100
AcDbLine
 10
15.02715396881103
 20
22.47272300720215
 30
0.0
 11
15.01158428192138
 21
22.45719146728515
 31
0.0
  0
LINE
  5
2A0
330
A
100
AcDbEntity
  8
TOP
  6
CONTINUOUS
 62
     3
100
AcDbLine
 10
13.69363212585449
 20
30.04516410827636
 30
0.0
 11
13.69357585906982
 21
29.99828910827636
 31
0.0
  0
LINE
  5
2A1
330
A
100
AcDbEntity
  8
TOP
  6
CONTINUOUS
 62
     3
100
AcDbLine
 10
10.62041091918945
 20
30.16788482666015
 30
0.0
 11
10.61073112487793
 21
30.16731452941894
 31
0.0
  0
LINE
  5
2A2
330
A
100
AcDbEntity
  8
TOP
  6
CONTINUOUS
 62
     3
100
AcDbLine
 10
12.75916481018066
 20
30.42554664611816
 30
0.0
 11
12.99608039855957
 21
30.18863105773926
 31
0.0
  0
LINE
  5
2A3
330
A
100
AcDbEntity
  8
TOP
  6
CONTINUOUS
 62
     3
100
AcDbLine
 10
10.70286655426025
 20
29.98038482666015
 30
0.0
 11
10.79413509368896
 21
29.98038482666015
 31
0.0
  0
LINE
  5
2A4
330
A
100
AcDbEntity
  8
TOP
  6
CONTINUOUS
 62
     3
100
AcDbLine
 10
25.29656982421875
 20
30.5687313079834
 30
0.0
 11
25.29656982421875
 21
30.55272483825683
 31
0.0
  0
LINE
  5
2A5
330
A
100
AcDbEntity
  8
TOP
  6
CONTINUOUS
 62
     3
100
AcDbLine
 10
12.46670627593994
 20
14.24855232238769
 30
0.0
 11
12.49075889587402
 21
14.20167732238769
 31
0.0
  0
LINE
  5
2A6
330
A
100
AcDbEntity
  8
TOP
  6
CONTINUOUS
 62
     3
100
AcDbLine
 10
16.69666099548339
 20
31.57413482666015
 30
0.0
 11
10.3566608428955
 21
31.57413482666015
 31
0.0
  0
LINE
  5
2A7
330
A
100
AcDbEntity
  8
TOP
  6
CONTINUOUS
 62
     3
100
AcDbLine
 10
25.46732902526855
 20
22.27066802978515
 30
0.0
 11
25.48406982421875
 21
22.32413482666015
 31
0.0
  0
LINE
  5
2A8
330
A
100
AcDbEntity
  8
TOP
  6
CONTINUOUS
 62
     3
100
AcDbLine
 10
25.45659255981445
 20
30.14044570922851
 30
0.0
 11
25.3902645111084
 21
30.16788482666015
 31
0.0
  0
LINE
  5
2A9
330
A
100
AcDbEntity
  8
TOP
  6
CONTINUOUS
 62
     3
100
AcDbLine
 10
22.85918235778808
 20
22.23038482666015
 30
0.0
 11
25.10918235778808
 21
22.23038482666015
 31
0.0
  0
LINE
  5
2AA
330
A
100
AcDbEntity
  8
TOP
  6
CONTINUOUS
 62
     3
100
AcDbLine
 10
25.48098564147949
 20
22.84798622131347
 30
0.0
 11
25.47299003601074
 21
22.86834907531738
 31
0.0
  0
LINE
  5
2AB
330
A
100
AcDbEntity
  8
TOP
  6
CONTINUOUS
 62
     3
100
AcDbLine
 10
16.33916091918945
 20
16.7039566040039
 30
0.0
 11
16.33916091918945
 21
14.4539566040039
 31
0.0
  0
LINE
  5
2AC
330
A
100
AcDbEntity
  8
TOP
  6
CONTINUOUS
 62
     3
100
AcDbLine
 10
12.91028213500976
 20
30.14042663574219
 30
0.0
 11
12.91024875640869
 21
30.16788482666015
 31
0.0
  0
LINE
  5
2AD
330
A
100
AcDbEntity
  8
TOP
  6
CONTINUOUS
 62
     3
100
AcDbLine
 10
14.14296245574951
 20
30.07413482666015
 30
0.0
 11
14.14288234710693
 21
30.14042663574219
 31
0.0
  0
LINE
  5
2AE
330
A
100
AcDbEntity
  8
TOP
  6
CONTINUOUS
 62
     3
100
AcDbLine
 10
16.45671653747558
 20
22.23383903503417
 30
0.0
 11
16.47448348999023
 21
22.24089431762695
 31
0.0
  0
LINE
  5
2AF
330
A
100
AcDbEntity
  8
TOP
  6
CONTINUOUS
 62
     3
100
AcDbLine
 10
10.90177345275878
 20
22.23038482666015
 30
0.0
 11
12.91047382354736
 21
22.23038482666015
 31
0.0
  0
LINE
  5
2B0
330
A
100
AcDbEntity
  8
TOP
  6
CONTINUOUS
 62
     3
100
AcDbLine
 10
13.46434211730957
 20
16.95623588562011
 30
0.0
 11
13.48845291137695
 21
16.90936088562011
 31
0.0
  0
LINE
  5
2B1
330
A
100
AcDbEntity
  8
TOP
  6
CONTINUOUS
 62
     3
100
AcDbLine
 10
22.50197601318359
 20
22.78521728515625
 30
0.0
 11
22.48406982421875
 21
22.82413482666015
 31
0.0
  0
LINE
  5
2B2
330
A
100
AcDbEntity
  8
TOP
  6
CONTINUOUS
 62
     3
100
AcDbLine
 10
22.65366554260253
 20
30.53521728515625
 30
0.0
 11
22.60679054260254
 21
30.51116371154785
 31
0.0
  0
LINE
  5
2B3
330
A
100
AcDbEntity
  8
TOP
  6
CONTINUOUS
 62
     3
100
AcDbLine
 10
25.38228034973144
 20
30.16788482666015
 30
0.0
 11
25.36023902893066
 21
30.16788482666015
 31
0.0
  0
LINE
  5
2B4
330
A
100
AcDbEntity
  8
TOP
  6
CONTINUOUS
 62
     3
100
AcDbLine
 10
25.98406982421875
 20
20.90413475036621
 30
0.0
 11
25.98406982421875
 21
31.4941349029541
 31
0.0
  0
LINE
  5
2B5
330
A
100
AcDbEntity
  8
TOP
  6
CONTINUOUS
 62
     3
100
AcDbLine
 10
25.3120002746582
 20
22.87565994262695
 30
0.0
 11
25.30085372924804
 21
22.8521499633789
 31
0.0
  0
LINE
  5
2B6
330
A
100
AcDbEntity
  8
TOP
  6
CONTINUOUS
 62
     3
100
AcDbLine
 10
13.12177181243896
 20
14.24855232238769
 30
0.0
 11
13.09766101837158
 21
14.20167732238769
 31
0.0
  0
LINE
  5
2B7
330
A
100
AcDbEntity
  8
TOP
  6
CONTINUOUS
 62
     3
100
AcDbLine
 10
13.69377899169921
 20
30.16788482666015
 30
0.0
 11
13.69375705718994
 21
30.14998054504394
 31
0.0
  0
LINE
  5
2B8
330
A
100
AcDbEntity
  8
TOP
  6
CONTINUOUS
 62
     3
100
AcDbLine
 10
10.3566608428955
 20
20.82413482666015
 30
0.0
 11
16.69666099548339
 21
20.82413482666015
 31
0.0
  0
LINE
  5
2B9
330
A
100
AcDbEntity
  8
TOP
  6
CONTINUOUS
 62
     3
100
AcDbLine
 10
16.50681686401367
 20
30.01869964599609
 30
0.0
 11
16.51783561706543
 21
30.03733253479003
 31
0.0
  0
LINE
  5
2BA
330
A
100
AcDbEntity
  8
TOP
  6
CONTINUOUS
 62
     3
100
AcDbLine
 10
13.35954475402832
 20
29.98038482666015
 30
0.0
 11
13.69355392456054
 21
29.98038482666015
 31
0.0
  0
LINE
  5
2BB
330
A
100
AcDbEntity
  8
TOP
  6
CONTINUOUS
 62
     3
100
AcDbLine
 10
10.62345600128173
 20
30.16788482666015
 30
0.0
 11
10.62041091918945
 21
30.16788482666015
 31
0.0
  0
LINE
  5
2BC
330
A
100
AcDbEntity
  8
TOP
  6
CONTINUOUS
 62
     3
100
AcDbLine
 10
25.45600509643554
 20
30.01465988159179
 30
0.0
 11
25.47755813598632
 21
30.04472732543945
 31
0.0
  0
LINE
  5
2BD
330
A
100
AcDbEntity
  8
TOP
  6
CONTINUOUS
 62
     3
100
AcDbLine
 10
12.09254074096679
 20
14.2664566040039
 30
0.0
 11
12.00129604339599
 21
14.2664566040039
 31
0.0
  0
LINE
  5
2BE
330
A
100
AcDbEntity
  8
TOP
  6
CONTINUOUS
 62
     3
100
AcDbLine
 10
12.77184009552001
 20
30.43819236755371
 30
0.0
 11
12.75916481018066
 21
30.42554664611816
 31
0.0
  0
LINE
  5
2BF
330
A
100
AcDbEntity
  8
TOP
  6
CONTINUOUS
 62
     3
100
AcDbLine
 10
25.45659255981445
 20
22.39044570922851
 30
0.0
 11
25.3902645111084
 21
22.41788482666015
 31
0.0
  0
LINE
  5
2C0
330
A
100
AcDbEntity
  8
TOP
  6
CONTINUOUS
 62
     3
100
AcDbLine
 10
25.10918235778808
 20
29.98038482666015
 30
0.0
 11
25.10914993286132
 21
30.00784301757812
 31
0.0
  0
LINE
  5
2C1
330
A
100
AcDbEntity
  8
TOP
  6
CONTINUOUS
 62
     3
100
AcDbLine
 10
22.67156982421874
 20
30.16788482666015
 30
0.0
 11
22.67156982421874
 21
30.57413482666015
 31
0.0
  0
LINE
  5
2C2
330
A
100
AcDbEntity
  8
TOP
  6
CONTINUOUS
 62
     3
100
AcDbLine
 10
13.35954475402832
 20
22.23038482666015
 30
0.0
 11
13.69355392456054
 21
22.23038482666015
 31
0.0
  0
LINE
  5
2C3
330
A
100
AcDbEntity
  8
TOP
  6
CONTINUOUS
 62
     3
100
AcDbLine
 10
16.52666091918945
 20
14.4539566040039
 30
0.0
 11
16.52666091918945
 21
16.7039566040039
 31
0.0
  0
LINE
  5
2C4
330
A
100
AcDbEntity
  8
TOP
  6
CONTINUOUS
 62
     3
100
AcDbLine
 10
10.90177345275878
 20
29.98038482666015
 30
0.0
 11
10.90174102783203
 21
30.00784301757812
 31
0.0
  0
LINE
  5
2C5
330
A
100
AcDbEntity
  8
TOP
  6
CONTINUOUS
 62
     3
100
AcDbLine
 10
13.48053359985351
 20
29.62095260620117
 30
0.0
 11
13.46109390258789
 21
29.64034652709961
 31
0.0
  0
LINE
  5
2C6
330
A
100
AcDbEntity
  8
TOP
  6
CONTINUOUS
 62
     3
100
AcDbLine
 10
16.43291091918945
 20
22.23038482666015
 30
0.0
 11
16.4425926208496
 21
22.23095321655273
 31
0.0
  0
LINE
  5
2C7
330
A
100
AcDbEntity
  8
TOP
  6
CONTINUOUS
 62
     3
100
AcDbLine
 10
22.8589916229248
 20
22.39044570922851
 30
0.0
 11
22.85895919799804
 21
22.41788482666015
 31
0.0
  0
LINE
  5
2C8
330
A
100
AcDbEntity
  8
TOP
  6
CONTINUOUS
 62
     3
100
AcDbLine
 10
12.36157608032226
 20
22.80812835693359
 30
0.0
 11
12.02632808685302
 21
22.47288131713867
 31
0.0
  0
LINE
  5
2C9
330
A
100
AcDbEntity
  8
TOP
  6
CONTINUOUS
 62
     3
100
AcDbLine
 10
13.69366645812988
 20
14.2664566040039
 30
0.0
 11
13.35965728759765
 21
14.2664566040039
 31
0.0
  0
LINE
  5
2CA
330
A
100
AcDbEntity
  8
TOP
  6
CONTINUOUS
 62
     3
100
AcDbLine
 10
22.70272254943847
 20
30.16788482666015
 30
0.0
 11
22.6415901184082
 21
30.16788482666015
 31
0.0
  0
LINE
  5
2CB
330
A
100
AcDbEntity
  8
TOP
  6
CONTINUOUS
 62
     3
100
AcDbLine
 10
13.52746486663818
 20
17.0789566040039
 30
0.0
 11
13.48845291137695
 21
17.06105232238769
 31
0.0
  0
LINE
  5
2CC
330
A
100
AcDbEntity
  8
TOP
  6
CONTINUOUS
 62
     3
100
AcDbLine
 10
22.65366554260253
 20
22.78521728515625
 30
0.0
 11
22.60679054260254
 21
22.76116371154785
 31
0.0
  0
LINE
  5
2CD
330
A
100
AcDbEntity
  8
TOP
  6
CONTINUOUS
 62
     3
100
AcDbLine
 10
25.32749938964844
 20
22.41788482666015
 30
0.0
 11
25.28740692138672
 21
22.41788482666015
 31
0.0
  0
LINE
  5
2CE
330
A
100
AcDbEntity
  8
TOP
  6
CONTINUOUS
 62
     3
100
AcDbLine
 10
22.60679054260254
 20
30.63710594177246
 30
0.0
 11
22.65366554260253
 21
30.61305236816406
 31
0.0
  0
LINE
  5
2CF
330
A
100
AcDbEntity
  8
TOP
  6
CONTINUOUS
 62
     3
100
AcDbLine
 10
13.69360065460205
 20
14.24855232238769
 30
0.0
 11
13.69355964660644
 21
14.20167732238769
 31
0.0
  0
LINE
  5
2D0
330
A
100
AcDbEntity
  8
TOP
  6
CONTINUOUS
 62
     3
100
AcDbLine
 10
25.5640697479248
 20
20.90413475036621
 30
0.0
 11
25.5640697479248
 21
31.4941349029541
 31
0.0
  0
LINE
  5
2D1
330
A
100
AcDbEntity
  8
TOP
  6
CONTINUOUS
 62
     3
100
AcDbLine
 10
16.15177345275879
 20
22.23038482666015
 30
0.0
 11
16.15174102783203
 21
22.25784301757812
 31
0.0
  0
LINE
  5
2D2
330
A
100
AcDbEntity
  8
TOP
  6
CONTINUOUS
 62
     3
100
AcDbLine
 10
13.83770275115966
 20
30.21147918701172
 30
0.0
 11
13.86791896820068
 21
30.18119239807129
 31
0.0
  0
LINE
  5
2D3
330
A
100
AcDbEntity
  8
TOP
  6
CONTINUOUS
 62
     3
100
AcDbLine
 10
16.69666099548339
 20
20.90413475036621
 30
0.0
 11
16.69666099548339
 21
20.84756660461426
 31
0.0
  0
LINE
  5
2D4
330
A
100
AcDbEntity
  8
TOP
  6
CONTINUOUS
 62
     3
100
AcDbLine
 10
12.37422180175781
 20
22.79545402526855
 30
0.0
 11
12.40732765197753
 21
22.76226806640625
 31
0.0
  0
LINE
  5
2D5
330
A
100
AcDbEntity
  8
TOP
  6
CONTINUOUS
 62
     3
100
AcDbLine
 10
13.25202751159668
 20
14.2664566040039
 30
0.0
 11
13.16078281402587
 21
14.2664566040039
 31
0.0
  0
LINE
  5
2D6
330
A
100
AcDbEntity
  8
TOP
  6
CONTINUOUS
 62
     3
100
AcDbLine
 10
25.29656982421875
 20
30.55272483825683
 30
0.0
 11
25.29656982421875
 21
30.52673530578613
 31
0.0
  0
LINE
  5
2D7
330
A
100
AcDbEntity
  8
TOP
  6
CONTINUOUS
 62
     3
100
AcDbLine
 10
16.46188163757324
 20
14.45384979248046
 30
0.0
 11
16.50875663757324
 21
14.45389080047607
 31
0.0
  0
LINE
  5
2D8
330
A
100
AcDbEntity
  8
TOP
  6
CONTINUOUS
 62
     3
100
AcDbLine
 10
16.37242317199707
 20
29.98038482666015
 30
0.0
 11
16.39857292175292
 21
29.9805736541748
 31
0.0
  0
LINE
  5
2D9
330
A
100
AcDbEntity
  8
TOP
  6
CONTINUOUS
 62
     3
100
AcDbLine
 10
25.10918235778808
 20
22.23038482666015
 30
0.0
 11
25.10914993286132
 21
22.25784301757812
 31
0.0
  0
LINE
  5
2DA
330
A
100
AcDbEntity
  8
TOP
  6
CONTINUOUS
 62
     3
100
AcDbLine
 10
25.40487670898437
 20
30.666748046875
 30
0.0
 11
25.37858009338378
 21
30.66714668273926
 31
0.0
  0
LINE
  5
2DB
330
A
100
AcDbEntity
  8
TOP
  6
CONTINUOUS
 62
     3
100
AcDbLine
 10
22.85914993286132
 20
30.00784301757812
 30
0.0
 11
22.85906982421875
 21
30.07413482666015
 31
0.0
  0
LINE
  5
2DC
330
A
100
AcDbEntity
  8
TOP
  6
CONTINUOUS
 62
     3
100
AcDbLine
 10
22.67156982421874
 20
29.57413482666015
 30
0.0
 11
22.67156982421874
 21
29.98038482666015
 31
0.0
  0
LINE
  5
2DD
330
A
100
AcDbEntity
  8
TOP
  6
CONTINUOUS
 62
     3
100
AcDbLine
 10
12.44824886322021
 20
30.47124862670898
 30
0.0
 11
12.48135471343994
 21
30.43806266784668
 31
0.0
  0
LINE
  5
2DE
330
A
100
AcDbEntity
  8
TOP
  6
CONTINUOUS
 62
     3
100
AcDbLine
 10
25.46803092956543
 20
30.19354820251464
 30
0.0
 11
25.42543792724609
 21
30.21790122985839
 31
0.0
  0
LINE
  5
2DF
330
A
100
AcDbEntity
  8
TOP
  6
CONTINUOUS
 62
     3
100
AcDbLine
 10
10.3566608428955
 20
13.5789566040039
 30
0.0
 11
16.69666099548339
 21
13.5789566040039
 31
0.0
  0
LINE
  5
2E0
330
A
100
AcDbEntity
  8
TOP
  6
CONTINUOUS
 62
     3
100
AcDbLine
 10
10.55412006378173
 20
30.00784301757812
 30
0.0
 11
10.52666091918945
 21
30.07413482666015
 31
0.0
  0
LINE
  5
2E1
330
A
100
AcDbEntity
  8
TOP
  6
CONTINUOUS
 62
     3
100
AcDbLine
 10
14.01045894622802
 20
29.92554664611816
 30
0.0
 11
13.9910192489624
 21
29.94493865966797
 31
0.0
  0
LINE
  5
2E2
330
A
100
AcDbEntity
  8
TOP
  6
CONTINUOUS
 62
     3
100
AcDbLine
 10
16.37242317199707
 20
22.23038482666015
 30
0.0
 11
16.39857292175292
 21
22.2305736541748
 31
0.0
  0
LINE
  5
2E3
330
A
100
AcDbEntity
  8
TOP
  6
CONTINUOUS
 62
     3
100
AcDbLine
 10
16.52666091918945
 20
22.32413482666015
 30
0.0
 11
16.49920272827148
 21
22.39042663574218
 31
0.0
  0
LINE
  5
2E4
330
A
100
AcDbEntity
  8
TOP
  6
CONTINUOUS
 62
     3
100
AcDbLine
 10
13.13489723205566
 20
22.56497764587402
 30
0.0
 11
12.89190578460693
 21
22.80797004699707
 31
0.0
  0
LINE
  5
2E5
330
A
100
AcDbEntity
  8
TOP
  6
CONTINUOUS
 62
     3
100
AcDbLine
 10
22.57781982421875
 20
22.41788482666015
 30
0.0
 11
22.57782173156738
 21
22.41788482666015
 31
0.0
  0
LINE
  5
2E6
330
A
100
AcDbEntity
  8
TOP
  6
CONTINUOUS
 62
     3
100
AcDbLine
 10
10.59144115447998
 20
14.45406341552734
 30
0.0
 11
10.54456615447998
 21
14.45402240753173
 31
0.0
  0
LINE
  5
2E7
330
A
100
AcDbEntity
  8
TOP
  6
CONTINUOUS
 62
     3
100
AcDbLine
 10
25.10918235778808
 20
22.41788482666015
 30
0.0
 11
25.10893630981445
 21
22.41788482666015
 31
0.0
  0
LINE
  5
2E8
330
A
100
AcDbEntity
  8
TOP
  6
CONTINUOUS
 62
     3
100
AcDbLine
 10
22.77095413208007
 20
22.23038482666015
 30
0.0
 11
22.81620788574219
 21
22.23038482666015
 31
0.0
  0
LINE
  5
2E9
330
A
100
AcDbEntity
  8
TOP
  6
CONTINUOUS
 62
     3
100
AcDbLine
 10
14.00721073150634
 20
16.95623588562011
 30
0.0
 11
14.00721073150634
 21
17.01417732238769
 31
0.0
  0
LINE
  5
2EA
330
A
100
AcDbEntity
  8
TOP
  6
CONTINUOUS
 62
     3
100
AcDbLine
 10
22.60679054260254
 20
22.88710594177246
 30
0.0
 11
22.65366554260253
 21
22.86305236816406
 31
0.0
  0
LINE
  5
2EB
330
A
100
AcDbEntity
  8
TOP
  6
CONTINUOUS
 62
     3
100
AcDbLine
 10
25.39031982421875
 20
22.41788482666015
 30
0.0
 11
25.38228034973144
 21
22.41788482666015
 31
0.0
  0
LINE
  5
2EC
330
A
100
AcDbEntity
  8
TOP
  6
CONTINUOUS
 62
     3
100
AcDbLine
 10
22.48406982421875
 20
30.57413482666015
 30
0.0
 11
22.50197601318359
 21
30.61305236816406
 31
0.0
  0
LINE
  5
2ED
330
A
100
AcDbEntity
  8
TOP
  6
CONTINUOUS
 62
     3
100
AcDbLine
 10
22.59918594360351
 20
30.16788482666015
 30
0.0
 11
22.57330322265624
 21
30.16521263122558
 31
0.0
  0
LINE
  5
2EE
330
A
100
AcDbEntity
  8
TOP
  6
CONTINUOUS
 62
     3
100
AcDbLine
 10
12.73429107666015
 20
14.2664566040039
 30
0.0
 11
12.62666130065918
 21
14.2664566040039
 31
0.0
  0
LINE
  5
2EF
330
A
100
AcDbEntity
  8
TOP
  6
CONTINUOUS
 62
     3
100
AcDbLine
 10
14.67923069000244
 20
30.54532432556152
 30
0.0
 11
14.64604473114013
 21
30.51221847534179
 31
0.0
  0
LINE
  5
2F0
330
A
100
AcDbEntity
  8
TOP
  6
CONTINUOUS
 62
     3
100
AcDbLine
 10
10.69625663757324
 20
16.70402336120605
 30
0.0
 11
10.64938163757324
 21
16.70406341552734
 31
0.0
  0
LINE
  5
2F1
330
A
100
AcDbEntity
  8
TOP
  6
CONTINUOUS
 62
     3
100
AcDbLine
 10
14.14304161071777
 20
22.25784301757812
 30
0.0
 11
14.14296245574951
 21
22.32413482666015
 31
0.0
  0
LINE
  5
2F2
330
A
100
AcDbEntity
  8
TOP
  6
CONTINUOUS
 62
     3
100
AcDbLine
 10
12.49075889587402
 20
14.14373683929443
 30
0.0
 11
12.46670627593994
 21
14.09686183929443
 31
0.0
  0
LINE
  5
2F3
330
A
100
AcDbEntity
  8
TOP
  6
CONTINUOUS
 62
     3
100
AcDbLine
 10
14.24824810028076
 20
30.47124862670898
 30
0.0
 11
14.2813549041748
 21
30.43806266784668
 31
0.0
  0
LINE
  5
2F4
330
A
100
AcDbEntity
  8
TOP
  6
CONTINUOUS
 62
     3
100
AcDbLine
 10
10.64602279663086
 20
22.41740608215331
 30
0.0
 11
10.64480972290039
 21
22.41712760925293
 31
0.0
  0
LINE
  5
2F5
330
A
100
AcDbEntity
  8
TOP
  6
CONTINUOUS
 62
     3
100
AcDbLine
 10
14.42666149139404
 20
14.2664566040039
 30
0.0
 11
14.31903171539306
 21
14.2664566040039
 31
0.0
  0
LINE
  5
2F6
330
A
100
AcDbEntity
  8
TOP
  6
CONTINUOUS
 62
     3
100
AcDbLine
 10
16.43291091918945
 20
29.98038482666015
 30
0.0
 11
16.4425926208496
 21
29.98095321655273
 31
0.0
  0
LINE
  5
2F7
330
A
100
AcDbEntity
  8
TOP
  6
CONTINUOUS
 62
     3
100
AcDbLine
 10
12.80502605438232
 20
22.72129821777344
 30
0.0
 11
12.77184009552001
 21
22.68819236755371
 31
0.0
  0
LINE
  5
2F8
330
A
100
AcDbEntity
  8
TOP
  6
CONTINUOUS
 62
     3
100
AcDbLine
 10
14.55916500091552
 20
30.42554664611816
 30
0.0
 11
14.81682395935058
 21
30.16788864135742
 31
0.0
  0
LINE
  5
2F9
330
A
100
AcDbEntity
  8
TOP
  6
CONTINUOUS
 62
     3
100
AcDbLine
 10
13.95551204681396
 20
14.20167732238769
 30
0.0
 11
13.95551204681396
 21
14.14373683929443
 31
0.0
  0
LINE
  5
2FA
330
A
100
AcDbEntity
  8
TOP
  6
CONTINUOUS
 62
     3
100
AcDbLine
 10
25.32741737365722
 20
30.64364814758301
 30
0.0
 11
25.3120002746582
 21
30.62565994262695
 31
0.0
  0
LINE
  5
2FB
330
A
100
AcDbEntity
  8
TOP
  6
CONTINUOUS
 62
     3
100
AcDbLine
 10
25.47755813598632
 20
30.04472732543945
 30
0.0
 11
25.48406982421875
 21
30.07413482666015
 31
0.0
  0
LINE
  5
2FC
330
A
100
AcDbEntity
  8
TOP
  6
CONTINUOUS
 62
     3
100
AcDbLine
 10
16.33916091918945
 20
14.4539566040039
 30
0.0
 11
16.35706520080566
 21
14.45389080047607
 31
0.0
  0
LINE
  5
2FD
330
A
100
AcDbEntity
  8
TOP
  6
CONTINUOUS
 62
     3
100
AcDbLine
 10
22.85914993286132
 20
22.25784301757812
 30
0.0
 11
22.85906982421875
 21
22.32413482666015
 31
0.0
  0
LINE
  5
2FE
330
A
100
AcDbEntity
  8
TOP
  6
CONTINUOUS
 62
     3
100
AcDbLine
 10
22.85906982421875
 20
30.07413482666015
 30
0.0
 11
22.8589916229248
 21
30.14044570922851
 31
0.0
  0
LINE
  5
2FF
330
A
100
AcDbEntity
  8
TOP
  6
CONTINUOUS
 62
     3
100
AcDbLine
 10
10.52666091918945
 20
30.07413482666015
 30
0.0
 11
10.52666187286376
 21
30.07453918457031
 31
0.0
  0
LINE
  5
300
330
A
100
AcDbEntity
  8
TOP
  6
CONTINUOUS
 62
     3
100
AcDbLine
 10
10.27666091918945
 20
31.4941349029541
 30
0.0
 11
10.27666091918945
 21
20.90413475036621
 31
0.0
  0
LINE
  5
301
330
A
100
AcDbEntity
  8
TOP
  6
CONTINUOUS
 62
     3
100
AcDbLine
 10
16.25164413452148
 20
22.23038482666015
 30
0.0
 11
16.29179763793945
 21
22.23038482666015
 31
0.0
  0
LINE
  5
302
330
A
100
AcDbEntity
  8
TOP
  6
CONTINUOUS
 62
     3
100
AcDbLine
 10
13.69377899169921
 20
22.41788482666015
 30
0.0
 11
13.35976886749267
 21
22.41788482666015
 31
0.0
  0
LINE
  5
303
330
A
100
AcDbEntity
  8
TOP
  6
CONTINUOUS
 62
     3
100
AcDbLine
 10
10.71416091918945
 20
14.4539566040039
 30
0.0
 11
10.69625663757324
 21
14.45402240753173
 31
0.0
  0
LINE
  5
304
330
A
100
AcDbEntity
  8
TOP
  6
CONTINUOUS
 62
     3
100
AcDbLine
 10
10.31666088104248
 20
13.99895668029785
 30
0.0
 11
10.31666088104248
 21
13.5789566040039
 31
0.0
  0
LINE
  5
305
330
A
100
AcDbEntity
  8
TOP
  6
CONTINUOUS
 62
     3
100
AcDbLine
 10
22.48406982421875
 20
22.82413482666015
 30
0.0
 11
22.50197601318359
 21
22.86305236816406
 31
0.0
  0
LINE
  5
306
330
A
100
AcDbEntity
  8
TOP
  6
CONTINUOUS
 62
     3
100
AcDbLine
 10
22.54956817626953
 20
22.40787506103515
 30
0.0
 11
22.51213645935058
 21
22.38360977172851
 31
0.0
  0
LINE
  5
307
330
A
100
AcDbEntity
  8
TOP
  6
CONTINUOUS
 62
     3
100
AcDbLine
 10
22.51152992248535
 20
30.00784301757812
 30
0.0
 11
22.48406982421875
 21
30.07413482666015
 31
0.0
  0
LINE
  5
308
330
A
100
AcDbEntity
  8
TOP
  6
CONTINUOUS
 62
     3
100
AcDbLine
 10
22.7250690460205
 20
29.98038482666015
 30
0.0
 11
22.77095413208007
 21
29.98038482666015
 31
0.0
  0
LINE
  5
309
330
A
100
AcDbEntity
  8
TOP
  6
CONTINUOUS
 62
     3
100
AcDbLine
 10
22.70272254943847
 20
22.41788482666015
 30
0.0
 11
22.6415901184082
 21
22.41788482666015
 31
0.0
  0
LINE
  5
30A
330
A
100
AcDbEntity
  8
TOP
  6
CONTINUOUS
 62
     3
100
AcDbLine
 10
25.29656982421875
 20
30.49175834655761
 30
0.0
 11
25.29656982421875
 21
30.16788864135742
 31
0.0
  0
LINE
  5
30B
330
A
100
AcDbEntity
  8
TOP
  6
CONTINUOUS
 62
     3
100
AcDbLine
 10
25.5640697479248
 20
20.86413383483886
 30
0.0
 11
25.98406982421875
 21
20.86413383483886
 31
0.0
  0
LINE
  5
30C
330
A
100
AcDbEntity
  8
TOP
  6
CONTINUOUS
 62
     3
100
AcDbLine
 10
14.14296245574951
 20
22.32413482666015
 30
0.0
 11
14.14288234710693
 21
22.39042663574218
 31
0.0
  0
LINE
  5
30D
330
A
100
AcDbEntity
  8
TOP
  6
CONTINUOUS
 62
     3
100
AcDbLine
 10
14.16157627105713
 20
30.55812835693359
 30
0.0
 11
14.17422103881835
 21
30.54545402526855
 31
0.0
  0
LINE
  5
30E
330
A
100
AcDbEntity
  8
TOP
  6
CONTINUOUS
 62
     3
100
AcDbLine
 10
10.70934772491455
 20
22.41787147521972
 30
0.0
 11
10.68265914916992
 21
22.41783332824707
 31
0.0
  0
LINE
  5
30F
330
A
100
AcDbEntity
  8
TOP
  6
CONTINUOUS
 62
     3
100
AcDbLine
 10
15.05202674865722
 20
14.2664566040039
 30
0.0
 11
14.96078300476074
 21
14.2664566040039
 31
0.0
  0
LINE
  5
310
330
A
100
AcDbEntity
  8
TOP
  6
CONTINUOUS
 62
     3
100
AcDbLine
 10
13.94408798217773
 20
17.0789566040039
 30
0.0
 11
13.52746486663818
 21
17.0789566040039
 31
0.0
  0
LINE
  5
311
330
A
100
AcDbEntity
  8
TOP
  6
CONTINUOUS
 62
     3
100
AcDbLine
 10
12.89190578460693
 20
22.80797004699707
 30
0.0
 11
12.87923049926757
 21
22.79532432556152
 31
0.0
  0
LINE
  5
312
330
A
100
AcDbEntity
  8
TOP
  6
CONTINUOUS
 62
     3
100
AcDbLine
 10
14.14307403564453
 20
29.98038482666015
 30
0.0
 11
16.15177345275879
 21
29.98038482666015
 31
0.0
  0
LINE
  5
313
330
A
100
AcDbEntity
  8
TOP
  6
CONTINUOUS
 62
     3
100
AcDbLine
 10
25.39483642578125
 20
29.98305702209473
 30
0.0
 11
25.4185733795166
 21
29.99039459228515
 31
0.0
  0
LINE
  5
314
330
A
100
AcDbEntity
  8
TOP
  6
CONTINUOUS
 62
     3
100
AcDbLine
 10
25.32655143737793
 20
22.23038482666015
 30
0.0
 11
25.36895561218261
 21
22.23038482666015
 31
0.0
  0
LINE
  5
315
330
A
100
AcDbEntity
  8
TOP
  6
CONTINUOUS
 62
     3
100
AcDbLine
 10
22.85906982421875
 20
22.32413482666015
 30
0.0
 11
22.8589916229248
 21
22.39044570922851
 31
0.0
  0
LINE
  5
316
330
A
100
AcDbEntity
  8
TOP
  6
CONTINUOUS
 62
     3
100
AcDbLine
 10
25.29656982421875
 20
30.52673530578613
 30
0.0
 11
25.29656982421875
 21
30.49175834655761
 31
0.0
  0
LINE
  5
317
330
A
100
AcDbEntity
  8
TOP
  6
CONTINUOUS
 62
     3
100
AcDbLine
 10
22.54445838928222
 20
30.16174697875976
 30
0.0
 11
22.60007286071777
 21
30.16520500183105
 31
0.0
  0
LINE
  5
318
330
A
100
AcDbEntity
  8
TOP
  6
CONTINUOUS
 62
     3
100
AcDbLine
 10
13.47892761230468
 20
22.8709545135498
 30
0.0
 11
13.45948886871338
 21
22.89034652709961
 31
0.0
  0
LINE
  5
319
330
A
100
AcDbEntity
  8
TOP
  6
CONTINUOUS
 62
     3
100
AcDbLine
 10
13.69377899169921
 20
22.41788482666015
 30
0.0
 11
13.69375705718994
 21
22.39998054504394
 31
0.0
  0
LINE
  5
31A
330
A
100
AcDbEntity
  8
TOP
  6
CONTINUOUS
 62
     3
100
AcDbLine
 10
12.48135471343994
 20
30.43806266784668
 30
0.0
 11
12.49399948120117
 21
30.42538833618164
 31
0.0
  0
LINE
  5
31B
330
A
100
AcDbEntity
  8
TOP
  6
CONTINUOUS
 62
     3
100
AcDbLine
 10
10.30009269714355
 20
31.4941349029541
 30
0.0
 11
10.27666091918945
 21
31.4941349029541
 31
0.0
  0
LINE
  5
31C
330
A
100
AcDbEntity
  8
TOP
  6
CONTINUOUS
 62
     3
100
AcDbLine
 10
10.64602279663086
 20
30.16740608215332
 30
0.0
 11
10.64480972290039
 21
30.16712760925293
 31
0.0
  0
LINE
  5
31D
330
A
100
AcDbEntity
  8
TOP
  6
CONTINUOUS
 62
     3
100
AcDbLine
 10
12.02632808685302
 20
22.47288131713867
 30
0.0
 11
12.04186916351318
 21
22.45730400085449
 31
0.0
  0
LINE
  5
31E
330
A
100
AcDbEntity
  8
TOP
  6
CONTINUOUS
 62
     3
100
AcDbLine
 10
14.16157627105713
 20
22.80812835693359
 30
0.0
 11
13.82632827758789
 21
22.47288131713867
 31
0.0
  0
LINE
  5
31F
330
A
100
AcDbEntity
  8
TOP
  6
CONTINUOUS
 62
     3
100
AcDbLine
 10
25.46803092956543
 20
22.44354820251464
 30
0.0
 11
25.42543792724609
 21
22.4679012298584
 31
0.0
  0
LINE
  5
320
330
A
100
AcDbEntity
  8
TOP
  6
CONTINUOUS
 62
     3
100
AcDbLine
 10
22.48407554626465
 20
30.1099853515625
 30
0.0
 11
22.48423385620117
 21
30.08665657043457
 31
0.0
  0
LINE
  5
321
330
A
100
AcDbEntity
  8
TOP
  6
CONTINUOUS
 62
     3
100
AcDbLine
 10
14.22778797149658
 20
14.2664566040039
 30
0.0
 11
14.2667064666748
 21
14.24855232238769
 31
0.0
  0
LINE
  5
322
330
A
100
AcDbEntity
  8
TOP
  6
CONTINUOUS
 62
     3
100
AcDbLine
 10
16.4176959991455
 20
29.98038482666015
 30
0.0
 11
16.4290714263916
 21
29.98038482666015
 31
0.0
  0
LINE
  5
323
330
A
100
AcDbEntity
  8
TOP
  6
CONTINUOUS
 62
     3
100
AcDbLine
 10
22.60790252685546
 20
29.98038482666015
 30
0.0
 11
22.64064216613769
 21
29.98038482666015
 31
0.0
  0
LINE
  5
324
330
A
100
AcDbEntity
  8
TOP
  6
CONTINUOUS
 62
     3
100
AcDbLine
 10
14.29075908660888
 20
14.14373683929443
 30
0.0
 11
14.2667064666748
 21
14.09686183929443
 31
0.0
  0
ARC
  5
325
330
A
100
AcDbEntity
  8
TOP
  6
CONTINUOUS
 62
     3
100
AcDbCircle
 10
25.5640697479248
 20
20.90413475036621
 30
0.0
 40
0.0399999991059303
100
AcDbArc
 50
180.0
 51
270.0
  0
ARC
  5
326
330
A
100
AcDbEntity
  8
TOP
  6
CONTINUOUS
 62
     3
100
AcDbCircle
 10
16.15166091918945
 20
14.4539566040039
 30
0.0
 40
0.1875
100
AcDbArc
 50
270.0
 51
360.0
  0
ARC
  5
327
330
A
100
AcDbEntity
  8
TOP
  6
CONTINUOUS
 62
     3
100
AcDbCircle
 10
14.42666149139404
 20
22.54288482666015
 30
0.0
 40
0.3749999403953552
100
AcDbArc
 50
44.98285787816176
 51
134.9828578781617
  0
ARC
  5
328
330
A
100
AcDbEntity
  8
TOP
  6
CONTINUOUS
 62
     3
100
AcDbCircle
 10
12.91036128997802
 20
22.60538482666015
 30
0.0
 40
0.1875001043081284
100
AcDbArc
 50
269.9657150560835
 51
314.9658252511651
  0
ARC
  5
329
330
A
100
AcDbEntity
  8
TOP
  6
CONTINUOUS
 62
     3
100
AcDbCircle
 10
11.89366626739501
 20
30.35538482666015
 30
0.0
 40
0.1875001043081284
100
AcDbArc
 50
270.0342849439164
 51
315.0342874430477
  0
ARC
  5
32A
330
A
100
AcDbEntity
  8
TOP
  6
CONTINUOUS
 62
     3
100
AcDbCircle
 10
14.14296245574951
 20
22.04288482666015
 30
0.0
 40
0.1875001043081284
100
AcDbArc
 50
89.96571505163686
 51
134.9657125569522
  0
ARC
  5
32B
330
A
100
AcDbEntity
  8
TOP
  6
CONTINUOUS
 62
     3
100
AcDbCircle
 10
12.62666130065918
 20
22.54288482666015
 30
0.0
 40
0.1875001043081284
100
AcDbArc
 50
45.03428744304772
 51
135.0342874430477
  0
ARC
  5
32C
330
A
100
AcDbEntity
  8
TOP
  6
CONTINUOUS
 62
     3
100
AcDbCircle
 10
14.14296245574951
 20
29.79288482666015
 30
0.0
 40
0.3749999403953552
100
AcDbArc
 50
90.01714248302926
 51
135.0171421218382
  0
CIRCLE
  5
32D
330
A
100
AcDbEntity
  8
TOP
  6
CONTINUOUS
 62
     3
100
AcDbCircle
 10
10.77666091918945
 20
21.07413482666015
 30
0.0
 40
0.1000000014901161
  0
ARC
  5
32E
330
A
100
AcDbEntity
  8
TOP
  6
CONTINUOUS
 62
     3
100
AcDbCircle
 10
10.90166091918945
 20
16.7039566040039
 30
0.0
 40
0.1875
100
AcDbArc
 50
90.0
 51
180.0
  0
ARC
  5
32F
330
A
100
AcDbEntity
  8
TOP
  6
CONTINUOUS
 62
     3
100
AcDbCircle
 10
13.35965728759765
 20
22.60538482666015
 30
0.0
 40
0.1875001043081284
100
AcDbArc
 50
242.7410822966073
 51
270.0342849439164
  0
ARC
  5
330
330
A
100
AcDbEntity
  8
TOP
  6
CONTINUOUS
 62
     3
100
AcDbCircle
 10
25.5640697479248
 20
31.4941349029541
 30
0.0
 40
0.0399999991059303
100
AcDbArc
 50
90.0
 51
180.0
  0
CIRCLE
  5
331
330
A
100
AcDbEntity
  8
TOP
  6
CONTINUOUS
 62
     3
100
AcDbCircle
 10
16.27666091918945
 20
31.32413482666015
 30
0.0
 40
0.1000000014901161
  0
ARC
  5
332
330
A
100
AcDbEntity
  8
TOP
  6
CONTINUOUS
 62
     3
100
AcDbCircle
 10
13.35965728759765
 20
30.35538482666015
 30
0.0
 40
0.3749999403953552
100
AcDbArc
 50
233.1974680786954
 51
269.9828575147473
  0
ARC
  5
333
330
A
100
AcDbEntity
  8
TOP
  6
CONTINUOUS
 62
     3
100
AcDbCircle
 10
15.1596565246582
 20
30.35538482666015
 30
0.0
 40
0.1875001043081284
100
AcDbArc
 50
225.0342874430477
 51
270.0342849439164
  0
ARC
  5
334
330
A
100
AcDbEntity
  8
TOP
  6
CONTINUOUS
 62
     3
100
AcDbCircle
 10
13.69366645812988
 20
30.35538482666015
 30
0.0
 40
0.1875001043081284
100
AcDbArc
 50
270.0342849439164
 51
315.0342874430477
  0
ARC
  5
335
330
A
100
AcDbEntity
  8
TOP
  6
CONTINUOUS
 62
     3
100
AcDbCircle
 10
16.15166091918945
 20
14.4539566040039
 30
0.0
 40
0.375
100
AcDbArc
 50
270.0
 51
360.0
  0
ARC
  5
336
330
A
100
AcDbEntity
  8
TOP
  6
CONTINUOUS
 62
     3
100
AcDbCircle
 10
14.42666149139404
 20
22.54288482666015
 30
0.0
 40
0.1875001043081284
100
AcDbArc
 50
45.03428744304772
 51
135.0342874430477
  0
ARC
  5
337
330
A
100
AcDbEntity
  8
TOP
  6
CONTINUOUS
 62
     3
100
AcDbCircle
 10
25.5640697479248
 20
20.90413475036621
 30
0.0
 40
0.0799999982118607
100
AcDbArc
 50
180.0
 51
270.0
  0
ARC
  5
338
330
A
100
AcDbEntity
  8
TOP
  6
CONTINUOUS
 62
     3
100
AcDbCircle
 10
16.15166091918945
 20
16.7039566040039
 30
0.0
 40
0.1875
100
AcDbArc
 50
0.0
 51
90.0
  0
ARC
  5
339
330
A
100
AcDbEntity
  8
TOP
  6
CONTINUOUS
 62
     3
100
AcDbCircle
 10
14.14296245574951
 20
22.04288482666015
 30
0.0
 40
0.3749999403953552
100
AcDbArc
 50
90.01714248302926
 51
135.0171421218382
  0
ARC
  5
33A
330
A
100
AcDbEntity
  8
TOP
  6
CONTINUOUS
 62
     3
100
AcDbCircle
 10
11.89366626739501
 20
22.60538482666015
 30
0.0
 40
0.1875001043081284
100
AcDbArc
 50
270.0342849439164
 51
315.0342874430477
  0
ARC
  5
33B
330
A
100
AcDbEntity
  8
TOP
  6
CONTINUOUS
 62
     3
100
AcDbCircle
 10
12.91036128997802
 20
30.35538482666015
 30
0.0
 40
0.3749999403953552
100
AcDbArc
 50
270.0171424852526
 51
315.0172515944354
  0
ARC
  5
33C
330
A
100
AcDbEntity
  8
TOP
  6
CONTINUOUS
 62
     3
100
AcDbCircle
 10
10.90166091918945
 20
16.7039566040039
 30
0.0
 40
0.375
100
AcDbArc
 50
90.0
 51
180.0
  0
ARC
  5
33D
330
A
100
AcDbEntity
  8
TOP
  6
CONTINUOUS
 62
     3
100
AcDbCircle
 10
13.35965728759765
 20
22.60538482666015
 30
0.0
 40
0.3749999403953552
100
AcDbArc
 50
233.1974680786954
 51
269.9828575147473
  0
CIRCLE
  5
33E
330
A
100
AcDbEntity
  8
TOP
  6
CONTINUOUS
 62
     3
100
AcDbCircle
 10
10.77666091918945
 20
31.32413482666015
 30
0.0
 40
0.1000000014901161
  0
ARC
  5
33F
330
A
100
AcDbEntity
  8
TOP
  6
CONTINUOUS
 62
     3
100
AcDbCircle
 10
10.90166091918945
 20
14.4539566040039
 30
0.0
 40
0.1875
100
AcDbArc
 50
180.0
 51
270.0
  0
ARC
  5
340
330
A
100
AcDbEntity
  8
TOP
  6
CONTINUOUS
 62
     3
100
AcDbCircle
 10
14.42666149139404
 20
30.29288482666015
 30
0.0
 40
0.1875001043081284
100
AcDbArc
 50
45.03428744304772
 51
135.0342874430477
  0
ARC
  5
341
330
A
100
AcDbEntity
  8
TOP
  6
CONTINUOUS
 62
     3
100
AcDbCircle
 10
12.62666130065918
 20
30.29288482666015
 30
0.0
 40
0.1875001043081284
100
AcDbArc
 50
45.03428744304772
 51
135.0342874430477
  0
ARC
  5
342
330
A
100
AcDbEntity
  8
TOP
  6
CONTINUOUS
 62
     3
100
AcDbCircle
 10
12.62666130065918
 20
30.29288482666015
 30
0.0
 40
0.3749999403953552
100
AcDbArc
 50
44.98285787816176
 51
134.9828578781617
  0
ARC
  5
343
330
A
100
AcDbEntity
  8
TOP
  6
CONTINUOUS
 62
     3
100
AcDbCircle
 10
13.69366645812988
 20
30.35538482666015
 30
0.0
 40
0.3749999403953552
100
AcDbArc
 50
269.9828575147473
 51
290.2455142644599
  0
ARC
  5
344
330
A
100
AcDbEntity
  8
TOP
  6
CONTINUOUS
 62
     3
100
AcDbCircle
 10
16.69666099548339
 20
13.99895668029785
 30
0.0
 40
0.0799999982118607
100
AcDbArc
 50
0.0
 51
90.0
  0
ARC
  5
345
330
A
100
AcDbEntity
  8
TOP
  6
CONTINUOUS
 62
     3
100
AcDbCircle
 10
14.42666149139404
 20
30.29288482666015
 30
0.0
 40
0.3749999403953552
100
AcDbArc
 50
44.98285787816176
 51
134.9828578781617
  0
ARC
  5
346
330
A
100
AcDbEntity
  8
TOP
  6
CONTINUOUS
 62
     3
100
AcDbCircle
 10
13.69366645812988
 20
22.60538482666015
 30
0.0
 40
0.1875001043081284
100
AcDbArc
 50
270.0342849439164
 51
315.0342874430477
  0
ARC
  5
347
330
A
100
AcDbEntity
  8
TOP
  6
CONTINUOUS
 62
     3
100
AcDbCircle
 10
16.15166091918945
 20
16.7039566040039
 30
0.0
 40
0.375
100
AcDbArc
 50
0.0
 51
90.0
  0
ARC
  5
348
330
A
100
AcDbEntity
  8
TOP
  6
CONTINUOUS
 62
     3
100
AcDbCircle
 10
15.1596565246582
 20
22.60538482666015
 30
0.0
 40
0.1875001043081284
100
AcDbArc
 50
225.0342874430477
 51
270.0342849439164
  0
ARC
  5
349
330
A
100
AcDbEntity
  8
TOP
  6
CONTINUOUS
 62
     3
100
AcDbCircle
 10
12.91036128997802
 20
22.60538482666015
 30
0.0
 40
0.3749999403953552
100
AcDbArc
 50
270.0171424852526
 51
315.0172515944354
  0
ARC
  5
34A
330
A
100
AcDbEntity
  8
TOP
  6
CONTINUOUS
 62
     3
100
AcDbCircle
 10
12.91036128997802
 20
30.35538482666015
 30
0.0
 40
0.1875001043081284
100
AcDbArc
 50
269.9657150560835
 51
314.9658252511651
  0
ARC
  5
34B
330
A
100
AcDbEntity
  8
TOP
  6
CONTINUOUS
 62
     3
100
AcDbCircle
 10
12.62666130065918
 20
22.54288482666015
 30
0.0
 40
0.3749999403953552
100
AcDbArc
 50
44.98285787816176
 51
134.9828578781617
  0
ARC
  5
34C
330
A
100
AcDbEntity
  8
TOP
  6
CONTINUOUS
 62
     3
100
AcDbCircle
 10
14.14296245574951
 20
29.79288482666015
 30
0.0
 40
0.1875001043081284
100
AcDbArc
 50
89.96571505163686
 51
134.9657125569522
  0
ARC
  5
34D
330
A
100
AcDbEntity
  8
TOP
  6
CONTINUOUS
 62
     3
100
AcDbCircle
 10
25.5640697479248
 20
31.4941349029541
 30
0.0
 40
0.0799999982118607
100
AcDbArc
 50
90.0
 51
180.0
  0
CIRCLE
  5
34E
330
A
100
AcDbEntity
  8
TOP
  6
CONTINUOUS
 62
     3
100
AcDbCircle
 10
16.27666091918945
 20
21.07413482666015
 30
0.0
 40
0.1000000014901161
  0
ARC
  5
34F
330
A
100
AcDbEntity
  8
TOP
  6
CONTINUOUS
 62
     3
100
AcDbCircle
 10
10.90166091918945
 20
14.4539566040039
 30
0.0
 40
0.375
100
AcDbArc
 50
180.0
 51
270.0
  0
ARC
  5
350
330
A
100
AcDbEntity
  8
TOP
  6
CONTINUOUS
 62
     3
100
AcDbCircle
 10
13.69366645812988
 20
22.60538482666015
 30
0.0
 40
0.3749999403953552
100
AcDbArc
 50
269.9828575147473
 51
290.2455142644599
  0
ARC
  5
351
330
A
100
AcDbEntity
  8
TOP
  6
CONTINUOUS
 62
     3
100
AcDbCircle
 10
10.3566608428955
 20
13.99895668029785
 30
0.0
 40
0.0799999982118607
100
AcDbArc
 50
90.0
 51
180.0
  0
ARC
  5
352
330
A
100
AcDbEntity
  8
TOP
  6
CONTINUOUS
 62
     3
100
AcDbCircle
 10
10.3566608428955
 20
13.99895668029785
 30
0.0
 40
0.0399999991059303
100
AcDbArc
 50
90.0
 51
180.0
  0
ARC
  5
353
330
A
100
AcDbEntity
  8
TOP
  6
CONTINUOUS
 62
     3
100
AcDbCircle
 10
16.69666099548339
 20
13.99895668029785
 30
0.0
 40
0.0399999991059303
100
AcDbArc
 50
0.0
 51
90.0
  0
ARC
  5
354
330
A
100
AcDbEntity
  8
TOP
  6
CONTINUOUS
 62
     3
100
AcDbCircle
 10
13.35965728759765
 20
30.35538482666015
 30
0.0
 40
0.1875001043081284
100
AcDbArc
 50
242.7410822966073
 51
270.0342849439164
  0
VIEWPORT
  5
373
330
B
100
AcDbEntity
 67
     1
  8
0
  6
CONTINUOUS
100
AcDbViewport
 10
3.6468788249694
 20
2.25
 30
0.0
 40
8.2937576499388
 41
5.5
 68
     1
 69
     1
1001
ACAD
1000
MVIEW
1002
{
1070
    16
1010
0.0
1020
0.0
1030
0.0
1010
0.0
1020
0.0
1030
1.0
1040
0.0
1040
5.5
1040
3.6468788249694
1040
2.25
1040
50.0
1040
0.0
1040
0.0
1070
     0
1070
   100
1070
     1
1070
     1
1070
     0
1070
     0
1070
     0
1070
     0
1040
0.0
1040
0.0
1040
0.0
1040
1.0
1040
1.0
1040
0.0
1040
0.0
1070
     0
1002
{
1002
}
1002
}
  0
ENDSEC
  0
SECTION
  2
OBJECTS
  0
DICTIONARY
  5
19
330
0
100
AcDbDictionary
  3
ACAD_GROUP
350
1A
  3
ACAD_MLINESTYLE
350
1B
  3
ACAD_LAYOUT
350
1E
  3
ACAD_PLOTSETTINGS
350
21
  3
ACAD_PLOTSTYLENAME
350
1F
  3
ACDBHEADERROUNDTRIPXREC
350
380
  0
DICTIONARY
  5
3A1
330
A
100
AcDbDictionary
280
     1
  3
ACAD_LAYOUTSELFREF
360
3A2
  0
DICTIONARY
  5
3A3
330
B
100
AcDbDictionary
280
     1
  3
ACAD_LAYOUTSELFREF
360
3A4
  0
DICTIONARY
  5
1A
102
{ACAD_REACTORS
330
19
102
}
330
19
100
AcDbDictionary
  0
DICTIONARY
  5
1B
102
{ACAD_REACTORS
330
19
102
}
330
19
100
AcDbDictionary
  3
STANDARD
350
1C
  0
DICTIONARY
  5
1E
102
{ACAD_REACTORS
330
19
102
}
330
19
100
AcDbDictionary
  0
DICTIONARY
  5
21
102
{ACAD_REACTORS
330
19
102
}
330
19
100
AcDbDictionary
  0
ACDBDICTIONARYWDFLT
  5
1F
102
{ACAD_REACTORS
330
19
102
}
330
19
100
AcDbDictionary
281
     1
  3
Normal
350
1D
100
AcDbDictionaryWithDefault
340
1D
  0
DICTIONARY
  5
380
102
{ACAD_REACTORS
330
19
102
}
330
19
100
AcDbDictionary
  3
TSTACKALIGN
350
381
  3
TSTACKSIZE
350
382
  3
HYPERLINKBASE
350
383
  3
STYLESHEET
350
384
  3
LAYOUTDICT
350
385
  3
PLOTSETDICT
350
386
  3
PLOTSTYLNAMDICT
350
387
  3
LWETCUNION
350
388
  3
INSUNITS
350
389
  3
CEPSNTYPE
350
38A
  3
FINGERPRINTGUID
350
38B
  3
VERSIONGUID
350
38C
  3
PSVPSCALE
350
38D
  3
DIMSTYLEDATA
350
38E
  3
PUCSORTHOREF
350
38F
  3
PUCSORTHOVIEW
350
390
  3
PUCSBASE
350
391
  3
PUCSORGTOP
350
392
  3
PUCSORGBOTTOM
350
393
  3
PUCSORGLEFT
350
394
  3
PUCSORGRIGHT
350
395
  3
PUCSORGFRONT
350
396
  3
PUCSORGBACK
350
397
  3
UCSORTHOREF
350
398
  3
UCSORTHOVIEW
350
399
  3
UCSBASE
350
39A
  3
UCSORGTOP
350
39B
  3
UCSORGBOTTOM
350
39C
  3
UCSORGLEFT
350
39D
  3
UCSORGRIGHT
350
39E
  3
UCSORGFRONT
350
39F
  3
UCSORGBACK
350
3A0
  0
XRECORD
  5
3A2
102
{ACAD_REACTORS
330
3A1
102
}
330
3A1
100
AcDbXrecord
340
A
  0
XRECORD
  5
3A4
102
{ACAD_REACTORS
330
3A3
102
}
330
3A3
100
AcDbXrecord
340
B
  0
MLINESTYLE
  5
1C
102
{ACAD_REACTORS
330
1B
102
}
330
1B
100
AcDbMlineStyle
  2
STANDARD
 70
     0
  3

 62
     0
 51
90.00000000000019
 52
90.00000000000019
 71
     2
 49
0.5
 62
   256
  6
BYLAYER
 49
-0.5
 62
   256
  6
BYLAYER
  0
ACDBPLACEHOLDER
  5
1D
102
{ACAD_REACTORS
330
1F
102
}
330
1F
100
AcDbPlaceHolder
280
     0
  0
XRECORD
  5
381
102
{ACAD_REACTORS
330
380
102
}
330
380
100
AcDbXrecord
 90
        0
  0
XRECORD
  5
382
102
{ACAD_REACTORS
330
380
102
}
330
380
100
AcDbXrecord
 90
        0
  0
XRECORD
  5
383
102
{ACAD_REACTORS
330
380
102
}
330
380
100
AcDbXrecord
  1

  0
XRECORD
  5
384
102
{ACAD_REACTORS
330
380
102
}
330
380
100
AcDbXrecord
  1

  0
XRECORD
  5
385
102
{ACAD_REACTORS
330
380
102
}
330
380
100
AcDbXrecord
340
1E
  0
XRECORD
  5
386
102
{ACAD_REACTORS
330
380
102
}
330
380
100
AcDbXrecord
340
21
  0
XRECORD
  5
387
102
{ACAD_REACTORS
330
380
102
}
330
380
100
AcDbXrecord
340
1F
  0
XRECORD
  5
388
102
{ACAD_REACTORS
330
380
102
}
330
380
100
AcDbXrecord
 90
    10752
  0
XRECORD
  5
389
102
{ACAD_REACTORS
330
380
102
}
330
380
100
AcDbXrecord
 90
        0
  0
XRECORD
  5
38A
102
{ACAD_REACTORS
330
380
102
}
330
380
100
AcDbXrecord
 90
        0
  0
XRECORD
  5
38B
102
{ACAD_REACTORS
330
380
102
}
330
380
100
AcDbXrecord
  1

  0
XRECORD
  5
38C
102
{ACAD_REACTORS
330
380
102
}
330
380
100
AcDbXrecord
  1
{E1FDE836-9771-11D7-9E33-00B0D0207C84}
  0
XRECORD
  5
38D
102
{ACAD_REACTORS
330
380
102
}
330
380
100
AcDbXrecord
 40
0.0
  0
XRECORD
  5
38E
102
{ACAD_REACTORS
330
380
102
}
330
380
100
AcDbXrecord
1000
DSTYLE
1002
{
1070
   278
 70
     0
1070
   371
 70
     0
1070
   372
 70
     0
1002
}
  0
XRECORD
  5
38F
102
{ACAD_REACTORS
330
380
102
}
330
380
100
AcDbXrecord
340
0
  0
XRECORD
  5
390
102
{ACAD_REACTORS
330
380
102
}
330
380
100
AcDbXrecord
 70
     0
  0
XRECORD
  5
391
102
{ACAD_REACTORS
330
380
102
}
330
380
100
AcDbXrecord
340
0
  0
XRECORD
  5
392
102
{ACAD_REACTORS
330
380
102
}
330
380
100
AcDbXrecord
 10
0.0
 20
0.0
 30
0.0
  0
XRECORD
  5
393
102
{ACAD_REACTORS
330
380
102
}
330
380
100
AcDbXrecord
 10
0.0
 20
0.0
 30
0.0
  0
XRECORD
  5
394
102
{ACAD_REACTORS
330
380
102
}
330
380
100
AcDbXrecord
 10
0.0
 20
0.0
 30
0.0
  0
XRECORD
  5
395
102
{ACAD_REACTORS
330
380
102
}
330
380
100
AcDbXrecord
 10
0.0
 20
0.0
 30
0.0
  0
XRECORD
  5
396
102
{ACAD_REACTORS
330
380
102
}
330
380
100
AcDbXrecord
 10
0.0
 20
0.0
 30
0.0
  0
XRECORD
  5
397
102
{ACAD_REACTORS
330
380
102
}
330
380
100
AcDbXrecord
 10
0.0
 20
0.0
 30
0.0
  0
XRECORD
  5
398
102
{ACAD_REACTORS
330
380
102
}
330
380
100
AcDbXrecord
340
0
  0
XRECORD
  5
399
102
{ACAD_REACTORS
330
380
102
}
330
380
100
AcDbXrecord
 70
     0
  0
XRECORD
  5
39A
102
{ACAD_REACTORS
330
380
102
}
330
380
100
AcDbXrecord
340
0
  0
XRECORD
  5
39B
102
{ACAD_REACTORS
330
380
102
}
330
380
100
AcDbXrecord
 10
0.0
 20
0.0
 30
0.0
  0
XRECORD
  5
39C
102
{ACAD_REACTORS
330
380
102
}
330
380
100
AcDbXrecord
 10
0.0
 20
0.0
 30
0.0
  0
XRECORD
  5
39D
102
{ACAD_REACTORS
330
380
102
}
330
380
100
AcDbXrecord
 10
0.0
 20
0.0
 30
0.0
  0
XRECORD
  5
39E
102
{ACAD_REACTORS
330
380
102
}
330
380
100
AcDbXrecord
 10
0.0
 20
0.0
 30
0.0
  0
XRECORD
  5
39F
102
{ACAD_REACTORS
330
380
102
}
330
380
100
AcDbXrecord
 10
0.0
 20
0.0
 30
0.0
  0
XRECORD
  5
3A0
102
{ACAD_REACTORS
330
380
102
}
330
380
100
AcDbXrecord
 10
0.0
 20
0.0
 30
0.0
  0
ENDSEC
  0
EOF
