  0
SECTION
  2
HEADER
  9
$ACADVER
  1
AC1012
  9
$DWGCODEPAGE
  3
ANSI_1252
  9
$INSBASE
 10
0.0
 20
0.0
 30
0.0
  9
$EXTMIN
 10
-0.0218504914054094
 20
1.664840721135075
 30
-0.0000000349181948
  9
$EXTMAX
 10
3.627194346609798
 20
6.488525408656016
 30
0.0000000814935746
  9
$LIMMIN
 10
0.0
 20
0.0
  9
$LIMMAX
 10
12.0
 20
9.0
  9
$ORTHOMODE
 70
     0
  9
$REGENMODE
 70
     1
  9
$FILLMODE
 70
     1
  9
$QTEXTMODE
 70
     0
  9
$MIRRTEXT
 70
     1
  9
$DRAGMODE
 70
     2
  9
$LTSCALE
 40
1.0
  9
$OSMODE
 70
    33
  9
$ATTMODE
 70
     1
  9
$TEXTSIZE
 40
0.2
  9
$TRACEWID
 40
0.05
  9
$TEXTSTYLE
  7
STANDARD
  9
$CLAYER
  8
0
  9
$CELTYPE
  6
BYLAYER
  9
$CECOLOR
 62
   256
  9
$CELTSCALE
 40
1.0
  9
$DELOBJ
 70
     1
  9
$DISPSILH
 70
     0
  9
$DIMSCALE
 40
1.0
  9
$DIMASZ
 40
0.18
  9
$DIMEXO
 40
0.0625
  9
$DIMDLI
 40
0.38
  9
$DIMRND
 40
0.0
  9
$DIMDLE
 40
0.0
  9
$DIMEXE
 40
0.18
  9
$DIMTP
 40
0.0
  9
$DIMTM
 40
0.0
  9
$DIMTXT
 40
0.18
  9
$DIMCEN
 40
0.09
  9
$DIMTSZ
 40
0.0
  9
$DIMTOL
 70
     0
  9
$DIMLIM
 70
     0
  9
$DIMTIH
 70
     1
  9
$DIMTOH
 70
     1
  9
$DIMSE1
 70
     0
  9
$DIMSE2
 70
     0
  9
$DIMTAD
 70
     0
  9
$DIMZIN
 70
     0
  9
$DIMBLK
  1

  9
$DIMASO
 70
     1
  9
$DIMSHO
 70
     1
  9
$DIMPOST
  1

  9
$DIMAPOST
  1

  9
$DIMALT
 70
     0
  9
$DIMALTD
 70
     2
  9
$DIMALTF
 40
25.4
  9
$DIMLFAC
 40
1.0
  9
$DIMTOFL
 70
     0
  9
$DIMTVP
 40
0.0
  9
$DIMTIX
 70
     0
  9
$DIMSOXD
 70
     0
  9
$DIMSAH
 70
     0
  9
$DIMBLK1
  1

  9
$DIMBLK2
  1

  9
$DIMSTYLE
  2
STANDARD
  9
$DIMCLRD
 70
     0
  9
$DIMCLRE
 70
     0
  9
$DIMCLRT
 70
     0
  9
$DIMTFAC
 40
1.0
  9
$DIMGAP
 40
0.09
  9
$DIMJUST
 70
     0
  9
$DIMSD1
 70
     0
  9
$DIMSD2
 70
     0
  9
$DIMTOLJ
 70
     1
  9
$DIMTZIN
 70
     0
  9
$DIMALTZ
 70
     0
  9
$DIMALTTZ
 70
     0
  9
$DIMFIT
 70
     5
  9
$DIMUPT
 70
     0
  9
$DIMUNIT
 70
     2
  9
$DIMDEC
 70
     4
  9
$DIMTDEC
 70
     4
  9
$DIMALTU
 70
     2
  9
$DIMALTTD
 70
     2
  9
$DIMTXSTY
  7
STANDARD
  9
$DIMAUNIT
 70
     0
  9
$LUNITS
 70
     2
  9
$LUPREC
 70
     4
  9
$SKETCHINC
 40
0.1
  9
$FILLETRAD
 40
0.0
  9
$AUNITS
 70
     0
  9
$AUPREC
 70
     0
  9
$MENU
  1
acad
  9
$ELEVATION
 40
0.0
  9
$PELEVATION
 40
0.0
  9
$THICKNESS
 40
0.0
  9
$LIMCHECK
 70
     0
  9
$BLIPMODE
 70
     0
  9
$CHAMFERA
 40
0.0
  9
$CHAMFERB
 40
0.0
  9
$CHAMFERC
 40
0.0
  9
$CHAMFERD
 40
0.0
  9
$SKPOLY
 70
     0
  9
$TDCREATE
 40
2451981.440775462
  9
$TDUPDATE
 40
2452338.606494918
  9
$TDINDWG
 40
0.0019267245
  9
$TDUSRTIMER
 40
0.0019267245
  9
$USRTIMER
 70
     1
  9
$ANGBASE
 50
0.0
  9
$ANGDIR
 70
     0
  9
$PDMODE
 70
     0
  9
$PDSIZE
 40
0.0
  9
$PLINEWID
 40
0.0
  9
$COORDS
 70
     2
  9
$SPLFRAME
 70
     0
  9
$SPLINETYPE
 70
     6
  9
$SPLINESEGS
 70
     8
  9
$ATTDIA
 70
     0
  9
$ATTREQ
 70
     1
  9
$HANDLING
 70
  4097
  9
$HANDSEED
  5
2BD5
  9
$SURFTAB1
 70
     6
  9
$SURFTAB2
 70
     6
  9
$SURFTYPE
 70
     6
  9
$SURFU
 70
     6
  9
$SURFV
 70
     6
  9
$UCSNAME
  2

  9
$UCSORG
 10
0.0
 20
0.0
 30
0.0
  9
$UCSXDIR
 10
1.0
 20
0.0
 30
0.0
  9
$UCSYDIR
 10
0.0
 20
1.0
 30
0.0
  9
$PUCSNAME
  2

  9
$PUCSORG
 10
0.0
 20
0.0
 30
0.0
  9
$PUCSXDIR
 10
1.0
 20
0.0
 30
0.0
  9
$PUCSYDIR
 10
0.0
 20
1.0
 30
0.0
  9
$USERI1
 70
     0
  9
$USERI2
 70
     0
  9
$USERI3
 70
     0
  9
$USERI4
 70
     0
  9
$USERI5
 70
     0
  9
$USERR1
 40
0.0
  9
$USERR2
 40
0.0
  9
$USERR3
 40
0.0
  9
$USERR4
 40
0.0
  9
$USERR5
 40
0.0
  9
$WORLDVIEW
 70
     1
  9
$SHADEDGE
 70
     3
  9
$SHADEDIF
 70
    70
  9
$TILEMODE
 70
     1
  9
$MAXACTVP
 70
    16
  9
$PINSBASE
 10
0.0
 20
0.0
 30
0.0
  9
$PLIMCHECK
 70
     0
  9
$PEXTMIN
 10
1.000000000000000E+20
 20
1.000000000000000E+20
 30
1.000000000000000E+20
  9
$PEXTMAX
 10
-1.000000000000000E+20
 20
-1.000000000000000E+20
 30
-1.000000000000000E+20
  9
$PLIMMIN
 10
0.0
 20
0.0
  9
$PLIMMAX
 10
12.0
 20
9.0
  9
$UNITMODE
 70
     0
  9
$VISRETAIN
 70
     0
  9
$PLINEGEN
 70
     0
  9
$PSLTSCALE
 70
     1
  9
$TREEDEPTH
 70
  3020
  9
$PICKSTYLE
 70
     1
  9
$CMLSTYLE
  2
STANDARD
  9
$CMLJUST
 70
     0
  9
$CMLSCALE
 40
1.0
  9
$SAVEIMAGES
 70
     1
  0
ENDSEC
  0
SECTION
  2
CLASSES
  0
CLASS
  1
ACDBDICTIONARYWDFLT
  2
AcDbDictionaryWithDefault
  3
AutoCAD 2000
 90
    32768
280
     0
281
     0
  0
CLASS
  1
ACDBPLACEHOLDER
  2
AcDbPlaceHolder
  3
AutoCAD 2000
 90
    32768
280
     0
281
     0
  0
CLASS
  1
LAYOUT
  2
AcDbLayout
  3
AutoCAD 2000
 90
    32768
280
     0
281
     0
  0
CLASS
  1
LONG_TRANSACTION
  2
AcDbLongTransaction
  3
AutoCAD 2000
 90
    32768
280
     0
281
     0
  0
CLASS
  1
LWPOLYLINE
  2
AcDbPolyline
  3
AutoCAD 2000
 90
    32768
280
     0
281
     1
  0
CLASS
  1
HATCH
  2
AcDbHatch
  3
AutoCAD 2000
 90
    32768
280
     0
281
     1
  0
CLASS
  1
XRECORD
  2
AcDbXrecord
  3
AutoCAD 2000
 90
    32768
280
     0
281
     0
  0
CLASS
  1
LONG_TRANSACTION
  2
AcDbLongTransaction
  3
AutoCAD 2000
 90
    32768
280
     0
281
     0
  0
CLASS
  1
LWPOLYLINE
  2
AcDbPolyline
  3
AutoCAD 2000
 90
    32768
280
     0
281
     1
  0
CLASS
  1
HATCH
  2
AcDbHatch
  3
AutoCAD 2000
 90
    32768
280
     0
281
     1
  0
CLASS
  1
XRECORD
  2
AcDbXrecord
  3
AutoCAD 2000
 90
    32768
280
     0
281
     0
  0
ENDSEC
  0
SECTION
  2
TABLES
  0
TABLE
  2
VPORT
  5
8
330
0
100
AcDbSymbolTable
 70
     3
  0
VPORT
  5
2BD2
330
8
100
AcDbSymbolTableRecord
100
AcDbViewportTableRecord
  2
*ACTIVE
 70
     0
 10
0.0
 20
0.0
 11
1.0
 21
1.0
 12
1.802671927602194
 22
4.076683064895545
 13
0.0
 23
0.0
 14
1.0
 24
1.0
 15
0.0
 25
0.0
 16
0.0
 26
0.0
 36
1.0
 17
0.0
 27
0.0
 37
0.0
 40
4.861666456714019
 41
1.601839684625492
 42
50.0
 43
0.0
 44
0.0
 50
0.0
 51
0.0
 71
     0
 72
   100
 73
     1
 74
     1
 75
     0
 76
     0
 77
     0
 78
     0
  0
ENDTAB
  0
TABLE
  2
LTYPE
  5
5
330
0
100
AcDbSymbolTable
 70
    25
  0
LTYPE
  5
13
330
5
100
AcDbSymbolTableRecord
100
AcDbLinetypeTableRecord
  2
BYBLOCK
 70
     0
  3

 72
    65
 73
     0
 40
0.0
  0
LTYPE
  5
14
330
5
100
AcDbSymbolTableRecord
100
AcDbLinetypeTableRecord
  2
BYLAYER
 70
     0
  3

 72
    65
 73
     0
 40
0.0
  0
LTYPE
  5
15
330
5
100
AcDbSymbolTableRecord
100
AcDbLinetypeTableRecord
  2
CONTINUOUS
 70
     0
  3
Solid line
 72
    65
 73
     0
 40
0.0
  0
LTYPE
  5
22
330
5
100
AcDbSymbolTableRecord
100
AcDbLinetypeTableRecord
  2
BORDER
 70
     0
  3
__ __ . __ __ . __ __ . __ __ . __ __ . __ __ .
 72
    65
 73
     6
 40
1.75
 49
0.5
 74
     0
 49
-0.25
 74
     0
 49
0.5
 74
     0
 49
-0.25
 74
     0
 49
0.5
 74
     0
 49
-0.25
 74
     0
  0
LTYPE
  5
23
330
5
100
AcDbSymbolTableRecord
100
AcDbLinetypeTableRecord
  2
BORDER2
 70
     0
  3
__.__.__.__.__.__.__.__.__.__.__.__.__.__.__.__
 72
    65
 73
     6
 40
0.875
 49
0.25
 74
     0
 49
-0.125
 74
     0
 49
0.25
 74
     0
 49
-0.125
 74
     0
 49
0.25
 74
     0
 49
-0.125
 74
     0
  0
LTYPE
  5
24
330
5
100
AcDbSymbolTableRecord
100
AcDbLinetypeTableRecord
  2
BORDERX2
 70
     0
  3
____  ____  .  ____  ____  .  
 72
    65
 73
     6
 40
3.5
 49
1.0
 74
     0
 49
-0.5
 74
     0
 49
1.0
 74
     0
 49
-0.5
 74
     0
 49
1.0
 74
     0
 49
-0.5
 74
     0
  0
LTYPE
  5
25
330
5
100
AcDbSymbolTableRecord
100
AcDbLinetypeTableRecord
  2
CENTER
 70
     0
  3
____ _ ____ _ ____ _ ____ _ ____ _ ____ _ ____
 72
    65
 73
     4
 40
2.0
 49
1.25
 74
     0
 49
-0.25
 74
     0
 49
0.25
 74
     0
 49
-0.25
 74
     0
  0
LTYPE
  5
26
330
5
100
AcDbSymbolTableRecord
100
AcDbLinetypeTableRecord
  2
CENTER2
 70
     0
  3
____ _ ____ _ ____ _ ____ _ ____ _ ____ _ ____
 72
    65
 73
     4
 40
1.125
 49
0.75
 74
     0
 49
-0.125
 74
     0
 49
0.125
 74
     0
 49
-0.125
 74
     0
  0
LTYPE
  5
27
330
5
100
AcDbSymbolTableRecord
100
AcDbLinetypeTableRecord
  2
CENTERX2
 70
     0
  3
________  __  ________  __  ________  __  
 72
    65
 73
     4
 40
4.0
 49
2.5
 74
     0
 49
-0.5
 74
     0
 49
0.5
 74
     0
 49
-0.5
 74
     0
  0
LTYPE
  5
28
330
5
100
AcDbSymbolTableRecord
100
AcDbLinetypeTableRecord
  2
DASHDOT
 70
     0
  3
__ . __ . __ . __ . __ . __ . __ . 
 72
    65
 73
     4
 40
1.0
 49
0.5
 74
     0
 49
-0.25
 74
     0
 49
0.0
 74
     0
 49
-0.25
 74
     0
  0
LTYPE
  5
29
330
5
100
AcDbSymbolTableRecord
100
AcDbLinetypeTableRecord
  2
DASHDOT2
 70
     0
  3
_._._._._._._._._._._._._._._._.
 72
    65
 73
     4
 40
0.5
 49
0.25
 74
     0
 49
-0.125
 74
     0
 49
0.0
 74
     0
 49
-0.125
 74
     0
  0
LTYPE
  5
2A
330
5
100
AcDbSymbolTableRecord
100
AcDbLinetypeTableRecord
  2
DASHDOTX2
 70
     0
  3
____  .  ____  .  ____  .  ____  .  
 72
    65
 73
     4
 40
2.0
 49
1.0
 74
     0
 49
-0.5
 74
     0
 49
0.0
 74
     0
 49
-0.5
 74
     0
  0
LTYPE
  5
2B
330
5
100
AcDbSymbolTableRecord
100
AcDbLinetypeTableRecord
  2
DASHED
 70
     0
  3
__ __ __ __ __ __ __ __ __ __ __ __ 
 72
    65
 73
     2
 40
0.75
 49
0.5
 74
     0
 49
-0.25
 74
     0
  0
LTYPE
  5
2C
330
5
100
AcDbSymbolTableRecord
100
AcDbLinetypeTableRecord
  2
DASHED2
 70
     0
  3
_ _ _ _ _ _ _ _ _ _ _ _ _ _ _ _ _ _ 
 72
    65
 73
     2
 40
0.375
 49
0.25
 74
     0
 49
-0.125
 74
     0
  0
LTYPE
  5
2D
330
5
100
AcDbSymbolTableRecord
100
AcDbLinetypeTableRecord
  2
DASHEDX2
 70
     0
  3
____  ____  ____  ____  ____  ____  
 72
    65
 73
     2
 40
1.5
 49
1.0
 74
     0
 49
-0.5
 74
     0
  0
LTYPE
  5
2E
330
5
100
AcDbSymbolTableRecord
100
AcDbLinetypeTableRecord
  2
DIVIDE
 70
     0
  3
____ . . ____ . . ____ . . ____ . . 
 72
    65
 73
     6
 40
1.25
 49
0.5
 74
     0
 49
-0.25
 74
     0
 49
0.0
 74
     0
 49
-0.25
 74
     0
 49
0.0
 74
     0
 49
-0.25
 74
     0
  0
LTYPE
  5
2F
330
5
100
AcDbSymbolTableRecord
100
AcDbLinetypeTableRecord
  2
DIVIDE2
 70
     0
  3
__..__..__..__..__..__..__..__..__..
 72
    65
 73
     6
 40
0.625
 49
0.25
 74
     0
 49
-0.125
 74
     0
 49
0.0
 74
     0
 49
-0.125
 74
     0
 49
0.0
 74
     0
 49
-0.125
 74
     0
  0
LTYPE
  5
30
330
5
100
AcDbSymbolTableRecord
100
AcDbLinetypeTableRecord
  2
DIVIDEX2
 70
     0
  3
________  .  .  ________  .  .  ________  .  . 
 72
    65
 73
     6
 40
2.5
 49
1.0
 74
     0
 49
-0.5
 74
     0
 49
0.0
 74
     0
 49
-0.5
 74
     0
 49
0.0
 74
     0
 49
-0.5
 74
     0
  0
LTYPE
  5
31
330
5
100
AcDbSymbolTableRecord
100
AcDbLinetypeTableRecord
  2
DOT
 70
     0
  3
. . . . . . . . . . . . . . . . . . 
 72
    65
 73
     2
 40
0.25
 49
0.0
 74
     0
 49
-0.25
 74
     0
  0
LTYPE
  5
32
330
5
100
AcDbSymbolTableRecord
100
AcDbLinetypeTableRecord
  2
DOT2
 70
     0
  3
....................................
 72
    65
 73
     2
 40
0.125
 49
0.0
 74
     0
 49
-0.125
 74
     0
  0
LTYPE
  5
33
330
5
100
AcDbSymbolTableRecord
100
AcDbLinetypeTableRecord
  2
DOTX2
 70
     0
  3
.  .  .  .  .  .  .  .  .  .  .  .  .  
 72
    65
 73
     2
 40
0.5
 49
0.0
 74
     0
 49
-0.5
 74
     0
  0
LTYPE
  5
34
330
5
100
AcDbSymbolTableRecord
100
AcDbLinetypeTableRecord
  2
HIDDEN
 70
     0
  3
__ __ __ __ __ __ __ __ __ __ __ __ 
 72
    65
 73
     2
 40
0.375
 49
0.25
 74
     0
 49
-0.125
 74
     0
  0
LTYPE
  5
35
330
5
100
AcDbSymbolTableRecord
100
AcDbLinetypeTableRecord
  2
HIDDEN2
 70
     0
  3
_ _ _ _ _ _ _ _ _ _ _ _ _ _ _ _ _ _ 
 72
    65
 73
     2
 40
0.1875
 49
0.125
 74
     0
 49
-0.0625
 74
     0
  0
LTYPE
  5
36
330
5
100
AcDbSymbolTableRecord
100
AcDbLinetypeTableRecord
  2
HIDDENX2
 70
     0
  3
____ ____ ____ ____ ____ ____ ____ 
 72
    65
 73
     2
 40
0.75
 49
0.5
 74
     0
 49
-0.25
 74
     0
  0
LTYPE
  5
37
330
5
100
AcDbSymbolTableRecord
100
AcDbLinetypeTableRecord
  2
PHANTOM
 70
     0
  3
______  __  __  ______  __  __  
 72
    65
 73
     6
 40
2.5
 49
1.25
 74
     0
 49
-0.25
 74
     0
 49
0.25
 74
     0
 49
-0.25
 74
     0
 49
0.25
 74
     0
 49
-0.25
 74
     0
  0
LTYPE
  5
38
330
5
100
AcDbSymbolTableRecord
100
AcDbLinetypeTableRecord
  2
PHANTOM2
 70
     0
  3
___ _ _ ___ _ _ ___ _ _ ___ _ _ 
 72
    65
 73
     6
 40
1.25
 49
0.625
 74
     0
 49
-0.125
 74
     0
 49
0.125
 74
     0
 49
-0.125
 74
     0
 49
0.125
 74
     0
 49
-0.125
 74
     0
  0
LTYPE
  5
39
330
5
100
AcDbSymbolTableRecord
100
AcDbLinetypeTableRecord
  2
PHANTOMX2
 70
     0
  3
___ _ _ ___ _ _ ___ _ _ ___ _ _ 
 72
    65
 73
     6
 40
5.0
 49
2.5
 74
     0
 49
-0.5
 74
     0
 49
0.5
 74
     0
 49
-0.5
 74
     0
 49
0.5
 74
     0
 49
-0.5
 74
     0
  0
ENDTAB
  0
TABLE
  2
LAYER
  5
2
330
0
100
AcDbSymbolTable
 70
   257
  0
LAYER
  5
10
330
2
100
AcDbSymbolTableRecord
100
AcDbLayerTableRecord
  2
0
 70
     0
 62
     7
  6
CONTINUOUS
  0
LAYER
  5
3A
330
2
100
AcDbSymbolTableRecord
100
AcDbLayerTableRecord
  2
1
 70
     0
 62
     1
  6
CONTINUOUS
  0
LAYER
  5
3B
330
2
100
AcDbSymbolTableRecord
100
AcDbLayerTableRecord
  2
2
 70
     0
 62
     2
  6
CONTINUOUS
  0
LAYER
  5
3C
330
2
100
AcDbSymbolTableRecord
100
AcDbLayerTableRecord
  2
3
 70
     0
 62
     3
  6
CONTINUOUS
  0
LAYER
  5
3D
330
2
100
AcDbSymbolTableRecord
100
AcDbLayerTableRecord
  2
4
 70
     0
 62
     4
  6
CONTINUOUS
  0
LAYER
  5
3E
330
2
100
AcDbSymbolTableRecord
100
AcDbLayerTableRecord
  2
5
 70
     0
 62
     5
  6
CONTINUOUS
  0
LAYER
  5
3F
330
2
100
AcDbSymbolTableRecord
100
AcDbLayerTableRecord
  2
6
 70
     0
 62
     6
  6
CONTINUOUS
  0
LAYER
  5
40
330
2
100
AcDbSymbolTableRecord
100
AcDbLayerTableRecord
  2
7
 70
     0
 62
     7
  6
CONTINUOUS
  0
LAYER
  5
41
330
2
100
AcDbSymbolTableRecord
100
AcDbLayerTableRecord
  2
8
 70
     0
 62
     8
  6
CONTINUOUS
  0
LAYER
  5
42
330
2
100
AcDbSymbolTableRecord
100
AcDbLayerTableRecord
  2
9
 70
     0
 62
     9
  6
CONTINUOUS
  0
LAYER
  5
43
330
2
100
AcDbSymbolTableRecord
100
AcDbLayerTableRecord
  2
10
 70
     0
 62
    10
  6
CONTINUOUS
  0
LAYER
  5
44
330
2
100
AcDbSymbolTableRecord
100
AcDbLayerTableRecord
  2
11
 70
     0
 62
    11
  6
CONTINUOUS
  0
LAYER
  5
45
330
2
100
AcDbSymbolTableRecord
100
AcDbLayerTableRecord
  2
12
 70
     0
 62
    12
  6
CONTINUOUS
  0
LAYER
  5
46
330
2
100
AcDbSymbolTableRecord
100
AcDbLayerTableRecord
  2
13
 70
     0
 62
    13
  6
CONTINUOUS
  0
LAYER
  5
47
330
2
100
AcDbSymbolTableRecord
100
AcDbLayerTableRecord
  2
14
 70
     0
 62
    14
  6
CONTINUOUS
  0
LAYER
  5
48
330
2
100
AcDbSymbolTableRecord
100
AcDbLayerTableRecord
  2
15
 70
     0
 62
    15
  6
CONTINUOUS
  0
LAYER
  5
49
330
2
100
AcDbSymbolTableRecord
100
AcDbLayerTableRecord
  2
16
 70
     0
 62
    16
  6
CONTINUOUS
  0
LAYER
  5
4A
330
2
100
AcDbSymbolTableRecord
100
AcDbLayerTableRecord
  2
17
 70
     0
 62
    17
  6
CONTINUOUS
  0
LAYER
  5
4B
330
2
100
AcDbSymbolTableRecord
100
AcDbLayerTableRecord
  2
18
 70
     0
 62
    18
  6
CONTINUOUS
  0
LAYER
  5
4C
330
2
100
AcDbSymbolTableRecord
100
AcDbLayerTableRecord
  2
19
 70
     0
 62
    19
  6
CONTINUOUS
  0
LAYER
  5
4D
330
2
100
AcDbSymbolTableRecord
100
AcDbLayerTableRecord
  2
20
 70
     0
 62
    20
  6
CONTINUOUS
  0
LAYER
  5
4E
330
2
100
AcDbSymbolTableRecord
100
AcDbLayerTableRecord
  2
21
 70
     0
 62
    21
  6
CONTINUOUS
  0
LAYER
  5
4F
330
2
100
AcDbSymbolTableRecord
100
AcDbLayerTableRecord
  2
22
 70
     0
 62
    22
  6
CONTINUOUS
  0
LAYER
  5
50
330
2
100
AcDbSymbolTableRecord
100
AcDbLayerTableRecord
  2
23
 70
     0
 62
    23
  6
CONTINUOUS
  0
LAYER
  5
51
330
2
100
AcDbSymbolTableRecord
100
AcDbLayerTableRecord
  2
24
 70
     0
 62
    24
  6
CONTINUOUS
  0
LAYER
  5
52
330
2
100
AcDbSymbolTableRecord
100
AcDbLayerTableRecord
  2
25
 70
     0
 62
    25
  6
CONTINUOUS
  0
LAYER
  5
53
330
2
100
AcDbSymbolTableRecord
100
AcDbLayerTableRecord
  2
26
 70
     0
 62
    26
  6
CONTINUOUS
  0
LAYER
  5
54
330
2
100
AcDbSymbolTableRecord
100
AcDbLayerTableRecord
  2
27
 70
     0
 62
    27
  6
CONTINUOUS
  0
LAYER
  5
55
330
2
100
AcDbSymbolTableRecord
100
AcDbLayerTableRecord
  2
28
 70
     0
 62
    28
  6
CONTINUOUS
  0
LAYER
  5
56
330
2
100
AcDbSymbolTableRecord
100
AcDbLayerTableRecord
  2
29
 70
     0
 62
    29
  6
CONTINUOUS
  0
LAYER
  5
57
330
2
100
AcDbSymbolTableRecord
100
AcDbLayerTableRecord
  2
30
 70
     0
 62
    30
  6
CONTINUOUS
  0
LAYER
  5
58
330
2
100
AcDbSymbolTableRecord
100
AcDbLayerTableRecord
  2
31
 70
     0
 62
    31
  6
CONTINUOUS
  0
LAYER
  5
59
330
2
100
AcDbSymbolTableRecord
100
AcDbLayerTableRecord
  2
32
 70
     0
 62
    32
  6
CONTINUOUS
  0
LAYER
  5
5A
330
2
100
AcDbSymbolTableRecord
100
AcDbLayerTableRecord
  2
33
 70
     0
 62
    33
  6
CONTINUOUS
  0
LAYER
  5
5B
330
2
100
AcDbSymbolTableRecord
100
AcDbLayerTableRecord
  2
34
 70
     0
 62
    34
  6
CONTINUOUS
  0
LAYER
  5
5C
330
2
100
AcDbSymbolTableRecord
100
AcDbLayerTableRecord
  2
35
 70
     0
 62
    35
  6
CONTINUOUS
  0
LAYER
  5
5D
330
2
100
AcDbSymbolTableRecord
100
AcDbLayerTableRecord
  2
36
 70
     0
 62
    36
  6
CONTINUOUS
  0
LAYER
  5
5E
330
2
100
AcDbSymbolTableRecord
100
AcDbLayerTableRecord
  2
37
 70
     0
 62
    37
  6
CONTINUOUS
  0
LAYER
  5
5F
330
2
100
AcDbSymbolTableRecord
100
AcDbLayerTableRecord
  2
38
 70
     0
 62
    38
  6
CONTINUOUS
  0
LAYER
  5
60
330
2
100
AcDbSymbolTableRecord
100
AcDbLayerTableRecord
  2
39
 70
     0
 62
    39
  6
CONTINUOUS
  0
LAYER
  5
61
330
2
100
AcDbSymbolTableRecord
100
AcDbLayerTableRecord
  2
40
 70
     0
 62
    40
  6
CONTINUOUS
  0
LAYER
  5
62
330
2
100
AcDbSymbolTableRecord
100
AcDbLayerTableRecord
  2
41
 70
     0
 62
    41
  6
CONTINUOUS
  0
LAYER
  5
63
330
2
100
AcDbSymbolTableRecord
100
AcDbLayerTableRecord
  2
42
 70
     0
 62
    42
  6
CONTINUOUS
  0
LAYER
  5
64
330
2
100
AcDbSymbolTableRecord
100
AcDbLayerTableRecord
  2
43
 70
     0
 62
    43
  6
CONTINUOUS
  0
LAYER
  5
65
330
2
100
AcDbSymbolTableRecord
100
AcDbLayerTableRecord
  2
44
 70
     0
 62
    44
  6
CONTINUOUS
  0
LAYER
  5
66
330
2
100
AcDbSymbolTableRecord
100
AcDbLayerTableRecord
  2
45
 70
     0
 62
    45
  6
CONTINUOUS
  0
LAYER
  5
67
330
2
100
AcDbSymbolTableRecord
100
AcDbLayerTableRecord
  2
46
 70
     0
 62
    46
  6
CONTINUOUS
  0
LAYER
  5
68
330
2
100
AcDbSymbolTableRecord
100
AcDbLayerTableRecord
  2
47
 70
     0
 62
    47
  6
CONTINUOUS
  0
LAYER
  5
69
330
2
100
AcDbSymbolTableRecord
100
AcDbLayerTableRecord
  2
48
 70
     0
 62
    48
  6
CONTINUOUS
  0
LAYER
  5
6A
330
2
100
AcDbSymbolTableRecord
100
AcDbLayerTableRecord
  2
49
 70
     0
 62
    49
  6
CONTINUOUS
  0
LAYER
  5
6B
330
2
100
AcDbSymbolTableRecord
100
AcDbLayerTableRecord
  2
50
 70
     0
 62
    50
  6
CONTINUOUS
  0
LAYER
  5
6C
330
2
100
AcDbSymbolTableRecord
100
AcDbLayerTableRecord
  2
51
 70
     0
 62
    51
  6
CONTINUOUS
  0
LAYER
  5
6D
330
2
100
AcDbSymbolTableRecord
100
AcDbLayerTableRecord
  2
52
 70
     0
 62
    52
  6
CONTINUOUS
  0
LAYER
  5
6E
330
2
100
AcDbSymbolTableRecord
100
AcDbLayerTableRecord
  2
53
 70
     0
 62
    53
  6
CONTINUOUS
  0
LAYER
  5
6F
330
2
100
AcDbSymbolTableRecord
100
AcDbLayerTableRecord
  2
54
 70
     0
 62
    54
  6
CONTINUOUS
  0
LAYER
  5
70
330
2
100
AcDbSymbolTableRecord
100
AcDbLayerTableRecord
  2
55
 70
     0
 62
    55
  6
CONTINUOUS
  0
LAYER
  5
71
330
2
100
AcDbSymbolTableRecord
100
AcDbLayerTableRecord
  2
56
 70
     0
 62
    56
  6
CONTINUOUS
  0
LAYER
  5
72
330
2
100
AcDbSymbolTableRecord
100
AcDbLayerTableRecord
  2
57
 70
     0
 62
    57
  6
CONTINUOUS
  0
LAYER
  5
73
330
2
100
AcDbSymbolTableRecord
100
AcDbLayerTableRecord
  2
58
 70
     0
 62
    58
  6
CONTINUOUS
  0
LAYER
  5
74
330
2
100
AcDbSymbolTableRecord
100
AcDbLayerTableRecord
  2
59
 70
     0
 62
    59
  6
CONTINUOUS
  0
LAYER
  5
75
330
2
100
AcDbSymbolTableRecord
100
AcDbLayerTableRecord
  2
60
 70
     0
 62
    60
  6
CONTINUOUS
  0
LAYER
  5
76
330
2
100
AcDbSymbolTableRecord
100
AcDbLayerTableRecord
  2
61
 70
     0
 62
    61
  6
CONTINUOUS
  0
LAYER
  5
77
330
2
100
AcDbSymbolTableRecord
100
AcDbLayerTableRecord
  2
62
 70
     0
 62
    62
  6
CONTINUOUS
  0
LAYER
  5
78
330
2
100
AcDbSymbolTableRecord
100
AcDbLayerTableRecord
  2
63
 70
     0
 62
    63
  6
CONTINUOUS
  0
LAYER
  5
79
330
2
100
AcDbSymbolTableRecord
100
AcDbLayerTableRecord
  2
64
 70
     0
 62
    64
  6
CONTINUOUS
  0
LAYER
  5
7A
330
2
100
AcDbSymbolTableRecord
100
AcDbLayerTableRecord
  2
65
 70
     0
 62
    65
  6
CONTINUOUS
  0
LAYER
  5
7B
330
2
100
AcDbSymbolTableRecord
100
AcDbLayerTableRecord
  2
66
 70
     0
 62
    66
  6
CONTINUOUS
  0
LAYER
  5
7C
330
2
100
AcDbSymbolTableRecord
100
AcDbLayerTableRecord
  2
67
 70
     0
 62
    67
  6
CONTINUOUS
  0
LAYER
  5
7D
330
2
100
AcDbSymbolTableRecord
100
AcDbLayerTableRecord
  2
68
 70
     0
 62
    68
  6
CONTINUOUS
  0
LAYER
  5
7E
330
2
100
AcDbSymbolTableRecord
100
AcDbLayerTableRecord
  2
69
 70
     0
 62
    69
  6
CONTINUOUS
  0
LAYER
  5
7F
330
2
100
AcDbSymbolTableRecord
100
AcDbLayerTableRecord
  2
70
 70
     0
 62
    70
  6
CONTINUOUS
  0
LAYER
  5
80
330
2
100
AcDbSymbolTableRecord
100
AcDbLayerTableRecord
  2
71
 70
     0
 62
    71
  6
CONTINUOUS
  0
LAYER
  5
81
330
2
100
AcDbSymbolTableRecord
100
AcDbLayerTableRecord
  2
72
 70
     0
 62
    72
  6
CONTINUOUS
  0
LAYER
  5
82
330
2
100
AcDbSymbolTableRecord
100
AcDbLayerTableRecord
  2
73
 70
     0
 62
    73
  6
CONTINUOUS
  0
LAYER
  5
83
330
2
100
AcDbSymbolTableRecord
100
AcDbLayerTableRecord
  2
74
 70
     0
 62
    74
  6
CONTINUOUS
  0
LAYER
  5
84
330
2
100
AcDbSymbolTableRecord
100
AcDbLayerTableRecord
  2
75
 70
     0
 62
    75
  6
CONTINUOUS
  0
LAYER
  5
85
330
2
100
AcDbSymbolTableRecord
100
AcDbLayerTableRecord
  2
76
 70
     0
 62
    76
  6
CONTINUOUS
  0
LAYER
  5
86
330
2
100
AcDbSymbolTableRecord
100
AcDbLayerTableRecord
  2
77
 70
     0
 62
    77
  6
CONTINUOUS
  0
LAYER
  5
87
330
2
100
AcDbSymbolTableRecord
100
AcDbLayerTableRecord
  2
78
 70
     0
 62
    78
  6
CONTINUOUS
  0
LAYER
  5
88
330
2
100
AcDbSymbolTableRecord
100
AcDbLayerTableRecord
  2
79
 70
     0
 62
    79
  6
CONTINUOUS
  0
LAYER
  5
89
330
2
100
AcDbSymbolTableRecord
100
AcDbLayerTableRecord
  2
80
 70
     0
 62
    80
  6
CONTINUOUS
  0
LAYER
  5
8A
330
2
100
AcDbSymbolTableRecord
100
AcDbLayerTableRecord
  2
81
 70
     0
 62
    81
  6
CONTINUOUS
  0
LAYER
  5
8B
330
2
100
AcDbSymbolTableRecord
100
AcDbLayerTableRecord
  2
82
 70
     0
 62
    82
  6
CONTINUOUS
  0
LAYER
  5
8C
330
2
100
AcDbSymbolTableRecord
100
AcDbLayerTableRecord
  2
83
 70
     0
 62
    83
  6
CONTINUOUS
  0
LAYER
  5
8D
330
2
100
AcDbSymbolTableRecord
100
AcDbLayerTableRecord
  2
84
 70
     0
 62
    84
  6
CONTINUOUS
  0
LAYER
  5
8E
330
2
100
AcDbSymbolTableRecord
100
AcDbLayerTableRecord
  2
85
 70
     0
 62
    85
  6
CONTINUOUS
  0
LAYER
  5
8F
330
2
100
AcDbSymbolTableRecord
100
AcDbLayerTableRecord
  2
86
 70
     0
 62
    86
  6
CONTINUOUS
  0
LAYER
  5
90
330
2
100
AcDbSymbolTableRecord
100
AcDbLayerTableRecord
  2
87
 70
     0
 62
    87
  6
CONTINUOUS
  0
LAYER
  5
91
330
2
100
AcDbSymbolTableRecord
100
AcDbLayerTableRecord
  2
88
 70
     0
 62
    88
  6
CONTINUOUS
  0
LAYER
  5
92
330
2
100
AcDbSymbolTableRecord
100
AcDbLayerTableRecord
  2
89
 70
     0
 62
    89
  6
CONTINUOUS
  0
LAYER
  5
93
330
2
100
AcDbSymbolTableRecord
100
AcDbLayerTableRecord
  2
90
 70
     0
 62
    90
  6
CONTINUOUS
  0
LAYER
  5
94
330
2
100
AcDbSymbolTableRecord
100
AcDbLayerTableRecord
  2
91
 70
     0
 62
    91
  6
CONTINUOUS
  0
LAYER
  5
95
330
2
100
AcDbSymbolTableRecord
100
AcDbLayerTableRecord
  2
92
 70
     0
 62
    92
  6
CONTINUOUS
  0
LAYER
  5
96
330
2
100
AcDbSymbolTableRecord
100
AcDbLayerTableRecord
  2
93
 70
     0
 62
    93
  6
CONTINUOUS
  0
LAYER
  5
97
330
2
100
AcDbSymbolTableRecord
100
AcDbLayerTableRecord
  2
94
 70
     0
 62
    94
  6
CONTINUOUS
  0
LAYER
  5
98
330
2
100
AcDbSymbolTableRecord
100
AcDbLayerTableRecord
  2
95
 70
     0
 62
    95
  6
CONTINUOUS
  0
LAYER
  5
99
330
2
100
AcDbSymbolTableRecord
100
AcDbLayerTableRecord
  2
96
 70
     0
 62
    96
  6
CONTINUOUS
  0
LAYER
  5
9A
330
2
100
AcDbSymbolTableRecord
100
AcDbLayerTableRecord
  2
97
 70
     0
 62
    97
  6
CONTINUOUS
  0
LAYER
  5
9B
330
2
100
AcDbSymbolTableRecord
100
AcDbLayerTableRecord
  2
98
 70
     0
 62
    98
  6
CONTINUOUS
  0
LAYER
  5
9C
330
2
100
AcDbSymbolTableRecord
100
AcDbLayerTableRecord
  2
99
 70
     0
 62
    99
  6
CONTINUOUS
  0
LAYER
  5
9D
330
2
100
AcDbSymbolTableRecord
100
AcDbLayerTableRecord
  2
100
 70
     0
 62
   100
  6
CONTINUOUS
  0
LAYER
  5
9E
330
2
100
AcDbSymbolTableRecord
100
AcDbLayerTableRecord
  2
101
 70
     0
 62
   101
  6
CONTINUOUS
  0
LAYER
  5
9F
330
2
100
AcDbSymbolTableRecord
100
AcDbLayerTableRecord
  2
102
 70
     0
 62
   102
  6
CONTINUOUS
  0
LAYER
  5
A0
330
2
100
AcDbSymbolTableRecord
100
AcDbLayerTableRecord
  2
103
 70
     0
 62
   103
  6
CONTINUOUS
  0
LAYER
  5
A1
330
2
100
AcDbSymbolTableRecord
100
AcDbLayerTableRecord
  2
104
 70
     0
 62
   104
  6
CONTINUOUS
  0
LAYER
  5
A2
330
2
100
AcDbSymbolTableRecord
100
AcDbLayerTableRecord
  2
105
 70
     0
 62
   105
  6
CONTINUOUS
  0
LAYER
  5
A3
330
2
100
AcDbSymbolTableRecord
100
AcDbLayerTableRecord
  2
106
 70
     0
 62
   106
  6
CONTINUOUS
  0
LAYER
  5
A4
330
2
100
AcDbSymbolTableRecord
100
AcDbLayerTableRecord
  2
107
 70
     0
 62
   107
  6
CONTINUOUS
  0
LAYER
  5
A5
330
2
100
AcDbSymbolTableRecord
100
AcDbLayerTableRecord
  2
108
 70
     0
 62
   108
  6
CONTINUOUS
  0
LAYER
  5
A6
330
2
100
AcDbSymbolTableRecord
100
AcDbLayerTableRecord
  2
109
 70
     0
 62
   109
  6
CONTINUOUS
  0
LAYER
  5
A7
330
2
100
AcDbSymbolTableRecord
100
AcDbLayerTableRecord
  2
110
 70
     0
 62
   110
  6
CONTINUOUS
  0
LAYER
  5
A8
330
2
100
AcDbSymbolTableRecord
100
AcDbLayerTableRecord
  2
111
 70
     0
 62
   111
  6
CONTINUOUS
  0
LAYER
  5
A9
330
2
100
AcDbSymbolTableRecord
100
AcDbLayerTableRecord
  2
112
 70
     0
 62
   112
  6
CONTINUOUS
  0
LAYER
  5
AA
330
2
100
AcDbSymbolTableRecord
100
AcDbLayerTableRecord
  2
113
 70
     0
 62
   113
  6
CONTINUOUS
  0
LAYER
  5
AB
330
2
100
AcDbSymbolTableRecord
100
AcDbLayerTableRecord
  2
114
 70
     0
 62
   114
  6
CONTINUOUS
  0
LAYER
  5
AC
330
2
100
AcDbSymbolTableRecord
100
AcDbLayerTableRecord
  2
115
 70
     0
 62
   115
  6
CONTINUOUS
  0
LAYER
  5
AD
330
2
100
AcDbSymbolTableRecord
100
AcDbLayerTableRecord
  2
116
 70
     0
 62
   116
  6
CONTINUOUS
  0
LAYER
  5
AE
330
2
100
AcDbSymbolTableRecord
100
AcDbLayerTableRecord
  2
117
 70
     0
 62
   117
  6
CONTINUOUS
  0
LAYER
  5
AF
330
2
100
AcDbSymbolTableRecord
100
AcDbLayerTableRecord
  2
118
 70
     0
 62
   118
  6
CONTINUOUS
  0
LAYER
  5
B0
330
2
100
AcDbSymbolTableRecord
100
AcDbLayerTableRecord
  2
119
 70
     0
 62
   119
  6
CONTINUOUS
  0
LAYER
  5
B1
330
2
100
AcDbSymbolTableRecord
100
AcDbLayerTableRecord
  2
120
 70
     0
 62
   120
  6
CONTINUOUS
  0
LAYER
  5
B2
330
2
100
AcDbSymbolTableRecord
100
AcDbLayerTableRecord
  2
121
 70
     0
 62
   121
  6
CONTINUOUS
  0
LAYER
  5
B3
330
2
100
AcDbSymbolTableRecord
100
AcDbLayerTableRecord
  2
122
 70
     0
 62
   122
  6
CONTINUOUS
  0
LAYER
  5
B4
330
2
100
AcDbSymbolTableRecord
100
AcDbLayerTableRecord
  2
123
 70
     0
 62
   123
  6
CONTINUOUS
  0
LAYER
  5
B5
330
2
100
AcDbSymbolTableRecord
100
AcDbLayerTableRecord
  2
124
 70
     0
 62
   124
  6
CONTINUOUS
  0
LAYER
  5
B6
330
2
100
AcDbSymbolTableRecord
100
AcDbLayerTableRecord
  2
125
 70
     0
 62
   125
  6
CONTINUOUS
  0
LAYER
  5
B7
330
2
100
AcDbSymbolTableRecord
100
AcDbLayerTableRecord
  2
126
 70
     0
 62
   126
  6
CONTINUOUS
  0
LAYER
  5
B8
330
2
100
AcDbSymbolTableRecord
100
AcDbLayerTableRecord
  2
127
 70
     0
 62
   127
  6
CONTINUOUS
  0
LAYER
  5
B9
330
2
100
AcDbSymbolTableRecord
100
AcDbLayerTableRecord
  2
128
 70
     0
 62
   128
  6
CONTINUOUS
  0
LAYER
  5
BA
330
2
100
AcDbSymbolTableRecord
100
AcDbLayerTableRecord
  2
129
 70
     0
 62
   129
  6
CONTINUOUS
  0
LAYER
  5
BB
330
2
100
AcDbSymbolTableRecord
100
AcDbLayerTableRecord
  2
130
 70
     0
 62
   130
  6
CONTINUOUS
  0
LAYER
  5
BC
330
2
100
AcDbSymbolTableRecord
100
AcDbLayerTableRecord
  2
131
 70
     0
 62
   131
  6
CONTINUOUS
  0
LAYER
  5
BD
330
2
100
AcDbSymbolTableRecord
100
AcDbLayerTableRecord
  2
132
 70
     0
 62
   132
  6
CONTINUOUS
  0
LAYER
  5
BE
330
2
100
AcDbSymbolTableRecord
100
AcDbLayerTableRecord
  2
133
 70
     0
 62
   133
  6
CONTINUOUS
  0
LAYER
  5
BF
330
2
100
AcDbSymbolTableRecord
100
AcDbLayerTableRecord
  2
134
 70
     0
 62
   134
  6
CONTINUOUS
  0
LAYER
  5
C0
330
2
100
AcDbSymbolTableRecord
100
AcDbLayerTableRecord
  2
135
 70
     0
 62
   135
  6
CONTINUOUS
  0
LAYER
  5
C1
330
2
100
AcDbSymbolTableRecord
100
AcDbLayerTableRecord
  2
136
 70
     0
 62
   136
  6
CONTINUOUS
  0
LAYER
  5
C2
330
2
100
AcDbSymbolTableRecord
100
AcDbLayerTableRecord
  2
137
 70
     0
 62
   137
  6
CONTINUOUS
  0
LAYER
  5
C3
330
2
100
AcDbSymbolTableRecord
100
AcDbLayerTableRecord
  2
138
 70
     0
 62
   138
  6
CONTINUOUS
  0
LAYER
  5
C4
330
2
100
AcDbSymbolTableRecord
100
AcDbLayerTableRecord
  2
139
 70
     0
 62
   139
  6
CONTINUOUS
  0
LAYER
  5
C5
330
2
100
AcDbSymbolTableRecord
100
AcDbLayerTableRecord
  2
140
 70
     0
 62
   140
  6
CONTINUOUS
  0
LAYER
  5
C6
330
2
100
AcDbSymbolTableRecord
100
AcDbLayerTableRecord
  2
141
 70
     0
 62
   141
  6
CONTINUOUS
  0
LAYER
  5
C7
330
2
100
AcDbSymbolTableRecord
100
AcDbLayerTableRecord
  2
142
 70
     0
 62
   142
  6
CONTINUOUS
  0
LAYER
  5
C8
330
2
100
AcDbSymbolTableRecord
100
AcDbLayerTableRecord
  2
143
 70
     0
 62
   143
  6
CONTINUOUS
  0
LAYER
  5
C9
330
2
100
AcDbSymbolTableRecord
100
AcDbLayerTableRecord
  2
144
 70
     0
 62
   144
  6
CONTINUOUS
  0
LAYER
  5
CA
330
2
100
AcDbSymbolTableRecord
100
AcDbLayerTableRecord
  2
145
 70
     0
 62
   145
  6
CONTINUOUS
  0
LAYER
  5
CB
330
2
100
AcDbSymbolTableRecord
100
AcDbLayerTableRecord
  2
146
 70
     0
 62
   146
  6
CONTINUOUS
  0
LAYER
  5
CC
330
2
100
AcDbSymbolTableRecord
100
AcDbLayerTableRecord
  2
147
 70
     0
 62
   147
  6
CONTINUOUS
  0
LAYER
  5
CD
330
2
100
AcDbSymbolTableRecord
100
AcDbLayerTableRecord
  2
148
 70
     0
 62
   148
  6
CONTINUOUS
  0
LAYER
  5
CE
330
2
100
AcDbSymbolTableRecord
100
AcDbLayerTableRecord
  2
149
 70
     0
 62
   149
  6
CONTINUOUS
  0
LAYER
  5
CF
330
2
100
AcDbSymbolTableRecord
100
AcDbLayerTableRecord
  2
150
 70
     0
 62
   150
  6
CONTINUOUS
  0
LAYER
  5
D0
330
2
100
AcDbSymbolTableRecord
100
AcDbLayerTableRecord
  2
151
 70
     0
 62
   151
  6
CONTINUOUS
  0
LAYER
  5
D1
330
2
100
AcDbSymbolTableRecord
100
AcDbLayerTableRecord
  2
152
 70
     0
 62
   152
  6
CONTINUOUS
  0
LAYER
  5
D2
330
2
100
AcDbSymbolTableRecord
100
AcDbLayerTableRecord
  2
153
 70
     0
 62
   153
  6
CONTINUOUS
  0
LAYER
  5
D3
330
2
100
AcDbSymbolTableRecord
100
AcDbLayerTableRecord
  2
154
 70
     0
 62
   154
  6
CONTINUOUS
  0
LAYER
  5
D4
330
2
100
AcDbSymbolTableRecord
100
AcDbLayerTableRecord
  2
155
 70
     0
 62
   155
  6
CONTINUOUS
  0
LAYER
  5
D5
330
2
100
AcDbSymbolTableRecord
100
AcDbLayerTableRecord
  2
156
 70
     0
 62
   156
  6
CONTINUOUS
  0
LAYER
  5
D6
330
2
100
AcDbSymbolTableRecord
100
AcDbLayerTableRecord
  2
157
 70
     0
 62
   157
  6
CONTINUOUS
  0
LAYER
  5
D7
330
2
100
AcDbSymbolTableRecord
100
AcDbLayerTableRecord
  2
158
 70
     0
 62
   158
  6
CONTINUOUS
  0
LAYER
  5
D8
330
2
100
AcDbSymbolTableRecord
100
AcDbLayerTableRecord
  2
159
 70
     0
 62
   159
  6
CONTINUOUS
  0
LAYER
  5
D9
330
2
100
AcDbSymbolTableRecord
100
AcDbLayerTableRecord
  2
160
 70
     0
 62
   160
  6
CONTINUOUS
  0
LAYER
  5
DA
330
2
100
AcDbSymbolTableRecord
100
AcDbLayerTableRecord
  2
161
 70
     0
 62
   161
  6
CONTINUOUS
  0
LAYER
  5
DB
330
2
100
AcDbSymbolTableRecord
100
AcDbLayerTableRecord
  2
162
 70
     0
 62
   162
  6
CONTINUOUS
  0
LAYER
  5
DC
330
2
100
AcDbSymbolTableRecord
100
AcDbLayerTableRecord
  2
163
 70
     0
 62
   163
  6
CONTINUOUS
  0
LAYER
  5
DD
330
2
100
AcDbSymbolTableRecord
100
AcDbLayerTableRecord
  2
164
 70
     0
 62
   164
  6
CONTINUOUS
  0
LAYER
  5
DE
330
2
100
AcDbSymbolTableRecord
100
AcDbLayerTableRecord
  2
165
 70
     0
 62
   165
  6
CONTINUOUS
  0
LAYER
  5
DF
330
2
100
AcDbSymbolTableRecord
100
AcDbLayerTableRecord
  2
166
 70
     0
 62
   166
  6
CONTINUOUS
  0
LAYER
  5
E0
330
2
100
AcDbSymbolTableRecord
100
AcDbLayerTableRecord
  2
167
 70
     0
 62
   167
  6
CONTINUOUS
  0
LAYER
  5
E1
330
2
100
AcDbSymbolTableRecord
100
AcDbLayerTableRecord
  2
168
 70
     0
 62
   168
  6
CONTINUOUS
  0
LAYER
  5
E2
330
2
100
AcDbSymbolTableRecord
100
AcDbLayerTableRecord
  2
169
 70
     0
 62
   169
  6
CONTINUOUS
  0
LAYER
  5
E3
330
2
100
AcDbSymbolTableRecord
100
AcDbLayerTableRecord
  2
170
 70
     0
 62
   170
  6
CONTINUOUS
  0
LAYER
  5
E4
330
2
100
AcDbSymbolTableRecord
100
AcDbLayerTableRecord
  2
171
 70
     0
 62
   171
  6
CONTINUOUS
  0
LAYER
  5
E5
330
2
100
AcDbSymbolTableRecord
100
AcDbLayerTableRecord
  2
172
 70
     0
 62
   172
  6
CONTINUOUS
  0
LAYER
  5
E6
330
2
100
AcDbSymbolTableRecord
100
AcDbLayerTableRecord
  2
173
 70
     0
 62
   173
  6
CONTINUOUS
  0
LAYER
  5
E7
330
2
100
AcDbSymbolTableRecord
100
AcDbLayerTableRecord
  2
174
 70
     0
 62
   174
  6
CONTINUOUS
  0
LAYER
  5
E8
330
2
100
AcDbSymbolTableRecord
100
AcDbLayerTableRecord
  2
175
 70
     0
 62
   175
  6
CONTINUOUS
  0
LAYER
  5
E9
330
2
100
AcDbSymbolTableRecord
100
AcDbLayerTableRecord
  2
176
 70
     0
 62
   176
  6
CONTINUOUS
  0
LAYER
  5
EA
330
2
100
AcDbSymbolTableRecord
100
AcDbLayerTableRecord
  2
177
 70
     0
 62
   177
  6
CONTINUOUS
  0
LAYER
  5
EB
330
2
100
AcDbSymbolTableRecord
100
AcDbLayerTableRecord
  2
178
 70
     0
 62
   178
  6
CONTINUOUS
  0
LAYER
  5
EC
330
2
100
AcDbSymbolTableRecord
100
AcDbLayerTableRecord
  2
179
 70
     0
 62
   179
  6
CONTINUOUS
  0
LAYER
  5
ED
330
2
100
AcDbSymbolTableRecord
100
AcDbLayerTableRecord
  2
180
 70
     0
 62
   180
  6
CONTINUOUS
  0
LAYER
  5
EE
330
2
100
AcDbSymbolTableRecord
100
AcDbLayerTableRecord
  2
181
 70
     0
 62
   181
  6
CONTINUOUS
  0
LAYER
  5
EF
330
2
100
AcDbSymbolTableRecord
100
AcDbLayerTableRecord
  2
182
 70
     0
 62
   182
  6
CONTINUOUS
  0
LAYER
  5
F0
330
2
100
AcDbSymbolTableRecord
100
AcDbLayerTableRecord
  2
183
 70
     0
 62
   183
  6
CONTINUOUS
  0
LAYER
  5
F1
330
2
100
AcDbSymbolTableRecord
100
AcDbLayerTableRecord
  2
184
 70
     0
 62
   184
  6
CONTINUOUS
  0
LAYER
  5
F2
330
2
100
AcDbSymbolTableRecord
100
AcDbLayerTableRecord
  2
185
 70
     0
 62
   185
  6
CONTINUOUS
  0
LAYER
  5
F3
330
2
100
AcDbSymbolTableRecord
100
AcDbLayerTableRecord
  2
186
 70
     0
 62
   186
  6
CONTINUOUS
  0
LAYER
  5
F4
330
2
100
AcDbSymbolTableRecord
100
AcDbLayerTableRecord
  2
187
 70
     0
 62
   187
  6
CONTINUOUS
  0
LAYER
  5
F5
330
2
100
AcDbSymbolTableRecord
100
AcDbLayerTableRecord
  2
188
 70
     0
 62
   188
  6
CONTINUOUS
  0
LAYER
  5
F6
330
2
100
AcDbSymbolTableRecord
100
AcDbLayerTableRecord
  2
189
 70
     0
 62
   189
  6
CONTINUOUS
  0
LAYER
  5
F7
330
2
100
AcDbSymbolTableRecord
100
AcDbLayerTableRecord
  2
190
 70
     0
 62
   190
  6
CONTINUOUS
  0
LAYER
  5
F8
330
2
100
AcDbSymbolTableRecord
100
AcDbLayerTableRecord
  2
191
 70
     0
 62
   191
  6
CONTINUOUS
  0
LAYER
  5
F9
330
2
100
AcDbSymbolTableRecord
100
AcDbLayerTableRecord
  2
192
 70
     0
 62
   192
  6
CONTINUOUS
  0
LAYER
  5
FA
330
2
100
AcDbSymbolTableRecord
100
AcDbLayerTableRecord
  2
193
 70
     0
 62
   193
  6
CONTINUOUS
  0
LAYER
  5
FB
330
2
100
AcDbSymbolTableRecord
100
AcDbLayerTableRecord
  2
194
 70
     0
 62
   194
  6
CONTINUOUS
  0
LAYER
  5
FC
330
2
100
AcDbSymbolTableRecord
100
AcDbLayerTableRecord
  2
195
 70
     0
 62
   195
  6
CONTINUOUS
  0
LAYER
  5
FD
330
2
100
AcDbSymbolTableRecord
100
AcDbLayerTableRecord
  2
196
 70
     0
 62
   196
  6
CONTINUOUS
  0
LAYER
  5
FE
330
2
100
AcDbSymbolTableRecord
100
AcDbLayerTableRecord
  2
197
 70
     0
 62
   197
  6
CONTINUOUS
  0
LAYER
  5
FF
330
2
100
AcDbSymbolTableRecord
100
AcDbLayerTableRecord
  2
198
 70
     0
 62
   198
  6
CONTINUOUS
  0
LAYER
  5
100
330
2
100
AcDbSymbolTableRecord
100
AcDbLayerTableRecord
  2
199
 70
     0
 62
   199
  6
CONTINUOUS
  0
LAYER
  5
101
330
2
100
AcDbSymbolTableRecord
100
AcDbLayerTableRecord
  2
200
 70
     0
 62
   200
  6
CONTINUOUS
  0
LAYER
  5
102
330
2
100
AcDbSymbolTableRecord
100
AcDbLayerTableRecord
  2
201
 70
     0
 62
   201
  6
CONTINUOUS
  0
LAYER
  5
103
330
2
100
AcDbSymbolTableRecord
100
AcDbLayerTableRecord
  2
202
 70
     0
 62
   202
  6
CONTINUOUS
  0
LAYER
  5
104
330
2
100
AcDbSymbolTableRecord
100
AcDbLayerTableRecord
  2
203
 70
     0
 62
   203
  6
CONTINUOUS
  0
LAYER
  5
105
330
2
100
AcDbSymbolTableRecord
100
AcDbLayerTableRecord
  2
204
 70
     0
 62
   204
  6
CONTINUOUS
  0
LAYER
  5
106
330
2
100
AcDbSymbolTableRecord
100
AcDbLayerTableRecord
  2
205
 70
     0
 62
   205
  6
CONTINUOUS
  0
LAYER
  5
107
330
2
100
AcDbSymbolTableRecord
100
AcDbLayerTableRecord
  2
206
 70
     0
 62
   206
  6
CONTINUOUS
  0
LAYER
  5
108
330
2
100
AcDbSymbolTableRecord
100
AcDbLayerTableRecord
  2
207
 70
     0
 62
   207
  6
CONTINUOUS
  0
LAYER
  5
109
330
2
100
AcDbSymbolTableRecord
100
AcDbLayerTableRecord
  2
208
 70
     0
 62
   208
  6
CONTINUOUS
  0
LAYER
  5
10A
330
2
100
AcDbSymbolTableRecord
100
AcDbLayerTableRecord
  2
209
 70
     0
 62
   209
  6
CONTINUOUS
  0
LAYER
  5
10B
330
2
100
AcDbSymbolTableRecord
100
AcDbLayerTableRecord
  2
210
 70
     0
 62
   210
  6
CONTINUOUS
  0
LAYER
  5
10C
330
2
100
AcDbSymbolTableRecord
100
AcDbLayerTableRecord
  2
211
 70
     0
 62
   211
  6
CONTINUOUS
  0
LAYER
  5
10D
330
2
100
AcDbSymbolTableRecord
100
AcDbLayerTableRecord
  2
212
 70
     0
 62
   212
  6
CONTINUOUS
  0
LAYER
  5
10E
330
2
100
AcDbSymbolTableRecord
100
AcDbLayerTableRecord
  2
213
 70
     0
 62
   213
  6
CONTINUOUS
  0
LAYER
  5
10F
330
2
100
AcDbSymbolTableRecord
100
AcDbLayerTableRecord
  2
214
 70
     0
 62
   214
  6
CONTINUOUS
  0
LAYER
  5
110
330
2
100
AcDbSymbolTableRecord
100
AcDbLayerTableRecord
  2
215
 70
     0
 62
   215
  6
CONTINUOUS
  0
LAYER
  5
111
330
2
100
AcDbSymbolTableRecord
100
AcDbLayerTableRecord
  2
216
 70
     0
 62
   216
  6
CONTINUOUS
  0
LAYER
  5
112
330
2
100
AcDbSymbolTableRecord
100
AcDbLayerTableRecord
  2
217
 70
     0
 62
   217
  6
CONTINUOUS
  0
LAYER
  5
113
330
2
100
AcDbSymbolTableRecord
100
AcDbLayerTableRecord
  2
218
 70
     0
 62
   218
  6
CONTINUOUS
  0
LAYER
  5
114
330
2
100
AcDbSymbolTableRecord
100
AcDbLayerTableRecord
  2
219
 70
     0
 62
   219
  6
CONTINUOUS
  0
LAYER
  5
115
330
2
100
AcDbSymbolTableRecord
100
AcDbLayerTableRecord
  2
220
 70
     0
 62
   220
  6
CONTINUOUS
  0
LAYER
  5
116
330
2
100
AcDbSymbolTableRecord
100
AcDbLayerTableRecord
  2
221
 70
     0
 62
   221
  6
CONTINUOUS
  0
LAYER
  5
117
330
2
100
AcDbSymbolTableRecord
100
AcDbLayerTableRecord
  2
222
 70
     0
 62
   222
  6
CONTINUOUS
  0
LAYER
  5
118
330
2
100
AcDbSymbolTableRecord
100
AcDbLayerTableRecord
  2
223
 70
     0
 62
   223
  6
CONTINUOUS
  0
LAYER
  5
119
330
2
100
AcDbSymbolTableRecord
100
AcDbLayerTableRecord
  2
224
 70
     0
 62
   224
  6
CONTINUOUS
  0
LAYER
  5
11A
330
2
100
AcDbSymbolTableRecord
100
AcDbLayerTableRecord
  2
225
 70
     0
 62
   225
  6
CONTINUOUS
  0
LAYER
  5
11B
330
2
100
AcDbSymbolTableRecord
100
AcDbLayerTableRecord
  2
226
 70
     0
 62
   226
  6
CONTINUOUS
  0
LAYER
  5
11C
330
2
100
AcDbSymbolTableRecord
100
AcDbLayerTableRecord
  2
227
 70
     0
 62
   227
  6
CONTINUOUS
  0
LAYER
  5
11D
330
2
100
AcDbSymbolTableRecord
100
AcDbLayerTableRecord
  2
228
 70
     0
 62
   228
  6
CONTINUOUS
  0
LAYER
  5
11E
330
2
100
AcDbSymbolTableRecord
100
AcDbLayerTableRecord
  2
229
 70
     0
 62
   229
  6
CONTINUOUS
  0
LAYER
  5
11F
330
2
100
AcDbSymbolTableRecord
100
AcDbLayerTableRecord
  2
230
 70
     0
 62
   230
  6
CONTINUOUS
  0
LAYER
  5
120
330
2
100
AcDbSymbolTableRecord
100
AcDbLayerTableRecord
  2
231
 70
     0
 62
   231
  6
CONTINUOUS
  0
LAYER
  5
121
330
2
100
AcDbSymbolTableRecord
100
AcDbLayerTableRecord
  2
232
 70
     0
 62
   232
  6
CONTINUOUS
  0
LAYER
  5
122
330
2
100
AcDbSymbolTableRecord
100
AcDbLayerTableRecord
  2
233
 70
     0
 62
   233
  6
CONTINUOUS
  0
LAYER
  5
123
330
2
100
AcDbSymbolTableRecord
100
AcDbLayerTableRecord
  2
234
 70
     0
 62
   234
  6
CONTINUOUS
  0
LAYER
  5
124
330
2
100
AcDbSymbolTableRecord
100
AcDbLayerTableRecord
  2
235
 70
     0
 62
   235
  6
CONTINUOUS
  0
LAYER
  5
125
330
2
100
AcDbSymbolTableRecord
100
AcDbLayerTableRecord
  2
236
 70
     0
 62
   236
  6
CONTINUOUS
  0
LAYER
  5
126
330
2
100
AcDbSymbolTableRecord
100
AcDbLayerTableRecord
  2
237
 70
     0
 62
   237
  6
CONTINUOUS
  0
LAYER
  5
127
330
2
100
AcDbSymbolTableRecord
100
AcDbLayerTableRecord
  2
238
 70
     0
 62
   238
  6
CONTINUOUS
  0
LAYER
  5
128
330
2
100
AcDbSymbolTableRecord
100
AcDbLayerTableRecord
  2
239
 70
     0
 62
   239
  6
CONTINUOUS
  0
LAYER
  5
129
330
2
100
AcDbSymbolTableRecord
100
AcDbLayerTableRecord
  2
240
 70
     0
 62
   240
  6
CONTINUOUS
  0
LAYER
  5
12A
330
2
100
AcDbSymbolTableRecord
100
AcDbLayerTableRecord
  2
241
 70
     0
 62
   241
  6
CONTINUOUS
  0
LAYER
  5
12B
330
2
100
AcDbSymbolTableRecord
100
AcDbLayerTableRecord
  2
242
 70
     0
 62
   242
  6
CONTINUOUS
  0
LAYER
  5
12C
330
2
100
AcDbSymbolTableRecord
100
AcDbLayerTableRecord
  2
243
 70
     0
 62
   243
  6
CONTINUOUS
  0
LAYER
  5
12D
330
2
100
AcDbSymbolTableRecord
100
AcDbLayerTableRecord
  2
244
 70
     0
 62
   244
  6
CONTINUOUS
  0
LAYER
  5
12E
330
2
100
AcDbSymbolTableRecord
100
AcDbLayerTableRecord
  2
245
 70
     0
 62
   245
  6
CONTINUOUS
  0
LAYER
  5
12F
330
2
100
AcDbSymbolTableRecord
100
AcDbLayerTableRecord
  2
246
 70
     0
 62
   246
  6
CONTINUOUS
  0
LAYER
  5
130
330
2
100
AcDbSymbolTableRecord
100
AcDbLayerTableRecord
  2
247
 70
     0
 62
   247
  6
CONTINUOUS
  0
LAYER
  5
131
330
2
100
AcDbSymbolTableRecord
100
AcDbLayerTableRecord
  2
248
 70
     0
 62
   248
  6
CONTINUOUS
  0
LAYER
  5
132
330
2
100
AcDbSymbolTableRecord
100
AcDbLayerTableRecord
  2
249
 70
     0
 62
   249
  6
CONTINUOUS
  0
LAYER
  5
133
330
2
100
AcDbSymbolTableRecord
100
AcDbLayerTableRecord
  2
250
 70
     0
 62
   250
  6
CONTINUOUS
  0
LAYER
  5
134
330
2
100
AcDbSymbolTableRecord
100
AcDbLayerTableRecord
  2
251
 70
     0
 62
   251
  6
CONTINUOUS
  0
LAYER
  5
135
330
2
100
AcDbSymbolTableRecord
100
AcDbLayerTableRecord
  2
252
 70
     0
 62
   252
  6
CONTINUOUS
  0
LAYER
  5
136
330
2
100
AcDbSymbolTableRecord
100
AcDbLayerTableRecord
  2
253
 70
     0
 62
   253
  6
CONTINUOUS
  0
LAYER
  5
137
330
2
100
AcDbSymbolTableRecord
100
AcDbLayerTableRecord
  2
254
 70
     0
 62
   254
  6
CONTINUOUS
  0
LAYER
  5
138
330
2
100
AcDbSymbolTableRecord
100
AcDbLayerTableRecord
  2
255
 70
     0
 62
   255
  6
CONTINUOUS
  0
LAYER
  5
2B86
330
2
100
AcDbSymbolTableRecord
100
AcDbLayerTableRecord
  2
DEFPOINTS
 70
     0
 62
     7
  6
CONTINUOUS
  0
ENDTAB
  0
TABLE
  2
STYLE
  5
3
330
0
100
AcDbSymbolTable
 70
     1
  0
STYLE
  5
11
330
3
100
AcDbSymbolTableRecord
100
AcDbTextStyleTableRecord
  2
STANDARD
 70
     0
 40
0.0
 41
1.0
 50
0.0
 71
     0
 42
0.2
  3
monotxt
  4

  0
ENDTAB
  0
TABLE
  2
VIEW
  5
6
330
0
100
AcDbSymbolTable
 70
     0
  0
ENDTAB
  0
TABLE
  2
UCS
  5
7
330
0
100
AcDbSymbolTable
 70
     0
  0
ENDTAB
  0
TABLE
  2
APPID
  5
9
330
0
100
AcDbSymbolTable
 70
     1
  0
APPID
  5
12
330
9
100
AcDbSymbolTableRecord
100
AcDbRegAppTableRecord
  2
ACAD
 70
     0
  0
ENDTAB
  0
TABLE
  2
DIMSTYLE
  5
A
330
0
100
AcDbSymbolTable
 70
     1
  0
DIMSTYLE
105
268C
102
{ACAD_REACTORS
330
2B85
102
}
330
A
100
AcDbSymbolTableRecord
100
AcDbDimStyleTableRecord
  2
STANDARD
 70
     0
  3

  4

  5

  6

  7

 40
1.0
 41
0.18
 42
0.0625
 43
0.38
 44
0.18
 45
0.0
 46
0.0
 47
0.0
 48
0.0
140
0.18
141
0.09
142
0.0
143
25.4
144
1.0
145
0.0
146
1.0
147
0.09
 71
     0
 72
     0
 73
     1
 74
     1
 75
     0
 76
     0
 77
     0
 78
     0
170
     0
171
     2
172
     0
173
     0
174
     0
175
     0
176
     0
177
     0
178
     0
270
     2
271
     4
272
     4
273
     2
274
     2
340
11
275
     0
280
     0
281
     0
282
     0
283
     1
284
     0
285
     0
286
     0
287
     3
288
     0
  0
ENDTAB
  0
TABLE
  2
BLOCK_RECORD
  5
1
330
0
100
AcDbSymbolTable
 70
     1
  0
BLOCK_RECORD
  5
1E
102
{ACAD_XDICTIONARY
360
2B4F
102
}
330
1
100
AcDbSymbolTableRecord
100
AcDbBlockTableRecord
  2
*MODEL_SPACE
  0
BLOCK_RECORD
  5
1A
102
{ACAD_XDICTIONARY
360
2B51
102
}
330
1
100
AcDbSymbolTableRecord
100
AcDbBlockTableRecord
  2
*PAPER_SPACE
  0
BLOCK_RECORD
  5
2B87
330
1
100
AcDbSymbolTableRecord
100
AcDbBlockTableRecord
  2
*D0
  0
ENDTAB
  0
ENDSEC
  0
SECTION
  2
BLOCKS
  0
BLOCK
  5
13B
330
1E
100
AcDbEntity
  8
0
100
AcDbBlockBegin
  2
*MODEL_SPACE
 70
     0
 10
0.0
 20
0.0
 30
0.0
  3
*MODEL_SPACE
  1

  0
ENDBLK
  5
13C
330
1E
100
AcDbEntity
  8
0
100
AcDbBlockEnd
  0
BLOCK
  5
139
330
1A
100
AcDbEntity
 67
     1
  8
0
100
AcDbBlockBegin
  2
*PAPER_SPACE
 70
     0
 10
0.0
 20
0.0
 30
0.0
  3
*PAPER_SPACE
  1

  0
ENDBLK
  5
13A
330
1A
100
AcDbEntity
 67
     1
  8
0
100
AcDbBlockEnd
  0
BLOCK
  5
2B92
330
2B87
100
AcDbEntity
  8
0
100
AcDbBlockBegin
  2
*D0
 70
     1
 10
0.0
 20
0.0
 30
0.0
  3
*D0
  1

  0
LINE
  5
2B94
330
2B87
100
AcDbEntity
  8
0
 62
     0
100
AcDbLine
 10
-0.8282658478542604
 20
6.253102690915481
 30
0.0
 11
-2.835475228776663
 21
6.253102690915482
 31
0.0
  0
LINE
  5
2B95
330
2B87
100
AcDbEntity
  8
0
 62
     0
100
AcDbLine
 10
-0.8282658478542604
 20
5.003092186631229
 30
0.0
 11
-2.835475228776663
 21
5.00309218663123
 31
0.0
  0
LINE
  5
2B96
330
2B87
100
AcDbEntity
  8
0
 62
     0
100
AcDbLine
 10
-2.655475228776662
 20
6.073102690915482
 30
0.0
 11
-2.655475228776662
 21
5.808097438773356
 31
0.0
  0
LINE
  5
2B97
330
2B87
100
AcDbEntity
  8
0
 62
     0
100
AcDbLine
 10
-2.655475228776662
 20
5.183092186631229
 30
0.0
 11
-2.655475228776662
 21
5.448097438773356
 31
0.0
  0
SOLID
  5
2B98
330
2B87
100
AcDbEntity
  8
0
 62
     0
100
AcDbTrace
 10
-2.685475228776662
 20
6.073102690915482
 30
0.0
 11
-2.625475228776663
 21
6.073102690915482
 31
0.0
 12
-2.655475228776662
 22
6.253102690915482
 32
0.0
 13
-2.655475228776662
 23
6.253102690915482
 33
0.0
  0
SOLID
  5
2B99
330
2B87
100
AcDbEntity
  8
0
 62
     0
100
AcDbTrace
 10
-2.685475228776662
 20
5.183092186631229
 30
0.0
 11
-2.625475228776663
 21
5.183092186631229
 31
0.0
 12
-2.655475228776662
 22
5.00309218663123
 32
0.0
 13
-2.655475228776662
 23
5.00309218663123
 33
0.0
  0
MTEXT
  5
2B9A
330
2B87
100
AcDbEntity
  8
0
 62
     0
100
AcDbMText
 10
-2.655475228776663
 20
5.628097438773355
 30
0.0
 40
0.18
 41
0.0
 71
     5
 72
     1
  1
\A1;1.2500
1001
ACAD
1000
MTEXTBEGIN
1070
    73
1070
     1
1070
    44
1040
1.0
1070
    74
1070
     0
1000
MTEXTEND
  0
POINT
  5
2B9B
330
2B87
100
AcDbEntity
  8
DEFPOINTS
 62
     0
100
AcDbPoint
 10
-0.7657658478542605
 20
6.253102690915481
 30
0.0
  0
POINT
  5
2B9C
330
2B87
100
AcDbEntity
  8
DEFPOINTS
 62
     0
100
AcDbPoint
 10
-0.7657658478542605
 20
5.003092186631229
 30
0.0
  0
POINT
  5
2B9D
330
2B87
100
AcDbEntity
  8
DEFPOINTS
 62
     0
100
AcDbPoint
 10
-2.655475228776662
 20
5.00309218663123
 30
0.0
  0
ENDBLK
  5
2B93
330
2B87
100
AcDbEntity
  8
0
100
AcDbBlockEnd
  0
ENDSEC
  0
SECTION
  2
ENTITIES
  0
LINE
  5
216E
330
1E
100
AcDbEntity
  8
7
100
AcDbLine
 10
3.174655920377924
 20
6.488136178590776
 30
0.0
 11
2.951439758898594
 21
6.488136178590776
 31
0.0
  0
LINE
  5
216F
330
1E
100
AcDbEntity
  8
7
100
AcDbLine
 10
0.6536263319054836
 20
6.488136178590776
 30
0.0
 11
0.4304101704261533
 21
6.488136178590776
 31
0.0
  0
LINE
  5
2178
330
1E
100
AcDbEntity
  8
7
100
AcDbLine
 10
3.526549633768869
 20
6.253102690915481
 30
0.0
 11
0.0785164570352084
 21
6.253102690915481
 31
0.0
  0
LINE
  5
2191
330
1E
100
AcDbEntity
  8
7
100
AcDbLine
 10
1.247118714191704
 20
6.312189321895303
 30
0.0
 11
1.201162445651841
 21
6.312189321895303
 31
0.0
  0
LINE
  5
2192
330
1E
100
AcDbEntity
  8
7
100
AcDbLine
 10
1.245805677947708
 20
6.404101858975026
 30
0.0
 11
1.247118714191704
 21
6.312189321895303
 31
0.0
  0
LINE
  5
2193
330
1E
100
AcDbEntity
  8
7
100
AcDbLine
 10
1.245805677947708
 20
6.30299806818733
 30
0.0
 11
1.247118714191704
 21
6.312189321895303
 31
0.0
  0
LINE
  5
2194
330
1E
100
AcDbEntity
  8
7
100
AcDbLine
 10
1.201162445651841
 20
6.30299806818733
 30
0.0
 11
1.201162445651841
 21
6.312189321895303
 31
0.0
  0
LINE
  5
219A
330
1E
100
AcDbEntity
  8
7
100
AcDbLine
 10
1.245805677947708
 20
6.295119850723354
 30
0.0
 11
1.201162445651841
 21
6.295119850723354
 31
0.0
  0
LINE
  5
219B
330
1E
100
AcDbEntity
  8
7
100
AcDbLine
 10
1.245805677947708
 20
6.30299806818733
 30
0.0
 11
1.245805677947708
 21
6.295119850723354
 31
0.0
  0
LINE
  5
219C
330
1E
100
AcDbEntity
  8
7
100
AcDbLine
 10
1.245805677947708
 20
6.260980908379456
 30
0.0
 11
1.245805677947708
 21
6.295119850723354
 31
0.0
  0
LINE
  5
219D
330
1E
100
AcDbEntity
  8
7
100
AcDbLine
 10
1.201162445651841
 20
6.260980908379456
 30
0.0
 11
1.201162445651841
 21
6.295119850723354
 31
0.0
  0
LINE
  5
219E
330
1E
100
AcDbEntity
  8
7
100
AcDbLine
 10
1.245805677947708
 20
6.260980908379456
 30
0.0
 11
1.201162445651841
 21
6.260980908379456
 31
0.0
  0
LINE
  5
219F
330
1E
100
AcDbEntity
  8
7
100
AcDbLine
 10
0.5288878887258576
 20
6.404101858975026
 30
0.0
 11
0.5722180847777279
 21
6.404101858975026
 31
0.0
  0
LINE
  5
21A5
330
1E
100
AcDbEntity
  8
7
100
AcDbLine
 10
0.5275748524818618
 20
6.312189321895303
 30
0.0
 11
0.5288878887258576
 21
6.404101858975026
 31
0.0
  0
LINE
  5
21AB
330
1E
100
AcDbEntity
  8
7
100
AcDbLine
 10
0.5735311210217242
 20
6.312189321895303
 30
0.0
 11
0.5722180847777279
 21
6.30299806818733
 31
0.0
  0
LINE
  5
21B1
330
1E
100
AcDbEntity
  8
7
100
AcDbLine
 10
0.5288878887258576
 20
6.295119850723354
 30
0.0
 11
0.5288878887258576
 21
6.30299806818733
 31
0.0
  0
LINE
  5
21B7
330
1E
100
AcDbEntity
  8
7
100
AcDbLine
 10
0.5722180847777279
 20
6.295119850723354
 30
0.0
 11
0.5735311210217242
 21
6.260980908379456
 31
0.0
  0
LINE
  5
21B8
330
1E
100
AcDbEntity
  8
7
100
AcDbLine
 10
0.2899152923185745
 20
6.313502358139299
 30
0.0
 11
0.2991065460265467
 21
6.304311104431326
 31
0.0
  0
LINE
  5
21B9
330
1E
100
AcDbEntity
  8
7
100
AcDbLine
 10
0.1520464866989879
 20
6.313502358139299
 30
0.0
 11
0.2899152923185745
 21
6.313502358139299
 31
0.0
  0
LINE
  5
21BF
330
1E
100
AcDbEntity
  8
7
100
AcDbLine
 10
0.1415421967470194
 20
6.268859125843433
 30
0.0
 11
0.1415421967470194
 21
6.30299806818733
 31
0.0
  0
LINE
  5
21C6
330
1E
100
AcDbEntity
  8
7
100
AcDbLine
 10
1.48871738308698
 20
6.260980908379456
 30
0.0
 11
1.444074150791113
 21
6.260980908379456
 31
0.0
  0
LINE
  5
21C7
330
1E
100
AcDbEntity
  8
7
100
AcDbLine
 10
1.48871738308698
 20
6.30299806818733
 30
0.0
 11
1.444074150791113
 21
6.30299806818733
 31
0.0
  0
LINE
  5
21C8
330
1E
100
AcDbEntity
  8
7
100
AcDbLine
 10
1.444074150791113
 20
6.295119850723354
 30
0.0
 11
1.444074150791113
 21
6.30299806818733
 31
0.0
  0
LINE
  5
21C9
330
1E
100
AcDbEntity
  8
7
100
AcDbLine
 10
1.48871738308698
 20
6.30299806818733
 30
0.0
 11
1.48871738308698
 21
6.295119850723354
 31
0.0
  0
LINE
  5
21CF
330
1E
100
AcDbEntity
  8
7
100
AcDbLine
 10
1.442761114547117
 20
6.312189321895303
 30
0.0
 11
1.444074150791113
 21
6.30299806818733
 31
0.0
  0
LINE
  5
21D0
330
1E
100
AcDbEntity
  8
7
100
AcDbLine
 10
1.48871738308698
 20
6.404101858975026
 30
0.0
 11
1.444074150791113
 21
6.404101858975026
 31
0.0
  0
LINE
  5
21D1
330
1E
100
AcDbEntity
  8
7
100
AcDbLine
 10
1.442761114547117
 20
6.312189321895303
 30
0.0
 11
1.444074150791113
 21
6.404101858975026
 31
0.0
  0
LINE
  5
21D2
330
1E
100
AcDbEntity
  8
7
100
AcDbLine
 10
1.48871738308698
 20
6.404101858975026
 30
0.0
 11
1.48871738308698
 21
6.312189321895303
 31
0.0
  0
LINE
  5
21D8
330
1E
100
AcDbEntity
  8
7
100
AcDbLine
 10
0.0181167898113894
 20
5.09894383244294
 30
0.0
 11
-0.0212742975084925
 21
6.253102690915481
 31
0.0
  0
LINE
  5
21DE
330
1E
100
AcDbEntity
  8
7
100
AcDbLine
 10
0.5735311210217242
 20
6.253102690915481
 30
0.0
 11
0.5735311210217242
 21
6.260980908379456
 31
0.0
  0
LINE
  5
21DF
330
1E
100
AcDbEntity
  8
7
100
AcDbLine
 10
0.5275748524818618
 20
6.253102690915481
 30
0.0
 11
0.5275748524818618
 21
6.260980908379456
 31
0.0
  0
LINE
  5
21E0
330
1E
100
AcDbEntity
  8
7
100
AcDbLine
 10
1.201162445651841
 20
6.260980908379456
 30
0.0
 11
1.201162445651841
 21
6.253102690915481
 31
0.0
  0
LINE
  5
21E1
330
1E
100
AcDbEntity
  8
7
100
AcDbLine
 10
1.245805677947708
 20
6.260980908379456
 30
0.0
 11
1.245805677947708
 21
6.253102690915481
 31
0.0
  0
LINE
  5
21E2
330
1E
100
AcDbEntity
  8
7
100
AcDbLine
 10
1.442761114547117
 20
6.253102690915481
 30
0.0
 11
1.444074150791113
 21
6.260980908379456
 31
0.0
  0
LINE
  5
21E3
330
1E
100
AcDbEntity
  8
7
100
AcDbLine
 10
1.48871738308698
 20
6.260980908379456
 30
0.0
 11
1.48871738308698
 21
6.253102690915481
 31
0.0
  0
LINE
  5
21E4
330
1E
100
AcDbEntity
  8
7
100
AcDbLine
 10
0.2991065460265467
 20
6.304311104431326
 30
0.0
 11
0.3043586910025309
 21
6.253102690915481
 31
0.0
  0
LINE
  5
21EC
330
1E
100
AcDbEntity
  8
7
100
AcDbLine
 10
0.0785164570352084
 20
6.253102690915481
 30
0.0
 11
0.119220580599086
 21
5.09894383244294
 31
0.0
  0
LINE
  5
21FB
330
1E
100
AcDbEntity
  8
7
100
AcDbLine
 10
3.485845510204991
 20
5.003092186631228
 30
0.0
 11
0.119220580599086
 21
5.003092186631228
 31
0.0
  0
LINE
  5
2203
330
1E
100
AcDbEntity
  8
7
100
AcDbLine
 10
0.119220580599086
 20
5.09894383244294
 30
0.0
 11
3.485845510204991
 21
5.09894383244294
 31
0.0
  0
LINE
  5
2204
330
1E
100
AcDbEntity
  8
7
100
AcDbLine
 10
3.526549633768869
 20
6.253102690915481
 30
0.0
 11
3.485845510204991
 21
5.09894383244294
 31
0.0
  0
LINE
  5
220A
330
1E
100
AcDbEntity
  8
7
100
AcDbLine
 10
2.947500650166606
 20
6.253102690915481
 30
0.0
 11
2.951439758898594
 21
6.471066707418826
 31
0.0
  0
LINE
  5
2210
330
1E
100
AcDbEntity
  8
7
100
AcDbLine
 10
2.359260412856369
 20
6.404101858975026
 30
0.0
 11
2.403903645152235
 21
6.404101858975026
 31
0.0
  0
LINE
  5
2216
330
1E
100
AcDbEntity
  8
7
100
AcDbLine
 10
2.403903645152235
 20
6.404101858975026
 30
0.0
 11
2.403903645152235
 21
6.312189321895303
 31
0.0
  0
LINE
  5
2217
330
1E
100
AcDbEntity
  8
7
100
AcDbLine
 10
2.359260412856369
 20
6.30299806818733
 30
0.0
 11
2.357947376612373
 21
6.312189321895303
 31
0.0
  0
LINE
  5
2222
330
1E
100
AcDbEntity
  8
7
100
AcDbLine
 10
2.403903645152235
 20
6.30299806818733
 30
0.0
 11
2.403903645152235
 21
6.295119850723354
 31
0.0
  0
LINE
  5
2223
330
1E
100
AcDbEntity
  8
7
100
AcDbLine
 10
2.359260412856369
 20
6.260980908379456
 30
0.0
 11
2.359260412856369
 21
6.295119850723354
 31
0.0
  0
LINE
  5
2224
330
1E
100
AcDbEntity
  8
7
100
AcDbLine
 10
2.359260412856369
 20
6.260980908379456
 30
0.0
 11
2.403903645152235
 21
6.260980908379456
 31
0.0
  0
LINE
  5
2225
330
1E
100
AcDbEntity
  8
7
100
AcDbLine
 10
2.403903645152235
 20
6.260980908379456
 30
0.0
 11
2.403903645152235
 21
6.295119850723354
 31
0.0
  0
LINE
  5
2226
330
1E
100
AcDbEntity
  8
7
100
AcDbLine
 10
3.07617820207822
 20
6.404101858975026
 30
0.0
 11
3.032848006026349
 21
6.404101858975026
 31
0.0
  0
LINE
  5
2227
330
1E
100
AcDbEntity
  8
7
100
AcDbLine
 10
3.077491238322216
 20
6.312189321895303
 30
0.0
 11
3.031534969782353
 21
6.312189321895303
 31
0.0
  0
LINE
  5
2228
330
1E
100
AcDbEntity
  8
7
100
AcDbLine
 10
3.077491238322216
 20
6.312189321895303
 30
0.0
 11
3.07617820207822
 21
6.404101858975026
 31
0.0
  0
LINE
  5
2229
330
1E
100
AcDbEntity
  8
7
100
AcDbLine
 10
3.031534969782353
 20
6.312189321895303
 30
0.0
 11
3.032848006026349
 21
6.404101858975026
 31
0.0
  0
LINE
  5
222A
330
1E
100
AcDbEntity
  8
7
100
AcDbLine
 10
3.077491238322216
 20
6.312189321895303
 30
0.0
 11
3.07617820207822
 21
6.30299806818733
 31
0.0
  0
LINE
  5
222B
330
1E
100
AcDbEntity
  8
7
100
AcDbLine
 10
3.031534969782353
 20
6.312189321895303
 30
0.0
 11
3.032848006026349
 21
6.30299806818733
 31
0.0
  0
LINE
  5
222C
330
1E
100
AcDbEntity
  8
7
100
AcDbLine
 10
3.07617820207822
 20
6.30299806818733
 30
0.0
 11
3.032848006026349
 21
6.30299806818733
 31
0.0
  0
LINE
  5
222D
330
1E
100
AcDbEntity
  8
7
100
AcDbLine
 10
3.07617820207822
 20
6.295119850723354
 30
0.0
 11
3.032848006026349
 21
6.295119850723354
 31
0.0
  0
LINE
  5
222E
330
1E
100
AcDbEntity
  8
7
100
AcDbLine
 10
3.07617820207822
 20
6.295119850723354
 30
0.0
 11
3.07617820207822
 21
6.30299806818733
 31
0.0
  0
LINE
  5
222F
330
1E
100
AcDbEntity
  8
7
100
AcDbLine
 10
3.032848006026349
 20
6.295119850723354
 30
0.0
 11
3.032848006026349
 21
6.30299806818733
 31
0.0
  0
LINE
  5
2230
330
1E
100
AcDbEntity
  8
7
100
AcDbLine
 10
3.07617820207822
 20
6.295119850723354
 30
0.0
 11
3.077491238322216
 21
6.260980908379456
 31
0.0
  0
LINE
  5
2231
330
1E
100
AcDbEntity
  8
7
100
AcDbLine
 10
3.032848006026349
 20
6.295119850723354
 30
0.0
 11
3.031534969782353
 21
6.260980908379456
 31
0.0
  0
LINE
  5
2232
330
1E
100
AcDbEntity
  8
7
100
AcDbLine
 10
3.077491238322216
 20
6.260980908379456
 30
0.0
 11
3.031534969782353
 21
6.260980908379456
 31
0.0
  0
LINE
  5
2233
330
1E
100
AcDbEntity
  8
7
100
AcDbLine
 10
3.315150798485503
 20
6.313502358139299
 30
0.0
 11
3.305959544777531
 21
6.304311104431326
 31
0.0
  0
LINE
  5
2234
330
1E
100
AcDbEntity
  8
7
100
AcDbLine
 10
3.45301960410509
 20
6.313502358139299
 30
0.0
 11
3.315150798485503
 21
6.313502358139299
 31
0.0
  0
LINE
  5
223A
330
1E
100
AcDbEntity
  8
7
100
AcDbLine
 10
3.463523894057058
 20
6.268859125843433
 30
0.0
 11
3.463523894057058
 21
6.30299806818733
 31
0.0
  0
LINE
  5
223B
330
1E
100
AcDbEntity
  8
7
100
AcDbLine
 10
2.116348707717098
 20
6.260980908379456
 30
0.0
 11
2.116348707717098
 21
6.295119850723354
 31
0.0
  0
LINE
  5
223C
330
1E
100
AcDbEntity
  8
7
100
AcDbLine
 10
2.116348707717098
 20
6.260980908379456
 30
0.0
 11
2.160991940012964
 21
6.260980908379456
 31
0.0
  0
LINE
  5
223D
330
1E
100
AcDbEntity
  8
7
100
AcDbLine
 10
2.160991940012964
 20
6.295119850723354
 30
0.0
 11
2.160991940012964
 21
6.260980908379456
 31
0.0
  0
LINE
  5
223E
330
1E
100
AcDbEntity
  8
7
100
AcDbLine
 10
2.116348707717098
 20
6.295119850723354
 30
0.0
 11
2.160991940012964
 21
6.295119850723354
 31
0.0
  0
LINE
  5
223F
330
1E
100
AcDbEntity
  8
7
100
AcDbLine
 10
2.116348707717098
 20
6.30299806818733
 30
0.0
 11
2.160991940012964
 21
6.30299806818733
 31
0.0
  0
LINE
  5
2240
330
1E
100
AcDbEntity
  8
7
100
AcDbLine
 10
2.116348707717098
 20
6.30299806818733
 30
0.0
 11
2.116348707717098
 21
6.295119850723354
 31
0.0
  0
LINE
  5
2241
330
1E
100
AcDbEntity
  8
7
100
AcDbLine
 10
2.160991940012964
 20
6.295119850723354
 30
0.0
 11
2.160991940012964
 21
6.30299806818733
 31
0.0
  0
LINE
  5
2242
330
1E
100
AcDbEntity
  8
7
100
AcDbLine
 10
2.116348707717098
 20
6.30299806818733
 30
0.0
 11
2.116348707717098
 21
6.312189321895303
 31
0.0
  0
LINE
  5
2243
330
1E
100
AcDbEntity
  8
7
100
AcDbLine
 10
2.162304976256959
 20
6.312189321895303
 30
0.0
 11
2.160991940012964
 21
6.30299806818733
 31
0.0
  0
LINE
  5
2244
330
1E
100
AcDbEntity
  8
7
100
AcDbLine
 10
2.116348707717098
 20
6.312189321895303
 30
0.0
 11
2.162304976256959
 21
6.312189321895303
 31
0.0
  0
LINE
  5
2245
330
1E
100
AcDbEntity
  8
7
100
AcDbLine
 10
2.116348707717098
 20
6.404101858975026
 30
0.0
 11
2.160991940012964
 21
6.404101858975026
 31
0.0
  0
LINE
  5
2246
330
1E
100
AcDbEntity
  8
7
100
AcDbLine
 10
2.116348707717098
 20
6.404101858975026
 30
0.0
 11
2.116348707717098
 21
6.312189321895303
 31
0.0
  0
LINE
  5
2247
330
1E
100
AcDbEntity
  8
7
100
AcDbLine
 10
2.162304976256959
 20
6.312189321895303
 30
0.0
 11
2.160991940012964
 21
6.404101858975026
 31
0.0
  0
LINE
  5
224D
330
1E
100
AcDbEntity
  8
7
100
AcDbLine
 10
3.586949300992689
 20
5.09894383244294
 30
0.0
 11
3.62634038831257
 21
6.253102690915481
 31
0.0
  0
LINE
  5
2253
330
1E
100
AcDbEntity
  8
7
100
AcDbLine
 10
3.077491238322216
 20
6.253102690915481
 30
0.0
 11
3.077491238322216
 21
6.260980908379456
 31
0.0
  0
LINE
  5
2254
330
1E
100
AcDbEntity
  8
7
100
AcDbLine
 10
3.031534969782353
 20
6.253102690915481
 30
0.0
 11
3.031534969782353
 21
6.260980908379456
 31
0.0
  0
LINE
  5
2255
330
1E
100
AcDbEntity
  8
7
100
AcDbLine
 10
2.359260412856369
 20
6.260980908379456
 30
0.0
 11
2.359260412856369
 21
6.253102690915481
 31
0.0
  0
LINE
  5
2256
330
1E
100
AcDbEntity
  8
7
100
AcDbLine
 10
2.403903645152235
 20
6.260980908379456
 30
0.0
 11
2.403903645152235
 21
6.253102690915481
 31
0.0
  0
LINE
  5
2257
330
1E
100
AcDbEntity
  8
7
100
AcDbLine
 10
2.116348707717098
 20
6.260980908379456
 30
0.0
 11
2.116348707717098
 21
6.253102690915481
 31
0.0
  0
LINE
  5
2258
330
1E
100
AcDbEntity
  8
7
100
AcDbLine
 10
2.162304976256959
 20
6.253102690915481
 30
0.0
 11
2.160991940012964
 21
6.260980908379456
 31
0.0
  0
LINE
  5
2259
330
1E
100
AcDbEntity
  8
7
100
AcDbLine
 10
3.305959544777531
 20
6.304311104431326
 30
0.0
 11
3.300707399801547
 21
6.253102690915481
 31
0.0
  0
LINE
  5
2268
330
1E
100
AcDbEntity
  8
7
100
AcDbLine
 10
2.927805106506665
 20
1.758579627716956
 30
0.0
 11
2.921239925286684
 21
1.770396953912921
 31
0.0
  0
LINE
  5
2269
330
1E
100
AcDbEntity
  8
7
100
AcDbLine
 10
0.6772609842974127
 20
1.758579627716956
 30
0.0
 11
0.6838261655173933
 21
1.770396953912921
 31
0.0
  0
LINE
  5
226A
330
1E
100
AcDbEntity
  8
7
100
AcDbLine
 10
0.4199058804741848
 20
1.80059678752483
 30
0.0
 11
0.4002103368142436
 21
1.80059678752483
 31
0.0
  0
LINE
  5
226B
330
1E
100
AcDbEntity
  8
7
100
AcDbLine
 10
0.4199058804741848
 20
1.80059678752483
 30
0.0
 11
0.6641306218574521
 21
1.80059678752483
 31
0.0
  0
LINE
  5
226C
330
1E
100
AcDbEntity
  8
7
100
AcDbLine
 10
0.6838261655173933
 20
1.80059678752483
 30
0.0
 11
0.6641306218574521
 21
1.80059678752483
 31
0.0
  0
LINE
  5
226D
330
1E
100
AcDbEntity
  8
7
100
AcDbLine
 10
0.6982695642013497
 20
1.813727149964791
 30
0.0
 11
0.6838261655173933
 21
1.80059678752483
 31
0.0
  0
LINE
  5
226E
330
1E
100
AcDbEntity
  8
7
100
AcDbLine
 10
0.6982695642013497
 20
1.815040186208787
 30
0.0
 11
0.6982695642013497
 21
1.813727149964791
 31
0.0
  0
LINE
  5
2276
330
1E
100
AcDbEntity
  8
7
100
AcDbLine
 10
0.3253672709064679
 20
1.816353222452783
 30
0.0
 11
0.7586692314251691
 21
1.816353222452783
 31
0.0
  0
LINE
  5
227F
330
1E
100
AcDbEntity
  8
7
100
AcDbLine
 10
0.4002103368142436
 20
1.80059678752483
 30
0.0
 11
0.387079974374283
 21
1.813727149964791
 31
0.0
  0
LINE
  5
2288
330
1E
100
AcDbEntity
  8
7
100
AcDbLine
 10
0.4067755180342242
 20
1.758579627716956
 30
0.0
 11
0.4067755180342242
 21
1.725753721617055
 31
0.0
  0
LINE
  5
228F
330
1E
100
AcDbEntity
  8
7
100
AcDbLine
 10
0.4002103368142436
 20
1.80059678752483
 30
0.0
 11
0.4002103368142436
 21
1.795344642548846
 31
0.0
  0
LINE
  5
2297
330
1E
100
AcDbEntity
  8
7
100
AcDbLine
 10
0.6838261655173933
 20
1.80059678752483
 30
0.0
 11
0.6838261655173933
 21
1.795344642548846
 31
0.0
  0
LINE
  5
22AF
330
1E
100
AcDbEntity
  8
7
100
AcDbLine
 10
3.258690239993673
 20
1.665354054393235
 30
0.0
 11
3.526549633768869
 21
1.665354054393235
 31
0.0
  0
LINE
  5
22B7
330
1E
100
AcDbEntity
  8
7
100
AcDbLine
 10
3.198290572769853
 20
1.758579627716956
 30
0.0
 11
3.198290572769853
 21
1.725753721617055
 31
0.0
  0
LINE
  5
22D1
330
1E
100
AcDbEntity
  8
7
100
AcDbLine
 10
3.526549633768869
 20
3.613899840483393
 30
0.0
 11
0.0785164570352084
 21
3.613899840483393
 31
0.0
  0
LINE
  5
22DA
330
1E
100
AcDbEntity
  8
7
100
AcDbLine
 10
3.62634038831257
 20
1.765144808936937
 30
0.0
 11
3.62634038831257
 21
3.514109085939693
 31
0.0
  0
LINE
  5
22E3
330
1E
100
AcDbEntity
  8
7
100
AcDbLine
 10
0.6562524043934758
 20
1.691614779273157
 30
0.0
 11
0.4277840979381612
 21
1.691614779273157
 31
0.0
  0
LINE
  5
22EA
330
1E
100
AcDbEntity
  8
7
100
AcDbLine
 10
0.4277840979381612
 20
1.75726659147296
 30
0.0
 11
0.4277840979381612
 21
1.765144808936937
 31
0.0
  0
LINE
  5
22EB
330
1E
100
AcDbEntity
  8
7
100
AcDbLine
 10
0.6562524043934758
 20
1.765144808936937
 30
0.0
 11
0.6562524043934758
 21
1.75726659147296
 31
0.0
  0
LINE
  5
22EC
330
1E
100
AcDbEntity
  8
7
100
AcDbLine
 10
0.4277840979381612
 20
1.765144808936937
 30
0.0
 11
0.6562524043934758
 21
1.765144808936937
 31
0.0
  0
LINE
  5
22ED
330
1E
100
AcDbEntity
  8
7
100
AcDbLine
 10
0.4277840979381612
 20
1.765144808936937
 30
0.0
 11
0.4212189167181806
 21
1.796657678792842
 31
0.0
  0
LINE
  5
22F3
330
1E
100
AcDbEntity
  8
7
100
AcDbLine
 10
0.6641306218574521
 20
1.80059678752483
 30
0.0
 11
0.6628175856134564
 21
1.796657678792842
 31
0.0
  0
LINE
  5
22F4
330
1E
100
AcDbEntity
  8
7
100
AcDbLine
 10
0.4212189167181806
 20
1.796657678792842
 30
0.0
 11
0.4199058804741848
 21
1.80059678752483
 31
0.0
  0
LINE
  5
22F5
330
1E
100
AcDbEntity
  8
7
100
AcDbLine
 10
0.974007175440523
 20
2.723661267054062
 30
0.0
 11
0.7993733549890468
 21
2.723661267054062
 31
0.0
  0
LINE
  5
22FB
330
1E
100
AcDbEntity
  8
7
100
AcDbLine
 10
0.9897636103684757
 20
2.115725486083885
 30
0.0
 11
0.7836169200610939
 21
2.115725486083885
 31
0.0
  0
LINE
  5
22FC
330
1E
100
AcDbEntity
  8
7
100
AcDbLine
 10
0.9897636103684757
 20
2.145925319695795
 30
0.0
 11
0.9897636103684757
 21
2.115725486083885
 31
0.0
  0
LINE
  5
2302
330
1E
100
AcDbEntity
  8
7
100
AcDbLine
 10
0.7836169200610939
 20
2.115725486083885
 30
0.0
 11
0.7836169200610939
 21
2.111786377351898
 31
0.0
  0
LINE
  5
2303
330
1E
100
AcDbEntity
  8
7
100
AcDbLine
 10
0.9897636103684757
 20
2.075021362520008
 30
0.0
 11
0.7849299563050903
 21
2.075021362520008
 31
0.0
  0
LINE
  5
230E
330
1E
100
AcDbEntity
  8
7
100
AcDbLine
 10
0.9897636103684757
 20
2.064517072568039
 30
0.0
 11
0.7849299563050903
 21
2.064517072568039
 31
0.0
  0
LINE
  5
230F
330
1E
100
AcDbEntity
  8
7
100
AcDbLine
 10
0.9897636103684757
 20
2.075021362520008
 30
0.0
 11
0.9897636103684757
 21
2.064517072568039
 31
0.0
  0
LINE
  5
2310
330
1E
100
AcDbEntity
  8
7
100
AcDbLine
 10
0.7849299563050903
 20
2.075021362520008
 30
0.0
 11
0.7849299563050903
 21
2.064517072568039
 31
0.0
  0
LINE
  5
2328
330
1E
100
AcDbEntity
  8
7
100
AcDbLine
 10
0.974007175440523
 20
2.763052354373945
 30
0.0
 11
0.974007175440523
 21
2.723661267054062
 31
0.0
  0
LINE
  5
2331
330
1E
100
AcDbEntity
  8
7
100
AcDbLine
 10
0.0181167898113894
 20
1.805848932500814
 30
0.0
 11
-0.0212742975084925
 21
1.765144808936937
 31
0.0
  0
LINE
  5
2337
330
1E
100
AcDbEntity
  8
7
100
AcDbLine
 10
0.0785164570352084
 20
1.665354054393235
 30
0.0
 11
0.119220580599086
 21
1.706058177957114
 31
0.0
  0
LINE
  5
2338
330
1E
100
AcDbEntity
  8
7
100
AcDbLine
 10
0.3463758508104048
 20
1.665354054393235
 30
0.0
 11
0.3266803071504642
 21
1.706058177957114
 31
0.0
  0
LINE
  5
2339
330
1E
100
AcDbEntity
  8
7
100
AcDbLine
 10
0.119220580599086
 20
1.706058177957114
 30
0.0
 11
0.3266803071504642
 21
1.706058177957114
 31
0.0
  0
LINE
  5
233A
330
1E
100
AcDbEntity
  8
7
100
AcDbLine
 10
1.556995267774775
 20
2.102595123643925
 30
0.0
 11
1.556995267774775
 21
2.036943311444121
 31
0.0
  0
LINE
  5
233B
330
1E
100
AcDbEntity
  8
7
100
AcDbLine
 10
1.556995267774775
 20
2.102595123643925
 30
0.0
 11
1.490030419330975
 21
2.102595123643925
 31
0.0
  0
LINE
  5
233C
330
1E
100
AcDbEntity
  8
7
100
AcDbLine
 10
1.490030419330975
 20
2.763052354373945
 30
0.0
 11
1.490030419330975
 21
2.102595123643925
 31
0.0
  0
LINE
  5
233D
330
1E
100
AcDbEntity
  8
7
100
AcDbLine
 10
1.199849409407846
 20
2.763052354373945
 30
0.0
 11
0.974007175440523
 21
2.763052354373945
 31
0.0
  0
LINE
  5
2343
330
1E
100
AcDbEntity
  8
7
100
AcDbLine
 10
1.13157152472005
 20
2.036943311444121
 30
0.0
 11
1.13157152472005
 21
2.102595123643925
 31
0.0
  0
LINE
  5
2344
330
1E
100
AcDbEntity
  8
7
100
AcDbLine
 10
1.014711299004401
 20
2.036943311444121
 30
0.0
 11
1.13157152472005
 21
2.036943311444121
 31
0.0
  0
LINE
  5
2345
330
1E
100
AcDbEntity
  8
7
100
AcDbLine
 10
1.014711299004401
 20
2.036943311444121
 30
0.0
 11
0.9897636103684757
 21
2.048760637640087
 31
0.0
  0
LINE
  5
2346
330
1E
100
AcDbEntity
  8
7
100
AcDbLine
 10
0.7836169200610939
 20
2.048760637640087
 30
0.0
 11
0.7599822676691649
 21
2.036943311444121
 31
0.0
  0
LINE
  5
2347
330
1E
100
AcDbEntity
  8
7
100
AcDbLine
 10
0.6418090057095194
 20
2.036943311444121
 30
0.0
 11
0.7599822676691649
 21
2.036943311444121
 31
0.0
  0
LINE
  5
2348
330
1E
100
AcDbEntity
  8
7
100
AcDbLine
 10
0.6418090057095194
 20
2.102595123643925
 30
0.0
 11
0.6418090057095194
 21
2.036943311444121
 31
0.0
  0
LINE
  5
234E
330
1E
100
AcDbEntity
  8
7
100
AcDbLine
 10
0.7993733549890468
 20
2.763052354373945
 30
0.0
 11
0.57484415726572
 21
2.763052354373945
 31
0.0
  0
LINE
  5
2356
330
1E
100
AcDbEntity
  8
7
100
AcDbLine
 10
0.0785164570352084
 20
3.613899840483393
 30
0.0
 11
0.119220580599086
 21
3.574508753163512
 31
0.0
  0
LINE
  5
2368
330
1E
100
AcDbEntity
  8
7
100
AcDbLine
 10
1.490030419330975
 20
2.102595123643925
 30
0.0
 11
1.48871738308698
 21
2.101282087399929
 31
0.0
  0
LINE
  5
2369
330
1E
100
AcDbEntity
  8
7
100
AcDbLine
 10
1.556995267774775
 20
2.101282087399929
 30
0.0
 11
1.48871738308698
 21
2.101282087399929
 31
0.0
  0
LINE
  5
236A
330
1E
100
AcDbEntity
  8
7
100
AcDbLine
 10
1.556995267774775
 20
2.101282087399929
 30
0.0
 11
1.556995267774775
 21
2.102595123643925
 31
0.0
  0
LINE
  5
2372
330
1E
100
AcDbEntity
  8
7
100
AcDbLine
 10
0.3253672709064679
 20
1.775649098888905
 30
0.0
 11
0.3253672709064679
 21
1.805848932500814
 31
0.0
  0
LINE
  5
2373
330
1E
100
AcDbEntity
  8
7
100
AcDbLine
 10
0.119220580599086
 20
1.805848932500814
 30
0.0
 11
0.3253672709064679
 21
1.805848932500814
 31
0.0
  0
LINE
  5
2374
330
1E
100
AcDbEntity
  8
7
100
AcDbLine
 10
0.119220580599086
 20
3.473404962375814
 30
0.0
 11
0.119220580599086
 21
1.805848932500814
 31
0.0
  0
LINE
  5
2375
330
1E
100
AcDbEntity
  8
7
100
AcDbLine
 10
1.13157152472005
 20
2.036943311444121
 30
0.0
 11
1.132884560964046
 21
2.035630275200125
 31
0.0
  0
LINE
  5
2376
330
1E
100
AcDbEntity
  8
7
100
AcDbLine
 10
1.132884560964046
 20
2.101282087399929
 30
0.0
 11
1.132884560964046
 21
2.035630275200125
 31
0.0
  0
LINE
  5
2377
330
1E
100
AcDbEntity
  8
7
100
AcDbLine
 10
1.132884560964046
 20
2.101282087399929
 30
0.0
 11
1.13157152472005
 21
2.102595123643925
 31
0.0
  0
LINE
  5
2378
330
1E
100
AcDbEntity
  8
7
100
AcDbLine
 10
1.201162445651841
 20
2.101282087399929
 30
0.0
 11
1.132884560964046
 21
2.101282087399929
 31
0.0
  0
LINE
  5
2379
330
1E
100
AcDbEntity
  8
7
100
AcDbLine
 10
1.201162445651841
 20
2.101282087399929
 30
0.0
 11
1.199849409407846
 21
2.102595123643925
 31
0.0
  0
LINE
  5
237A
330
1E
100
AcDbEntity
  8
7
100
AcDbLine
 10
1.201162445651841
 20
2.763052354373945
 30
0.0
 11
1.199849409407846
 21
2.763052354373945
 31
0.0
  0
LINE
  5
237B
330
1E
100
AcDbEntity
  8
7
100
AcDbLine
 10
1.201162445651841
 20
2.763052354373945
 30
0.0
 11
1.201162445651841
 21
2.101282087399929
 31
0.0
  0
LINE
  5
237C
330
1E
100
AcDbEntity
  8
7
100
AcDbLine
 10
0.5735311210217242
 20
2.763052354373945
 30
0.0
 11
1.201162445651841
 21
2.763052354373945
 31
0.0
  0
LINE
  5
237D
330
1E
100
AcDbEntity
  8
7
100
AcDbLine
 10
0.5735311210217242
 20
2.763052354373945
 30
0.0
 11
0.57484415726572
 21
2.763052354373945
 31
0.0
  0
LINE
  5
237E
330
1E
100
AcDbEntity
  8
7
100
AcDbLine
 10
0.57484415726572
 20
2.102595123643925
 30
0.0
 11
0.5735311210217242
 21
2.101282087399929
 31
0.0
  0
LINE
  5
237F
330
1E
100
AcDbEntity
  8
7
100
AcDbLine
 10
0.5735311210217242
 20
2.763052354373945
 30
0.0
 11
0.5735311210217242
 21
2.101282087399929
 31
0.0
  0
LINE
  5
2380
330
1E
100
AcDbEntity
  8
7
100
AcDbLine
 10
0.640495969465523
 20
2.101282087399929
 30
0.0
 11
0.6418090057095194
 21
2.102595123643925
 31
0.0
  0
LINE
  5
2381
330
1E
100
AcDbEntity
  8
7
100
AcDbLine
 10
0.640495969465523
 20
2.101282087399929
 30
0.0
 11
0.5735311210217242
 21
2.101282087399929
 31
0.0
  0
LINE
  5
2382
330
1E
100
AcDbEntity
  8
7
100
AcDbLine
 10
0.640495969465523
 20
2.035630275200125
 30
0.0
 11
0.6418090057095194
 21
2.036943311444121
 31
0.0
  0
LINE
  5
2383
330
1E
100
AcDbEntity
  8
7
100
AcDbLine
 10
0.640495969465523
 20
2.035630275200125
 30
0.0
 11
0.640495969465523
 21
2.101282087399929
 31
0.0
  0
LINE
  5
2384
330
1E
100
AcDbEntity
  8
7
100
AcDbLine
 10
1.132884560964046
 20
2.035630275200125
 30
0.0
 11
0.640495969465523
 21
2.035630275200125
 31
0.0
  0
LINE
  5
238B
330
1E
100
AcDbEntity
  8
7
100
AcDbLine
 10
1.556995267774775
 20
2.101282087399929
 30
0.0
 11
1.556995267774775
 21
2.035630275200125
 31
0.0
  0
LINE
  5
238C
330
1E
100
AcDbEntity
  8
7
100
AcDbLine
 10
1.556995267774775
 20
2.036943311444121
 30
0.0
 11
1.556995267774775
 21
2.035630275200125
 31
0.0
  0
LINE
  5
238D
330
1E
100
AcDbEntity
  8
7
100
AcDbLine
 10
1.556995267774775
 20
2.036943311444121
 30
0.0
 11
1.67516852973442
 21
2.036943311444121
 31
0.0
  0
LINE
  5
238E
330
1E
100
AcDbEntity
  8
7
100
AcDbLine
 10
1.714559617054302
 20
2.763052354373945
 30
0.0
 11
1.714559617054302
 21
2.723661267054062
 31
0.0
  0
LINE
  5
2395
330
1E
100
AcDbEntity
  8
7
100
AcDbLine
 10
1.700116218370346
 20
2.075021362520008
 30
0.0
 11
1.700116218370346
 21
2.064517072568039
 31
0.0
  0
LINE
  5
239C
330
1E
100
AcDbEntity
  8
7
100
AcDbLine
 10
1.698803182126349
 20
2.145925319695795
 30
0.0
 11
1.698803182126349
 21
2.115725486083885
 31
0.0
  0
LINE
  5
239D
330
1E
100
AcDbEntity
  8
7
100
AcDbLine
 10
1.890506473749775
 20
2.723661267054062
 30
0.0
 11
1.714559617054302
 21
2.723661267054062
 31
0.0
  0
LINE
  5
239E
330
1E
100
AcDbEntity
  8
7
100
AcDbLine
 10
1.890506473749775
 20
2.763052354373945
 30
0.0
 11
1.890506473749775
 21
2.723661267054062
 31
0.0
  0
LINE
  5
239F
330
1E
100
AcDbEntity
  8
7
100
AcDbLine
 10
1.890506473749775
 20
2.763052354373945
 30
0.0
 11
1.714559617054302
 21
2.763052354373945
 31
0.0
  0
LINE
  5
23A5
330
1E
100
AcDbEntity
  8
7
100
AcDbLine
 10
1.48871738308698
 20
2.763052354373945
 30
0.0
 11
2.116348707717098
 21
2.763052354373945
 31
0.0
  0
LINE
  5
23A6
330
1E
100
AcDbEntity
  8
7
100
AcDbLine
 10
1.698803182126349
 20
2.145925319695795
 30
0.0
 11
1.906262908677727
 21
2.145925319695795
 31
0.0
  0
LINE
  5
23A7
330
1E
100
AcDbEntity
  8
7
100
AcDbLine
 10
1.698803182126349
 20
2.115725486083885
 30
0.0
 11
1.906262908677727
 21
2.115725486083885
 31
0.0
  0
LINE
  5
23A8
330
1E
100
AcDbEntity
  8
7
100
AcDbLine
 10
1.906262908677727
 20
2.145925319695795
 30
0.0
 11
1.906262908677727
 21
2.115725486083885
 31
0.0
  0
LINE
  5
23A9
330
1E
100
AcDbEntity
  8
7
100
AcDbLine
 10
1.904949872433732
 20
2.111786377351898
 30
0.0
 11
1.700116218370346
 21
2.111786377351898
 31
0.0
  0
LINE
  5
23AA
330
1E
100
AcDbEntity
  8
7
100
AcDbLine
 10
1.904949872433732
 20
2.111786377351898
 30
0.0
 11
1.906262908677727
 21
2.115725486083885
 31
0.0
  0
LINE
  5
23B0
330
1E
100
AcDbEntity
  8
7
100
AcDbLine
 10
1.904949872433732
 20
2.094716906179948
 30
0.0
 11
1.904949872433732
 21
2.111786377351898
 31
0.0
  0
LINE
  5
23B1
330
1E
100
AcDbEntity
  8
7
100
AcDbLine
 10
1.700116218370346
 20
2.064517072568039
 30
0.0
 11
1.904949872433732
 21
2.064517072568039
 31
0.0
  0
LINE
  5
23B2
330
1E
100
AcDbEntity
  8
7
100
AcDbLine
 10
1.904949872433732
 20
2.075021362520008
 30
0.0
 11
1.904949872433732
 21
2.064517072568039
 31
0.0
  0
LINE
  5
23B3
330
1E
100
AcDbEntity
  8
7
100
AcDbLine
 10
1.906262908677727
 20
2.048760637640087
 30
0.0
 11
1.698803182126349
 21
2.048760637640087
 31
0.0
  0
LINE
  5
23B9
330
1E
100
AcDbEntity
  8
7
100
AcDbLine
 10
1.556995267774775
 20
2.035630275200125
 30
0.0
 11
2.048070823029302
 21
2.035630275200125
 31
0.0
  0
LINE
  5
23BA
330
1E
100
AcDbEntity
  8
7
100
AcDbLine
 10
2.048070823029302
 20
2.036943311444121
 30
0.0
 11
2.048070823029302
 21
2.035630275200125
 31
0.0
  0
LINE
  5
23C9
330
1E
100
AcDbEntity
  8
7
100
AcDbLine
 10
0.7586692314251691
 20
1.805848932500814
 30
0.0
 11
2.846396859378908
 21
1.805848932500814
 31
0.0
  0
LINE
  5
23D2
330
1E
100
AcDbEntity
  8
7
100
AcDbLine
 10
2.867405439282845
 20
1.665354054393235
 30
0.0
 11
2.847709895622905
 21
1.706058177957114
 31
0.0
  0
LINE
  5
23D3
330
1E
100
AcDbEntity
  8
7
100
AcDbLine
 10
0.7573561951811727
 20
1.706058177957114
 30
0.0
 11
0.7376606515212321
 21
1.665354054393235
 31
0.0
  0
LINE
  5
23D9
330
1E
100
AcDbEntity
  8
7
100
AcDbLine
 10
3.485845510204991
 20
1.805848932500814
 30
0.0
 11
3.27969881989761
 21
1.805848932500814
 31
0.0
  0
LINE
  5
23DA
330
1E
100
AcDbEntity
  8
7
100
AcDbLine
 10
3.485845510204991
 20
3.473404962375814
 30
0.0
 11
3.485845510204991
 21
1.805848932500814
 31
0.0
  0
LINE
  5
23DB
330
1E
100
AcDbEntity
  8
7
100
AcDbLine
 10
3.485845510204991
 20
3.473404962375814
 30
0.0
 11
0.119220580599086
 21
3.473404962375814
 31
0.0
  0
LINE
  5
23DC
330
1E
100
AcDbEntity
  8
7
100
AcDbLine
 10
0.3253672709064679
 20
1.805848932500814
 30
0.0
 11
0.3253672709064679
 21
1.816353222452783
 31
0.0
  0
LINE
  5
23DD
330
1E
100
AcDbEntity
  8
7
100
AcDbLine
 10
0.7586692314251691
 20
1.816353222452783
 30
0.0
 11
0.7586692314251691
 21
1.805848932500814
 31
0.0
  0
LINE
  5
23DE
330
1E
100
AcDbEntity
  8
7
100
AcDbLine
 10
2.846396859378908
 20
1.805848932500814
 30
0.0
 11
2.846396859378908
 21
1.816353222452783
 31
0.0
  0
LINE
  5
23DF
330
1E
100
AcDbEntity
  8
7
100
AcDbLine
 10
2.116348707717098
 20
2.763052354373945
 30
0.0
 11
2.116348707717098
 21
2.101282087399929
 31
0.0
  0
LINE
  5
23E0
330
1E
100
AcDbEntity
  8
7
100
AcDbLine
 10
2.048070823029302
 20
2.101282087399929
 30
0.0
 11
2.116348707717098
 21
2.101282087399929
 31
0.0
  0
LINE
  5
23E1
330
1E
100
AcDbEntity
  8
7
100
AcDbLine
 10
2.048070823029302
 20
2.101282087399929
 30
0.0
 11
2.048070823029302
 21
2.035630275200125
 31
0.0
  0
LINE
  5
23E2
330
1E
100
AcDbEntity
  8
7
100
AcDbLine
 10
2.47218152984003
 20
2.035630275200125
 30
0.0
 11
2.964570121338554
 21
2.035630275200125
 31
0.0
  0
LINE
  5
23E3
330
1E
100
AcDbEntity
  8
7
100
AcDbLine
 10
2.47218152984003
 20
2.101282087399929
 30
0.0
 11
2.47218152984003
 21
2.035630275200125
 31
0.0
  0
LINE
  5
23E4
330
1E
100
AcDbEntity
  8
7
100
AcDbLine
 10
2.403903645152235
 20
2.101282087399929
 30
0.0
 11
2.47218152984003
 21
2.101282087399929
 31
0.0
  0
LINE
  5
23E5
330
1E
100
AcDbEntity
  8
7
100
AcDbLine
 10
2.403903645152235
 20
2.763052354373945
 30
0.0
 11
2.403903645152235
 21
2.101282087399929
 31
0.0
  0
LINE
  5
23E6
330
1E
100
AcDbEntity
  8
7
100
AcDbLine
 10
3.031534969782353
 20
2.763052354373945
 30
0.0
 11
2.403903645152235
 21
2.763052354373945
 31
0.0
  0
LINE
  5
23E7
330
1E
100
AcDbEntity
  8
7
100
AcDbLine
 10
3.031534969782353
 20
2.763052354373945
 30
0.0
 11
3.031534969782353
 21
2.101282087399929
 31
0.0
  0
LINE
  5
23E8
330
1E
100
AcDbEntity
  8
7
100
AcDbLine
 10
2.964570121338554
 20
2.101282087399929
 30
0.0
 11
3.031534969782353
 21
2.101282087399929
 31
0.0
  0
LINE
  5
23E9
330
1E
100
AcDbEntity
  8
7
100
AcDbLine
 10
2.964570121338554
 20
2.035630275200125
 30
0.0
 11
2.964570121338554
 21
2.101282087399929
 31
0.0
  0
LINE
  5
23F1
330
1E
100
AcDbEntity
  8
7
100
AcDbLine
 10
0.119220580599086
 20
3.574508753163512
 30
0.0
 11
3.485845510204991
 21
3.574508753163512
 31
0.0
  0
LINE
  5
23F2
330
1E
100
AcDbEntity
  8
7
100
AcDbLine
 10
3.526549633768869
 20
3.613899840483393
 30
0.0
 11
3.485845510204991
 21
3.574508753163512
 31
0.0
  0
LINE
  5
23F3
330
1E
100
AcDbEntity
  8
7
100
AcDbLine
 10
3.204855753989833
 20
1.80059678752483
 30
0.0
 11
3.204855753989833
 21
1.795344642548846
 31
0.0
  0
LINE
  5
23F4
330
1E
100
AcDbEntity
  8
7
100
AcDbLine
 10
3.185160210329892
 20
1.80059678752483
 30
0.0
 11
3.204855753989833
 21
1.80059678752483
 31
0.0
  0
LINE
  5
23F5
330
1E
100
AcDbEntity
  8
7
100
AcDbLine
 10
2.948813686410601
 20
1.691614779273157
 30
0.0
 11
3.177281992865917
 21
1.691614779273157
 31
0.0
  0
LINE
  5
23F6
330
1E
100
AcDbEntity
  8
7
100
AcDbLine
 10
2.948813686410601
 20
1.691614779273157
 30
0.0
 11
2.948813686410601
 21
1.75726659147296
 31
0.0
  0
LINE
  5
23F7
330
1E
100
AcDbEntity
  8
7
100
AcDbLine
 10
3.177281992865917
 20
1.75726659147296
 30
0.0
 11
3.177281992865917
 21
1.691614779273157
 31
0.0
  0
LINE
  5
23FF
330
1E
100
AcDbEntity
  8
7
100
AcDbLine
 10
3.177281992865917
 20
1.765144808936937
 30
0.0
 11
3.183847174085896
 21
1.796657678792842
 31
0.0
  0
LINE
  5
2400
330
1E
100
AcDbEntity
  8
7
100
AcDbLine
 10
2.942248505190621
 20
1.796657678792842
 30
0.0
 11
3.183847174085896
 21
1.796657678792842
 31
0.0
  0
LINE
  5
2401
330
1E
100
AcDbEntity
  8
7
100
AcDbLine
 10
2.948813686410601
 20
1.765144808936937
 30
0.0
 11
2.942248505190621
 21
1.796657678792842
 31
0.0
  0
LINE
  5
2407
330
1E
100
AcDbEntity
  8
7
100
AcDbLine
 10
2.940935468946626
 20
1.80059678752483
 30
0.0
 11
2.942248505190621
 21
1.796657678792842
 31
0.0
  0
LINE
  5
2408
330
1E
100
AcDbEntity
  8
7
100
AcDbLine
 10
2.631058915363554
 20
2.723661267054062
 30
0.0
 11
2.805692735815031
 21
2.723661267054062
 31
0.0
  0
LINE
  5
2409
330
1E
100
AcDbEntity
  8
7
100
AcDbLine
 10
2.615302480435601
 20
2.145925319695795
 30
0.0
 11
2.821449170742984
 21
2.145925319695795
 31
0.0
  0
LINE
  5
240F
330
1E
100
AcDbEntity
  8
7
100
AcDbLine
 10
2.821449170742984
 20
2.145925319695795
 30
0.0
 11
2.821449170742984
 21
2.115725486083885
 31
0.0
  0
LINE
  5
2410
330
1E
100
AcDbEntity
  8
7
100
AcDbLine
 10
2.821449170742984
 20
2.111786377351898
 30
0.0
 11
2.615302480435601
 21
2.111786377351898
 31
0.0
  0
LINE
  5
2411
330
1E
100
AcDbEntity
  8
7
100
AcDbLine
 10
2.821449170742984
 20
2.115725486083885
 30
0.0
 11
2.821449170742984
 21
2.111786377351898
 31
0.0
  0
LINE
  5
2412
330
1E
100
AcDbEntity
  8
7
100
AcDbLine
 10
2.615302480435601
 20
2.111786377351898
 30
0.0
 11
2.615302480435601
 21
2.115725486083885
 31
0.0
  0
LINE
  5
2413
330
1E
100
AcDbEntity
  8
7
100
AcDbLine
 10
2.615302480435601
 20
2.075021362520008
 30
0.0
 11
2.820136134498987
 21
2.075021362520008
 31
0.0
  0
LINE
  5
241E
330
1E
100
AcDbEntity
  8
7
100
AcDbLine
 10
2.615302480435601
 20
2.064517072568039
 30
0.0
 11
2.820136134498987
 21
2.064517072568039
 31
0.0
  0
LINE
  5
241F
330
1E
100
AcDbEntity
  8
7
100
AcDbLine
 10
2.820136134498987
 20
2.075021362520008
 30
0.0
 11
2.820136134498987
 21
2.064517072568039
 31
0.0
  0
LINE
  5
2420
330
1E
100
AcDbEntity
  8
7
100
AcDbLine
 10
2.615302480435601
 20
2.075021362520008
 30
0.0
 11
2.615302480435601
 21
2.064517072568039
 31
0.0
  0
LINE
  5
2428
330
1E
100
AcDbEntity
  8
7
100
AcDbLine
 10
3.586949300992689
 20
1.805848932500814
 30
0.0
 11
3.579071083528712
 21
1.767770881424929
 31
0.0
  0
LINE
  5
2436
330
1E
100
AcDbEntity
  8
7
100
AcDbLine
 10
2.631058915363554
 20
2.763052354373945
 30
0.0
 11
2.805692735815031
 21
2.763052354373945
 31
0.0
  0
LINE
  5
2437
330
1E
100
AcDbEntity
  8
7
100
AcDbLine
 10
2.631058915363554
 20
2.763052354373945
 30
0.0
 11
2.631058915363554
 21
2.723661267054062
 31
0.0
  0
LINE
  5
2438
330
1E
100
AcDbEntity
  8
7
100
AcDbLine
 10
2.805692735815031
 20
2.763052354373945
 30
0.0
 11
2.805692735815031
 21
2.723661267054062
 31
0.0
  0
LINE
  5
243E
330
1E
100
AcDbEntity
  8
7
100
AcDbLine
 10
2.821449170742984
 20
2.048760637640087
 30
0.0
 11
2.615302480435601
 21
2.048760637640087
 31
0.0
  0
LINE
  5
2444
330
1E
100
AcDbEntity
  8
7
100
AcDbLine
 10
2.921239925286684
 20
1.80059678752483
 30
0.0
 11
2.940935468946626
 21
1.80059678752483
 31
0.0
  0
LINE
  5
2445
330
1E
100
AcDbEntity
  8
7
100
AcDbLine
 10
2.921239925286684
 20
1.80059678752483
 30
0.0
 11
2.921239925286684
 21
1.795344642548846
 31
0.0
  0
LINE
  5
2446
330
1E
100
AcDbEntity
  8
7
100
AcDbLine
 10
2.906796526602727
 20
1.813727149964791
 30
0.0
 11
2.921239925286684
 21
1.80059678752483
 31
0.0
  0
LINE
  5
2447
330
1E
100
AcDbEntity
  8
7
100
AcDbLine
 10
3.204855753989833
 20
1.80059678752483
 30
0.0
 11
3.217986116429794
 21
1.813727149964791
 31
0.0
  0
LINE
  5
2448
330
1E
100
AcDbEntity
  8
7
100
AcDbLine
 10
3.21929915267379
 20
1.815040186208787
 30
0.0
 11
3.217986116429794
 21
1.813727149964791
 31
0.0
  0
LINE
  5
2458
330
1E
100
AcDbEntity
  8
7
100
AcDbLine
 10
3.586949300992689
 20
3.473404962375814
 30
0.0
 11
3.62634038831257
 21
3.514109085939693
 31
0.0
  0
LINE
  5
2459
330
1E
100
AcDbEntity
  8
7
100
AcDbLine
 10
3.586949300992689
 20
1.805848932500814
 30
0.0
 11
3.586949300992689
 21
3.473404962375814
 31
0.0
  0
LINE
  5
245A
330
1E
100
AcDbEntity
  8
7
100
AcDbLine
 10
3.586949300992689
 20
1.805848932500814
 30
0.0
 11
3.62634038831257
 21
1.765144808936937
 31
0.0
  0
LINE
  5
2461
330
1E
100
AcDbEntity
  8
7
100
AcDbLine
 10
2.048070823029302
 20
2.102595123643925
 30
0.0
 11
2.048070823029302
 21
2.036943311444121
 31
0.0
  0
LINE
  5
2462
330
1E
100
AcDbEntity
  8
7
100
AcDbLine
 10
2.048070823029302
 20
2.102595123643925
 30
0.0
 11
2.115035671473101
 21
2.102595123643925
 31
0.0
  0
LINE
  5
2463
330
1E
100
AcDbEntity
  8
7
100
AcDbLine
 10
2.115035671473101
 20
2.763052354373945
 30
0.0
 11
2.115035671473101
 21
2.102595123643925
 31
0.0
  0
LINE
  5
2464
330
1E
100
AcDbEntity
  8
7
100
AcDbLine
 10
2.405216681396232
 20
2.763052354373945
 30
0.0
 11
2.631058915363554
 21
2.763052354373945
 31
0.0
  0
LINE
  5
246A
330
1E
100
AcDbEntity
  8
7
100
AcDbLine
 10
2.473494566084027
 20
2.036943311444121
 30
0.0
 11
2.473494566084027
 21
2.102595123643925
 31
0.0
  0
LINE
  5
246B
330
1E
100
AcDbEntity
  8
7
100
AcDbLine
 10
2.590354791799676
 20
2.036943311444121
 30
0.0
 11
2.473494566084027
 21
2.036943311444121
 31
0.0
  0
LINE
  5
246C
330
1E
100
AcDbEntity
  8
7
100
AcDbLine
 10
2.590354791799676
 20
2.036943311444121
 30
0.0
 11
2.615302480435601
 21
2.048760637640087
 31
0.0
  0
LINE
  5
246D
330
1E
100
AcDbEntity
  8
7
100
AcDbLine
 10
2.821449170742984
 20
2.048760637640087
 30
0.0
 11
2.845083823134912
 21
2.036943311444121
 31
0.0
  0
LINE
  5
246E
330
1E
100
AcDbEntity
  8
7
100
AcDbLine
 10
2.963257085094558
 20
2.036943311444121
 30
0.0
 11
2.845083823134912
 21
2.036943311444121
 31
0.0
  0
LINE
  5
246F
330
1E
100
AcDbEntity
  8
7
100
AcDbLine
 10
2.963257085094558
 20
2.102595123643925
 30
0.0
 11
2.963257085094558
 21
2.036943311444121
 31
0.0
  0
LINE
  5
2475
330
1E
100
AcDbEntity
  8
7
100
AcDbLine
 10
2.805692735815031
 20
2.763052354373945
 30
0.0
 11
3.030221933538358
 21
2.763052354373945
 31
0.0
  0
LINE
  5
2484
330
1E
100
AcDbEntity
  8
7
100
AcDbLine
 10
2.048070823029302
 20
2.101282087399929
 30
0.0
 11
2.048070823029302
 21
2.102595123643925
 31
0.0
  0
LINE
  5
2485
330
1E
100
AcDbEntity
  8
7
100
AcDbLine
 10
2.115035671473101
 20
2.102595123643925
 30
0.0
 11
2.116348707717098
 21
2.101282087399929
 31
0.0
  0
LINE
  5
2492
330
1E
100
AcDbEntity
  8
7
100
AcDbLine
 10
3.198290572769853
 20
1.758579627716956
 30
0.0
 11
3.204855753989833
 21
1.770396953912921
 31
0.0
  0
LINE
  5
2493
330
1E
100
AcDbEntity
  8
7
100
AcDbLine
 10
3.198290572769853
 20
1.725753721617055
 30
0.0
 11
3.217986116429794
 21
1.766457845180933
 31
0.0
  0
LINE
  5
249C
330
1E
100
AcDbEntity
  8
7
100
AcDbLine
 10
2.47218152984003
 20
2.101282087399929
 30
0.0
 11
2.473494566084027
 21
2.102595123643925
 31
0.0
  0
LINE
  5
249D
330
1E
100
AcDbEntity
  8
7
100
AcDbLine
 10
2.473494566084027
 20
2.036943311444121
 30
0.0
 11
2.47218152984003
 21
2.035630275200125
 31
0.0
  0
LINE
  5
249E
330
1E
100
AcDbEntity
  8
7
100
AcDbLine
 10
2.403903645152235
 20
2.101282087399929
 30
0.0
 11
2.405216681396232
 21
2.102595123643925
 31
0.0
  0
LINE
  5
249F
330
1E
100
AcDbEntity
  8
7
100
AcDbLine
 10
2.403903645152235
 20
2.763052354373945
 30
0.0
 11
2.405216681396232
 21
2.763052354373945
 31
0.0
  0
LINE
  5
24A0
330
1E
100
AcDbEntity
  8
7
100
AcDbLine
 10
3.031534969782353
 20
2.763052354373945
 30
0.0
 11
3.030221933538358
 21
2.763052354373945
 31
0.0
  0
LINE
  5
24A1
330
1E
100
AcDbEntity
  8
7
100
AcDbLine
 10
3.030221933538358
 20
2.102595123643925
 30
0.0
 11
3.031534969782353
 21
2.101282087399929
 31
0.0
  0
LINE
  5
24A2
330
1E
100
AcDbEntity
  8
7
100
AcDbLine
 10
2.964570121338554
 20
2.101282087399929
 30
0.0
 11
2.963257085094558
 21
2.102595123643925
 31
0.0
  0
LINE
  5
24A3
330
1E
100
AcDbEntity
  8
7
100
AcDbLine
 10
2.964570121338554
 20
2.035630275200125
 30
0.0
 11
2.963257085094558
 21
2.036943311444121
 31
0.0
  0
LINE
  5
24B0
330
1E
100
AcDbEntity
  8
7
100
AcDbLine
 10
2.906796526602727
 20
1.815040186208787
 30
0.0
 11
2.906796526602727
 21
1.805848932500814
 31
0.0
  0
LINE
  5
2702
330
1E
100
AcDbEntity
  8
7
100
AcDbLine
 10
0.3253672709064679
 20
1.805848932500814
 30
0.0
 11
0.3555671045183776
 21
1.805848932500814
 31
0.0
  0
LINE
  5
2703
330
1E
100
AcDbEntity
  8
7
100
AcDbLine
 10
0.3555671045183776
 20
1.805848932500814
 30
0.0
 11
0.3778887206663108
 21
1.805848932500814
 31
0.0
  0
LINE
  5
2704
330
1E
100
AcDbEntity
  8
7
100
AcDbLine
 10
0.3778887206663108
 20
1.805848932500814
 30
0.0
 11
0.3857669381302873
 21
1.805848932500814
 31
0.0
  0
LINE
  5
2705
330
1E
100
AcDbEntity
  8
7
100
AcDbLine
 10
0.3266803071504642
 20
1.706058177957114
 30
0.0
 11
0.3568801407623733
 21
1.71393639542109
 31
0.0
  0
LINE
  5
2706
330
1E
100
AcDbEntity
  8
7
100
AcDbLine
 10
0.3568801407623733
 20
1.71393639542109
 30
0.0
 11
0.3778887206663108
 21
1.736258011569023
 31
0.0
  0
LINE
  5
2707
330
1E
100
AcDbEntity
  8
7
100
AcDbLine
 10
0.3778887206663108
 20
1.736258011569023
 30
0.0
 11
0.387079974374283
 21
1.766457845180933
 31
0.0
  0
LINE
  5
2708
330
1E
100
AcDbEntity
  8
7
100
AcDbLine
 10
0.6982695642013497
 20
1.805848932500814
 30
0.0
 11
0.7061477816653261
 21
1.805848932500814
 31
0.0
  0
LINE
  5
2709
330
1E
100
AcDbEntity
  8
7
100
AcDbLine
 10
0.7061477816653261
 20
1.805848932500814
 30
0.0
 11
0.7284693978132594
 21
1.805848932500814
 31
0.0
  0
LINE
  5
270A
330
1E
100
AcDbEntity
  8
7
100
AcDbLine
 10
0.7284693978132594
 20
1.805848932500814
 30
0.0
 11
0.7586692314251691
 21
1.805848932500814
 31
0.0
  0
LINE
  5
270B
330
1E
100
AcDbEntity
  8
7
100
AcDbLine
 10
0.6982695642013497
 20
1.766457845180933
 30
0.0
 11
0.7061477816653261
 21
1.736258011569023
 31
0.0
  0
LINE
  5
270C
330
1E
100
AcDbEntity
  8
7
100
AcDbLine
 10
0.7061477816653261
 20
1.736258011569023
 30
0.0
 11
0.7271563615692635
 21
1.71393639542109
 31
0.0
  0
LINE
  5
270D
330
1E
100
AcDbEntity
  8
7
100
AcDbLine
 10
0.7271563615692635
 20
1.71393639542109
 30
0.0
 11
0.7573561951811727
 21
1.706058177957114
 31
0.0
  0
LINE
  5
270E
330
1E
100
AcDbEntity
  8
7
100
AcDbLine
 10
2.906796526602727
 20
1.766457845180933
 30
0.0
 11
2.898918309138752
 21
1.736258011569023
 31
0.0
  0
LINE
  5
270F
330
1E
100
AcDbEntity
  8
7
100
AcDbLine
 10
2.898918309138752
 20
1.736258011569023
 30
0.0
 11
2.877909729234813
 21
1.71393639542109
 31
0.0
  0
LINE
  5
2710
330
1E
100
AcDbEntity
  8
7
100
AcDbLine
 10
2.877909729234813
 20
1.71393639542109
 30
0.0
 11
2.847709895622905
 21
1.706058177957114
 31
0.0
  0
LINE
  5
2711
330
1E
100
AcDbEntity
  8
7
100
AcDbLine
 10
2.906796526602727
 20
1.805848932500814
 30
0.0
 11
2.898918309138752
 21
1.805848932500814
 31
0.0
  0
LINE
  5
2712
330
1E
100
AcDbEntity
  8
7
100
AcDbLine
 10
2.898918309138752
 20
1.805848932500814
 30
0.0
 11
2.876596692990818
 21
1.805848932500814
 31
0.0
  0
LINE
  5
2713
330
1E
100
AcDbEntity
  8
7
100
AcDbLine
 10
2.876596692990818
 20
1.805848932500814
 30
0.0
 11
2.846396859378908
 21
1.805848932500814
 31
0.0
  0
LINE
  5
2714
330
1E
100
AcDbEntity
  8
7
100
AcDbLine
 10
3.21929915267379
 20
1.805848932500814
 30
0.0
 11
3.227177370137766
 21
1.805848932500814
 31
0.0
  0
LINE
  5
2715
330
1E
100
AcDbEntity
  8
7
100
AcDbLine
 10
3.227177370137766
 20
1.805848932500814
 30
0.0
 11
3.2494989862857
 21
1.805848932500814
 31
0.0
  0
LINE
  5
2716
330
1E
100
AcDbEntity
  8
7
100
AcDbLine
 10
3.2494989862857
 20
1.805848932500814
 30
0.0
 11
3.27969881989761
 21
1.805848932500814
 31
0.0
  0
LINE
  5
2717
330
1E
100
AcDbEntity
  8
7
100
AcDbLine
 10
3.217986116429794
 20
1.766457845180933
 30
0.0
 11
3.227177370137766
 21
1.736258011569023
 31
0.0
  0
LINE
  5
2718
330
1E
100
AcDbEntity
  8
7
100
AcDbLine
 10
3.227177370137766
 20
1.736258011569023
 30
0.0
 11
3.248185950041704
 21
1.71393639542109
 31
0.0
  0
LINE
  5
2719
330
1E
100
AcDbEntity
  8
7
100
AcDbLine
 10
3.248185950041704
 20
1.71393639542109
 30
0.0
 11
3.278385783653613
 21
1.706058177957114
 31
0.0
  0
LINE
  5
271A
330
1E
100
AcDbEntity
  8
7
100
AcDbLine
 10
2.921239925286684
 20
1.795344642548846
 30
0.0
 11
2.921239925286684
 21
1.778275171376897
 31
0.0
  0
LINE
  5
271B
330
1E
100
AcDbEntity
  8
7
100
AcDbLine
 10
2.921239925286684
 20
1.778275171376897
 30
0.0
 11
2.921239925286684
 21
1.770396953912921
 31
0.0
  0
LINE
  5
271C
330
1E
100
AcDbEntity
  8
7
100
AcDbLine
 10
2.906796526602727
 20
1.805848932500814
 30
0.0
 11
2.906796526602727
 21
1.786153388840874
 31
0.0
  0
LINE
  5
271D
330
1E
100
AcDbEntity
  8
7
100
AcDbLine
 10
2.906796526602727
 20
1.786153388840874
 30
0.0
 11
2.906796526602727
 21
1.771709990156917
 31
0.0
  0
LINE
  5
271E
330
1E
100
AcDbEntity
  8
7
100
AcDbLine
 10
2.906796526602727
 20
1.771709990156917
 30
0.0
 11
2.906796526602727
 21
1.766457845180933
 31
0.0
  0
LINE
  5
271F
330
1E
100
AcDbEntity
  8
7
100
AcDbLine
 10
2.906796526602727
 20
1.766457845180933
 30
0.0
 11
2.927805106506665
 21
1.725753721617055
 31
0.0
  0
LINE
  5
2720
330
1E
100
AcDbEntity
  8
7
100
AcDbLine
 10
3.27969881989761
 20
1.805848932500814
 30
0.0
 11
3.27969881989761
 21
1.775649098888905
 31
0.0
  0
LINE
  5
2721
330
1E
100
AcDbEntity
  8
7
100
AcDbLine
 10
3.27969881989761
 20
1.775649098888905
 30
0.0
 11
3.27969881989761
 21
1.748075337764988
 31
0.0
  0
LINE
  5
2722
330
1E
100
AcDbEntity
  8
7
100
AcDbLine
 10
3.27969881989761
 20
1.748075337764988
 30
0.0
 11
3.27969881989761
 21
1.725753721617055
 31
0.0
  0
LINE
  5
2723
330
1E
100
AcDbEntity
  8
7
100
AcDbLine
 10
3.27969881989761
 20
1.725753721617055
 30
0.0
 11
3.278385783653613
 21
1.711310322933098
 31
0.0
  0
LINE
  5
2724
330
1E
100
AcDbEntity
  8
7
100
AcDbLine
 10
3.278385783653613
 20
1.711310322933098
 30
0.0
 11
3.278385783653613
 21
1.706058177957114
 31
0.0
  0
LINE
  5
2725
330
1E
100
AcDbEntity
  8
7
100
AcDbLine
 10
3.204855753989833
 20
1.795344642548846
 30
0.0
 11
3.204855753989833
 21
1.778275171376897
 31
0.0
  0
LINE
  5
2726
330
1E
100
AcDbEntity
  8
7
100
AcDbLine
 10
3.204855753989833
 20
1.778275171376897
 30
0.0
 11
3.204855753989833
 21
1.770396953912921
 31
0.0
  0
LINE
  5
2727
330
1E
100
AcDbEntity
  8
7
100
AcDbLine
 10
3.217986116429794
 20
1.766457845180933
 30
0.0
 11
3.21929915267379
 21
1.771709990156917
 31
0.0
  0
LINE
  5
2728
330
1E
100
AcDbEntity
  8
7
100
AcDbLine
 10
3.21929915267379
 20
1.771709990156917
 30
0.0
 11
3.21929915267379
 21
1.786153388840874
 31
0.0
  0
LINE
  5
2729
330
1E
100
AcDbEntity
  8
7
100
AcDbLine
 10
3.21929915267379
 20
1.786153388840874
 30
0.0
 11
3.21929915267379
 21
1.805848932500814
 31
0.0
  0
LINE
  5
272A
330
1E
100
AcDbEntity
  8
7
100
AcDbLine
 10
3.21929915267379
 20
1.805848932500814
 30
0.0
 11
3.21929915267379
 21
1.815040186208787
 31
0.0
  0
LINE
  5
272B
330
1E
100
AcDbEntity
  8
7
100
AcDbLine
 10
3.485845510204991
 20
3.473404962375814
 30
0.0
 11
3.523923561280876
 21
3.473404962375814
 31
0.0
  0
LINE
  5
272C
330
1E
100
AcDbEntity
  8
7
100
AcDbLine
 10
3.523923561280876
 20
3.473404962375814
 30
0.0
 11
3.555436431136782
 21
3.473404962375814
 31
0.0
  0
LINE
  5
272D
330
1E
100
AcDbEntity
  8
7
100
AcDbLine
 10
3.555436431136782
 20
3.473404962375814
 30
0.0
 11
3.577758047284716
 21
3.473404962375814
 31
0.0
  0
LINE
  5
272E
330
1E
100
AcDbEntity
  8
7
100
AcDbLine
 10
3.577758047284716
 20
3.473404962375814
 30
0.0
 11
3.586949300992689
 21
3.473404962375814
 31
0.0
  0
LINE
  5
272F
330
1E
100
AcDbEntity
  8
7
100
AcDbLine
 10
3.586949300992689
 20
3.473404962375814
 30
0.0
 11
3.579071083528712
 21
3.512796049695697
 31
0.0
  0
LINE
  5
2730
330
1E
100
AcDbEntity
  8
7
100
AcDbLine
 10
3.579071083528712
 20
3.512796049695697
 30
0.0
 11
3.556749467380779
 21
3.544308919551602
 31
0.0
  0
LINE
  5
2731
330
1E
100
AcDbEntity
  8
7
100
AcDbLine
 10
3.556749467380779
 20
3.544308919551602
 30
0.0
 11
3.525236597524874
 21
3.566630535699535
 31
0.0
  0
LINE
  5
2732
330
1E
100
AcDbEntity
  8
7
100
AcDbLine
 10
3.525236597524874
 20
3.566630535699535
 30
0.0
 11
3.485845510204991
 21
3.574508753163512
 31
0.0
  0
LINE
  5
2733
330
1E
100
AcDbEntity
  8
7
100
AcDbLine
 10
2.963257085094558
 20
2.102595123643925
 30
0.0
 11
3.030221933538358
 21
2.102595123643925
 31
0.0
  0
LINE
  5
2734
330
1E
100
AcDbEntity
  8
7
100
AcDbLine
 10
3.030221933538358
 20
2.102595123643925
 30
0.0
 11
3.030221933538358
 21
2.763052354373945
 31
0.0
  0
LINE
  5
2735
330
1E
100
AcDbEntity
  8
7
100
AcDbLine
 10
2.405216681396232
 20
2.763052354373945
 30
0.0
 11
2.405216681396232
 21
2.102595123643925
 31
0.0
  0
LINE
  5
2736
330
1E
100
AcDbEntity
  8
7
100
AcDbLine
 10
2.405216681396232
 20
2.102595123643925
 30
0.0
 11
2.473494566084027
 21
2.102595123643925
 31
0.0
  0
LINE
  5
2737
330
1E
100
AcDbEntity
  8
7
100
AcDbLine
 10
3.526549633768869
 20
1.665354054393235
 30
0.0
 11
3.485845510204991
 21
1.706058177957114
 31
0.0
  0
LINE
  5
2738
330
1E
100
AcDbEntity
  8
7
100
AcDbLine
 10
3.485845510204991
 20
1.706058177957114
 30
0.0
 11
3.278385783653613
 21
1.706058177957114
 31
0.0
  0
LINE
  5
2739
330
1E
100
AcDbEntity
  8
7
100
AcDbLine
 10
3.278385783653613
 20
1.706058177957114
 30
0.0
 11
3.258690239993673
 21
1.665354054393235
 31
0.0
  0
LINE
  5
273A
330
1E
100
AcDbEntity
  8
7
100
AcDbLine
 10
2.846396859378908
 20
1.816353222452783
 30
0.0
 11
2.870031511770838
 21
1.815040186208787
 31
0.0
  0
LINE
  5
273B
330
1E
100
AcDbEntity
  8
7
100
AcDbLine
 10
2.870031511770838
 20
1.815040186208787
 30
0.0
 11
2.888414019186782
 21
1.815040186208787
 31
0.0
  0
LINE
  5
273C
330
1E
100
AcDbEntity
  8
7
100
AcDbLine
 10
2.888414019186782
 20
1.815040186208787
 30
0.0
 11
2.901544381626743
 21
1.815040186208787
 31
0.0
  0
LINE
  5
273D
330
1E
100
AcDbEntity
  8
7
100
AcDbLine
 10
2.901544381626743
 20
1.815040186208787
 30
0.0
 11
2.906796526602727
 21
1.815040186208787
 31
0.0
  0
LINE
  5
273E
330
1E
100
AcDbEntity
  8
7
100
AcDbLine
 10
2.906796526602727
 20
1.815040186208787
 30
0.0
 11
2.906796526602727
 21
1.813727149964791
 31
0.0
  0
LINE
  5
273F
330
1E
100
AcDbEntity
  8
7
100
AcDbLine
 10
3.21929915267379
 20
1.815040186208787
 30
0.0
 11
3.224551297649774
 21
1.815040186208787
 31
0.0
  0
LINE
  5
2740
330
1E
100
AcDbEntity
  8
7
100
AcDbLine
 10
3.224551297649774
 20
1.815040186208787
 30
0.0
 11
3.237681660089736
 21
1.815040186208787
 31
0.0
  0
LINE
  5
2741
330
1E
100
AcDbEntity
  8
7
100
AcDbLine
 10
3.237681660089736
 20
1.815040186208787
 30
0.0
 11
3.25606416750568
 21
1.815040186208787
 31
0.0
  0
LINE
  5
2742
330
1E
100
AcDbEntity
  8
7
100
AcDbLine
 10
3.25606416750568
 20
1.815040186208787
 30
0.0
 11
3.27969881989761
 21
1.816353222452783
 31
0.0
  0
LINE
  5
2743
330
1E
100
AcDbEntity
  8
7
100
AcDbLine
 10
2.820136134498987
 20
2.064517072568039
 30
0.0
 11
2.820136134498987
 21
2.054012782616071
 31
0.0
  0
LINE
  5
2744
330
1E
100
AcDbEntity
  8
7
100
AcDbLine
 10
2.820136134498987
 20
2.054012782616071
 30
0.0
 11
2.821449170742984
 21
2.048760637640087
 31
0.0
  0
LINE
  5
2745
330
1E
100
AcDbEntity
  8
7
100
AcDbLine
 10
2.615302480435601
 20
2.048760637640087
 30
0.0
 11
2.615302480435601
 21
2.054012782616071
 31
0.0
  0
LINE
  5
2746
330
1E
100
AcDbEntity
  8
7
100
AcDbLine
 10
2.615302480435601
 20
2.054012782616071
 30
0.0
 11
2.615302480435601
 21
2.064517072568039
 31
0.0
  0
LINE
  5
2747
330
1E
100
AcDbEntity
  8
7
100
AcDbLine
 10
3.485845510204991
 20
1.805848932500814
 30
0.0
 11
3.523923561280876
 21
1.805848932500814
 31
0.0
  0
LINE
  5
2748
330
1E
100
AcDbEntity
  8
7
100
AcDbLine
 10
3.523923561280876
 20
1.805848932500814
 30
0.0
 11
3.555436431136782
 21
1.805848932500814
 31
0.0
  0
LINE
  5
2749
330
1E
100
AcDbEntity
  8
7
100
AcDbLine
 10
3.555436431136782
 20
1.805848932500814
 30
0.0
 11
3.577758047284716
 21
1.805848932500814
 31
0.0
  0
LINE
  5
274A
330
1E
100
AcDbEntity
  8
7
100
AcDbLine
 10
3.577758047284716
 20
1.805848932500814
 30
0.0
 11
3.586949300992689
 21
1.805848932500814
 31
0.0
  0
LINE
  5
274B
330
1E
100
AcDbEntity
  8
7
100
AcDbLine
 10
3.579071083528712
 20
1.767770881424929
 30
0.0
 11
3.556749467380779
 21
1.734944975325027
 31
0.0
  0
LINE
  5
274C
330
1E
100
AcDbEntity
  8
7
100
AcDbLine
 10
3.556749467380779
 20
1.734944975325027
 30
0.0
 11
3.525236597524874
 21
1.71393639542109
 31
0.0
  0
LINE
  5
274D
330
1E
100
AcDbEntity
  8
7
100
AcDbLine
 10
3.525236597524874
 20
1.71393639542109
 30
0.0
 11
3.485845510204991
 21
1.706058177957114
 31
0.0
  0
LINE
  5
274E
330
1E
100
AcDbEntity
  8
7
100
AcDbLine
 10
3.485845510204991
 20
1.805848932500814
 30
0.0
 11
3.485845510204991
 21
1.767770881424929
 31
0.0
  0
LINE
  5
274F
330
1E
100
AcDbEntity
  8
7
100
AcDbLine
 10
3.485845510204991
 20
1.767770881424929
 30
0.0
 11
3.485845510204991
 21
1.736258011569023
 31
0.0
  0
LINE
  5
2750
330
1E
100
AcDbEntity
  8
7
100
AcDbLine
 10
3.485845510204991
 20
1.736258011569023
 30
0.0
 11
3.485845510204991
 21
1.71393639542109
 31
0.0
  0
LINE
  5
2751
330
1E
100
AcDbEntity
  8
7
100
AcDbLine
 10
3.485845510204991
 20
1.71393639542109
 30
0.0
 11
3.485845510204991
 21
1.706058177957114
 31
0.0
  0
LINE
  5
2752
330
1E
100
AcDbEntity
  8
7
100
AcDbLine
 10
2.615302480435601
 20
2.075021362520008
 30
0.0
 11
2.615302480435601
 21
2.094716906179948
 31
0.0
  0
LINE
  5
2753
330
1E
100
AcDbEntity
  8
7
100
AcDbLine
 10
2.615302480435601
 20
2.094716906179948
 30
0.0
 11
2.615302480435601
 21
2.111786377351898
 31
0.0
  0
LINE
  5
2754
330
1E
100
AcDbEntity
  8
7
100
AcDbLine
 10
2.821449170742984
 20
2.111786377351898
 30
0.0
 11
2.820136134498987
 21
2.094716906179948
 31
0.0
  0
LINE
  5
2755
330
1E
100
AcDbEntity
  8
7
100
AcDbLine
 10
2.820136134498987
 20
2.094716906179948
 30
0.0
 11
2.820136134498987
 21
2.075021362520008
 31
0.0
  0
LINE
  5
2756
330
1E
100
AcDbEntity
  8
7
100
AcDbLine
 10
2.615302480435601
 20
2.145925319695795
 30
0.0
 11
2.615302480435601
 21
2.115725486083885
 31
0.0
  0
LINE
  5
2757
330
1E
100
AcDbEntity
  8
7
100
AcDbLine
 10
2.615302480435601
 20
2.115725486083885
 30
0.0
 11
2.821449170742984
 21
2.115725486083885
 31
0.0
  0
LINE
  5
2758
330
1E
100
AcDbEntity
  8
7
100
AcDbLine
 10
3.183847174085896
 20
1.796657678792842
 30
0.0
 11
3.185160210329892
 21
1.80059678752483
 31
0.0
  0
LINE
  5
2759
330
1E
100
AcDbEntity
  8
7
100
AcDbLine
 10
3.185160210329892
 20
1.80059678752483
 30
0.0
 11
2.940935468946626
 21
1.80059678752483
 31
0.0
  0
LINE
  5
275A
330
1E
100
AcDbEntity
  8
7
100
AcDbLine
 10
2.948813686410601
 20
1.75726659147296
 30
0.0
 11
3.177281992865917
 21
1.75726659147296
 31
0.0
  0
LINE
  5
275B
330
1E
100
AcDbEntity
  8
7
100
AcDbLine
 10
3.177281992865917
 20
1.75726659147296
 30
0.0
 11
3.177281992865917
 21
1.765144808936937
 31
0.0
  0
LINE
  5
275C
330
1E
100
AcDbEntity
  8
7
100
AcDbLine
 10
3.177281992865917
 20
1.765144808936937
 30
0.0
 11
2.948813686410601
 21
1.765144808936937
 31
0.0
  0
LINE
  5
275D
330
1E
100
AcDbEntity
  8
7
100
AcDbLine
 10
2.948813686410601
 20
1.765144808936937
 30
0.0
 11
2.948813686410601
 21
1.75726659147296
 31
0.0
  0
LINE
  5
275E
330
1E
100
AcDbEntity
  8
7
100
AcDbLine
 10
3.485845510204991
 20
3.473404962375814
 30
0.0
 11
3.485845510204991
 21
3.5114830134517
 31
0.0
  0
LINE
  5
275F
330
1E
100
AcDbEntity
  8
7
100
AcDbLine
 10
3.485845510204991
 20
3.5114830134517
 30
0.0
 11
3.485845510204991
 21
3.542995883307606
 31
0.0
  0
LINE
  5
2760
330
1E
100
AcDbEntity
  8
7
100
AcDbLine
 10
3.485845510204991
 20
3.542995883307606
 30
0.0
 11
3.485845510204991
 21
3.565317499455539
 31
0.0
  0
LINE
  5
2761
330
1E
100
AcDbEntity
  8
7
100
AcDbLine
 10
3.485845510204991
 20
3.565317499455539
 30
0.0
 11
3.485845510204991
 21
3.574508753163512
 31
0.0
  0
LINE
  5
2762
330
1E
100
AcDbEntity
  8
7
100
AcDbLine
 10
2.846396859378908
 20
1.816353222452783
 30
0.0
 11
3.27969881989761
 21
1.816353222452783
 31
0.0
  0
LINE
  5
2763
330
1E
100
AcDbEntity
  8
7
100
AcDbLine
 10
3.27969881989761
 20
1.816353222452783
 30
0.0
 11
3.27969881989761
 21
1.805848932500814
 31
0.0
  0
LINE
  5
2764
330
1E
100
AcDbEntity
  8
7
100
AcDbLine
 10
0.7586692314251691
 20
1.805848932500814
 30
0.0
 11
0.7586692314251691
 21
1.775649098888905
 31
0.0
  0
LINE
  5
2765
330
1E
100
AcDbEntity
  8
7
100
AcDbLine
 10
0.7586692314251691
 20
1.775649098888905
 30
0.0
 11
0.7586692314251691
 21
1.748075337764988
 31
0.0
  0
LINE
  5
2766
330
1E
100
AcDbEntity
  8
7
100
AcDbLine
 10
0.7586692314251691
 20
1.748075337764988
 30
0.0
 11
0.7586692314251691
 21
1.725753721617055
 31
0.0
  0
LINE
  5
2767
330
1E
100
AcDbEntity
  8
7
100
AcDbLine
 10
0.7586692314251691
 20
1.725753721617055
 30
0.0
 11
0.7573561951811727
 21
1.711310322933098
 31
0.0
  0
LINE
  5
2768
330
1E
100
AcDbEntity
  8
7
100
AcDbLine
 10
0.7573561951811727
 20
1.711310322933098
 30
0.0
 11
0.7573561951811727
 21
1.706058177957114
 31
0.0
  0
LINE
  5
2769
330
1E
100
AcDbEntity
  8
7
100
AcDbLine
 10
0.7573561951811727
 20
1.706058177957114
 30
0.0
 11
2.847709895622905
 21
1.706058177957114
 31
0.0
  0
LINE
  5
276A
330
1E
100
AcDbEntity
  8
7
100
AcDbLine
 10
2.847709895622905
 20
1.706058177957114
 30
0.0
 11
2.847709895622905
 21
1.711310322933098
 31
0.0
  0
LINE
  5
276B
330
1E
100
AcDbEntity
  8
7
100
AcDbLine
 10
2.847709895622905
 20
1.711310322933098
 30
0.0
 11
2.846396859378908
 21
1.725753721617055
 31
0.0
  0
LINE
  5
276C
330
1E
100
AcDbEntity
  8
7
100
AcDbLine
 10
2.846396859378908
 20
1.725753721617055
 30
0.0
 11
2.846396859378908
 21
1.748075337764988
 31
0.0
  0
LINE
  5
276D
330
1E
100
AcDbEntity
  8
7
100
AcDbLine
 10
2.846396859378908
 20
1.748075337764988
 30
0.0
 11
2.846396859378908
 21
1.775649098888905
 31
0.0
  0
LINE
  5
276E
330
1E
100
AcDbEntity
  8
7
100
AcDbLine
 10
2.846396859378908
 20
1.775649098888905
 30
0.0
 11
2.846396859378908
 21
1.805848932500814
 31
0.0
  0
LINE
  5
276F
330
1E
100
AcDbEntity
  8
7
100
AcDbLine
 10
2.048070823029302
 20
2.036943311444121
 30
0.0
 11
1.929897561069656
 21
2.036943311444121
 31
0.0
  0
LINE
  5
2770
330
1E
100
AcDbEntity
  8
7
100
AcDbLine
 10
1.929897561069656
 20
2.036943311444121
 30
0.0
 11
1.906262908677727
 21
2.048760637640087
 31
0.0
  0
LINE
  5
2771
330
1E
100
AcDbEntity
  8
7
100
AcDbLine
 10
1.906262908677727
 20
2.048760637640087
 30
0.0
 11
1.904949872433732
 21
2.054012782616071
 31
0.0
  0
LINE
  5
2772
330
1E
100
AcDbEntity
  8
7
100
AcDbLine
 10
1.904949872433732
 20
2.054012782616071
 30
0.0
 11
1.904949872433732
 21
2.064517072568039
 31
0.0
  0
LINE
  5
2773
330
1E
100
AcDbEntity
  8
7
100
AcDbLine
 10
1.700116218370346
 20
2.075021362520008
 30
0.0
 11
1.904949872433732
 21
2.075021362520008
 31
0.0
  0
LINE
  5
2774
330
1E
100
AcDbEntity
  8
7
100
AcDbLine
 10
1.904949872433732
 20
2.075021362520008
 30
0.0
 11
1.904949872433732
 21
2.094716906179948
 31
0.0
  0
LINE
  5
2775
330
1E
100
AcDbEntity
  8
7
100
AcDbLine
 10
1.890506473749775
 20
2.763052354373945
 30
0.0
 11
2.115035671473101
 21
2.763052354373945
 31
0.0
  0
LINE
  5
2776
330
1E
100
AcDbEntity
  8
7
100
AcDbLine
 10
2.115035671473101
 20
2.763052354373945
 30
0.0
 11
2.116348707717098
 21
2.763052354373945
 31
0.0
  0
LINE
  5
2777
330
1E
100
AcDbEntity
  8
7
100
AcDbLine
 10
1.700116218370346
 20
2.075021362520008
 30
0.0
 11
1.700116218370346
 21
2.094716906179948
 31
0.0
  0
LINE
  5
2778
330
1E
100
AcDbEntity
  8
7
100
AcDbLine
 10
1.700116218370346
 20
2.094716906179948
 30
0.0
 11
1.700116218370346
 21
2.111786377351898
 31
0.0
  0
LINE
  5
2779
330
1E
100
AcDbEntity
  8
7
100
AcDbLine
 10
1.700116218370346
 20
2.111786377351898
 30
0.0
 11
1.698803182126349
 21
2.115725486083885
 31
0.0
  0
LINE
  5
277A
330
1E
100
AcDbEntity
  8
7
100
AcDbLine
 10
1.67516852973442
 20
2.036943311444121
 30
0.0
 11
1.698803182126349
 21
2.048760637640087
 31
0.0
  0
LINE
  5
277B
330
1E
100
AcDbEntity
  8
7
100
AcDbLine
 10
1.698803182126349
 20
2.048760637640087
 30
0.0
 11
1.700116218370346
 21
2.054012782616071
 31
0.0
  0
LINE
  5
277C
330
1E
100
AcDbEntity
  8
7
100
AcDbLine
 10
1.700116218370346
 20
2.054012782616071
 30
0.0
 11
1.700116218370346
 21
2.064517072568039
 31
0.0
  0
LINE
  5
277D
330
1E
100
AcDbEntity
  8
7
100
AcDbLine
 10
1.714559617054302
 20
2.763052354373945
 30
0.0
 11
1.490030419330975
 21
2.763052354373945
 31
0.0
  0
LINE
  5
277E
330
1E
100
AcDbEntity
  8
7
100
AcDbLine
 10
1.490030419330975
 20
2.763052354373945
 30
0.0
 11
1.48871738308698
 21
2.763052354373945
 31
0.0
  0
LINE
  5
277F
330
1E
100
AcDbEntity
  8
7
100
AcDbLine
 10
1.48871738308698
 20
2.763052354373945
 30
0.0
 11
1.48871738308698
 21
2.101282087399929
 31
0.0
  0
LINE
  5
2780
330
1E
100
AcDbEntity
  8
7
100
AcDbLine
 10
0.3266803071504642
 20
1.706058177957114
 30
0.0
 11
0.3266803071504642
 21
1.711310322933098
 31
0.0
  0
LINE
  5
2781
330
1E
100
AcDbEntity
  8
7
100
AcDbLine
 10
0.3266803071504642
 20
1.711310322933098
 30
0.0
 11
0.3253672709064679
 21
1.725753721617055
 31
0.0
  0
LINE
  5
2782
330
1E
100
AcDbEntity
  8
7
100
AcDbLine
 10
0.3253672709064679
 20
1.725753721617055
 30
0.0
 11
0.3253672709064679
 21
1.748075337764988
 31
0.0
  0
LINE
  5
2783
330
1E
100
AcDbEntity
  8
7
100
AcDbLine
 10
0.3253672709064679
 20
1.748075337764988
 30
0.0
 11
0.3253672709064679
 21
1.775649098888905
 31
0.0
  0
LINE
  5
2784
330
1E
100
AcDbEntity
  8
7
100
AcDbLine
 10
0.119220580599086
 20
3.542995883307606
 30
0.0
 11
0.119220580599086
 21
3.565317499455539
 31
0.0
  0
LINE
  5
2785
330
1E
100
AcDbEntity
  8
7
100
AcDbLine
 10
0.119220580599086
 20
3.565317499455539
 30
0.0
 11
0.119220580599086
 21
3.574508753163512
 31
0.0
  0
LINE
  5
2786
330
1E
100
AcDbEntity
  8
7
100
AcDbLine
 10
0.119220580599086
 20
3.473404962375814
 30
0.0
 11
0.119220580599086
 21
3.5114830134517
 31
0.0
  0
LINE
  5
2787
330
1E
100
AcDbEntity
  8
7
100
AcDbLine
 10
0.119220580599086
 20
3.5114830134517
 30
0.0
 11
0.119220580599086
 21
3.542995883307606
 31
0.0
  0
LINE
  5
2788
330
1E
100
AcDbEntity
  8
7
100
AcDbLine
 10
0.119220580599086
 20
3.473404962375814
 30
0.0
 11
0.0811425295232007
 21
3.473404962375814
 31
0.0
  0
LINE
  5
2789
330
1E
100
AcDbEntity
  8
7
100
AcDbLine
 10
0.0811425295232007
 20
3.473404962375814
 30
0.0
 11
0.0496296596672952
 21
3.473404962375814
 31
0.0
  0
LINE
  5
278A
330
1E
100
AcDbEntity
  8
7
100
AcDbLine
 10
0.0496296596672952
 20
3.473404962375814
 30
0.0
 11
0.0273080435193618
 21
3.473404962375814
 31
0.0
  0
LINE
  5
278B
330
1E
100
AcDbEntity
  8
7
100
AcDbLine
 10
0.0273080435193618
 20
3.473404962375814
 30
0.0
 11
0.0181167898113894
 21
3.473404962375814
 31
0.0
  0
LINE
  5
278C
330
1E
100
AcDbEntity
  8
7
100
AcDbLine
 10
0.0181167898113894
 20
3.473404962375814
 30
0.0
 11
0.0259950072753654
 21
3.512796049695697
 31
0.0
  0
LINE
  5
278D
330
1E
100
AcDbEntity
  8
7
100
AcDbLine
 10
0.0259950072753654
 20
3.512796049695697
 30
0.0
 11
0.0483166234232988
 21
3.544308919551602
 31
0.0
  0
LINE
  5
278E
330
1E
100
AcDbEntity
  8
7
100
AcDbLine
 10
0.0483166234232988
 20
3.544308919551602
 30
0.0
 11
0.0798294932792043
 21
3.566630535699535
 31
0.0
  0
LINE
  5
278F
330
1E
100
AcDbEntity
  8
7
100
AcDbLine
 10
0.0798294932792043
 20
3.566630535699535
 30
0.0
 11
0.119220580599086
 21
3.574508753163512
 31
0.0
  0
LINE
  5
2790
330
1E
100
AcDbEntity
  8
7
100
AcDbLine
 10
0.6418090057095194
 20
2.102595123643925
 30
0.0
 11
0.57484415726572
 21
2.102595123643925
 31
0.0
  0
LINE
  5
2791
330
1E
100
AcDbEntity
  8
7
100
AcDbLine
 10
0.57484415726572
 20
2.102595123643925
 30
0.0
 11
0.57484415726572
 21
2.763052354373945
 31
0.0
  0
LINE
  5
2792
330
1E
100
AcDbEntity
  8
7
100
AcDbLine
 10
1.199849409407846
 20
2.763052354373945
 30
0.0
 11
1.199849409407846
 21
2.102595123643925
 31
0.0
  0
LINE
  5
2793
330
1E
100
AcDbEntity
  8
7
100
AcDbLine
 10
1.199849409407846
 20
2.102595123643925
 30
0.0
 11
1.13157152472005
 21
2.102595123643925
 31
0.0
  0
LINE
  5
2794
330
1E
100
AcDbEntity
  8
7
100
AcDbLine
 10
0.0181167898113894
 20
1.805848932500814
 30
0.0
 11
0.0181167898113894
 21
3.473404962375814
 31
0.0
  0
LINE
  5
2795
330
1E
100
AcDbEntity
  8
7
100
AcDbLine
 10
0.0181167898113894
 20
3.473404962375814
 30
0.0
 11
-0.0212742975084925
 21
3.514109085939693
 31
0.0
  0
LINE
  5
2796
330
1E
100
AcDbEntity
  8
7
100
AcDbLine
 10
0.7849299563050903
 20
2.064517072568039
 30
0.0
 11
0.7849299563050903
 21
2.054012782616071
 31
0.0
  0
LINE
  5
2797
330
1E
100
AcDbEntity
  8
7
100
AcDbLine
 10
0.7849299563050903
 20
2.054012782616071
 30
0.0
 11
0.7836169200610939
 21
2.048760637640087
 31
0.0
  0
LINE
  5
2798
330
1E
100
AcDbEntity
  8
7
100
AcDbLine
 10
0.7836169200610939
 20
2.048760637640087
 30
0.0
 11
0.9897636103684757
 21
2.048760637640087
 31
0.0
  0
LINE
  5
2799
330
1E
100
AcDbEntity
  8
7
100
AcDbLine
 10
0.9897636103684757
 20
2.048760637640087
 30
0.0
 11
0.9897636103684757
 21
2.054012782616071
 31
0.0
  0
LINE
  5
279A
330
1E
100
AcDbEntity
  8
7
100
AcDbLine
 10
0.9897636103684757
 20
2.054012782616071
 30
0.0
 11
0.9897636103684757
 21
2.064517072568039
 31
0.0
  0
LINE
  5
279B
330
1E
100
AcDbEntity
  8
7
100
AcDbLine
 10
0.974007175440523
 20
2.763052354373945
 30
0.0
 11
0.7993733549890468
 21
2.763052354373945
 31
0.0
  0
LINE
  5
279C
330
1E
100
AcDbEntity
  8
7
100
AcDbLine
 10
0.7993733549890468
 20
2.763052354373945
 30
0.0
 11
0.7993733549890468
 21
2.723661267054062
 31
0.0
  0
LINE
  5
279D
330
1E
100
AcDbEntity
  8
7
100
AcDbLine
 10
0.119220580599086
 20
1.805848932500814
 30
0.0
 11
0.0811425295232007
 21
1.805848932500814
 31
0.0
  0
LINE
  5
279E
330
1E
100
AcDbEntity
  8
7
100
AcDbLine
 10
0.0811425295232007
 20
1.805848932500814
 30
0.0
 11
0.0496296596672952
 21
1.805848932500814
 31
0.0
  0
LINE
  5
279F
330
1E
100
AcDbEntity
  8
7
100
AcDbLine
 10
0.0496296596672952
 20
1.805848932500814
 30
0.0
 11
0.0273080435193618
 21
1.805848932500814
 31
0.0
  0
LINE
  5
27A0
330
1E
100
AcDbEntity
  8
7
100
AcDbLine
 10
0.0273080435193618
 20
1.805848932500814
 30
0.0
 11
0.0181167898113894
 21
1.805848932500814
 31
0.0
  0
LINE
  5
27A1
330
1E
100
AcDbEntity
  8
7
100
AcDbLine
 10
0.0181167898113894
 20
1.805848932500814
 30
0.0
 11
0.0259950072753654
 21
1.767770881424929
 31
0.0
  0
LINE
  5
27A2
330
1E
100
AcDbEntity
  8
7
100
AcDbLine
 10
0.0259950072753654
 20
1.767770881424929
 30
0.0
 11
0.0483166234232988
 21
1.734944975325027
 31
0.0
  0
LINE
  5
27A3
330
1E
100
AcDbEntity
  8
7
100
AcDbLine
 10
0.0483166234232988
 20
1.734944975325027
 30
0.0
 11
0.0798294932792043
 21
1.71393639542109
 31
0.0
  0
LINE
  5
27A4
330
1E
100
AcDbEntity
  8
7
100
AcDbLine
 10
0.0798294932792043
 20
1.71393639542109
 30
0.0
 11
0.119220580599086
 21
1.706058177957114
 31
0.0
  0
LINE
  5
27A5
330
1E
100
AcDbEntity
  8
7
100
AcDbLine
 10
0.119220580599086
 20
1.805848932500814
 30
0.0
 11
0.119220580599086
 21
1.767770881424929
 31
0.0
  0
LINE
  5
27A6
330
1E
100
AcDbEntity
  8
7
100
AcDbLine
 10
0.119220580599086
 20
1.767770881424929
 30
0.0
 11
0.119220580599086
 21
1.736258011569023
 31
0.0
  0
LINE
  5
27A7
330
1E
100
AcDbEntity
  8
7
100
AcDbLine
 10
0.119220580599086
 20
1.736258011569023
 30
0.0
 11
0.119220580599086
 21
1.71393639542109
 31
0.0
  0
LINE
  5
27A8
330
1E
100
AcDbEntity
  8
7
100
AcDbLine
 10
0.119220580599086
 20
1.71393639542109
 30
0.0
 11
0.119220580599086
 21
1.706058177957114
 31
0.0
  0
LINE
  5
27A9
330
1E
100
AcDbEntity
  8
7
100
AcDbLine
 10
0.7836169200610939
 20
2.111786377351898
 30
0.0
 11
0.7849299563050903
 21
2.094716906179948
 31
0.0
  0
LINE
  5
27AA
330
1E
100
AcDbEntity
  8
7
100
AcDbLine
 10
0.7849299563050903
 20
2.094716906179948
 30
0.0
 11
0.7849299563050903
 21
2.075021362520008
 31
0.0
  0
LINE
  5
27AB
330
1E
100
AcDbEntity
  8
7
100
AcDbLine
 10
0.9897636103684757
 20
2.075021362520008
 30
0.0
 11
0.9897636103684757
 21
2.094716906179948
 31
0.0
  0
LINE
  5
27AC
330
1E
100
AcDbEntity
  8
7
100
AcDbLine
 10
0.9897636103684757
 20
2.094716906179948
 30
0.0
 11
0.9897636103684757
 21
2.111786377351898
 31
0.0
  0
LINE
  5
27AD
330
1E
100
AcDbEntity
  8
7
100
AcDbLine
 10
0.7836169200610939
 20
2.111786377351898
 30
0.0
 11
0.9897636103684757
 21
2.111786377351898
 31
0.0
  0
LINE
  5
27AE
330
1E
100
AcDbEntity
  8
7
100
AcDbLine
 10
0.9897636103684757
 20
2.111786377351898
 30
0.0
 11
0.9897636103684757
 21
2.115725486083885
 31
0.0
  0
LINE
  5
27AF
330
1E
100
AcDbEntity
  8
7
100
AcDbLine
 10
0.9897636103684757
 20
2.145925319695795
 30
0.0
 11
0.7836169200610939
 21
2.145925319695795
 31
0.0
  0
LINE
  5
27B0
330
1E
100
AcDbEntity
  8
7
100
AcDbLine
 10
0.7836169200610939
 20
2.145925319695795
 30
0.0
 11
0.7836169200610939
 21
2.115725486083885
 31
0.0
  0
LINE
  5
27B1
330
1E
100
AcDbEntity
  8
7
100
AcDbLine
 10
0.6562524043934758
 20
1.765144808936937
 30
0.0
 11
0.6628175856134564
 21
1.796657678792842
 31
0.0
  0
LINE
  5
27B2
330
1E
100
AcDbEntity
  8
7
100
AcDbLine
 10
0.6628175856134564
 20
1.796657678792842
 30
0.0
 11
0.4212189167181806
 21
1.796657678792842
 31
0.0
  0
LINE
  5
27B3
330
1E
100
AcDbEntity
  8
7
100
AcDbLine
 10
0.6562524043934758
 20
1.691614779273157
 30
0.0
 11
0.6562524043934758
 21
1.75726659147296
 31
0.0
  0
LINE
  5
27B4
330
1E
100
AcDbEntity
  8
7
100
AcDbLine
 10
0.6562524043934758
 20
1.75726659147296
 30
0.0
 11
0.4277840979381612
 21
1.75726659147296
 31
0.0
  0
LINE
  5
27B5
330
1E
100
AcDbEntity
  8
7
100
AcDbLine
 10
0.4277840979381612
 20
1.75726659147296
 30
0.0
 11
0.4277840979381612
 21
1.691614779273157
 31
0.0
  0
LINE
  5
27B6
330
1E
100
AcDbEntity
  8
7
100
AcDbLine
 10
3.526549633768869
 20
1.665354054393235
 30
0.0
 11
3.558062503624775
 21
1.67060619936922
 31
0.0
  0
LINE
  5
27B7
330
1E
100
AcDbEntity
  8
7
100
AcDbLine
 10
3.558062503624775
 20
1.67060619936922
 30
0.0
 11
3.585636264748691
 21
1.685049598053177
 31
0.0
  0
LINE
  5
27B8
330
1E
100
AcDbEntity
  8
7
100
AcDbLine
 10
3.585636264748691
 20
1.685049598053177
 30
0.0
 11
3.607957880896626
 21
1.70737121420111
 31
0.0
  0
LINE
  5
27B9
330
1E
100
AcDbEntity
  8
7
100
AcDbLine
 10
3.607957880896626
 20
1.70737121420111
 30
0.0
 11
3.622401279580581
 21
1.734944975325027
 31
0.0
  0
LINE
  5
27BA
330
1E
100
AcDbEntity
  8
7
100
AcDbLine
 10
3.622401279580581
 20
1.734944975325027
 30
0.0
 11
3.62634038831257
 21
1.765144808936937
 31
0.0
  0
LINE
  5
27BB
330
1E
100
AcDbEntity
  8
7
100
AcDbLine
 10
3.526549633768869
 20
3.613899840483393
 30
0.0
 11
3.558062503624775
 21
3.609960731751405
 31
0.0
  0
LINE
  5
27BC
330
1E
100
AcDbEntity
  8
7
100
AcDbLine
 10
3.558062503624775
 20
3.609960731751405
 30
0.0
 11
3.585636264748691
 21
3.595517333067449
 31
0.0
  0
LINE
  5
27BD
330
1E
100
AcDbEntity
  8
7
100
AcDbLine
 10
3.585636264748691
 20
3.595517333067449
 30
0.0
 11
3.607957880896626
 21
3.573195716919515
 31
0.0
  0
LINE
  5
27BE
330
1E
100
AcDbEntity
  8
7
100
AcDbLine
 10
3.607957880896626
 20
3.573195716919515
 30
0.0
 11
3.622401279580581
 21
3.545621955795598
 31
0.0
  0
LINE
  5
27BF
330
1E
100
AcDbEntity
  8
7
100
AcDbLine
 10
3.622401279580581
 20
3.545621955795598
 30
0.0
 11
3.62634038831257
 21
3.514109085939693
 31
0.0
  0
LINE
  5
27C0
330
1E
100
AcDbEntity
  8
7
100
AcDbLine
 10
0.0785164570352084
 20
3.613899840483393
 30
0.0
 11
0.0470035871793031
 21
3.609960731751405
 31
0.0
  0
LINE
  5
27C1
330
1E
100
AcDbEntity
  8
7
100
AcDbLine
 10
0.0470035871793031
 20
3.609960731751405
 30
0.0
 11
0.0194298260553854
 21
3.595517333067449
 31
0.0
  0
LINE
  5
27C2
330
1E
100
AcDbEntity
  8
7
100
AcDbLine
 10
0.0194298260553854
 20
3.595517333067449
 30
0.0
 11
-0.0028917900925476
 21
3.573195716919515
 31
0.0
  0
LINE
  5
27C3
330
1E
100
AcDbEntity
  8
7
100
AcDbLine
 10
-0.0028917900925476
 20
3.573195716919515
 30
0.0
 11
-0.0173351887765043
 21
3.545621955795598
 31
0.0
  0
LINE
  5
27C4
330
1E
100
AcDbEntity
  8
7
100
AcDbLine
 10
-0.0173351887765043
 20
3.545621955795598
 30
0.0
 11
-0.0212742975084925
 21
3.514109085939693
 31
0.0
  0
LINE
  5
27C5
330
1E
100
AcDbEntity
  8
7
100
AcDbLine
 10
0.3463758508104048
 20
1.665354054393235
 30
0.0
 11
0.0785164570352084
 21
1.665354054393235
 31
0.0
  0
LINE
  5
27C6
330
1E
100
AcDbEntity
  8
7
100
AcDbLine
 10
0.0785164570352084
 20
1.665354054393235
 30
0.0
 11
0.0470035871793031
 21
1.67060619936922
 31
0.0
  0
LINE
  5
27C7
330
1E
100
AcDbEntity
  8
7
100
AcDbLine
 10
0.0470035871793031
 20
1.67060619936922
 30
0.0
 11
0.0194298260553854
 21
1.685049598053177
 31
0.0
  0
LINE
  5
27C8
330
1E
100
AcDbEntity
  8
7
100
AcDbLine
 10
0.0194298260553854
 20
1.685049598053177
 30
0.0
 11
-0.0028917900925476
 21
1.70737121420111
 31
0.0
  0
LINE
  5
27C9
330
1E
100
AcDbEntity
  8
7
100
AcDbLine
 10
-0.0028917900925476
 20
1.70737121420111
 30
0.0
 11
-0.0173351887765043
 21
1.734944975325027
 31
0.0
  0
LINE
  5
27CA
330
1E
100
AcDbEntity
  8
7
100
AcDbLine
 10
-0.0173351887765043
 20
1.734944975325027
 30
0.0
 11
-0.0212742975084925
 21
1.765144808936937
 31
0.0
  0
LINE
  5
27CB
330
1E
100
AcDbEntity
  8
7
100
AcDbLine
 10
-0.0212742975084925
 20
1.765144808936937
 30
0.0
 11
-0.0212742975084925
 21
3.514109085939693
 31
0.0
  0
LINE
  5
27CC
330
1E
100
AcDbEntity
  8
7
100
AcDbLine
 10
0.4067755180342242
 20
1.725753721617055
 30
0.0
 11
0.40152337305824
 21
1.702119069225125
 31
0.0
  0
LINE
  5
27CD
330
1E
100
AcDbEntity
  8
7
100
AcDbLine
 10
0.40152337305824
 20
1.702119069225125
 30
0.0
 11
0.3883930106182793
 21
1.683736561809181
 31
0.0
  0
LINE
  5
27CE
330
1E
100
AcDbEntity
  8
7
100
AcDbLine
 10
0.3883930106182793
 20
1.683736561809181
 30
0.0
 11
0.3700105032023338
 21
1.67060619936922
 31
0.0
  0
LINE
  5
27CF
330
1E
100
AcDbEntity
  8
7
100
AcDbLine
 10
0.3700105032023338
 20
1.67060619936922
 30
0.0
 11
0.3463758508104048
 21
1.665354054393235
 31
0.0
  0
LINE
  5
27D0
330
1E
100
AcDbEntity
  8
7
100
AcDbLine
 10
3.258690239993673
 20
1.665354054393235
 30
0.0
 11
3.235055587601743
 21
1.67060619936922
 31
0.0
  0
LINE
  5
27D1
330
1E
100
AcDbEntity
  8
7
100
AcDbLine
 10
3.235055587601743
 20
1.67060619936922
 30
0.0
 11
3.216673080185798
 21
1.683736561809181
 31
0.0
  0
LINE
  5
27D2
330
1E
100
AcDbEntity
  8
7
100
AcDbLine
 10
3.216673080185798
 20
1.683736561809181
 30
0.0
 11
3.203542717745837
 21
1.702119069225125
 31
0.0
  0
LINE
  5
27D3
330
1E
100
AcDbEntity
  8
7
100
AcDbLine
 10
3.203542717745837
 20
1.702119069225125
 30
0.0
 11
3.198290572769853
 21
1.725753721617055
 31
0.0
  0
LINE
  5
27D4
330
1E
100
AcDbEntity
  8
7
100
AcDbLine
 10
2.927805106506665
 20
1.758579627716956
 30
0.0
 11
2.927805106506665
 21
1.725753721617055
 31
0.0
  0
LINE
  5
27D5
330
1E
100
AcDbEntity
  8
7
100
AcDbLine
 10
2.927805106506665
 20
1.725753721617055
 30
0.0
 11
2.92255296153068
 21
1.702119069225125
 31
0.0
  0
LINE
  5
27D6
330
1E
100
AcDbEntity
  8
7
100
AcDbLine
 10
2.92255296153068
 20
1.702119069225125
 30
0.0
 11
2.90942259909072
 21
1.683736561809181
 31
0.0
  0
LINE
  5
27D7
330
1E
100
AcDbEntity
  8
7
100
AcDbLine
 10
2.90942259909072
 20
1.683736561809181
 30
0.0
 11
2.891040091674775
 21
1.67060619936922
 31
0.0
  0
LINE
  5
27D8
330
1E
100
AcDbEntity
  8
7
100
AcDbLine
 10
2.891040091674775
 20
1.67060619936922
 30
0.0
 11
2.867405439282845
 21
1.665354054393235
 31
0.0
  0
LINE
  5
27D9
330
1E
100
AcDbEntity
  8
7
100
AcDbLine
 10
2.867405439282845
 20
1.665354054393235
 30
0.0
 11
0.7376606515212321
 21
1.665354054393235
 31
0.0
  0
LINE
  5
27DA
330
1E
100
AcDbEntity
  8
7
100
AcDbLine
 10
0.7376606515212321
 20
1.665354054393235
 30
0.0
 11
0.7140259991293031
 21
1.67060619936922
 31
0.0
  0
LINE
  5
27DB
330
1E
100
AcDbEntity
  8
7
100
AcDbLine
 10
0.7140259991293031
 20
1.67060619936922
 30
0.0
 11
0.6956434917133576
 21
1.683736561809181
 31
0.0
  0
LINE
  5
27DC
330
1E
100
AcDbEntity
  8
7
100
AcDbLine
 10
0.6956434917133576
 20
1.683736561809181
 30
0.0
 11
0.6825131292733971
 21
1.702119069225125
 31
0.0
  0
LINE
  5
27DD
330
1E
100
AcDbEntity
  8
7
100
AcDbLine
 10
0.6825131292733971
 20
1.702119069225125
 30
0.0
 11
0.6772609842974127
 21
1.725753721617055
 31
0.0
  0
LINE
  5
27DE
330
1E
100
AcDbEntity
  8
7
100
AcDbLine
 10
0.6772609842974127
 20
1.758579627716956
 30
0.0
 11
0.6772609842974127
 21
1.725753721617055
 31
0.0
  0
LINE
  5
27DF
330
1E
100
AcDbEntity
  8
7
100
AcDbLine
 10
0.6772609842974127
 20
1.725753721617055
 30
0.0
 11
0.6982695642013497
 21
1.766457845180933
 31
0.0
  0
LINE
  5
27E0
330
1E
100
AcDbEntity
  8
7
100
AcDbLine
 10
0.6838261655173933
 20
1.770396953912921
 30
0.0
 11
0.6838261655173933
 21
1.778275171376897
 31
0.0
  0
LINE
  5
27E1
330
1E
100
AcDbEntity
  8
7
100
AcDbLine
 10
0.6838261655173933
 20
1.778275171376897
 30
0.0
 11
0.6838261655173933
 21
1.795344642548846
 31
0.0
  0
LINE
  5
27E2
330
1E
100
AcDbEntity
  8
7
100
AcDbLine
 10
0.6982695642013497
 20
1.766457845180933
 30
0.0
 11
0.6982695642013497
 21
1.771709990156917
 31
0.0
  0
LINE
  5
27E3
330
1E
100
AcDbEntity
  8
7
100
AcDbLine
 10
0.6982695642013497
 20
1.771709990156917
 30
0.0
 11
0.6982695642013497
 21
1.786153388840874
 31
0.0
  0
LINE
  5
27E4
330
1E
100
AcDbEntity
  8
7
100
AcDbLine
 10
0.6982695642013497
 20
1.786153388840874
 30
0.0
 11
0.6982695642013497
 21
1.805848932500814
 31
0.0
  0
LINE
  5
27E5
330
1E
100
AcDbEntity
  8
7
100
AcDbLine
 10
0.6982695642013497
 20
1.805848932500814
 30
0.0
 11
0.6982695642013497
 21
1.815040186208787
 31
0.0
  0
LINE
  5
27E6
330
1E
100
AcDbEntity
  8
7
100
AcDbLine
 10
0.4067755180342242
 20
1.758579627716956
 30
0.0
 11
0.4002103368142436
 21
1.770396953912921
 31
0.0
  0
LINE
  5
27E7
330
1E
100
AcDbEntity
  8
7
100
AcDbLine
 10
0.4002103368142436
 20
1.770396953912921
 30
0.0
 11
0.4002103368142436
 21
1.778275171376897
 31
0.0
  0
LINE
  5
27E8
330
1E
100
AcDbEntity
  8
7
100
AcDbLine
 10
0.4002103368142436
 20
1.778275171376897
 30
0.0
 11
0.4002103368142436
 21
1.795344642548846
 31
0.0
  0
LINE
  5
27E9
330
1E
100
AcDbEntity
  8
7
100
AcDbLine
 10
0.3857669381302873
 20
1.815040186208787
 30
0.0
 11
0.3857669381302873
 21
1.805848932500814
 31
0.0
  0
LINE
  5
27EA
330
1E
100
AcDbEntity
  8
7
100
AcDbLine
 10
0.3857669381302873
 20
1.805848932500814
 30
0.0
 11
0.3857669381302873
 21
1.786153388840874
 31
0.0
  0
LINE
  5
27EB
330
1E
100
AcDbEntity
  8
7
100
AcDbLine
 10
0.3857669381302873
 20
1.786153388840874
 30
0.0
 11
0.3857669381302873
 21
1.771709990156917
 31
0.0
  0
LINE
  5
27EC
330
1E
100
AcDbEntity
  8
7
100
AcDbLine
 10
0.3857669381302873
 20
1.771709990156917
 30
0.0
 11
0.387079974374283
 21
1.766457845180933
 31
0.0
  0
LINE
  5
27ED
330
1E
100
AcDbEntity
  8
7
100
AcDbLine
 10
0.387079974374283
 20
1.766457845180933
 30
0.0
 11
0.4067755180342242
 21
1.725753721617055
 31
0.0
  0
LINE
  5
27EE
330
1E
100
AcDbEntity
  8
7
100
AcDbLine
 10
0.3253672709064679
 20
1.816353222452783
 30
0.0
 11
0.349001923298397
 21
1.815040186208787
 31
0.0
  0
LINE
  5
27EF
330
1E
100
AcDbEntity
  8
7
100
AcDbLine
 10
0.349001923298397
 20
1.815040186208787
 30
0.0
 11
0.3673844307143418
 21
1.815040186208787
 31
0.0
  0
LINE
  5
27F0
330
1E
100
AcDbEntity
  8
7
100
AcDbLine
 10
0.3673844307143418
 20
1.815040186208787
 30
0.0
 11
0.380514793154303
 21
1.815040186208787
 31
0.0
  0
LINE
  5
27F1
330
1E
100
AcDbEntity
  8
7
100
AcDbLine
 10
0.380514793154303
 20
1.815040186208787
 30
0.0
 11
0.3857669381302873
 21
1.815040186208787
 31
0.0
  0
LINE
  5
27F2
330
1E
100
AcDbEntity
  8
7
100
AcDbLine
 10
0.3857669381302873
 20
1.815040186208787
 30
0.0
 11
0.387079974374283
 21
1.813727149964791
 31
0.0
  0
LINE
  5
27F3
330
1E
100
AcDbEntity
  8
7
100
AcDbLine
 10
0.6982695642013497
 20
1.815040186208787
 30
0.0
 11
0.703521709177334
 21
1.815040186208787
 31
0.0
  0
LINE
  5
27F4
330
1E
100
AcDbEntity
  8
7
100
AcDbLine
 10
0.703521709177334
 20
1.815040186208787
 30
0.0
 11
0.7166520716172951
 21
1.815040186208787
 31
0.0
  0
LINE
  5
27F5
330
1E
100
AcDbEntity
  8
7
100
AcDbLine
 10
0.7166520716172951
 20
1.815040186208787
 30
0.0
 11
0.73503457903324
 21
1.815040186208787
 31
0.0
  0
LINE
  5
27F6
330
1E
100
AcDbEntity
  8
7
100
AcDbLine
 10
0.73503457903324
 20
1.815040186208787
 30
0.0
 11
0.7586692314251691
 21
1.816353222452783
 31
0.0
  0
LINE
  5
27F7
330
1E
100
AcDbEntity
  8
7
100
AcDbLine
 10
3.485845510204991
 20
5.003092186631228
 30
0.0
 11
3.522610525036881
 21
5.010970404095204
 31
0.0
  0
LINE
  5
27F8
330
1E
100
AcDbEntity
  8
7
100
AcDbLine
 10
3.522610525036881
 20
5.010970404095204
 30
0.0
 11
3.555436431136782
 21
5.030665947755146
 31
0.0
  0
LINE
  5
27F9
330
1E
100
AcDbEntity
  8
7
100
AcDbLine
 10
3.555436431136782
 20
5.030665947755146
 30
0.0
 11
3.57644501104072
 21
5.062178817611051
 31
0.0
  0
LINE
  5
27FA
330
1E
100
AcDbEntity
  8
7
100
AcDbLine
 10
3.57644501104072
 20
5.062178817611051
 30
0.0
 11
3.585636264748691
 21
5.09894383244294
 31
0.0
  0
LINE
  5
27FB
330
1E
100
AcDbEntity
  8
7
100
AcDbLine
 10
3.586949300992689
 20
5.09894383244294
 30
0.0
 11
3.579071083528712
 21
5.09894383244294
 31
0.0
  0
LINE
  5
27FC
330
1E
100
AcDbEntity
  8
7
100
AcDbLine
 10
3.579071083528712
 20
5.09894383244294
 30
0.0
 11
3.556749467380779
 21
5.097630796198945
 31
0.0
  0
LINE
  5
27FD
330
1E
100
AcDbEntity
  8
7
100
AcDbLine
 10
3.556749467380779
 20
5.097630796198945
 30
0.0
 11
3.525236597524874
 21
5.09894383244294
 31
0.0
  0
LINE
  5
27FE
330
1E
100
AcDbEntity
  8
7
100
AcDbLine
 10
3.525236597524874
 20
5.09894383244294
 30
0.0
 11
3.485845510204991
 21
5.09894383244294
 31
0.0
  0
LINE
  5
27FF
330
1E
100
AcDbEntity
  8
7
100
AcDbLine
 10
3.477967292741015
 20
6.253102690915481
 30
0.0
 11
3.467463002789047
 21
6.258354835891465
 31
0.0
  0
LINE
  5
2800
330
1E
100
AcDbEntity
  8
7
100
AcDbLine
 10
3.467463002789047
 20
6.258354835891465
 30
0.0
 11
3.463523894057058
 21
6.268859125843433
 31
0.0
  0
LINE
  5
2801
330
1E
100
AcDbEntity
  8
7
100
AcDbLine
 10
2.951439758898594
 20
6.471066707418826
 30
0.0
 11
2.951439758898594
 21
6.484197069858787
 31
0.0
  0
LINE
  5
2802
330
1E
100
AcDbEntity
  8
7
100
AcDbLine
 10
2.951439758898594
 20
6.484197069858787
 30
0.0
 11
2.951439758898594
 21
6.488136178590776
 31
0.0
  0
LINE
  5
2803
330
1E
100
AcDbEntity
  8
7
100
AcDbLine
 10
3.463523894057058
 20
6.30299806818733
 30
0.0
 11
3.460897821569066
 21
6.310876285651307
 31
0.0
  0
LINE
  5
2804
330
1E
100
AcDbEntity
  8
7
100
AcDbLine
 10
3.460897821569066
 20
6.310876285651307
 30
0.0
 11
3.45301960410509
 21
6.313502358139299
 31
0.0
  0
LINE
  5
2805
330
1E
100
AcDbEntity
  8
7
100
AcDbLine
 10
2.359260412856369
 20
6.30299806818733
 30
0.0
 11
2.359260412856369
 21
6.295119850723354
 31
0.0
  0
LINE
  5
2806
330
1E
100
AcDbEntity
  8
7
100
AcDbLine
 10
2.359260412856369
 20
6.295119850723354
 30
0.0
 11
2.403903645152235
 21
6.295119850723354
 31
0.0
  0
LINE
  5
2807
330
1E
100
AcDbEntity
  8
7
100
AcDbLine
 10
2.359260412856369
 20
6.30299806818733
 30
0.0
 11
2.403903645152235
 21
6.30299806818733
 31
0.0
  0
LINE
  5
2808
330
1E
100
AcDbEntity
  8
7
100
AcDbLine
 10
2.403903645152235
 20
6.30299806818733
 30
0.0
 11
2.403903645152235
 21
6.312189321895303
 31
0.0
  0
LINE
  5
2809
330
1E
100
AcDbEntity
  8
7
100
AcDbLine
 10
2.359260412856369
 20
6.404101858975026
 30
0.0
 11
2.357947376612373
 21
6.312189321895303
 31
0.0
  0
LINE
  5
280A
330
1E
100
AcDbEntity
  8
7
100
AcDbLine
 10
2.357947376612373
 20
6.312189321895303
 30
0.0
 11
2.403903645152235
 21
6.312189321895303
 31
0.0
  0
LINE
  5
280B
330
1E
100
AcDbEntity
  8
7
100
AcDbLine
 10
3.174655920377924
 20
6.488136178590776
 30
0.0
 11
3.174655920377924
 21
6.484197069858787
 31
0.0
  0
LINE
  5
280C
330
1E
100
AcDbEntity
  8
7
100
AcDbLine
 10
3.174655920377924
 20
6.484197069858787
 30
0.0
 11
3.174655920377924
 21
6.471066707418826
 31
0.0
  0
LINE
  5
280D
330
1E
100
AcDbEntity
  8
7
100
AcDbLine
 10
3.178595029109912
 20
6.253102690915481
 30
0.0
 11
3.174655920377924
 21
6.471066707418826
 31
0.0
  0
LINE
  5
280E
330
1E
100
AcDbEntity
  8
7
100
AcDbLine
 10
3.174655920377924
 20
6.471066707418826
 30
0.0
 11
2.951439758898594
 21
6.471066707418826
 31
0.0
  0
LINE
  5
280F
330
1E
100
AcDbEntity
  8
7
100
AcDbLine
 10
3.485845510204991
 20
5.003092186631228
 30
0.0
 11
3.485845510204991
 21
5.009657367851208
 31
0.0
  0
LINE
  5
2810
330
1E
100
AcDbEntity
  8
7
100
AcDbLine
 10
3.485845510204991
 20
5.009657367851208
 30
0.0
 11
3.485845510204991
 21
5.030665947755146
 31
0.0
  0
LINE
  5
2811
330
1E
100
AcDbEntity
  8
7
100
AcDbLine
 10
3.485845510204991
 20
5.030665947755146
 30
0.0
 11
3.485845510204991
 21
5.062178817611051
 31
0.0
  0
LINE
  5
2812
330
1E
100
AcDbEntity
  8
7
100
AcDbLine
 10
3.485845510204991
 20
5.062178817611051
 30
0.0
 11
3.485845510204991
 21
5.09894383244294
 31
0.0
  0
LINE
  5
2813
330
1E
100
AcDbEntity
  8
7
100
AcDbLine
 10
0.119220580599086
 20
5.003092186631228
 30
0.0
 11
0.119220580599086
 21
5.009657367851208
 31
0.0
  0
LINE
  5
2814
330
1E
100
AcDbEntity
  8
7
100
AcDbLine
 10
0.119220580599086
 20
5.009657367851208
 30
0.0
 11
0.119220580599086
 21
5.030665947755146
 31
0.0
  0
LINE
  5
2815
330
1E
100
AcDbEntity
  8
7
100
AcDbLine
 10
0.119220580599086
 20
5.030665947755146
 30
0.0
 11
0.119220580599086
 21
5.062178817611051
 31
0.0
  0
LINE
  5
2816
330
1E
100
AcDbEntity
  8
7
100
AcDbLine
 10
0.119220580599086
 20
5.062178817611051
 30
0.0
 11
0.119220580599086
 21
5.09894383244294
 31
0.0
  0
LINE
  5
2817
330
1E
100
AcDbEntity
  8
7
100
AcDbLine
 10
0.0194298260553854
 20
5.09894383244294
 30
0.0
 11
0.0286210797633575
 21
5.062178817611051
 31
0.0
  0
LINE
  5
2818
330
1E
100
AcDbEntity
  8
7
100
AcDbLine
 10
0.0286210797633575
 20
5.062178817611051
 30
0.0
 11
0.0496296596672952
 21
5.030665947755146
 31
0.0
  0
LINE
  5
2819
330
1E
100
AcDbEntity
  8
7
100
AcDbLine
 10
0.0496296596672952
 20
5.030665947755146
 30
0.0
 11
0.0824555657671964
 21
5.010970404095204
 31
0.0
  0
LINE
  5
281A
330
1E
100
AcDbEntity
  8
7
100
AcDbLine
 10
0.0824555657671964
 20
5.010970404095204
 30
0.0
 11
0.119220580599086
 21
5.003092186631228
 31
0.0
  0
LINE
  5
281B
330
1E
100
AcDbEntity
  8
7
100
AcDbLine
 10
0.0181167898113894
 20
5.09894383244294
 30
0.0
 11
0.0259950072753654
 21
5.09894383244294
 31
0.0
  0
LINE
  5
281C
330
1E
100
AcDbEntity
  8
7
100
AcDbLine
 10
0.0259950072753654
 20
5.09894383244294
 30
0.0
 11
0.0483166234232988
 21
5.097630796198945
 31
0.0
  0
LINE
  5
281D
330
1E
100
AcDbEntity
  8
7
100
AcDbLine
 10
0.0483166234232988
 20
5.097630796198945
 30
0.0
 11
0.0798294932792043
 21
5.09894383244294
 31
0.0
  0
LINE
  5
281E
330
1E
100
AcDbEntity
  8
7
100
AcDbLine
 10
0.0798294932792043
 20
5.09894383244294
 30
0.0
 11
0.119220580599086
 21
5.09894383244294
 31
0.0
  0
LINE
  5
281F
330
1E
100
AcDbEntity
  8
7
100
AcDbLine
 10
0.1270987980630625
 20
6.253102690915481
 30
0.0
 11
0.137603088015031
 21
6.258354835891465
 31
0.0
  0
LINE
  5
2820
330
1E
100
AcDbEntity
  8
7
100
AcDbLine
 10
0.137603088015031
 20
6.258354835891465
 30
0.0
 11
0.1415421967470194
 21
6.268859125843433
 31
0.0
  0
LINE
  5
2821
330
1E
100
AcDbEntity
  8
7
100
AcDbLine
 10
0.6536263319054836
 20
6.488136178590776
 30
0.0
 11
0.6536263319054836
 21
6.484197069858787
 31
0.0
  0
LINE
  5
2822
330
1E
100
AcDbEntity
  8
7
100
AcDbLine
 10
0.6536263319054836
 20
6.484197069858787
 30
0.0
 11
0.6536263319054836
 21
6.471066707418826
 31
0.0
  0
LINE
  5
2823
330
1E
100
AcDbEntity
  8
7
100
AcDbLine
 10
1.48871738308698
 20
6.30299806818733
 30
0.0
 11
1.48871738308698
 21
6.312189321895303
 31
0.0
  0
LINE
  5
2824
330
1E
100
AcDbEntity
  8
7
100
AcDbLine
 10
1.48871738308698
 20
6.312189321895303
 30
0.0
 11
1.442761114547117
 21
6.312189321895303
 31
0.0
  0
LINE
  5
2825
330
1E
100
AcDbEntity
  8
7
100
AcDbLine
 10
1.48871738308698
 20
6.260980908379456
 30
0.0
 11
1.48871738308698
 21
6.295119850723354
 31
0.0
  0
LINE
  5
2826
330
1E
100
AcDbEntity
  8
7
100
AcDbLine
 10
1.48871738308698
 20
6.295119850723354
 30
0.0
 11
1.444074150791113
 21
6.295119850723354
 31
0.0
  0
LINE
  5
2827
330
1E
100
AcDbEntity
  8
7
100
AcDbLine
 10
1.444074150791113
 20
6.295119850723354
 30
0.0
 11
1.444074150791113
 21
6.260980908379456
 31
0.0
  0
LINE
  5
2828
330
1E
100
AcDbEntity
  8
7
100
AcDbLine
 10
0.1415421967470194
 20
6.30299806818733
 30
0.0
 11
0.1441682692350115
 21
6.310876285651307
 31
0.0
  0
LINE
  5
2829
330
1E
100
AcDbEntity
  8
7
100
AcDbLine
 10
0.1441682692350115
 20
6.310876285651307
 30
0.0
 11
0.1520464866989879
 21
6.313502358139299
 31
0.0
  0
LINE
  5
282A
330
1E
100
AcDbEntity
  8
7
100
AcDbLine
 10
0.5288878887258576
 20
6.295119850723354
 30
0.0
 11
0.5275748524818618
 21
6.260980908379456
 31
0.0
  0
LINE
  5
282B
330
1E
100
AcDbEntity
  8
7
100
AcDbLine
 10
0.5275748524818618
 20
6.260980908379456
 30
0.0
 11
0.5735311210217242
 21
6.260980908379456
 31
0.0
  0
LINE
  5
282C
330
1E
100
AcDbEntity
  8
7
100
AcDbLine
 10
0.5288878887258576
 20
6.295119850723354
 30
0.0
 11
0.5722180847777279
 21
6.295119850723354
 31
0.0
  0
LINE
  5
282D
330
1E
100
AcDbEntity
  8
7
100
AcDbLine
 10
0.5722180847777279
 20
6.295119850723354
 30
0.0
 11
0.5722180847777279
 21
6.30299806818733
 31
0.0
  0
LINE
  5
282E
330
1E
100
AcDbEntity
  8
7
100
AcDbLine
 10
0.5275748524818618
 20
6.312189321895303
 30
0.0
 11
0.5288878887258576
 21
6.30299806818733
 31
0.0
  0
LINE
  5
282F
330
1E
100
AcDbEntity
  8
7
100
AcDbLine
 10
0.5288878887258576
 20
6.30299806818733
 30
0.0
 11
0.5722180847777279
 21
6.30299806818733
 31
0.0
  0
LINE
  5
2830
330
1E
100
AcDbEntity
  8
7
100
AcDbLine
 10
0.5275748524818618
 20
6.312189321895303
 30
0.0
 11
0.5735311210217242
 21
6.312189321895303
 31
0.0
  0
LINE
  5
2831
330
1E
100
AcDbEntity
  8
7
100
AcDbLine
 10
0.5735311210217242
 20
6.312189321895303
 30
0.0
 11
0.5722180847777279
 21
6.404101858975026
 31
0.0
  0
LINE
  5
2832
330
1E
100
AcDbEntity
  8
7
100
AcDbLine
 10
1.245805677947708
 20
6.30299806818733
 30
0.0
 11
1.201162445651841
 21
6.30299806818733
 31
0.0
  0
LINE
  5
2833
330
1E
100
AcDbEntity
  8
7
100
AcDbLine
 10
1.201162445651841
 20
6.30299806818733
 30
0.0
 11
1.201162445651841
 21
6.295119850723354
 31
0.0
  0
LINE
  5
2834
330
1E
100
AcDbEntity
  8
7
100
AcDbLine
 10
1.245805677947708
 20
6.404101858975026
 30
0.0
 11
1.201162445651841
 21
6.404101858975026
 31
0.0
  0
LINE
  5
2835
330
1E
100
AcDbEntity
  8
7
100
AcDbLine
 10
1.201162445651841
 20
6.404101858975026
 30
0.0
 11
1.201162445651841
 21
6.312189321895303
 31
0.0
  0
LINE
  5
2836
330
1E
100
AcDbEntity
  8
7
100
AcDbLine
 10
0.4264710616941648
 20
6.253102690915481
 30
0.0
 11
0.4304101704261533
 21
6.471066707418826
 31
0.0
  0
LINE
  5
2837
330
1E
100
AcDbEntity
  8
7
100
AcDbLine
 10
0.4304101704261533
 20
6.471066707418826
 30
0.0
 11
0.4304101704261533
 21
6.484197069858787
 31
0.0
  0
LINE
  5
2838
330
1E
100
AcDbEntity
  8
7
100
AcDbLine
 10
0.4304101704261533
 20
6.484197069858787
 30
0.0
 11
0.4304101704261533
 21
6.488136178590776
 31
0.0
  0
LINE
  5
2839
330
1E
100
AcDbEntity
  8
7
100
AcDbLine
 10
0.6575654406374722
 20
6.253102690915481
 30
0.0
 11
0.6536263319054836
 21
6.471066707418826
 31
0.0
  0
LINE
  5
283A
330
1E
100
AcDbEntity
  8
7
100
AcDbLine
 10
0.6536263319054836
 20
6.471066707418826
 30
0.0
 11
0.4304101704261533
 21
6.471066707418826
 31
0.0
  0
LINE
  5
283B
330
1E
100
AcDbEntity
  8
7
100
AcDbLine
 10
3.526549633768869
 20
6.253102690915481
 30
0.0
 11
3.558062503624775
 21
6.253102690915481
 31
0.0
  0
LINE
  5
283C
330
1E
100
AcDbEntity
  8
7
100
AcDbLine
 10
3.558062503624775
 20
6.253102690915481
 30
0.0
 11
3.585636264748691
 21
6.253102690915481
 31
0.0
  0
LINE
  5
283D
330
1E
100
AcDbEntity
  8
7
100
AcDbLine
 10
3.585636264748691
 20
6.253102690915481
 30
0.0
 11
3.607957880896626
 21
6.253102690915481
 31
0.0
  0
LINE
  5
283E
330
1E
100
AcDbEntity
  8
7
100
AcDbLine
 10
3.607957880896626
 20
6.253102690915481
 30
0.0
 11
3.622401279580581
 21
6.253102690915481
 31
0.0
  0
LINE
  5
283F
330
1E
100
AcDbEntity
  8
7
100
AcDbLine
 10
3.622401279580581
 20
6.253102690915481
 30
0.0
 11
3.62634038831257
 21
6.253102690915481
 31
0.0
  0
LINE
  5
2840
330
1E
100
AcDbEntity
  8
7
100
AcDbLine
 10
0.0785164570352084
 20
6.253102690915481
 30
0.0
 11
0.0470035871793031
 21
6.253102690915481
 31
0.0
  0
LINE
  5
2841
330
1E
100
AcDbEntity
  8
7
100
AcDbLine
 10
0.0470035871793031
 20
6.253102690915481
 30
0.0
 11
0.0194298260553854
 21
6.253102690915481
 31
0.0
  0
LINE
  5
2842
330
1E
100
AcDbEntity
  8
7
100
AcDbLine
 10
0.0194298260553854
 20
6.253102690915481
 30
0.0
 11
-0.0028917900925476
 21
6.253102690915481
 31
0.0
  0
LINE
  5
2843
330
1E
100
AcDbEntity
  8
7
100
AcDbLine
 10
-0.0028917900925476
 20
6.253102690915481
 30
0.0
 11
-0.0173351887765043
 21
6.253102690915481
 31
0.0
  0
LINE
  5
2844
330
1E
100
AcDbEntity
  8
7
100
AcDbLine
 10
-0.0173351887765043
 20
6.253102690915481
 30
0.0
 11
-0.0212742975084925
 21
6.253102690915481
 31
0.0
  0
ENDSEC
  0
SECTION
  2
OBJECTS
  0
DICTIONARY
  5
C
330
0
100
AcDbDictionary
  3
ACAD_GROUP
350
D
  3
ACAD_LAYOUT
350
19
  3
ACAD_MLINESTYLE
350
16
  3
ACAD_PLOTSETTINGS
350
18
1001
ACAD
1000
TREAT_AS_HARD
1070
     0
  0
DICTIONARY
  5
2B4F
330
1E
100
AcDbDictionary
  3
ACAD_LAYOUTSELFREF
350
2BD4
1001
ACAD
1000
TREAT_AS_HARD
1070
     1
  0
DICTIONARY
  5
2B51
330
1A
100
AcDbDictionary
  3
ACAD_LAYOUTSELFREF
350
2BD3
1001
ACAD
1000
TREAT_AS_HARD
1070
     1
  0
DICTIONARY
  5
D
102
{ACAD_REACTORS
330
C
102
}
330
C
100
AcDbDictionary
1001
ACAD
1000
TREAT_AS_HARD
1070
     0
  0
DICTIONARY
  5
19
102
{ACAD_REACTORS
330
C
102
}
330
C
100
AcDbDictionary
1001
ACAD
1000
TREAT_AS_HARD
1070
     0
  0
DICTIONARY
  5
16
102
{ACAD_REACTORS
330
C
102
}
330
C
100
AcDbDictionary
  3
STANDARD
350
17
1001
ACAD
1000
TREAT_AS_HARD
1070
     0
  0
DICTIONARY
  5
18
102
{ACAD_REACTORS
330
C
102
}
330
C
100
AcDbDictionary
1001
ACAD
1000
TREAT_AS_HARD
1070
     0
  0
XRECORD
  5
2BD4
102
{ACAD_REACTORS
330
2B4F
102
}
330
2B4F
100
AcDbXrecord
340
1E
  0
XRECORD
  5
2BD3
102
{ACAD_REACTORS
330
2B51
102
}
330
2B51
100
AcDbXrecord
340
1A
  0
MLINESTYLE
  5
17
102
{ACAD_REACTORS
330
16
102
}
330
16
100
AcDbMlineStyle
  2
STANDARD
 70
     0
  3

 62
   256
 51
90.0
 52
90.0
 71
     2
 49
0.5
 62
   256
  6
BYLAYER
 49
-0.5
 62
   256
  6
BYLAYER
  0
ENDSEC
  0
EOF
