  0
SECTION
  2
HEADER
  9
$ACADVER
  1
AC1012
  9
$DWGCODEPAGE
  3
ANSI_1252
  9
$INSBASE
 10
0.0
 20
0.0
 30
0.0
  9
$EXTMIN
 10
0.8693847945767743
 20
10.85559085390482
 30
-0.0015258207003583
  9
$EXTMAX
 10
4.357543964355187
 20
15.46023562417858
 30
0.0000000349246037
  9
$LIMMIN
 10
0.0
 20
0.0
  9
$LIMMAX
 10
12.0
 20
9.0
  9
$ORTHOMODE
 70
     0
  9
$REGENMODE
 70
     1
  9
$FILLMODE
 70
     1
  9
$QTEXTMODE
 70
     0
  9
$MIRRTEXT
 70
     1
  9
$DRAGMODE
 70
     2
  9
$LTSCALE
 40
1.0
  9
$OSMODE
 70
    33
  9
$ATTMODE
 70
     1
  9
$TEXTSIZE
 40
0.2
  9
$TRACEWID
 40
0.05
  9
$TEXTSTYLE
  7
STANDARD
  9
$CLAYER
  8
0
  9
$CELTYPE
  6
BYLAYER
  9
$CECOLOR
 62
   256
  9
$CELTSCALE
 40
1.0
  9
$DELOBJ
 70
     1
  9
$DISPSILH
 70
     0
  9
$DIMSCALE
 40
1.0
  9
$DIMASZ
 40
0.18
  9
$DIMEXO
 40
0.0625
  9
$DIMDLI
 40
0.38
  9
$DIMRND
 40
0.0
  9
$DIMDLE
 40
0.0
  9
$DIMEXE
 40
0.18
  9
$DIMTP
 40
0.0
  9
$DIMTM
 40
0.0
  9
$DIMTXT
 40
0.18
  9
$DIMCEN
 40
0.09
  9
$DIMTSZ
 40
0.0
  9
$DIMTOL
 70
     0
  9
$DIMLIM
 70
     0
  9
$DIMTIH
 70
     1
  9
$DIMTOH
 70
     1
  9
$DIMSE1
 70
     0
  9
$DIMSE2
 70
     0
  9
$DIMTAD
 70
     0
  9
$DIMZIN
 70
     0
  9
$DIMBLK
  1

  9
$DIMASO
 70
     1
  9
$DIMSHO
 70
     1
  9
$DIMPOST
  1

  9
$DIMAPOST
  1

  9
$DIMALT
 70
     0
  9
$DIMALTD
 70
     2
  9
$DIMALTF
 40
25.4
  9
$DIMLFAC
 40
1.0
  9
$DIMTOFL
 70
     0
  9
$DIMTVP
 40
0.0
  9
$DIMTIX
 70
     0
  9
$DIMSOXD
 70
     0
  9
$DIMSAH
 70
     0
  9
$DIMBLK1
  1

  9
$DIMBLK2
  1

  9
$DIMSTYLE
  2
STANDARD
  9
$DIMCLRD
 70
     0
  9
$DIMCLRE
 70
     0
  9
$DIMCLRT
 70
     0
  9
$DIMTFAC
 40
1.0
  9
$DIMGAP
 40
0.09
  9
$DIMJUST
 70
     0
  9
$DIMSD1
 70
     0
  9
$DIMSD2
 70
     0
  9
$DIMTOLJ
 70
     1
  9
$DIMTZIN
 70
     0
  9
$DIMALTZ
 70
     0
  9
$DIMALTTZ
 70
     0
  9
$DIMFIT
 70
     5
  9
$DIMUPT
 70
     0
  9
$DIMUNIT
 70
     2
  9
$DIMDEC
 70
     4
  9
$DIMTDEC
 70
     4
  9
$DIMALTU
 70
     2
  9
$DIMALTTD
 70
     2
  9
$DIMTXSTY
  7
STANDARD
  9
$DIMAUNIT
 70
     0
  9
$LUNITS
 70
     2
  9
$LUPREC
 70
     4
  9
$SKETCHINC
 40
0.1
  9
$FILLETRAD
 40
0.0
  9
$AUNITS
 70
     0
  9
$AUPREC
 70
     0
  9
$MENU
  1
acad
  9
$ELEVATION
 40
0.0
  9
$PELEVATION
 40
0.0
  9
$THICKNESS
 40
0.0
  9
$LIMCHECK
 70
     0
  9
$BLIPMODE
 70
     0
  9
$CHAMFERA
 40
0.0
  9
$CHAMFERB
 40
0.0
  9
$CHAMFERC
 40
0.0
  9
$CHAMFERD
 40
0.0
  9
$SKPOLY
 70
     0
  9
$TDCREATE
 40
2452359.360844907
  9
$TDUPDATE
 40
2452359.367851366
  9
$TDINDWG
 40
0.0009042245
  9
$TDUSRTIMER
 40
0.0009042245
  9
$USRTIMER
 70
     1
  9
$ANGBASE
 50
0.0
  9
$ANGDIR
 70
     0
  9
$PDMODE
 70
     0
  9
$PDSIZE
 40
0.0
  9
$PLINEWID
 40
0.0
  9
$COORDS
 70
     2
  9
$SPLFRAME
 70
     0
  9
$SPLINETYPE
 70
     6
  9
$SPLINESEGS
 70
     8
  9
$ATTDIA
 70
     0
  9
$ATTREQ
 70
     1
  9
$HANDLING
 70
  4097
  9
$HANDSEED
  5
3E05
  9
$SURFTAB1
 70
     6
  9
$SURFTAB2
 70
     6
  9
$SURFTYPE
 70
     6
  9
$SURFU
 70
     6
  9
$SURFV
 70
     6
  9
$UCSNAME
  2

  9
$UCSORG
 10
0.0
 20
0.0
 30
0.0
  9
$UCSXDIR
 10
1.0
 20
0.0
 30
0.0
  9
$UCSYDIR
 10
0.0
 20
1.0
 30
0.0
  9
$PUCSNAME
  2

  9
$PUCSORG
 10
0.0
 20
0.0
 30
0.0
  9
$PUCSXDIR
 10
1.0
 20
0.0
 30
0.0
  9
$PUCSYDIR
 10
0.0
 20
1.0
 30
0.0
  9
$USERI1
 70
     0
  9
$USERI2
 70
     0
  9
$USERI3
 70
     0
  9
$USERI4
 70
     0
  9
$USERI5
 70
     0
  9
$USERR1
 40
0.0
  9
$USERR2
 40
0.0
  9
$USERR3
 40
0.0
  9
$USERR4
 40
0.0
  9
$USERR5
 40
0.0
  9
$WORLDVIEW
 70
     1
  9
$SHADEDGE
 70
     3
  9
$SHADEDIF
 70
    70
  9
$TILEMODE
 70
     1
  9
$MAXACTVP
 70
    16
  9
$PINSBASE
 10
0.0
 20
0.0
 30
0.0
  9
$PLIMCHECK
 70
     0
  9
$PEXTMIN
 10
1.000000000000000E+20
 20
1.000000000000000E+20
 30
1.000000000000000E+20
  9
$PEXTMAX
 10
-1.000000000000000E+20
 20
-1.000000000000000E+20
 30
-1.000000000000000E+20
  9
$PLIMMIN
 10
0.0
 20
0.0
  9
$PLIMMAX
 10
12.0
 20
9.0
  9
$UNITMODE
 70
     0
  9
$VISRETAIN
 70
     0
  9
$PLINEGEN
 70
     0
  9
$PSLTSCALE
 70
     1
  9
$TREEDEPTH
 70
  3020
  9
$PICKSTYLE
 70
     1
  9
$CMLSTYLE
  2
STANDARD
  9
$CMLJUST
 70
     0
  9
$CMLSCALE
 40
1.0
  9
$SAVEIMAGES
 70
     1
  0
ENDSEC
  0
SECTION
  2
CLASSES
  0
CLASS
  1
ACDBDICTIONARYWDFLT
  2
AcDbDictionaryWithDefault
  3
AutoCAD 2000
 90
    32768
280
     0
281
     0
  0
CLASS
  1
ACDBPLACEHOLDER
  2
AcDbPlaceHolder
  3
AutoCAD 2000
 90
    32768
280
     0
281
     0
  0
CLASS
  1
LAYOUT
  2
AcDbLayout
  3
AutoCAD 2000
 90
    32768
280
     0
281
     0
  0
CLASS
  1
LONG_TRANSACTION
  2
AcDbLongTransaction
  3
AutoCAD 2000
 90
    32768
280
     0
281
     0
  0
CLASS
  1
LWPOLYLINE
  2
AcDbPolyline
  3
AutoCAD 2000
 90
    32768
280
     0
281
     1
  0
CLASS
  1
HATCH
  2
AcDbHatch
  3
AutoCAD 2000
 90
    32768
280
     0
281
     1
  0
CLASS
  1
XRECORD
  2
AcDbXrecord
  3
AutoCAD 2000
 90
    32768
280
     0
281
     0
  0
ENDSEC
  0
SECTION
  2
TABLES
  0
TABLE
  2
VPORT
  5
8
330
0
100
AcDbSymbolTable
 70
     3
  0
VPORT
  5
3E00
330
8
100
AcDbSymbolTableRecord
100
AcDbViewportTableRecord
  2
*ACTIVE
 70
     0
 10
0.0
 20
0.0
 11
1.0
 21
1.0
 12
2.61346437946598
 22
13.1579132390417
 13
0.0
 23
0.0
 14
1.0
 24
1.0
 15
0.0
 25
0.0
 16
0.0
 26
0.0
 36
1.0
 17
0.0
 27
0.0
 37
0.0
 40
4.640571777584085
 41
1.639322916666666
 42
50.0
 43
0.0
 44
0.0
 50
0.0
 51
0.0
 71
     0
 72
   100
 73
     1
 74
     1
 75
     0
 76
     0
 77
     0
 78
     0
  0
ENDTAB
  0
TABLE
  2
LTYPE
  5
5
330
0
100
AcDbSymbolTable
 70
    25
  0
LTYPE
  5
13
330
5
100
AcDbSymbolTableRecord
100
AcDbLinetypeTableRecord
  2
BYBLOCK
 70
     0
  3

 72
    65
 73
     0
 40
0.0
  0
LTYPE
  5
14
330
5
100
AcDbSymbolTableRecord
100
AcDbLinetypeTableRecord
  2
BYLAYER
 70
     0
  3

 72
    65
 73
     0
 40
0.0
  0
LTYPE
  5
15
330
5
100
AcDbSymbolTableRecord
100
AcDbLinetypeTableRecord
  2
CONTINUOUS
 70
     0
  3
Solid line
 72
    65
 73
     0
 40
0.0
  0
LTYPE
  5
22
330
5
100
AcDbSymbolTableRecord
100
AcDbLinetypeTableRecord
  2
BORDER
 70
     0
  3
__ __ . __ __ . __ __ . __ __ . __ __ . __ __ .
 72
    65
 73
     6
 40
1.75
 49
0.5
 74
     0
 49
-0.25
 74
     0
 49
0.5
 74
     0
 49
-0.25
 74
     0
 49
0.5
 74
     0
 49
-0.25
 74
     0
  0
LTYPE
  5
23
330
5
100
AcDbSymbolTableRecord
100
AcDbLinetypeTableRecord
  2
BORDER2
 70
     0
  3
__.__.__.__.__.__.__.__.__.__.__.__.__.__.__.__
 72
    65
 73
     6
 40
0.875
 49
0.25
 74
     0
 49
-0.125
 74
     0
 49
0.25
 74
     0
 49
-0.125
 74
     0
 49
0.25
 74
     0
 49
-0.125
 74
     0
  0
LTYPE
  5
24
330
5
100
AcDbSymbolTableRecord
100
AcDbLinetypeTableRecord
  2
BORDERX2
 70
     0
  3
____  ____  .  ____  ____  .  
 72
    65
 73
     6
 40
3.5
 49
1.0
 74
     0
 49
-0.5
 74
     0
 49
1.0
 74
     0
 49
-0.5
 74
     0
 49
1.0
 74
     0
 49
-0.5
 74
     0
  0
LTYPE
  5
25
330
5
100
AcDbSymbolTableRecord
100
AcDbLinetypeTableRecord
  2
CENTER
 70
     0
  3
____ _ ____ _ ____ _ ____ _ ____ _ ____ _ ____
 72
    65
 73
     4
 40
2.0
 49
1.25
 74
     0
 49
-0.25
 74
     0
 49
0.25
 74
     0
 49
-0.25
 74
     0
  0
LTYPE
  5
26
330
5
100
AcDbSymbolTableRecord
100
AcDbLinetypeTableRecord
  2
CENTER2
 70
     0
  3
____ _ ____ _ ____ _ ____ _ ____ _ ____ _ ____
 72
    65
 73
     4
 40
1.125
 49
0.75
 74
     0
 49
-0.125
 74
     0
 49
0.125
 74
     0
 49
-0.125
 74
     0
  0
LTYPE
  5
27
330
5
100
AcDbSymbolTableRecord
100
AcDbLinetypeTableRecord
  2
CENTERX2
 70
     0
  3
________  __  ________  __  ________  __  
 72
    65
 73
     4
 40
4.0
 49
2.5
 74
     0
 49
-0.5
 74
     0
 49
0.5
 74
     0
 49
-0.5
 74
     0
  0
LTYPE
  5
28
330
5
100
AcDbSymbolTableRecord
100
AcDbLinetypeTableRecord
  2
DASHDOT
 70
     0
  3
__ . __ . __ . __ . __ . __ . __ . 
 72
    65
 73
     4
 40
1.0
 49
0.5
 74
     0
 49
-0.25
 74
     0
 49
0.0
 74
     0
 49
-0.25
 74
     0
  0
LTYPE
  5
29
330
5
100
AcDbSymbolTableRecord
100
AcDbLinetypeTableRecord
  2
DASHDOT2
 70
     0
  3
_._._._._._._._._._._._._._._._.
 72
    65
 73
     4
 40
0.5
 49
0.25
 74
     0
 49
-0.125
 74
     0
 49
0.0
 74
     0
 49
-0.125
 74
     0
  0
LTYPE
  5
2A
330
5
100
AcDbSymbolTableRecord
100
AcDbLinetypeTableRecord
  2
DASHDOTX2
 70
     0
  3
____  .  ____  .  ____  .  ____  .  
 72
    65
 73
     4
 40
2.0
 49
1.0
 74
     0
 49
-0.5
 74
     0
 49
0.0
 74
     0
 49
-0.5
 74
     0
  0
LTYPE
  5
2B
330
5
100
AcDbSymbolTableRecord
100
AcDbLinetypeTableRecord
  2
DASHED
 70
     0
  3
__ __ __ __ __ __ __ __ __ __ __ __ 
 72
    65
 73
     2
 40
0.75
 49
0.5
 74
     0
 49
-0.25
 74
     0
  0
LTYPE
  5
2C
330
5
100
AcDbSymbolTableRecord
100
AcDbLinetypeTableRecord
  2
DASHED2
 70
     0
  3
_ _ _ _ _ _ _ _ _ _ _ _ _ _ _ _ _ _ 
 72
    65
 73
     2
 40
0.375
 49
0.25
 74
     0
 49
-0.125
 74
     0
  0
LTYPE
  5
2D
330
5
100
AcDbSymbolTableRecord
100
AcDbLinetypeTableRecord
  2
DASHEDX2
 70
     0
  3
____  ____  ____  ____  ____  ____  
 72
    65
 73
     2
 40
1.5
 49
1.0
 74
     0
 49
-0.5
 74
     0
  0
LTYPE
  5
2E
330
5
100
AcDbSymbolTableRecord
100
AcDbLinetypeTableRecord
  2
DIVIDE
 70
     0
  3
____ . . ____ . . ____ . . ____ . . 
 72
    65
 73
     6
 40
1.25
 49
0.5
 74
     0
 49
-0.25
 74
     0
 49
0.0
 74
     0
 49
-0.25
 74
     0
 49
0.0
 74
     0
 49
-0.25
 74
     0
  0
LTYPE
  5
2F
330
5
100
AcDbSymbolTableRecord
100
AcDbLinetypeTableRecord
  2
DIVIDE2
 70
     0
  3
__..__..__..__..__..__..__..__..__..
 72
    65
 73
     6
 40
0.625
 49
0.25
 74
     0
 49
-0.125
 74
     0
 49
0.0
 74
     0
 49
-0.125
 74
     0
 49
0.0
 74
     0
 49
-0.125
 74
     0
  0
LTYPE
  5
30
330
5
100
AcDbSymbolTableRecord
100
AcDbLinetypeTableRecord
  2
DIVIDEX2
 70
     0
  3
________  .  .  ________  .  .  ________  .  . 
 72
    65
 73
     6
 40
2.5
 49
1.0
 74
     0
 49
-0.5
 74
     0
 49
0.0
 74
     0
 49
-0.5
 74
     0
 49
0.0
 74
     0
 49
-0.5
 74
     0
  0
LTYPE
  5
31
330
5
100
AcDbSymbolTableRecord
100
AcDbLinetypeTableRecord
  2
DOT
 70
     0
  3
. . . . . . . . . . . . . . . . . . 
 72
    65
 73
     2
 40
0.25
 49
0.0
 74
     0
 49
-0.25
 74
     0
  0
LTYPE
  5
32
330
5
100
AcDbSymbolTableRecord
100
AcDbLinetypeTableRecord
  2
DOT2
 70
     0
  3
....................................
 72
    65
 73
     2
 40
0.125
 49
0.0
 74
     0
 49
-0.125
 74
     0
  0
LTYPE
  5
33
330
5
100
AcDbSymbolTableRecord
100
AcDbLinetypeTableRecord
  2
DOTX2
 70
     0
  3
.  .  .  .  .  .  .  .  .  .  .  .  .  
 72
    65
 73
     2
 40
0.5
 49
0.0
 74
     0
 49
-0.5
 74
     0
  0
LTYPE
  5
34
330
5
100
AcDbSymbolTableRecord
100
AcDbLinetypeTableRecord
  2
HIDDEN
 70
     0
  3
__ __ __ __ __ __ __ __ __ __ __ __ 
 72
    65
 73
     2
 40
0.375
 49
0.25
 74
     0
 49
-0.125
 74
     0
  0
LTYPE
  5
35
330
5
100
AcDbSymbolTableRecord
100
AcDbLinetypeTableRecord
  2
HIDDEN2
 70
     0
  3
_ _ _ _ _ _ _ _ _ _ _ _ _ _ _ _ _ _ 
 72
    65
 73
     2
 40
0.1875
 49
0.125
 74
     0
 49
-0.0625
 74
     0
  0
LTYPE
  5
36
330
5
100
AcDbSymbolTableRecord
100
AcDbLinetypeTableRecord
  2
HIDDENX2
 70
     0
  3
____ ____ ____ ____ ____ ____ ____ 
 72
    65
 73
     2
 40
0.75
 49
0.5
 74
     0
 49
-0.25
 74
     0
  0
LTYPE
  5
37
330
5
100
AcDbSymbolTableRecord
100
AcDbLinetypeTableRecord
  2
PHANTOM
 70
     0
  3
______  __  __  ______  __  __  
 72
    65
 73
     6
 40
2.5
 49
1.25
 74
     0
 49
-0.25
 74
     0
 49
0.25
 74
     0
 49
-0.25
 74
     0
 49
0.25
 74
     0
 49
-0.25
 74
     0
  0
LTYPE
  5
38
330
5
100
AcDbSymbolTableRecord
100
AcDbLinetypeTableRecord
  2
PHANTOM2
 70
     0
  3
___ _ _ ___ _ _ ___ _ _ ___ _ _ 
 72
    65
 73
     6
 40
1.25
 49
0.625
 74
     0
 49
-0.125
 74
     0
 49
0.125
 74
     0
 49
-0.125
 74
     0
 49
0.125
 74
     0
 49
-0.125
 74
     0
  0
LTYPE
  5
39
330
5
100
AcDbSymbolTableRecord
100
AcDbLinetypeTableRecord
  2
PHANTOMX2
 70
     0
  3
___ _ _ ___ _ _ ___ _ _ ___ _ _ 
 72
    65
 73
     6
 40
5.0
 49
2.5
 74
     0
 49
-0.5
 74
     0
 49
0.5
 74
     0
 49
-0.5
 74
     0
 49
0.5
 74
     0
 49
-0.5
 74
     0
  0
ENDTAB
  0
TABLE
  2
LAYER
  5
2
330
0
100
AcDbSymbolTable
 70
   257
  0
LAYER
  5
10
330
2
100
AcDbSymbolTableRecord
100
AcDbLayerTableRecord
  2
0
 70
     0
 62
     7
  6
CONTINUOUS
  0
LAYER
  5
3A
330
2
100
AcDbSymbolTableRecord
100
AcDbLayerTableRecord
  2
1
 70
     0
 62
     1
  6
CONTINUOUS
  0
LAYER
  5
3B
330
2
100
AcDbSymbolTableRecord
100
AcDbLayerTableRecord
  2
2
 70
     0
 62
     2
  6
CONTINUOUS
  0
LAYER
  5
3C
330
2
100
AcDbSymbolTableRecord
100
AcDbLayerTableRecord
  2
3
 70
     0
 62
     3
  6
CONTINUOUS
  0
LAYER
  5
3D
330
2
100
AcDbSymbolTableRecord
100
AcDbLayerTableRecord
  2
4
 70
     0
 62
     4
  6
CONTINUOUS
  0
LAYER
  5
3E
330
2
100
AcDbSymbolTableRecord
100
AcDbLayerTableRecord
  2
5
 70
     0
 62
     5
  6
CONTINUOUS
  0
LAYER
  5
3F
330
2
100
AcDbSymbolTableRecord
100
AcDbLayerTableRecord
  2
6
 70
     0
 62
     6
  6
CONTINUOUS
  0
LAYER
  5
40
330
2
100
AcDbSymbolTableRecord
100
AcDbLayerTableRecord
  2
7
 70
     0
 62
     7
  6
CONTINUOUS
  0
LAYER
  5
41
330
2
100
AcDbSymbolTableRecord
100
AcDbLayerTableRecord
  2
8
 70
     0
 62
     8
  6
CONTINUOUS
  0
LAYER
  5
42
330
2
100
AcDbSymbolTableRecord
100
AcDbLayerTableRecord
  2
9
 70
     0
 62
     9
  6
CONTINUOUS
  0
LAYER
  5
43
330
2
100
AcDbSymbolTableRecord
100
AcDbLayerTableRecord
  2
10
 70
     0
 62
    10
  6
CONTINUOUS
  0
LAYER
  5
44
330
2
100
AcDbSymbolTableRecord
100
AcDbLayerTableRecord
  2
11
 70
     0
 62
    11
  6
CONTINUOUS
  0
LAYER
  5
45
330
2
100
AcDbSymbolTableRecord
100
AcDbLayerTableRecord
  2
12
 70
     0
 62
    12
  6
CONTINUOUS
  0
LAYER
  5
46
330
2
100
AcDbSymbolTableRecord
100
AcDbLayerTableRecord
  2
13
 70
     0
 62
    13
  6
CONTINUOUS
  0
LAYER
  5
47
330
2
100
AcDbSymbolTableRecord
100
AcDbLayerTableRecord
  2
14
 70
     0
 62
    14
  6
CONTINUOUS
  0
LAYER
  5
48
330
2
100
AcDbSymbolTableRecord
100
AcDbLayerTableRecord
  2
15
 70
     0
 62
    15
  6
CONTINUOUS
  0
LAYER
  5
49
330
2
100
AcDbSymbolTableRecord
100
AcDbLayerTableRecord
  2
16
 70
     0
 62
    16
  6
CONTINUOUS
  0
LAYER
  5
4A
330
2
100
AcDbSymbolTableRecord
100
AcDbLayerTableRecord
  2
17
 70
     0
 62
    17
  6
CONTINUOUS
  0
LAYER
  5
4B
330
2
100
AcDbSymbolTableRecord
100
AcDbLayerTableRecord
  2
18
 70
     0
 62
    18
  6
CONTINUOUS
  0
LAYER
  5
4C
330
2
100
AcDbSymbolTableRecord
100
AcDbLayerTableRecord
  2
19
 70
     0
 62
    19
  6
CONTINUOUS
  0
LAYER
  5
4D
330
2
100
AcDbSymbolTableRecord
100
AcDbLayerTableRecord
  2
20
 70
     0
 62
    20
  6
CONTINUOUS
  0
LAYER
  5
4E
330
2
100
AcDbSymbolTableRecord
100
AcDbLayerTableRecord
  2
21
 70
     0
 62
    21
  6
CONTINUOUS
  0
LAYER
  5
4F
330
2
100
AcDbSymbolTableRecord
100
AcDbLayerTableRecord
  2
22
 70
     0
 62
    22
  6
CONTINUOUS
  0
LAYER
  5
50
330
2
100
AcDbSymbolTableRecord
100
AcDbLayerTableRecord
  2
23
 70
     0
 62
    23
  6
CONTINUOUS
  0
LAYER
  5
51
330
2
100
AcDbSymbolTableRecord
100
AcDbLayerTableRecord
  2
24
 70
     0
 62
    24
  6
CONTINUOUS
  0
LAYER
  5
52
330
2
100
AcDbSymbolTableRecord
100
AcDbLayerTableRecord
  2
25
 70
     0
 62
    25
  6
CONTINUOUS
  0
LAYER
  5
53
330
2
100
AcDbSymbolTableRecord
100
AcDbLayerTableRecord
  2
26
 70
     0
 62
    26
  6
CONTINUOUS
  0
LAYER
  5
54
330
2
100
AcDbSymbolTableRecord
100
AcDbLayerTableRecord
  2
27
 70
     0
 62
    27
  6
CONTINUOUS
  0
LAYER
  5
55
330
2
100
AcDbSymbolTableRecord
100
AcDbLayerTableRecord
  2
28
 70
     0
 62
    28
  6
CONTINUOUS
  0
LAYER
  5
56
330
2
100
AcDbSymbolTableRecord
100
AcDbLayerTableRecord
  2
29
 70
     0
 62
    29
  6
CONTINUOUS
  0
LAYER
  5
57
330
2
100
AcDbSymbolTableRecord
100
AcDbLayerTableRecord
  2
30
 70
     0
 62
    30
  6
CONTINUOUS
  0
LAYER
  5
58
330
2
100
AcDbSymbolTableRecord
100
AcDbLayerTableRecord
  2
31
 70
     0
 62
    31
  6
CONTINUOUS
  0
LAYER
  5
59
330
2
100
AcDbSymbolTableRecord
100
AcDbLayerTableRecord
  2
32
 70
     0
 62
    32
  6
CONTINUOUS
  0
LAYER
  5
5A
330
2
100
AcDbSymbolTableRecord
100
AcDbLayerTableRecord
  2
33
 70
     0
 62
    33
  6
CONTINUOUS
  0
LAYER
  5
5B
330
2
100
AcDbSymbolTableRecord
100
AcDbLayerTableRecord
  2
34
 70
     0
 62
    34
  6
CONTINUOUS
  0
LAYER
  5
5C
330
2
100
AcDbSymbolTableRecord
100
AcDbLayerTableRecord
  2
35
 70
     0
 62
    35
  6
CONTINUOUS
  0
LAYER
  5
5D
330
2
100
AcDbSymbolTableRecord
100
AcDbLayerTableRecord
  2
36
 70
     0
 62
    36
  6
CONTINUOUS
  0
LAYER
  5
5E
330
2
100
AcDbSymbolTableRecord
100
AcDbLayerTableRecord
  2
37
 70
     0
 62
    37
  6
CONTINUOUS
  0
LAYER
  5
5F
330
2
100
AcDbSymbolTableRecord
100
AcDbLayerTableRecord
  2
38
 70
     0
 62
    38
  6
CONTINUOUS
  0
LAYER
  5
60
330
2
100
AcDbSymbolTableRecord
100
AcDbLayerTableRecord
  2
39
 70
     0
 62
    39
  6
CONTINUOUS
  0
LAYER
  5
61
330
2
100
AcDbSymbolTableRecord
100
AcDbLayerTableRecord
  2
40
 70
     0
 62
    40
  6
CONTINUOUS
  0
LAYER
  5
62
330
2
100
AcDbSymbolTableRecord
100
AcDbLayerTableRecord
  2
41
 70
     0
 62
    41
  6
CONTINUOUS
  0
LAYER
  5
63
330
2
100
AcDbSymbolTableRecord
100
AcDbLayerTableRecord
  2
42
 70
     0
 62
    42
  6
CONTINUOUS
  0
LAYER
  5
64
330
2
100
AcDbSymbolTableRecord
100
AcDbLayerTableRecord
  2
43
 70
     0
 62
    43
  6
CONTINUOUS
  0
LAYER
  5
65
330
2
100
AcDbSymbolTableRecord
100
AcDbLayerTableRecord
  2
44
 70
     0
 62
    44
  6
CONTINUOUS
  0
LAYER
  5
66
330
2
100
AcDbSymbolTableRecord
100
AcDbLayerTableRecord
  2
45
 70
     0
 62
    45
  6
CONTINUOUS
  0
LAYER
  5
67
330
2
100
AcDbSymbolTableRecord
100
AcDbLayerTableRecord
  2
46
 70
     0
 62
    46
  6
CONTINUOUS
  0
LAYER
  5
68
330
2
100
AcDbSymbolTableRecord
100
AcDbLayerTableRecord
  2
47
 70
     0
 62
    47
  6
CONTINUOUS
  0
LAYER
  5
69
330
2
100
AcDbSymbolTableRecord
100
AcDbLayerTableRecord
  2
48
 70
     0
 62
    48
  6
CONTINUOUS
  0
LAYER
  5
6A
330
2
100
AcDbSymbolTableRecord
100
AcDbLayerTableRecord
  2
49
 70
     0
 62
    49
  6
CONTINUOUS
  0
LAYER
  5
6B
330
2
100
AcDbSymbolTableRecord
100
AcDbLayerTableRecord
  2
50
 70
     0
 62
    50
  6
CONTINUOUS
  0
LAYER
  5
6C
330
2
100
AcDbSymbolTableRecord
100
AcDbLayerTableRecord
  2
51
 70
     0
 62
    51
  6
CONTINUOUS
  0
LAYER
  5
6D
330
2
100
AcDbSymbolTableRecord
100
AcDbLayerTableRecord
  2
52
 70
     0
 62
    52
  6
CONTINUOUS
  0
LAYER
  5
6E
330
2
100
AcDbSymbolTableRecord
100
AcDbLayerTableRecord
  2
53
 70
     0
 62
    53
  6
CONTINUOUS
  0
LAYER
  5
6F
330
2
100
AcDbSymbolTableRecord
100
AcDbLayerTableRecord
  2
54
 70
     0
 62
    54
  6
CONTINUOUS
  0
LAYER
  5
70
330
2
100
AcDbSymbolTableRecord
100
AcDbLayerTableRecord
  2
55
 70
     0
 62
    55
  6
CONTINUOUS
  0
LAYER
  5
71
330
2
100
AcDbSymbolTableRecord
100
AcDbLayerTableRecord
  2
56
 70
     0
 62
    56
  6
CONTINUOUS
  0
LAYER
  5
72
330
2
100
AcDbSymbolTableRecord
100
AcDbLayerTableRecord
  2
57
 70
     0
 62
    57
  6
CONTINUOUS
  0
LAYER
  5
73
330
2
100
AcDbSymbolTableRecord
100
AcDbLayerTableRecord
  2
58
 70
     0
 62
    58
  6
CONTINUOUS
  0
LAYER
  5
74
330
2
100
AcDbSymbolTableRecord
100
AcDbLayerTableRecord
  2
59
 70
     0
 62
    59
  6
CONTINUOUS
  0
LAYER
  5
75
330
2
100
AcDbSymbolTableRecord
100
AcDbLayerTableRecord
  2
60
 70
     0
 62
    60
  6
CONTINUOUS
  0
LAYER
  5
76
330
2
100
AcDbSymbolTableRecord
100
AcDbLayerTableRecord
  2
61
 70
     0
 62
    61
  6
CONTINUOUS
  0
LAYER
  5
77
330
2
100
AcDbSymbolTableRecord
100
AcDbLayerTableRecord
  2
62
 70
     0
 62
    62
  6
CONTINUOUS
  0
LAYER
  5
78
330
2
100
AcDbSymbolTableRecord
100
AcDbLayerTableRecord
  2
63
 70
     0
 62
    63
  6
CONTINUOUS
  0
LAYER
  5
79
330
2
100
AcDbSymbolTableRecord
100
AcDbLayerTableRecord
  2
64
 70
     0
 62
    64
  6
CONTINUOUS
  0
LAYER
  5
7A
330
2
100
AcDbSymbolTableRecord
100
AcDbLayerTableRecord
  2
65
 70
     0
 62
    65
  6
CONTINUOUS
  0
LAYER
  5
7B
330
2
100
AcDbSymbolTableRecord
100
AcDbLayerTableRecord
  2
66
 70
     0
 62
    66
  6
CONTINUOUS
  0
LAYER
  5
7C
330
2
100
AcDbSymbolTableRecord
100
AcDbLayerTableRecord
  2
67
 70
     0
 62
    67
  6
CONTINUOUS
  0
LAYER
  5
7D
330
2
100
AcDbSymbolTableRecord
100
AcDbLayerTableRecord
  2
68
 70
     0
 62
    68
  6
CONTINUOUS
  0
LAYER
  5
7E
330
2
100
AcDbSymbolTableRecord
100
AcDbLayerTableRecord
  2
69
 70
     0
 62
    69
  6
CONTINUOUS
  0
LAYER
  5
7F
330
2
100
AcDbSymbolTableRecord
100
AcDbLayerTableRecord
  2
70
 70
     0
 62
    70
  6
CONTINUOUS
  0
LAYER
  5
80
330
2
100
AcDbSymbolTableRecord
100
AcDbLayerTableRecord
  2
71
 70
     0
 62
    71
  6
CONTINUOUS
  0
LAYER
  5
81
330
2
100
AcDbSymbolTableRecord
100
AcDbLayerTableRecord
  2
72
 70
     0
 62
    72
  6
CONTINUOUS
  0
LAYER
  5
82
330
2
100
AcDbSymbolTableRecord
100
AcDbLayerTableRecord
  2
73
 70
     0
 62
    73
  6
CONTINUOUS
  0
LAYER
  5
83
330
2
100
AcDbSymbolTableRecord
100
AcDbLayerTableRecord
  2
74
 70
     0
 62
    74
  6
CONTINUOUS
  0
LAYER
  5
84
330
2
100
AcDbSymbolTableRecord
100
AcDbLayerTableRecord
  2
75
 70
     0
 62
    75
  6
CONTINUOUS
  0
LAYER
  5
85
330
2
100
AcDbSymbolTableRecord
100
AcDbLayerTableRecord
  2
76
 70
     0
 62
    76
  6
CONTINUOUS
  0
LAYER
  5
86
330
2
100
AcDbSymbolTableRecord
100
AcDbLayerTableRecord
  2
77
 70
     0
 62
    77
  6
CONTINUOUS
  0
LAYER
  5
87
330
2
100
AcDbSymbolTableRecord
100
AcDbLayerTableRecord
  2
78
 70
     0
 62
    78
  6
CONTINUOUS
  0
LAYER
  5
88
330
2
100
AcDbSymbolTableRecord
100
AcDbLayerTableRecord
  2
79
 70
     0
 62
    79
  6
CONTINUOUS
  0
LAYER
  5
89
330
2
100
AcDbSymbolTableRecord
100
AcDbLayerTableRecord
  2
80
 70
     0
 62
    80
  6
CONTINUOUS
  0
LAYER
  5
8A
330
2
100
AcDbSymbolTableRecord
100
AcDbLayerTableRecord
  2
81
 70
     0
 62
    81
  6
CONTINUOUS
  0
LAYER
  5
8B
330
2
100
AcDbSymbolTableRecord
100
AcDbLayerTableRecord
  2
82
 70
     0
 62
    82
  6
CONTINUOUS
  0
LAYER
  5
8C
330
2
100
AcDbSymbolTableRecord
100
AcDbLayerTableRecord
  2
83
 70
     0
 62
    83
  6
CONTINUOUS
  0
LAYER
  5
8D
330
2
100
AcDbSymbolTableRecord
100
AcDbLayerTableRecord
  2
84
 70
     0
 62
    84
  6
CONTINUOUS
  0
LAYER
  5
8E
330
2
100
AcDbSymbolTableRecord
100
AcDbLayerTableRecord
  2
85
 70
     0
 62
    85
  6
CONTINUOUS
  0
LAYER
  5
8F
330
2
100
AcDbSymbolTableRecord
100
AcDbLayerTableRecord
  2
86
 70
     0
 62
    86
  6
CONTINUOUS
  0
LAYER
  5
90
330
2
100
AcDbSymbolTableRecord
100
AcDbLayerTableRecord
  2
87
 70
     0
 62
    87
  6
CONTINUOUS
  0
LAYER
  5
91
330
2
100
AcDbSymbolTableRecord
100
AcDbLayerTableRecord
  2
88
 70
     0
 62
    88
  6
CONTINUOUS
  0
LAYER
  5
92
330
2
100
AcDbSymbolTableRecord
100
AcDbLayerTableRecord
  2
89
 70
     0
 62
    89
  6
CONTINUOUS
  0
LAYER
  5
93
330
2
100
AcDbSymbolTableRecord
100
AcDbLayerTableRecord
  2
90
 70
     0
 62
    90
  6
CONTINUOUS
  0
LAYER
  5
94
330
2
100
AcDbSymbolTableRecord
100
AcDbLayerTableRecord
  2
91
 70
     0
 62
    91
  6
CONTINUOUS
  0
LAYER
  5
95
330
2
100
AcDbSymbolTableRecord
100
AcDbLayerTableRecord
  2
92
 70
     0
 62
    92
  6
CONTINUOUS
  0
LAYER
  5
96
330
2
100
AcDbSymbolTableRecord
100
AcDbLayerTableRecord
  2
93
 70
     0
 62
    93
  6
CONTINUOUS
  0
LAYER
  5
97
330
2
100
AcDbSymbolTableRecord
100
AcDbLayerTableRecord
  2
94
 70
     0
 62
    94
  6
CONTINUOUS
  0
LAYER
  5
98
330
2
100
AcDbSymbolTableRecord
100
AcDbLayerTableRecord
  2
95
 70
     0
 62
    95
  6
CONTINUOUS
  0
LAYER
  5
99
330
2
100
AcDbSymbolTableRecord
100
AcDbLayerTableRecord
  2
96
 70
     0
 62
    96
  6
CONTINUOUS
  0
LAYER
  5
9A
330
2
100
AcDbSymbolTableRecord
100
AcDbLayerTableRecord
  2
97
 70
     0
 62
    97
  6
CONTINUOUS
  0
LAYER
  5
9B
330
2
100
AcDbSymbolTableRecord
100
AcDbLayerTableRecord
  2
98
 70
     0
 62
    98
  6
CONTINUOUS
  0
LAYER
  5
9C
330
2
100
AcDbSymbolTableRecord
100
AcDbLayerTableRecord
  2
99
 70
     0
 62
    99
  6
CONTINUOUS
  0
LAYER
  5
9D
330
2
100
AcDbSymbolTableRecord
100
AcDbLayerTableRecord
  2
100
 70
     0
 62
   100
  6
CONTINUOUS
  0
LAYER
  5
9E
330
2
100
AcDbSymbolTableRecord
100
AcDbLayerTableRecord
  2
101
 70
     0
 62
   101
  6
CONTINUOUS
  0
LAYER
  5
9F
330
2
100
AcDbSymbolTableRecord
100
AcDbLayerTableRecord
  2
102
 70
     0
 62
   102
  6
CONTINUOUS
  0
LAYER
  5
A0
330
2
100
AcDbSymbolTableRecord
100
AcDbLayerTableRecord
  2
103
 70
     0
 62
   103
  6
CONTINUOUS
  0
LAYER
  5
A1
330
2
100
AcDbSymbolTableRecord
100
AcDbLayerTableRecord
  2
104
 70
     0
 62
   104
  6
CONTINUOUS
  0
LAYER
  5
A2
330
2
100
AcDbSymbolTableRecord
100
AcDbLayerTableRecord
  2
105
 70
     0
 62
   105
  6
CONTINUOUS
  0
LAYER
  5
A3
330
2
100
AcDbSymbolTableRecord
100
AcDbLayerTableRecord
  2
106
 70
     0
 62
   106
  6
CONTINUOUS
  0
LAYER
  5
A4
330
2
100
AcDbSymbolTableRecord
100
AcDbLayerTableRecord
  2
107
 70
     0
 62
   107
  6
CONTINUOUS
  0
LAYER
  5
A5
330
2
100
AcDbSymbolTableRecord
100
AcDbLayerTableRecord
  2
108
 70
     0
 62
   108
  6
CONTINUOUS
  0
LAYER
  5
A6
330
2
100
AcDbSymbolTableRecord
100
AcDbLayerTableRecord
  2
109
 70
     0
 62
   109
  6
CONTINUOUS
  0
LAYER
  5
A7
330
2
100
AcDbSymbolTableRecord
100
AcDbLayerTableRecord
  2
110
 70
     0
 62
   110
  6
CONTINUOUS
  0
LAYER
  5
A8
330
2
100
AcDbSymbolTableRecord
100
AcDbLayerTableRecord
  2
111
 70
     0
 62
   111
  6
CONTINUOUS
  0
LAYER
  5
A9
330
2
100
AcDbSymbolTableRecord
100
AcDbLayerTableRecord
  2
112
 70
     0
 62
   112
  6
CONTINUOUS
  0
LAYER
  5
AA
330
2
100
AcDbSymbolTableRecord
100
AcDbLayerTableRecord
  2
113
 70
     0
 62
   113
  6
CONTINUOUS
  0
LAYER
  5
AB
330
2
100
AcDbSymbolTableRecord
100
AcDbLayerTableRecord
  2
114
 70
     0
 62
   114
  6
CONTINUOUS
  0
LAYER
  5
AC
330
2
100
AcDbSymbolTableRecord
100
AcDbLayerTableRecord
  2
115
 70
     0
 62
   115
  6
CONTINUOUS
  0
LAYER
  5
AD
330
2
100
AcDbSymbolTableRecord
100
AcDbLayerTableRecord
  2
116
 70
     0
 62
   116
  6
CONTINUOUS
  0
LAYER
  5
AE
330
2
100
AcDbSymbolTableRecord
100
AcDbLayerTableRecord
  2
117
 70
     0
 62
   117
  6
CONTINUOUS
  0
LAYER
  5
AF
330
2
100
AcDbSymbolTableRecord
100
AcDbLayerTableRecord
  2
118
 70
     0
 62
   118
  6
CONTINUOUS
  0
LAYER
  5
B0
330
2
100
AcDbSymbolTableRecord
100
AcDbLayerTableRecord
  2
119
 70
     0
 62
   119
  6
CONTINUOUS
  0
LAYER
  5
B1
330
2
100
AcDbSymbolTableRecord
100
AcDbLayerTableRecord
  2
120
 70
     0
 62
   120
  6
CONTINUOUS
  0
LAYER
  5
B2
330
2
100
AcDbSymbolTableRecord
100
AcDbLayerTableRecord
  2
121
 70
     0
 62
   121
  6
CONTINUOUS
  0
LAYER
  5
B3
330
2
100
AcDbSymbolTableRecord
100
AcDbLayerTableRecord
  2
122
 70
     0
 62
   122
  6
CONTINUOUS
  0
LAYER
  5
B4
330
2
100
AcDbSymbolTableRecord
100
AcDbLayerTableRecord
  2
123
 70
     0
 62
   123
  6
CONTINUOUS
  0
LAYER
  5
B5
330
2
100
AcDbSymbolTableRecord
100
AcDbLayerTableRecord
  2
124
 70
     0
 62
   124
  6
CONTINUOUS
  0
LAYER
  5
B6
330
2
100
AcDbSymbolTableRecord
100
AcDbLayerTableRecord
  2
125
 70
     0
 62
   125
  6
CONTINUOUS
  0
LAYER
  5
B7
330
2
100
AcDbSymbolTableRecord
100
AcDbLayerTableRecord
  2
126
 70
     0
 62
   126
  6
CONTINUOUS
  0
LAYER
  5
B8
330
2
100
AcDbSymbolTableRecord
100
AcDbLayerTableRecord
  2
127
 70
     0
 62
   127
  6
CONTINUOUS
  0
LAYER
  5
B9
330
2
100
AcDbSymbolTableRecord
100
AcDbLayerTableRecord
  2
128
 70
     0
 62
   128
  6
CONTINUOUS
  0
LAYER
  5
BA
330
2
100
AcDbSymbolTableRecord
100
AcDbLayerTableRecord
  2
129
 70
     0
 62
   129
  6
CONTINUOUS
  0
LAYER
  5
BB
330
2
100
AcDbSymbolTableRecord
100
AcDbLayerTableRecord
  2
130
 70
     0
 62
   130
  6
CONTINUOUS
  0
LAYER
  5
BC
330
2
100
AcDbSymbolTableRecord
100
AcDbLayerTableRecord
  2
131
 70
     0
 62
   131
  6
CONTINUOUS
  0
LAYER
  5
BD
330
2
100
AcDbSymbolTableRecord
100
AcDbLayerTableRecord
  2
132
 70
     0
 62
   132
  6
CONTINUOUS
  0
LAYER
  5
BE
330
2
100
AcDbSymbolTableRecord
100
AcDbLayerTableRecord
  2
133
 70
     0
 62
   133
  6
CONTINUOUS
  0
LAYER
  5
BF
330
2
100
AcDbSymbolTableRecord
100
AcDbLayerTableRecord
  2
134
 70
     0
 62
   134
  6
CONTINUOUS
  0
LAYER
  5
C0
330
2
100
AcDbSymbolTableRecord
100
AcDbLayerTableRecord
  2
135
 70
     0
 62
   135
  6
CONTINUOUS
  0
LAYER
  5
C1
330
2
100
AcDbSymbolTableRecord
100
AcDbLayerTableRecord
  2
136
 70
     0
 62
   136
  6
CONTINUOUS
  0
LAYER
  5
C2
330
2
100
AcDbSymbolTableRecord
100
AcDbLayerTableRecord
  2
137
 70
     0
 62
   137
  6
CONTINUOUS
  0
LAYER
  5
C3
330
2
100
AcDbSymbolTableRecord
100
AcDbLayerTableRecord
  2
138
 70
     0
 62
   138
  6
CONTINUOUS
  0
LAYER
  5
C4
330
2
100
AcDbSymbolTableRecord
100
AcDbLayerTableRecord
  2
139
 70
     0
 62
   139
  6
CONTINUOUS
  0
LAYER
  5
C5
330
2
100
AcDbSymbolTableRecord
100
AcDbLayerTableRecord
  2
140
 70
     0
 62
   140
  6
CONTINUOUS
  0
LAYER
  5
C6
330
2
100
AcDbSymbolTableRecord
100
AcDbLayerTableRecord
  2
141
 70
     0
 62
   141
  6
CONTINUOUS
  0
LAYER
  5
C7
330
2
100
AcDbSymbolTableRecord
100
AcDbLayerTableRecord
  2
142
 70
     0
 62
   142
  6
CONTINUOUS
  0
LAYER
  5
C8
330
2
100
AcDbSymbolTableRecord
100
AcDbLayerTableRecord
  2
143
 70
     0
 62
   143
  6
CONTINUOUS
  0
LAYER
  5
C9
330
2
100
AcDbSymbolTableRecord
100
AcDbLayerTableRecord
  2
144
 70
     0
 62
   144
  6
CONTINUOUS
  0
LAYER
  5
CA
330
2
100
AcDbSymbolTableRecord
100
AcDbLayerTableRecord
  2
145
 70
     0
 62
   145
  6
CONTINUOUS
  0
LAYER
  5
CB
330
2
100
AcDbSymbolTableRecord
100
AcDbLayerTableRecord
  2
146
 70
     0
 62
   146
  6
CONTINUOUS
  0
LAYER
  5
CC
330
2
100
AcDbSymbolTableRecord
100
AcDbLayerTableRecord
  2
147
 70
     0
 62
   147
  6
CONTINUOUS
  0
LAYER
  5
CD
330
2
100
AcDbSymbolTableRecord
100
AcDbLayerTableRecord
  2
148
 70
     0
 62
   148
  6
CONTINUOUS
  0
LAYER
  5
CE
330
2
100
AcDbSymbolTableRecord
100
AcDbLayerTableRecord
  2
149
 70
     0
 62
   149
  6
CONTINUOUS
  0
LAYER
  5
CF
330
2
100
AcDbSymbolTableRecord
100
AcDbLayerTableRecord
  2
150
 70
     0
 62
   150
  6
CONTINUOUS
  0
LAYER
  5
D0
330
2
100
AcDbSymbolTableRecord
100
AcDbLayerTableRecord
  2
151
 70
     0
 62
   151
  6
CONTINUOUS
  0
LAYER
  5
D1
330
2
100
AcDbSymbolTableRecord
100
AcDbLayerTableRecord
  2
152
 70
     0
 62
   152
  6
CONTINUOUS
  0
LAYER
  5
D2
330
2
100
AcDbSymbolTableRecord
100
AcDbLayerTableRecord
  2
153
 70
     0
 62
   153
  6
CONTINUOUS
  0
LAYER
  5
D3
330
2
100
AcDbSymbolTableRecord
100
AcDbLayerTableRecord
  2
154
 70
     0
 62
   154
  6
CONTINUOUS
  0
LAYER
  5
D4
330
2
100
AcDbSymbolTableRecord
100
AcDbLayerTableRecord
  2
155
 70
     0
 62
   155
  6
CONTINUOUS
  0
LAYER
  5
D5
330
2
100
AcDbSymbolTableRecord
100
AcDbLayerTableRecord
  2
156
 70
     0
 62
   156
  6
CONTINUOUS
  0
LAYER
  5
D6
330
2
100
AcDbSymbolTableRecord
100
AcDbLayerTableRecord
  2
157
 70
     0
 62
   157
  6
CONTINUOUS
  0
LAYER
  5
D7
330
2
100
AcDbSymbolTableRecord
100
AcDbLayerTableRecord
  2
158
 70
     0
 62
   158
  6
CONTINUOUS
  0
LAYER
  5
D8
330
2
100
AcDbSymbolTableRecord
100
AcDbLayerTableRecord
  2
159
 70
     0
 62
   159
  6
CONTINUOUS
  0
LAYER
  5
D9
330
2
100
AcDbSymbolTableRecord
100
AcDbLayerTableRecord
  2
160
 70
     0
 62
   160
  6
CONTINUOUS
  0
LAYER
  5
DA
330
2
100
AcDbSymbolTableRecord
100
AcDbLayerTableRecord
  2
161
 70
     0
 62
   161
  6
CONTINUOUS
  0
LAYER
  5
DB
330
2
100
AcDbSymbolTableRecord
100
AcDbLayerTableRecord
  2
162
 70
     0
 62
   162
  6
CONTINUOUS
  0
LAYER
  5
DC
330
2
100
AcDbSymbolTableRecord
100
AcDbLayerTableRecord
  2
163
 70
     0
 62
   163
  6
CONTINUOUS
  0
LAYER
  5
DD
330
2
100
AcDbSymbolTableRecord
100
AcDbLayerTableRecord
  2
164
 70
     0
 62
   164
  6
CONTINUOUS
  0
LAYER
  5
DE
330
2
100
AcDbSymbolTableRecord
100
AcDbLayerTableRecord
  2
165
 70
     0
 62
   165
  6
CONTINUOUS
  0
LAYER
  5
DF
330
2
100
AcDbSymbolTableRecord
100
AcDbLayerTableRecord
  2
166
 70
     0
 62
   166
  6
CONTINUOUS
  0
LAYER
  5
E0
330
2
100
AcDbSymbolTableRecord
100
AcDbLayerTableRecord
  2
167
 70
     0
 62
   167
  6
CONTINUOUS
  0
LAYER
  5
E1
330
2
100
AcDbSymbolTableRecord
100
AcDbLayerTableRecord
  2
168
 70
     0
 62
   168
  6
CONTINUOUS
  0
LAYER
  5
E2
330
2
100
AcDbSymbolTableRecord
100
AcDbLayerTableRecord
  2
169
 70
     0
 62
   169
  6
CONTINUOUS
  0
LAYER
  5
E3
330
2
100
AcDbSymbolTableRecord
100
AcDbLayerTableRecord
  2
170
 70
     0
 62
   170
  6
CONTINUOUS
  0
LAYER
  5
E4
330
2
100
AcDbSymbolTableRecord
100
AcDbLayerTableRecord
  2
171
 70
     0
 62
   171
  6
CONTINUOUS
  0
LAYER
  5
E5
330
2
100
AcDbSymbolTableRecord
100
AcDbLayerTableRecord
  2
172
 70
     0
 62
   172
  6
CONTINUOUS
  0
LAYER
  5
E6
330
2
100
AcDbSymbolTableRecord
100
AcDbLayerTableRecord
  2
173
 70
     0
 62
   173
  6
CONTINUOUS
  0
LAYER
  5
E7
330
2
100
AcDbSymbolTableRecord
100
AcDbLayerTableRecord
  2
174
 70
     0
 62
   174
  6
CONTINUOUS
  0
LAYER
  5
E8
330
2
100
AcDbSymbolTableRecord
100
AcDbLayerTableRecord
  2
175
 70
     0
 62
   175
  6
CONTINUOUS
  0
LAYER
  5
E9
330
2
100
AcDbSymbolTableRecord
100
AcDbLayerTableRecord
  2
176
 70
     0
 62
   176
  6
CONTINUOUS
  0
LAYER
  5
EA
330
2
100
AcDbSymbolTableRecord
100
AcDbLayerTableRecord
  2
177
 70
     0
 62
   177
  6
CONTINUOUS
  0
LAYER
  5
EB
330
2
100
AcDbSymbolTableRecord
100
AcDbLayerTableRecord
  2
178
 70
     0
 62
   178
  6
CONTINUOUS
  0
LAYER
  5
EC
330
2
100
AcDbSymbolTableRecord
100
AcDbLayerTableRecord
  2
179
 70
     0
 62
   179
  6
CONTINUOUS
  0
LAYER
  5
ED
330
2
100
AcDbSymbolTableRecord
100
AcDbLayerTableRecord
  2
180
 70
     0
 62
   180
  6
CONTINUOUS
  0
LAYER
  5
EE
330
2
100
AcDbSymbolTableRecord
100
AcDbLayerTableRecord
  2
181
 70
     0
 62
   181
  6
CONTINUOUS
  0
LAYER
  5
EF
330
2
100
AcDbSymbolTableRecord
100
AcDbLayerTableRecord
  2
182
 70
     0
 62
   182
  6
CONTINUOUS
  0
LAYER
  5
F0
330
2
100
AcDbSymbolTableRecord
100
AcDbLayerTableRecord
  2
183
 70
     0
 62
   183
  6
CONTINUOUS
  0
LAYER
  5
F1
330
2
100
AcDbSymbolTableRecord
100
AcDbLayerTableRecord
  2
184
 70
     0
 62
   184
  6
CONTINUOUS
  0
LAYER
  5
F2
330
2
100
AcDbSymbolTableRecord
100
AcDbLayerTableRecord
  2
185
 70
     0
 62
   185
  6
CONTINUOUS
  0
LAYER
  5
F3
330
2
100
AcDbSymbolTableRecord
100
AcDbLayerTableRecord
  2
186
 70
     0
 62
   186
  6
CONTINUOUS
  0
LAYER
  5
F4
330
2
100
AcDbSymbolTableRecord
100
AcDbLayerTableRecord
  2
187
 70
     0
 62
   187
  6
CONTINUOUS
  0
LAYER
  5
F5
330
2
100
AcDbSymbolTableRecord
100
AcDbLayerTableRecord
  2
188
 70
     0
 62
   188
  6
CONTINUOUS
  0
LAYER
  5
F6
330
2
100
AcDbSymbolTableRecord
100
AcDbLayerTableRecord
  2
189
 70
     0
 62
   189
  6
CONTINUOUS
  0
LAYER
  5
F7
330
2
100
AcDbSymbolTableRecord
100
AcDbLayerTableRecord
  2
190
 70
     0
 62
   190
  6
CONTINUOUS
  0
LAYER
  5
F8
330
2
100
AcDbSymbolTableRecord
100
AcDbLayerTableRecord
  2
191
 70
     0
 62
   191
  6
CONTINUOUS
  0
LAYER
  5
F9
330
2
100
AcDbSymbolTableRecord
100
AcDbLayerTableRecord
  2
192
 70
     0
 62
   192
  6
CONTINUOUS
  0
LAYER
  5
FA
330
2
100
AcDbSymbolTableRecord
100
AcDbLayerTableRecord
  2
193
 70
     0
 62
   193
  6
CONTINUOUS
  0
LAYER
  5
FB
330
2
100
AcDbSymbolTableRecord
100
AcDbLayerTableRecord
  2
194
 70
     0
 62
   194
  6
CONTINUOUS
  0
LAYER
  5
FC
330
2
100
AcDbSymbolTableRecord
100
AcDbLayerTableRecord
  2
195
 70
     0
 62
   195
  6
CONTINUOUS
  0
LAYER
  5
FD
330
2
100
AcDbSymbolTableRecord
100
AcDbLayerTableRecord
  2
196
 70
     0
 62
   196
  6
CONTINUOUS
  0
LAYER
  5
FE
330
2
100
AcDbSymbolTableRecord
100
AcDbLayerTableRecord
  2
197
 70
     0
 62
   197
  6
CONTINUOUS
  0
LAYER
  5
FF
330
2
100
AcDbSymbolTableRecord
100
AcDbLayerTableRecord
  2
198
 70
     0
 62
   198
  6
CONTINUOUS
  0
LAYER
  5
100
330
2
100
AcDbSymbolTableRecord
100
AcDbLayerTableRecord
  2
199
 70
     0
 62
   199
  6
CONTINUOUS
  0
LAYER
  5
101
330
2
100
AcDbSymbolTableRecord
100
AcDbLayerTableRecord
  2
200
 70
     0
 62
   200
  6
CONTINUOUS
  0
LAYER
  5
102
330
2
100
AcDbSymbolTableRecord
100
AcDbLayerTableRecord
  2
201
 70
     0
 62
   201
  6
CONTINUOUS
  0
LAYER
  5
103
330
2
100
AcDbSymbolTableRecord
100
AcDbLayerTableRecord
  2
202
 70
     0
 62
   202
  6
CONTINUOUS
  0
LAYER
  5
104
330
2
100
AcDbSymbolTableRecord
100
AcDbLayerTableRecord
  2
203
 70
     0
 62
   203
  6
CONTINUOUS
  0
LAYER
  5
105
330
2
100
AcDbSymbolTableRecord
100
AcDbLayerTableRecord
  2
204
 70
     0
 62
   204
  6
CONTINUOUS
  0
LAYER
  5
106
330
2
100
AcDbSymbolTableRecord
100
AcDbLayerTableRecord
  2
205
 70
     0
 62
   205
  6
CONTINUOUS
  0
LAYER
  5
107
330
2
100
AcDbSymbolTableRecord
100
AcDbLayerTableRecord
  2
206
 70
     0
 62
   206
  6
CONTINUOUS
  0
LAYER
  5
108
330
2
100
AcDbSymbolTableRecord
100
AcDbLayerTableRecord
  2
207
 70
     0
 62
   207
  6
CONTINUOUS
  0
LAYER
  5
109
330
2
100
AcDbSymbolTableRecord
100
AcDbLayerTableRecord
  2
208
 70
     0
 62
   208
  6
CONTINUOUS
  0
LAYER
  5
10A
330
2
100
AcDbSymbolTableRecord
100
AcDbLayerTableRecord
  2
209
 70
     0
 62
   209
  6
CONTINUOUS
  0
LAYER
  5
10B
330
2
100
AcDbSymbolTableRecord
100
AcDbLayerTableRecord
  2
210
 70
     0
 62
   210
  6
CONTINUOUS
  0
LAYER
  5
10C
330
2
100
AcDbSymbolTableRecord
100
AcDbLayerTableRecord
  2
211
 70
     0
 62
   211
  6
CONTINUOUS
  0
LAYER
  5
10D
330
2
100
AcDbSymbolTableRecord
100
AcDbLayerTableRecord
  2
212
 70
     0
 62
   212
  6
CONTINUOUS
  0
LAYER
  5
10E
330
2
100
AcDbSymbolTableRecord
100
AcDbLayerTableRecord
  2
213
 70
     0
 62
   213
  6
CONTINUOUS
  0
LAYER
  5
10F
330
2
100
AcDbSymbolTableRecord
100
AcDbLayerTableRecord
  2
214
 70
     0
 62
   214
  6
CONTINUOUS
  0
LAYER
  5
110
330
2
100
AcDbSymbolTableRecord
100
AcDbLayerTableRecord
  2
215
 70
     0
 62
   215
  6
CONTINUOUS
  0
LAYER
  5
111
330
2
100
AcDbSymbolTableRecord
100
AcDbLayerTableRecord
  2
216
 70
     0
 62
   216
  6
CONTINUOUS
  0
LAYER
  5
112
330
2
100
AcDbSymbolTableRecord
100
AcDbLayerTableRecord
  2
217
 70
     0
 62
   217
  6
CONTINUOUS
  0
LAYER
  5
113
330
2
100
AcDbSymbolTableRecord
100
AcDbLayerTableRecord
  2
218
 70
     0
 62
   218
  6
CONTINUOUS
  0
LAYER
  5
114
330
2
100
AcDbSymbolTableRecord
100
AcDbLayerTableRecord
  2
219
 70
     0
 62
   219
  6
CONTINUOUS
  0
LAYER
  5
115
330
2
100
AcDbSymbolTableRecord
100
AcDbLayerTableRecord
  2
220
 70
     0
 62
   220
  6
CONTINUOUS
  0
LAYER
  5
116
330
2
100
AcDbSymbolTableRecord
100
AcDbLayerTableRecord
  2
221
 70
     0
 62
   221
  6
CONTINUOUS
  0
LAYER
  5
117
330
2
100
AcDbSymbolTableRecord
100
AcDbLayerTableRecord
  2
222
 70
     0
 62
   222
  6
CONTINUOUS
  0
LAYER
  5
118
330
2
100
AcDbSymbolTableRecord
100
AcDbLayerTableRecord
  2
223
 70
     0
 62
   223
  6
CONTINUOUS
  0
LAYER
  5
119
330
2
100
AcDbSymbolTableRecord
100
AcDbLayerTableRecord
  2
224
 70
     0
 62
   224
  6
CONTINUOUS
  0
LAYER
  5
11A
330
2
100
AcDbSymbolTableRecord
100
AcDbLayerTableRecord
  2
225
 70
     0
 62
   225
  6
CONTINUOUS
  0
LAYER
  5
11B
330
2
100
AcDbSymbolTableRecord
100
AcDbLayerTableRecord
  2
226
 70
     0
 62
   226
  6
CONTINUOUS
  0
LAYER
  5
11C
330
2
100
AcDbSymbolTableRecord
100
AcDbLayerTableRecord
  2
227
 70
     0
 62
   227
  6
CONTINUOUS
  0
LAYER
  5
11D
330
2
100
AcDbSymbolTableRecord
100
AcDbLayerTableRecord
  2
228
 70
     0
 62
   228
  6
CONTINUOUS
  0
LAYER
  5
11E
330
2
100
AcDbSymbolTableRecord
100
AcDbLayerTableRecord
  2
229
 70
     0
 62
   229
  6
CONTINUOUS
  0
LAYER
  5
11F
330
2
100
AcDbSymbolTableRecord
100
AcDbLayerTableRecord
  2
230
 70
     0
 62
   230
  6
CONTINUOUS
  0
LAYER
  5
120
330
2
100
AcDbSymbolTableRecord
100
AcDbLayerTableRecord
  2
231
 70
     0
 62
   231
  6
CONTINUOUS
  0
LAYER
  5
121
330
2
100
AcDbSymbolTableRecord
100
AcDbLayerTableRecord
  2
232
 70
     0
 62
   232
  6
CONTINUOUS
  0
LAYER
  5
122
330
2
100
AcDbSymbolTableRecord
100
AcDbLayerTableRecord
  2
233
 70
     0
 62
   233
  6
CONTINUOUS
  0
LAYER
  5
123
330
2
100
AcDbSymbolTableRecord
100
AcDbLayerTableRecord
  2
234
 70
     0
 62
   234
  6
CONTINUOUS
  0
LAYER
  5
124
330
2
100
AcDbSymbolTableRecord
100
AcDbLayerTableRecord
  2
235
 70
     0
 62
   235
  6
CONTINUOUS
  0
LAYER
  5
125
330
2
100
AcDbSymbolTableRecord
100
AcDbLayerTableRecord
  2
236
 70
     0
 62
   236
  6
CONTINUOUS
  0
LAYER
  5
126
330
2
100
AcDbSymbolTableRecord
100
AcDbLayerTableRecord
  2
237
 70
     0
 62
   237
  6
CONTINUOUS
  0
LAYER
  5
127
330
2
100
AcDbSymbolTableRecord
100
AcDbLayerTableRecord
  2
238
 70
     0
 62
   238
  6
CONTINUOUS
  0
LAYER
  5
128
330
2
100
AcDbSymbolTableRecord
100
AcDbLayerTableRecord
  2
239
 70
     0
 62
   239
  6
CONTINUOUS
  0
LAYER
  5
129
330
2
100
AcDbSymbolTableRecord
100
AcDbLayerTableRecord
  2
240
 70
     0
 62
   240
  6
CONTINUOUS
  0
LAYER
  5
12A
330
2
100
AcDbSymbolTableRecord
100
AcDbLayerTableRecord
  2
241
 70
     0
 62
   241
  6
CONTINUOUS
  0
LAYER
  5
12B
330
2
100
AcDbSymbolTableRecord
100
AcDbLayerTableRecord
  2
242
 70
     0
 62
   242
  6
CONTINUOUS
  0
LAYER
  5
12C
330
2
100
AcDbSymbolTableRecord
100
AcDbLayerTableRecord
  2
243
 70
     0
 62
   243
  6
CONTINUOUS
  0
LAYER
  5
12D
330
2
100
AcDbSymbolTableRecord
100
AcDbLayerTableRecord
  2
244
 70
     0
 62
   244
  6
CONTINUOUS
  0
LAYER
  5
12E
330
2
100
AcDbSymbolTableRecord
100
AcDbLayerTableRecord
  2
245
 70
     0
 62
   245
  6
CONTINUOUS
  0
LAYER
  5
12F
330
2
100
AcDbSymbolTableRecord
100
AcDbLayerTableRecord
  2
246
 70
     0
 62
   246
  6
CONTINUOUS
  0
LAYER
  5
130
330
2
100
AcDbSymbolTableRecord
100
AcDbLayerTableRecord
  2
247
 70
     0
 62
   247
  6
CONTINUOUS
  0
LAYER
  5
131
330
2
100
AcDbSymbolTableRecord
100
AcDbLayerTableRecord
  2
248
 70
     0
 62
   248
  6
CONTINUOUS
  0
LAYER
  5
132
330
2
100
AcDbSymbolTableRecord
100
AcDbLayerTableRecord
  2
249
 70
     0
 62
   249
  6
CONTINUOUS
  0
LAYER
  5
133
330
2
100
AcDbSymbolTableRecord
100
AcDbLayerTableRecord
  2
250
 70
     0
 62
   250
  6
CONTINUOUS
  0
LAYER
  5
134
330
2
100
AcDbSymbolTableRecord
100
AcDbLayerTableRecord
  2
251
 70
     0
 62
   251
  6
CONTINUOUS
  0
LAYER
  5
135
330
2
100
AcDbSymbolTableRecord
100
AcDbLayerTableRecord
  2
252
 70
     0
 62
   252
  6
CONTINUOUS
  0
LAYER
  5
136
330
2
100
AcDbSymbolTableRecord
100
AcDbLayerTableRecord
  2
253
 70
     0
 62
   253
  6
CONTINUOUS
  0
LAYER
  5
137
330
2
100
AcDbSymbolTableRecord
100
AcDbLayerTableRecord
  2
254
 70
     0
 62
   254
  6
CONTINUOUS
  0
LAYER
  5
138
330
2
100
AcDbSymbolTableRecord
100
AcDbLayerTableRecord
  2
255
 70
     0
 62
   255
  6
CONTINUOUS
  0
LAYER
  5
3DB2
330
2
100
AcDbSymbolTableRecord
100
AcDbLayerTableRecord
  2
DEFPOINTS
 70
     0
 62
     7
  6
CONTINUOUS
  0
ENDTAB
  0
TABLE
  2
STYLE
  5
3
330
0
100
AcDbSymbolTable
 70
     1
  0
STYLE
  5
11
330
3
100
AcDbSymbolTableRecord
100
AcDbTextStyleTableRecord
  2
STANDARD
 70
     0
 40
0.0
 41
1.0
 50
0.0
 71
     0
 42
0.2
  3
monotxt
  4

  0
ENDTAB
  0
TABLE
  2
VIEW
  5
6
330
0
100
AcDbSymbolTable
 70
     0
  0
ENDTAB
  0
TABLE
  2
UCS
  5
7
330
0
100
AcDbSymbolTable
 70
     0
  0
ENDTAB
  0
TABLE
  2
APPID
  5
9
330
0
100
AcDbSymbolTable
 70
     1
  0
APPID
  5
12
330
9
100
AcDbSymbolTableRecord
100
AcDbRegAppTableRecord
  2
ACAD
 70
     0
  0
ENDTAB
  0
TABLE
  2
DIMSTYLE
  5
A
330
0
100
AcDbSymbolTable
 70
     1
  0
DIMSTYLE
105
29AA
102
{ACAD_REACTORS
330
3DB1
102
}
330
A
100
AcDbSymbolTableRecord
100
AcDbDimStyleTableRecord
  2
STANDARD
 70
     0
  3

  4

  5

  6

  7

 40
1.0
 41
0.18
 42
0.0625
 43
0.38
 44
0.18
 45
0.0
 46
0.0
 47
0.0
 48
0.0
140
0.18
141
0.09
142
0.0
143
25.4
144
1.0
145
0.0
146
1.0
147
0.09
 71
     0
 72
     0
 73
     1
 74
     1
 75
     0
 76
     0
 77
     0
 78
     0
170
     0
171
     2
172
     0
173
     0
174
     0
175
     0
176
     0
177
     0
178
     0
270
     2
271
     4
272
     4
273
     2
274
     2
340
11
275
     0
280
     0
281
     0
282
     0
283
     1
284
     0
285
     0
286
     0
287
     3
288
     0
  0
ENDTAB
  0
TABLE
  2
BLOCK_RECORD
  5
1
330
0
100
AcDbSymbolTable
 70
     1
  0
BLOCK_RECORD
  5
1E
102
{ACAD_XDICTIONARY
360
3E03
102
}
330
1
100
AcDbSymbolTableRecord
100
AcDbBlockTableRecord
  2
*MODEL_SPACE
  0
BLOCK_RECORD
  5
1A
102
{ACAD_XDICTIONARY
360
3E01
102
}
330
1
100
AcDbSymbolTableRecord
100
AcDbBlockTableRecord
  2
*PAPER_SPACE
  0
BLOCK_RECORD
  5
3DB3
330
1
100
AcDbSymbolTableRecord
100
AcDbBlockTableRecord
  2
*D0
  0
ENDTAB
  0
ENDSEC
  0
SECTION
  2
BLOCKS
  0
BLOCK
  5
13B
330
1E
100
AcDbEntity
  8
0
100
AcDbBlockBegin
  2
*MODEL_SPACE
 70
     0
 10
0.0
 20
0.0
 30
0.0
  3
*MODEL_SPACE
  1

  0
ENDBLK
  5
13C
330
1E
100
AcDbEntity
  8
0
100
AcDbBlockEnd
  0
BLOCK
  5
139
330
1A
100
AcDbEntity
 67
     1
  8
0
100
AcDbBlockBegin
  2
*PAPER_SPACE
 70
     0
 10
0.0
 20
0.0
 30
0.0
  3
*PAPER_SPACE
  1

  0
ENDBLK
  5
13A
330
1A
100
AcDbEntity
 67
     1
  8
0
100
AcDbBlockEnd
  0
BLOCK
  5
3DBE
330
3DB3
100
AcDbEntity
  8
0
100
AcDbBlockBegin
  2
*D0
 70
     1
 10
0.0
 20
0.0
 30
0.0
  3
*D0
  1

  0
LINE
  5
3DC0
330
3DB3
100
AcDbEntity
  8
0
 62
     0
100
AcDbLine
 10
-0.0094523867056413
 20
12.55495331202288
 30
0.0
 11
-1.19145068225574
 21
12.55495331202288
 31
0.0
  0
LINE
  5
3DC1
330
3DB3
100
AcDbEntity
  8
0
 62
     0
100
AcDbLine
 10
-0.0094523867056413
 20
10.85579976871579
 30
0.0
 11
-1.19145068225574
 21
10.85579976871579
 31
0.0
  0
LINE
  5
3DC2
330
3DB3
100
AcDbEntity
  8
0
 62
     0
100
AcDbLine
 10
-1.01145068225574
 20
12.37495331202288
 30
0.0
 11
-1.01145068225574
 21
11.88537654036933
 31
0.0
  0
LINE
  5
3DC3
330
3DB3
100
AcDbEntity
  8
0
 62
     0
100
AcDbLine
 10
-1.01145068225574
 20
11.03579976871579
 30
0.0
 11
-1.01145068225574
 21
11.52537654036934
 31
0.0
  0
SOLID
  5
3DC4
330
3DB3
100
AcDbEntity
  8
0
 62
     0
100
AcDbTrace
 10
-1.04145068225574
 20
12.37495331202288
 30
0.0
 11
-0.9814506822557403
 21
12.37495331202288
 31
0.0
 12
-1.01145068225574
 22
12.55495331202288
 32
0.0
 13
-1.01145068225574
 23
12.55495331202288
 33
0.0
  0
SOLID
  5
3DC5
330
3DB3
100
AcDbEntity
  8
0
 62
     0
100
AcDbTrace
 10
-1.04145068225574
 20
11.03579976871579
 30
0.0
 11
-0.9814506822557406
 21
11.03579976871579
 31
0.0
 12
-1.01145068225574
 22
10.85579976871579
 32
0.0
 13
-1.01145068225574
 23
10.85579976871579
 33
0.0
  0
MTEXT
  5
3DC6
330
3DB3
100
AcDbEntity
  8
0
 62
     0
100
AcDbMText
 10
-1.011450682255742
 20
11.70537654036934
 30
0.0
 40
0.18
 41
0.0
 71
     5
 72
     1
  1
\A1;1.6992
1001
ACAD
1000
MTEXTBEGIN
1070
    73
1070
     1
1070
    44
1040
1.0
1070
    74
1070
     0
1000
MTEXTEND
  0
POINT
  5
3DC7
330
3DB3
100
AcDbEntity
  8
DEFPOINTS
 62
     0
100
AcDbPoint
 10
0.0530476132943587
 20
12.55495331202288
 30
0.0
  0
POINT
  5
3DC8
330
3DB3
100
AcDbEntity
  8
DEFPOINTS
 62
     0
100
AcDbPoint
 10
0.0530476132943587
 20
10.85579976871579
 30
0.0
  0
POINT
  5
3DC9
330
3DB3
100
AcDbEntity
  8
DEFPOINTS
 62
     0
100
AcDbPoint
 10
-1.01145068225574
 20
10.85579976871579
 30
0.0
  0
ENDBLK
  5
3DBF
330
3DB3
100
AcDbEntity
  8
0
100
AcDbBlockEnd
  0
ENDSEC
  0
SECTION
  2
ENTITIES
  0
LINE
  5
2470
330
1E
100
AcDbEntity
  8
7
100
AcDbLine
 10
3.180380290459713
 20
15.45974661910949
 30
0.0
 11
2.959149975499082
 21
15.45974661910949
 31
0.0
  0
LINE
  5
2471
330
1E
100
AcDbEntity
  8
7
100
AcDbLine
 10
2.267968873136878
 20
15.45974661910949
 30
0.0
 11
2.046738558176249
 21
15.45974661910949
 31
0.0
  0
LINE
  5
2472
330
1E
100
AcDbEntity
  8
7
100
AcDbLine
 10
3.747201156601445
 20
15.33669543800713
 30
0.0
 11
3.785163755026643
 21
15.33669543800713
 31
0.0
  0
LINE
  5
2478
330
1E
100
AcDbEntity
  8
7
100
AcDbLine
 10
3.745892101483335
 20
15.18615409942445
 30
0.0
 11
3.747201156601445
 21
15.32622299706225
 31
0.0
  0
LINE
  5
2483
330
1E
100
AcDbEntity
  8
7
100
AcDbLine
 10
1.441955093609319
 20
15.33669543800713
 30
0.0
 11
1.479917692034516
 21
15.33669543800713
 31
0.0
  0
LINE
  5
2498
330
1E
100
AcDbEntity
  8
7
100
AcDbLine
 10
1.479917692034516
 20
15.32622299706225
 30
0.0
 11
1.441955093609319
 21
15.32622299706225
 31
0.0
  0
LINE
  5
2499
330
1E
100
AcDbEntity
  8
7
100
AcDbLine
 10
1.440646038491208
 20
15.18615409942445
 30
0.0
 11
1.441955093609319
 21
15.32622299706225
 31
0.0
  0
LINE
  5
249A
330
1E
100
AcDbEntity
  8
7
100
AcDbLine
 10
1.479917692034516
 20
15.32622299706225
 30
0.0
 11
1.481226747152626
 21
15.18615409942445
 31
0.0
  0
LINE
  5
24AA
330
1E
100
AcDbEntity
  8
7
100
AcDbLine
 10
3.181689345577823
 20
15.38643953249532
 30
0.0
 11
3.180380290459713
 21
15.44272890257406
 31
0.0
  0
LINE
  5
24B6
330
1E
100
AcDbEntity
  8
7
100
AcDbLine
 10
2.269277928254989
 20
15.38643953249532
 30
0.0
 11
2.267968873136878
 21
15.44272890257406
 31
0.0
  0
LINE
  5
24B7
330
1E
100
AcDbEntity
  8
7
100
AcDbLine
 10
2.014012180223492
 20
15.18615409942445
 30
0.0
 11
2.014012180223492
 21
15.19400843013311
 31
0.0
  0
LINE
  5
24B8
330
1E
100
AcDbEntity
  8
7
100
AcDbLine
 10
2.014012180223492
 20
15.23458913879453
 30
0.0
 11
2.014012180223492
 21
15.19400843013311
 31
0.0
  0
LINE
  5
24BE
330
1E
100
AcDbEntity
  8
7
100
AcDbLine
 10
2.014012180223492
 20
15.2948056742276
 30
0.0
 11
2.014012180223492
 21
15.28956945375516
 31
0.0
  0
LINE
  5
24BF
330
1E
100
AcDbEntity
  8
7
100
AcDbLine
 10
2.014012180223492
 20
15.2948056742276
 30
0.0
 11
2.014012180223492
 21
15.38643953249532
 31
0.0
  0
LINE
  5
24C0
330
1E
100
AcDbEntity
  8
7
100
AcDbLine
 10
2.05852005423924
 20
15.38643953249532
 30
0.0
 11
2.05852005423924
 21
15.2948056742276
 31
0.0
  0
LINE
  5
24C1
330
1E
100
AcDbEntity
  8
7
100
AcDbLine
 10
2.05852005423924
 20
15.28956945375516
 30
0.0
 11
2.05852005423924
 21
15.2948056742276
 31
0.0
  0
LINE
  5
24C7
330
1E
100
AcDbEntity
  8
7
100
AcDbLine
 10
2.05852005423924
 20
15.19400843013311
 30
0.0
 11
2.05852005423924
 21
15.23458913879453
 31
0.0
  0
LINE
  5
24C8
330
1E
100
AcDbEntity
  8
7
100
AcDbLine
 10
2.05852005423924
 20
15.19400843013311
 30
0.0
 11
2.05982910935735
 21
15.18615409942445
 31
0.0
  0
LINE
  5
24C9
330
1E
100
AcDbEntity
  8
7
100
AcDbLine
 10
2.254878321955776
 20
15.18615409942445
 30
0.0
 11
2.254878321955776
 21
15.19400843013311
 31
0.0
  0
LINE
  5
24CA
330
1E
100
AcDbEntity
  8
7
100
AcDbLine
 10
2.256187377073886
 20
15.23458913879453
 30
0.0
 11
2.254878321955776
 21
15.19400843013311
 31
0.0
  0
LINE
  5
24CB
330
1E
100
AcDbEntity
  8
7
100
AcDbLine
 10
2.256187377073886
 20
15.28433323328272
 30
0.0
 11
2.256187377073886
 21
15.23458913879453
 31
0.0
  0
LINE
  5
24D1
330
1E
100
AcDbEntity
  8
7
100
AcDbLine
 10
2.256187377073886
 20
15.38643953249532
 30
0.0
 11
2.254878321955776
 21
15.2948056742276
 31
0.0
  0
LINE
  5
24D8
330
1E
100
AcDbEntity
  8
7
100
AcDbLine
 10
2.267968873136878
 20
15.44272890257406
 30
0.0
 11
2.046738558176249
 21
15.44272890257406
 31
0.0
  0
LINE
  5
24D9
330
1E
100
AcDbEntity
  8
7
100
AcDbLine
 10
2.300695251089635
 20
15.2948056742276
 30
0.0
 11
2.299386195971523
 21
15.38643953249532
 31
0.0
  0
LINE
  5
24DF
330
1E
100
AcDbEntity
  8
7
100
AcDbLine
 10
2.300695251089635
 20
15.23458913879453
 30
0.0
 11
2.300695251089635
 21
15.28433323328272
 31
0.0
  0
LINE
  5
24E0
330
1E
100
AcDbEntity
  8
7
100
AcDbLine
 10
2.300695251089635
 20
15.19400843013311
 30
0.0
 11
2.300695251089635
 21
15.23458913879453
 31
0.0
  0
LINE
  5
24E1
330
1E
100
AcDbEntity
  8
7
100
AcDbLine
 10
2.300695251089635
 20
15.19400843013311
 30
0.0
 11
2.300695251089635
 21
15.18615409942445
 31
0.0
  0
LINE
  5
24E2
330
1E
100
AcDbEntity
  8
7
100
AcDbLine
 10
3.213106668412469
 20
15.2948056742276
 30
0.0
 11
3.213106668412469
 21
15.38643953249532
 31
0.0
  0
LINE
  5
24E3
330
1E
100
AcDbEntity
  8
7
100
AcDbLine
 10
3.213106668412469
 20
15.28956945375516
 30
0.0
 11
3.213106668412469
 21
15.2948056742276
 31
0.0
  0
LINE
  5
24E9
330
1E
100
AcDbEntity
  8
7
100
AcDbLine
 10
3.213106668412469
 20
15.23458913879453
 30
0.0
 11
3.213106668412469
 21
15.19400843013311
 31
0.0
  0
LINE
  5
24EA
330
1E
100
AcDbEntity
  8
7
100
AcDbLine
 10
3.213106668412469
 20
15.18615409942445
 30
0.0
 11
3.213106668412469
 21
15.19400843013311
 31
0.0
  0
LINE
  5
24EB
330
1E
100
AcDbEntity
  8
7
100
AcDbLine
 10
3.168598794396721
 20
15.19400843013311
 30
0.0
 11
3.16728973927861
 21
15.18615409942445
 31
0.0
  0
LINE
  5
24F2
330
1E
100
AcDbEntity
  8
7
100
AcDbLine
 10
3.168598794396721
 20
15.2948056742276
 30
0.0
 11
3.168598794396721
 21
15.28956945375516
 31
0.0
  0
LINE
  5
24F3
330
1E
100
AcDbEntity
  8
7
100
AcDbLine
 10
3.168598794396721
 20
15.38643953249532
 30
0.0
 11
3.168598794396721
 21
15.2948056742276
 31
0.0
  0
LINE
  5
24FA
330
1E
100
AcDbEntity
  8
7
100
AcDbLine
 10
2.970931471562075
 20
15.23458913879453
 30
0.0
 11
2.970931471562075
 21
15.28433323328272
 31
0.0
  0
LINE
  5
24FB
330
1E
100
AcDbEntity
  8
7
100
AcDbLine
 10
2.970931471562075
 20
15.23458913879453
 30
0.0
 11
2.972240526680185
 21
15.19400843013311
 31
0.0
  0
LINE
  5
24FC
330
1E
100
AcDbEntity
  8
7
100
AcDbLine
 10
2.972240526680185
 20
15.18615409942445
 30
0.0
 11
2.972240526680185
 21
15.19400843013311
 31
0.0
  0
LINE
  5
24FD
330
1E
100
AcDbEntity
  8
7
100
AcDbLine
 10
3.180380290459713
 20
15.44272890257406
 30
0.0
 11
2.959149975499082
 21
15.44272890257406
 31
0.0
  0
LINE
  5
24FE
330
1E
100
AcDbEntity
  8
7
100
AcDbLine
 10
2.926423597546327
 20
15.19400843013311
 30
0.0
 11
2.926423597546327
 21
15.18615409942445
 31
0.0
  0
LINE
  5
24FF
330
1E
100
AcDbEntity
  8
7
100
AcDbLine
 10
2.926423597546327
 20
15.19400843013311
 30
0.0
 11
2.926423597546327
 21
15.23458913879453
 31
0.0
  0
LINE
  5
2500
330
1E
100
AcDbEntity
  8
7
100
AcDbLine
 10
2.926423597546327
 20
15.28433323328272
 30
0.0
 11
2.926423597546327
 21
15.23458913879453
 31
0.0
  0
LINE
  5
2507
330
1E
100
AcDbEntity
  8
7
100
AcDbLine
 10
4.228933440066012
 20
14.28945134351894
 30
0.0
 11
0.9981854085699492
 21
14.28945134351894
 31
0.0
  0
LINE
  5
2512
330
1E
100
AcDbEntity
  8
7
100
AcDbLine
 10
0.9981854085699492
 20
14.38501236714099
 30
0.0
 11
4.228933440066012
 21
14.38501236714099
 31
0.0
  0
LINE
  5
2528
330
1E
100
AcDbEntity
  8
7
100
AcDbLine
 10
0.8973881644754619
 20
14.38501236714099
 30
0.0
 11
0.8698980069951458
 21
15.18615409942445
 31
0.0
  0
LINE
  5
2529
330
1E
100
AcDbEntity
  8
7
100
AcDbLine
 10
0.9693861959715235
 20
15.18615409942445
 30
0.0
 11
0.9981854085699492
 21
14.38501236714099
 31
0.0
  0
LINE
  5
252A
330
1E
100
AcDbEntity
  8
7
100
AcDbLine
 10
4.257732652664438
 20
15.18615409942445
 30
0.0
 11
4.228933440066012
 21
14.38501236714099
 31
0.0
  0
LINE
  5
2539
330
1E
100
AcDbEntity
  8
7
100
AcDbLine
 10
4.3297306841605
 20
14.38501236714099
 30
0.0
 11
4.357220841640816
 21
15.18615409942445
 31
0.0
  0
LINE
  5
253A
330
1E
100
AcDbEntity
  8
7
100
AcDbLine
 10
2.254878321955776
 20
15.19400843013311
 30
0.0
 11
2.300695251089635
 21
15.19400843013311
 31
0.0
  0
LINE
  5
253B
330
1E
100
AcDbEntity
  8
7
100
AcDbLine
 10
2.256187377073886
 20
15.23458913879453
 30
0.0
 11
2.300695251089635
 21
15.23458913879453
 31
0.0
  0
LINE
  5
253C
330
1E
100
AcDbEntity
  8
7
100
AcDbLine
 10
2.300695251089635
 20
15.28433323328272
 30
0.0
 11
2.256187377073886
 21
15.28433323328272
 31
0.0
  0
LINE
  5
253D
330
1E
100
AcDbEntity
  8
7
100
AcDbLine
 10
2.256187377073886
 20
15.28956945375516
 30
0.0
 11
2.300695251089635
 21
15.28956945375516
 31
0.0
  0
LINE
  5
253E
330
1E
100
AcDbEntity
  8
7
100
AcDbLine
 10
2.254878321955776
 20
15.2948056742276
 30
0.0
 11
2.300695251089635
 21
15.2948056742276
 31
0.0
  0
LINE
  5
253F
330
1E
100
AcDbEntity
  8
7
100
AcDbLine
 10
2.256187377073886
 20
15.38643953249532
 30
0.0
 11
2.299386195971523
 21
15.38643953249532
 31
0.0
  0
LINE
  5
2540
330
1E
100
AcDbEntity
  8
7
100
AcDbLine
 10
2.05852005423924
 20
15.28433323328272
 30
0.0
 11
2.014012180223492
 21
15.28433323328272
 31
0.0
  0
LINE
  5
2541
330
1E
100
AcDbEntity
  8
7
100
AcDbLine
 10
2.014012180223492
 20
15.23458913879453
 30
0.0
 11
2.05852005423924
 21
15.23458913879453
 31
0.0
  0
LINE
  5
2542
330
1E
100
AcDbEntity
  8
7
100
AcDbLine
 10
2.014012180223492
 20
15.28956945375516
 30
0.0
 11
2.05852005423924
 21
15.28956945375516
 31
0.0
  0
LINE
  5
2543
330
1E
100
AcDbEntity
  8
7
100
AcDbLine
 10
2.014012180223492
 20
15.2948056742276
 30
0.0
 11
2.05852005423924
 21
15.2948056742276
 31
0.0
  0
LINE
  5
2544
330
1E
100
AcDbEntity
  8
7
100
AcDbLine
 10
2.014012180223492
 20
15.38643953249532
 30
0.0
 11
2.05852005423924
 21
15.38643953249532
 31
0.0
  0
LINE
  5
2545
330
1E
100
AcDbEntity
  8
7
100
AcDbLine
 10
2.014012180223492
 20
15.19400843013311
 30
0.0
 11
2.05852005423924
 21
15.19400843013311
 31
0.0
  0
LINE
  5
2546
330
1E
100
AcDbEntity
  8
7
100
AcDbLine
 10
2.970931471562075
 20
15.38643953249532
 30
0.0
 11
2.927732652664437
 21
15.38643953249532
 31
0.0
  0
LINE
  5
2547
330
1E
100
AcDbEntity
  8
7
100
AcDbLine
 10
2.972240526680185
 20
15.2948056742276
 30
0.0
 11
2.926423597546327
 21
15.2948056742276
 31
0.0
  0
LINE
  5
2548
330
1E
100
AcDbEntity
  8
7
100
AcDbLine
 10
2.926423597546327
 20
15.28956945375516
 30
0.0
 11
2.970931471562075
 21
15.28956945375516
 31
0.0
  0
LINE
  5
2549
330
1E
100
AcDbEntity
  8
7
100
AcDbLine
 10
2.970931471562075
 20
15.28433323328272
 30
0.0
 11
2.926423597546327
 21
15.28433323328272
 31
0.0
  0
LINE
  5
254A
330
1E
100
AcDbEntity
  8
7
100
AcDbLine
 10
2.926423597546327
 20
15.23458913879453
 30
0.0
 11
2.970931471562075
 21
15.23458913879453
 31
0.0
  0
LINE
  5
254B
330
1E
100
AcDbEntity
  8
7
100
AcDbLine
 10
2.972240526680185
 20
15.19400843013311
 30
0.0
 11
2.926423597546327
 21
15.19400843013311
 31
0.0
  0
LINE
  5
254C
330
1E
100
AcDbEntity
  8
7
100
AcDbLine
 10
3.213106668412469
 20
15.2948056742276
 30
0.0
 11
3.168598794396721
 21
15.2948056742276
 31
0.0
  0
LINE
  5
254D
330
1E
100
AcDbEntity
  8
7
100
AcDbLine
 10
3.213106668412469
 20
15.38643953249532
 30
0.0
 11
3.168598794396721
 21
15.38643953249532
 31
0.0
  0
LINE
  5
254E
330
1E
100
AcDbEntity
  8
7
100
AcDbLine
 10
3.168598794396721
 20
15.28956945375516
 30
0.0
 11
3.213106668412469
 21
15.28956945375516
 31
0.0
  0
LINE
  5
254F
330
1E
100
AcDbEntity
  8
7
100
AcDbLine
 10
3.213106668412469
 20
15.28433323328272
 30
0.0
 11
3.168598794396721
 21
15.28433323328272
 31
0.0
  0
LINE
  5
2550
330
1E
100
AcDbEntity
  8
7
100
AcDbLine
 10
3.168598794396721
 20
15.23458913879453
 30
0.0
 11
3.213106668412469
 21
15.23458913879453
 31
0.0
  0
LINE
  5
2551
330
1E
100
AcDbEntity
  8
7
100
AcDbLine
 10
3.213106668412469
 20
15.19400843013311
 30
0.0
 11
3.168598794396721
 21
15.19400843013311
 31
0.0
  0
LINE
  5
2552
330
1E
100
AcDbEntity
  8
7
100
AcDbLine
 10
1.373884227467586
 20
15.28695134351894
 30
0.0
 11
1.375193282585697
 21
15.18615409942445
 31
0.0
  0
LINE
  5
2553
330
1E
100
AcDbEntity
  8
7
100
AcDbLine
 10
1.307122416443964
 20
15.28695134351894
 30
0.0
 11
1.373884227467586
 21
15.28695134351894
 31
0.0
  0
LINE
  5
2561
330
1E
100
AcDbEntity
  8
7
100
AcDbLine
 10
3.930468873136879
 20
15.27647890257406
 30
0.0
 11
3.930468873136879
 21
15.20186276084178
 31
0.0
  0
LINE
  5
256C
330
1E
100
AcDbEntity
  8
7
100
AcDbLine
 10
2.016630290459713
 20
10.91601630414886
 30
0.0
 11
2.016630290459713
 21
10.95005173721973
 31
0.0
  0
LINE
  5
258C
330
1E
100
AcDbEntity
  8
7
100
AcDbLine
 10
4.357220841640816
 20
10.95659701281028
 30
0.0
 11
4.357220841640816
 21
12.4554651230465
 31
0.0
  0
LINE
  5
2595
330
1E
100
AcDbEntity
  8
7
100
AcDbLine
 10
3.270705093609318
 20
10.85579976871579
 30
0.0
 11
4.257732652664438
 21
10.85579976871579
 31
0.0
  0
LINE
  5
25A0
330
1E
100
AcDbEntity
  8
7
100
AcDbLine
 10
3.210488558176249
 20
10.91601630414886
 30
0.0
 11
3.210488558176249
 21
10.95005173721973
 31
0.0
  0
LINE
  5
25A1
330
1E
100
AcDbEntity
  8
7
100
AcDbLine
 10
2.016630290459713
 20
10.95005173721973
 30
0.0
 11
2.008775959751051
 21
10.96314228840083
 31
0.0
  0
LINE
  5
25A2
330
1E
100
AcDbEntity
  8
7
100
AcDbLine
 10
3.210488558176249
 20
10.95005173721973
 30
0.0
 11
3.218342888884909
 21
10.96314228840083
 31
0.0
  0
LINE
  5
25A3
330
1E
100
AcDbEntity
  8
7
100
AcDbLine
 10
3.192161786522705
 20
10.98539622540871
 30
0.0
 11
3.190852731404595
 21
10.98408717029059
 31
0.0
  0
LINE
  5
25A4
330
1E
100
AcDbEntity
  8
7
100
AcDbLine
 10
3.190852731404595
 20
10.98146906005438
 30
0.0
 11
3.190852731404595
 21
10.98408717029059
 31
0.0
  0
LINE
  5
25A5
330
1E
100
AcDbEntity
  8
7
100
AcDbLine
 10
3.184307455814044
 20
10.94874268210162
 30
0.0
 11
3.190852731404595
 21
10.98146906005438
 31
0.0
  0
LINE
  5
25A6
330
1E
100
AcDbEntity
  8
7
100
AcDbLine
 10
3.182998400695933
 20
10.93565213092052
 30
0.0
 11
3.184307455814044
 21
10.94874268210162
 31
0.0
  0
LINE
  5
25AC
330
1E
100
AcDbEntity
  8
7
100
AcDbLine
 10
3.182998400695933
 20
10.87674465060556
 30
0.0
 11
3.182998400695933
 21
10.91601630414886
 31
0.0
  0
LINE
  5
25B4
330
1E
100
AcDbEntity
  8
7
100
AcDbLine
 10
2.955222810144753
 20
10.94874268210162
 30
0.0
 11
2.9486775345542
 21
10.98146906005438
 31
0.0
  0
LINE
  5
25B5
330
1E
100
AcDbEntity
  8
7
100
AcDbLine
 10
2.947368479436091
 20
10.98539622540871
 30
0.0
 11
2.9486775345542
 21
10.98146906005438
 31
0.0
  0
LINE
  5
25B6
330
1E
100
AcDbEntity
  8
7
100
AcDbLine
 10
2.279750369199871
 20
10.98539622540871
 30
0.0
 11
2.27844131408176
 21
10.98146906005438
 31
0.0
  0
LINE
  5
25B7
330
1E
100
AcDbEntity
  8
7
100
AcDbLine
 10
2.271896038491209
 20
10.94874268210162
 30
0.0
 11
2.27844131408176
 21
10.98146906005438
 31
0.0
  0
LINE
  5
25BF
330
1E
100
AcDbEntity
  8
7
100
AcDbLine
 10
2.044120447940027
 20
10.91601630414886
 30
0.0
 11
2.044120447940027
 21
10.87674465060556
 31
0.0
  0
LINE
  5
25C5
330
1E
100
AcDbEntity
  8
7
100
AcDbLine
 10
2.042811392821918
 20
10.94874268210162
 30
0.0
 11
2.044120447940027
 21
10.93565213092052
 31
0.0
  0
LINE
  5
25CB
330
1E
100
AcDbEntity
  8
7
100
AcDbLine
 10
2.034957062113257
 20
10.98539622540871
 30
0.0
 11
2.036266117231367
 21
10.98408717029059
 31
0.0
  0
LINE
  5
25CC
330
1E
100
AcDbEntity
  8
7
100
AcDbLine
 10
2.271896038491209
 20
10.94874268210162
 30
0.0
 11
2.042811392821918
 21
10.94874268210162
 31
0.0
  0
LINE
  5
25CD
330
1E
100
AcDbEntity
  8
7
100
AcDbLine
 10
2.27844131408176
 20
10.98146906005438
 30
0.0
 11
2.036266117231367
 21
10.98146906005438
 31
0.0
  0
LINE
  5
25CE
330
1E
100
AcDbEntity
  8
7
100
AcDbLine
 10
3.184307455814044
 20
10.94874268210162
 30
0.0
 11
2.955222810144753
 21
10.94874268210162
 31
0.0
  0
LINE
  5
25CF
330
1E
100
AcDbEntity
  8
7
100
AcDbLine
 10
2.9486775345542
 20
10.98146906005438
 30
0.0
 11
3.190852731404595
 21
10.98146906005438
 31
0.0
  0
LINE
  5
25D0
330
1E
100
AcDbEntity
  8
7
100
AcDbLine
 10
1.787545644790422
 20
11.92922496556618
 30
0.0
 11
1.61344131408176
 21
11.92922496556618
 31
0.0
  0
LINE
  5
25D6
330
1E
100
AcDbEntity
  8
7
100
AcDbLine
 10
1.787545644790422
 20
11.96849661910949
 30
0.0
 11
1.787545644790422
 21
11.92922496556618
 31
0.0
  0
LINE
  5
25D7
330
1E
100
AcDbEntity
  8
7
100
AcDbLine
 10
1.944632258963649
 20
11.24458913879453
 30
0.0
 11
1.944632258963649
 21
11.31004189470004
 31
0.0
  0
LINE
  5
25D8
330
1E
100
AcDbEntity
  8
7
100
AcDbLine
 10
1.456354699908532
 20
11.31004189470004
 30
0.0
 11
1.456354699908532
 21
11.24458913879453
 31
0.0
  0
LINE
  5
25DE
330
1E
100
AcDbEntity
  8
7
100
AcDbLine
 10
1.61344131408176
 20
11.96849661910949
 30
0.0
 11
1.389592888884909
 21
11.96849661910949
 31
0.0
  0
LINE
  5
25DF
330
1E
100
AcDbEntity
  8
7
100
AcDbLine
 10
2.012703125105382
 20
11.96849661910949
 30
0.0
 11
1.787545644790422
 21
11.96849661910949
 31
0.0
  0
LINE
  5
25E5
330
1E
100
AcDbEntity
  8
7
100
AcDbLine
 10
2.302004306207744
 20
11.96849661910949
 30
0.0
 11
2.302004306207744
 21
11.31004189470004
 31
0.0
  0
LINE
  5
25E6
330
1E
100
AcDbEntity
  8
7
100
AcDbLine
 10
2.525852731404595
 20
11.96849661910949
 30
0.0
 11
2.302004306207744
 21
11.96849661910949
 31
0.0
  0
LINE
  5
25E7
330
1E
100
AcDbEntity
  8
7
100
AcDbLine
 10
2.368766117231367
 20
11.31004189470004
 30
0.0
 11
2.368766117231367
 21
11.24458913879453
 31
0.0
  0
LINE
  5
25E8
330
1E
100
AcDbEntity
  8
7
100
AcDbLine
 10
2.368766117231367
 20
11.31004189470004
 30
0.0
 11
2.302004306207744
 21
11.31004189470004
 31
0.0
  0
LINE
  5
25E9
330
1E
100
AcDbEntity
  8
7
100
AcDbLine
 10
2.701266117231367
 20
11.96849661910949
 30
0.0
 11
2.525852731404595
 21
11.96849661910949
 31
0.0
  0
LINE
  5
25EF
330
1E
100
AcDbEntity
  8
7
100
AcDbLine
 10
2.300695251089635
 20
11.96849661910949
 30
0.0
 11
2.926423597546327
 21
11.96849661910949
 31
0.0
  0
LINE
  5
25F0
330
1E
100
AcDbEntity
  8
7
100
AcDbLine
 10
2.302004306207744
 20
11.96849661910949
 30
0.0
 11
2.300695251089635
 21
11.96849661910949
 31
0.0
  0
LINE
  5
25F1
330
1E
100
AcDbEntity
  8
7
100
AcDbLine
 10
2.300695251089635
 20
11.96849661910949
 30
0.0
 11
2.300695251089635
 21
11.30873283958193
 31
0.0
  0
LINE
  5
25F2
330
1E
100
AcDbEntity
  8
7
100
AcDbLine
 10
2.302004306207744
 20
11.31004189470004
 30
0.0
 11
2.300695251089635
 21
11.30873283958193
 31
0.0
  0
LINE
  5
25F3
330
1E
100
AcDbEntity
  8
7
100
AcDbLine
 10
2.368766117231367
 20
11.30873283958193
 30
0.0
 11
2.300695251089635
 21
11.30873283958193
 31
0.0
  0
LINE
  5
25F4
330
1E
100
AcDbEntity
  8
7
100
AcDbLine
 10
2.368766117231367
 20
11.30873283958193
 30
0.0
 11
2.368766117231367
 21
11.31004189470004
 31
0.0
  0
LINE
  5
25F5
330
1E
100
AcDbEntity
  8
7
100
AcDbLine
 10
2.014012180223492
 20
11.96849661910949
 30
0.0
 11
2.012703125105382
 21
11.96849661910949
 31
0.0
  0
LINE
  5
25F6
330
1E
100
AcDbEntity
  8
7
100
AcDbLine
 10
1.388283833766799
 20
11.96849661910949
 30
0.0
 11
2.014012180223492
 21
11.96849661910949
 31
0.0
  0
LINE
  5
25F7
330
1E
100
AcDbEntity
  8
7
100
AcDbLine
 10
1.388283833766799
 20
11.96849661910949
 30
0.0
 11
1.389592888884909
 21
11.96849661910949
 31
0.0
  0
LINE
  5
25F8
330
1E
100
AcDbEntity
  8
7
100
AcDbLine
 10
1.389592888884909
 20
11.31004189470004
 30
0.0
 11
1.388283833766799
 21
11.30873283958193
 31
0.0
  0
LINE
  5
25F9
330
1E
100
AcDbEntity
  8
7
100
AcDbLine
 10
1.388283833766799
 20
11.96849661910949
 30
0.0
 11
1.388283833766799
 21
11.30873283958193
 31
0.0
  0
LINE
  5
25FA
330
1E
100
AcDbEntity
  8
7
100
AcDbLine
 10
1.455045644790422
 20
11.30873283958193
 30
0.0
 11
1.456354699908532
 21
11.31004189470004
 31
0.0
  0
LINE
  5
25FB
330
1E
100
AcDbEntity
  8
7
100
AcDbLine
 10
1.455045644790422
 20
11.30873283958193
 30
0.0
 11
1.388283833766799
 21
11.30873283958193
 31
0.0
  0
LINE
  5
25FC
330
1E
100
AcDbEntity
  8
7
100
AcDbLine
 10
1.455045644790422
 20
11.24328008367642
 30
0.0
 11
1.456354699908532
 21
11.24458913879453
 31
0.0
  0
LINE
  5
25FD
330
1E
100
AcDbEntity
  8
7
100
AcDbLine
 10
1.455045644790422
 20
11.24328008367642
 30
0.0
 11
1.455045644790422
 21
11.30873283958193
 31
0.0
  0
LINE
  5
25FE
330
1E
100
AcDbEntity
  8
7
100
AcDbLine
 10
1.944632258963649
 20
11.24458913879453
 30
0.0
 11
1.94594131408176
 21
11.24328008367642
 31
0.0
  0
LINE
  5
25FF
330
1E
100
AcDbEntity
  8
7
100
AcDbLine
 10
1.94594131408176
 20
11.30873283958193
 30
0.0
 11
1.94594131408176
 21
11.24328008367642
 31
0.0
  0
LINE
  5
2600
330
1E
100
AcDbEntity
  8
7
100
AcDbLine
 10
1.94594131408176
 20
11.30873283958193
 30
0.0
 11
1.944632258963649
 21
11.31004189470004
 31
0.0
  0
LINE
  5
2601
330
1E
100
AcDbEntity
  8
7
100
AcDbLine
 10
2.014012180223492
 20
11.30873283958193
 30
0.0
 11
1.94594131408176
 21
11.30873283958193
 31
0.0
  0
LINE
  5
2602
330
1E
100
AcDbEntity
  8
7
100
AcDbLine
 10
2.014012180223492
 20
11.30873283958193
 30
0.0
 11
2.012703125105382
 21
11.31004189470004
 31
0.0
  0
LINE
  5
2603
330
1E
100
AcDbEntity
  8
7
100
AcDbLine
 10
2.014012180223492
 20
11.96849661910949
 30
0.0
 11
2.014012180223492
 21
11.30873283958193
 31
0.0
  0
LINE
  5
2604
330
1E
100
AcDbEntity
  8
7
100
AcDbLine
 10
2.368766117231367
 20
11.30873283958193
 30
0.0
 11
2.368766117231367
 21
11.24328008367642
 31
0.0
  0
LINE
  5
2605
330
1E
100
AcDbEntity
  8
7
100
AcDbLine
 10
2.368766117231367
 20
11.24458913879453
 30
0.0
 11
2.368766117231367
 21
11.24328008367642
 31
0.0
  0
LINE
  5
2623
330
1E
100
AcDbEntity
  8
7
100
AcDbLine
 10
4.228933440066012
 20
12.42797496556619
 30
0.0
 11
0.9981854085699492
 21
12.42797496556619
 31
0.0
  0
LINE
  5
262B
330
1E
100
AcDbEntity
  8
7
100
AcDbLine
 10
0.9981854085699492
 20
12.52746315454256
 30
0.0
 11
4.228933440066012
 21
12.52746315454256
 31
0.0
  0
LINE
  5
2633
330
1E
100
AcDbEntity
  8
7
100
AcDbLine
 10
2.372693282585697
 20
10.99455961123548
 30
0.0
 11
2.372693282585697
 21
10.98408717029059
 31
0.0
  0
LINE
  5
263B
330
1E
100
AcDbEntity
  8
7
100
AcDbLine
 10
2.312476747152626
 20
10.98408717029059
 30
0.0
 11
2.312476747152626
 21
10.99325055611737
 31
0.0
  0
LINE
  5
2642
330
1E
100
AcDbEntity
  8
7
100
AcDbLine
 10
2.00092162904239
 20
10.99325055611737
 30
0.0
 11
2.00092162904239
 21
10.98408717029059
 31
0.0
  0
LINE
  5
2643
330
1E
100
AcDbEntity
  8
7
100
AcDbLine
 10
1.94201414872743
 20
10.99455961123548
 30
0.0
 11
1.964268085735303
 21
10.99325055611737
 31
0.0
  0
LINE
  5
264A
330
1E
100
AcDbEntity
  8
7
100
AcDbLine
 10
1.94201414872743
 20
10.98408717029059
 30
0.0
 11
1.94201414872743
 21
10.99455961123548
 31
0.0
  0
LINE
  5
2658
330
1E
100
AcDbEntity
  8
7
100
AcDbLine
 10
0.9065515503022325
 20
12.42797496556619
 30
0.0
 11
0.8973881644754619
 21
12.42797496556619
 31
0.0
  0
LINE
  5
2659
330
1E
100
AcDbEntity
  8
7
100
AcDbLine
 10
0.8973881644754619
 20
10.98408717029059
 30
0.0
 11
0.8973881644754619
 21
12.42797496556619
 31
0.0
  0
LINE
  5
2661
330
1E
100
AcDbEntity
  8
7
100
AcDbLine
 10
0.9981854085699492
 20
12.42797496556619
 30
0.0
 11
0.9981854085699492
 21
10.98408717029059
 31
0.0
  0
LINE
  5
2662
330
1E
100
AcDbEntity
  8
7
100
AcDbLine
 10
0.8973881644754619
 20
10.98408717029059
 30
0.0
 11
0.9052424951841224
 21
10.9461245718654
 31
0.0
  0
LINE
  5
2670
330
1E
100
AcDbEntity
  8
7
100
AcDbLine
 10
1.828126353451839
 20
11.24458913879453
 30
0.0
 11
1.944632258963649
 21
11.24458913879453
 31
0.0
  0
LINE
  5
2671
330
1E
100
AcDbEntity
  8
7
100
AcDbLine
 10
1.94594131408176
 20
11.24328008367642
 30
0.0
 11
1.455045644790422
 21
11.24328008367642
 31
0.0
  0
LINE
  5
2672
330
1E
100
AcDbEntity
  8
7
100
AcDbLine
 10
1.828126353451839
 20
11.24458913879453
 30
0.0
 11
1.803254306207744
 21
11.25637063485752
 31
0.0
  0
LINE
  5
2673
330
1E
100
AcDbEntity
  8
7
100
AcDbLine
 10
1.597732652664437
 20
11.25637063485752
 30
0.0
 11
1.803254306207744
 21
11.25637063485752
 31
0.0
  0
LINE
  5
2674
330
1E
100
AcDbEntity
  8
7
100
AcDbLine
 10
1.597732652664437
 20
11.25637063485752
 30
0.0
 11
1.574169660538453
 21
11.24458913879453
 31
0.0
  0
LINE
  5
2675
330
1E
100
AcDbEntity
  8
7
100
AcDbLine
 10
1.456354699908532
 20
11.24458913879453
 30
0.0
 11
1.574169660538453
 21
11.24458913879453
 31
0.0
  0
LINE
  5
267E
330
1E
100
AcDbEntity
  8
7
100
AcDbLine
 10
1.94201414872743
 20
10.95397890257406
 30
0.0
 11
1.94201414872743
 21
10.98408717029059
 31
0.0
  0
LINE
  5
267F
330
1E
100
AcDbEntity
  8
7
100
AcDbLine
 10
0.9981854085699492
 20
10.98408717029059
 30
0.0
 11
1.94201414872743
 21
10.98408717029059
 31
0.0
  0
LINE
  5
268C
330
1E
100
AcDbEntity
  8
7
100
AcDbLine
 10
2.368766117231367
 20
11.24458913879453
 30
0.0
 11
2.486581077861287
 21
11.24458913879453
 31
0.0
  0
LINE
  5
2692
330
1E
100
AcDbEntity
  8
7
100
AcDbLine
 10
1.599041707782548
 20
11.28255173721973
 30
0.0
 11
1.599041707782548
 21
11.27207929627485
 31
0.0
  0
LINE
  5
2698
330
1E
100
AcDbEntity
  8
7
100
AcDbLine
 10
1.597732652664437
 20
11.32313244588114
 30
0.0
 11
1.597732652664437
 21
11.31789622540871
 31
0.0
  0
LINE
  5
2699
330
1E
100
AcDbEntity
  8
7
100
AcDbLine
 10
1.597732652664437
 20
11.35324071359768
 30
0.0
 11
1.597732652664437
 21
11.32313244588114
 31
0.0
  0
LINE
  5
269A
330
1E
100
AcDbEntity
  8
7
100
AcDbLine
 10
1.803254306207744
 20
11.35324071359768
 30
0.0
 11
1.803254306207744
 21
11.32313244588114
 31
0.0
  0
LINE
  5
269B
330
1E
100
AcDbEntity
  8
7
100
AcDbLine
 10
1.803254306207744
 20
11.31789622540871
 30
0.0
 11
1.803254306207744
 21
11.32313244588114
 31
0.0
  0
LINE
  5
26A1
330
1E
100
AcDbEntity
  8
7
100
AcDbLine
 10
1.803254306207744
 20
11.28255173721973
 30
0.0
 11
1.803254306207744
 21
11.27207929627485
 31
0.0
  0
LINE
  5
26A8
330
1E
100
AcDbEntity
  8
7
100
AcDbLine
 10
2.372693282585697
 20
10.88459898131421
 30
0.0
 11
2.854425566050263
 21
10.88459898131421
 31
0.0
  0
LINE
  5
26B1
330
1E
100
AcDbEntity
  8
7
100
AcDbLine
 10
2.372693282585697
 20
10.98408717029059
 30
0.0
 11
2.854425566050263
 21
10.98408717029059
 31
0.0
  0
LINE
  5
26B2
330
1E
100
AcDbEntity
  8
7
100
AcDbLine
 10
2.854425566050263
 20
10.99455961123548
 30
0.0
 11
2.854425566050263
 21
10.98408717029059
 31
0.0
  0
LINE
  5
26B3
330
1E
100
AcDbEntity
  8
7
100
AcDbLine
 10
3.285104699908532
 20
10.99455961123548
 30
0.0
 11
2.854425566050263
 21
10.99455961123548
 31
0.0
  0
LINE
  5
26B4
330
1E
100
AcDbEntity
  8
7
100
AcDbLine
 10
3.285104699908532
 20
10.98408717029059
 30
0.0
 11
3.285104699908532
 21
10.99455961123548
 31
0.0
  0
LINE
  5
26B5
330
1E
100
AcDbEntity
  8
7
100
AcDbLine
 10
4.228933440066012
 20
10.98408717029059
 30
0.0
 11
3.285104699908532
 21
10.98408717029059
 31
0.0
  0
LINE
  5
26B6
330
1E
100
AcDbEntity
  8
7
100
AcDbLine
 10
4.228933440066012
 20
12.42797496556619
 30
0.0
 11
4.228933440066012
 21
10.98408717029059
 31
0.0
  0
LINE
  5
26B7
330
1E
100
AcDbEntity
  8
7
100
AcDbLine
 10
1.94201414872743
 20
10.99455961123548
 30
0.0
 11
2.372693282585697
 21
10.99455961123548
 31
0.0
  0
LINE
  5
26B8
330
1E
100
AcDbEntity
  8
7
100
AcDbLine
 10
2.858352731404595
 20
11.30873283958193
 30
0.0
 11
2.858352731404595
 21
11.24328008367642
 31
0.0
  0
LINE
  5
26B9
330
1E
100
AcDbEntity
  8
7
100
AcDbLine
 10
2.368766117231367
 20
11.24328008367642
 30
0.0
 11
2.858352731404595
 21
11.24328008367642
 31
0.0
  0
LINE
  5
26BA
330
1E
100
AcDbEntity
  8
7
100
AcDbLine
 10
2.926423597546327
 20
11.96849661910949
 30
0.0
 11
2.926423597546327
 21
11.30873283958193
 31
0.0
  0
LINE
  5
26BB
330
1E
100
AcDbEntity
  8
7
100
AcDbLine
 10
2.858352731404595
 20
11.30873283958193
 30
0.0
 11
2.926423597546327
 21
11.30873283958193
 31
0.0
  0
LINE
  5
26BC
330
1E
100
AcDbEntity
  8
7
100
AcDbLine
 10
3.213106668412469
 20
11.96849661910949
 30
0.0
 11
3.213106668412469
 21
11.30873283958193
 31
0.0
  0
LINE
  5
26BD
330
1E
100
AcDbEntity
  8
7
100
AcDbLine
 10
3.838835014869162
 20
11.96849661910949
 30
0.0
 11
3.213106668412469
 21
11.96849661910949
 31
0.0
  0
LINE
  5
26BE
330
1E
100
AcDbEntity
  8
7
100
AcDbLine
 10
3.838835014869162
 20
11.96849661910949
 30
0.0
 11
3.838835014869162
 21
11.30873283958193
 31
0.0
  0
LINE
  5
26BF
330
1E
100
AcDbEntity
  8
7
100
AcDbLine
 10
3.77207320384554
 20
11.30873283958193
 30
0.0
 11
3.838835014869162
 21
11.30873283958193
 31
0.0
  0
LINE
  5
26C0
330
1E
100
AcDbEntity
  8
7
100
AcDbLine
 10
3.77207320384554
 20
11.24328008367642
 30
0.0
 11
3.77207320384554
 21
11.30873283958193
 31
0.0
  0
LINE
  5
26C1
330
1E
100
AcDbEntity
  8
7
100
AcDbLine
 10
3.281177534554201
 20
11.24328008367642
 30
0.0
 11
3.77207320384554
 21
11.24328008367642
 31
0.0
  0
LINE
  5
26C2
330
1E
100
AcDbEntity
  8
7
100
AcDbLine
 10
3.281177534554201
 20
11.30873283958193
 30
0.0
 11
3.281177534554201
 21
11.24328008367642
 31
0.0
  0
LINE
  5
26C3
330
1E
100
AcDbEntity
  8
7
100
AcDbLine
 10
3.213106668412469
 20
11.30873283958193
 30
0.0
 11
3.281177534554201
 21
11.30873283958193
 31
0.0
  0
LINE
  5
26C4
330
1E
100
AcDbEntity
  8
7
100
AcDbLine
 10
2.858352731404595
 20
11.24458913879453
 30
0.0
 11
2.858352731404595
 21
11.24328008367642
 31
0.0
  0
LINE
  5
26CB
330
1E
100
AcDbEntity
  8
7
100
AcDbLine
 10
2.486581077861287
 20
11.24458913879453
 30
0.0
 11
2.510144069987272
 21
11.25637063485752
 31
0.0
  0
LINE
  5
26CC
330
1E
100
AcDbEntity
  8
7
100
AcDbLine
 10
2.036266117231367
 20
10.98539622540871
 30
0.0
 11
2.036266117231367
 21
10.98408717029059
 31
0.0
  0
LINE
  5
26CD
330
1E
100
AcDbEntity
  8
7
100
AcDbLine
 10
2.036266117231367
 20
10.98539622540871
 30
0.0
 11
2.279750369199871
 21
10.98539622540871
 31
0.0
  0
LINE
  5
26CE
330
1E
100
AcDbEntity
  8
7
100
AcDbLine
 10
1.956413755026641
 20
10.85579976871579
 30
0.0
 11
1.94201414872743
 21
10.88459898131421
 31
0.0
  0
LINE
  5
26CF
330
1E
100
AcDbEntity
  8
7
100
AcDbLine
 10
2.0022306841605
 20
10.94481551674729
 30
0.0
 11
2.016630290459713
 21
10.91601630414886
 31
0.0
  0
LINE
  5
26D0
330
1E
100
AcDbEntity
  8
7
100
AcDbLine
 10
0.9693861959715235
 20
10.85579976871579
 30
0.0
 11
0.9981854085699492
 21
10.88459898131421
 31
0.0
  0
LINE
  5
26D1
330
1E
100
AcDbEntity
  8
7
100
AcDbLine
 10
0.8973881644754619
 20
10.98408717029059
 30
0.0
 11
0.8698980069951458
 21
10.95659701281028
 31
0.0
  0
LINE
  5
26D2
330
1E
100
AcDbEntity
  8
7
100
AcDbLine
 10
0.8973881644754619
 20
12.42797496556619
 30
0.0
 11
0.8698980069951458
 21
12.4554651230465
 31
0.0
  0
LINE
  5
26D3
330
1E
100
AcDbEntity
  8
7
100
AcDbLine
 10
0.9693861959715235
 20
12.55495331202288
 30
0.0
 11
0.9981854085699492
 21
12.52746315454256
 31
0.0
  0
LINE
  5
26D4
330
1E
100
AcDbEntity
  8
7
100
AcDbLine
 10
2.008775959751051
 20
10.96314228840083
 30
0.0
 11
2.008775959751051
 21
10.98539622540871
 31
0.0
  0
LINE
  5
26DA
330
1E
100
AcDbEntity
  8
7
100
AcDbLine
 10
2.27844131408176
 20
10.98539622540871
 30
0.0
 11
2.304622416443964
 21
10.98539622540871
 31
0.0
  0
LINE
  5
26DB
330
1E
100
AcDbEntity
  8
7
100
AcDbLine
 10
2.312476747152626
 20
10.99325055611737
 30
0.0
 11
2.304622416443964
 21
10.98539622540871
 31
0.0
  0
LINE
  5
26DC
330
1E
100
AcDbEntity
  8
7
100
AcDbLine
 10
4.257732652664438
 20
12.55495331202288
 30
0.0
 11
4.228933440066012
 21
12.52746315454256
 31
0.0
  0
LINE
  5
26DD
330
1E
100
AcDbEntity
  8
7
100
AcDbLine
 10
2.304622416443964
 20
10.96314228840083
 30
0.0
 11
2.304622416443964
 21
10.98539622540871
 31
0.0
  0
LINE
  5
26DE
330
1E
100
AcDbEntity
  8
7
100
AcDbLine
 10
2.304622416443964
 20
10.96314228840083
 30
0.0
 11
2.304622416443964
 21
10.96183323328272
 31
0.0
  0
LINE
  5
26DF
330
1E
100
AcDbEntity
  8
7
100
AcDbLine
 10
2.304622416443964
 20
10.96052417816461
 30
0.0
 11
2.304622416443964
 21
10.96183323328272
 31
0.0
  0
LINE
  5
26E0
330
1E
100
AcDbEntity
  8
7
100
AcDbLine
 10
2.298077140853413
 20
10.95005173721973
 30
0.0
 11
2.304622416443964
 21
10.96052417816461
 31
0.0
  0
LINE
  5
26E1
330
1E
100
AcDbEntity
  8
7
100
AcDbLine
 10
2.298077140853413
 20
10.91601630414886
 30
0.0
 11
2.298077140853413
 21
10.95005173721973
 31
0.0
  0
LINE
  5
26E2
330
1E
100
AcDbEntity
  8
7
100
AcDbLine
 10
2.298077140853413
 20
10.91601630414886
 30
0.0
 11
2.312476747152626
 21
10.94481551674729
 31
0.0
  0
LINE
  5
26E8
330
1E
100
AcDbEntity
  8
7
100
AcDbLine
 10
2.511453125105382
 20
11.28255173721973
 30
0.0
 11
2.511453125105382
 21
11.27207929627485
 31
0.0
  0
LINE
  5
26EF
330
1E
100
AcDbEntity
  8
7
100
AcDbLine
 10
2.510144069987272
 20
11.35324071359768
 30
0.0
 11
2.510144069987272
 21
11.32313244588114
 31
0.0
  0
LINE
  5
26F5
330
1E
100
AcDbEntity
  8
7
100
AcDbLine
 10
2.511453125105382
 20
11.27207929627485
 30
0.0
 11
2.715665723530579
 21
11.27207929627485
 31
0.0
  0
LINE
  5
26F6
330
1E
100
AcDbEntity
  8
7
100
AcDbLine
 10
2.372693282585697
 20
10.88459898131421
 30
0.0
 11
2.358293676286485
 21
10.85579976871579
 31
0.0
  0
LINE
  5
26F7
330
1E
100
AcDbEntity
  8
7
100
AcDbLine
 10
2.868825172349477
 20
10.85579976871579
 30
0.0
 11
2.358293676286485
 21
10.85579976871579
 31
0.0
  0
LINE
  5
26F8
330
1E
100
AcDbEntity
  8
7
100
AcDbLine
 10
2.854425566050263
 20
10.88459898131421
 30
0.0
 11
2.868825172349477
 21
10.85579976871579
 31
0.0
  0
LINE
  5
26F9
330
1E
100
AcDbEntity
  8
7
100
AcDbLine
 10
2.922496432191996
 20
10.96314228840083
 30
0.0
 11
2.922496432191996
 21
10.96183323328272
 31
0.0
  0
LINE
  5
26FA
330
1E
100
AcDbEntity
  8
7
100
AcDbLine
 10
2.922496432191996
 20
10.96052417816461
 30
0.0
 11
2.922496432191996
 21
10.96183323328272
 31
0.0
  0
LINE
  5
26FB
330
1E
100
AcDbEntity
  8
7
100
AcDbLine
 10
2.929041707782548
 20
10.95005173721973
 30
0.0
 11
2.922496432191996
 21
10.96052417816461
 31
0.0
  0
LINE
  5
2703
330
1E
100
AcDbEntity
  8
7
100
AcDbLine
 10
2.929041707782548
 20
10.91601630414886
 30
0.0
 11
2.929041707782548
 21
10.95005173721973
 31
0.0
  0
LINE
  5
270E
330
1E
100
AcDbEntity
  8
7
100
AcDbLine
 10
1.803254306207744
 20
11.35324071359768
 30
0.0
 11
1.597732652664437
 21
11.35324071359768
 31
0.0
  0
LINE
  5
270F
330
1E
100
AcDbEntity
  8
7
100
AcDbLine
 10
1.597732652664437
 20
11.31789622540871
 30
0.0
 11
1.803254306207744
 21
11.31789622540871
 31
0.0
  0
LINE
  5
2710
330
1E
100
AcDbEntity
  8
7
100
AcDbLine
 10
1.803254306207744
 20
11.28255173721973
 30
0.0
 11
1.599041707782548
 21
11.28255173721973
 31
0.0
  0
LINE
  5
2711
330
1E
100
AcDbEntity
  8
7
100
AcDbLine
 10
1.803254306207744
 20
11.32313244588114
 30
0.0
 11
1.597732652664437
 21
11.32313244588114
 31
0.0
  0
LINE
  5
2712
330
1E
100
AcDbEntity
  8
7
100
AcDbLine
 10
2.715665723530579
 20
11.28255173721973
 30
0.0
 11
2.715665723530579
 21
11.27207929627485
 31
0.0
  0
LINE
  5
2713
330
1E
100
AcDbEntity
  8
7
100
AcDbLine
 10
2.511453125105382
 20
11.28255173721973
 30
0.0
 11
2.715665723530579
 21
11.28255173721973
 31
0.0
  0
LINE
  5
2714
330
1E
100
AcDbEntity
  8
7
100
AcDbLine
 10
2.510144069987272
 20
11.35324071359768
 30
0.0
 11
2.716974778648689
 21
11.35324071359768
 31
0.0
  0
LINE
  5
271B
330
1E
100
AcDbEntity
  8
7
100
AcDbLine
 10
2.715665723530579
 20
11.31789622540871
 30
0.0
 11
2.716974778648689
 21
11.32313244588114
 31
0.0
  0
LINE
  5
271C
330
1E
100
AcDbEntity
  8
7
100
AcDbLine
 10
2.510144069987272
 20
11.32313244588114
 30
0.0
 11
2.716974778648689
 21
11.32313244588114
 31
0.0
  0
LINE
  5
271D
330
1E
100
AcDbEntity
  8
7
100
AcDbLine
 10
2.716974778648689
 20
11.35324071359768
 30
0.0
 11
2.716974778648689
 21
11.32313244588114
 31
0.0
  0
LINE
  5
271E
330
1E
100
AcDbEntity
  8
7
100
AcDbLine
 10
2.701266117231367
 20
11.92922496556618
 30
0.0
 11
2.525852731404595
 21
11.92922496556618
 31
0.0
  0
LINE
  5
271F
330
1E
100
AcDbEntity
  8
7
100
AcDbLine
 10
2.701266117231367
 20
11.96849661910949
 30
0.0
 11
2.701266117231367
 21
11.92922496556618
 31
0.0
  0
LINE
  5
2720
330
1E
100
AcDbEntity
  8
7
100
AcDbLine
 10
2.525852731404595
 20
11.96849661910949
 30
0.0
 11
2.525852731404595
 21
11.92922496556618
 31
0.0
  0
LINE
  5
2721
330
1E
100
AcDbEntity
  8
7
100
AcDbLine
 10
3.43957320384554
 20
11.92922496556618
 30
0.0
 11
3.613677534554202
 21
11.92922496556618
 31
0.0
  0
LINE
  5
2722
330
1E
100
AcDbEntity
  8
7
100
AcDbLine
 10
3.43957320384554
 20
11.96849661910949
 30
0.0
 11
3.613677534554202
 21
11.96849661910949
 31
0.0
  0
LINE
  5
2723
330
1E
100
AcDbEntity
  8
7
100
AcDbLine
 10
3.43957320384554
 20
11.96849661910949
 30
0.0
 11
3.43957320384554
 21
11.92922496556618
 31
0.0
  0
LINE
  5
2724
330
1E
100
AcDbEntity
  8
7
100
AcDbLine
 10
3.613677534554202
 20
11.96849661910949
 30
0.0
 11
3.613677534554202
 21
11.92922496556618
 31
0.0
  0
LINE
  5
2725
330
1E
100
AcDbEntity
  8
7
100
AcDbLine
 10
3.282486589672312
 20
11.24458913879453
 30
0.0
 11
3.282486589672312
 21
11.31004189470004
 31
0.0
  0
LINE
  5
2726
330
1E
100
AcDbEntity
  8
7
100
AcDbLine
 10
3.77076414872743
 20
11.31004189470004
 30
0.0
 11
3.77076414872743
 21
11.24458913879453
 31
0.0
  0
LINE
  5
272C
330
1E
100
AcDbEntity
  8
7
100
AcDbLine
 10
3.613677534554202
 20
11.96849661910949
 30
0.0
 11
3.837525959751052
 21
11.96849661910949
 31
0.0
  0
LINE
  5
272D
330
1E
100
AcDbEntity
  8
7
100
AcDbLine
 10
3.21441572353058
 20
11.96849661910949
 30
0.0
 11
3.43957320384554
 21
11.96849661910949
 31
0.0
  0
LINE
  5
2733
330
1E
100
AcDbEntity
  8
7
100
AcDbLine
 10
2.925114542428217
 20
11.96849661910949
 30
0.0
 11
2.925114542428217
 21
11.31004189470004
 31
0.0
  0
LINE
  5
2734
330
1E
100
AcDbEntity
  8
7
100
AcDbLine
 10
2.858352731404595
 20
11.31004189470004
 30
0.0
 11
2.858352731404595
 21
11.24458913879453
 31
0.0
  0
LINE
  5
273A
330
1E
100
AcDbEntity
  8
7
100
AcDbLine
 10
2.858352731404595
 20
11.30873283958193
 30
0.0
 11
2.858352731404595
 21
11.31004189470004
 31
0.0
  0
LINE
  5
273B
330
1E
100
AcDbEntity
  8
7
100
AcDbLine
 10
3.838835014869162
 20
11.96849661910949
 30
0.0
 11
3.837525959751052
 21
11.96849661910949
 31
0.0
  0
LINE
  5
273C
330
1E
100
AcDbEntity
  8
7
100
AcDbLine
 10
3.213106668412469
 20
11.96849661910949
 30
0.0
 11
3.21441572353058
 21
11.96849661910949
 31
0.0
  0
LINE
  5
273D
330
1E
100
AcDbEntity
  8
7
100
AcDbLine
 10
3.837525959751052
 20
11.31004189470004
 30
0.0
 11
3.838835014869162
 21
11.30873283958193
 31
0.0
  0
LINE
  5
273E
330
1E
100
AcDbEntity
  8
7
100
AcDbLine
 10
3.77207320384554
 20
11.30873283958193
 30
0.0
 11
3.77076414872743
 21
11.31004189470004
 31
0.0
  0
LINE
  5
273F
330
1E
100
AcDbEntity
  8
7
100
AcDbLine
 10
3.77207320384554
 20
11.24328008367642
 30
0.0
 11
3.77076414872743
 21
11.24458913879453
 31
0.0
  0
LINE
  5
2740
330
1E
100
AcDbEntity
  8
7
100
AcDbLine
 10
3.281177534554201
 20
11.30873283958193
 30
0.0
 11
3.282486589672312
 21
11.31004189470004
 31
0.0
  0
LINE
  5
2741
330
1E
100
AcDbEntity
  8
7
100
AcDbLine
 10
3.282486589672312
 20
11.24458913879453
 30
0.0
 11
3.281177534554201
 21
11.24328008367642
 31
0.0
  0
LINE
  5
2742
330
1E
100
AcDbEntity
  8
7
100
AcDbLine
 10
3.213106668412469
 20
11.30873283958193
 30
0.0
 11
3.21441572353058
 21
11.31004189470004
 31
0.0
  0
LINE
  5
2743
330
1E
100
AcDbEntity
  8
7
100
AcDbLine
 10
2.914642101483335
 20
10.94481551674729
 30
0.0
 11
2.906787770774673
 21
10.91470724903075
 31
0.0
  0
LINE
  5
276E
330
1E
100
AcDbEntity
  8
7
100
AcDbLine
 10
4.26820509360932
 20
12.5196088238339
 30
0.0
 11
4.228933440066012
 21
12.52746315454256
 31
0.0
  0
LINE
  5
2776
330
1E
100
AcDbEntity
  8
7
100
AcDbLine
 10
4.3297306841605
 20
10.98408717029059
 30
0.0
 11
4.3297306841605
 21
12.42797496556619
 31
0.0
  0
LINE
  5
278C
330
1E
100
AcDbEntity
  8
7
100
AcDbLine
 10
3.398992495184122
 20
11.24458913879453
 30
0.0
 11
3.282486589672312
 21
11.24458913879453
 31
0.0
  0
LINE
  5
278D
330
1E
100
AcDbEntity
  8
7
100
AcDbLine
 10
3.77076414872743
 20
11.24458913879453
 30
0.0
 11
3.652949188097508
 21
11.24458913879453
 31
0.0
  0
LINE
  5
278E
330
1E
100
AcDbEntity
  8
7
100
AcDbLine
 10
3.629386195971525
 20
11.25637063485752
 30
0.0
 11
3.652949188097508
 21
11.24458913879453
 31
0.0
  0
LINE
  5
278F
330
1E
100
AcDbEntity
  8
7
100
AcDbLine
 10
3.629386195971525
 20
11.25637063485752
 30
0.0
 11
3.423864542428217
 21
11.25637063485752
 31
0.0
  0
LINE
  5
2790
330
1E
100
AcDbEntity
  8
7
100
AcDbLine
 10
3.398992495184122
 20
11.24458913879453
 30
0.0
 11
3.423864542428217
 21
11.25637063485752
 31
0.0
  0
LINE
  5
2799
330
1E
100
AcDbEntity
  8
7
100
AcDbLine
 10
3.285104699908532
 20
10.95397890257406
 30
0.0
 11
3.285104699908532
 21
10.98408717029059
 31
0.0
  0
LINE
  5
27B8
330
1E
100
AcDbEntity
  8
7
100
AcDbLine
 10
3.423864542428217
 20
11.28255173721973
 30
0.0
 11
3.423864542428217
 21
11.27207929627485
 31
0.0
  0
LINE
  5
27BF
330
1E
100
AcDbEntity
  8
7
100
AcDbLine
 10
3.423864542428217
 20
11.35324071359768
 30
0.0
 11
3.423864542428217
 21
11.32313244588114
 31
0.0
  0
LINE
  5
27C0
330
1E
100
AcDbEntity
  8
7
100
AcDbLine
 10
3.423864542428217
 20
11.27207929627485
 30
0.0
 11
3.628077140853414
 21
11.27207929627485
 31
0.0
  0
LINE
  5
27C1
330
1E
100
AcDbEntity
  8
7
100
AcDbLine
 10
3.190852731404595
 20
10.98539622540871
 30
0.0
 11
3.190852731404595
 21
10.98408717029059
 31
0.0
  0
LINE
  5
27C2
330
1E
100
AcDbEntity
  8
7
100
AcDbLine
 10
3.190852731404595
 20
10.98539622540871
 30
0.0
 11
2.947368479436091
 21
10.98539622540871
 31
0.0
  0
LINE
  5
27C3
330
1E
100
AcDbEntity
  8
7
100
AcDbLine
 10
3.270705093609318
 20
10.85579976871579
 30
0.0
 11
3.285104699908532
 21
10.88459898131421
 31
0.0
  0
LINE
  5
27C4
330
1E
100
AcDbEntity
  8
7
100
AcDbLine
 10
3.224888164475461
 20
10.94481551674729
 30
0.0
 11
3.210488558176249
 21
10.91601630414886
 31
0.0
  0
LINE
  5
27C5
330
1E
100
AcDbEntity
  8
7
100
AcDbLine
 10
4.257732652664438
 20
10.85579976871579
 30
0.0
 11
4.228933440066012
 21
10.88459898131421
 31
0.0
  0
LINE
  5
27C6
330
1E
100
AcDbEntity
  8
7
100
AcDbLine
 10
4.3297306841605
 20
10.98408717029059
 30
0.0
 11
4.357220841640816
 21
10.95659701281028
 31
0.0
  0
LINE
  5
27C7
330
1E
100
AcDbEntity
  8
7
100
AcDbLine
 10
4.3297306841605
 20
12.42797496556619
 30
0.0
 11
4.357220841640816
 21
12.4554651230465
 31
0.0
  0
LINE
  5
27C8
330
1E
100
AcDbEntity
  8
7
100
AcDbLine
 10
3.226197219593571
 20
10.99325055611737
 30
0.0
 11
3.218342888884909
 21
10.98539622540871
 31
0.0
  0
LINE
  5
27C9
330
1E
100
AcDbEntity
  8
7
100
AcDbLine
 10
3.218342888884909
 20
10.96314228840083
 30
0.0
 11
3.218342888884909
 21
10.98539622540871
 31
0.0
  0
LINE
  5
27CA
330
1E
100
AcDbEntity
  8
7
100
AcDbLine
 10
2.914642101483335
 20
10.99325055611737
 30
0.0
 11
2.922496432191996
 21
10.98539622540871
 31
0.0
  0
LINE
  5
27CB
330
1E
100
AcDbEntity
  8
7
100
AcDbLine
 10
2.9486775345542
 20
10.98539622540871
 30
0.0
 11
2.922496432191996
 21
10.98539622540871
 31
0.0
  0
LINE
  5
27CC
330
1E
100
AcDbEntity
  8
7
100
AcDbLine
 10
3.218342888884909
 20
10.98539622540871
 30
0.0
 11
3.192161786522705
 21
10.98539622540871
 31
0.0
  0
LINE
  5
27CD
330
1E
100
AcDbEntity
  8
7
100
AcDbLine
 10
2.922496432191996
 20
10.96314228840083
 30
0.0
 11
2.922496432191996
 21
10.98539622540871
 31
0.0
  0
LINE
  5
27CE
330
1E
100
AcDbEntity
  8
7
100
AcDbLine
 10
2.929041707782548
 20
10.91601630414886
 30
0.0
 11
2.914642101483335
 21
10.94481551674729
 31
0.0
  0
LINE
  5
27CF
330
1E
100
AcDbEntity
  8
7
100
AcDbLine
 10
3.423864542428217
 20
11.35324071359768
 30
0.0
 11
3.629386195971525
 21
11.35324071359768
 31
0.0
  0
LINE
  5
27D0
330
1E
100
AcDbEntity
  8
7
100
AcDbLine
 10
3.423864542428217
 20
11.28255173721973
 30
0.0
 11
3.628077140853414
 21
11.28255173721973
 31
0.0
  0
LINE
  5
27D1
330
1E
100
AcDbEntity
  8
7
100
AcDbLine
 10
3.629386195971525
 20
11.31789622540871
 30
0.0
 11
3.423864542428217
 21
11.31789622540871
 31
0.0
  0
LINE
  5
27D2
330
1E
100
AcDbEntity
  8
7
100
AcDbLine
 10
3.423864542428217
 20
11.32313244588114
 30
0.0
 11
3.629386195971525
 21
11.32313244588114
 31
0.0
  0
LINE
  5
27D3
330
1E
100
AcDbEntity
  8
7
100
AcDbLine
 10
2.044120447940027
 20
10.93565213092052
 30
0.0
 11
2.270586983373099
 21
10.93565213092052
 31
0.0
  0
LINE
  5
27D4
330
1E
100
AcDbEntity
  8
7
100
AcDbLine
 10
2.270586983373099
 20
10.91601630414886
 30
0.0
 11
2.044120447940027
 21
10.91601630414886
 31
0.0
  0
LINE
  5
27D5
330
1E
100
AcDbEntity
  8
7
100
AcDbLine
 10
2.270586983373099
 20
10.87674465060556
 30
0.0
 11
2.044120447940027
 21
10.87674465060556
 31
0.0
  0
LINE
  5
27D6
330
1E
100
AcDbEntity
  8
7
100
AcDbLine
 10
2.956531865262863
 20
10.87674465060556
 30
0.0
 11
3.182998400695933
 21
10.87674465060556
 31
0.0
  0
LINE
  5
27D7
330
1E
100
AcDbEntity
  8
7
100
AcDbLine
 10
3.182998400695933
 20
10.91601630414886
 30
0.0
 11
2.956531865262863
 21
10.91601630414886
 31
0.0
  0
LINE
  5
27D8
330
1E
100
AcDbEntity
  8
7
100
AcDbLine
 10
2.956531865262863
 20
10.93565213092052
 30
0.0
 11
3.182998400695933
 21
10.93565213092052
 31
0.0
  0
LINE
  5
2A0F
330
1E
100
AcDbEntity
  8
7
100
AcDbLine
 10
3.423864542428217
 20
11.28255173721973
 30
0.0
 11
3.423864542428217
 21
11.30218756399138
 31
0.0
  0
LINE
  5
2A10
330
1E
100
AcDbEntity
  8
7
100
AcDbLine
 10
3.423864542428217
 20
11.30218756399138
 30
0.0
 11
3.423864542428217
 21
11.31789622540871
 31
0.0
  0
LINE
  5
2A11
330
1E
100
AcDbEntity
  8
7
100
AcDbLine
 10
3.423864542428217
 20
11.31789622540871
 30
0.0
 11
3.423864542428217
 21
11.32313244588114
 31
0.0
  0
LINE
  5
2A12
330
1E
100
AcDbEntity
  8
7
100
AcDbLine
 10
3.423864542428217
 20
11.25637063485752
 30
0.0
 11
3.423864542428217
 21
11.26160685532996
 31
0.0
  0
LINE
  5
2A13
330
1E
100
AcDbEntity
  8
7
100
AcDbLine
 10
3.423864542428217
 20
11.26160685532996
 30
0.0
 11
3.423864542428217
 21
11.27207929627485
 31
0.0
  0
LINE
  5
2A14
330
1E
100
AcDbEntity
  8
7
100
AcDbLine
 10
3.629386195971525
 20
11.35324071359768
 30
0.0
 11
3.629386195971525
 21
11.32313244588114
 31
0.0
  0
LINE
  5
2A15
330
1E
100
AcDbEntity
  8
7
100
AcDbLine
 10
3.629386195971525
 20
11.32313244588114
 30
0.0
 11
3.629386195971525
 21
11.31789622540871
 31
0.0
  0
LINE
  5
2A16
330
1E
100
AcDbEntity
  8
7
100
AcDbLine
 10
3.629386195971525
 20
11.31789622540871
 30
0.0
 11
3.628077140853414
 21
11.30218756399138
 31
0.0
  0
LINE
  5
2A17
330
1E
100
AcDbEntity
  8
7
100
AcDbLine
 10
3.628077140853414
 20
11.30218756399138
 30
0.0
 11
3.628077140853414
 21
11.28255173721973
 31
0.0
  0
LINE
  5
2A18
330
1E
100
AcDbEntity
  8
7
100
AcDbLine
 10
3.628077140853414
 20
11.28255173721973
 30
0.0
 11
3.628077140853414
 21
11.27207929627485
 31
0.0
  0
LINE
  5
2A19
330
1E
100
AcDbEntity
  8
7
100
AcDbLine
 10
3.628077140853414
 20
11.27207929627485
 30
0.0
 11
3.628077140853414
 21
11.26160685532996
 31
0.0
  0
LINE
  5
2A1A
330
1E
100
AcDbEntity
  8
7
100
AcDbLine
 10
3.628077140853414
 20
11.26160685532996
 30
0.0
 11
3.629386195971525
 21
11.25637063485752
 31
0.0
  0
LINE
  5
2A1B
330
1E
100
AcDbEntity
  8
7
100
AcDbLine
 10
3.285104699908532
 20
10.88459898131421
 30
0.0
 11
3.254996432191996
 21
10.89245331202288
 31
0.0
  0
LINE
  5
2A1C
330
1E
100
AcDbEntity
  8
7
100
AcDbLine
 10
3.254996432191996
 20
10.89245331202288
 30
0.0
 11
3.232742495184122
 21
10.91470724903075
 31
0.0
  0
LINE
  5
2A1D
330
1E
100
AcDbEntity
  8
7
100
AcDbLine
 10
3.232742495184122
 20
10.91470724903075
 30
0.0
 11
3.224888164475461
 21
10.94481551674729
 31
0.0
  0
LINE
  5
2A1E
330
1E
100
AcDbEntity
  8
7
100
AcDbLine
 10
3.226197219593571
 20
10.98408717029059
 30
0.0
 11
3.226197219593571
 21
10.96445134351894
 31
0.0
  0
LINE
  5
2A1F
330
1E
100
AcDbEntity
  8
7
100
AcDbLine
 10
3.226197219593571
 20
10.96445134351894
 30
0.0
 11
3.224888164475461
 21
10.95005173721973
 31
0.0
  0
LINE
  5
2A20
330
1E
100
AcDbEntity
  8
7
100
AcDbLine
 10
3.224888164475461
 20
10.95005173721973
 30
0.0
 11
3.224888164475461
 21
10.94481551674729
 31
0.0
  0
LINE
  5
2A21
330
1E
100
AcDbEntity
  8
7
100
AcDbLine
 10
4.228933440066012
 20
10.88459898131421
 30
0.0
 11
3.285104699908532
 21
10.88459898131421
 31
0.0
  0
LINE
  5
2A22
330
1E
100
AcDbEntity
  8
7
100
AcDbLine
 10
3.285104699908532
 20
10.88459898131421
 30
0.0
 11
3.285104699908532
 21
10.88983520178666
 31
0.0
  0
LINE
  5
2A23
330
1E
100
AcDbEntity
  8
7
100
AcDbLine
 10
3.285104699908532
 20
10.88983520178666
 30
0.0
 11
3.285104699908532
 21
10.90423480808587
 31
0.0
  0
LINE
  5
2A24
330
1E
100
AcDbEntity
  8
7
100
AcDbLine
 10
3.285104699908532
 20
10.90423480808587
 30
0.0
 11
3.285104699908532
 21
10.92648874509374
 31
0.0
  0
LINE
  5
2A25
330
1E
100
AcDbEntity
  8
7
100
AcDbLine
 10
3.285104699908532
 20
10.92648874509374
 30
0.0
 11
3.285104699908532
 21
10.95397890257406
 31
0.0
  0
LINE
  5
2A26
330
1E
100
AcDbEntity
  8
7
100
AcDbLine
 10
4.3297306841605
 20
10.98408717029059
 30
0.0
 11
4.321876353451839
 21
10.9461245718654
 31
0.0
  0
LINE
  5
2A27
330
1E
100
AcDbEntity
  8
7
100
AcDbLine
 10
4.321876353451839
 20
10.9461245718654
 30
0.0
 11
4.299622416443965
 21
10.91339819391264
 31
0.0
  0
LINE
  5
2A28
330
1E
100
AcDbEntity
  8
7
100
AcDbLine
 10
4.299622416443965
 20
10.91339819391264
 30
0.0
 11
4.26820509360932
 21
10.89245331202288
 31
0.0
  0
LINE
  5
2A29
330
1E
100
AcDbEntity
  8
7
100
AcDbLine
 10
4.26820509360932
 20
10.89245331202288
 30
0.0
 11
4.228933440066012
 21
10.88459898131421
 31
0.0
  0
LINE
  5
2A2A
330
1E
100
AcDbEntity
  8
7
100
AcDbLine
 10
4.228933440066012
 20
10.98408717029059
 30
0.0
 11
4.228933440066012
 21
10.9461245718654
 31
0.0
  0
LINE
  5
2A2B
330
1E
100
AcDbEntity
  8
7
100
AcDbLine
 10
4.228933440066012
 20
10.9461245718654
 30
0.0
 11
4.228933440066012
 21
10.91470724903075
 31
0.0
  0
LINE
  5
2A2C
330
1E
100
AcDbEntity
  8
7
100
AcDbLine
 10
4.228933440066012
 20
10.91470724903075
 30
0.0
 11
4.228933440066012
 21
10.89245331202288
 31
0.0
  0
LINE
  5
2A2D
330
1E
100
AcDbEntity
  8
7
100
AcDbLine
 10
4.228933440066012
 20
10.89245331202288
 30
0.0
 11
4.228933440066012
 21
10.88459898131421
 31
0.0
  0
LINE
  5
2A2E
330
1E
100
AcDbEntity
  8
7
100
AcDbLine
 10
4.228933440066012
 20
10.98408717029059
 30
0.0
 11
4.266896038491209
 21
10.98408717029059
 31
0.0
  0
LINE
  5
2A2F
330
1E
100
AcDbEntity
  8
7
100
AcDbLine
 10
4.266896038491209
 20
10.98408717029059
 30
0.0
 11
4.298313361325854
 21
10.98408717029059
 31
0.0
  0
LINE
  5
2A30
330
1E
100
AcDbEntity
  8
7
100
AcDbLine
 10
4.298313361325854
 20
10.98408717029059
 30
0.0
 11
4.320567298333729
 21
10.98408717029059
 31
0.0
  0
LINE
  5
2A31
330
1E
100
AcDbEntity
  8
7
100
AcDbLine
 10
4.320567298333729
 20
10.98408717029059
 30
0.0
 11
4.3297306841605
 21
10.98408717029059
 31
0.0
  0
LINE
  5
2A32
330
1E
100
AcDbEntity
  8
7
100
AcDbLine
 10
4.228933440066012
 20
12.42797496556619
 30
0.0
 11
4.266896038491209
 21
12.42797496556619
 31
0.0
  0
LINE
  5
2A33
330
1E
100
AcDbEntity
  8
7
100
AcDbLine
 10
4.266896038491209
 20
12.42797496556619
 30
0.0
 11
4.298313361325854
 21
12.42797496556619
 31
0.0
  0
LINE
  5
2A34
330
1E
100
AcDbEntity
  8
7
100
AcDbLine
 10
4.298313361325854
 20
12.42797496556619
 30
0.0
 11
4.320567298333729
 21
12.42797496556619
 31
0.0
  0
LINE
  5
2A35
330
1E
100
AcDbEntity
  8
7
100
AcDbLine
 10
4.320567298333729
 20
12.42797496556619
 30
0.0
 11
4.3297306841605
 21
12.42797496556619
 31
0.0
  0
LINE
  5
2A36
330
1E
100
AcDbEntity
  8
7
100
AcDbLine
 10
4.3297306841605
 20
12.42797496556619
 30
0.0
 11
4.321876353451839
 21
12.46593756399138
 31
0.0
  0
LINE
  5
2A37
330
1E
100
AcDbEntity
  8
7
100
AcDbLine
 10
4.321876353451839
 20
12.46593756399138
 30
0.0
 11
4.299622416443965
 21
12.49866394194414
 31
0.0
  0
LINE
  5
2A38
330
1E
100
AcDbEntity
  8
7
100
AcDbLine
 10
4.299622416443965
 20
12.49866394194414
 30
0.0
 11
4.26820509360932
 21
12.5196088238339
 31
0.0
  0
LINE
  5
2A39
330
1E
100
AcDbEntity
  8
7
100
AcDbLine
 10
3.285104699908532
 20
10.99455961123548
 30
0.0
 11
3.262850762900658
 21
10.99325055611737
 31
0.0
  0
LINE
  5
2A3A
330
1E
100
AcDbEntity
  8
7
100
AcDbLine
 10
3.262850762900658
 20
10.99325055611737
 30
0.0
 11
3.243214936129004
 21
10.99325055611737
 31
0.0
  0
LINE
  5
2A3B
330
1E
100
AcDbEntity
  8
7
100
AcDbLine
 10
3.243214936129004
 20
10.99325055611737
 30
0.0
 11
3.230124384947902
 21
10.99325055611737
 31
0.0
  0
LINE
  5
2A3C
330
1E
100
AcDbEntity
  8
7
100
AcDbLine
 10
3.230124384947902
 20
10.99325055611737
 30
0.0
 11
3.226197219593571
 21
10.99325055611737
 31
0.0
  0
LINE
  5
2A3D
330
1E
100
AcDbEntity
  8
7
100
AcDbLine
 10
3.226197219593571
 20
10.99325055611737
 30
0.0
 11
3.226197219593571
 21
10.98408717029059
 31
0.0
  0
LINE
  5
2A3E
330
1E
100
AcDbEntity
  8
7
100
AcDbLine
 10
3.285104699908532
 20
10.98408717029059
 30
0.0
 11
3.256305487310107
 21
10.98408717029059
 31
0.0
  0
LINE
  5
2A3F
330
1E
100
AcDbEntity
  8
7
100
AcDbLine
 10
3.256305487310107
 20
10.98408717029059
 30
0.0
 11
3.234051550302232
 21
10.98408717029059
 31
0.0
  0
LINE
  5
2A40
330
1E
100
AcDbEntity
  8
7
100
AcDbLine
 10
3.234051550302232
 20
10.98408717029059
 30
0.0
 11
3.226197219593571
 21
10.98408717029059
 31
0.0
  0
LINE
  5
2A41
330
1E
100
AcDbEntity
  8
7
100
AcDbLine
 10
2.914642101483335
 20
10.98408717029059
 30
0.0
 11
2.914642101483335
 21
10.99325055611737
 31
0.0
  0
LINE
  5
2A42
330
1E
100
AcDbEntity
  8
7
100
AcDbLine
 10
2.914642101483335
 20
10.99325055611737
 30
0.0
 11
2.909405881010894
 21
10.99325055611737
 31
0.0
  0
LINE
  5
2A43
330
1E
100
AcDbEntity
  8
7
100
AcDbLine
 10
2.909405881010894
 20
10.99325055611737
 30
0.0
 11
2.896315329829791
 21
10.99325055611737
 31
0.0
  0
LINE
  5
2A44
330
1E
100
AcDbEntity
  8
7
100
AcDbLine
 10
2.896315329829791
 20
10.99325055611737
 30
0.0
 11
2.876679503058138
 21
10.99325055611737
 31
0.0
  0
LINE
  5
2A45
330
1E
100
AcDbEntity
  8
7
100
AcDbLine
 10
2.876679503058138
 20
10.99325055611737
 30
0.0
 11
2.854425566050263
 21
10.99455961123548
 31
0.0
  0
LINE
  5
2A46
330
1E
100
AcDbEntity
  8
7
100
AcDbLine
 10
2.914642101483335
 20
10.94481551674729
 30
0.0
 11
2.914642101483335
 21
10.95005173721973
 31
0.0
  0
LINE
  5
2A47
330
1E
100
AcDbEntity
  8
7
100
AcDbLine
 10
2.914642101483335
 20
10.95005173721973
 30
0.0
 11
2.914642101483335
 21
10.96445134351894
 31
0.0
  0
LINE
  5
2A48
330
1E
100
AcDbEntity
  8
7
100
AcDbLine
 10
2.914642101483335
 20
10.96445134351894
 30
0.0
 11
2.914642101483335
 21
10.98408717029059
 31
0.0
  0
LINE
  5
2A49
330
1E
100
AcDbEntity
  8
7
100
AcDbLine
 10
2.914642101483335
 20
10.98408717029059
 30
0.0
 11
2.905478715656563
 21
10.98408717029059
 31
0.0
  0
LINE
  5
2A4A
330
1E
100
AcDbEntity
  8
7
100
AcDbLine
 10
2.905478715656563
 20
10.98408717029059
 30
0.0
 11
2.883224778648689
 21
10.98408717029059
 31
0.0
  0
LINE
  5
2A4B
330
1E
100
AcDbEntity
  8
7
100
AcDbLine
 10
2.883224778648689
 20
10.98408717029059
 30
0.0
 11
2.854425566050263
 21
10.98408717029059
 31
0.0
  0
LINE
  5
2A4C
330
1E
100
AcDbEntity
  8
7
100
AcDbLine
 10
2.906787770774673
 20
10.91470724903075
 30
0.0
 11
2.884533833766799
 21
10.89245331202288
 31
0.0
  0
LINE
  5
2A4D
330
1E
100
AcDbEntity
  8
7
100
AcDbLine
 10
2.884533833766799
 20
10.89245331202288
 30
0.0
 11
2.854425566050263
 21
10.88459898131421
 31
0.0
  0
LINE
  5
2A4E
330
1E
100
AcDbEntity
  8
7
100
AcDbLine
 10
2.858352731404595
 20
11.31004189470004
 30
0.0
 11
2.925114542428217
 21
11.31004189470004
 31
0.0
  0
LINE
  5
2A4F
330
1E
100
AcDbEntity
  8
7
100
AcDbLine
 10
2.925114542428217
 20
11.31004189470004
 30
0.0
 11
2.926423597546327
 21
11.30873283958193
 31
0.0
  0
LINE
  5
2A50
330
1E
100
AcDbEntity
  8
7
100
AcDbLine
 10
3.21441572353058
 20
11.96849661910949
 30
0.0
 11
3.21441572353058
 21
11.31004189470004
 31
0.0
  0
LINE
  5
2A51
330
1E
100
AcDbEntity
  8
7
100
AcDbLine
 10
3.21441572353058
 20
11.31004189470004
 30
0.0
 11
3.282486589672312
 21
11.31004189470004
 31
0.0
  0
LINE
  5
2A52
330
1E
100
AcDbEntity
  8
7
100
AcDbLine
 10
3.77076414872743
 20
11.31004189470004
 30
0.0
 11
3.837525959751052
 21
11.31004189470004
 31
0.0
  0
LINE
  5
2A53
330
1E
100
AcDbEntity
  8
7
100
AcDbLine
 10
3.837525959751052
 20
11.31004189470004
 30
0.0
 11
3.837525959751052
 21
11.96849661910949
 31
0.0
  0
LINE
  5
2A54
330
1E
100
AcDbEntity
  8
7
100
AcDbLine
 10
2.715665723530579
 20
11.28255173721973
 30
0.0
 11
2.715665723530579
 21
11.30218756399138
 31
0.0
  0
LINE
  5
2A55
330
1E
100
AcDbEntity
  8
7
100
AcDbLine
 10
2.715665723530579
 20
11.30218756399138
 30
0.0
 11
2.715665723530579
 21
11.31789622540871
 31
0.0
  0
LINE
  5
2A56
330
1E
100
AcDbEntity
  8
7
100
AcDbLine
 10
2.715665723530579
 20
11.31789622540871
 30
0.0
 11
2.511453125105382
 21
11.31789622540871
 31
0.0
  0
LINE
  5
2A57
330
1E
100
AcDbEntity
  8
7
100
AcDbLine
 10
2.910714936129004
 20
10.87412654036933
 30
0.0
 11
2.923805487310107
 21
10.89376236714099
 31
0.0
  0
LINE
  5
2A58
330
1E
100
AcDbEntity
  8
7
100
AcDbLine
 10
2.923805487310107
 20
10.89376236714099
 30
0.0
 11
2.929041707782548
 21
10.91601630414886
 31
0.0
  0
LINE
  5
2A59
330
1E
100
AcDbEntity
  8
7
100
AcDbLine
 10
2.868825172349477
 20
10.85579976871579
 30
0.0
 11
2.892388164475461
 21
10.86103598918823
 31
0.0
  0
LINE
  5
2A5A
330
1E
100
AcDbEntity
  8
7
100
AcDbLine
 10
2.892388164475461
 20
10.86103598918823
 30
0.0
 11
2.910714936129004
 21
10.87412654036933
 31
0.0
  0
LINE
  5
2A5B
330
1E
100
AcDbEntity
  8
7
100
AcDbLine
 10
2.358293676286485
 20
10.85579976871579
 30
0.0
 11
2.3347306841605
 21
10.86103598918823
 31
0.0
  0
LINE
  5
2A5C
330
1E
100
AcDbEntity
  8
7
100
AcDbLine
 10
2.3347306841605
 20
10.86103598918823
 30
0.0
 11
2.316403912506957
 21
10.87412654036933
 31
0.0
  0
LINE
  5
2A5D
330
1E
100
AcDbEntity
  8
7
100
AcDbLine
 10
2.316403912506957
 20
10.87412654036933
 30
0.0
 11
2.303313361325854
 21
10.89376236714099
 31
0.0
  0
LINE
  5
2A5E
330
1E
100
AcDbEntity
  8
7
100
AcDbLine
 10
2.303313361325854
 20
10.89376236714099
 30
0.0
 11
2.298077140853413
 21
10.91601630414886
 31
0.0
  0
LINE
  5
2A5F
330
1E
100
AcDbEntity
  8
7
100
AcDbLine
 10
2.716974778648689
 20
11.25637063485752
 30
0.0
 11
2.715665723530579
 21
11.26160685532996
 31
0.0
  0
LINE
  5
2A60
330
1E
100
AcDbEntity
  8
7
100
AcDbLine
 10
2.715665723530579
 20
11.26160685532996
 30
0.0
 11
2.715665723530579
 21
11.27207929627485
 31
0.0
  0
LINE
  5
2A61
330
1E
100
AcDbEntity
  8
7
100
AcDbLine
 10
2.511453125105382
 20
11.28255173721973
 30
0.0
 11
2.511453125105382
 21
11.30218756399138
 31
0.0
  0
LINE
  5
2A62
330
1E
100
AcDbEntity
  8
7
100
AcDbLine
 10
2.511453125105382
 20
11.30218756399138
 30
0.0
 11
2.511453125105382
 21
11.31789622540871
 31
0.0
  0
LINE
  5
2A63
330
1E
100
AcDbEntity
  8
7
100
AcDbLine
 10
2.511453125105382
 20
11.31789622540871
 30
0.0
 11
2.510144069987272
 21
11.32313244588114
 31
0.0
  0
LINE
  5
2A64
330
1E
100
AcDbEntity
  8
7
100
AcDbLine
 10
2.510144069987272
 20
11.25637063485752
 30
0.0
 11
2.511453125105382
 21
11.26160685532996
 31
0.0
  0
LINE
  5
2A65
330
1E
100
AcDbEntity
  8
7
100
AcDbLine
 10
2.511453125105382
 20
11.26160685532996
 30
0.0
 11
2.511453125105382
 21
11.27207929627485
 31
0.0
  0
LINE
  5
2A66
330
1E
100
AcDbEntity
  8
7
100
AcDbLine
 10
2.00092162904239
 20
10.99325055611737
 30
0.0
 11
2.008775959751051
 21
10.98539622540871
 31
0.0
  0
LINE
  5
2A67
330
1E
100
AcDbEntity
  8
7
100
AcDbLine
 10
2.008775959751051
 20
10.98539622540871
 30
0.0
 11
2.034957062113257
 21
10.98539622540871
 31
0.0
  0
LINE
  5
2A68
330
1E
100
AcDbEntity
  8
7
100
AcDbLine
 10
2.858352731404595
 20
11.24458913879453
 30
0.0
 11
2.740537770774673
 21
11.24458913879453
 31
0.0
  0
LINE
  5
2A69
330
1E
100
AcDbEntity
  8
7
100
AcDbLine
 10
2.740537770774673
 20
11.24458913879453
 30
0.0
 11
2.716974778648689
 21
11.25637063485752
 31
0.0
  0
LINE
  5
2A6A
330
1E
100
AcDbEntity
  8
7
100
AcDbLine
 10
2.716974778648689
 20
11.25637063485752
 30
0.0
 11
2.510144069987272
 21
11.25637063485752
 31
0.0
  0
LINE
  5
2A6B
330
1E
100
AcDbEntity
  8
7
100
AcDbLine
 10
2.854425566050263
 20
10.98408717029059
 30
0.0
 11
2.854425566050263
 21
10.95397890257406
 31
0.0
  0
LINE
  5
2A6C
330
1E
100
AcDbEntity
  8
7
100
AcDbLine
 10
2.854425566050263
 20
10.95397890257406
 30
0.0
 11
2.854425566050263
 21
10.92648874509374
 31
0.0
  0
LINE
  5
2A6D
330
1E
100
AcDbEntity
  8
7
100
AcDbLine
 10
2.854425566050263
 20
10.92648874509374
 30
0.0
 11
2.854425566050263
 21
10.90423480808587
 31
0.0
  0
LINE
  5
2A6E
330
1E
100
AcDbEntity
  8
7
100
AcDbLine
 10
2.854425566050263
 20
10.90423480808587
 30
0.0
 11
2.854425566050263
 21
10.88983520178666
 31
0.0
  0
LINE
  5
2A6F
330
1E
100
AcDbEntity
  8
7
100
AcDbLine
 10
2.854425566050263
 20
10.88983520178666
 30
0.0
 11
2.854425566050263
 21
10.88459898131421
 31
0.0
  0
LINE
  5
2A70
330
1E
100
AcDbEntity
  8
7
100
AcDbLine
 10
1.803254306207744
 20
11.25637063485752
 30
0.0
 11
1.803254306207744
 21
11.26160685532996
 31
0.0
  0
LINE
  5
2A71
330
1E
100
AcDbEntity
  8
7
100
AcDbLine
 10
1.803254306207744
 20
11.26160685532996
 30
0.0
 11
1.803254306207744
 21
11.27207929627485
 31
0.0
  0
LINE
  5
2A72
330
1E
100
AcDbEntity
  8
7
100
AcDbLine
 10
1.803254306207744
 20
11.27207929627485
 30
0.0
 11
1.599041707782548
 21
11.27207929627485
 31
0.0
  0
LINE
  5
2A73
330
1E
100
AcDbEntity
  8
7
100
AcDbLine
 10
1.803254306207744
 20
11.28255173721973
 30
0.0
 11
1.803254306207744
 21
11.30218756399138
 31
0.0
  0
LINE
  5
2A74
330
1E
100
AcDbEntity
  8
7
100
AcDbLine
 10
1.803254306207744
 20
11.30218756399138
 30
0.0
 11
1.803254306207744
 21
11.31789622540871
 31
0.0
  0
LINE
  5
2A75
330
1E
100
AcDbEntity
  8
7
100
AcDbLine
 10
1.597732652664437
 20
11.31789622540871
 30
0.0
 11
1.599041707782548
 21
11.30218756399138
 31
0.0
  0
LINE
  5
2A76
330
1E
100
AcDbEntity
  8
7
100
AcDbLine
 10
1.599041707782548
 20
11.30218756399138
 30
0.0
 11
1.599041707782548
 21
11.28255173721973
 31
0.0
  0
LINE
  5
2A77
330
1E
100
AcDbEntity
  8
7
100
AcDbLine
 10
1.599041707782548
 20
11.27207929627485
 30
0.0
 11
1.599041707782548
 21
11.26160685532996
 31
0.0
  0
LINE
  5
2A78
330
1E
100
AcDbEntity
  8
7
100
AcDbLine
 10
1.599041707782548
 20
11.26160685532996
 30
0.0
 11
1.597732652664437
 21
11.25637063485752
 31
0.0
  0
LINE
  5
2A79
330
1E
100
AcDbEntity
  8
7
100
AcDbLine
 10
2.00092162904239
 20
10.98408717029059
 30
0.0
 11
2.00092162904239
 21
10.96445134351894
 31
0.0
  0
LINE
  5
2A7A
330
1E
100
AcDbEntity
  8
7
100
AcDbLine
 10
2.00092162904239
 20
10.96445134351894
 30
0.0
 11
2.0022306841605
 21
10.95005173721973
 31
0.0
  0
LINE
  5
2A7B
330
1E
100
AcDbEntity
  8
7
100
AcDbLine
 10
2.0022306841605
 20
10.95005173721973
 30
0.0
 11
2.0022306841605
 21
10.94481551674729
 31
0.0
  0
LINE
  5
2A7C
330
1E
100
AcDbEntity
  8
7
100
AcDbLine
 10
1.94201414872743
 20
10.88459898131421
 30
0.0
 11
1.972122416443964
 21
10.89245331202288
 31
0.0
  0
LINE
  5
2A7D
330
1E
100
AcDbEntity
  8
7
100
AcDbLine
 10
1.972122416443964
 20
10.89245331202288
 30
0.0
 11
1.994376353451839
 21
10.91470724903075
 31
0.0
  0
LINE
  5
2A7E
330
1E
100
AcDbEntity
  8
7
100
AcDbLine
 10
1.994376353451839
 20
10.91470724903075
 30
0.0
 11
2.0022306841605
 21
10.94481551674729
 31
0.0
  0
LINE
  5
2A7F
330
1E
100
AcDbEntity
  8
7
100
AcDbLine
 10
0.9981854085699492
 20
10.88459898131421
 30
0.0
 11
1.94201414872743
 21
10.88459898131421
 31
0.0
  0
LINE
  5
2A80
330
1E
100
AcDbEntity
  8
7
100
AcDbLine
 10
1.94201414872743
 20
10.88459898131421
 30
0.0
 11
1.94201414872743
 21
10.88983520178666
 31
0.0
  0
LINE
  5
2A81
330
1E
100
AcDbEntity
  8
7
100
AcDbLine
 10
1.94201414872743
 20
10.88983520178666
 30
0.0
 11
1.94201414872743
 21
10.90423480808587
 31
0.0
  0
LINE
  5
2A82
330
1E
100
AcDbEntity
  8
7
100
AcDbLine
 10
1.94201414872743
 20
10.90423480808587
 30
0.0
 11
1.94201414872743
 21
10.92648874509374
 31
0.0
  0
LINE
  5
2A83
330
1E
100
AcDbEntity
  8
7
100
AcDbLine
 10
1.94201414872743
 20
10.92648874509374
 30
0.0
 11
1.94201414872743
 21
10.95397890257406
 31
0.0
  0
LINE
  5
2A84
330
1E
100
AcDbEntity
  8
7
100
AcDbLine
 10
0.9981854085699492
 20
10.98408717029059
 30
0.0
 11
0.9981854085699492
 21
10.9461245718654
 31
0.0
  0
LINE
  5
2A85
330
1E
100
AcDbEntity
  8
7
100
AcDbLine
 10
0.9981854085699492
 20
10.9461245718654
 30
0.0
 11
0.9981854085699492
 21
10.91470724903075
 31
0.0
  0
LINE
  5
2A86
330
1E
100
AcDbEntity
  8
7
100
AcDbLine
 10
0.9981854085699492
 20
10.91470724903075
 30
0.0
 11
0.9981854085699492
 21
10.89245331202288
 31
0.0
  0
LINE
  5
2A87
330
1E
100
AcDbEntity
  8
7
100
AcDbLine
 10
0.9981854085699492
 20
10.89245331202288
 30
0.0
 11
0.9981854085699492
 21
10.88459898131421
 31
0.0
  0
LINE
  5
2A88
330
1E
100
AcDbEntity
  8
7
100
AcDbLine
 10
0.9052424951841224
 20
10.9461245718654
 30
0.0
 11
0.9274964321919965
 21
10.91339819391264
 31
0.0
  0
LINE
  5
2A89
330
1E
100
AcDbEntity
  8
7
100
AcDbLine
 10
0.9274964321919965
 20
10.91339819391264
 30
0.0
 11
0.958913755026642
 21
10.89245331202288
 31
0.0
  0
LINE
  5
2A8A
330
1E
100
AcDbEntity
  8
7
100
AcDbLine
 10
0.958913755026642
 20
10.89245331202288
 30
0.0
 11
0.9981854085699492
 21
10.88459898131421
 31
0.0
  0
LINE
  5
2A8B
330
1E
100
AcDbEntity
  8
7
100
AcDbLine
 10
0.9981854085699492
 20
10.98408717029059
 30
0.0
 11
0.9602228101447529
 21
10.98408717029059
 31
0.0
  0
LINE
  5
2A8C
330
1E
100
AcDbEntity
  8
7
100
AcDbLine
 10
0.9602228101447529
 20
10.98408717029059
 30
0.0
 11
0.9288054873101074
 21
10.98408717029059
 31
0.0
  0
LINE
  5
2A8D
330
1E
100
AcDbEntity
  8
7
100
AcDbLine
 10
0.9288054873101074
 20
10.98408717029059
 30
0.0
 11
0.9065515503022325
 21
10.98408717029059
 31
0.0
  0
LINE
  5
2A8E
330
1E
100
AcDbEntity
  8
7
100
AcDbLine
 10
0.9065515503022325
 20
10.98408717029059
 30
0.0
 11
0.8973881644754619
 21
10.98408717029059
 31
0.0
  0
LINE
  5
2A8F
330
1E
100
AcDbEntity
  8
7
100
AcDbLine
 10
0.9981854085699492
 20
12.42797496556619
 30
0.0
 11
0.9602228101447529
 21
12.42797496556619
 31
0.0
  0
LINE
  5
2A90
330
1E
100
AcDbEntity
  8
7
100
AcDbLine
 10
0.9602228101447529
 20
12.42797496556619
 30
0.0
 11
0.9288054873101074
 21
12.42797496556619
 31
0.0
  0
LINE
  5
2A91
330
1E
100
AcDbEntity
  8
7
100
AcDbLine
 10
0.9288054873101074
 20
12.42797496556619
 30
0.0
 11
0.9065515503022325
 21
12.42797496556619
 31
0.0
  0
LINE
  5
2A92
330
1E
100
AcDbEntity
  8
7
100
AcDbLine
 10
0.8973881644754619
 20
12.42797496556619
 30
0.0
 11
0.9052424951841224
 21
12.46593756399138
 31
0.0
  0
LINE
  5
2A93
330
1E
100
AcDbEntity
  8
7
100
AcDbLine
 10
0.9052424951841224
 20
12.46593756399138
 30
0.0
 11
0.9274964321919965
 21
12.49866394194414
 31
0.0
  0
LINE
  5
2A94
330
1E
100
AcDbEntity
  8
7
100
AcDbLine
 10
0.9274964321919965
 20
12.49866394194414
 30
0.0
 11
0.958913755026642
 21
12.5196088238339
 31
0.0
  0
LINE
  5
2A95
330
1E
100
AcDbEntity
  8
7
100
AcDbLine
 10
0.958913755026642
 20
12.5196088238339
 30
0.0
 11
0.9981854085699492
 21
12.52746315454256
 31
0.0
  0
LINE
  5
2A96
330
1E
100
AcDbEntity
  8
7
100
AcDbLine
 10
1.964268085735303
 20
10.99325055611737
 30
0.0
 11
1.983903912506957
 21
10.99325055611737
 31
0.0
  0
LINE
  5
2A97
330
1E
100
AcDbEntity
  8
7
100
AcDbLine
 10
1.983903912506957
 20
10.99325055611737
 30
0.0
 11
1.996994463688059
 21
10.99325055611737
 31
0.0
  0
LINE
  5
2A98
330
1E
100
AcDbEntity
  8
7
100
AcDbLine
 10
1.996994463688059
 20
10.99325055611737
 30
0.0
 11
2.00092162904239
 21
10.99325055611737
 31
0.0
  0
LINE
  5
2A99
330
1E
100
AcDbEntity
  8
7
100
AcDbLine
 10
1.94201414872743
 20
10.98408717029059
 30
0.0
 11
1.970813361325854
 21
10.98408717029059
 31
0.0
  0
LINE
  5
2A9A
330
1E
100
AcDbEntity
  8
7
100
AcDbLine
 10
1.970813361325854
 20
10.98408717029059
 30
0.0
 11
1.993067298333728
 21
10.98408717029059
 31
0.0
  0
LINE
  5
2A9B
330
1E
100
AcDbEntity
  8
7
100
AcDbLine
 10
1.993067298333728
 20
10.98408717029059
 30
0.0
 11
2.00092162904239
 21
10.98408717029059
 31
0.0
  0
LINE
  5
2A9C
330
1E
100
AcDbEntity
  8
7
100
AcDbLine
 10
2.312476747152626
 20
10.99325055611737
 30
0.0
 11
2.317712967625067
 21
10.99325055611737
 31
0.0
  0
LINE
  5
2A9D
330
1E
100
AcDbEntity
  8
7
100
AcDbLine
 10
2.317712967625067
 20
10.99325055611737
 30
0.0
 11
2.330803518806169
 21
10.99325055611737
 31
0.0
  0
LINE
  5
2A9E
330
1E
100
AcDbEntity
  8
7
100
AcDbLine
 10
2.330803518806169
 20
10.99325055611737
 30
0.0
 11
2.350439345577823
 21
10.99325055611737
 31
0.0
  0
LINE
  5
2A9F
330
1E
100
AcDbEntity
  8
7
100
AcDbLine
 10
2.350439345577823
 20
10.99325055611737
 30
0.0
 11
2.372693282585697
 21
10.99455961123548
 31
0.0
  0
LINE
  5
2AA0
330
1E
100
AcDbEntity
  8
7
100
AcDbLine
 10
0.9981854085699492
 20
12.42797496556619
 30
0.0
 11
0.9981854085699492
 21
12.46462850887327
 31
0.0
  0
LINE
  5
2AA1
330
1E
100
AcDbEntity
  8
7
100
AcDbLine
 10
0.9981854085699492
 20
12.46462850887327
 30
0.0
 11
0.9981854085699492
 21
12.49735488682603
 31
0.0
  0
LINE
  5
2AA2
330
1E
100
AcDbEntity
  8
7
100
AcDbLine
 10
0.9981854085699492
 20
12.49735488682603
 30
0.0
 11
0.9981854085699492
 21
12.51829976871579
 31
0.0
  0
LINE
  5
2AA3
330
1E
100
AcDbEntity
  8
7
100
AcDbLine
 10
0.9981854085699492
 20
12.51829976871579
 30
0.0
 11
0.9981854085699492
 21
12.52746315454256
 31
0.0
  0
LINE
  5
2AA4
330
1E
100
AcDbEntity
  8
7
100
AcDbLine
 10
4.228933440066012
 20
12.42797496556619
 30
0.0
 11
4.228933440066012
 21
12.46462850887327
 31
0.0
  0
LINE
  5
2AA5
330
1E
100
AcDbEntity
  8
7
100
AcDbLine
 10
4.228933440066012
 20
12.46462850887327
 30
0.0
 11
4.228933440066012
 21
12.49735488682603
 31
0.0
  0
LINE
  5
2AA6
330
1E
100
AcDbEntity
  8
7
100
AcDbLine
 10
4.228933440066012
 20
12.49735488682603
 30
0.0
 11
4.228933440066012
 21
12.51829976871579
 31
0.0
  0
LINE
  5
2AA7
330
1E
100
AcDbEntity
  8
7
100
AcDbLine
 10
4.228933440066012
 20
12.51829976871579
 30
0.0
 11
4.228933440066012
 21
12.52746315454256
 31
0.0
  0
LINE
  5
2AA8
330
1E
100
AcDbEntity
  8
7
100
AcDbLine
 10
2.312476747152626
 20
10.94481551674729
 30
0.0
 11
2.312476747152626
 21
10.95005173721973
 31
0.0
  0
LINE
  5
2AA9
330
1E
100
AcDbEntity
  8
7
100
AcDbLine
 10
2.312476747152626
 20
10.95005173721973
 30
0.0
 11
2.312476747152626
 21
10.96445134351894
 31
0.0
  0
LINE
  5
2AAA
330
1E
100
AcDbEntity
  8
7
100
AcDbLine
 10
2.312476747152626
 20
10.96445134351894
 30
0.0
 11
2.312476747152626
 21
10.98408717029059
 31
0.0
  0
LINE
  5
2AAB
330
1E
100
AcDbEntity
  8
7
100
AcDbLine
 10
2.312476747152626
 20
10.98408717029059
 30
0.0
 11
2.321640132979398
 21
10.98408717029059
 31
0.0
  0
LINE
  5
2AAC
330
1E
100
AcDbEntity
  8
7
100
AcDbLine
 10
2.321640132979398
 20
10.98408717029059
 30
0.0
 11
2.343894069987272
 21
10.98408717029059
 31
0.0
  0
LINE
  5
2AAD
330
1E
100
AcDbEntity
  8
7
100
AcDbLine
 10
2.343894069987272
 20
10.98408717029059
 30
0.0
 11
2.372693282585697
 21
10.98408717029059
 31
0.0
  0
LINE
  5
2AAE
330
1E
100
AcDbEntity
  8
7
100
AcDbLine
 10
2.372693282585697
 20
10.90423480808587
 30
0.0
 11
2.372693282585697
 21
10.88983520178666
 31
0.0
  0
LINE
  5
2AAF
330
1E
100
AcDbEntity
  8
7
100
AcDbLine
 10
2.372693282585697
 20
10.88983520178666
 30
0.0
 11
2.372693282585697
 21
10.88459898131421
 31
0.0
  0
LINE
  5
2AB0
330
1E
100
AcDbEntity
  8
7
100
AcDbLine
 10
2.372693282585697
 20
10.98408717029059
 30
0.0
 11
2.372693282585697
 21
10.95397890257406
 31
0.0
  0
LINE
  5
2AB1
330
1E
100
AcDbEntity
  8
7
100
AcDbLine
 10
2.372693282585697
 20
10.95397890257406
 30
0.0
 11
2.372693282585697
 21
10.92648874509374
 31
0.0
  0
LINE
  5
2AB2
330
1E
100
AcDbEntity
  8
7
100
AcDbLine
 10
2.372693282585697
 20
10.92648874509374
 30
0.0
 11
2.372693282585697
 21
10.90423480808587
 31
0.0
  0
LINE
  5
2AB3
330
1E
100
AcDbEntity
  8
7
100
AcDbLine
 10
2.312476747152626
 20
10.94481551674729
 30
0.0
 11
2.320331077861287
 21
10.91470724903075
 31
0.0
  0
LINE
  5
2AB4
330
1E
100
AcDbEntity
  8
7
100
AcDbLine
 10
2.320331077861287
 20
10.91470724903075
 30
0.0
 11
2.342585014869162
 21
10.89245331202288
 31
0.0
  0
LINE
  5
2AB5
330
1E
100
AcDbEntity
  8
7
100
AcDbLine
 10
2.342585014869162
 20
10.89245331202288
 30
0.0
 11
2.372693282585697
 21
10.88459898131421
 31
0.0
  0
LINE
  5
2AB6
330
1E
100
AcDbEntity
  8
7
100
AcDbLine
 10
2.701266117231367
 20
11.96849661910949
 30
0.0
 11
2.925114542428217
 21
11.96849661910949
 31
0.0
  0
LINE
  5
2AB7
330
1E
100
AcDbEntity
  8
7
100
AcDbLine
 10
2.925114542428217
 20
11.96849661910949
 30
0.0
 11
2.926423597546327
 21
11.96849661910949
 31
0.0
  0
LINE
  5
2AB8
330
1E
100
AcDbEntity
  8
7
100
AcDbLine
 10
2.012703125105382
 20
11.96849661910949
 30
0.0
 11
2.012703125105382
 21
11.31004189470004
 31
0.0
  0
LINE
  5
2AB9
330
1E
100
AcDbEntity
  8
7
100
AcDbLine
 10
2.012703125105382
 20
11.31004189470004
 30
0.0
 11
1.944632258963649
 21
11.31004189470004
 31
0.0
  0
LINE
  5
2ABA
330
1E
100
AcDbEntity
  8
7
100
AcDbLine
 10
1.456354699908532
 20
11.31004189470004
 30
0.0
 11
1.389592888884909
 21
11.31004189470004
 31
0.0
  0
LINE
  5
2ABB
330
1E
100
AcDbEntity
  8
7
100
AcDbLine
 10
1.389592888884909
 20
11.31004189470004
 30
0.0
 11
1.389592888884909
 21
11.96849661910949
 31
0.0
  0
LINE
  5
2ABC
330
1E
100
AcDbEntity
  8
7
100
AcDbLine
 10
1.787545644790422
 20
11.96849661910949
 30
0.0
 11
1.61344131408176
 21
11.96849661910949
 31
0.0
  0
LINE
  5
2ABD
330
1E
100
AcDbEntity
  8
7
100
AcDbLine
 10
1.61344131408176
 20
11.96849661910949
 30
0.0
 11
1.61344131408176
 21
11.92922496556618
 31
0.0
  0
LINE
  5
2ABE
330
1E
100
AcDbEntity
  8
7
100
AcDbLine
 10
2.042811392821918
 20
10.94874268210162
 30
0.0
 11
2.036266117231367
 21
10.98146906005438
 31
0.0
  0
LINE
  5
2ABF
330
1E
100
AcDbEntity
  8
7
100
AcDbLine
 10
2.036266117231367
 20
10.98146906005438
 30
0.0
 11
2.036266117231367
 21
10.98408717029059
 31
0.0
  0
LINE
  5
2AC0
330
1E
100
AcDbEntity
  8
7
100
AcDbLine
 10
2.044120447940027
 20
10.91601630414886
 30
0.0
 11
2.044120447940027
 21
10.92779780021185
 31
0.0
  0
LINE
  5
2AC1
330
1E
100
AcDbEntity
  8
7
100
AcDbLine
 10
2.044120447940027
 20
10.92779780021185
 30
0.0
 11
2.044120447940027
 21
10.93565213092052
 31
0.0
  0
LINE
  5
2AC2
330
1E
100
AcDbEntity
  8
7
100
AcDbLine
 10
2.271896038491209
 20
10.94874268210162
 30
0.0
 11
2.270586983373099
 21
10.93565213092052
 31
0.0
  0
LINE
  5
2AC3
330
1E
100
AcDbEntity
  8
7
100
AcDbLine
 10
2.270586983373099
 20
10.93565213092052
 30
0.0
 11
2.270586983373099
 21
10.92779780021185
 31
0.0
  0
LINE
  5
2AC4
330
1E
100
AcDbEntity
  8
7
100
AcDbLine
 10
2.270586983373099
 20
10.92779780021185
 30
0.0
 11
2.270586983373099
 21
10.91601630414886
 31
0.0
  0
LINE
  5
2AC5
330
1E
100
AcDbEntity
  8
7
100
AcDbLine
 10
2.270586983373099
 20
10.91601630414886
 30
0.0
 11
2.270586983373099
 21
10.87674465060556
 31
0.0
  0
LINE
  5
2AC6
330
1E
100
AcDbEntity
  8
7
100
AcDbLine
 10
2.956531865262863
 20
10.87674465060556
 30
0.0
 11
2.956531865262863
 21
10.91601630414886
 31
0.0
  0
LINE
  5
2AC7
330
1E
100
AcDbEntity
  8
7
100
AcDbLine
 10
2.956531865262863
 20
10.91601630414886
 30
0.0
 11
2.956531865262863
 21
10.92779780021185
 31
0.0
  0
LINE
  5
2AC8
330
1E
100
AcDbEntity
  8
7
100
AcDbLine
 10
2.956531865262863
 20
10.92779780021185
 30
0.0
 11
2.956531865262863
 21
10.93565213092052
 31
0.0
  0
LINE
  5
2AC9
330
1E
100
AcDbEntity
  8
7
100
AcDbLine
 10
2.956531865262863
 20
10.93565213092052
 30
0.0
 11
2.955222810144753
 21
10.94874268210162
 31
0.0
  0
LINE
  5
2ACA
330
1E
100
AcDbEntity
  8
7
100
AcDbLine
 10
3.182998400695933
 20
10.93565213092052
 30
0.0
 11
3.182998400695933
 21
10.92779780021185
 31
0.0
  0
LINE
  5
2ACB
330
1E
100
AcDbEntity
  8
7
100
AcDbLine
 10
3.182998400695933
 20
10.92779780021185
 30
0.0
 11
3.182998400695933
 21
10.91601630414886
 31
0.0
  0
LINE
  5
2ACC
330
1E
100
AcDbEntity
  8
7
100
AcDbLine
 10
3.228815329829791
 20
10.87412654036933
 30
0.0
 11
3.248451156601445
 21
10.86103598918823
 31
0.0
  0
LINE
  5
2ACD
330
1E
100
AcDbEntity
  8
7
100
AcDbLine
 10
3.248451156601445
 20
10.86103598918823
 30
0.0
 11
3.270705093609318
 21
10.85579976871579
 31
0.0
  0
LINE
  5
2ACE
330
1E
100
AcDbEntity
  8
7
100
AcDbLine
 10
3.210488558176249
 20
10.91601630414886
 30
0.0
 11
3.21572477864869
 21
10.89376236714099
 31
0.0
  0
LINE
  5
2ACF
330
1E
100
AcDbEntity
  8
7
100
AcDbLine
 10
3.21572477864869
 20
10.89376236714099
 30
0.0
 11
3.228815329829791
 21
10.87412654036933
 31
0.0
  0
LINE
  5
2AD0
330
1E
100
AcDbEntity
  8
7
100
AcDbLine
 10
4.257732652664438
 20
10.85579976871579
 30
0.0
 11
4.287840920380973
 21
10.86103598918823
 31
0.0
  0
LINE
  5
2AD1
330
1E
100
AcDbEntity
  8
7
100
AcDbLine
 10
4.287840920380973
 20
10.86103598918823
 30
0.0
 11
4.316640132979398
 21
10.87543559548745
 31
0.0
  0
LINE
  5
2AD2
330
1E
100
AcDbEntity
  8
7
100
AcDbLine
 10
4.316640132979398
 20
10.87543559548745
 30
0.0
 11
4.337585014869162
 21
10.89768953249532
 31
0.0
  0
LINE
  5
2AD3
330
1E
100
AcDbEntity
  8
7
100
AcDbLine
 10
4.337585014869162
 20
10.89768953249532
 30
0.0
 11
4.351984621168375
 21
10.92517968997563
 31
0.0
  0
LINE
  5
2AD4
330
1E
100
AcDbEntity
  8
7
100
AcDbLine
 10
4.351984621168375
 20
10.92517968997563
 30
0.0
 11
4.357220841640816
 21
10.95659701281028
 31
0.0
  0
LINE
  5
2AD5
330
1E
100
AcDbEntity
  8
7
100
AcDbLine
 10
4.357220841640816
 20
12.4554651230465
 30
0.0
 11
4.351984621168375
 21
12.48688244588114
 31
0.0
  0
LINE
  5
2AD6
330
1E
100
AcDbEntity
  8
7
100
AcDbLine
 10
4.351984621168375
 20
12.48688244588114
 30
0.0
 11
4.337585014869162
 21
12.51437260336146
 31
0.0
  0
LINE
  5
2AD7
330
1E
100
AcDbEntity
  8
7
100
AcDbLine
 10
4.337585014869162
 20
12.51437260336146
 30
0.0
 11
4.316640132979398
 21
12.53662654036934
 31
0.0
  0
LINE
  5
2AD8
330
1E
100
AcDbEntity
  8
7
100
AcDbLine
 10
4.316640132979398
 20
12.53662654036934
 30
0.0
 11
4.287840920380973
 21
12.55102614666855
 31
0.0
  0
LINE
  5
2AD9
330
1E
100
AcDbEntity
  8
7
100
AcDbLine
 10
4.287840920380973
 20
12.55102614666855
 30
0.0
 11
4.257732652664438
 21
12.55495331202288
 31
0.0
  0
LINE
  5
2ADA
330
1E
100
AcDbEntity
  8
7
100
AcDbLine
 10
0.8698980069951458
 20
12.4554651230465
 30
0.0
 11
0.875134227467587
 21
12.48688244588114
 31
0.0
  0
LINE
  5
2ADB
330
1E
100
AcDbEntity
  8
7
100
AcDbLine
 10
0.875134227467587
 20
12.48688244588114
 30
0.0
 11
0.8895338337667997
 21
12.51437260336146
 31
0.0
  0
LINE
  5
2ADC
330
1E
100
AcDbEntity
  8
7
100
AcDbLine
 10
0.8895338337667997
 20
12.51437260336146
 30
0.0
 11
0.9104787156565636
 21
12.53662654036934
 31
0.0
  0
LINE
  5
2ADD
330
1E
100
AcDbEntity
  8
7
100
AcDbLine
 10
0.9104787156565636
 20
12.53662654036934
 30
0.0
 11
0.939277928254989
 21
12.55102614666855
 31
0.0
  0
LINE
  5
2ADE
330
1E
100
AcDbEntity
  8
7
100
AcDbLine
 10
0.939277928254989
 20
12.55102614666855
 30
0.0
 11
0.9693861959715235
 21
12.55495331202288
 31
0.0
  0
LINE
  5
2ADF
330
1E
100
AcDbEntity
  8
7
100
AcDbLine
 10
0.9693861959715235
 20
12.55495331202288
 30
0.0
 11
4.257732652664438
 21
12.55495331202288
 31
0.0
  0
LINE
  5
2AE0
330
1E
100
AcDbEntity
  8
7
100
AcDbLine
 10
2.016630290459713
 20
10.91601630414886
 30
0.0
 11
2.011394069987272
 21
10.89376236714099
 31
0.0
  0
LINE
  5
2AE1
330
1E
100
AcDbEntity
  8
7
100
AcDbLine
 10
2.011394069987272
 20
10.89376236714099
 30
0.0
 11
1.998303518806169
 21
10.87412654036933
 31
0.0
  0
LINE
  5
2AE2
330
1E
100
AcDbEntity
  8
7
100
AcDbLine
 10
1.998303518806169
 20
10.87412654036933
 30
0.0
 11
1.978667692034516
 21
10.86103598918823
 31
0.0
  0
LINE
  5
2AE3
330
1E
100
AcDbEntity
  8
7
100
AcDbLine
 10
1.978667692034516
 20
10.86103598918823
 30
0.0
 11
1.956413755026641
 21
10.85579976871579
 31
0.0
  0
LINE
  5
2AE4
330
1E
100
AcDbEntity
  8
7
100
AcDbLine
 10
1.956413755026641
 20
10.85579976871579
 30
0.0
 11
0.9693861959715235
 21
10.85579976871579
 31
0.0
  0
LINE
  5
2AE5
330
1E
100
AcDbEntity
  8
7
100
AcDbLine
 10
0.9693861959715235
 20
10.85579976871579
 30
0.0
 11
0.939277928254989
 21
10.86103598918823
 31
0.0
  0
LINE
  5
2AE6
330
1E
100
AcDbEntity
  8
7
100
AcDbLine
 10
0.939277928254989
 20
10.86103598918823
 30
0.0
 11
0.9104787156565636
 21
10.87543559548745
 31
0.0
  0
LINE
  5
2AE7
330
1E
100
AcDbEntity
  8
7
100
AcDbLine
 10
0.9104787156565636
 20
10.87543559548745
 30
0.0
 11
0.8895338337667997
 21
10.89768953249532
 31
0.0
  0
LINE
  5
2AE8
330
1E
100
AcDbEntity
  8
7
100
AcDbLine
 10
0.8895338337667997
 20
10.89768953249532
 30
0.0
 11
0.875134227467587
 21
10.92517968997563
 31
0.0
  0
LINE
  5
2AE9
330
1E
100
AcDbEntity
  8
7
100
AcDbLine
 10
0.875134227467587
 20
10.92517968997563
 30
0.0
 11
0.8698980069951458
 21
10.95659701281028
 31
0.0
  0
LINE
  5
2AEA
330
1E
100
AcDbEntity
  8
7
100
AcDbLine
 10
0.8698980069951458
 20
10.95659701281028
 30
0.0
 11
0.8698980069951458
 21
12.4554651230465
 31
0.0
  0
LINE
  5
2AEB
330
1E
100
AcDbEntity
  8
7
100
AcDbLine
 10
3.919996432191997
 20
15.28695134351894
 30
0.0
 11
3.853234621168375
 21
15.28695134351894
 31
0.0
  0
LINE
  5
2AEC
330
1E
100
AcDbEntity
  8
7
100
AcDbLine
 10
3.853234621168375
 20
15.28695134351894
 30
0.0
 11
3.851925566050264
 21
15.18615409942445
 31
0.0
  0
LINE
  5
2AED
330
1E
100
AcDbEntity
  8
7
100
AcDbLine
 10
3.919996432191997
 20
15.28695134351894
 30
0.0
 11
3.926541707782548
 21
15.28302417816461
 31
0.0
  0
LINE
  5
2AEE
330
1E
100
AcDbEntity
  8
7
100
AcDbLine
 10
3.926541707782548
 20
15.28302417816461
 30
0.0
 11
3.930468873136879
 21
15.27647890257406
 31
0.0
  0
LINE
  5
2AEF
330
1E
100
AcDbEntity
  8
7
100
AcDbLine
 10
3.930468873136879
 20
15.20186276084178
 30
0.0
 11
3.934396038491209
 21
15.1913903198969
 31
0.0
  0
LINE
  5
2AF0
330
1E
100
AcDbEntity
  8
7
100
AcDbLine
 10
3.934396038491209
 20
15.1913903198969
 30
0.0
 11
3.944868479436091
 21
15.18615409942445
 31
0.0
  0
LINE
  5
2AF1
330
1E
100
AcDbEntity
  8
7
100
AcDbLine
 10
1.307122416443964
 20
15.28695134351894
 30
0.0
 11
1.300577140853413
 21
15.28302417816461
 31
0.0
  0
LINE
  5
2AF2
330
1E
100
AcDbEntity
  8
7
100
AcDbLine
 10
1.300577140853413
 20
15.28302417816461
 30
0.0
 11
1.296649975499082
 21
15.27647890257406
 31
0.0
  0
LINE
  5
2AF3
330
1E
100
AcDbEntity
  8
7
100
AcDbLine
 10
1.296649975499082
 20
15.27647890257406
 30
0.0
 11
1.296649975499082
 21
15.20186276084178
 31
0.0
  0
LINE
  5
2AF4
330
1E
100
AcDbEntity
  8
7
100
AcDbLine
 10
1.296649975499082
 20
15.20186276084178
 30
0.0
 11
1.292722810144752
 21
15.1913903198969
 31
0.0
  0
LINE
  5
2AF5
330
1E
100
AcDbEntity
  8
7
100
AcDbLine
 10
1.292722810144752
 20
15.1913903198969
 30
0.0
 11
1.282250369199871
 21
15.18615409942445
 31
0.0
  0
LINE
  5
2AF6
330
1E
100
AcDbEntity
  8
7
100
AcDbLine
 10
4.228933440066012
 20
14.28945134351894
 30
0.0
 11
4.265586983373099
 21
14.2973056742276
 31
0.0
  0
LINE
  5
2AF7
330
1E
100
AcDbEntity
  8
7
100
AcDbLine
 10
4.265586983373099
 20
14.2973056742276
 30
0.0
 11
4.298313361325854
 21
14.31694150099926
 31
0.0
  0
LINE
  5
2AF8
330
1E
100
AcDbEntity
  8
7
100
AcDbLine
 10
4.298313361325854
 20
14.31694150099926
 30
0.0
 11
4.319258243215618
 21
14.3483588238339
 31
0.0
  0
LINE
  5
2AF9
330
1E
100
AcDbEntity
  8
7
100
AcDbLine
 10
4.319258243215618
 20
14.3483588238339
 30
0.0
 11
4.32842162904239
 21
14.38501236714099
 31
0.0
  0
LINE
  5
2AFA
330
1E
100
AcDbEntity
  8
7
100
AcDbLine
 10
4.3297306841605
 20
14.38501236714099
 30
0.0
 11
4.321876353451839
 21
14.38370331202288
 31
0.0
  0
LINE
  5
2AFB
330
1E
100
AcDbEntity
  8
7
100
AcDbLine
 10
4.321876353451839
 20
14.38370331202288
 30
0.0
 11
4.299622416443965
 21
14.38370331202288
 31
0.0
  0
LINE
  5
2AFC
330
1E
100
AcDbEntity
  8
7
100
AcDbLine
 10
4.299622416443965
 20
14.38370331202288
 30
0.0
 11
4.26820509360932
 21
14.38370331202288
 31
0.0
  0
LINE
  5
2AFD
330
1E
100
AcDbEntity
  8
7
100
AcDbLine
 10
4.26820509360932
 20
14.38370331202288
 30
0.0
 11
4.228933440066012
 21
14.38501236714099
 31
0.0
  0
LINE
  5
2AFE
330
1E
100
AcDbEntity
  8
7
100
AcDbLine
 10
0.898697219593572
 20
14.38501236714099
 30
0.0
 11
0.9078606054203435
 21
14.3483588238339
 31
0.0
  0
LINE
  5
2AFF
330
1E
100
AcDbEntity
  8
7
100
AcDbLine
 10
0.9078606054203435
 20
14.3483588238339
 30
0.0
 11
0.9288054873101074
 21
14.31694150099926
 31
0.0
  0
LINE
  5
2B00
330
1E
100
AcDbEntity
  8
7
100
AcDbLine
 10
0.9288054873101074
 20
14.31694150099926
 30
0.0
 11
0.961531865262863
 21
14.2973056742276
 31
0.0
  0
LINE
  5
2B01
330
1E
100
AcDbEntity
  8
7
100
AcDbLine
 10
0.961531865262863
 20
14.2973056742276
 30
0.0
 11
0.9981854085699492
 21
14.28945134351894
 31
0.0
  0
LINE
  5
2B02
330
1E
100
AcDbEntity
  8
7
100
AcDbLine
 10
0.8973881644754619
 20
14.38501236714099
 30
0.0
 11
0.9052424951841224
 21
14.38370331202288
 31
0.0
  0
LINE
  5
2B03
330
1E
100
AcDbEntity
  8
7
100
AcDbLine
 10
0.9052424951841224
 20
14.38370331202288
 30
0.0
 11
0.9274964321919965
 21
14.38370331202288
 31
0.0
  0
LINE
  5
2B04
330
1E
100
AcDbEntity
  8
7
100
AcDbLine
 10
0.9274964321919965
 20
14.38370331202288
 30
0.0
 11
0.958913755026642
 21
14.38370331202288
 31
0.0
  0
LINE
  5
2B05
330
1E
100
AcDbEntity
  8
7
100
AcDbLine
 10
0.958913755026642
 20
14.38370331202288
 30
0.0
 11
0.9981854085699492
 21
14.38501236714099
 31
0.0
  0
LINE
  5
2B06
330
1E
100
AcDbEntity
  8
7
100
AcDbLine
 10
0.9981854085699492
 20
14.28945134351894
 30
0.0
 11
0.9981854085699492
 21
14.29599661910949
 31
0.0
  0
LINE
  5
2B07
330
1E
100
AcDbEntity
  8
7
100
AcDbLine
 10
0.9981854085699492
 20
14.29599661910949
 30
0.0
 11
0.9981854085699492
 21
14.31694150099926
 31
0.0
  0
LINE
  5
2B08
330
1E
100
AcDbEntity
  8
7
100
AcDbLine
 10
0.9981854085699492
 20
14.31694150099926
 30
0.0
 11
0.9981854085699492
 21
14.3483588238339
 31
0.0
  0
LINE
  5
2B09
330
1E
100
AcDbEntity
  8
7
100
AcDbLine
 10
0.9981854085699492
 20
14.3483588238339
 30
0.0
 11
0.9981854085699492
 21
14.38501236714099
 31
0.0
  0
LINE
  5
2B0A
330
1E
100
AcDbEntity
  8
7
100
AcDbLine
 10
4.228933440066012
 20
14.31694150099926
 30
0.0
 11
4.228933440066012
 21
14.3483588238339
 31
0.0
  0
LINE
  5
2B0B
330
1E
100
AcDbEntity
  8
7
100
AcDbLine
 10
4.228933440066012
 20
14.3483588238339
 30
0.0
 11
4.228933440066012
 21
14.38501236714099
 31
0.0
  0
LINE
  5
2B0C
330
1E
100
AcDbEntity
  8
7
100
AcDbLine
 10
4.228933440066012
 20
14.28945134351894
 30
0.0
 11
4.228933440066012
 21
14.29599661910949
 31
0.0
  0
LINE
  5
2B0D
330
1E
100
AcDbEntity
  8
7
100
AcDbLine
 10
4.228933440066012
 20
14.29599661910949
 30
0.0
 11
4.228933440066012
 21
14.31694150099926
 31
0.0
  0
LINE
  5
2B0E
330
1E
100
AcDbEntity
  8
7
100
AcDbLine
 10
2.926423597546327
 20
15.28433323328272
 30
0.0
 11
2.926423597546327
 21
15.28956945375516
 31
0.0
  0
LINE
  5
2B0F
330
1E
100
AcDbEntity
  8
7
100
AcDbLine
 10
2.926423597546327
 20
15.28956945375516
 30
0.0
 11
2.926423597546327
 21
15.2948056742276
 31
0.0
  0
LINE
  5
2B10
330
1E
100
AcDbEntity
  8
7
100
AcDbLine
 10
2.926423597546327
 20
15.2948056742276
 30
0.0
 11
2.927732652664437
 21
15.38643953249532
 31
0.0
  0
LINE
  5
2B11
330
1E
100
AcDbEntity
  8
7
100
AcDbLine
 10
2.970931471562075
 20
15.38643953249532
 30
0.0
 11
2.972240526680185
 21
15.2948056742276
 31
0.0
  0
LINE
  5
2B12
330
1E
100
AcDbEntity
  8
7
100
AcDbLine
 10
2.972240526680185
 20
15.2948056742276
 30
0.0
 11
2.970931471562075
 21
15.28956945375516
 31
0.0
  0
LINE
  5
2B13
330
1E
100
AcDbEntity
  8
7
100
AcDbLine
 10
2.970931471562075
 20
15.28956945375516
 30
0.0
 11
2.970931471562075
 21
15.28433323328272
 31
0.0
  0
LINE
  5
2B14
330
1E
100
AcDbEntity
  8
7
100
AcDbLine
 10
3.168598794396721
 20
15.19400843013311
 30
0.0
 11
3.168598794396721
 21
15.23458913879453
 31
0.0
  0
LINE
  5
2B15
330
1E
100
AcDbEntity
  8
7
100
AcDbLine
 10
3.168598794396721
 20
15.23458913879453
 30
0.0
 11
3.168598794396721
 21
15.28433323328272
 31
0.0
  0
LINE
  5
2B16
330
1E
100
AcDbEntity
  8
7
100
AcDbLine
 10
3.168598794396721
 20
15.28433323328272
 30
0.0
 11
3.168598794396721
 21
15.28956945375516
 31
0.0
  0
LINE
  5
2B17
330
1E
100
AcDbEntity
  8
7
100
AcDbLine
 10
3.213106668412469
 20
15.28956945375516
 30
0.0
 11
3.213106668412469
 21
15.28433323328272
 31
0.0
  0
LINE
  5
2B18
330
1E
100
AcDbEntity
  8
7
100
AcDbLine
 10
3.213106668412469
 20
15.28433323328272
 30
0.0
 11
3.213106668412469
 21
15.23458913879453
 31
0.0
  0
LINE
  5
2B19
330
1E
100
AcDbEntity
  8
7
100
AcDbLine
 10
2.300695251089635
 20
15.2948056742276
 30
0.0
 11
2.300695251089635
 21
15.28956945375516
 31
0.0
  0
LINE
  5
2B1A
330
1E
100
AcDbEntity
  8
7
100
AcDbLine
 10
2.300695251089635
 20
15.28956945375516
 30
0.0
 11
2.300695251089635
 21
15.28433323328272
 31
0.0
  0
LINE
  5
2B1B
330
1E
100
AcDbEntity
  8
7
100
AcDbLine
 10
2.045429503058139
 20
15.38643953249532
 30
0.0
 11
2.046738558176249
 21
15.44272890257406
 31
0.0
  0
LINE
  5
2B1C
330
1E
100
AcDbEntity
  8
7
100
AcDbLine
 10
2.046738558176249
 20
15.44272890257406
 30
0.0
 11
2.046738558176249
 21
15.45451039863705
 31
0.0
  0
LINE
  5
2B1D
330
1E
100
AcDbEntity
  8
7
100
AcDbLine
 10
2.046738558176249
 20
15.45451039863705
 30
0.0
 11
2.046738558176249
 21
15.45974661910949
 31
0.0
  0
LINE
  5
2B1E
330
1E
100
AcDbEntity
  8
7
100
AcDbLine
 10
2.256187377073886
 20
15.28433323328272
 30
0.0
 11
2.256187377073886
 21
15.28956945375516
 31
0.0
  0
LINE
  5
2B1F
330
1E
100
AcDbEntity
  8
7
100
AcDbLine
 10
2.256187377073886
 20
15.28956945375516
 30
0.0
 11
2.254878321955776
 21
15.2948056742276
 31
0.0
  0
LINE
  5
2B20
330
1E
100
AcDbEntity
  8
7
100
AcDbLine
 10
2.05852005423924
 20
15.28956945375516
 30
0.0
 11
2.05852005423924
 21
15.28433323328272
 31
0.0
  0
LINE
  5
2B21
330
1E
100
AcDbEntity
  8
7
100
AcDbLine
 10
2.05852005423924
 20
15.28433323328272
 30
0.0
 11
2.05852005423924
 21
15.23458913879453
 31
0.0
  0
LINE
  5
2B22
330
1E
100
AcDbEntity
  8
7
100
AcDbLine
 10
2.014012180223492
 20
15.23458913879453
 30
0.0
 11
2.014012180223492
 21
15.28433323328272
 31
0.0
  0
LINE
  5
2B23
330
1E
100
AcDbEntity
  8
7
100
AcDbLine
 10
2.014012180223492
 20
15.28433323328272
 30
0.0
 11
2.014012180223492
 21
15.28956945375516
 31
0.0
  0
LINE
  5
2B24
330
1E
100
AcDbEntity
  8
7
100
AcDbLine
 10
2.267968873136878
 20
15.45974661910949
 30
0.0
 11
2.267968873136878
 21
15.45451039863705
 31
0.0
  0
LINE
  5
2B25
330
1E
100
AcDbEntity
  8
7
100
AcDbLine
 10
2.267968873136878
 20
15.45451039863705
 30
0.0
 11
2.267968873136878
 21
15.44272890257406
 31
0.0
  0
LINE
  5
2B26
330
1E
100
AcDbEntity
  8
7
100
AcDbLine
 10
2.957840920380972
 20
15.38643953249532
 30
0.0
 11
2.959149975499082
 21
15.44272890257406
 31
0.0
  0
LINE
  5
2B27
330
1E
100
AcDbEntity
  8
7
100
AcDbLine
 10
2.959149975499082
 20
15.44272890257406
 30
0.0
 11
2.959149975499082
 21
15.45451039863705
 31
0.0
  0
LINE
  5
2B28
330
1E
100
AcDbEntity
  8
7
100
AcDbLine
 10
2.959149975499082
 20
15.45451039863705
 30
0.0
 11
2.959149975499082
 21
15.45974661910949
 31
0.0
  0
LINE
  5
2B29
330
1E
100
AcDbEntity
  8
7
100
AcDbLine
 10
3.180380290459713
 20
15.45974661910949
 30
0.0
 11
3.180380290459713
 21
15.45451039863705
 31
0.0
  0
LINE
  5
2B2A
330
1E
100
AcDbEntity
  8
7
100
AcDbLine
 10
3.180380290459713
 20
15.45451039863705
 30
0.0
 11
3.180380290459713
 21
15.44272890257406
 31
0.0
  0
LINE
  5
2B2B
330
1E
100
AcDbEntity
  8
7
100
AcDbLine
 10
1.479917692034516
 20
15.33669543800713
 30
0.0
 11
1.479917692034516
 21
15.3327682726528
 31
0.0
  0
LINE
  5
2B2C
330
1E
100
AcDbEntity
  8
7
100
AcDbLine
 10
1.479917692034516
 20
15.3327682726528
 30
0.0
 11
1.479917692034516
 21
15.32622299706225
 31
0.0
  0
LINE
  5
2B2D
330
1E
100
AcDbEntity
  8
7
100
AcDbLine
 10
1.441955093609319
 20
15.32622299706225
 30
0.0
 11
1.441955093609319
 21
15.3327682726528
 31
0.0
  0
LINE
  5
2B2E
330
1E
100
AcDbEntity
  8
7
100
AcDbLine
 10
1.441955093609319
 20
15.3327682726528
 30
0.0
 11
1.441955093609319
 21
15.33669543800713
 31
0.0
  0
LINE
  5
2B2F
330
1E
100
AcDbEntity
  8
7
100
AcDbLine
 10
4.357220841640816
 20
15.18615409942445
 30
0.0
 11
4.351984621168375
 21
15.18615409942445
 31
0.0
  0
LINE
  5
2B30
330
1E
100
AcDbEntity
  8
7
100
AcDbLine
 10
4.351984621168375
 20
15.18615409942445
 30
0.0
 11
4.337585014869162
 21
15.18615409942445
 31
0.0
  0
LINE
  5
2B31
330
1E
100
AcDbEntity
  8
7
100
AcDbLine
 10
4.337585014869162
 20
15.18615409942445
 30
0.0
 11
4.316640132979398
 21
15.18615409942445
 31
0.0
  0
LINE
  5
2B32
330
1E
100
AcDbEntity
  8
7
100
AcDbLine
 10
4.316640132979398
 20
15.18615409942445
 30
0.0
 11
4.287840920380973
 21
15.18615409942445
 31
0.0
  0
LINE
  5
2B33
330
1E
100
AcDbEntity
  8
7
100
AcDbLine
 10
4.287840920380973
 20
15.18615409942445
 30
0.0
 11
4.257732652664438
 21
15.18615409942445
 31
0.0
  0
LINE
  5
2B34
330
1E
100
AcDbEntity
  8
7
100
AcDbLine
 10
0.9104787156565636
 20
15.18615409942445
 30
0.0
 11
0.939277928254989
 21
15.18615409942445
 31
0.0
  0
LINE
  5
2B35
330
1E
100
AcDbEntity
  8
7
100
AcDbLine
 10
0.939277928254989
 20
15.18615409942445
 30
0.0
 11
0.9693861959715235
 21
15.18615409942445
 31
0.0
  0
LINE
  5
2B36
330
1E
100
AcDbEntity
  8
7
100
AcDbLine
 10
0.9693861959715235
 20
15.18615409942445
 30
0.0
 11
4.257732652664438
 21
15.18615409942445
 31
0.0
  0
LINE
  5
2B37
330
1E
100
AcDbEntity
  8
7
100
AcDbLine
 10
0.8698980069951458
 20
15.18615409942445
 30
0.0
 11
0.875134227467587
 21
15.18615409942445
 31
0.0
  0
LINE
  5
2B38
330
1E
100
AcDbEntity
  8
7
100
AcDbLine
 10
0.875134227467587
 20
15.18615409942445
 30
0.0
 11
0.8895338337667997
 21
15.18615409942445
 31
0.0
  0
LINE
  5
2B39
330
1E
100
AcDbEntity
  8
7
100
AcDbLine
 10
0.8895338337667997
 20
15.18615409942445
 30
0.0
 11
0.9104787156565636
 21
15.18615409942445
 31
0.0
  0
LINE
  5
2B3A
330
1E
100
AcDbEntity
  8
7
100
AcDbLine
 10
3.747201156601445
 20
15.32622299706225
 30
0.0
 11
3.747201156601445
 21
15.3327682726528
 31
0.0
  0
LINE
  5
2B3B
330
1E
100
AcDbEntity
  8
7
100
AcDbLine
 10
3.747201156601445
 20
15.3327682726528
 30
0.0
 11
3.747201156601445
 21
15.33669543800713
 31
0.0
  0
LINE
  5
2B3C
330
1E
100
AcDbEntity
  8
7
100
AcDbLine
 10
3.785163755026643
 20
15.33669543800713
 30
0.0
 11
3.785163755026643
 21
15.3327682726528
 31
0.0
  0
LINE
  5
2B3D
330
1E
100
AcDbEntity
  8
7
100
AcDbLine
 10
3.785163755026643
 20
15.3327682726528
 30
0.0
 11
3.785163755026643
 21
15.32622299706225
 31
0.0
  0
LINE
  5
2B3E
330
1E
100
AcDbEntity
  8
7
100
AcDbLine
 10
3.786472810144752
 20
15.18615409942445
 30
0.0
 11
3.785163755026643
 21
15.32622299706225
 31
0.0
  0
LINE
  5
2B3F
330
1E
100
AcDbEntity
  8
7
100
AcDbLine
 10
3.785163755026643
 20
15.32622299706225
 30
0.0
 11
3.747201156601445
 21
15.32622299706225
 31
0.0
  0
ENDSEC
  0
SECTION
  2
OBJECTS
  0
DICTIONARY
  5
C
330
0
100
AcDbDictionary
  3
ACAD_GROUP
350
D
  3
ACAD_MLINESTYLE
350
16
  3
ACAD_PLOTSETTINGS
350
18
  3
ACAD_LAYOUT
350
19
1001
ACAD
1000
TREAT_AS_HARD
1070
     0
  0
DICTIONARY
  5
3E03
330
1E
100
AcDbDictionary
  3
ACAD_LAYOUTSELFREF
350
3E04
  0
DICTIONARY
  5
3E01
330
1A
100
AcDbDictionary
  3
ACAD_LAYOUTSELFREF
350
3E02
  0
DICTIONARY
  5
D
102
{ACAD_REACTORS
330
C
102
}
330
C
100
AcDbDictionary
1001
ACAD
1000
TREAT_AS_HARD
1070
     0
  0
DICTIONARY
  5
16
102
{ACAD_REACTORS
330
C
102
}
330
C
100
AcDbDictionary
  3
STANDARD
350
17
1001
ACAD
1000
TREAT_AS_HARD
1070
     0
  0
DICTIONARY
  5
18
102
{ACAD_REACTORS
330
C
102
}
330
C
100
AcDbDictionary
1001
ACAD
1000
TREAT_AS_HARD
1070
     0
  0
DICTIONARY
  5
19
102
{ACAD_REACTORS
330
C
102
}
330
C
100
AcDbDictionary
1001
ACAD
1000
TREAT_AS_HARD
1070
     0
  0
XRECORD
  5
3E04
102
{ACAD_REACTORS
330
3E03
102
}
330
3E03
100
AcDbXrecord
340
1E
  0
XRECORD
  5
3E02
102
{ACAD_REACTORS
330
3E01
102
}
330
3E01
100
AcDbXrecord
340
1A
  0
MLINESTYLE
  5
17
102
{ACAD_REACTORS
330
16
102
}
330
16
100
AcDbMlineStyle
  2
STANDARD
 70
     0
  3

 62
   256
 51
90.0
 52
90.0
 71
     2
 49
0.5
 62
   256
  6
BYLAYER
 49
-0.5
 62
   256
  6
BYLAYER
  0
ENDSEC
  0
EOF
