  0
SECTION
  2
HEADER
  9
$ACADVER
  1
AC1012
  9
$DWGCODEPAGE
  3
ANSI_1252
  9
$INSBASE
 10
0.0
 20
0.0
 30
0.0
  9
$EXTMIN
 10
0.6414184857176366
 20
3.237258935856235
 30
-0.0015258207003583
  9
$EXTMAX
 10
6.057678243678154
 20
7.755386372044899
 30
0.0000000349246037
  9
$LIMMIN
 10
0.0
 20
0.0
  9
$LIMMAX
 10
12.0
 20
9.0
  9
$ORTHOMODE
 70
     0
  9
$REGENMODE
 70
     1
  9
$FILLMODE
 70
     1
  9
$QTEXTMODE
 70
     0
  9
$MIRRTEXT
 70
     1
  9
$DRAGMODE
 70
     2
  9
$LTSCALE
 40
1.0
  9
$OSMODE
 70
   547
  9
$ATTMODE
 70
     1
  9
$TEXTSIZE
 40
0.2
  9
$TRACEWID
 40
0.05
  9
$TEXTSTYLE
  7
STANDARD
  9
$CLAYER
  8
0
  9
$CELTYPE
  6
BYLAYER
  9
$CECOLOR
 62
   256
  9
$CELTSCALE
 40
1.0
  9
$DELOBJ
 70
     1
  9
$DISPSILH
 70
     0
  9
$DIMSCALE
 40
1.0
  9
$DIMASZ
 40
0.18
  9
$DIMEXO
 40
0.0625
  9
$DIMDLI
 40
0.38
  9
$DIMRND
 40
0.0
  9
$DIMDLE
 40
0.0
  9
$DIMEXE
 40
0.18
  9
$DIMTP
 40
0.0
  9
$DIMTM
 40
0.0
  9
$DIMTXT
 40
0.18
  9
$DIMCEN
 40
0.09
  9
$DIMTSZ
 40
0.0
  9
$DIMTOL
 70
     0
  9
$DIMLIM
 70
     0
  9
$DIMTIH
 70
     1
  9
$DIMTOH
 70
     1
  9
$DIMSE1
 70
     0
  9
$DIMSE2
 70
     0
  9
$DIMTAD
 70
     0
  9
$DIMZIN
 70
     0
  9
$DIMBLK
  1

  9
$DIMASO
 70
     1
  9
$DIMSHO
 70
     1
  9
$DIMPOST
  1

  9
$DIMAPOST
  1

  9
$DIMALT
 70
     0
  9
$DIMALTD
 70
     2
  9
$DIMALTF
 40
25.4
  9
$DIMLFAC
 40
1.0
  9
$DIMTOFL
 70
     0
  9
$DIMTVP
 40
0.0
  9
$DIMTIX
 70
     0
  9
$DIMSOXD
 70
     0
  9
$DIMSAH
 70
     0
  9
$DIMBLK1
  1

  9
$DIMBLK2
  1

  9
$DIMSTYLE
  2
STANDARD
  9
$DIMCLRD
 70
     0
  9
$DIMCLRE
 70
     0
  9
$DIMCLRT
 70
     0
  9
$DIMTFAC
 40
1.0
  9
$DIMGAP
 40
0.09
  9
$DIMJUST
 70
     0
  9
$DIMSD1
 70
     0
  9
$DIMSD2
 70
     0
  9
$DIMTOLJ
 70
     1
  9
$DIMTZIN
 70
     0
  9
$DIMALTZ
 70
     0
  9
$DIMALTTZ
 70
     0
  9
$DIMFIT
 70
     5
  9
$DIMUPT
 70
     0
  9
$DIMUNIT
 70
     2
  9
$DIMDEC
 70
     4
  9
$DIMTDEC
 70
     4
  9
$DIMALTU
 70
     2
  9
$DIMALTTD
 70
     2
  9
$DIMTXSTY
  7
STANDARD
  9
$DIMAUNIT
 70
     0
  9
$LUNITS
 70
     2
  9
$LUPREC
 70
     4
  9
$SKETCHINC
 40
0.1
  9
$FILLETRAD
 40
0.0
  9
$AUNITS
 70
     0
  9
$AUPREC
 70
     0
  9
$MENU
  1
acad
  9
$ELEVATION
 40
0.0
  9
$PELEVATION
 40
0.0
  9
$THICKNESS
 40
0.0
  9
$LIMCHECK
 70
     0
  9
$BLIPMODE
 70
     0
  9
$CHAMFERA
 40
0.0
  9
$CHAMFERB
 40
0.0
  9
$CHAMFERC
 40
0.0
  9
$CHAMFERD
 40
0.0
  9
$SKPOLY
 70
     0
  9
$TDCREATE
 40
2453844.721516203
  9
$TDUPDATE
 40
2453844.722814479
  9
$TDINDWG
 40
0.0009055556
  9
$TDUSRTIMER
 40
0.0009055556
  9
$USRTIMER
 70
     1
  9
$ANGBASE
 50
0.0
  9
$ANGDIR
 70
     0
  9
$PDMODE
 70
     0
  9
$PDSIZE
 40
0.0
  9
$PLINEWID
 40
0.0
  9
$COORDS
 70
     1
  9
$SPLFRAME
 70
     0
  9
$SPLINETYPE
 70
     6
  9
$SPLINESEGS
 70
     8
  9
$ATTDIA
 70
     0
  9
$ATTREQ
 70
     1
  9
$HANDLING
 70
  4097
  9
$HANDSEED
  5
397F
  9
$SURFTAB1
 70
     6
  9
$SURFTAB2
 70
     6
  9
$SURFTYPE
 70
     6
  9
$SURFU
 70
     6
  9
$SURFV
 70
     6
  9
$UCSNAME
  2

  9
$UCSORG
 10
0.0
 20
0.0
 30
0.0
  9
$UCSXDIR
 10
1.0
 20
0.0
 30
0.0
  9
$UCSYDIR
 10
0.0
 20
1.0
 30
0.0
  9
$PUCSNAME
  2

  9
$PUCSORG
 10
0.0
 20
0.0
 30
0.0
  9
$PUCSXDIR
 10
1.0
 20
0.0
 30
0.0
  9
$PUCSYDIR
 10
0.0
 20
1.0
 30
0.0
  9
$USERI1
 70
     0
  9
$USERI2
 70
     0
  9
$USERI3
 70
     0
  9
$USERI4
 70
     0
  9
$USERI5
 70
     0
  9
$USERR1
 40
0.0
  9
$USERR2
 40
0.0
  9
$USERR3
 40
0.0
  9
$USERR4
 40
0.0
  9
$USERR5
 40
0.0
  9
$WORLDVIEW
 70
     1
  9
$SHADEDGE
 70
     3
  9
$SHADEDIF
 70
    70
  9
$TILEMODE
 70
     1
  9
$MAXACTVP
 70
    16
  9
$PINSBASE
 10
0.0
 20
0.0
 30
0.0
  9
$PLIMCHECK
 70
     0
  9
$PEXTMIN
 10
1.000000000000000E+20
 20
1.000000000000000E+20
 30
1.000000000000000E+20
  9
$PEXTMAX
 10
-1.000000000000000E+20
 20
-1.000000000000000E+20
 30
-1.000000000000000E+20
  9
$PLIMMIN
 10
0.0
 20
0.0
  9
$PLIMMAX
 10
12.0
 20
9.0
  9
$UNITMODE
 70
     0
  9
$VISRETAIN
 70
     0
  9
$PLINEGEN
 70
     0
  9
$PSLTSCALE
 70
     1
  9
$TREEDEPTH
 70
  3020
  9
$PICKSTYLE
 70
     1
  9
$CMLSTYLE
  2
STANDARD
  9
$CMLJUST
 70
     0
  9
$CMLSCALE
 40
1.0
  9
$SAVEIMAGES
 70
     1
  0
ENDSEC
  0
SECTION
  2
CLASSES
  0
CLASS
  1
ACDBDICTIONARYWDFLT
  2
AcDbDictionaryWithDefault
  3
AutoCAD 2000
 90
    32768
280
     0
281
     0
  0
CLASS
  1
ACDBPLACEHOLDER
  2
AcDbPlaceHolder
  3
AutoCAD 2000
 90
    32768
280
     0
281
     0
  0
CLASS
  1
LAYOUT
  2
AcDbLayout
  3
AutoCAD 2000
 90
    32768
280
     0
281
     0
  0
CLASS
  1
LONG_TRANSACTION
  2
AcDbLongTransaction
  3
AutoCAD 2000
 90
    32768
280
     0
281
     0
  0
CLASS
  1
LWPOLYLINE
  2
AcDbPolyline
  3
AutoCAD 2000
 90
    32768
280
     0
281
     1
  0
CLASS
  1
HATCH
  2
AcDbHatch
  3
AutoCAD 2000
 90
    32768
280
     0
281
     1
  0
CLASS
  1
XRECORD
  2
AcDbXrecord
  3
AutoCAD 2000
 90
    32768
280
     0
281
     0
  0
ENDSEC
  0
SECTION
  2
TABLES
  0
TABLE
  2
VPORT
  5
8
330
0
100
AcDbSymbolTable
 70
     3
  0
VPORT
  5
3466
330
8
100
AcDbSymbolTableRecord
100
AcDbViewportTableRecord
  2
*ACTIVE
 70
     0
 10
0.0
 20
0.0
 11
1.0
 21
1.0
 12
3.349548364697894
 22
5.496322653950567
 13
0.0
 23
0.0
 14
1.0
 24
1.0
 15
0.0
 25
0.0
 16
0.0
 26
0.0
 36
1.0
 17
0.0
 27
0.0
 37
0.0
 40
4.568609306984066
 41
1.740671641791044
 42
50.0
 43
0.0
 44
0.0
 50
0.0
 51
0.0
 71
     0
 72
   100
 73
     1
 74
     1
 75
     0
 76
     0
 77
     0
 78
     0
  0
ENDTAB
  0
TABLE
  2
LTYPE
  5
5
330
0
100
AcDbSymbolTable
 70
    25
  0
LTYPE
  5
13
330
5
100
AcDbSymbolTableRecord
100
AcDbLinetypeTableRecord
  2
BYBLOCK
 70
     0
  3

 72
    65
 73
     0
 40
0.0
  0
LTYPE
  5
14
330
5
100
AcDbSymbolTableRecord
100
AcDbLinetypeTableRecord
  2
BYLAYER
 70
     0
  3

 72
    65
 73
     0
 40
0.0
  0
LTYPE
  5
15
330
5
100
AcDbSymbolTableRecord
100
AcDbLinetypeTableRecord
  2
CONTINUOUS
 70
     0
  3
Solid line
 72
    65
 73
     0
 40
0.0
  0
LTYPE
  5
22
330
5
100
AcDbSymbolTableRecord
100
AcDbLinetypeTableRecord
  2
BORDER
 70
     0
  3
__ __ . __ __ . __ __ . __ __ . __ __ . __ __ .
 72
    65
 73
     6
 40
1.75
 49
0.5
 74
     0
 49
-0.25
 74
     0
 49
0.5
 74
     0
 49
-0.25
 74
     0
 49
0.5
 74
     0
 49
-0.25
 74
     0
  0
LTYPE
  5
23
330
5
100
AcDbSymbolTableRecord
100
AcDbLinetypeTableRecord
  2
BORDER2
 70
     0
  3
__.__.__.__.__.__.__.__.
 72
    65
 73
     6
 40
0.875
 49
0.25
 74
     0
 49
-0.125
 74
     0
 49
0.25
 74
     0
 49
-0.125
 74
     0
 49
0.25
 74
     0
 49
-0.125
 74
     0
  0
LTYPE
  5
24
330
5
100
AcDbSymbolTableRecord
100
AcDbLinetypeTableRecord
  2
BORDERX2
 70
     0
  3
____  ____  .  
 72
    65
 73
     6
 40
3.5
 49
1.0
 74
     0
 49
-0.5
 74
     0
 49
1.0
 74
     0
 49
-0.5
 74
     0
 49
1.0
 74
     0
 49
-0.5
 74
     0
  0
LTYPE
  5
25
330
5
100
AcDbSymbolTableRecord
100
AcDbLinetypeTableRecord
  2
CENTER
 70
     0
  3
____ _ ____ _ ____ _ 
 72
    65
 73
     4
 40
2.0
 49
1.25
 74
     0
 49
-0.25
 74
     0
 49
0.25
 74
     0
 49
-0.25
 74
     0
  0
LTYPE
  5
26
330
5
100
AcDbSymbolTableRecord
100
AcDbLinetypeTableRecord
  2
CENTER2
 70
     0
  3
____ _ ____ _ ____ _ 
 72
    65
 73
     4
 40
1.125
 49
0.75
 74
     0
 49
-0.125
 74
     0
 49
0.125
 74
     0
 49
-0.125
 74
     0
  0
LTYPE
  5
27
330
5
100
AcDbSymbolTableRecord
100
AcDbLinetypeTableRecord
  2
CENTERX2
 70
     0
  3
________  __  
 72
    65
 73
     4
 40
4.0
 49
2.5
 74
     0
 49
-0.5
 74
     0
 49
0.5
 74
     0
 49
-0.5
 74
     0
  0
LTYPE
  5
28
330
5
100
AcDbSymbolTableRecord
100
AcDbLinetypeTableRecord
  2
DASHDOT
 70
     0
  3
__ . __ . __ . __ . 
 72
    65
 73
     4
 40
1.0
 49
0.5
 74
     0
 49
-0.25
 74
     0
 49
0.0
 74
     0
 49
-0.25
 74
     0
  0
LTYPE
  5
29
330
5
100
AcDbSymbolTableRecord
100
AcDbLinetypeTableRecord
  2
DASHDOT2
 70
     0
  3
_._._._._._._._._.
 72
    65
 73
     4
 40
0.5
 49
0.25
 74
     0
 49
-0.125
 74
     0
 49
0.0
 74
     0
 49
-0.125
 74
     0
  0
LTYPE
  5
2A
330
5
100
AcDbSymbolTableRecord
100
AcDbLinetypeTableRecord
  2
DASHDOTX2
 70
     0
  3
____  .  ____  .  
 72
    65
 73
     4
 40
2.0
 49
1.0
 74
     0
 49
-0.5
 74
     0
 49
0.0
 74
     0
 49
-0.5
 74
     0
  0
LTYPE
  5
2B
330
5
100
AcDbSymbolTableRecord
100
AcDbLinetypeTableRecord
  2
DASHED
 70
     0
  3
__ __ __ __ __ __ __ 
 72
    65
 73
     2
 40
0.75
 49
0.5
 74
     0
 49
-0.25
 74
     0
  0
LTYPE
  5
2C
330
5
100
AcDbSymbolTableRecord
100
AcDbLinetypeTableRecord
  2
DASHED2
 70
     0
  3
_ _ _ _ _ _ _ _ _ _ 
 72
    65
 73
     2
 40
0.375
 49
0.25
 74
     0
 49
-0.125
 74
     0
  0
LTYPE
  5
2D
330
5
100
AcDbSymbolTableRecord
100
AcDbLinetypeTableRecord
  2
DASHEDX2
 70
     0
  3
____  ____  ____  
 72
    65
 73
     2
 40
1.5
 49
1.0
 74
     0
 49
-0.5
 74
     0
  0
LTYPE
  5
2E
330
5
100
AcDbSymbolTableRecord
100
AcDbLinetypeTableRecord
  2
DIVIDE
 70
     0
  3
____ . . ____ . . 
 72
    65
 73
     6
 40
1.25
 49
0.5
 74
     0
 49
-0.25
 74
     0
 49
0.0
 74
     0
 49
-0.25
 74
     0
 49
0.0
 74
     0
 49
-0.25
 74
     0
  0
LTYPE
  5
2F
330
5
100
AcDbSymbolTableRecord
100
AcDbLinetypeTableRecord
  2
DIVIDE2
 70
     0
  3
__..__..__..__..__..
 72
    65
 73
     6
 40
0.625
 49
0.25
 74
     0
 49
-0.125
 74
     0
 49
0.0
 74
     0
 49
-0.125
 74
     0
 49
0.0
 74
     0
 49
-0.125
 74
     0
  0
LTYPE
  5
30
330
5
100
AcDbSymbolTableRecord
100
AcDbLinetypeTableRecord
  2
DIVIDEX2
 70
     0
  3
________  .  .  
 72
    65
 73
     6
 40
2.5
 49
1.0
 74
     0
 49
-0.5
 74
     0
 49
0.0
 74
     0
 49
-0.5
 74
     0
 49
0.0
 74
     0
 49
-0.5
 74
     0
  0
LTYPE
  5
31
330
5
100
AcDbSymbolTableRecord
100
AcDbLinetypeTableRecord
  2
DOT
 70
     0
  3
. . . . . . . . . 
 72
    65
 73
     2
 40
0.25
 49
0.0
 74
     0
 49
-0.25
 74
     0
  0
LTYPE
  5
32
330
5
100
AcDbSymbolTableRecord
100
AcDbLinetypeTableRecord
  2
DOT2
 70
     0
  3
..................
 72
    65
 73
     2
 40
0.125
 49
0.0
 74
     0
 49
-0.125
 74
     0
  0
LTYPE
  5
33
330
5
100
AcDbSymbolTableRecord
100
AcDbLinetypeTableRecord
  2
DOTX2
 70
     0
  3
.  .  .  .  .  .  
 72
    65
 73
     2
 40
0.5
 49
0.0
 74
     0
 49
-0.5
 74
     0
  0
LTYPE
  5
34
330
5
100
AcDbSymbolTableRecord
100
AcDbLinetypeTableRecord
  2
HIDDEN
 70
     0
  3
__ __ __ __ __ __ 
 72
    65
 73
     2
 40
0.375
 49
0.25
 74
     0
 49
-0.125
 74
     0
  0
LTYPE
  5
35
330
5
100
AcDbSymbolTableRecord
100
AcDbLinetypeTableRecord
  2
HIDDEN2
 70
     0
  3
_ _ _ _ _ _ _ _ _ 
 72
    65
 73
     2
 40
0.1875
 49
0.125
 74
     0
 49
-0.0625
 74
     0
  0
LTYPE
  5
36
330
5
100
AcDbSymbolTableRecord
100
AcDbLinetypeTableRecord
  2
HIDDENX2
 70
     0
  3
____ ____ ____ ____ 
 72
    65
 73
     2
 40
0.75
 49
0.5
 74
     0
 49
-0.25
 74
     0
  0
LTYPE
  5
37
330
5
100
AcDbSymbolTableRecord
100
AcDbLinetypeTableRecord
  2
PHANTOM
 70
     0
  3
______  __  __  
 72
    65
 73
     6
 40
2.5
 49
1.25
 74
     0
 49
-0.25
 74
     0
 49
0.25
 74
     0
 49
-0.25
 74
     0
 49
0.25
 74
     0
 49
-0.25
 74
     0
  0
LTYPE
  5
38
330
5
100
AcDbSymbolTableRecord
100
AcDbLinetypeTableRecord
  2
PHANTOM2
 70
     0
  3
___ _ _ ___ _ _ 
 72
    65
 73
     6
 40
1.25
 49
0.625
 74
     0
 49
-0.125
 74
     0
 49
0.125
 74
     0
 49
-0.125
 74
     0
 49
0.125
 74
     0
 49
-0.125
 74
     0
  0
LTYPE
  5
39
330
5
100
AcDbSymbolTableRecord
100
AcDbLinetypeTableRecord
  2
PHANTOMX2
 70
     0
  3
___ _ _ ___ _ _ 
 72
    65
 73
     6
 40
5.0
 49
2.5
 74
     0
 49
-0.5
 74
     0
 49
0.5
 74
     0
 49
-0.5
 74
     0
 49
0.5
 74
     0
 49
-0.5
 74
     0
  0
ENDTAB
  0
TABLE
  2
LAYER
  5
2
330
0
100
AcDbSymbolTable
 70
   257
  0
LAYER
  5
10
330
2
100
AcDbSymbolTableRecord
100
AcDbLayerTableRecord
  2
0
 70
     0
 62
     7
  6
CONTINUOUS
  0
LAYER
  5
3A
330
2
100
AcDbSymbolTableRecord
100
AcDbLayerTableRecord
  2
1
 70
     0
 62
     1
  6
CONTINUOUS
  0
LAYER
  5
3B
330
2
100
AcDbSymbolTableRecord
100
AcDbLayerTableRecord
  2
2
 70
     0
 62
     2
  6
CONTINUOUS
  0
LAYER
  5
3C
330
2
100
AcDbSymbolTableRecord
100
AcDbLayerTableRecord
  2
3
 70
     0
 62
     3
  6
CONTINUOUS
  0
LAYER
  5
3D
330
2
100
AcDbSymbolTableRecord
100
AcDbLayerTableRecord
  2
4
 70
     0
 62
     4
  6
CONTINUOUS
  0
LAYER
  5
3E
330
2
100
AcDbSymbolTableRecord
100
AcDbLayerTableRecord
  2
5
 70
     0
 62
     5
  6
CONTINUOUS
  0
LAYER
  5
3F
330
2
100
AcDbSymbolTableRecord
100
AcDbLayerTableRecord
  2
6
 70
     0
 62
     6
  6
CONTINUOUS
  0
LAYER
  5
40
330
2
100
AcDbSymbolTableRecord
100
AcDbLayerTableRecord
  2
7
 70
     0
 62
     7
  6
CONTINUOUS
  0
LAYER
  5
41
330
2
100
AcDbSymbolTableRecord
100
AcDbLayerTableRecord
  2
8
 70
     0
 62
     8
  6
CONTINUOUS
  0
LAYER
  5
42
330
2
100
AcDbSymbolTableRecord
100
AcDbLayerTableRecord
  2
9
 70
     0
 62
     9
  6
CONTINUOUS
  0
LAYER
  5
43
330
2
100
AcDbSymbolTableRecord
100
AcDbLayerTableRecord
  2
10
 70
     0
 62
    10
  6
CONTINUOUS
  0
LAYER
  5
44
330
2
100
AcDbSymbolTableRecord
100
AcDbLayerTableRecord
  2
11
 70
     0
 62
    11
  6
CONTINUOUS
  0
LAYER
  5
45
330
2
100
AcDbSymbolTableRecord
100
AcDbLayerTableRecord
  2
12
 70
     0
 62
    12
  6
CONTINUOUS
  0
LAYER
  5
46
330
2
100
AcDbSymbolTableRecord
100
AcDbLayerTableRecord
  2
13
 70
     0
 62
    13
  6
CONTINUOUS
  0
LAYER
  5
47
330
2
100
AcDbSymbolTableRecord
100
AcDbLayerTableRecord
  2
14
 70
     0
 62
    14
  6
CONTINUOUS
  0
LAYER
  5
48
330
2
100
AcDbSymbolTableRecord
100
AcDbLayerTableRecord
  2
15
 70
     0
 62
    15
  6
CONTINUOUS
  0
LAYER
  5
49
330
2
100
AcDbSymbolTableRecord
100
AcDbLayerTableRecord
  2
16
 70
     0
 62
    16
  6
CONTINUOUS
  0
LAYER
  5
4A
330
2
100
AcDbSymbolTableRecord
100
AcDbLayerTableRecord
  2
17
 70
     0
 62
    17
  6
CONTINUOUS
  0
LAYER
  5
4B
330
2
100
AcDbSymbolTableRecord
100
AcDbLayerTableRecord
  2
18
 70
     0
 62
    18
  6
CONTINUOUS
  0
LAYER
  5
4C
330
2
100
AcDbSymbolTableRecord
100
AcDbLayerTableRecord
  2
19
 70
     0
 62
    19
  6
CONTINUOUS
  0
LAYER
  5
4D
330
2
100
AcDbSymbolTableRecord
100
AcDbLayerTableRecord
  2
20
 70
     0
 62
    20
  6
CONTINUOUS
  0
LAYER
  5
4E
330
2
100
AcDbSymbolTableRecord
100
AcDbLayerTableRecord
  2
21
 70
     0
 62
    21
  6
CONTINUOUS
  0
LAYER
  5
4F
330
2
100
AcDbSymbolTableRecord
100
AcDbLayerTableRecord
  2
22
 70
     0
 62
    22
  6
CONTINUOUS
  0
LAYER
  5
50
330
2
100
AcDbSymbolTableRecord
100
AcDbLayerTableRecord
  2
23
 70
     0
 62
    23
  6
CONTINUOUS
  0
LAYER
  5
51
330
2
100
AcDbSymbolTableRecord
100
AcDbLayerTableRecord
  2
24
 70
     0
 62
    24
  6
CONTINUOUS
  0
LAYER
  5
52
330
2
100
AcDbSymbolTableRecord
100
AcDbLayerTableRecord
  2
25
 70
     0
 62
    25
  6
CONTINUOUS
  0
LAYER
  5
53
330
2
100
AcDbSymbolTableRecord
100
AcDbLayerTableRecord
  2
26
 70
     0
 62
    26
  6
CONTINUOUS
  0
LAYER
  5
54
330
2
100
AcDbSymbolTableRecord
100
AcDbLayerTableRecord
  2
27
 70
     0
 62
    27
  6
CONTINUOUS
  0
LAYER
  5
55
330
2
100
AcDbSymbolTableRecord
100
AcDbLayerTableRecord
  2
28
 70
     0
 62
    28
  6
CONTINUOUS
  0
LAYER
  5
56
330
2
100
AcDbSymbolTableRecord
100
AcDbLayerTableRecord
  2
29
 70
     0
 62
    29
  6
CONTINUOUS
  0
LAYER
  5
57
330
2
100
AcDbSymbolTableRecord
100
AcDbLayerTableRecord
  2
30
 70
     0
 62
    30
  6
CONTINUOUS
  0
LAYER
  5
58
330
2
100
AcDbSymbolTableRecord
100
AcDbLayerTableRecord
  2
31
 70
     0
 62
    31
  6
CONTINUOUS
  0
LAYER
  5
59
330
2
100
AcDbSymbolTableRecord
100
AcDbLayerTableRecord
  2
32
 70
     0
 62
    32
  6
CONTINUOUS
  0
LAYER
  5
5A
330
2
100
AcDbSymbolTableRecord
100
AcDbLayerTableRecord
  2
33
 70
     0
 62
    33
  6
CONTINUOUS
  0
LAYER
  5
5B
330
2
100
AcDbSymbolTableRecord
100
AcDbLayerTableRecord
  2
34
 70
     0
 62
    34
  6
CONTINUOUS
  0
LAYER
  5
5C
330
2
100
AcDbSymbolTableRecord
100
AcDbLayerTableRecord
  2
35
 70
     0
 62
    35
  6
CONTINUOUS
  0
LAYER
  5
5D
330
2
100
AcDbSymbolTableRecord
100
AcDbLayerTableRecord
  2
36
 70
     0
 62
    36
  6
CONTINUOUS
  0
LAYER
  5
5E
330
2
100
AcDbSymbolTableRecord
100
AcDbLayerTableRecord
  2
37
 70
     0
 62
    37
  6
CONTINUOUS
  0
LAYER
  5
5F
330
2
100
AcDbSymbolTableRecord
100
AcDbLayerTableRecord
  2
38
 70
     0
 62
    38
  6
CONTINUOUS
  0
LAYER
  5
60
330
2
100
AcDbSymbolTableRecord
100
AcDbLayerTableRecord
  2
39
 70
     0
 62
    39
  6
CONTINUOUS
  0
LAYER
  5
61
330
2
100
AcDbSymbolTableRecord
100
AcDbLayerTableRecord
  2
40
 70
     0
 62
    40
  6
CONTINUOUS
  0
LAYER
  5
62
330
2
100
AcDbSymbolTableRecord
100
AcDbLayerTableRecord
  2
41
 70
     0
 62
    41
  6
CONTINUOUS
  0
LAYER
  5
63
330
2
100
AcDbSymbolTableRecord
100
AcDbLayerTableRecord
  2
42
 70
     0
 62
    42
  6
CONTINUOUS
  0
LAYER
  5
64
330
2
100
AcDbSymbolTableRecord
100
AcDbLayerTableRecord
  2
43
 70
     0
 62
    43
  6
CONTINUOUS
  0
LAYER
  5
65
330
2
100
AcDbSymbolTableRecord
100
AcDbLayerTableRecord
  2
44
 70
     0
 62
    44
  6
CONTINUOUS
  0
LAYER
  5
66
330
2
100
AcDbSymbolTableRecord
100
AcDbLayerTableRecord
  2
45
 70
     0
 62
    45
  6
CONTINUOUS
  0
LAYER
  5
67
330
2
100
AcDbSymbolTableRecord
100
AcDbLayerTableRecord
  2
46
 70
     0
 62
    46
  6
CONTINUOUS
  0
LAYER
  5
68
330
2
100
AcDbSymbolTableRecord
100
AcDbLayerTableRecord
  2
47
 70
     0
 62
    47
  6
CONTINUOUS
  0
LAYER
  5
69
330
2
100
AcDbSymbolTableRecord
100
AcDbLayerTableRecord
  2
48
 70
     0
 62
    48
  6
CONTINUOUS
  0
LAYER
  5
6A
330
2
100
AcDbSymbolTableRecord
100
AcDbLayerTableRecord
  2
49
 70
     0
 62
    49
  6
CONTINUOUS
  0
LAYER
  5
6B
330
2
100
AcDbSymbolTableRecord
100
AcDbLayerTableRecord
  2
50
 70
     0
 62
    50
  6
CONTINUOUS
  0
LAYER
  5
6C
330
2
100
AcDbSymbolTableRecord
100
AcDbLayerTableRecord
  2
51
 70
     0
 62
    51
  6
CONTINUOUS
  0
LAYER
  5
6D
330
2
100
AcDbSymbolTableRecord
100
AcDbLayerTableRecord
  2
52
 70
     0
 62
    52
  6
CONTINUOUS
  0
LAYER
  5
6E
330
2
100
AcDbSymbolTableRecord
100
AcDbLayerTableRecord
  2
53
 70
     0
 62
    53
  6
CONTINUOUS
  0
LAYER
  5
6F
330
2
100
AcDbSymbolTableRecord
100
AcDbLayerTableRecord
  2
54
 70
     0
 62
    54
  6
CONTINUOUS
  0
LAYER
  5
70
330
2
100
AcDbSymbolTableRecord
100
AcDbLayerTableRecord
  2
55
 70
     0
 62
    55
  6
CONTINUOUS
  0
LAYER
  5
71
330
2
100
AcDbSymbolTableRecord
100
AcDbLayerTableRecord
  2
56
 70
     0
 62
    56
  6
CONTINUOUS
  0
LAYER
  5
72
330
2
100
AcDbSymbolTableRecord
100
AcDbLayerTableRecord
  2
57
 70
     0
 62
    57
  6
CONTINUOUS
  0
LAYER
  5
73
330
2
100
AcDbSymbolTableRecord
100
AcDbLayerTableRecord
  2
58
 70
     0
 62
    58
  6
CONTINUOUS
  0
LAYER
  5
74
330
2
100
AcDbSymbolTableRecord
100
AcDbLayerTableRecord
  2
59
 70
     0
 62
    59
  6
CONTINUOUS
  0
LAYER
  5
75
330
2
100
AcDbSymbolTableRecord
100
AcDbLayerTableRecord
  2
60
 70
     0
 62
    60
  6
CONTINUOUS
  0
LAYER
  5
76
330
2
100
AcDbSymbolTableRecord
100
AcDbLayerTableRecord
  2
61
 70
     0
 62
    61
  6
CONTINUOUS
  0
LAYER
  5
77
330
2
100
AcDbSymbolTableRecord
100
AcDbLayerTableRecord
  2
62
 70
     0
 62
    62
  6
CONTINUOUS
  0
LAYER
  5
78
330
2
100
AcDbSymbolTableRecord
100
AcDbLayerTableRecord
  2
63
 70
     0
 62
    63
  6
CONTINUOUS
  0
LAYER
  5
79
330
2
100
AcDbSymbolTableRecord
100
AcDbLayerTableRecord
  2
64
 70
     0
 62
    64
  6
CONTINUOUS
  0
LAYER
  5
7A
330
2
100
AcDbSymbolTableRecord
100
AcDbLayerTableRecord
  2
65
 70
     0
 62
    65
  6
CONTINUOUS
  0
LAYER
  5
7B
330
2
100
AcDbSymbolTableRecord
100
AcDbLayerTableRecord
  2
66
 70
     0
 62
    66
  6
CONTINUOUS
  0
LAYER
  5
7C
330
2
100
AcDbSymbolTableRecord
100
AcDbLayerTableRecord
  2
67
 70
     0
 62
    67
  6
CONTINUOUS
  0
LAYER
  5
7D
330
2
100
AcDbSymbolTableRecord
100
AcDbLayerTableRecord
  2
68
 70
     0
 62
    68
  6
CONTINUOUS
  0
LAYER
  5
7E
330
2
100
AcDbSymbolTableRecord
100
AcDbLayerTableRecord
  2
69
 70
     0
 62
    69
  6
CONTINUOUS
  0
LAYER
  5
7F
330
2
100
AcDbSymbolTableRecord
100
AcDbLayerTableRecord
  2
70
 70
     0
 62
    70
  6
CONTINUOUS
  0
LAYER
  5
80
330
2
100
AcDbSymbolTableRecord
100
AcDbLayerTableRecord
  2
71
 70
     0
 62
    71
  6
CONTINUOUS
  0
LAYER
  5
81
330
2
100
AcDbSymbolTableRecord
100
AcDbLayerTableRecord
  2
72
 70
     0
 62
    72
  6
CONTINUOUS
  0
LAYER
  5
82
330
2
100
AcDbSymbolTableRecord
100
AcDbLayerTableRecord
  2
73
 70
     0
 62
    73
  6
CONTINUOUS
  0
LAYER
  5
83
330
2
100
AcDbSymbolTableRecord
100
AcDbLayerTableRecord
  2
74
 70
     0
 62
    74
  6
CONTINUOUS
  0
LAYER
  5
84
330
2
100
AcDbSymbolTableRecord
100
AcDbLayerTableRecord
  2
75
 70
     0
 62
    75
  6
CONTINUOUS
  0
LAYER
  5
85
330
2
100
AcDbSymbolTableRecord
100
AcDbLayerTableRecord
  2
76
 70
     0
 62
    76
  6
CONTINUOUS
  0
LAYER
  5
86
330
2
100
AcDbSymbolTableRecord
100
AcDbLayerTableRecord
  2
77
 70
     0
 62
    77
  6
CONTINUOUS
  0
LAYER
  5
87
330
2
100
AcDbSymbolTableRecord
100
AcDbLayerTableRecord
  2
78
 70
     0
 62
    78
  6
CONTINUOUS
  0
LAYER
  5
88
330
2
100
AcDbSymbolTableRecord
100
AcDbLayerTableRecord
  2
79
 70
     0
 62
    79
  6
CONTINUOUS
  0
LAYER
  5
89
330
2
100
AcDbSymbolTableRecord
100
AcDbLayerTableRecord
  2
80
 70
     0
 62
    80
  6
CONTINUOUS
  0
LAYER
  5
8A
330
2
100
AcDbSymbolTableRecord
100
AcDbLayerTableRecord
  2
81
 70
     0
 62
    81
  6
CONTINUOUS
  0
LAYER
  5
8B
330
2
100
AcDbSymbolTableRecord
100
AcDbLayerTableRecord
  2
82
 70
     0
 62
    82
  6
CONTINUOUS
  0
LAYER
  5
8C
330
2
100
AcDbSymbolTableRecord
100
AcDbLayerTableRecord
  2
83
 70
     0
 62
    83
  6
CONTINUOUS
  0
LAYER
  5
8D
330
2
100
AcDbSymbolTableRecord
100
AcDbLayerTableRecord
  2
84
 70
     0
 62
    84
  6
CONTINUOUS
  0
LAYER
  5
8E
330
2
100
AcDbSymbolTableRecord
100
AcDbLayerTableRecord
  2
85
 70
     0
 62
    85
  6
CONTINUOUS
  0
LAYER
  5
8F
330
2
100
AcDbSymbolTableRecord
100
AcDbLayerTableRecord
  2
86
 70
     0
 62
    86
  6
CONTINUOUS
  0
LAYER
  5
90
330
2
100
AcDbSymbolTableRecord
100
AcDbLayerTableRecord
  2
87
 70
     0
 62
    87
  6
CONTINUOUS
  0
LAYER
  5
91
330
2
100
AcDbSymbolTableRecord
100
AcDbLayerTableRecord
  2
88
 70
     0
 62
    88
  6
CONTINUOUS
  0
LAYER
  5
92
330
2
100
AcDbSymbolTableRecord
100
AcDbLayerTableRecord
  2
89
 70
     0
 62
    89
  6
CONTINUOUS
  0
LAYER
  5
93
330
2
100
AcDbSymbolTableRecord
100
AcDbLayerTableRecord
  2
90
 70
     0
 62
    90
  6
CONTINUOUS
  0
LAYER
  5
94
330
2
100
AcDbSymbolTableRecord
100
AcDbLayerTableRecord
  2
91
 70
     0
 62
    91
  6
CONTINUOUS
  0
LAYER
  5
95
330
2
100
AcDbSymbolTableRecord
100
AcDbLayerTableRecord
  2
92
 70
     0
 62
    92
  6
CONTINUOUS
  0
LAYER
  5
96
330
2
100
AcDbSymbolTableRecord
100
AcDbLayerTableRecord
  2
93
 70
     0
 62
    93
  6
CONTINUOUS
  0
LAYER
  5
97
330
2
100
AcDbSymbolTableRecord
100
AcDbLayerTableRecord
  2
94
 70
     0
 62
    94
  6
CONTINUOUS
  0
LAYER
  5
98
330
2
100
AcDbSymbolTableRecord
100
AcDbLayerTableRecord
  2
95
 70
     0
 62
    95
  6
CONTINUOUS
  0
LAYER
  5
99
330
2
100
AcDbSymbolTableRecord
100
AcDbLayerTableRecord
  2
96
 70
     0
 62
    96
  6
CONTINUOUS
  0
LAYER
  5
9A
330
2
100
AcDbSymbolTableRecord
100
AcDbLayerTableRecord
  2
97
 70
     0
 62
    97
  6
CONTINUOUS
  0
LAYER
  5
9B
330
2
100
AcDbSymbolTableRecord
100
AcDbLayerTableRecord
  2
98
 70
     0
 62
    98
  6
CONTINUOUS
  0
LAYER
  5
9C
330
2
100
AcDbSymbolTableRecord
100
AcDbLayerTableRecord
  2
99
 70
     0
 62
    99
  6
CONTINUOUS
  0
LAYER
  5
9D
330
2
100
AcDbSymbolTableRecord
100
AcDbLayerTableRecord
  2
100
 70
     0
 62
   100
  6
CONTINUOUS
  0
LAYER
  5
9E
330
2
100
AcDbSymbolTableRecord
100
AcDbLayerTableRecord
  2
101
 70
     0
 62
   101
  6
CONTINUOUS
  0
LAYER
  5
9F
330
2
100
AcDbSymbolTableRecord
100
AcDbLayerTableRecord
  2
102
 70
     0
 62
   102
  6
CONTINUOUS
  0
LAYER
  5
A0
330
2
100
AcDbSymbolTableRecord
100
AcDbLayerTableRecord
  2
103
 70
     0
 62
   103
  6
CONTINUOUS
  0
LAYER
  5
A1
330
2
100
AcDbSymbolTableRecord
100
AcDbLayerTableRecord
  2
104
 70
     0
 62
   104
  6
CONTINUOUS
  0
LAYER
  5
A2
330
2
100
AcDbSymbolTableRecord
100
AcDbLayerTableRecord
  2
105
 70
     0
 62
   105
  6
CONTINUOUS
  0
LAYER
  5
A3
330
2
100
AcDbSymbolTableRecord
100
AcDbLayerTableRecord
  2
106
 70
     0
 62
   106
  6
CONTINUOUS
  0
LAYER
  5
A4
330
2
100
AcDbSymbolTableRecord
100
AcDbLayerTableRecord
  2
107
 70
     0
 62
   107
  6
CONTINUOUS
  0
LAYER
  5
A5
330
2
100
AcDbSymbolTableRecord
100
AcDbLayerTableRecord
  2
108
 70
     0
 62
   108
  6
CONTINUOUS
  0
LAYER
  5
A6
330
2
100
AcDbSymbolTableRecord
100
AcDbLayerTableRecord
  2
109
 70
     0
 62
   109
  6
CONTINUOUS
  0
LAYER
  5
A7
330
2
100
AcDbSymbolTableRecord
100
AcDbLayerTableRecord
  2
110
 70
     0
 62
   110
  6
CONTINUOUS
  0
LAYER
  5
A8
330
2
100
AcDbSymbolTableRecord
100
AcDbLayerTableRecord
  2
111
 70
     0
 62
   111
  6
CONTINUOUS
  0
LAYER
  5
A9
330
2
100
AcDbSymbolTableRecord
100
AcDbLayerTableRecord
  2
112
 70
     0
 62
   112
  6
CONTINUOUS
  0
LAYER
  5
AA
330
2
100
AcDbSymbolTableRecord
100
AcDbLayerTableRecord
  2
113
 70
     0
 62
   113
  6
CONTINUOUS
  0
LAYER
  5
AB
330
2
100
AcDbSymbolTableRecord
100
AcDbLayerTableRecord
  2
114
 70
     0
 62
   114
  6
CONTINUOUS
  0
LAYER
  5
AC
330
2
100
AcDbSymbolTableRecord
100
AcDbLayerTableRecord
  2
115
 70
     0
 62
   115
  6
CONTINUOUS
  0
LAYER
  5
AD
330
2
100
AcDbSymbolTableRecord
100
AcDbLayerTableRecord
  2
116
 70
     0
 62
   116
  6
CONTINUOUS
  0
LAYER
  5
AE
330
2
100
AcDbSymbolTableRecord
100
AcDbLayerTableRecord
  2
117
 70
     0
 62
   117
  6
CONTINUOUS
  0
LAYER
  5
AF
330
2
100
AcDbSymbolTableRecord
100
AcDbLayerTableRecord
  2
118
 70
     0
 62
   118
  6
CONTINUOUS
  0
LAYER
  5
B0
330
2
100
AcDbSymbolTableRecord
100
AcDbLayerTableRecord
  2
119
 70
     0
 62
   119
  6
CONTINUOUS
  0
LAYER
  5
B1
330
2
100
AcDbSymbolTableRecord
100
AcDbLayerTableRecord
  2
120
 70
     0
 62
   120
  6
CONTINUOUS
  0
LAYER
  5
B2
330
2
100
AcDbSymbolTableRecord
100
AcDbLayerTableRecord
  2
121
 70
     0
 62
   121
  6
CONTINUOUS
  0
LAYER
  5
B3
330
2
100
AcDbSymbolTableRecord
100
AcDbLayerTableRecord
  2
122
 70
     0
 62
   122
  6
CONTINUOUS
  0
LAYER
  5
B4
330
2
100
AcDbSymbolTableRecord
100
AcDbLayerTableRecord
  2
123
 70
     0
 62
   123
  6
CONTINUOUS
  0
LAYER
  5
B5
330
2
100
AcDbSymbolTableRecord
100
AcDbLayerTableRecord
  2
124
 70
     0
 62
   124
  6
CONTINUOUS
  0
LAYER
  5
B6
330
2
100
AcDbSymbolTableRecord
100
AcDbLayerTableRecord
  2
125
 70
     0
 62
   125
  6
CONTINUOUS
  0
LAYER
  5
B7
330
2
100
AcDbSymbolTableRecord
100
AcDbLayerTableRecord
  2
126
 70
     0
 62
   126
  6
CONTINUOUS
  0
LAYER
  5
B8
330
2
100
AcDbSymbolTableRecord
100
AcDbLayerTableRecord
  2
127
 70
     0
 62
   127
  6
CONTINUOUS
  0
LAYER
  5
B9
330
2
100
AcDbSymbolTableRecord
100
AcDbLayerTableRecord
  2
128
 70
     0
 62
   128
  6
CONTINUOUS
  0
LAYER
  5
BA
330
2
100
AcDbSymbolTableRecord
100
AcDbLayerTableRecord
  2
129
 70
     0
 62
   129
  6
CONTINUOUS
  0
LAYER
  5
BB
330
2
100
AcDbSymbolTableRecord
100
AcDbLayerTableRecord
  2
130
 70
     0
 62
   130
  6
CONTINUOUS
  0
LAYER
  5
BC
330
2
100
AcDbSymbolTableRecord
100
AcDbLayerTableRecord
  2
131
 70
     0
 62
   131
  6
CONTINUOUS
  0
LAYER
  5
BD
330
2
100
AcDbSymbolTableRecord
100
AcDbLayerTableRecord
  2
132
 70
     0
 62
   132
  6
CONTINUOUS
  0
LAYER
  5
BE
330
2
100
AcDbSymbolTableRecord
100
AcDbLayerTableRecord
  2
133
 70
     0
 62
   133
  6
CONTINUOUS
  0
LAYER
  5
BF
330
2
100
AcDbSymbolTableRecord
100
AcDbLayerTableRecord
  2
134
 70
     0
 62
   134
  6
CONTINUOUS
  0
LAYER
  5
C0
330
2
100
AcDbSymbolTableRecord
100
AcDbLayerTableRecord
  2
135
 70
     0
 62
   135
  6
CONTINUOUS
  0
LAYER
  5
C1
330
2
100
AcDbSymbolTableRecord
100
AcDbLayerTableRecord
  2
136
 70
     0
 62
   136
  6
CONTINUOUS
  0
LAYER
  5
C2
330
2
100
AcDbSymbolTableRecord
100
AcDbLayerTableRecord
  2
137
 70
     0
 62
   137
  6
CONTINUOUS
  0
LAYER
  5
C3
330
2
100
AcDbSymbolTableRecord
100
AcDbLayerTableRecord
  2
138
 70
     0
 62
   138
  6
CONTINUOUS
  0
LAYER
  5
C4
330
2
100
AcDbSymbolTableRecord
100
AcDbLayerTableRecord
  2
139
 70
     0
 62
   139
  6
CONTINUOUS
  0
LAYER
  5
C5
330
2
100
AcDbSymbolTableRecord
100
AcDbLayerTableRecord
  2
140
 70
     0
 62
   140
  6
CONTINUOUS
  0
LAYER
  5
C6
330
2
100
AcDbSymbolTableRecord
100
AcDbLayerTableRecord
  2
141
 70
     0
 62
   141
  6
CONTINUOUS
  0
LAYER
  5
C7
330
2
100
AcDbSymbolTableRecord
100
AcDbLayerTableRecord
  2
142
 70
     0
 62
   142
  6
CONTINUOUS
  0
LAYER
  5
C8
330
2
100
AcDbSymbolTableRecord
100
AcDbLayerTableRecord
  2
143
 70
     0
 62
   143
  6
CONTINUOUS
  0
LAYER
  5
C9
330
2
100
AcDbSymbolTableRecord
100
AcDbLayerTableRecord
  2
144
 70
     0
 62
   144
  6
CONTINUOUS
  0
LAYER
  5
CA
330
2
100
AcDbSymbolTableRecord
100
AcDbLayerTableRecord
  2
145
 70
     0
 62
   145
  6
CONTINUOUS
  0
LAYER
  5
CB
330
2
100
AcDbSymbolTableRecord
100
AcDbLayerTableRecord
  2
146
 70
     0
 62
   146
  6
CONTINUOUS
  0
LAYER
  5
CC
330
2
100
AcDbSymbolTableRecord
100
AcDbLayerTableRecord
  2
147
 70
     0
 62
   147
  6
CONTINUOUS
  0
LAYER
  5
CD
330
2
100
AcDbSymbolTableRecord
100
AcDbLayerTableRecord
  2
148
 70
     0
 62
   148
  6
CONTINUOUS
  0
LAYER
  5
CE
330
2
100
AcDbSymbolTableRecord
100
AcDbLayerTableRecord
  2
149
 70
     0
 62
   149
  6
CONTINUOUS
  0
LAYER
  5
CF
330
2
100
AcDbSymbolTableRecord
100
AcDbLayerTableRecord
  2
150
 70
     0
 62
   150
  6
CONTINUOUS
  0
LAYER
  5
D0
330
2
100
AcDbSymbolTableRecord
100
AcDbLayerTableRecord
  2
151
 70
     0
 62
   151
  6
CONTINUOUS
  0
LAYER
  5
D1
330
2
100
AcDbSymbolTableRecord
100
AcDbLayerTableRecord
  2
152
 70
     0
 62
   152
  6
CONTINUOUS
  0
LAYER
  5
D2
330
2
100
AcDbSymbolTableRecord
100
AcDbLayerTableRecord
  2
153
 70
     0
 62
   153
  6
CONTINUOUS
  0
LAYER
  5
D3
330
2
100
AcDbSymbolTableRecord
100
AcDbLayerTableRecord
  2
154
 70
     0
 62
   154
  6
CONTINUOUS
  0
LAYER
  5
D4
330
2
100
AcDbSymbolTableRecord
100
AcDbLayerTableRecord
  2
155
 70
     0
 62
   155
  6
CONTINUOUS
  0
LAYER
  5
D5
330
2
100
AcDbSymbolTableRecord
100
AcDbLayerTableRecord
  2
156
 70
     0
 62
   156
  6
CONTINUOUS
  0
LAYER
  5
D6
330
2
100
AcDbSymbolTableRecord
100
AcDbLayerTableRecord
  2
157
 70
     0
 62
   157
  6
CONTINUOUS
  0
LAYER
  5
D7
330
2
100
AcDbSymbolTableRecord
100
AcDbLayerTableRecord
  2
158
 70
     0
 62
   158
  6
CONTINUOUS
  0
LAYER
  5
D8
330
2
100
AcDbSymbolTableRecord
100
AcDbLayerTableRecord
  2
159
 70
     0
 62
   159
  6
CONTINUOUS
  0
LAYER
  5
D9
330
2
100
AcDbSymbolTableRecord
100
AcDbLayerTableRecord
  2
160
 70
     0
 62
   160
  6
CONTINUOUS
  0
LAYER
  5
DA
330
2
100
AcDbSymbolTableRecord
100
AcDbLayerTableRecord
  2
161
 70
     0
 62
   161
  6
CONTINUOUS
  0
LAYER
  5
DB
330
2
100
AcDbSymbolTableRecord
100
AcDbLayerTableRecord
  2
162
 70
     0
 62
   162
  6
CONTINUOUS
  0
LAYER
  5
DC
330
2
100
AcDbSymbolTableRecord
100
AcDbLayerTableRecord
  2
163
 70
     0
 62
   163
  6
CONTINUOUS
  0
LAYER
  5
DD
330
2
100
AcDbSymbolTableRecord
100
AcDbLayerTableRecord
  2
164
 70
     0
 62
   164
  6
CONTINUOUS
  0
LAYER
  5
DE
330
2
100
AcDbSymbolTableRecord
100
AcDbLayerTableRecord
  2
165
 70
     0
 62
   165
  6
CONTINUOUS
  0
LAYER
  5
DF
330
2
100
AcDbSymbolTableRecord
100
AcDbLayerTableRecord
  2
166
 70
     0
 62
   166
  6
CONTINUOUS
  0
LAYER
  5
E0
330
2
100
AcDbSymbolTableRecord
100
AcDbLayerTableRecord
  2
167
 70
     0
 62
   167
  6
CONTINUOUS
  0
LAYER
  5
E1
330
2
100
AcDbSymbolTableRecord
100
AcDbLayerTableRecord
  2
168
 70
     0
 62
   168
  6
CONTINUOUS
  0
LAYER
  5
E2
330
2
100
AcDbSymbolTableRecord
100
AcDbLayerTableRecord
  2
169
 70
     0
 62
   169
  6
CONTINUOUS
  0
LAYER
  5
E3
330
2
100
AcDbSymbolTableRecord
100
AcDbLayerTableRecord
  2
170
 70
     0
 62
   170
  6
CONTINUOUS
  0
LAYER
  5
E4
330
2
100
AcDbSymbolTableRecord
100
AcDbLayerTableRecord
  2
171
 70
     0
 62
   171
  6
CONTINUOUS
  0
LAYER
  5
E5
330
2
100
AcDbSymbolTableRecord
100
AcDbLayerTableRecord
  2
172
 70
     0
 62
   172
  6
CONTINUOUS
  0
LAYER
  5
E6
330
2
100
AcDbSymbolTableRecord
100
AcDbLayerTableRecord
  2
173
 70
     0
 62
   173
  6
CONTINUOUS
  0
LAYER
  5
E7
330
2
100
AcDbSymbolTableRecord
100
AcDbLayerTableRecord
  2
174
 70
     0
 62
   174
  6
CONTINUOUS
  0
LAYER
  5
E8
330
2
100
AcDbSymbolTableRecord
100
AcDbLayerTableRecord
  2
175
 70
     0
 62
   175
  6
CONTINUOUS
  0
LAYER
  5
E9
330
2
100
AcDbSymbolTableRecord
100
AcDbLayerTableRecord
  2
176
 70
     0
 62
   176
  6
CONTINUOUS
  0
LAYER
  5
EA
330
2
100
AcDbSymbolTableRecord
100
AcDbLayerTableRecord
  2
177
 70
     0
 62
   177
  6
CONTINUOUS
  0
LAYER
  5
EB
330
2
100
AcDbSymbolTableRecord
100
AcDbLayerTableRecord
  2
178
 70
     0
 62
   178
  6
CONTINUOUS
  0
LAYER
  5
EC
330
2
100
AcDbSymbolTableRecord
100
AcDbLayerTableRecord
  2
179
 70
     0
 62
   179
  6
CONTINUOUS
  0
LAYER
  5
ED
330
2
100
AcDbSymbolTableRecord
100
AcDbLayerTableRecord
  2
180
 70
     0
 62
   180
  6
CONTINUOUS
  0
LAYER
  5
EE
330
2
100
AcDbSymbolTableRecord
100
AcDbLayerTableRecord
  2
181
 70
     0
 62
   181
  6
CONTINUOUS
  0
LAYER
  5
EF
330
2
100
AcDbSymbolTableRecord
100
AcDbLayerTableRecord
  2
182
 70
     0
 62
   182
  6
CONTINUOUS
  0
LAYER
  5
F0
330
2
100
AcDbSymbolTableRecord
100
AcDbLayerTableRecord
  2
183
 70
     0
 62
   183
  6
CONTINUOUS
  0
LAYER
  5
F1
330
2
100
AcDbSymbolTableRecord
100
AcDbLayerTableRecord
  2
184
 70
     0
 62
   184
  6
CONTINUOUS
  0
LAYER
  5
F2
330
2
100
AcDbSymbolTableRecord
100
AcDbLayerTableRecord
  2
185
 70
     0
 62
   185
  6
CONTINUOUS
  0
LAYER
  5
F3
330
2
100
AcDbSymbolTableRecord
100
AcDbLayerTableRecord
  2
186
 70
     0
 62
   186
  6
CONTINUOUS
  0
LAYER
  5
F4
330
2
100
AcDbSymbolTableRecord
100
AcDbLayerTableRecord
  2
187
 70
     0
 62
   187
  6
CONTINUOUS
  0
LAYER
  5
F5
330
2
100
AcDbSymbolTableRecord
100
AcDbLayerTableRecord
  2
188
 70
     0
 62
   188
  6
CONTINUOUS
  0
LAYER
  5
F6
330
2
100
AcDbSymbolTableRecord
100
AcDbLayerTableRecord
  2
189
 70
     0
 62
   189
  6
CONTINUOUS
  0
LAYER
  5
F7
330
2
100
AcDbSymbolTableRecord
100
AcDbLayerTableRecord
  2
190
 70
     0
 62
   190
  6
CONTINUOUS
  0
LAYER
  5
F8
330
2
100
AcDbSymbolTableRecord
100
AcDbLayerTableRecord
  2
191
 70
     0
 62
   191
  6
CONTINUOUS
  0
LAYER
  5
F9
330
2
100
AcDbSymbolTableRecord
100
AcDbLayerTableRecord
  2
192
 70
     0
 62
   192
  6
CONTINUOUS
  0
LAYER
  5
FA
330
2
100
AcDbSymbolTableRecord
100
AcDbLayerTableRecord
  2
193
 70
     0
 62
   193
  6
CONTINUOUS
  0
LAYER
  5
FB
330
2
100
AcDbSymbolTableRecord
100
AcDbLayerTableRecord
  2
194
 70
     0
 62
   194
  6
CONTINUOUS
  0
LAYER
  5
FC
330
2
100
AcDbSymbolTableRecord
100
AcDbLayerTableRecord
  2
195
 70
     0
 62
   195
  6
CONTINUOUS
  0
LAYER
  5
FD
330
2
100
AcDbSymbolTableRecord
100
AcDbLayerTableRecord
  2
196
 70
     0
 62
   196
  6
CONTINUOUS
  0
LAYER
  5
FE
330
2
100
AcDbSymbolTableRecord
100
AcDbLayerTableRecord
  2
197
 70
     0
 62
   197
  6
CONTINUOUS
  0
LAYER
  5
FF
330
2
100
AcDbSymbolTableRecord
100
AcDbLayerTableRecord
  2
198
 70
     0
 62
   198
  6
CONTINUOUS
  0
LAYER
  5
100
330
2
100
AcDbSymbolTableRecord
100
AcDbLayerTableRecord
  2
199
 70
     0
 62
   199
  6
CONTINUOUS
  0
LAYER
  5
101
330
2
100
AcDbSymbolTableRecord
100
AcDbLayerTableRecord
  2
200
 70
     0
 62
   200
  6
CONTINUOUS
  0
LAYER
  5
102
330
2
100
AcDbSymbolTableRecord
100
AcDbLayerTableRecord
  2
201
 70
     0
 62
   201
  6
CONTINUOUS
  0
LAYER
  5
103
330
2
100
AcDbSymbolTableRecord
100
AcDbLayerTableRecord
  2
202
 70
     0
 62
   202
  6
CONTINUOUS
  0
LAYER
  5
104
330
2
100
AcDbSymbolTableRecord
100
AcDbLayerTableRecord
  2
203
 70
     0
 62
   203
  6
CONTINUOUS
  0
LAYER
  5
105
330
2
100
AcDbSymbolTableRecord
100
AcDbLayerTableRecord
  2
204
 70
     0
 62
   204
  6
CONTINUOUS
  0
LAYER
  5
106
330
2
100
AcDbSymbolTableRecord
100
AcDbLayerTableRecord
  2
205
 70
     0
 62
   205
  6
CONTINUOUS
  0
LAYER
  5
107
330
2
100
AcDbSymbolTableRecord
100
AcDbLayerTableRecord
  2
206
 70
     0
 62
   206
  6
CONTINUOUS
  0
LAYER
  5
108
330
2
100
AcDbSymbolTableRecord
100
AcDbLayerTableRecord
  2
207
 70
     0
 62
   207
  6
CONTINUOUS
  0
LAYER
  5
109
330
2
100
AcDbSymbolTableRecord
100
AcDbLayerTableRecord
  2
208
 70
     0
 62
   208
  6
CONTINUOUS
  0
LAYER
  5
10A
330
2
100
AcDbSymbolTableRecord
100
AcDbLayerTableRecord
  2
209
 70
     0
 62
   209
  6
CONTINUOUS
  0
LAYER
  5
10B
330
2
100
AcDbSymbolTableRecord
100
AcDbLayerTableRecord
  2
210
 70
     0
 62
   210
  6
CONTINUOUS
  0
LAYER
  5
10C
330
2
100
AcDbSymbolTableRecord
100
AcDbLayerTableRecord
  2
211
 70
     0
 62
   211
  6
CONTINUOUS
  0
LAYER
  5
10D
330
2
100
AcDbSymbolTableRecord
100
AcDbLayerTableRecord
  2
212
 70
     0
 62
   212
  6
CONTINUOUS
  0
LAYER
  5
10E
330
2
100
AcDbSymbolTableRecord
100
AcDbLayerTableRecord
  2
213
 70
     0
 62
   213
  6
CONTINUOUS
  0
LAYER
  5
10F
330
2
100
AcDbSymbolTableRecord
100
AcDbLayerTableRecord
  2
214
 70
     0
 62
   214
  6
CONTINUOUS
  0
LAYER
  5
110
330
2
100
AcDbSymbolTableRecord
100
AcDbLayerTableRecord
  2
215
 70
     0
 62
   215
  6
CONTINUOUS
  0
LAYER
  5
111
330
2
100
AcDbSymbolTableRecord
100
AcDbLayerTableRecord
  2
216
 70
     0
 62
   216
  6
CONTINUOUS
  0
LAYER
  5
112
330
2
100
AcDbSymbolTableRecord
100
AcDbLayerTableRecord
  2
217
 70
     0
 62
   217
  6
CONTINUOUS
  0
LAYER
  5
113
330
2
100
AcDbSymbolTableRecord
100
AcDbLayerTableRecord
  2
218
 70
     0
 62
   218
  6
CONTINUOUS
  0
LAYER
  5
114
330
2
100
AcDbSymbolTableRecord
100
AcDbLayerTableRecord
  2
219
 70
     0
 62
   219
  6
CONTINUOUS
  0
LAYER
  5
115
330
2
100
AcDbSymbolTableRecord
100
AcDbLayerTableRecord
  2
220
 70
     0
 62
   220
  6
CONTINUOUS
  0
LAYER
  5
116
330
2
100
AcDbSymbolTableRecord
100
AcDbLayerTableRecord
  2
221
 70
     0
 62
   221
  6
CONTINUOUS
  0
LAYER
  5
117
330
2
100
AcDbSymbolTableRecord
100
AcDbLayerTableRecord
  2
222
 70
     0
 62
   222
  6
CONTINUOUS
  0
LAYER
  5
118
330
2
100
AcDbSymbolTableRecord
100
AcDbLayerTableRecord
  2
223
 70
     0
 62
   223
  6
CONTINUOUS
  0
LAYER
  5
119
330
2
100
AcDbSymbolTableRecord
100
AcDbLayerTableRecord
  2
224
 70
     0
 62
   224
  6
CONTINUOUS
  0
LAYER
  5
11A
330
2
100
AcDbSymbolTableRecord
100
AcDbLayerTableRecord
  2
225
 70
     0
 62
   225
  6
CONTINUOUS
  0
LAYER
  5
11B
330
2
100
AcDbSymbolTableRecord
100
AcDbLayerTableRecord
  2
226
 70
     0
 62
   226
  6
CONTINUOUS
  0
LAYER
  5
11C
330
2
100
AcDbSymbolTableRecord
100
AcDbLayerTableRecord
  2
227
 70
     0
 62
   227
  6
CONTINUOUS
  0
LAYER
  5
11D
330
2
100
AcDbSymbolTableRecord
100
AcDbLayerTableRecord
  2
228
 70
     0
 62
   228
  6
CONTINUOUS
  0
LAYER
  5
11E
330
2
100
AcDbSymbolTableRecord
100
AcDbLayerTableRecord
  2
229
 70
     0
 62
   229
  6
CONTINUOUS
  0
LAYER
  5
11F
330
2
100
AcDbSymbolTableRecord
100
AcDbLayerTableRecord
  2
230
 70
     0
 62
   230
  6
CONTINUOUS
  0
LAYER
  5
120
330
2
100
AcDbSymbolTableRecord
100
AcDbLayerTableRecord
  2
231
 70
     0
 62
   231
  6
CONTINUOUS
  0
LAYER
  5
121
330
2
100
AcDbSymbolTableRecord
100
AcDbLayerTableRecord
  2
232
 70
     0
 62
   232
  6
CONTINUOUS
  0
LAYER
  5
122
330
2
100
AcDbSymbolTableRecord
100
AcDbLayerTableRecord
  2
233
 70
     0
 62
   233
  6
CONTINUOUS
  0
LAYER
  5
123
330
2
100
AcDbSymbolTableRecord
100
AcDbLayerTableRecord
  2
234
 70
     0
 62
   234
  6
CONTINUOUS
  0
LAYER
  5
124
330
2
100
AcDbSymbolTableRecord
100
AcDbLayerTableRecord
  2
235
 70
     0
 62
   235
  6
CONTINUOUS
  0
LAYER
  5
125
330
2
100
AcDbSymbolTableRecord
100
AcDbLayerTableRecord
  2
236
 70
     0
 62
   236
  6
CONTINUOUS
  0
LAYER
  5
126
330
2
100
AcDbSymbolTableRecord
100
AcDbLayerTableRecord
  2
237
 70
     0
 62
   237
  6
CONTINUOUS
  0
LAYER
  5
127
330
2
100
AcDbSymbolTableRecord
100
AcDbLayerTableRecord
  2
238
 70
     0
 62
   238
  6
CONTINUOUS
  0
LAYER
  5
128
330
2
100
AcDbSymbolTableRecord
100
AcDbLayerTableRecord
  2
239
 70
     0
 62
   239
  6
CONTINUOUS
  0
LAYER
  5
129
330
2
100
AcDbSymbolTableRecord
100
AcDbLayerTableRecord
  2
240
 70
     0
 62
   240
  6
CONTINUOUS
  0
LAYER
  5
12A
330
2
100
AcDbSymbolTableRecord
100
AcDbLayerTableRecord
  2
241
 70
     0
 62
   241
  6
CONTINUOUS
  0
LAYER
  5
12B
330
2
100
AcDbSymbolTableRecord
100
AcDbLayerTableRecord
  2
242
 70
     0
 62
   242
  6
CONTINUOUS
  0
LAYER
  5
12C
330
2
100
AcDbSymbolTableRecord
100
AcDbLayerTableRecord
  2
243
 70
     0
 62
   243
  6
CONTINUOUS
  0
LAYER
  5
12D
330
2
100
AcDbSymbolTableRecord
100
AcDbLayerTableRecord
  2
244
 70
     0
 62
   244
  6
CONTINUOUS
  0
LAYER
  5
12E
330
2
100
AcDbSymbolTableRecord
100
AcDbLayerTableRecord
  2
245
 70
     0
 62
   245
  6
CONTINUOUS
  0
LAYER
  5
12F
330
2
100
AcDbSymbolTableRecord
100
AcDbLayerTableRecord
  2
246
 70
     0
 62
   246
  6
CONTINUOUS
  0
LAYER
  5
130
330
2
100
AcDbSymbolTableRecord
100
AcDbLayerTableRecord
  2
247
 70
     0
 62
   247
  6
CONTINUOUS
  0
LAYER
  5
131
330
2
100
AcDbSymbolTableRecord
100
AcDbLayerTableRecord
  2
248
 70
     0
 62
   248
  6
CONTINUOUS
  0
LAYER
  5
132
330
2
100
AcDbSymbolTableRecord
100
AcDbLayerTableRecord
  2
249
 70
     0
 62
   249
  6
CONTINUOUS
  0
LAYER
  5
133
330
2
100
AcDbSymbolTableRecord
100
AcDbLayerTableRecord
  2
250
 70
     0
 62
   250
  6
CONTINUOUS
  0
LAYER
  5
134
330
2
100
AcDbSymbolTableRecord
100
AcDbLayerTableRecord
  2
251
 70
     0
 62
   251
  6
CONTINUOUS
  0
LAYER
  5
135
330
2
100
AcDbSymbolTableRecord
100
AcDbLayerTableRecord
  2
252
 70
     0
 62
   252
  6
CONTINUOUS
  0
LAYER
  5
136
330
2
100
AcDbSymbolTableRecord
100
AcDbLayerTableRecord
  2
253
 70
     0
 62
   253
  6
CONTINUOUS
  0
LAYER
  5
137
330
2
100
AcDbSymbolTableRecord
100
AcDbLayerTableRecord
  2
254
 70
     0
 62
   254
  6
CONTINUOUS
  0
LAYER
  5
138
330
2
100
AcDbSymbolTableRecord
100
AcDbLayerTableRecord
  2
255
 70
     0
 62
   255
  6
CONTINUOUS
  0
LAYER
  5
344D
330
2
100
AcDbSymbolTableRecord
100
AcDbLayerTableRecord
  2
DEFPOINTS
 70
     0
 62
     7
  6
CONTINUOUS
  0
ENDTAB
  0
TABLE
  2
STYLE
  5
3
330
0
100
AcDbSymbolTable
 70
     1
  0
STYLE
  5
11
330
3
100
AcDbSymbolTableRecord
100
AcDbTextStyleTableRecord
  2
STANDARD
 70
     0
 40
0.0
 41
1.0
 50
0.0
 71
     0
 42
0.2
  3
txt
  4

  0
ENDTAB
  0
TABLE
  2
VIEW
  5
6
330
0
100
AcDbSymbolTable
 70
     0
  0
ENDTAB
  0
TABLE
  2
UCS
  5
7
330
0
100
AcDbSymbolTable
 70
     0
  0
ENDTAB
  0
TABLE
  2
APPID
  5
9
330
0
100
AcDbSymbolTable
 70
     1
  0
APPID
  5
12
330
9
100
AcDbSymbolTableRecord
100
AcDbRegAppTableRecord
  2
ACAD
 70
     0
  0
ENDTAB
  0
TABLE
  2
DIMSTYLE
  5
A
330
0
100
AcDbSymbolTable
 70
     1
  0
DIMSTYLE
105
3449
102
{ACAD_REACTORS
330
344C
102
}
330
A
100
AcDbSymbolTableRecord
100
AcDbDimStyleTableRecord
  2
STANDARD
 70
     0
  3

  4

  5

  6

  7

 40
1.0
 41
0.18
 42
0.0625
 43
0.38
 44
0.18
 45
0.0
 46
0.0
 47
0.0
 48
0.0
140
0.18
141
0.09
142
0.0
143
25.4
144
1.0
145
0.0
146
1.0
147
0.09
 71
     0
 72
     0
 73
     1
 74
     1
 75
     0
 76
     0
 77
     0
 78
     0
170
     0
171
     2
172
     0
173
     0
174
     0
175
     0
176
     0
177
     0
178
     0
270
     2
271
     4
272
     4
273
     2
274
     2
340
11
275
     0
280
     0
281
     0
282
     0
283
     1
284
     0
285
     0
286
     0
287
     3
288
     0
  0
ENDTAB
  0
TABLE
  2
BLOCK_RECORD
  5
1
330
0
100
AcDbSymbolTable
 70
     1
  0
BLOCK_RECORD
  5
1E
102
{ACAD_XDICTIONARY
360
3469
102
}
330
1
100
AcDbSymbolTableRecord
100
AcDbBlockTableRecord
  2
*MODEL_SPACE
  0
BLOCK_RECORD
  5
1A
102
{ACAD_XDICTIONARY
360
3467
102
}
330
1
100
AcDbSymbolTableRecord
100
AcDbBlockTableRecord
  2
*PAPER_SPACE
  0
BLOCK_RECORD
  5
344E
330
1
100
AcDbSymbolTableRecord
100
AcDbBlockTableRecord
  2
*D0
  0
ENDTAB
  0
ENDSEC
  0
SECTION
  2
BLOCKS
  0
BLOCK
  5
13B
330
1E
100
AcDbEntity
  8
0
100
AcDbBlockBegin
  2
*MODEL_SPACE
 70
     0
 10
0.0
 20
0.0
 30
0.0
  3
*MODEL_SPACE
  1

  0
ENDBLK
  5
13C
330
1E
100
AcDbEntity
  8
0
100
AcDbBlockEnd
  0
BLOCK
  5
139
330
1A
100
AcDbEntity
 67
     1
  8
0
100
AcDbBlockBegin
  2
*PAPER_SPACE
 70
     0
 10
0.0
 20
0.0
 30
0.0
  3
*PAPER_SPACE
  1

  0
ENDBLK
  5
13A
330
1A
100
AcDbEntity
 67
     1
  8
0
100
AcDbBlockEnd
  0
BLOCK
  5
3459
330
344E
100
AcDbEntity
  8
0
100
AcDbBlockBegin
  2
*D0
 70
     1
 10
0.0
 20
0.0
 30
0.0
  3
*D0
  1

  0
LINE
  5
345B
330
344E
100
AcDbEntity
  8
0
 62
     0
100
AcDbLine
 10
-0.2771525590551182
 20
7.754913638854556
 30
0.0
 11
-1.38767949467486
 21
7.754913638854556
 31
0.0
  0
LINE
  5
345C
330
344E
100
AcDbEntity
  8
0
 62
     0
100
AcDbLine
 10
-0.2771525590551182
 20
3.237274859326998
 30
0.0
 11
-1.387679494674861
 21
3.237274859326998
 31
0.0
  0
LINE
  5
345D
330
344E
100
AcDbEntity
  8
0
 62
     0
100
AcDbLine
 10
-1.20767949467486
 20
7.574913638854556
 30
0.0
 11
-1.207679494674861
 21
5.676094249090777
 31
0.0
  0
LINE
  5
345E
330
344E
100
AcDbEntity
  8
0
 62
     0
100
AcDbLine
 10
-1.207679494674861
 20
3.417274859326998
 30
0.0
 11
-1.207679494674861
 21
5.316094249090777
 31
0.0
  0
SOLID
  5
345F
330
344E
100
AcDbEntity
  8
0
 62
     0
100
AcDbTrace
 10
-1.23767949467486
 20
7.574913638854556
 30
0.0
 11
-1.17767949467486
 21
7.574913638854556
 31
0.0
 12
-1.20767949467486
 22
7.754913638854556
 32
0.0
 13
-1.20767949467486
 23
7.754913638854556
 33
0.0
  0
SOLID
  5
3460
330
344E
100
AcDbEntity
  8
0
 62
     0
100
AcDbTrace
 10
-1.237679494674861
 20
3.417274859326998
 30
0.0
 11
-1.177679494674861
 21
3.417274859326998
 31
0.0
 12
-1.207679494674861
 22
3.237274859326998
 32
0.0
 13
-1.207679494674861
 23
3.237274859326998
 33
0.0
  0
MTEXT
  5
3461
330
344E
100
AcDbEntity
  8
0
 62
     0
100
AcDbMText
 10
-1.207679494674861
 20
5.496094249090777
 30
0.0
 40
0.18
 41
0.0
 71
     5
 72
     1
  1
\A1;4.5176
1001
ACAD
1000
MTEXTBEGIN
1070
    73
1070
     1
1070
    44
1040
1.0
1070
    74
1070
     0
1000
MTEXTEND
  0
POINT
  5
3462
330
344E
100
AcDbEntity
  8
DEFPOINTS
 62
     0
100
AcDbPoint
 10
-0.2146525590551182
 20
7.754913638854556
 30
0.0
  0
POINT
  5
3463
330
344E
100
AcDbEntity
  8
DEFPOINTS
 62
     0
100
AcDbPoint
 10
-0.2146525590551182
 20
3.237274859326998
 30
0.0
  0
POINT
  5
3464
330
344E
100
AcDbEntity
  8
DEFPOINTS
 62
     0
100
AcDbPoint
 10
-1.207679494674861
 20
3.237274859326998
 30
0.0
  0
ENDBLK
  5
345A
330
344E
100
AcDbEntity
  8
0
100
AcDbBlockEnd
  0
ENDSEC
  0
SECTION
  2
ENTITIES
  0
LINE
  5
2BF5
330
1E
100
AcDbEntity
  8
0
100
AcDbLine
 10
3.401563976377952
 20
3.270173481374241
 30
0.0
 11
3.405511811023622
 21
3.267541591610461
 31
0.0
  0
LINE
  5
2BF6
330
1E
100
AcDbEntity
  8
0
100
AcDbLine
 10
3.405511811023622
 20
7.725962851452981
 30
0.0
 11
3.405511811023622
 21
3.267541591610461
 31
0.0
  0
LINE
  5
2BF7
330
1E
100
AcDbEntity
  8
0
100
AcDbLine
 10
3.405511811023622
 20
7.725962851452981
 30
0.0
 11
3.401563976377952
 21
7.722015016807311
 31
0.0
  0
POLYLINE
  5
2BF8
330
1E
100
AcDbEntity
  8
0
100
AcDb2dPolyline
 66
     1
 10
0.0
 20
0.0
 30
0.0
  0
VERTEX
  5
346B
330
2BF8
100
AcDbEntity
  8
0
100
AcDbVertex
100
AcDb2dVertex
 10
3.405511811023622
 20
3.267541591610462
 30
0.0
  0
VERTEX
  5
346C
330
2BF8
100
AcDbEntity
  8
0
100
AcDbVertex
100
AcDb2dVertex
 10
3.401563976377952
 20
3.251750253027784
 30
0.0
  0
VERTEX
  5
346D
330
2BF8
100
AcDbEntity
  8
0
100
AcDbVertex
100
AcDb2dVertex
 10
3.389720472440944
 20
3.241222693972666
 30
0.0
  0
VERTEX
  5
346E
330
2BF8
100
AcDbEntity
  8
0
100
AcDbVertex
100
AcDb2dVertex
 10
3.375245078740157
 20
3.237274859326998
 30
0.0
  0
SEQEND
  5
346F
330
2BF8
100
AcDbEntity
  8
0
  0
LINE
  5
2BFE
330
1E
100
AcDbEntity
  8
0
100
AcDbLine
 10
0.6709783464566926
 20
3.237274859326997
 30
0.0
 11
3.375245078740157
 21
3.237274859326997
 31
0.0
  0
POLYLINE
  5
2BFF
330
1E
100
AcDbEntity
  8
0
100
AcDb2dPolyline
 66
     1
 10
0.0
 20
0.0
 30
0.0
  0
VERTEX
  5
3470
330
2BFF
100
AcDbEntity
  8
0
100
AcDbVertex
100
AcDb2dVertex
 10
0.670978346456693
 20
3.237274859326998
 30
0.0
  0
VERTEX
  5
3471
330
2BFF
100
AcDbEntity
  8
0
100
AcDbVertex
100
AcDb2dVertex
 10
0.6565029527559057
 20
3.241222693972666
 30
0.0
  0
VERTEX
  5
3472
330
2BFF
100
AcDbEntity
  8
0
100
AcDbVertex
100
AcDb2dVertex
 10
0.6459753937007875
 20
3.251750253027784
 30
0.0
  0
VERTEX
  5
3473
330
2BFF
100
AcDbEntity
  8
0
100
AcDbVertex
100
AcDb2dVertex
 10
0.6420275590551182
 20
3.267541591610462
 30
0.0
  0
SEQEND
  5
3474
330
2BFF
100
AcDbEntity
  8
0
  0
LINE
  5
2C05
330
1E
100
AcDbEntity
  8
0
100
AcDbLine
 10
0.6420275590551184
 20
7.725962851452981
 30
0.0
 11
0.6420275590551184
 21
3.267541591610461
 31
0.0
  0
POLYLINE
  5
2C06
330
1E
100
AcDbEntity
  8
0
100
AcDb2dPolyline
 66
     1
 10
0.0
 20
0.0
 30
0.0
  0
VERTEX
  5
3475
330
2C06
100
AcDbEntity
  8
0
100
AcDbVertex
100
AcDb2dVertex
 10
0.6420275590551182
 20
7.725962851452981
 30
0.0
  0
VERTEX
  5
3476
330
2C06
100
AcDbEntity
  8
0
100
AcDbVertex
100
AcDb2dVertex
 10
0.6459753937007875
 20
7.740438245153769
 30
0.0
  0
VERTEX
  5
3477
330
2C06
100
AcDbEntity
  8
0
100
AcDbVertex
100
AcDb2dVertex
 10
0.6565029527559057
 20
7.750965804208887
 30
0.0
  0
VERTEX
  5
3478
330
2C06
100
AcDbEntity
  8
0
100
AcDbVertex
100
AcDb2dVertex
 10
0.670978346456693
 20
7.754913638854556
 30
0.0
  0
SEQEND
  5
3479
330
2C06
100
AcDbEntity
  8
0
  0
LINE
  5
2C0C
330
1E
100
AcDbEntity
  8
0
100
AcDbLine
 10
0.6709783464566926
 20
7.754913638854556
 30
0.0
 11
3.375245078740157
 21
7.754913638854556
 31
0.0
  0
POLYLINE
  5
2C0D
330
1E
100
AcDbEntity
  8
0
100
AcDb2dPolyline
 66
     1
 10
0.0
 20
0.0
 30
0.0
  0
VERTEX
  5
347A
330
2C0D
100
AcDbEntity
  8
0
100
AcDbVertex
100
AcDb2dVertex
 10
3.375245078740157
 20
7.754913638854556
 30
0.0
  0
VERTEX
  5
347B
330
2C0D
100
AcDbEntity
  8
0
100
AcDbVertex
100
AcDb2dVertex
 10
3.389720472440944
 20
7.750965804208887
 30
0.0
  0
VERTEX
  5
347C
330
2C0D
100
AcDbEntity
  8
0
100
AcDbVertex
100
AcDb2dVertex
 10
3.401563976377952
 20
7.740438245153769
 30
0.0
  0
VERTEX
  5
347D
330
2C0D
100
AcDbEntity
  8
0
100
AcDbVertex
100
AcDb2dVertex
 10
3.405511811023622
 20
7.725962851452981
 30
0.0
  0
SEQEND
  5
347E
330
2C0D
100
AcDbEntity
  8
0
  0
LINE
  5
2C13
330
1E
100
AcDbEntity
  8
0
100
AcDbLine
 10
0.6446594488188975
 20
7.722015016807311
 30
0.0
 11
0.6420275590551184
 21
7.725962851452981
 31
0.0
  0
LINE
  5
2C14
330
1E
100
AcDbEntity
  8
0
100
AcDbLine
 10
0.6420275590551184
 20
3.267541591610461
 30
0.0
 11
0.6446594488188975
 21
3.270173481374241
 31
0.0
  0
LINE
  5
2C15
330
1E
100
AcDbEntity
  8
0
100
AcDbLine
 10
1.256573818897637
 20
4.122905764838808
 30
0.0
 11
1.264469488188976
 21
4.11501009554747
 31
0.0
  0
LINE
  5
2C16
330
1E
100
AcDbEntity
  8
0
100
AcDbLine
 10
1.264469488188976
 20
4.11501009554747
 30
0.0
 11
1.315791338582677
 21
4.11501009554747
 31
0.0
  0
LINE
  5
2C17
330
1E
100
AcDbEntity
  8
0
100
AcDbLine
 10
1.456597440944881
 20
4.11501009554747
 30
0.0
 11
1.509235236220472
 21
4.11501009554747
 31
0.0
  0
LINE
  5
2C18
330
1E
100
AcDbEntity
  8
0
100
AcDbLine
 10
1.509235236220472
 20
4.11501009554747
 30
0.0
 11
1.517130905511811
 21
4.122905764838808
 31
0.0
  0
LINE
  5
2C19
330
1E
100
AcDbEntity
  8
0
100
AcDbLine
 10
2.100094488188976
 20
4.095270922319123
 30
0.0
 11
2.093514763779527
 21
4.095270922319123
 31
0.0
  0
LINE
  5
2C1A
330
1E
100
AcDbEntity
  8
0
100
AcDbLine
 10
1.952708661417322
 20
4.095270922319123
 30
0.0
 11
1.946128937007873
 21
4.095270922319123
 31
0.0
  0
LINE
  5
2C1B
330
1E
100
AcDbEntity
  8
0
100
AcDbLine
 10
1.946128937007873
 20
4.095270922319123
 30
0.0
 11
1.946128937007873
 21
4.084743363264005
 31
0.0
  0
LINE
  5
2C1C
330
1E
100
AcDbEntity
  8
0
100
AcDbLine
 10
2.100094488188976
 20
4.084743363264005
 30
0.0
 11
2.100094488188976
 21
4.095270922319123
 31
0.0
  0
LINE
  5
2C1D
330
1E
100
AcDbEntity
  8
0
100
AcDbLine
 10
2.529092519685039
 20
4.122905764838808
 30
0.0
 11
2.536988188976377
 21
4.11501009554747
 31
0.0
  0
LINE
  5
2C1E
330
1E
100
AcDbEntity
  8
0
100
AcDbLine
 10
2.536988188976377
 20
4.11501009554747
 30
0.0
 11
2.589625984251968
 21
4.11501009554747
 31
0.0
  0
LINE
  5
2C1F
330
1E
100
AcDbEntity
  8
0
100
AcDbLine
 10
2.730432086614173
 20
4.11501009554747
 30
0.0
 11
2.781753937007874
 21
4.11501009554747
 31
0.0
  0
LINE
  5
2C20
330
1E
100
AcDbEntity
  8
0
100
AcDbLine
 10
2.781753937007874
 20
4.11501009554747
 30
0.0
 11
2.790965551181102
 21
4.122905764838808
 31
0.0
  0
LINE
  5
2C21
330
1E
100
AcDbEntity
  8
0
100
AcDbLine
 10
2.710692913385826
 20
6.869282733342744
 30
0.0
 11
2.701481299212598
 21
6.877178402634084
 31
0.0
  0
LINE
  5
2C22
330
1E
100
AcDbEntity
  8
0
100
AcDbLine
 10
2.701481299212598
 20
6.877178402634084
 30
0.0
 11
2.650159448818897
 21
6.877178402634084
 31
0.0
  0
LINE
  5
2C23
330
1E
100
AcDbEntity
  8
0
100
AcDbLine
 10
2.509353346456692
 20
6.877178402634084
 30
0.0
 11
2.458031496062992
 21
6.877178402634084
 31
0.0
  0
LINE
  5
2C24
330
1E
100
AcDbEntity
  8
0
100
AcDbLine
 10
2.458031496062992
 20
6.877178402634084
 30
0.0
 11
2.448819881889763
 21
6.869282733342744
 31
0.0
  0
LINE
  5
2C25
330
1E
100
AcDbEntity
  8
0
100
AcDbLine
 10
1.946128937007873
 20
6.908761079799438
 30
0.0
 11
1.946128937007873
 21
6.89823352074432
 31
0.0
  0
LINE
  5
2C26
330
1E
100
AcDbEntity
  8
0
100
AcDbLine
 10
1.946128937007873
 20
6.89823352074432
 30
0.0
 11
1.952708661417322
 21
6.89823352074432
 31
0.0
  0
LINE
  5
2C27
330
1E
100
AcDbEntity
  8
0
100
AcDbLine
 10
2.093514763779527
 20
6.89823352074432
 30
0.0
 11
2.100094488188976
 21
6.89823352074432
 31
0.0
  0
LINE
  5
2C28
330
1E
100
AcDbEntity
  8
0
100
AcDbLine
 10
2.100094488188976
 20
6.89823352074432
 30
0.0
 11
2.100094488188976
 21
6.908761079799438
 31
0.0
  0
LINE
  5
2C29
330
1E
100
AcDbEntity
  8
0
100
AcDbLine
 10
1.597403543307086
 20
6.869282733342744
 30
0.0
 11
1.589507874015748
 21
6.877178402634084
 31
0.0
  0
LINE
  5
2C2A
330
1E
100
AcDbEntity
  8
0
100
AcDbLine
 10
1.589507874015748
 20
6.877178402634084
 30
0.0
 11
1.536870078740157
 21
6.877178402634084
 31
0.0
  0
LINE
  5
2C2B
330
1E
100
AcDbEntity
  8
0
100
AcDbLine
 10
1.396063976377952
 20
6.877178402634084
 30
0.0
 11
1.344742125984252
 21
6.877178402634084
 31
0.0
  0
LINE
  5
2C2C
330
1E
100
AcDbEntity
  8
0
100
AcDbLine
 10
1.344742125984252
 20
6.877178402634084
 30
0.0
 11
1.336846456692913
 21
6.869282733342744
 31
0.0
  0
POLYLINE
  5
2C2D
330
1E
100
AcDbEntity
  8
0
100
AcDb2dPolyline
 66
     1
 10
0.0
 20
0.0
 30
0.0
  0
VERTEX
  5
347F
330
2C2D
100
AcDbEntity
  8
0
100
AcDbVertex
100
AcDb2dVertex
 10
0.9999645669291339
 20
4.067636079799438
 30
0.0
  0
VERTEX
  5
3480
330
2C2D
100
AcDbEntity
  8
0
100
AcDbVertex
100
AcDb2dVertex
 10
1.003912401574803
 20
4.083427418382115
 30
0.0
  0
VERTEX
  5
3481
330
2C2D
100
AcDbEntity
  8
0
100
AcDbVertex
100
AcDb2dVertex
 10
1.014439960629921
 20
4.093954977437234
 30
0.0
  0
VERTEX
  5
3482
330
2C2D
100
AcDbEntity
  8
0
100
AcDbVertex
100
AcDb2dVertex
 10
1.030231299212598
 20
4.097902812082903
 30
0.0
  0
SEQEND
  5
3483
330
2C2D
100
AcDbEntity
  8
0
  0
LINE
  5
2C33
330
1E
100
AcDbEntity
  8
0
100
AcDbLine
 10
1.030231299212598
 20
4.097902812082903
 30
0.0
 11
1.942181102362204
 21
4.097902812082903
 31
0.0
  0
LINE
  5
2C34
330
1E
100
AcDbEntity
  8
0
100
AcDbLine
 10
1.942181102362204
 20
4.097902812082903
 30
0.0
 11
1.942181102362204
 21
4.120273875075029
 31
0.0
  0
LINE
  5
2C35
330
1E
100
AcDbEntity
  8
0
100
AcDbLine
 10
2.104042322834645
 20
4.120273875075029
 30
0.0
 11
2.104042322834645
 21
4.097902812082903
 31
0.0
  0
LINE
  5
2C36
330
1E
100
AcDbEntity
  8
0
100
AcDbLine
 10
2.104042322834645
 20
4.097902812082903
 30
0.0
 11
3.015992125984251
 21
4.097902812082903
 31
0.0
  0
POLYLINE
  5
2C37
330
1E
100
AcDbEntity
  8
0
100
AcDb2dPolyline
 66
     1
 10
0.0
 20
0.0
 30
0.0
  0
VERTEX
  5
3484
330
2C37
100
AcDbEntity
  8
0
100
AcDbVertex
100
AcDb2dVertex
 10
3.015992125984251
 20
4.097902812082903
 30
0.0
  0
VERTEX
  5
3485
330
2C37
100
AcDbEntity
  8
0
100
AcDbVertex
100
AcDb2dVertex
 10
3.031783464566928
 20
4.093954977437234
 30
0.0
  0
VERTEX
  5
3486
330
2C37
100
AcDbEntity
  8
0
100
AcDbVertex
100
AcDb2dVertex
 10
3.042311023622046
 20
4.083427418382115
 30
0.0
  0
VERTEX
  5
3487
330
2C37
100
AcDbEntity
  8
0
100
AcDbVertex
100
AcDb2dVertex
 10
3.046258858267716
 20
4.067636079799438
 30
0.0
  0
SEQEND
  5
3488
330
2C37
100
AcDbEntity
  8
0
  0
LINE
  5
2C3D
330
1E
100
AcDbEntity
  8
0
100
AcDbLine
 10
3.046258858267716
 20
4.067636079799438
 30
0.0
 11
3.046258858267716
 21
3.634690213657706
 31
0.0
  0
POLYLINE
  5
2C3E
330
1E
100
AcDbEntity
  8
0
100
AcDb2dPolyline
 66
     1
 10
0.0
 20
0.0
 30
0.0
  0
VERTEX
  5
3489
330
2C3E
100
AcDbEntity
  8
0
100
AcDbVertex
100
AcDb2dVertex
 10
3.046258858267716
 20
3.634690213657706
 30
0.0
  0
VERTEX
  5
348A
330
2C3E
100
AcDbEntity
  8
0
100
AcDbVertex
100
AcDb2dVertex
 10
3.042311023622046
 20
3.620214819956919
 30
0.0
  0
VERTEX
  5
348B
330
2C3E
100
AcDbEntity
  8
0
100
AcDbVertex
100
AcDb2dVertex
 10
3.031783464566928
 20
3.60837131601991
 30
0.0
  0
VERTEX
  5
348C
330
2C3E
100
AcDbEntity
  8
0
100
AcDbVertex
100
AcDb2dVertex
 10
3.015992125984251
 20
3.604423481374241
 30
0.0
  0
SEQEND
  5
348D
330
2C3E
100
AcDbEntity
  8
0
  0
LINE
  5
2C44
330
1E
100
AcDbEntity
  8
0
100
AcDbLine
 10
1.030231299212598
 20
3.604423481374241
 30
0.0
 11
3.015992125984251
 21
3.604423481374241
 31
0.0
  0
POLYLINE
  5
2C45
330
1E
100
AcDbEntity
  8
0
100
AcDb2dPolyline
 66
     1
 10
0.0
 20
0.0
 30
0.0
  0
VERTEX
  5
348E
330
2C45
100
AcDbEntity
  8
0
100
AcDbVertex
100
AcDb2dVertex
 10
1.030231299212598
 20
3.604423481374241
 30
0.0
  0
VERTEX
  5
348F
330
2C45
100
AcDbEntity
  8
0
100
AcDbVertex
100
AcDb2dVertex
 10
1.014439960629921
 20
3.60837131601991
 30
0.0
  0
VERTEX
  5
3490
330
2C45
100
AcDbEntity
  8
0
100
AcDbVertex
100
AcDb2dVertex
 10
1.003912401574803
 20
3.620214819956919
 30
0.0
  0
VERTEX
  5
3491
330
2C45
100
AcDbEntity
  8
0
100
AcDbVertex
100
AcDb2dVertex
 10
0.9999645669291339
 20
3.634690213657706
 30
0.0
  0
SEQEND
  5
3492
330
2C45
100
AcDbEntity
  8
0
  0
LINE
  5
2C4B
330
1E
100
AcDbEntity
  8
0
100
AcDbLine
 10
0.9999645669291336
 20
3.634690213657706
 30
0.0
 11
0.9999645669291336
 21
4.067636079799438
 31
0.0
  0
LINE
  5
2C4C
330
1E
100
AcDbEntity
  8
0
100
AcDbLine
 10
1.509235236220472
 20
4.16501600105928
 30
0.0
 11
1.510551181102362
 21
4.16501600105928
 31
0.0
  0
POLYLINE
  5
2C4D
330
1E
100
AcDbEntity
  8
0
100
AcDb2dPolyline
 66
     1
 10
0.0
 20
0.0
 30
0.0
  0
VERTEX
  5
3493
330
2C4D
100
AcDbEntity
  8
0
100
AcDbVertex
100
AcDb2dVertex
 10
1.510551181102362
 20
4.16501600105928
 30
0.0
  0
VERTEX
  5
3494
330
2C4D
100
AcDbEntity
  8
0
100
AcDbVertex
100
AcDb2dVertex
 10
1.52107874015748
 20
4.159752221531721
 30
0.0
  0
VERTEX
  5
3495
330
2C4D
100
AcDbEntity
  8
0
100
AcDbVertex
100
AcDb2dVertex
 10
1.526342519685039
 20
4.149224662476603
 30
0.0
  0
SEQEND
  5
3496
330
2C4D
100
AcDbEntity
  8
0
  0
LINE
  5
2C52
330
1E
100
AcDbEntity
  8
0
100
AcDbLine
 10
1.526342519685039
 20
4.149224662476603
 30
0.0
 11
1.526342519685039
 21
4.118957930193139
 31
0.0
  0
POLYLINE
  5
2C53
330
1E
100
AcDbEntity
  8
0
100
AcDb2dPolyline
 66
     1
 10
0.0
 20
0.0
 30
0.0
  0
VERTEX
  5
3497
330
2C53
100
AcDbEntity
  8
0
100
AcDbVertex
100
AcDb2dVertex
 10
1.526342519685039
 20
4.118957930193139
 30
0.0
  0
VERTEX
  5
3498
330
2C53
100
AcDbEntity
  8
0
100
AcDbVertex
100
AcDb2dVertex
 10
1.52107874015748
 20
4.10711442625613
 30
0.0
  0
VERTEX
  5
3499
330
2C53
100
AcDbEntity
  8
0
100
AcDbVertex
100
AcDb2dVertex
 10
1.510551181102362
 20
4.101850646728571
 30
0.0
  0
SEQEND
  5
349A
330
2C53
100
AcDbEntity
  8
0
  0
LINE
  5
2C58
330
1E
100
AcDbEntity
  8
0
100
AcDbLine
 10
1.510551181102362
 20
4.101850646728571
 30
0.0
 11
1.263153543307086
 21
4.101850646728571
 31
0.0
  0
POLYLINE
  5
2C59
330
1E
100
AcDbEntity
  8
0
100
AcDb2dPolyline
 66
     1
 10
0.0
 20
0.0
 30
0.0
  0
VERTEX
  5
349B
330
2C59
100
AcDbEntity
  8
0
100
AcDbVertex
100
AcDb2dVertex
 10
1.263153543307086
 20
4.101850646728571
 30
0.0
  0
VERTEX
  5
349C
330
2C59
100
AcDbEntity
  8
0
100
AcDbVertex
100
AcDb2dVertex
 10
1.251310039370078
 20
4.10711442625613
 30
0.0
  0
VERTEX
  5
349D
330
2C59
100
AcDbEntity
  8
0
100
AcDbVertex
100
AcDb2dVertex
 10
1.246046259842519
 20
4.118957930193139
 30
0.0
  0
SEQEND
  5
349E
330
2C59
100
AcDbEntity
  8
0
  0
LINE
  5
2C5E
330
1E
100
AcDbEntity
  8
0
100
AcDbLine
 10
1.246046259842519
 20
4.118957930193139
 30
0.0
 11
1.246046259842519
 21
4.149224662476603
 31
0.0
  0
POLYLINE
  5
2C5F
330
1E
100
AcDbEntity
  8
0
100
AcDb2dPolyline
 66
     1
 10
0.0
 20
0.0
 30
0.0
  0
VERTEX
  5
349F
330
2C5F
100
AcDbEntity
  8
0
100
AcDbVertex
100
AcDb2dVertex
 10
1.246046259842519
 20
4.149224662476603
 30
0.0
  0
VERTEX
  5
34A0
330
2C5F
100
AcDbEntity
  8
0
100
AcDbVertex
100
AcDb2dVertex
 10
1.251310039370078
 20
4.159752221531721
 30
0.0
  0
VERTEX
  5
34A1
330
2C5F
100
AcDbEntity
  8
0
100
AcDbVertex
100
AcDb2dVertex
 10
1.263153543307086
 20
4.16501600105928
 30
0.0
  0
SEQEND
  5
34A2
330
2C5F
100
AcDbEntity
  8
0
  0
LINE
  5
2C64
330
1E
100
AcDbEntity
  8
0
100
AcDbLine
 10
1.263153543307086
 20
4.16501600105928
 30
0.0
 11
1.263153543307086
 21
4.16501600105928
 31
0.0
  0
LINE
  5
2C65
330
1E
100
AcDbEntity
  8
0
100
AcDbLine
 10
2.535672244094487
 20
4.16501600105928
 30
0.0
 11
2.536988188976377
 21
4.16501600105928
 31
0.0
  0
LINE
  5
2C66
330
1E
100
AcDbEntity
  8
0
100
AcDbLine
 10
2.783069881889763
 20
4.16501600105928
 30
0.0
 11
2.784385826771653
 21
4.16501600105928
 31
0.0
  0
POLYLINE
  5
2C67
330
1E
100
AcDbEntity
  8
0
100
AcDb2dPolyline
 66
     1
 10
0.0
 20
0.0
 30
0.0
  0
VERTEX
  5
34A3
330
2C67
100
AcDbEntity
  8
0
100
AcDbVertex
100
AcDb2dVertex
 10
2.784385826771653
 20
4.16501600105928
 30
0.0
  0
VERTEX
  5
34A4
330
2C67
100
AcDbEntity
  8
0
100
AcDbVertex
100
AcDb2dVertex
 10
2.794913385826771
 20
4.159752221531721
 30
0.0
  0
VERTEX
  5
34A5
330
2C67
100
AcDbEntity
  8
0
100
AcDbVertex
100
AcDb2dVertex
 10
2.80017716535433
 20
4.149224662476603
 30
0.0
  0
SEQEND
  5
34A6
330
2C67
100
AcDbEntity
  8
0
  0
LINE
  5
2C6C
330
1E
100
AcDbEntity
  8
0
100
AcDbLine
 10
2.80017716535433
 20
4.149224662476603
 30
0.0
 11
2.80017716535433
 21
4.118957930193139
 31
0.0
  0
POLYLINE
  5
2C6D
330
1E
100
AcDbEntity
  8
0
100
AcDb2dPolyline
 66
     1
 10
0.0
 20
0.0
 30
0.0
  0
VERTEX
  5
34A7
330
2C6D
100
AcDbEntity
  8
0
100
AcDbVertex
100
AcDb2dVertex
 10
2.80017716535433
 20
4.118957930193139
 30
0.0
  0
VERTEX
  5
34A8
330
2C6D
100
AcDbEntity
  8
0
100
AcDbVertex
100
AcDb2dVertex
 10
2.794913385826771
 20
4.10711442625613
 30
0.0
  0
VERTEX
  5
34A9
330
2C6D
100
AcDbEntity
  8
0
100
AcDbVertex
100
AcDb2dVertex
 10
2.784385826771653
 20
4.101850646728571
 30
0.0
  0
SEQEND
  5
34AA
330
2C6D
100
AcDbEntity
  8
0
  0
LINE
  5
2C72
330
1E
100
AcDbEntity
  8
0
100
AcDbLine
 10
2.784385826771653
 20
4.101850646728571
 30
0.0
 11
2.535672244094487
 21
4.101850646728571
 31
0.0
  0
POLYLINE
  5
2C73
330
1E
100
AcDbEntity
  8
0
100
AcDb2dPolyline
 66
     1
 10
0.0
 20
0.0
 30
0.0
  0
VERTEX
  5
34AB
330
2C73
100
AcDbEntity
  8
0
100
AcDbVertex
100
AcDb2dVertex
 10
2.535672244094487
 20
4.101850646728571
 30
0.0
  0
VERTEX
  5
34AC
330
2C73
100
AcDbEntity
  8
0
100
AcDbVertex
100
AcDb2dVertex
 10
2.525144685039369
 20
4.10711442625613
 30
0.0
  0
VERTEX
  5
34AD
330
2C73
100
AcDbEntity
  8
0
100
AcDbVertex
100
AcDb2dVertex
 10
2.51988090551181
 20
4.118957930193139
 30
0.0
  0
SEQEND
  5
34AE
330
2C73
100
AcDbEntity
  8
0
  0
LINE
  5
2C78
330
1E
100
AcDbEntity
  8
0
100
AcDbLine
 10
2.51988090551181
 20
4.118957930193139
 30
0.0
 11
2.51988090551181
 21
4.149224662476603
 31
0.0
  0
POLYLINE
  5
2C79
330
1E
100
AcDbEntity
  8
0
100
AcDb2dPolyline
 66
     1
 10
0.0
 20
0.0
 30
0.0
  0
VERTEX
  5
34AF
330
2C79
100
AcDbEntity
  8
0
100
AcDbVertex
100
AcDb2dVertex
 10
2.51988090551181
 20
4.149224662476603
 30
0.0
  0
VERTEX
  5
34B0
330
2C79
100
AcDbEntity
  8
0
100
AcDbVertex
100
AcDb2dVertex
 10
2.525144685039369
 20
4.159752221531721
 30
0.0
  0
VERTEX
  5
34B1
330
2C79
100
AcDbEntity
  8
0
100
AcDbVertex
100
AcDb2dVertex
 10
2.535672244094487
 20
4.16501600105928
 30
0.0
  0
SEQEND
  5
34B2
330
2C79
100
AcDbEntity
  8
0
  0
LINE
  5
2C7E
330
1E
100
AcDbEntity
  8
0
100
AcDbLine
 10
1.6855718503937
 20
4.621648875075028
 30
0.0
 11
1.6855718503937
 21
5.28356915066558
 31
0.0
  0
LINE
  5
2C7F
330
1E
100
AcDbEntity
  8
0
100
AcDbLine
 10
1.086816929133858
 20
5.28356915066558
 30
0.0
 11
1.086816929133858
 21
4.621648875075028
 31
0.0
  0
LINE
  5
2C80
330
1E
100
AcDbEntity
  8
0
100
AcDbLine
 10
2.322489173228346
 20
4.621648875075028
 30
0.0
 11
2.322489173228346
 21
5.28356915066558
 31
0.0
  0
LINE
  5
2C81
330
1E
100
AcDbEntity
  8
0
100
AcDbLine
 10
1.723734251968504
 20
5.28356915066558
 30
0.0
 11
1.723734251968504
 21
4.621648875075028
 31
0.0
  0
LINE
  5
2C82
330
1E
100
AcDbEntity
  8
0
100
AcDbLine
 10
2.959406496062991
 20
4.621648875075028
 30
0.0
 11
2.959406496062991
 21
5.28356915066558
 31
0.0
  0
LINE
  5
2C83
330
1E
100
AcDbEntity
  8
0
100
AcDbLine
 10
2.360651574803149
 20
5.28356915066558
 30
0.0
 11
2.360651574803149
 21
4.621648875075028
 31
0.0
  0
LINE
  5
2C84
330
1E
100
AcDbEntity
  8
0
100
AcDbLine
 10
1.6855718503937
 20
5.774416591610462
 30
0.0
 11
1.6855718503937
 21
6.436336867201013
 31
0.0
  0
LINE
  5
2C85
330
1E
100
AcDbEntity
  8
0
100
AcDbLine
 10
1.086816929133858
 20
6.436336867201013
 30
0.0
 11
1.086816929133858
 21
5.774416591610462
 31
0.0
  0
LINE
  5
2C86
330
1E
100
AcDbEntity
  8
0
100
AcDbLine
 10
2.322489173228346
 20
5.774416591610462
 30
0.0
 11
2.322489173228346
 21
6.436336867201013
 31
0.0
  0
LINE
  5
2C87
330
1E
100
AcDbEntity
  8
0
100
AcDbLine
 10
1.723734251968504
 20
6.436336867201013
 30
0.0
 11
1.723734251968504
 21
5.774416591610462
 31
0.0
  0
LINE
  5
2C88
330
1E
100
AcDbEntity
  8
0
100
AcDbLine
 10
2.959406496062991
 20
5.774416591610462
 30
0.0
 11
2.959406496062991
 21
6.436336867201013
 31
0.0
  0
LINE
  5
2C89
330
1E
100
AcDbEntity
  8
0
100
AcDbLine
 10
2.360651574803149
 20
6.436336867201013
 30
0.0
 11
2.360651574803149
 21
5.774416591610462
 31
0.0
  0
LINE
  5
2C8A
330
1E
100
AcDbEntity
  8
0
100
AcDbLine
 10
2.104042322834645
 20
6.89428568609865
 30
0.0
 11
3.015992125984251
 21
6.89428568609865
 31
0.0
  0
LINE
  5
2C8B
330
1E
100
AcDbEntity
  8
0
100
AcDbLine
 10
2.104042322834645
 20
6.89428568609865
 30
0.0
 11
2.104042322834645
 21
6.871914623106524
 31
0.0
  0
LINE
  5
2C8C
330
1E
100
AcDbEntity
  8
0
100
AcDbLine
 10
1.942181102362204
 20
6.871914623106524
 30
0.0
 11
1.942181102362204
 21
6.89428568609865
 31
0.0
  0
LINE
  5
2C8D
330
1E
100
AcDbEntity
  8
0
100
AcDbLine
 10
1.030231299212598
 20
6.89428568609865
 30
0.0
 11
1.942181102362204
 21
6.89428568609865
 31
0.0
  0
POLYLINE
  5
2C8E
330
1E
100
AcDbEntity
  8
0
100
AcDb2dPolyline
 66
     1
 10
0.0
 20
0.0
 30
0.0
  0
VERTEX
  5
34B3
330
2C8E
100
AcDbEntity
  8
0
100
AcDbVertex
100
AcDb2dVertex
 10
1.030231299212598
 20
6.89428568609865
 30
0.0
  0
VERTEX
  5
34B4
330
2C8E
100
AcDbEntity
  8
0
100
AcDbVertex
100
AcDb2dVertex
 10
1.014439960629921
 20
6.89823352074432
 30
0.0
  0
VERTEX
  5
34B5
330
2C8E
100
AcDbEntity
  8
0
100
AcDbVertex
100
AcDb2dVertex
 10
1.003912401574803
 20
6.910077024681327
 30
0.0
  0
VERTEX
  5
34B6
330
2C8E
100
AcDbEntity
  8
0
100
AcDbVertex
100
AcDb2dVertex
 10
0.9999645669291339
 20
6.924552418382115
 30
0.0
  0
SEQEND
  5
34B7
330
2C8E
100
AcDbEntity
  8
0
  0
LINE
  5
2C94
330
1E
100
AcDbEntity
  8
0
100
AcDbLine
 10
0.9999645669291336
 20
6.924552418382115
 30
0.0
 11
0.9999645669291336
 21
7.357498284523847
 31
0.0
  0
POLYLINE
  5
2C95
330
1E
100
AcDbEntity
  8
0
100
AcDb2dPolyline
 66
     1
 10
0.0
 20
0.0
 30
0.0
  0
VERTEX
  5
34B8
330
2C95
100
AcDbEntity
  8
0
100
AcDbVertex
100
AcDb2dVertex
 10
0.9999645669291339
 20
7.357498284523848
 30
0.0
  0
VERTEX
  5
34B9
330
2C95
100
AcDbEntity
  8
0
100
AcDbVertex
100
AcDb2dVertex
 10
1.003912401574803
 20
7.373289623106525
 30
0.0
  0
VERTEX
  5
34BA
330
2C95
100
AcDbEntity
  8
0
100
AcDbVertex
100
AcDb2dVertex
 10
1.014439960629921
 20
7.383817182161643
 30
0.0
  0
VERTEX
  5
34BB
330
2C95
100
AcDbEntity
  8
0
100
AcDbVertex
100
AcDb2dVertex
 10
1.030231299212598
 20
7.387765016807311
 30
0.0
  0
SEQEND
  5
34BC
330
2C95
100
AcDbEntity
  8
0
  0
LINE
  5
2C9B
330
1E
100
AcDbEntity
  8
0
100
AcDbLine
 10
1.030231299212598
 20
7.387765016807311
 30
0.0
 11
3.015992125984251
 21
7.387765016807311
 31
0.0
  0
POLYLINE
  5
2C9C
330
1E
100
AcDbEntity
  8
0
100
AcDb2dPolyline
 66
     1
 10
0.0
 20
0.0
 30
0.0
  0
VERTEX
  5
34BD
330
2C9C
100
AcDbEntity
  8
0
100
AcDbVertex
100
AcDb2dVertex
 10
3.015992125984251
 20
7.387765016807311
 30
0.0
  0
VERTEX
  5
34BE
330
2C9C
100
AcDbEntity
  8
0
100
AcDbVertex
100
AcDb2dVertex
 10
3.031783464566928
 20
7.383817182161643
 30
0.0
  0
VERTEX
  5
34BF
330
2C9C
100
AcDbEntity
  8
0
100
AcDbVertex
100
AcDb2dVertex
 10
3.042311023622046
 20
7.373289623106525
 30
0.0
  0
VERTEX
  5
34C0
330
2C9C
100
AcDbEntity
  8
0
100
AcDbVertex
100
AcDb2dVertex
 10
3.046258858267716
 20
7.357498284523848
 30
0.0
  0
SEQEND
  5
34C1
330
2C9C
100
AcDbEntity
  8
0
  0
LINE
  5
2CA2
330
1E
100
AcDbEntity
  8
0
100
AcDbLine
 10
3.046258858267716
 20
7.357498284523847
 30
0.0
 11
3.046258858267716
 21
6.924552418382115
 31
0.0
  0
POLYLINE
  5
2CA3
330
1E
100
AcDbEntity
  8
0
100
AcDb2dPolyline
 66
     1
 10
0.0
 20
0.0
 30
0.0
  0
VERTEX
  5
34C2
330
2CA3
100
AcDbEntity
  8
0
100
AcDbVertex
100
AcDb2dVertex
 10
3.046258858267716
 20
6.924552418382115
 30
0.0
  0
VERTEX
  5
34C3
330
2CA3
100
AcDbEntity
  8
0
100
AcDbVertex
100
AcDb2dVertex
 10
3.042311023622046
 20
6.910077024681327
 30
0.0
  0
VERTEX
  5
34C4
330
2CA3
100
AcDbEntity
  8
0
100
AcDbVertex
100
AcDb2dVertex
 10
3.031783464566928
 20
6.89823352074432
 30
0.0
  0
VERTEX
  5
34C5
330
2CA3
100
AcDbEntity
  8
0
100
AcDbVertex
100
AcDb2dVertex
 10
3.015992125984251
 20
6.89428568609865
 30
0.0
  0
SEQEND
  5
34C6
330
2CA3
100
AcDbEntity
  8
0
  0
LINE
  5
2CA9
330
1E
100
AcDbEntity
  8
0
100
AcDbLine
 10
2.456715551181102
 20
6.828488442004162
 30
0.0
 11
2.455399606299212
 21
6.828488442004162
 31
0.0
  0
POLYLINE
  5
2CAA
330
1E
100
AcDbEntity
  8
0
100
AcDb2dPolyline
 66
     1
 10
0.0
 20
0.0
 30
0.0
  0
VERTEX
  5
34C7
330
2CAA
100
AcDbEntity
  8
0
100
AcDbVertex
100
AcDb2dVertex
 10
2.455399606299212
 20
6.828488442004162
 30
0.0
  0
VERTEX
  5
34C8
330
2CAA
100
AcDbEntity
  8
0
100
AcDbVertex
100
AcDb2dVertex
 10
2.444872047244094
 20
6.832436276649832
 30
0.0
  0
VERTEX
  5
34C9
330
2CAA
100
AcDbEntity
  8
0
100
AcDbVertex
100
AcDb2dVertex
 10
2.439608267716535
 20
6.844279780586838
 30
0.0
  0
SEQEND
  5
34CA
330
2CAA
100
AcDbEntity
  8
0
  0
LINE
  5
2CAF
330
1E
100
AcDbEntity
  8
0
100
AcDbLine
 10
2.439608267716535
 20
6.844279780586839
 30
0.0
 11
2.439608267716535
 21
6.874546512870304
 31
0.0
  0
POLYLINE
  5
2CB0
330
1E
100
AcDbEntity
  8
0
100
AcDb2dPolyline
 66
     1
 10
0.0
 20
0.0
 30
0.0
  0
VERTEX
  5
34CB
330
2CB0
100
AcDbEntity
  8
0
100
AcDbVertex
100
AcDb2dVertex
 10
2.439608267716535
 20
6.874546512870304
 30
0.0
  0
VERTEX
  5
34CC
330
2CB0
100
AcDbEntity
  8
0
100
AcDbVertex
100
AcDb2dVertex
 10
2.444872047244094
 20
6.885074071925422
 30
0.0
  0
VERTEX
  5
34CD
330
2CB0
100
AcDbEntity
  8
0
100
AcDbVertex
100
AcDb2dVertex
 10
2.455399606299212
 20
6.89033785145298
 30
0.0
  0
SEQEND
  5
34CE
330
2CB0
100
AcDbEntity
  8
0
  0
LINE
  5
2CB5
330
1E
100
AcDbEntity
  8
0
100
AcDbLine
 10
2.455399606299212
 20
6.890337851452981
 30
0.0
 11
2.704113188976378
 21
6.890337851452981
 31
0.0
  0
POLYLINE
  5
2CB6
330
1E
100
AcDbEntity
  8
0
100
AcDb2dPolyline
 66
     1
 10
0.0
 20
0.0
 30
0.0
  0
VERTEX
  5
34CF
330
2CB6
100
AcDbEntity
  8
0
100
AcDbVertex
100
AcDb2dVertex
 10
2.704113188976378
 20
6.89033785145298
 30
0.0
  0
VERTEX
  5
34D0
330
2CB6
100
AcDbEntity
  8
0
100
AcDbVertex
100
AcDb2dVertex
 10
2.714640748031495
 20
6.885074071925422
 30
0.0
  0
VERTEX
  5
34D1
330
2CB6
100
AcDbEntity
  8
0
100
AcDbVertex
100
AcDb2dVertex
 10
2.719904527559054
 20
6.874546512870304
 30
0.0
  0
SEQEND
  5
34D2
330
2CB6
100
AcDbEntity
  8
0
  0
LINE
  5
2CBB
330
1E
100
AcDbEntity
  8
0
100
AcDbLine
 10
2.719904527559054
 20
6.874546512870304
 30
0.0
 11
2.719904527559054
 21
6.844279780586839
 31
0.0
  0
POLYLINE
  5
2CBC
330
1E
100
AcDbEntity
  8
0
100
AcDb2dPolyline
 66
     1
 10
0.0
 20
0.0
 30
0.0
  0
VERTEX
  5
34D3
330
2CBC
100
AcDbEntity
  8
0
100
AcDbVertex
100
AcDb2dVertex
 10
2.719904527559054
 20
6.844279780586838
 30
0.0
  0
VERTEX
  5
34D4
330
2CBC
100
AcDbEntity
  8
0
100
AcDbVertex
100
AcDb2dVertex
 10
2.714640748031495
 20
6.832436276649832
 30
0.0
  0
VERTEX
  5
34D5
330
2CBC
100
AcDbEntity
  8
0
100
AcDbVertex
100
AcDb2dVertex
 10
2.704113188976378
 20
6.828488442004162
 30
0.0
  0
SEQEND
  5
34D6
330
2CBC
100
AcDbEntity
  8
0
  0
LINE
  5
2CC1
330
1E
100
AcDbEntity
  8
0
100
AcDbLine
 10
2.704113188976378
 20
6.828488442004162
 30
0.0
 11
2.702797244094488
 21
6.828488442004162
 31
0.0
  0
LINE
  5
2CC2
330
1E
100
AcDbEntity
  8
0
100
AcDbLine
 10
1.590823818897638
 20
6.828488442004162
 30
0.0
 11
1.589507874015748
 21
6.828488442004162
 31
0.0
  0
LINE
  5
2CC3
330
1E
100
AcDbEntity
  8
0
100
AcDbLine
 10
1.343426181102362
 20
6.828488442004162
 30
0.0
 11
1.343426181102362
 21
6.828488442004162
 31
0.0
  0
POLYLINE
  5
2CC4
330
1E
100
AcDbEntity
  8
0
100
AcDb2dPolyline
 66
     1
 10
0.0
 20
0.0
 30
0.0
  0
VERTEX
  5
34D7
330
2CC4
100
AcDbEntity
  8
0
100
AcDbVertex
100
AcDb2dVertex
 10
1.343426181102362
 20
6.828488442004162
 30
0.0
  0
VERTEX
  5
34D8
330
2CC4
100
AcDbEntity
  8
0
100
AcDbVertex
100
AcDb2dVertex
 10
1.331582677165354
 20
6.832436276649832
 30
0.0
  0
VERTEX
  5
34D9
330
2CC4
100
AcDbEntity
  8
0
100
AcDbVertex
100
AcDb2dVertex
 10
1.326318897637795
 20
6.844279780586838
 30
0.0
  0
SEQEND
  5
34DA
330
2CC4
100
AcDbEntity
  8
0
  0
LINE
  5
2CC9
330
1E
100
AcDbEntity
  8
0
100
AcDbLine
 10
1.326318897637795
 20
6.844279780586839
 30
0.0
 11
1.326318897637795
 21
6.874546512870304
 31
0.0
  0
POLYLINE
  5
2CCA
330
1E
100
AcDbEntity
  8
0
100
AcDb2dPolyline
 66
     1
 10
0.0
 20
0.0
 30
0.0
  0
VERTEX
  5
34DB
330
2CCA
100
AcDbEntity
  8
0
100
AcDbVertex
100
AcDb2dVertex
 10
1.326318897637795
 20
6.874546512870304
 30
0.0
  0
VERTEX
  5
34DC
330
2CCA
100
AcDbEntity
  8
0
100
AcDbVertex
100
AcDb2dVertex
 10
1.331582677165354
 20
6.885074071925422
 30
0.0
  0
VERTEX
  5
34DD
330
2CCA
100
AcDbEntity
  8
0
100
AcDbVertex
100
AcDb2dVertex
 10
1.343426181102362
 20
6.89033785145298
 30
0.0
  0
SEQEND
  5
34DE
330
2CCA
100
AcDbEntity
  8
0
  0
LINE
  5
2CCF
330
1E
100
AcDbEntity
  8
0
100
AcDbLine
 10
1.343426181102362
 20
6.890337851452981
 30
0.0
 11
1.590823818897638
 21
6.890337851452981
 31
0.0
  0
POLYLINE
  5
2CD0
330
1E
100
AcDbEntity
  8
0
100
AcDb2dPolyline
 66
     1
 10
0.0
 20
0.0
 30
0.0
  0
VERTEX
  5
34DF
330
2CD0
100
AcDbEntity
  8
0
100
AcDbVertex
100
AcDb2dVertex
 10
1.590823818897637
 20
6.89033785145298
 30
0.0
  0
VERTEX
  5
34E0
330
2CD0
100
AcDbEntity
  8
0
100
AcDbVertex
100
AcDb2dVertex
 10
1.601351377952756
 20
6.885074071925422
 30
0.0
  0
VERTEX
  5
34E1
330
2CD0
100
AcDbEntity
  8
0
100
AcDbVertex
100
AcDb2dVertex
 10
1.606615157480314
 20
6.874546512870304
 30
0.0
  0
SEQEND
  5
34E2
330
2CD0
100
AcDbEntity
  8
0
  0
LINE
  5
2CD5
330
1E
100
AcDbEntity
  8
0
100
AcDbLine
 10
1.606615157480315
 20
6.874546512870304
 30
0.0
 11
1.606615157480315
 21
6.844279780586839
 31
0.0
  0
POLYLINE
  5
2CD6
330
1E
100
AcDbEntity
  8
0
100
AcDb2dPolyline
 66
     1
 10
0.0
 20
0.0
 30
0.0
  0
VERTEX
  5
34E3
330
2CD6
100
AcDbEntity
  8
0
100
AcDbVertex
100
AcDb2dVertex
 10
1.606615157480314
 20
6.844279780586838
 30
0.0
  0
VERTEX
  5
34E4
330
2CD6
100
AcDbEntity
  8
0
100
AcDbVertex
100
AcDb2dVertex
 10
1.601351377952756
 20
6.832436276649832
 30
0.0
  0
VERTEX
  5
34E5
330
2CD6
100
AcDbEntity
  8
0
100
AcDbVertex
100
AcDb2dVertex
 10
1.590823818897637
 20
6.828488442004162
 30
0.0
  0
SEQEND
  5
34E6
330
2CD6
100
AcDbEntity
  8
0
  0
LINE
  5
2CDB
330
1E
100
AcDbEntity
  8
0
100
AcDbLine
 10
0.6749261811023622
 20
3.239906749090777
 30
0.0
 11
0.6709783464566926
 21
3.237274859326997
 31
0.0
  0
LINE
  5
2CDC
330
1E
100
AcDbEntity
  8
0
100
AcDbLine
 10
0.9999645669291336
 20
3.636006158539595
 30
0.0
 11
0.9999645669291336
 21
4.067636079799438
 31
0.0
  0
LINE
  5
2CDD
330
1E
100
AcDbEntity
  8
0
100
AcDbLine
 10
0.9999645669291336
 20
4.067636079799438
 30
0.0
 11
0.9999645669291336
 21
4.067636079799438
 31
0.0
  0
LINE
  5
2CDE
330
1E
100
AcDbEntity
  8
0
100
AcDbLine
 10
0.9999645669291336
 20
3.634690213657706
 30
0.0
 11
0.9999645669291336
 21
3.636006158539595
 31
0.0
  0
POLYLINE
  5
2CDF
330
1E
100
AcDbEntity
  8
0
100
AcDb2dPolyline
 66
     1
 10
0.0
 20
0.0
 30
0.0
  0
VERTEX
  5
34E7
330
2CDF
100
AcDbEntity
  8
0
100
AcDbVertex
100
AcDb2dVertex
 10
1.030231299212598
 20
4.097902812082903
 30
0.0
  0
VERTEX
  5
34E8
330
2CDF
100
AcDbEntity
  8
0
100
AcDbVertex
100
AcDb2dVertex
 10
1.015755905511811
 20
4.092639032555344
 30
0.0
  0
VERTEX
  5
34E9
330
2CDF
100
AcDbEntity
  8
0
100
AcDbVertex
100
AcDb2dVertex
 10
1.005228346456693
 20
4.082111473500225
 30
0.0
  0
VERTEX
  5
34EA
330
2CDF
100
AcDbEntity
  8
0
100
AcDbVertex
100
AcDb2dVertex
 10
0.9999645669291339
 20
4.067636079799438
 30
0.0
  0
SEQEND
  5
34EB
330
2CDF
100
AcDbEntity
  8
0
  0
LINE
  5
2CE5
330
1E
100
AcDbEntity
  8
0
100
AcDbLine
 10
1.030231299212598
 20
4.097902812082903
 30
0.0
 11
1.030231299212598
 21
4.097902812082903
 31
0.0
  0
LINE
  5
2CE6
330
1E
100
AcDbEntity
  8
0
100
AcDbLine
 10
1.030231299212598
 20
3.605739426256131
 30
0.0
 11
1.030231299212598
 21
3.604423481374241
 31
0.0
  0
POLYLINE
  5
2CE7
330
1E
100
AcDbEntity
  8
0
100
AcDb2dPolyline
 66
     1
 10
0.0
 20
0.0
 30
0.0
  0
VERTEX
  5
34EC
330
2CE7
100
AcDbEntity
  8
0
100
AcDbVertex
100
AcDb2dVertex
 10
0.9999645669291339
 20
3.636006158539595
 30
0.0
  0
VERTEX
  5
34ED
330
2CE7
100
AcDbEntity
  8
0
100
AcDbVertex
100
AcDb2dVertex
 10
1.005228346456693
 20
3.620214819956919
 30
0.0
  0
VERTEX
  5
34EE
330
2CE7
100
AcDbEntity
  8
0
100
AcDbVertex
100
AcDb2dVertex
 10
1.015755905511811
 20
3.6096872609018
 30
0.0
  0
VERTEX
  5
34EF
330
2CE7
100
AcDbEntity
  8
0
100
AcDbVertex
100
AcDb2dVertex
 10
1.030231299212598
 20
3.60573942625613
 30
0.0
  0
SEQEND
  5
34F0
330
2CE7
100
AcDbEntity
  8
0
  0
LINE
  5
2CED
330
1E
100
AcDbEntity
  8
0
100
AcDbLine
 10
3.015992125984251
 20
3.605739426256131
 30
0.0
 11
1.030231299212598
 21
3.605739426256131
 31
0.0
  0
POLYLINE
  5
2CEE
330
1E
100
AcDbEntity
  8
0
100
AcDb2dPolyline
 66
     1
 10
0.0
 20
0.0
 30
0.0
  0
VERTEX
  5
34F1
330
2CEE
100
AcDbEntity
  8
0
100
AcDbVertex
100
AcDb2dVertex
 10
3.015992125984251
 20
3.60573942625613
 30
0.0
  0
VERTEX
  5
34F2
330
2CEE
100
AcDbEntity
  8
0
100
AcDbVertex
100
AcDb2dVertex
 10
3.030467519685038
 20
3.6096872609018
 30
0.0
  0
VERTEX
  5
34F3
330
2CEE
100
AcDbEntity
  8
0
100
AcDbVertex
100
AcDb2dVertex
 10
3.042311023622046
 20
3.620214819956919
 30
0.0
  0
VERTEX
  5
34F4
330
2CEE
100
AcDbEntity
  8
0
100
AcDbVertex
100
AcDb2dVertex
 10
3.046258858267716
 20
3.636006158539595
 30
0.0
  0
SEQEND
  5
34F5
330
2CEE
100
AcDbEntity
  8
0
  0
LINE
  5
2CF4
330
1E
100
AcDbEntity
  8
0
100
AcDbLine
 10
3.046258858267716
 20
4.067636079799438
 30
0.0
 11
3.046258858267716
 21
3.636006158539595
 31
0.0
  0
POLYLINE
  5
2CF5
330
1E
100
AcDbEntity
  8
0
100
AcDb2dPolyline
 66
     1
 10
0.0
 20
0.0
 30
0.0
  0
VERTEX
  5
34F6
330
2CF5
100
AcDbEntity
  8
0
100
AcDbVertex
100
AcDb2dVertex
 10
3.046258858267716
 20
4.067636079799438
 30
0.0
  0
VERTEX
  5
34F7
330
2CF5
100
AcDbEntity
  8
0
100
AcDbVertex
100
AcDb2dVertex
 10
3.042311023622046
 20
4.082111473500225
 30
0.0
  0
VERTEX
  5
34F8
330
2CF5
100
AcDbEntity
  8
0
100
AcDbVertex
100
AcDb2dVertex
 10
3.030467519685038
 20
4.092639032555344
 30
0.0
  0
VERTEX
  5
34F9
330
2CF5
100
AcDbEntity
  8
0
100
AcDbVertex
100
AcDb2dVertex
 10
3.015992125984251
 20
4.097902812082903
 30
0.0
  0
SEQEND
  5
34FA
330
2CF5
100
AcDbEntity
  8
0
  0
LINE
  5
2CFB
330
1E
100
AcDbEntity
  8
0
100
AcDbLine
 10
2.105358267716535
 20
4.097902812082903
 30
0.0
 11
3.015992125984251
 21
4.097902812082903
 31
0.0
  0
LINE
  5
2CFC
330
1E
100
AcDbEntity
  8
0
100
AcDbLine
 10
2.105358267716535
 20
4.05842446562621
 30
0.0
 11
2.105358267716535
 21
4.097902812082903
 31
0.0
  0
LINE
  5
2CFD
330
1E
100
AcDbEntity
  8
0
100
AcDbLine
 10
2.105358267716535
 20
4.05842446562621
 30
0.0
 11
2.952826771653543
 21
4.05842446562621
 31
0.0
  0
POLYLINE
  5
2CFE
330
1E
100
AcDbEntity
  8
0
100
AcDb2dPolyline
 66
     1
 10
0.0
 20
0.0
 30
0.0
  0
VERTEX
  5
34FB
330
2CFE
100
AcDbEntity
  8
0
100
AcDbVertex
100
AcDb2dVertex
 10
2.952826771653542
 20
4.05842446562621
 30
0.0
  0
VERTEX
  5
34FC
330
2CFE
100
AcDbEntity
  8
0
100
AcDbVertex
100
AcDb2dVertex
 10
2.960722440944881
 20
4.05447663098054
 30
0.0
  0
VERTEX
  5
34FD
330
2CFE
100
AcDbEntity
  8
0
100
AcDbVertex
100
AcDb2dVertex
 10
2.963354330708661
 20
4.047896906571091
 30
0.0
  0
SEQEND
  5
34FE
330
2CFE
100
AcDbEntity
  8
0
  0
LINE
  5
2D03
330
1E
100
AcDbEntity
  8
0
100
AcDbLine
 10
2.963354330708661
 20
4.047896906571091
 30
0.0
 11
2.963354330708661
 21
3.654429386886052
 31
0.0
  0
POLYLINE
  5
2D04
330
1E
100
AcDbEntity
  8
0
100
AcDb2dPolyline
 66
     1
 10
0.0
 20
0.0
 30
0.0
  0
VERTEX
  5
34FF
330
2D04
100
AcDbEntity
  8
0
100
AcDbVertex
100
AcDb2dVertex
 10
2.963354330708661
 20
3.654429386886053
 30
0.0
  0
VERTEX
  5
3500
330
2D04
100
AcDbEntity
  8
0
100
AcDbVertex
100
AcDb2dVertex
 10
2.960722440944881
 20
3.647849662476603
 30
0.0
  0
VERTEX
  5
3501
330
2D04
100
AcDbEntity
  8
0
100
AcDbVertex
100
AcDb2dVertex
 10
2.952826771653542
 20
3.645217772712824
 30
0.0
  0
SEQEND
  5
3502
330
2D04
100
AcDbEntity
  8
0
  0
LINE
  5
2D09
330
1E
100
AcDbEntity
  8
0
100
AcDbLine
 10
1.093396653543306
 20
3.645217772712824
 30
0.0
 11
2.952826771653543
 21
3.645217772712824
 31
0.0
  0
POLYLINE
  5
2D0A
330
1E
100
AcDbEntity
  8
0
100
AcDb2dPolyline
 66
     1
 10
0.0
 20
0.0
 30
0.0
  0
VERTEX
  5
3503
330
2D0A
100
AcDbEntity
  8
0
100
AcDbVertex
100
AcDb2dVertex
 10
1.093396653543307
 20
3.645217772712824
 30
0.0
  0
VERTEX
  5
3504
330
2D0A
100
AcDbEntity
  8
0
100
AcDbVertex
100
AcDb2dVertex
 10
1.085500984251968
 20
3.647849662476603
 30
0.0
  0
VERTEX
  5
3505
330
2D0A
100
AcDbEntity
  8
0
100
AcDbVertex
100
AcDb2dVertex
 10
1.082869094488188
 20
3.654429386886053
 30
0.0
  0
SEQEND
  5
3506
330
2D0A
100
AcDbEntity
  8
0
  0
LINE
  5
2D0F
330
1E
100
AcDbEntity
  8
0
100
AcDbLine
 10
1.082869094488188
 20
4.047896906571091
 30
0.0
 11
1.082869094488188
 21
3.654429386886052
 31
0.0
  0
POLYLINE
  5
2D10
330
1E
100
AcDbEntity
  8
0
100
AcDb2dPolyline
 66
     1
 10
0.0
 20
0.0
 30
0.0
  0
VERTEX
  5
3507
330
2D10
100
AcDbEntity
  8
0
100
AcDbVertex
100
AcDb2dVertex
 10
1.082869094488188
 20
4.047896906571091
 30
0.0
  0
VERTEX
  5
3508
330
2D10
100
AcDbEntity
  8
0
100
AcDbVertex
100
AcDb2dVertex
 10
1.085500984251968
 20
4.05447663098054
 30
0.0
  0
VERTEX
  5
3509
330
2D10
100
AcDbEntity
  8
0
100
AcDbVertex
100
AcDb2dVertex
 10
1.093396653543307
 20
4.05842446562621
 30
0.0
  0
SEQEND
  5
350A
330
2D10
100
AcDbEntity
  8
0
  0
LINE
  5
2D15
330
1E
100
AcDbEntity
  8
0
100
AcDbLine
 10
1.093396653543306
 20
4.05842446562621
 30
0.0
 11
1.940865157480315
 21
4.05842446562621
 31
0.0
  0
LINE
  5
2D16
330
1E
100
AcDbEntity
  8
0
100
AcDbLine
 10
1.940865157480315
 20
4.05842446562621
 30
0.0
 11
1.940865157480315
 21
4.097902812082903
 31
0.0
  0
LINE
  5
2D17
330
1E
100
AcDbEntity
  8
0
100
AcDbLine
 10
1.030231299212598
 20
4.097902812082903
 30
0.0
 11
1.940865157480315
 21
4.097902812082903
 31
0.0
  0
LINE
  5
2D18
330
1E
100
AcDbEntity
  8
0
100
AcDbLine
 10
3.375245078740157
 20
3.237274859326997
 30
0.0
 11
3.371297244094487
 21
3.239906749090777
 31
0.0
  0
LINE
  5
2D19
330
1E
100
AcDbEntity
  8
0
100
AcDbLine
 10
1.917178149606299
 20
3.791287654602588
 30
0.0
 11
2.129045275590551
 21
3.791287654602588
 31
0.0
  0
LINE
  5
2D1A
330
1E
100
AcDbEntity
  8
0
100
AcDbLine
 10
1.917178149606299
 20
3.911038638854556
 30
0.0
 11
2.129045275590551
 21
3.911038638854556
 31
0.0
  0
POLYLINE
  5
2D1B
330
1E
100
AcDbEntity
  8
0
100
AcDb2dPolyline
 66
     1
 10
0.0
 20
0.0
 30
0.0
  0
VERTEX
  5
350B
330
2D1B
100
AcDbEntity
  8
0
100
AcDbVertex
100
AcDb2dVertex
 10
1.917178149606299
 20
3.911038638854556
 30
0.0
  0
VERTEX
  5
350C
330
2D1B
100
AcDbEntity
  8
0
100
AcDbVertex
100
AcDb2dVertex
 10
1.894807086614173
 20
3.884719741216761
 30
0.0
  0
VERTEX
  5
350D
330
2D1B
100
AcDbEntity
  8
0
100
AcDbVertex
100
AcDb2dVertex
 10
1.886911417322834
 20
3.851821119169517
 30
0.0
  0
VERTEX
  5
350E
330
2D1B
100
AcDbEntity
  8
0
100
AcDbVertex
100
AcDb2dVertex
 10
1.894807086614173
 20
3.817606552240383
 30
0.0
  0
VERTEX
  5
350F
330
2D1B
100
AcDbEntity
  8
0
100
AcDbVertex
100
AcDb2dVertex
 10
1.917178149606299
 20
3.791287654602588
 30
0.0
  0
SEQEND
  5
3510
330
2D1B
100
AcDbEntity
  8
0
  0
LINE
  5
2D22
330
1E
100
AcDbEntity
  8
0
100
AcDbLine
 10
1.082869094488188
 20
4.047896906571091
 30
0.0
 11
1.084185039370078
 21
4.047896906571091
 31
0.0
  0
POLYLINE
  5
2D23
330
1E
100
AcDbEntity
  8
0
100
AcDb2dPolyline
 66
     1
 10
0.0
 20
0.0
 30
0.0
  0
VERTEX
  5
3511
330
2D23
100
AcDbEntity
  8
0
100
AcDbVertex
100
AcDb2dVertex
 10
1.084185039370078
 20
4.047896906571091
 30
0.0
  0
VERTEX
  5
3512
330
2D23
100
AcDbEntity
  8
0
100
AcDbVertex
100
AcDb2dVertex
 10
1.086816929133858
 20
4.05447663098054
 30
0.0
  0
VERTEX
  5
3513
330
2D23
100
AcDbEntity
  8
0
100
AcDbVertex
100
AcDb2dVertex
 10
1.093396653543307
 20
4.05710852074432
 30
0.0
  0
SEQEND
  5
3514
330
2D23
100
AcDbEntity
  8
0
  0
LINE
  5
2D28
330
1E
100
AcDbEntity
  8
0
100
AcDbLine
 10
1.093396653543306
 20
4.05842446562621
 30
0.0
 11
1.093396653543306
 21
4.05710852074432
 31
0.0
  0
LINE
  5
2D29
330
1E
100
AcDbEntity
  8
0
100
AcDbLine
 10
1.082869094488188
 20
3.654429386886052
 30
0.0
 11
1.084185039370078
 21
3.654429386886052
 31
0.0
  0
LINE
  5
2D2A
330
1E
100
AcDbEntity
  8
0
100
AcDbLine
 10
1.084185039370078
 20
3.654429386886052
 30
0.0
 11
1.084185039370078
 21
4.047896906571091
 31
0.0
  0
LINE
  5
2D2B
330
1E
100
AcDbEntity
  8
0
100
AcDbLine
 10
1.093396653543306
 20
3.645217772712824
 30
0.0
 11
1.093396653543306
 21
3.645217772712824
 31
0.0
  0
POLYLINE
  5
2D2C
330
1E
100
AcDbEntity
  8
0
100
AcDb2dPolyline
 66
     1
 10
0.0
 20
0.0
 30
0.0
  0
VERTEX
  5
3515
330
2D2C
100
AcDbEntity
  8
0
100
AcDbVertex
100
AcDb2dVertex
 10
1.093396653543307
 20
3.645217772712824
 30
0.0
  0
VERTEX
  5
3516
330
2D2C
100
AcDbEntity
  8
0
100
AcDbVertex
100
AcDb2dVertex
 10
1.086816929133858
 20
3.647849662476603
 30
0.0
  0
VERTEX
  5
3517
330
2D2C
100
AcDbEntity
  8
0
100
AcDbVertex
100
AcDb2dVertex
 10
1.084185039370078
 20
3.654429386886053
 30
0.0
  0
SEQEND
  5
3518
330
2D2C
100
AcDbEntity
  8
0
  0
LINE
  5
2D31
330
1E
100
AcDbEntity
  8
0
100
AcDbLine
 10
2.963354330708661
 20
3.654429386886052
 30
0.0
 11
2.963354330708661
 21
3.654429386886052
 31
0.0
  0
POLYLINE
  5
2D32
330
1E
100
AcDbEntity
  8
0
100
AcDb2dPolyline
 66
     1
 10
0.0
 20
0.0
 30
0.0
  0
VERTEX
  5
3519
330
2D32
100
AcDbEntity
  8
0
100
AcDbVertex
100
AcDb2dVertex
 10
2.963354330708661
 20
3.654429386886053
 30
0.0
  0
VERTEX
  5
351A
330
2D32
100
AcDbEntity
  8
0
100
AcDbVertex
100
AcDb2dVertex
 10
2.959406496062991
 20
3.647849662476603
 30
0.0
  0
VERTEX
  5
351B
330
2D32
100
AcDbEntity
  8
0
100
AcDbVertex
100
AcDb2dVertex
 10
2.952826771653542
 20
3.645217772712824
 30
0.0
  0
SEQEND
  5
351C
330
2D32
100
AcDbEntity
  8
0
  0
LINE
  5
2D37
330
1E
100
AcDbEntity
  8
0
100
AcDbLine
 10
2.952826771653543
 20
3.645217772712824
 30
0.0
 11
2.952826771653543
 21
3.645217772712824
 31
0.0
  0
LINE
  5
2D38
330
1E
100
AcDbEntity
  8
0
100
AcDbLine
 10
2.963354330708661
 20
4.047896906571091
 30
0.0
 11
2.963354330708661
 21
4.047896906571091
 31
0.0
  0
LINE
  5
2D39
330
1E
100
AcDbEntity
  8
0
100
AcDbLine
 10
2.963354330708661
 20
4.047896906571091
 30
0.0
 11
2.963354330708661
 21
3.654429386886052
 31
0.0
  0
LINE
  5
2D3A
330
1E
100
AcDbEntity
  8
0
100
AcDbLine
 10
2.952826771653543
 20
4.05842446562621
 30
0.0
 11
2.952826771653543
 21
4.05710852074432
 31
0.0
  0
POLYLINE
  5
2D3B
330
1E
100
AcDbEntity
  8
0
100
AcDb2dPolyline
 66
     1
 10
0.0
 20
0.0
 30
0.0
  0
VERTEX
  5
351D
330
2D3B
100
AcDbEntity
  8
0
100
AcDbVertex
100
AcDb2dVertex
 10
2.952826771653542
 20
4.05710852074432
 30
0.0
  0
VERTEX
  5
351E
330
2D3B
100
AcDbEntity
  8
0
100
AcDbVertex
100
AcDb2dVertex
 10
2.959406496062991
 20
4.05447663098054
 30
0.0
  0
VERTEX
  5
351F
330
2D3B
100
AcDbEntity
  8
0
100
AcDbVertex
100
AcDb2dVertex
 10
2.963354330708661
 20
4.047896906571091
 30
0.0
  0
SEQEND
  5
3520
330
2D3B
100
AcDbEntity
  8
0
  0
LINE
  5
2D40
330
1E
100
AcDbEntity
  8
0
100
AcDbLine
 10
2.082987204724409
 20
3.700487457752193
 30
0.0
 11
2.082987204724409
 21
3.699171512870304
 31
0.0
  0
LINE
  5
2D41
330
1E
100
AcDbEntity
  8
0
100
AcDbLine
 10
1.96323622047244
 20
3.700487457752193
 30
0.0
 11
2.082987204724409
 21
3.700487457752193
 31
0.0
  0
LINE
  5
2D42
330
1E
100
AcDbEntity
  8
0
100
AcDbLine
 10
1.96323622047244
 20
3.699171512870304
 30
0.0
 11
1.96323622047244
 21
3.700487457752193
 31
0.0
  0
LINE
  5
2D43
330
1E
100
AcDbEntity
  8
0
100
AcDbLine
 10
1.96323622047244
 20
3.699171512870304
 30
0.0
 11
2.082987204724409
 21
3.699171512870304
 31
0.0
  0
LINE
  5
2D44
330
1E
100
AcDbEntity
  8
0
100
AcDbLine
 10
2.082987204724409
 20
3.774180371138021
 30
0.0
 11
2.082987204724409
 21
3.772864426256131
 31
0.0
  0
LINE
  5
2D45
330
1E
100
AcDbEntity
  8
0
100
AcDbLine
 10
2.082987204724409
 20
3.774180371138021
 30
0.0
 11
1.96323622047244
 21
3.774180371138021
 31
0.0
  0
LINE
  5
2D46
330
1E
100
AcDbEntity
  8
0
100
AcDbLine
 10
1.96323622047244
 20
3.774180371138021
 30
0.0
 11
1.96323622047244
 21
3.772864426256131
 31
0.0
  0
LINE
  5
2D47
330
1E
100
AcDbEntity
  8
0
100
AcDbLine
 10
2.082987204724409
 20
3.772864426256131
 30
0.0
 11
1.96323622047244
 21
3.772864426256131
 31
0.0
  0
POLYLINE
  5
2D48
330
1E
100
AcDbEntity
  8
0
100
AcDb2dPolyline
 66
     1
 10
0.0
 20
0.0
 30
0.0
  0
VERTEX
  5
3521
330
2D48
100
AcDbEntity
  8
0
100
AcDbVertex
100
AcDb2dVertex
 10
1.96323622047244
 20
3.774180371138021
 30
0.0
  0
VERTEX
  5
3522
330
2D48
100
AcDbEntity
  8
0
100
AcDbVertex
100
AcDb2dVertex
 10
1.944812992125983
 20
3.7768122609018
 30
0.0
  0
VERTEX
  5
3523
330
2D48
100
AcDbEntity
  8
0
100
AcDbVertex
100
AcDb2dVertex
 10
1.926389763779527
 20
3.783391985311249
 30
0.0
  0
SEQEND
  5
3524
330
2D48
100
AcDbEntity
  8
0
  0
POLYLINE
  5
2D4D
330
1E
100
AcDbEntity
  8
0
100
AcDb2dPolyline
 66
     1
 10
0.0
 20
0.0
 30
0.0
  0
VERTEX
  5
3525
330
2D4D
100
AcDbEntity
  8
0
100
AcDbVertex
100
AcDb2dVertex
 10
2.119833661417322
 20
3.783391985311249
 30
0.0
  0
VERTEX
  5
3526
330
2D4D
100
AcDbEntity
  8
0
100
AcDbVertex
100
AcDb2dVertex
 10
2.102726377952755
 20
3.7768122609018
 30
0.0
  0
VERTEX
  5
3527
330
2D4D
100
AcDbEntity
  8
0
100
AcDbVertex
100
AcDb2dVertex
 10
2.082987204724409
 20
3.774180371138021
 30
0.0
  0
SEQEND
  5
3528
330
2D4D
100
AcDbEntity
  8
0
  0
LINE
  5
2D52
330
1E
100
AcDbEntity
  8
0
100
AcDbLine
 10
2.119833661417322
 20
3.783391985311248
 30
0.0
 11
1.926389763779527
 21
3.783391985311248
 31
0.0
  0
LINE
  5
2D53
330
1E
100
AcDbEntity
  8
0
100
AcDbLine
 10
2.129045275590551
 20
3.791287654602588
 30
0.0
 11
2.119833661417322
 21
3.783391985311248
 31
0.0
  0
LINE
  5
2D54
330
1E
100
AcDbEntity
  8
0
100
AcDbLine
 10
1.926389763779527
 20
3.783391985311248
 30
0.0
 11
1.917178149606299
 21
3.791287654602588
 31
0.0
  0
POLYLINE
  5
2D55
330
1E
100
AcDbEntity
  8
0
100
AcDb2dPolyline
 66
     1
 10
0.0
 20
0.0
 30
0.0
  0
VERTEX
  5
3529
330
2D55
100
AcDbEntity
  8
0
100
AcDbVertex
100
AcDb2dVertex
 10
2.12904527559055
 20
3.791287654602588
 30
0.0
  0
VERTEX
  5
352A
330
2D55
100
AcDbEntity
  8
0
100
AcDbVertex
100
AcDb2dVertex
 10
2.151416338582676
 20
3.817606552240383
 30
0.0
  0
VERTEX
  5
352B
330
2D55
100
AcDbEntity
  8
0
100
AcDbVertex
100
AcDb2dVertex
 10
2.159312007874015
 20
3.851821119169517
 30
0.0
  0
VERTEX
  5
352C
330
2D55
100
AcDbEntity
  8
0
100
AcDbVertex
100
AcDb2dVertex
 10
2.151416338582676
 20
3.884719741216761
 30
0.0
  0
VERTEX
  5
352D
330
2D55
100
AcDbEntity
  8
0
100
AcDbVertex
100
AcDb2dVertex
 10
2.12904527559055
 20
3.911038638854556
 30
0.0
  0
SEQEND
  5
352E
330
2D55
100
AcDbEntity
  8
0
  0
LINE
  5
2D5C
330
1E
100
AcDbEntity
  8
0
100
AcDbLine
 10
2.119833661417322
 20
3.918934308145894
 30
0.0
 11
2.129045275590551
 21
3.911038638854556
 31
0.0
  0
LINE
  5
2D5D
330
1E
100
AcDbEntity
  8
0
100
AcDbLine
 10
2.119833661417322
 20
3.918934308145894
 30
0.0
 11
1.926389763779527
 21
3.918934308145894
 31
0.0
  0
LINE
  5
2D5E
330
1E
100
AcDbEntity
  8
0
100
AcDbLine
 10
1.917178149606299
 20
3.911038638854556
 30
0.0
 11
1.926389763779527
 21
3.918934308145894
 31
0.0
  0
POLYLINE
  5
2D5F
330
1E
100
AcDbEntity
  8
0
100
AcDb2dPolyline
 66
     1
 10
0.0
 20
0.0
 30
0.0
  0
VERTEX
  5
352F
330
2D5F
100
AcDbEntity
  8
0
100
AcDbVertex
100
AcDb2dVertex
 10
2.082987204724409
 20
3.928145922319123
 30
0.0
  0
VERTEX
  5
3530
330
2D5F
100
AcDbEntity
  8
0
100
AcDbVertex
100
AcDb2dVertex
 10
2.102726377952755
 20
3.925514032555344
 30
0.0
  0
VERTEX
  5
3531
330
2D5F
100
AcDbEntity
  8
0
100
AcDbVertex
100
AcDb2dVertex
 10
2.119833661417322
 20
3.918934308145894
 30
0.0
  0
SEQEND
  5
3532
330
2D5F
100
AcDbEntity
  8
0
  0
LINE
  5
2D64
330
1E
100
AcDbEntity
  8
0
100
AcDbLine
 10
2.082987204724409
 20
3.928145922319123
 30
0.0
 11
1.96323622047244
 21
3.928145922319123
 31
0.0
  0
POLYLINE
  5
2D65
330
1E
100
AcDbEntity
  8
0
100
AcDb2dPolyline
 66
     1
 10
0.0
 20
0.0
 30
0.0
  0
VERTEX
  5
3533
330
2D65
100
AcDbEntity
  8
0
100
AcDbVertex
100
AcDb2dVertex
 10
1.926389763779527
 20
3.918934308145894
 30
0.0
  0
VERTEX
  5
3534
330
2D65
100
AcDbEntity
  8
0
100
AcDbVertex
100
AcDb2dVertex
 10
1.944812992125983
 20
3.925514032555344
 30
0.0
  0
VERTEX
  5
3535
330
2D65
100
AcDbEntity
  8
0
100
AcDbVertex
100
AcDb2dVertex
 10
1.96323622047244
 20
3.928145922319123
 30
0.0
  0
SEQEND
  5
3536
330
2D65
100
AcDbEntity
  8
0
  0
LINE
  5
2D6A
330
1E
100
AcDbEntity
  8
0
100
AcDbLine
 10
2.082987204724409
 20
3.928145922319123
 30
0.0
 11
2.082987204724409
 21
3.928145922319123
 31
0.0
  0
LINE
  5
2D6B
330
1E
100
AcDbEntity
  8
0
100
AcDbLine
 10
2.082987204724409
 20
3.928145922319123
 30
0.0
 11
1.96323622047244
 21
3.928145922319123
 31
0.0
  0
LINE
  5
2D6C
330
1E
100
AcDbEntity
  8
0
100
AcDbLine
 10
1.96323622047244
 20
3.928145922319123
 30
0.0
 11
1.96323622047244
 21
3.928145922319123
 31
0.0
  0
LINE
  5
2D6D
330
1E
100
AcDbEntity
  8
0
100
AcDbLine
 10
1.517130905511811
 20
4.146592772712824
 30
0.0
 11
1.509235236220472
 21
4.154488442004161
 31
0.0
  0
LINE
  5
2D6E
330
1E
100
AcDbEntity
  8
0
100
AcDbLine
 10
1.323687007874015
 20
4.11501009554747
 30
0.0
 11
1.325002952755905
 21
4.116326040429359
 31
0.0
  0
LINE
  5
2D6F
330
1E
100
AcDbEntity
  8
0
100
AcDbLine
 10
1.448701771653543
 20
4.11501009554747
 30
0.0
 11
1.447385826771653
 21
4.116326040429359
 31
0.0
  0
LINE
  5
2D70
330
1E
100
AcDbEntity
  8
0
100
AcDbLine
 10
1.264469488188976
 20
4.154488442004161
 30
0.0
 11
1.256573818897637
 21
4.146592772712824
 31
0.0
  0
LINE
  5
2D71
330
1E
100
AcDbEntity
  8
0
100
AcDbLine
 10
1.132875
 20
3.645217772712824
 30
0.0
 11
1.093396653543306
 21
3.645217772712824
 31
0.0
  0
LINE
  5
2D72
330
1E
100
AcDbEntity
  8
0
100
AcDbLine
 10
1.093396653543306
 20
4.05710852074432
 30
0.0
 11
1.132875
 21
4.05710852074432
 31
0.0
  0
LINE
  5
2D73
330
1E
100
AcDbEntity
  8
0
100
AcDbLine
 10
2.91334842519685
 20
3.645217772712824
 30
0.0
 11
2.91203248031496
 21
3.645217772712824
 31
0.0
  0
LINE
  5
2D74
330
1E
100
AcDbEntity
  8
0
100
AcDbLine
 10
1.134190944881889
 20
3.645217772712824
 30
0.0
 11
2.91203248031496
 21
3.645217772712824
 31
0.0
  0
LINE
  5
2D75
330
1E
100
AcDbEntity
  8
0
100
AcDbLine
 10
1.134190944881889
 20
3.645217772712824
 30
0.0
 11
1.132875
 21
3.645217772712824
 31
0.0
  0
LINE
  5
2D76
330
1E
100
AcDbEntity
  8
0
100
AcDbLine
 10
2.952826771653543
 20
3.645217772712824
 30
0.0
 11
2.91334842519685
 21
3.645217772712824
 31
0.0
  0
LINE
  5
2D77
330
1E
100
AcDbEntity
  8
0
100
AcDbLine
 10
2.91334842519685
 20
4.05710852074432
 30
0.0
 11
2.952826771653543
 21
4.05710852074432
 31
0.0
  0
LINE
  5
2D78
330
1E
100
AcDbEntity
  8
0
100
AcDbLine
 10
2.790965551181102
 20
4.146592772712824
 30
0.0
 11
2.781753937007874
 21
4.154488442004161
 31
0.0
  0
LINE
  5
2D79
330
1E
100
AcDbEntity
  8
0
100
AcDbLine
 10
2.597521653543306
 20
4.11501009554747
 30
0.0
 11
2.598837598425197
 21
4.116326040429359
 31
0.0
  0
LINE
  5
2D7A
330
1E
100
AcDbEntity
  8
0
100
AcDbLine
 10
2.722536417322834
 20
4.11501009554747
 30
0.0
 11
2.721220472440944
 21
4.116326040429359
 31
0.0
  0
LINE
  5
2D7B
330
1E
100
AcDbEntity
  8
0
100
AcDbLine
 10
2.536988188976377
 20
4.154488442004161
 30
0.0
 11
2.529092519685039
 21
4.146592772712824
 31
0.0
  0
LINE
  5
2D7C
330
1E
100
AcDbEntity
  8
0
100
AcDbLine
 10
2.535672244094487
 20
4.157120331767942
 30
0.0
 11
2.536988188976377
 21
4.155804386886052
 31
0.0
  0
LINE
  5
2D7D
330
1E
100
AcDbEntity
  8
0
100
AcDbLine
 10
2.535672244094487
 20
4.157120331767942
 30
0.0
 11
2.527776574803149
 21
4.149224662476603
 31
0.0
  0
LINE
  5
2D7E
330
1E
100
AcDbEntity
  8
0
100
AcDbLine
 10
2.529092519685039
 20
4.146592772712824
 30
0.0
 11
2.527776574803149
 21
4.149224662476603
 31
0.0
  0
LINE
  5
2D7F
330
1E
100
AcDbEntity
  8
0
100
AcDbLine
 10
2.527776574803149
 20
4.149224662476603
 30
0.0
 11
2.527776574803149
 21
4.118957930193139
 31
0.0
  0
LINE
  5
2D80
330
1E
100
AcDbEntity
  8
0
100
AcDbLine
 10
2.527776574803149
 20
4.118957930193139
 30
0.0
 11
2.529092519685039
 21
4.122905764838808
 31
0.0
  0
LINE
  5
2D81
330
1E
100
AcDbEntity
  8
0
100
AcDbLine
 10
2.529092519685039
 20
4.146592772712824
 30
0.0
 11
2.529092519685039
 21
4.122905764838808
 31
0.0
  0
LINE
  5
2D82
330
1E
100
AcDbEntity
  8
0
100
AcDbLine
 10
2.790965551181102
 20
4.122905764838808
 30
0.0
 11
2.792281496062992
 21
4.118957930193139
 31
0.0
  0
LINE
  5
2D83
330
1E
100
AcDbEntity
  8
0
100
AcDbLine
 10
2.792281496062992
 20
4.118957930193139
 30
0.0
 11
2.792281496062992
 21
4.149224662476603
 31
0.0
  0
LINE
  5
2D84
330
1E
100
AcDbEntity
  8
0
100
AcDbLine
 10
2.792281496062992
 20
4.149224662476603
 30
0.0
 11
2.790965551181102
 21
4.146592772712824
 31
0.0
  0
LINE
  5
2D85
330
1E
100
AcDbEntity
  8
0
100
AcDbLine
 10
2.790965551181102
 20
4.122905764838808
 30
0.0
 11
2.790965551181102
 21
4.146592772712824
 31
0.0
  0
LINE
  5
2D86
330
1E
100
AcDbEntity
  8
0
100
AcDbLine
 10
2.792281496062992
 20
4.149224662476603
 30
0.0
 11
2.784385826771653
 21
4.157120331767942
 31
0.0
  0
LINE
  5
2D87
330
1E
100
AcDbEntity
  8
0
100
AcDbLine
 10
2.783069881889763
 20
4.155804386886052
 30
0.0
 11
2.784385826771653
 21
4.157120331767942
 31
0.0
  0
LINE
  5
2D88
330
1E
100
AcDbEntity
  8
0
100
AcDbLine
 10
2.784385826771653
 20
4.157120331767942
 30
0.0
 11
2.783069881889763
 21
4.157120331767942
 31
0.0
  0
LINE
  5
2D89
330
1E
100
AcDbEntity
  8
0
100
AcDbLine
 10
2.536988188976377
 20
4.157120331767942
 30
0.0
 11
2.535672244094487
 21
4.157120331767942
 31
0.0
  0
LINE
  5
2D8A
330
1E
100
AcDbEntity
  8
0
100
AcDbLine
 10
1.263153543307086
 20
4.157120331767942
 30
0.0
 11
1.263153543307086
 21
4.157120331767942
 31
0.0
  0
LINE
  5
2D8B
330
1E
100
AcDbEntity
  8
0
100
AcDbLine
 10
1.263153543307086
 20
4.157120331767942
 30
0.0
 11
1.263153543307086
 21
4.155804386886052
 31
0.0
  0
LINE
  5
2D8C
330
1E
100
AcDbEntity
  8
0
100
AcDbLine
 10
1.263153543307086
 20
4.157120331767942
 30
0.0
 11
1.255257874015748
 21
4.149224662476603
 31
0.0
  0
LINE
  5
2D8D
330
1E
100
AcDbEntity
  8
0
100
AcDbLine
 10
1.256573818897637
 20
4.146592772712824
 30
0.0
 11
1.255257874015748
 21
4.149224662476603
 31
0.0
  0
LINE
  5
2D8E
330
1E
100
AcDbEntity
  8
0
100
AcDbLine
 10
1.255257874015748
 20
4.149224662476603
 30
0.0
 11
1.255257874015748
 21
4.118957930193139
 31
0.0
  0
LINE
  5
2D8F
330
1E
100
AcDbEntity
  8
0
100
AcDbLine
 10
1.255257874015748
 20
4.118957930193139
 30
0.0
 11
1.256573818897637
 21
4.122905764838808
 31
0.0
  0
LINE
  5
2D90
330
1E
100
AcDbEntity
  8
0
100
AcDbLine
 10
1.256573818897637
 20
4.146592772712824
 30
0.0
 11
1.256573818897637
 21
4.122905764838808
 31
0.0
  0
LINE
  5
2D91
330
1E
100
AcDbEntity
  8
0
100
AcDbLine
 10
1.517130905511811
 20
4.122905764838808
 30
0.0
 11
1.5184468503937
 21
4.118957930193139
 31
0.0
  0
LINE
  5
2D92
330
1E
100
AcDbEntity
  8
0
100
AcDbLine
 10
1.5184468503937
 20
4.118957930193139
 30
0.0
 11
1.5184468503937
 21
4.149224662476603
 31
0.0
  0
LINE
  5
2D93
330
1E
100
AcDbEntity
  8
0
100
AcDbLine
 10
1.5184468503937
 20
4.149224662476603
 30
0.0
 11
1.517130905511811
 21
4.146592772712824
 31
0.0
  0
LINE
  5
2D94
330
1E
100
AcDbEntity
  8
0
100
AcDbLine
 10
1.517130905511811
 20
4.122905764838808
 30
0.0
 11
1.517130905511811
 21
4.146592772712824
 31
0.0
  0
LINE
  5
2D95
330
1E
100
AcDbEntity
  8
0
100
AcDbLine
 10
1.5184468503937
 20
4.149224662476603
 30
0.0
 11
1.510551181102362
 21
4.157120331767942
 31
0.0
  0
LINE
  5
2D96
330
1E
100
AcDbEntity
  8
0
100
AcDbLine
 10
1.509235236220472
 20
4.155804386886052
 30
0.0
 11
1.510551181102362
 21
4.157120331767942
 31
0.0
  0
LINE
  5
2D97
330
1E
100
AcDbEntity
  8
0
100
AcDbLine
 10
1.510551181102362
 20
4.157120331767942
 30
0.0
 11
1.509235236220472
 21
4.157120331767942
 31
0.0
  0
LINE
  5
2D98
330
1E
100
AcDbEntity
  8
0
100
AcDbLine
 10
1.947444881889763
 20
4.072899859326997
 30
0.0
 11
1.946128937007873
 21
4.074215804208886
 31
0.0
  0
POLYLINE
  5
2D99
330
1E
100
AcDbEntity
  8
0
100
AcDb2dPolyline
 66
     1
 10
0.0
 20
0.0
 30
0.0
  0
VERTEX
  5
3537
330
2D99
100
AcDbEntity
  8
0
100
AcDbVertex
100
AcDb2dVertex
 10
1.952708661417322
 20
4.074215804208887
 30
0.0
  0
VERTEX
  5
3538
330
2D99
100
AcDbEntity
  8
0
100
AcDbVertex
100
AcDb2dVertex
 10
1.950076771653543
 20
4.074215804208887
 30
0.0
  0
VERTEX
  5
3539
330
2D99
100
AcDbEntity
  8
0
100
AcDbVertex
100
AcDb2dVertex
 10
1.947444881889763
 20
4.072899859326997
 30
0.0
  0
SEQEND
  5
353A
330
2D99
100
AcDbEntity
  8
0
  0
POLYLINE
  5
2D9E
330
1E
100
AcDbEntity
  8
0
100
AcDb2dPolyline
 66
     1
 10
0.0
 20
0.0
 30
0.0
  0
VERTEX
  5
353B
330
2D9E
100
AcDbEntity
  8
0
100
AcDbVertex
100
AcDb2dVertex
 10
1.96323622047244
 20
3.928145922319123
 30
0.0
  0
VERTEX
  5
353C
330
2D9E
100
AcDbEntity
  8
0
100
AcDbVertex
100
AcDb2dVertex
 10
1.955340551181101
 20
3.928145922319123
 30
0.0
  0
VERTEX
  5
353D
330
2D9E
100
AcDbEntity
  8
0
100
AcDbVertex
100
AcDb2dVertex
 10
1.947444881889763
 20
3.926829977437233
 30
0.0
  0
SEQEND
  5
353E
330
2D9E
100
AcDbEntity
  8
0
  0
LINE
  5
2DA3
330
1E
100
AcDbEntity
  8
0
100
AcDbLine
 10
1.947444881889763
 20
3.926829977437233
 30
0.0
 11
1.946128937007873
 21
3.928145922319123
 31
0.0
  0
POLYLINE
  5
2DA4
330
1E
100
AcDbEntity
  8
0
100
AcDb2dPolyline
 66
     1
 10
0.0
 20
0.0
 30
0.0
  0
VERTEX
  5
353F
330
2DA4
100
AcDbEntity
  8
0
100
AcDbVertex
100
AcDb2dVertex
 10
1.96323622047244
 20
3.772864426256131
 30
0.0
  0
VERTEX
  5
3540
330
2DA4
100
AcDbEntity
  8
0
100
AcDbVertex
100
AcDb2dVertex
 10
1.931653543307086
 20
3.78076009554747
 30
0.0
  0
VERTEX
  5
3541
330
2DA4
100
AcDbEntity
  8
0
100
AcDbVertex
100
AcDb2dVertex
 10
1.905334645669291
 20
3.799183323893926
 30
0.0
  0
VERTEX
  5
3542
330
2DA4
100
AcDbEntity
  8
0
100
AcDbVertex
100
AcDb2dVertex
 10
1.889543307086613
 20
3.826818166413612
 30
0.0
  0
VERTEX
  5
3543
330
2DA4
100
AcDbEntity
  8
0
100
AcDbVertex
100
AcDb2dVertex
 10
1.885595472440945
 20
3.859716788460855
 30
0.0
  0
VERTEX
  5
3544
330
2DA4
100
AcDbEntity
  8
0
100
AcDbVertex
100
AcDb2dVertex
 10
1.896123031496063
 20
3.88998352074432
 30
0.0
  0
VERTEX
  5
3545
330
2DA4
100
AcDbEntity
  8
0
100
AcDbVertex
100
AcDb2dVertex
 10
1.917178149606299
 20
3.913670528618335
 30
0.0
  0
VERTEX
  5
3546
330
2DA4
100
AcDbEntity
  8
0
100
AcDbVertex
100
AcDb2dVertex
 10
1.946128937007873
 20
3.928145922319123
 30
0.0
  0
SEQEND
  5
3547
330
2DA4
100
AcDbEntity
  8
0
  0
POLYLINE
  5
2DAE
330
1E
100
AcDbEntity
  8
0
100
AcDb2dPolyline
 66
     1
 10
0.0
 20
0.0
 30
0.0
  0
VERTEX
  5
3548
330
2DAE
100
AcDbEntity
  8
0
100
AcDbVertex
100
AcDb2dVertex
 10
1.96323622047244
 20
3.700487457752193
 30
0.0
  0
VERTEX
  5
3549
330
2DAE
100
AcDbEntity
  8
0
100
AcDbVertex
100
AcDb2dVertex
 10
1.922441929133858
 20
3.707067182161643
 30
0.0
  0
VERTEX
  5
354A
330
2DAE
100
AcDbEntity
  8
0
100
AcDbVertex
100
AcDb2dVertex
 10
1.884279527559055
 20
3.72285852074432
 30
0.0
  0
VERTEX
  5
354B
330
2DAE
100
AcDbEntity
  8
0
100
AcDbVertex
100
AcDb2dVertex
 10
1.8526968503937
 20
3.749177418382116
 30
0.0
  0
VERTEX
  5
354C
330
2DAE
100
AcDbEntity
  8
0
100
AcDbVertex
100
AcDb2dVertex
 10
1.829009842519685
 20
3.783391985311249
 30
0.0
  0
VERTEX
  5
354D
330
2DAE
100
AcDbEntity
  8
0
100
AcDbVertex
100
AcDb2dVertex
 10
1.815850393700787
 20
3.822870331767942
 30
0.0
  0
VERTEX
  5
354E
330
2DAE
100
AcDbEntity
  8
0
100
AcDbVertex
100
AcDb2dVertex
 10
1.813218503937007
 20
3.863664623106525
 30
0.0
  0
VERTEX
  5
354F
330
2DAE
100
AcDbEntity
  8
0
100
AcDbVertex
100
AcDb2dVertex
 10
1.822430118110235
 20
3.904458914445108
 30
0.0
  0
VERTEX
  5
3550
330
2DAE
100
AcDbEntity
  8
0
100
AcDbVertex
100
AcDb2dVertex
 10
1.842169291338582
 20
3.93998942625613
 30
0.0
  0
VERTEX
  5
3551
330
2DAE
100
AcDbEntity
  8
0
100
AcDbVertex
100
AcDb2dVertex
 10
1.871120078740157
 20
3.970256158539595
 30
0.0
  0
VERTEX
  5
3552
330
2DAE
100
AcDbEntity
  8
0
100
AcDbVertex
100
AcDb2dVertex
 10
1.906650590551181
 20
3.991311276649831
 30
0.0
  0
VERTEX
  5
3553
330
2DAE
100
AcDbEntity
  8
0
100
AcDbVertex
100
AcDb2dVertex
 10
1.946128937007873
 20
4.00052289082306
 30
0.0
  0
SEQEND
  5
3554
330
2DAE
100
AcDbEntity
  8
0
  0
LINE
  5
2DBC
330
1E
100
AcDbEntity
  8
0
100
AcDbLine
 10
1.946128937007873
 20
4.00052289082306
 30
0.0
 11
1.943497047244094
 21
4.001838835704949
 31
0.0
  0
POLYLINE
  5
2DBD
330
1E
100
AcDbEntity
  8
0
100
AcDb2dPolyline
 66
     1
 10
0.0
 20
0.0
 30
0.0
  0
VERTEX
  5
3555
330
2DBD
100
AcDbEntity
  8
0
100
AcDbVertex
100
AcDb2dVertex
 10
1.943497047244094
 20
4.001838835704949
 30
0.0
  0
VERTEX
  5
3556
330
2DBD
100
AcDbEntity
  8
0
100
AcDbVertex
100
AcDb2dVertex
 10
1.902702755905511
 20
3.991311276649831
 30
0.0
  0
VERTEX
  5
3557
330
2DBD
100
AcDbEntity
  8
0
100
AcDbVertex
100
AcDb2dVertex
 10
1.867172244094487
 20
3.970256158539595
 30
0.0
  0
VERTEX
  5
3558
330
2DBD
100
AcDbEntity
  8
0
100
AcDbVertex
100
AcDb2dVertex
 10
1.839537401574802
 20
3.93998942625613
 30
0.0
  0
VERTEX
  5
3559
330
2DBD
100
AcDbEntity
  8
0
100
AcDbVertex
100
AcDb2dVertex
 10
1.819798228346456
 20
3.903142969563218
 30
0.0
  0
VERTEX
  5
355A
330
2DBD
100
AcDbEntity
  8
0
100
AcDbVertex
100
AcDb2dVertex
 10
1.811902559055117
 20
3.862348678224634
 30
0.0
  0
VERTEX
  5
355B
330
2DBD
100
AcDbEntity
  8
0
100
AcDbVertex
100
AcDb2dVertex
 10
1.814534448818897
 20
3.820238442004161
 30
0.0
  0
VERTEX
  5
355C
330
2DBD
100
AcDbEntity
  8
0
100
AcDbVertex
100
AcDb2dVertex
 10
1.827693897637795
 20
3.782076040429359
 30
0.0
  0
VERTEX
  5
355D
330
2DBD
100
AcDbEntity
  8
0
100
AcDbVertex
100
AcDb2dVertex
 10
1.85138090551181
 20
3.747861473500226
 30
0.0
  0
VERTEX
  5
355E
330
2DBD
100
AcDbEntity
  8
0
100
AcDbVertex
100
AcDb2dVertex
 10
1.884279527559055
 20
3.72154257586243
 30
0.0
  0
VERTEX
  5
355F
330
2DBD
100
AcDbEntity
  8
0
100
AcDbVertex
100
AcDb2dVertex
 10
1.922441929133858
 20
3.704435292397863
 30
0.0
  0
VERTEX
  5
3560
330
2DBD
100
AcDbEntity
  8
0
100
AcDbVertex
100
AcDb2dVertex
 10
1.96323622047244
 20
3.699171512870304
 30
0.0
  0
SEQEND
  5
3561
330
2DBD
100
AcDbEntity
  8
0
  0
LINE
  5
2DCB
330
1E
100
AcDbEntity
  8
0
100
AcDbLine
 10
1.134190944881889
 20
4.05710852074432
 30
0.0
 11
1.943497047244094
 21
4.05710852074432
 31
0.0
  0
LINE
  5
2DCC
330
1E
100
AcDbEntity
  8
0
100
AcDbLine
 10
1.943497047244094
 20
4.05710852074432
 30
0.0
 11
1.940865157480315
 21
4.05842446562621
 31
0.0
  0
LINE
  5
2DCD
330
1E
100
AcDbEntity
  8
0
100
AcDbLine
 10
1.132875
 20
4.05710852074432
 30
0.0
 11
1.134190944881889
 21
4.05710852074432
 31
0.0
  0
LINE
  5
2DCE
330
1E
100
AcDbEntity
  8
0
100
AcDbLine
 10
2.105358267716535
 20
4.05842446562621
 30
0.0
 11
2.102726377952755
 21
4.05710852074432
 31
0.0
  0
LINE
  5
2DCF
330
1E
100
AcDbEntity
  8
0
100
AcDbLine
 10
2.102726377952755
 20
4.05710852074432
 30
0.0
 11
2.91203248031496
 21
4.05710852074432
 31
0.0
  0
LINE
  5
2DD0
330
1E
100
AcDbEntity
  8
0
100
AcDbLine
 10
2.91203248031496
 20
4.05710852074432
 30
0.0
 11
2.91334842519685
 21
4.05710852074432
 31
0.0
  0
LINE
  5
2DD1
330
1E
100
AcDbEntity
  8
0
100
AcDbLine
 10
1.943497047244094
 20
4.001838835704949
 30
0.0
 11
1.943497047244094
 21
4.05710852074432
 31
0.0
  0
LINE
  5
2DD2
330
1E
100
AcDbEntity
  8
0
100
AcDbLine
 10
1.134190944881889
 20
4.05710852074432
 30
0.0
 11
1.134190944881889
 21
4.05579257586243
 31
0.0
  0
LINE
  5
2DD3
330
1E
100
AcDbEntity
  8
0
100
AcDbLine
 10
1.134190944881889
 20
4.05579257586243
 30
0.0
 11
1.134190944881889
 21
3.646533717594713
 31
0.0
  0
LINE
  5
2DD4
330
1E
100
AcDbEntity
  8
0
100
AcDbLine
 10
1.134190944881889
 20
3.646533717594713
 30
0.0
 11
1.134190944881889
 21
3.645217772712824
 31
0.0
  0
LINE
  5
2DD5
330
1E
100
AcDbEntity
  8
0
100
AcDbLine
 10
2.91203248031496
 20
3.645217772712824
 30
0.0
 11
2.91203248031496
 21
3.646533717594713
 31
0.0
  0
LINE
  5
2DD6
330
1E
100
AcDbEntity
  8
0
100
AcDbLine
 10
2.91203248031496
 20
3.646533717594713
 30
0.0
 11
2.91203248031496
 21
4.05579257586243
 31
0.0
  0
LINE
  5
2DD7
330
1E
100
AcDbEntity
  8
0
100
AcDbLine
 10
2.91203248031496
 20
4.05579257586243
 30
0.0
 11
2.91203248031496
 21
4.05710852074432
 31
0.0
  0
LINE
  5
2DD8
330
1E
100
AcDbEntity
  8
0
100
AcDbLine
 10
2.102726377952755
 20
4.05710852074432
 30
0.0
 11
2.102726377952755
 21
4.001838835704949
 31
0.0
  0
POLYLINE
  5
2DD9
330
1E
100
AcDbEntity
  8
0
100
AcDb2dPolyline
 66
     1
 10
0.0
 20
0.0
 30
0.0
  0
VERTEX
  5
3562
330
2DD9
100
AcDbEntity
  8
0
100
AcDbVertex
100
AcDb2dVertex
 10
2.082987204724409
 20
3.699171512870304
 30
0.0
  0
VERTEX
  5
3563
330
2DD9
100
AcDbEntity
  8
0
100
AcDbVertex
100
AcDb2dVertex
 10
2.125097440944881
 20
3.704435292397863
 30
0.0
  0
VERTEX
  5
3564
330
2DD9
100
AcDbEntity
  8
0
100
AcDbVertex
100
AcDb2dVertex
 10
2.161943897637795
 20
3.72154257586243
 30
0.0
  0
VERTEX
  5
3565
330
2DD9
100
AcDbEntity
  8
0
100
AcDbVertex
100
AcDb2dVertex
 10
2.194842519685039
 20
3.747861473500226
 30
0.0
  0
VERTEX
  5
3566
330
2DD9
100
AcDbEntity
  8
0
100
AcDbVertex
100
AcDb2dVertex
 10
2.218529527559055
 20
3.782076040429359
 30
0.0
  0
VERTEX
  5
3567
330
2DD9
100
AcDbEntity
  8
0
100
AcDbVertex
100
AcDb2dVertex
 10
2.233004921259842
 20
3.820238442004161
 30
0.0
  0
VERTEX
  5
3568
330
2DD9
100
AcDbEntity
  8
0
100
AcDbVertex
100
AcDb2dVertex
 10
2.235636811023621
 20
3.862348678224634
 30
0.0
  0
VERTEX
  5
3569
330
2DD9
100
AcDbEntity
  8
0
100
AcDbVertex
100
AcDb2dVertex
 10
2.226425196850393
 20
3.903142969563218
 30
0.0
  0
VERTEX
  5
356A
330
2DD9
100
AcDbEntity
  8
0
100
AcDbVertex
100
AcDb2dVertex
 10
2.206686023622046
 20
3.93998942625613
 30
0.0
  0
VERTEX
  5
356B
330
2DD9
100
AcDbEntity
  8
0
100
AcDbVertex
100
AcDb2dVertex
 10
2.179051181102361
 20
3.970256158539595
 30
0.0
  0
VERTEX
  5
356C
330
2DD9
100
AcDbEntity
  8
0
100
AcDbVertex
100
AcDb2dVertex
 10
2.143520669291338
 20
3.991311276649831
 30
0.0
  0
VERTEX
  5
356D
330
2DD9
100
AcDbEntity
  8
0
100
AcDbVertex
100
AcDb2dVertex
 10
2.102726377952755
 20
4.001838835704949
 30
0.0
  0
SEQEND
  5
356E
330
2DD9
100
AcDbEntity
  8
0
  0
LINE
  5
2DE7
330
1E
100
AcDbEntity
  8
0
100
AcDbLine
 10
2.102726377952755
 20
4.001838835704949
 30
0.0
 11
2.100094488188976
 21
4.00052289082306
 31
0.0
  0
POLYLINE
  5
2DE8
330
1E
100
AcDbEntity
  8
0
100
AcDb2dPolyline
 66
     1
 10
0.0
 20
0.0
 30
0.0
  0
VERTEX
  5
356F
330
2DE8
100
AcDbEntity
  8
0
100
AcDbVertex
100
AcDb2dVertex
 10
2.100094488188976
 20
4.00052289082306
 30
0.0
  0
VERTEX
  5
3570
330
2DE8
100
AcDbEntity
  8
0
100
AcDbVertex
100
AcDb2dVertex
 10
2.139572834645669
 20
3.991311276649831
 30
0.0
  0
VERTEX
  5
3571
330
2DE8
100
AcDbEntity
  8
0
100
AcDbVertex
100
AcDb2dVertex
 10
2.175103346456692
 20
3.970256158539595
 30
0.0
  0
VERTEX
  5
3572
330
2DE8
100
AcDbEntity
  8
0
100
AcDbVertex
100
AcDb2dVertex
 10
2.204054133858267
 20
3.93998942625613
 30
0.0
  0
VERTEX
  5
3573
330
2DE8
100
AcDbEntity
  8
0
100
AcDbVertex
100
AcDb2dVertex
 10
2.223793307086613
 20
3.904458914445108
 30
0.0
  0
VERTEX
  5
3574
330
2DE8
100
AcDbEntity
  8
0
100
AcDbVertex
100
AcDb2dVertex
 10
2.233004921259842
 20
3.863664623106525
 30
0.0
  0
VERTEX
  5
3575
330
2DE8
100
AcDbEntity
  8
0
100
AcDbVertex
100
AcDb2dVertex
 10
2.230373031496062
 20
3.822870331767942
 30
0.0
  0
VERTEX
  5
3576
330
2DE8
100
AcDbEntity
  8
0
100
AcDbVertex
100
AcDb2dVertex
 10
2.217213582677165
 20
3.783391985311249
 30
0.0
  0
VERTEX
  5
3577
330
2DE8
100
AcDbEntity
  8
0
100
AcDbVertex
100
AcDb2dVertex
 10
2.193526574803149
 20
3.749177418382116
 30
0.0
  0
VERTEX
  5
3578
330
2DE8
100
AcDbEntity
  8
0
100
AcDbVertex
100
AcDb2dVertex
 10
2.161943897637795
 20
3.72285852074432
 30
0.0
  0
VERTEX
  5
3579
330
2DE8
100
AcDbEntity
  8
0
100
AcDbVertex
100
AcDb2dVertex
 10
2.123781496062992
 20
3.707067182161643
 30
0.0
  0
VERTEX
  5
357A
330
2DE8
100
AcDbEntity
  8
0
100
AcDbVertex
100
AcDb2dVertex
 10
2.082987204724409
 20
3.700487457752193
 30
0.0
  0
SEQEND
  5
357B
330
2DE8
100
AcDbEntity
  8
0
  0
LINE
  5
2DF6
330
1E
100
AcDbEntity
  8
0
100
AcDbLine
 10
1.946128937007873
 20
3.928145922319123
 30
0.0
 11
1.946128937007873
 21
4.00052289082306
 31
0.0
  0
LINE
  5
2DF7
330
1E
100
AcDbEntity
  8
0
100
AcDbLine
 10
2.100094488188976
 20
4.00052289082306
 30
0.0
 11
2.100094488188976
 21
3.928145922319123
 31
0.0
  0
POLYLINE
  5
2DF8
330
1E
100
AcDbEntity
  8
0
100
AcDb2dPolyline
 66
     1
 10
0.0
 20
0.0
 30
0.0
  0
VERTEX
  5
357C
330
2DF8
100
AcDbEntity
  8
0
100
AcDbVertex
100
AcDb2dVertex
 10
2.100094488188976
 20
3.928145922319123
 30
0.0
  0
VERTEX
  5
357D
330
2DF8
100
AcDbEntity
  8
0
100
AcDbVertex
100
AcDb2dVertex
 10
2.12904527559055
 20
3.913670528618335
 30
0.0
  0
VERTEX
  5
357E
330
2DF8
100
AcDbEntity
  8
0
100
AcDbVertex
100
AcDb2dVertex
 10
2.151416338582676
 20
3.88998352074432
 30
0.0
  0
VERTEX
  5
357F
330
2DF8
100
AcDbEntity
  8
0
100
AcDbVertex
100
AcDb2dVertex
 10
2.160627952755905
 20
3.859716788460855
 30
0.0
  0
VERTEX
  5
3580
330
2DF8
100
AcDbEntity
  8
0
100
AcDbVertex
100
AcDb2dVertex
 10
2.157996062992125
 20
3.826818166413612
 30
0.0
  0
VERTEX
  5
3581
330
2DF8
100
AcDbEntity
  8
0
100
AcDbVertex
100
AcDb2dVertex
 10
2.140888779527558
 20
3.799183323893926
 30
0.0
  0
VERTEX
  5
3582
330
2DF8
100
AcDbEntity
  8
0
100
AcDbVertex
100
AcDb2dVertex
 10
2.114569881889763
 20
3.78076009554747
 30
0.0
  0
VERTEX
  5
3583
330
2DF8
100
AcDbEntity
  8
0
100
AcDbVertex
100
AcDb2dVertex
 10
2.082987204724409
 20
3.772864426256131
 30
0.0
  0
SEQEND
  5
3584
330
2DF8
100
AcDbEntity
  8
0
  0
LINE
  5
2E02
330
1E
100
AcDbEntity
  8
0
100
AcDbLine
 10
2.100094488188976
 20
3.928145922319123
 30
0.0
 11
2.098778543307086
 21
3.926829977437233
 31
0.0
  0
POLYLINE
  5
2E03
330
1E
100
AcDbEntity
  8
0
100
AcDb2dPolyline
 66
     1
 10
0.0
 20
0.0
 30
0.0
  0
VERTEX
  5
3585
330
2E03
100
AcDbEntity
  8
0
100
AcDbVertex
100
AcDb2dVertex
 10
2.098778543307086
 20
3.926829977437233
 30
0.0
  0
VERTEX
  5
3586
330
2E03
100
AcDbEntity
  8
0
100
AcDbVertex
100
AcDb2dVertex
 10
2.090882874015747
 20
3.928145922319123
 30
0.0
  0
VERTEX
  5
3587
330
2E03
100
AcDbEntity
  8
0
100
AcDbVertex
100
AcDb2dVertex
 10
2.082987204724409
 20
3.928145922319123
 30
0.0
  0
SEQEND
  5
3588
330
2E03
100
AcDbEntity
  8
0
  0
LINE
  5
2E08
330
1E
100
AcDbEntity
  8
0
100
AcDbLine
 10
1.947444881889763
 20
3.926829977437233
 30
0.0
 11
1.947444881889763
 21
4.072899859326997
 31
0.0
  0
LINE
  5
2E09
330
1E
100
AcDbEntity
  8
0
100
AcDbLine
 10
2.098778543307086
 20
3.926829977437233
 30
0.0
 11
2.098778543307086
 21
4.072899859326997
 31
0.0
  0
POLYLINE
  5
2E0A
330
1E
100
AcDbEntity
  8
0
100
AcDb2dPolyline
 66
     1
 10
0.0
 20
0.0
 30
0.0
  0
VERTEX
  5
3589
330
2E0A
100
AcDbEntity
  8
0
100
AcDbVertex
100
AcDb2dVertex
 10
2.098778543307086
 20
4.072899859326997
 30
0.0
  0
VERTEX
  5
358A
330
2E0A
100
AcDbEntity
  8
0
100
AcDbVertex
100
AcDb2dVertex
 10
2.096146653543306
 20
4.074215804208887
 30
0.0
  0
VERTEX
  5
358B
330
2E0A
100
AcDbEntity
  8
0
100
AcDbVertex
100
AcDb2dVertex
 10
2.093514763779527
 20
4.074215804208887
 30
0.0
  0
SEQEND
  5
358C
330
2E0A
100
AcDbEntity
  8
0
  0
LINE
  5
2E0F
330
1E
100
AcDbEntity
  8
0
100
AcDbLine
 10
2.100094488188976
 20
4.074215804208886
 30
0.0
 11
2.098778543307086
 21
4.072899859326997
 31
0.0
  0
LINE
  5
2E10
330
1E
100
AcDbEntity
  8
0
100
AcDbLine
 10
1.510551181102362
 20
4.1110622609018
 30
0.0
 11
1.509235236220472
 21
4.11501009554747
 31
0.0
  0
LINE
  5
2E11
330
1E
100
AcDbEntity
  8
0
100
AcDbLine
 10
1.510551181102362
 20
4.1110622609018
 30
0.0
 11
1.5184468503937
 21
4.118957930193139
 31
0.0
  0
LINE
  5
2E12
330
1E
100
AcDbEntity
  8
0
100
AcDbLine
 10
1.456597440944881
 20
4.11501009554747
 30
0.0
 11
1.448701771653543
 21
4.11501009554747
 31
0.0
  0
LINE
  5
2E13
330
1E
100
AcDbEntity
  8
0
100
AcDbLine
 10
1.323687007874015
 20
4.11501009554747
 30
0.0
 11
1.315791338582677
 21
4.11501009554747
 31
0.0
  0
LINE
  5
2E14
330
1E
100
AcDbEntity
  8
0
100
AcDbLine
 10
1.264469488188976
 20
4.11501009554747
 30
0.0
 11
1.263153543307086
 21
4.1110622609018
 31
0.0
  0
LINE
  5
2E15
330
1E
100
AcDbEntity
  8
0
100
AcDbLine
 10
1.263153543307086
 20
4.1110622609018
 30
0.0
 11
1.510551181102362
 21
4.1110622609018
 31
0.0
  0
LINE
  5
2E16
330
1E
100
AcDbEntity
  8
0
100
AcDbLine
 10
1.255257874015748
 20
4.118957930193139
 30
0.0
 11
1.263153543307086
 21
4.1110622609018
 31
0.0
  0
POLYLINE
  5
2E17
330
1E
100
AcDbEntity
  8
0
100
AcDb2dPolyline
 66
     1
 10
0.0
 20
0.0
 30
0.0
  0
VERTEX
  5
358D
330
2E17
100
AcDbEntity
  8
0
100
AcDbVertex
100
AcDb2dVertex
 10
2.100094488188976
 20
4.074215804208887
 30
0.0
  0
VERTEX
  5
358E
330
2E17
100
AcDbEntity
  8
0
100
AcDbVertex
100
AcDb2dVertex
 10
2.100094488188976
 20
4.076847693972667
 30
0.0
  0
VERTEX
  5
358F
330
2E17
100
AcDbEntity
  8
0
100
AcDbVertex
100
AcDb2dVertex
 10
2.100094488188976
 20
4.079479583736445
 30
0.0
  0
VERTEX
  5
3590
330
2E17
100
AcDbEntity
  8
0
100
AcDbVertex
100
AcDb2dVertex
 10
2.100094488188976
 20
4.082111473500225
 30
0.0
  0
VERTEX
  5
3591
330
2E17
100
AcDbEntity
  8
0
100
AcDbVertex
100
AcDb2dVertex
 10
2.100094488188976
 20
4.084743363264005
 30
0.0
  0
SEQEND
  5
3592
330
2E17
100
AcDbEntity
  8
0
  0
POLYLINE
  5
2E1E
330
1E
100
AcDbEntity
  8
0
100
AcDb2dPolyline
 66
     1
 10
0.0
 20
0.0
 30
0.0
  0
VERTEX
  5
3593
330
2E1E
100
AcDbEntity
  8
0
100
AcDbVertex
100
AcDb2dVertex
 10
1.946128937007873
 20
4.084743363264005
 30
0.0
  0
VERTEX
  5
3594
330
2E1E
100
AcDbEntity
  8
0
100
AcDbVertex
100
AcDb2dVertex
 10
1.946128937007873
 20
4.080795528618335
 30
0.0
  0
VERTEX
  5
3595
330
2E1E
100
AcDbEntity
  8
0
100
AcDbVertex
100
AcDb2dVertex
 10
1.946128937007873
 20
4.078163638854556
 30
0.0
  0
VERTEX
  5
3596
330
2E1E
100
AcDbEntity
  8
0
100
AcDbVertex
100
AcDb2dVertex
 10
1.946128937007873
 20
4.075531749090776
 30
0.0
  0
VERTEX
  5
3597
330
2E1E
100
AcDbEntity
  8
0
100
AcDbVertex
100
AcDb2dVertex
 10
1.946128937007873
 20
4.074215804208887
 30
0.0
  0
SEQEND
  5
3598
330
2E1E
100
AcDbEntity
  8
0
  0
LINE
  5
2E25
330
1E
100
AcDbEntity
  8
0
100
AcDbLine
 10
2.102726377952755
 20
4.096586867201012
 30
0.0
 11
2.100094488188976
 21
4.095270922319123
 31
0.0
  0
LINE
  5
2E26
330
1E
100
AcDbEntity
  8
0
100
AcDbLine
 10
2.102726377952755
 20
4.096586867201012
 30
0.0
 11
2.093514763779527
 21
4.096586867201012
 31
0.0
  0
LINE
  5
2E27
330
1E
100
AcDbEntity
  8
0
100
AcDbLine
 10
1.952708661417322
 20
4.096586867201012
 30
0.0
 11
1.943497047244094
 21
4.096586867201012
 31
0.0
  0
LINE
  5
2E28
330
1E
100
AcDbEntity
  8
0
100
AcDbLine
 10
1.943497047244094
 20
4.096586867201012
 30
0.0
 11
1.946128937007873
 21
4.095270922319123
 31
0.0
  0
LINE
  5
2E29
330
1E
100
AcDbEntity
  8
0
100
AcDbLine
 10
2.784385826771653
 20
4.1110622609018
 30
0.0
 11
2.781753937007874
 21
4.11501009554747
 31
0.0
  0
LINE
  5
2E2A
330
1E
100
AcDbEntity
  8
0
100
AcDbLine
 10
2.784385826771653
 20
4.1110622609018
 30
0.0
 11
2.792281496062992
 21
4.118957930193139
 31
0.0
  0
LINE
  5
2E2B
330
1E
100
AcDbEntity
  8
0
100
AcDbLine
 10
2.730432086614173
 20
4.11501009554747
 30
0.0
 11
2.722536417322834
 21
4.11501009554747
 31
0.0
  0
LINE
  5
2E2C
330
1E
100
AcDbEntity
  8
0
100
AcDbLine
 10
2.597521653543306
 20
4.11501009554747
 30
0.0
 11
2.589625984251968
 21
4.11501009554747
 31
0.0
  0
LINE
  5
2E2D
330
1E
100
AcDbEntity
  8
0
100
AcDbLine
 10
2.536988188976377
 20
4.11501009554747
 30
0.0
 11
2.535672244094487
 21
4.1110622609018
 31
0.0
  0
LINE
  5
2E2E
330
1E
100
AcDbEntity
  8
0
100
AcDbLine
 10
2.535672244094487
 20
4.1110622609018
 30
0.0
 11
2.784385826771653
 21
4.1110622609018
 31
0.0
  0
LINE
  5
2E2F
330
1E
100
AcDbEntity
  8
0
100
AcDbLine
 10
2.527776574803149
 20
4.118957930193139
 30
0.0
 11
2.535672244094487
 21
4.1110622609018
 31
0.0
  0
POLYLINE
  5
2E30
330
1E
100
AcDbEntity
  8
0
100
AcDb2dPolyline
 66
     1
 10
0.0
 20
0.0
 30
0.0
  0
VERTEX
  5
3599
330
2E30
100
AcDbEntity
  8
0
100
AcDbVertex
100
AcDb2dVertex
 10
2.51988090551181
 20
4.149224662476603
 30
0.0
  0
VERTEX
  5
359A
330
2E30
100
AcDbEntity
  8
0
100
AcDbVertex
100
AcDb2dVertex
 10
2.525144685039369
 20
4.149224662476603
 30
0.0
  0
VERTEX
  5
359B
330
2E30
100
AcDbEntity
  8
0
100
AcDbVertex
100
AcDb2dVertex
 10
2.527776574803149
 20
4.149224662476603
 30
0.0
  0
SEQEND
  5
359C
330
2E30
100
AcDbEntity
  8
0
  0
POLYLINE
  5
2E35
330
1E
100
AcDbEntity
  8
0
100
AcDb2dPolyline
 66
     1
 10
0.0
 20
0.0
 30
0.0
  0
VERTEX
  5
359D
330
2E35
100
AcDbEntity
  8
0
100
AcDbVertex
100
AcDb2dVertex
 10
2.535672244094487
 20
4.16501600105928
 30
0.0
  0
VERTEX
  5
359E
330
2E35
100
AcDbEntity
  8
0
100
AcDbVertex
100
AcDb2dVertex
 10
2.535672244094487
 20
4.158436276649831
 30
0.0
  0
VERTEX
  5
359F
330
2E35
100
AcDbEntity
  8
0
100
AcDbVertex
100
AcDb2dVertex
 10
2.535672244094487
 20
4.157120331767942
 30
0.0
  0
SEQEND
  5
35A0
330
2E35
100
AcDbEntity
  8
0
  0
POLYLINE
  5
2E3A
330
1E
100
AcDbEntity
  8
0
100
AcDb2dPolyline
 66
     1
 10
0.0
 20
0.0
 30
0.0
  0
VERTEX
  5
35A1
330
2E3A
100
AcDbEntity
  8
0
100
AcDbVertex
100
AcDb2dVertex
 10
2.51988090551181
 20
4.118957930193139
 30
0.0
  0
VERTEX
  5
35A2
330
2E3A
100
AcDbEntity
  8
0
100
AcDbVertex
100
AcDb2dVertex
 10
2.525144685039369
 20
4.118957930193139
 30
0.0
  0
VERTEX
  5
35A3
330
2E3A
100
AcDbEntity
  8
0
100
AcDbVertex
100
AcDb2dVertex
 10
2.527776574803149
 20
4.118957930193139
 30
0.0
  0
SEQEND
  5
35A4
330
2E3A
100
AcDbEntity
  8
0
  0
POLYLINE
  5
2E3F
330
1E
100
AcDbEntity
  8
0
100
AcDb2dPolyline
 66
     1
 10
0.0
 20
0.0
 30
0.0
  0
VERTEX
  5
35A5
330
2E3F
100
AcDbEntity
  8
0
100
AcDbVertex
100
AcDb2dVertex
 10
2.535672244094487
 20
4.101850646728571
 30
0.0
  0
VERTEX
  5
35A6
330
2E3F
100
AcDbEntity
  8
0
100
AcDbVertex
100
AcDb2dVertex
 10
2.535672244094487
 20
4.108430371138021
 30
0.0
  0
VERTEX
  5
35A7
330
2E3F
100
AcDbEntity
  8
0
100
AcDbVertex
100
AcDb2dVertex
 10
2.535672244094487
 20
4.1110622609018
 30
0.0
  0
SEQEND
  5
35A8
330
2E3F
100
AcDbEntity
  8
0
  0
POLYLINE
  5
2E44
330
1E
100
AcDbEntity
  8
0
100
AcDb2dPolyline
 66
     1
 10
0.0
 20
0.0
 30
0.0
  0
VERTEX
  5
35A9
330
2E44
100
AcDbEntity
  8
0
100
AcDbVertex
100
AcDb2dVertex
 10
2.784385826771653
 20
4.101850646728571
 30
0.0
  0
VERTEX
  5
35AA
330
2E44
100
AcDbEntity
  8
0
100
AcDbVertex
100
AcDb2dVertex
 10
2.784385826771653
 20
4.108430371138021
 30
0.0
  0
VERTEX
  5
35AB
330
2E44
100
AcDbEntity
  8
0
100
AcDbVertex
100
AcDb2dVertex
 10
2.784385826771653
 20
4.1110622609018
 30
0.0
  0
SEQEND
  5
35AC
330
2E44
100
AcDbEntity
  8
0
  0
POLYLINE
  5
2E49
330
1E
100
AcDbEntity
  8
0
100
AcDb2dPolyline
 66
     1
 10
0.0
 20
0.0
 30
0.0
  0
VERTEX
  5
35AD
330
2E49
100
AcDbEntity
  8
0
100
AcDbVertex
100
AcDb2dVertex
 10
2.80017716535433
 20
4.118957930193139
 30
0.0
  0
VERTEX
  5
35AE
330
2E49
100
AcDbEntity
  8
0
100
AcDbVertex
100
AcDb2dVertex
 10
2.793597440944881
 20
4.118957930193139
 30
0.0
  0
VERTEX
  5
35AF
330
2E49
100
AcDbEntity
  8
0
100
AcDbVertex
100
AcDb2dVertex
 10
2.792281496062992
 20
4.118957930193139
 30
0.0
  0
SEQEND
  5
35B0
330
2E49
100
AcDbEntity
  8
0
  0
POLYLINE
  5
2E4E
330
1E
100
AcDbEntity
  8
0
100
AcDb2dPolyline
 66
     1
 10
0.0
 20
0.0
 30
0.0
  0
VERTEX
  5
35B1
330
2E4E
100
AcDbEntity
  8
0
100
AcDbVertex
100
AcDb2dVertex
 10
2.792281496062992
 20
4.149224662476603
 30
0.0
  0
VERTEX
  5
35B2
330
2E4E
100
AcDbEntity
  8
0
100
AcDbVertex
100
AcDb2dVertex
 10
2.793597440944881
 20
4.149224662476603
 30
0.0
  0
VERTEX
  5
35B3
330
2E4E
100
AcDbEntity
  8
0
100
AcDbVertex
100
AcDb2dVertex
 10
2.80017716535433
 20
4.149224662476603
 30
0.0
  0
SEQEND
  5
35B4
330
2E4E
100
AcDbEntity
  8
0
  0
POLYLINE
  5
2E53
330
1E
100
AcDbEntity
  8
0
100
AcDb2dPolyline
 66
     1
 10
0.0
 20
0.0
 30
0.0
  0
VERTEX
  5
35B5
330
2E53
100
AcDbEntity
  8
0
100
AcDbVertex
100
AcDb2dVertex
 10
2.784385826771653
 20
4.157120331767942
 30
0.0
  0
VERTEX
  5
35B6
330
2E53
100
AcDbEntity
  8
0
100
AcDbVertex
100
AcDb2dVertex
 10
2.784385826771653
 20
4.158436276649831
 30
0.0
  0
VERTEX
  5
35B7
330
2E53
100
AcDbEntity
  8
0
100
AcDbVertex
100
AcDb2dVertex
 10
2.784385826771653
 20
4.16501600105928
 30
0.0
  0
SEQEND
  5
35B8
330
2E53
100
AcDbEntity
  8
0
  0
POLYLINE
  5
2E58
330
1E
100
AcDbEntity
  8
0
100
AcDb2dPolyline
 66
     1
 10
0.0
 20
0.0
 30
0.0
  0
VERTEX
  5
35B9
330
2E58
100
AcDbEntity
  8
0
100
AcDbVertex
100
AcDb2dVertex
 10
1.263153543307086
 20
4.16501600105928
 30
0.0
  0
VERTEX
  5
35BA
330
2E58
100
AcDbEntity
  8
0
100
AcDbVertex
100
AcDb2dVertex
 10
1.263153543307086
 20
4.158436276649831
 30
0.0
  0
VERTEX
  5
35BB
330
2E58
100
AcDbEntity
  8
0
100
AcDbVertex
100
AcDb2dVertex
 10
1.263153543307086
 20
4.157120331767942
 30
0.0
  0
SEQEND
  5
35BC
330
2E58
100
AcDbEntity
  8
0
  0
POLYLINE
  5
2E5D
330
1E
100
AcDbEntity
  8
0
100
AcDb2dPolyline
 66
     1
 10
0.0
 20
0.0
 30
0.0
  0
VERTEX
  5
35BD
330
2E5D
100
AcDbEntity
  8
0
100
AcDbVertex
100
AcDb2dVertex
 10
1.246046259842519
 20
4.149224662476603
 30
0.0
  0
VERTEX
  5
35BE
330
2E5D
100
AcDbEntity
  8
0
100
AcDbVertex
100
AcDb2dVertex
 10
1.252625984251968
 20
4.149224662476603
 30
0.0
  0
VERTEX
  5
35BF
330
2E5D
100
AcDbEntity
  8
0
100
AcDbVertex
100
AcDb2dVertex
 10
1.255257874015747
 20
4.149224662476603
 30
0.0
  0
SEQEND
  5
35C0
330
2E5D
100
AcDbEntity
  8
0
  0
POLYLINE
  5
2E62
330
1E
100
AcDbEntity
  8
0
100
AcDb2dPolyline
 66
     1
 10
0.0
 20
0.0
 30
0.0
  0
VERTEX
  5
35C1
330
2E62
100
AcDbEntity
  8
0
100
AcDbVertex
100
AcDb2dVertex
 10
1.255257874015747
 20
4.118957930193139
 30
0.0
  0
VERTEX
  5
35C2
330
2E62
100
AcDbEntity
  8
0
100
AcDbVertex
100
AcDb2dVertex
 10
1.252625984251968
 20
4.118957930193139
 30
0.0
  0
VERTEX
  5
35C3
330
2E62
100
AcDbEntity
  8
0
100
AcDbVertex
100
AcDb2dVertex
 10
1.246046259842519
 20
4.118957930193139
 30
0.0
  0
SEQEND
  5
35C4
330
2E62
100
AcDbEntity
  8
0
  0
POLYLINE
  5
2E67
330
1E
100
AcDbEntity
  8
0
100
AcDb2dPolyline
 66
     1
 10
0.0
 20
0.0
 30
0.0
  0
VERTEX
  5
35C5
330
2E67
100
AcDbEntity
  8
0
100
AcDbVertex
100
AcDb2dVertex
 10
1.263153543307086
 20
4.1110622609018
 30
0.0
  0
VERTEX
  5
35C6
330
2E67
100
AcDbEntity
  8
0
100
AcDbVertex
100
AcDb2dVertex
 10
1.263153543307086
 20
4.108430371138021
 30
0.0
  0
VERTEX
  5
35C7
330
2E67
100
AcDbEntity
  8
0
100
AcDbVertex
100
AcDb2dVertex
 10
1.263153543307086
 20
4.101850646728571
 30
0.0
  0
SEQEND
  5
35C8
330
2E67
100
AcDbEntity
  8
0
  0
POLYLINE
  5
2E6C
330
1E
100
AcDbEntity
  8
0
100
AcDb2dPolyline
 66
     1
 10
0.0
 20
0.0
 30
0.0
  0
VERTEX
  5
35C9
330
2E6C
100
AcDbEntity
  8
0
100
AcDbVertex
100
AcDb2dVertex
 10
1.510551181102362
 20
4.1110622609018
 30
0.0
  0
VERTEX
  5
35CA
330
2E6C
100
AcDbEntity
  8
0
100
AcDbVertex
100
AcDb2dVertex
 10
1.510551181102362
 20
4.108430371138021
 30
0.0
  0
VERTEX
  5
35CB
330
2E6C
100
AcDbEntity
  8
0
100
AcDbVertex
100
AcDb2dVertex
 10
1.510551181102362
 20
4.101850646728571
 30
0.0
  0
SEQEND
  5
35CC
330
2E6C
100
AcDbEntity
  8
0
  0
POLYLINE
  5
2E71
330
1E
100
AcDbEntity
  8
0
100
AcDb2dPolyline
 66
     1
 10
0.0
 20
0.0
 30
0.0
  0
VERTEX
  5
35CD
330
2E71
100
AcDbEntity
  8
0
100
AcDbVertex
100
AcDb2dVertex
 10
1.5184468503937
 20
4.118957930193139
 30
0.0
  0
VERTEX
  5
35CE
330
2E71
100
AcDbEntity
  8
0
100
AcDbVertex
100
AcDb2dVertex
 10
1.52107874015748
 20
4.118957930193139
 30
0.0
  0
VERTEX
  5
35CF
330
2E71
100
AcDbEntity
  8
0
100
AcDbVertex
100
AcDb2dVertex
 10
1.526342519685039
 20
4.118957930193139
 30
0.0
  0
SEQEND
  5
35D0
330
2E71
100
AcDbEntity
  8
0
  0
POLYLINE
  5
2E76
330
1E
100
AcDbEntity
  8
0
100
AcDb2dPolyline
 66
     1
 10
0.0
 20
0.0
 30
0.0
  0
VERTEX
  5
35D1
330
2E76
100
AcDbEntity
  8
0
100
AcDbVertex
100
AcDb2dVertex
 10
1.5184468503937
 20
4.149224662476603
 30
0.0
  0
VERTEX
  5
35D2
330
2E76
100
AcDbEntity
  8
0
100
AcDbVertex
100
AcDb2dVertex
 10
1.52107874015748
 20
4.149224662476603
 30
0.0
  0
VERTEX
  5
35D3
330
2E76
100
AcDbEntity
  8
0
100
AcDbVertex
100
AcDb2dVertex
 10
1.526342519685039
 20
4.149224662476603
 30
0.0
  0
SEQEND
  5
35D4
330
2E76
100
AcDbEntity
  8
0
  0
POLYLINE
  5
2E7B
330
1E
100
AcDbEntity
  8
0
100
AcDb2dPolyline
 66
     1
 10
0.0
 20
0.0
 30
0.0
  0
VERTEX
  5
35D5
330
2E7B
100
AcDbEntity
  8
0
100
AcDbVertex
100
AcDb2dVertex
 10
1.510551181102362
 20
4.157120331767942
 30
0.0
  0
VERTEX
  5
35D6
330
2E7B
100
AcDbEntity
  8
0
100
AcDbVertex
100
AcDb2dVertex
 10
1.510551181102362
 20
4.158436276649831
 30
0.0
  0
VERTEX
  5
35D7
330
2E7B
100
AcDbEntity
  8
0
100
AcDbVertex
100
AcDb2dVertex
 10
1.510551181102362
 20
4.16501600105928
 30
0.0
  0
SEQEND
  5
35D8
330
2E7B
100
AcDbEntity
  8
0
  0
LINE
  5
2E80
330
1E
100
AcDbEntity
  8
0
100
AcDbLine
 10
1.942181102362204
 20
4.097902812082903
 30
0.0
 11
1.940865157480315
 21
4.097902812082903
 31
0.0
  0
POLYLINE
  5
2E81
330
1E
100
AcDbEntity
  8
0
100
AcDb2dPolyline
 66
     1
 10
0.0
 20
0.0
 30
0.0
  0
VERTEX
  5
35D9
330
2E81
100
AcDbEntity
  8
0
100
AcDbVertex
100
AcDb2dVertex
 10
1.943497047244094
 20
4.096586867201012
 30
0.0
  0
VERTEX
  5
35DA
330
2E81
100
AcDbEntity
  8
0
100
AcDbVertex
100
AcDb2dVertex
 10
1.943497047244094
 20
4.104482536492351
 30
0.0
  0
VERTEX
  5
35DB
330
2E81
100
AcDbEntity
  8
0
100
AcDbVertex
100
AcDb2dVertex
 10
1.942181102362204
 20
4.120273875075029
 30
0.0
  0
SEQEND
  5
35DC
330
2E81
100
AcDbEntity
  8
0
  0
LINE
  5
2E86
330
1E
100
AcDbEntity
  8
0
100
AcDbLine
 10
3.015992125984251
 20
3.604423481374241
 30
0.0
 11
3.015992125984251
 21
3.605739426256131
 31
0.0
  0
LINE
  5
2E87
330
1E
100
AcDbEntity
  8
0
100
AcDbLine
 10
3.046258858267716
 20
4.067636079799438
 30
0.0
 11
3.046258858267716
 21
4.067636079799438
 31
0.0
  0
LINE
  5
2E88
330
1E
100
AcDbEntity
  8
0
100
AcDbLine
 10
3.046258858267716
 20
3.636006158539595
 30
0.0
 11
3.046258858267716
 21
3.634690213657706
 31
0.0
  0
LINE
  5
2E89
330
1E
100
AcDbEntity
  8
0
100
AcDbLine
 10
3.015992125984251
 20
4.097902812082903
 30
0.0
 11
3.015992125984251
 21
4.097902812082903
 31
0.0
  0
LINE
  5
2E8A
330
1E
100
AcDbEntity
  8
0
100
AcDbLine
 10
2.105358267716535
 20
4.097902812082903
 30
0.0
 11
2.104042322834645
 21
4.097902812082903
 31
0.0
  0
POLYLINE
  5
2E8B
330
1E
100
AcDbEntity
  8
0
100
AcDb2dPolyline
 66
     1
 10
0.0
 20
0.0
 30
0.0
  0
VERTEX
  5
35DD
330
2E8B
100
AcDbEntity
  8
0
100
AcDbVertex
100
AcDb2dVertex
 10
2.104042322834645
 20
4.120273875075029
 30
0.0
  0
VERTEX
  5
35DE
330
2E8B
100
AcDbEntity
  8
0
100
AcDbVertex
100
AcDb2dVertex
 10
2.104042322834645
 20
4.104482536492351
 30
0.0
  0
VERTEX
  5
35DF
330
2E8B
100
AcDbEntity
  8
0
100
AcDbVertex
100
AcDb2dVertex
 10
2.102726377952755
 20
4.096586867201012
 30
0.0
  0
SEQEND
  5
35E0
330
2E8B
100
AcDbEntity
  8
0
  0
LINE
  5
2E90
330
1E
100
AcDbEntity
  8
0
100
AcDbLine
 10
2.40934153543307
 20
4.619016985311248
 30
0.0
 11
2.91071653543307
 21
4.619016985311248
 31
0.0
  0
LINE
  5
2E91
330
1E
100
AcDbEntity
  8
0
100
AcDbLine
 10
1.772424212598425
 20
4.619016985311248
 30
0.0
 11
2.273799212598424
 21
4.619016985311248
 31
0.0
  0
LINE
  5
2E92
330
1E
100
AcDbEntity
  8
0
100
AcDbLine
 10
2.317225393700787
 20
4.621648875075028
 30
0.0
 11
2.317225393700787
 21
5.28356915066558
 31
0.0
  0
LINE
  5
2E93
330
1E
100
AcDbEntity
  8
0
100
AcDbLine
 10
2.365915354330708
 20
4.621648875075028
 30
0.0
 11
2.365915354330708
 21
5.28356915066558
 31
0.0
  0
LINE
  5
2E94
330
1E
100
AcDbEntity
  8
0
100
AcDbLine
 10
1.136822834645669
 20
4.619016985311248
 30
0.0
 11
1.636881889763779
 21
4.619016985311248
 31
0.0
  0
LINE
  5
2E95
330
1E
100
AcDbEntity
  8
0
100
AcDbLine
 10
1.680308070866141
 20
4.621648875075028
 30
0.0
 11
1.680308070866141
 21
5.28356915066558
 31
0.0
  0
LINE
  5
2E96
330
1E
100
AcDbEntity
  8
0
100
AcDbLine
 10
1.728998031496063
 20
4.621648875075028
 30
0.0
 11
1.728998031496063
 21
5.28356915066558
 31
0.0
  0
LINE
  5
2E97
330
1E
100
AcDbEntity
  8
0
100
AcDbLine
 10
1.092080708661417
 20
4.621648875075028
 30
0.0
 11
1.092080708661417
 21
5.28356915066558
 31
0.0
  0
LINE
  5
2E98
330
1E
100
AcDbEntity
  8
0
100
AcDbLine
 10
2.954142716535433
 20
4.621648875075028
 30
0.0
 11
2.954142716535433
 21
5.28356915066558
 31
0.0
  0
LINE
  5
2E99
330
1E
100
AcDbEntity
  8
0
100
AcDbLine
 10
2.40934153543307
 20
5.771784701846682
 30
0.0
 11
2.91071653543307
 21
5.771784701846682
 31
0.0
  0
LINE
  5
2E9A
330
1E
100
AcDbEntity
  8
0
100
AcDbLine
 10
1.772424212598425
 20
5.771784701846682
 30
0.0
 11
2.273799212598424
 21
5.771784701846682
 31
0.0
  0
LINE
  5
2E9B
330
1E
100
AcDbEntity
  8
0
100
AcDbLine
 10
2.317225393700787
 20
5.774416591610462
 30
0.0
 11
2.317225393700787
 21
6.436336867201013
 31
0.0
  0
LINE
  5
2E9C
330
1E
100
AcDbEntity
  8
0
100
AcDbLine
 10
2.365915354330708
 20
5.774416591610462
 30
0.0
 11
2.365915354330708
 21
6.436336867201013
 31
0.0
  0
LINE
  5
2E9D
330
1E
100
AcDbEntity
  8
0
100
AcDbLine
 10
1.136822834645669
 20
5.771784701846682
 30
0.0
 11
1.636881889763779
 21
5.771784701846682
 31
0.0
  0
LINE
  5
2E9E
330
1E
100
AcDbEntity
  8
0
100
AcDbLine
 10
1.680308070866141
 20
5.774416591610462
 30
0.0
 11
1.680308070866141
 21
6.436336867201013
 31
0.0
  0
LINE
  5
2E9F
330
1E
100
AcDbEntity
  8
0
100
AcDbLine
 10
1.728998031496063
 20
5.774416591610462
 30
0.0
 11
1.728998031496063
 21
6.436336867201013
 31
0.0
  0
LINE
  5
2EA0
330
1E
100
AcDbEntity
  8
0
100
AcDbLine
 10
1.092080708661417
 20
5.774416591610462
 30
0.0
 11
1.092080708661417
 21
6.436336867201013
 31
0.0
  0
LINE
  5
2EA1
330
1E
100
AcDbEntity
  8
0
100
AcDbLine
 10
2.954142716535433
 20
5.774416591610462
 30
0.0
 11
2.954142716535433
 21
6.436336867201013
 31
0.0
  0
LINE
  5
2EA2
330
1E
100
AcDbEntity
  8
0
100
AcDbLine
 10
1.917178149606299
 20
7.200900843578966
 30
0.0
 11
2.129045275590551
 21
7.200900843578966
 31
0.0
  0
LINE
  5
2EA3
330
1E
100
AcDbEntity
  8
0
100
AcDbLine
 10
1.917178149606299
 20
7.081149859326997
 30
0.0
 11
2.129045275590551
 21
7.081149859326997
 31
0.0
  0
POLYLINE
  5
2EA4
330
1E
100
AcDbEntity
  8
0
100
AcDb2dPolyline
 66
     1
 10
0.0
 20
0.0
 30
0.0
  0
VERTEX
  5
35E1
330
2EA4
100
AcDbEntity
  8
0
100
AcDbVertex
100
AcDb2dVertex
 10
2.12904527559055
 20
7.081149859326997
 30
0.0
  0
VERTEX
  5
35E2
330
2EA4
100
AcDbEntity
  8
0
100
AcDbVertex
100
AcDb2dVertex
 10
2.151416338582676
 20
7.107468756964792
 30
0.0
  0
VERTEX
  5
35E3
330
2EA4
100
AcDbEntity
  8
0
100
AcDbVertex
100
AcDb2dVertex
 10
2.159312007874015
 20
7.141683323893926
 30
0.0
  0
VERTEX
  5
35E4
330
2EA4
100
AcDbEntity
  8
0
100
AcDbVertex
100
AcDb2dVertex
 10
2.151416338582676
 20
7.174581945941171
 30
0.0
  0
VERTEX
  5
35E5
330
2EA4
100
AcDbEntity
  8
0
100
AcDbVertex
100
AcDb2dVertex
 10
2.12904527559055
 20
7.200900843578966
 30
0.0
  0
SEQEND
  5
35E6
330
2EA4
100
AcDbEntity
  8
0
  0
LINE
  5
2EAB
330
1E
100
AcDbEntity
  8
0
100
AcDbLine
 10
1.082869094488188
 20
6.944291591610462
 30
0.0
 11
1.084185039370078
 21
6.944291591610462
 31
0.0
  0
LINE
  5
2EAC
330
1E
100
AcDbEntity
  8
0
100
AcDbLine
 10
1.084185039370078
 20
6.944291591610462
 30
0.0
 11
1.084185039370078
 21
7.3377591112955
 31
0.0
  0
LINE
  5
2EAD
330
1E
100
AcDbEntity
  8
0
100
AcDbLine
 10
1.082869094488188
 20
7.3377591112955
 30
0.0
 11
1.084185039370078
 21
7.3377591112955
 31
0.0
  0
LINE
  5
2EAE
330
1E
100
AcDbEntity
  8
0
100
AcDbLine
 10
1.082869094488188
 20
7.3377591112955
 30
0.0
 11
1.082869094488188
 21
6.944291591610462
 31
0.0
  0
LINE
  5
2EAF
330
1E
100
AcDbEntity
  8
0
100
AcDbLine
 10
1.093396653543306
 20
6.935079977437233
 30
0.0
 11
1.093396653543306
 21
6.935079977437233
 31
0.0
  0
POLYLINE
  5
2EB0
330
1E
100
AcDbEntity
  8
0
100
AcDb2dPolyline
 66
     1
 10
0.0
 20
0.0
 30
0.0
  0
VERTEX
  5
35E7
330
2EB0
100
AcDbEntity
  8
0
100
AcDbVertex
100
AcDb2dVertex
 10
1.093396653543307
 20
6.935079977437234
 30
0.0
  0
VERTEX
  5
35E8
330
2EB0
100
AcDbEntity
  8
0
100
AcDbVertex
100
AcDb2dVertex
 10
1.086816929133858
 20
6.937711867201012
 30
0.0
  0
VERTEX
  5
35E9
330
2EB0
100
AcDbEntity
  8
0
100
AcDbVertex
100
AcDb2dVertex
 10
1.084185039370078
 20
6.944291591610462
 30
0.0
  0
SEQEND
  5
35EA
330
2EB0
100
AcDbEntity
  8
0
  0
POLYLINE
  5
2EB5
330
1E
100
AcDbEntity
  8
0
100
AcDb2dPolyline
 66
     1
 10
0.0
 20
0.0
 30
0.0
  0
VERTEX
  5
35EB
330
2EB5
100
AcDbEntity
  8
0
100
AcDbVertex
100
AcDb2dVertex
 10
1.093396653543307
 20
6.935079977437234
 30
0.0
  0
VERTEX
  5
35EC
330
2EB5
100
AcDbEntity
  8
0
100
AcDbVertex
100
AcDb2dVertex
 10
1.085500984251968
 20
6.937711867201012
 30
0.0
  0
VERTEX
  5
35ED
330
2EB5
100
AcDbEntity
  8
0
100
AcDbVertex
100
AcDb2dVertex
 10
1.082869094488188
 20
6.944291591610462
 30
0.0
  0
SEQEND
  5
35EE
330
2EB5
100
AcDbEntity
  8
0
  0
LINE
  5
2EBA
330
1E
100
AcDbEntity
  8
0
100
AcDbLine
 10
1.96323622047244
 20
7.219324071925422
 30
0.0
 11
1.96323622047244
 21
7.218008127043532
 31
0.0
  0
LINE
  5
2EBB
330
1E
100
AcDbEntity
  8
0
100
AcDbLine
 10
2.082987204724409
 20
7.218008127043532
 30
0.0
 11
1.96323622047244
 21
7.218008127043532
 31
0.0
  0
LINE
  5
2EBC
330
1E
100
AcDbEntity
  8
0
100
AcDbLine
 10
2.082987204724409
 20
7.219324071925422
 30
0.0
 11
2.082987204724409
 21
7.218008127043532
 31
0.0
  0
LINE
  5
2EBD
330
1E
100
AcDbEntity
  8
0
100
AcDbLine
 10
2.082987204724409
 20
7.219324071925422
 30
0.0
 11
1.96323622047244
 21
7.219324071925422
 31
0.0
  0
LINE
  5
2EBE
330
1E
100
AcDbEntity
  8
0
100
AcDbLine
 10
2.119833661417322
 20
7.208796512870303
 30
0.0
 11
1.926389763779527
 21
7.208796512870303
 31
0.0
  0
POLYLINE
  5
2EBF
330
1E
100
AcDbEntity
  8
0
100
AcDb2dPolyline
 66
     1
 10
0.0
 20
0.0
 30
0.0
  0
VERTEX
  5
35EF
330
2EBF
100
AcDbEntity
  8
0
100
AcDbVertex
100
AcDb2dVertex
 10
2.082987204724409
 20
7.218008127043533
 30
0.0
  0
VERTEX
  5
35F0
330
2EBF
100
AcDbEntity
  8
0
100
AcDbVertex
100
AcDb2dVertex
 10
2.102726377952755
 20
7.215376237279753
 30
0.0
  0
VERTEX
  5
35F1
330
2EBF
100
AcDbEntity
  8
0
100
AcDbVertex
100
AcDb2dVertex
 10
2.119833661417322
 20
7.208796512870304
 30
0.0
  0
SEQEND
  5
35F2
330
2EBF
100
AcDbEntity
  8
0
  0
POLYLINE
  5
2EC4
330
1E
100
AcDbEntity
  8
0
100
AcDb2dPolyline
 66
     1
 10
0.0
 20
0.0
 30
0.0
  0
VERTEX
  5
35F3
330
2EC4
100
AcDbEntity
  8
0
100
AcDbVertex
100
AcDb2dVertex
 10
1.926389763779527
 20
7.208796512870304
 30
0.0
  0
VERTEX
  5
35F4
330
2EC4
100
AcDbEntity
  8
0
100
AcDbVertex
100
AcDb2dVertex
 10
1.944812992125983
 20
7.215376237279753
 30
0.0
  0
VERTEX
  5
35F5
330
2EC4
100
AcDbEntity
  8
0
100
AcDbVertex
100
AcDb2dVertex
 10
1.96323622047244
 20
7.218008127043533
 30
0.0
  0
SEQEND
  5
35F6
330
2EC4
100
AcDbEntity
  8
0
  0
LINE
  5
2EC9
330
1E
100
AcDbEntity
  8
0
100
AcDbLine
 10
2.119833661417322
 20
7.208796512870303
 30
0.0
 11
2.129045275590551
 21
7.200900843578966
 31
0.0
  0
LINE
  5
2ECA
330
1E
100
AcDbEntity
  8
0
100
AcDbLine
 10
1.917178149606299
 20
7.200900843578966
 30
0.0
 11
1.926389763779527
 21
7.208796512870303
 31
0.0
  0
POLYLINE
  5
2ECB
330
1E
100
AcDbEntity
  8
0
100
AcDb2dPolyline
 66
     1
 10
0.0
 20
0.0
 30
0.0
  0
VERTEX
  5
35F7
330
2ECB
100
AcDbEntity
  8
0
100
AcDbVertex
100
AcDb2dVertex
 10
1.917178149606299
 20
7.200900843578966
 30
0.0
  0
VERTEX
  5
35F8
330
2ECB
100
AcDbEntity
  8
0
100
AcDbVertex
100
AcDb2dVertex
 10
1.894807086614173
 20
7.174581945941171
 30
0.0
  0
VERTEX
  5
35F9
330
2ECB
100
AcDbEntity
  8
0
100
AcDbVertex
100
AcDb2dVertex
 10
1.886911417322834
 20
7.141683323893926
 30
0.0
  0
VERTEX
  5
35FA
330
2ECB
100
AcDbEntity
  8
0
100
AcDbVertex
100
AcDb2dVertex
 10
1.894807086614173
 20
7.107468756964792
 30
0.0
  0
VERTEX
  5
35FB
330
2ECB
100
AcDbEntity
  8
0
100
AcDbVertex
100
AcDb2dVertex
 10
1.917178149606299
 20
7.081149859326997
 30
0.0
  0
SEQEND
  5
35FC
330
2ECB
100
AcDbEntity
  8
0
  0
LINE
  5
2ED2
330
1E
100
AcDbEntity
  8
0
100
AcDbLine
 10
2.119833661417322
 20
7.073254190035658
 30
0.0
 11
1.926389763779527
 21
7.073254190035658
 31
0.0
  0
LINE
  5
2ED3
330
1E
100
AcDbEntity
  8
0
100
AcDbLine
 10
2.129045275590551
 20
7.081149859326997
 30
0.0
 11
2.119833661417322
 21
7.073254190035658
 31
0.0
  0
LINE
  5
2ED4
330
1E
100
AcDbEntity
  8
0
100
AcDbLine
 10
1.926389763779527
 20
7.073254190035658
 30
0.0
 11
1.917178149606299
 21
7.081149859326997
 31
0.0
  0
POLYLINE
  5
2ED5
330
1E
100
AcDbEntity
  8
0
100
AcDb2dPolyline
 66
     1
 10
0.0
 20
0.0
 30
0.0
  0
VERTEX
  5
35FD
330
2ED5
100
AcDbEntity
  8
0
100
AcDbVertex
100
AcDb2dVertex
 10
1.96323622047244
 20
7.065358520744321
 30
0.0
  0
VERTEX
  5
35FE
330
2ED5
100
AcDbEntity
  8
0
100
AcDbVertex
100
AcDb2dVertex
 10
1.944812992125983
 20
7.066674465626209
 30
0.0
  0
VERTEX
  5
35FF
330
2ED5
100
AcDbEntity
  8
0
100
AcDbVertex
100
AcDb2dVertex
 10
1.926389763779527
 20
7.073254190035657
 30
0.0
  0
SEQEND
  5
3600
330
2ED5
100
AcDbEntity
  8
0
  0
LINE
  5
2EDA
330
1E
100
AcDbEntity
  8
0
100
AcDbLine
 10
2.082987204724409
 20
7.06535852074432
 30
0.0
 11
1.96323622047244
 21
7.06535852074432
 31
0.0
  0
POLYLINE
  5
2EDB
330
1E
100
AcDbEntity
  8
0
100
AcDb2dPolyline
 66
     1
 10
0.0
 20
0.0
 30
0.0
  0
VERTEX
  5
3601
330
2EDB
100
AcDbEntity
  8
0
100
AcDbVertex
100
AcDb2dVertex
 10
2.119833661417322
 20
7.073254190035657
 30
0.0
  0
VERTEX
  5
3602
330
2EDB
100
AcDbEntity
  8
0
100
AcDbVertex
100
AcDb2dVertex
 10
2.102726377952755
 20
7.066674465626209
 30
0.0
  0
VERTEX
  5
3603
330
2EDB
100
AcDbEntity
  8
0
100
AcDbVertex
100
AcDb2dVertex
 10
2.082987204724409
 20
7.065358520744321
 30
0.0
  0
SEQEND
  5
3604
330
2EDB
100
AcDbEntity
  8
0
  0
LINE
  5
2EE0
330
1E
100
AcDbEntity
  8
0
100
AcDbLine
 10
1.96323622047244
 20
7.06535852074432
 30
0.0
 11
1.96323622047244
 21
7.06404257586243
 31
0.0
  0
LINE
  5
2EE1
330
1E
100
AcDbEntity
  8
0
100
AcDbLine
 10
1.96323622047244
 20
7.06404257586243
 30
0.0
 11
2.082987204724409
 21
7.06404257586243
 31
0.0
  0
LINE
  5
2EE2
330
1E
100
AcDbEntity
  8
0
100
AcDbLine
 10
2.082987204724409
 20
7.06535852074432
 30
0.0
 11
2.082987204724409
 21
7.06404257586243
 31
0.0
  0
LINE
  5
2EE3
330
1E
100
AcDbEntity
  8
0
100
AcDbLine
 10
1.96323622047244
 20
7.291701040429359
 30
0.0
 11
1.96323622047244
 21
7.293016985311249
 31
0.0
  0
LINE
  5
2EE4
330
1E
100
AcDbEntity
  8
0
100
AcDbLine
 10
2.082987204724409
 20
7.291701040429359
 30
0.0
 11
1.96323622047244
 21
7.291701040429359
 31
0.0
  0
LINE
  5
2EE5
330
1E
100
AcDbEntity
  8
0
100
AcDbLine
 10
2.082987204724409
 20
7.293016985311249
 30
0.0
 11
2.082987204724409
 21
7.291701040429359
 31
0.0
  0
LINE
  5
2EE6
330
1E
100
AcDbEntity
  8
0
100
AcDbLine
 10
2.082987204724409
 20
7.293016985311249
 30
0.0
 11
1.96323622047244
 21
7.293016985311249
 31
0.0
  0
POLYLINE
  5
2EE7
330
1E
100
AcDbEntity
  8
0
100
AcDb2dPolyline
 66
     1
 10
0.0
 20
0.0
 30
0.0
  0
VERTEX
  5
3605
330
2EE7
100
AcDbEntity
  8
0
100
AcDbVertex
100
AcDb2dVertex
 10
1.084185039370078
 20
7.337759111295501
 30
0.0
  0
VERTEX
  5
3606
330
2EE7
100
AcDbEntity
  8
0
100
AcDbVertex
100
AcDb2dVertex
 10
1.086816929133858
 20
7.34433883570495
 30
0.0
  0
VERTEX
  5
3607
330
2EE7
100
AcDbEntity
  8
0
100
AcDbVertex
100
AcDb2dVertex
 10
1.093396653543307
 20
7.34697072546873
 30
0.0
  0
SEQEND
  5
3608
330
2EE7
100
AcDbEntity
  8
0
  0
LINE
  5
2EEC
330
1E
100
AcDbEntity
  8
0
100
AcDbLine
 10
1.093396653543306
 20
7.348286670350619
 30
0.0
 11
1.093396653543306
 21
7.34697072546873
 31
0.0
  0
POLYLINE
  5
2EED
330
1E
100
AcDbEntity
  8
0
100
AcDb2dPolyline
 66
     1
 10
0.0
 20
0.0
 30
0.0
  0
VERTEX
  5
3609
330
2EED
100
AcDbEntity
  8
0
100
AcDbVertex
100
AcDb2dVertex
 10
1.082869094488188
 20
7.337759111295501
 30
0.0
  0
VERTEX
  5
360A
330
2EED
100
AcDbEntity
  8
0
100
AcDbVertex
100
AcDb2dVertex
 10
1.085500984251968
 20
7.34433883570495
 30
0.0
  0
VERTEX
  5
360B
330
2EED
100
AcDbEntity
  8
0
100
AcDbVertex
100
AcDb2dVertex
 10
1.093396653543307
 20
7.34828667035062
 30
0.0
  0
SEQEND
  5
360C
330
2EED
100
AcDbEntity
  8
0
  0
LINE
  5
2EF2
330
1E
100
AcDbEntity
  8
0
100
AcDbLine
 10
2.952826771653543
 20
7.348286670350619
 30
0.0
 11
2.952826771653543
 21
7.34697072546873
 31
0.0
  0
POLYLINE
  5
2EF3
330
1E
100
AcDbEntity
  8
0
100
AcDb2dPolyline
 66
     1
 10
0.0
 20
0.0
 30
0.0
  0
VERTEX
  5
360D
330
2EF3
100
AcDbEntity
  8
0
100
AcDbVertex
100
AcDb2dVertex
 10
2.952826771653542
 20
7.34697072546873
 30
0.0
  0
VERTEX
  5
360E
330
2EF3
100
AcDbEntity
  8
0
100
AcDbVertex
100
AcDb2dVertex
 10
2.959406496062991
 20
7.34433883570495
 30
0.0
  0
VERTEX
  5
360F
330
2EF3
100
AcDbEntity
  8
0
100
AcDbVertex
100
AcDb2dVertex
 10
2.963354330708661
 20
7.337759111295501
 30
0.0
  0
SEQEND
  5
3610
330
2EF3
100
AcDbEntity
  8
0
  0
LINE
  5
2EF8
330
1E
100
AcDbEntity
  8
0
100
AcDbLine
 10
2.963354330708661
 20
7.3377591112955
 30
0.0
 11
2.963354330708661
 21
7.3377591112955
 31
0.0
  0
POLYLINE
  5
2EF9
330
1E
100
AcDbEntity
  8
0
100
AcDb2dPolyline
 66
     1
 10
0.0
 20
0.0
 30
0.0
  0
VERTEX
  5
3611
330
2EF9
100
AcDbEntity
  8
0
100
AcDbVertex
100
AcDb2dVertex
 10
2.952826771653542
 20
7.34828667035062
 30
0.0
  0
VERTEX
  5
3612
330
2EF9
100
AcDbEntity
  8
0
100
AcDbVertex
100
AcDb2dVertex
 10
2.960722440944881
 20
7.34433883570495
 30
0.0
  0
VERTEX
  5
3613
330
2EF9
100
AcDbEntity
  8
0
100
AcDbVertex
100
AcDb2dVertex
 10
2.963354330708661
 20
7.337759111295501
 30
0.0
  0
SEQEND
  5
3614
330
2EF9
100
AcDbEntity
  8
0
  0
LINE
  5
2EFE
330
1E
100
AcDbEntity
  8
0
100
AcDbLine
 10
2.963354330708661
 20
7.3377591112955
 30
0.0
 11
2.963354330708661
 21
6.944291591610462
 31
0.0
  0
LINE
  5
2EFF
330
1E
100
AcDbEntity
  8
0
100
AcDbLine
 10
2.963354330708661
 20
6.944291591610462
 30
0.0
 11
2.963354330708661
 21
6.944291591610462
 31
0.0
  0
LINE
  5
2F00
330
1E
100
AcDbEntity
  8
0
100
AcDbLine
 10
2.963354330708661
 20
7.3377591112955
 30
0.0
 11
2.963354330708661
 21
6.944291591610462
 31
0.0
  0
POLYLINE
  5
2F01
330
1E
100
AcDbEntity
  8
0
100
AcDb2dPolyline
 66
     1
 10
0.0
 20
0.0
 30
0.0
  0
VERTEX
  5
3615
330
2F01
100
AcDbEntity
  8
0
100
AcDbVertex
100
AcDb2dVertex
 10
2.963354330708661
 20
6.944291591610462
 30
0.0
  0
VERTEX
  5
3616
330
2F01
100
AcDbEntity
  8
0
100
AcDbVertex
100
AcDb2dVertex
 10
2.959406496062991
 20
6.937711867201012
 30
0.0
  0
VERTEX
  5
3617
330
2F01
100
AcDbEntity
  8
0
100
AcDbVertex
100
AcDb2dVertex
 10
2.952826771653542
 20
6.935079977437234
 30
0.0
  0
SEQEND
  5
3618
330
2F01
100
AcDbEntity
  8
0
  0
LINE
  5
2F06
330
1E
100
AcDbEntity
  8
0
100
AcDbLine
 10
2.952826771653543
 20
6.935079977437233
 30
0.0
 11
2.952826771653543
 21
6.935079977437233
 31
0.0
  0
POLYLINE
  5
2F07
330
1E
100
AcDbEntity
  8
0
100
AcDb2dPolyline
 66
     1
 10
0.0
 20
0.0
 30
0.0
  0
VERTEX
  5
3619
330
2F07
100
AcDbEntity
  8
0
100
AcDbVertex
100
AcDb2dVertex
 10
2.963354330708661
 20
6.944291591610462
 30
0.0
  0
VERTEX
  5
361A
330
2F07
100
AcDbEntity
  8
0
100
AcDbVertex
100
AcDb2dVertex
 10
2.960722440944881
 20
6.937711867201012
 30
0.0
  0
VERTEX
  5
361B
330
2F07
100
AcDbEntity
  8
0
100
AcDbVertex
100
AcDb2dVertex
 10
2.952826771653542
 20
6.935079977437234
 30
0.0
  0
SEQEND
  5
361C
330
2F07
100
AcDbEntity
  8
0
  0
LINE
  5
2F0C
330
1E
100
AcDbEntity
  8
0
100
AcDbLine
 10
1.590823818897638
 20
6.836384111295501
 30
0.0
 11
1.589507874015748
 21
6.836384111295501
 31
0.0
  0
LINE
  5
2F0D
330
1E
100
AcDbEntity
  8
0
100
AcDbLine
 10
1.590823818897638
 20
6.836384111295501
 30
0.0
 11
1.598719488188976
 21
6.844279780586839
 31
0.0
  0
LINE
  5
2F0E
330
1E
100
AcDbEntity
  8
0
100
AcDbLine
 10
1.597403543307086
 20
6.845595725468729
 30
0.0
 11
1.598719488188976
 21
6.844279780586839
 31
0.0
  0
LINE
  5
2F0F
330
1E
100
AcDbEntity
  8
0
100
AcDbLine
 10
1.589507874015748
 20
6.83770005617739
 30
0.0
 11
1.597403543307086
 21
6.845595725468729
 31
0.0
  0
LINE
  5
2F10
330
1E
100
AcDbEntity
  8
0
100
AcDbLine
 10
1.334214566929134
 20
6.844279780586839
 30
0.0
 11
1.336846456692913
 21
6.845595725468729
 31
0.0
  0
LINE
  5
2F11
330
1E
100
AcDbEntity
  8
0
100
AcDbLine
 10
1.334214566929134
 20
6.844279780586839
 30
0.0
 11
1.343426181102362
 21
6.836384111295501
 31
0.0
  0
LINE
  5
2F12
330
1E
100
AcDbEntity
  8
0
100
AcDbLine
 10
1.343426181102362
 20
6.836384111295501
 30
0.0
 11
1.343426181102362
 21
6.836384111295501
 31
0.0
  0
LINE
  5
2F13
330
1E
100
AcDbEntity
  8
0
100
AcDbLine
 10
1.336846456692913
 20
6.845595725468729
 30
0.0
 11
1.344742125984252
 21
6.83770005617739
 31
0.0
  0
LINE
  5
2F14
330
1E
100
AcDbEntity
  8
0
100
AcDbLine
 10
1.343426181102362
 20
6.836384111295501
 30
0.0
 11
1.343426181102362
 21
6.836384111295501
 31
0.0
  0
LINE
  5
2F15
330
1E
100
AcDbEntity
  8
0
100
AcDbLine
 10
1.589507874015748
 20
6.836384111295501
 30
0.0
 11
1.590823818897638
 21
6.836384111295501
 31
0.0
  0
LINE
  5
2F16
330
1E
100
AcDbEntity
  8
0
100
AcDbLine
 10
2.702797244094488
 20
6.836384111295501
 30
0.0
 11
2.704113188976378
 21
6.836384111295501
 31
0.0
  0
LINE
  5
2F17
330
1E
100
AcDbEntity
  8
0
100
AcDbLine
 10
2.704113188976378
 20
6.836384111295501
 30
0.0
 11
2.702797244094488
 21
6.836384111295501
 31
0.0
  0
LINE
  5
2F18
330
1E
100
AcDbEntity
  8
0
100
AcDbLine
 10
2.704113188976378
 20
6.836384111295501
 30
0.0
 11
2.712008858267716
 21
6.844279780586839
 31
0.0
  0
LINE
  5
2F19
330
1E
100
AcDbEntity
  8
0
100
AcDbLine
 10
2.710692913385826
 20
6.845595725468729
 30
0.0
 11
2.712008858267716
 21
6.844279780586839
 31
0.0
  0
LINE
  5
2F1A
330
1E
100
AcDbEntity
  8
0
100
AcDbLine
 10
2.701481299212598
 20
6.83770005617739
 30
0.0
 11
2.710692913385826
 21
6.845595725468729
 31
0.0
  0
LINE
  5
2F1B
330
1E
100
AcDbEntity
  8
0
100
AcDbLine
 10
2.447503937007874
 20
6.844279780586839
 30
0.0
 11
2.448819881889763
 21
6.845595725468729
 31
0.0
  0
LINE
  5
2F1C
330
1E
100
AcDbEntity
  8
0
100
AcDbLine
 10
2.447503937007874
 20
6.844279780586839
 30
0.0
 11
2.455399606299212
 21
6.836384111295501
 31
0.0
  0
LINE
  5
2F1D
330
1E
100
AcDbEntity
  8
0
100
AcDbLine
 10
2.456715551181102
 20
6.836384111295501
 30
0.0
 11
2.455399606299212
 21
6.836384111295501
 31
0.0
  0
LINE
  5
2F1E
330
1E
100
AcDbEntity
  8
0
100
AcDbLine
 10
2.448819881889763
 20
6.845595725468729
 30
0.0
 11
2.458031496062992
 21
6.83770005617739
 31
0.0
  0
LINE
  5
2F1F
330
1E
100
AcDbEntity
  8
0
100
AcDbLine
 10
2.455399606299212
 20
6.836384111295501
 30
0.0
 11
2.456715551181102
 21
6.836384111295501
 31
0.0
  0
LINE
  5
2F20
330
1E
100
AcDbEntity
  8
0
100
AcDbLine
 10
1.132875
 20
6.935079977437233
 30
0.0
 11
1.093396653543306
 21
6.935079977437233
 31
0.0
  0
LINE
  5
2F21
330
1E
100
AcDbEntity
  8
0
100
AcDbLine
 10
1.093396653543306
 20
7.34697072546873
 30
0.0
 11
1.132875
 21
7.34697072546873
 31
0.0
  0
LINE
  5
2F22
330
1E
100
AcDbEntity
  8
0
100
AcDbLine
 10
1.336846456692913
 20
6.869282733342744
 30
0.0
 11
1.334214566929134
 21
6.874546512870304
 31
0.0
  0
LINE
  5
2F23
330
1E
100
AcDbEntity
  8
0
100
AcDbLine
 10
1.334214566929134
 20
6.874546512870304
 30
0.0
 11
1.334214566929134
 21
6.844279780586839
 31
0.0
  0
LINE
  5
2F24
330
1E
100
AcDbEntity
  8
0
100
AcDbLine
 10
1.336846456692913
 20
6.869282733342744
 30
0.0
 11
1.336846456692913
 21
6.845595725468729
 31
0.0
  0
LINE
  5
2F25
330
1E
100
AcDbEntity
  8
0
100
AcDbLine
 10
1.528974409448818
 20
6.877178402634084
 30
0.0
 11
1.527658464566928
 21
6.875862457752194
 31
0.0
  0
LINE
  5
2F26
330
1E
100
AcDbEntity
  8
0
100
AcDbLine
 10
1.403959645669291
 20
6.877178402634084
 30
0.0
 11
1.40527559055118
 21
6.875862457752194
 31
0.0
  0
LINE
  5
2F27
330
1E
100
AcDbEntity
  8
0
100
AcDbLine
 10
1.598719488188976
 20
6.844279780586839
 30
0.0
 11
1.598719488188976
 21
6.874546512870304
 31
0.0
  0
LINE
  5
2F28
330
1E
100
AcDbEntity
  8
0
100
AcDbLine
 10
1.598719488188976
 20
6.874546512870304
 30
0.0
 11
1.597403543307086
 21
6.869282733342744
 31
0.0
  0
LINE
  5
2F29
330
1E
100
AcDbEntity
  8
0
100
AcDbLine
 10
1.597403543307086
 20
6.845595725468729
 30
0.0
 11
1.597403543307086
 21
6.869282733342744
 31
0.0
  0
LINE
  5
2F2A
330
1E
100
AcDbEntity
  8
0
100
AcDbLine
 10
2.098778543307086
 20
6.919288638854556
 30
0.0
 11
2.100094488188976
 21
6.917972693972665
 31
0.0
  0
POLYLINE
  5
2F2B
330
1E
100
AcDbEntity
  8
0
100
AcDb2dPolyline
 66
     1
 10
0.0
 20
0.0
 30
0.0
  0
VERTEX
  5
361D
330
2F2B
100
AcDbEntity
  8
0
100
AcDbVertex
100
AcDb2dVertex
 10
2.093514763779527
 20
6.919288638854557
 30
0.0
  0
VERTEX
  5
361E
330
2F2B
100
AcDbEntity
  8
0
100
AcDbVertex
100
AcDb2dVertex
 10
2.096146653543306
 20
6.919288638854557
 30
0.0
  0
VERTEX
  5
361F
330
2F2B
100
AcDbEntity
  8
0
100
AcDbVertex
100
AcDb2dVertex
 10
2.098778543307086
 20
6.919288638854557
 30
0.0
  0
SEQEND
  5
3620
330
2F2B
100
AcDbEntity
  8
0
  0
POLYLINE
  5
2F30
330
1E
100
AcDbEntity
  8
0
100
AcDb2dPolyline
 66
     1
 10
0.0
 20
0.0
 30
0.0
  0
VERTEX
  5
3621
330
2F30
100
AcDbEntity
  8
0
100
AcDbVertex
100
AcDb2dVertex
 10
2.082987204724409
 20
7.064042575862429
 30
0.0
  0
VERTEX
  5
3622
330
2F30
100
AcDbEntity
  8
0
100
AcDbVertex
100
AcDb2dVertex
 10
2.090882874015747
 20
7.065358520744321
 30
0.0
  0
VERTEX
  5
3623
330
2F30
100
AcDbEntity
  8
0
100
AcDbVertex
100
AcDb2dVertex
 10
2.098778543307086
 20
7.066674465626209
 30
0.0
  0
SEQEND
  5
3624
330
2F30
100
AcDbEntity
  8
0
  0
LINE
  5
2F35
330
1E
100
AcDbEntity
  8
0
100
AcDbLine
 10
2.098778543307086
 20
7.06667446562621
 30
0.0
 11
2.100094488188976
 21
7.06535852074432
 31
0.0
  0
POLYLINE
  5
2F36
330
1E
100
AcDbEntity
  8
0
100
AcDb2dPolyline
 66
     1
 10
0.0
 20
0.0
 30
0.0
  0
VERTEX
  5
3625
330
2F36
100
AcDbEntity
  8
0
100
AcDbVertex
100
AcDb2dVertex
 10
2.082987204724409
 20
7.219324071925421
 30
0.0
  0
VERTEX
  5
3626
330
2F36
100
AcDbEntity
  8
0
100
AcDbVertex
100
AcDb2dVertex
 10
2.114569881889763
 20
7.212744347515973
 30
0.0
  0
VERTEX
  5
3627
330
2F36
100
AcDbEntity
  8
0
100
AcDbVertex
100
AcDb2dVertex
 10
2.140888779527558
 20
7.193005174287626
 30
0.0
  0
VERTEX
  5
3628
330
2F36
100
AcDbEntity
  8
0
100
AcDbVertex
100
AcDb2dVertex
 10
2.157996062992125
 20
7.165370331767943
 30
0.0
  0
VERTEX
  5
3629
330
2F36
100
AcDbEntity
  8
0
100
AcDbVertex
100
AcDb2dVertex
 10
2.160627952755905
 20
7.133787654602588
 30
0.0
  0
VERTEX
  5
362A
330
2F36
100
AcDbEntity
  8
0
100
AcDbVertex
100
AcDb2dVertex
 10
2.151416338582676
 20
7.102204977437234
 30
0.0
  0
VERTEX
  5
362B
330
2F36
100
AcDbEntity
  8
0
100
AcDbVertex
100
AcDb2dVertex
 10
2.12904527559055
 20
7.078517969563217
 30
0.0
  0
VERTEX
  5
362C
330
2F36
100
AcDbEntity
  8
0
100
AcDbVertex
100
AcDb2dVertex
 10
2.100094488188976
 20
7.065358520744321
 30
0.0
  0
SEQEND
  5
362D
330
2F36
100
AcDbEntity
  8
0
  0
POLYLINE
  5
2F40
330
1E
100
AcDbEntity
  8
0
100
AcDb2dPolyline
 66
     1
 10
0.0
 20
0.0
 30
0.0
  0
VERTEX
  5
362E
330
2F40
100
AcDbEntity
  8
0
100
AcDbVertex
100
AcDb2dVertex
 10
2.082987204724409
 20
7.29170104042936
 30
0.0
  0
VERTEX
  5
362F
330
2F40
100
AcDbEntity
  8
0
100
AcDbVertex
100
AcDb2dVertex
 10
2.123781496062992
 20
7.286437260901799
 30
0.0
  0
VERTEX
  5
3630
330
2F40
100
AcDbEntity
  8
0
100
AcDbVertex
100
AcDb2dVertex
 10
2.161943897637795
 20
7.269329977437233
 30
0.0
  0
VERTEX
  5
3631
330
2F40
100
AcDbEntity
  8
0
100
AcDbVertex
100
AcDb2dVertex
 10
2.193526574803149
 20
7.243011079799438
 30
0.0
  0
VERTEX
  5
3632
330
2F40
100
AcDbEntity
  8
0
100
AcDbVertex
100
AcDb2dVertex
 10
2.217213582677165
 20
7.208796512870304
 30
0.0
  0
VERTEX
  5
3633
330
2F40
100
AcDbEntity
  8
0
100
AcDbVertex
100
AcDb2dVertex
 10
2.230373031496062
 20
7.170634111295501
 30
0.0
  0
VERTEX
  5
3634
330
2F40
100
AcDbEntity
  8
0
100
AcDbVertex
100
AcDb2dVertex
 10
2.233004921259842
 20
7.128523875075029
 30
0.0
  0
VERTEX
  5
3635
330
2F40
100
AcDbEntity
  8
0
100
AcDbVertex
100
AcDb2dVertex
 10
2.223793307086613
 20
7.089045528618336
 30
0.0
  0
VERTEX
  5
3636
330
2F40
100
AcDbEntity
  8
0
100
AcDbVertex
100
AcDb2dVertex
 10
2.204054133858267
 20
7.052199071925422
 30
0.0
  0
VERTEX
  5
3637
330
2F40
100
AcDbEntity
  8
0
100
AcDbVertex
100
AcDb2dVertex
 10
2.175103346456692
 20
7.021932339641957
 30
0.0
  0
VERTEX
  5
3638
330
2F40
100
AcDbEntity
  8
0
100
AcDbVertex
100
AcDb2dVertex
 10
2.139572834645669
 20
7.002193166413612
 30
0.0
  0
VERTEX
  5
3639
330
2F40
100
AcDbEntity
  8
0
100
AcDbVertex
100
AcDb2dVertex
 10
2.100094488188976
 20
6.991665607358494
 30
0.0
  0
SEQEND
  5
363A
330
2F40
100
AcDbEntity
  8
0
  0
LINE
  5
2F4E
330
1E
100
AcDbEntity
  8
0
100
AcDbLine
 10
2.100094488188976
 20
6.991665607358493
 30
0.0
 11
2.102726377952755
 21
6.990349662476603
 31
0.0
  0
POLYLINE
  5
2F4F
330
1E
100
AcDbEntity
  8
0
100
AcDb2dPolyline
 66
     1
 10
0.0
 20
0.0
 30
0.0
  0
VERTEX
  5
363B
330
2F4F
100
AcDbEntity
  8
0
100
AcDbVertex
100
AcDb2dVertex
 10
2.102726377952755
 20
6.990349662476602
 30
0.0
  0
VERTEX
  5
363C
330
2F4F
100
AcDbEntity
  8
0
100
AcDbVertex
100
AcDb2dVertex
 10
2.143520669291338
 20
7.00087722153172
 30
0.0
  0
VERTEX
  5
363D
330
2F4F
100
AcDbEntity
  8
0
100
AcDbVertex
100
AcDb2dVertex
 10
2.179051181102361
 20
7.023248284523847
 30
0.0
  0
VERTEX
  5
363E
330
2F4F
100
AcDbEntity
  8
0
100
AcDbVertex
100
AcDb2dVertex
 10
2.206686023622046
 20
7.053515016807311
 30
0.0
  0
VERTEX
  5
363F
330
2F4F
100
AcDbEntity
  8
0
100
AcDbVertex
100
AcDb2dVertex
 10
2.226425196850393
 20
7.090361473500224
 30
0.0
  0
VERTEX
  5
3640
330
2F4F
100
AcDbEntity
  8
0
100
AcDbVertex
100
AcDb2dVertex
 10
2.235636811023621
 20
7.129839819956917
 30
0.0
  0
VERTEX
  5
3641
330
2F4F
100
AcDbEntity
  8
0
100
AcDbVertex
100
AcDb2dVertex
 10
2.233004921259842
 20
7.171950056177391
 30
0.0
  0
VERTEX
  5
3642
330
2F4F
100
AcDbEntity
  8
0
100
AcDbVertex
100
AcDb2dVertex
 10
2.218529527559055
 20
7.211428402634084
 30
0.0
  0
VERTEX
  5
3643
330
2F4F
100
AcDbEntity
  8
0
100
AcDbVertex
100
AcDb2dVertex
 10
2.194842519685039
 20
7.245642969563218
 30
0.0
  0
VERTEX
  5
3644
330
2F4F
100
AcDbEntity
  8
0
100
AcDbVertex
100
AcDb2dVertex
 10
2.161943897637795
 20
7.270645922319123
 30
0.0
  0
VERTEX
  5
3645
330
2F4F
100
AcDbEntity
  8
0
100
AcDbVertex
100
AcDb2dVertex
 10
2.125097440944881
 20
7.28775320578369
 30
0.0
  0
VERTEX
  5
3646
330
2F4F
100
AcDbEntity
  8
0
100
AcDbVertex
100
AcDb2dVertex
 10
2.082987204724409
 20
7.293016985311248
 30
0.0
  0
SEQEND
  5
3647
330
2F4F
100
AcDbEntity
  8
0
  0
LINE
  5
2F5D
330
1E
100
AcDbEntity
  8
0
100
AcDbLine
 10
3.046258858267716
 20
7.357498284523847
 30
0.0
 11
3.046258858267716
 21
6.925868363264005
 31
0.0
  0
POLYLINE
  5
2F5E
330
1E
100
AcDbEntity
  8
0
100
AcDb2dPolyline
 66
     1
 10
0.0
 20
0.0
 30
0.0
  0
VERTEX
  5
3648
330
2F5E
100
AcDbEntity
  8
0
100
AcDbVertex
100
AcDb2dVertex
 10
3.046258858267716
 20
7.357498284523848
 30
0.0
  0
VERTEX
  5
3649
330
2F5E
100
AcDbEntity
  8
0
100
AcDbVertex
100
AcDb2dVertex
 10
3.042311023622046
 20
7.371973678224635
 30
0.0
  0
VERTEX
  5
364A
330
2F5E
100
AcDbEntity
  8
0
100
AcDbVertex
100
AcDb2dVertex
 10
3.030467519685038
 20
7.383817182161643
 30
0.0
  0
VERTEX
  5
364B
330
2F5E
100
AcDbEntity
  8
0
100
AcDbVertex
100
AcDb2dVertex
 10
3.015992125984251
 20
7.387765016807311
 30
0.0
  0
SEQEND
  5
364C
330
2F5E
100
AcDbEntity
  8
0
  0
LINE
  5
2F64
330
1E
100
AcDbEntity
  8
0
100
AcDbLine
 10
1.030231299212598
 20
7.387765016807311
 30
0.0
 11
3.015992125984251
 21
7.387765016807311
 31
0.0
  0
POLYLINE
  5
2F65
330
1E
100
AcDbEntity
  8
0
100
AcDb2dPolyline
 66
     1
 10
0.0
 20
0.0
 30
0.0
  0
VERTEX
  5
364D
330
2F65
100
AcDbEntity
  8
0
100
AcDbVertex
100
AcDb2dVertex
 10
1.030231299212598
 20
7.387765016807311
 30
0.0
  0
VERTEX
  5
364E
330
2F65
100
AcDbEntity
  8
0
100
AcDbVertex
100
AcDb2dVertex
 10
1.015755905511811
 20
7.383817182161643
 30
0.0
  0
VERTEX
  5
364F
330
2F65
100
AcDbEntity
  8
0
100
AcDbVertex
100
AcDb2dVertex
 10
1.005228346456693
 20
7.371973678224635
 30
0.0
  0
VERTEX
  5
3650
330
2F65
100
AcDbEntity
  8
0
100
AcDbVertex
100
AcDb2dVertex
 10
0.9999645669291339
 20
7.357498284523848
 30
0.0
  0
SEQEND
  5
3651
330
2F65
100
AcDbEntity
  8
0
  0
LINE
  5
2F6B
330
1E
100
AcDbEntity
  8
0
100
AcDbLine
 10
0.9999645669291336
 20
6.925868363264005
 30
0.0
 11
0.9999645669291336
 21
7.357498284523847
 31
0.0
  0
POLYLINE
  5
2F6C
330
1E
100
AcDbEntity
  8
0
100
AcDb2dPolyline
 66
     1
 10
0.0
 20
0.0
 30
0.0
  0
VERTEX
  5
3652
330
2F6C
100
AcDbEntity
  8
0
100
AcDbVertex
100
AcDb2dVertex
 10
0.9999645669291339
 20
6.925868363264005
 30
0.0
  0
VERTEX
  5
3653
330
2F6C
100
AcDbEntity
  8
0
100
AcDbVertex
100
AcDb2dVertex
 10
1.005228346456693
 20
6.910077024681327
 30
0.0
  0
VERTEX
  5
3654
330
2F6C
100
AcDbEntity
  8
0
100
AcDbVertex
100
AcDb2dVertex
 10
1.015755905511811
 20
6.89954946562621
 30
0.0
  0
VERTEX
  5
3655
330
2F6C
100
AcDbEntity
  8
0
100
AcDbVertex
100
AcDb2dVertex
 10
1.030231299212598
 20
6.89560163098054
 30
0.0
  0
SEQEND
  5
3656
330
2F6C
100
AcDbEntity
  8
0
  0
LINE
  5
2F72
330
1E
100
AcDbEntity
  8
0
100
AcDbLine
 10
1.940865157480315
 20
6.89560163098054
 30
0.0
 11
1.030231299212598
 21
6.89560163098054
 31
0.0
  0
LINE
  5
2F73
330
1E
100
AcDbEntity
  8
0
100
AcDbLine
 10
1.940865157480315
 20
6.935079977437233
 30
0.0
 11
1.940865157480315
 21
6.89560163098054
 31
0.0
  0
LINE
  5
2F74
330
1E
100
AcDbEntity
  8
0
100
AcDbLine
 10
1.093396653543306
 20
6.935079977437233
 30
0.0
 11
1.940865157480315
 21
6.935079977437233
 31
0.0
  0
LINE
  5
2F75
330
1E
100
AcDbEntity
  8
0
100
AcDbLine
 10
1.093396653543306
 20
7.348286670350619
 30
0.0
 11
2.952826771653543
 21
7.348286670350619
 31
0.0
  0
LINE
  5
2F76
330
1E
100
AcDbEntity
  8
0
100
AcDbLine
 10
2.105358267716535
 20
6.935079977437233
 30
0.0
 11
2.952826771653543
 21
6.935079977437233
 31
0.0
  0
LINE
  5
2F77
330
1E
100
AcDbEntity
  8
0
100
AcDbLine
 10
2.105358267716535
 20
6.935079977437233
 30
0.0
 11
2.105358267716535
 21
6.89560163098054
 31
0.0
  0
LINE
  5
2F78
330
1E
100
AcDbEntity
  8
0
100
AcDbLine
 10
3.015992125984251
 20
6.89560163098054
 30
0.0
 11
2.105358267716535
 21
6.89560163098054
 31
0.0
  0
POLYLINE
  5
2F79
330
1E
100
AcDbEntity
  8
0
100
AcDb2dPolyline
 66
     1
 10
0.0
 20
0.0
 30
0.0
  0
VERTEX
  5
3657
330
2F79
100
AcDbEntity
  8
0
100
AcDbVertex
100
AcDb2dVertex
 10
3.015992125984251
 20
6.89560163098054
 30
0.0
  0
VERTEX
  5
3658
330
2F79
100
AcDbEntity
  8
0
100
AcDbVertex
100
AcDb2dVertex
 10
3.030467519685038
 20
6.89954946562621
 30
0.0
  0
VERTEX
  5
3659
330
2F79
100
AcDbEntity
  8
0
100
AcDbVertex
100
AcDb2dVertex
 10
3.042311023622046
 20
6.910077024681327
 30
0.0
  0
VERTEX
  5
365A
330
2F79
100
AcDbEntity
  8
0
100
AcDbVertex
100
AcDb2dVertex
 10
3.046258858267716
 20
6.925868363264005
 30
0.0
  0
SEQEND
  5
365B
330
2F79
100
AcDbEntity
  8
0
  0
LINE
  5
2F7F
330
1E
100
AcDbEntity
  8
0
100
AcDbLine
 10
1.134190944881889
 20
6.936395922319123
 30
0.0
 11
1.943497047244094
 21
6.936395922319123
 31
0.0
  0
LINE
  5
2F80
330
1E
100
AcDbEntity
  8
0
100
AcDbLine
 10
1.134190944881889
 20
6.936395922319123
 30
0.0
 11
1.132875
 21
6.935079977437233
 31
0.0
  0
LINE
  5
2F81
330
1E
100
AcDbEntity
  8
0
100
AcDbLine
 10
1.940865157480315
 20
6.935079977437233
 30
0.0
 11
1.943497047244094
 21
6.936395922319123
 31
0.0
  0
POLYLINE
  5
2F82
330
1E
100
AcDbEntity
  8
0
100
AcDb2dPolyline
 66
     1
 10
0.0
 20
0.0
 30
0.0
  0
VERTEX
  5
365C
330
2F82
100
AcDbEntity
  8
0
100
AcDbVertex
100
AcDb2dVertex
 10
1.96323622047244
 20
7.293016985311248
 30
0.0
  0
VERTEX
  5
365D
330
2F82
100
AcDbEntity
  8
0
100
AcDbVertex
100
AcDb2dVertex
 10
1.922441929133858
 20
7.28775320578369
 30
0.0
  0
VERTEX
  5
365E
330
2F82
100
AcDbEntity
  8
0
100
AcDbVertex
100
AcDb2dVertex
 10
1.884279527559055
 20
7.270645922319123
 30
0.0
  0
VERTEX
  5
365F
330
2F82
100
AcDbEntity
  8
0
100
AcDbVertex
100
AcDb2dVertex
 10
1.85138090551181
 20
7.245642969563218
 30
0.0
  0
VERTEX
  5
3660
330
2F82
100
AcDbEntity
  8
0
100
AcDbVertex
100
AcDb2dVertex
 10
1.827693897637795
 20
7.211428402634084
 30
0.0
  0
VERTEX
  5
3661
330
2F82
100
AcDbEntity
  8
0
100
AcDbVertex
100
AcDb2dVertex
 10
1.814534448818897
 20
7.171950056177391
 30
0.0
  0
VERTEX
  5
3662
330
2F82
100
AcDbEntity
  8
0
100
AcDbVertex
100
AcDb2dVertex
 10
1.811902559055117
 20
7.129839819956917
 30
0.0
  0
VERTEX
  5
3663
330
2F82
100
AcDbEntity
  8
0
100
AcDbVertex
100
AcDb2dVertex
 10
1.819798228346456
 20
7.090361473500224
 30
0.0
  0
VERTEX
  5
3664
330
2F82
100
AcDbEntity
  8
0
100
AcDbVertex
100
AcDb2dVertex
 10
1.839537401574802
 20
7.053515016807311
 30
0.0
  0
VERTEX
  5
3665
330
2F82
100
AcDbEntity
  8
0
100
AcDbVertex
100
AcDb2dVertex
 10
1.867172244094487
 20
7.023248284523847
 30
0.0
  0
VERTEX
  5
3666
330
2F82
100
AcDbEntity
  8
0
100
AcDbVertex
100
AcDb2dVertex
 10
1.902702755905511
 20
7.00087722153172
 30
0.0
  0
VERTEX
  5
3667
330
2F82
100
AcDbEntity
  8
0
100
AcDbVertex
100
AcDb2dVertex
 10
1.943497047244094
 20
6.990349662476602
 30
0.0
  0
SEQEND
  5
3668
330
2F82
100
AcDbEntity
  8
0
  0
LINE
  5
2F90
330
1E
100
AcDbEntity
  8
0
100
AcDbLine
 10
1.943497047244094
 20
6.990349662476603
 30
0.0
 11
1.946128937007873
 21
6.991665607358493
 31
0.0
  0
POLYLINE
  5
2F91
330
1E
100
AcDbEntity
  8
0
100
AcDb2dPolyline
 66
     1
 10
0.0
 20
0.0
 30
0.0
  0
VERTEX
  5
3669
330
2F91
100
AcDbEntity
  8
0
100
AcDbVertex
100
AcDb2dVertex
 10
1.946128937007873
 20
6.991665607358494
 30
0.0
  0
VERTEX
  5
366A
330
2F91
100
AcDbEntity
  8
0
100
AcDbVertex
100
AcDb2dVertex
 10
1.906650590551181
 20
7.002193166413612
 30
0.0
  0
VERTEX
  5
366B
330
2F91
100
AcDbEntity
  8
0
100
AcDbVertex
100
AcDb2dVertex
 10
1.871120078740157
 20
7.021932339641957
 30
0.0
  0
VERTEX
  5
366C
330
2F91
100
AcDbEntity
  8
0
100
AcDbVertex
100
AcDb2dVertex
 10
1.842169291338582
 20
7.052199071925422
 30
0.0
  0
VERTEX
  5
366D
330
2F91
100
AcDbEntity
  8
0
100
AcDbVertex
100
AcDb2dVertex
 10
1.822430118110235
 20
7.089045528618336
 30
0.0
  0
VERTEX
  5
366E
330
2F91
100
AcDbEntity
  8
0
100
AcDbVertex
100
AcDb2dVertex
 10
1.813218503937007
 20
7.128523875075029
 30
0.0
  0
VERTEX
  5
366F
330
2F91
100
AcDbEntity
  8
0
100
AcDbVertex
100
AcDb2dVertex
 10
1.815850393700787
 20
7.170634111295501
 30
0.0
  0
VERTEX
  5
3670
330
2F91
100
AcDbEntity
  8
0
100
AcDbVertex
100
AcDb2dVertex
 10
1.829009842519685
 20
7.208796512870304
 30
0.0
  0
VERTEX
  5
3671
330
2F91
100
AcDbEntity
  8
0
100
AcDbVertex
100
AcDb2dVertex
 10
1.8526968503937
 20
7.243011079799438
 30
0.0
  0
VERTEX
  5
3672
330
2F91
100
AcDbEntity
  8
0
100
AcDbVertex
100
AcDb2dVertex
 10
1.884279527559055
 20
7.269329977437233
 30
0.0
  0
VERTEX
  5
3673
330
2F91
100
AcDbEntity
  8
0
100
AcDbVertex
100
AcDb2dVertex
 10
1.922441929133858
 20
7.286437260901799
 30
0.0
  0
VERTEX
  5
3674
330
2F91
100
AcDbEntity
  8
0
100
AcDbVertex
100
AcDb2dVertex
 10
1.96323622047244
 20
7.29170104042936
 30
0.0
  0
SEQEND
  5
3675
330
2F91
100
AcDbEntity
  8
0
  0
LINE
  5
2F9F
330
1E
100
AcDbEntity
  8
0
100
AcDbLine
 10
1.946128937007873
 20
6.991665607358493
 30
0.0
 11
1.946128937007873
 21
7.06535852074432
 31
0.0
  0
POLYLINE
  5
2FA0
330
1E
100
AcDbEntity
  8
0
100
AcDb2dPolyline
 66
     1
 10
0.0
 20
0.0
 30
0.0
  0
VERTEX
  5
3676
330
2FA0
100
AcDbEntity
  8
0
100
AcDbVertex
100
AcDb2dVertex
 10
1.946128937007873
 20
7.065358520744321
 30
0.0
  0
VERTEX
  5
3677
330
2FA0
100
AcDbEntity
  8
0
100
AcDbVertex
100
AcDb2dVertex
 10
1.917178149606299
 20
7.078517969563217
 30
0.0
  0
VERTEX
  5
3678
330
2FA0
100
AcDbEntity
  8
0
100
AcDbVertex
100
AcDb2dVertex
 10
1.896123031496063
 20
7.102204977437234
 30
0.0
  0
VERTEX
  5
3679
330
2FA0
100
AcDbEntity
  8
0
100
AcDbVertex
100
AcDb2dVertex
 10
1.885595472440945
 20
7.133787654602588
 30
0.0
  0
VERTEX
  5
367A
330
2FA0
100
AcDbEntity
  8
0
100
AcDbVertex
100
AcDb2dVertex
 10
1.889543307086613
 20
7.165370331767943
 30
0.0
  0
VERTEX
  5
367B
330
2FA0
100
AcDbEntity
  8
0
100
AcDbVertex
100
AcDb2dVertex
 10
1.905334645669291
 20
7.193005174287626
 30
0.0
  0
VERTEX
  5
367C
330
2FA0
100
AcDbEntity
  8
0
100
AcDbVertex
100
AcDb2dVertex
 10
1.931653543307086
 20
7.212744347515973
 30
0.0
  0
VERTEX
  5
367D
330
2FA0
100
AcDbEntity
  8
0
100
AcDbVertex
100
AcDb2dVertex
 10
1.96323622047244
 20
7.219324071925421
 30
0.0
  0
SEQEND
  5
367E
330
2FA0
100
AcDbEntity
  8
0
  0
LINE
  5
2FAA
330
1E
100
AcDbEntity
  8
0
100
AcDbLine
 10
2.100094488188976
 20
7.06535852074432
 30
0.0
 11
2.100094488188976
 21
6.991665607358493
 31
0.0
  0
LINE
  5
2FAB
330
1E
100
AcDbEntity
  8
0
100
AcDbLine
 10
1.946128937007873
 20
7.06535852074432
 30
0.0
 11
1.947444881889763
 21
7.06667446562621
 31
0.0
  0
POLYLINE
  5
2FAC
330
1E
100
AcDbEntity
  8
0
100
AcDb2dPolyline
 66
     1
 10
0.0
 20
0.0
 30
0.0
  0
VERTEX
  5
367F
330
2FAC
100
AcDbEntity
  8
0
100
AcDbVertex
100
AcDb2dVertex
 10
1.947444881889763
 20
7.066674465626209
 30
0.0
  0
VERTEX
  5
3680
330
2FAC
100
AcDbEntity
  8
0
100
AcDbVertex
100
AcDb2dVertex
 10
1.955340551181101
 20
7.065358520744321
 30
0.0
  0
VERTEX
  5
3681
330
2FAC
100
AcDbEntity
  8
0
100
AcDbVertex
100
AcDb2dVertex
 10
1.96323622047244
 20
7.064042575862429
 30
0.0
  0
SEQEND
  5
3682
330
2FAC
100
AcDbEntity
  8
0
  0
POLYLINE
  5
2FB1
330
1E
100
AcDbEntity
  8
0
100
AcDb2dPolyline
 66
     1
 10
0.0
 20
0.0
 30
0.0
  0
VERTEX
  5
3683
330
2FB1
100
AcDbEntity
  8
0
100
AcDbVertex
100
AcDb2dVertex
 10
1.947444881889763
 20
6.919288638854557
 30
0.0
  0
VERTEX
  5
3684
330
2FB1
100
AcDbEntity
  8
0
100
AcDbVertex
100
AcDb2dVertex
 10
1.950076771653543
 20
6.919288638854557
 30
0.0
  0
VERTEX
  5
3685
330
2FB1
100
AcDbEntity
  8
0
100
AcDbVertex
100
AcDb2dVertex
 10
1.952708661417322
 20
6.919288638854557
 30
0.0
  0
SEQEND
  5
3686
330
2FB1
100
AcDbEntity
  8
0
  0
LINE
  5
2FB6
330
1E
100
AcDbEntity
  8
0
100
AcDbLine
 10
2.098778543307086
 20
7.06667446562621
 30
0.0
 11
2.098778543307086
 21
6.919288638854556
 31
0.0
  0
LINE
  5
2FB7
330
1E
100
AcDbEntity
  8
0
100
AcDbLine
 10
1.947444881889763
 20
7.06667446562621
 30
0.0
 11
1.947444881889763
 21
6.919288638854556
 31
0.0
  0
LINE
  5
2FB8
330
1E
100
AcDbEntity
  8
0
100
AcDbLine
 10
1.946128937007873
 20
6.917972693972665
 30
0.0
 11
1.947444881889763
 21
6.919288638854556
 31
0.0
  0
LINE
  5
2FB9
330
1E
100
AcDbEntity
  8
0
100
AcDbLine
 10
2.448819881889763
 20
6.869282733342744
 30
0.0
 11
2.447503937007874
 21
6.874546512870304
 31
0.0
  0
LINE
  5
2FBA
330
1E
100
AcDbEntity
  8
0
100
AcDbLine
 10
2.447503937007874
 20
6.874546512870304
 30
0.0
 11
2.447503937007874
 21
6.844279780586839
 31
0.0
  0
LINE
  5
2FBB
330
1E
100
AcDbEntity
  8
0
100
AcDbLine
 10
2.448819881889763
 20
6.869282733342744
 30
0.0
 11
2.448819881889763
 21
6.845595725468729
 31
0.0
  0
LINE
  5
2FBC
330
1E
100
AcDbEntity
  8
0
100
AcDbLine
 10
2.642263779527558
 20
6.877178402634084
 30
0.0
 11
2.640947834645669
 21
6.875862457752194
 31
0.0
  0
LINE
  5
2FBD
330
1E
100
AcDbEntity
  8
0
100
AcDbLine
 10
2.51724901574803
 20
6.877178402634084
 30
0.0
 11
2.51856496062992
 21
6.875862457752194
 31
0.0
  0
LINE
  5
2FBE
330
1E
100
AcDbEntity
  8
0
100
AcDbLine
 10
2.712008858267716
 20
6.844279780586839
 30
0.0
 11
2.712008858267716
 21
6.874546512870304
 31
0.0
  0
LINE
  5
2FBF
330
1E
100
AcDbEntity
  8
0
100
AcDbLine
 10
2.712008858267716
 20
6.874546512870304
 30
0.0
 11
2.710692913385826
 21
6.869282733342744
 31
0.0
  0
LINE
  5
2FC0
330
1E
100
AcDbEntity
  8
0
100
AcDbLine
 10
2.710692913385826
 20
6.845595725468729
 30
0.0
 11
2.710692913385826
 21
6.869282733342744
 31
0.0
  0
LINE
  5
2FC1
330
1E
100
AcDbEntity
  8
0
100
AcDbLine
 10
2.102726377952755
 20
6.936395922319123
 30
0.0
 11
2.91203248031496
 21
6.936395922319123
 31
0.0
  0
LINE
  5
2FC2
330
1E
100
AcDbEntity
  8
0
100
AcDbLine
 10
2.102726377952755
 20
6.936395922319123
 30
0.0
 11
2.105358267716535
 21
6.935079977437233
 31
0.0
  0
LINE
  5
2FC3
330
1E
100
AcDbEntity
  8
0
100
AcDbLine
 10
2.952826771653543
 20
6.935079977437233
 30
0.0
 11
2.91334842519685
 21
6.935079977437233
 31
0.0
  0
LINE
  5
2FC4
330
1E
100
AcDbEntity
  8
0
100
AcDbLine
 10
2.91334842519685
 20
6.935079977437233
 30
0.0
 11
2.91203248031496
 21
6.936395922319123
 31
0.0
  0
LINE
  5
2FC5
330
1E
100
AcDbEntity
  8
0
100
AcDbLine
 10
1.134190944881889
 20
7.34697072546873
 30
0.0
 11
2.91203248031496
 21
7.34697072546873
 31
0.0
  0
LINE
  5
2FC6
330
1E
100
AcDbEntity
  8
0
100
AcDbLine
 10
1.134190944881889
 20
7.34697072546873
 30
0.0
 11
1.134190944881889
 21
6.936395922319123
 31
0.0
  0
LINE
  5
2FC7
330
1E
100
AcDbEntity
  8
0
100
AcDbLine
 10
1.943497047244094
 20
6.936395922319123
 30
0.0
 11
1.943497047244094
 21
6.990349662476603
 31
0.0
  0
LINE
  5
2FC8
330
1E
100
AcDbEntity
  8
0
100
AcDbLine
 10
2.102726377952755
 20
6.990349662476603
 30
0.0
 11
2.102726377952755
 21
6.936395922319123
 31
0.0
  0
LINE
  5
2FC9
330
1E
100
AcDbEntity
  8
0
100
AcDbLine
 10
2.91203248031496
 20
6.936395922319123
 30
0.0
 11
2.91203248031496
 21
7.34697072546873
 31
0.0
  0
LINE
  5
2FCA
330
1E
100
AcDbEntity
  8
0
100
AcDbLine
 10
1.132875
 20
7.34697072546873
 30
0.0
 11
1.134190944881889
 21
7.34697072546873
 31
0.0
  0
LINE
  5
2FCB
330
1E
100
AcDbEntity
  8
0
100
AcDbLine
 10
2.91203248031496
 20
7.34697072546873
 30
0.0
 11
2.91334842519685
 21
7.34697072546873
 31
0.0
  0
LINE
  5
2FCC
330
1E
100
AcDbEntity
  8
0
100
AcDbLine
 10
2.91334842519685
 20
7.34697072546873
 30
0.0
 11
2.952826771653543
 21
7.34697072546873
 31
0.0
  0
LINE
  5
2FCD
330
1E
100
AcDbEntity
  8
0
100
AcDbLine
 10
3.371297244094487
 20
7.752281749090776
 30
0.0
 11
3.375245078740157
 21
7.754913638854556
 31
0.0
  0
LINE
  5
2FCE
330
1E
100
AcDbEntity
  8
0
100
AcDbLine
 10
0.6709783464566926
 20
7.754913638854556
 30
0.0
 11
0.6749261811023622
 21
7.752281749090776
 31
0.0
  0
POLYLINE
  5
2FCF
330
1E
100
AcDbEntity
  8
0
100
AcDb2dPolyline
 66
     1
 10
0.0
 20
0.0
 30
0.0
  0
VERTEX
  5
3687
330
2FCF
100
AcDbEntity
  8
0
100
AcDbVertex
100
AcDb2dVertex
 10
1.606615157480314
 20
6.844279780586838
 30
0.0
  0
VERTEX
  5
3688
330
2FCF
100
AcDbEntity
  8
0
100
AcDbVertex
100
AcDb2dVertex
 10
1.601351377952756
 20
6.844279780586838
 30
0.0
  0
VERTEX
  5
3689
330
2FCF
100
AcDbEntity
  8
0
100
AcDbVertex
100
AcDb2dVertex
 10
1.598719488188976
 20
6.844279780586838
 30
0.0
  0
SEQEND
  5
368A
330
2FCF
100
AcDbEntity
  8
0
  0
POLYLINE
  5
2FD4
330
1E
100
AcDbEntity
  8
0
100
AcDb2dPolyline
 66
     1
 10
0.0
 20
0.0
 30
0.0
  0
VERTEX
  5
368B
330
2FD4
100
AcDbEntity
  8
0
100
AcDbVertex
100
AcDb2dVertex
 10
1.590823818897637
 20
6.828488442004162
 30
0.0
  0
VERTEX
  5
368C
330
2FD4
100
AcDbEntity
  8
0
100
AcDbVertex
100
AcDb2dVertex
 10
1.590823818897637
 20
6.83375222153172
 30
0.0
  0
VERTEX
  5
368D
330
2FD4
100
AcDbEntity
  8
0
100
AcDbVertex
100
AcDb2dVertex
 10
1.590823818897637
 20
6.8363841112955
 30
0.0
  0
SEQEND
  5
368E
330
2FD4
100
AcDbEntity
  8
0
  0
POLYLINE
  5
2FD9
330
1E
100
AcDbEntity
  8
0
100
AcDb2dPolyline
 66
     1
 10
0.0
 20
0.0
 30
0.0
  0
VERTEX
  5
368F
330
2FD9
100
AcDbEntity
  8
0
100
AcDbVertex
100
AcDb2dVertex
 10
1.606615157480314
 20
6.874546512870304
 30
0.0
  0
VERTEX
  5
3690
330
2FD9
100
AcDbEntity
  8
0
100
AcDbVertex
100
AcDb2dVertex
 10
1.601351377952756
 20
6.874546512870304
 30
0.0
  0
VERTEX
  5
3691
330
2FD9
100
AcDbEntity
  8
0
100
AcDbVertex
100
AcDb2dVertex
 10
1.598719488188976
 20
6.874546512870304
 30
0.0
  0
SEQEND
  5
3692
330
2FD9
100
AcDbEntity
  8
0
  0
POLYLINE
  5
2FDE
330
1E
100
AcDbEntity
  8
0
100
AcDb2dPolyline
 66
     1
 10
0.0
 20
0.0
 30
0.0
  0
VERTEX
  5
3693
330
2FDE
100
AcDbEntity
  8
0
100
AcDbVertex
100
AcDb2dVertex
 10
1.590823818897637
 20
6.89033785145298
 30
0.0
  0
VERTEX
  5
3694
330
2FDE
100
AcDbEntity
  8
0
100
AcDbVertex
100
AcDb2dVertex
 10
1.590823818897637
 20
6.885074071925422
 30
0.0
  0
VERTEX
  5
3695
330
2FDE
100
AcDbEntity
  8
0
100
AcDbVertex
100
AcDb2dVertex
 10
1.590823818897637
 20
6.882442182161644
 30
0.0
  0
SEQEND
  5
3696
330
2FDE
100
AcDbEntity
  8
0
  0
LINE
  5
2FE3
330
1E
100
AcDbEntity
  8
0
100
AcDbLine
 10
1.598719488188976
 20
6.874546512870304
 30
0.0
 11
1.590823818897638
 21
6.882442182161643
 31
0.0
  0
POLYLINE
  5
2FE4
330
1E
100
AcDbEntity
  8
0
100
AcDb2dPolyline
 66
     1
 10
0.0
 20
0.0
 30
0.0
  0
VERTEX
  5
3697
330
2FE4
100
AcDbEntity
  8
0
100
AcDbVertex
100
AcDb2dVertex
 10
1.343426181102362
 20
6.89033785145298
 30
0.0
  0
VERTEX
  5
3698
330
2FE4
100
AcDbEntity
  8
0
100
AcDbVertex
100
AcDb2dVertex
 10
1.343426181102362
 20
6.885074071925422
 30
0.0
  0
VERTEX
  5
3699
330
2FE4
100
AcDbEntity
  8
0
100
AcDbVertex
100
AcDb2dVertex
 10
1.343426181102362
 20
6.882442182161644
 30
0.0
  0
SEQEND
  5
369A
330
2FE4
100
AcDbEntity
  8
0
  0
LINE
  5
2FE9
330
1E
100
AcDbEntity
  8
0
100
AcDbLine
 10
1.590823818897638
 20
6.882442182161643
 30
0.0
 11
1.343426181102362
 21
6.882442182161643
 31
0.0
  0
POLYLINE
  5
2FEA
330
1E
100
AcDbEntity
  8
0
100
AcDb2dPolyline
 66
     1
 10
0.0
 20
0.0
 30
0.0
  0
VERTEX
  5
369B
330
2FEA
100
AcDbEntity
  8
0
100
AcDbVertex
100
AcDb2dVertex
 10
1.326318897637795
 20
6.874546512870304
 30
0.0
  0
VERTEX
  5
369C
330
2FEA
100
AcDbEntity
  8
0
100
AcDbVertex
100
AcDb2dVertex
 10
1.332898622047244
 20
6.874546512870304
 30
0.0
  0
VERTEX
  5
369D
330
2FEA
100
AcDbEntity
  8
0
100
AcDbVertex
100
AcDb2dVertex
 10
1.334214566929133
 20
6.874546512870304
 30
0.0
  0
SEQEND
  5
369E
330
2FEA
100
AcDbEntity
  8
0
  0
LINE
  5
2FEF
330
1E
100
AcDbEntity
  8
0
100
AcDbLine
 10
1.343426181102362
 20
6.882442182161643
 30
0.0
 11
1.334214566929134
 21
6.874546512870304
 31
0.0
  0
POLYLINE
  5
2FF0
330
1E
100
AcDbEntity
  8
0
100
AcDb2dPolyline
 66
     1
 10
0.0
 20
0.0
 30
0.0
  0
VERTEX
  5
369F
330
2FF0
100
AcDbEntity
  8
0
100
AcDbVertex
100
AcDb2dVertex
 10
1.334214566929133
 20
6.844279780586838
 30
0.0
  0
VERTEX
  5
36A0
330
2FF0
100
AcDbEntity
  8
0
100
AcDbVertex
100
AcDb2dVertex
 10
1.332898622047244
 20
6.844279780586838
 30
0.0
  0
VERTEX
  5
36A1
330
2FF0
100
AcDbEntity
  8
0
100
AcDbVertex
100
AcDb2dVertex
 10
1.326318897637795
 20
6.844279780586838
 30
0.0
  0
SEQEND
  5
36A2
330
2FF0
100
AcDbEntity
  8
0
  0
POLYLINE
  5
2FF5
330
1E
100
AcDbEntity
  8
0
100
AcDb2dPolyline
 66
     1
 10
0.0
 20
0.0
 30
0.0
  0
VERTEX
  5
36A3
330
2FF5
100
AcDbEntity
  8
0
100
AcDbVertex
100
AcDb2dVertex
 10
1.343426181102362
 20
6.8363841112955
 30
0.0
  0
VERTEX
  5
36A4
330
2FF5
100
AcDbEntity
  8
0
100
AcDbVertex
100
AcDb2dVertex
 10
1.343426181102362
 20
6.83375222153172
 30
0.0
  0
VERTEX
  5
36A5
330
2FF5
100
AcDbEntity
  8
0
100
AcDbVertex
100
AcDb2dVertex
 10
1.343426181102362
 20
6.828488442004162
 30
0.0
  0
SEQEND
  5
36A6
330
2FF5
100
AcDbEntity
  8
0
  0
POLYLINE
  5
2FFA
330
1E
100
AcDbEntity
  8
0
100
AcDb2dPolyline
 66
     1
 10
0.0
 20
0.0
 30
0.0
  0
VERTEX
  5
36A7
330
2FFA
100
AcDbEntity
  8
0
100
AcDbVertex
100
AcDb2dVertex
 10
2.704113188976378
 20
6.828488442004162
 30
0.0
  0
VERTEX
  5
36A8
330
2FFA
100
AcDbEntity
  8
0
100
AcDbVertex
100
AcDb2dVertex
 10
2.704113188976378
 20
6.83375222153172
 30
0.0
  0
VERTEX
  5
36A9
330
2FFA
100
AcDbEntity
  8
0
100
AcDbVertex
100
AcDb2dVertex
 10
2.704113188976378
 20
6.8363841112955
 30
0.0
  0
SEQEND
  5
36AA
330
2FFA
100
AcDbEntity
  8
0
  0
POLYLINE
  5
2FFF
330
1E
100
AcDbEntity
  8
0
100
AcDb2dPolyline
 66
     1
 10
0.0
 20
0.0
 30
0.0
  0
VERTEX
  5
36AB
330
2FFF
100
AcDbEntity
  8
0
100
AcDbVertex
100
AcDb2dVertex
 10
2.719904527559054
 20
6.844279780586838
 30
0.0
  0
VERTEX
  5
36AC
330
2FFF
100
AcDbEntity
  8
0
100
AcDbVertex
100
AcDb2dVertex
 10
2.714640748031495
 20
6.844279780586838
 30
0.0
  0
VERTEX
  5
36AD
330
2FFF
100
AcDbEntity
  8
0
100
AcDbVertex
100
AcDb2dVertex
 10
2.712008858267716
 20
6.844279780586838
 30
0.0
  0
SEQEND
  5
36AE
330
2FFF
100
AcDbEntity
  8
0
  0
POLYLINE
  5
3004
330
1E
100
AcDbEntity
  8
0
100
AcDb2dPolyline
 66
     1
 10
0.0
 20
0.0
 30
0.0
  0
VERTEX
  5
36AF
330
3004
100
AcDbEntity
  8
0
100
AcDbVertex
100
AcDb2dVertex
 10
2.712008858267716
 20
6.874546512870304
 30
0.0
  0
VERTEX
  5
36B0
330
3004
100
AcDbEntity
  8
0
100
AcDbVertex
100
AcDb2dVertex
 10
2.714640748031495
 20
6.874546512870304
 30
0.0
  0
VERTEX
  5
36B1
330
3004
100
AcDbEntity
  8
0
100
AcDbVertex
100
AcDb2dVertex
 10
2.719904527559054
 20
6.874546512870304
 30
0.0
  0
SEQEND
  5
36B2
330
3004
100
AcDbEntity
  8
0
  0
POLYLINE
  5
3009
330
1E
100
AcDbEntity
  8
0
100
AcDb2dPolyline
 66
     1
 10
0.0
 20
0.0
 30
0.0
  0
VERTEX
  5
36B3
330
3009
100
AcDbEntity
  8
0
100
AcDbVertex
100
AcDb2dVertex
 10
2.704113188976378
 20
6.882442182161644
 30
0.0
  0
VERTEX
  5
36B4
330
3009
100
AcDbEntity
  8
0
100
AcDbVertex
100
AcDb2dVertex
 10
2.704113188976378
 20
6.885074071925422
 30
0.0
  0
VERTEX
  5
36B5
330
3009
100
AcDbEntity
  8
0
100
AcDbVertex
100
AcDb2dVertex
 10
2.704113188976378
 20
6.89033785145298
 30
0.0
  0
SEQEND
  5
36B6
330
3009
100
AcDbEntity
  8
0
  0
LINE
  5
300E
330
1E
100
AcDbEntity
  8
0
100
AcDbLine
 10
2.712008858267716
 20
6.874546512870304
 30
0.0
 11
2.704113188976378
 21
6.882442182161643
 31
0.0
  0
POLYLINE
  5
300F
330
1E
100
AcDbEntity
  8
0
100
AcDb2dPolyline
 66
     1
 10
0.0
 20
0.0
 30
0.0
  0
VERTEX
  5
36B7
330
300F
100
AcDbEntity
  8
0
100
AcDbVertex
100
AcDb2dVertex
 10
2.455399606299212
 20
6.882442182161644
 30
0.0
  0
VERTEX
  5
36B8
330
300F
100
AcDbEntity
  8
0
100
AcDbVertex
100
AcDb2dVertex
 10
2.455399606299212
 20
6.885074071925422
 30
0.0
  0
VERTEX
  5
36B9
330
300F
100
AcDbEntity
  8
0
100
AcDbVertex
100
AcDb2dVertex
 10
2.455399606299212
 20
6.89033785145298
 30
0.0
  0
SEQEND
  5
36BA
330
300F
100
AcDbEntity
  8
0
  0
LINE
  5
3014
330
1E
100
AcDbEntity
  8
0
100
AcDbLine
 10
2.704113188976378
 20
6.882442182161643
 30
0.0
 11
2.455399606299212
 21
6.882442182161643
 31
0.0
  0
POLYLINE
  5
3015
330
1E
100
AcDbEntity
  8
0
100
AcDb2dPolyline
 66
     1
 10
0.0
 20
0.0
 30
0.0
  0
VERTEX
  5
36BB
330
3015
100
AcDbEntity
  8
0
100
AcDbVertex
100
AcDb2dVertex
 10
2.447503937007874
 20
6.874546512870304
 30
0.0
  0
VERTEX
  5
36BC
330
3015
100
AcDbEntity
  8
0
100
AcDbVertex
100
AcDb2dVertex
 10
2.444872047244094
 20
6.874546512870304
 30
0.0
  0
VERTEX
  5
36BD
330
3015
100
AcDbEntity
  8
0
100
AcDbVertex
100
AcDb2dVertex
 10
2.439608267716535
 20
6.874546512870304
 30
0.0
  0
SEQEND
  5
36BE
330
3015
100
AcDbEntity
  8
0
  0
LINE
  5
301A
330
1E
100
AcDbEntity
  8
0
100
AcDbLine
 10
2.455399606299212
 20
6.882442182161643
 30
0.0
 11
2.447503937007874
 21
6.874546512870304
 31
0.0
  0
POLYLINE
  5
301B
330
1E
100
AcDbEntity
  8
0
100
AcDb2dPolyline
 66
     1
 10
0.0
 20
0.0
 30
0.0
  0
VERTEX
  5
36BF
330
301B
100
AcDbEntity
  8
0
100
AcDbVertex
100
AcDb2dVertex
 10
2.447503937007874
 20
6.844279780586838
 30
0.0
  0
VERTEX
  5
36C0
330
301B
100
AcDbEntity
  8
0
100
AcDbVertex
100
AcDb2dVertex
 10
2.444872047244094
 20
6.844279780586838
 30
0.0
  0
VERTEX
  5
36C1
330
301B
100
AcDbEntity
  8
0
100
AcDbVertex
100
AcDb2dVertex
 10
2.439608267716535
 20
6.844279780586838
 30
0.0
  0
SEQEND
  5
36C2
330
301B
100
AcDbEntity
  8
0
  0
POLYLINE
  5
3020
330
1E
100
AcDbEntity
  8
0
100
AcDb2dPolyline
 66
     1
 10
0.0
 20
0.0
 30
0.0
  0
VERTEX
  5
36C3
330
3020
100
AcDbEntity
  8
0
100
AcDbVertex
100
AcDb2dVertex
 10
2.455399606299212
 20
6.8363841112955
 30
0.0
  0
VERTEX
  5
36C4
330
3020
100
AcDbEntity
  8
0
100
AcDbVertex
100
AcDb2dVertex
 10
2.455399606299212
 20
6.83375222153172
 30
0.0
  0
VERTEX
  5
36C5
330
3020
100
AcDbEntity
  8
0
100
AcDbVertex
100
AcDb2dVertex
 10
2.455399606299212
 20
6.828488442004162
 30
0.0
  0
SEQEND
  5
36C6
330
3020
100
AcDbEntity
  8
0
  0
LINE
  5
3025
330
1E
100
AcDbEntity
  8
0
100
AcDbLine
 10
3.046258858267716
 20
6.925868363264005
 30
0.0
 11
3.046258858267716
 21
6.924552418382115
 31
0.0
  0
LINE
  5
3026
330
1E
100
AcDbEntity
  8
0
100
AcDbLine
 10
3.015992125984251
 20
6.89428568609865
 30
0.0
 11
3.015992125984251
 21
6.89560163098054
 31
0.0
  0
LINE
  5
3027
330
1E
100
AcDbEntity
  8
0
100
AcDbLine
 10
3.046258858267716
 20
7.357498284523847
 30
0.0
 11
3.046258858267716
 21
7.357498284523847
 31
0.0
  0
LINE
  5
3028
330
1E
100
AcDbEntity
  8
0
100
AcDbLine
 10
3.015992125984251
 20
7.387765016807311
 30
0.0
 11
3.015992125984251
 21
7.387765016807311
 31
0.0
  0
LINE
  5
3029
330
1E
100
AcDbEntity
  8
0
100
AcDbLine
 10
1.030231299212598
 20
7.387765016807311
 30
0.0
 11
1.030231299212598
 21
7.387765016807311
 31
0.0
  0
LINE
  5
302A
330
1E
100
AcDbEntity
  8
0
100
AcDbLine
 10
0.9999645669291336
 20
7.357498284523847
 30
0.0
 11
0.9999645669291336
 21
7.357498284523847
 31
0.0
  0
LINE
  5
302B
330
1E
100
AcDbEntity
  8
0
100
AcDbLine
 10
0.9999645669291336
 20
6.924552418382115
 30
0.0
 11
0.9999645669291336
 21
6.925868363264005
 31
0.0
  0
LINE
  5
302C
330
1E
100
AcDbEntity
  8
0
100
AcDbLine
 10
1.030231299212598
 20
6.89560163098054
 30
0.0
 11
1.030231299212598
 21
6.89428568609865
 31
0.0
  0
LINE
  5
302D
330
1E
100
AcDbEntity
  8
0
100
AcDbLine
 10
1.940865157480315
 20
6.89560163098054
 30
0.0
 11
1.942181102362204
 21
6.89428568609865
 31
0.0
  0
POLYLINE
  5
302E
330
1E
100
AcDbEntity
  8
0
100
AcDb2dPolyline
 66
     1
 10
0.0
 20
0.0
 30
0.0
  0
VERTEX
  5
36C7
330
302E
100
AcDbEntity
  8
0
100
AcDbVertex
100
AcDb2dVertex
 10
1.942181102362204
 20
6.871914623106525
 30
0.0
  0
VERTEX
  5
36C8
330
302E
100
AcDbEntity
  8
0
100
AcDbVertex
100
AcDb2dVertex
 10
1.943497047244094
 20
6.889021906571092
 30
0.0
  0
VERTEX
  5
36C9
330
302E
100
AcDbEntity
  8
0
100
AcDbVertex
100
AcDb2dVertex
 10
1.943497047244094
 20
6.89560163098054
 30
0.0
  0
SEQEND
  5
36CA
330
302E
100
AcDbEntity
  8
0
  0
POLYLINE
  5
3033
330
1E
100
AcDbEntity
  8
0
100
AcDb2dPolyline
 66
     1
 10
0.0
 20
0.0
 30
0.0
  0
VERTEX
  5
36CB
330
3033
100
AcDbEntity
  8
0
100
AcDbVertex
100
AcDb2dVertex
 10
2.102726377952755
 20
6.89560163098054
 30
0.0
  0
VERTEX
  5
36CC
330
3033
100
AcDbEntity
  8
0
100
AcDbVertex
100
AcDb2dVertex
 10
2.104042322834645
 20
6.889021906571092
 30
0.0
  0
VERTEX
  5
36CD
330
3033
100
AcDbEntity
  8
0
100
AcDbVertex
100
AcDb2dVertex
 10
2.104042322834645
 20
6.871914623106525
 30
0.0
  0
SEQEND
  5
36CE
330
3033
100
AcDbEntity
  8
0
  0
LINE
  5
3038
330
1E
100
AcDbEntity
  8
0
100
AcDbLine
 10
1.943497047244094
 20
6.89560163098054
 30
0.0
 11
1.952708661417322
 21
6.89560163098054
 31
0.0
  0
LINE
  5
3039
330
1E
100
AcDbEntity
  8
0
100
AcDbLine
 10
2.093514763779527
 20
6.89560163098054
 30
0.0
 11
2.102726377952755
 21
6.89560163098054
 31
0.0
  0
LINE
  5
303A
330
1E
100
AcDbEntity
  8
0
100
AcDbLine
 10
2.104042322834645
 20
6.89428568609865
 30
0.0
 11
2.105358267716535
 21
6.89560163098054
 31
0.0
  0
LINE
  5
303B
330
1E
100
AcDbEntity
  8
0
100
AcDbLine
 10
1.343426181102362
 20
6.882442182161643
 30
0.0
 11
1.344742125984252
 21
6.877178402634084
 31
0.0
  0
LINE
  5
303C
330
1E
100
AcDbEntity
  8
0
100
AcDbLine
 10
1.396063976377952
 20
6.877178402634084
 30
0.0
 11
1.403959645669291
 21
6.877178402634084
 31
0.0
  0
LINE
  5
303D
330
1E
100
AcDbEntity
  8
0
100
AcDbLine
 10
1.528974409448818
 20
6.877178402634084
 30
0.0
 11
1.536870078740157
 21
6.877178402634084
 31
0.0
  0
LINE
  5
303E
330
1E
100
AcDbEntity
  8
0
100
AcDbLine
 10
1.589507874015748
 20
6.877178402634084
 30
0.0
 11
1.590823818897638
 21
6.882442182161643
 31
0.0
  0
POLYLINE
  5
303F
330
1E
100
AcDbEntity
  8
0
100
AcDb2dPolyline
 66
     1
 10
0.0
 20
0.0
 30
0.0
  0
VERTEX
  5
36CF
330
303F
100
AcDbEntity
  8
0
100
AcDbVertex
100
AcDb2dVertex
 10
2.100094488188976
 20
6.908761079799439
 30
0.0
  0
VERTEX
  5
36D0
330
303F
100
AcDbEntity
  8
0
100
AcDbVertex
100
AcDb2dVertex
 10
2.100094488188976
 20
6.911392969563217
 30
0.0
  0
VERTEX
  5
36D1
330
303F
100
AcDbEntity
  8
0
100
AcDbVertex
100
AcDb2dVertex
 10
2.100094488188976
 20
6.914024859326997
 30
0.0
  0
VERTEX
  5
36D2
330
303F
100
AcDbEntity
  8
0
100
AcDbVertex
100
AcDb2dVertex
 10
2.100094488188976
 20
6.916656749090775
 30
0.0
  0
VERTEX
  5
36D3
330
303F
100
AcDbEntity
  8
0
100
AcDbVertex
100
AcDb2dVertex
 10
2.100094488188976
 20
6.917972693972665
 30
0.0
  0
SEQEND
  5
36D4
330
303F
100
AcDbEntity
  8
0
  0
LINE
  5
3046
330
1E
100
AcDbEntity
  8
0
100
AcDbLine
 10
2.102726377952755
 20
6.89560163098054
 30
0.0
 11
2.100094488188976
 21
6.89823352074432
 31
0.0
  0
LINE
  5
3047
330
1E
100
AcDbEntity
  8
0
100
AcDbLine
 10
1.943497047244094
 20
6.89560163098054
 30
0.0
 11
1.946128937007873
 21
6.89823352074432
 31
0.0
  0
POLYLINE
  5
3048
330
1E
100
AcDbEntity
  8
0
100
AcDb2dPolyline
 66
     1
 10
0.0
 20
0.0
 30
0.0
  0
VERTEX
  5
36D5
330
3048
100
AcDbEntity
  8
0
100
AcDbVertex
100
AcDb2dVertex
 10
1.946128937007873
 20
6.917972693972665
 30
0.0
  0
VERTEX
  5
36D6
330
3048
100
AcDbEntity
  8
0
100
AcDbVertex
100
AcDb2dVertex
 10
1.946128937007873
 20
6.916656749090775
 30
0.0
  0
VERTEX
  5
36D7
330
3048
100
AcDbEntity
  8
0
100
AcDbVertex
100
AcDb2dVertex
 10
1.946128937007873
 20
6.914024859326997
 30
0.0
  0
VERTEX
  5
36D8
330
3048
100
AcDbEntity
  8
0
100
AcDbVertex
100
AcDb2dVertex
 10
1.946128937007873
 20
6.910077024681327
 30
0.0
  0
VERTEX
  5
36D9
330
3048
100
AcDbEntity
  8
0
100
AcDbVertex
100
AcDb2dVertex
 10
1.946128937007873
 20
6.908761079799439
 30
0.0
  0
SEQEND
  5
36DA
330
3048
100
AcDbEntity
  8
0
  0
LINE
  5
304F
330
1E
100
AcDbEntity
  8
0
100
AcDbLine
 10
2.455399606299212
 20
6.882442182161643
 30
0.0
 11
2.458031496062992
 21
6.877178402634084
 31
0.0
  0
LINE
  5
3050
330
1E
100
AcDbEntity
  8
0
100
AcDbLine
 10
2.509353346456692
 20
6.877178402634084
 30
0.0
 11
2.51724901574803
 21
6.877178402634084
 31
0.0
  0
LINE
  5
3051
330
1E
100
AcDbEntity
  8
0
100
AcDbLine
 10
2.642263779527558
 20
6.877178402634084
 30
0.0
 11
2.650159448818897
 21
6.877178402634084
 31
0.0
  0
LINE
  5
3052
330
1E
100
AcDbEntity
  8
0
100
AcDbLine
 10
2.701481299212598
 20
6.877178402634084
 30
0.0
 11
2.704113188976378
 21
6.882442182161643
 31
0.0
  0
LINE
  5
3053
330
1E
100
AcDbEntity
  8
0
100
AcDbLine
 10
1.509235236220472
 20
4.116326040429359
 30
0.0
 11
1.263153543307086
 21
4.116326040429359
 31
0.0
  0
LINE
  5
3054
330
1E
100
AcDbEntity
  8
0
100
AcDbLine
 10
2.536988188976377
 20
4.116326040429359
 30
0.0
 11
2.783069881889763
 21
4.116326040429359
 31
0.0
  0
LINE
  5
3055
330
1E
100
AcDbEntity
  8
0
100
AcDbLine
 10
1.589507874015748
 20
6.875862457752194
 30
0.0
 11
1.343426181102362
 21
6.875862457752194
 31
0.0
  0
LINE
  5
3056
330
1E
100
AcDbEntity
  8
0
100
AcDbLine
 10
2.456715551181102
 20
6.875862457752194
 30
0.0
 11
2.702797244094488
 21
6.875862457752194
 31
0.0
  0
LINE
  5
3057
330
1E
100
AcDbEntity
  8
0
100
AcDbLine
 10
3.056786417322834
 20
7.368025843578966
 30
0.0
 11
3.056786417322834
 21
6.915340804208887
 31
0.0
  0
POLYLINE
  5
3058
330
1E
100
AcDbEntity
  8
0
100
AcDb2dPolyline
 66
     1
 10
0.0
 20
0.0
 30
0.0
  0
VERTEX
  5
36DB
330
3058
100
AcDbEntity
  8
0
100
AcDbVertex
100
AcDb2dVertex
 10
3.216015748031495
 20
7.56673352074432
 30
0.0
  0
VERTEX
  5
36DC
330
3058
100
AcDbEntity
  8
0
100
AcDbVertex
100
AcDb2dVertex
 10
3.250230314960629
 20
7.56673352074432
 30
0.0
  0
VERTEX
  5
36DD
330
3058
100
AcDbEntity
  8
0
100
AcDbVertex
100
AcDb2dVertex
 10
3.280497047244094
 20
7.56673352074432
 30
0.0
  0
SEQEND
  5
36DE
330
3058
100
AcDbEntity
  8
0
  0
POLYLINE
  5
305D
330
1E
100
AcDbEntity
  8
0
100
AcDb2dPolyline
 66
     1
 10
0.0
 20
0.0
 30
0.0
  0
VERTEX
  5
36DF
330
305D
100
AcDbEntity
  8
0
100
AcDbVertex
100
AcDb2dVertex
 10
3.280497047244094
 20
7.56673352074432
 30
0.0
  0
VERTEX
  5
36E0
330
305D
100
AcDbEntity
  8
0
100
AcDbVertex
100
AcDb2dVertex
 10
3.252862204724409
 20
7.602264032555342
 30
0.0
  0
VERTEX
  5
36E1
330
305D
100
AcDbEntity
  8
0
100
AcDbVertex
100
AcDb2dVertex
 10
3.216015748031495
 20
7.631214819956919
 30
0.0
  0
SEQEND
  5
36E2
330
305D
100
AcDbEntity
  8
0
  0
POLYLINE
  5
3062
330
1E
100
AcDbEntity
  8
0
100
AcDb2dPolyline
 66
     1
 10
0.0
 20
0.0
 30
0.0
  0
VERTEX
  5
36E3
330
3062
100
AcDbEntity
  8
0
100
AcDbVertex
100
AcDb2dVertex
 10
3.216015748031495
 20
7.56673352074432
 30
0.0
  0
VERTEX
  5
36E4
330
3062
100
AcDbEntity
  8
0
100
AcDbVertex
100
AcDb2dVertex
 10
3.216015748031495
 20
7.600948087673454
 30
0.0
  0
VERTEX
  5
36E5
330
3062
100
AcDbEntity
  8
0
100
AcDbVertex
100
AcDb2dVertex
 10
3.216015748031495
 20
7.631214819956919
 30
0.0
  0
SEQEND
  5
36E6
330
3062
100
AcDbEntity
  8
0
  0
LINE
  5
3067
330
1E
100
AcDbEntity
  8
0
100
AcDbLine
 10
3.401563976377952
 20
7.722015016807311
 30
0.0
 11
3.401563976377952
 21
7.687800449878178
 31
0.0
  0
POLYLINE
  5
3068
330
1E
100
AcDbEntity
  8
0
100
AcDb2dPolyline
 66
     1
 10
0.0
 20
0.0
 30
0.0
  0
VERTEX
  5
36E7
330
3068
100
AcDbEntity
  8
0
100
AcDbVertex
100
AcDb2dVertex
 10
3.401563976377952
 20
7.72201501680731
 30
0.0
  0
VERTEX
  5
36E8
330
3068
100
AcDbEntity
  8
0
100
AcDbVertex
100
AcDb2dVertex
 10
3.400248031496063
 20
7.732542575862429
 30
0.0
  0
VERTEX
  5
36E9
330
3068
100
AcDbEntity
  8
0
100
AcDbVertex
100
AcDb2dVertex
 10
3.396300196850392
 20
7.740438245153769
 30
0.0
  0
VERTEX
  5
36EA
330
3068
100
AcDbEntity
  8
0
100
AcDbVertex
100
AcDb2dVertex
 10
3.388404527559054
 20
7.747017969563217
 30
0.0
  0
VERTEX
  5
36EB
330
3068
100
AcDbEntity
  8
0
100
AcDbVertex
100
AcDb2dVertex
 10
3.380508858267716
 20
7.750965804208887
 30
0.0
  0
VERTEX
  5
36EC
330
3068
100
AcDbEntity
  8
0
100
AcDbVertex
100
AcDb2dVertex
 10
3.371297244094487
 20
7.752281749090776
 30
0.0
  0
SEQEND
  5
36ED
330
3068
100
AcDbEntity
  8
0
  0
LINE
  5
3070
330
1E
100
AcDbEntity
  8
0
100
AcDbLine
 10
3.337082677165354
 20
7.752281749090776
 30
0.0
 11
3.371297244094487
 21
7.752281749090776
 31
0.0
  0
LINE
  5
3071
330
1E
100
AcDbEntity
  8
0
100
AcDbLine
 10
3.216015748031495
 20
7.631214819956918
 30
0.0
 11
3.337082677165354
 21
7.752281749090776
 31
0.0
  0
LINE
  5
3072
330
1E
100
AcDbEntity
  8
0
100
AcDbLine
 10
3.401563976377952
 20
7.687800449878178
 30
0.0
 11
3.280497047244094
 21
7.56673352074432
 31
0.0
  0
LINE
  5
3073
330
1E
100
AcDbEntity
  8
0
100
AcDbLine
 10
3.216015748031495
 20
3.425454977437234
 30
0.0
 11
3.216015748031495
 21
7.56673352074432
 31
0.0
  0
POLYLINE
  5
3074
330
1E
100
AcDbEntity
  8
0
100
AcDb2dPolyline
 66
     1
 10
0.0
 20
0.0
 30
0.0
  0
VERTEX
  5
36EE
330
3074
100
AcDbEntity
  8
0
100
AcDbVertex
100
AcDb2dVertex
 10
3.216015748031495
 20
3.425454977437233
 30
0.0
  0
VERTEX
  5
36EF
330
3074
100
AcDbEntity
  8
0
100
AcDbVertex
100
AcDb2dVertex
 10
3.250230314960629
 20
3.425454977437233
 30
0.0
  0
VERTEX
  5
36F0
330
3074
100
AcDbEntity
  8
0
100
AcDbVertex
100
AcDb2dVertex
 10
3.280497047244094
 20
3.425454977437233
 30
0.0
  0
SEQEND
  5
36F1
330
3074
100
AcDbEntity
  8
0
  0
LINE
  5
3079
330
1E
100
AcDbEntity
  8
0
100
AcDbLine
 10
3.280497047244094
 20
7.56673352074432
 30
0.0
 11
3.280497047244094
 21
3.425454977437234
 31
0.0
  0
LINE
  5
307A
330
1E
100
AcDbEntity
  8
0
100
AcDbLine
 10
3.401563976377952
 20
3.304388048303375
 30
0.0
 11
3.280497047244094
 21
3.425454977437234
 31
0.0
  0
LINE
  5
307B
330
1E
100
AcDbEntity
  8
0
100
AcDbLine
 10
3.401563976377952
 20
7.687800449878178
 30
0.0
 11
3.401563976377952
 21
3.304388048303375
 31
0.0
  0
LINE
  5
307C
330
1E
100
AcDbEntity
  8
0
100
AcDbLine
 10
3.401563976377952
 20
3.270173481374241
 30
0.0
 11
3.401563976377952
 21
3.304388048303375
 31
0.0
  0
LINE
  5
307D
330
1E
100
AcDbEntity
  8
0
100
AcDbLine
 10
1.01970374015748
 20
7.398292575862429
 30
0.0
 11
3.026519685039369
 21
7.398292575862429
 31
0.0
  0
LINE
  5
307E
330
1E
100
AcDbEntity
  8
0
100
AcDbLine
 10
0.709140748031496
 20
7.752281749090776
 30
0.0
 11
3.337082677165354
 21
7.752281749090776
 31
0.0
  0
LINE
  5
307F
330
1E
100
AcDbEntity
  8
0
100
AcDbLine
 10
0.709140748031496
 20
7.752281749090776
 30
0.0
 11
0.8302076771653545
 21
7.631214819956918
 31
0.0
  0
LINE
  5
3080
330
1E
100
AcDbEntity
  8
0
100
AcDbLine
 10
0.8302076771653545
 20
7.631214819956918
 30
0.0
 11
3.216015748031495
 21
7.631214819956918
 31
0.0
  0
POLYLINE
  5
3081
330
1E
100
AcDbEntity
  8
0
100
AcDb2dPolyline
 66
     1
 10
0.0
 20
0.0
 30
0.0
  0
VERTEX
  5
36F2
330
3081
100
AcDbEntity
  8
0
100
AcDbVertex
100
AcDb2dVertex
 10
0.8302076771653544
 20
7.56673352074432
 30
0.0
  0
VERTEX
  5
36F3
330
3081
100
AcDbEntity
  8
0
100
AcDbVertex
100
AcDb2dVertex
 10
0.8302076771653544
 20
7.600948087673454
 30
0.0
  0
VERTEX
  5
36F4
330
3081
100
AcDbEntity
  8
0
100
AcDbVertex
100
AcDb2dVertex
 10
0.8302076771653544
 20
7.631214819956919
 30
0.0
  0
SEQEND
  5
36F5
330
3081
100
AcDbEntity
  8
0
  0
LINE
  5
3086
330
1E
100
AcDbEntity
  8
0
100
AcDbLine
 10
3.216015748031495
 20
7.56673352074432
 30
0.0
 11
0.8302076771653545
 21
7.56673352074432
 31
0.0
  0
LINE
  5
3087
330
1E
100
AcDbEntity
  8
0
100
AcDbLine
 10
1.600035433070865
 20
4.108430371138021
 30
0.0
 11
1.876383858267716
 21
4.108430371138021
 31
0.0
  0
POLYLINE
  5
3088
330
1E
100
AcDbEntity
  8
0
100
AcDb2dPolyline
 66
     1
 10
0.0
 20
0.0
 30
0.0
  0
VERTEX
  5
36F6
330
3088
100
AcDbEntity
  8
0
100
AcDbVertex
100
AcDb2dVertex
 10
1.876383858267716
 20
4.108430371138021
 30
0.0
  0
VERTEX
  5
36F7
330
3088
100
AcDbEntity
  8
0
100
AcDbVertex
100
AcDb2dVertex
 10
1.888227362204724
 20
4.1110622609018
 30
0.0
  0
VERTEX
  5
36F8
330
3088
100
AcDbEntity
  8
0
100
AcDbVertex
100
AcDb2dVertex
 10
1.898754921259842
 20
4.117641985311249
 30
0.0
  0
SEQEND
  5
36F9
330
3088
100
AcDbEntity
  8
0
  0
POLYLINE
  5
308D
330
1E
100
AcDbEntity
  8
0
100
AcDb2dPolyline
 66
     1
 10
0.0
 20
0.0
 30
0.0
  0
VERTEX
  5
36FA
330
308D
100
AcDbEntity
  8
0
100
AcDbVertex
100
AcDb2dVertex
 10
1.898754921259842
 20
4.117641985311249
 30
0.0
  0
VERTEX
  5
36FB
330
308D
100
AcDbEntity
  8
0
100
AcDbVertex
100
AcDb2dVertex
 10
1.90928248031496
 20
4.125537654602588
 30
0.0
  0
VERTEX
  5
36FC
330
308D
100
AcDbEntity
  8
0
100
AcDbVertex
100
AcDb2dVertex
 10
1.921125984251968
 20
4.128169544366366
 30
0.0
  0
SEQEND
  5
36FD
330
308D
100
AcDbEntity
  8
0
  0
LINE
  5
3092
330
1E
100
AcDbEntity
  8
0
100
AcDbLine
 10
1.922441929133858
 20
4.128169544366366
 30
0.0
 11
1.921125984251968
 21
4.128169544366366
 31
0.0
  0
POLYLINE
  5
3093
330
1E
100
AcDbEntity
  8
0
100
AcDb2dPolyline
 66
     1
 10
0.0
 20
0.0
 30
0.0
  0
VERTEX
  5
36FE
330
3093
100
AcDbEntity
  8
0
100
AcDbVertex
100
AcDb2dVertex
 10
1.922441929133858
 20
4.128169544366366
 30
0.0
  0
VERTEX
  5
36FF
330
3093
100
AcDbEntity
  8
0
100
AcDbVertex
100
AcDb2dVertex
 10
1.938233267716535
 20
4.124221709720698
 30
0.0
  0
VERTEX
  5
3700
330
3093
100
AcDbEntity
  8
0
100
AcDbVertex
100
AcDb2dVertex
 10
1.948760826771653
 20
4.11237820578369
 30
0.0
  0
SEQEND
  5
3701
330
3093
100
AcDbEntity
  8
0
  0
LINE
  5
3098
330
1E
100
AcDbEntity
  8
0
100
AcDbLine
 10
1.948760826771653
 20
4.11237820578369
 30
0.0
 11
2.097462598425196
 21
4.11237820578369
 31
0.0
  0
POLYLINE
  5
3099
330
1E
100
AcDbEntity
  8
0
100
AcDb2dPolyline
 66
     1
 10
0.0
 20
0.0
 30
0.0
  0
VERTEX
  5
3702
330
3099
100
AcDbEntity
  8
0
100
AcDbVertex
100
AcDb2dVertex
 10
2.097462598425196
 20
4.11237820578369
 30
0.0
  0
VERTEX
  5
3703
330
3099
100
AcDbEntity
  8
0
100
AcDbVertex
100
AcDb2dVertex
 10
2.107990157480315
 20
4.124221709720698
 30
0.0
  0
VERTEX
  5
3704
330
3099
100
AcDbEntity
  8
0
100
AcDbVertex
100
AcDb2dVertex
 10
2.123781496062992
 20
4.128169544366366
 30
0.0
  0
SEQEND
  5
3705
330
3099
100
AcDbEntity
  8
0
  0
LINE
  5
309E
330
1E
100
AcDbEntity
  8
0
100
AcDbLine
 10
2.123781496062992
 20
4.128169544366366
 30
0.0
 11
2.125097440944881
 21
4.128169544366366
 31
0.0
  0
POLYLINE
  5
309F
330
1E
100
AcDbEntity
  8
0
100
AcDb2dPolyline
 66
     1
 10
0.0
 20
0.0
 30
0.0
  0
VERTEX
  5
3706
330
309F
100
AcDbEntity
  8
0
100
AcDbVertex
100
AcDb2dVertex
 10
2.125097440944881
 20
4.128169544366366
 30
0.0
  0
VERTEX
  5
3707
330
309F
100
AcDbEntity
  8
0
100
AcDbVertex
100
AcDb2dVertex
 10
2.13694094488189
 20
4.125537654602588
 30
0.0
  0
VERTEX
  5
3708
330
309F
100
AcDbEntity
  8
0
100
AcDbVertex
100
AcDb2dVertex
 10
2.147468503937007
 20
4.117641985311249
 30
0.0
  0
SEQEND
  5
3709
330
309F
100
AcDbEntity
  8
0
  0
POLYLINE
  5
30A4
330
1E
100
AcDbEntity
  8
0
100
AcDb2dPolyline
 66
     1
 10
0.0
 20
0.0
 30
0.0
  0
VERTEX
  5
370A
330
30A4
100
AcDbEntity
  8
0
100
AcDbVertex
100
AcDb2dVertex
 10
2.147468503937007
 20
4.117641985311249
 30
0.0
  0
VERTEX
  5
370B
330
30A4
100
AcDbEntity
  8
0
100
AcDbVertex
100
AcDb2dVertex
 10
2.157996062992125
 20
4.1110622609018
 30
0.0
  0
VERTEX
  5
370C
330
30A4
100
AcDbEntity
  8
0
100
AcDbVertex
100
AcDb2dVertex
 10
2.169839566929133
 20
4.108430371138021
 30
0.0
  0
SEQEND
  5
370D
330
30A4
100
AcDbEntity
  8
0
  0
LINE
  5
30A9
330
1E
100
AcDbEntity
  8
0
100
AcDbLine
 10
2.169839566929133
 20
4.108430371138021
 30
0.0
 11
2.447503937007874
 21
4.108430371138021
 31
0.0
  0
POLYLINE
  5
30AA
330
1E
100
AcDbEntity
  8
0
100
AcDb2dPolyline
 66
     1
 10
0.0
 20
0.0
 30
0.0
  0
VERTEX
  5
370E
330
30AA
100
AcDbEntity
  8
0
100
AcDbVertex
100
AcDb2dVertex
 10
2.447503937007874
 20
4.108430371138021
 30
0.0
  0
VERTEX
  5
370F
330
30AA
100
AcDbEntity
  8
0
100
AcDbVertex
100
AcDb2dVertex
 10
2.46855905511811
 20
4.116326040429359
 30
0.0
  0
VERTEX
  5
3710
330
30AA
100
AcDbEntity
  8
0
100
AcDbVertex
100
AcDb2dVertex
 10
2.476454724409449
 20
4.138697103421485
 30
0.0
  0
SEQEND
  5
3711
330
30AA
100
AcDbEntity
  8
0
  0
LINE
  5
30AF
330
1E
100
AcDbEntity
  8
0
100
AcDbLine
 10
2.476454724409448
 20
4.138697103421485
 30
0.0
 11
2.476454724409448
 21
4.17159572546873
 31
0.0
  0
POLYLINE
  5
30B0
330
1E
100
AcDbEntity
  8
0
100
AcDb2dPolyline
 66
     1
 10
0.0
 20
0.0
 30
0.0
  0
VERTEX
  5
3712
330
30B0
100
AcDbEntity
  8
0
100
AcDbVertex
100
AcDb2dVertex
 10
2.476454724409449
 20
4.17159572546873
 30
0.0
  0
VERTEX
  5
3713
330
30B0
100
AcDbEntity
  8
0
100
AcDbVertex
100
AcDb2dVertex
 10
2.483034448818897
 20
4.188703008933297
 30
0.0
  0
VERTEX
  5
3714
330
30B0
100
AcDbEntity
  8
0
100
AcDbVertex
100
AcDb2dVertex
 10
2.497509842519685
 20
4.199230567988414
 30
0.0
  0
VERTEX
  5
3715
330
30B0
100
AcDbEntity
  8
0
100
AcDbVertex
100
AcDb2dVertex
 10
2.515933070866141
 20
4.199230567988414
 30
0.0
  0
VERTEX
  5
3716
330
30B0
100
AcDbEntity
  8
0
100
AcDbVertex
100
AcDb2dVertex
 10
2.531724409448818
 20
4.188703008933297
 30
0.0
  0
VERTEX
  5
3717
330
30B0
100
AcDbEntity
  8
0
100
AcDbVertex
100
AcDb2dVertex
 10
2.536988188976377
 20
4.17159572546873
 30
0.0
  0
SEQEND
  5
3718
330
30B0
100
AcDbEntity
  8
0
  0
LINE
  5
30B8
330
1E
100
AcDbEntity
  8
0
100
AcDbLine
 10
2.783069881889763
 20
4.17159572546873
 30
0.0
 11
2.536988188976377
 21
4.17159572546873
 31
0.0
  0
POLYLINE
  5
30B9
330
1E
100
AcDbEntity
  8
0
100
AcDb2dPolyline
 66
     1
 10
0.0
 20
0.0
 30
0.0
  0
VERTEX
  5
3719
330
30B9
100
AcDbEntity
  8
0
100
AcDbVertex
100
AcDb2dVertex
 10
2.783069881889763
 20
4.17159572546873
 30
0.0
  0
VERTEX
  5
371A
330
30B9
100
AcDbEntity
  8
0
100
AcDbVertex
100
AcDb2dVertex
 10
2.788333661417322
 20
4.188703008933297
 30
0.0
  0
VERTEX
  5
371B
330
30B9
100
AcDbEntity
  8
0
100
AcDbVertex
100
AcDb2dVertex
 10
2.804124999999999
 20
4.199230567988414
 30
0.0
  0
VERTEX
  5
371C
330
30B9
100
AcDbEntity
  8
0
100
AcDbVertex
100
AcDb2dVertex
 10
2.822548228346456
 20
4.199230567988414
 30
0.0
  0
VERTEX
  5
371D
330
30B9
100
AcDbEntity
  8
0
100
AcDbVertex
100
AcDb2dVertex
 10
2.837023622047244
 20
4.188703008933297
 30
0.0
  0
VERTEX
  5
371E
330
30B9
100
AcDbEntity
  8
0
100
AcDbVertex
100
AcDb2dVertex
 10
2.843603346456692
 20
4.17159572546873
 30
0.0
  0
SEQEND
  5
371F
330
30B9
100
AcDbEntity
  8
0
  0
LINE
  5
30C1
330
1E
100
AcDbEntity
  8
0
100
AcDbLine
 10
2.843603346456692
 20
4.138697103421485
 30
0.0
 11
2.843603346456692
 21
4.17159572546873
 31
0.0
  0
POLYLINE
  5
30C2
330
1E
100
AcDbEntity
  8
0
100
AcDb2dPolyline
 66
     1
 10
0.0
 20
0.0
 30
0.0
  0
VERTEX
  5
3720
330
30C2
100
AcDbEntity
  8
0
100
AcDbVertex
100
AcDb2dVertex
 10
2.843603346456692
 20
4.138697103421485
 30
0.0
  0
VERTEX
  5
3721
330
30C2
100
AcDbEntity
  8
0
100
AcDbVertex
100
AcDb2dVertex
 10
2.85149901574803
 20
4.116326040429359
 30
0.0
  0
VERTEX
  5
3722
330
30C2
100
AcDbEntity
  8
0
100
AcDbVertex
100
AcDb2dVertex
 10
2.872554133858266
 20
4.108430371138021
 30
0.0
  0
SEQEND
  5
3723
330
30C2
100
AcDbEntity
  8
0
  0
LINE
  5
30C7
330
1E
100
AcDbEntity
  8
0
100
AcDbLine
 10
2.872554133858267
 20
4.108430371138021
 30
0.0
 11
3.026519685039369
 21
4.108430371138021
 31
0.0
  0
POLYLINE
  5
30C8
330
1E
100
AcDbEntity
  8
0
100
AcDb2dPolyline
 66
     1
 10
0.0
 20
0.0
 30
0.0
  0
VERTEX
  5
3724
330
30C8
100
AcDbEntity
  8
0
100
AcDbVertex
100
AcDb2dVertex
 10
3.026519685039369
 20
4.108430371138021
 30
0.0
  0
VERTEX
  5
3725
330
30C8
100
AcDbEntity
  8
0
100
AcDbVertex
100
AcDb2dVertex
 10
3.047574803149605
 20
4.099218756964792
 30
0.0
  0
VERTEX
  5
3726
330
30C8
100
AcDbEntity
  8
0
100
AcDbVertex
100
AcDb2dVertex
 10
3.056786417322833
 20
4.078163638854556
 30
0.0
  0
SEQEND
  5
3727
330
30C8
100
AcDbEntity
  8
0
  0
LINE
  5
30CD
330
1E
100
AcDbEntity
  8
0
100
AcDbLine
 10
3.056786417322834
 20
3.624162654602588
 30
0.0
 11
3.056786417322834
 21
4.078163638854556
 31
0.0
  0
POLYLINE
  5
30CE
330
1E
100
AcDbEntity
  8
0
100
AcDb2dPolyline
 66
     1
 10
0.0
 20
0.0
 30
0.0
  0
VERTEX
  5
3728
330
30CE
100
AcDbEntity
  8
0
100
AcDbVertex
100
AcDb2dVertex
 10
3.056786417322833
 20
3.624162654602588
 30
0.0
  0
VERTEX
  5
3729
330
30CE
100
AcDbEntity
  8
0
100
AcDbVertex
100
AcDb2dVertex
 10
3.047574803149605
 20
3.603107536492352
 30
0.0
  0
VERTEX
  5
372A
330
30CE
100
AcDbEntity
  8
0
100
AcDbVertex
100
AcDb2dVertex
 10
3.026519685039369
 20
3.595211867201013
 30
0.0
  0
SEQEND
  5
372B
330
30CE
100
AcDbEntity
  8
0
  0
LINE
  5
30D3
330
1E
100
AcDbEntity
  8
0
100
AcDbLine
 10
1.01970374015748
 20
3.595211867201012
 30
0.0
 11
3.026519685039369
 21
3.595211867201012
 31
0.0
  0
POLYLINE
  5
30D4
330
1E
100
AcDbEntity
  8
0
100
AcDb2dPolyline
 66
     1
 10
0.0
 20
0.0
 30
0.0
  0
VERTEX
  5
372C
330
30D4
100
AcDbEntity
  8
0
100
AcDbVertex
100
AcDb2dVertex
 10
1.01970374015748
 20
3.595211867201013
 30
0.0
  0
VERTEX
  5
372D
330
30D4
100
AcDbEntity
  8
0
100
AcDbVertex
100
AcDb2dVertex
 10
0.9986486220472439
 20
3.603107536492352
 30
0.0
  0
VERTEX
  5
372E
330
30D4
100
AcDbEntity
  8
0
100
AcDbVertex
100
AcDb2dVertex
 10
0.9894370078740156
 20
3.624162654602588
 30
0.0
  0
SEQEND
  5
372F
330
30D4
100
AcDbEntity
  8
0
  0
LINE
  5
30D9
330
1E
100
AcDbEntity
  8
0
100
AcDbLine
 10
0.9894370078740157
 20
3.624162654602588
 30
0.0
 11
0.9894370078740157
 21
4.078163638854556
 31
0.0
  0
POLYLINE
  5
30DA
330
1E
100
AcDbEntity
  8
0
100
AcDb2dPolyline
 66
     1
 10
0.0
 20
0.0
 30
0.0
  0
VERTEX
  5
3730
330
30DA
100
AcDbEntity
  8
0
100
AcDbVertex
100
AcDb2dVertex
 10
0.9894370078740156
 20
4.078163638854556
 30
0.0
  0
VERTEX
  5
3731
330
30DA
100
AcDbEntity
  8
0
100
AcDbVertex
100
AcDb2dVertex
 10
0.9986486220472439
 20
4.099218756964792
 30
0.0
  0
VERTEX
  5
3732
330
30DA
100
AcDbEntity
  8
0
100
AcDbVertex
100
AcDb2dVertex
 10
1.01970374015748
 20
4.108430371138021
 30
0.0
  0
SEQEND
  5
3733
330
30DA
100
AcDbEntity
  8
0
  0
LINE
  5
30DF
330
1E
100
AcDbEntity
  8
0
100
AcDbLine
 10
1.01970374015748
 20
4.108430371138021
 30
0.0
 11
1.173669291338582
 21
4.108430371138021
 31
0.0
  0
POLYLINE
  5
30E0
330
1E
100
AcDbEntity
  8
0
100
AcDb2dPolyline
 66
     1
 10
0.0
 20
0.0
 30
0.0
  0
VERTEX
  5
3734
330
30E0
100
AcDbEntity
  8
0
100
AcDbVertex
100
AcDb2dVertex
 10
1.173669291338582
 20
4.108430371138021
 30
0.0
  0
VERTEX
  5
3735
330
30E0
100
AcDbEntity
  8
0
100
AcDbVertex
100
AcDb2dVertex
 10
1.194724409448818
 20
4.116326040429359
 30
0.0
  0
VERTEX
  5
3736
330
30E0
100
AcDbEntity
  8
0
100
AcDbVertex
100
AcDb2dVertex
 10
1.203936023622047
 20
4.138697103421485
 30
0.0
  0
SEQEND
  5
3737
330
30E0
100
AcDbEntity
  8
0
  0
LINE
  5
30E5
330
1E
100
AcDbEntity
  8
0
100
AcDbLine
 10
1.203936023622047
 20
4.138697103421485
 30
0.0
 11
1.203936023622047
 21
4.17159572546873
 31
0.0
  0
POLYLINE
  5
30E6
330
1E
100
AcDbEntity
  8
0
100
AcDb2dPolyline
 66
     1
 10
0.0
 20
0.0
 30
0.0
  0
VERTEX
  5
3738
330
30E6
100
AcDbEntity
  8
0
100
AcDbVertex
100
AcDb2dVertex
 10
1.203936023622047
 20
4.17159572546873
 30
0.0
  0
VERTEX
  5
3739
330
30E6
100
AcDbEntity
  8
0
100
AcDbVertex
100
AcDb2dVertex
 10
1.209199803149606
 20
4.188703008933297
 30
0.0
  0
VERTEX
  5
373A
330
30E6
100
AcDbEntity
  8
0
100
AcDbVertex
100
AcDb2dVertex
 10
1.223675196850393
 20
4.199230567988414
 30
0.0
  0
VERTEX
  5
373B
330
30E6
100
AcDbEntity
  8
0
100
AcDbVertex
100
AcDb2dVertex
 10
1.243414370078739
 20
4.199230567988414
 30
0.0
  0
VERTEX
  5
373C
330
30E6
100
AcDbEntity
  8
0
100
AcDbVertex
100
AcDb2dVertex
 10
1.257889763779527
 20
4.188703008933297
 30
0.0
  0
VERTEX
  5
373D
330
30E6
100
AcDbEntity
  8
0
100
AcDbVertex
100
AcDb2dVertex
 10
1.263153543307086
 20
4.17159572546873
 30
0.0
  0
SEQEND
  5
373E
330
30E6
100
AcDbEntity
  8
0
  0
LINE
  5
30EE
330
1E
100
AcDbEntity
  8
0
100
AcDbLine
 10
1.263153543307086
 20
4.17159572546873
 30
0.0
 11
1.509235236220472
 21
4.17159572546873
 31
0.0
  0
POLYLINE
  5
30EF
330
1E
100
AcDbEntity
  8
0
100
AcDb2dPolyline
 66
     1
 10
0.0
 20
0.0
 30
0.0
  0
VERTEX
  5
373F
330
30EF
100
AcDbEntity
  8
0
100
AcDbVertex
100
AcDb2dVertex
 10
1.509235236220472
 20
4.17159572546873
 30
0.0
  0
VERTEX
  5
3740
330
30EF
100
AcDbEntity
  8
0
100
AcDbVertex
100
AcDb2dVertex
 10
1.514499015748031
 20
4.188703008933297
 30
0.0
  0
VERTEX
  5
3741
330
30EF
100
AcDbEntity
  8
0
100
AcDbVertex
100
AcDb2dVertex
 10
1.530290354330708
 20
4.199230567988414
 30
0.0
  0
VERTEX
  5
3742
330
30EF
100
AcDbEntity
  8
0
100
AcDbVertex
100
AcDb2dVertex
 10
1.548713582677165
 20
4.199230567988414
 30
0.0
  0
VERTEX
  5
3743
330
30EF
100
AcDbEntity
  8
0
100
AcDbVertex
100
AcDb2dVertex
 10
1.563188976377952
 20
4.188703008933297
 30
0.0
  0
VERTEX
  5
3744
330
30EF
100
AcDbEntity
  8
0
100
AcDbVertex
100
AcDb2dVertex
 10
1.569768700787401
 20
4.17159572546873
 30
0.0
  0
SEQEND
  5
3745
330
30EF
100
AcDbEntity
  8
0
  0
LINE
  5
30F7
330
1E
100
AcDbEntity
  8
0
100
AcDbLine
 10
1.569768700787401
 20
4.138697103421485
 30
0.0
 11
1.569768700787401
 21
4.17159572546873
 31
0.0
  0
POLYLINE
  5
30F8
330
1E
100
AcDbEntity
  8
0
100
AcDb2dPolyline
 66
     1
 10
0.0
 20
0.0
 30
0.0
  0
VERTEX
  5
3746
330
30F8
100
AcDbEntity
  8
0
100
AcDbVertex
100
AcDb2dVertex
 10
1.569768700787401
 20
4.138697103421485
 30
0.0
  0
VERTEX
  5
3747
330
30F8
100
AcDbEntity
  8
0
100
AcDbVertex
100
AcDb2dVertex
 10
1.57766437007874
 20
4.116326040429359
 30
0.0
  0
VERTEX
  5
3748
330
30F8
100
AcDbEntity
  8
0
100
AcDbVertex
100
AcDb2dVertex
 10
1.600035433070866
 20
4.108430371138021
 30
0.0
  0
SEQEND
  5
3749
330
30F8
100
AcDbEntity
  8
0
  0
POLYLINE
  5
30FD
330
1E
100
AcDbEntity
  8
0
100
AcDb2dPolyline
 66
     1
 10
0.0
 20
0.0
 30
0.0
  0
VERTEX
  5
374A
330
30FD
100
AcDbEntity
  8
0
100
AcDbVertex
100
AcDb2dVertex
 10
1.921125984251968
 20
6.864018953815185
 30
0.0
  0
VERTEX
  5
374B
330
30FD
100
AcDbEntity
  8
0
100
AcDbVertex
100
AcDb2dVertex
 10
1.90928248031496
 20
6.866650843578965
 30
0.0
  0
VERTEX
  5
374C
330
30FD
100
AcDbEntity
  8
0
100
AcDbVertex
100
AcDb2dVertex
 10
1.898754921259842
 20
6.874546512870304
 30
0.0
  0
SEQEND
  5
374D
330
30FD
100
AcDbEntity
  8
0
  0
POLYLINE
  5
3102
330
1E
100
AcDbEntity
  8
0
100
AcDb2dPolyline
 66
     1
 10
0.0
 20
0.0
 30
0.0
  0
VERTEX
  5
374E
330
3102
100
AcDbEntity
  8
0
100
AcDbVertex
100
AcDb2dVertex
 10
1.898754921259842
 20
6.874546512870304
 30
0.0
  0
VERTEX
  5
374F
330
3102
100
AcDbEntity
  8
0
100
AcDbVertex
100
AcDb2dVertex
 10
1.888227362204724
 20
6.882442182161644
 30
0.0
  0
VERTEX
  5
3750
330
3102
100
AcDbEntity
  8
0
100
AcDbVertex
100
AcDb2dVertex
 10
1.876383858267716
 20
6.885074071925422
 30
0.0
  0
SEQEND
  5
3751
330
3102
100
AcDbEntity
  8
0
  0
LINE
  5
3107
330
1E
100
AcDbEntity
  8
0
100
AcDbLine
 10
1.680308070866141
 20
6.885074071925422
 30
0.0
 11
1.876383858267716
 21
6.885074071925422
 31
0.0
  0
POLYLINE
  5
3108
330
1E
100
AcDbEntity
  8
0
100
AcDb2dPolyline
 66
     1
 10
0.0
 20
0.0
 30
0.0
  0
VERTEX
  5
3752
330
3108
100
AcDbEntity
  8
0
100
AcDbVertex
100
AcDb2dVertex
 10
1.680308070866141
 20
6.885074071925422
 30
0.0
  0
VERTEX
  5
3753
330
3108
100
AcDbEntity
  8
0
100
AcDbVertex
100
AcDb2dVertex
 10
1.657937007874015
 20
6.875862457752194
 30
0.0
  0
VERTEX
  5
3754
330
3108
100
AcDbEntity
  8
0
100
AcDbVertex
100
AcDb2dVertex
 10
1.650041338582677
 20
6.854807339641957
 30
0.0
  0
SEQEND
  5
3755
330
3108
100
AcDbEntity
  8
0
  0
LINE
  5
310D
330
1E
100
AcDbEntity
  8
0
100
AcDbLine
 10
1.650041338582676
 20
6.854807339641957
 30
0.0
 11
1.650041338582676
 21
6.821908717594713
 31
0.0
  0
POLYLINE
  5
310E
330
1E
100
AcDbEntity
  8
0
100
AcDb2dPolyline
 66
     1
 10
0.0
 20
0.0
 30
0.0
  0
VERTEX
  5
3756
330
310E
100
AcDbEntity
  8
0
100
AcDbVertex
100
AcDb2dVertex
 10
1.650041338582677
 20
6.821908717594713
 30
0.0
  0
VERTEX
  5
3757
330
310E
100
AcDbEntity
  8
0
100
AcDbVertex
100
AcDb2dVertex
 10
1.643461614173228
 20
6.803485489248257
 30
0.0
  0
VERTEX
  5
3758
330
310E
100
AcDbEntity
  8
0
100
AcDbVertex
100
AcDb2dVertex
 10
1.62898622047244
 20
6.792957930193138
 30
0.0
  0
VERTEX
  5
3759
330
310E
100
AcDbEntity
  8
0
100
AcDbVertex
100
AcDb2dVertex
 10
1.610562992125984
 20
6.792957930193138
 30
0.0
  0
VERTEX
  5
375A
330
310E
100
AcDbEntity
  8
0
100
AcDbVertex
100
AcDb2dVertex
 10
1.594771653543307
 20
6.803485489248257
 30
0.0
  0
VERTEX
  5
375B
330
310E
100
AcDbEntity
  8
0
100
AcDbVertex
100
AcDb2dVertex
 10
1.589507874015747
 20
6.821908717594713
 30
0.0
  0
SEQEND
  5
375C
330
310E
100
AcDbEntity
  8
0
  0
LINE
  5
3116
330
1E
100
AcDbEntity
  8
0
100
AcDbLine
 10
1.343426181102362
 20
6.821908717594713
 30
0.0
 11
1.589507874015748
 21
6.821908717594713
 31
0.0
  0
POLYLINE
  5
3117
330
1E
100
AcDbEntity
  8
0
100
AcDb2dPolyline
 66
     1
 10
0.0
 20
0.0
 30
0.0
  0
VERTEX
  5
375D
330
3117
100
AcDbEntity
  8
0
100
AcDbVertex
100
AcDb2dVertex
 10
1.343426181102362
 20
6.821908717594713
 30
0.0
  0
VERTEX
  5
375E
330
3117
100
AcDbEntity
  8
0
100
AcDbVertex
100
AcDb2dVertex
 10
1.338162401574803
 20
6.803485489248257
 30
0.0
  0
VERTEX
  5
375F
330
3117
100
AcDbEntity
  8
0
100
AcDbVertex
100
AcDb2dVertex
 10
1.323687007874015
 20
6.792957930193138
 30
0.0
  0
VERTEX
  5
3760
330
3117
100
AcDbEntity
  8
0
100
AcDbVertex
100
AcDb2dVertex
 10
1.303947834645669
 20
6.792957930193138
 30
0.0
  0
VERTEX
  5
3761
330
3117
100
AcDbEntity
  8
0
100
AcDbVertex
100
AcDb2dVertex
 10
1.289472440944881
 20
6.803485489248257
 30
0.0
  0
VERTEX
  5
3762
330
3117
100
AcDbEntity
  8
0
100
AcDbVertex
100
AcDb2dVertex
 10
1.284208661417322
 20
6.821908717594713
 30
0.0
  0
SEQEND
  5
3763
330
3117
100
AcDbEntity
  8
0
  0
LINE
  5
311F
330
1E
100
AcDbEntity
  8
0
100
AcDbLine
 10
1.284208661417322
 20
6.854807339641957
 30
0.0
 11
1.284208661417322
 21
6.821908717594713
 31
0.0
  0
POLYLINE
  5
3120
330
1E
100
AcDbEntity
  8
0
100
AcDb2dPolyline
 66
     1
 10
0.0
 20
0.0
 30
0.0
  0
VERTEX
  5
3764
330
3120
100
AcDbEntity
  8
0
100
AcDbVertex
100
AcDb2dVertex
 10
1.284208661417322
 20
6.854807339641957
 30
0.0
  0
VERTEX
  5
3765
330
3120
100
AcDbEntity
  8
0
100
AcDbVertex
100
AcDb2dVertex
 10
1.274997047244094
 20
6.875862457752194
 30
0.0
  0
VERTEX
  5
3766
330
3120
100
AcDbEntity
  8
0
100
AcDbVertex
100
AcDb2dVertex
 10
1.253941929133858
 20
6.885074071925422
 30
0.0
  0
SEQEND
  5
3767
330
3120
100
AcDbEntity
  8
0
  0
LINE
  5
3125
330
1E
100
AcDbEntity
  8
0
100
AcDbLine
 10
1.01970374015748
 20
6.885074071925422
 30
0.0
 11
1.253941929133858
 21
6.885074071925422
 31
0.0
  0
POLYLINE
  5
3126
330
1E
100
AcDbEntity
  8
0
100
AcDb2dPolyline
 66
     1
 10
0.0
 20
0.0
 30
0.0
  0
VERTEX
  5
3768
330
3126
100
AcDbEntity
  8
0
100
AcDbVertex
100
AcDb2dVertex
 10
1.01970374015748
 20
6.885074071925422
 30
0.0
  0
VERTEX
  5
3769
330
3126
100
AcDbEntity
  8
0
100
AcDbVertex
100
AcDb2dVertex
 10
0.9986486220472439
 20
6.89296974121676
 30
0.0
  0
VERTEX
  5
376A
330
3126
100
AcDbEntity
  8
0
100
AcDbVertex
100
AcDb2dVertex
 10
0.9894370078740156
 20
6.915340804208887
 30
0.0
  0
SEQEND
  5
376B
330
3126
100
AcDbEntity
  8
0
  0
LINE
  5
312B
330
1E
100
AcDbEntity
  8
0
100
AcDbLine
 10
0.9894370078740157
 20
7.368025843578966
 30
0.0
 11
0.9894370078740157
 21
6.915340804208887
 31
0.0
  0
POLYLINE
  5
312C
330
1E
100
AcDbEntity
  8
0
100
AcDb2dPolyline
 66
     1
 10
0.0
 20
0.0
 30
0.0
  0
VERTEX
  5
376C
330
312C
100
AcDbEntity
  8
0
100
AcDbVertex
100
AcDb2dVertex
 10
0.9894370078740156
 20
7.368025843578966
 30
0.0
  0
VERTEX
  5
376D
330
312C
100
AcDbEntity
  8
0
100
AcDbVertex
100
AcDb2dVertex
 10
0.9986486220472439
 20
7.389080961689201
 30
0.0
  0
VERTEX
  5
376E
330
312C
100
AcDbEntity
  8
0
100
AcDbVertex
100
AcDb2dVertex
 10
1.01970374015748
 20
7.39829257586243
 30
0.0
  0
SEQEND
  5
376F
330
312C
100
AcDbEntity
  8
0
  0
POLYLINE
  5
3131
330
1E
100
AcDbEntity
  8
0
100
AcDb2dPolyline
 66
     1
 10
0.0
 20
0.0
 30
0.0
  0
VERTEX
  5
3770
330
3131
100
AcDbEntity
  8
0
100
AcDbVertex
100
AcDb2dVertex
 10
3.026519685039369
 20
7.39829257586243
 30
0.0
  0
VERTEX
  5
3771
330
3131
100
AcDbEntity
  8
0
100
AcDbVertex
100
AcDb2dVertex
 10
3.047574803149605
 20
7.389080961689201
 30
0.0
  0
VERTEX
  5
3772
330
3131
100
AcDbEntity
  8
0
100
AcDbVertex
100
AcDb2dVertex
 10
3.056786417322833
 20
7.368025843578966
 30
0.0
  0
SEQEND
  5
3773
330
3131
100
AcDbEntity
  8
0
  0
POLYLINE
  5
3136
330
1E
100
AcDbEntity
  8
0
100
AcDb2dPolyline
 66
     1
 10
0.0
 20
0.0
 30
0.0
  0
VERTEX
  5
3774
330
3136
100
AcDbEntity
  8
0
100
AcDbVertex
100
AcDb2dVertex
 10
3.056786417322833
 20
6.915340804208887
 30
0.0
  0
VERTEX
  5
3775
330
3136
100
AcDbEntity
  8
0
100
AcDbVertex
100
AcDb2dVertex
 10
3.047574803149605
 20
6.89296974121676
 30
0.0
  0
VERTEX
  5
3776
330
3136
100
AcDbEntity
  8
0
100
AcDbVertex
100
AcDb2dVertex
 10
3.026519685039369
 20
6.885074071925422
 30
0.0
  0
SEQEND
  5
3777
330
3136
100
AcDbEntity
  8
0
  0
LINE
  5
313B
330
1E
100
AcDbEntity
  8
0
100
AcDbLine
 10
2.792281496062992
 20
6.885074071925422
 30
0.0
 11
3.026519685039369
 21
6.885074071925422
 31
0.0
  0
POLYLINE
  5
313C
330
1E
100
AcDbEntity
  8
0
100
AcDb2dPolyline
 66
     1
 10
0.0
 20
0.0
 30
0.0
  0
VERTEX
  5
3778
330
313C
100
AcDbEntity
  8
0
100
AcDbVertex
100
AcDb2dVertex
 10
2.792281496062992
 20
6.885074071925422
 30
0.0
  0
VERTEX
  5
3779
330
313C
100
AcDbEntity
  8
0
100
AcDbVertex
100
AcDb2dVertex
 10
2.771226377952755
 20
6.875862457752194
 30
0.0
  0
VERTEX
  5
377A
330
313C
100
AcDbEntity
  8
0
100
AcDbVertex
100
AcDb2dVertex
 10
2.763330708661417
 20
6.854807339641957
 30
0.0
  0
SEQEND
  5
377B
330
313C
100
AcDbEntity
  8
0
  0
LINE
  5
3141
330
1E
100
AcDbEntity
  8
0
100
AcDbLine
 10
2.763330708661417
 20
6.854807339641957
 30
0.0
 11
2.763330708661417
 21
6.821908717594713
 31
0.0
  0
POLYLINE
  5
3142
330
1E
100
AcDbEntity
  8
0
100
AcDb2dPolyline
 66
     1
 10
0.0
 20
0.0
 30
0.0
  0
VERTEX
  5
377C
330
3142
100
AcDbEntity
  8
0
100
AcDbVertex
100
AcDb2dVertex
 10
2.763330708661417
 20
6.821908717594713
 30
0.0
  0
VERTEX
  5
377D
330
3142
100
AcDbEntity
  8
0
100
AcDbVertex
100
AcDb2dVertex
 10
2.756750984251968
 20
6.803485489248257
 30
0.0
  0
VERTEX
  5
377E
330
3142
100
AcDbEntity
  8
0
100
AcDbVertex
100
AcDb2dVertex
 10
2.742275590551181
 20
6.792957930193138
 30
0.0
  0
VERTEX
  5
377F
330
3142
100
AcDbEntity
  8
0
100
AcDbVertex
100
AcDb2dVertex
 10
2.723852362204723
 20
6.792957930193138
 30
0.0
  0
VERTEX
  5
3780
330
3142
100
AcDbEntity
  8
0
100
AcDbVertex
100
AcDb2dVertex
 10
2.708061023622047
 20
6.803485489248257
 30
0.0
  0
VERTEX
  5
3781
330
3142
100
AcDbEntity
  8
0
100
AcDbVertex
100
AcDb2dVertex
 10
2.702797244094488
 20
6.821908717594713
 30
0.0
  0
SEQEND
  5
3782
330
3142
100
AcDbEntity
  8
0
  0
LINE
  5
314A
330
1E
100
AcDbEntity
  8
0
100
AcDbLine
 10
2.702797244094488
 20
6.821908717594713
 30
0.0
 11
2.456715551181102
 21
6.821908717594713
 31
0.0
  0
POLYLINE
  5
314B
330
1E
100
AcDbEntity
  8
0
100
AcDb2dPolyline
 66
     1
 10
0.0
 20
0.0
 30
0.0
  0
VERTEX
  5
3783
330
314B
100
AcDbEntity
  8
0
100
AcDbVertex
100
AcDb2dVertex
 10
2.456715551181102
 20
6.821908717594713
 30
0.0
  0
VERTEX
  5
3784
330
314B
100
AcDbEntity
  8
0
100
AcDbVertex
100
AcDb2dVertex
 10
2.451451771653543
 20
6.803485489248257
 30
0.0
  0
VERTEX
  5
3785
330
314B
100
AcDbEntity
  8
0
100
AcDbVertex
100
AcDb2dVertex
 10
2.435660433070865
 20
6.792957930193138
 30
0.0
  0
VERTEX
  5
3786
330
314B
100
AcDbEntity
  8
0
100
AcDbVertex
100
AcDb2dVertex
 10
2.417237204724409
 20
6.792957930193138
 30
0.0
  0
VERTEX
  5
3787
330
314B
100
AcDbEntity
  8
0
100
AcDbVertex
100
AcDb2dVertex
 10
2.402761811023622
 20
6.803485489248257
 30
0.0
  0
VERTEX
  5
3788
330
314B
100
AcDbEntity
  8
0
100
AcDbVertex
100
AcDb2dVertex
 10
2.396182086614173
 20
6.821908717594713
 30
0.0
  0
SEQEND
  5
3789
330
314B
100
AcDbEntity
  8
0
  0
LINE
  5
3153
330
1E
100
AcDbEntity
  8
0
100
AcDbLine
 10
2.396182086614173
 20
6.854807339641957
 30
0.0
 11
2.396182086614173
 21
6.821908717594713
 31
0.0
  0
POLYLINE
  5
3154
330
1E
100
AcDbEntity
  8
0
100
AcDb2dPolyline
 66
     1
 10
0.0
 20
0.0
 30
0.0
  0
VERTEX
  5
378A
330
3154
100
AcDbEntity
  8
0
100
AcDbVertex
100
AcDb2dVertex
 10
2.396182086614173
 20
6.854807339641957
 30
0.0
  0
VERTEX
  5
378B
330
3154
100
AcDbEntity
  8
0
100
AcDbVertex
100
AcDb2dVertex
 10
2.388286417322834
 20
6.875862457752194
 30
0.0
  0
VERTEX
  5
378C
330
3154
100
AcDbEntity
  8
0
100
AcDbVertex
100
AcDb2dVertex
 10
2.367231299212598
 20
6.885074071925422
 30
0.0
  0
SEQEND
  5
378D
330
3154
100
AcDbEntity
  8
0
  0
LINE
  5
3159
330
1E
100
AcDbEntity
  8
0
100
AcDbLine
 10
2.169839566929133
 20
6.885074071925422
 30
0.0
 11
2.367231299212598
 21
6.885074071925422
 31
0.0
  0
POLYLINE
  5
315A
330
1E
100
AcDbEntity
  8
0
100
AcDb2dPolyline
 66
     1
 10
0.0
 20
0.0
 30
0.0
  0
VERTEX
  5
378E
330
315A
100
AcDbEntity
  8
0
100
AcDbVertex
100
AcDb2dVertex
 10
2.169839566929133
 20
6.885074071925422
 30
0.0
  0
VERTEX
  5
378F
330
315A
100
AcDbEntity
  8
0
100
AcDbVertex
100
AcDb2dVertex
 10
2.157996062992125
 20
6.882442182161644
 30
0.0
  0
VERTEX
  5
3790
330
315A
100
AcDbEntity
  8
0
100
AcDbVertex
100
AcDb2dVertex
 10
2.147468503937007
 20
6.874546512870304
 30
0.0
  0
SEQEND
  5
3791
330
315A
100
AcDbEntity
  8
0
  0
POLYLINE
  5
315F
330
1E
100
AcDbEntity
  8
0
100
AcDb2dPolyline
 66
     1
 10
0.0
 20
0.0
 30
0.0
  0
VERTEX
  5
3792
330
315F
100
AcDbEntity
  8
0
100
AcDbVertex
100
AcDb2dVertex
 10
2.147468503937007
 20
6.874546512870304
 30
0.0
  0
VERTEX
  5
3793
330
315F
100
AcDbEntity
  8
0
100
AcDbVertex
100
AcDb2dVertex
 10
2.13694094488189
 20
6.866650843578965
 30
0.0
  0
VERTEX
  5
3794
330
315F
100
AcDbEntity
  8
0
100
AcDbVertex
100
AcDb2dVertex
 10
2.125097440944881
 20
6.864018953815185
 30
0.0
  0
SEQEND
  5
3795
330
315F
100
AcDbEntity
  8
0
  0
LINE
  5
3164
330
1E
100
AcDbEntity
  8
0
100
AcDbLine
 10
2.123781496062992
 20
6.864018953815186
 30
0.0
 11
2.125097440944881
 21
6.864018953815186
 31
0.0
  0
POLYLINE
  5
3165
330
1E
100
AcDbEntity
  8
0
100
AcDb2dPolyline
 66
     1
 10
0.0
 20
0.0
 30
0.0
  0
VERTEX
  5
3796
330
3165
100
AcDbEntity
  8
0
100
AcDbVertex
100
AcDb2dVertex
 10
2.123781496062992
 20
6.864018953815185
 30
0.0
  0
VERTEX
  5
3797
330
3165
100
AcDbEntity
  8
0
100
AcDbVertex
100
AcDb2dVertex
 10
2.107990157480315
 20
6.867966788460855
 30
0.0
  0
VERTEX
  5
3798
330
3165
100
AcDbEntity
  8
0
100
AcDbVertex
100
AcDb2dVertex
 10
2.097462598425196
 20
6.879810292397864
 30
0.0
  0
SEQEND
  5
3799
330
3165
100
AcDbEntity
  8
0
  0
LINE
  5
316A
330
1E
100
AcDbEntity
  8
0
100
AcDbLine
 10
1.948760826771653
 20
6.879810292397863
 30
0.0
 11
2.097462598425196
 21
6.879810292397863
 31
0.0
  0
POLYLINE
  5
316B
330
1E
100
AcDbEntity
  8
0
100
AcDb2dPolyline
 66
     1
 10
0.0
 20
0.0
 30
0.0
  0
VERTEX
  5
379A
330
316B
100
AcDbEntity
  8
0
100
AcDbVertex
100
AcDb2dVertex
 10
1.948760826771653
 20
6.879810292397864
 30
0.0
  0
VERTEX
  5
379B
330
316B
100
AcDbEntity
  8
0
100
AcDbVertex
100
AcDb2dVertex
 10
1.938233267716535
 20
6.867966788460855
 30
0.0
  0
VERTEX
  5
379C
330
316B
100
AcDbEntity
  8
0
100
AcDbVertex
100
AcDb2dVertex
 10
1.922441929133858
 20
6.864018953815185
 30
0.0
  0
SEQEND
  5
379D
330
316B
100
AcDbEntity
  8
0
  0
LINE
  5
3170
330
1E
100
AcDbEntity
  8
0
100
AcDbLine
 10
1.922441929133858
 20
6.864018953815186
 30
0.0
 11
1.921125984251968
 21
6.864018953815186
 31
0.0
  0
LINE
  5
3171
330
1E
100
AcDbEntity
  8
0
100
AcDbLine
 10
0.8302076771653545
 20
3.425454977437234
 30
0.0
 11
0.8302076771653545
 21
7.56673352074432
 31
0.0
  0
LINE
  5
3172
330
1E
100
AcDbEntity
  8
0
100
AcDbLine
 10
3.216015748031495
 20
3.425454977437234
 30
0.0
 11
0.8302076771653545
 21
3.425454977437234
 31
0.0
  0
LINE
  5
3173
330
1E
100
AcDbEntity
  8
0
100
AcDbLine
 10
2.917296259842519
 20
5.774416591610462
 30
0.0
 11
2.960722440944881
 21
5.774416591610462
 31
0.0
  0
POLYLINE
  5
3174
330
1E
100
AcDbEntity
  8
0
100
AcDb2dPolyline
 66
     1
 10
0.0
 20
0.0
 30
0.0
  0
VERTEX
  5
379E
330
3174
100
AcDbEntity
  8
0
100
AcDbVertex
100
AcDb2dVertex
 10
2.917296259842519
 20
5.774416591610462
 30
0.0
  0
VERTEX
  5
379F
330
3174
100
AcDbEntity
  8
0
100
AcDbVertex
100
AcDb2dVertex
 10
2.909400590551181
 20
5.771784701846682
 30
0.0
  0
VERTEX
  5
37A0
330
3174
100
AcDbEntity
  8
0
100
AcDbVertex
100
AcDb2dVertex
 10
2.90545275590551
 20
5.762573087673453
 30
0.0
  0
SEQEND
  5
37A1
330
3174
100
AcDbEntity
  8
0
  0
LINE
  5
3179
330
1E
100
AcDbEntity
  8
0
100
AcDbLine
 10
2.905452755905511
 20
5.762573087673453
 30
0.0
 11
2.905452755905511
 21
5.72177879633487
 31
0.0
  0
POLYLINE
  5
317A
330
1E
100
AcDbEntity
  8
0
100
AcDb2dPolyline
 66
     1
 10
0.0
 20
0.0
 30
0.0
  0
VERTEX
  5
37A2
330
317A
100
AcDbEntity
  8
0
100
AcDbVertex
100
AcDb2dVertex
 10
2.90545275590551
 20
5.72177879633487
 30
0.0
  0
VERTEX
  5
37A3
330
317A
100
AcDbEntity
  8
0
100
AcDbVertex
100
AcDb2dVertex
 10
2.901504921259842
 20
5.712567182161643
 30
0.0
  0
VERTEX
  5
37A4
330
317A
100
AcDbEntity
  8
0
100
AcDbVertex
100
AcDb2dVertex
 10
2.893609251968503
 20
5.709935292397863
 30
0.0
  0
SEQEND
  5
37A5
330
317A
100
AcDbEntity
  8
0
  0
LINE
  5
317F
330
1E
100
AcDbEntity
  8
0
100
AcDbLine
 10
2.426448818897637
 20
5.709935292397863
 30
0.0
 11
2.893609251968503
 21
5.709935292397863
 31
0.0
  0
POLYLINE
  5
3180
330
1E
100
AcDbEntity
  8
0
100
AcDb2dPolyline
 66
     1
 10
0.0
 20
0.0
 30
0.0
  0
VERTEX
  5
37A6
330
3180
100
AcDbEntity
  8
0
100
AcDbVertex
100
AcDb2dVertex
 10
2.426448818897638
 20
5.709935292397863
 30
0.0
  0
VERTEX
  5
37A7
330
3180
100
AcDbEntity
  8
0
100
AcDbVertex
100
AcDb2dVertex
 10
2.417237204724409
 20
5.712567182161643
 30
0.0
  0
VERTEX
  5
37A8
330
3180
100
AcDbEntity
  8
0
100
AcDbVertex
100
AcDb2dVertex
 10
2.414605314960629
 20
5.72177879633487
 30
0.0
  0
SEQEND
  5
37A9
330
3180
100
AcDbEntity
  8
0
  0
LINE
  5
3185
330
1E
100
AcDbEntity
  8
0
100
AcDbLine
 10
2.414605314960629
 20
5.762573087673453
 30
0.0
 11
2.414605314960629
 21
5.72177879633487
 31
0.0
  0
POLYLINE
  5
3186
330
1E
100
AcDbEntity
  8
0
100
AcDb2dPolyline
 66
     1
 10
0.0
 20
0.0
 30
0.0
  0
VERTEX
  5
37AA
330
3186
100
AcDbEntity
  8
0
100
AcDbVertex
100
AcDb2dVertex
 10
2.414605314960629
 20
5.762573087673453
 30
0.0
  0
VERTEX
  5
37AB
330
3186
100
AcDbEntity
  8
0
100
AcDbVertex
100
AcDb2dVertex
 10
2.41065748031496
 20
5.771784701846682
 30
0.0
  0
VERTEX
  5
37AC
330
3186
100
AcDbEntity
  8
0
100
AcDbVertex
100
AcDb2dVertex
 10
2.402761811023622
 20
5.774416591610462
 30
0.0
  0
SEQEND
  5
37AD
330
3186
100
AcDbEntity
  8
0
  0
LINE
  5
318B
330
1E
100
AcDbEntity
  8
0
100
AcDbLine
 10
2.280378937007874
 20
5.774416591610462
 30
0.0
 11
2.402761811023622
 21
5.774416591610462
 31
0.0
  0
POLYLINE
  5
318C
330
1E
100
AcDbEntity
  8
0
100
AcDb2dPolyline
 66
     1
 10
0.0
 20
0.0
 30
0.0
  0
VERTEX
  5
37AE
330
318C
100
AcDbEntity
  8
0
100
AcDbVertex
100
AcDb2dVertex
 10
2.280378937007873
 20
5.774416591610462
 30
0.0
  0
VERTEX
  5
37AF
330
318C
100
AcDbEntity
  8
0
100
AcDbVertex
100
AcDb2dVertex
 10
2.272483267716535
 20
5.771784701846682
 30
0.0
  0
VERTEX
  5
37B0
330
318C
100
AcDbEntity
  8
0
100
AcDbVertex
100
AcDb2dVertex
 10
2.268535433070866
 20
5.762573087673453
 30
0.0
  0
SEQEND
  5
37B1
330
318C
100
AcDbEntity
  8
0
  0
LINE
  5
3191
330
1E
100
AcDbEntity
  8
0
100
AcDbLine
 10
2.268535433070866
 20
5.762573087673453
 30
0.0
 11
2.268535433070866
 21
5.72177879633487
 31
0.0
  0
POLYLINE
  5
3192
330
1E
100
AcDbEntity
  8
0
100
AcDb2dPolyline
 66
     1
 10
0.0
 20
0.0
 30
0.0
  0
VERTEX
  5
37B2
330
3192
100
AcDbEntity
  8
0
100
AcDbVertex
100
AcDb2dVertex
 10
2.268535433070866
 20
5.72177879633487
 30
0.0
  0
VERTEX
  5
37B3
330
3192
100
AcDbEntity
  8
0
100
AcDbVertex
100
AcDb2dVertex
 10
2.265903543307086
 20
5.712567182161643
 30
0.0
  0
VERTEX
  5
37B4
330
3192
100
AcDbEntity
  8
0
100
AcDbVertex
100
AcDb2dVertex
 10
2.256691929133858
 20
5.709935292397863
 30
0.0
  0
SEQEND
  5
37B5
330
3192
100
AcDbEntity
  8
0
  0
LINE
  5
3197
330
1E
100
AcDbEntity
  8
0
100
AcDbLine
 10
1.789531496062992
 20
5.709935292397863
 30
0.0
 11
2.256691929133858
 21
5.709935292397863
 31
0.0
  0
POLYLINE
  5
3198
330
1E
100
AcDbEntity
  8
0
100
AcDb2dPolyline
 66
     1
 10
0.0
 20
0.0
 30
0.0
  0
VERTEX
  5
37B6
330
3198
100
AcDbEntity
  8
0
100
AcDbVertex
100
AcDb2dVertex
 10
1.789531496062991
 20
5.709935292397863
 30
0.0
  0
VERTEX
  5
37B7
330
3198
100
AcDbEntity
  8
0
100
AcDbVertex
100
AcDb2dVertex
 10
1.781635826771653
 20
5.712567182161643
 30
0.0
  0
VERTEX
  5
37B8
330
3198
100
AcDbEntity
  8
0
100
AcDbVertex
100
AcDb2dVertex
 10
1.777687992125984
 20
5.72177879633487
 30
0.0
  0
SEQEND
  5
37B9
330
3198
100
AcDbEntity
  8
0
  0
LINE
  5
319D
330
1E
100
AcDbEntity
  8
0
100
AcDbLine
 10
1.777687992125984
 20
5.762573087673453
 30
0.0
 11
1.777687992125984
 21
5.72177879633487
 31
0.0
  0
POLYLINE
  5
319E
330
1E
100
AcDbEntity
  8
0
100
AcDb2dPolyline
 66
     1
 10
0.0
 20
0.0
 30
0.0
  0
VERTEX
  5
37BA
330
319E
100
AcDbEntity
  8
0
100
AcDbVertex
100
AcDb2dVertex
 10
1.777687992125984
 20
5.762573087673453
 30
0.0
  0
VERTEX
  5
37BB
330
319E
100
AcDbEntity
  8
0
100
AcDbVertex
100
AcDb2dVertex
 10
1.773740157480314
 20
5.771784701846682
 30
0.0
  0
VERTEX
  5
37BC
330
319E
100
AcDbEntity
  8
0
100
AcDbVertex
100
AcDb2dVertex
 10
1.765844488188976
 20
5.774416591610462
 30
0.0
  0
SEQEND
  5
37BD
330
319E
100
AcDbEntity
  8
0
  0
LINE
  5
31A3
330
1E
100
AcDbEntity
  8
0
100
AcDbLine
 10
1.644777559055117
 20
5.774416591610462
 30
0.0
 11
1.765844488188976
 21
5.774416591610462
 31
0.0
  0
POLYLINE
  5
31A4
330
1E
100
AcDbEntity
  8
0
100
AcDb2dPolyline
 66
     1
 10
0.0
 20
0.0
 30
0.0
  0
VERTEX
  5
37BE
330
31A4
100
AcDbEntity
  8
0
100
AcDbVertex
100
AcDb2dVertex
 10
1.644777559055117
 20
5.774416591610462
 30
0.0
  0
VERTEX
  5
37BF
330
31A4
100
AcDbEntity
  8
0
100
AcDbVertex
100
AcDb2dVertex
 10
1.635565944881889
 20
5.771784701846682
 30
0.0
  0
VERTEX
  5
37C0
330
31A4
100
AcDbEntity
  8
0
100
AcDbVertex
100
AcDb2dVertex
 10
1.63161811023622
 20
5.762573087673453
 30
0.0
  0
SEQEND
  5
37C1
330
31A4
100
AcDbEntity
  8
0
  0
LINE
  5
31A9
330
1E
100
AcDbEntity
  8
0
100
AcDbLine
 10
1.63161811023622
 20
5.762573087673453
 30
0.0
 11
1.63161811023622
 21
5.72177879633487
 31
0.0
  0
POLYLINE
  5
31AA
330
1E
100
AcDbEntity
  8
0
100
AcDb2dPolyline
 66
     1
 10
0.0
 20
0.0
 30
0.0
  0
VERTEX
  5
37C2
330
31AA
100
AcDbEntity
  8
0
100
AcDbVertex
100
AcDb2dVertex
 10
1.63161811023622
 20
5.72177879633487
 30
0.0
  0
VERTEX
  5
37C3
330
31AA
100
AcDbEntity
  8
0
100
AcDbVertex
100
AcDb2dVertex
 10
1.62898622047244
 20
5.712567182161643
 30
0.0
  0
VERTEX
  5
37C4
330
31AA
100
AcDbEntity
  8
0
100
AcDbVertex
100
AcDb2dVertex
 10
1.619774606299212
 20
5.709935292397863
 30
0.0
  0
SEQEND
  5
37C5
330
31AA
100
AcDbEntity
  8
0
  0
LINE
  5
31AF
330
1E
100
AcDbEntity
  8
0
100
AcDbLine
 10
1.152614173228346
 20
5.709935292397863
 30
0.0
 11
1.619774606299212
 21
5.709935292397863
 31
0.0
  0
POLYLINE
  5
31B0
330
1E
100
AcDbEntity
  8
0
100
AcDb2dPolyline
 66
     1
 10
0.0
 20
0.0
 30
0.0
  0
VERTEX
  5
37C6
330
31B0
100
AcDbEntity
  8
0
100
AcDbVertex
100
AcDb2dVertex
 10
1.152614173228346
 20
5.709935292397863
 30
0.0
  0
VERTEX
  5
37C7
330
31B0
100
AcDbEntity
  8
0
100
AcDbVertex
100
AcDb2dVertex
 10
1.144718503937008
 20
5.712567182161643
 30
0.0
  0
VERTEX
  5
37C8
330
31B0
100
AcDbEntity
  8
0
100
AcDbVertex
100
AcDb2dVertex
 10
1.140770669291338
 20
5.72177879633487
 30
0.0
  0
SEQEND
  5
37C9
330
31B0
100
AcDbEntity
  8
0
  0
LINE
  5
31B5
330
1E
100
AcDbEntity
  8
0
100
AcDbLine
 10
1.140770669291338
 20
5.762573087673453
 30
0.0
 11
1.140770669291338
 21
5.72177879633487
 31
0.0
  0
POLYLINE
  5
31B6
330
1E
100
AcDbEntity
  8
0
100
AcDb2dPolyline
 66
     1
 10
0.0
 20
0.0
 30
0.0
  0
VERTEX
  5
37CA
330
31B6
100
AcDbEntity
  8
0
100
AcDbVertex
100
AcDb2dVertex
 10
1.140770669291338
 20
5.762573087673453
 30
0.0
  0
VERTEX
  5
37CB
330
31B6
100
AcDbEntity
  8
0
100
AcDbVertex
100
AcDb2dVertex
 10
1.136822834645669
 20
5.771784701846682
 30
0.0
  0
VERTEX
  5
37CC
330
31B6
100
AcDbEntity
  8
0
100
AcDbVertex
100
AcDb2dVertex
 10
1.12892716535433
 20
5.774416591610462
 30
0.0
  0
SEQEND
  5
37CD
330
31B6
100
AcDbEntity
  8
0
  0
LINE
  5
31BB
330
1E
100
AcDbEntity
  8
0
100
AcDbLine
 10
1.12892716535433
 20
5.774416591610462
 30
0.0
 11
1.085500984251968
 21
5.774416591610462
 31
0.0
  0
POLYLINE
  5
31BC
330
1E
100
AcDbEntity
  8
0
100
AcDb2dPolyline
 66
     1
 10
0.0
 20
0.0
 30
0.0
  0
VERTEX
  5
37CE
330
31BC
100
AcDbEntity
  8
0
100
AcDbVertex
100
AcDb2dVertex
 10
1.085500984251968
 20
5.774416591610462
 30
0.0
  0
VERTEX
  5
37CF
330
31BC
100
AcDbEntity
  8
0
100
AcDbVertex
100
AcDb2dVertex
 10
1.076289370078739
 20
5.77836442625613
 30
0.0
  0
VERTEX
  5
37D0
330
31BC
100
AcDbEntity
  8
0
100
AcDbVertex
100
AcDb2dVertex
 10
1.07365748031496
 20
5.786260095547469
 30
0.0
  0
SEQEND
  5
37D1
330
31BC
100
AcDbEntity
  8
0
  0
LINE
  5
31C1
330
1E
100
AcDbEntity
  8
0
100
AcDbLine
 10
1.07365748031496
 20
6.424493363264005
 30
0.0
 11
1.07365748031496
 21
5.786260095547469
 31
0.0
  0
POLYLINE
  5
31C2
330
1E
100
AcDbEntity
  8
0
100
AcDb2dPolyline
 66
     1
 10
0.0
 20
0.0
 30
0.0
  0
VERTEX
  5
37D2
330
31C2
100
AcDbEntity
  8
0
100
AcDbVertex
100
AcDb2dVertex
 10
1.07365748031496
 20
6.424493363264004
 30
0.0
  0
VERTEX
  5
37D3
330
31C2
100
AcDbEntity
  8
0
100
AcDbVertex
100
AcDb2dVertex
 10
1.076289370078739
 20
6.432389032555344
 30
0.0
  0
VERTEX
  5
37D4
330
31C2
100
AcDbEntity
  8
0
100
AcDbVertex
100
AcDb2dVertex
 10
1.085500984251968
 20
6.436336867201013
 30
0.0
  0
SEQEND
  5
37D5
330
31C2
100
AcDbEntity
  8
0
  0
LINE
  5
31C7
330
1E
100
AcDbEntity
  8
0
100
AcDbLine
 10
2.960722440944881
 20
6.436336867201013
 30
0.0
 11
1.085500984251968
 21
6.436336867201013
 31
0.0
  0
POLYLINE
  5
31C8
330
1E
100
AcDbEntity
  8
0
100
AcDb2dPolyline
 66
     1
 10
0.0
 20
0.0
 30
0.0
  0
VERTEX
  5
37D6
330
31C8
100
AcDbEntity
  8
0
100
AcDbVertex
100
AcDb2dVertex
 10
2.960722440944881
 20
6.436336867201013
 30
0.0
  0
VERTEX
  5
37D7
330
31C8
100
AcDbEntity
  8
0
100
AcDbVertex
100
AcDb2dVertex
 10
2.96993405511811
 20
6.432389032555344
 30
0.0
  0
VERTEX
  5
37D8
330
31C8
100
AcDbEntity
  8
0
100
AcDbVertex
100
AcDb2dVertex
 10
2.973881889763778
 20
6.424493363264004
 30
0.0
  0
SEQEND
  5
37D9
330
31C8
100
AcDbEntity
  8
0
  0
LINE
  5
31CD
330
1E
100
AcDbEntity
  8
0
100
AcDbLine
 10
2.973881889763779
 20
6.424493363264005
 30
0.0
 11
2.973881889763779
 21
5.786260095547469
 31
0.0
  0
POLYLINE
  5
31CE
330
1E
100
AcDbEntity
  8
0
100
AcDb2dPolyline
 66
     1
 10
0.0
 20
0.0
 30
0.0
  0
VERTEX
  5
37DA
330
31CE
100
AcDbEntity
  8
0
100
AcDbVertex
100
AcDb2dVertex
 10
2.973881889763778
 20
5.786260095547469
 30
0.0
  0
VERTEX
  5
37DB
330
31CE
100
AcDbEntity
  8
0
100
AcDbVertex
100
AcDb2dVertex
 10
2.96993405511811
 20
5.77836442625613
 30
0.0
  0
VERTEX
  5
37DC
330
31CE
100
AcDbEntity
  8
0
100
AcDbVertex
100
AcDb2dVertex
 10
2.960722440944881
 20
5.774416591610462
 30
0.0
  0
SEQEND
  5
37DD
330
31CE
100
AcDbEntity
  8
0
  0
LINE
  5
31D3
330
1E
100
AcDbEntity
  8
0
100
AcDbLine
 10
1.140770669291338
 20
4.609805371138021
 30
0.0
 11
1.140770669291338
 21
4.567695134917547
 31
0.0
  0
POLYLINE
  5
31D4
330
1E
100
AcDbEntity
  8
0
100
AcDb2dPolyline
 66
     1
 10
0.0
 20
0.0
 30
0.0
  0
VERTEX
  5
37DE
330
31D4
100
AcDbEntity
  8
0
100
AcDbVertex
100
AcDb2dVertex
 10
1.140770669291338
 20
4.609805371138021
 30
0.0
  0
VERTEX
  5
37DF
330
31D4
100
AcDbEntity
  8
0
100
AcDbVertex
100
AcDb2dVertex
 10
1.136822834645669
 20
4.617701040429359
 30
0.0
  0
VERTEX
  5
37E0
330
31D4
100
AcDbEntity
  8
0
100
AcDbVertex
100
AcDb2dVertex
 10
1.12892716535433
 20
4.621648875075028
 30
0.0
  0
SEQEND
  5
37E1
330
31D4
100
AcDbEntity
  8
0
  0
LINE
  5
31D9
330
1E
100
AcDbEntity
  8
0
100
AcDbLine
 10
1.12892716535433
 20
4.621648875075028
 30
0.0
 11
1.085500984251968
 21
4.621648875075028
 31
0.0
  0
POLYLINE
  5
31DA
330
1E
100
AcDbEntity
  8
0
100
AcDb2dPolyline
 66
     1
 10
0.0
 20
0.0
 30
0.0
  0
VERTEX
  5
37E2
330
31DA
100
AcDbEntity
  8
0
100
AcDbVertex
100
AcDb2dVertex
 10
1.085500984251968
 20
4.621648875075028
 30
0.0
  0
VERTEX
  5
37E3
330
31DA
100
AcDbEntity
  8
0
100
AcDbVertex
100
AcDb2dVertex
 10
1.076289370078739
 20
4.625596709720698
 30
0.0
  0
VERTEX
  5
37E4
330
31DA
100
AcDbEntity
  8
0
100
AcDbVertex
100
AcDb2dVertex
 10
1.07365748031496
 20
4.633492379012036
 30
0.0
  0
SEQEND
  5
37E5
330
31DA
100
AcDbEntity
  8
0
  0
LINE
  5
31DF
330
1E
100
AcDbEntity
  8
0
100
AcDbLine
 10
1.07365748031496
 20
5.271725646728572
 30
0.0
 11
1.07365748031496
 21
4.633492379012036
 31
0.0
  0
POLYLINE
  5
31E0
330
1E
100
AcDbEntity
  8
0
100
AcDb2dPolyline
 66
     1
 10
0.0
 20
0.0
 30
0.0
  0
VERTEX
  5
37E6
330
31E0
100
AcDbEntity
  8
0
100
AcDbVertex
100
AcDb2dVertex
 10
1.07365748031496
 20
5.271725646728572
 30
0.0
  0
VERTEX
  5
37E7
330
31E0
100
AcDbEntity
  8
0
100
AcDbVertex
100
AcDb2dVertex
 10
1.076289370078739
 20
5.279621316019911
 30
0.0
  0
VERTEX
  5
37E8
330
31E0
100
AcDbEntity
  8
0
100
AcDbVertex
100
AcDb2dVertex
 10
1.085500984251968
 20
5.28356915066558
 30
0.0
  0
SEQEND
  5
37E9
330
31E0
100
AcDbEntity
  8
0
  0
LINE
  5
31E5
330
1E
100
AcDbEntity
  8
0
100
AcDbLine
 10
2.960722440944881
 20
5.28356915066558
 30
0.0
 11
1.085500984251968
 21
5.28356915066558
 31
0.0
  0
POLYLINE
  5
31E6
330
1E
100
AcDbEntity
  8
0
100
AcDb2dPolyline
 66
     1
 10
0.0
 20
0.0
 30
0.0
  0
VERTEX
  5
37EA
330
31E6
100
AcDbEntity
  8
0
100
AcDbVertex
100
AcDb2dVertex
 10
2.960722440944881
 20
5.28356915066558
 30
0.0
  0
VERTEX
  5
37EB
330
31E6
100
AcDbEntity
  8
0
100
AcDbVertex
100
AcDb2dVertex
 10
2.96993405511811
 20
5.279621316019911
 30
0.0
  0
VERTEX
  5
37EC
330
31E6
100
AcDbEntity
  8
0
100
AcDbVertex
100
AcDb2dVertex
 10
2.973881889763778
 20
5.271725646728572
 30
0.0
  0
SEQEND
  5
37ED
330
31E6
100
AcDbEntity
  8
0
  0
LINE
  5
31EB
330
1E
100
AcDbEntity
  8
0
100
AcDbLine
 10
2.973881889763779
 20
5.271725646728572
 30
0.0
 11
2.973881889763779
 21
4.633492379012036
 31
0.0
  0
POLYLINE
  5
31EC
330
1E
100
AcDbEntity
  8
0
100
AcDb2dPolyline
 66
     1
 10
0.0
 20
0.0
 30
0.0
  0
VERTEX
  5
37EE
330
31EC
100
AcDbEntity
  8
0
100
AcDbVertex
100
AcDb2dVertex
 10
2.973881889763778
 20
4.633492379012036
 30
0.0
  0
VERTEX
  5
37EF
330
31EC
100
AcDbEntity
  8
0
100
AcDbVertex
100
AcDb2dVertex
 10
2.96993405511811
 20
4.625596709720698
 30
0.0
  0
VERTEX
  5
37F0
330
31EC
100
AcDbEntity
  8
0
100
AcDbVertex
100
AcDb2dVertex
 10
2.960722440944881
 20
4.621648875075028
 30
0.0
  0
SEQEND
  5
37F1
330
31EC
100
AcDbEntity
  8
0
  0
LINE
  5
31F1
330
1E
100
AcDbEntity
  8
0
100
AcDbLine
 10
2.917296259842519
 20
4.621648875075028
 30
0.0
 11
2.960722440944881
 21
4.621648875075028
 31
0.0
  0
POLYLINE
  5
31F2
330
1E
100
AcDbEntity
  8
0
100
AcDb2dPolyline
 66
     1
 10
0.0
 20
0.0
 30
0.0
  0
VERTEX
  5
37F2
330
31F2
100
AcDbEntity
  8
0
100
AcDbVertex
100
AcDb2dVertex
 10
2.917296259842519
 20
4.621648875075028
 30
0.0
  0
VERTEX
  5
37F3
330
31F2
100
AcDbEntity
  8
0
100
AcDbVertex
100
AcDb2dVertex
 10
2.909400590551181
 20
4.617701040429359
 30
0.0
  0
VERTEX
  5
37F4
330
31F2
100
AcDbEntity
  8
0
100
AcDbVertex
100
AcDb2dVertex
 10
2.90545275590551
 20
4.609805371138021
 30
0.0
  0
SEQEND
  5
37F5
330
31F2
100
AcDbEntity
  8
0
  0
LINE
  5
31F7
330
1E
100
AcDbEntity
  8
0
100
AcDbLine
 10
2.905452755905511
 20
4.609805371138021
 30
0.0
 11
2.905452755905511
 21
4.567695134917547
 31
0.0
  0
POLYLINE
  5
31F8
330
1E
100
AcDbEntity
  8
0
100
AcDb2dPolyline
 66
     1
 10
0.0
 20
0.0
 30
0.0
  0
VERTEX
  5
37F6
330
31F8
100
AcDbEntity
  8
0
100
AcDbVertex
100
AcDb2dVertex
 10
2.90545275590551
 20
4.567695134917547
 30
0.0
  0
VERTEX
  5
37F7
330
31F8
100
AcDbEntity
  8
0
100
AcDbVertex
100
AcDb2dVertex
 10
2.901504921259842
 20
4.55979946562621
 30
0.0
  0
VERTEX
  5
37F8
330
31F8
100
AcDbEntity
  8
0
100
AcDbVertex
100
AcDb2dVertex
 10
2.893609251968503
 20
4.55585163098054
 30
0.0
  0
SEQEND
  5
37F9
330
31F8
100
AcDbEntity
  8
0
  0
LINE
  5
31FD
330
1E
100
AcDbEntity
  8
0
100
AcDbLine
 10
2.426448818897637
 20
4.55585163098054
 30
0.0
 11
2.893609251968503
 21
4.55585163098054
 31
0.0
  0
POLYLINE
  5
31FE
330
1E
100
AcDbEntity
  8
0
100
AcDb2dPolyline
 66
     1
 10
0.0
 20
0.0
 30
0.0
  0
VERTEX
  5
37FA
330
31FE
100
AcDbEntity
  8
0
100
AcDbVertex
100
AcDb2dVertex
 10
2.426448818897638
 20
4.55585163098054
 30
0.0
  0
VERTEX
  5
37FB
330
31FE
100
AcDbEntity
  8
0
100
AcDbVertex
100
AcDb2dVertex
 10
2.417237204724409
 20
4.55979946562621
 30
0.0
  0
VERTEX
  5
37FC
330
31FE
100
AcDbEntity
  8
0
100
AcDbVertex
100
AcDb2dVertex
 10
2.414605314960629
 20
4.567695134917547
 30
0.0
  0
SEQEND
  5
37FD
330
31FE
100
AcDbEntity
  8
0
  0
LINE
  5
3203
330
1E
100
AcDbEntity
  8
0
100
AcDbLine
 10
2.414605314960629
 20
4.609805371138021
 30
0.0
 11
2.414605314960629
 21
4.567695134917547
 31
0.0
  0
POLYLINE
  5
3204
330
1E
100
AcDbEntity
  8
0
100
AcDb2dPolyline
 66
     1
 10
0.0
 20
0.0
 30
0.0
  0
VERTEX
  5
37FE
330
3204
100
AcDbEntity
  8
0
100
AcDbVertex
100
AcDb2dVertex
 10
2.414605314960629
 20
4.609805371138021
 30
0.0
  0
VERTEX
  5
37FF
330
3204
100
AcDbEntity
  8
0
100
AcDbVertex
100
AcDb2dVertex
 10
2.41065748031496
 20
4.617701040429359
 30
0.0
  0
VERTEX
  5
3800
330
3204
100
AcDbEntity
  8
0
100
AcDbVertex
100
AcDb2dVertex
 10
2.402761811023622
 20
4.621648875075028
 30
0.0
  0
SEQEND
  5
3801
330
3204
100
AcDbEntity
  8
0
  0
LINE
  5
3209
330
1E
100
AcDbEntity
  8
0
100
AcDbLine
 10
2.280378937007874
 20
4.621648875075028
 30
0.0
 11
2.402761811023622
 21
4.621648875075028
 31
0.0
  0
POLYLINE
  5
320A
330
1E
100
AcDbEntity
  8
0
100
AcDb2dPolyline
 66
     1
 10
0.0
 20
0.0
 30
0.0
  0
VERTEX
  5
3802
330
320A
100
AcDbEntity
  8
0
100
AcDbVertex
100
AcDb2dVertex
 10
2.280378937007873
 20
4.621648875075028
 30
0.0
  0
VERTEX
  5
3803
330
320A
100
AcDbEntity
  8
0
100
AcDbVertex
100
AcDb2dVertex
 10
2.272483267716535
 20
4.617701040429359
 30
0.0
  0
VERTEX
  5
3804
330
320A
100
AcDbEntity
  8
0
100
AcDbVertex
100
AcDb2dVertex
 10
2.268535433070866
 20
4.609805371138021
 30
0.0
  0
SEQEND
  5
3805
330
320A
100
AcDbEntity
  8
0
  0
LINE
  5
320F
330
1E
100
AcDbEntity
  8
0
100
AcDbLine
 10
2.268535433070866
 20
4.609805371138021
 30
0.0
 11
2.268535433070866
 21
4.567695134917547
 31
0.0
  0
POLYLINE
  5
3210
330
1E
100
AcDbEntity
  8
0
100
AcDb2dPolyline
 66
     1
 10
0.0
 20
0.0
 30
0.0
  0
VERTEX
  5
3806
330
3210
100
AcDbEntity
  8
0
100
AcDbVertex
100
AcDb2dVertex
 10
2.268535433070866
 20
4.567695134917547
 30
0.0
  0
VERTEX
  5
3807
330
3210
100
AcDbEntity
  8
0
100
AcDbVertex
100
AcDb2dVertex
 10
2.265903543307086
 20
4.55979946562621
 30
0.0
  0
VERTEX
  5
3808
330
3210
100
AcDbEntity
  8
0
100
AcDbVertex
100
AcDb2dVertex
 10
2.256691929133858
 20
4.55585163098054
 30
0.0
  0
SEQEND
  5
3809
330
3210
100
AcDbEntity
  8
0
  0
LINE
  5
3215
330
1E
100
AcDbEntity
  8
0
100
AcDbLine
 10
1.789531496062992
 20
4.55585163098054
 30
0.0
 11
2.256691929133858
 21
4.55585163098054
 31
0.0
  0
POLYLINE
  5
3216
330
1E
100
AcDbEntity
  8
0
100
AcDb2dPolyline
 66
     1
 10
0.0
 20
0.0
 30
0.0
  0
VERTEX
  5
380A
330
3216
100
AcDbEntity
  8
0
100
AcDbVertex
100
AcDb2dVertex
 10
1.789531496062991
 20
4.55585163098054
 30
0.0
  0
VERTEX
  5
380B
330
3216
100
AcDbEntity
  8
0
100
AcDbVertex
100
AcDb2dVertex
 10
1.781635826771653
 20
4.55979946562621
 30
0.0
  0
VERTEX
  5
380C
330
3216
100
AcDbEntity
  8
0
100
AcDbVertex
100
AcDb2dVertex
 10
1.777687992125984
 20
4.567695134917547
 30
0.0
  0
SEQEND
  5
380D
330
3216
100
AcDbEntity
  8
0
  0
LINE
  5
321B
330
1E
100
AcDbEntity
  8
0
100
AcDbLine
 10
1.777687992125984
 20
4.609805371138021
 30
0.0
 11
1.777687992125984
 21
4.567695134917547
 31
0.0
  0
POLYLINE
  5
321C
330
1E
100
AcDbEntity
  8
0
100
AcDb2dPolyline
 66
     1
 10
0.0
 20
0.0
 30
0.0
  0
VERTEX
  5
380E
330
321C
100
AcDbEntity
  8
0
100
AcDbVertex
100
AcDb2dVertex
 10
1.777687992125984
 20
4.609805371138021
 30
0.0
  0
VERTEX
  5
380F
330
321C
100
AcDbEntity
  8
0
100
AcDbVertex
100
AcDb2dVertex
 10
1.773740157480314
 20
4.617701040429359
 30
0.0
  0
VERTEX
  5
3810
330
321C
100
AcDbEntity
  8
0
100
AcDbVertex
100
AcDb2dVertex
 10
1.765844488188976
 20
4.621648875075028
 30
0.0
  0
SEQEND
  5
3811
330
321C
100
AcDbEntity
  8
0
  0
LINE
  5
3221
330
1E
100
AcDbEntity
  8
0
100
AcDbLine
 10
1.644777559055117
 20
4.621648875075028
 30
0.0
 11
1.765844488188976
 21
4.621648875075028
 31
0.0
  0
POLYLINE
  5
3222
330
1E
100
AcDbEntity
  8
0
100
AcDb2dPolyline
 66
     1
 10
0.0
 20
0.0
 30
0.0
  0
VERTEX
  5
3812
330
3222
100
AcDbEntity
  8
0
100
AcDbVertex
100
AcDb2dVertex
 10
1.644777559055117
 20
4.621648875075028
 30
0.0
  0
VERTEX
  5
3813
330
3222
100
AcDbEntity
  8
0
100
AcDbVertex
100
AcDb2dVertex
 10
1.635565944881889
 20
4.617701040429359
 30
0.0
  0
VERTEX
  5
3814
330
3222
100
AcDbEntity
  8
0
100
AcDbVertex
100
AcDb2dVertex
 10
1.63161811023622
 20
4.609805371138021
 30
0.0
  0
SEQEND
  5
3815
330
3222
100
AcDbEntity
  8
0
  0
LINE
  5
3227
330
1E
100
AcDbEntity
  8
0
100
AcDbLine
 10
1.63161811023622
 20
4.609805371138021
 30
0.0
 11
1.63161811023622
 21
4.567695134917547
 31
0.0
  0
POLYLINE
  5
3228
330
1E
100
AcDbEntity
  8
0
100
AcDb2dPolyline
 66
     1
 10
0.0
 20
0.0
 30
0.0
  0
VERTEX
  5
3816
330
3228
100
AcDbEntity
  8
0
100
AcDbVertex
100
AcDb2dVertex
 10
1.63161811023622
 20
4.567695134917547
 30
0.0
  0
VERTEX
  5
3817
330
3228
100
AcDbEntity
  8
0
100
AcDbVertex
100
AcDb2dVertex
 10
1.62898622047244
 20
4.55979946562621
 30
0.0
  0
VERTEX
  5
3818
330
3228
100
AcDbEntity
  8
0
100
AcDbVertex
100
AcDb2dVertex
 10
1.619774606299212
 20
4.55585163098054
 30
0.0
  0
SEQEND
  5
3819
330
3228
100
AcDbEntity
  8
0
  0
LINE
  5
322D
330
1E
100
AcDbEntity
  8
0
100
AcDbLine
 10
1.152614173228346
 20
4.55585163098054
 30
0.0
 11
1.619774606299212
 21
4.55585163098054
 31
0.0
  0
POLYLINE
  5
322E
330
1E
100
AcDbEntity
  8
0
100
AcDb2dPolyline
 66
     1
 10
0.0
 20
0.0
 30
0.0
  0
VERTEX
  5
381A
330
322E
100
AcDbEntity
  8
0
100
AcDbVertex
100
AcDb2dVertex
 10
1.152614173228346
 20
4.55585163098054
 30
0.0
  0
VERTEX
  5
381B
330
322E
100
AcDbEntity
  8
0
100
AcDbVertex
100
AcDb2dVertex
 10
1.144718503937008
 20
4.55979946562621
 30
0.0
  0
VERTEX
  5
381C
330
322E
100
AcDbEntity
  8
0
100
AcDbVertex
100
AcDb2dVertex
 10
1.140770669291338
 20
4.567695134917547
 30
0.0
  0
SEQEND
  5
381D
330
322E
100
AcDbEntity
  8
0
  0
LINE
  5
3233
330
1E
100
AcDbEntity
  8
0
100
AcDbLine
 10
0.6749261811023622
 20
7.752281749090776
 30
0.0
 11
0.709140748031496
 21
7.752281749090776
 31
0.0
  0
POLYLINE
  5
3234
330
1E
100
AcDbEntity
  8
0
100
AcDb2dPolyline
 66
     1
 10
0.0
 20
0.0
 30
0.0
  0
VERTEX
  5
381E
330
3234
100
AcDbEntity
  8
0
100
AcDbVertex
100
AcDb2dVertex
 10
2.702797244094488
 20
6.821908717594713
 30
0.0
  0
VERTEX
  5
381F
330
3234
100
AcDbEntity
  8
0
100
AcDbVertex
100
AcDb2dVertex
 10
2.702797244094488
 20
6.848227615232509
 30
0.0
  0
VERTEX
  5
3820
330
3234
100
AcDbEntity
  8
0
100
AcDbVertex
100
AcDb2dVertex
 10
2.702797244094488
 20
6.867966788460855
 30
0.0
  0
VERTEX
  5
3821
330
3234
100
AcDbEntity
  8
0
100
AcDbVertex
100
AcDb2dVertex
 10
2.702797244094488
 20
6.875862457752194
 30
0.0
  0
SEQEND
  5
3822
330
3234
100
AcDbEntity
  8
0
  0
POLYLINE
  5
323A
330
1E
100
AcDbEntity
  8
0
100
AcDb2dPolyline
 66
     1
 10
0.0
 20
0.0
 30
0.0
  0
VERTEX
  5
3823
330
323A
100
AcDbEntity
  8
0
100
AcDbVertex
100
AcDb2dVertex
 10
2.456715551181102
 20
6.821908717594713
 30
0.0
  0
VERTEX
  5
3824
330
323A
100
AcDbEntity
  8
0
100
AcDbVertex
100
AcDb2dVertex
 10
2.456715551181102
 20
6.848227615232509
 30
0.0
  0
VERTEX
  5
3825
330
323A
100
AcDbEntity
  8
0
100
AcDbVertex
100
AcDb2dVertex
 10
2.456715551181102
 20
6.867966788460855
 30
0.0
  0
VERTEX
  5
3826
330
323A
100
AcDbEntity
  8
0
100
AcDbVertex
100
AcDb2dVertex
 10
2.456715551181102
 20
6.875862457752194
 30
0.0
  0
SEQEND
  5
3827
330
323A
100
AcDbEntity
  8
0
  0
LINE
  5
3240
330
1E
100
AcDbEntity
  8
0
100
AcDbLine
 10
2.063248031496063
 20
7.06272663098054
 30
0.0
 11
1.982975393700787
 21
7.06272663098054
 31
0.0
  0
LINE
  5
3241
330
1E
100
AcDbEntity
  8
0
100
AcDbLine
 10
2.093514763779527
 20
6.9521872609018
 30
0.0
 11
2.093514763779527
 21
7.032459898697075
 31
0.0
  0
LINE
  5
3242
330
1E
100
AcDbEntity
  8
0
100
AcDbLine
 10
1.952708661417322
 20
6.9521872609018
 30
0.0
 11
1.952708661417322
 21
7.032459898697075
 31
0.0
  0
POLYLINE
  5
3243
330
1E
100
AcDbEntity
  8
0
100
AcDb2dPolyline
 66
     1
 10
0.0
 20
0.0
 30
0.0
  0
VERTEX
  5
3828
330
3243
100
AcDbEntity
  8
0
100
AcDbVertex
100
AcDb2dVertex
 10
1.982975393700787
 20
7.062726630980541
 30
0.0
  0
VERTEX
  5
3829
330
3243
100
AcDbEntity
  8
0
100
AcDbVertex
100
AcDb2dVertex
 10
1.961920275590551
 20
7.053515016807311
 30
0.0
  0
VERTEX
  5
382A
330
3243
100
AcDbEntity
  8
0
100
AcDbVertex
100
AcDb2dVertex
 10
1.952708661417322
 20
7.032459898697076
 30
0.0
  0
SEQEND
  5
382B
330
3243
100
AcDbEntity
  8
0
  0
LINE
  5
3248
330
1E
100
AcDbEntity
  8
0
100
AcDbLine
 10
2.093514763779527
 20
6.9521872609018
 30
0.0
 11
1.952708661417322
 21
6.9521872609018
 31
0.0
  0
POLYLINE
  5
3249
330
1E
100
AcDbEntity
  8
0
100
AcDb2dPolyline
 66
     1
 10
0.0
 20
0.0
 30
0.0
  0
VERTEX
  5
382C
330
3249
100
AcDbEntity
  8
0
100
AcDbVertex
100
AcDb2dVertex
 10
2.093514763779527
 20
7.032459898697076
 30
0.0
  0
VERTEX
  5
382D
330
3249
100
AcDbEntity
  8
0
100
AcDbVertex
100
AcDb2dVertex
 10
2.084303149606299
 20
7.053515016807311
 30
0.0
  0
VERTEX
  5
382E
330
3249
100
AcDbEntity
  8
0
100
AcDbVertex
100
AcDb2dVertex
 10
2.063248031496063
 20
7.062726630980541
 30
0.0
  0
SEQEND
  5
382F
330
3249
100
AcDbEntity
  8
0
  0
POLYLINE
  5
324E
330
1E
100
AcDbEntity
  8
0
100
AcDb2dPolyline
 66
     1
 10
0.0
 20
0.0
 30
0.0
  0
VERTEX
  5
3830
330
324E
100
AcDbEntity
  8
0
100
AcDbVertex
100
AcDb2dVertex
 10
2.093514763779527
 20
6.933764032555344
 30
0.0
  0
VERTEX
  5
3831
330
324E
100
AcDbEntity
  8
0
100
AcDbVertex
100
AcDb2dVertex
 10
2.093514763779527
 20
6.939027812082904
 30
0.0
  0
VERTEX
  5
3832
330
324E
100
AcDbEntity
  8
0
100
AcDbVertex
100
AcDb2dVertex
 10
2.093514763779527
 20
6.9521872609018
 30
0.0
  0
SEQEND
  5
3833
330
324E
100
AcDbEntity
  8
0
  0
POLYLINE
  5
3253
330
1E
100
AcDbEntity
  8
0
100
AcDb2dPolyline
 66
     1
 10
0.0
 20
0.0
 30
0.0
  0
VERTEX
  5
3834
330
3253
100
AcDbEntity
  8
0
100
AcDbVertex
100
AcDb2dVertex
 10
1.952708661417322
 20
6.933764032555344
 30
0.0
  0
VERTEX
  5
3835
330
3253
100
AcDbEntity
  8
0
100
AcDbVertex
100
AcDb2dVertex
 10
1.952708661417322
 20
6.939027812082904
 30
0.0
  0
VERTEX
  5
3836
330
3253
100
AcDbEntity
  8
0
100
AcDbVertex
100
AcDb2dVertex
 10
1.952708661417322
 20
6.9521872609018
 30
0.0
  0
SEQEND
  5
3837
330
3253
100
AcDbEntity
  8
0
  0
LINE
  5
3258
330
1E
100
AcDbEntity
  8
0
100
AcDbLine
 10
2.093514763779527
 20
6.933764032555344
 30
0.0
 11
1.952708661417322
 21
6.933764032555344
 31
0.0
  0
POLYLINE
  5
3259
330
1E
100
AcDbEntity
  8
0
100
AcDb2dPolyline
 66
     1
 10
0.0
 20
0.0
 30
0.0
  0
VERTEX
  5
3838
330
3259
100
AcDbEntity
  8
0
100
AcDbVertex
100
AcDb2dVertex
 10
2.093514763779527
 20
6.89428568609865
 30
0.0
  0
VERTEX
  5
3839
330
3259
100
AcDbEntity
  8
0
100
AcDbVertex
100
AcDb2dVertex
 10
2.093514763779527
 20
6.923236473500225
 30
0.0
  0
VERTEX
  5
383A
330
3259
100
AcDbEntity
  8
0
100
AcDbVertex
100
AcDb2dVertex
 10
2.093514763779527
 20
6.933764032555344
 30
0.0
  0
SEQEND
  5
383B
330
3259
100
AcDbEntity
  8
0
  0
POLYLINE
  5
325E
330
1E
100
AcDbEntity
  8
0
100
AcDb2dPolyline
 66
     1
 10
0.0
 20
0.0
 30
0.0
  0
VERTEX
  5
383C
330
325E
100
AcDbEntity
  8
0
100
AcDbVertex
100
AcDb2dVertex
 10
1.952708661417322
 20
6.89428568609865
 30
0.0
  0
VERTEX
  5
383D
330
325E
100
AcDbEntity
  8
0
100
AcDbVertex
100
AcDb2dVertex
 10
1.952708661417322
 20
6.923236473500225
 30
0.0
  0
VERTEX
  5
383E
330
325E
100
AcDbEntity
  8
0
100
AcDbVertex
100
AcDb2dVertex
 10
1.952708661417322
 20
6.933764032555344
 30
0.0
  0
SEQEND
  5
383F
330
325E
100
AcDbEntity
  8
0
  0
POLYLINE
  5
3263
330
1E
100
AcDbEntity
  8
0
100
AcDb2dPolyline
 66
     1
 10
0.0
 20
0.0
 30
0.0
  0
VERTEX
  5
3840
330
3263
100
AcDbEntity
  8
0
100
AcDbVertex
100
AcDb2dVertex
 10
2.097462598425196
 20
6.879810292397864
 30
0.0
  0
VERTEX
  5
3841
330
3263
100
AcDbEntity
  8
0
100
AcDbVertex
100
AcDb2dVertex
 10
2.093514763779527
 20
6.887705961689202
 30
0.0
  0
VERTEX
  5
3842
330
3263
100
AcDbEntity
  8
0
100
AcDbVertex
100
AcDb2dVertex
 10
2.093514763779527
 20
6.89428568609865
 30
0.0
  0
SEQEND
  5
3843
330
3263
100
AcDbEntity
  8
0
  0
POLYLINE
  5
3268
330
1E
100
AcDbEntity
  8
0
100
AcDb2dPolyline
 66
     1
 10
0.0
 20
0.0
 30
0.0
  0
VERTEX
  5
3844
330
3268
100
AcDbEntity
  8
0
100
AcDbVertex
100
AcDb2dVertex
 10
1.952708661417322
 20
6.89428568609865
 30
0.0
  0
VERTEX
  5
3845
330
3268
100
AcDbEntity
  8
0
100
AcDbVertex
100
AcDb2dVertex
 10
1.951392716535433
 20
6.886390016807312
 30
0.0
  0
VERTEX
  5
3846
330
3268
100
AcDbEntity
  8
0
100
AcDbVertex
100
AcDb2dVertex
 10
1.948760826771653
 20
6.879810292397864
 30
0.0
  0
SEQEND
  5
3847
330
3268
100
AcDbEntity
  8
0
  0
POLYLINE
  5
326D
330
1E
100
AcDbEntity
  8
0
100
AcDb2dPolyline
 66
     1
 10
0.0
 20
0.0
 30
0.0
  0
VERTEX
  5
3848
330
326D
100
AcDbEntity
  8
0
100
AcDbVertex
100
AcDb2dVertex
 10
1.589507874015747
 20
6.821908717594713
 30
0.0
  0
VERTEX
  5
3849
330
326D
100
AcDbEntity
  8
0
100
AcDbVertex
100
AcDb2dVertex
 10
1.589507874015747
 20
6.848227615232509
 30
0.0
  0
VERTEX
  5
384A
330
326D
100
AcDbEntity
  8
0
100
AcDbVertex
100
AcDb2dVertex
 10
1.589507874015747
 20
6.867966788460855
 30
0.0
  0
VERTEX
  5
384B
330
326D
100
AcDbEntity
  8
0
100
AcDbVertex
100
AcDb2dVertex
 10
1.589507874015747
 20
6.875862457752194
 30
0.0
  0
SEQEND
  5
384C
330
326D
100
AcDbEntity
  8
0
  0
POLYLINE
  5
3273
330
1E
100
AcDbEntity
  8
0
100
AcDb2dPolyline
 66
     1
 10
0.0
 20
0.0
 30
0.0
  0
VERTEX
  5
384D
330
3273
100
AcDbEntity
  8
0
100
AcDbVertex
100
AcDb2dVertex
 10
1.343426181102362
 20
6.821908717594713
 30
0.0
  0
VERTEX
  5
384E
330
3273
100
AcDbEntity
  8
0
100
AcDbVertex
100
AcDb2dVertex
 10
1.343426181102362
 20
6.848227615232509
 30
0.0
  0
VERTEX
  5
384F
330
3273
100
AcDbEntity
  8
0
100
AcDbVertex
100
AcDb2dVertex
 10
1.343426181102362
 20
6.867966788460855
 30
0.0
  0
VERTEX
  5
3850
330
3273
100
AcDbEntity
  8
0
100
AcDbVertex
100
AcDb2dVertex
 10
1.343426181102362
 20
6.875862457752194
 30
0.0
  0
SEQEND
  5
3851
330
3273
100
AcDbEntity
  8
0
  0
POLYLINE
  5
3279
330
1E
100
AcDbEntity
  8
0
100
AcDb2dPolyline
 66
     1
 10
0.0
 20
0.0
 30
0.0
  0
VERTEX
  5
3852
330
3279
100
AcDbEntity
  8
0
100
AcDbVertex
100
AcDb2dVertex
 10
0.7657263779527557
 20
7.56673352074432
 30
0.0
  0
VERTEX
  5
3853
330
3279
100
AcDbEntity
  8
0
100
AcDbVertex
100
AcDb2dVertex
 10
0.7959931102362205
 20
7.56673352074432
 30
0.0
  0
VERTEX
  5
3854
330
3279
100
AcDbEntity
  8
0
100
AcDbVertex
100
AcDb2dVertex
 10
0.8302076771653544
 20
7.56673352074432
 30
0.0
  0
SEQEND
  5
3855
330
3279
100
AcDbEntity
  8
0
  0
POLYLINE
  5
327E
330
1E
100
AcDbEntity
  8
0
100
AcDb2dPolyline
 66
     1
 10
0.0
 20
0.0
 30
0.0
  0
VERTEX
  5
3856
330
327E
100
AcDbEntity
  8
0
100
AcDbVertex
100
AcDb2dVertex
 10
0.7657263779527557
 20
7.56673352074432
 30
0.0
  0
VERTEX
  5
3857
330
327E
100
AcDbEntity
  8
0
100
AcDbVertex
100
AcDb2dVertex
 10
0.7946771653543308
 20
7.602264032555342
 30
0.0
  0
VERTEX
  5
3858
330
327E
100
AcDbEntity
  8
0
100
AcDbVertex
100
AcDb2dVertex
 10
0.8302076771653544
 20
7.631214819956919
 30
0.0
  0
SEQEND
  5
3859
330
327E
100
AcDbEntity
  8
0
  0
POLYLINE
  5
3283
330
1E
100
AcDbEntity
  8
0
100
AcDb2dPolyline
 66
     1
 10
0.0
 20
0.0
 30
0.0
  0
VERTEX
  5
385A
330
3283
100
AcDbEntity
  8
0
100
AcDbVertex
100
AcDb2dVertex
 10
0.6749261811023622
 20
7.752281749090776
 30
0.0
  0
VERTEX
  5
385B
330
3283
100
AcDbEntity
  8
0
100
AcDbVertex
100
AcDb2dVertex
 10
0.6643986220472442
 20
7.750965804208887
 30
0.0
  0
VERTEX
  5
385C
330
3283
100
AcDbEntity
  8
0
100
AcDbVertex
100
AcDb2dVertex
 10
0.6565029527559057
 20
7.747017969563217
 30
0.0
  0
VERTEX
  5
385D
330
3283
100
AcDbEntity
  8
0
100
AcDbVertex
100
AcDb2dVertex
 10
0.6499232283464567
 20
7.739122300271879
 30
0.0
  0
VERTEX
  5
385E
330
3283
100
AcDbEntity
  8
0
100
AcDbVertex
100
AcDb2dVertex
 10
0.6459753937007875
 20
7.729910686098651
 30
0.0
  0
VERTEX
  5
385F
330
3283
100
AcDbEntity
  8
0
100
AcDbVertex
100
AcDb2dVertex
 10
0.6446594488188977
 20
7.72201501680731
 30
0.0
  0
SEQEND
  5
3860
330
3283
100
AcDbEntity
  8
0
  0
LINE
  5
328B
330
1E
100
AcDbEntity
  8
0
100
AcDbLine
 10
0.6446594488188975
 20
7.687800449878178
 30
0.0
 11
0.6446594488188975
 21
7.722015016807311
 31
0.0
  0
LINE
  5
328C
330
1E
100
AcDbEntity
  8
0
100
AcDbLine
 10
0.7657263779527557
 20
7.56673352074432
 30
0.0
 11
0.6446594488188975
 21
7.687800449878178
 31
0.0
  0
LINE
  5
328D
330
1E
100
AcDbEntity
  8
0
100
AcDbLine
 10
0.6446594488188975
 20
3.304388048303375
 30
0.0
 11
0.6446594488188975
 21
3.270173481374241
 31
0.0
  0
LINE
  5
328E
330
1E
100
AcDbEntity
  8
0
100
AcDbLine
 10
0.6446594488188975
 20
7.687800449878178
 30
0.0
 11
0.6446594488188975
 21
3.304388048303375
 31
0.0
  0
LINE
  5
328F
330
1E
100
AcDbEntity
  8
0
100
AcDbLine
 10
0.7657263779527557
 20
3.425454977437234
 30
0.0
 11
0.6446594488188975
 21
3.304388048303375
 31
0.0
  0
LINE
  5
3290
330
1E
100
AcDbEntity
  8
0
100
AcDbLine
 10
0.7657263779527557
 20
7.56673352074432
 30
0.0
 11
0.7657263779527557
 21
3.425454977437234
 31
0.0
  0
POLYLINE
  5
3291
330
1E
100
AcDbEntity
  8
0
100
AcDb2dPolyline
 66
     1
 10
0.0
 20
0.0
 30
0.0
  0
VERTEX
  5
3861
330
3291
100
AcDbEntity
  8
0
100
AcDbVertex
100
AcDb2dVertex
 10
0.7657263779527557
 20
3.425454977437233
 30
0.0
  0
VERTEX
  5
3862
330
3291
100
AcDbEntity
  8
0
100
AcDbVertex
100
AcDb2dVertex
 10
0.7959931102362205
 20
3.425454977437233
 30
0.0
  0
VERTEX
  5
3863
330
3291
100
AcDbEntity
  8
0
100
AcDbVertex
100
AcDb2dVertex
 10
0.8302076771653544
 20
3.425454977437233
 30
0.0
  0
SEQEND
  5
3864
330
3291
100
AcDbEntity
  8
0
  0
POLYLINE
  5
3296
330
1E
100
AcDbEntity
  8
0
100
AcDb2dPolyline
 66
     1
 10
0.0
 20
0.0
 30
0.0
  0
VERTEX
  5
3865
330
3296
100
AcDbEntity
  8
0
100
AcDbVertex
100
AcDb2dVertex
 10
3.216015748031495
 20
3.425454977437233
 30
0.0
  0
VERTEX
  5
3866
330
3296
100
AcDbEntity
  8
0
100
AcDbVertex
100
AcDb2dVertex
 10
3.216015748031495
 20
3.391240410508099
 30
0.0
  0
VERTEX
  5
3867
330
3296
100
AcDbEntity
  8
0
100
AcDbVertex
100
AcDb2dVertex
 10
3.216015748031495
 20
3.360973678224635
 30
0.0
  0
SEQEND
  5
3868
330
3296
100
AcDbEntity
  8
0
  0
POLYLINE
  5
329B
330
1E
100
AcDbEntity
  8
0
100
AcDb2dPolyline
 66
     1
 10
0.0
 20
0.0
 30
0.0
  0
VERTEX
  5
3869
330
329B
100
AcDbEntity
  8
0
100
AcDbVertex
100
AcDb2dVertex
 10
3.280497047244094
 20
3.425454977437233
 30
0.0
  0
VERTEX
  5
386A
330
329B
100
AcDbEntity
  8
0
100
AcDbVertex
100
AcDb2dVertex
 10
3.252862204724409
 20
3.38992446562621
 30
0.0
  0
VERTEX
  5
386B
330
329B
100
AcDbEntity
  8
0
100
AcDbVertex
100
AcDb2dVertex
 10
3.216015748031495
 20
3.360973678224635
 30
0.0
  0
SEQEND
  5
386C
330
329B
100
AcDbEntity
  8
0
  0
LINE
  5
32A0
330
1E
100
AcDbEntity
  8
0
100
AcDbLine
 10
3.337082677165354
 20
3.239906749090777
 30
0.0
 11
3.371297244094487
 21
3.239906749090777
 31
0.0
  0
POLYLINE
  5
32A1
330
1E
100
AcDbEntity
  8
0
100
AcDb2dPolyline
 66
     1
 10
0.0
 20
0.0
 30
0.0
  0
VERTEX
  5
386D
330
32A1
100
AcDbEntity
  8
0
100
AcDbVertex
100
AcDb2dVertex
 10
3.371297244094487
 20
3.239906749090777
 30
0.0
  0
VERTEX
  5
386E
330
32A1
100
AcDbEntity
  8
0
100
AcDbVertex
100
AcDb2dVertex
 10
3.381824803149605
 20
3.241222693972666
 30
0.0
  0
VERTEX
  5
386F
330
32A1
100
AcDbEntity
  8
0
100
AcDbVertex
100
AcDb2dVertex
 10
3.389720472440944
 20
3.246486473500225
 30
0.0
  0
VERTEX
  5
3870
330
32A1
100
AcDbEntity
  8
0
100
AcDbVertex
100
AcDb2dVertex
 10
3.396300196850392
 20
3.253066197909674
 30
0.0
  0
VERTEX
  5
3871
330
32A1
100
AcDbEntity
  8
0
100
AcDbVertex
100
AcDb2dVertex
 10
3.401563976377952
 20
3.262277812082903
 30
0.0
  0
VERTEX
  5
3872
330
32A1
100
AcDbEntity
  8
0
100
AcDbVertex
100
AcDb2dVertex
 10
3.401563976377952
 20
3.270173481374241
 30
0.0
  0
SEQEND
  5
3873
330
32A1
100
AcDbEntity
  8
0
  0
LINE
  5
32A9
330
1E
100
AcDbEntity
  8
0
100
AcDbLine
 10
3.216015748031495
 20
3.360973678224634
 30
0.0
 11
3.337082677165354
 21
3.239906749090777
 31
0.0
  0
LINE
  5
32AA
330
1E
100
AcDbEntity
  8
0
100
AcDbLine
 10
0.6749261811023622
 20
3.239906749090777
 30
0.0
 11
0.709140748031496
 21
3.239906749090777
 31
0.0
  0
LINE
  5
32AB
330
1E
100
AcDbEntity
  8
0
100
AcDbLine
 10
0.709140748031496
 20
3.239906749090777
 30
0.0
 11
3.337082677165354
 21
3.239906749090777
 31
0.0
  0
POLYLINE
  5
32AC
330
1E
100
AcDbEntity
  8
0
100
AcDb2dPolyline
 66
     1
 10
0.0
 20
0.0
 30
0.0
  0
VERTEX
  5
3874
330
32AC
100
AcDbEntity
  8
0
100
AcDbVertex
100
AcDb2dVertex
 10
0.8302076771653544
 20
3.425454977437233
 30
0.0
  0
VERTEX
  5
3875
330
32AC
100
AcDbEntity
  8
0
100
AcDbVertex
100
AcDb2dVertex
 10
0.8302076771653544
 20
3.391240410508099
 30
0.0
  0
VERTEX
  5
3876
330
32AC
100
AcDbEntity
  8
0
100
AcDbVertex
100
AcDb2dVertex
 10
0.8302076771653544
 20
3.360973678224635
 30
0.0
  0
SEQEND
  5
3877
330
32AC
100
AcDbEntity
  8
0
  0
LINE
  5
32B1
330
1E
100
AcDbEntity
  8
0
100
AcDbLine
 10
0.8302076771653545
 20
3.360973678224634
 30
0.0
 11
3.216015748031495
 21
3.360973678224634
 31
0.0
  0
LINE
  5
32B2
330
1E
100
AcDbEntity
  8
0
100
AcDbLine
 10
0.709140748031496
 20
3.239906749090777
 30
0.0
 11
0.8302076771653545
 21
3.360973678224634
 31
0.0
  0
POLYLINE
  5
32B3
330
1E
100
AcDbEntity
  8
0
100
AcDb2dPolyline
 66
     1
 10
0.0
 20
0.0
 30
0.0
  0
VERTEX
  5
3878
330
32B3
100
AcDbEntity
  8
0
100
AcDbVertex
100
AcDb2dVertex
 10
0.7657263779527557
 20
3.425454977437233
 30
0.0
  0
VERTEX
  5
3879
330
32B3
100
AcDbEntity
  8
0
100
AcDbVertex
100
AcDb2dVertex
 10
0.7946771653543308
 20
3.38992446562621
 30
0.0
  0
VERTEX
  5
387A
330
32B3
100
AcDbEntity
  8
0
100
AcDbVertex
100
AcDb2dVertex
 10
0.8302076771653544
 20
3.360973678224635
 30
0.0
  0
SEQEND
  5
387B
330
32B3
100
AcDbEntity
  8
0
  0
POLYLINE
  5
32B8
330
1E
100
AcDbEntity
  8
0
100
AcDb2dPolyline
 66
     1
 10
0.0
 20
0.0
 30
0.0
  0
VERTEX
  5
387C
330
32B8
100
AcDbEntity
  8
0
100
AcDbVertex
100
AcDb2dVertex
 10
0.6446594488188977
 20
3.270173481374241
 30
0.0
  0
VERTEX
  5
387D
330
32B8
100
AcDbEntity
  8
0
100
AcDbVertex
100
AcDb2dVertex
 10
0.6459753937007875
 20
3.260961867201013
 30
0.0
  0
VERTEX
  5
387E
330
32B8
100
AcDbEntity
  8
0
100
AcDbVertex
100
AcDb2dVertex
 10
0.6499232283464567
 20
3.251750253027784
 30
0.0
  0
VERTEX
  5
387F
330
32B8
100
AcDbEntity
  8
0
100
AcDbVertex
100
AcDb2dVertex
 10
0.6578188976377952
 20
3.245170528618336
 30
0.0
  0
VERTEX
  5
3880
330
32B8
100
AcDbEntity
  8
0
100
AcDbVertex
100
AcDb2dVertex
 10
0.6670305118110236
 20
3.241222693972666
 30
0.0
  0
VERTEX
  5
3881
330
32B8
100
AcDbEntity
  8
0
100
AcDbVertex
100
AcDb2dVertex
 10
0.6749261811023622
 20
3.239906749090777
 30
0.0
  0
SEQEND
  5
3882
330
32B8
100
AcDbEntity
  8
0
  0
POLYLINE
  5
32C0
330
1E
100
AcDbEntity
  8
0
100
AcDb2dPolyline
 66
     1
 10
0.0
 20
0.0
 30
0.0
  0
VERTEX
  5
3883
330
32C0
100
AcDbEntity
  8
0
100
AcDbVertex
100
AcDb2dVertex
 10
1.263153543307086
 20
4.17159572546873
 30
0.0
  0
VERTEX
  5
3884
330
32C0
100
AcDbEntity
  8
0
100
AcDbVertex
100
AcDb2dVertex
 10
1.263153543307086
 20
4.143960882949044
 30
0.0
  0
VERTEX
  5
3885
330
32C0
100
AcDbEntity
  8
0
100
AcDbVertex
100
AcDb2dVertex
 10
1.263153543307086
 20
4.124221709720698
 30
0.0
  0
VERTEX
  5
3886
330
32C0
100
AcDbEntity
  8
0
100
AcDbVertex
100
AcDb2dVertex
 10
1.263153543307086
 20
4.116326040429359
 30
0.0
  0
SEQEND
  5
3887
330
32C0
100
AcDbEntity
  8
0
  0
POLYLINE
  5
32C6
330
1E
100
AcDbEntity
  8
0
100
AcDb2dPolyline
 66
     1
 10
0.0
 20
0.0
 30
0.0
  0
VERTEX
  5
3888
330
32C6
100
AcDbEntity
  8
0
100
AcDbVertex
100
AcDb2dVertex
 10
1.509235236220472
 20
4.17159572546873
 30
0.0
  0
VERTEX
  5
3889
330
32C6
100
AcDbEntity
  8
0
100
AcDbVertex
100
AcDb2dVertex
 10
1.509235236220472
 20
4.143960882949044
 30
0.0
  0
VERTEX
  5
388A
330
32C6
100
AcDbEntity
  8
0
100
AcDbVertex
100
AcDb2dVertex
 10
1.509235236220472
 20
4.124221709720698
 30
0.0
  0
VERTEX
  5
388B
330
32C6
100
AcDbEntity
  8
0
100
AcDbVertex
100
AcDb2dVertex
 10
1.509235236220472
 20
4.116326040429359
 30
0.0
  0
SEQEND
  5
388C
330
32C6
100
AcDbEntity
  8
0
  0
POLYLINE
  5
32CC
330
1E
100
AcDbEntity
  8
0
100
AcDb2dPolyline
 66
     1
 10
0.0
 20
0.0
 30
0.0
  0
VERTEX
  5
388D
330
32CC
100
AcDbEntity
  8
0
100
AcDbVertex
100
AcDb2dVertex
 10
2.783069881889763
 20
4.17159572546873
 30
0.0
  0
VERTEX
  5
388E
330
32CC
100
AcDbEntity
  8
0
100
AcDbVertex
100
AcDb2dVertex
 10
2.783069881889763
 20
4.143960882949044
 30
0.0
  0
VERTEX
  5
388F
330
32CC
100
AcDbEntity
  8
0
100
AcDbVertex
100
AcDb2dVertex
 10
2.783069881889763
 20
4.124221709720698
 30
0.0
  0
VERTEX
  5
3890
330
32CC
100
AcDbEntity
  8
0
100
AcDbVertex
100
AcDb2dVertex
 10
2.783069881889763
 20
4.116326040429359
 30
0.0
  0
SEQEND
  5
3891
330
32CC
100
AcDbEntity
  8
0
  0
POLYLINE
  5
32D2
330
1E
100
AcDbEntity
  8
0
100
AcDb2dPolyline
 66
     1
 10
0.0
 20
0.0
 30
0.0
  0
VERTEX
  5
3892
330
32D2
100
AcDbEntity
  8
0
100
AcDbVertex
100
AcDb2dVertex
 10
2.536988188976377
 20
4.17159572546873
 30
0.0
  0
VERTEX
  5
3893
330
32D2
100
AcDbEntity
  8
0
100
AcDbVertex
100
AcDb2dVertex
 10
2.536988188976377
 20
4.143960882949044
 30
0.0
  0
VERTEX
  5
3894
330
32D2
100
AcDbEntity
  8
0
100
AcDbVertex
100
AcDb2dVertex
 10
2.536988188976377
 20
4.124221709720698
 30
0.0
  0
VERTEX
  5
3895
330
32D2
100
AcDbEntity
  8
0
100
AcDbVertex
100
AcDb2dVertex
 10
2.536988188976377
 20
4.116326040429359
 30
0.0
  0
SEQEND
  5
3896
330
32D2
100
AcDbEntity
  8
0
  0
POLYLINE
  5
32D8
330
1E
100
AcDbEntity
  8
0
100
AcDb2dPolyline
 66
     1
 10
0.0
 20
0.0
 30
0.0
  0
VERTEX
  5
3897
330
32D8
100
AcDbEntity
  8
0
100
AcDbVertex
100
AcDb2dVertex
 10
2.093514763779527
 20
4.097902812082903
 30
0.0
  0
VERTEX
  5
3898
330
32D8
100
AcDbEntity
  8
0
100
AcDbVertex
100
AcDb2dVertex
 10
2.093514763779527
 20
4.070267969563217
 30
0.0
  0
VERTEX
  5
3899
330
32D8
100
AcDbEntity
  8
0
100
AcDbVertex
100
AcDb2dVertex
 10
2.093514763779527
 20
4.05842446562621
 30
0.0
  0
SEQEND
  5
389A
330
32D8
100
AcDbEntity
  8
0
  0
POLYLINE
  5
32DD
330
1E
100
AcDbEntity
  8
0
100
AcDb2dPolyline
 66
     1
 10
0.0
 20
0.0
 30
0.0
  0
VERTEX
  5
389B
330
32DD
100
AcDbEntity
  8
0
100
AcDbVertex
100
AcDb2dVertex
 10
1.952708661417322
 20
4.097902812082903
 30
0.0
  0
VERTEX
  5
389C
330
32DD
100
AcDbEntity
  8
0
100
AcDbVertex
100
AcDb2dVertex
 10
1.952708661417322
 20
4.070267969563217
 30
0.0
  0
VERTEX
  5
389D
330
32DD
100
AcDbEntity
  8
0
100
AcDbVertex
100
AcDb2dVertex
 10
1.952708661417322
 20
4.05842446562621
 30
0.0
  0
SEQEND
  5
389E
330
32DD
100
AcDbEntity
  8
0
  0
POLYLINE
  5
32E2
330
1E
100
AcDbEntity
  8
0
100
AcDb2dPolyline
 66
     1
 10
0.0
 20
0.0
 30
0.0
  0
VERTEX
  5
389F
330
32E2
100
AcDbEntity
  8
0
100
AcDbVertex
100
AcDb2dVertex
 10
1.948760826771653
 20
4.11237820578369
 30
0.0
  0
VERTEX
  5
38A0
330
32E2
100
AcDbEntity
  8
0
100
AcDbVertex
100
AcDb2dVertex
 10
1.952708661417322
 20
4.104482536492351
 30
0.0
  0
VERTEX
  5
38A1
330
32E2
100
AcDbEntity
  8
0
100
AcDbVertex
100
AcDb2dVertex
 10
1.952708661417322
 20
4.097902812082903
 30
0.0
  0
SEQEND
  5
38A2
330
32E2
100
AcDbEntity
  8
0
  0
LINE
  5
32E7
330
1E
100
AcDbEntity
  8
0
100
AcDbLine
 10
2.093514763779527
 20
4.05842446562621
 30
0.0
 11
1.952708661417322
 21
4.05842446562621
 31
0.0
  0
POLYLINE
  5
32E8
330
1E
100
AcDbEntity
  8
0
100
AcDb2dPolyline
 66
     1
 10
0.0
 20
0.0
 30
0.0
  0
VERTEX
  5
38A3
330
32E8
100
AcDbEntity
  8
0
100
AcDbVertex
100
AcDb2dVertex
 10
2.093514763779527
 20
4.097902812082903
 30
0.0
  0
VERTEX
  5
38A4
330
32E8
100
AcDbEntity
  8
0
100
AcDbVertex
100
AcDb2dVertex
 10
2.094830708661417
 20
4.10711442625613
 30
0.0
  0
VERTEX
  5
38A5
330
32E8
100
AcDbEntity
  8
0
100
AcDbVertex
100
AcDb2dVertex
 10
2.097462598425196
 20
4.11237820578369
 30
0.0
  0
SEQEND
  5
38A6
330
32E8
100
AcDbEntity
  8
0
  0
POLYLINE
  5
32ED
330
1E
100
AcDbEntity
  8
0
100
AcDb2dPolyline
 66
     1
 10
0.0
 20
0.0
 30
0.0
  0
VERTEX
  5
38A7
330
32ED
100
AcDbEntity
  8
0
100
AcDbVertex
100
AcDb2dVertex
 10
1.952708661417322
 20
4.05842446562621
 30
0.0
  0
VERTEX
  5
38A8
330
32ED
100
AcDbEntity
  8
0
100
AcDbVertex
100
AcDb2dVertex
 10
1.952708661417322
 20
4.05316068609865
 30
0.0
  0
VERTEX
  5
38A9
330
32ED
100
AcDbEntity
  8
0
100
AcDbVertex
100
AcDb2dVertex
 10
1.952708661417322
 20
4.041317182161643
 30
0.0
  0
SEQEND
  5
38AA
330
32ED
100
AcDbEntity
  8
0
  0
POLYLINE
  5
32F2
330
1E
100
AcDbEntity
  8
0
100
AcDb2dPolyline
 66
     1
 10
0.0
 20
0.0
 30
0.0
  0
VERTEX
  5
38AB
330
32F2
100
AcDbEntity
  8
0
100
AcDbVertex
100
AcDb2dVertex
 10
2.093514763779527
 20
4.05842446562621
 30
0.0
  0
VERTEX
  5
38AC
330
32F2
100
AcDbEntity
  8
0
100
AcDbVertex
100
AcDb2dVertex
 10
2.093514763779527
 20
4.05316068609865
 30
0.0
  0
VERTEX
  5
38AD
330
32F2
100
AcDbEntity
  8
0
100
AcDbVertex
100
AcDb2dVertex
 10
2.093514763779527
 20
4.041317182161643
 30
0.0
  0
SEQEND
  5
38AE
330
32F2
100
AcDbEntity
  8
0
  0
LINE
  5
32F7
330
1E
100
AcDbEntity
  8
0
100
AcDbLine
 10
2.093514763779527
 20
4.041317182161643
 30
0.0
 11
1.952708661417322
 21
4.041317182161643
 31
0.0
  0
LINE
  5
32F8
330
1E
100
AcDbEntity
  8
0
100
AcDbLine
 10
1.952708661417322
 20
4.041317182161643
 30
0.0
 11
1.952708661417322
 21
3.961044544366367
 31
0.0
  0
LINE
  5
32F9
330
1E
100
AcDbEntity
  8
0
100
AcDbLine
 10
2.093514763779527
 20
4.041317182161643
 30
0.0
 11
2.093514763779527
 21
3.961044544366367
 31
0.0
  0
POLYLINE
  5
32FA
330
1E
100
AcDbEntity
  8
0
100
AcDb2dPolyline
 66
     1
 10
0.0
 20
0.0
 30
0.0
  0
VERTEX
  5
38AF
330
32FA
100
AcDbEntity
  8
0
100
AcDbVertex
100
AcDb2dVertex
 10
1.952708661417322
 20
3.961044544366367
 30
0.0
  0
VERTEX
  5
38B0
330
32FA
100
AcDbEntity
  8
0
100
AcDbVertex
100
AcDb2dVertex
 10
1.961920275590551
 20
3.938673481374241
 30
0.0
  0
VERTEX
  5
38B1
330
32FA
100
AcDbEntity
  8
0
100
AcDbVertex
100
AcDb2dVertex
 10
1.982975393700787
 20
3.930777812082903
 30
0.0
  0
SEQEND
  5
38B2
330
32FA
100
AcDbEntity
  8
0
  0
LINE
  5
32FF
330
1E
100
AcDbEntity
  8
0
100
AcDbLine
 10
2.063248031496063
 20
3.930777812082903
 30
0.0
 11
1.982975393700787
 21
3.930777812082903
 31
0.0
  0
POLYLINE
  5
3300
330
1E
100
AcDbEntity
  8
0
100
AcDb2dPolyline
 66
     1
 10
0.0
 20
0.0
 30
0.0
  0
VERTEX
  5
38B3
330
3300
100
AcDbEntity
  8
0
100
AcDbVertex
100
AcDb2dVertex
 10
2.063248031496063
 20
3.930777812082903
 30
0.0
  0
VERTEX
  5
38B4
330
3300
100
AcDbEntity
  8
0
100
AcDbVertex
100
AcDb2dVertex
 10
2.084303149606299
 20
3.938673481374241
 30
0.0
  0
VERTEX
  5
38B5
330
3300
100
AcDbEntity
  8
0
100
AcDbVertex
100
AcDb2dVertex
 10
2.093514763779527
 20
3.961044544366367
 30
0.0
  0
SEQEND
  5
38B6
330
3300
100
AcDbEntity
  8
0
  0
LINE
  5
3305
330
1E
100
AcDbEntity
  8
0
100
AcDbLine
 10
5.762369094488189
 20
3.270173481374241
 30
0.0
 11
5.932125984251968
 21
3.267541591610461
 31
0.0
  0
LINE
  5
3306
330
1E
100
AcDbEntity
  8
0
100
AcDbLine
 10
5.932125984251968
 20
7.725962851452981
 30
0.0
 11
5.932125984251968
 21
3.267541591610461
 31
0.0
  0
LINE
  5
3307
330
1E
100
AcDbEntity
  8
0
100
AcDbLine
 10
5.932125984251968
 20
7.725962851452981
 30
0.0
 11
5.762369094488189
 21
7.722015016807311
 31
0.0
  0
LINE
  5
3308
330
1E
100
AcDbEntity
  8
0
100
AcDbLine
 10
5.762369094488189
 20
3.270173481374241
 30
0.0
 11
5.762369094488189
 21
7.722015016807311
 31
0.0
  0
POLYLINE
  5
3309
330
1E
100
AcDbEntity
  8
0
100
AcDb2dPolyline
 66
     1
 10
0.0
 20
0.0
 30
0.0
  0
VERTEX
  5
38B7
330
3309
100
AcDbEntity
  8
0
100
AcDbVertex
100
AcDb2dVertex
 10
5.762369094488188
 20
3.239906749090777
 30
0.0
  0
VERTEX
  5
38B8
330
3309
100
AcDbEntity
  8
0
100
AcDbVertex
100
AcDb2dVertex
 10
5.762369094488188
 20
3.243854583736446
 30
0.0
  0
VERTEX
  5
38B9
330
3309
100
AcDbEntity
  8
0
100
AcDbVertex
100
AcDb2dVertex
 10
5.762369094488188
 20
3.255698087673454
 30
0.0
  0
VERTEX
  5
38BA
330
3309
100
AcDbEntity
  8
0
100
AcDbVertex
100
AcDb2dVertex
 10
5.762369094488188
 20
3.270173481374241
 30
0.0
  0
SEQEND
  5
38BB
330
3309
100
AcDbEntity
  8
0
  0
POLYLINE
  5
330F
330
1E
100
AcDbEntity
  8
0
100
AcDb2dPolyline
 66
     1
 10
0.0
 20
0.0
 30
0.0
  0
VERTEX
  5
38BC
330
330F
100
AcDbEntity
  8
0
100
AcDbVertex
100
AcDb2dVertex
 10
5.762369094488188
 20
7.72201501680731
 30
0.0
  0
VERTEX
  5
38BD
330
330F
100
AcDbEntity
  8
0
100
AcDbVertex
100
AcDb2dVertex
 10
5.762369094488188
 20
7.737806355389989
 30
0.0
  0
VERTEX
  5
38BE
330
330F
100
AcDbEntity
  8
0
100
AcDbVertex
100
AcDb2dVertex
 10
5.762369094488188
 20
7.748333914445107
 30
0.0
  0
VERTEX
  5
38BF
330
330F
100
AcDbEntity
  8
0
100
AcDbVertex
100
AcDb2dVertex
 10
5.762369094488188
 20
7.752281749090776
 30
0.0
  0
SEQEND
  5
38C0
330
330F
100
AcDbEntity
  8
0
  0
POLYLINE
  5
3315
330
1E
100
AcDbEntity
  8
0
100
AcDb2dPolyline
 66
     1
 10
0.0
 20
0.0
 30
0.0
  0
VERTEX
  5
38C1
330
3315
100
AcDbEntity
  8
0
100
AcDbVertex
100
AcDb2dVertex
 10
5.932125984251968
 20
3.267541591610462
 30
0.0
  0
VERTEX
  5
38C2
330
3315
100
AcDbEntity
  8
0
100
AcDbVertex
100
AcDb2dVertex
 10
5.932125984251968
 20
3.251750253027784
 30
0.0
  0
VERTEX
  5
38C3
330
3315
100
AcDbEntity
  8
0
100
AcDbVertex
100
AcDb2dVertex
 10
5.932125984251968
 20
3.241222693972666
 30
0.0
  0
VERTEX
  5
38C4
330
3315
100
AcDbEntity
  8
0
100
AcDbVertex
100
AcDb2dVertex
 10
5.932125984251968
 20
3.237274859326998
 30
0.0
  0
SEQEND
  5
38C5
330
3315
100
AcDbEntity
  8
0
  0
POLYLINE
  5
331B
330
1E
100
AcDbEntity
  8
0
100
AcDb2dPolyline
 66
     1
 10
0.0
 20
0.0
 30
0.0
  0
VERTEX
  5
38C6
330
331B
100
AcDbEntity
  8
0
100
AcDbVertex
100
AcDb2dVertex
 10
5.932125984251968
 20
7.754913638854556
 30
0.0
  0
VERTEX
  5
38C7
330
331B
100
AcDbEntity
  8
0
100
AcDbVertex
100
AcDb2dVertex
 10
5.932125984251968
 20
7.750965804208887
 30
0.0
  0
VERTEX
  5
38C8
330
331B
100
AcDbEntity
  8
0
100
AcDbVertex
100
AcDb2dVertex
 10
5.932125984251968
 20
7.740438245153769
 30
0.0
  0
VERTEX
  5
38C9
330
331B
100
AcDbEntity
  8
0
100
AcDbVertex
100
AcDb2dVertex
 10
5.932125984251968
 20
7.725962851452981
 30
0.0
  0
SEQEND
  5
38CA
330
331B
100
AcDbEntity
  8
0
  0
LINE
  5
3321
330
1E
100
AcDbEntity
  8
0
100
AcDbLine
 10
5.932125984251968
 20
3.237274859326997
 30
0.0
 11
5.762369094488189
 21
3.239906749090777
 31
0.0
  0
LINE
  5
3322
330
1E
100
AcDbEntity
  8
0
100
AcDbLine
 10
6.057140748031494
 20
4.116326040429359
 30
0.0
 11
6.057140748031494
 21
4.103166591610462
 31
0.0
  0
LINE
  5
3323
330
1E
100
AcDbEntity
  8
0
100
AcDbLine
 10
6.057140748031494
 20
4.103166591610462
 30
0.0
 11
6.047929133858268
 21
4.093954977437233
 31
0.0
  0
LINE
  5
3324
330
1E
100
AcDbEntity
  8
0
100
AcDbLine
 10
6.049245078740157
 20
4.103166591610462
 30
0.0
 11
6.049245078740157
 21
4.116326040429359
 31
0.0
  0
POLYLINE
  5
3325
330
1E
100
AcDbEntity
  8
0
100
AcDb2dPolyline
 66
     1
 10
0.0
 20
0.0
 30
0.0
  0
VERTEX
  5
38CB
330
3325
100
AcDbEntity
  8
0
100
AcDbVertex
100
AcDb2dVertex
 10
6.049245078740157
 20
4.103166591610462
 30
0.0
  0
VERTEX
  5
38CC
330
3325
100
AcDbEntity
  8
0
100
AcDbVertex
100
AcDb2dVertex
 10
6.054508858267715
 20
4.103166591610462
 30
0.0
  0
VERTEX
  5
38CD
330
3325
100
AcDbEntity
  8
0
100
AcDbVertex
100
AcDb2dVertex
 10
6.057140748031494
 20
4.103166591610462
 30
0.0
  0
SEQEND
  5
38CE
330
3325
100
AcDbEntity
  8
0
  0
POLYLINE
  5
332A
330
1E
100
AcDbEntity
  8
0
100
AcDb2dPolyline
 66
     1
 10
0.0
 20
0.0
 30
0.0
  0
VERTEX
  5
38CF
330
332A
100
AcDbEntity
  8
0
100
AcDbVertex
100
AcDb2dVertex
 10
6.047929133858267
 20
4.101850646728571
 30
0.0
  0
VERTEX
  5
38D0
330
332A
100
AcDbEntity
  8
0
100
AcDbVertex
100
AcDb2dVertex
 10
6.047929133858267
 20
4.096586867201012
 30
0.0
  0
VERTEX
  5
38D1
330
332A
100
AcDbEntity
  8
0
100
AcDbVertex
100
AcDb2dVertex
 10
6.047929133858267
 20
4.093954977437234
 30
0.0
  0
SEQEND
  5
38D2
330
332A
100
AcDbEntity
  8
0
  0
LINE
  5
332F
330
1E
100
AcDbEntity
  8
0
100
AcDbLine
 10
6.047929133858268
 20
4.101850646728571
 30
0.0
 11
6.049245078740157
 21
4.103166591610462
 31
0.0
  0
LINE
  5
3330
330
1E
100
AcDbEntity
  8
0
100
AcDbLine
 10
6.057140748031494
 20
4.220285686098651
 30
0.0
 11
6.057140748031494
 21
4.209758127043532
 31
0.0
  0
POLYLINE
  5
3331
330
1E
100
AcDbEntity
  8
0
100
AcDb2dPolyline
 66
     1
 10
0.0
 20
0.0
 30
0.0
  0
VERTEX
  5
38D3
330
3331
100
AcDbEntity
  8
0
100
AcDbVertex
100
AcDb2dVertex
 10
6.057140748031494
 20
4.209758127043532
 30
0.0
  0
VERTEX
  5
38D4
330
3331
100
AcDbEntity
  8
0
100
AcDbVertex
100
AcDb2dVertex
 10
6.057140748031494
 20
4.195282733342745
 30
0.0
  0
VERTEX
  5
38D5
330
3331
100
AcDbEntity
  8
0
100
AcDbVertex
100
AcDb2dVertex
 10
6.057140748031494
 20
4.190018953815186
 30
0.0
  0
SEQEND
  5
38D6
330
3331
100
AcDbEntity
  8
0
  0
LINE
  5
3336
330
1E
100
AcDbEntity
  8
0
100
AcDbLine
 10
6.057140748031494
 20
4.190018953815186
 30
0.0
 11
6.057140748031494
 21
4.142644938067155
 31
0.0
  0
POLYLINE
  5
3337
330
1E
100
AcDbEntity
  8
0
100
AcDb2dPolyline
 66
     1
 10
0.0
 20
0.0
 30
0.0
  0
VERTEX
  5
38D7
330
3337
100
AcDbEntity
  8
0
100
AcDbVertex
100
AcDb2dVertex
 10
6.046613188976376
 20
4.190018953815186
 30
0.0
  0
VERTEX
  5
38D8
330
3337
100
AcDbEntity
  8
0
100
AcDbVertex
100
AcDb2dVertex
 10
6.046613188976376
 20
4.196598678224634
 30
0.0
  0
VERTEX
  5
38D9
330
3337
100
AcDbEntity
  8
0
100
AcDbVertex
100
AcDb2dVertex
 10
6.046613188976376
 20
4.199230567988414
 30
0.0
  0
SEQEND
  5
38DA
330
3337
100
AcDbEntity
  8
0
  0
POLYLINE
  5
333C
330
1E
100
AcDbEntity
  8
0
100
AcDb2dPolyline
 66
     1
 10
0.0
 20
0.0
 30
0.0
  0
VERTEX
  5
38DB
330
333C
100
AcDbEntity
  8
0
100
AcDbVertex
100
AcDb2dVertex
 10
6.046613188976376
 20
4.190018953815186
 30
0.0
  0
VERTEX
  5
38DC
330
333C
100
AcDbEntity
  8
0
100
AcDbVertex
100
AcDb2dVertex
 10
6.054508858267715
 20
4.190018953815186
 30
0.0
  0
VERTEX
  5
38DD
330
333C
100
AcDbEntity
  8
0
100
AcDbVertex
100
AcDb2dVertex
 10
6.057140748031494
 20
4.190018953815186
 30
0.0
  0
SEQEND
  5
38DE
330
333C
100
AcDbEntity
  8
0
  0
POLYLINE
  5
3341
330
1E
100
AcDbEntity
  8
0
100
AcDb2dPolyline
 66
     1
 10
0.0
 20
0.0
 30
0.0
  0
VERTEX
  5
38DF
330
3341
100
AcDbEntity
  8
0
100
AcDbVertex
100
AcDb2dVertex
 10
6.046613188976376
 20
4.199230567988414
 30
0.0
  0
VERTEX
  5
38E0
330
3341
100
AcDbEntity
  8
0
100
AcDbVertex
100
AcDb2dVertex
 10
6.054508858267715
 20
4.196598678224634
 30
0.0
  0
VERTEX
  5
38E1
330
3341
100
AcDbEntity
  8
0
100
AcDbVertex
100
AcDb2dVertex
 10
6.057140748031494
 20
4.190018953815186
 30
0.0
  0
SEQEND
  5
38E2
330
3341
100
AcDbEntity
  8
0
  0
LINE
  5
3346
330
1E
100
AcDbEntity
  8
0
100
AcDbLine
 10
6.046613188976376
 20
4.142644938067155
 30
0.0
 11
6.046613188976376
 21
4.190018953815186
 31
0.0
  0
POLYLINE
  5
3347
330
1E
100
AcDbEntity
  8
0
100
AcDb2dPolyline
 66
     1
 10
0.0
 20
0.0
 30
0.0
  0
VERTEX
  5
38E3
330
3347
100
AcDbEntity
  8
0
100
AcDbVertex
100
AcDb2dVertex
 10
6.046613188976376
 20
4.142644938067154
 30
0.0
  0
VERTEX
  5
38E4
330
3347
100
AcDbEntity
  8
0
100
AcDbVertex
100
AcDb2dVertex
 10
6.054508858267715
 20
4.142644938067154
 30
0.0
  0
VERTEX
  5
38E5
330
3347
100
AcDbEntity
  8
0
100
AcDbVertex
100
AcDb2dVertex
 10
6.057140748031494
 20
4.142644938067154
 30
0.0
  0
SEQEND
  5
38E6
330
3347
100
AcDbEntity
  8
0
  0
POLYLINE
  5
334C
330
1E
100
AcDbEntity
  8
0
100
AcDb2dPolyline
 66
     1
 10
0.0
 20
0.0
 30
0.0
  0
VERTEX
  5
38E7
330
334C
100
AcDbEntity
  8
0
100
AcDbVertex
100
AcDb2dVertex
 10
6.047929133858267
 20
4.132117379012036
 30
0.0
  0
VERTEX
  5
38E8
330
334C
100
AcDbEntity
  8
0
100
AcDbVertex
100
AcDb2dVertex
 10
6.047929133858267
 20
4.134749268775816
 30
0.0
  0
VERTEX
  5
38E9
330
334C
100
AcDbEntity
  8
0
100
AcDbVertex
100
AcDb2dVertex
 10
6.046613188976376
 20
4.142644938067154
 30
0.0
  0
SEQEND
  5
38EA
330
334C
100
AcDbEntity
  8
0
  0
POLYLINE
  5
3351
330
1E
100
AcDbEntity
  8
0
100
AcDb2dPolyline
 66
     1
 10
0.0
 20
0.0
 30
0.0
  0
VERTEX
  5
38EB
330
3351
100
AcDbEntity
  8
0
100
AcDbVertex
100
AcDb2dVertex
 10
6.047929133858267
 20
4.132117379012036
 30
0.0
  0
VERTEX
  5
38EC
330
3351
100
AcDbEntity
  8
0
100
AcDbVertex
100
AcDb2dVertex
 10
6.054508858267715
 20
4.136065213657706
 30
0.0
  0
VERTEX
  5
38ED
330
3351
100
AcDbEntity
  8
0
100
AcDbVertex
100
AcDb2dVertex
 10
6.057140748031494
 20
4.142644938067154
 30
0.0
  0
SEQEND
  5
38EE
330
3351
100
AcDbEntity
  8
0
  0
LINE
  5
3356
330
1E
100
AcDbEntity
  8
0
100
AcDbLine
 10
5.932125984251968
 20
4.086059308145895
 30
0.0
 11
6.047929133858268
 21
4.101850646728571
 31
0.0
  0
LINE
  5
3357
330
1E
100
AcDbEntity
  8
0
100
AcDbLine
 10
6.047929133858268
 20
4.093954977437233
 30
0.0
 11
5.932125984251968
 21
4.076847693972667
 31
0.0
  0
POLYLINE
  5
3358
330
1E
100
AcDbEntity
  8
0
100
AcDb2dPolyline
 66
     1
 10
0.0
 20
0.0
 30
0.0
  0
VERTEX
  5
38EF
330
3358
100
AcDbEntity
  8
0
100
AcDbVertex
100
AcDb2dVertex
 10
6.046613188976376
 20
4.229497300271879
 30
0.0
  0
VERTEX
  5
38F0
330
3358
100
AcDbEntity
  8
0
100
AcDbVertex
100
AcDb2dVertex
 10
6.054508858267715
 20
4.226865410508099
 30
0.0
  0
VERTEX
  5
38F1
330
3358
100
AcDbEntity
  8
0
100
AcDbVertex
100
AcDb2dVertex
 10
6.057140748031494
 20
4.220285686098651
 30
0.0
  0
SEQEND
  5
38F2
330
3358
100
AcDbEntity
  8
0
  0
POLYLINE
  5
335D
330
1E
100
AcDbEntity
  8
0
100
AcDb2dPolyline
 66
     1
 10
0.0
 20
0.0
 30
0.0
  0
VERTEX
  5
38F3
330
335D
100
AcDbEntity
  8
0
100
AcDbVertex
100
AcDb2dVertex
 10
6.046613188976376
 20
4.220285686098651
 30
0.0
  0
VERTEX
  5
38F4
330
335D
100
AcDbEntity
  8
0
100
AcDbVertex
100
AcDb2dVertex
 10
6.046613188976376
 20
4.226865410508099
 30
0.0
  0
VERTEX
  5
38F5
330
335D
100
AcDbEntity
  8
0
100
AcDbVertex
100
AcDb2dVertex
 10
6.046613188976376
 20
4.229497300271879
 30
0.0
  0
SEQEND
  5
38F6
330
335D
100
AcDbEntity
  8
0
  0
POLYLINE
  5
3362
330
1E
100
AcDbEntity
  8
0
100
AcDb2dPolyline
 66
     1
 10
0.0
 20
0.0
 30
0.0
  0
VERTEX
  5
38F7
330
3362
100
AcDbEntity
  8
0
100
AcDbVertex
100
AcDb2dVertex
 10
6.046613188976376
 20
4.220285686098651
 30
0.0
  0
VERTEX
  5
38F8
330
3362
100
AcDbEntity
  8
0
100
AcDbVertex
100
AcDb2dVertex
 10
6.054508858267715
 20
4.220285686098651
 30
0.0
  0
VERTEX
  5
38F9
330
3362
100
AcDbEntity
  8
0
100
AcDbVertex
100
AcDb2dVertex
 10
6.057140748031494
 20
4.220285686098651
 30
0.0
  0
SEQEND
  5
38FA
330
3362
100
AcDbEntity
  8
0
  0
LINE
  5
3367
330
1E
100
AcDbEntity
  8
0
100
AcDbLine
 10
6.046613188976376
 20
4.209758127043532
 30
0.0
 11
6.046613188976376
 21
4.220285686098651
 31
0.0
  0
POLYLINE
  5
3368
330
1E
100
AcDbEntity
  8
0
100
AcDb2dPolyline
 66
     1
 10
0.0
 20
0.0
 30
0.0
  0
VERTEX
  5
38FB
330
3368
100
AcDbEntity
  8
0
100
AcDbVertex
100
AcDb2dVertex
 10
6.046613188976376
 20
4.209758127043532
 30
0.0
  0
VERTEX
  5
38FC
330
3368
100
AcDbEntity
  8
0
100
AcDbVertex
100
AcDb2dVertex
 10
6.054508858267715
 20
4.209758127043532
 30
0.0
  0
VERTEX
  5
38FD
330
3368
100
AcDbEntity
  8
0
100
AcDbVertex
100
AcDb2dVertex
 10
6.057140748031494
 20
4.209758127043532
 30
0.0
  0
SEQEND
  5
38FE
330
3368
100
AcDbEntity
  8
0
  0
POLYLINE
  5
336D
330
1E
100
AcDbEntity
  8
0
100
AcDb2dPolyline
 66
     1
 10
0.0
 20
0.0
 30
0.0
  0
VERTEX
  5
38FF
330
336D
100
AcDbEntity
  8
0
100
AcDbVertex
100
AcDb2dVertex
 10
6.046613188976376
 20
4.199230567988414
 30
0.0
  0
VERTEX
  5
3900
330
336D
100
AcDbEntity
  8
0
100
AcDbVertex
100
AcDb2dVertex
 10
6.046613188976376
 20
4.203178402634084
 30
0.0
  0
VERTEX
  5
3901
330
336D
100
AcDbEntity
  8
0
100
AcDbVertex
100
AcDb2dVertex
 10
6.046613188976376
 20
4.209758127043532
 30
0.0
  0
SEQEND
  5
3902
330
336D
100
AcDbEntity
  8
0
  0
LINE
  5
3372
330
1E
100
AcDbEntity
  8
0
100
AcDbLine
 10
6.046613188976376
 20
4.190018953815186
 30
0.0
 11
5.932125984251968
 21
4.191334898697075
 31
0.0
  0
LINE
  5
3373
330
1E
100
AcDbEntity
  8
0
100
AcDbLine
 10
5.932125984251968
 20
4.201862457752193
 30
0.0
 11
6.046613188976376
 21
4.199230567988414
 31
0.0
  0
LINE
  5
3374
330
1E
100
AcDbEntity
  8
0
100
AcDbLine
 10
5.932125984251968
 20
4.132117379012036
 30
0.0
 11
6.046613188976376
 21
4.142644938067155
 31
0.0
  0
LINE
  5
3375
330
1E
100
AcDbEntity
  8
0
100
AcDbLine
 10
6.047929133858268
 20
4.132117379012036
 30
0.0
 11
5.932125984251968
 21
4.121589819956918
 31
0.0
  0
LINE
  5
3376
330
1E
100
AcDbEntity
  8
0
100
AcDbLine
 10
5.932125984251968
 20
4.232129190035658
 30
0.0
 11
6.046613188976376
 21
4.229497300271879
 31
0.0
  0
LINE
  5
3377
330
1E
100
AcDbEntity
  8
0
100
AcDbLine
 10
6.046613188976376
 20
4.220285686098651
 30
0.0
 11
5.932125984251968
 21
4.22160163098054
 31
0.0
  0
LINE
  5
3378
330
1E
100
AcDbEntity
  8
0
100
AcDbLine
 10
5.932125984251968
 20
4.212390016807312
 30
0.0
 11
6.046613188976376
 21
4.209758127043532
 31
0.0
  0
LINE
  5
3379
330
1E
100
AcDbEntity
  8
0
100
AcDbLine
 10
6.054508858267716
 20
5.453326040429359
 30
0.0
 11
6.054508858267716
 21
5.491488442004162
 31
0.0
  0
LINE
  5
337A
330
1E
100
AcDbEntity
  8
0
100
AcDbLine
 10
6.047929133858268
 20
5.441482536492351
 30
0.0
 11
6.054508858267716
 21
5.453326040429359
 31
0.0
  0
LINE
  5
337B
330
1E
100
AcDbEntity
  8
0
100
AcDbLine
 10
5.983447834645668
 20
5.398056355389988
 30
0.0
 11
6.047929133858268
 21
5.441482536492351
 31
0.0
  0
LINE
  5
337C
330
1E
100
AcDbEntity
  8
0
100
AcDbLine
 10
5.983447834645668
 20
4.617701040429359
 30
0.0
 11
5.983447834645668
 21
5.398056355389988
 31
0.0
  0
LINE
  5
337D
330
1E
100
AcDbEntity
  8
0
100
AcDbLine
 10
5.983447834645668
 20
4.617701040429359
 30
0.0
 11
5.995291338582677
 21
4.617701040429359
 31
0.0
  0
POLYLINE
  5
337E
330
1E
100
AcDbEntity
  8
0
100
AcDb2dPolyline
 66
     1
 10
0.0
 20
0.0
 30
0.0
  0
VERTEX
  5
3903
330
337E
100
AcDbEntity
  8
0
100
AcDbVertex
100
AcDb2dVertex
 10
5.995291338582677
 20
4.617701040429359
 30
0.0
  0
VERTEX
  5
3904
330
337E
100
AcDbEntity
  8
0
100
AcDbVertex
100
AcDb2dVertex
 10
6.017662401574802
 20
4.6124372609018
 30
0.0
  0
VERTEX
  5
3905
330
337E
100
AcDbEntity
  8
0
100
AcDbVertex
100
AcDb2dVertex
 10
6.037401574803149
 20
4.599277812082903
 30
0.0
  0
VERTEX
  5
3906
330
337E
100
AcDbEntity
  8
0
100
AcDbVertex
100
AcDb2dVertex
 10
6.049245078740157
 20
4.580854583736446
 30
0.0
  0
VERTEX
  5
3907
330
337E
100
AcDbEntity
  8
0
100
AcDbVertex
100
AcDb2dVertex
 10
6.054508858267715
 20
4.55716757586243
 30
0.0
  0
SEQEND
  5
3908
330
337E
100
AcDbEntity
  8
0
  0
LINE
  5
3385
330
1E
100
AcDbEntity
  8
0
100
AcDbLine
 10
5.932125984251968
 20
5.492804386886053
 30
0.0
 11
6.054508858267716
 21
5.491488442004162
 31
0.0
  0
LINE
  5
3386
330
1E
100
AcDbEntity
  8
0
100
AcDbLine
 10
6.054508858267716
 20
4.520321119169516
 30
0.0
 11
6.054508858267716
 21
4.557167575862429
 31
0.0
  0
LINE
  5
3387
330
1E
100
AcDbEntity
  8
0
100
AcDbLine
 10
5.932125984251968
 20
4.517689229405737
 30
0.0
 11
6.054508858267716
 21
4.520321119169516
 31
0.0
  0
LINE
  5
3388
330
1E
100
AcDbEntity
  8
0
100
AcDbLine
 10
6.054508858267716
 20
6.607409701846682
 30
0.0
 11
6.054508858267716
 21
6.644256158539596
 31
0.0
  0
LINE
  5
3389
330
1E
100
AcDbEntity
  8
0
100
AcDbLine
 10
6.047929133858268
 20
6.594250253027784
 30
0.0
 11
6.054508858267716
 21
6.607409701846682
 31
0.0
  0
LINE
  5
338A
330
1E
100
AcDbEntity
  8
0
100
AcDbLine
 10
5.983447834645668
 20
6.550824071925422
 30
0.0
 11
6.047929133858268
 21
6.594250253027784
 31
0.0
  0
LINE
  5
338B
330
1E
100
AcDbEntity
  8
0
100
AcDbLine
 10
5.983447834645668
 20
5.771784701846682
 30
0.0
 11
5.983447834645668
 21
6.550824071925422
 31
0.0
  0
LINE
  5
338C
330
1E
100
AcDbEntity
  8
0
100
AcDbLine
 10
5.983447834645668
 20
5.771784701846682
 30
0.0
 11
5.995291338582677
 21
5.770468756964793
 31
0.0
  0
POLYLINE
  5
338D
330
1E
100
AcDbEntity
  8
0
100
AcDb2dPolyline
 66
     1
 10
0.0
 20
0.0
 30
0.0
  0
VERTEX
  5
3909
330
338D
100
AcDbEntity
  8
0
100
AcDbVertex
100
AcDb2dVertex
 10
5.995291338582677
 20
5.770468756964793
 30
0.0
  0
VERTEX
  5
390A
330
338D
100
AcDbEntity
  8
0
100
AcDbVertex
100
AcDb2dVertex
 10
6.017662401574802
 20
5.766520922319123
 30
0.0
  0
VERTEX
  5
390B
330
338D
100
AcDbEntity
  8
0
100
AcDbVertex
100
AcDb2dVertex
 10
6.037401574803149
 20
5.753361473500226
 30
0.0
  0
VERTEX
  5
390C
330
338D
100
AcDbEntity
  8
0
100
AcDbVertex
100
AcDb2dVertex
 10
6.049245078740157
 20
5.733622300271879
 30
0.0
  0
VERTEX
  5
390D
330
338D
100
AcDbEntity
  8
0
100
AcDbVertex
100
AcDb2dVertex
 10
6.054508858267715
 20
5.711251237279753
 30
0.0
  0
SEQEND
  5
390E
330
338D
100
AcDbEntity
  8
0
  0
LINE
  5
3394
330
1E
100
AcDbEntity
  8
0
100
AcDbLine
 10
5.932125984251968
 20
6.646888048303376
 30
0.0
 11
6.054508858267716
 21
6.644256158539596
 31
0.0
  0
LINE
  5
3395
330
1E
100
AcDbEntity
  8
0
100
AcDbLine
 10
6.054508858267716
 20
5.673088835704949
 30
0.0
 11
6.054508858267716
 21
5.711251237279753
 31
0.0
  0
LINE
  5
3396
330
1E
100
AcDbEntity
  8
0
100
AcDbLine
 10
5.932125984251968
 20
5.670456945941171
 30
0.0
 11
6.054508858267716
 21
5.673088835704949
 31
0.0
  0
LINE
  5
3397
330
1E
100
AcDbEntity
  8
0
100
AcDbLine
 10
6.057140748031494
 20
6.889021906571091
 30
0.0
 11
6.057140748031494
 21
6.875862457752194
 31
0.0
  0
LINE
  5
3398
330
1E
100
AcDbEntity
  8
0
100
AcDbLine
 10
6.047929133858268
 20
6.899549465626209
 30
0.0
 11
6.057140748031494
 21
6.889021906571091
 31
0.0
  0
POLYLINE
  5
3399
330
1E
100
AcDbEntity
  8
0
100
AcDb2dPolyline
 66
     1
 10
0.0
 20
0.0
 30
0.0
  0
VERTEX
  5
390F
330
3399
100
AcDbEntity
  8
0
100
AcDbVertex
100
AcDb2dVertex
 10
6.047929133858267
 20
6.89954946562621
 30
0.0
  0
VERTEX
  5
3910
330
3399
100
AcDbEntity
  8
0
100
AcDbVertex
100
AcDb2dVertex
 10
6.047929133858267
 20
6.896917575862429
 30
0.0
  0
VERTEX
  5
3911
330
3399
100
AcDbEntity
  8
0
100
AcDbVertex
100
AcDb2dVertex
 10
6.047929133858267
 20
6.89033785145298
 30
0.0
  0
SEQEND
  5
3912
330
3399
100
AcDbEntity
  8
0
  0
LINE
  5
339E
330
1E
100
AcDbEntity
  8
0
100
AcDbLine
 10
6.049245078740157
 20
6.889021906571091
 30
0.0
 11
6.047929133858268
 21
6.890337851452981
 31
0.0
  0
POLYLINE
  5
339F
330
1E
100
AcDbEntity
  8
0
100
AcDb2dPolyline
 66
     1
 10
0.0
 20
0.0
 30
0.0
  0
VERTEX
  5
3913
330
339F
100
AcDbEntity
  8
0
100
AcDbVertex
100
AcDb2dVertex
 10
6.057140748031494
 20
6.889021906571092
 30
0.0
  0
VERTEX
  5
3914
330
339F
100
AcDbEntity
  8
0
100
AcDbVertex
100
AcDb2dVertex
 10
6.054508858267715
 20
6.889021906571092
 30
0.0
  0
VERTEX
  5
3915
330
339F
100
AcDbEntity
  8
0
100
AcDbVertex
100
AcDb2dVertex
 10
6.049245078740157
 20
6.889021906571092
 30
0.0
  0
SEQEND
  5
3916
330
339F
100
AcDbEntity
  8
0
  0
LINE
  5
33A4
330
1E
100
AcDbEntity
  8
0
100
AcDbLine
 10
6.049245078740157
 20
6.875862457752194
 30
0.0
 11
6.049245078740157
 21
6.889021906571091
 31
0.0
  0
LINE
  5
33A5
330
1E
100
AcDbEntity
  8
0
100
AcDbLine
 10
6.057140748031494
 20
6.850859504996289
 30
0.0
 11
6.057140748031494
 21
6.802169544366367
 31
0.0
  0
POLYLINE
  5
33A6
330
1E
100
AcDbEntity
  8
0
100
AcDb2dPolyline
 66
     1
 10
0.0
 20
0.0
 30
0.0
  0
VERTEX
  5
3917
330
33A6
100
AcDbEntity
  8
0
100
AcDbVertex
100
AcDb2dVertex
 10
6.057140748031494
 20
6.802169544366367
 30
0.0
  0
VERTEX
  5
3918
330
33A6
100
AcDbEntity
  8
0
100
AcDbVertex
100
AcDb2dVertex
 10
6.057140748031494
 20
6.796905764838807
 30
0.0
  0
VERTEX
  5
3919
330
33A6
100
AcDbEntity
  8
0
100
AcDbVertex
100
AcDb2dVertex
 10
6.057140748031494
 20
6.782430371138022
 30
0.0
  0
SEQEND
  5
391A
330
33A6
100
AcDbEntity
  8
0
  0
LINE
  5
33AB
330
1E
100
AcDbEntity
  8
0
100
AcDbLine
 10
6.057140748031494
 20
6.782430371138021
 30
0.0
 11
6.057140748031494
 21
6.773218756964793
 31
0.0
  0
POLYLINE
  5
33AC
330
1E
100
AcDbEntity
  8
0
100
AcDb2dPolyline
 66
     1
 10
0.0
 20
0.0
 30
0.0
  0
VERTEX
  5
391B
330
33AC
100
AcDbEntity
  8
0
100
AcDbVertex
100
AcDb2dVertex
 10
6.057140748031494
 20
6.773218756964792
 30
0.0
  0
VERTEX
  5
391C
330
33AC
100
AcDbEntity
  8
0
100
AcDbVertex
100
AcDb2dVertex
 10
6.054508858267715
 20
6.773218756964792
 30
0.0
  0
VERTEX
  5
391D
330
33AC
100
AcDbEntity
  8
0
100
AcDbVertex
100
AcDb2dVertex
 10
6.046613188976376
 20
6.773218756964792
 30
0.0
  0
SEQEND
  5
391E
330
33AC
100
AcDbEntity
  8
0
  0
POLYLINE
  5
33B1
330
1E
100
AcDbEntity
  8
0
100
AcDb2dPolyline
 66
     1
 10
0.0
 20
0.0
 30
0.0
  0
VERTEX
  5
391F
330
33B1
100
AcDbEntity
  8
0
100
AcDbVertex
100
AcDb2dVertex
 10
6.046613188976376
 20
6.762691197909675
 30
0.0
  0
VERTEX
  5
3920
330
33B1
100
AcDbEntity
  8
0
100
AcDbVertex
100
AcDb2dVertex
 10
6.046613188976376
 20
6.765323087673453
 30
0.0
  0
VERTEX
  5
3921
330
33B1
100
AcDbEntity
  8
0
100
AcDbVertex
100
AcDb2dVertex
 10
6.046613188976376
 20
6.773218756964792
 30
0.0
  0
SEQEND
  5
3922
330
33B1
100
AcDbEntity
  8
0
  0
POLYLINE
  5
33B6
330
1E
100
AcDbEntity
  8
0
100
AcDb2dPolyline
 66
     1
 10
0.0
 20
0.0
 30
0.0
  0
VERTEX
  5
3923
330
33B6
100
AcDbEntity
  8
0
100
AcDbVertex
100
AcDb2dVertex
 10
6.057140748031494
 20
6.773218756964792
 30
0.0
  0
VERTEX
  5
3924
330
33B6
100
AcDbEntity
  8
0
100
AcDbVertex
100
AcDb2dVertex
 10
6.054508858267715
 20
6.765323087673453
 30
0.0
  0
VERTEX
  5
3925
330
33B6
100
AcDbEntity
  8
0
100
AcDbVertex
100
AcDb2dVertex
 10
6.046613188976376
 20
6.762691197909675
 30
0.0
  0
SEQEND
  5
3926
330
33B6
100
AcDbEntity
  8
0
  0
LINE
  5
33BB
330
1E
100
AcDbEntity
  8
0
100
AcDbLine
 10
5.932125984251968
 20
6.915340804208887
 30
0.0
 11
6.047929133858268
 21
6.899549465626209
 31
0.0
  0
LINE
  5
33BC
330
1E
100
AcDbEntity
  8
0
100
AcDbLine
 10
6.047929133858268
 20
6.890337851452981
 30
0.0
 11
5.932125984251968
 21
6.907445134917548
 31
0.0
  0
POLYLINE
  5
33BD
330
1E
100
AcDbEntity
  8
0
100
AcDb2dPolyline
 66
     1
 10
0.0
 20
0.0
 30
0.0
  0
VERTEX
  5
3927
330
33BD
100
AcDbEntity
  8
0
100
AcDbVertex
100
AcDb2dVertex
 10
6.057140748031494
 20
6.850859504996289
 30
0.0
  0
VERTEX
  5
3928
330
33BD
100
AcDbEntity
  8
0
100
AcDbVertex
100
AcDb2dVertex
 10
6.054508858267715
 20
6.857439229405737
 30
0.0
  0
VERTEX
  5
3929
330
33BD
100
AcDbEntity
  8
0
100
AcDbVertex
100
AcDb2dVertex
 10
6.047929133858267
 20
6.860071119169517
 30
0.0
  0
SEQEND
  5
392A
330
33BD
100
AcDbEntity
  8
0
  0
POLYLINE
  5
33C2
330
1E
100
AcDbEntity
  8
0
100
AcDb2dPolyline
 66
     1
 10
0.0
 20
0.0
 30
0.0
  0
VERTEX
  5
392B
330
33C2
100
AcDbEntity
  8
0
100
AcDbVertex
100
AcDb2dVertex
 10
6.046613188976376
 20
6.850859504996289
 30
0.0
  0
VERTEX
  5
392C
330
33C2
100
AcDbEntity
  8
0
100
AcDbVertex
100
AcDb2dVertex
 10
6.047929133858267
 20
6.857439229405737
 30
0.0
  0
VERTEX
  5
392D
330
33C2
100
AcDbEntity
  8
0
100
AcDbVertex
100
AcDb2dVertex
 10
6.047929133858267
 20
6.860071119169517
 30
0.0
  0
SEQEND
  5
392E
330
33C2
100
AcDbEntity
  8
0
  0
POLYLINE
  5
33C7
330
1E
100
AcDbEntity
  8
0
100
AcDb2dPolyline
 66
     1
 10
0.0
 20
0.0
 30
0.0
  0
VERTEX
  5
392F
330
33C7
100
AcDbEntity
  8
0
100
AcDbVertex
100
AcDb2dVertex
 10
6.057140748031494
 20
6.850859504996289
 30
0.0
  0
VERTEX
  5
3930
330
33C7
100
AcDbEntity
  8
0
100
AcDbVertex
100
AcDb2dVertex
 10
6.054508858267715
 20
6.850859504996289
 30
0.0
  0
VERTEX
  5
3931
330
33C7
100
AcDbEntity
  8
0
100
AcDbVertex
100
AcDb2dVertex
 10
6.046613188976376
 20
6.850859504996289
 30
0.0
  0
SEQEND
  5
3932
330
33C7
100
AcDbEntity
  8
0
  0
LINE
  5
33CC
330
1E
100
AcDbEntity
  8
0
100
AcDbLine
 10
6.046613188976376
 20
6.802169544366367
 30
0.0
 11
6.046613188976376
 21
6.850859504996289
 31
0.0
  0
POLYLINE
  5
33CD
330
1E
100
AcDbEntity
  8
0
100
AcDb2dPolyline
 66
     1
 10
0.0
 20
0.0
 30
0.0
  0
VERTEX
  5
3933
330
33CD
100
AcDbEntity
  8
0
100
AcDbVertex
100
AcDb2dVertex
 10
6.057140748031494
 20
6.802169544366367
 30
0.0
  0
VERTEX
  5
3934
330
33CD
100
AcDbEntity
  8
0
100
AcDbVertex
100
AcDb2dVertex
 10
6.054508858267715
 20
6.802169544366367
 30
0.0
  0
VERTEX
  5
3935
330
33CD
100
AcDbEntity
  8
0
100
AcDbVertex
100
AcDb2dVertex
 10
6.046613188976376
 20
6.802169544366367
 30
0.0
  0
SEQEND
  5
3936
330
33CD
100
AcDbEntity
  8
0
  0
POLYLINE
  5
33D2
330
1E
100
AcDbEntity
  8
0
100
AcDb2dPolyline
 66
     1
 10
0.0
 20
0.0
 30
0.0
  0
VERTEX
  5
3937
330
33D2
100
AcDbEntity
  8
0
100
AcDbVertex
100
AcDb2dVertex
 10
6.046613188976376
 20
6.792957930193138
 30
0.0
  0
VERTEX
  5
3938
330
33D2
100
AcDbEntity
  8
0
100
AcDbVertex
100
AcDb2dVertex
 10
6.046613188976376
 20
6.795589819956918
 30
0.0
  0
VERTEX
  5
3939
330
33D2
100
AcDbEntity
  8
0
100
AcDbVertex
100
AcDb2dVertex
 10
6.046613188976376
 20
6.802169544366367
 30
0.0
  0
SEQEND
  5
393A
330
33D2
100
AcDbEntity
  8
0
  0
POLYLINE
  5
33D7
330
1E
100
AcDbEntity
  8
0
100
AcDb2dPolyline
 66
     1
 10
0.0
 20
0.0
 30
0.0
  0
VERTEX
  5
393B
330
33D7
100
AcDbEntity
  8
0
100
AcDbVertex
100
AcDb2dVertex
 10
6.057140748031494
 20
6.802169544366367
 30
0.0
  0
VERTEX
  5
393C
330
33D7
100
AcDbEntity
  8
0
100
AcDbVertex
100
AcDb2dVertex
 10
6.054508858267715
 20
6.795589819956918
 30
0.0
  0
VERTEX
  5
393D
330
33D7
100
AcDbEntity
  8
0
100
AcDbVertex
100
AcDb2dVertex
 10
6.046613188976376
 20
6.792957930193138
 30
0.0
  0
SEQEND
  5
393E
330
33D7
100
AcDbEntity
  8
0
  0
POLYLINE
  5
33DC
330
1E
100
AcDbEntity
  8
0
100
AcDb2dPolyline
 66
     1
 10
0.0
 20
0.0
 30
0.0
  0
VERTEX
  5
393F
330
33DC
100
AcDbEntity
  8
0
100
AcDbVertex
100
AcDb2dVertex
 10
6.046613188976376
 20
6.782430371138022
 30
0.0
  0
VERTEX
  5
3940
330
33DC
100
AcDbEntity
  8
0
100
AcDbVertex
100
AcDb2dVertex
 10
6.046613188976376
 20
6.790326040429358
 30
0.0
  0
VERTEX
  5
3941
330
33DC
100
AcDbEntity
  8
0
100
AcDbVertex
100
AcDb2dVertex
 10
6.046613188976376
 20
6.792957930193138
 30
0.0
  0
SEQEND
  5
3942
330
33DC
100
AcDbEntity
  8
0
  0
POLYLINE
  5
33E1
330
1E
100
AcDbEntity
  8
0
100
AcDb2dPolyline
 66
     1
 10
0.0
 20
0.0
 30
0.0
  0
VERTEX
  5
3943
330
33E1
100
AcDbEntity
  8
0
100
AcDbVertex
100
AcDb2dVertex
 10
6.057140748031494
 20
6.782430371138022
 30
0.0
  0
VERTEX
  5
3944
330
33E1
100
AcDbEntity
  8
0
100
AcDbVertex
100
AcDb2dVertex
 10
6.054508858267715
 20
6.782430371138022
 30
0.0
  0
VERTEX
  5
3945
330
33E1
100
AcDbEntity
  8
0
100
AcDbVertex
100
AcDb2dVertex
 10
6.046613188976376
 20
6.782430371138022
 30
0.0
  0
SEQEND
  5
3946
330
33E1
100
AcDbEntity
  8
0
  0
LINE
  5
33E6
330
1E
100
AcDbEntity
  8
0
100
AcDbLine
 10
6.046613188976376
 20
6.773218756964793
 30
0.0
 11
6.046613188976376
 21
6.782430371138021
 31
0.0
  0
LINE
  5
33E7
330
1E
100
AcDbEntity
  8
0
100
AcDbLine
 10
5.762369094488189
 20
7.752281749090776
 30
0.0
 11
5.932125984251968
 21
7.754913638854556
 31
0.0
  0
LINE
  5
33E8
330
1E
100
AcDbEntity
  8
0
100
AcDbLine
 10
6.046613188976376
 20
6.762691197909674
 30
0.0
 11
5.932125984251968
 21
6.760059308145894
 31
0.0
  0
LINE
  5
33E9
330
1E
100
AcDbEntity
  8
0
100
AcDbLine
 10
5.932125984251968
 20
6.770586867201012
 30
0.0
 11
6.046613188976376
 21
6.773218756964793
 31
0.0
  0
LINE
  5
33EA
330
1E
100
AcDbEntity
  8
0
100
AcDbLine
 10
5.932125984251968
 20
6.870598678224634
 30
0.0
 11
6.047929133858268
 21
6.860071119169516
 31
0.0
  0
LINE
  5
33EB
330
1E
100
AcDbEntity
  8
0
100
AcDbLine
 10
6.046613188976376
 20
6.850859504996289
 30
0.0
 11
5.932125984251968
 21
6.860071119169516
 31
0.0
  0
LINE
  5
33EC
330
1E
100
AcDbEntity
  8
0
100
AcDbLine
 10
5.932125984251968
 20
6.800853599484478
 30
0.0
 11
6.046613188976376
 21
6.802169544366367
 31
0.0
  0
LINE
  5
33ED
330
1E
100
AcDbEntity
  8
0
100
AcDbLine
 10
6.046613188976376
 20
6.792957930193139
 30
0.0
 11
5.932125984251968
 21
6.790326040429359
 31
0.0
  0
LINE
  5
33EE
330
1E
100
AcDbEntity
  8
0
100
AcDbLine
 10
6.046613188976376
 20
6.782430371138021
 30
0.0
 11
5.932125984251968
 21
6.781114426256131
 31
0.0
  0
POLYLINE
  5
33EF
330
1E
100
AcDbEntity
  8
0
100
AcDb2dPolyline
 66
     1
 10
0.0
 20
0.0
 30
0.0
  0
VERTEX
  5
3947
330
33EF
100
AcDbEntity
  8
0
100
AcDbVertex
100
AcDb2dVertex
 10
6.057140748031494
 20
4.116326040429359
 30
0.0
  0
VERTEX
  5
3948
330
33EF
100
AcDbEntity
  8
0
100
AcDbVertex
100
AcDb2dVertex
 10
6.050561023622046
 20
4.116326040429359
 30
0.0
  0
VERTEX
  5
3949
330
33EF
100
AcDbEntity
  8
0
100
AcDbVertex
100
AcDb2dVertex
 10
6.03213779527559
 20
4.116326040429359
 30
0.0
  0
VERTEX
  5
394A
330
33EF
100
AcDbEntity
  8
0
100
AcDbVertex
100
AcDb2dVertex
 10
6.007134842519684
 20
4.116326040429359
 30
0.0
  0
SEQEND
  5
394B
330
33EF
100
AcDbEntity
  8
0
  0
LINE
  5
33F5
330
1E
100
AcDbEntity
  8
0
100
AcDbLine
 10
5.932125984251968
 20
4.116326040429359
 30
0.0
 11
6.007134842519684
 21
4.116326040429359
 31
0.0
  0
LINE
  5
33F6
330
1E
100
AcDbEntity
  8
0
100
AcDbLine
 10
5.932125984251968
 20
6.875862457752194
 30
0.0
 11
6.007134842519684
 21
6.875862457752194
 31
0.0
  0
POLYLINE
  5
33F7
330
1E
100
AcDbEntity
  8
0
100
AcDb2dPolyline
 66
     1
 10
0.0
 20
0.0
 30
0.0
  0
VERTEX
  5
394C
330
33F7
100
AcDbEntity
  8
0
100
AcDbVertex
100
AcDb2dVertex
 10
6.007134842519684
 20
6.875862457752194
 30
0.0
  0
VERTEX
  5
394D
330
33F7
100
AcDbEntity
  8
0
100
AcDbVertex
100
AcDb2dVertex
 10
6.03213779527559
 20
6.875862457752194
 30
0.0
  0
VERTEX
  5
394E
330
33F7
100
AcDbEntity
  8
0
100
AcDbVertex
100
AcDb2dVertex
 10
6.050561023622046
 20
6.875862457752194
 30
0.0
  0
VERTEX
  5
394F
330
33F7
100
AcDbEntity
  8
0
100
AcDbVertex
100
AcDb2dVertex
 10
6.057140748031494
 20
6.875862457752194
 30
0.0
  0
SEQEND
  5
3950
330
33F7
100
AcDbEntity
  8
0
  0
POLYLINE
  5
33FD
330
1E
100
AcDbEntity
  8
0
100
AcDb2dPolyline
 66
     1
 10
0.0
 20
0.0
 30
0.0
  0
VERTEX
  5
3951
330
33FD
100
AcDbEntity
  8
0
100
AcDbVertex
100
AcDb2dVertex
 10
5.601823818897637
 20
7.56673352074432
 30
0.0
  0
VERTEX
  5
3952
330
33FD
100
AcDbEntity
  8
0
100
AcDbVertex
100
AcDb2dVertex
 10
5.608403543307086
 20
7.56673352074432
 30
0.0
  0
VERTEX
  5
3953
330
33FD
100
AcDbEntity
  8
0
100
AcDbVertex
100
AcDb2dVertex
 10
5.625510826771653
 20
7.56673352074432
 30
0.0
  0
SEQEND
  5
3954
330
33FD
100
AcDbEntity
  8
0
  0
POLYLINE
  5
3402
330
1E
100
AcDbEntity
  8
0
100
AcDb2dPolyline
 66
     1
 10
0.0
 20
0.0
 30
0.0
  0
VERTEX
  5
3955
330
3402
100
AcDbEntity
  8
0
100
AcDbVertex
100
AcDb2dVertex
 10
5.625510826771653
 20
7.56673352074432
 30
0.0
  0
VERTEX
  5
3956
330
3402
100
AcDbEntity
  8
0
100
AcDbVertex
100
AcDb2dVertex
 10
5.616299212598424
 20
7.602264032555342
 30
0.0
  0
VERTEX
  5
3957
330
3402
100
AcDbEntity
  8
0
100
AcDbVertex
100
AcDb2dVertex
 10
5.625510826771653
 20
7.631214819956919
 30
0.0
  0
SEQEND
  5
3958
330
3402
100
AcDbEntity
  8
0
  0
POLYLINE
  5
3407
330
1E
100
AcDbEntity
  8
0
100
AcDb2dPolyline
 66
     1
 10
0.0
 20
0.0
 30
0.0
  0
VERTEX
  5
3959
330
3407
100
AcDbEntity
  8
0
100
AcDbVertex
100
AcDb2dVertex
 10
5.601823818897637
 20
7.56673352074432
 30
0.0
  0
VERTEX
  5
395A
330
3407
100
AcDbEntity
  8
0
100
AcDbVertex
100
AcDb2dVertex
 10
5.608403543307086
 20
7.600948087673454
 30
0.0
  0
VERTEX
  5
395B
330
3407
100
AcDbEntity
  8
0
100
AcDbVertex
100
AcDb2dVertex
 10
5.625510826771653
 20
7.631214819956919
 30
0.0
  0
SEQEND
  5
395C
330
3407
100
AcDbEntity
  8
0
  0
LINE
  5
340C
330
1E
100
AcDbEntity
  8
0
100
AcDbLine
 10
5.732102362204724
 20
7.722015016807311
 30
0.0
 11
5.726838582677165
 21
7.687800449878178
 31
0.0
  0
POLYLINE
  5
340D
330
1E
100
AcDbEntity
  8
0
100
AcDb2dPolyline
 66
     1
 10
0.0
 20
0.0
 30
0.0
  0
VERTEX
  5
395D
330
340D
100
AcDbEntity
  8
0
100
AcDbVertex
100
AcDb2dVertex
 10
5.732102362204723
 20
7.72201501680731
 30
0.0
  0
VERTEX
  5
395E
330
340D
100
AcDbEntity
  8
0
100
AcDbVertex
100
AcDb2dVertex
 10
5.733418307086613
 20
7.732542575862429
 30
0.0
  0
VERTEX
  5
395F
330
340D
100
AcDbEntity
  8
0
100
AcDbVertex
100
AcDb2dVertex
 10
5.733418307086613
 20
7.740438245153769
 30
0.0
  0
VERTEX
  5
3960
330
340D
100
AcDbEntity
  8
0
100
AcDbVertex
100
AcDb2dVertex
 10
5.733418307086613
 20
7.747017969563217
 30
0.0
  0
VERTEX
  5
3961
330
340D
100
AcDbEntity
  8
0
100
AcDbVertex
100
AcDb2dVertex
 10
5.733418307086613
 20
7.750965804208887
 30
0.0
  0
VERTEX
  5
3962
330
340D
100
AcDbEntity
  8
0
100
AcDbVertex
100
AcDb2dVertex
 10
5.732102362204723
 20
7.752281749090776
 30
0.0
  0
SEQEND
  5
3963
330
340D
100
AcDbEntity
  8
0
  0
LINE
  5
3415
330
1E
100
AcDbEntity
  8
0
100
AcDbLine
 10
5.726838582677165
 20
7.752281749090776
 30
0.0
 11
5.732102362204724
 21
7.752281749090776
 31
0.0
  0
LINE
  5
3416
330
1E
100
AcDbEntity
  8
0
100
AcDbLine
 10
5.625510826771654
 20
7.631214819956918
 30
0.0
 11
5.726838582677165
 21
7.752281749090776
 31
0.0
  0
LINE
  5
3417
330
1E
100
AcDbEntity
  8
0
100
AcDbLine
 10
5.726838582677165
 20
7.687800449878178
 30
0.0
 11
5.625510826771654
 21
7.56673352074432
 31
0.0
  0
LINE
  5
3418
330
1E
100
AcDbEntity
  8
0
100
AcDbLine
 10
5.601823818897637
 20
3.425454977437234
 30
0.0
 11
5.601823818897637
 21
7.56673352074432
 31
0.0
  0
POLYLINE
  5
3419
330
1E
100
AcDbEntity
  8
0
100
AcDb2dPolyline
 66
     1
 10
0.0
 20
0.0
 30
0.0
  0
VERTEX
  5
3964
330
3419
100
AcDbEntity
  8
0
100
AcDbVertex
100
AcDb2dVertex
 10
5.601823818897637
 20
3.425454977437233
 30
0.0
  0
VERTEX
  5
3965
330
3419
100
AcDbEntity
  8
0
100
AcDbVertex
100
AcDb2dVertex
 10
5.608403543307086
 20
3.425454977437233
 30
0.0
  0
VERTEX
  5
3966
330
3419
100
AcDbEntity
  8
0
100
AcDbVertex
100
AcDb2dVertex
 10
5.625510826771653
 20
3.425454977437233
 30
0.0
  0
SEQEND
  5
3967
330
3419
100
AcDbEntity
  8
0
  0
LINE
  5
341E
330
1E
100
AcDbEntity
  8
0
100
AcDbLine
 10
5.625510826771654
 20
7.56673352074432
 30
0.0
 11
5.625510826771654
 21
3.425454977437234
 31
0.0
  0
LINE
  5
341F
330
1E
100
AcDbEntity
  8
0
100
AcDbLine
 10
5.726838582677165
 20
3.304388048303375
 30
0.0
 11
5.625510826771654
 21
3.425454977437234
 31
0.0
  0
LINE
  5
3420
330
1E
100
AcDbEntity
  8
0
100
AcDbLine
 10
5.726838582677165
 20
7.687800449878178
 30
0.0
 11
5.726838582677165
 21
3.304388048303375
 31
0.0
  0
LINE
  5
3421
330
1E
100
AcDbEntity
  8
0
100
AcDbLine
 10
5.732102362204724
 20
3.270173481374241
 30
0.0
 11
5.726838582677165
 21
3.304388048303375
 31
0.0
  0
LINE
  5
3422
330
1E
100
AcDbEntity
  8
0
100
AcDbLine
 10
5.732102362204724
 20
3.270173481374241
 30
0.0
 11
5.762369094488189
 21
3.270173481374241
 31
0.0
  0
LINE
  5
3423
330
1E
100
AcDbEntity
  8
0
100
AcDbLine
 10
5.762369094488189
 20
3.270173481374241
 30
0.0
 11
5.762369094488189
 21
7.722015016807311
 31
0.0
  0
LINE
  5
3424
330
1E
100
AcDbEntity
  8
0
100
AcDbLine
 10
5.762369094488189
 20
7.722015016807311
 30
0.0
 11
5.732102362204724
 21
7.722015016807311
 31
0.0
  0
LINE
  5
3425
330
1E
100
AcDbEntity
  8
0
100
AcDbLine
 10
5.732102362204724
 20
7.752281749090776
 30
0.0
 11
5.762369094488189
 21
7.752281749090776
 31
0.0
  0
POLYLINE
  5
3426
330
1E
100
AcDbEntity
  8
0
100
AcDb2dPolyline
 66
     1
 10
0.0
 20
0.0
 30
0.0
  0
VERTEX
  5
3968
330
3426
100
AcDbEntity
  8
0
100
AcDbVertex
100
AcDb2dVertex
 10
5.762369094488188
 20
7.752281749090776
 30
0.0
  0
VERTEX
  5
3969
330
3426
100
AcDbEntity
  8
0
100
AcDbVertex
100
AcDb2dVertex
 10
5.762369094488188
 20
7.743070134917547
 30
0.0
  0
VERTEX
  5
396A
330
3426
100
AcDbEntity
  8
0
100
AcDbVertex
100
AcDb2dVertex
 10
5.762369094488188
 20
7.72201501680731
 30
0.0
  0
SEQEND
  5
396B
330
3426
100
AcDbEntity
  8
0
  0
POLYLINE
  5
342B
330
1E
100
AcDbEntity
  8
0
100
AcDb2dPolyline
 66
     1
 10
0.0
 20
0.0
 30
0.0
  0
VERTEX
  5
396C
330
342B
100
AcDbEntity
  8
0
100
AcDbVertex
100
AcDb2dVertex
 10
5.762369094488188
 20
3.270173481374241
 30
0.0
  0
VERTEX
  5
396D
330
342B
100
AcDbEntity
  8
0
100
AcDbVertex
100
AcDb2dVertex
 10
5.762369094488188
 20
3.249118363264005
 30
0.0
  0
VERTEX
  5
396E
330
342B
100
AcDbEntity
  8
0
100
AcDbVertex
100
AcDb2dVertex
 10
5.762369094488188
 20
3.239906749090777
 30
0.0
  0
SEQEND
  5
396F
330
342B
100
AcDbEntity
  8
0
  0
LINE
  5
3430
330
1E
100
AcDbEntity
  8
0
100
AcDbLine
 10
6.007134842519684
 20
6.864018953815186
 30
0.0
 11
6.007134842519684
 21
6.875862457752194
 31
0.0
  0
LINE
  5
3431
330
1E
100
AcDbEntity
  8
0
100
AcDbLine
 10
6.057140748031494
 20
6.875862457752194
 30
0.0
 11
6.057140748031494
 21
6.850859504996289
 31
0.0
  0
POLYLINE
  5
3432
330
1E
100
AcDbEntity
  8
0
100
AcDb2dPolyline
 66
     1
 10
0.0
 20
0.0
 30
0.0
  0
VERTEX
  5
3970
330
3432
100
AcDbEntity
  8
0
100
AcDbVertex
100
AcDb2dVertex
 10
5.601823818897637
 20
3.425454977437233
 30
0.0
  0
VERTEX
  5
3971
330
3432
100
AcDbEntity
  8
0
100
AcDbVertex
100
AcDb2dVertex
 10
5.608403543307086
 20
3.391240410508099
 30
0.0
  0
VERTEX
  5
3972
330
3432
100
AcDbEntity
  8
0
100
AcDbVertex
100
AcDb2dVertex
 10
5.625510826771653
 20
3.360973678224635
 30
0.0
  0
SEQEND
  5
3973
330
3432
100
AcDbEntity
  8
0
  0
POLYLINE
  5
3437
330
1E
100
AcDbEntity
  8
0
100
AcDb2dPolyline
 66
     1
 10
0.0
 20
0.0
 30
0.0
  0
VERTEX
  5
3974
330
3437
100
AcDbEntity
  8
0
100
AcDbVertex
100
AcDb2dVertex
 10
5.625510826771653
 20
3.425454977437233
 30
0.0
  0
VERTEX
  5
3975
330
3437
100
AcDbEntity
  8
0
100
AcDbVertex
100
AcDb2dVertex
 10
5.616299212598424
 20
3.38992446562621
 30
0.0
  0
VERTEX
  5
3976
330
3437
100
AcDbEntity
  8
0
100
AcDbVertex
100
AcDb2dVertex
 10
5.625510826771653
 20
3.360973678224635
 30
0.0
  0
SEQEND
  5
3977
330
3437
100
AcDbEntity
  8
0
  0
LINE
  5
343C
330
1E
100
AcDbEntity
  8
0
100
AcDbLine
 10
5.726838582677165
 20
3.239906749090777
 30
0.0
 11
5.732102362204724
 21
3.239906749090777
 31
0.0
  0
POLYLINE
  5
343D
330
1E
100
AcDbEntity
  8
0
100
AcDb2dPolyline
 66
     1
 10
0.0
 20
0.0
 30
0.0
  0
VERTEX
  5
3978
330
343D
100
AcDbEntity
  8
0
100
AcDbVertex
100
AcDb2dVertex
 10
5.732102362204723
 20
3.239906749090777
 30
0.0
  0
VERTEX
  5
3979
330
343D
100
AcDbEntity
  8
0
100
AcDbVertex
100
AcDb2dVertex
 10
5.733418307086613
 20
3.241222693972666
 30
0.0
  0
VERTEX
  5
397A
330
343D
100
AcDbEntity
  8
0
100
AcDbVertex
100
AcDb2dVertex
 10
5.733418307086613
 20
3.246486473500225
 30
0.0
  0
VERTEX
  5
397B
330
343D
100
AcDbEntity
  8
0
100
AcDbVertex
100
AcDb2dVertex
 10
5.733418307086613
 20
3.253066197909674
 30
0.0
  0
VERTEX
  5
397C
330
343D
100
AcDbEntity
  8
0
100
AcDbVertex
100
AcDb2dVertex
 10
5.733418307086613
 20
3.262277812082903
 30
0.0
  0
VERTEX
  5
397D
330
343D
100
AcDbEntity
  8
0
100
AcDbVertex
100
AcDb2dVertex
 10
5.732102362204723
 20
3.270173481374241
 30
0.0
  0
SEQEND
  5
397E
330
343D
100
AcDbEntity
  8
0
  0
LINE
  5
3445
330
1E
100
AcDbEntity
  8
0
100
AcDbLine
 10
5.625510826771654
 20
3.360973678224634
 30
0.0
 11
5.726838582677165
 21
3.239906749090777
 31
0.0
  0
LINE
  5
3446
330
1E
100
AcDbEntity
  8
0
100
AcDbLine
 10
5.762369094488189
 20
3.239906749090777
 30
0.0
 11
5.732102362204724
 21
3.239906749090777
 31
0.0
  0
LINE
  5
3447
330
1E
100
AcDbEntity
  8
0
100
AcDbLine
 10
6.007134842519684
 20
4.116326040429359
 30
0.0
 11
6.007134842519684
 21
4.128169544366366
 31
0.0
  0
LINE
  5
3448
330
1E
100
AcDbEntity
  8
0
100
AcDbLine
 10
6.057140748031494
 20
4.142644938067155
 30
0.0
 11
6.057140748031494
 21
4.116326040429359
 31
0.0
  0
ENDSEC
  0
SECTION
  2
OBJECTS
  0
DICTIONARY
  5
C
330
0
100
AcDbDictionary
  3
ACAD_GROUP
350
D
  3
ACAD_MLINESTYLE
350
16
  3
ACAD_PLOTSETTINGS
350
18
  3
ACAD_LAYOUT
350
19
1001
ACAD
1000
TREAT_AS_HARD
1070
     0
  0
DICTIONARY
  5
3469
330
1E
100
AcDbDictionary
  3
ACAD_LAYOUTSELFREF
350
346A
  0
DICTIONARY
  5
3467
330
1A
100
AcDbDictionary
  3
ACAD_LAYOUTSELFREF
350
3468
  0
DICTIONARY
  5
D
102
{ACAD_REACTORS
330
C
102
}
330
C
100
AcDbDictionary
1001
ACAD
1000
TREAT_AS_HARD
1070
     0
  0
DICTIONARY
  5
16
102
{ACAD_REACTORS
330
C
102
}
330
C
100
AcDbDictionary
  3
STANDARD
350
17
1001
ACAD
1000
TREAT_AS_HARD
1070
     0
  0
DICTIONARY
  5
18
102
{ACAD_REACTORS
330
C
102
}
330
C
100
AcDbDictionary
1001
ACAD
1000
TREAT_AS_HARD
1070
     0
  0
DICTIONARY
  5
19
102
{ACAD_REACTORS
330
C
102
}
330
C
100
AcDbDictionary
1001
ACAD
1000
TREAT_AS_HARD
1070
     0
  0
XRECORD
  5
346A
102
{ACAD_REACTORS
330
3469
102
}
330
3469
100
AcDbXrecord
340
1E
  0
XRECORD
  5
3468
102
{ACAD_REACTORS
330
3467
102
}
330
3467
100
AcDbXrecord
340
1A
  0
MLINESTYLE
  5
17
102
{ACAD_REACTORS
330
16
102
}
330
16
100
AcDbMlineStyle
  2
STANDARD
 70
     0
  3

 62
   256
 51
90.0
 52
90.0
 71
     2
 49
0.5
 62
   256
  6
BYLAYER
 49
-0.5
 62
   256
  6
BYLAYER
  0
ENDSEC
  0
EOF
