  0
SECTION
  2
HEADER
  9
$ACADVER
  1
AC1012
  9
$DWGCODEPAGE
  3
ANSI_1252
  9
$INSBASE
 10
0.0
 20
0.0
 30
0.0
  9
$EXTMIN
 10
3.085978696644289
 20
3.715717178623428
 30
-0.0000000000112498
  9
$EXTMAX
 10
8.558635532500296
 20
8.746777922489656
 30
0.0000000000002956
  9
$LIMMIN
 10
0.0
 20
0.0
  9
$LIMMAX
 10
12.0
 20
9.0
  9
$ORTHOMODE
 70
     0
  9
$REGENMODE
 70
     1
  9
$FILLMODE
 70
     1
  9
$QTEXTMODE
 70
     0
  9
$MIRRTEXT
 70
     1
  9
$DRAGMODE
 70
     2
  9
$LTSCALE
 40
1.0
  9
$OSMODE
 70
    33
  9
$ATTMODE
 70
     1
  9
$TEXTSIZE
 40
0.2
  9
$TRACEWID
 40
0.05
  9
$TEXTSTYLE
  7
STANDARD
  9
$CLAYER
  8
0
  9
$CELTYPE
  6
BYLAYER
  9
$CECOLOR
 62
   256
  9
$CELTSCALE
 40
1.0
  9
$DELOBJ
 70
     1
  9
$DISPSILH
 70
     0
  9
$DIMSCALE
 40
1.0
  9
$DIMASZ
 40
0.18
  9
$DIMEXO
 40
0.0625
  9
$DIMDLI
 40
0.38
  9
$DIMRND
 40
0.0
  9
$DIMDLE
 40
0.0
  9
$DIMEXE
 40
0.18
  9
$DIMTP
 40
0.0
  9
$DIMTM
 40
0.0
  9
$DIMTXT
 40
0.18
  9
$DIMCEN
 40
0.09
  9
$DIMTSZ
 40
0.0
  9
$DIMTOL
 70
     0
  9
$DIMLIM
 70
     0
  9
$DIMTIH
 70
     1
  9
$DIMTOH
 70
     1
  9
$DIMSE1
 70
     0
  9
$DIMSE2
 70
     0
  9
$DIMTAD
 70
     0
  9
$DIMZIN
 70
     0
  9
$DIMBLK
  1

  9
$DIMASO
 70
     1
  9
$DIMSHO
 70
     1
  9
$DIMPOST
  1

  9
$DIMAPOST
  1

  9
$DIMALT
 70
     0
  9
$DIMALTD
 70
     2
  9
$DIMALTF
 40
25.4
  9
$DIMLFAC
 40
1.0
  9
$DIMTOFL
 70
     0
  9
$DIMTVP
 40
0.0
  9
$DIMTIX
 70
     0
  9
$DIMSOXD
 70
     0
  9
$DIMSAH
 70
     0
  9
$DIMBLK1
  1

  9
$DIMBLK2
  1

  9
$DIMSTYLE
  2
STANDARD
  9
$DIMCLRD
 70
     0
  9
$DIMCLRE
 70
     0
  9
$DIMCLRT
 70
     0
  9
$DIMTFAC
 40
1.0
  9
$DIMGAP
 40
0.09
  9
$DIMJUST
 70
     0
  9
$DIMSD1
 70
     0
  9
$DIMSD2
 70
     0
  9
$DIMTOLJ
 70
     1
  9
$DIMTZIN
 70
     0
  9
$DIMALTZ
 70
     0
  9
$DIMALTTZ
 70
     0
  9
$DIMFIT
 70
     5
  9
$DIMUPT
 70
     0
  9
$DIMUNIT
 70
     2
  9
$DIMDEC
 70
     4
  9
$DIMTDEC
 70
     4
  9
$DIMALTU
 70
     2
  9
$DIMALTTD
 70
     2
  9
$DIMTXSTY
  7
STANDARD
  9
$DIMAUNIT
 70
     0
  9
$LUNITS
 70
     2
  9
$LUPREC
 70
     4
  9
$SKETCHINC
 40
0.1
  9
$FILLETRAD
 40
0.0
  9
$AUNITS
 70
     0
  9
$AUPREC
 70
     0
  9
$MENU
  1
acad
  9
$ELEVATION
 40
0.0
  9
$PELEVATION
 40
0.0
  9
$THICKNESS
 40
0.0
  9
$LIMCHECK
 70
     0
  9
$BLIPMODE
 70
     0
  9
$CHAMFERA
 40
0.0
  9
$CHAMFERB
 40
0.0
  9
$CHAMFERC
 40
0.0
  9
$CHAMFERD
 40
0.0
  9
$SKPOLY
 70
     0
  9
$TDCREATE
 40
2451906.319039351
  9
$TDUPDATE
 40
2452338.604010648
  9
$TDINDWG
 40
0.0013049653
  9
$TDUSRTIMER
 40
0.0013049653
  9
$USRTIMER
 70
     1
  9
$ANGBASE
 50
0.0
  9
$ANGDIR
 70
     0
  9
$PDMODE
 70
     0
  9
$PDSIZE
 40
0.0
  9
$PLINEWID
 40
0.0
  9
$COORDS
 70
     2
  9
$SPLFRAME
 70
     0
  9
$SPLINETYPE
 70
     6
  9
$SPLINESEGS
 70
     8
  9
$ATTDIA
 70
     0
  9
$ATTREQ
 70
     1
  9
$HANDLING
 70
  4097
  9
$HANDSEED
  5
36C1
  9
$SURFTAB1
 70
     6
  9
$SURFTAB2
 70
     6
  9
$SURFTYPE
 70
     6
  9
$SURFU
 70
     6
  9
$SURFV
 70
     6
  9
$UCSNAME
  2

  9
$UCSORG
 10
0.0
 20
0.0
 30
0.0
  9
$UCSXDIR
 10
1.0
 20
0.0
 30
0.0
  9
$UCSYDIR
 10
0.0
 20
1.0
 30
0.0
  9
$PUCSNAME
  2

  9
$PUCSORG
 10
0.0
 20
0.0
 30
0.0
  9
$PUCSXDIR
 10
1.0
 20
0.0
 30
0.0
  9
$PUCSYDIR
 10
0.0
 20
1.0
 30
0.0
  9
$USERI1
 70
     0
  9
$USERI2
 70
     0
  9
$USERI3
 70
     0
  9
$USERI4
 70
     0
  9
$USERI5
 70
     0
  9
$USERR1
 40
0.0
  9
$USERR2
 40
0.0
  9
$USERR3
 40
0.0
  9
$USERR4
 40
0.0
  9
$USERR5
 40
0.0
  9
$WORLDVIEW
 70
     1
  9
$SHADEDGE
 70
     3
  9
$SHADEDIF
 70
    70
  9
$TILEMODE
 70
     1
  9
$MAXACTVP
 70
    16
  9
$PINSBASE
 10
0.0
 20
0.0
 30
0.0
  9
$PLIMCHECK
 70
     0
  9
$PEXTMIN
 10
1.000000000000000E+20
 20
1.000000000000000E+20
 30
1.000000000000000E+20
  9
$PEXTMAX
 10
-1.000000000000000E+20
 20
-1.000000000000000E+20
 30
-1.000000000000000E+20
  9
$PLIMMIN
 10
0.0
 20
0.0
  9
$PLIMMAX
 10
12.0
 20
9.0
  9
$UNITMODE
 70
     0
  9
$VISRETAIN
 70
     0
  9
$PLINEGEN
 70
     0
  9
$PSLTSCALE
 70
     1
  9
$TREEDEPTH
 70
  3020
  9
$PICKSTYLE
 70
     1
  9
$CMLSTYLE
  2
STANDARD
  9
$CMLJUST
 70
     0
  9
$CMLSCALE
 40
1.0
  9
$SAVEIMAGES
 70
     1
  0
ENDSEC
  0
SECTION
  2
CLASSES
  0
CLASS
  1
ACDBDICTIONARYWDFLT
  2
AcDbDictionaryWithDefault
  3
AutoCAD 2000
 90
    32768
280
     0
281
     0
  0
CLASS
  1
ACDBPLACEHOLDER
  2
AcDbPlaceHolder
  3
AutoCAD 2000
 90
    32768
280
     0
281
     0
  0
CLASS
  1
LAYOUT
  2
AcDbLayout
  3
AutoCAD 2000
 90
    32768
280
     0
281
     0
  0
CLASS
  1
LONG_TRANSACTION
  2
AcDbLongTransaction
  3
AutoCAD 2000
 90
    32768
280
     0
281
     0
  0
CLASS
  1
LWPOLYLINE
  2
AcDbPolyline
  3
AutoCAD 2000
 90
    32768
280
     0
281
     1
  0
CLASS
  1
HATCH
  2
AcDbHatch
  3
AutoCAD 2000
 90
    32768
280
     0
281
     1
  0
CLASS
  1
XRECORD
  2
AcDbXrecord
  3
AutoCAD 2000
 90
    32768
280
     0
281
     0
  0
CLASS
  1
LONG_TRANSACTION
  2
AcDbLongTransaction
  3
AutoCAD 2000
 90
    32768
280
     0
281
     0
  0
CLASS
  1
LWPOLYLINE
  2
AcDbPolyline
  3
AutoCAD 2000
 90
    32768
280
     0
281
     1
  0
CLASS
  1
HATCH
  2
AcDbHatch
  3
AutoCAD 2000
 90
    32768
280
     0
281
     1
  0
CLASS
  1
XRECORD
  2
AcDbXrecord
  3
AutoCAD 2000
 90
    32768
280
     0
281
     0
  0
ENDSEC
  0
SECTION
  2
TABLES
  0
TABLE
  2
VPORT
  5
8
330
0
100
AcDbSymbolTable
 70
     3
  0
VPORT
  5
36BE
330
8
100
AcDbSymbolTableRecord
100
AcDbViewportTableRecord
  2
*ACTIVE
 70
     0
 10
0.0
 20
0.0
 11
1.0
 21
1.0
 12
5.822307114572293
 22
6.231247550556542
 13
0.0
 23
0.0
 14
1.0
 24
1.0
 15
0.0
 25
0.0
 16
0.0
 26
0.0
 36
1.0
 17
0.0
 27
0.0
 37
0.0
 40
5.070675395392733
 41
1.601839684625492
 42
50.0
 43
0.0
 44
0.0
 50
0.0
 51
0.0
 71
     0
 72
   100
 73
     1
 74
     1
 75
     0
 76
     0
 77
     0
 78
     0
  0
ENDTAB
  0
TABLE
  2
LTYPE
  5
5
330
0
100
AcDbSymbolTable
 70
    25
  0
LTYPE
  5
13
330
5
100
AcDbSymbolTableRecord
100
AcDbLinetypeTableRecord
  2
BYBLOCK
 70
     0
  3

 72
    65
 73
     0
 40
0.0
  0
LTYPE
  5
14
330
5
100
AcDbSymbolTableRecord
100
AcDbLinetypeTableRecord
  2
BYLAYER
 70
     0
  3

 72
    65
 73
     0
 40
0.0
  0
LTYPE
  5
15
330
5
100
AcDbSymbolTableRecord
100
AcDbLinetypeTableRecord
  2
CONTINUOUS
 70
     0
  3
Solid line
 72
    65
 73
     0
 40
0.0
  0
LTYPE
  5
22
330
5
100
AcDbSymbolTableRecord
100
AcDbLinetypeTableRecord
  2
BORDER
 70
     0
  3
__ __ . __ __ . __ __ . __ __ . __ __ . __ __ .
 72
    65
 73
     6
 40
1.75
 49
0.5
 74
     0
 49
-0.25
 74
     0
 49
0.5
 74
     0
 49
-0.25
 74
     0
 49
0.5
 74
     0
 49
-0.25
 74
     0
  0
LTYPE
  5
23
330
5
100
AcDbSymbolTableRecord
100
AcDbLinetypeTableRecord
  2
BORDER2
 70
     0
  3
__.__.__.__.__.__.__.__.__.__.__.__.__.__.__.__
 72
    65
 73
     6
 40
0.875
 49
0.25
 74
     0
 49
-0.125
 74
     0
 49
0.25
 74
     0
 49
-0.125
 74
     0
 49
0.25
 74
     0
 49
-0.125
 74
     0
  0
LTYPE
  5
24
330
5
100
AcDbSymbolTableRecord
100
AcDbLinetypeTableRecord
  2
BORDERX2
 70
     0
  3
____  ____  .  ____  ____  .  
 72
    65
 73
     6
 40
3.5
 49
1.0
 74
     0
 49
-0.5
 74
     0
 49
1.0
 74
     0
 49
-0.5
 74
     0
 49
1.0
 74
     0
 49
-0.5
 74
     0
  0
LTYPE
  5
25
330
5
100
AcDbSymbolTableRecord
100
AcDbLinetypeTableRecord
  2
CENTER
 70
     0
  3
____ _ ____ _ ____ _ ____ _ ____ _ ____ _ ____
 72
    65
 73
     4
 40
2.0
 49
1.25
 74
     0
 49
-0.25
 74
     0
 49
0.25
 74
     0
 49
-0.25
 74
     0
  0
LTYPE
  5
26
330
5
100
AcDbSymbolTableRecord
100
AcDbLinetypeTableRecord
  2
CENTER2
 70
     0
  3
____ _ ____ _ ____ _ ____ _ ____ _ ____ _ ____
 72
    65
 73
     4
 40
1.125
 49
0.75
 74
     0
 49
-0.125
 74
     0
 49
0.125
 74
     0
 49
-0.125
 74
     0
  0
LTYPE
  5
27
330
5
100
AcDbSymbolTableRecord
100
AcDbLinetypeTableRecord
  2
CENTERX2
 70
     0
  3
________  __  ________  __  ________  __  
 72
    65
 73
     4
 40
4.0
 49
2.5
 74
     0
 49
-0.5
 74
     0
 49
0.5
 74
     0
 49
-0.5
 74
     0
  0
LTYPE
  5
28
330
5
100
AcDbSymbolTableRecord
100
AcDbLinetypeTableRecord
  2
DASHDOT
 70
     0
  3
__ . __ . __ . __ . __ . __ . __ . 
 72
    65
 73
     4
 40
1.0
 49
0.5
 74
     0
 49
-0.25
 74
     0
 49
0.0
 74
     0
 49
-0.25
 74
     0
  0
LTYPE
  5
29
330
5
100
AcDbSymbolTableRecord
100
AcDbLinetypeTableRecord
  2
DASHDOT2
 70
     0
  3
_._._._._._._._._._._._._._._._.
 72
    65
 73
     4
 40
0.5
 49
0.25
 74
     0
 49
-0.125
 74
     0
 49
0.0
 74
     0
 49
-0.125
 74
     0
  0
LTYPE
  5
2A
330
5
100
AcDbSymbolTableRecord
100
AcDbLinetypeTableRecord
  2
DASHDOTX2
 70
     0
  3
____  .  ____  .  ____  .  ____  .  
 72
    65
 73
     4
 40
2.0
 49
1.0
 74
     0
 49
-0.5
 74
     0
 49
0.0
 74
     0
 49
-0.5
 74
     0
  0
LTYPE
  5
2B
330
5
100
AcDbSymbolTableRecord
100
AcDbLinetypeTableRecord
  2
DASHED
 70
     0
  3
__ __ __ __ __ __ __ __ __ __ __ __ 
 72
    65
 73
     2
 40
0.75
 49
0.5
 74
     0
 49
-0.25
 74
     0
  0
LTYPE
  5
2C
330
5
100
AcDbSymbolTableRecord
100
AcDbLinetypeTableRecord
  2
DASHED2
 70
     0
  3
_ _ _ _ _ _ _ _ _ _ _ _ _ _ _ _ _ _ 
 72
    65
 73
     2
 40
0.375
 49
0.25
 74
     0
 49
-0.125
 74
     0
  0
LTYPE
  5
2D
330
5
100
AcDbSymbolTableRecord
100
AcDbLinetypeTableRecord
  2
DASHEDX2
 70
     0
  3
____  ____  ____  ____  ____  ____  
 72
    65
 73
     2
 40
1.5
 49
1.0
 74
     0
 49
-0.5
 74
     0
  0
LTYPE
  5
2E
330
5
100
AcDbSymbolTableRecord
100
AcDbLinetypeTableRecord
  2
DIVIDE
 70
     0
  3
____ . . ____ . . ____ . . ____ . . 
 72
    65
 73
     6
 40
1.25
 49
0.5
 74
     0
 49
-0.25
 74
     0
 49
0.0
 74
     0
 49
-0.25
 74
     0
 49
0.0
 74
     0
 49
-0.25
 74
     0
  0
LTYPE
  5
2F
330
5
100
AcDbSymbolTableRecord
100
AcDbLinetypeTableRecord
  2
DIVIDE2
 70
     0
  3
__..__..__..__..__..__..__..__..__..
 72
    65
 73
     6
 40
0.625
 49
0.25
 74
     0
 49
-0.125
 74
     0
 49
0.0
 74
     0
 49
-0.125
 74
     0
 49
0.0
 74
     0
 49
-0.125
 74
     0
  0
LTYPE
  5
30
330
5
100
AcDbSymbolTableRecord
100
AcDbLinetypeTableRecord
  2
DIVIDEX2
 70
     0
  3
________  .  .  ________  .  .  ________  .  . 
 72
    65
 73
     6
 40
2.5
 49
1.0
 74
     0
 49
-0.5
 74
     0
 49
0.0
 74
     0
 49
-0.5
 74
     0
 49
0.0
 74
     0
 49
-0.5
 74
     0
  0
LTYPE
  5
31
330
5
100
AcDbSymbolTableRecord
100
AcDbLinetypeTableRecord
  2
DOT
 70
     0
  3
. . . . . . . . . . . . . . . . . . 
 72
    65
 73
     2
 40
0.25
 49
0.0
 74
     0
 49
-0.25
 74
     0
  0
LTYPE
  5
32
330
5
100
AcDbSymbolTableRecord
100
AcDbLinetypeTableRecord
  2
DOT2
 70
     0
  3
....................................
 72
    65
 73
     2
 40
0.125
 49
0.0
 74
     0
 49
-0.125
 74
     0
  0
LTYPE
  5
33
330
5
100
AcDbSymbolTableRecord
100
AcDbLinetypeTableRecord
  2
DOTX2
 70
     0
  3
.  .  .  .  .  .  .  .  .  .  .  .  .  
 72
    65
 73
     2
 40
0.5
 49
0.0
 74
     0
 49
-0.5
 74
     0
  0
LTYPE
  5
34
330
5
100
AcDbSymbolTableRecord
100
AcDbLinetypeTableRecord
  2
HIDDEN
 70
     0
  3
__ __ __ __ __ __ __ __ __ __ __ __ 
 72
    65
 73
     2
 40
0.375
 49
0.25
 74
     0
 49
-0.125
 74
     0
  0
LTYPE
  5
35
330
5
100
AcDbSymbolTableRecord
100
AcDbLinetypeTableRecord
  2
HIDDEN2
 70
     0
  3
_ _ _ _ _ _ _ _ _ _ _ _ _ _ _ _ _ _ 
 72
    65
 73
     2
 40
0.1875
 49
0.125
 74
     0
 49
-0.0625
 74
     0
  0
LTYPE
  5
36
330
5
100
AcDbSymbolTableRecord
100
AcDbLinetypeTableRecord
  2
HIDDENX2
 70
     0
  3
____ ____ ____ ____ ____ ____ ____ 
 72
    65
 73
     2
 40
0.75
 49
0.5
 74
     0
 49
-0.25
 74
     0
  0
LTYPE
  5
37
330
5
100
AcDbSymbolTableRecord
100
AcDbLinetypeTableRecord
  2
PHANTOM
 70
     0
  3
______  __  __  ______  __  __  
 72
    65
 73
     6
 40
2.5
 49
1.25
 74
     0
 49
-0.25
 74
     0
 49
0.25
 74
     0
 49
-0.25
 74
     0
 49
0.25
 74
     0
 49
-0.25
 74
     0
  0
LTYPE
  5
38
330
5
100
AcDbSymbolTableRecord
100
AcDbLinetypeTableRecord
  2
PHANTOM2
 70
     0
  3
___ _ _ ___ _ _ ___ _ _ ___ _ _ 
 72
    65
 73
     6
 40
1.25
 49
0.625
 74
     0
 49
-0.125
 74
     0
 49
0.125
 74
     0
 49
-0.125
 74
     0
 49
0.125
 74
     0
 49
-0.125
 74
     0
  0
LTYPE
  5
39
330
5
100
AcDbSymbolTableRecord
100
AcDbLinetypeTableRecord
  2
PHANTOMX2
 70
     0
  3
___ _ _ ___ _ _ ___ _ _ ___ _ _ 
 72
    65
 73
     6
 40
5.0
 49
2.5
 74
     0
 49
-0.5
 74
     0
 49
0.5
 74
     0
 49
-0.5
 74
     0
 49
0.5
 74
     0
 49
-0.5
 74
     0
  0
ENDTAB
  0
TABLE
  2
LAYER
  5
2
330
0
100
AcDbSymbolTable
 70
   257
  0
LAYER
  5
10
330
2
100
AcDbSymbolTableRecord
100
AcDbLayerTableRecord
  2
0
 70
     0
 62
     7
  6
CONTINUOUS
  0
LAYER
  5
3A
330
2
100
AcDbSymbolTableRecord
100
AcDbLayerTableRecord
  2
1
 70
     0
 62
     1
  6
CONTINUOUS
  0
LAYER
  5
3B
330
2
100
AcDbSymbolTableRecord
100
AcDbLayerTableRecord
  2
2
 70
     0
 62
     2
  6
CONTINUOUS
  0
LAYER
  5
3C
330
2
100
AcDbSymbolTableRecord
100
AcDbLayerTableRecord
  2
3
 70
     0
 62
     3
  6
CONTINUOUS
  0
LAYER
  5
3D
330
2
100
AcDbSymbolTableRecord
100
AcDbLayerTableRecord
  2
4
 70
     0
 62
     4
  6
CONTINUOUS
  0
LAYER
  5
3E
330
2
100
AcDbSymbolTableRecord
100
AcDbLayerTableRecord
  2
5
 70
     0
 62
     5
  6
CONTINUOUS
  0
LAYER
  5
3F
330
2
100
AcDbSymbolTableRecord
100
AcDbLayerTableRecord
  2
6
 70
     0
 62
     6
  6
CONTINUOUS
  0
LAYER
  5
40
330
2
100
AcDbSymbolTableRecord
100
AcDbLayerTableRecord
  2
7
 70
     0
 62
     7
  6
CONTINUOUS
  0
LAYER
  5
41
330
2
100
AcDbSymbolTableRecord
100
AcDbLayerTableRecord
  2
8
 70
     0
 62
     8
  6
CONTINUOUS
  0
LAYER
  5
42
330
2
100
AcDbSymbolTableRecord
100
AcDbLayerTableRecord
  2
9
 70
     0
 62
     9
  6
CONTINUOUS
  0
LAYER
  5
43
330
2
100
AcDbSymbolTableRecord
100
AcDbLayerTableRecord
  2
10
 70
     0
 62
    10
  6
CONTINUOUS
  0
LAYER
  5
44
330
2
100
AcDbSymbolTableRecord
100
AcDbLayerTableRecord
  2
11
 70
     0
 62
    11
  6
CONTINUOUS
  0
LAYER
  5
45
330
2
100
AcDbSymbolTableRecord
100
AcDbLayerTableRecord
  2
12
 70
     0
 62
    12
  6
CONTINUOUS
  0
LAYER
  5
46
330
2
100
AcDbSymbolTableRecord
100
AcDbLayerTableRecord
  2
13
 70
     0
 62
    13
  6
CONTINUOUS
  0
LAYER
  5
47
330
2
100
AcDbSymbolTableRecord
100
AcDbLayerTableRecord
  2
14
 70
     0
 62
    14
  6
CONTINUOUS
  0
LAYER
  5
48
330
2
100
AcDbSymbolTableRecord
100
AcDbLayerTableRecord
  2
15
 70
     0
 62
    15
  6
CONTINUOUS
  0
LAYER
  5
49
330
2
100
AcDbSymbolTableRecord
100
AcDbLayerTableRecord
  2
16
 70
     0
 62
    16
  6
CONTINUOUS
  0
LAYER
  5
4A
330
2
100
AcDbSymbolTableRecord
100
AcDbLayerTableRecord
  2
17
 70
     0
 62
    17
  6
CONTINUOUS
  0
LAYER
  5
4B
330
2
100
AcDbSymbolTableRecord
100
AcDbLayerTableRecord
  2
18
 70
     0
 62
    18
  6
CONTINUOUS
  0
LAYER
  5
4C
330
2
100
AcDbSymbolTableRecord
100
AcDbLayerTableRecord
  2
19
 70
     0
 62
    19
  6
CONTINUOUS
  0
LAYER
  5
4D
330
2
100
AcDbSymbolTableRecord
100
AcDbLayerTableRecord
  2
20
 70
     0
 62
    20
  6
CONTINUOUS
  0
LAYER
  5
4E
330
2
100
AcDbSymbolTableRecord
100
AcDbLayerTableRecord
  2
21
 70
     0
 62
    21
  6
CONTINUOUS
  0
LAYER
  5
4F
330
2
100
AcDbSymbolTableRecord
100
AcDbLayerTableRecord
  2
22
 70
     0
 62
    22
  6
CONTINUOUS
  0
LAYER
  5
50
330
2
100
AcDbSymbolTableRecord
100
AcDbLayerTableRecord
  2
23
 70
     0
 62
    23
  6
CONTINUOUS
  0
LAYER
  5
51
330
2
100
AcDbSymbolTableRecord
100
AcDbLayerTableRecord
  2
24
 70
     0
 62
    24
  6
CONTINUOUS
  0
LAYER
  5
52
330
2
100
AcDbSymbolTableRecord
100
AcDbLayerTableRecord
  2
25
 70
     0
 62
    25
  6
CONTINUOUS
  0
LAYER
  5
53
330
2
100
AcDbSymbolTableRecord
100
AcDbLayerTableRecord
  2
26
 70
     0
 62
    26
  6
CONTINUOUS
  0
LAYER
  5
54
330
2
100
AcDbSymbolTableRecord
100
AcDbLayerTableRecord
  2
27
 70
     0
 62
    27
  6
CONTINUOUS
  0
LAYER
  5
55
330
2
100
AcDbSymbolTableRecord
100
AcDbLayerTableRecord
  2
28
 70
     0
 62
    28
  6
CONTINUOUS
  0
LAYER
  5
56
330
2
100
AcDbSymbolTableRecord
100
AcDbLayerTableRecord
  2
29
 70
     0
 62
    29
  6
CONTINUOUS
  0
LAYER
  5
57
330
2
100
AcDbSymbolTableRecord
100
AcDbLayerTableRecord
  2
30
 70
     0
 62
    30
  6
CONTINUOUS
  0
LAYER
  5
58
330
2
100
AcDbSymbolTableRecord
100
AcDbLayerTableRecord
  2
31
 70
     0
 62
    31
  6
CONTINUOUS
  0
LAYER
  5
59
330
2
100
AcDbSymbolTableRecord
100
AcDbLayerTableRecord
  2
32
 70
     0
 62
    32
  6
CONTINUOUS
  0
LAYER
  5
5A
330
2
100
AcDbSymbolTableRecord
100
AcDbLayerTableRecord
  2
33
 70
     0
 62
    33
  6
CONTINUOUS
  0
LAYER
  5
5B
330
2
100
AcDbSymbolTableRecord
100
AcDbLayerTableRecord
  2
34
 70
     0
 62
    34
  6
CONTINUOUS
  0
LAYER
  5
5C
330
2
100
AcDbSymbolTableRecord
100
AcDbLayerTableRecord
  2
35
 70
     0
 62
    35
  6
CONTINUOUS
  0
LAYER
  5
5D
330
2
100
AcDbSymbolTableRecord
100
AcDbLayerTableRecord
  2
36
 70
     0
 62
    36
  6
CONTINUOUS
  0
LAYER
  5
5E
330
2
100
AcDbSymbolTableRecord
100
AcDbLayerTableRecord
  2
37
 70
     0
 62
    37
  6
CONTINUOUS
  0
LAYER
  5
5F
330
2
100
AcDbSymbolTableRecord
100
AcDbLayerTableRecord
  2
38
 70
     0
 62
    38
  6
CONTINUOUS
  0
LAYER
  5
60
330
2
100
AcDbSymbolTableRecord
100
AcDbLayerTableRecord
  2
39
 70
     0
 62
    39
  6
CONTINUOUS
  0
LAYER
  5
61
330
2
100
AcDbSymbolTableRecord
100
AcDbLayerTableRecord
  2
40
 70
     0
 62
    40
  6
CONTINUOUS
  0
LAYER
  5
62
330
2
100
AcDbSymbolTableRecord
100
AcDbLayerTableRecord
  2
41
 70
     0
 62
    41
  6
CONTINUOUS
  0
LAYER
  5
63
330
2
100
AcDbSymbolTableRecord
100
AcDbLayerTableRecord
  2
42
 70
     0
 62
    42
  6
CONTINUOUS
  0
LAYER
  5
64
330
2
100
AcDbSymbolTableRecord
100
AcDbLayerTableRecord
  2
43
 70
     0
 62
    43
  6
CONTINUOUS
  0
LAYER
  5
65
330
2
100
AcDbSymbolTableRecord
100
AcDbLayerTableRecord
  2
44
 70
     0
 62
    44
  6
CONTINUOUS
  0
LAYER
  5
66
330
2
100
AcDbSymbolTableRecord
100
AcDbLayerTableRecord
  2
45
 70
     0
 62
    45
  6
CONTINUOUS
  0
LAYER
  5
67
330
2
100
AcDbSymbolTableRecord
100
AcDbLayerTableRecord
  2
46
 70
     0
 62
    46
  6
CONTINUOUS
  0
LAYER
  5
68
330
2
100
AcDbSymbolTableRecord
100
AcDbLayerTableRecord
  2
47
 70
     0
 62
    47
  6
CONTINUOUS
  0
LAYER
  5
69
330
2
100
AcDbSymbolTableRecord
100
AcDbLayerTableRecord
  2
48
 70
     0
 62
    48
  6
CONTINUOUS
  0
LAYER
  5
6A
330
2
100
AcDbSymbolTableRecord
100
AcDbLayerTableRecord
  2
49
 70
     0
 62
    49
  6
CONTINUOUS
  0
LAYER
  5
6B
330
2
100
AcDbSymbolTableRecord
100
AcDbLayerTableRecord
  2
50
 70
     0
 62
    50
  6
CONTINUOUS
  0
LAYER
  5
6C
330
2
100
AcDbSymbolTableRecord
100
AcDbLayerTableRecord
  2
51
 70
     0
 62
    51
  6
CONTINUOUS
  0
LAYER
  5
6D
330
2
100
AcDbSymbolTableRecord
100
AcDbLayerTableRecord
  2
52
 70
     0
 62
    52
  6
CONTINUOUS
  0
LAYER
  5
6E
330
2
100
AcDbSymbolTableRecord
100
AcDbLayerTableRecord
  2
53
 70
     0
 62
    53
  6
CONTINUOUS
  0
LAYER
  5
6F
330
2
100
AcDbSymbolTableRecord
100
AcDbLayerTableRecord
  2
54
 70
     0
 62
    54
  6
CONTINUOUS
  0
LAYER
  5
70
330
2
100
AcDbSymbolTableRecord
100
AcDbLayerTableRecord
  2
55
 70
     0
 62
    55
  6
CONTINUOUS
  0
LAYER
  5
71
330
2
100
AcDbSymbolTableRecord
100
AcDbLayerTableRecord
  2
56
 70
     0
 62
    56
  6
CONTINUOUS
  0
LAYER
  5
72
330
2
100
AcDbSymbolTableRecord
100
AcDbLayerTableRecord
  2
57
 70
     0
 62
    57
  6
CONTINUOUS
  0
LAYER
  5
73
330
2
100
AcDbSymbolTableRecord
100
AcDbLayerTableRecord
  2
58
 70
     0
 62
    58
  6
CONTINUOUS
  0
LAYER
  5
74
330
2
100
AcDbSymbolTableRecord
100
AcDbLayerTableRecord
  2
59
 70
     0
 62
    59
  6
CONTINUOUS
  0
LAYER
  5
75
330
2
100
AcDbSymbolTableRecord
100
AcDbLayerTableRecord
  2
60
 70
     0
 62
    60
  6
CONTINUOUS
  0
LAYER
  5
76
330
2
100
AcDbSymbolTableRecord
100
AcDbLayerTableRecord
  2
61
 70
     0
 62
    61
  6
CONTINUOUS
  0
LAYER
  5
77
330
2
100
AcDbSymbolTableRecord
100
AcDbLayerTableRecord
  2
62
 70
     0
 62
    62
  6
CONTINUOUS
  0
LAYER
  5
78
330
2
100
AcDbSymbolTableRecord
100
AcDbLayerTableRecord
  2
63
 70
     0
 62
    63
  6
CONTINUOUS
  0
LAYER
  5
79
330
2
100
AcDbSymbolTableRecord
100
AcDbLayerTableRecord
  2
64
 70
     0
 62
    64
  6
CONTINUOUS
  0
LAYER
  5
7A
330
2
100
AcDbSymbolTableRecord
100
AcDbLayerTableRecord
  2
65
 70
     0
 62
    65
  6
CONTINUOUS
  0
LAYER
  5
7B
330
2
100
AcDbSymbolTableRecord
100
AcDbLayerTableRecord
  2
66
 70
     0
 62
    66
  6
CONTINUOUS
  0
LAYER
  5
7C
330
2
100
AcDbSymbolTableRecord
100
AcDbLayerTableRecord
  2
67
 70
     0
 62
    67
  6
CONTINUOUS
  0
LAYER
  5
7D
330
2
100
AcDbSymbolTableRecord
100
AcDbLayerTableRecord
  2
68
 70
     0
 62
    68
  6
CONTINUOUS
  0
LAYER
  5
7E
330
2
100
AcDbSymbolTableRecord
100
AcDbLayerTableRecord
  2
69
 70
     0
 62
    69
  6
CONTINUOUS
  0
LAYER
  5
7F
330
2
100
AcDbSymbolTableRecord
100
AcDbLayerTableRecord
  2
70
 70
     0
 62
    70
  6
CONTINUOUS
  0
LAYER
  5
80
330
2
100
AcDbSymbolTableRecord
100
AcDbLayerTableRecord
  2
71
 70
     0
 62
    71
  6
CONTINUOUS
  0
LAYER
  5
81
330
2
100
AcDbSymbolTableRecord
100
AcDbLayerTableRecord
  2
72
 70
     0
 62
    72
  6
CONTINUOUS
  0
LAYER
  5
82
330
2
100
AcDbSymbolTableRecord
100
AcDbLayerTableRecord
  2
73
 70
     0
 62
    73
  6
CONTINUOUS
  0
LAYER
  5
83
330
2
100
AcDbSymbolTableRecord
100
AcDbLayerTableRecord
  2
74
 70
     0
 62
    74
  6
CONTINUOUS
  0
LAYER
  5
84
330
2
100
AcDbSymbolTableRecord
100
AcDbLayerTableRecord
  2
75
 70
     0
 62
    75
  6
CONTINUOUS
  0
LAYER
  5
85
330
2
100
AcDbSymbolTableRecord
100
AcDbLayerTableRecord
  2
76
 70
     0
 62
    76
  6
CONTINUOUS
  0
LAYER
  5
86
330
2
100
AcDbSymbolTableRecord
100
AcDbLayerTableRecord
  2
77
 70
     0
 62
    77
  6
CONTINUOUS
  0
LAYER
  5
87
330
2
100
AcDbSymbolTableRecord
100
AcDbLayerTableRecord
  2
78
 70
     0
 62
    78
  6
CONTINUOUS
  0
LAYER
  5
88
330
2
100
AcDbSymbolTableRecord
100
AcDbLayerTableRecord
  2
79
 70
     0
 62
    79
  6
CONTINUOUS
  0
LAYER
  5
89
330
2
100
AcDbSymbolTableRecord
100
AcDbLayerTableRecord
  2
80
 70
     0
 62
    80
  6
CONTINUOUS
  0
LAYER
  5
8A
330
2
100
AcDbSymbolTableRecord
100
AcDbLayerTableRecord
  2
81
 70
     0
 62
    81
  6
CONTINUOUS
  0
LAYER
  5
8B
330
2
100
AcDbSymbolTableRecord
100
AcDbLayerTableRecord
  2
82
 70
     0
 62
    82
  6
CONTINUOUS
  0
LAYER
  5
8C
330
2
100
AcDbSymbolTableRecord
100
AcDbLayerTableRecord
  2
83
 70
     0
 62
    83
  6
CONTINUOUS
  0
LAYER
  5
8D
330
2
100
AcDbSymbolTableRecord
100
AcDbLayerTableRecord
  2
84
 70
     0
 62
    84
  6
CONTINUOUS
  0
LAYER
  5
8E
330
2
100
AcDbSymbolTableRecord
100
AcDbLayerTableRecord
  2
85
 70
     0
 62
    85
  6
CONTINUOUS
  0
LAYER
  5
8F
330
2
100
AcDbSymbolTableRecord
100
AcDbLayerTableRecord
  2
86
 70
     0
 62
    86
  6
CONTINUOUS
  0
LAYER
  5
90
330
2
100
AcDbSymbolTableRecord
100
AcDbLayerTableRecord
  2
87
 70
     0
 62
    87
  6
CONTINUOUS
  0
LAYER
  5
91
330
2
100
AcDbSymbolTableRecord
100
AcDbLayerTableRecord
  2
88
 70
     0
 62
    88
  6
CONTINUOUS
  0
LAYER
  5
92
330
2
100
AcDbSymbolTableRecord
100
AcDbLayerTableRecord
  2
89
 70
     0
 62
    89
  6
CONTINUOUS
  0
LAYER
  5
93
330
2
100
AcDbSymbolTableRecord
100
AcDbLayerTableRecord
  2
90
 70
     0
 62
    90
  6
CONTINUOUS
  0
LAYER
  5
94
330
2
100
AcDbSymbolTableRecord
100
AcDbLayerTableRecord
  2
91
 70
     0
 62
    91
  6
CONTINUOUS
  0
LAYER
  5
95
330
2
100
AcDbSymbolTableRecord
100
AcDbLayerTableRecord
  2
92
 70
     0
 62
    92
  6
CONTINUOUS
  0
LAYER
  5
96
330
2
100
AcDbSymbolTableRecord
100
AcDbLayerTableRecord
  2
93
 70
     0
 62
    93
  6
CONTINUOUS
  0
LAYER
  5
97
330
2
100
AcDbSymbolTableRecord
100
AcDbLayerTableRecord
  2
94
 70
     0
 62
    94
  6
CONTINUOUS
  0
LAYER
  5
98
330
2
100
AcDbSymbolTableRecord
100
AcDbLayerTableRecord
  2
95
 70
     0
 62
    95
  6
CONTINUOUS
  0
LAYER
  5
99
330
2
100
AcDbSymbolTableRecord
100
AcDbLayerTableRecord
  2
96
 70
     0
 62
    96
  6
CONTINUOUS
  0
LAYER
  5
9A
330
2
100
AcDbSymbolTableRecord
100
AcDbLayerTableRecord
  2
97
 70
     0
 62
    97
  6
CONTINUOUS
  0
LAYER
  5
9B
330
2
100
AcDbSymbolTableRecord
100
AcDbLayerTableRecord
  2
98
 70
     0
 62
    98
  6
CONTINUOUS
  0
LAYER
  5
9C
330
2
100
AcDbSymbolTableRecord
100
AcDbLayerTableRecord
  2
99
 70
     0
 62
    99
  6
CONTINUOUS
  0
LAYER
  5
9D
330
2
100
AcDbSymbolTableRecord
100
AcDbLayerTableRecord
  2
100
 70
     0
 62
   100
  6
CONTINUOUS
  0
LAYER
  5
9E
330
2
100
AcDbSymbolTableRecord
100
AcDbLayerTableRecord
  2
101
 70
     0
 62
   101
  6
CONTINUOUS
  0
LAYER
  5
9F
330
2
100
AcDbSymbolTableRecord
100
AcDbLayerTableRecord
  2
102
 70
     0
 62
   102
  6
CONTINUOUS
  0
LAYER
  5
A0
330
2
100
AcDbSymbolTableRecord
100
AcDbLayerTableRecord
  2
103
 70
     0
 62
   103
  6
CONTINUOUS
  0
LAYER
  5
A1
330
2
100
AcDbSymbolTableRecord
100
AcDbLayerTableRecord
  2
104
 70
     0
 62
   104
  6
CONTINUOUS
  0
LAYER
  5
A2
330
2
100
AcDbSymbolTableRecord
100
AcDbLayerTableRecord
  2
105
 70
     0
 62
   105
  6
CONTINUOUS
  0
LAYER
  5
A3
330
2
100
AcDbSymbolTableRecord
100
AcDbLayerTableRecord
  2
106
 70
     0
 62
   106
  6
CONTINUOUS
  0
LAYER
  5
A4
330
2
100
AcDbSymbolTableRecord
100
AcDbLayerTableRecord
  2
107
 70
     0
 62
   107
  6
CONTINUOUS
  0
LAYER
  5
A5
330
2
100
AcDbSymbolTableRecord
100
AcDbLayerTableRecord
  2
108
 70
     0
 62
   108
  6
CONTINUOUS
  0
LAYER
  5
A6
330
2
100
AcDbSymbolTableRecord
100
AcDbLayerTableRecord
  2
109
 70
     0
 62
   109
  6
CONTINUOUS
  0
LAYER
  5
A7
330
2
100
AcDbSymbolTableRecord
100
AcDbLayerTableRecord
  2
110
 70
     0
 62
   110
  6
CONTINUOUS
  0
LAYER
  5
A8
330
2
100
AcDbSymbolTableRecord
100
AcDbLayerTableRecord
  2
111
 70
     0
 62
   111
  6
CONTINUOUS
  0
LAYER
  5
A9
330
2
100
AcDbSymbolTableRecord
100
AcDbLayerTableRecord
  2
112
 70
     0
 62
   112
  6
CONTINUOUS
  0
LAYER
  5
AA
330
2
100
AcDbSymbolTableRecord
100
AcDbLayerTableRecord
  2
113
 70
     0
 62
   113
  6
CONTINUOUS
  0
LAYER
  5
AB
330
2
100
AcDbSymbolTableRecord
100
AcDbLayerTableRecord
  2
114
 70
     0
 62
   114
  6
CONTINUOUS
  0
LAYER
  5
AC
330
2
100
AcDbSymbolTableRecord
100
AcDbLayerTableRecord
  2
115
 70
     0
 62
   115
  6
CONTINUOUS
  0
LAYER
  5
AD
330
2
100
AcDbSymbolTableRecord
100
AcDbLayerTableRecord
  2
116
 70
     0
 62
   116
  6
CONTINUOUS
  0
LAYER
  5
AE
330
2
100
AcDbSymbolTableRecord
100
AcDbLayerTableRecord
  2
117
 70
     0
 62
   117
  6
CONTINUOUS
  0
LAYER
  5
AF
330
2
100
AcDbSymbolTableRecord
100
AcDbLayerTableRecord
  2
118
 70
     0
 62
   118
  6
CONTINUOUS
  0
LAYER
  5
B0
330
2
100
AcDbSymbolTableRecord
100
AcDbLayerTableRecord
  2
119
 70
     0
 62
   119
  6
CONTINUOUS
  0
LAYER
  5
B1
330
2
100
AcDbSymbolTableRecord
100
AcDbLayerTableRecord
  2
120
 70
     0
 62
   120
  6
CONTINUOUS
  0
LAYER
  5
B2
330
2
100
AcDbSymbolTableRecord
100
AcDbLayerTableRecord
  2
121
 70
     0
 62
   121
  6
CONTINUOUS
  0
LAYER
  5
B3
330
2
100
AcDbSymbolTableRecord
100
AcDbLayerTableRecord
  2
122
 70
     0
 62
   122
  6
CONTINUOUS
  0
LAYER
  5
B4
330
2
100
AcDbSymbolTableRecord
100
AcDbLayerTableRecord
  2
123
 70
     0
 62
   123
  6
CONTINUOUS
  0
LAYER
  5
B5
330
2
100
AcDbSymbolTableRecord
100
AcDbLayerTableRecord
  2
124
 70
     0
 62
   124
  6
CONTINUOUS
  0
LAYER
  5
B6
330
2
100
AcDbSymbolTableRecord
100
AcDbLayerTableRecord
  2
125
 70
     0
 62
   125
  6
CONTINUOUS
  0
LAYER
  5
B7
330
2
100
AcDbSymbolTableRecord
100
AcDbLayerTableRecord
  2
126
 70
     0
 62
   126
  6
CONTINUOUS
  0
LAYER
  5
B8
330
2
100
AcDbSymbolTableRecord
100
AcDbLayerTableRecord
  2
127
 70
     0
 62
   127
  6
CONTINUOUS
  0
LAYER
  5
B9
330
2
100
AcDbSymbolTableRecord
100
AcDbLayerTableRecord
  2
128
 70
     0
 62
   128
  6
CONTINUOUS
  0
LAYER
  5
BA
330
2
100
AcDbSymbolTableRecord
100
AcDbLayerTableRecord
  2
129
 70
     0
 62
   129
  6
CONTINUOUS
  0
LAYER
  5
BB
330
2
100
AcDbSymbolTableRecord
100
AcDbLayerTableRecord
  2
130
 70
     0
 62
   130
  6
CONTINUOUS
  0
LAYER
  5
BC
330
2
100
AcDbSymbolTableRecord
100
AcDbLayerTableRecord
  2
131
 70
     0
 62
   131
  6
CONTINUOUS
  0
LAYER
  5
BD
330
2
100
AcDbSymbolTableRecord
100
AcDbLayerTableRecord
  2
132
 70
     0
 62
   132
  6
CONTINUOUS
  0
LAYER
  5
BE
330
2
100
AcDbSymbolTableRecord
100
AcDbLayerTableRecord
  2
133
 70
     0
 62
   133
  6
CONTINUOUS
  0
LAYER
  5
BF
330
2
100
AcDbSymbolTableRecord
100
AcDbLayerTableRecord
  2
134
 70
     0
 62
   134
  6
CONTINUOUS
  0
LAYER
  5
C0
330
2
100
AcDbSymbolTableRecord
100
AcDbLayerTableRecord
  2
135
 70
     0
 62
   135
  6
CONTINUOUS
  0
LAYER
  5
C1
330
2
100
AcDbSymbolTableRecord
100
AcDbLayerTableRecord
  2
136
 70
     0
 62
   136
  6
CONTINUOUS
  0
LAYER
  5
C2
330
2
100
AcDbSymbolTableRecord
100
AcDbLayerTableRecord
  2
137
 70
     0
 62
   137
  6
CONTINUOUS
  0
LAYER
  5
C3
330
2
100
AcDbSymbolTableRecord
100
AcDbLayerTableRecord
  2
138
 70
     0
 62
   138
  6
CONTINUOUS
  0
LAYER
  5
C4
330
2
100
AcDbSymbolTableRecord
100
AcDbLayerTableRecord
  2
139
 70
     0
 62
   139
  6
CONTINUOUS
  0
LAYER
  5
C5
330
2
100
AcDbSymbolTableRecord
100
AcDbLayerTableRecord
  2
140
 70
     0
 62
   140
  6
CONTINUOUS
  0
LAYER
  5
C6
330
2
100
AcDbSymbolTableRecord
100
AcDbLayerTableRecord
  2
141
 70
     0
 62
   141
  6
CONTINUOUS
  0
LAYER
  5
C7
330
2
100
AcDbSymbolTableRecord
100
AcDbLayerTableRecord
  2
142
 70
     0
 62
   142
  6
CONTINUOUS
  0
LAYER
  5
C8
330
2
100
AcDbSymbolTableRecord
100
AcDbLayerTableRecord
  2
143
 70
     0
 62
   143
  6
CONTINUOUS
  0
LAYER
  5
C9
330
2
100
AcDbSymbolTableRecord
100
AcDbLayerTableRecord
  2
144
 70
     0
 62
   144
  6
CONTINUOUS
  0
LAYER
  5
CA
330
2
100
AcDbSymbolTableRecord
100
AcDbLayerTableRecord
  2
145
 70
     0
 62
   145
  6
CONTINUOUS
  0
LAYER
  5
CB
330
2
100
AcDbSymbolTableRecord
100
AcDbLayerTableRecord
  2
146
 70
     0
 62
   146
  6
CONTINUOUS
  0
LAYER
  5
CC
330
2
100
AcDbSymbolTableRecord
100
AcDbLayerTableRecord
  2
147
 70
     0
 62
   147
  6
CONTINUOUS
  0
LAYER
  5
CD
330
2
100
AcDbSymbolTableRecord
100
AcDbLayerTableRecord
  2
148
 70
     0
 62
   148
  6
CONTINUOUS
  0
LAYER
  5
CE
330
2
100
AcDbSymbolTableRecord
100
AcDbLayerTableRecord
  2
149
 70
     0
 62
   149
  6
CONTINUOUS
  0
LAYER
  5
CF
330
2
100
AcDbSymbolTableRecord
100
AcDbLayerTableRecord
  2
150
 70
     0
 62
   150
  6
CONTINUOUS
  0
LAYER
  5
D0
330
2
100
AcDbSymbolTableRecord
100
AcDbLayerTableRecord
  2
151
 70
     0
 62
   151
  6
CONTINUOUS
  0
LAYER
  5
D1
330
2
100
AcDbSymbolTableRecord
100
AcDbLayerTableRecord
  2
152
 70
     0
 62
   152
  6
CONTINUOUS
  0
LAYER
  5
D2
330
2
100
AcDbSymbolTableRecord
100
AcDbLayerTableRecord
  2
153
 70
     0
 62
   153
  6
CONTINUOUS
  0
LAYER
  5
D3
330
2
100
AcDbSymbolTableRecord
100
AcDbLayerTableRecord
  2
154
 70
     0
 62
   154
  6
CONTINUOUS
  0
LAYER
  5
D4
330
2
100
AcDbSymbolTableRecord
100
AcDbLayerTableRecord
  2
155
 70
     0
 62
   155
  6
CONTINUOUS
  0
LAYER
  5
D5
330
2
100
AcDbSymbolTableRecord
100
AcDbLayerTableRecord
  2
156
 70
     0
 62
   156
  6
CONTINUOUS
  0
LAYER
  5
D6
330
2
100
AcDbSymbolTableRecord
100
AcDbLayerTableRecord
  2
157
 70
     0
 62
   157
  6
CONTINUOUS
  0
LAYER
  5
D7
330
2
100
AcDbSymbolTableRecord
100
AcDbLayerTableRecord
  2
158
 70
     0
 62
   158
  6
CONTINUOUS
  0
LAYER
  5
D8
330
2
100
AcDbSymbolTableRecord
100
AcDbLayerTableRecord
  2
159
 70
     0
 62
   159
  6
CONTINUOUS
  0
LAYER
  5
D9
330
2
100
AcDbSymbolTableRecord
100
AcDbLayerTableRecord
  2
160
 70
     0
 62
   160
  6
CONTINUOUS
  0
LAYER
  5
DA
330
2
100
AcDbSymbolTableRecord
100
AcDbLayerTableRecord
  2
161
 70
     0
 62
   161
  6
CONTINUOUS
  0
LAYER
  5
DB
330
2
100
AcDbSymbolTableRecord
100
AcDbLayerTableRecord
  2
162
 70
     0
 62
   162
  6
CONTINUOUS
  0
LAYER
  5
DC
330
2
100
AcDbSymbolTableRecord
100
AcDbLayerTableRecord
  2
163
 70
     0
 62
   163
  6
CONTINUOUS
  0
LAYER
  5
DD
330
2
100
AcDbSymbolTableRecord
100
AcDbLayerTableRecord
  2
164
 70
     0
 62
   164
  6
CONTINUOUS
  0
LAYER
  5
DE
330
2
100
AcDbSymbolTableRecord
100
AcDbLayerTableRecord
  2
165
 70
     0
 62
   165
  6
CONTINUOUS
  0
LAYER
  5
DF
330
2
100
AcDbSymbolTableRecord
100
AcDbLayerTableRecord
  2
166
 70
     0
 62
   166
  6
CONTINUOUS
  0
LAYER
  5
E0
330
2
100
AcDbSymbolTableRecord
100
AcDbLayerTableRecord
  2
167
 70
     0
 62
   167
  6
CONTINUOUS
  0
LAYER
  5
E1
330
2
100
AcDbSymbolTableRecord
100
AcDbLayerTableRecord
  2
168
 70
     0
 62
   168
  6
CONTINUOUS
  0
LAYER
  5
E2
330
2
100
AcDbSymbolTableRecord
100
AcDbLayerTableRecord
  2
169
 70
     0
 62
   169
  6
CONTINUOUS
  0
LAYER
  5
E3
330
2
100
AcDbSymbolTableRecord
100
AcDbLayerTableRecord
  2
170
 70
     0
 62
   170
  6
CONTINUOUS
  0
LAYER
  5
E4
330
2
100
AcDbSymbolTableRecord
100
AcDbLayerTableRecord
  2
171
 70
     0
 62
   171
  6
CONTINUOUS
  0
LAYER
  5
E5
330
2
100
AcDbSymbolTableRecord
100
AcDbLayerTableRecord
  2
172
 70
     0
 62
   172
  6
CONTINUOUS
  0
LAYER
  5
E6
330
2
100
AcDbSymbolTableRecord
100
AcDbLayerTableRecord
  2
173
 70
     0
 62
   173
  6
CONTINUOUS
  0
LAYER
  5
E7
330
2
100
AcDbSymbolTableRecord
100
AcDbLayerTableRecord
  2
174
 70
     0
 62
   174
  6
CONTINUOUS
  0
LAYER
  5
E8
330
2
100
AcDbSymbolTableRecord
100
AcDbLayerTableRecord
  2
175
 70
     0
 62
   175
  6
CONTINUOUS
  0
LAYER
  5
E9
330
2
100
AcDbSymbolTableRecord
100
AcDbLayerTableRecord
  2
176
 70
     0
 62
   176
  6
CONTINUOUS
  0
LAYER
  5
EA
330
2
100
AcDbSymbolTableRecord
100
AcDbLayerTableRecord
  2
177
 70
     0
 62
   177
  6
CONTINUOUS
  0
LAYER
  5
EB
330
2
100
AcDbSymbolTableRecord
100
AcDbLayerTableRecord
  2
178
 70
     0
 62
   178
  6
CONTINUOUS
  0
LAYER
  5
EC
330
2
100
AcDbSymbolTableRecord
100
AcDbLayerTableRecord
  2
179
 70
     0
 62
   179
  6
CONTINUOUS
  0
LAYER
  5
ED
330
2
100
AcDbSymbolTableRecord
100
AcDbLayerTableRecord
  2
180
 70
     0
 62
   180
  6
CONTINUOUS
  0
LAYER
  5
EE
330
2
100
AcDbSymbolTableRecord
100
AcDbLayerTableRecord
  2
181
 70
     0
 62
   181
  6
CONTINUOUS
  0
LAYER
  5
EF
330
2
100
AcDbSymbolTableRecord
100
AcDbLayerTableRecord
  2
182
 70
     0
 62
   182
  6
CONTINUOUS
  0
LAYER
  5
F0
330
2
100
AcDbSymbolTableRecord
100
AcDbLayerTableRecord
  2
183
 70
     0
 62
   183
  6
CONTINUOUS
  0
LAYER
  5
F1
330
2
100
AcDbSymbolTableRecord
100
AcDbLayerTableRecord
  2
184
 70
     0
 62
   184
  6
CONTINUOUS
  0
LAYER
  5
F2
330
2
100
AcDbSymbolTableRecord
100
AcDbLayerTableRecord
  2
185
 70
     0
 62
   185
  6
CONTINUOUS
  0
LAYER
  5
F3
330
2
100
AcDbSymbolTableRecord
100
AcDbLayerTableRecord
  2
186
 70
     0
 62
   186
  6
CONTINUOUS
  0
LAYER
  5
F4
330
2
100
AcDbSymbolTableRecord
100
AcDbLayerTableRecord
  2
187
 70
     0
 62
   187
  6
CONTINUOUS
  0
LAYER
  5
F5
330
2
100
AcDbSymbolTableRecord
100
AcDbLayerTableRecord
  2
188
 70
     0
 62
   188
  6
CONTINUOUS
  0
LAYER
  5
F6
330
2
100
AcDbSymbolTableRecord
100
AcDbLayerTableRecord
  2
189
 70
     0
 62
   189
  6
CONTINUOUS
  0
LAYER
  5
F7
330
2
100
AcDbSymbolTableRecord
100
AcDbLayerTableRecord
  2
190
 70
     0
 62
   190
  6
CONTINUOUS
  0
LAYER
  5
F8
330
2
100
AcDbSymbolTableRecord
100
AcDbLayerTableRecord
  2
191
 70
     0
 62
   191
  6
CONTINUOUS
  0
LAYER
  5
F9
330
2
100
AcDbSymbolTableRecord
100
AcDbLayerTableRecord
  2
192
 70
     0
 62
   192
  6
CONTINUOUS
  0
LAYER
  5
FA
330
2
100
AcDbSymbolTableRecord
100
AcDbLayerTableRecord
  2
193
 70
     0
 62
   193
  6
CONTINUOUS
  0
LAYER
  5
FB
330
2
100
AcDbSymbolTableRecord
100
AcDbLayerTableRecord
  2
194
 70
     0
 62
   194
  6
CONTINUOUS
  0
LAYER
  5
FC
330
2
100
AcDbSymbolTableRecord
100
AcDbLayerTableRecord
  2
195
 70
     0
 62
   195
  6
CONTINUOUS
  0
LAYER
  5
FD
330
2
100
AcDbSymbolTableRecord
100
AcDbLayerTableRecord
  2
196
 70
     0
 62
   196
  6
CONTINUOUS
  0
LAYER
  5
FE
330
2
100
AcDbSymbolTableRecord
100
AcDbLayerTableRecord
  2
197
 70
     0
 62
   197
  6
CONTINUOUS
  0
LAYER
  5
FF
330
2
100
AcDbSymbolTableRecord
100
AcDbLayerTableRecord
  2
198
 70
     0
 62
   198
  6
CONTINUOUS
  0
LAYER
  5
100
330
2
100
AcDbSymbolTableRecord
100
AcDbLayerTableRecord
  2
199
 70
     0
 62
   199
  6
CONTINUOUS
  0
LAYER
  5
101
330
2
100
AcDbSymbolTableRecord
100
AcDbLayerTableRecord
  2
200
 70
     0
 62
   200
  6
CONTINUOUS
  0
LAYER
  5
102
330
2
100
AcDbSymbolTableRecord
100
AcDbLayerTableRecord
  2
201
 70
     0
 62
   201
  6
CONTINUOUS
  0
LAYER
  5
103
330
2
100
AcDbSymbolTableRecord
100
AcDbLayerTableRecord
  2
202
 70
     0
 62
   202
  6
CONTINUOUS
  0
LAYER
  5
104
330
2
100
AcDbSymbolTableRecord
100
AcDbLayerTableRecord
  2
203
 70
     0
 62
   203
  6
CONTINUOUS
  0
LAYER
  5
105
330
2
100
AcDbSymbolTableRecord
100
AcDbLayerTableRecord
  2
204
 70
     0
 62
   204
  6
CONTINUOUS
  0
LAYER
  5
106
330
2
100
AcDbSymbolTableRecord
100
AcDbLayerTableRecord
  2
205
 70
     0
 62
   205
  6
CONTINUOUS
  0
LAYER
  5
107
330
2
100
AcDbSymbolTableRecord
100
AcDbLayerTableRecord
  2
206
 70
     0
 62
   206
  6
CONTINUOUS
  0
LAYER
  5
108
330
2
100
AcDbSymbolTableRecord
100
AcDbLayerTableRecord
  2
207
 70
     0
 62
   207
  6
CONTINUOUS
  0
LAYER
  5
109
330
2
100
AcDbSymbolTableRecord
100
AcDbLayerTableRecord
  2
208
 70
     0
 62
   208
  6
CONTINUOUS
  0
LAYER
  5
10A
330
2
100
AcDbSymbolTableRecord
100
AcDbLayerTableRecord
  2
209
 70
     0
 62
   209
  6
CONTINUOUS
  0
LAYER
  5
10B
330
2
100
AcDbSymbolTableRecord
100
AcDbLayerTableRecord
  2
210
 70
     0
 62
   210
  6
CONTINUOUS
  0
LAYER
  5
10C
330
2
100
AcDbSymbolTableRecord
100
AcDbLayerTableRecord
  2
211
 70
     0
 62
   211
  6
CONTINUOUS
  0
LAYER
  5
10D
330
2
100
AcDbSymbolTableRecord
100
AcDbLayerTableRecord
  2
212
 70
     0
 62
   212
  6
CONTINUOUS
  0
LAYER
  5
10E
330
2
100
AcDbSymbolTableRecord
100
AcDbLayerTableRecord
  2
213
 70
     0
 62
   213
  6
CONTINUOUS
  0
LAYER
  5
10F
330
2
100
AcDbSymbolTableRecord
100
AcDbLayerTableRecord
  2
214
 70
     0
 62
   214
  6
CONTINUOUS
  0
LAYER
  5
110
330
2
100
AcDbSymbolTableRecord
100
AcDbLayerTableRecord
  2
215
 70
     0
 62
   215
  6
CONTINUOUS
  0
LAYER
  5
111
330
2
100
AcDbSymbolTableRecord
100
AcDbLayerTableRecord
  2
216
 70
     0
 62
   216
  6
CONTINUOUS
  0
LAYER
  5
112
330
2
100
AcDbSymbolTableRecord
100
AcDbLayerTableRecord
  2
217
 70
     0
 62
   217
  6
CONTINUOUS
  0
LAYER
  5
113
330
2
100
AcDbSymbolTableRecord
100
AcDbLayerTableRecord
  2
218
 70
     0
 62
   218
  6
CONTINUOUS
  0
LAYER
  5
114
330
2
100
AcDbSymbolTableRecord
100
AcDbLayerTableRecord
  2
219
 70
     0
 62
   219
  6
CONTINUOUS
  0
LAYER
  5
115
330
2
100
AcDbSymbolTableRecord
100
AcDbLayerTableRecord
  2
220
 70
     0
 62
   220
  6
CONTINUOUS
  0
LAYER
  5
116
330
2
100
AcDbSymbolTableRecord
100
AcDbLayerTableRecord
  2
221
 70
     0
 62
   221
  6
CONTINUOUS
  0
LAYER
  5
117
330
2
100
AcDbSymbolTableRecord
100
AcDbLayerTableRecord
  2
222
 70
     0
 62
   222
  6
CONTINUOUS
  0
LAYER
  5
118
330
2
100
AcDbSymbolTableRecord
100
AcDbLayerTableRecord
  2
223
 70
     0
 62
   223
  6
CONTINUOUS
  0
LAYER
  5
119
330
2
100
AcDbSymbolTableRecord
100
AcDbLayerTableRecord
  2
224
 70
     0
 62
   224
  6
CONTINUOUS
  0
LAYER
  5
11A
330
2
100
AcDbSymbolTableRecord
100
AcDbLayerTableRecord
  2
225
 70
     0
 62
   225
  6
CONTINUOUS
  0
LAYER
  5
11B
330
2
100
AcDbSymbolTableRecord
100
AcDbLayerTableRecord
  2
226
 70
     0
 62
   226
  6
CONTINUOUS
  0
LAYER
  5
11C
330
2
100
AcDbSymbolTableRecord
100
AcDbLayerTableRecord
  2
227
 70
     0
 62
   227
  6
CONTINUOUS
  0
LAYER
  5
11D
330
2
100
AcDbSymbolTableRecord
100
AcDbLayerTableRecord
  2
228
 70
     0
 62
   228
  6
CONTINUOUS
  0
LAYER
  5
11E
330
2
100
AcDbSymbolTableRecord
100
AcDbLayerTableRecord
  2
229
 70
     0
 62
   229
  6
CONTINUOUS
  0
LAYER
  5
11F
330
2
100
AcDbSymbolTableRecord
100
AcDbLayerTableRecord
  2
230
 70
     0
 62
   230
  6
CONTINUOUS
  0
LAYER
  5
120
330
2
100
AcDbSymbolTableRecord
100
AcDbLayerTableRecord
  2
231
 70
     0
 62
   231
  6
CONTINUOUS
  0
LAYER
  5
121
330
2
100
AcDbSymbolTableRecord
100
AcDbLayerTableRecord
  2
232
 70
     0
 62
   232
  6
CONTINUOUS
  0
LAYER
  5
122
330
2
100
AcDbSymbolTableRecord
100
AcDbLayerTableRecord
  2
233
 70
     0
 62
   233
  6
CONTINUOUS
  0
LAYER
  5
123
330
2
100
AcDbSymbolTableRecord
100
AcDbLayerTableRecord
  2
234
 70
     0
 62
   234
  6
CONTINUOUS
  0
LAYER
  5
124
330
2
100
AcDbSymbolTableRecord
100
AcDbLayerTableRecord
  2
235
 70
     0
 62
   235
  6
CONTINUOUS
  0
LAYER
  5
125
330
2
100
AcDbSymbolTableRecord
100
AcDbLayerTableRecord
  2
236
 70
     0
 62
   236
  6
CONTINUOUS
  0
LAYER
  5
126
330
2
100
AcDbSymbolTableRecord
100
AcDbLayerTableRecord
  2
237
 70
     0
 62
   237
  6
CONTINUOUS
  0
LAYER
  5
127
330
2
100
AcDbSymbolTableRecord
100
AcDbLayerTableRecord
  2
238
 70
     0
 62
   238
  6
CONTINUOUS
  0
LAYER
  5
128
330
2
100
AcDbSymbolTableRecord
100
AcDbLayerTableRecord
  2
239
 70
     0
 62
   239
  6
CONTINUOUS
  0
LAYER
  5
129
330
2
100
AcDbSymbolTableRecord
100
AcDbLayerTableRecord
  2
240
 70
     0
 62
   240
  6
CONTINUOUS
  0
LAYER
  5
12A
330
2
100
AcDbSymbolTableRecord
100
AcDbLayerTableRecord
  2
241
 70
     0
 62
   241
  6
CONTINUOUS
  0
LAYER
  5
12B
330
2
100
AcDbSymbolTableRecord
100
AcDbLayerTableRecord
  2
242
 70
     0
 62
   242
  6
CONTINUOUS
  0
LAYER
  5
12C
330
2
100
AcDbSymbolTableRecord
100
AcDbLayerTableRecord
  2
243
 70
     0
 62
   243
  6
CONTINUOUS
  0
LAYER
  5
12D
330
2
100
AcDbSymbolTableRecord
100
AcDbLayerTableRecord
  2
244
 70
     0
 62
   244
  6
CONTINUOUS
  0
LAYER
  5
12E
330
2
100
AcDbSymbolTableRecord
100
AcDbLayerTableRecord
  2
245
 70
     0
 62
   245
  6
CONTINUOUS
  0
LAYER
  5
12F
330
2
100
AcDbSymbolTableRecord
100
AcDbLayerTableRecord
  2
246
 70
     0
 62
   246
  6
CONTINUOUS
  0
LAYER
  5
130
330
2
100
AcDbSymbolTableRecord
100
AcDbLayerTableRecord
  2
247
 70
     0
 62
   247
  6
CONTINUOUS
  0
LAYER
  5
131
330
2
100
AcDbSymbolTableRecord
100
AcDbLayerTableRecord
  2
248
 70
     0
 62
   248
  6
CONTINUOUS
  0
LAYER
  5
132
330
2
100
AcDbSymbolTableRecord
100
AcDbLayerTableRecord
  2
249
 70
     0
 62
   249
  6
CONTINUOUS
  0
LAYER
  5
133
330
2
100
AcDbSymbolTableRecord
100
AcDbLayerTableRecord
  2
250
 70
     0
 62
   250
  6
CONTINUOUS
  0
LAYER
  5
134
330
2
100
AcDbSymbolTableRecord
100
AcDbLayerTableRecord
  2
251
 70
     0
 62
   251
  6
CONTINUOUS
  0
LAYER
  5
135
330
2
100
AcDbSymbolTableRecord
100
AcDbLayerTableRecord
  2
252
 70
     0
 62
   252
  6
CONTINUOUS
  0
LAYER
  5
136
330
2
100
AcDbSymbolTableRecord
100
AcDbLayerTableRecord
  2
253
 70
     0
 62
   253
  6
CONTINUOUS
  0
LAYER
  5
137
330
2
100
AcDbSymbolTableRecord
100
AcDbLayerTableRecord
  2
254
 70
     0
 62
   254
  6
CONTINUOUS
  0
LAYER
  5
138
330
2
100
AcDbSymbolTableRecord
100
AcDbLayerTableRecord
  2
255
 70
     0
 62
   255
  6
CONTINUOUS
  0
LAYER
  5
3672
330
2
100
AcDbSymbolTableRecord
100
AcDbLayerTableRecord
  2
DEFPOINTS
 70
     0
 62
     7
  6
CONTINUOUS
  0
ENDTAB
  0
TABLE
  2
STYLE
  5
3
330
0
100
AcDbSymbolTable
 70
     1
  0
STYLE
  5
11
330
3
100
AcDbSymbolTableRecord
100
AcDbTextStyleTableRecord
  2
STANDARD
 70
     0
 40
0.0
 41
1.0
 50
0.0
 71
     0
 42
0.2
  3
monotxt
  4

  0
ENDTAB
  0
TABLE
  2
VIEW
  5
6
330
0
100
AcDbSymbolTable
 70
     0
  0
ENDTAB
  0
TABLE
  2
UCS
  5
7
330
0
100
AcDbSymbolTable
 70
     0
  0
ENDTAB
  0
TABLE
  2
APPID
  5
9
330
0
100
AcDbSymbolTable
 70
     1
  0
APPID
  5
12
330
9
100
AcDbSymbolTableRecord
100
AcDbRegAppTableRecord
  2
ACAD
 70
     0
  0
ENDTAB
  0
TABLE
  2
DIMSTYLE
  5
A
330
0
100
AcDbSymbolTable
 70
     1
  0
DIMSTYLE
105
2DAE
102
{ACAD_REACTORS
330
3671
102
}
330
A
100
AcDbSymbolTableRecord
100
AcDbDimStyleTableRecord
  2
STANDARD
 70
     0
  3

  4

  5

  6

  7

 40
1.0
 41
0.18
 42
0.0625
 43
0.38
 44
0.18
 45
0.0
 46
0.0
 47
0.0
 48
0.0
140
0.18
141
0.09
142
0.0
143
25.4
144
1.0
145
0.0
146
1.0
147
0.09
 71
     0
 72
     0
 73
     1
 74
     1
 75
     0
 76
     0
 77
     0
 78
     0
170
     0
171
     2
172
     0
173
     0
174
     0
175
     0
176
     0
177
     0
178
     0
270
     2
271
     4
272
     4
273
     2
274
     2
340
11
275
     0
280
     0
281
     0
282
     0
283
     1
284
     0
285
     0
286
     0
287
     3
288
     0
  0
ENDTAB
  0
TABLE
  2
BLOCK_RECORD
  5
1
330
0
100
AcDbSymbolTable
 70
     1
  0
BLOCK_RECORD
  5
1E
102
{ACAD_XDICTIONARY
360
363B
102
}
330
1
100
AcDbSymbolTableRecord
100
AcDbBlockTableRecord
  2
*MODEL_SPACE
  0
BLOCK_RECORD
  5
1A
102
{ACAD_XDICTIONARY
360
363D
102
}
330
1
100
AcDbSymbolTableRecord
100
AcDbBlockTableRecord
  2
*PAPER_SPACE
  0
BLOCK_RECORD
  5
3673
330
1
100
AcDbSymbolTableRecord
100
AcDbBlockTableRecord
  2
*D0
  0
ENDTAB
  0
ENDSEC
  0
SECTION
  2
BLOCKS
  0
BLOCK
  5
13B
330
1E
100
AcDbEntity
  8
0
100
AcDbBlockBegin
  2
*MODEL_SPACE
 70
     0
 10
0.0
 20
0.0
 30
0.0
  3
*MODEL_SPACE
  1

  0
ENDBLK
  5
13C
330
1E
100
AcDbEntity
  8
0
100
AcDbBlockEnd
  0
BLOCK
  5
139
330
1A
100
AcDbEntity
 67
     1
  8
0
100
AcDbBlockBegin
  2
*PAPER_SPACE
 70
     0
 10
0.0
 20
0.0
 30
0.0
  3
*PAPER_SPACE
  1

  0
ENDBLK
  5
13A
330
1A
100
AcDbEntity
 67
     1
  8
0
100
AcDbBlockEnd
  0
BLOCK
  5
367E
330
3673
100
AcDbEntity
  8
0
100
AcDbBlockBegin
  2
*D0
 70
     1
 10
0.0
 20
0.0
 30
0.0
  3
*D0
  1

  0
LINE
  5
3680
330
3673
100
AcDbEntity
  8
0
 62
     0
100
AcDbLine
 10
3.086772512473404
 20
7.051016920346873
 30
0.0
 11
3.086772512473404
 21
7.373372240657689
 31
0.0
  0
LINE
  5
3681
330
3673
100
AcDbEntity
  8
0
 62
     0
100
AcDbLine
 10
6.729014638457656
 20
7.051016920346873
 30
0.0
 11
6.729014638457656
 21
7.373372240657689
 31
0.0
  0
LINE
  5
3682
330
3673
100
AcDbEntity
  8
0
 62
     0
100
AcDbLine
 10
3.266772512473405
 20
7.193372240657689
 30
0.0
 11
4.307893575465531
 21
7.193372240657689
 31
0.0
  0
LINE
  5
3683
330
3673
100
AcDbEntity
  8
0
 62
     0
100
AcDbLine
 10
6.549014638457657
 20
7.193372240657689
 30
0.0
 11
5.50789357546553
 21
7.193372240657689
 31
0.0
  0
SOLID
  5
3684
330
3673
100
AcDbEntity
  8
0
 62
     0
100
AcDbTrace
 10
3.266772512473405
 20
7.223372240657689
 30
0.0
 11
3.266772512473405
 21
7.163372240657689
 31
0.0
 12
3.086772512473404
 22
7.193372240657689
 32
0.0
 13
3.086772512473404
 23
7.193372240657689
 33
0.0
  0
SOLID
  5
3685
330
3673
100
AcDbEntity
  8
0
 62
     0
100
AcDbTrace
 10
6.549014638457657
 20
7.223372240657689
 30
0.0
 11
6.549014638457657
 21
7.163372240657689
 31
0.0
 12
6.729014638457656
 22
7.193372240657689
 32
0.0
 13
6.729014638457656
 23
7.193372240657689
 33
0.0
  0
MTEXT
  5
3686
330
3673
100
AcDbEntity
  8
0
 62
     0
100
AcDbMText
 10
4.90789357546553
 20
7.193372240657689
 30
0.0
 40
0.18
 41
0.0
 71
     5
 72
     1
  1
\A1;3.6422
1001
ACAD
1000
MTEXTBEGIN
1070
    73
1070
     1
1070
    44
1040
1.0
1070
    74
1070
     0
1000
MTEXTEND
  0
POINT
  5
3687
330
3673
100
AcDbEntity
  8
DEFPOINTS
 62
     0
100
AcDbPoint
 10
3.086772512473404
 20
6.988516920346873
 30
0.0
  0
POINT
  5
3688
330
3673
100
AcDbEntity
  8
DEFPOINTS
 62
     0
100
AcDbPoint
 10
6.729014638457656
 20
6.988516920346873
 30
0.0
  0
POINT
  5
3689
330
3673
100
AcDbEntity
  8
DEFPOINTS
 62
     0
100
AcDbPoint
 10
6.729014638457656
 20
7.193372240657689
 30
0.0
  0
ENDBLK
  5
367F
330
3673
100
AcDbEntity
  8
0
100
AcDbBlockEnd
  0
ENDSEC
  0
SECTION
  2
ENTITIES
  0
LINE
  5
44F
330
1E
100
AcDbEntity
  8
7
100
AcDbLine
 10
3.927441370741122
 20
8.547790306173645
 30
0.0
 11
3.740407315623011
 21
8.547790306173645
 31
0.0
  0
LINE
  5
450
330
1E
100
AcDbEntity
  8
7
100
AcDbLine
 10
4.455074284126948
 20
8.547790306173645
 30
0.0
 11
4.374354323497027
 21
8.547790306173645
 31
0.0
  0
LINE
  5
451
330
1E
100
AcDbEntity
  8
7
100
AcDbLine
 10
5.439464047906475
 20
8.547790306173645
 30
0.0
 11
5.360712866804113
 21
8.547790306173645
 31
0.0
  0
LINE
  5
452
330
1E
100
AcDbEntity
  8
7
100
AcDbLine
 10
6.075379835308051
 20
8.547790306173645
 30
0.0
 11
5.886377000662382
 21
8.547790306173645
 31
0.0
  0
LINE
  5
453
330
1E
100
AcDbEntity
  8
7
100
AcDbLine
 10
5.102802748693877
 20
8.063470542394117
 30
0.0
 11
5.102802748693877
 21
8.065439321921676
 31
0.0
  0
LINE
  5
454
330
1E
100
AcDbEntity
  8
7
100
AcDbLine
 10
5.102802748693877
 20
8.063470542394117
 30
0.0
 11
5.104771528221437
 21
8.063470542394117
 31
0.0
  0
LINE
  5
455
330
1E
100
AcDbEntity
  8
7
100
AcDbLine
 10
5.102802748693877
 20
8.065439321921676
 30
0.0
 11
5.104771528221437
 21
8.063470542394117
 31
0.0
  0
LINE
  5
456
330
1E
100
AcDbEntity
  8
7
100
AcDbLine
 10
5.094927630583641
 20
8.063470542394117
 30
0.0
 11
5.094927630583641
 21
8.065439321921676
 31
0.0
  0
LINE
  5
461
330
1E
100
AcDbEntity
  8
7
100
AcDbLine
 10
4.72085952034742
 20
8.063470542394117
 30
0.0
 11
4.72085952034742
 21
8.065439321921676
 31
0.0
  0
LINE
  5
462
330
1E
100
AcDbEntity
  8
7
100
AcDbLine
 10
4.72085952034742
 20
8.063470542394117
 30
0.0
 11
5.094927630583641
 21
8.063470542394117
 31
0.0
  0
LINE
  5
463
330
1E
100
AcDbEntity
  8
7
100
AcDbLine
 10
4.72085952034742
 20
8.065439321921676
 30
0.0
 11
5.094927630583641
 21
8.065439321921676
 31
0.0
  0
LINE
  5
464
330
1E
100
AcDbEntity
  8
7
100
AcDbLine
 10
4.711015622709625
 20
8.063470542394117
 30
0.0
 11
4.712984402237184
 21
8.065439321921676
 31
0.0
  0
LINE
  5
465
330
1E
100
AcDbEntity
  8
7
100
AcDbLine
 10
4.711015622709625
 20
8.063470542394117
 30
0.0
 11
4.712984402237184
 21
8.063470542394117
 31
0.0
  0
LINE
  5
477
330
1E
100
AcDbEntity
  8
7
100
AcDbLine
 10
4.551544480977343
 20
8.252473377039788
 30
0.0
 11
4.508231331371042
 21
8.252473377039788
 31
0.0
  0
LINE
  5
478
330
1E
100
AcDbEntity
  8
7
100
AcDbLine
 10
4.508231331371042
 20
8.169784636882308
 30
0.0
 11
4.508231331371042
 21
8.419819636882309
 31
0.0
  0
LINE
  5
479
330
1E
100
AcDbEntity
  8
7
100
AcDbLine
 10
4.508231331371042
 20
8.252473377039788
 30
0.0
 11
4.508231331371042
 21
8.169784636882308
 31
0.0
  0
LINE
  5
47A
330
1E
100
AcDbEntity
  8
7
100
AcDbLine
 10
4.508231331371042
 20
8.419819636882309
 30
0.0
 11
4.508231331371042
 21
8.337130896724826
 31
0.0
  0
LINE
  5
47B
330
1E
100
AcDbEntity
  8
7
100
AcDbLine
 10
4.553513260504901
 20
8.169784636882308
 30
0.0
 11
4.508231331371042
 21
8.169784636882308
 31
0.0
  0
LINE
  5
47C
330
1E
100
AcDbEntity
  8
7
100
AcDbLine
 10
4.553513260504901
 20
8.169784636882308
 30
0.0
 11
4.551544480977343
 21
8.252473377039788
 31
0.0
  0
LINE
  5
47D
330
1E
100
AcDbEntity
  8
7
100
AcDbLine
 10
4.553513260504901
 20
8.419819636882309
 30
0.0
 11
4.553513260504901
 21
8.169784636882308
 31
0.0
  0
LINE
  5
47E
330
1E
100
AcDbEntity
  8
7
100
AcDbLine
 10
4.551544480977343
 20
8.337130896724826
 30
0.0
 11
4.553513260504901
 21
8.419819636882309
 31
0.0
  0
LINE
  5
47F
330
1E
100
AcDbEntity
  8
7
100
AcDbLine
 10
4.553513260504901
 20
8.419819636882309
 30
0.0
 11
4.508231331371042
 21
8.419819636882309
 31
0.0
  0
LINE
  5
480
330
1E
100
AcDbEntity
  8
7
100
AcDbLine
 10
5.26424266995372
 20
8.252473377039788
 30
0.0
 11
5.26424266995372
 21
8.337130896724826
 31
0.0
  0
LINE
  5
481
330
1E
100
AcDbEntity
  8
7
100
AcDbLine
 10
5.26424266995372
 20
8.252473377039788
 30
0.0
 11
5.30755581956002
 21
8.252473377039788
 31
0.0
  0
LINE
  5
482
330
1E
100
AcDbEntity
  8
7
100
AcDbLine
 10
5.30755581956002
 20
8.337130896724826
 30
0.0
 11
5.30755581956002
 21
8.252473377039788
 31
0.0
  0
LINE
  5
483
330
1E
100
AcDbEntity
  8
7
100
AcDbLine
 10
5.26424266995372
 20
8.337130896724826
 30
0.0
 11
5.30755581956002
 21
8.337130896724826
 31
0.0
  0
LINE
  5
484
330
1E
100
AcDbEntity
  8
7
100
AcDbLine
 10
5.262273890426161
 20
8.169784636882308
 30
0.0
 11
5.26424266995372
 21
8.252473377039788
 31
0.0
  0
LINE
  5
485
330
1E
100
AcDbEntity
  8
7
100
AcDbLine
 10
5.262273890426161
 20
8.169784636882308
 30
0.0
 11
5.30755581956002
 21
8.169784636882308
 31
0.0
  0
LINE
  5
486
330
1E
100
AcDbEntity
  8
7
100
AcDbLine
 10
5.30755581956002
 20
8.252473377039788
 30
0.0
 11
5.30755581956002
 21
8.169784636882308
 31
0.0
  0
LINE
  5
487
330
1E
100
AcDbEntity
  8
7
100
AcDbLine
 10
5.262273890426161
 20
8.419819636882309
 30
0.0
 11
5.262273890426161
 21
8.169784636882308
 31
0.0
  0
LINE
  5
48E
330
1E
100
AcDbEntity
  8
7
100
AcDbLine
 10
5.30755581956002
 20
8.169784636882308
 30
0.0
 11
5.30755581956002
 21
8.419819636882309
 31
0.0
  0
LINE
  5
48F
330
1E
100
AcDbEntity
  8
7
100
AcDbLine
 10
5.122490543969468
 20
8.358787471527977
 30
0.0
 11
5.122490543969468
 21
8.364693810110653
 31
0.0
  0
LINE
  5
495
330
1E
100
AcDbEntity
  8
7
100
AcDbLine
 10
5.124459323497027
 20
8.165847077827187
 30
0.0
 11
5.124459323497027
 21
8.24853581798467
 31
0.0
  0
LINE
  5
496
330
1E
100
AcDbEntity
  8
7
100
AcDbLine
 10
5.124459323497027
 20
8.057564203811439
 30
0.0
 11
5.124459323497027
 21
8.165847077827187
 31
0.0
  0
LINE
  5
49D
330
1E
100
AcDbEntity
  8
7
100
AcDbLine
 10
5.126428103024585
 20
8.549759085701204
 30
0.0
 11
5.126428103024585
 21
8.047720306173646
 31
0.0
  0
LINE
  5
4AC
330
1E
100
AcDbEntity
  8
7
100
AcDbLine
 10
4.691327827434036
 20
8.2662548337327
 30
0.0
 11
4.689359047906475
 21
8.24853581798467
 31
0.0
  0
LINE
  5
4AD
330
1E
100
AcDbEntity
  8
7
100
AcDbLine
 10
4.691327827434036
 20
8.2662548337327
 30
0.0
 11
4.691327827434036
 21
8.358787471527977
 31
0.0
  0
LINE
  5
4AE
330
1E
100
AcDbEntity
  8
7
100
AcDbLine
 10
4.693296606961594
 20
8.364693810110653
 30
0.0
 11
4.691327827434036
 21
8.358787471527977
 31
0.0
  0
LINE
  5
4B5
330
1E
100
AcDbEntity
  8
7
100
AcDbLine
 10
4.689359047906475
 20
8.047720306173646
 30
0.0
 11
4.689359047906475
 21
8.549759085701204
 31
0.0
  0
LINE
  5
4BC
330
1E
100
AcDbEntity
  8
7
100
AcDbLine
 10
4.689359047906475
 20
8.165847077827187
 30
0.0
 11
4.689359047906475
 21
8.057564203811439
 31
0.0
  0
LINE
  5
4BD
330
1E
100
AcDbEntity
  8
7
100
AcDbLine
 10
4.689359047906475
 20
8.24853581798467
 30
0.0
 11
4.689359047906475
 21
8.165847077827187
 31
0.0
  0
LINE
  5
4D2
330
1E
100
AcDbEntity
  8
7
100
AcDbLine
 10
4.616514205386791
 20
8.264286054205141
 30
0.0
 11
4.689359047906475
 21
8.264286054205141
 31
0.0
  0
LINE
  5
4D3
330
1E
100
AcDbEntity
  8
7
100
AcDbLine
 10
5.126428103024585
 20
8.264286054205141
 30
0.0
 11
5.199272945544271
 21
8.264286054205141
 31
0.0
  0
LINE
  5
4D4
330
1E
100
AcDbEntity
  8
7
100
AcDbLine
 10
5.404026016410413
 20
8.264286054205141
 30
0.0
 11
5.396150898300177
 21
8.264286054205141
 31
0.0
  0
LINE
  5
4E0
330
1E
100
AcDbEntity
  8
7
100
AcDbLine
 10
6.595137630583641
 20
7.864623810110653
 30
0.0
 11
3.22064952034742
 21
7.864623810110653
 31
0.0
  0
LINE
  5
4E1
330
1E
100
AcDbEntity
  8
7
100
AcDbLine
 10
4.411761134520649
 20
7.957156447905928
 30
0.0
 11
5.404026016410413
 21
7.957156447905928
 31
0.0
  0
LINE
  5
4E9
330
1E
100
AcDbEntity
  8
7
100
AcDbLine
 10
6.729014638457656
 20
8.264286054205141
 30
0.0
 11
6.715233181764745
 21
7.978813022709076
 31
0.0
  0
LINE
  5
4F0
330
1E
100
AcDbEntity
  8
7
100
AcDbLine
 10
4.476730858930098
 20
8.59897857389018
 30
0.0
 11
4.466886961292303
 21
8.106783692000417
 31
0.0
  0
LINE
  5
4F1
330
1E
100
AcDbEntity
  8
7
100
AcDbLine
 10
4.468855740819861
 20
8.106783692000417
 30
0.0
 11
4.466886961292303
 21
8.106783692000417
 31
0.0
  0
LINE
  5
4F2
330
1E
100
AcDbEntity
  8
7
100
AcDbLine
 10
4.614545425859232
 20
8.106783692000417
 30
0.0
 11
4.468855740819861
 21
8.106783692000417
 31
0.0
  0
LINE
  5
4F3
330
1E
100
AcDbEntity
  8
7
100
AcDbLine
 10
4.614545425859232
 20
8.106783692000417
 30
0.0
 11
4.614545425859232
 21
8.549759085701204
 31
0.0
  0
LINE
  5
4FB
330
1E
100
AcDbEntity
  8
7
100
AcDbLine
 10
4.689359047906475
 20
8.579290778614591
 30
0.0
 11
4.695265386489153
 21
8.587165896724824
 31
0.0
  0
LINE
  5
4FC
330
1E
100
AcDbEntity
  8
7
100
AcDbLine
 10
4.799610701449783
 20
8.587165896724824
 30
0.0
 11
4.695265386489153
 21
8.587165896724824
 31
0.0
  0
LINE
  5
4FD
330
1E
100
AcDbEntity
  8
7
100
AcDbLine
 10
4.799610701449783
 20
8.587165896724824
 30
0.0
 11
4.809454599087579
 21
8.585197117197266
 31
0.0
  0
LINE
  5
4FE
330
1E
100
AcDbEntity
  8
7
100
AcDbLine
 10
4.809454599087579
 20
8.24853581798467
 30
0.0
 11
4.809454599087579
 21
8.585197117197266
 31
0.0
  0
LINE
  5
4FF
330
1E
100
AcDbEntity
  8
7
100
AcDbLine
 10
4.809454599087579
 20
8.24853581798467
 30
0.0
 11
4.689359047906475
 21
8.24853581798467
 31
0.0
  0
LINE
  5
506
330
1E
100
AcDbEntity
  8
7
100
AcDbLine
 10
5.006332551843484
 20
8.24853581798467
 30
0.0
 11
5.124459323497027
 21
8.24853581798467
 31
0.0
  0
LINE
  5
507
330
1E
100
AcDbEntity
  8
7
100
AcDbLine
 10
5.006332551843484
 20
8.585197117197266
 30
0.0
 11
5.006332551843484
 21
8.24853581798467
 31
0.0
  0
LINE
  5
515
330
1E
100
AcDbEntity
  8
7
100
AcDbLine
 10
5.20124172507183
 20
8.549759085701204
 30
0.0
 11
5.20124172507183
 21
8.106783692000417
 31
0.0
  0
LINE
  5
516
330
1E
100
AcDbEntity
  8
7
100
AcDbLine
 10
5.346931410111201
 20
8.106783692000417
 30
0.0
 11
5.20124172507183
 21
8.106783692000417
 31
0.0
  0
LINE
  5
517
330
1E
100
AcDbEntity
  8
7
100
AcDbLine
 10
5.346931410111201
 20
8.106783692000417
 30
0.0
 11
5.339056292000964
 21
8.59897857389018
 31
0.0
  0
LINE
  5
51E
330
1E
100
AcDbEntity
  8
7
100
AcDbLine
 10
4.545638142394665
 20
8.711199006961045
 30
0.0
 11
5.270149008536398
 21
8.711199006961045
 31
0.0
  0
LINE
  5
51F
330
1E
100
AcDbEntity
  8
7
100
AcDbLine
 10
5.366619205386791
 20
8.207191447905929
 30
0.0
 11
5.396150898300177
 21
8.207191447905929
 31
0.0
  0
LINE
  5
520
330
1E
100
AcDbEntity
  8
7
100
AcDbLine
 10
4.616514205386791
 20
8.207191447905929
 30
0.0
 11
4.689359047906475
 21
8.207191447905929
 31
0.0
  0
LINE
  5
521
330
1E
100
AcDbEntity
  8
7
100
AcDbLine
 10
5.126428103024585
 20
8.207191447905929
 30
0.0
 11
5.199272945544271
 21
8.207191447905929
 31
0.0
  0
LINE
  5
527
330
1E
100
AcDbEntity
  8
7
100
AcDbLine
 10
4.374354323497027
 20
8.520227392787818
 30
0.0
 11
4.360572866804113
 21
8.264286054205141
 31
0.0
  0
LINE
  5
533
330
1E
100
AcDbEntity
  8
7
100
AcDbLine
 10
3.738438536095453
 20
8.520227392787818
 30
0.0
 11
3.724657079402539
 21
8.264286054205141
 31
0.0
  0
LINE
  5
534
330
1E
100
AcDbEntity
  8
7
100
AcDbLine
 10
3.740407315623011
 20
8.547790306173645
 30
0.0
 11
3.740407315623011
 21
8.539915188063407
 31
0.0
  0
LINE
  5
535
330
1E
100
AcDbEntity
  8
7
100
AcDbLine
 10
3.740407315623011
 20
8.539915188063407
 30
0.0
 11
3.738438536095453
 21
8.520227392787818
 31
0.0
  0
LINE
  5
536
330
1E
100
AcDbEntity
  8
7
100
AcDbLine
 10
3.92941015026868
 20
8.520227392787818
 30
0.0
 11
3.738438536095453
 21
8.520227392787818
 31
0.0
  0
LINE
  5
53D
330
1E
100
AcDbEntity
  8
7
100
AcDbLine
 10
3.923503811686003
 20
8.453288888850812
 30
0.0
 11
3.882159441607263
 21
8.453288888850812
 31
0.0
  0
LINE
  5
549
330
1E
100
AcDbEntity
  8
7
100
AcDbLine
 10
3.78568924475687
 20
8.453288888850812
 30
0.0
 11
3.746313654205689
 21
8.453288888850812
 31
0.0
  0
LINE
  5
54F
330
1E
100
AcDbEntity
  8
7
100
AcDbLine
 10
3.789626803811987
 20
8.264286054205141
 30
0.0
 11
3.78568924475687
 21
8.453288888850812
 31
0.0
  0
LINE
  5
550
330
1E
100
AcDbEntity
  8
7
100
AcDbLine
 10
3.74237609515057
 20
8.264286054205141
 30
0.0
 11
3.746313654205689
 21
8.453288888850812
 31
0.0
  0
LINE
  5
551
330
1E
100
AcDbEntity
  8
7
100
AcDbLine
 10
3.925472591213563
 20
8.264286054205141
 30
0.0
 11
3.923503811686003
 21
8.453288888850812
 31
0.0
  0
LINE
  5
552
330
1E
100
AcDbEntity
  8
7
100
AcDbLine
 10
3.878221882552146
 20
8.264286054205141
 30
0.0
 11
3.882159441607263
 21
8.453288888850812
 31
0.0
  0
LINE
  5
553
330
1E
100
AcDbEntity
  8
7
100
AcDbLine
 10
4.374354323497027
 20
8.520227392787818
 30
0.0
 11
4.455074284126948
 21
8.520227392787818
 31
0.0
  0
LINE
  5
554
330
1E
100
AcDbEntity
  8
7
100
AcDbLine
 10
4.380260662079704
 20
8.4729766841264
 30
0.0
 11
4.421605032158444
 21
8.4729766841264
 31
0.0
  0
LINE
  5
555
330
1E
100
AcDbEntity
  8
7
100
AcDbLine
 10
4.378291882552145
 20
8.264286054205141
 30
0.0
 11
4.380260662079704
 21
8.453288888850812
 31
0.0
  0
LINE
  5
556
330
1E
100
AcDbEntity
  8
7
100
AcDbLine
 10
4.425542591213563
 20
8.207191447905929
 30
0.0
 11
4.421605032158444
 21
8.453288888850812
 31
0.0
  0
LINE
  5
557
330
1E
100
AcDbEntity
  8
7
100
AcDbLine
 10
4.380260662079704
 20
8.453288888850812
 30
0.0
 11
4.421605032158444
 21
8.453288888850812
 31
0.0
  0
LINE
  5
562
330
1E
100
AcDbEntity
  8
7
100
AcDbLine
 10
5.539871803811987
 20
8.453288888850812
 30
0.0
 11
5.882439441607263
 21
8.453288888850812
 31
0.0
  0
LINE
  5
563
330
1E
100
AcDbEntity
  8
7
100
AcDbLine
 10
5.53593424475687
 20
8.264286054205141
 30
0.0
 11
5.539871803811987
 21
8.453288888850812
 31
0.0
  0
LINE
  5
56A
330
1E
100
AcDbEntity
  8
7
100
AcDbLine
 10
5.886377000662382
 20
8.520227392787818
 30
0.0
 11
5.872595543969469
 21
8.264286054205141
 31
0.0
  0
LINE
  5
576
330
1E
100
AcDbEntity
  8
7
100
AcDbLine
 10
4.419636252630885
 20
8.207191447905929
 30
0.0
 11
4.449167945544272
 21
8.207191447905929
 31
0.0
  0
LINE
  5
577
330
1E
100
AcDbEntity
  8
7
100
AcDbLine
 10
6.030097906174193
 20
8.4729766841264
 30
0.0
 11
6.069473496725374
 21
8.4729766841264
 31
0.0
  0
LINE
  5
583
330
1E
100
AcDbEntity
  8
7
100
AcDbLine
 10
6.026160347119075
 20
8.264286054205141
 30
0.0
 11
6.030097906174193
 21
8.453288888850812
 31
0.0
  0
LINE
  5
584
330
1E
100
AcDbEntity
  8
7
100
AcDbLine
 10
6.073411055780493
 20
8.264286054205141
 30
0.0
 11
6.069473496725374
 21
8.453288888850812
 31
0.0
  0
LINE
  5
585
330
1E
100
AcDbEntity
  8
7
100
AcDbLine
 10
5.892283339245058
 20
8.4729766841264
 30
0.0
 11
5.9336277093238
 21
8.4729766841264
 31
0.0
  0
LINE
  5
591
330
1E
100
AcDbEntity
  8
7
100
AcDbLine
 10
5.890314559717499
 20
8.264286054205141
 30
0.0
 11
5.892283339245058
 21
8.453288888850812
 31
0.0
  0
LINE
  5
592
330
1E
100
AcDbEntity
  8
7
100
AcDbLine
 10
5.937565268378916
 20
8.264286054205141
 30
0.0
 11
5.9336277093238
 21
8.453288888850812
 31
0.0
  0
LINE
  5
593
330
1E
100
AcDbEntity
  8
7
100
AcDbLine
 10
5.886377000662382
 20
8.520227392787818
 30
0.0
 11
6.07734861483561
 21
8.520227392787818
 31
0.0
  0
LINE
  5
59A
330
1E
100
AcDbEntity
  8
7
100
AcDbLine
 10
5.435526488851358
 20
8.453288888850812
 30
0.0
 11
5.394182118772619
 21
8.453288888850812
 31
0.0
  0
LINE
  5
5A0
330
1E
100
AcDbEntity
  8
7
100
AcDbLine
 10
5.437495268378917
 20
8.264286054205141
 30
0.0
 11
5.435526488851358
 21
8.453288888850812
 31
0.0
  0
LINE
  5
5A1
330
1E
100
AcDbEntity
  8
7
100
AcDbLine
 10
5.390244559717499
 20
8.207191447905929
 30
0.0
 11
5.394182118772619
 21
8.453288888850812
 31
0.0
  0
LINE
  5
5A2
330
1E
100
AcDbEntity
  8
7
100
AcDbLine
 10
5.441432827434035
 20
8.520227392787818
 30
0.0
 11
5.360712866804113
 21
8.520227392787818
 31
0.0
  0
LINE
  5
5A3
330
1E
100
AcDbEntity
  8
7
100
AcDbLine
 10
5.350868969166318
 20
7.957156447905928
 30
0.0
 11
5.346931410111201
 21
8.106783692000417
 31
0.0
  0
LINE
  5
5A4
330
1E
100
AcDbEntity
  8
7
100
AcDbLine
 10
5.20124172507183
 20
8.106783692000417
 30
0.0
 11
5.199272945544271
 21
7.957156447905928
 31
0.0
  0
LINE
  5
5AC
330
1E
100
AcDbEntity
  8
7
100
AcDbLine
 10
5.20124172507183
 20
8.549759085701204
 30
0.0
 11
5.199272945544271
 21
8.549759085701204
 31
0.0
  0
LINE
  5
5AD
330
1E
100
AcDbEntity
  8
7
100
AcDbLine
 10
5.199272945544271
 20
7.957156447905928
 30
0.0
 11
5.199272945544271
 21
8.549759085701204
 31
0.0
  0
LINE
  5
5B3
330
1E
100
AcDbEntity
  8
7
100
AcDbLine
 10
5.240617315623011
 20
8.742699479401991
 30
0.0
 11
5.209116843182067
 21
8.746637038457107
 31
0.0
  0
LINE
  5
5BB
330
1E
100
AcDbEntity
  8
7
100
AcDbLine
 10
4.691327827434036
 20
8.047720306173646
 30
0.0
 11
4.689359047906475
 21
8.047720306173646
 31
0.0
  0
LINE
  5
5C3
330
1E
100
AcDbEntity
  8
7
100
AcDbLine
 10
4.616514205386791
 20
8.549759085701204
 30
0.0
 11
4.616514205386791
 21
7.957156447905928
 31
0.0
  0
LINE
  5
5C4
330
1E
100
AcDbEntity
  8
7
100
AcDbLine
 10
5.126428103024585
 20
8.047720306173646
 30
0.0
 11
5.124459323497027
 21
8.047720306173646
 31
0.0
  0
LINE
  5
5DA
330
1E
100
AcDbEntity
  8
7
100
AcDbLine
 10
4.575169835308051
 20
8.742699479401991
 30
0.0
 11
4.527919126646634
 21
8.72498046365396
 31
0.0
  0
LINE
  5
5E1
330
1E
100
AcDbEntity
  8
7
100
AcDbLine
 10
4.616514205386791
 20
8.549759085701204
 30
0.0
 11
4.614545425859232
 21
8.549759085701204
 31
0.0
  0
LINE
  5
5E7
330
1E
100
AcDbEntity
  8
7
100
AcDbLine
 10
4.468855740819861
 20
8.106783692000417
 30
0.0
 11
4.464918181764744
 21
7.957156447905928
 31
0.0
  0
LINE
  5
5E8
330
1E
100
AcDbEntity
  8
7
100
AcDbLine
 10
4.614545425859232
 20
7.957156447905928
 30
0.0
 11
4.614545425859232
 21
8.106783692000417
 31
0.0
  0
LINE
  5
5E9
330
1E
100
AcDbEntity
  8
7
100
AcDbLine
 10
5.114615425859232
 20
8.061501762866559
 30
0.0
 11
5.114615425859232
 21
8.063470542394117
 31
0.0
  0
LINE
  5
5EA
330
1E
100
AcDbEntity
  8
7
100
AcDbLine
 10
5.114615425859232
 20
8.061501762866559
 30
0.0
 11
5.124459323497027
 21
8.057564203811439
 31
0.0
  0
LINE
  5
5F1
330
1E
100
AcDbEntity
  8
7
100
AcDbLine
 10
5.104771528221437
 20
8.063470542394117
 30
0.0
 11
5.114615425859232
 21
8.063470542394117
 31
0.0
  0
LINE
  5
5F2
330
1E
100
AcDbEntity
  8
7
100
AcDbLine
 10
4.70117172507183
 20
8.063470542394117
 30
0.0
 11
4.70117172507183
 21
8.061501762866559
 31
0.0
  0
LINE
  5
5F3
330
1E
100
AcDbEntity
  8
7
100
AcDbLine
 10
4.70117172507183
 20
8.063470542394117
 30
0.0
 11
4.711015622709625
 21
8.063470542394117
 31
0.0
  0
LINE
  5
5FA
330
1E
100
AcDbEntity
  8
7
100
AcDbLine
 10
4.689359047906475
 20
8.057564203811439
 30
0.0
 11
4.70117172507183
 21
8.061501762866559
 31
0.0
  0
LINE
  5
600
330
1E
100
AcDbEntity
  8
7
100
AcDbLine
 10
5.094927630583641
 20
8.065439321921676
 30
0.0
 11
5.094927630583641
 21
8.085127117197266
 31
0.0
  0
LINE
  5
60F
330
1E
100
AcDbEntity
  8
7
100
AcDbLine
 10
5.106740307748996
 20
8.051657865228763
 30
0.0
 11
5.114615425859232
 21
8.061501762866559
 31
0.0
  0
LINE
  5
610
330
1E
100
AcDbEntity
  8
7
100
AcDbLine
 10
5.120521764441909
 20
8.130409046331125
 30
0.0
 11
5.114615425859232
 21
8.136315384913801
 31
0.0
  0
LINE
  5
61B
330
1E
100
AcDbEntity
  8
7
100
AcDbLine
 10
4.70117172507183
 20
8.061501762866559
 30
0.0
 11
4.709046843182067
 21
8.051657865228763
 31
0.0
  0
LINE
  5
630
330
1E
100
AcDbEntity
  8
7
100
AcDbLine
 10
4.693296606961594
 20
8.130409046331125
 30
0.0
 11
4.70117172507183
 21
8.136315384913801
 31
0.0
  0
LINE
  5
63F
330
1E
100
AcDbEntity
  8
7
100
AcDbLine
 10
4.419636252630885
 20
7.982750581764197
 30
0.0
 11
4.419636252630885
 21
8.264286054205141
 31
0.0
  0
LINE
  5
645
330
1E
100
AcDbEntity
  8
7
100
AcDbLine
 10
3.206868063654508
 20
8.264286054205141
 30
0.0
 11
3.22064952034742
 21
7.978813022709076
 31
0.0
  0
LINE
  5
64B
330
1E
100
AcDbEntity
  8
7
100
AcDbLine
 10
5.404026016410413
 20
7.978813022709076
 30
0.0
 11
5.404026016410413
 21
8.264286054205141
 31
0.0
  0
LINE
  5
64C
330
1E
100
AcDbEntity
  8
7
100
AcDbLine
 10
5.396150898300177
 20
8.264286054205141
 30
0.0
 11
5.396150898300177
 21
7.982750581764197
 31
0.0
  0
LINE
  5
652
330
1E
100
AcDbEntity
  8
7
100
AcDbLine
 10
5.404026016410413
 20
7.957156447905928
 30
0.0
 11
5.404026016410413
 21
7.978813022709076
 31
0.0
  0
LINE
  5
65A
330
1E
100
AcDbEntity
  8
7
100
AcDbLine
 10
4.411761134520649
 20
7.957156447905928
 30
0.0
 11
4.411761134520649
 21
7.978813022709076
 31
0.0
  0
LINE
  5
667
330
1E
100
AcDbEntity
  8
7
100
AcDbLine
 10
5.053583260504901
 20
8.364693810110653
 30
0.0
 11
5.118552984914349
 21
8.364693810110653
 31
0.0
  0
LINE
  5
668
330
1E
100
AcDbEntity
  8
7
100
AcDbLine
 10
5.053583260504901
 20
8.364693810110653
 30
0.0
 11
5.047676921922223
 21
8.364693810110653
 31
0.0
  0
LINE
  5
669
330
1E
100
AcDbEntity
  8
7
100
AcDbLine
 10
5.047676921922223
 20
8.358787471527977
 30
0.0
 11
5.047676921922223
 21
8.364693810110653
 31
0.0
  0
LINE
  5
66A
330
1E
100
AcDbEntity
  8
7
100
AcDbLine
 10
5.047676921922223
 20
8.358787471527977
 30
0.0
 11
5.051614480977343
 21
8.358787471527977
 31
0.0
  0
LINE
  5
66B
330
1E
100
AcDbEntity
  8
7
100
AcDbLine
 10
5.118552984914349
 20
8.358787471527977
 30
0.0
 11
5.051614480977343
 21
8.358787471527977
 31
0.0
  0
LINE
  5
66C
330
1E
100
AcDbEntity
  8
7
100
AcDbLine
 10
5.118552984914349
 20
8.358787471527977
 30
0.0
 11
5.122490543969468
 21
8.358787471527977
 31
0.0
  0
LINE
  5
66D
330
1E
100
AcDbEntity
  8
7
100
AcDbLine
 10
5.122490543969468
 20
8.364693810110653
 30
0.0
 11
5.118552984914349
 21
8.364693810110653
 31
0.0
  0
LINE
  5
66E
330
1E
100
AcDbEntity
  8
7
100
AcDbLine
 10
5.053583260504901
 20
8.388319164441362
 30
0.0
 11
5.053583260504901
 21
8.364693810110653
 31
0.0
  0
LINE
  5
66F
330
1E
100
AcDbEntity
  8
7
100
AcDbLine
 10
5.118552984914349
 20
8.364693810110653
 30
0.0
 11
5.118552984914349
 21
8.388319164441362
 31
0.0
  0
LINE
  5
670
330
1E
100
AcDbEntity
  8
7
100
AcDbLine
 10
5.053583260504901
 20
8.388319164441362
 30
0.0
 11
5.118552984914349
 21
8.388319164441362
 31
0.0
  0
LINE
  5
67B
330
1E
100
AcDbEntity
  8
7
100
AcDbLine
 10
5.045708142394665
 20
8.254442156567346
 30
0.0
 11
5.045708142394665
 21
8.526133731370494
 31
0.0
  0
LINE
  5
681
330
1E
100
AcDbEntity
  8
7
100
AcDbLine
 10
5.051614480977343
 20
8.358787471527977
 30
0.0
 11
5.051614480977343
 21
8.268223613260259
 31
0.0
  0
LINE
  5
682
330
1E
100
AcDbEntity
  8
7
100
AcDbLine
 10
5.124459323497027
 20
8.2662548337327
 30
0.0
 11
5.118552984914349
 21
8.268223613260259
 31
0.0
  0
LINE
  5
683
330
1E
100
AcDbEntity
  8
7
100
AcDbLine
 10
5.051614480977343
 20
8.268223613260259
 30
0.0
 11
5.047676921922223
 21
8.2662548337327
 31
0.0
  0
LINE
  5
68F
330
1E
100
AcDbEntity
  8
7
100
AcDbLine
 10
5.118552984914349
 20
8.388319164441362
 30
0.0
 11
5.120521764441909
 21
8.587165896724824
 31
0.0
  0
LINE
  5
697
330
1E
100
AcDbEntity
  8
7
100
AcDbLine
 10
4.768110229008839
 20
8.364693810110653
 30
0.0
 11
4.768110229008839
 21
8.358787471527977
 31
0.0
  0
LINE
  5
69E
330
1E
100
AcDbEntity
  8
7
100
AcDbLine
 10
4.691327827434036
 20
8.358787471527977
 30
0.0
 11
4.697234166016711
 21
8.358787471527977
 31
0.0
  0
LINE
  5
69F
330
1E
100
AcDbEntity
  8
7
100
AcDbLine
 10
4.76417266995372
 20
8.358787471527977
 30
0.0
 11
4.697234166016711
 21
8.358787471527977
 31
0.0
  0
LINE
  5
6A0
330
1E
100
AcDbEntity
  8
7
100
AcDbLine
 10
4.76417266995372
 20
8.358787471527977
 30
0.0
 11
4.768110229008839
 21
8.358787471527977
 31
0.0
  0
LINE
  5
6A1
330
1E
100
AcDbEntity
  8
7
100
AcDbLine
 10
4.697234166016711
 20
8.358787471527977
 30
0.0
 11
4.697234166016711
 21
8.268223613260259
 31
0.0
  0
LINE
  5
6A2
330
1E
100
AcDbEntity
  8
7
100
AcDbLine
 10
4.76417266995372
 20
8.268223613260259
 30
0.0
 11
4.697234166016711
 21
8.268223613260259
 31
0.0
  0
LINE
  5
6A3
330
1E
100
AcDbEntity
  8
7
100
AcDbLine
 10
4.76417266995372
 20
8.268223613260259
 30
0.0
 11
4.76417266995372
 21
8.358787471527977
 31
0.0
  0
LINE
  5
6AA
330
1E
100
AcDbEntity
  8
7
100
AcDbLine
 10
4.768110229008839
 20
8.358787471527977
 30
0.0
 11
4.768110229008839
 21
8.2662548337327
 31
0.0
  0
LINE
  5
6AB
330
1E
100
AcDbEntity
  8
7
100
AcDbLine
 10
4.770079008536398
 20
8.254442156567346
 30
0.0
 11
4.768110229008839
 21
8.2662548337327
 31
0.0
  0
LINE
  5
6AC
330
1E
100
AcDbEntity
  8
7
100
AcDbLine
 10
4.770079008536398
 20
8.526133731370494
 30
0.0
 11
4.770079008536398
 21
8.254442156567346
 31
0.0
  0
LINE
  5
6BD
330
1E
100
AcDbEntity
  8
7
100
AcDbLine
 10
4.695265386489153
 20
8.587165896724824
 30
0.0
 11
4.697234166016711
 21
8.388319164441362
 31
0.0
  0
LINE
  5
6C5
330
1E
100
AcDbEntity
  8
7
100
AcDbLine
 10
4.697234166016711
 20
8.268223613260259
 30
0.0
 11
4.691327827434036
 21
8.2662548337327
 31
0.0
  0
LINE
  5
6C6
330
1E
100
AcDbEntity
  8
7
100
AcDbLine
 10
4.768110229008839
 20
8.2662548337327
 30
0.0
 11
4.76417266995372
 21
8.268223613260259
 31
0.0
  0
LINE
  5
6CC
330
1E
100
AcDbEntity
  8
7
100
AcDbLine
 10
5.368587984914349
 20
8.108752471527976
 30
0.0
 11
5.362681646331673
 21
8.106783692000417
 31
0.0
  0
LINE
  5
6CD
330
1E
100
AcDbEntity
  8
7
100
AcDbLine
 10
5.362681646331673
 20
8.106783692000417
 30
0.0
 11
5.346931410111201
 21
8.106783692000417
 31
0.0
  0
LINE
  5
6D8
330
1E
100
AcDbEntity
  8
7
100
AcDbLine
 10
5.047676921922223
 20
8.3863503849138
 30
0.0
 11
5.053583260504901
 21
8.388319164441362
 31
0.0
  0
LINE
  5
6DE
330
1E
100
AcDbEntity
  8
7
100
AcDbLine
 10
4.762203890426161
 20
8.388319164441362
 30
0.0
 11
4.768110229008839
 21
8.3863503849138
 31
0.0
  0
LINE
  5
6E4
330
1E
100
AcDbEntity
  8
7
100
AcDbLine
 10
4.697234166016711
 20
8.388319164441362
 30
0.0
 11
4.693296606961594
 21
8.3863503849138
 31
0.0
  0
LINE
  5
6E5
330
1E
100
AcDbEntity
  8
7
100
AcDbLine
 10
5.122490543969468
 20
8.3863503849138
 30
0.0
 11
5.118552984914349
 21
8.388319164441362
 31
0.0
  0
LINE
  5
6EB
330
1E
100
AcDbEntity
  8
7
100
AcDbLine
 10
4.709046843182067
 20
8.053626644756322
 30
0.0
 11
5.106740307748996
 21
8.053626644756322
 31
0.0
  0
LINE
  5
6F6
330
1E
100
AcDbEntity
  8
7
100
AcDbLine
 10
5.106740307748996
 20
8.053626644756322
 30
0.0
 11
5.094927630583641
 21
8.057564203811439
 31
0.0
  0
LINE
  5
6F7
330
1E
100
AcDbEntity
  8
7
100
AcDbLine
 10
5.106740307748996
 20
8.063470542394117
 30
0.0
 11
5.114615425859232
 21
8.061501762866559
 31
0.0
  0
LINE
  5
6F8
330
1E
100
AcDbEntity
  8
7
100
AcDbLine
 10
4.70117172507183
 20
8.061501762866559
 30
0.0
 11
4.709046843182067
 21
8.063470542394117
 31
0.0
  0
LINE
  5
F93
330
1E
100
AcDbEntity
  8
7
100
AcDbLine
 10
7.876813103024586
 20
5.872218928220888
 30
0.0
 11
7.876813103024586
 21
5.850562353417739
 31
0.0
  0
LINE
  5
F94
330
1E
100
AcDbEntity
  8
7
100
AcDbLine
 10
7.876813103024586
 20
5.872218928220888
 30
0.0
 11
7.876813103024586
 21
5.850562353417739
 31
0.0
  0
LINE
  5
F9F
330
1E
100
AcDbEntity
  8
7
100
AcDbLine
 10
8.148504677827736
 20
5.712747786488606
 30
0.0
 11
8.075659835308051
 21
5.712747786488606
 31
0.0
  0
LINE
  5
FA0
330
1E
100
AcDbEntity
  8
7
100
AcDbLine
 10
8.231193417985217
 20
5.653684400661833
 30
0.0
 11
8.148504677827736
 21
5.712747786488606
 31
0.0
  0
LINE
  5
FA1
330
1E
100
AcDbEntity
  8
7
100
AcDbLine
 10
8.170161252630887
 20
5.76787361326026
 30
0.0
 11
8.176067591213563
 21
5.799374085701204
 31
0.0
  0
LINE
  5
FAC
330
1E
100
AcDbEntity
  8
7
100
AcDbLine
 10
8.075659835308051
 20
5.801342865228763
 30
0.0
 11
8.075659835308051
 21
5.793467747118526
 31
0.0
  0
LINE
  5
FB8
330
1E
100
AcDbEntity
  8
7
100
AcDbLine
 10
7.675997591213564
 20
3.84831357389018
 30
0.0
 11
7.675997591213564
 21
5.669434636882305
 31
0.0
  0
LINE
  5
FB9
330
1E
100
AcDbEntity
  8
7
100
AcDbLine
 10
7.790186803811987
 20
5.669434636882305
 30
0.0
 11
7.790186803811987
 21
3.84831357389018
 31
0.0
  0
LINE
  5
FC8
330
1E
100
AcDbEntity
  8
7
100
AcDbLine
 10
8.075659835308051
 20
5.68321609357522
 30
0.0
 11
7.790186803811987
 21
5.669434636882305
 31
0.0
  0
LINE
  5
FC9
330
1E
100
AcDbEntity
  8
7
100
AcDbLine
 10
7.790186803811987
 20
3.84831357389018
 30
0.0
 11
8.075659835308051
 21
3.836500896724826
 31
0.0
  0
LINE
  5
FD1
330
1E
100
AcDbEntity
  8
7
100
AcDbLine
 10
8.164254914048207
 20
3.854219912472858
 30
0.0
 11
8.172130032158445
 21
3.84831357389018
 31
0.0
  0
LINE
  5
FD2
330
1E
100
AcDbEntity
  8
7
100
AcDbLine
 10
8.083534953418286
 20
3.854219912472858
 30
0.0
 11
8.164254914048207
 21
3.854219912472858
 31
0.0
  0
LINE
  5
FD3
330
1E
100
AcDbEntity
  8
7
100
AcDbLine
 10
8.075659835308051
 20
3.846344794362621
 30
0.0
 11
8.083534953418286
 21
3.854219912472858
 31
0.0
  0
LINE
  5
FD4
330
1E
100
AcDbEntity
  8
7
100
AcDbLine
 10
8.197724166016712
 20
3.779406290425613
 30
0.0
 11
8.266631449481279
 21
3.779406290425613
 31
0.0
  0
LINE
  5
FD5
330
1E
100
AcDbEntity
  8
7
100
AcDbLine
 10
8.172130032158445
 20
3.84831357389018
 30
0.0
 11
8.189849047906475
 21
3.78531262900829
 31
0.0
  0
LINE
  5
FDB
330
1E
100
AcDbEntity
  8
7
100
AcDbLine
 10
8.189849047906475
 20
3.78531262900829
 30
0.0
 11
8.197724166016712
 21
3.779406290425613
 31
0.0
  0
LINE
  5
FDC
330
1E
100
AcDbEntity
  8
7
100
AcDbLine
 10
8.185911488851358
 20
5.110301251055535
 30
0.0
 11
8.075659835308051
 21
5.112270030583093
 31
0.0
  0
LINE
  5
FE2
330
1E
100
AcDbEntity
  8
7
100
AcDbLine
 10
8.199692945544272
 20
5.084707117197266
 30
0.0
 11
8.199692945544272
 21
5.094551014835063
 31
0.0
  0
LINE
  5
FE3
330
1E
100
AcDbEntity
  8
7
100
AcDbLine
 10
8.189849047906475
 20
5.047300306173646
 30
0.0
 11
8.199692945544272
 21
5.084707117197266
 31
0.0
  0
LINE
  5
FE4
330
1E
100
AcDbEntity
  8
7
100
AcDbLine
 10
8.187880268378917
 20
5.043362747118527
 30
0.0
 11
8.189849047906475
 21
5.047300306173646
 31
0.0
  0
LINE
  5
FE5
330
1E
100
AcDbEntity
  8
7
100
AcDbLine
 10
8.187880268378917
 20
5.013831054205141
 30
0.0
 11
8.187880268378917
 21
5.043362747118527
 31
0.0
  0
LINE
  5
FEC
330
1E
100
AcDbEntity
  8
7
100
AcDbLine
 10
8.351288969166319
 20
5.128020266803567
 30
0.0
 11
8.268600229008837
 21
5.043362747118527
 31
0.0
  0
LINE
  5
FFA
330
1E
100
AcDbEntity
  8
7
100
AcDbLine
 10
8.075659835308051
 20
5.226459243181519
 30
0.0
 11
8.26466266995372
 21
5.220552904598842
 31
0.0
  0
LINE
  5
FFB
330
1E
100
AcDbEntity
  8
7
100
AcDbLine
 10
8.412321134520649
 20
5.633996605386244
 30
0.0
 11
8.075659835308051
 21
5.633996605386244
 31
0.0
  0
LINE
  5
FFC
330
1E
100
AcDbEntity
  8
7
100
AcDbLine
 10
8.075659835308051
 20
5.582808337669708
 30
0.0
 11
8.412321134520649
 21
5.582808337669708
 31
0.0
  0
LINE
  5
FFD
330
1E
100
AcDbEntity
  8
7
100
AcDbLine
 10
8.412321134520649
 20
5.633996605386244
 30
0.0
 11
8.412321134520649
 21
5.582808337669708
 31
0.0
  0
LINE
  5
FFE
330
1E
100
AcDbEntity
  8
7
100
AcDbLine
 10
8.55604204003246
 20
5.633996605386244
 30
0.0
 11
8.558010819560021
 21
5.62021514869333
 31
0.0
  0
LINE
  5
1018
330
1E
100
AcDbEntity
  8
7
100
AcDbLine
 10
8.099285189638759
 20
5.582808337669708
 30
0.0
 11
8.099285189638759
 21
5.551307865228762
 31
0.0
  0
LINE
  5
1019
330
1E
100
AcDbEntity
  8
7
100
AcDbLine
 10
8.075659835308051
 20
5.494213258929551
 30
0.0
 11
8.099285189638759
 21
5.551307865228762
 31
0.0
  0
LINE
  5
1029
330
1E
100
AcDbEntity
  8
7
100
AcDbLine
 10
7.916188693575767
 20
5.795436526646085
 30
0.0
 11
7.896500898300176
 21
5.872218928220888
 31
0.0
  0
LINE
  5
102A
330
1E
100
AcDbEntity
  8
7
100
AcDbLine
 10
7.896500898300176
 20
5.872218928220888
 30
0.0
 11
7.876813103024586
 21
5.872218928220888
 31
0.0
  0
LINE
  5
102B
330
1E
100
AcDbEntity
  8
7
100
AcDbLine
 10
7.876813103024586
 20
5.850562353417739
 30
0.0
 11
7.876813103024586
 21
5.793467747118526
 31
0.0
  0
LINE
  5
102C
330
1E
100
AcDbEntity
  8
7
100
AcDbLine
 10
7.876813103024586
 20
5.880094046331125
 30
0.0
 11
7.896500898300176
 21
5.880094046331125
 31
0.0
  0
LINE
  5
102D
330
1E
100
AcDbEntity
  8
7
100
AcDbLine
 10
7.904376016410413
 20
5.874187707748447
 30
0.0
 11
7.924063811686003
 21
5.795436526646085
 31
0.0
  0
LINE
  5
103D
330
1E
100
AcDbEntity
  8
7
100
AcDbLine
 10
7.790186803811987
 20
5.789530188063409
 30
0.0
 11
8.075659835308051
 21
5.801342865228763
 31
0.0
  0
LINE
  5
1051
330
1E
100
AcDbEntity
  8
7
100
AcDbLine
 10
8.079597394363169
 20
5.76393605420514
 30
0.0
 11
8.172130032158445
 21
5.771811172315377
 31
0.0
  0
LINE
  5
1052
330
1E
100
AcDbEntity
  8
7
100
AcDbLine
 10
8.079597394363169
 20
5.759998495150023
 30
0.0
 11
8.079597394363169
 21
5.76393605420514
 31
0.0
  0
LINE
  5
1053
330
1E
100
AcDbEntity
  8
7
100
AcDbLine
 10
8.199692945544272
 20
5.805280424283882
 30
0.0
 11
8.398539677827736
 21
5.653684400661833
 31
0.0
  0
LINE
  5
1059
330
1E
100
AcDbEntity
  8
7
100
AcDbLine
 10
8.197724166016712
 20
5.799374085701204
 30
0.0
 11
8.199692945544272
 21
5.805280424283882
 31
0.0
  0
LINE
  5
105A
330
1E
100
AcDbEntity
  8
7
100
AcDbLine
 10
7.866969205386791
 20
5.793467747118526
 30
0.0
 11
7.868937984914349
 21
5.872218928220888
 31
0.0
  0
LINE
  5
105B
330
1E
100
AcDbEntity
  8
7
100
AcDbLine
 10
7.876813103024586
 20
5.834812117197266
 30
0.0
 11
7.874844323497027
 21
5.793467747118526
 31
0.0
  0
LINE
  5
1066
330
1E
100
AcDbEntity
  8
7
100
AcDbLine
 10
5.102802748693877
 20
5.872218928220888
 30
0.0
 11
5.104771528221437
 21
5.850562353417739
 31
0.0
  0
LINE
  5
1067
330
1E
100
AcDbEntity
  8
7
100
AcDbLine
 10
5.102802748693877
 20
5.872218928220888
 30
0.0
 11
5.104771528221437
 21
5.850562353417739
 31
0.0
  0
LINE
  5
1072
330
1E
100
AcDbEntity
  8
7
100
AcDbLine
 10
4.72085952034742
 20
5.880094046331125
 30
0.0
 11
5.094927630583641
 21
5.880094046331125
 31
0.0
  0
LINE
  5
1073
330
1E
100
AcDbEntity
  8
7
100
AcDbLine
 10
4.72085952034742
 20
5.880094046331125
 30
0.0
 11
5.094927630583641
 21
5.880094046331125
 31
0.0
  0
LINE
  5
1074
330
1E
100
AcDbEntity
  8
7
100
AcDbLine
 10
4.711015622709625
 20
5.850562353417739
 30
0.0
 11
4.712984402237184
 21
5.872218928220888
 31
0.0
  0
LINE
  5
1075
330
1E
100
AcDbEntity
  8
7
100
AcDbLine
 10
4.711015622709625
 20
5.850562353417739
 30
0.0
 11
4.712984402237184
 21
5.872218928220888
 31
0.0
  0
LINE
  5
1080
330
1E
100
AcDbEntity
  8
7
100
AcDbLine
 10
5.122490543969468
 20
5.787561408535849
 30
0.0
 11
5.122490543969468
 21
5.799374085701204
 31
0.0
  0
LINE
  5
1081
330
1E
100
AcDbEntity
  8
7
100
AcDbLine
 10
4.693296606961594
 20
5.799374085701204
 30
0.0
 11
4.693296606961594
 21
5.787561408535849
 31
0.0
  0
LINE
  5
1082
330
1E
100
AcDbEntity
  8
7
100
AcDbLine
 10
3.22064952034742
 20
5.669434636882305
 30
0.0
 11
3.22064952034742
 21
3.84831357389018
 31
0.0
  0
LINE
  5
108A
330
1E
100
AcDbEntity
  8
7
100
AcDbLine
 10
3.100553969166318
 20
3.84831357389018
 30
0.0
 11
3.100553969166318
 21
5.669434636882305
 31
0.0
  0
LINE
  5
10B5
330
1E
100
AcDbEntity
  8
7
100
AcDbLine
 10
5.593028851056082
 20
5.124082707748447
 30
0.0
 11
5.100833969166318
 21
5.124082707748447
 31
0.0
  0
LINE
  5
10B6
330
1E
100
AcDbEntity
  8
7
100
AcDbLine
 10
5.593028851056082
 20
5.05714420381144
 30
0.0
 11
5.593028851056082
 21
5.124082707748447
 31
0.0
  0
LINE
  5
10BF
330
1E
100
AcDbEntity
  8
7
100
AcDbLine
 10
6.293914362867107
 20
4.395634282551597
 30
0.0
 11
6.293914362867107
 21
5.05714420381144
 31
0.0
  0
LINE
  5
10C5
330
1E
100
AcDbEntity
  8
7
100
AcDbLine
 10
5.100833969166318
 20
5.05714420381144
 30
0.0
 11
5.031926685701751
 21
5.05714420381144
 31
0.0
  0
LINE
  5
10C6
330
1E
100
AcDbEntity
  8
7
100
AcDbLine
 10
5.100833969166318
 20
5.124082707748447
 30
0.0
 11
5.100833969166318
 21
5.05714420381144
 31
0.0
  0
LINE
  5
10C7
330
1E
100
AcDbEntity
  8
7
100
AcDbLine
 10
4.081006173890728
 20
5.05714420381144
 30
0.0
 11
4.081006173890728
 21
5.124082707748447
 31
0.0
  0
LINE
  5
10CF
330
1E
100
AcDbEntity
  8
7
100
AcDbLine
 10
4.714953181764744
 20
5.05714420381144
 30
0.0
 11
4.781891685701751
 21
5.05714420381144
 31
0.0
  0
LINE
  5
10D0
330
1E
100
AcDbEntity
  8
7
100
AcDbLine
 10
4.781891685701751
 20
4.395634282551597
 30
0.0
 11
4.781891685701751
 21
5.05714420381144
 31
0.0
  0
LINE
  5
10D6
330
1E
100
AcDbEntity
  8
7
100
AcDbLine
 10
3.588811292000965
 20
5.05714420381144
 30
0.0
 11
3.519904008536397
 21
5.05714420381144
 31
0.0
  0
LINE
  5
10D7
330
1E
100
AcDbEntity
  8
7
100
AcDbLine
 10
3.588811292000965
 20
5.124082707748447
 30
0.0
 11
3.588811292000965
 21
5.05714420381144
 31
0.0
  0
LINE
  5
10D8
330
1E
100
AcDbEntity
  8
7
100
AcDbLine
 10
4.081006173890728
 20
5.124082707748447
 30
0.0
 11
3.588811292000965
 21
5.124082707748447
 31
0.0
  0
LINE
  5
10DE
330
1E
100
AcDbEntity
  8
7
100
AcDbLine
 10
3.22064952034742
 20
3.84831357389018
 30
0.0
 11
6.595137630583641
 21
3.84831357389018
 31
0.0
  0
LINE
  5
10DF
330
1E
100
AcDbEntity
  8
7
100
AcDbLine
 10
4.411761134520649
 20
5.787561408535849
 30
0.0
 11
5.404026016410413
 21
5.787561408535849
 31
0.0
  0
LINE
  5
10E0
330
1E
100
AcDbEntity
  8
7
100
AcDbLine
 10
6.715233181764745
 20
5.669434636882305
 30
0.0
 11
6.715233181764745
 21
3.84831357389018
 31
0.0
  0
LINE
  5
10EF
330
1E
100
AcDbEntity
  8
7
100
AcDbLine
 10
6.729014638457656
 20
5.68321609357522
 30
0.0
 11
6.715233181764745
 21
5.669434636882305
 31
0.0
  0
LINE
  5
10F0
330
1E
100
AcDbEntity
  8
7
100
AcDbLine
 10
6.715233181764745
 20
3.84831357389018
 30
0.0
 11
6.729014638457656
 21
3.836500896724826
 31
0.0
  0
LINE
  5
10F1
330
1E
100
AcDbEntity
  8
7
100
AcDbLine
 10
4.366479205386791
 20
5.013831054205141
 30
0.0
 11
4.366479205386791
 21
5.043362747118527
 31
0.0
  0
LINE
  5
10F2
330
1E
100
AcDbEntity
  8
7
100
AcDbLine
 10
4.366479205386791
 20
5.047300306173646
 30
0.0
 11
4.366479205386791
 21
5.043362747118527
 31
0.0
  0
LINE
  5
10F3
330
1E
100
AcDbEntity
  8
7
100
AcDbLine
 10
4.366479205386791
 20
5.084707117197266
 30
0.0
 11
4.366479205386791
 21
5.047300306173646
 31
0.0
  0
LINE
  5
10F4
330
1E
100
AcDbEntity
  8
7
100
AcDbLine
 10
4.366479205386791
 20
5.084707117197266
 30
0.0
 11
4.366479205386791
 21
5.094551014835063
 31
0.0
  0
LINE
  5
10FA
330
1E
100
AcDbEntity
  8
7
100
AcDbLine
 10
4.366479205386791
 20
5.110301251055535
 30
0.0
 11
4.342853851056082
 21
5.122113928220889
 31
0.0
  0
LINE
  5
10FB
330
1E
100
AcDbEntity
  8
7
100
AcDbLine
 10
4.573201055780493
 20
5.110301251055535
 30
0.0
 11
4.366479205386791
 21
5.110301251055535
 31
0.0
  0
LINE
  5
10FC
330
1E
100
AcDbEntity
  8
7
100
AcDbLine
 10
4.573201055780493
 20
5.110301251055535
 30
0.0
 11
4.596826410111201
 21
5.122113928220889
 31
0.0
  0
LINE
  5
10FD
330
1E
100
AcDbEntity
  8
7
100
AcDbLine
 10
4.714953181764744
 20
5.122113928220889
 30
0.0
 11
4.596826410111201
 21
5.122113928220889
 31
0.0
  0
LINE
  5
10FE
330
1E
100
AcDbEntity
  8
7
100
AcDbLine
 10
4.714953181764744
 20
5.124082707748447
 30
0.0
 11
4.714953181764744
 21
5.122113928220889
 31
0.0
  0
LINE
  5
10FF
330
1E
100
AcDbEntity
  8
7
100
AcDbLine
 10
4.224727079402539
 20
5.122113928220889
 30
0.0
 11
4.22275829987498
 21
5.124082707748447
 31
0.0
  0
LINE
  5
1100
330
1E
100
AcDbEntity
  8
7
100
AcDbLine
 10
4.342853851056082
 20
5.122113928220889
 30
0.0
 11
4.224727079402539
 21
5.122113928220889
 31
0.0
  0
LINE
  5
1106
330
1E
100
AcDbEntity
  8
7
100
AcDbLine
 10
4.571232276252932
 20
5.084707117197266
 30
0.0
 11
4.571232276252932
 21
5.094551014835063
 31
0.0
  0
LINE
  5
1107
330
1E
100
AcDbEntity
  8
7
100
AcDbLine
 10
4.573201055780493
 20
5.047300306173646
 30
0.0
 11
4.571232276252932
 21
5.084707117197266
 31
0.0
  0
LINE
  5
1108
330
1E
100
AcDbEntity
  8
7
100
AcDbLine
 10
4.573201055780493
 20
5.043362747118527
 30
0.0
 11
4.573201055780493
 21
5.047300306173646
 31
0.0
  0
LINE
  5
1109
330
1E
100
AcDbEntity
  8
7
100
AcDbLine
 10
4.573201055780493
 20
5.013831054205141
 30
0.0
 11
4.573201055780493
 21
5.043362747118527
 31
0.0
  0
LINE
  5
110A
330
1E
100
AcDbEntity
  8
7
100
AcDbLine
 10
3.937285268378916
 20
5.110301251055535
 30
0.0
 11
3.960910622709625
 21
5.122113928220889
 31
0.0
  0
LINE
  5
1110
330
1E
100
AcDbEntity
  8
7
100
AcDbLine
 10
3.937285268378916
 20
5.084707117197266
 30
0.0
 11
3.937285268378916
 21
5.094551014835063
 31
0.0
  0
LINE
  5
1116
330
1E
100
AcDbEntity
  8
7
100
AcDbLine
 10
3.937285268378916
 20
5.013831054205141
 30
0.0
 11
3.937285268378916
 21
5.043362747118527
 31
0.0
  0
LINE
  5
1128
330
1E
100
AcDbEntity
  8
7
100
AcDbLine
 10
4.079037394363168
 20
5.122113928220889
 30
0.0
 11
3.960910622709625
 21
5.122113928220889
 31
0.0
  0
LINE
  5
1129
330
1E
100
AcDbEntity
  8
7
100
AcDbLine
 10
4.079037394363168
 20
5.122113928220889
 30
0.0
 11
4.081006173890728
 21
5.124082707748447
 31
0.0
  0
LINE
  5
112A
330
1E
100
AcDbEntity
  8
7
100
AcDbLine
 10
3.588811292000965
 20
5.124082707748447
 30
0.0
 11
3.588811292000965
 21
5.122113928220889
 31
0.0
  0
LINE
  5
112B
330
1E
100
AcDbEntity
  8
7
100
AcDbLine
 10
3.706938063654508
 20
5.122113928220889
 30
0.0
 11
3.588811292000965
 21
5.122113928220889
 31
0.0
  0
LINE
  5
112C
330
1E
100
AcDbEntity
  8
7
100
AcDbLine
 10
3.521872788063956
 20
4.397603062079156
 30
0.0
 11
3.746313654205689
 21
4.397603062079156
 31
0.0
  0
LINE
  5
112D
330
1E
100
AcDbEntity
  8
7
100
AcDbLine
 10
3.746313654205689
 20
4.435009873102778
 30
0.0
 11
3.921535032158444
 21
4.435009873102778
 31
0.0
  0
LINE
  5
112E
330
1E
100
AcDbEntity
  8
7
100
AcDbLine
 10
3.746313654205689
 20
4.397603062079156
 30
0.0
 11
3.746313654205689
 21
4.435009873102778
 31
0.0
  0
LINE
  5
112F
330
1E
100
AcDbEntity
  8
7
100
AcDbLine
 10
3.921535032158444
 20
4.397603062079156
 30
0.0
 11
3.921535032158444
 21
4.435009873102778
 31
0.0
  0
LINE
  5
1130
330
1E
100
AcDbEntity
  8
7
100
AcDbLine
 10
3.521872788063956
 20
4.397603062079156
 30
0.0
 11
3.521872788063956
 21
5.05714420381144
 31
0.0
  0
LINE
  5
1131
330
1E
100
AcDbEntity
  8
7
100
AcDbLine
 10
3.921535032158444
 20
4.397603062079156
 30
0.0
 11
4.382229441607263
 21
4.397603062079156
 31
0.0
  0
LINE
  5
1132
330
1E
100
AcDbEntity
  8
7
100
AcDbLine
 10
4.382229441607263
 20
4.435009873102778
 30
0.0
 11
4.55745081956002
 21
4.435009873102778
 31
0.0
  0
LINE
  5
1133
330
1E
100
AcDbEntity
  8
7
100
AcDbLine
 10
4.382229441607263
 20
4.397603062079156
 30
0.0
 11
4.382229441607263
 21
4.435009873102778
 31
0.0
  0
LINE
  5
1134
330
1E
100
AcDbEntity
  8
7
100
AcDbLine
 10
4.55745081956002
 20
4.397603062079156
 30
0.0
 11
4.55745081956002
 21
4.435009873102778
 31
0.0
  0
LINE
  5
1135
330
1E
100
AcDbEntity
  8
7
100
AcDbLine
 10
4.55745081956002
 20
4.397603062079156
 30
0.0
 11
4.781891685701751
 21
4.397603062079156
 31
0.0
  0
LINE
  5
1136
330
1E
100
AcDbEntity
  8
7
100
AcDbLine
 10
4.781891685701751
 20
5.05714420381144
 30
0.0
 11
4.781891685701751
 21
4.397603062079156
 31
0.0
  0
LINE
  5
1137
330
1E
100
AcDbEntity
  8
7
100
AcDbLine
 10
4.714953181764744
 20
5.05714420381144
 30
0.0
 11
4.781891685701751
 21
5.05714420381144
 31
0.0
  0
LINE
  5
1138
330
1E
100
AcDbEntity
  8
7
100
AcDbLine
 10
4.714953181764744
 20
5.05714420381144
 30
0.0
 11
4.714953181764744
 21
5.122113928220889
 31
0.0
  0
LINE
  5
1139
330
1E
100
AcDbEntity
  8
7
100
AcDbLine
 10
4.224727079402539
 20
5.122113928220889
 30
0.0
 11
4.224727079402539
 21
5.05714420381144
 31
0.0
  0
LINE
  5
113A
330
1E
100
AcDbEntity
  8
7
100
AcDbLine
 10
4.079037394363168
 20
5.05714420381144
 30
0.0
 11
4.224727079402539
 21
5.05714420381144
 31
0.0
  0
LINE
  5
113B
330
1E
100
AcDbEntity
  8
7
100
AcDbLine
 10
4.079037394363168
 20
5.05714420381144
 30
0.0
 11
4.079037394363168
 21
5.122113928220889
 31
0.0
  0
LINE
  5
113C
330
1E
100
AcDbEntity
  8
7
100
AcDbLine
 10
3.588811292000965
 20
5.122113928220889
 30
0.0
 11
3.588811292000965
 21
5.05714420381144
 31
0.0
  0
LINE
  5
113D
330
1E
100
AcDbEntity
  8
7
100
AcDbLine
 10
3.521872788063956
 20
5.05714420381144
 30
0.0
 11
3.588811292000965
 21
5.05714420381144
 31
0.0
  0
LINE
  5
113E
330
1E
100
AcDbEntity
  8
7
100
AcDbLine
 10
3.519904008536397
 20
4.395634282551597
 30
0.0
 11
3.521872788063956
 21
4.397603062079156
 31
0.0
  0
LINE
  5
113F
330
1E
100
AcDbEntity
  8
7
100
AcDbLine
 10
3.521872788063956
 20
5.05714420381144
 30
0.0
 11
3.519904008536397
 21
5.05714420381144
 31
0.0
  0
LINE
  5
1140
330
1E
100
AcDbEntity
  8
7
100
AcDbLine
 10
4.081006173890728
 20
5.05714420381144
 30
0.0
 11
4.079037394363168
 21
5.05714420381144
 31
0.0
  0
LINE
  5
1141
330
1E
100
AcDbEntity
  8
7
100
AcDbLine
 10
4.22275829987498
 20
5.05714420381144
 30
0.0
 11
4.224727079402539
 21
5.05714420381144
 31
0.0
  0
LINE
  5
1142
330
1E
100
AcDbEntity
  8
7
100
AcDbLine
 10
4.382229441607263
 20
4.397603062079156
 30
0.0
 11
4.55745081956002
 21
4.397603062079156
 31
0.0
  0
LINE
  5
1143
330
1E
100
AcDbEntity
  8
7
100
AcDbLine
 10
3.746313654205689
 20
4.397603062079156
 30
0.0
 11
3.921535032158444
 21
4.397603062079156
 31
0.0
  0
LINE
  5
1144
330
1E
100
AcDbEntity
  8
7
100
AcDbLine
 10
4.781891685701751
 20
4.395634282551597
 30
0.0
 11
4.781891685701751
 21
4.397603062079156
 31
0.0
  0
LINE
  5
1145
330
1E
100
AcDbEntity
  8
7
100
AcDbLine
 10
3.937285268378916
 20
5.094551014835063
 30
0.0
 11
3.732532197512775
 21
5.094551014835063
 31
0.0
  0
LINE
  5
1146
330
1E
100
AcDbEntity
  8
7
100
AcDbLine
 10
3.937285268378916
 20
5.084707117197266
 30
0.0
 11
3.732532197512775
 21
5.084707117197266
 31
0.0
  0
LINE
  5
1147
330
1E
100
AcDbEntity
  8
7
100
AcDbLine
 10
3.730563417985217
 20
5.047300306173646
 30
0.0
 11
3.937285268378916
 21
5.047300306173646
 31
0.0
  0
LINE
  5
1148
330
1E
100
AcDbEntity
  8
7
100
AcDbLine
 10
3.937285268378916
 20
5.043362747118527
 30
0.0
 11
3.730563417985217
 21
5.043362747118527
 31
0.0
  0
LINE
  5
1149
330
1E
100
AcDbEntity
  8
7
100
AcDbLine
 10
3.937285268378916
 20
5.013831054205141
 30
0.0
 11
3.730563417985217
 21
5.013831054205141
 31
0.0
  0
LINE
  5
114A
330
1E
100
AcDbEntity
  8
7
100
AcDbLine
 10
4.366479205386791
 20
5.013831054205141
 30
0.0
 11
4.573201055780493
 21
5.013831054205141
 31
0.0
  0
LINE
  5
114B
330
1E
100
AcDbEntity
  8
7
100
AcDbLine
 10
4.366479205386791
 20
5.043362747118527
 30
0.0
 11
4.573201055780493
 21
5.043362747118527
 31
0.0
  0
LINE
  5
114C
330
1E
100
AcDbEntity
  8
7
100
AcDbLine
 10
4.573201055780493
 20
5.047300306173646
 30
0.0
 11
4.366479205386791
 21
5.047300306173646
 31
0.0
  0
LINE
  5
114D
330
1E
100
AcDbEntity
  8
7
100
AcDbLine
 10
4.366479205386791
 20
5.084707117197266
 30
0.0
 11
4.571232276252932
 21
5.084707117197266
 31
0.0
  0
LINE
  5
114E
330
1E
100
AcDbEntity
  8
7
100
AcDbLine
 10
4.366479205386791
 20
5.094551014835063
 30
0.0
 11
4.571232276252932
 21
5.094551014835063
 31
0.0
  0
LINE
  5
1158
330
1E
100
AcDbEntity
  8
7
100
AcDbLine
 10
5.218960740819861
 20
5.122113928220889
 30
0.0
 11
5.24258609515057
 21
5.110301251055535
 31
0.0
  0
LINE
  5
115F
330
1E
100
AcDbEntity
  8
7
100
AcDbLine
 10
5.449307945544272
 20
5.084707117197266
 30
0.0
 11
5.449307945544272
 21
5.094551014835063
 31
0.0
  0
LINE
  5
1165
330
1E
100
AcDbEntity
  8
7
100
AcDbLine
 10
5.449307945544272
 20
5.013831054205141
 30
0.0
 11
5.449307945544272
 21
5.043362747118527
 31
0.0
  0
LINE
  5
1166
330
1E
100
AcDbEntity
  8
7
100
AcDbLine
 10
5.24258609515057
 20
5.110301251055535
 30
0.0
 11
5.449307945544272
 21
5.110301251055535
 31
0.0
  0
LINE
  5
1167
330
1E
100
AcDbEntity
  8
7
100
AcDbLine
 10
5.591060071528524
 20
5.122113928220889
 30
0.0
 11
5.472933299874981
 21
5.122113928220889
 31
0.0
  0
LINE
  5
1168
330
1E
100
AcDbEntity
  8
7
100
AcDbLine
 10
5.591060071528524
 20
5.122113928220889
 30
0.0
 11
5.593028851056082
 21
5.124082707748447
 31
0.0
  0
LINE
  5
1169
330
1E
100
AcDbEntity
  8
7
100
AcDbLine
 10
5.100833969166318
 20
5.124082707748447
 30
0.0
 11
5.100833969166318
 21
5.122113928220889
 31
0.0
  0
LINE
  5
116A
330
1E
100
AcDbEntity
  8
7
100
AcDbLine
 10
5.218960740819861
 20
5.122113928220889
 30
0.0
 11
5.100833969166318
 21
5.122113928220889
 31
0.0
  0
LINE
  5
116B
330
1E
100
AcDbEntity
  8
7
100
AcDbLine
 10
5.878501882552146
 20
5.013831054205141
 30
0.0
 11
5.878501882552146
 21
5.043362747118527
 31
0.0
  0
LINE
  5
116C
330
1E
100
AcDbEntity
  8
7
100
AcDbLine
 10
5.878501882552146
 20
5.047300306173646
 30
0.0
 11
5.878501882552146
 21
5.043362747118527
 31
0.0
  0
LINE
  5
116D
330
1E
100
AcDbEntity
  8
7
100
AcDbLine
 10
5.878501882552146
 20
5.084707117197266
 30
0.0
 11
5.878501882552146
 21
5.047300306173646
 31
0.0
  0
LINE
  5
116E
330
1E
100
AcDbEntity
  8
7
100
AcDbLine
 10
5.878501882552146
 20
5.084707117197266
 30
0.0
 11
5.878501882552146
 21
5.094551014835063
 31
0.0
  0
LINE
  5
1174
330
1E
100
AcDbEntity
  8
7
100
AcDbLine
 10
5.854876528221438
 20
5.122113928220889
 30
0.0
 11
5.878501882552146
 21
5.110301251055535
 31
0.0
  0
LINE
  5
1175
330
1E
100
AcDbEntity
  8
7
100
AcDbLine
 10
6.085223732945846
 20
5.110301251055535
 30
0.0
 11
6.108849087276555
 21
5.122113928220889
 31
0.0
  0
LINE
  5
117B
330
1E
100
AcDbEntity
  8
7
100
AcDbLine
 10
6.083254953418287
 20
5.084707117197266
 30
0.0
 11
6.083254953418287
 21
5.094551014835063
 31
0.0
  0
LINE
  5
117C
330
1E
100
AcDbEntity
  8
7
100
AcDbLine
 10
6.085223732945846
 20
5.047300306173646
 30
0.0
 11
6.083254953418287
 21
5.084707117197266
 31
0.0
  0
LINE
  5
117D
330
1E
100
AcDbEntity
  8
7
100
AcDbLine
 10
6.085223732945846
 20
5.043362747118527
 30
0.0
 11
6.085223732945846
 21
5.047300306173646
 31
0.0
  0
LINE
  5
117E
330
1E
100
AcDbEntity
  8
7
100
AcDbLine
 10
6.085223732945846
 20
5.013831054205141
 30
0.0
 11
6.085223732945846
 21
5.043362747118527
 31
0.0
  0
LINE
  5
117F
330
1E
100
AcDbEntity
  8
7
100
AcDbLine
 10
6.085223732945846
 20
5.110301251055535
 30
0.0
 11
5.878501882552146
 21
5.110301251055535
 31
0.0
  0
LINE
  5
1180
330
1E
100
AcDbEntity
  8
7
100
AcDbLine
 10
6.226975858930098
 20
5.122113928220889
 30
0.0
 11
6.108849087276555
 21
5.122113928220889
 31
0.0
  0
LINE
  5
1181
330
1E
100
AcDbEntity
  8
7
100
AcDbLine
 10
6.226975858930098
 20
5.124082707748447
 30
0.0
 11
6.226975858930098
 21
5.122113928220889
 31
0.0
  0
LINE
  5
1182
330
1E
100
AcDbEntity
  8
7
100
AcDbLine
 10
5.736749756567892
 20
5.122113928220889
 30
0.0
 11
5.734780977040334
 21
5.124082707748447
 31
0.0
  0
LINE
  5
1183
330
1E
100
AcDbEntity
  8
7
100
AcDbLine
 10
5.854876528221438
 20
5.122113928220889
 30
0.0
 11
5.736749756567892
 21
5.122113928220889
 31
0.0
  0
LINE
  5
1189
330
1E
100
AcDbEntity
  8
7
100
AcDbLine
 10
6.226975858930098
 20
5.05714420381144
 30
0.0
 11
6.226975858930098
 21
5.122113928220889
 31
0.0
  0
LINE
  5
118A
330
1E
100
AcDbEntity
  8
7
100
AcDbLine
 10
5.736749756567892
 20
5.122113928220889
 30
0.0
 11
5.736749756567892
 21
5.05714420381144
 31
0.0
  0
LINE
  5
118B
330
1E
100
AcDbEntity
  8
7
100
AcDbLine
 10
5.591060071528524
 20
5.05714420381144
 30
0.0
 11
5.736749756567892
 21
5.05714420381144
 31
0.0
  0
LINE
  5
118C
330
1E
100
AcDbEntity
  8
7
100
AcDbLine
 10
5.591060071528524
 20
5.05714420381144
 30
0.0
 11
5.591060071528524
 21
5.122113928220889
 31
0.0
  0
LINE
  5
118D
330
1E
100
AcDbEntity
  8
7
100
AcDbLine
 10
5.100833969166318
 20
5.122113928220889
 30
0.0
 11
5.100833969166318
 21
5.05714420381144
 31
0.0
  0
LINE
  5
118E
330
1E
100
AcDbEntity
  8
7
100
AcDbLine
 10
5.033895465229312
 20
5.05714420381144
 30
0.0
 11
5.100833969166318
 21
5.05714420381144
 31
0.0
  0
LINE
  5
118F
330
1E
100
AcDbEntity
  8
7
100
AcDbLine
 10
5.033895465229312
 20
4.397603062079156
 30
0.0
 11
5.033895465229312
 21
5.05714420381144
 31
0.0
  0
LINE
  5
1190
330
1E
100
AcDbEntity
  8
7
100
AcDbLine
 10
5.033895465229312
 20
4.397603062079156
 30
0.0
 11
5.258336331371042
 21
4.397603062079156
 31
0.0
  0
LINE
  5
1191
330
1E
100
AcDbEntity
  8
7
100
AcDbLine
 10
5.258336331371042
 20
4.435009873102778
 30
0.0
 11
5.4335577093238
 21
4.435009873102778
 31
0.0
  0
LINE
  5
1192
330
1E
100
AcDbEntity
  8
7
100
AcDbLine
 10
5.258336331371042
 20
4.397603062079156
 30
0.0
 11
5.258336331371042
 21
4.435009873102778
 31
0.0
  0
LINE
  5
1193
330
1E
100
AcDbEntity
  8
7
100
AcDbLine
 10
5.4335577093238
 20
4.397603062079156
 30
0.0
 11
5.4335577093238
 21
4.435009873102778
 31
0.0
  0
LINE
  5
1194
330
1E
100
AcDbEntity
  8
7
100
AcDbLine
 10
5.4335577093238
 20
4.397603062079156
 30
0.0
 11
5.894252118772619
 21
4.397603062079156
 31
0.0
  0
LINE
  5
1195
330
1E
100
AcDbEntity
  8
7
100
AcDbLine
 10
5.894252118772619
 20
4.435009873102778
 30
0.0
 11
6.069473496725374
 21
4.435009873102778
 31
0.0
  0
LINE
  5
1196
330
1E
100
AcDbEntity
  8
7
100
AcDbLine
 10
5.894252118772619
 20
4.397603062079156
 30
0.0
 11
5.894252118772619
 21
4.435009873102778
 31
0.0
  0
LINE
  5
1197
330
1E
100
AcDbEntity
  8
7
100
AcDbLine
 10
6.069473496725374
 20
4.397603062079156
 30
0.0
 11
6.069473496725374
 21
4.435009873102778
 31
0.0
  0
LINE
  5
1198
330
1E
100
AcDbEntity
  8
7
100
AcDbLine
 10
6.069473496725374
 20
4.397603062079156
 30
0.0
 11
6.293914362867107
 21
4.397603062079156
 31
0.0
  0
LINE
  5
1199
330
1E
100
AcDbEntity
  8
7
100
AcDbLine
 10
5.593028851056082
 20
5.05714420381144
 30
0.0
 11
5.591060071528524
 21
5.05714420381144
 31
0.0
  0
LINE
  5
119A
330
1E
100
AcDbEntity
  8
7
100
AcDbLine
 10
5.734780977040334
 20
5.05714420381144
 30
0.0
 11
5.736749756567892
 21
5.05714420381144
 31
0.0
  0
LINE
  5
119B
330
1E
100
AcDbEntity
  8
7
100
AcDbLine
 10
6.293914362867107
 20
4.395634282551597
 30
0.0
 11
6.293914362867107
 21
4.397603062079156
 31
0.0
  0
LINE
  5
119C
330
1E
100
AcDbEntity
  8
7
100
AcDbLine
 10
5.258336331371042
 20
4.397603062079156
 30
0.0
 11
5.4335577093238
 21
4.397603062079156
 31
0.0
  0
LINE
  5
119D
330
1E
100
AcDbEntity
  8
7
100
AcDbLine
 10
5.894252118772619
 20
4.397603062079156
 30
0.0
 11
6.069473496725374
 21
4.397603062079156
 31
0.0
  0
LINE
  5
119E
330
1E
100
AcDbEntity
  8
7
100
AcDbLine
 10
5.031926685701751
 20
4.395634282551597
 30
0.0
 11
5.033895465229312
 21
4.397603062079156
 31
0.0
  0
LINE
  5
119F
330
1E
100
AcDbEntity
  8
7
100
AcDbLine
 10
5.033895465229312
 20
5.05714420381144
 30
0.0
 11
5.031926685701751
 21
5.05714420381144
 31
0.0
  0
LINE
  5
11A0
330
1E
100
AcDbEntity
  8
7
100
AcDbLine
 10
5.878501882552146
 20
5.094551014835063
 30
0.0
 11
6.083254953418287
 21
5.094551014835063
 31
0.0
  0
LINE
  5
11A1
330
1E
100
AcDbEntity
  8
7
100
AcDbLine
 10
5.878501882552146
 20
5.084707117197266
 30
0.0
 11
6.083254953418287
 21
5.084707117197266
 31
0.0
  0
LINE
  5
11A2
330
1E
100
AcDbEntity
  8
7
100
AcDbLine
 10
6.085223732945846
 20
5.047300306173646
 30
0.0
 11
5.878501882552146
 21
5.047300306173646
 31
0.0
  0
LINE
  5
11A3
330
1E
100
AcDbEntity
  8
7
100
AcDbLine
 10
5.878501882552146
 20
5.043362747118527
 30
0.0
 11
6.085223732945846
 21
5.043362747118527
 31
0.0
  0
LINE
  5
11A4
330
1E
100
AcDbEntity
  8
7
100
AcDbLine
 10
5.878501882552146
 20
5.013831054205141
 30
0.0
 11
6.085223732945846
 21
5.013831054205141
 31
0.0
  0
LINE
  5
11A5
330
1E
100
AcDbEntity
  8
7
100
AcDbLine
 10
5.449307945544272
 20
5.094551014835063
 30
0.0
 11
5.244554874678128
 21
5.094551014835063
 31
0.0
  0
LINE
  5
11A6
330
1E
100
AcDbEntity
  8
7
100
AcDbLine
 10
5.449307945544272
 20
5.084707117197266
 30
0.0
 11
5.244554874678128
 21
5.084707117197266
 31
0.0
  0
LINE
  5
11A7
330
1E
100
AcDbEntity
  8
7
100
AcDbLine
 10
5.24258609515057
 20
5.047300306173646
 30
0.0
 11
5.449307945544272
 21
5.047300306173646
 31
0.0
  0
LINE
  5
11A8
330
1E
100
AcDbEntity
  8
7
100
AcDbLine
 10
5.449307945544272
 20
5.043362747118527
 30
0.0
 11
5.24258609515057
 21
5.043362747118527
 31
0.0
  0
LINE
  5
11A9
330
1E
100
AcDbEntity
  8
7
100
AcDbLine
 10
5.449307945544272
 20
5.013831054205141
 30
0.0
 11
5.24258609515057
 21
5.013831054205141
 31
0.0
  0
LINE
  5
11AA
330
1E
100
AcDbEntity
  8
7
100
AcDbLine
 10
3.22064952034742
 20
3.730186802236637
 30
0.0
 11
3.206868063654508
 21
3.716405345543723
 31
0.0
  0
LINE
  5
11B1
330
1E
100
AcDbEntity
  8
7
100
AcDbLine
 10
3.173398811686003
 20
3.738061920346873
 30
0.0
 11
3.22064952034742
 21
3.730186802236637
 31
0.0
  0
LINE
  5
11B9
330
1E
100
AcDbEntity
  8
7
100
AcDbLine
 10
6.595137630583641
 20
3.730186802236637
 30
0.0
 11
3.22064952034742
 21
3.730186802236637
 31
0.0
  0
LINE
  5
11C9
330
1E
100
AcDbEntity
  8
7
100
AcDbLine
 10
5.104771528221437
 20
5.850562353417739
 30
0.0
 11
5.110677866804113
 21
5.787561408535849
 31
0.0
  0
LINE
  5
11CA
330
1E
100
AcDbEntity
  8
7
100
AcDbLine
 10
4.705109284126947
 20
5.787561408535849
 30
0.0
 11
4.711015622709625
 21
5.850562353417739
 31
0.0
  0
LINE
  5
11DE
330
1E
100
AcDbEntity
  8
7
100
AcDbLine
 10
3.206868063654508
 20
5.801342865228763
 30
0.0
 11
3.22064952034742
 21
5.789530188063409
 31
0.0
  0
LINE
  5
11E4
330
1E
100
AcDbEntity
  8
7
100
AcDbLine
 10
5.404026016410413
 20
5.789530188063409
 30
0.0
 11
5.404026016410413
 21
5.801342865228763
 31
0.0
  0
LINE
  5
11E5
330
1E
100
AcDbEntity
  8
7
100
AcDbLine
 10
5.404026016410413
 20
5.787561408535849
 30
0.0
 11
5.404026016410413
 21
5.789530188063409
 31
0.0
  0
LINE
  5
11ED
330
1E
100
AcDbEntity
  8
7
100
AcDbLine
 10
4.411761134520649
 20
5.787561408535849
 30
0.0
 11
4.411761134520649
 21
5.789530188063409
 31
0.0
  0
LINE
  5
11EE
330
1E
100
AcDbEntity
  8
7
100
AcDbLine
 10
6.715233181764745
 20
5.669434636882305
 30
0.0
 11
6.707358063654508
 21
5.714716566016164
 31
0.0
  0
LINE
  5
11F5
330
1E
100
AcDbEntity
  8
7
100
AcDbLine
 10
5.108709087276555
 20
5.805280424283882
 30
0.0
 11
5.118552984914349
 21
5.805280424283882
 31
0.0
  0
LINE
  5
11F6
330
1E
100
AcDbEntity
  8
7
100
AcDbLine
 10
5.122490543969468
 20
5.799374085701204
 30
0.0
 11
5.118552984914349
 21
5.805280424283882
 31
0.0
  0
LINE
  5
11FC
330
1E
100
AcDbEntity
  8
7
100
AcDbLine
 10
4.709046843182067
 20
5.834812117197266
 30
0.0
 11
4.712984402237184
 21
5.872218928220888
 31
0.0
  0
LINE
  5
1202
330
1E
100
AcDbEntity
  8
7
100
AcDbLine
 10
4.72085952034742
 20
5.880094046331125
 30
0.0
 11
5.094927630583641
 21
5.880094046331125
 31
0.0
  0
LINE
  5
1208
330
1E
100
AcDbEntity
  8
7
100
AcDbLine
 10
5.100833969166318
 20
5.872218928220888
 30
0.0
 11
5.106740307748996
 21
5.834812117197266
 31
0.0
  0
LINE
  5
1209
330
1E
100
AcDbEntity
  8
7
100
AcDbLine
 10
5.094927630583641
 20
5.872218928220888
 30
0.0
 11
4.72085952034742
 21
5.872218928220888
 31
0.0
  0
LINE
  5
120A
330
1E
100
AcDbEntity
  8
7
100
AcDbLine
 10
4.72085952034742
 20
5.872218928220888
 30
0.0
 11
4.712984402237184
 21
5.787561408535849
 31
0.0
  0
LINE
  5
120B
330
1E
100
AcDbEntity
  8
7
100
AcDbLine
 10
5.102802748693877
 20
5.787561408535849
 30
0.0
 11
5.094927630583641
 21
5.872218928220888
 31
0.0
  0
LINE
  5
120C
330
1E
100
AcDbEntity
  8
7
100
AcDbLine
 10
5.106740307748996
 20
5.834812117197266
 30
0.0
 11
5.110677866804113
 21
5.787561408535849
 31
0.0
  0
LINE
  5
120D
330
1E
100
AcDbEntity
  8
7
100
AcDbLine
 10
4.705109284126947
 20
5.787561408535849
 30
0.0
 11
4.709046843182067
 21
5.834812117197266
 31
0.0
  0
LINE
  5
3082
330
1E
100
AcDbEntity
  8
7
100
AcDbLine
 10
4.72085952034742
 20
5.872218928220888
 30
0.0
 11
4.716921961292303
 21
5.872218928220888
 31
0.0
  0
LINE
  5
3083
330
1E
100
AcDbEntity
  8
7
100
AcDbLine
 10
4.716921961292303
 20
5.872218928220888
 30
0.0
 11
4.712984402237184
 21
5.872218928220888
 31
0.0
  0
LINE
  5
3084
330
1E
100
AcDbEntity
  8
7
100
AcDbLine
 10
4.72085952034742
 20
5.872218928220888
 30
0.0
 11
4.72085952034742
 21
5.876156487276007
 31
0.0
  0
LINE
  5
3085
330
1E
100
AcDbEntity
  8
7
100
AcDbLine
 10
4.72085952034742
 20
5.876156487276007
 30
0.0
 11
4.72085952034742
 21
5.880094046331125
 31
0.0
  0
LINE
  5
3086
330
1E
100
AcDbEntity
  8
7
100
AcDbLine
 10
5.094927630583641
 20
5.872218928220888
 30
0.0
 11
5.094927630583641
 21
5.876156487276007
 31
0.0
  0
LINE
  5
3087
330
1E
100
AcDbEntity
  8
7
100
AcDbLine
 10
5.094927630583641
 20
5.876156487276007
 30
0.0
 11
5.094927630583641
 21
5.880094046331125
 31
0.0
  0
LINE
  5
3088
330
1E
100
AcDbEntity
  8
7
100
AcDbLine
 10
5.094927630583641
 20
5.872218928220888
 30
0.0
 11
5.098865189638759
 21
5.872218928220888
 31
0.0
  0
LINE
  5
3089
330
1E
100
AcDbEntity
  8
7
100
AcDbLine
 10
5.098865189638759
 20
5.872218928220888
 30
0.0
 11
5.100833969166318
 21
5.872218928220888
 31
0.0
  0
LINE
  5
308A
330
1E
100
AcDbEntity
  8
7
100
AcDbLine
 10
5.102802748693877
 20
5.872218928220888
 30
0.0
 11
5.100833969166318
 21
5.878125266803566
 31
0.0
  0
LINE
  5
308B
330
1E
100
AcDbEntity
  8
7
100
AcDbLine
 10
5.100833969166318
 20
5.878125266803566
 30
0.0
 11
5.094927630583641
 21
5.880094046331125
 31
0.0
  0
LINE
  5
308C
330
1E
100
AcDbEntity
  8
7
100
AcDbLine
 10
4.72085952034742
 20
5.880094046331125
 30
0.0
 11
4.714953181764744
 21
5.878125266803566
 31
0.0
  0
LINE
  5
308D
330
1E
100
AcDbEntity
  8
7
100
AcDbLine
 10
4.714953181764744
 20
5.878125266803566
 30
0.0
 11
4.712984402237184
 21
5.872218928220888
 31
0.0
  0
LINE
  5
308E
330
1E
100
AcDbEntity
  8
7
100
AcDbLine
 10
4.705109284126947
 20
5.805280424283882
 30
0.0
 11
4.697234166016711
 21
5.805280424283882
 31
0.0
  0
LINE
  5
308F
330
1E
100
AcDbEntity
  8
7
100
AcDbLine
 10
4.697234166016711
 20
5.805280424283882
 30
0.0
 11
4.693296606961594
 21
5.799374085701204
 31
0.0
  0
LINE
  5
3090
330
1E
100
AcDbEntity
  8
7
100
AcDbLine
 10
6.707358063654508
 20
5.714716566016164
 30
0.0
 11
6.679795150268681
 21
5.754092156567345
 31
0.0
  0
LINE
  5
3091
330
1E
100
AcDbEntity
  8
7
100
AcDbLine
 10
6.679795150268681
 20
5.754092156567345
 30
0.0
 11
6.642388339245058
 21
5.779686290425613
 31
0.0
  0
LINE
  5
3092
330
1E
100
AcDbEntity
  8
7
100
AcDbLine
 10
6.642388339245058
 20
5.779686290425613
 30
0.0
 11
6.595137630583641
 21
5.789530188063409
 31
0.0
  0
LINE
  5
3093
330
1E
100
AcDbEntity
  8
7
100
AcDbLine
 10
6.595137630583641
 20
5.669434636882305
 30
0.0
 11
6.595137630583641
 21
5.714716566016164
 31
0.0
  0
LINE
  5
3094
330
1E
100
AcDbEntity
  8
7
100
AcDbLine
 10
6.595137630583641
 20
5.714716566016164
 30
0.0
 11
6.595137630583641
 21
5.752123377039787
 31
0.0
  0
LINE
  5
3095
330
1E
100
AcDbEntity
  8
7
100
AcDbLine
 10
6.595137630583641
 20
5.752123377039787
 30
0.0
 11
6.595137630583641
 21
5.779686290425613
 31
0.0
  0
LINE
  5
3096
330
1E
100
AcDbEntity
  8
7
100
AcDbLine
 10
6.595137630583641
 20
5.779686290425613
 30
0.0
 11
6.595137630583641
 21
5.789530188063409
 31
0.0
  0
LINE
  5
3097
330
1E
100
AcDbEntity
  8
7
100
AcDbLine
 10
5.404026016410413
 20
5.789530188063409
 30
0.0
 11
6.595137630583641
 21
5.789530188063409
 31
0.0
  0
LINE
  5
3098
330
1E
100
AcDbEntity
  8
7
100
AcDbLine
 10
6.595137630583641
 20
5.789530188063409
 30
0.0
 11
6.608919087276555
 21
5.801342865228763
 31
0.0
  0
LINE
  5
3099
330
1E
100
AcDbEntity
  8
7
100
AcDbLine
 10
3.100553969166318
 20
5.669434636882305
 30
0.0
 11
3.108429087276554
 21
5.714716566016164
 31
0.0
  0
LINE
  5
309A
330
1E
100
AcDbEntity
  8
7
100
AcDbLine
 10
3.108429087276554
 20
5.714716566016164
 30
0.0
 11
3.135992000662382
 21
5.754092156567345
 31
0.0
  0
LINE
  5
309B
330
1E
100
AcDbEntity
  8
7
100
AcDbLine
 10
3.135992000662382
 20
5.754092156567345
 30
0.0
 11
3.173398811686003
 21
5.779686290425613
 31
0.0
  0
LINE
  5
309C
330
1E
100
AcDbEntity
  8
7
100
AcDbLine
 10
3.173398811686003
 20
5.779686290425613
 30
0.0
 11
3.22064952034742
 21
5.789530188063409
 31
0.0
  0
LINE
  5
309D
330
1E
100
AcDbEntity
  8
7
100
AcDbLine
 10
3.22064952034742
 20
5.789530188063409
 30
0.0
 11
4.411761134520649
 21
5.789530188063409
 31
0.0
  0
LINE
  5
309E
330
1E
100
AcDbEntity
  8
7
100
AcDbLine
 10
4.411761134520649
 20
5.789530188063409
 30
0.0
 11
4.411761134520649
 21
5.801342865228763
 31
0.0
  0
LINE
  5
309F
330
1E
100
AcDbEntity
  8
7
100
AcDbLine
 10
3.22064952034742
 20
5.752123377039787
 30
0.0
 11
3.22064952034742
 21
5.714716566016164
 31
0.0
  0
LINE
  5
30A0
330
1E
100
AcDbEntity
  8
7
100
AcDbLine
 10
3.22064952034742
 20
5.714716566016164
 30
0.0
 11
3.22064952034742
 21
5.669434636882305
 31
0.0
  0
LINE
  5
30A1
330
1E
100
AcDbEntity
  8
7
100
AcDbLine
 10
3.22064952034742
 20
5.789530188063409
 30
0.0
 11
3.22064952034742
 21
5.779686290425613
 31
0.0
  0
LINE
  5
30A2
330
1E
100
AcDbEntity
  8
7
100
AcDbLine
 10
3.22064952034742
 20
5.779686290425613
 30
0.0
 11
3.22064952034742
 21
5.752123377039787
 31
0.0
  0
LINE
  5
30A3
330
1E
100
AcDbEntity
  8
7
100
AcDbLine
 10
6.608919087276555
 20
3.716405345543723
 30
0.0
 11
6.595137630583641
 21
3.730186802236637
 31
0.0
  0
LINE
  5
30A4
330
1E
100
AcDbEntity
  8
7
100
AcDbLine
 10
6.595137630583641
 20
3.730186802236637
 30
0.0
 11
6.642388339245058
 21
3.738061920346873
 31
0.0
  0
LINE
  5
30A5
330
1E
100
AcDbEntity
  8
7
100
AcDbLine
 10
6.642388339245058
 20
3.738061920346873
 30
0.0
 11
6.679795150268681
 21
3.76365605420514
 31
0.0
  0
LINE
  5
30A6
330
1E
100
AcDbEntity
  8
7
100
AcDbLine
 10
6.679795150268681
 20
3.76365605420514
 30
0.0
 11
6.707358063654508
 21
3.803031644756321
 31
0.0
  0
LINE
  5
30A7
330
1E
100
AcDbEntity
  8
7
100
AcDbLine
 10
6.707358063654508
 20
3.803031644756321
 30
0.0
 11
6.715233181764745
 21
3.84831357389018
 31
0.0
  0
LINE
  5
30A8
330
1E
100
AcDbEntity
  8
7
100
AcDbLine
 10
6.595137630583641
 20
3.84831357389018
 30
0.0
 11
6.595137630583641
 21
3.805000424283882
 31
0.0
  0
LINE
  5
30A9
330
1E
100
AcDbEntity
  8
7
100
AcDbLine
 10
6.595137630583641
 20
3.805000424283882
 30
0.0
 11
6.595137630583641
 21
3.7656248337327
 31
0.0
  0
LINE
  5
30AA
330
1E
100
AcDbEntity
  8
7
100
AcDbLine
 10
6.595137630583641
 20
3.7656248337327
 30
0.0
 11
6.595137630583641
 21
3.740030699874432
 31
0.0
  0
LINE
  5
30AB
330
1E
100
AcDbEntity
  8
7
100
AcDbLine
 10
6.595137630583641
 20
3.740030699874432
 30
0.0
 11
6.595137630583641
 21
3.730186802236637
 31
0.0
  0
LINE
  5
30AC
330
1E
100
AcDbEntity
  8
7
100
AcDbLine
 10
3.22064952034742
 20
3.84831357389018
 30
0.0
 11
3.22064952034742
 21
3.805000424283882
 31
0.0
  0
LINE
  5
30AD
330
1E
100
AcDbEntity
  8
7
100
AcDbLine
 10
3.22064952034742
 20
3.805000424283882
 30
0.0
 11
3.22064952034742
 21
3.7656248337327
 31
0.0
  0
LINE
  5
30AE
330
1E
100
AcDbEntity
  8
7
100
AcDbLine
 10
3.22064952034742
 20
3.7656248337327
 30
0.0
 11
3.22064952034742
 21
3.740030699874432
 31
0.0
  0
LINE
  5
30AF
330
1E
100
AcDbEntity
  8
7
100
AcDbLine
 10
3.22064952034742
 20
3.740030699874432
 30
0.0
 11
3.22064952034742
 21
3.730186802236637
 31
0.0
  0
LINE
  5
30B0
330
1E
100
AcDbEntity
  8
7
100
AcDbLine
 10
3.100553969166318
 20
3.84831357389018
 30
0.0
 11
3.108429087276554
 21
3.803031644756321
 31
0.0
  0
LINE
  5
30B1
330
1E
100
AcDbEntity
  8
7
100
AcDbLine
 10
3.108429087276554
 20
3.803031644756321
 30
0.0
 11
3.135992000662382
 21
3.76365605420514
 31
0.0
  0
LINE
  5
30B2
330
1E
100
AcDbEntity
  8
7
100
AcDbLine
 10
3.135992000662382
 20
3.76365605420514
 30
0.0
 11
3.173398811686003
 21
3.738061920346873
 31
0.0
  0
LINE
  5
30B3
330
1E
100
AcDbEntity
  8
7
100
AcDbLine
 10
6.226975858930098
 20
5.05714420381144
 30
0.0
 11
6.293914362867107
 21
5.05714420381144
 31
0.0
  0
LINE
  5
30B4
330
1E
100
AcDbEntity
  8
7
100
AcDbLine
 10
6.293914362867107
 20
5.05714420381144
 30
0.0
 11
6.293914362867107
 21
4.397603062079156
 31
0.0
  0
LINE
  5
30B5
330
1E
100
AcDbEntity
  8
7
100
AcDbLine
 10
6.083254953418287
 20
5.094551014835063
 30
0.0
 11
6.083254953418287
 21
5.106363692000416
 31
0.0
  0
LINE
  5
30B6
330
1E
100
AcDbEntity
  8
7
100
AcDbLine
 10
6.083254953418287
 20
5.106363692000416
 30
0.0
 11
6.085223732945846
 21
5.110301251055535
 31
0.0
  0
LINE
  5
30B7
330
1E
100
AcDbEntity
  8
7
100
AcDbLine
 10
5.878501882552146
 20
5.110301251055535
 30
0.0
 11
5.878501882552146
 21
5.106363692000416
 31
0.0
  0
LINE
  5
30B8
330
1E
100
AcDbEntity
  8
7
100
AcDbLine
 10
5.878501882552146
 20
5.106363692000416
 30
0.0
 11
5.878501882552146
 21
5.094551014835063
 31
0.0
  0
LINE
  5
30B9
330
1E
100
AcDbEntity
  8
7
100
AcDbLine
 10
5.449307945544272
 20
5.084707117197266
 30
0.0
 11
5.449307945544272
 21
5.047300306173646
 31
0.0
  0
LINE
  5
30BA
330
1E
100
AcDbEntity
  8
7
100
AcDbLine
 10
5.449307945544272
 20
5.047300306173646
 30
0.0
 11
5.449307945544272
 21
5.043362747118527
 31
0.0
  0
LINE
  5
30BB
330
1E
100
AcDbEntity
  8
7
100
AcDbLine
 10
5.472933299874981
 20
5.122113928220889
 30
0.0
 11
5.449307945544272
 21
5.110301251055535
 31
0.0
  0
LINE
  5
30BC
330
1E
100
AcDbEntity
  8
7
100
AcDbLine
 10
5.449307945544272
 20
5.110301251055535
 30
0.0
 11
5.449307945544272
 21
5.106363692000416
 31
0.0
  0
LINE
  5
30BD
330
1E
100
AcDbEntity
  8
7
100
AcDbLine
 10
5.449307945544272
 20
5.106363692000416
 30
0.0
 11
5.449307945544272
 21
5.094551014835063
 31
0.0
  0
LINE
  5
30BE
330
1E
100
AcDbEntity
  8
7
100
AcDbLine
 10
5.24258609515057
 20
5.013831054205141
 30
0.0
 11
5.24258609515057
 21
5.043362747118527
 31
0.0
  0
LINE
  5
30BF
330
1E
100
AcDbEntity
  8
7
100
AcDbLine
 10
5.24258609515057
 20
5.043362747118527
 30
0.0
 11
5.24258609515057
 21
5.047300306173646
 31
0.0
  0
LINE
  5
30C0
330
1E
100
AcDbEntity
  8
7
100
AcDbLine
 10
5.24258609515057
 20
5.047300306173646
 30
0.0
 11
5.244554874678128
 21
5.084707117197266
 31
0.0
  0
LINE
  5
30C1
330
1E
100
AcDbEntity
  8
7
100
AcDbLine
 10
5.244554874678128
 20
5.084707117197266
 30
0.0
 11
5.244554874678128
 21
5.094551014835063
 31
0.0
  0
LINE
  5
30C2
330
1E
100
AcDbEntity
  8
7
100
AcDbLine
 10
5.244554874678128
 20
5.094551014835063
 30
0.0
 11
5.244554874678128
 21
5.106363692000416
 31
0.0
  0
LINE
  5
30C3
330
1E
100
AcDbEntity
  8
7
100
AcDbLine
 10
5.244554874678128
 20
5.106363692000416
 30
0.0
 11
5.24258609515057
 21
5.110301251055535
 31
0.0
  0
LINE
  5
30C4
330
1E
100
AcDbEntity
  8
7
100
AcDbLine
 10
3.706938063654508
 20
5.122113928220889
 30
0.0
 11
3.730563417985217
 21
5.110301251055535
 31
0.0
  0
LINE
  5
30C5
330
1E
100
AcDbEntity
  8
7
100
AcDbLine
 10
3.730563417985217
 20
5.110301251055535
 30
0.0
 11
3.937285268378916
 21
5.110301251055535
 31
0.0
  0
LINE
  5
30C6
330
1E
100
AcDbEntity
  8
7
100
AcDbLine
 10
3.732532197512775
 20
5.094551014835063
 30
0.0
 11
3.732532197512775
 21
5.106363692000416
 31
0.0
  0
LINE
  5
30C7
330
1E
100
AcDbEntity
  8
7
100
AcDbLine
 10
3.732532197512775
 20
5.106363692000416
 30
0.0
 11
3.730563417985217
 21
5.110301251055535
 31
0.0
  0
LINE
  5
30C8
330
1E
100
AcDbEntity
  8
7
100
AcDbLine
 10
3.730563417985217
 20
5.013831054205141
 30
0.0
 11
3.730563417985217
 21
5.043362747118527
 31
0.0
  0
LINE
  5
30C9
330
1E
100
AcDbEntity
  8
7
100
AcDbLine
 10
3.730563417985217
 20
5.043362747118527
 30
0.0
 11
3.730563417985217
 21
5.047300306173646
 31
0.0
  0
LINE
  5
30CA
330
1E
100
AcDbEntity
  8
7
100
AcDbLine
 10
3.730563417985217
 20
5.047300306173646
 30
0.0
 11
3.732532197512775
 21
5.084707117197266
 31
0.0
  0
LINE
  5
30CB
330
1E
100
AcDbEntity
  8
7
100
AcDbLine
 10
3.732532197512775
 20
5.084707117197266
 30
0.0
 11
3.732532197512775
 21
5.094551014835063
 31
0.0
  0
LINE
  5
30CC
330
1E
100
AcDbEntity
  8
7
100
AcDbLine
 10
3.937285268378916
 20
5.084707117197266
 30
0.0
 11
3.937285268378916
 21
5.047300306173646
 31
0.0
  0
LINE
  5
30CD
330
1E
100
AcDbEntity
  8
7
100
AcDbLine
 10
3.937285268378916
 20
5.047300306173646
 30
0.0
 11
3.937285268378916
 21
5.043362747118527
 31
0.0
  0
LINE
  5
30CE
330
1E
100
AcDbEntity
  8
7
100
AcDbLine
 10
3.937285268378916
 20
5.110301251055535
 30
0.0
 11
3.937285268378916
 21
5.106363692000416
 31
0.0
  0
LINE
  5
30CF
330
1E
100
AcDbEntity
  8
7
100
AcDbLine
 10
3.937285268378916
 20
5.106363692000416
 30
0.0
 11
3.937285268378916
 21
5.094551014835063
 31
0.0
  0
LINE
  5
30D0
330
1E
100
AcDbEntity
  8
7
100
AcDbLine
 10
4.571232276252932
 20
5.094551014835063
 30
0.0
 11
4.571232276252932
 21
5.106363692000416
 31
0.0
  0
LINE
  5
30D1
330
1E
100
AcDbEntity
  8
7
100
AcDbLine
 10
4.571232276252932
 20
5.106363692000416
 30
0.0
 11
4.573201055780493
 21
5.110301251055535
 31
0.0
  0
LINE
  5
30D2
330
1E
100
AcDbEntity
  8
7
100
AcDbLine
 10
4.366479205386791
 20
5.110301251055535
 30
0.0
 11
4.366479205386791
 21
5.106363692000416
 31
0.0
  0
LINE
  5
30D3
330
1E
100
AcDbEntity
  8
7
100
AcDbLine
 10
4.366479205386791
 20
5.106363692000416
 30
0.0
 11
4.366479205386791
 21
5.094551014835063
 31
0.0
  0
LINE
  5
30D4
330
1E
100
AcDbEntity
  8
7
100
AcDbLine
 10
6.595137630583641
 20
3.84831357389018
 30
0.0
 11
6.640419559717499
 21
3.84831357389018
 31
0.0
  0
LINE
  5
30D5
330
1E
100
AcDbEntity
  8
7
100
AcDbLine
 10
6.640419559717499
 20
3.84831357389018
 30
0.0
 11
6.679795150268681
 21
3.84831357389018
 31
0.0
  0
LINE
  5
30D6
330
1E
100
AcDbEntity
  8
7
100
AcDbLine
 10
6.679795150268681
 20
3.84831357389018
 30
0.0
 11
6.705389284126948
 21
3.84831357389018
 31
0.0
  0
LINE
  5
30D7
330
1E
100
AcDbEntity
  8
7
100
AcDbLine
 10
6.705389284126948
 20
3.84831357389018
 30
0.0
 11
6.715233181764745
 21
3.84831357389018
 31
0.0
  0
LINE
  5
30D8
330
1E
100
AcDbEntity
  8
7
100
AcDbLine
 10
6.715233181764745
 20
5.669434636882305
 30
0.0
 11
6.705389284126948
 21
5.669434636882305
 31
0.0
  0
LINE
  5
30D9
330
1E
100
AcDbEntity
  8
7
100
AcDbLine
 10
6.705389284126948
 20
5.669434636882305
 30
0.0
 11
6.679795150268681
 21
5.669434636882305
 31
0.0
  0
LINE
  5
30DA
330
1E
100
AcDbEntity
  8
7
100
AcDbLine
 10
6.679795150268681
 20
5.669434636882305
 30
0.0
 11
6.640419559717499
 21
5.669434636882305
 31
0.0
  0
LINE
  5
30DB
330
1E
100
AcDbEntity
  8
7
100
AcDbLine
 10
6.640419559717499
 20
5.669434636882305
 30
0.0
 11
6.595137630583641
 21
5.669434636882305
 31
0.0
  0
LINE
  5
30DC
330
1E
100
AcDbEntity
  8
7
100
AcDbLine
 10
6.595137630583641
 20
3.84831357389018
 30
0.0
 11
6.595137630583641
 21
5.669434636882305
 31
0.0
  0
LINE
  5
30DD
330
1E
100
AcDbEntity
  8
7
100
AcDbLine
 10
6.595137630583641
 20
5.669434636882305
 30
0.0
 11
3.22064952034742
 21
5.669434636882305
 31
0.0
  0
LINE
  5
30DE
330
1E
100
AcDbEntity
  8
7
100
AcDbLine
 10
4.781891685701751
 20
4.395634282551597
 30
0.0
 11
3.519904008536397
 21
4.395634282551597
 31
0.0
  0
LINE
  5
30DF
330
1E
100
AcDbEntity
  8
7
100
AcDbLine
 10
3.519904008536397
 20
4.395634282551597
 30
0.0
 11
3.519904008536397
 21
5.05714420381144
 31
0.0
  0
LINE
  5
30E0
330
1E
100
AcDbEntity
  8
7
100
AcDbLine
 10
4.081006173890728
 20
5.05714420381144
 30
0.0
 11
4.22275829987498
 21
5.05714420381144
 31
0.0
  0
LINE
  5
30E1
330
1E
100
AcDbEntity
  8
7
100
AcDbLine
 10
4.22275829987498
 20
5.05714420381144
 30
0.0
 11
4.22275829987498
 21
5.124082707748447
 31
0.0
  0
LINE
  5
30E2
330
1E
100
AcDbEntity
  8
7
100
AcDbLine
 10
4.22275829987498
 20
5.124082707748447
 30
0.0
 11
4.714953181764744
 21
5.124082707748447
 31
0.0
  0
LINE
  5
30E3
330
1E
100
AcDbEntity
  8
7
100
AcDbLine
 10
4.714953181764744
 20
5.124082707748447
 30
0.0
 11
4.714953181764744
 21
5.05714420381144
 31
0.0
  0
LINE
  5
30E4
330
1E
100
AcDbEntity
  8
7
100
AcDbLine
 10
6.293914362867107
 20
4.395634282551597
 30
0.0
 11
5.031926685701751
 21
4.395634282551597
 31
0.0
  0
LINE
  5
30E5
330
1E
100
AcDbEntity
  8
7
100
AcDbLine
 10
5.031926685701751
 20
4.395634282551597
 30
0.0
 11
5.031926685701751
 21
5.05714420381144
 31
0.0
  0
LINE
  5
30E6
330
1E
100
AcDbEntity
  8
7
100
AcDbLine
 10
5.593028851056082
 20
5.05714420381144
 30
0.0
 11
5.734780977040334
 21
5.05714420381144
 31
0.0
  0
LINE
  5
30E7
330
1E
100
AcDbEntity
  8
7
100
AcDbLine
 10
5.734780977040334
 20
5.05714420381144
 30
0.0
 11
5.734780977040334
 21
5.124082707748447
 31
0.0
  0
LINE
  5
30E8
330
1E
100
AcDbEntity
  8
7
100
AcDbLine
 10
5.734780977040334
 20
5.124082707748447
 30
0.0
 11
6.226975858930098
 21
5.124082707748447
 31
0.0
  0
LINE
  5
30E9
330
1E
100
AcDbEntity
  8
7
100
AcDbLine
 10
6.226975858930098
 20
5.124082707748447
 30
0.0
 11
6.226975858930098
 21
5.05714420381144
 31
0.0
  0
LINE
  5
30EA
330
1E
100
AcDbEntity
  8
7
100
AcDbLine
 10
6.226975858930098
 20
5.05714420381144
 30
0.0
 11
6.293914362867107
 21
5.05714420381144
 31
0.0
  0
LINE
  5
30EB
330
1E
100
AcDbEntity
  8
7
100
AcDbLine
 10
6.693576606961594
 20
5.76787361326026
 30
0.0
 11
6.719170740819862
 21
5.728498022709079
 31
0.0
  0
LINE
  5
30EC
330
1E
100
AcDbEntity
  8
7
100
AcDbLine
 10
6.719170740819862
 20
5.728498022709079
 30
0.0
 11
6.729014638457656
 21
5.68321609357522
 31
0.0
  0
LINE
  5
30ED
330
1E
100
AcDbEntity
  8
7
100
AcDbLine
 10
6.729014638457656
 20
5.68321609357522
 30
0.0
 11
6.729014638457656
 21
3.836500896724826
 31
0.0
  0
LINE
  5
30EE
330
1E
100
AcDbEntity
  8
7
100
AcDbLine
 10
6.729014638457656
 20
3.836500896724826
 30
0.0
 11
6.719170740819862
 21
3.791218967590968
 31
0.0
  0
LINE
  5
30EF
330
1E
100
AcDbEntity
  8
7
100
AcDbLine
 10
6.719170740819862
 20
3.791218967590968
 30
0.0
 11
6.693576606961594
 21
3.751843377039787
 31
0.0
  0
LINE
  5
30F0
330
1E
100
AcDbEntity
  8
7
100
AcDbLine
 10
6.693576606961594
 20
3.751843377039787
 30
0.0
 11
6.654201016410413
 21
3.726249243181519
 31
0.0
  0
LINE
  5
30F1
330
1E
100
AcDbEntity
  8
7
100
AcDbLine
 10
6.654201016410413
 20
3.726249243181519
 30
0.0
 11
6.608919087276555
 21
3.716405345543723
 31
0.0
  0
LINE
  5
30F2
330
1E
100
AcDbEntity
  8
7
100
AcDbLine
 10
6.608919087276555
 20
3.716405345543723
 30
0.0
 11
3.206868063654508
 21
3.716405345543723
 31
0.0
  0
LINE
  5
30F3
330
1E
100
AcDbEntity
  8
7
100
AcDbLine
 10
3.206868063654508
 20
3.716405345543723
 30
0.0
 11
3.161586134520649
 21
3.726249243181519
 31
0.0
  0
LINE
  5
30F4
330
1E
100
AcDbEntity
  8
7
100
AcDbLine
 10
3.161586134520649
 20
3.726249243181519
 30
0.0
 11
3.122210543969468
 21
3.751843377039787
 31
0.0
  0
LINE
  5
30F5
330
1E
100
AcDbEntity
  8
7
100
AcDbLine
 10
3.122210543969468
 20
3.751843377039787
 30
0.0
 11
3.096616410111201
 21
3.791218967590968
 31
0.0
  0
LINE
  5
30F6
330
1E
100
AcDbEntity
  8
7
100
AcDbLine
 10
3.096616410111201
 20
3.791218967590968
 30
0.0
 11
3.086772512473404
 21
3.836500896724826
 31
0.0
  0
LINE
  5
30F7
330
1E
100
AcDbEntity
  8
7
100
AcDbLine
 10
5.404026016410413
 20
5.801342865228763
 30
0.0
 11
6.608919087276555
 21
5.801342865228763
 31
0.0
  0
LINE
  5
30F8
330
1E
100
AcDbEntity
  8
7
100
AcDbLine
 10
6.608919087276555
 20
5.801342865228763
 30
0.0
 11
6.654201016410413
 21
5.793467747118526
 31
0.0
  0
LINE
  5
30F9
330
1E
100
AcDbEntity
  8
7
100
AcDbLine
 10
6.654201016410413
 20
5.793467747118526
 30
0.0
 11
6.693576606961594
 21
5.76787361326026
 31
0.0
  0
LINE
  5
30FA
330
1E
100
AcDbEntity
  8
7
100
AcDbLine
 10
3.086772512473404
 20
5.68321609357522
 30
0.0
 11
3.096616410111201
 21
5.728498022709079
 31
0.0
  0
LINE
  5
30FB
330
1E
100
AcDbEntity
  8
7
100
AcDbLine
 10
3.096616410111201
 20
5.728498022709079
 30
0.0
 11
3.122210543969468
 21
5.76787361326026
 31
0.0
  0
LINE
  5
30FC
330
1E
100
AcDbEntity
  8
7
100
AcDbLine
 10
3.122210543969468
 20
5.76787361326026
 30
0.0
 11
3.161586134520649
 21
5.793467747118526
 31
0.0
  0
LINE
  5
30FD
330
1E
100
AcDbEntity
  8
7
100
AcDbLine
 10
3.161586134520649
 20
5.793467747118526
 30
0.0
 11
3.206868063654508
 21
5.801342865228763
 31
0.0
  0
LINE
  5
30FE
330
1E
100
AcDbEntity
  8
7
100
AcDbLine
 10
3.206868063654508
 20
5.801342865228763
 30
0.0
 11
4.411761134520649
 21
5.801342865228763
 31
0.0
  0
LINE
  5
30FF
330
1E
100
AcDbEntity
  8
7
100
AcDbLine
 10
3.100553969166318
 20
5.669434636882305
 30
0.0
 11
3.086772512473404
 21
5.68321609357522
 31
0.0
  0
LINE
  5
3100
330
1E
100
AcDbEntity
  8
7
100
AcDbLine
 10
3.086772512473404
 20
5.68321609357522
 30
0.0
 11
3.086772512473404
 21
3.836500896724826
 31
0.0
  0
LINE
  5
3101
330
1E
100
AcDbEntity
  8
7
100
AcDbLine
 10
3.086772512473404
 20
3.836500896724826
 30
0.0
 11
3.100553969166318
 21
3.84831357389018
 31
0.0
  0
LINE
  5
3102
330
1E
100
AcDbEntity
  8
7
100
AcDbLine
 10
3.22064952034742
 20
3.84831357389018
 30
0.0
 11
3.175367591213563
 21
3.84831357389018
 31
0.0
  0
LINE
  5
3103
330
1E
100
AcDbEntity
  8
7
100
AcDbLine
 10
3.175367591213563
 20
3.84831357389018
 30
0.0
 11
3.135992000662382
 21
3.84831357389018
 31
0.0
  0
LINE
  5
3104
330
1E
100
AcDbEntity
  8
7
100
AcDbLine
 10
3.135992000662382
 20
3.84831357389018
 30
0.0
 11
3.110397866804113
 21
3.84831357389018
 31
0.0
  0
LINE
  5
3105
330
1E
100
AcDbEntity
  8
7
100
AcDbLine
 10
3.110397866804113
 20
3.84831357389018
 30
0.0
 11
3.100553969166318
 21
3.84831357389018
 31
0.0
  0
LINE
  5
3106
330
1E
100
AcDbEntity
  8
7
100
AcDbLine
 10
3.22064952034742
 20
5.669434636882305
 30
0.0
 11
3.175367591213563
 21
5.669434636882305
 31
0.0
  0
LINE
  5
3107
330
1E
100
AcDbEntity
  8
7
100
AcDbLine
 10
3.175367591213563
 20
5.669434636882305
 30
0.0
 11
3.135992000662382
 21
5.669434636882305
 31
0.0
  0
LINE
  5
3108
330
1E
100
AcDbEntity
  8
7
100
AcDbLine
 10
3.135992000662382
 20
5.669434636882305
 30
0.0
 11
3.110397866804113
 21
5.669434636882305
 31
0.0
  0
LINE
  5
3109
330
1E
100
AcDbEntity
  8
7
100
AcDbLine
 10
3.110397866804113
 20
5.669434636882305
 30
0.0
 11
3.100553969166318
 21
5.669434636882305
 31
0.0
  0
LINE
  5
310A
330
1E
100
AcDbEntity
  8
7
100
AcDbLine
 10
4.72085952034742
 20
5.880094046331125
 30
0.0
 11
4.714953181764744
 21
5.878125266803566
 31
0.0
  0
LINE
  5
310B
330
1E
100
AcDbEntity
  8
7
100
AcDbLine
 10
4.714953181764744
 20
5.878125266803566
 30
0.0
 11
4.712984402237184
 21
5.872218928220888
 31
0.0
  0
LINE
  5
310C
330
1E
100
AcDbEntity
  8
7
100
AcDbLine
 10
4.72085952034742
 20
5.880094046331125
 30
0.0
 11
4.714953181764744
 21
5.878125266803566
 31
0.0
  0
LINE
  5
310D
330
1E
100
AcDbEntity
  8
7
100
AcDbLine
 10
4.714953181764744
 20
5.878125266803566
 30
0.0
 11
4.712984402237184
 21
5.872218928220888
 31
0.0
  0
LINE
  5
310E
330
1E
100
AcDbEntity
  8
7
100
AcDbLine
 10
5.102802748693877
 20
5.872218928220888
 30
0.0
 11
5.100833969166318
 21
5.878125266803566
 31
0.0
  0
LINE
  5
310F
330
1E
100
AcDbEntity
  8
7
100
AcDbLine
 10
5.100833969166318
 20
5.878125266803566
 30
0.0
 11
5.094927630583641
 21
5.880094046331125
 31
0.0
  0
LINE
  5
3110
330
1E
100
AcDbEntity
  8
7
100
AcDbLine
 10
5.102802748693877
 20
5.872218928220888
 30
0.0
 11
5.100833969166318
 21
5.878125266803566
 31
0.0
  0
LINE
  5
3111
330
1E
100
AcDbEntity
  8
7
100
AcDbLine
 10
5.100833969166318
 20
5.878125266803566
 30
0.0
 11
5.094927630583641
 21
5.880094046331125
 31
0.0
  0
LINE
  5
3112
330
1E
100
AcDbEntity
  8
7
100
AcDbLine
 10
7.874844323497027
 20
5.880094046331125
 30
0.0
 11
7.87090676444191
 21
5.878125266803566
 31
0.0
  0
LINE
  5
3113
330
1E
100
AcDbEntity
  8
7
100
AcDbLine
 10
7.87090676444191
 20
5.878125266803566
 30
0.0
 11
7.868937984914349
 21
5.872218928220888
 31
0.0
  0
LINE
  5
3114
330
1E
100
AcDbEntity
  8
7
100
AcDbLine
 10
7.868937984914349
 20
5.872218928220888
 30
0.0
 11
7.87090676444191
 21
5.872218928220888
 31
0.0
  0
LINE
  5
3115
330
1E
100
AcDbEntity
  8
7
100
AcDbLine
 10
7.87090676444191
 20
5.872218928220888
 30
0.0
 11
7.876813103024586
 21
5.872218928220888
 31
0.0
  0
LINE
  5
3116
330
1E
100
AcDbEntity
  8
7
100
AcDbLine
 10
8.412321134520649
 20
5.633996605386244
 30
0.0
 11
8.41035235499309
 21
5.647778062079156
 31
0.0
  0
LINE
  5
3117
330
1E
100
AcDbEntity
  8
7
100
AcDbLine
 10
8.41035235499309
 20
5.647778062079156
 30
0.0
 11
8.41035235499309
 21
5.653684400661833
 31
0.0
  0
LINE
  5
3118
330
1E
100
AcDbEntity
  8
7
100
AcDbLine
 10
8.176067591213563
 20
5.799374085701204
 30
0.0
 11
8.176067591213563
 21
5.805280424283882
 31
0.0
  0
LINE
  5
3119
330
1E
100
AcDbEntity
  8
7
100
AcDbLine
 10
8.176067591213563
 20
5.805280424283882
 30
0.0
 11
8.199692945544272
 21
5.805280424283882
 31
0.0
  0
LINE
  5
311A
330
1E
100
AcDbEntity
  8
7
100
AcDbLine
 10
7.790186803811987
 20
5.669434636882305
 30
0.0
 11
7.788218024284429
 21
5.714716566016164
 31
0.0
  0
LINE
  5
311B
330
1E
100
AcDbEntity
  8
7
100
AcDbLine
 10
7.788218024284429
 20
5.714716566016164
 30
0.0
 11
7.788218024284429
 21
5.754092156567345
 31
0.0
  0
LINE
  5
311C
330
1E
100
AcDbEntity
  8
7
100
AcDbLine
 10
7.788218024284429
 20
5.754092156567345
 30
0.0
 11
7.788218024284429
 21
5.779686290425613
 31
0.0
  0
LINE
  5
311D
330
1E
100
AcDbEntity
  8
7
100
AcDbLine
 10
7.788218024284429
 20
5.779686290425613
 30
0.0
 11
7.790186803811987
 21
5.789530188063409
 31
0.0
  0
LINE
  5
311E
330
1E
100
AcDbEntity
  8
7
100
AcDbLine
 10
7.790186803811987
 20
5.787561408535849
 30
0.0
 11
7.746873654205689
 21
5.777717510898054
 31
0.0
  0
LINE
  5
311F
330
1E
100
AcDbEntity
  8
7
100
AcDbLine
 10
7.746873654205689
 20
5.777717510898054
 30
0.0
 11
7.711435622709625
 21
5.750154597512228
 31
0.0
  0
LINE
  5
3120
330
1E
100
AcDbEntity
  8
7
100
AcDbLine
 10
7.711435622709625
 20
5.750154597512228
 30
0.0
 11
7.685841488851358
 21
5.712747786488606
 31
0.0
  0
LINE
  5
3121
330
1E
100
AcDbEntity
  8
7
100
AcDbLine
 10
7.685841488851358
 20
5.712747786488606
 30
0.0
 11
7.677966370741122
 21
5.669434636882305
 31
0.0
  0
LINE
  5
3122
330
1E
100
AcDbEntity
  8
7
100
AcDbLine
 10
7.904376016410413
 20
5.874187707748447
 30
0.0
 11
7.900438457355294
 21
5.878125266803566
 31
0.0
  0
LINE
  5
3123
330
1E
100
AcDbEntity
  8
7
100
AcDbLine
 10
7.900438457355294
 20
5.878125266803566
 30
0.0
 11
7.896500898300176
 21
5.880094046331125
 31
0.0
  0
LINE
  5
3124
330
1E
100
AcDbEntity
  8
7
100
AcDbLine
 10
7.896500898300176
 20
5.880094046331125
 30
0.0
 11
7.896500898300176
 21
5.878125266803566
 31
0.0
  0
LINE
  5
3125
330
1E
100
AcDbEntity
  8
7
100
AcDbLine
 10
7.896500898300176
 20
5.878125266803566
 30
0.0
 11
7.896500898300176
 21
5.872218928220888
 31
0.0
  0
LINE
  5
3126
330
1E
100
AcDbEntity
  8
7
100
AcDbLine
 10
7.896500898300176
 20
5.872218928220888
 30
0.0
 11
7.902407236882854
 21
5.874187707748447
 31
0.0
  0
LINE
  5
3127
330
1E
100
AcDbEntity
  8
7
100
AcDbLine
 10
7.902407236882854
 20
5.874187707748447
 30
0.0
 11
7.904376016410413
 21
5.874187707748447
 31
0.0
  0
LINE
  5
3128
330
1E
100
AcDbEntity
  8
7
100
AcDbLine
 10
8.075659835308051
 20
3.716405345543723
 30
0.0
 11
7.790186803811987
 21
3.730186802236637
 31
0.0
  0
LINE
  5
3129
330
1E
100
AcDbEntity
  8
7
100
AcDbLine
 10
7.790186803811987
 20
3.730186802236637
 30
0.0
 11
7.788218024284429
 21
3.738061920346873
 31
0.0
  0
LINE
  5
312A
330
1E
100
AcDbEntity
  8
7
100
AcDbLine
 10
7.788218024284429
 20
3.738061920346873
 30
0.0
 11
7.788218024284429
 21
3.76365605420514
 31
0.0
  0
LINE
  5
312B
330
1E
100
AcDbEntity
  8
7
100
AcDbLine
 10
7.788218024284429
 20
3.76365605420514
 30
0.0
 11
7.788218024284429
 21
3.803031644756321
 31
0.0
  0
LINE
  5
312C
330
1E
100
AcDbEntity
  8
7
100
AcDbLine
 10
7.788218024284429
 20
3.803031644756321
 30
0.0
 11
7.790186803811987
 21
3.84831357389018
 31
0.0
  0
LINE
  5
312D
330
1E
100
AcDbEntity
  8
7
100
AcDbLine
 10
7.677966370741122
 20
3.84831357389018
 30
0.0
 11
7.685841488851358
 21
3.805000424283882
 31
0.0
  0
LINE
  5
312E
330
1E
100
AcDbEntity
  8
7
100
AcDbLine
 10
7.685841488851358
 20
3.805000424283882
 30
0.0
 11
7.711435622709625
 21
3.767593613260259
 31
0.0
  0
LINE
  5
312F
330
1E
100
AcDbEntity
  8
7
100
AcDbLine
 10
7.711435622709625
 20
3.767593613260259
 30
0.0
 11
7.746873654205689
 21
3.740030699874432
 31
0.0
  0
LINE
  5
3130
330
1E
100
AcDbEntity
  8
7
100
AcDbLine
 10
7.746873654205689
 20
3.740030699874432
 30
0.0
 11
7.790186803811987
 21
3.730186802236637
 31
0.0
  0
LINE
  5
3131
330
1E
100
AcDbEntity
  8
7
100
AcDbLine
 10
8.524541567591516
 20
5.653684400661833
 30
0.0
 11
8.53241668570175
 21
5.653684400661833
 31
0.0
  0
LINE
  5
3132
330
1E
100
AcDbEntity
  8
7
100
AcDbLine
 10
8.53241668570175
 20
5.653684400661833
 30
0.0
 11
8.542260583339547
 21
5.649746841606717
 31
0.0
  0
LINE
  5
3133
330
1E
100
AcDbEntity
  8
7
100
AcDbLine
 10
8.542260583339547
 20
5.649746841606717
 30
0.0
 11
8.550135701449784
 21
5.64187172349648
 31
0.0
  0
LINE
  5
3134
330
1E
100
AcDbEntity
  8
7
100
AcDbLine
 10
8.550135701449784
 20
5.64187172349648
 30
0.0
 11
8.55604204003246
 21
5.633996605386244
 31
0.0
  0
LINE
  5
3135
330
1E
100
AcDbEntity
  8
7
100
AcDbLine
 10
8.516666449481279
 20
5.582808337669708
 30
0.0
 11
8.548166921922224
 21
5.582808337669708
 31
0.0
  0
LINE
  5
3136
330
1E
100
AcDbEntity
  8
7
100
AcDbLine
 10
8.548166921922224
 20
5.582808337669708
 30
0.0
 11
8.558010819560021
 21
5.582808337669708
 31
0.0
  0
LINE
  5
3137
330
1E
100
AcDbEntity
  8
7
100
AcDbLine
 10
8.558010819560021
 20
5.582808337669708
 30
0.0
 11
8.558010819560021
 21
5.62021514869333
 31
0.0
  0
LINE
  5
3138
330
1E
100
AcDbEntity
  8
7
100
AcDbLine
 10
8.412321134520649
 20
5.582808337669708
 30
0.0
 11
8.467446961292303
 21
5.582808337669708
 31
0.0
  0
LINE
  5
3139
330
1E
100
AcDbEntity
  8
7
100
AcDbLine
 10
8.467446961292303
 20
5.582808337669708
 30
0.0
 11
8.516666449481279
 21
5.582808337669708
 31
0.0
  0
LINE
  5
313A
330
1E
100
AcDbEntity
  8
7
100
AcDbLine
 10
8.55604204003246
 20
5.633996605386244
 30
0.0
 11
8.53635424475687
 21
5.633996605386244
 31
0.0
  0
LINE
  5
313B
330
1E
100
AcDbEntity
  8
7
100
AcDbLine
 10
8.53635424475687
 20
5.633996605386244
 30
0.0
 11
8.504853772315925
 21
5.633996605386244
 31
0.0
  0
LINE
  5
313C
330
1E
100
AcDbEntity
  8
7
100
AcDbLine
 10
8.504853772315925
 20
5.633996605386244
 30
0.0
 11
8.459571843182066
 21
5.633996605386244
 31
0.0
  0
LINE
  5
313D
330
1E
100
AcDbEntity
  8
7
100
AcDbLine
 10
8.459571843182066
 20
5.633996605386244
 30
0.0
 11
8.412321134520649
 21
5.633996605386244
 31
0.0
  0
LINE
  5
313E
330
1E
100
AcDbEntity
  8
7
100
AcDbLine
 10
8.284350465229312
 20
5.181177314047661
 30
0.0
 11
8.284350465229312
 21
5.198896329795692
 31
0.0
  0
LINE
  5
313F
330
1E
100
AcDbEntity
  8
7
100
AcDbLine
 10
8.284350465229312
 20
5.198896329795692
 30
0.0
 11
8.278444126646634
 21
5.212677786488606
 31
0.0
  0
LINE
  5
3140
330
1E
100
AcDbEntity
  8
7
100
AcDbLine
 10
8.278444126646634
 20
5.212677786488606
 30
0.0
 11
8.26466266995372
 21
5.220552904598842
 31
0.0
  0
LINE
  5
3141
330
1E
100
AcDbEntity
  8
7
100
AcDbLine
 10
8.351288969166319
 20
5.128020266803567
 30
0.0
 11
8.359164087276555
 21
5.147708062079155
 31
0.0
  0
LINE
  5
3142
330
1E
100
AcDbEntity
  8
7
100
AcDbLine
 10
8.359164087276555
 20
5.147708062079155
 30
0.0
 11
8.351288969166319
 21
5.167395857354748
 31
0.0
  0
LINE
  5
3143
330
1E
100
AcDbEntity
  8
7
100
AcDbLine
 10
8.351288969166319
 20
5.167395857354748
 30
0.0
 11
8.331601173890728
 21
5.177239754992542
 31
0.0
  0
LINE
  5
3144
330
1E
100
AcDbEntity
  8
7
100
AcDbLine
 10
8.331601173890728
 20
5.177239754992542
 30
0.0
 11
8.075659835308051
 21
5.194958770740573
 31
0.0
  0
LINE
  5
3145
330
1E
100
AcDbEntity
  8
7
100
AcDbLine
 10
8.187880268378917
 20
5.013831054205141
 30
0.0
 11
8.205599284126947
 21
5.0157998337327
 31
0.0
  0
LINE
  5
3146
330
1E
100
AcDbEntity
  8
7
100
AcDbLine
 10
8.205599284126947
 20
5.0157998337327
 30
0.0
 11
8.239068536095453
 21
5.023674951842937
 31
0.0
  0
LINE
  5
3147
330
1E
100
AcDbEntity
  8
7
100
AcDbLine
 10
8.239068536095453
 20
5.023674951842937
 30
0.0
 11
8.268600229008837
 21
5.043362747118527
 31
0.0
  0
LINE
  5
3148
330
1E
100
AcDbEntity
  8
7
100
AcDbLine
 10
8.199692945544272
 20
5.094551014835063
 30
0.0
 11
8.195755386489153
 21
5.106363692000416
 31
0.0
  0
LINE
  5
3149
330
1E
100
AcDbEntity
  8
7
100
AcDbLine
 10
8.195755386489153
 20
5.106363692000416
 30
0.0
 11
8.185911488851358
 21
5.110301251055535
 31
0.0
  0
LINE
  5
314A
330
1E
100
AcDbEntity
  8
7
100
AcDbLine
 10
8.266631449481279
 20
3.779406290425613
 30
0.0
 11
8.266631449481279
 21
3.948721329795692
 31
0.0
  0
LINE
  5
314B
330
1E
100
AcDbEntity
  8
7
100
AcDbLine
 10
8.266631449481279
 20
3.948721329795692
 30
0.0
 11
8.075659835308051
 21
3.950690109323251
 31
0.0
  0
LINE
  5
314C
330
1E
100
AcDbEntity
  8
7
100
AcDbLine
 10
8.075659835308051
 20
5.653684400661833
 30
0.0
 11
8.41035235499309
 21
5.653684400661833
 31
0.0
  0
LINE
  5
314D
330
1E
100
AcDbEntity
  8
7
100
AcDbLine
 10
8.41035235499309
 20
5.653684400661833
 30
0.0
 11
8.455634284126947
 21
5.653684400661833
 31
0.0
  0
LINE
  5
314E
330
1E
100
AcDbEntity
  8
7
100
AcDbLine
 10
8.455634284126947
 20
5.653684400661833
 30
0.0
 11
8.495009874678128
 21
5.653684400661833
 31
0.0
  0
LINE
  5
314F
330
1E
100
AcDbEntity
  8
7
100
AcDbLine
 10
8.495009874678128
 20
5.653684400661833
 30
0.0
 11
8.524541567591516
 21
5.653684400661833
 31
0.0
  0
LINE
  5
3150
330
1E
100
AcDbEntity
  8
7
100
AcDbLine
 10
7.675997591213564
 20
3.84831357389018
 30
0.0
 11
7.683872709323799
 21
3.84831357389018
 31
0.0
  0
LINE
  5
3151
330
1E
100
AcDbEntity
  8
7
100
AcDbLine
 10
7.683872709323799
 20
3.84831357389018
 30
0.0
 11
7.709466843182067
 21
3.84831357389018
 31
0.0
  0
LINE
  5
3152
330
1E
100
AcDbEntity
  8
7
100
AcDbLine
 10
7.709466843182067
 20
3.84831357389018
 30
0.0
 11
7.746873654205689
 21
3.84831357389018
 31
0.0
  0
LINE
  5
3153
330
1E
100
AcDbEntity
  8
7
100
AcDbLine
 10
7.746873654205689
 20
3.84831357389018
 30
0.0
 11
7.790186803811987
 21
3.84831357389018
 31
0.0
  0
LINE
  5
3154
330
1E
100
AcDbEntity
  8
7
100
AcDbLine
 10
7.790186803811987
 20
5.669434636882305
 30
0.0
 11
7.746873654205689
 21
5.669434636882305
 31
0.0
  0
LINE
  5
3155
330
1E
100
AcDbEntity
  8
7
100
AcDbLine
 10
7.746873654205689
 20
5.669434636882305
 30
0.0
 11
7.709466843182067
 21
5.669434636882305
 31
0.0
  0
LINE
  5
3156
330
1E
100
AcDbEntity
  8
7
100
AcDbLine
 10
7.709466843182067
 20
5.669434636882305
 30
0.0
 11
7.683872709323799
 21
5.669434636882305
 31
0.0
  0
LINE
  5
3157
330
1E
100
AcDbEntity
  8
7
100
AcDbLine
 10
7.683872709323799
 20
5.669434636882305
 30
0.0
 11
7.675997591213564
 21
5.669434636882305
 31
0.0
  0
LINE
  5
3158
330
1E
100
AcDbEntity
  8
7
100
AcDbLine
 10
8.075659835308051
 20
5.793467747118526
 30
0.0
 11
8.075659835308051
 21
5.76787361326026
 31
0.0
  0
LINE
  5
3159
330
1E
100
AcDbEntity
  8
7
100
AcDbLine
 10
8.075659835308051
 20
5.76787361326026
 30
0.0
 11
8.075659835308051
 21
5.728498022709079
 31
0.0
  0
LINE
  5
315A
330
1E
100
AcDbEntity
  8
7
100
AcDbLine
 10
8.075659835308051
 20
5.728498022709079
 30
0.0
 11
8.075659835308051
 21
5.68321609357522
 31
0.0
  0
LINE
  5
315B
330
1E
100
AcDbEntity
  8
7
100
AcDbLine
 10
8.075659835308051
 20
5.68321609357522
 30
0.0
 11
8.075659835308051
 21
3.836500896724826
 31
0.0
  0
LINE
  5
315C
330
1E
100
AcDbEntity
  8
7
100
AcDbLine
 10
8.075659835308051
 20
3.836500896724826
 30
0.0
 11
8.075659835308051
 21
3.791218967590968
 31
0.0
  0
LINE
  5
315D
330
1E
100
AcDbEntity
  8
7
100
AcDbLine
 10
8.075659835308051
 20
3.791218967590968
 30
0.0
 11
8.075659835308051
 21
3.751843377039787
 31
0.0
  0
LINE
  5
315E
330
1E
100
AcDbEntity
  8
7
100
AcDbLine
 10
8.075659835308051
 20
3.751843377039787
 30
0.0
 11
8.075659835308051
 21
3.726249243181519
 31
0.0
  0
LINE
  5
315F
330
1E
100
AcDbEntity
  8
7
100
AcDbLine
 10
8.075659835308051
 20
3.726249243181519
 30
0.0
 11
8.075659835308051
 21
3.716405345543723
 31
0.0
  0
LINE
  5
3160
330
1E
100
AcDbEntity
  8
7
100
AcDbLine
 10
8.3906645597175
 20
5.653684400661833
 30
0.0
 11
8.197724166016712
 21
5.799374085701204
 31
0.0
  0
LINE
  5
3161
330
1E
100
AcDbEntity
  8
7
100
AcDbLine
 10
8.197724166016712
 20
5.799374085701204
 30
0.0
 11
8.176067591213563
 21
5.799374085701204
 31
0.0
  0
LINE
  5
3162
330
1E
100
AcDbEntity
  8
7
100
AcDbLine
 10
8.170161252630887
 20
5.76787361326026
 30
0.0
 11
8.079597394363169
 21
5.759998495150023
 31
0.0
  0
LINE
  5
3163
330
1E
100
AcDbEntity
  8
7
100
AcDbLine
 10
8.079597394363169
 20
5.759998495150023
 30
0.0
 11
8.075659835308051
 21
5.742279479401992
 31
0.0
  0
LINE
  5
3164
330
1E
100
AcDbEntity
  8
7
100
AcDbLine
 10
7.876813103024586
 20
5.880094046331125
 30
0.0
 11
7.876813103024586
 21
5.878125266803566
 31
0.0
  0
LINE
  5
3165
330
1E
100
AcDbEntity
  8
7
100
AcDbLine
 10
7.876813103024586
 20
5.878125266803566
 30
0.0
 11
7.876813103024586
 21
5.872218928220888
 31
0.0
  0
LINE
  5
3166
330
1E
100
AcDbEntity
  8
7
100
AcDbLine
 10
7.876813103024586
 20
5.880094046331125
 30
0.0
 11
7.876813103024586
 21
5.878125266803566
 31
0.0
  0
LINE
  5
3167
330
1E
100
AcDbEntity
  8
7
100
AcDbLine
 10
7.876813103024586
 20
5.878125266803566
 30
0.0
 11
7.876813103024586
 21
5.872218928220888
 31
0.0
  0
LINE
  5
3438
330
1E
100
AcDbEntity
  8
7
100
AcDbLine
 10
4.72085952034742
 20
8.057564203811439
 30
0.0
 11
4.716921961292303
 21
8.059532983339002
 31
0.0
  0
LINE
  5
3439
330
1E
100
AcDbEntity
  8
7
100
AcDbLine
 10
4.716921961292303
 20
8.059532983339002
 30
0.0
 11
4.712984402237184
 21
8.063470542394117
 31
0.0
  0
LINE
  5
343A
330
1E
100
AcDbEntity
  8
7
100
AcDbLine
 10
4.72085952034742
 20
8.057564203811439
 30
0.0
 11
4.72085952034742
 21
8.059532983339002
 31
0.0
  0
LINE
  5
343B
330
1E
100
AcDbEntity
  8
7
100
AcDbLine
 10
4.72085952034742
 20
8.059532983339002
 30
0.0
 11
4.72085952034742
 21
8.063470542394117
 31
0.0
  0
LINE
  5
343C
330
1E
100
AcDbEntity
  8
7
100
AcDbLine
 10
5.094927630583641
 20
8.057564203811439
 30
0.0
 11
5.094927630583641
 21
8.059532983339002
 31
0.0
  0
LINE
  5
343D
330
1E
100
AcDbEntity
  8
7
100
AcDbLine
 10
5.094927630583641
 20
8.059532983339002
 30
0.0
 11
5.094927630583641
 21
8.063470542394117
 31
0.0
  0
LINE
  5
343E
330
1E
100
AcDbEntity
  8
7
100
AcDbLine
 10
5.094927630583641
 20
8.057564203811439
 30
0.0
 11
5.098865189638759
 21
8.059532983339002
 31
0.0
  0
LINE
  5
343F
330
1E
100
AcDbEntity
  8
7
100
AcDbLine
 10
5.098865189638759
 20
8.059532983339002
 30
0.0
 11
5.100833969166318
 21
8.063470542394117
 31
0.0
  0
LINE
  5
3440
330
1E
100
AcDbEntity
  8
7
100
AcDbLine
 10
5.094927630583641
 20
8.057564203811439
 30
0.0
 11
4.72085952034742
 21
8.057564203811439
 31
0.0
  0
LINE
  5
3441
330
1E
100
AcDbEntity
  8
7
100
AcDbLine
 10
4.72085952034742
 20
8.057564203811439
 30
0.0
 11
4.709046843182067
 21
8.053626644756322
 31
0.0
  0
LINE
  5
3442
330
1E
100
AcDbEntity
  8
7
100
AcDbLine
 10
4.709046843182067
 20
8.053626644756322
 30
0.0
 11
4.70117172507183
 21
8.061501762866559
 31
0.0
  0
LINE
  5
3443
330
1E
100
AcDbEntity
  8
7
100
AcDbLine
 10
4.70117172507183
 20
8.061501762866559
 30
0.0
 11
4.70117172507183
 21
8.063470542394117
 31
0.0
  0
LINE
  5
3444
330
1E
100
AcDbEntity
  8
7
100
AcDbLine
 10
5.114615425859232
 20
8.063470542394117
 30
0.0
 11
5.114615425859232
 21
8.061501762866559
 31
0.0
  0
LINE
  5
3445
330
1E
100
AcDbEntity
  8
7
100
AcDbLine
 10
5.114615425859232
 20
8.061501762866559
 30
0.0
 11
5.106740307748996
 21
8.053626644756322
 31
0.0
  0
LINE
  5
3446
330
1E
100
AcDbEntity
  8
7
100
AcDbLine
 10
4.76417266995372
 20
8.530071290425615
 30
0.0
 11
4.768110229008839
 21
8.528102510898056
 31
0.0
  0
LINE
  5
3447
330
1E
100
AcDbEntity
  8
7
100
AcDbLine
 10
4.768110229008839
 20
8.528102510898056
 30
0.0
 11
4.770079008536398
 21
8.526133731370494
 31
0.0
  0
LINE
  5
3448
330
1E
100
AcDbEntity
  8
7
100
AcDbLine
 10
5.045708142394665
 20
8.526133731370494
 30
0.0
 11
5.047676921922223
 21
8.528102510898056
 31
0.0
  0
LINE
  5
3449
330
1E
100
AcDbEntity
  8
7
100
AcDbLine
 10
5.047676921922223
 20
8.528102510898056
 30
0.0
 11
5.051614480977343
 21
8.530071290425615
 31
0.0
  0
LINE
  5
344A
330
1E
100
AcDbEntity
  8
7
100
AcDbLine
 10
4.466886961292303
 20
8.106783692000417
 30
0.0
 11
4.453105504599389
 21
8.106783692000417
 31
0.0
  0
LINE
  5
344B
330
1E
100
AcDbEntity
  8
7
100
AcDbLine
 10
4.453105504599389
 20
8.106783692000417
 30
0.0
 11
4.447199166016711
 21
8.108752471527976
 31
0.0
  0
LINE
  5
344C
330
1E
100
AcDbEntity
  8
7
100
AcDbLine
 10
4.476730858930098
 20
8.59897857389018
 30
0.0
 11
4.462949402237184
 21
8.59897857389018
 31
0.0
  0
LINE
  5
344D
330
1E
100
AcDbEntity
  8
7
100
AcDbLine
 10
4.462949402237184
 20
8.59897857389018
 30
0.0
 11
4.457043063654507
 21
8.59897857389018
 31
0.0
  0
LINE
  5
344E
330
1E
100
AcDbEntity
  8
7
100
AcDbLine
 10
5.358744087276554
 20
8.59897857389018
 30
0.0
 11
5.352837748693877
 21
8.59897857389018
 31
0.0
  0
LINE
  5
344F
330
1E
100
AcDbEntity
  8
7
100
AcDbLine
 10
5.352837748693877
 20
8.59897857389018
 30
0.0
 11
5.339056292000964
 21
8.59897857389018
 31
0.0
  0
LINE
  5
3450
330
1E
100
AcDbEntity
  8
7
100
AcDbLine
 10
4.762203890426161
 20
8.388319164441362
 30
0.0
 11
4.76417266995372
 21
8.530071290425615
 31
0.0
  0
LINE
  5
3451
330
1E
100
AcDbEntity
  8
7
100
AcDbLine
 10
4.76417266995372
 20
8.530071290425615
 30
0.0
 11
4.770079008536398
 21
8.55566542428388
 31
0.0
  0
LINE
  5
3452
330
1E
100
AcDbEntity
  8
7
100
AcDbLine
 10
4.770079008536398
 20
8.55566542428388
 30
0.0
 11
4.781891685701751
 21
8.575353219559474
 31
0.0
  0
LINE
  5
3453
330
1E
100
AcDbEntity
  8
7
100
AcDbLine
 10
4.781891685701751
 20
8.575353219559474
 30
0.0
 11
4.799610701449783
 21
8.587165896724824
 31
0.0
  0
LINE
  5
3454
330
1E
100
AcDbEntity
  8
7
100
AcDbLine
 10
4.770079008536398
 20
8.254442156567346
 30
0.0
 11
4.781891685701751
 21
8.250504597512229
 31
0.0
  0
LINE
  5
3455
330
1E
100
AcDbEntity
  8
7
100
AcDbLine
 10
4.781891685701751
 20
8.250504597512229
 30
0.0
 11
4.809454599087579
 21
8.24853581798467
 31
0.0
  0
LINE
  5
3456
330
1E
100
AcDbEntity
  8
7
100
AcDbLine
 10
4.809454599087579
 20
8.585197117197266
 30
0.0
 11
4.789766803811987
 21
8.577321999087033
 31
0.0
  0
LINE
  5
3457
330
1E
100
AcDbEntity
  8
7
100
AcDbLine
 10
4.789766803811987
 20
8.577321999087033
 30
0.0
 11
4.775985347119076
 21
8.55566542428388
 31
0.0
  0
LINE
  5
3458
330
1E
100
AcDbEntity
  8
7
100
AcDbLine
 10
4.775985347119076
 20
8.55566542428388
 30
0.0
 11
4.770079008536398
 21
8.526133731370494
 31
0.0
  0
LINE
  5
3459
330
1E
100
AcDbEntity
  8
7
100
AcDbLine
 10
4.770079008536398
 20
8.526133731370494
 30
0.0
 11
4.768110229008839
 21
8.3863503849138
 31
0.0
  0
LINE
  5
345A
330
1E
100
AcDbEntity
  8
7
100
AcDbLine
 10
4.768110229008839
 20
8.3863503849138
 30
0.0
 11
4.768110229008839
 21
8.364693810110653
 31
0.0
  0
LINE
  5
345B
330
1E
100
AcDbEntity
  8
7
100
AcDbLine
 10
4.762203890426161
 20
8.364693810110653
 30
0.0
 11
4.762203890426161
 21
8.388319164441362
 31
0.0
  0
LINE
  5
345C
330
1E
100
AcDbEntity
  8
7
100
AcDbLine
 10
4.762203890426161
 20
8.388319164441362
 30
0.0
 11
4.697234166016711
 21
8.388319164441362
 31
0.0
  0
LINE
  5
345D
330
1E
100
AcDbEntity
  8
7
100
AcDbLine
 10
4.697234166016711
 20
8.388319164441362
 30
0.0
 11
4.697234166016711
 21
8.364693810110653
 31
0.0
  0
LINE
  5
345E
330
1E
100
AcDbEntity
  8
7
100
AcDbLine
 10
4.768110229008839
 20
8.364693810110653
 30
0.0
 11
4.762203890426161
 21
8.364693810110653
 31
0.0
  0
LINE
  5
345F
330
1E
100
AcDbEntity
  8
7
100
AcDbLine
 10
4.762203890426161
 20
8.364693810110653
 30
0.0
 11
4.697234166016711
 21
8.364693810110653
 31
0.0
  0
LINE
  5
3460
330
1E
100
AcDbEntity
  8
7
100
AcDbLine
 10
4.697234166016711
 20
8.364693810110653
 30
0.0
 11
4.693296606961594
 21
8.364693810110653
 31
0.0
  0
LINE
  5
3461
330
1E
100
AcDbEntity
  8
7
100
AcDbLine
 10
5.016176449481279
 20
8.587165896724824
 30
0.0
 11
5.033895465229312
 21
8.575353219559474
 31
0.0
  0
LINE
  5
3462
330
1E
100
AcDbEntity
  8
7
100
AcDbLine
 10
5.033895465229312
 20
8.575353219559474
 30
0.0
 11
5.045708142394665
 21
8.55566542428388
 31
0.0
  0
LINE
  5
3463
330
1E
100
AcDbEntity
  8
7
100
AcDbLine
 10
5.045708142394665
 20
8.55566542428388
 30
0.0
 11
5.051614480977343
 21
8.530071290425615
 31
0.0
  0
LINE
  5
3464
330
1E
100
AcDbEntity
  8
7
100
AcDbLine
 10
5.051614480977343
 20
8.530071290425615
 30
0.0
 11
5.053583260504901
 21
8.388319164441362
 31
0.0
  0
LINE
  5
3465
330
1E
100
AcDbEntity
  8
7
100
AcDbLine
 10
5.045708142394665
 20
8.526133731370494
 30
0.0
 11
5.039801803811987
 21
8.55566542428388
 31
0.0
  0
LINE
  5
3466
330
1E
100
AcDbEntity
  8
7
100
AcDbLine
 10
5.039801803811987
 20
8.55566542428388
 30
0.0
 11
5.026020347119075
 21
8.577321999087033
 31
0.0
  0
LINE
  5
3467
330
1E
100
AcDbEntity
  8
7
100
AcDbLine
 10
5.026020347119075
 20
8.577321999087033
 30
0.0
 11
5.006332551843484
 21
8.585197117197266
 31
0.0
  0
LINE
  5
3468
330
1E
100
AcDbEntity
  8
7
100
AcDbLine
 10
5.006332551843484
 20
8.24853581798467
 30
0.0
 11
5.033895465229312
 21
8.250504597512229
 31
0.0
  0
LINE
  5
3469
330
1E
100
AcDbEntity
  8
7
100
AcDbLine
 10
5.033895465229312
 20
8.250504597512229
 30
0.0
 11
5.045708142394665
 21
8.254442156567346
 31
0.0
  0
LINE
  5
346A
330
1E
100
AcDbEntity
  8
7
100
AcDbLine
 10
5.051614480977343
 20
8.268223613260259
 30
0.0
 11
5.118552984914349
 21
8.268223613260259
 31
0.0
  0
LINE
  5
346B
330
1E
100
AcDbEntity
  8
7
100
AcDbLine
 10
5.118552984914349
 20
8.268223613260259
 30
0.0
 11
5.118552984914349
 21
8.358787471527977
 31
0.0
  0
LINE
  5
346C
330
1E
100
AcDbEntity
  8
7
100
AcDbLine
 10
5.047676921922223
 20
8.364693810110653
 30
0.0
 11
5.047676921922223
 21
8.3863503849138
 31
0.0
  0
LINE
  5
346D
330
1E
100
AcDbEntity
  8
7
100
AcDbLine
 10
5.047676921922223
 20
8.3863503849138
 30
0.0
 11
5.045708142394665
 21
8.526133731370494
 31
0.0
  0
LINE
  5
346E
330
1E
100
AcDbEntity
  8
7
100
AcDbLine
 10
5.045708142394665
 20
8.254442156567346
 30
0.0
 11
5.047676921922223
 21
8.2662548337327
 31
0.0
  0
LINE
  5
346F
330
1E
100
AcDbEntity
  8
7
100
AcDbLine
 10
5.047676921922223
 20
8.2662548337327
 30
0.0
 11
5.047676921922223
 21
8.358787471527977
 31
0.0
  0
LINE
  5
3470
330
1E
100
AcDbEntity
  8
7
100
AcDbLine
 10
6.715233181764745
 20
7.978813022709076
 30
0.0
 11
6.707358063654508
 21
7.976844243181518
 31
0.0
  0
LINE
  5
3471
330
1E
100
AcDbEntity
  8
7
100
AcDbLine
 10
6.707358063654508
 20
7.976844243181518
 30
0.0
 11
6.679795150268681
 21
7.976844243181518
 31
0.0
  0
LINE
  5
3472
330
1E
100
AcDbEntity
  8
7
100
AcDbLine
 10
6.679795150268681
 20
7.976844243181518
 30
0.0
 11
6.642388339245058
 21
7.976844243181518
 31
0.0
  0
LINE
  5
3473
330
1E
100
AcDbEntity
  8
7
100
AcDbLine
 10
6.642388339245058
 20
7.976844243181518
 30
0.0
 11
6.595137630583641
 21
7.978813022709076
 31
0.0
  0
LINE
  5
3474
330
1E
100
AcDbEntity
  8
7
100
AcDbLine
 10
4.419636252630885
 20
7.982750581764197
 30
0.0
 11
4.421605032158444
 21
7.965031566016163
 31
0.0
  0
LINE
  5
3475
330
1E
100
AcDbEntity
  8
7
100
AcDbLine
 10
4.421605032158444
 20
7.965031566016163
 30
0.0
 11
4.423573811686003
 21
7.957156447905928
 31
0.0
  0
LINE
  5
3476
330
1E
100
AcDbEntity
  8
7
100
AcDbLine
 10
6.595137630583641
 20
7.864623810110653
 30
0.0
 11
6.595137630583641
 21
7.87249892822089
 31
0.0
  0
LINE
  5
3477
330
1E
100
AcDbEntity
  8
7
100
AcDbLine
 10
6.595137630583641
 20
7.87249892822089
 30
0.0
 11
6.595137630583641
 21
7.896124282551597
 31
0.0
  0
LINE
  5
3478
330
1E
100
AcDbEntity
  8
7
100
AcDbLine
 10
6.595137630583641
 20
7.896124282551597
 30
0.0
 11
6.595137630583641
 21
7.933531093575218
 31
0.0
  0
LINE
  5
3479
330
1E
100
AcDbEntity
  8
7
100
AcDbLine
 10
6.595137630583641
 20
7.933531093575218
 30
0.0
 11
6.595137630583641
 21
7.978813022709076
 31
0.0
  0
LINE
  5
347A
330
1E
100
AcDbEntity
  8
7
100
AcDbLine
 10
5.392213339245058
 20
7.957156447905928
 30
0.0
 11
5.394182118772619
 21
7.965031566016163
 31
0.0
  0
LINE
  5
347B
330
1E
100
AcDbEntity
  8
7
100
AcDbLine
 10
5.394182118772619
 20
7.965031566016163
 30
0.0
 11
5.396150898300177
 21
7.982750581764197
 31
0.0
  0
LINE
  5
347C
330
1E
100
AcDbEntity
  8
7
100
AcDbLine
 10
5.404026016410413
 20
7.978813022709076
 30
0.0
 11
6.595137630583641
 21
7.978813022709076
 31
0.0
  0
LINE
  5
347D
330
1E
100
AcDbEntity
  8
7
100
AcDbLine
 10
6.595137630583641
 20
7.978813022709076
 30
0.0
 11
6.608919087276555
 21
8.264286054205141
 31
0.0
  0
LINE
  5
347E
330
1E
100
AcDbEntity
  8
7
100
AcDbLine
 10
3.22064952034742
 20
7.978813022709076
 30
0.0
 11
4.411761134520649
 21
7.978813022709076
 31
0.0
  0
LINE
  5
347F
330
1E
100
AcDbEntity
  8
7
100
AcDbLine
 10
4.411761134520649
 20
7.978813022709076
 30
0.0
 11
4.411761134520649
 21
8.264286054205141
 31
0.0
  0
LINE
  5
3480
330
1E
100
AcDbEntity
  8
7
100
AcDbLine
 10
3.100553969166318
 20
7.978813022709076
 30
0.0
 11
3.108429087276554
 21
7.976844243181518
 31
0.0
  0
LINE
  5
3481
330
1E
100
AcDbEntity
  8
7
100
AcDbLine
 10
3.108429087276554
 20
7.976844243181518
 30
0.0
 11
3.135992000662382
 21
7.976844243181518
 31
0.0
  0
LINE
  5
3482
330
1E
100
AcDbEntity
  8
7
100
AcDbLine
 10
3.135992000662382
 20
7.976844243181518
 30
0.0
 11
3.173398811686003
 21
7.976844243181518
 31
0.0
  0
LINE
  5
3483
330
1E
100
AcDbEntity
  8
7
100
AcDbLine
 10
3.173398811686003
 20
7.976844243181518
 30
0.0
 11
3.22064952034742
 21
7.978813022709076
 31
0.0
  0
LINE
  5
3484
330
1E
100
AcDbEntity
  8
7
100
AcDbLine
 10
3.22064952034742
 20
7.978813022709076
 30
0.0
 11
3.22064952034742
 21
7.933531093575218
 31
0.0
  0
LINE
  5
3485
330
1E
100
AcDbEntity
  8
7
100
AcDbLine
 10
3.22064952034742
 20
7.933531093575218
 30
0.0
 11
3.22064952034742
 21
7.896124282551597
 31
0.0
  0
LINE
  5
3486
330
1E
100
AcDbEntity
  8
7
100
AcDbLine
 10
3.22064952034742
 20
7.896124282551597
 30
0.0
 11
3.22064952034742
 21
7.87249892822089
 31
0.0
  0
LINE
  5
3487
330
1E
100
AcDbEntity
  8
7
100
AcDbLine
 10
3.22064952034742
 20
7.87249892822089
 30
0.0
 11
3.22064952034742
 21
7.864623810110653
 31
0.0
  0
LINE
  5
3488
330
1E
100
AcDbEntity
  8
7
100
AcDbLine
 10
4.712984402237184
 20
8.085127117197266
 30
0.0
 11
4.714953181764744
 21
8.091033455779946
 31
0.0
  0
LINE
  5
3489
330
1E
100
AcDbEntity
  8
7
100
AcDbLine
 10
4.714953181764744
 20
8.091033455779946
 30
0.0
 11
4.72085952034742
 21
8.093002235307505
 31
0.0
  0
LINE
  5
348A
330
1E
100
AcDbEntity
  8
7
100
AcDbLine
 10
4.712984402237184
 20
8.085127117197266
 30
0.0
 11
4.714953181764744
 21
8.085127117197266
 31
0.0
  0
LINE
  5
348B
330
1E
100
AcDbEntity
  8
7
100
AcDbLine
 10
4.714953181764744
 20
8.085127117197266
 30
0.0
 11
4.72085952034742
 21
8.085127117197266
 31
0.0
  0
LINE
  5
348C
330
1E
100
AcDbEntity
  8
7
100
AcDbLine
 10
4.72085952034742
 20
8.085127117197266
 30
0.0
 11
4.72085952034742
 21
8.091033455779946
 31
0.0
  0
LINE
  5
348D
330
1E
100
AcDbEntity
  8
7
100
AcDbLine
 10
4.72085952034742
 20
8.091033455779946
 30
0.0
 11
4.72085952034742
 21
8.093002235307505
 31
0.0
  0
LINE
  5
348E
330
1E
100
AcDbEntity
  8
7
100
AcDbLine
 10
5.094927630583641
 20
8.085127117197266
 30
0.0
 11
5.094927630583641
 21
8.091033455779946
 31
0.0
  0
LINE
  5
348F
330
1E
100
AcDbEntity
  8
7
100
AcDbLine
 10
5.094927630583641
 20
8.091033455779946
 30
0.0
 11
5.094927630583641
 21
8.093002235307505
 31
0.0
  0
LINE
  5
3490
330
1E
100
AcDbEntity
  8
7
100
AcDbLine
 10
5.094927630583641
 20
8.085127117197266
 30
0.0
 11
5.098865189638759
 21
8.085127117197266
 31
0.0
  0
LINE
  5
3491
330
1E
100
AcDbEntity
  8
7
100
AcDbLine
 10
5.098865189638759
 20
8.085127117197266
 30
0.0
 11
5.102802748693877
 21
8.085127117197266
 31
0.0
  0
LINE
  5
3492
330
1E
100
AcDbEntity
  8
7
100
AcDbLine
 10
5.102802748693877
 20
8.085127117197266
 30
0.0
 11
5.100833969166318
 21
8.091033455779946
 31
0.0
  0
LINE
  5
3493
330
1E
100
AcDbEntity
  8
7
100
AcDbLine
 10
5.100833969166318
 20
8.091033455779946
 30
0.0
 11
5.094927630583641
 21
8.093002235307505
 31
0.0
  0
LINE
  5
3494
330
1E
100
AcDbEntity
  8
7
100
AcDbLine
 10
4.703140504599389
 20
8.136315384913801
 30
0.0
 11
4.72085952034742
 21
8.093002235307505
 31
0.0
  0
LINE
  5
3495
330
1E
100
AcDbEntity
  8
7
100
AcDbLine
 10
4.72085952034742
 20
8.093002235307505
 30
0.0
 11
5.094927630583641
 21
8.093002235307505
 31
0.0
  0
LINE
  5
3496
330
1E
100
AcDbEntity
  8
7
100
AcDbLine
 10
5.094927630583641
 20
8.093002235307505
 30
0.0
 11
5.112646646331674
 21
8.136315384913801
 31
0.0
  0
LINE
  5
3497
330
1E
100
AcDbEntity
  8
7
100
AcDbLine
 10
4.697234166016711
 20
8.177659754992543
 30
0.0
 11
4.70117172507183
 21
8.136315384913801
 31
0.0
  0
LINE
  5
3498
330
1E
100
AcDbEntity
  8
7
100
AcDbLine
 10
4.70117172507183
 20
8.136315384913801
 30
0.0
 11
4.703140504599389
 21
8.136315384913801
 31
0.0
  0
LINE
  5
3499
330
1E
100
AcDbEntity
  8
7
100
AcDbLine
 10
4.703140504599389
 20
8.136315384913801
 30
0.0
 11
5.112646646331674
 21
8.136315384913801
 31
0.0
  0
LINE
  5
349A
330
1E
100
AcDbEntity
  8
7
100
AcDbLine
 10
5.112646646331674
 20
8.136315384913801
 30
0.0
 11
5.114615425859232
 21
8.136315384913801
 31
0.0
  0
LINE
  5
349B
330
1E
100
AcDbEntity
  8
7
100
AcDbLine
 10
5.114615425859232
 20
8.136315384913801
 30
0.0
 11
5.118552984914349
 21
8.177659754992543
 31
0.0
  0
LINE
  5
349C
330
1E
100
AcDbEntity
  8
7
100
AcDbLine
 10
5.094927630583641
 20
8.085127117197266
 30
0.0
 11
4.72085952034742
 21
8.085127117197266
 31
0.0
  0
LINE
  5
349D
330
1E
100
AcDbEntity
  8
7
100
AcDbLine
 10
4.72085952034742
 20
8.085127117197266
 30
0.0
 11
4.72085952034742
 21
8.065439321921676
 31
0.0
  0
LINE
  5
349E
330
1E
100
AcDbEntity
  8
7
100
AcDbLine
 10
4.712984402237184
 20
8.065439321921676
 30
0.0
 11
4.712984402237184
 21
8.085127117197266
 31
0.0
  0
LINE
  5
349F
330
1E
100
AcDbEntity
  8
7
100
AcDbLine
 10
4.712984402237184
 20
8.085127117197266
 30
0.0
 11
4.693296606961594
 21
8.130409046331125
 31
0.0
  0
LINE
  5
34A0
330
1E
100
AcDbEntity
  8
7
100
AcDbLine
 10
4.693296606961594
 20
8.130409046331125
 30
0.0
 11
4.689359047906475
 21
8.165847077827187
 31
0.0
  0
LINE
  5
34A1
330
1E
100
AcDbEntity
  8
7
100
AcDbLine
 10
5.124459323497027
 20
8.165847077827187
 30
0.0
 11
5.120521764441909
 21
8.130409046331125
 31
0.0
  0
LINE
  5
34A2
330
1E
100
AcDbEntity
  8
7
100
AcDbLine
 10
5.120521764441909
 20
8.130409046331125
 30
0.0
 11
5.102802748693877
 21
8.085127117197266
 31
0.0
  0
LINE
  5
34A3
330
1E
100
AcDbEntity
  8
7
100
AcDbLine
 10
5.102802748693877
 20
8.085127117197266
 30
0.0
 11
5.102802748693877
 21
8.065439321921676
 31
0.0
  0
LINE
  5
34A4
330
1E
100
AcDbEntity
  8
7
100
AcDbLine
 10
4.445230386489153
 20
7.957156447905928
 30
0.0
 11
4.447199166016711
 21
8.108752471527976
 31
0.0
  0
LINE
  5
34A5
330
1E
100
AcDbEntity
  8
7
100
AcDbLine
 10
4.447199166016711
 20
8.108752471527976
 30
0.0
 11
4.457043063654507
 21
8.59897857389018
 31
0.0
  0
LINE
  5
34A6
330
1E
100
AcDbEntity
  8
7
100
AcDbLine
 10
4.527919126646634
 20
8.72498046365396
 30
0.0
 11
4.490512315623012
 21
8.691511211685456
 31
0.0
  0
LINE
  5
34A7
330
1E
100
AcDbEntity
  8
7
100
AcDbLine
 10
4.490512315623012
 20
8.691511211685456
 30
0.0
 11
4.466886961292303
 21
8.648198062079156
 31
0.0
  0
LINE
  5
34A8
330
1E
100
AcDbEntity
  8
7
100
AcDbLine
 10
4.466886961292303
 20
8.648198062079156
 30
0.0
 11
4.457043063654507
 21
8.59897857389018
 31
0.0
  0
LINE
  5
34A9
330
1E
100
AcDbEntity
  8
7
100
AcDbLine
 10
5.270149008536398
 20
8.711199006961045
 30
0.0
 11
5.270149008536398
 21
8.713167786488604
 31
0.0
  0
LINE
  5
34AA
330
1E
100
AcDbEntity
  8
7
100
AcDbLine
 10
5.270149008536398
 20
8.713167786488604
 30
0.0
 11
5.266211449481279
 21
8.721042904598842
 31
0.0
  0
LINE
  5
34AB
330
1E
100
AcDbEntity
  8
7
100
AcDbLine
 10
5.266211449481279
 20
8.721042904598842
 30
0.0
 11
5.262273890426161
 21
8.730886802236636
 31
0.0
  0
LINE
  5
34AC
330
1E
100
AcDbEntity
  8
7
100
AcDbLine
 10
5.262273890426161
 20
8.730886802236636
 30
0.0
 11
5.254398772315926
 21
8.738761920346874
 31
0.0
  0
LINE
  5
34AD
330
1E
100
AcDbEntity
  8
7
100
AcDbLine
 10
5.254398772315926
 20
8.738761920346874
 30
0.0
 11
5.240617315623011
 21
8.742699479401991
 31
0.0
  0
LINE
  5
34AE
330
1E
100
AcDbEntity
  8
7
100
AcDbLine
 10
4.575169835308051
 20
8.742699479401991
 30
0.0
 11
4.561388378615137
 21
8.738761920346874
 31
0.0
  0
LINE
  5
34AF
330
1E
100
AcDbEntity
  8
7
100
AcDbLine
 10
4.561388378615137
 20
8.738761920346874
 30
0.0
 11
4.553513260504901
 21
8.730886802236636
 31
0.0
  0
LINE
  5
34B0
330
1E
100
AcDbEntity
  8
7
100
AcDbLine
 10
4.553513260504901
 20
8.730886802236636
 30
0.0
 11
4.547606921922223
 21
8.721042904598842
 31
0.0
  0
LINE
  5
34B1
330
1E
100
AcDbEntity
  8
7
100
AcDbLine
 10
4.547606921922223
 20
8.721042904598842
 30
0.0
 11
4.545638142394665
 21
8.713167786488604
 31
0.0
  0
LINE
  5
34B2
330
1E
100
AcDbEntity
  8
7
100
AcDbLine
 10
4.545638142394665
 20
8.713167786488604
 30
0.0
 11
4.545638142394665
 21
8.711199006961045
 31
0.0
  0
LINE
  5
34B3
330
1E
100
AcDbEntity
  8
7
100
AcDbLine
 10
5.209116843182067
 20
8.746637038457107
 30
0.0
 11
4.606670307748996
 21
8.746637038457107
 31
0.0
  0
LINE
  5
34B4
330
1E
100
AcDbEntity
  8
7
100
AcDbLine
 10
4.606670307748996
 20
8.746637038457107
 30
0.0
 11
4.575169835308051
 21
8.742699479401991
 31
0.0
  0
LINE
  5
34B5
330
1E
100
AcDbEntity
  8
7
100
AcDbLine
 10
4.687390268378917
 20
8.549759085701204
 30
0.0
 11
4.677546370741122
 21
8.575353219559474
 31
0.0
  0
LINE
  5
34B6
330
1E
100
AcDbEntity
  8
7
100
AcDbLine
 10
4.677546370741122
 20
8.575353219559474
 30
0.0
 11
4.651952236882855
 21
8.585197117197266
 31
0.0
  0
LINE
  5
34B7
330
1E
100
AcDbEntity
  8
7
100
AcDbLine
 10
4.651952236882855
 20
8.585197117197266
 30
0.0
 11
4.626358103024585
 21
8.575353219559474
 31
0.0
  0
LINE
  5
34B8
330
1E
100
AcDbEntity
  8
7
100
AcDbLine
 10
4.626358103024585
 20
8.575353219559474
 30
0.0
 11
4.616514205386791
 21
8.549759085701204
 31
0.0
  0
LINE
  5
34B9
330
1E
100
AcDbEntity
  8
7
100
AcDbLine
 10
5.358744087276554
 20
8.59897857389018
 30
0.0
 11
5.34890018963876
 21
8.648198062079156
 31
0.0
  0
LINE
  5
34BA
330
1E
100
AcDbEntity
  8
7
100
AcDbLine
 10
5.34890018963876
 20
8.648198062079156
 30
0.0
 11
5.325274835308051
 21
8.691511211685456
 31
0.0
  0
LINE
  5
34BB
330
1E
100
AcDbEntity
  8
7
100
AcDbLine
 10
5.325274835308051
 20
8.691511211685456
 30
0.0
 11
5.287868024284429
 21
8.72498046365396
 31
0.0
  0
LINE
  5
34BC
330
1E
100
AcDbEntity
  8
7
100
AcDbLine
 10
5.287868024284429
 20
8.72498046365396
 30
0.0
 11
5.240617315623011
 21
8.742699479401991
 31
0.0
  0
LINE
  5
34BD
330
1E
100
AcDbEntity
  8
7
100
AcDbLine
 10
5.358744087276554
 20
8.59897857389018
 30
0.0
 11
5.368587984914349
 21
8.108752471527976
 31
0.0
  0
LINE
  5
34BE
330
1E
100
AcDbEntity
  8
7
100
AcDbLine
 10
5.368587984914349
 20
8.108752471527976
 30
0.0
 11
5.37055676444191
 21
7.957156447905928
 31
0.0
  0
LINE
  5
34BF
330
1E
100
AcDbEntity
  8
7
100
AcDbLine
 10
5.197304166016712
 20
8.549759085701204
 30
0.0
 11
5.187460268378917
 21
8.575353219559474
 31
0.0
  0
LINE
  5
34C0
330
1E
100
AcDbEntity
  8
7
100
AcDbLine
 10
5.187460268378917
 20
8.575353219559474
 30
0.0
 11
5.161866134520649
 21
8.585197117197266
 31
0.0
  0
LINE
  5
34C1
330
1E
100
AcDbEntity
  8
7
100
AcDbLine
 10
5.161866134520649
 20
8.585197117197266
 30
0.0
 11
5.136272000662382
 21
8.575353219559474
 31
0.0
  0
LINE
  5
34C2
330
1E
100
AcDbEntity
  8
7
100
AcDbLine
 10
5.136272000662382
 20
8.575353219559474
 30
0.0
 11
5.126428103024585
 21
8.549759085701204
 31
0.0
  0
LINE
  5
34C3
330
1E
100
AcDbEntity
  8
7
100
AcDbLine
 10
5.4335577093238
 20
8.4729766841264
 30
0.0
 11
5.4335577093238
 21
8.467070345543724
 31
0.0
  0
LINE
  5
34C4
330
1E
100
AcDbEntity
  8
7
100
AcDbLine
 10
5.4335577093238
 20
8.467070345543724
 30
0.0
 11
5.435526488851358
 21
8.453288888850812
 31
0.0
  0
LINE
  5
34C5
330
1E
100
AcDbEntity
  8
7
100
AcDbLine
 10
5.4335577093238
 20
8.4729766841264
 30
0.0
 11
5.394182118772619
 21
8.4729766841264
 31
0.0
  0
LINE
  5
34C6
330
1E
100
AcDbEntity
  8
7
100
AcDbLine
 10
5.394182118772619
 20
8.4729766841264
 30
0.0
 11
5.394182118772619
 21
8.467070345543724
 31
0.0
  0
LINE
  5
34C7
330
1E
100
AcDbEntity
  8
7
100
AcDbLine
 10
5.394182118772619
 20
8.467070345543724
 30
0.0
 11
5.394182118772619
 21
8.453288888850812
 31
0.0
  0
LINE
  5
34C8
330
1E
100
AcDbEntity
  8
7
100
AcDbLine
 10
5.9336277093238
 20
8.4729766841264
 30
0.0
 11
5.9336277093238
 21
8.467070345543724
 31
0.0
  0
LINE
  5
34C9
330
1E
100
AcDbEntity
  8
7
100
AcDbLine
 10
5.9336277093238
 20
8.467070345543724
 30
0.0
 11
5.9336277093238
 21
8.453288888850812
 31
0.0
  0
LINE
  5
34CA
330
1E
100
AcDbEntity
  8
7
100
AcDbLine
 10
5.892283339245058
 20
8.4729766841264
 30
0.0
 11
5.892283339245058
 21
8.467070345543724
 31
0.0
  0
LINE
  5
34CB
330
1E
100
AcDbEntity
  8
7
100
AcDbLine
 10
5.892283339245058
 20
8.467070345543724
 30
0.0
 11
5.892283339245058
 21
8.453288888850812
 31
0.0
  0
LINE
  5
34CC
330
1E
100
AcDbEntity
  8
7
100
AcDbLine
 10
5.892283339245058
 20
8.453288888850812
 30
0.0
 11
5.9336277093238
 21
8.453288888850812
 31
0.0
  0
LINE
  5
34CD
330
1E
100
AcDbEntity
  8
7
100
AcDbLine
 10
6.069473496725374
 20
8.4729766841264
 30
0.0
 11
6.069473496725374
 21
8.467070345543724
 31
0.0
  0
LINE
  5
34CE
330
1E
100
AcDbEntity
  8
7
100
AcDbLine
 10
6.069473496725374
 20
8.467070345543724
 30
0.0
 11
6.069473496725374
 21
8.453288888850812
 31
0.0
  0
LINE
  5
34CF
330
1E
100
AcDbEntity
  8
7
100
AcDbLine
 10
6.030097906174193
 20
8.4729766841264
 30
0.0
 11
6.030097906174193
 21
8.467070345543724
 31
0.0
  0
LINE
  5
34D0
330
1E
100
AcDbEntity
  8
7
100
AcDbLine
 10
6.030097906174193
 20
8.467070345543724
 30
0.0
 11
6.030097906174193
 21
8.453288888850812
 31
0.0
  0
LINE
  5
34D1
330
1E
100
AcDbEntity
  8
7
100
AcDbLine
 10
6.030097906174193
 20
8.453288888850812
 30
0.0
 11
6.069473496725374
 21
8.453288888850812
 31
0.0
  0
LINE
  5
34D2
330
1E
100
AcDbEntity
  8
7
100
AcDbLine
 10
6.075379835308051
 20
8.547790306173645
 30
0.0
 11
6.075379835308051
 21
8.539915188063407
 31
0.0
  0
LINE
  5
34D3
330
1E
100
AcDbEntity
  8
7
100
AcDbLine
 10
6.075379835308051
 20
8.539915188063407
 30
0.0
 11
6.07734861483561
 21
8.520227392787818
 31
0.0
  0
LINE
  5
34D4
330
1E
100
AcDbEntity
  8
7
100
AcDbLine
 10
6.07734861483561
 20
8.520227392787818
 30
0.0
 11
6.091130071528524
 21
8.264286054205141
 31
0.0
  0
LINE
  5
34D5
330
1E
100
AcDbEntity
  8
7
100
AcDbLine
 10
5.886377000662382
 20
8.547790306173645
 30
0.0
 11
5.886377000662382
 21
8.539915188063407
 31
0.0
  0
LINE
  5
34D6
330
1E
100
AcDbEntity
  8
7
100
AcDbLine
 10
5.886377000662382
 20
8.539915188063407
 30
0.0
 11
5.886377000662382
 21
8.520227392787818
 31
0.0
  0
LINE
  5
34D7
330
1E
100
AcDbEntity
  8
7
100
AcDbLine
 10
5.439464047906475
 20
8.547790306173645
 30
0.0
 11
5.441432827434035
 21
8.539915188063407
 31
0.0
  0
LINE
  5
34D8
330
1E
100
AcDbEntity
  8
7
100
AcDbLine
 10
5.441432827434035
 20
8.539915188063407
 30
0.0
 11
5.441432827434035
 21
8.520227392787818
 31
0.0
  0
LINE
  5
34D9
330
1E
100
AcDbEntity
  8
7
100
AcDbLine
 10
5.441432827434035
 20
8.520227392787818
 30
0.0
 11
5.455214284126948
 21
8.264286054205141
 31
0.0
  0
LINE
  5
34DA
330
1E
100
AcDbEntity
  8
7
100
AcDbLine
 10
4.421605032158444
 20
8.4729766841264
 30
0.0
 11
4.421605032158444
 21
8.467070345543724
 31
0.0
  0
LINE
  5
34DB
330
1E
100
AcDbEntity
  8
7
100
AcDbLine
 10
4.421605032158444
 20
8.467070345543724
 30
0.0
 11
4.421605032158444
 21
8.453288888850812
 31
0.0
  0
LINE
  5
34DC
330
1E
100
AcDbEntity
  8
7
100
AcDbLine
 10
4.380260662079704
 20
8.4729766841264
 30
0.0
 11
4.380260662079704
 21
8.467070345543724
 31
0.0
  0
LINE
  5
34DD
330
1E
100
AcDbEntity
  8
7
100
AcDbLine
 10
4.380260662079704
 20
8.467070345543724
 30
0.0
 11
4.380260662079704
 21
8.453288888850812
 31
0.0
  0
LINE
  5
34DE
330
1E
100
AcDbEntity
  8
7
100
AcDbLine
 10
3.78568924475687
 20
8.4729766841264
 30
0.0
 11
3.78568924475687
 21
8.467070345543724
 31
0.0
  0
LINE
  5
34DF
330
1E
100
AcDbEntity
  8
7
100
AcDbLine
 10
3.78568924475687
 20
8.467070345543724
 30
0.0
 11
3.78568924475687
 21
8.453288888850812
 31
0.0
  0
LINE
  5
34E0
330
1E
100
AcDbEntity
  8
7
100
AcDbLine
 10
3.78568924475687
 20
8.4729766841264
 30
0.0
 11
3.746313654205689
 21
8.4729766841264
 31
0.0
  0
LINE
  5
34E1
330
1E
100
AcDbEntity
  8
7
100
AcDbLine
 10
3.746313654205689
 20
8.4729766841264
 30
0.0
 11
3.746313654205689
 21
8.467070345543724
 31
0.0
  0
LINE
  5
34E2
330
1E
100
AcDbEntity
  8
7
100
AcDbLine
 10
3.746313654205689
 20
8.467070345543724
 30
0.0
 11
3.746313654205689
 21
8.453288888850812
 31
0.0
  0
LINE
  5
34E3
330
1E
100
AcDbEntity
  8
7
100
AcDbLine
 10
3.921535032158444
 20
8.4729766841264
 30
0.0
 11
3.921535032158444
 21
8.467070345543724
 31
0.0
  0
LINE
  5
34E4
330
1E
100
AcDbEntity
  8
7
100
AcDbLine
 10
3.921535032158444
 20
8.467070345543724
 30
0.0
 11
3.923503811686003
 21
8.453288888850812
 31
0.0
  0
LINE
  5
34E5
330
1E
100
AcDbEntity
  8
7
100
AcDbLine
 10
3.921535032158444
 20
8.4729766841264
 30
0.0
 11
3.882159441607263
 21
8.4729766841264
 31
0.0
  0
LINE
  5
34E6
330
1E
100
AcDbEntity
  8
7
100
AcDbLine
 10
3.882159441607263
 20
8.4729766841264
 30
0.0
 11
3.882159441607263
 21
8.467070345543724
 31
0.0
  0
LINE
  5
34E7
330
1E
100
AcDbEntity
  8
7
100
AcDbLine
 10
3.882159441607263
 20
8.467070345543724
 30
0.0
 11
3.882159441607263
 21
8.453288888850812
 31
0.0
  0
LINE
  5
34E8
330
1E
100
AcDbEntity
  8
7
100
AcDbLine
 10
3.927441370741122
 20
8.547790306173645
 30
0.0
 11
3.92941015026868
 21
8.539915188063407
 31
0.0
  0
LINE
  5
34E9
330
1E
100
AcDbEntity
  8
7
100
AcDbLine
 10
3.92941015026868
 20
8.539915188063407
 30
0.0
 11
3.92941015026868
 21
8.520227392787818
 31
0.0
  0
LINE
  5
34EA
330
1E
100
AcDbEntity
  8
7
100
AcDbLine
 10
3.92941015026868
 20
8.520227392787818
 30
0.0
 11
3.943191606961594
 21
8.264286054205141
 31
0.0
  0
LINE
  5
34EB
330
1E
100
AcDbEntity
  8
7
100
AcDbLine
 10
4.374354323497027
 20
8.547790306173645
 30
0.0
 11
4.374354323497027
 21
8.539915188063407
 31
0.0
  0
LINE
  5
34EC
330
1E
100
AcDbEntity
  8
7
100
AcDbLine
 10
4.374354323497027
 20
8.539915188063407
 30
0.0
 11
4.374354323497027
 21
8.520227392787818
 31
0.0
  0
LINE
  5
34ED
330
1E
100
AcDbEntity
  8
7
100
AcDbLine
 10
3.9333477093238
 20
8.453288888850812
 30
0.0
 11
4.275915347119076
 21
8.453288888850812
 31
0.0
  0
LINE
  5
34EE
330
1E
100
AcDbEntity
  8
7
100
AcDbLine
 10
4.275915347119076
 20
8.453288888850812
 30
0.0
 11
4.279852906174192
 21
8.264286054205141
 31
0.0
  0
LINE
  5
34EF
330
1E
100
AcDbEntity
  8
7
100
AcDbLine
 10
5.339056292000964
 20
8.59897857389018
 30
0.0
 11
5.329212394363168
 21
8.644260503024039
 31
0.0
  0
LINE
  5
34F0
330
1E
100
AcDbEntity
  8
7
100
AcDbLine
 10
5.329212394363168
 20
8.644260503024039
 30
0.0
 11
5.30558704003246
 21
8.683636093575218
 31
0.0
  0
LINE
  5
34F1
330
1E
100
AcDbEntity
  8
7
100
AcDbLine
 10
5.30558704003246
 20
8.683636093575218
 30
0.0
 11
5.270149008536398
 21
8.711199006961045
 31
0.0
  0
LINE
  5
34F2
330
1E
100
AcDbEntity
  8
7
100
AcDbLine
 10
5.199272945544271
 20
8.549759085701204
 30
0.0
 11
5.187460268378917
 21
8.575353219559474
 31
0.0
  0
LINE
  5
34F3
330
1E
100
AcDbEntity
  8
7
100
AcDbLine
 10
5.187460268378917
 20
8.575353219559474
 30
0.0
 11
5.161866134520649
 21
8.587165896724824
 31
0.0
  0
LINE
  5
34F4
330
1E
100
AcDbEntity
  8
7
100
AcDbLine
 10
5.161866134520649
 20
8.587165896724824
 30
0.0
 11
5.136272000662382
 21
8.575353219559474
 31
0.0
  0
LINE
  5
34F5
330
1E
100
AcDbEntity
  8
7
100
AcDbLine
 10
5.136272000662382
 20
8.575353219559474
 30
0.0
 11
5.124459323497027
 21
8.549759085701204
 31
0.0
  0
LINE
  5
34F6
330
1E
100
AcDbEntity
  8
7
100
AcDbLine
 10
5.006332551843484
 20
8.585197117197266
 30
0.0
 11
5.016176449481279
 21
8.587165896724824
 31
0.0
  0
LINE
  5
34F7
330
1E
100
AcDbEntity
  8
7
100
AcDbLine
 10
5.016176449481279
 20
8.587165896724824
 30
0.0
 11
5.120521764441909
 21
8.587165896724824
 31
0.0
  0
LINE
  5
34F8
330
1E
100
AcDbEntity
  8
7
100
AcDbLine
 10
5.120521764441909
 20
8.587165896724824
 30
0.0
 11
5.124459323497027
 21
8.579290778614591
 31
0.0
  0
LINE
  5
34F9
330
1E
100
AcDbEntity
  8
7
100
AcDbLine
 10
4.689359047906475
 20
8.165847077827187
 30
0.0
 11
4.697234166016711
 21
8.177659754992543
 31
0.0
  0
LINE
  5
34FA
330
1E
100
AcDbEntity
  8
7
100
AcDbLine
 10
4.697234166016711
 20
8.177659754992543
 30
0.0
 11
5.118552984914349
 21
8.177659754992543
 31
0.0
  0
LINE
  5
34FB
330
1E
100
AcDbEntity
  8
7
100
AcDbLine
 10
5.118552984914349
 20
8.177659754992543
 30
0.0
 11
5.124459323497027
 21
8.165847077827187
 31
0.0
  0
LINE
  5
34FC
330
1E
100
AcDbEntity
  8
7
100
AcDbLine
 10
4.689359047906475
 20
8.549759085701204
 30
0.0
 11
4.677546370741122
 21
8.575353219559474
 31
0.0
  0
LINE
  5
34FD
330
1E
100
AcDbEntity
  8
7
100
AcDbLine
 10
4.677546370741122
 20
8.575353219559474
 30
0.0
 11
4.651952236882855
 21
8.587165896724824
 31
0.0
  0
LINE
  5
34FE
330
1E
100
AcDbEntity
  8
7
100
AcDbLine
 10
4.651952236882855
 20
8.587165896724824
 30
0.0
 11
4.626358103024585
 21
8.575353219559474
 31
0.0
  0
LINE
  5
34FF
330
1E
100
AcDbEntity
  8
7
100
AcDbLine
 10
4.626358103024585
 20
8.575353219559474
 30
0.0
 11
4.614545425859232
 21
8.549759085701204
 31
0.0
  0
LINE
  5
3500
330
1E
100
AcDbEntity
  8
7
100
AcDbLine
 10
4.545638142394665
 20
8.711199006961045
 30
0.0
 11
4.510200110898603
 21
8.683636093575218
 31
0.0
  0
LINE
  5
3501
330
1E
100
AcDbEntity
  8
7
100
AcDbLine
 10
4.510200110898603
 20
8.683636093575218
 30
0.0
 11
4.486574756567892
 21
8.644260503024039
 31
0.0
  0
LINE
  5
3502
330
1E
100
AcDbEntity
  8
7
100
AcDbLine
 10
4.486574756567892
 20
8.644260503024039
 30
0.0
 11
4.476730858930098
 21
8.59897857389018
 31
0.0
  0
LINE
  5
3503
330
1E
100
AcDbEntity
  8
7
100
AcDbLine
 10
6.595137630583641
 20
7.866592589638211
 30
0.0
 11
6.638450780189941
 21
7.874467707748449
 31
0.0
  0
LINE
  5
3504
330
1E
100
AcDbEntity
  8
7
100
AcDbLine
 10
6.638450780189941
 20
7.874467707748449
 30
0.0
 11
6.675857591213564
 21
7.900061841606714
 31
0.0
  0
LINE
  5
3505
330
1E
100
AcDbEntity
  8
7
100
AcDbLine
 10
6.675857591213564
 20
7.900061841606714
 30
0.0
 11
6.703420504599389
 21
7.93549987310278
 31
0.0
  0
LINE
  5
3506
330
1E
100
AcDbEntity
  8
7
100
AcDbLine
 10
6.703420504599389
 20
7.93549987310278
 30
0.0
 11
6.713264402237184
 21
7.978813022709076
 31
0.0
  0
LINE
  5
3507
330
1E
100
AcDbEntity
  8
7
100
AcDbLine
 10
6.693576606961594
 20
8.264286054205141
 30
0.0
 11
6.719170740819862
 21
8.264286054205141
 31
0.0
  0
LINE
  5
3508
330
1E
100
AcDbEntity
  8
7
100
AcDbLine
 10
6.719170740819862
 20
8.264286054205141
 30
0.0
 11
6.729014638457656
 21
8.264286054205141
 31
0.0
  0
LINE
  5
3509
330
1E
100
AcDbEntity
  8
7
100
AcDbLine
 10
5.404026016410413
 20
8.264286054205141
 30
0.0
 11
6.608919087276555
 21
8.264286054205141
 31
0.0
  0
LINE
  5
350A
330
1E
100
AcDbEntity
  8
7
100
AcDbLine
 10
6.608919087276555
 20
8.264286054205141
 30
0.0
 11
6.654201016410413
 21
8.264286054205141
 31
0.0
  0
LINE
  5
350B
330
1E
100
AcDbEntity
  8
7
100
AcDbLine
 10
6.654201016410413
 20
8.264286054205141
 30
0.0
 11
6.693576606961594
 21
8.264286054205141
 31
0.0
  0
LINE
  5
350C
330
1E
100
AcDbEntity
  8
7
100
AcDbLine
 10
3.096616410111201
 20
8.264286054205141
 30
0.0
 11
3.122210543969468
 21
8.264286054205141
 31
0.0
  0
LINE
  5
350D
330
1E
100
AcDbEntity
  8
7
100
AcDbLine
 10
3.122210543969468
 20
8.264286054205141
 30
0.0
 11
3.161586134520649
 21
8.264286054205141
 31
0.0
  0
LINE
  5
350E
330
1E
100
AcDbEntity
  8
7
100
AcDbLine
 10
3.161586134520649
 20
8.264286054205141
 30
0.0
 11
3.206868063654508
 21
8.264286054205141
 31
0.0
  0
LINE
  5
350F
330
1E
100
AcDbEntity
  8
7
100
AcDbLine
 10
3.206868063654508
 20
8.264286054205141
 30
0.0
 11
4.411761134520649
 21
8.264286054205141
 31
0.0
  0
LINE
  5
3510
330
1E
100
AcDbEntity
  8
7
100
AcDbLine
 10
4.411761134520649
 20
8.264286054205141
 30
0.0
 11
4.419636252630885
 21
8.264286054205141
 31
0.0
  0
LINE
  5
3511
330
1E
100
AcDbEntity
  8
7
100
AcDbLine
 10
3.100553969166318
 20
7.978813022709076
 30
0.0
 11
3.086772512473404
 21
8.264286054205141
 31
0.0
  0
LINE
  5
3512
330
1E
100
AcDbEntity
  8
7
100
AcDbLine
 10
3.086772512473404
 20
8.264286054205141
 30
0.0
 11
3.096616410111201
 21
8.264286054205141
 31
0.0
  0
LINE
  5
3513
330
1E
100
AcDbEntity
  8
7
100
AcDbLine
 10
3.102522748693877
 20
7.978813022709076
 30
0.0
 11
3.112366646331674
 21
7.93549987310278
 31
0.0
  0
LINE
  5
3514
330
1E
100
AcDbEntity
  8
7
100
AcDbLine
 10
3.112366646331674
 20
7.93549987310278
 30
0.0
 11
3.139929559717499
 21
7.900061841606714
 31
0.0
  0
LINE
  5
3515
330
1E
100
AcDbEntity
  8
7
100
AcDbLine
 10
3.139929559717499
 20
7.900061841606714
 30
0.0
 11
3.177336370741122
 21
7.874467707748449
 31
0.0
  0
LINE
  5
3516
330
1E
100
AcDbEntity
  8
7
100
AcDbLine
 10
3.177336370741122
 20
7.874467707748449
 30
0.0
 11
3.22064952034742
 21
7.866592589638211
 31
0.0
  0
LINE
  5
3517
330
1E
100
AcDbEntity
  8
7
100
AcDbLine
 10
4.689359047906475
 20
8.047720306173646
 30
0.0
 11
4.689359047906475
 21
8.049689085701205
 31
0.0
  0
LINE
  5
3518
330
1E
100
AcDbEntity
  8
7
100
AcDbLine
 10
4.689359047906475
 20
8.049689085701205
 30
0.0
 11
4.689359047906475
 21
8.053626644756322
 31
0.0
  0
LINE
  5
3519
330
1E
100
AcDbEntity
  8
7
100
AcDbLine
 10
4.689359047906475
 20
8.053626644756322
 30
0.0
 11
4.689359047906475
 21
8.057564203811439
 31
0.0
  0
LINE
  5
351A
330
1E
100
AcDbEntity
  8
7
100
AcDbLine
 10
4.693296606961594
 20
8.364693810110653
 30
0.0
 11
4.693296606961594
 21
8.3863503849138
 31
0.0
  0
LINE
  5
351B
330
1E
100
AcDbEntity
  8
7
100
AcDbLine
 10
4.693296606961594
 20
8.3863503849138
 30
0.0
 11
4.689359047906475
 21
8.579290778614591
 31
0.0
  0
LINE
  5
351C
330
1E
100
AcDbEntity
  8
7
100
AcDbLine
 10
4.689359047906475
 20
8.579290778614591
 30
0.0
 11
4.689359047906475
 21
8.549759085701204
 31
0.0
  0
LINE
  5
351D
330
1E
100
AcDbEntity
  8
7
100
AcDbLine
 10
5.124459323497027
 20
8.047720306173646
 30
0.0
 11
5.106740307748996
 21
8.051657865228763
 31
0.0
  0
LINE
  5
351E
330
1E
100
AcDbEntity
  8
7
100
AcDbLine
 10
5.106740307748996
 20
8.051657865228763
 30
0.0
 11
4.709046843182067
 21
8.051657865228763
 31
0.0
  0
LINE
  5
351F
330
1E
100
AcDbEntity
  8
7
100
AcDbLine
 10
4.709046843182067
 20
8.051657865228763
 30
0.0
 11
4.691327827434036
 21
8.047720306173646
 31
0.0
  0
LINE
  5
3520
330
1E
100
AcDbEntity
  8
7
100
AcDbLine
 10
4.691327827434036
 20
8.047720306173646
 30
0.0
 11
5.124459323497027
 21
8.047720306173646
 31
0.0
  0
LINE
  5
3521
330
1E
100
AcDbEntity
  8
7
100
AcDbLine
 10
5.126428103024585
 20
8.549759085701204
 30
0.0
 11
5.124459323497027
 21
8.549759085701204
 31
0.0
  0
LINE
  5
3522
330
1E
100
AcDbEntity
  8
7
100
AcDbLine
 10
5.124459323497027
 20
8.549759085701204
 30
0.0
 11
5.124459323497027
 21
8.579290778614591
 31
0.0
  0
LINE
  5
3523
330
1E
100
AcDbEntity
  8
7
100
AcDbLine
 10
5.124459323497027
 20
8.579290778614591
 30
0.0
 11
5.122490543969468
 21
8.3863503849138
 31
0.0
  0
LINE
  5
3524
330
1E
100
AcDbEntity
  8
7
100
AcDbLine
 10
5.122490543969468
 20
8.3863503849138
 30
0.0
 11
5.122490543969468
 21
8.364693810110653
 31
0.0
  0
LINE
  5
3525
330
1E
100
AcDbEntity
  8
7
100
AcDbLine
 10
5.124459323497027
 20
8.057564203811439
 30
0.0
 11
5.126428103024585
 21
8.053626644756322
 31
0.0
  0
LINE
  5
3526
330
1E
100
AcDbEntity
  8
7
100
AcDbLine
 10
5.126428103024585
 20
8.053626644756322
 30
0.0
 11
5.126428103024585
 21
8.049689085701205
 31
0.0
  0
LINE
  5
3527
330
1E
100
AcDbEntity
  8
7
100
AcDbLine
 10
5.126428103024585
 20
8.049689085701205
 30
0.0
 11
5.126428103024585
 21
8.047720306173646
 31
0.0
  0
LINE
  5
3528
330
1E
100
AcDbEntity
  8
7
100
AcDbLine
 10
5.122490543969468
 20
8.358787471527977
 30
0.0
 11
5.124459323497027
 21
8.2662548337327
 31
0.0
  0
LINE
  5
3529
330
1E
100
AcDbEntity
  8
7
100
AcDbLine
 10
5.124459323497027
 20
8.2662548337327
 30
0.0
 11
5.124459323497027
 21
8.24853581798467
 31
0.0
  0
LINE
  5
352A
330
1E
100
AcDbEntity
  8
7
100
AcDbLine
 10
5.26424266995372
 20
8.337130896724826
 30
0.0
 11
5.262273890426161
 21
8.419819636882309
 31
0.0
  0
LINE
  5
352B
330
1E
100
AcDbEntity
  8
7
100
AcDbLine
 10
5.262273890426161
 20
8.419819636882309
 30
0.0
 11
5.30755581956002
 21
8.419819636882309
 31
0.0
  0
LINE
  5
352C
330
1E
100
AcDbEntity
  8
7
100
AcDbLine
 10
5.30755581956002
 20
8.419819636882309
 30
0.0
 11
5.30755581956002
 21
8.337130896724826
 31
0.0
  0
LINE
  5
352D
330
1E
100
AcDbEntity
  8
7
100
AcDbLine
 10
4.551544480977343
 20
8.252473377039788
 30
0.0
 11
4.551544480977343
 21
8.337130896724826
 31
0.0
  0
LINE
  5
352E
330
1E
100
AcDbEntity
  8
7
100
AcDbLine
 10
4.551544480977343
 20
8.337130896724826
 30
0.0
 11
4.508231331371042
 21
8.337130896724826
 31
0.0
  0
LINE
  5
352F
330
1E
100
AcDbEntity
  8
7
100
AcDbLine
 10
4.508231331371042
 20
8.337130896724826
 30
0.0
 11
4.508231331371042
 21
8.252473377039788
 31
0.0
  0
LINE
  5
3530
330
1E
100
AcDbEntity
  8
7
100
AcDbLine
 10
4.712984402237184
 20
8.065439321921676
 30
0.0
 11
4.714953181764744
 21
8.065439321921676
 31
0.0
  0
LINE
  5
3531
330
1E
100
AcDbEntity
  8
7
100
AcDbLine
 10
4.714953181764744
 20
8.065439321921676
 30
0.0
 11
4.72085952034742
 21
8.065439321921676
 31
0.0
  0
LINE
  5
3532
330
1E
100
AcDbEntity
  8
7
100
AcDbLine
 10
4.712984402237184
 20
8.065439321921676
 30
0.0
 11
4.712984402237184
 21
8.063470542394117
 31
0.0
  0
LINE
  5
3533
330
1E
100
AcDbEntity
  8
7
100
AcDbLine
 10
4.712984402237184
 20
8.063470542394117
 30
0.0
 11
4.714953181764744
 21
8.063470542394117
 31
0.0
  0
LINE
  5
3534
330
1E
100
AcDbEntity
  8
7
100
AcDbLine
 10
4.714953181764744
 20
8.063470542394117
 30
0.0
 11
4.72085952034742
 21
8.063470542394117
 31
0.0
  0
LINE
  5
3535
330
1E
100
AcDbEntity
  8
7
100
AcDbLine
 10
5.094927630583641
 20
8.065439321921676
 30
0.0
 11
5.098865189638759
 21
8.065439321921676
 31
0.0
  0
LINE
  5
3536
330
1E
100
AcDbEntity
  8
7
100
AcDbLine
 10
5.098865189638759
 20
8.065439321921676
 30
0.0
 11
5.102802748693877
 21
8.065439321921676
 31
0.0
  0
LINE
  5
3537
330
1E
100
AcDbEntity
  8
7
100
AcDbLine
 10
5.094927630583641
 20
8.063470542394117
 30
0.0
 11
5.098865189638759
 21
8.063470542394117
 31
0.0
  0
LINE
  5
3538
330
1E
100
AcDbEntity
  8
7
100
AcDbLine
 10
5.098865189638759
 20
8.063470542394117
 30
0.0
 11
5.102802748693877
 21
8.063470542394117
 31
0.0
  0
ENDSEC
  0
SECTION
  2
OBJECTS
  0
DICTIONARY
  5
C
330
0
100
AcDbDictionary
  3
ACAD_GROUP
350
D
  3
ACAD_LAYOUT
350
19
  3
ACAD_MLINESTYLE
350
16
  3
ACAD_PLOTSETTINGS
350
18
1001
ACAD
1000
TREAT_AS_HARD
1070
     0
  0
DICTIONARY
  5
363B
330
1E
100
AcDbDictionary
  3
ACAD_LAYOUTSELFREF
350
36C0
1001
ACAD
1000
TREAT_AS_HARD
1070
     1
  0
DICTIONARY
  5
363D
330
1A
100
AcDbDictionary
  3
ACAD_LAYOUTSELFREF
350
36BF
1001
ACAD
1000
TREAT_AS_HARD
1070
     1
  0
DICTIONARY
  5
D
102
{ACAD_REACTORS
330
C
102
}
330
C
100
AcDbDictionary
1001
ACAD
1000
TREAT_AS_HARD
1070
     0
  0
DICTIONARY
  5
19
102
{ACAD_REACTORS
330
C
102
}
330
C
100
AcDbDictionary
1001
ACAD
1000
TREAT_AS_HARD
1070
     0
  0
DICTIONARY
  5
16
102
{ACAD_REACTORS
330
C
102
}
330
C
100
AcDbDictionary
  3
STANDARD
350
17
1001
ACAD
1000
TREAT_AS_HARD
1070
     0
  0
DICTIONARY
  5
18
102
{ACAD_REACTORS
330
C
102
}
330
C
100
AcDbDictionary
1001
ACAD
1000
TREAT_AS_HARD
1070
     0
  0
XRECORD
  5
36C0
102
{ACAD_REACTORS
330
363B
102
}
330
363B
100
AcDbXrecord
340
1E
  0
XRECORD
  5
36BF
102
{ACAD_REACTORS
330
363D
102
}
330
363D
100
AcDbXrecord
340
1A
  0
MLINESTYLE
  5
17
102
{ACAD_REACTORS
330
16
102
}
330
16
100
AcDbMlineStyle
  2
STANDARD
 70
     0
  3

 62
   256
 51
90.0
 52
90.0
 71
     2
 49
0.5
 62
   256
  6
BYLAYER
 49
-0.5
 62
   256
  6
BYLAYER
  0
ENDSEC
  0
EOF
