  0
SECTION
  2
HEADER
  9
$ACADVER
  1
AC1012
  9
$DWGCODEPAGE
  3
ANSI_1252
  9
$INSBASE
 10
0.0
 20
0.0
 30
0.0
  9
$EXTMIN
 10
-0.1087679004893189
 20
3.245498681959578
 30
-0.0000000000112498
  9
$EXTMAX
 10
6.559202347779031
 20
7.746459980432945
 30
0.0000000000002956
  9
$LIMMIN
 10
0.0
 20
0.0
  9
$LIMMAX
 10
12.0
 20
9.0
  9
$ORTHOMODE
 70
     0
  9
$REGENMODE
 70
     1
  9
$FILLMODE
 70
     1
  9
$QTEXTMODE
 70
     0
  9
$MIRRTEXT
 70
     1
  9
$DRAGMODE
 70
     2
  9
$LTSCALE
 40
1.0
  9
$OSMODE
 70
   547
  9
$ATTMODE
 70
     1
  9
$TEXTSIZE
 40
0.2
  9
$TRACEWID
 40
0.05
  9
$TEXTSTYLE
  7
STANDARD
  9
$CLAYER
  8
0
  9
$CELTYPE
  6
BYLAYER
  9
$CECOLOR
 62
   256
  9
$CELTSCALE
 40
1.0
  9
$DELOBJ
 70
     1
  9
$DISPSILH
 70
     0
  9
$DIMSCALE
 40
1.0
  9
$DIMASZ
 40
0.18
  9
$DIMEXO
 40
0.0625
  9
$DIMDLI
 40
0.38
  9
$DIMRND
 40
0.0
  9
$DIMDLE
 40
0.0
  9
$DIMEXE
 40
0.18
  9
$DIMTP
 40
0.0
  9
$DIMTM
 40
0.0
  9
$DIMTXT
 40
0.18
  9
$DIMCEN
 40
0.09
  9
$DIMTSZ
 40
0.0
  9
$DIMTOL
 70
     0
  9
$DIMLIM
 70
     0
  9
$DIMTIH
 70
     1
  9
$DIMTOH
 70
     1
  9
$DIMSE1
 70
     0
  9
$DIMSE2
 70
     0
  9
$DIMTAD
 70
     0
  9
$DIMZIN
 70
     0
  9
$DIMBLK
  1

  9
$DIMASO
 70
     1
  9
$DIMSHO
 70
     1
  9
$DIMPOST
  1

  9
$DIMAPOST
  1

  9
$DIMALT
 70
     0
  9
$DIMALTD
 70
     2
  9
$DIMALTF
 40
25.4
  9
$DIMLFAC
 40
1.0
  9
$DIMTOFL
 70
     0
  9
$DIMTVP
 40
0.0
  9
$DIMTIX
 70
     0
  9
$DIMSOXD
 70
     0
  9
$DIMSAH
 70
     0
  9
$DIMBLK1
  1

  9
$DIMBLK2
  1

  9
$DIMSTYLE
  2
STANDARD
  9
$DIMCLRD
 70
     0
  9
$DIMCLRE
 70
     0
  9
$DIMCLRT
 70
     0
  9
$DIMTFAC
 40
1.0
  9
$DIMGAP
 40
0.09
  9
$DIMJUST
 70
     0
  9
$DIMSD1
 70
     0
  9
$DIMSD2
 70
     0
  9
$DIMTOLJ
 70
     1
  9
$DIMTZIN
 70
     0
  9
$DIMALTZ
 70
     0
  9
$DIMALTTZ
 70
     0
  9
$DIMFIT
 70
     5
  9
$DIMUPT
 70
     0
  9
$DIMUNIT
 70
     2
  9
$DIMDEC
 70
     4
  9
$DIMTDEC
 70
     4
  9
$DIMALTU
 70
     2
  9
$DIMALTTD
 70
     2
  9
$DIMTXSTY
  7
STANDARD
  9
$DIMAUNIT
 70
     0
  9
$LUNITS
 70
     2
  9
$LUPREC
 70
     4
  9
$SKETCHINC
 40
0.1
  9
$FILLETRAD
 40
0.0
  9
$AUNITS
 70
     0
  9
$AUPREC
 70
     0
  9
$MENU
  1
acad
  9
$ELEVATION
 40
0.0
  9
$PELEVATION
 40
0.0
  9
$THICKNESS
 40
0.0
  9
$LIMCHECK
 70
     0
  9
$BLIPMODE
 70
     0
  9
$CHAMFERA
 40
0.0
  9
$CHAMFERB
 40
0.0
  9
$CHAMFERC
 40
0.0
  9
$CHAMFERD
 40
0.0
  9
$SKPOLY
 70
     0
  9
$TDCREATE
 40
2452255.372812500
  9
$TDUPDATE
 40
2453944.522426296
  9
$TDINDWG
 40
0.0015858565
  9
$TDUSRTIMER
 40
0.0015858565
  9
$USRTIMER
 70
     1
  9
$ANGBASE
 50
0.0
  9
$ANGDIR
 70
     0
  9
$PDMODE
 70
     0
  9
$PDSIZE
 40
0.0
  9
$PLINEWID
 40
0.0
  9
$COORDS
 70
     1
  9
$SPLFRAME
 70
     0
  9
$SPLINETYPE
 70
     6
  9
$SPLINESEGS
 70
     8
  9
$ATTDIA
 70
     0
  9
$ATTREQ
 70
     1
  9
$HANDLING
 70
  4097
  9
$HANDSEED
  5
48DF
  9
$SURFTAB1
 70
     6
  9
$SURFTAB2
 70
     6
  9
$SURFTYPE
 70
     6
  9
$SURFU
 70
     6
  9
$SURFV
 70
     6
  9
$UCSNAME
  2

  9
$UCSORG
 10
0.0
 20
0.0
 30
0.0
  9
$UCSXDIR
 10
1.0
 20
0.0
 30
0.0
  9
$UCSYDIR
 10
0.0
 20
1.0
 30
0.0
  9
$PUCSNAME
  2

  9
$PUCSORG
 10
0.0
 20
0.0
 30
0.0
  9
$PUCSXDIR
 10
1.0
 20
0.0
 30
0.0
  9
$PUCSYDIR
 10
0.0
 20
1.0
 30
0.0
  9
$USERI1
 70
     0
  9
$USERI2
 70
     0
  9
$USERI3
 70
     0
  9
$USERI4
 70
     0
  9
$USERI5
 70
     0
  9
$USERR1
 40
0.0
  9
$USERR2
 40
0.0
  9
$USERR3
 40
0.0
  9
$USERR4
 40
0.0
  9
$USERR5
 40
0.0
  9
$WORLDVIEW
 70
     1
  9
$SHADEDGE
 70
     3
  9
$SHADEDIF
 70
    70
  9
$TILEMODE
 70
     1
  9
$MAXACTVP
 70
    16
  9
$PINSBASE
 10
0.0
 20
0.0
 30
0.0
  9
$PLIMCHECK
 70
     0
  9
$PEXTMIN
 10
1.000000000000000E+20
 20
1.000000000000000E+20
 30
1.000000000000000E+20
  9
$PEXTMAX
 10
-1.000000000000000E+20
 20
-1.000000000000000E+20
 30
-1.000000000000000E+20
  9
$PLIMMIN
 10
0.0
 20
0.0
  9
$PLIMMAX
 10
12.0
 20
9.0
  9
$UNITMODE
 70
     0
  9
$VISRETAIN
 70
     0
  9
$PLINEGEN
 70
     0
  9
$PSLTSCALE
 70
     1
  9
$TREEDEPTH
 70
  3020
  9
$PICKSTYLE
 70
     1
  9
$CMLSTYLE
  2
STANDARD
  9
$CMLJUST
 70
     0
  9
$CMLSCALE
 40
1.0
  9
$SAVEIMAGES
 70
     1
  0
ENDSEC
  0
SECTION
  2
CLASSES
  0
CLASS
  1
ACDBDICTIONARYWDFLT
  2
AcDbDictionaryWithDefault
  3
AutoCAD 2000
 90
    32768
280
     0
281
     0
  0
CLASS
  1
ACDBPLACEHOLDER
  2
AcDbPlaceHolder
  3
AutoCAD 2000
 90
    32768
280
     0
281
     0
  0
CLASS
  1
LAYOUT
  2
AcDbLayout
  3
AutoCAD 2000
 90
    32768
280
     0
281
     0
  0
CLASS
  1
LONG_TRANSACTION
  2
AcDbLongTransaction
  3
AutoCAD 2000
 90
    32768
280
     0
281
     0
  0
CLASS
  1
LWPOLYLINE
  2
AcDbPolyline
  3
AutoCAD 2000
 90
    32768
280
     0
281
     1
  0
CLASS
  1
HATCH
  2
AcDbHatch
  3
AutoCAD 2000
 90
    32768
280
     0
281
     1
  0
CLASS
  1
XRECORD
  2
AcDbXrecord
  3
AutoCAD 2000
 90
    32768
280
     0
281
     0
  0
CLASS
  1
LONG_TRANSACTION
  2
AcDbLongTransaction
  3
AutoCAD 2000
 90
    32768
280
     0
281
     0
  0
CLASS
  1
LWPOLYLINE
  2
AcDbPolyline
  3
AutoCAD 2000
 90
    32768
280
     0
281
     1
  0
CLASS
  1
HATCH
  2
AcDbHatch
  3
AutoCAD 2000
 90
    32768
280
     0
281
     1
  0
CLASS
  1
XRECORD
  2
AcDbXrecord
  3
AutoCAD 2000
 90
    32768
280
     0
281
     0
  0
CLASS
  1
LONG_TRANSACTION
  2
AcDbLongTransaction
  3
AutoCAD 2000
 90
    32768
280
     0
281
     0
  0
CLASS
  1
LWPOLYLINE
  2
AcDbPolyline
  3
AutoCAD 2000
 90
    32768
280
     0
281
     1
  0
CLASS
  1
HATCH
  2
AcDbHatch
  3
AutoCAD 2000
 90
    32768
280
     0
281
     1
  0
CLASS
  1
XRECORD
  2
AcDbXrecord
  3
AutoCAD 2000
 90
    32768
280
     0
281
     0
  0
ENDSEC
  0
SECTION
  2
TABLES
  0
TABLE
  2
VPORT
  5
8
330
0
100
AcDbSymbolTable
 70
     3
  0
VPORT
  5
48DC
330
8
100
AcDbSymbolTableRecord
100
AcDbViewportTableRecord
  2
*ACTIVE
 70
     0
 10
0.0
 20
0.0
 11
1.0
 21
1.0
 12
3.225217223644856
 22
5.495979331196261
 13
0.0
 23
0.0
 14
1.0
 24
1.0
 15
0.0
 25
0.0
 16
0.0
 26
0.0
 36
1.0
 17
0.0
 27
0.0
 37
0.0
 40
4.547765055476556
 41
1.647569444444444
 42
50.0
 43
0.0
 44
0.0
 50
0.0
 51
0.0
 71
     0
 72
   100
 73
     1
 74
     1
 75
     0
 76
     0
 77
     0
 78
     0
  0
ENDTAB
  0
TABLE
  2
LTYPE
  5
5
330
0
100
AcDbSymbolTable
 70
    25
  0
LTYPE
  5
13
330
5
100
AcDbSymbolTableRecord
100
AcDbLinetypeTableRecord
  2
BYBLOCK
 70
     0
  3

 72
    65
 73
     0
 40
0.0
  0
LTYPE
  5
14
330
5
100
AcDbSymbolTableRecord
100
AcDbLinetypeTableRecord
  2
BYLAYER
 70
     0
  3

 72
    65
 73
     0
 40
0.0
  0
LTYPE
  5
15
330
5
100
AcDbSymbolTableRecord
100
AcDbLinetypeTableRecord
  2
CONTINUOUS
 70
     0
  3
Solid line
 72
    65
 73
     0
 40
0.0
  0
LTYPE
  5
22
330
5
100
AcDbSymbolTableRecord
100
AcDbLinetypeTableRecord
  2
BORDER
 70
     0
  3
__ __ . __ __ . __ __ . __ __ . __ __ . __ __ .
 72
    65
 73
     6
 40
1.75
 49
0.5
 74
     0
 49
-0.25
 74
     0
 49
0.5
 74
     0
 49
-0.25
 74
     0
 49
0.5
 74
     0
 49
-0.25
 74
     0
  0
LTYPE
  5
23
330
5
100
AcDbSymbolTableRecord
100
AcDbLinetypeTableRecord
  2
BORDER2
 70
     0
  3
__.__.__.__.__.__.__.__.__.__.__.__.__.__.__.__
 72
    65
 73
     6
 40
0.875
 49
0.25
 74
     0
 49
-0.125
 74
     0
 49
0.25
 74
     0
 49
-0.125
 74
     0
 49
0.25
 74
     0
 49
-0.125
 74
     0
  0
LTYPE
  5
24
330
5
100
AcDbSymbolTableRecord
100
AcDbLinetypeTableRecord
  2
BORDERX2
 70
     0
  3
____  ____  .  ____  ____  .  
 72
    65
 73
     6
 40
3.5
 49
1.0
 74
     0
 49
-0.5
 74
     0
 49
1.0
 74
     0
 49
-0.5
 74
     0
 49
1.0
 74
     0
 49
-0.5
 74
     0
  0
LTYPE
  5
25
330
5
100
AcDbSymbolTableRecord
100
AcDbLinetypeTableRecord
  2
CENTER
 70
     0
  3
____ _ ____ _ ____ _ ____ _ ____ _ ____ _ ____
 72
    65
 73
     4
 40
2.0
 49
1.25
 74
     0
 49
-0.25
 74
     0
 49
0.25
 74
     0
 49
-0.25
 74
     0
  0
LTYPE
  5
26
330
5
100
AcDbSymbolTableRecord
100
AcDbLinetypeTableRecord
  2
CENTER2
 70
     0
  3
____ _ ____ _ ____ _ ____ _ ____ _ ____ _ ____
 72
    65
 73
     4
 40
1.125
 49
0.75
 74
     0
 49
-0.125
 74
     0
 49
0.125
 74
     0
 49
-0.125
 74
     0
  0
LTYPE
  5
27
330
5
100
AcDbSymbolTableRecord
100
AcDbLinetypeTableRecord
  2
CENTERX2
 70
     0
  3
________  __  ________  __  ________  __  
 72
    65
 73
     4
 40
4.0
 49
2.5
 74
     0
 49
-0.5
 74
     0
 49
0.5
 74
     0
 49
-0.5
 74
     0
  0
LTYPE
  5
28
330
5
100
AcDbSymbolTableRecord
100
AcDbLinetypeTableRecord
  2
DASHDOT
 70
     0
  3
__ . __ . __ . __ . __ . __ . __ . 
 72
    65
 73
     4
 40
1.0
 49
0.5
 74
     0
 49
-0.25
 74
     0
 49
0.0
 74
     0
 49
-0.25
 74
     0
  0
LTYPE
  5
29
330
5
100
AcDbSymbolTableRecord
100
AcDbLinetypeTableRecord
  2
DASHDOT2
 70
     0
  3
_._._._._._._._._._._._._._._._.
 72
    65
 73
     4
 40
0.5
 49
0.25
 74
     0
 49
-0.125
 74
     0
 49
0.0
 74
     0
 49
-0.125
 74
     0
  0
LTYPE
  5
2A
330
5
100
AcDbSymbolTableRecord
100
AcDbLinetypeTableRecord
  2
DASHDOTX2
 70
     0
  3
____  .  ____  .  ____  .  ____  .  
 72
    65
 73
     4
 40
2.0
 49
1.0
 74
     0
 49
-0.5
 74
     0
 49
0.0
 74
     0
 49
-0.5
 74
     0
  0
LTYPE
  5
2B
330
5
100
AcDbSymbolTableRecord
100
AcDbLinetypeTableRecord
  2
DASHED
 70
     0
  3
__ __ __ __ __ __ __ __ __ __ __ __ 
 72
    65
 73
     2
 40
0.75
 49
0.5
 74
     0
 49
-0.25
 74
     0
  0
LTYPE
  5
2C
330
5
100
AcDbSymbolTableRecord
100
AcDbLinetypeTableRecord
  2
DASHED2
 70
     0
  3
_ _ _ _ _ _ _ _ _ _ _ _ _ _ _ _ _ _ 
 72
    65
 73
     2
 40
0.375
 49
0.25
 74
     0
 49
-0.125
 74
     0
  0
LTYPE
  5
2D
330
5
100
AcDbSymbolTableRecord
100
AcDbLinetypeTableRecord
  2
DASHEDX2
 70
     0
  3
____  ____  ____  ____  ____  ____  
 72
    65
 73
     2
 40
1.5
 49
1.0
 74
     0
 49
-0.5
 74
     0
  0
LTYPE
  5
2E
330
5
100
AcDbSymbolTableRecord
100
AcDbLinetypeTableRecord
  2
DIVIDE
 70
     0
  3
____ . . ____ . . ____ . . ____ . . 
 72
    65
 73
     6
 40
1.25
 49
0.5
 74
     0
 49
-0.25
 74
     0
 49
0.0
 74
     0
 49
-0.25
 74
     0
 49
0.0
 74
     0
 49
-0.25
 74
     0
  0
LTYPE
  5
2F
330
5
100
AcDbSymbolTableRecord
100
AcDbLinetypeTableRecord
  2
DIVIDE2
 70
     0
  3
__..__..__..__..__..__..__..__..__..
 72
    65
 73
     6
 40
0.625
 49
0.25
 74
     0
 49
-0.125
 74
     0
 49
0.0
 74
     0
 49
-0.125
 74
     0
 49
0.0
 74
     0
 49
-0.125
 74
     0
  0
LTYPE
  5
30
330
5
100
AcDbSymbolTableRecord
100
AcDbLinetypeTableRecord
  2
DIVIDEX2
 70
     0
  3
________  .  .  ________  .  .  ________  .  . 
 72
    65
 73
     6
 40
2.5
 49
1.0
 74
     0
 49
-0.5
 74
     0
 49
0.0
 74
     0
 49
-0.5
 74
     0
 49
0.0
 74
     0
 49
-0.5
 74
     0
  0
LTYPE
  5
31
330
5
100
AcDbSymbolTableRecord
100
AcDbLinetypeTableRecord
  2
DOT
 70
     0
  3
. . . . . . . . . . . . . . . . . . 
 72
    65
 73
     2
 40
0.25
 49
0.0
 74
     0
 49
-0.25
 74
     0
  0
LTYPE
  5
32
330
5
100
AcDbSymbolTableRecord
100
AcDbLinetypeTableRecord
  2
DOT2
 70
     0
  3
....................................
 72
    65
 73
     2
 40
0.125
 49
0.0
 74
     0
 49
-0.125
 74
     0
  0
LTYPE
  5
33
330
5
100
AcDbSymbolTableRecord
100
AcDbLinetypeTableRecord
  2
DOTX2
 70
     0
  3
.  .  .  .  .  .  .  .  .  .  .  .  .  
 72
    65
 73
     2
 40
0.5
 49
0.0
 74
     0
 49
-0.5
 74
     0
  0
LTYPE
  5
34
330
5
100
AcDbSymbolTableRecord
100
AcDbLinetypeTableRecord
  2
HIDDEN
 70
     0
  3
__ __ __ __ __ __ __ __ __ __ __ __ 
 72
    65
 73
     2
 40
0.375
 49
0.25
 74
     0
 49
-0.125
 74
     0
  0
LTYPE
  5
35
330
5
100
AcDbSymbolTableRecord
100
AcDbLinetypeTableRecord
  2
HIDDEN2
 70
     0
  3
_ _ _ _ _ _ _ _ _ _ _ _ _ _ _ _ _ _ 
 72
    65
 73
     2
 40
0.1875
 49
0.125
 74
     0
 49
-0.0625
 74
     0
  0
LTYPE
  5
36
330
5
100
AcDbSymbolTableRecord
100
AcDbLinetypeTableRecord
  2
HIDDENX2
 70
     0
  3
____ ____ ____ ____ ____ ____ ____ 
 72
    65
 73
     2
 40
0.75
 49
0.5
 74
     0
 49
-0.25
 74
     0
  0
LTYPE
  5
37
330
5
100
AcDbSymbolTableRecord
100
AcDbLinetypeTableRecord
  2
PHANTOM
 70
     0
  3
______  __  __  ______  __  __  
 72
    65
 73
     6
 40
2.5
 49
1.25
 74
     0
 49
-0.25
 74
     0
 49
0.25
 74
     0
 49
-0.25
 74
     0
 49
0.25
 74
     0
 49
-0.25
 74
     0
  0
LTYPE
  5
38
330
5
100
AcDbSymbolTableRecord
100
AcDbLinetypeTableRecord
  2
PHANTOM2
 70
     0
  3
___ _ _ ___ _ _ ___ _ _ ___ _ _ 
 72
    65
 73
     6
 40
1.25
 49
0.625
 74
     0
 49
-0.125
 74
     0
 49
0.125
 74
     0
 49
-0.125
 74
     0
 49
0.125
 74
     0
 49
-0.125
 74
     0
  0
LTYPE
  5
39
330
5
100
AcDbSymbolTableRecord
100
AcDbLinetypeTableRecord
  2
PHANTOMX2
 70
     0
  3
___ _ _ ___ _ _ ___ _ _ ___ _ _ 
 72
    65
 73
     6
 40
5.0
 49
2.5
 74
     0
 49
-0.5
 74
     0
 49
0.5
 74
     0
 49
-0.5
 74
     0
 49
0.5
 74
     0
 49
-0.5
 74
     0
  0
ENDTAB
  0
TABLE
  2
LAYER
  5
2
330
0
100
AcDbSymbolTable
 70
   257
  0
LAYER
  5
10
330
2
100
AcDbSymbolTableRecord
100
AcDbLayerTableRecord
  2
0
 70
     0
 62
     7
  6
CONTINUOUS
  0
LAYER
  5
3A
330
2
100
AcDbSymbolTableRecord
100
AcDbLayerTableRecord
  2
1
 70
     0
 62
     1
  6
CONTINUOUS
  0
LAYER
  5
3B
330
2
100
AcDbSymbolTableRecord
100
AcDbLayerTableRecord
  2
2
 70
     0
 62
     2
  6
CONTINUOUS
  0
LAYER
  5
3C
330
2
100
AcDbSymbolTableRecord
100
AcDbLayerTableRecord
  2
3
 70
     0
 62
     3
  6
CONTINUOUS
  0
LAYER
  5
3D
330
2
100
AcDbSymbolTableRecord
100
AcDbLayerTableRecord
  2
4
 70
     0
 62
     4
  6
CONTINUOUS
  0
LAYER
  5
3E
330
2
100
AcDbSymbolTableRecord
100
AcDbLayerTableRecord
  2
5
 70
     0
 62
     5
  6
CONTINUOUS
  0
LAYER
  5
3F
330
2
100
AcDbSymbolTableRecord
100
AcDbLayerTableRecord
  2
6
 70
     0
 62
     6
  6
CONTINUOUS
  0
LAYER
  5
40
330
2
100
AcDbSymbolTableRecord
100
AcDbLayerTableRecord
  2
7
 70
     0
 62
     7
  6
CONTINUOUS
  0
LAYER
  5
41
330
2
100
AcDbSymbolTableRecord
100
AcDbLayerTableRecord
  2
8
 70
     0
 62
     8
  6
CONTINUOUS
  0
LAYER
  5
42
330
2
100
AcDbSymbolTableRecord
100
AcDbLayerTableRecord
  2
9
 70
     0
 62
     9
  6
CONTINUOUS
  0
LAYER
  5
43
330
2
100
AcDbSymbolTableRecord
100
AcDbLayerTableRecord
  2
10
 70
     0
 62
    10
  6
CONTINUOUS
  0
LAYER
  5
44
330
2
100
AcDbSymbolTableRecord
100
AcDbLayerTableRecord
  2
11
 70
     0
 62
    11
  6
CONTINUOUS
  0
LAYER
  5
45
330
2
100
AcDbSymbolTableRecord
100
AcDbLayerTableRecord
  2
12
 70
     0
 62
    12
  6
CONTINUOUS
  0
LAYER
  5
46
330
2
100
AcDbSymbolTableRecord
100
AcDbLayerTableRecord
  2
13
 70
     0
 62
    13
  6
CONTINUOUS
  0
LAYER
  5
47
330
2
100
AcDbSymbolTableRecord
100
AcDbLayerTableRecord
  2
14
 70
     0
 62
    14
  6
CONTINUOUS
  0
LAYER
  5
48
330
2
100
AcDbSymbolTableRecord
100
AcDbLayerTableRecord
  2
15
 70
     0
 62
    15
  6
CONTINUOUS
  0
LAYER
  5
49
330
2
100
AcDbSymbolTableRecord
100
AcDbLayerTableRecord
  2
16
 70
     0
 62
    16
  6
CONTINUOUS
  0
LAYER
  5
4A
330
2
100
AcDbSymbolTableRecord
100
AcDbLayerTableRecord
  2
17
 70
     0
 62
    17
  6
CONTINUOUS
  0
LAYER
  5
4B
330
2
100
AcDbSymbolTableRecord
100
AcDbLayerTableRecord
  2
18
 70
     0
 62
    18
  6
CONTINUOUS
  0
LAYER
  5
4C
330
2
100
AcDbSymbolTableRecord
100
AcDbLayerTableRecord
  2
19
 70
     0
 62
    19
  6
CONTINUOUS
  0
LAYER
  5
4D
330
2
100
AcDbSymbolTableRecord
100
AcDbLayerTableRecord
  2
20
 70
     0
 62
    20
  6
CONTINUOUS
  0
LAYER
  5
4E
330
2
100
AcDbSymbolTableRecord
100
AcDbLayerTableRecord
  2
21
 70
     0
 62
    21
  6
CONTINUOUS
  0
LAYER
  5
4F
330
2
100
AcDbSymbolTableRecord
100
AcDbLayerTableRecord
  2
22
 70
     0
 62
    22
  6
CONTINUOUS
  0
LAYER
  5
50
330
2
100
AcDbSymbolTableRecord
100
AcDbLayerTableRecord
  2
23
 70
     0
 62
    23
  6
CONTINUOUS
  0
LAYER
  5
51
330
2
100
AcDbSymbolTableRecord
100
AcDbLayerTableRecord
  2
24
 70
     0
 62
    24
  6
CONTINUOUS
  0
LAYER
  5
52
330
2
100
AcDbSymbolTableRecord
100
AcDbLayerTableRecord
  2
25
 70
     0
 62
    25
  6
CONTINUOUS
  0
LAYER
  5
53
330
2
100
AcDbSymbolTableRecord
100
AcDbLayerTableRecord
  2
26
 70
     0
 62
    26
  6
CONTINUOUS
  0
LAYER
  5
54
330
2
100
AcDbSymbolTableRecord
100
AcDbLayerTableRecord
  2
27
 70
     0
 62
    27
  6
CONTINUOUS
  0
LAYER
  5
55
330
2
100
AcDbSymbolTableRecord
100
AcDbLayerTableRecord
  2
28
 70
     0
 62
    28
  6
CONTINUOUS
  0
LAYER
  5
56
330
2
100
AcDbSymbolTableRecord
100
AcDbLayerTableRecord
  2
29
 70
     0
 62
    29
  6
CONTINUOUS
  0
LAYER
  5
57
330
2
100
AcDbSymbolTableRecord
100
AcDbLayerTableRecord
  2
30
 70
     0
 62
    30
  6
CONTINUOUS
  0
LAYER
  5
58
330
2
100
AcDbSymbolTableRecord
100
AcDbLayerTableRecord
  2
31
 70
     0
 62
    31
  6
CONTINUOUS
  0
LAYER
  5
59
330
2
100
AcDbSymbolTableRecord
100
AcDbLayerTableRecord
  2
32
 70
     0
 62
    32
  6
CONTINUOUS
  0
LAYER
  5
5A
330
2
100
AcDbSymbolTableRecord
100
AcDbLayerTableRecord
  2
33
 70
     0
 62
    33
  6
CONTINUOUS
  0
LAYER
  5
5B
330
2
100
AcDbSymbolTableRecord
100
AcDbLayerTableRecord
  2
34
 70
     0
 62
    34
  6
CONTINUOUS
  0
LAYER
  5
5C
330
2
100
AcDbSymbolTableRecord
100
AcDbLayerTableRecord
  2
35
 70
     0
 62
    35
  6
CONTINUOUS
  0
LAYER
  5
5D
330
2
100
AcDbSymbolTableRecord
100
AcDbLayerTableRecord
  2
36
 70
     0
 62
    36
  6
CONTINUOUS
  0
LAYER
  5
5E
330
2
100
AcDbSymbolTableRecord
100
AcDbLayerTableRecord
  2
37
 70
     0
 62
    37
  6
CONTINUOUS
  0
LAYER
  5
5F
330
2
100
AcDbSymbolTableRecord
100
AcDbLayerTableRecord
  2
38
 70
     0
 62
    38
  6
CONTINUOUS
  0
LAYER
  5
60
330
2
100
AcDbSymbolTableRecord
100
AcDbLayerTableRecord
  2
39
 70
     0
 62
    39
  6
CONTINUOUS
  0
LAYER
  5
61
330
2
100
AcDbSymbolTableRecord
100
AcDbLayerTableRecord
  2
40
 70
     0
 62
    40
  6
CONTINUOUS
  0
LAYER
  5
62
330
2
100
AcDbSymbolTableRecord
100
AcDbLayerTableRecord
  2
41
 70
     0
 62
    41
  6
CONTINUOUS
  0
LAYER
  5
63
330
2
100
AcDbSymbolTableRecord
100
AcDbLayerTableRecord
  2
42
 70
     0
 62
    42
  6
CONTINUOUS
  0
LAYER
  5
64
330
2
100
AcDbSymbolTableRecord
100
AcDbLayerTableRecord
  2
43
 70
     0
 62
    43
  6
CONTINUOUS
  0
LAYER
  5
65
330
2
100
AcDbSymbolTableRecord
100
AcDbLayerTableRecord
  2
44
 70
     0
 62
    44
  6
CONTINUOUS
  0
LAYER
  5
66
330
2
100
AcDbSymbolTableRecord
100
AcDbLayerTableRecord
  2
45
 70
     0
 62
    45
  6
CONTINUOUS
  0
LAYER
  5
67
330
2
100
AcDbSymbolTableRecord
100
AcDbLayerTableRecord
  2
46
 70
     0
 62
    46
  6
CONTINUOUS
  0
LAYER
  5
68
330
2
100
AcDbSymbolTableRecord
100
AcDbLayerTableRecord
  2
47
 70
     0
 62
    47
  6
CONTINUOUS
  0
LAYER
  5
69
330
2
100
AcDbSymbolTableRecord
100
AcDbLayerTableRecord
  2
48
 70
     0
 62
    48
  6
CONTINUOUS
  0
LAYER
  5
6A
330
2
100
AcDbSymbolTableRecord
100
AcDbLayerTableRecord
  2
49
 70
     0
 62
    49
  6
CONTINUOUS
  0
LAYER
  5
6B
330
2
100
AcDbSymbolTableRecord
100
AcDbLayerTableRecord
  2
50
 70
     0
 62
    50
  6
CONTINUOUS
  0
LAYER
  5
6C
330
2
100
AcDbSymbolTableRecord
100
AcDbLayerTableRecord
  2
51
 70
     0
 62
    51
  6
CONTINUOUS
  0
LAYER
  5
6D
330
2
100
AcDbSymbolTableRecord
100
AcDbLayerTableRecord
  2
52
 70
     0
 62
    52
  6
CONTINUOUS
  0
LAYER
  5
6E
330
2
100
AcDbSymbolTableRecord
100
AcDbLayerTableRecord
  2
53
 70
     0
 62
    53
  6
CONTINUOUS
  0
LAYER
  5
6F
330
2
100
AcDbSymbolTableRecord
100
AcDbLayerTableRecord
  2
54
 70
     0
 62
    54
  6
CONTINUOUS
  0
LAYER
  5
70
330
2
100
AcDbSymbolTableRecord
100
AcDbLayerTableRecord
  2
55
 70
     0
 62
    55
  6
CONTINUOUS
  0
LAYER
  5
71
330
2
100
AcDbSymbolTableRecord
100
AcDbLayerTableRecord
  2
56
 70
     0
 62
    56
  6
CONTINUOUS
  0
LAYER
  5
72
330
2
100
AcDbSymbolTableRecord
100
AcDbLayerTableRecord
  2
57
 70
     0
 62
    57
  6
CONTINUOUS
  0
LAYER
  5
73
330
2
100
AcDbSymbolTableRecord
100
AcDbLayerTableRecord
  2
58
 70
     0
 62
    58
  6
CONTINUOUS
  0
LAYER
  5
74
330
2
100
AcDbSymbolTableRecord
100
AcDbLayerTableRecord
  2
59
 70
     0
 62
    59
  6
CONTINUOUS
  0
LAYER
  5
75
330
2
100
AcDbSymbolTableRecord
100
AcDbLayerTableRecord
  2
60
 70
     0
 62
    60
  6
CONTINUOUS
  0
LAYER
  5
76
330
2
100
AcDbSymbolTableRecord
100
AcDbLayerTableRecord
  2
61
 70
     0
 62
    61
  6
CONTINUOUS
  0
LAYER
  5
77
330
2
100
AcDbSymbolTableRecord
100
AcDbLayerTableRecord
  2
62
 70
     0
 62
    62
  6
CONTINUOUS
  0
LAYER
  5
78
330
2
100
AcDbSymbolTableRecord
100
AcDbLayerTableRecord
  2
63
 70
     0
 62
    63
  6
CONTINUOUS
  0
LAYER
  5
79
330
2
100
AcDbSymbolTableRecord
100
AcDbLayerTableRecord
  2
64
 70
     0
 62
    64
  6
CONTINUOUS
  0
LAYER
  5
7A
330
2
100
AcDbSymbolTableRecord
100
AcDbLayerTableRecord
  2
65
 70
     0
 62
    65
  6
CONTINUOUS
  0
LAYER
  5
7B
330
2
100
AcDbSymbolTableRecord
100
AcDbLayerTableRecord
  2
66
 70
     0
 62
    66
  6
CONTINUOUS
  0
LAYER
  5
7C
330
2
100
AcDbSymbolTableRecord
100
AcDbLayerTableRecord
  2
67
 70
     0
 62
    67
  6
CONTINUOUS
  0
LAYER
  5
7D
330
2
100
AcDbSymbolTableRecord
100
AcDbLayerTableRecord
  2
68
 70
     0
 62
    68
  6
CONTINUOUS
  0
LAYER
  5
7E
330
2
100
AcDbSymbolTableRecord
100
AcDbLayerTableRecord
  2
69
 70
     0
 62
    69
  6
CONTINUOUS
  0
LAYER
  5
7F
330
2
100
AcDbSymbolTableRecord
100
AcDbLayerTableRecord
  2
70
 70
     0
 62
    70
  6
CONTINUOUS
  0
LAYER
  5
80
330
2
100
AcDbSymbolTableRecord
100
AcDbLayerTableRecord
  2
71
 70
     0
 62
    71
  6
CONTINUOUS
  0
LAYER
  5
81
330
2
100
AcDbSymbolTableRecord
100
AcDbLayerTableRecord
  2
72
 70
     0
 62
    72
  6
CONTINUOUS
  0
LAYER
  5
82
330
2
100
AcDbSymbolTableRecord
100
AcDbLayerTableRecord
  2
73
 70
     0
 62
    73
  6
CONTINUOUS
  0
LAYER
  5
83
330
2
100
AcDbSymbolTableRecord
100
AcDbLayerTableRecord
  2
74
 70
     0
 62
    74
  6
CONTINUOUS
  0
LAYER
  5
84
330
2
100
AcDbSymbolTableRecord
100
AcDbLayerTableRecord
  2
75
 70
     0
 62
    75
  6
CONTINUOUS
  0
LAYER
  5
85
330
2
100
AcDbSymbolTableRecord
100
AcDbLayerTableRecord
  2
76
 70
     0
 62
    76
  6
CONTINUOUS
  0
LAYER
  5
86
330
2
100
AcDbSymbolTableRecord
100
AcDbLayerTableRecord
  2
77
 70
     0
 62
    77
  6
CONTINUOUS
  0
LAYER
  5
87
330
2
100
AcDbSymbolTableRecord
100
AcDbLayerTableRecord
  2
78
 70
     0
 62
    78
  6
CONTINUOUS
  0
LAYER
  5
88
330
2
100
AcDbSymbolTableRecord
100
AcDbLayerTableRecord
  2
79
 70
     0
 62
    79
  6
CONTINUOUS
  0
LAYER
  5
89
330
2
100
AcDbSymbolTableRecord
100
AcDbLayerTableRecord
  2
80
 70
     0
 62
    80
  6
CONTINUOUS
  0
LAYER
  5
8A
330
2
100
AcDbSymbolTableRecord
100
AcDbLayerTableRecord
  2
81
 70
     0
 62
    81
  6
CONTINUOUS
  0
LAYER
  5
8B
330
2
100
AcDbSymbolTableRecord
100
AcDbLayerTableRecord
  2
82
 70
     0
 62
    82
  6
CONTINUOUS
  0
LAYER
  5
8C
330
2
100
AcDbSymbolTableRecord
100
AcDbLayerTableRecord
  2
83
 70
     0
 62
    83
  6
CONTINUOUS
  0
LAYER
  5
8D
330
2
100
AcDbSymbolTableRecord
100
AcDbLayerTableRecord
  2
84
 70
     0
 62
    84
  6
CONTINUOUS
  0
LAYER
  5
8E
330
2
100
AcDbSymbolTableRecord
100
AcDbLayerTableRecord
  2
85
 70
     0
 62
    85
  6
CONTINUOUS
  0
LAYER
  5
8F
330
2
100
AcDbSymbolTableRecord
100
AcDbLayerTableRecord
  2
86
 70
     0
 62
    86
  6
CONTINUOUS
  0
LAYER
  5
90
330
2
100
AcDbSymbolTableRecord
100
AcDbLayerTableRecord
  2
87
 70
     0
 62
    87
  6
CONTINUOUS
  0
LAYER
  5
91
330
2
100
AcDbSymbolTableRecord
100
AcDbLayerTableRecord
  2
88
 70
     0
 62
    88
  6
CONTINUOUS
  0
LAYER
  5
92
330
2
100
AcDbSymbolTableRecord
100
AcDbLayerTableRecord
  2
89
 70
     0
 62
    89
  6
CONTINUOUS
  0
LAYER
  5
93
330
2
100
AcDbSymbolTableRecord
100
AcDbLayerTableRecord
  2
90
 70
     0
 62
    90
  6
CONTINUOUS
  0
LAYER
  5
94
330
2
100
AcDbSymbolTableRecord
100
AcDbLayerTableRecord
  2
91
 70
     0
 62
    91
  6
CONTINUOUS
  0
LAYER
  5
95
330
2
100
AcDbSymbolTableRecord
100
AcDbLayerTableRecord
  2
92
 70
     0
 62
    92
  6
CONTINUOUS
  0
LAYER
  5
96
330
2
100
AcDbSymbolTableRecord
100
AcDbLayerTableRecord
  2
93
 70
     0
 62
    93
  6
CONTINUOUS
  0
LAYER
  5
97
330
2
100
AcDbSymbolTableRecord
100
AcDbLayerTableRecord
  2
94
 70
     0
 62
    94
  6
CONTINUOUS
  0
LAYER
  5
98
330
2
100
AcDbSymbolTableRecord
100
AcDbLayerTableRecord
  2
95
 70
     0
 62
    95
  6
CONTINUOUS
  0
LAYER
  5
99
330
2
100
AcDbSymbolTableRecord
100
AcDbLayerTableRecord
  2
96
 70
     0
 62
    96
  6
CONTINUOUS
  0
LAYER
  5
9A
330
2
100
AcDbSymbolTableRecord
100
AcDbLayerTableRecord
  2
97
 70
     0
 62
    97
  6
CONTINUOUS
  0
LAYER
  5
9B
330
2
100
AcDbSymbolTableRecord
100
AcDbLayerTableRecord
  2
98
 70
     0
 62
    98
  6
CONTINUOUS
  0
LAYER
  5
9C
330
2
100
AcDbSymbolTableRecord
100
AcDbLayerTableRecord
  2
99
 70
     0
 62
    99
  6
CONTINUOUS
  0
LAYER
  5
9D
330
2
100
AcDbSymbolTableRecord
100
AcDbLayerTableRecord
  2
100
 70
     0
 62
   100
  6
CONTINUOUS
  0
LAYER
  5
9E
330
2
100
AcDbSymbolTableRecord
100
AcDbLayerTableRecord
  2
101
 70
     0
 62
   101
  6
CONTINUOUS
  0
LAYER
  5
9F
330
2
100
AcDbSymbolTableRecord
100
AcDbLayerTableRecord
  2
102
 70
     0
 62
   102
  6
CONTINUOUS
  0
LAYER
  5
A0
330
2
100
AcDbSymbolTableRecord
100
AcDbLayerTableRecord
  2
103
 70
     0
 62
   103
  6
CONTINUOUS
  0
LAYER
  5
A1
330
2
100
AcDbSymbolTableRecord
100
AcDbLayerTableRecord
  2
104
 70
     0
 62
   104
  6
CONTINUOUS
  0
LAYER
  5
A2
330
2
100
AcDbSymbolTableRecord
100
AcDbLayerTableRecord
  2
105
 70
     0
 62
   105
  6
CONTINUOUS
  0
LAYER
  5
A3
330
2
100
AcDbSymbolTableRecord
100
AcDbLayerTableRecord
  2
106
 70
     0
 62
   106
  6
CONTINUOUS
  0
LAYER
  5
A4
330
2
100
AcDbSymbolTableRecord
100
AcDbLayerTableRecord
  2
107
 70
     0
 62
   107
  6
CONTINUOUS
  0
LAYER
  5
A5
330
2
100
AcDbSymbolTableRecord
100
AcDbLayerTableRecord
  2
108
 70
     0
 62
   108
  6
CONTINUOUS
  0
LAYER
  5
A6
330
2
100
AcDbSymbolTableRecord
100
AcDbLayerTableRecord
  2
109
 70
     0
 62
   109
  6
CONTINUOUS
  0
LAYER
  5
A7
330
2
100
AcDbSymbolTableRecord
100
AcDbLayerTableRecord
  2
110
 70
     0
 62
   110
  6
CONTINUOUS
  0
LAYER
  5
A8
330
2
100
AcDbSymbolTableRecord
100
AcDbLayerTableRecord
  2
111
 70
     0
 62
   111
  6
CONTINUOUS
  0
LAYER
  5
A9
330
2
100
AcDbSymbolTableRecord
100
AcDbLayerTableRecord
  2
112
 70
     0
 62
   112
  6
CONTINUOUS
  0
LAYER
  5
AA
330
2
100
AcDbSymbolTableRecord
100
AcDbLayerTableRecord
  2
113
 70
     0
 62
   113
  6
CONTINUOUS
  0
LAYER
  5
AB
330
2
100
AcDbSymbolTableRecord
100
AcDbLayerTableRecord
  2
114
 70
     0
 62
   114
  6
CONTINUOUS
  0
LAYER
  5
AC
330
2
100
AcDbSymbolTableRecord
100
AcDbLayerTableRecord
  2
115
 70
     0
 62
   115
  6
CONTINUOUS
  0
LAYER
  5
AD
330
2
100
AcDbSymbolTableRecord
100
AcDbLayerTableRecord
  2
116
 70
     0
 62
   116
  6
CONTINUOUS
  0
LAYER
  5
AE
330
2
100
AcDbSymbolTableRecord
100
AcDbLayerTableRecord
  2
117
 70
     0
 62
   117
  6
CONTINUOUS
  0
LAYER
  5
AF
330
2
100
AcDbSymbolTableRecord
100
AcDbLayerTableRecord
  2
118
 70
     0
 62
   118
  6
CONTINUOUS
  0
LAYER
  5
B0
330
2
100
AcDbSymbolTableRecord
100
AcDbLayerTableRecord
  2
119
 70
     0
 62
   119
  6
CONTINUOUS
  0
LAYER
  5
B1
330
2
100
AcDbSymbolTableRecord
100
AcDbLayerTableRecord
  2
120
 70
     0
 62
   120
  6
CONTINUOUS
  0
LAYER
  5
B2
330
2
100
AcDbSymbolTableRecord
100
AcDbLayerTableRecord
  2
121
 70
     0
 62
   121
  6
CONTINUOUS
  0
LAYER
  5
B3
330
2
100
AcDbSymbolTableRecord
100
AcDbLayerTableRecord
  2
122
 70
     0
 62
   122
  6
CONTINUOUS
  0
LAYER
  5
B4
330
2
100
AcDbSymbolTableRecord
100
AcDbLayerTableRecord
  2
123
 70
     0
 62
   123
  6
CONTINUOUS
  0
LAYER
  5
B5
330
2
100
AcDbSymbolTableRecord
100
AcDbLayerTableRecord
  2
124
 70
     0
 62
   124
  6
CONTINUOUS
  0
LAYER
  5
B6
330
2
100
AcDbSymbolTableRecord
100
AcDbLayerTableRecord
  2
125
 70
     0
 62
   125
  6
CONTINUOUS
  0
LAYER
  5
B7
330
2
100
AcDbSymbolTableRecord
100
AcDbLayerTableRecord
  2
126
 70
     0
 62
   126
  6
CONTINUOUS
  0
LAYER
  5
B8
330
2
100
AcDbSymbolTableRecord
100
AcDbLayerTableRecord
  2
127
 70
     0
 62
   127
  6
CONTINUOUS
  0
LAYER
  5
B9
330
2
100
AcDbSymbolTableRecord
100
AcDbLayerTableRecord
  2
128
 70
     0
 62
   128
  6
CONTINUOUS
  0
LAYER
  5
BA
330
2
100
AcDbSymbolTableRecord
100
AcDbLayerTableRecord
  2
129
 70
     0
 62
   129
  6
CONTINUOUS
  0
LAYER
  5
BB
330
2
100
AcDbSymbolTableRecord
100
AcDbLayerTableRecord
  2
130
 70
     0
 62
   130
  6
CONTINUOUS
  0
LAYER
  5
BC
330
2
100
AcDbSymbolTableRecord
100
AcDbLayerTableRecord
  2
131
 70
     0
 62
   131
  6
CONTINUOUS
  0
LAYER
  5
BD
330
2
100
AcDbSymbolTableRecord
100
AcDbLayerTableRecord
  2
132
 70
     0
 62
   132
  6
CONTINUOUS
  0
LAYER
  5
BE
330
2
100
AcDbSymbolTableRecord
100
AcDbLayerTableRecord
  2
133
 70
     0
 62
   133
  6
CONTINUOUS
  0
LAYER
  5
BF
330
2
100
AcDbSymbolTableRecord
100
AcDbLayerTableRecord
  2
134
 70
     0
 62
   134
  6
CONTINUOUS
  0
LAYER
  5
C0
330
2
100
AcDbSymbolTableRecord
100
AcDbLayerTableRecord
  2
135
 70
     0
 62
   135
  6
CONTINUOUS
  0
LAYER
  5
C1
330
2
100
AcDbSymbolTableRecord
100
AcDbLayerTableRecord
  2
136
 70
     0
 62
   136
  6
CONTINUOUS
  0
LAYER
  5
C2
330
2
100
AcDbSymbolTableRecord
100
AcDbLayerTableRecord
  2
137
 70
     0
 62
   137
  6
CONTINUOUS
  0
LAYER
  5
C3
330
2
100
AcDbSymbolTableRecord
100
AcDbLayerTableRecord
  2
138
 70
     0
 62
   138
  6
CONTINUOUS
  0
LAYER
  5
C4
330
2
100
AcDbSymbolTableRecord
100
AcDbLayerTableRecord
  2
139
 70
     0
 62
   139
  6
CONTINUOUS
  0
LAYER
  5
C5
330
2
100
AcDbSymbolTableRecord
100
AcDbLayerTableRecord
  2
140
 70
     0
 62
   140
  6
CONTINUOUS
  0
LAYER
  5
C6
330
2
100
AcDbSymbolTableRecord
100
AcDbLayerTableRecord
  2
141
 70
     0
 62
   141
  6
CONTINUOUS
  0
LAYER
  5
C7
330
2
100
AcDbSymbolTableRecord
100
AcDbLayerTableRecord
  2
142
 70
     0
 62
   142
  6
CONTINUOUS
  0
LAYER
  5
C8
330
2
100
AcDbSymbolTableRecord
100
AcDbLayerTableRecord
  2
143
 70
     0
 62
   143
  6
CONTINUOUS
  0
LAYER
  5
C9
330
2
100
AcDbSymbolTableRecord
100
AcDbLayerTableRecord
  2
144
 70
     0
 62
   144
  6
CONTINUOUS
  0
LAYER
  5
CA
330
2
100
AcDbSymbolTableRecord
100
AcDbLayerTableRecord
  2
145
 70
     0
 62
   145
  6
CONTINUOUS
  0
LAYER
  5
CB
330
2
100
AcDbSymbolTableRecord
100
AcDbLayerTableRecord
  2
146
 70
     0
 62
   146
  6
CONTINUOUS
  0
LAYER
  5
CC
330
2
100
AcDbSymbolTableRecord
100
AcDbLayerTableRecord
  2
147
 70
     0
 62
   147
  6
CONTINUOUS
  0
LAYER
  5
CD
330
2
100
AcDbSymbolTableRecord
100
AcDbLayerTableRecord
  2
148
 70
     0
 62
   148
  6
CONTINUOUS
  0
LAYER
  5
CE
330
2
100
AcDbSymbolTableRecord
100
AcDbLayerTableRecord
  2
149
 70
     0
 62
   149
  6
CONTINUOUS
  0
LAYER
  5
CF
330
2
100
AcDbSymbolTableRecord
100
AcDbLayerTableRecord
  2
150
 70
     0
 62
   150
  6
CONTINUOUS
  0
LAYER
  5
D0
330
2
100
AcDbSymbolTableRecord
100
AcDbLayerTableRecord
  2
151
 70
     0
 62
   151
  6
CONTINUOUS
  0
LAYER
  5
D1
330
2
100
AcDbSymbolTableRecord
100
AcDbLayerTableRecord
  2
152
 70
     0
 62
   152
  6
CONTINUOUS
  0
LAYER
  5
D2
330
2
100
AcDbSymbolTableRecord
100
AcDbLayerTableRecord
  2
153
 70
     0
 62
   153
  6
CONTINUOUS
  0
LAYER
  5
D3
330
2
100
AcDbSymbolTableRecord
100
AcDbLayerTableRecord
  2
154
 70
     0
 62
   154
  6
CONTINUOUS
  0
LAYER
  5
D4
330
2
100
AcDbSymbolTableRecord
100
AcDbLayerTableRecord
  2
155
 70
     0
 62
   155
  6
CONTINUOUS
  0
LAYER
  5
D5
330
2
100
AcDbSymbolTableRecord
100
AcDbLayerTableRecord
  2
156
 70
     0
 62
   156
  6
CONTINUOUS
  0
LAYER
  5
D6
330
2
100
AcDbSymbolTableRecord
100
AcDbLayerTableRecord
  2
157
 70
     0
 62
   157
  6
CONTINUOUS
  0
LAYER
  5
D7
330
2
100
AcDbSymbolTableRecord
100
AcDbLayerTableRecord
  2
158
 70
     0
 62
   158
  6
CONTINUOUS
  0
LAYER
  5
D8
330
2
100
AcDbSymbolTableRecord
100
AcDbLayerTableRecord
  2
159
 70
     0
 62
   159
  6
CONTINUOUS
  0
LAYER
  5
D9
330
2
100
AcDbSymbolTableRecord
100
AcDbLayerTableRecord
  2
160
 70
     0
 62
   160
  6
CONTINUOUS
  0
LAYER
  5
DA
330
2
100
AcDbSymbolTableRecord
100
AcDbLayerTableRecord
  2
161
 70
     0
 62
   161
  6
CONTINUOUS
  0
LAYER
  5
DB
330
2
100
AcDbSymbolTableRecord
100
AcDbLayerTableRecord
  2
162
 70
     0
 62
   162
  6
CONTINUOUS
  0
LAYER
  5
DC
330
2
100
AcDbSymbolTableRecord
100
AcDbLayerTableRecord
  2
163
 70
     0
 62
   163
  6
CONTINUOUS
  0
LAYER
  5
DD
330
2
100
AcDbSymbolTableRecord
100
AcDbLayerTableRecord
  2
164
 70
     0
 62
   164
  6
CONTINUOUS
  0
LAYER
  5
DE
330
2
100
AcDbSymbolTableRecord
100
AcDbLayerTableRecord
  2
165
 70
     0
 62
   165
  6
CONTINUOUS
  0
LAYER
  5
DF
330
2
100
AcDbSymbolTableRecord
100
AcDbLayerTableRecord
  2
166
 70
     0
 62
   166
  6
CONTINUOUS
  0
LAYER
  5
E0
330
2
100
AcDbSymbolTableRecord
100
AcDbLayerTableRecord
  2
167
 70
     0
 62
   167
  6
CONTINUOUS
  0
LAYER
  5
E1
330
2
100
AcDbSymbolTableRecord
100
AcDbLayerTableRecord
  2
168
 70
     0
 62
   168
  6
CONTINUOUS
  0
LAYER
  5
E2
330
2
100
AcDbSymbolTableRecord
100
AcDbLayerTableRecord
  2
169
 70
     0
 62
   169
  6
CONTINUOUS
  0
LAYER
  5
E3
330
2
100
AcDbSymbolTableRecord
100
AcDbLayerTableRecord
  2
170
 70
     0
 62
   170
  6
CONTINUOUS
  0
LAYER
  5
E4
330
2
100
AcDbSymbolTableRecord
100
AcDbLayerTableRecord
  2
171
 70
     0
 62
   171
  6
CONTINUOUS
  0
LAYER
  5
E5
330
2
100
AcDbSymbolTableRecord
100
AcDbLayerTableRecord
  2
172
 70
     0
 62
   172
  6
CONTINUOUS
  0
LAYER
  5
E6
330
2
100
AcDbSymbolTableRecord
100
AcDbLayerTableRecord
  2
173
 70
     0
 62
   173
  6
CONTINUOUS
  0
LAYER
  5
E7
330
2
100
AcDbSymbolTableRecord
100
AcDbLayerTableRecord
  2
174
 70
     0
 62
   174
  6
CONTINUOUS
  0
LAYER
  5
E8
330
2
100
AcDbSymbolTableRecord
100
AcDbLayerTableRecord
  2
175
 70
     0
 62
   175
  6
CONTINUOUS
  0
LAYER
  5
E9
330
2
100
AcDbSymbolTableRecord
100
AcDbLayerTableRecord
  2
176
 70
     0
 62
   176
  6
CONTINUOUS
  0
LAYER
  5
EA
330
2
100
AcDbSymbolTableRecord
100
AcDbLayerTableRecord
  2
177
 70
     0
 62
   177
  6
CONTINUOUS
  0
LAYER
  5
EB
330
2
100
AcDbSymbolTableRecord
100
AcDbLayerTableRecord
  2
178
 70
     0
 62
   178
  6
CONTINUOUS
  0
LAYER
  5
EC
330
2
100
AcDbSymbolTableRecord
100
AcDbLayerTableRecord
  2
179
 70
     0
 62
   179
  6
CONTINUOUS
  0
LAYER
  5
ED
330
2
100
AcDbSymbolTableRecord
100
AcDbLayerTableRecord
  2
180
 70
     0
 62
   180
  6
CONTINUOUS
  0
LAYER
  5
EE
330
2
100
AcDbSymbolTableRecord
100
AcDbLayerTableRecord
  2
181
 70
     0
 62
   181
  6
CONTINUOUS
  0
LAYER
  5
EF
330
2
100
AcDbSymbolTableRecord
100
AcDbLayerTableRecord
  2
182
 70
     0
 62
   182
  6
CONTINUOUS
  0
LAYER
  5
F0
330
2
100
AcDbSymbolTableRecord
100
AcDbLayerTableRecord
  2
183
 70
     0
 62
   183
  6
CONTINUOUS
  0
LAYER
  5
F1
330
2
100
AcDbSymbolTableRecord
100
AcDbLayerTableRecord
  2
184
 70
     0
 62
   184
  6
CONTINUOUS
  0
LAYER
  5
F2
330
2
100
AcDbSymbolTableRecord
100
AcDbLayerTableRecord
  2
185
 70
     0
 62
   185
  6
CONTINUOUS
  0
LAYER
  5
F3
330
2
100
AcDbSymbolTableRecord
100
AcDbLayerTableRecord
  2
186
 70
     0
 62
   186
  6
CONTINUOUS
  0
LAYER
  5
F4
330
2
100
AcDbSymbolTableRecord
100
AcDbLayerTableRecord
  2
187
 70
     0
 62
   187
  6
CONTINUOUS
  0
LAYER
  5
F5
330
2
100
AcDbSymbolTableRecord
100
AcDbLayerTableRecord
  2
188
 70
     0
 62
   188
  6
CONTINUOUS
  0
LAYER
  5
F6
330
2
100
AcDbSymbolTableRecord
100
AcDbLayerTableRecord
  2
189
 70
     0
 62
   189
  6
CONTINUOUS
  0
LAYER
  5
F7
330
2
100
AcDbSymbolTableRecord
100
AcDbLayerTableRecord
  2
190
 70
     0
 62
   190
  6
CONTINUOUS
  0
LAYER
  5
F8
330
2
100
AcDbSymbolTableRecord
100
AcDbLayerTableRecord
  2
191
 70
     0
 62
   191
  6
CONTINUOUS
  0
LAYER
  5
F9
330
2
100
AcDbSymbolTableRecord
100
AcDbLayerTableRecord
  2
192
 70
     0
 62
   192
  6
CONTINUOUS
  0
LAYER
  5
FA
330
2
100
AcDbSymbolTableRecord
100
AcDbLayerTableRecord
  2
193
 70
     0
 62
   193
  6
CONTINUOUS
  0
LAYER
  5
FB
330
2
100
AcDbSymbolTableRecord
100
AcDbLayerTableRecord
  2
194
 70
     0
 62
   194
  6
CONTINUOUS
  0
LAYER
  5
FC
330
2
100
AcDbSymbolTableRecord
100
AcDbLayerTableRecord
  2
195
 70
     0
 62
   195
  6
CONTINUOUS
  0
LAYER
  5
FD
330
2
100
AcDbSymbolTableRecord
100
AcDbLayerTableRecord
  2
196
 70
     0
 62
   196
  6
CONTINUOUS
  0
LAYER
  5
FE
330
2
100
AcDbSymbolTableRecord
100
AcDbLayerTableRecord
  2
197
 70
     0
 62
   197
  6
CONTINUOUS
  0
LAYER
  5
FF
330
2
100
AcDbSymbolTableRecord
100
AcDbLayerTableRecord
  2
198
 70
     0
 62
   198
  6
CONTINUOUS
  0
LAYER
  5
100
330
2
100
AcDbSymbolTableRecord
100
AcDbLayerTableRecord
  2
199
 70
     0
 62
   199
  6
CONTINUOUS
  0
LAYER
  5
101
330
2
100
AcDbSymbolTableRecord
100
AcDbLayerTableRecord
  2
200
 70
     0
 62
   200
  6
CONTINUOUS
  0
LAYER
  5
102
330
2
100
AcDbSymbolTableRecord
100
AcDbLayerTableRecord
  2
201
 70
     0
 62
   201
  6
CONTINUOUS
  0
LAYER
  5
103
330
2
100
AcDbSymbolTableRecord
100
AcDbLayerTableRecord
  2
202
 70
     0
 62
   202
  6
CONTINUOUS
  0
LAYER
  5
104
330
2
100
AcDbSymbolTableRecord
100
AcDbLayerTableRecord
  2
203
 70
     0
 62
   203
  6
CONTINUOUS
  0
LAYER
  5
105
330
2
100
AcDbSymbolTableRecord
100
AcDbLayerTableRecord
  2
204
 70
     0
 62
   204
  6
CONTINUOUS
  0
LAYER
  5
106
330
2
100
AcDbSymbolTableRecord
100
AcDbLayerTableRecord
  2
205
 70
     0
 62
   205
  6
CONTINUOUS
  0
LAYER
  5
107
330
2
100
AcDbSymbolTableRecord
100
AcDbLayerTableRecord
  2
206
 70
     0
 62
   206
  6
CONTINUOUS
  0
LAYER
  5
108
330
2
100
AcDbSymbolTableRecord
100
AcDbLayerTableRecord
  2
207
 70
     0
 62
   207
  6
CONTINUOUS
  0
LAYER
  5
109
330
2
100
AcDbSymbolTableRecord
100
AcDbLayerTableRecord
  2
208
 70
     0
 62
   208
  6
CONTINUOUS
  0
LAYER
  5
10A
330
2
100
AcDbSymbolTableRecord
100
AcDbLayerTableRecord
  2
209
 70
     0
 62
   209
  6
CONTINUOUS
  0
LAYER
  5
10B
330
2
100
AcDbSymbolTableRecord
100
AcDbLayerTableRecord
  2
210
 70
     0
 62
   210
  6
CONTINUOUS
  0
LAYER
  5
10C
330
2
100
AcDbSymbolTableRecord
100
AcDbLayerTableRecord
  2
211
 70
     0
 62
   211
  6
CONTINUOUS
  0
LAYER
  5
10D
330
2
100
AcDbSymbolTableRecord
100
AcDbLayerTableRecord
  2
212
 70
     0
 62
   212
  6
CONTINUOUS
  0
LAYER
  5
10E
330
2
100
AcDbSymbolTableRecord
100
AcDbLayerTableRecord
  2
213
 70
     0
 62
   213
  6
CONTINUOUS
  0
LAYER
  5
10F
330
2
100
AcDbSymbolTableRecord
100
AcDbLayerTableRecord
  2
214
 70
     0
 62
   214
  6
CONTINUOUS
  0
LAYER
  5
110
330
2
100
AcDbSymbolTableRecord
100
AcDbLayerTableRecord
  2
215
 70
     0
 62
   215
  6
CONTINUOUS
  0
LAYER
  5
111
330
2
100
AcDbSymbolTableRecord
100
AcDbLayerTableRecord
  2
216
 70
     0
 62
   216
  6
CONTINUOUS
  0
LAYER
  5
112
330
2
100
AcDbSymbolTableRecord
100
AcDbLayerTableRecord
  2
217
 70
     0
 62
   217
  6
CONTINUOUS
  0
LAYER
  5
113
330
2
100
AcDbSymbolTableRecord
100
AcDbLayerTableRecord
  2
218
 70
     0
 62
   218
  6
CONTINUOUS
  0
LAYER
  5
114
330
2
100
AcDbSymbolTableRecord
100
AcDbLayerTableRecord
  2
219
 70
     0
 62
   219
  6
CONTINUOUS
  0
LAYER
  5
115
330
2
100
AcDbSymbolTableRecord
100
AcDbLayerTableRecord
  2
220
 70
     0
 62
   220
  6
CONTINUOUS
  0
LAYER
  5
116
330
2
100
AcDbSymbolTableRecord
100
AcDbLayerTableRecord
  2
221
 70
     0
 62
   221
  6
CONTINUOUS
  0
LAYER
  5
117
330
2
100
AcDbSymbolTableRecord
100
AcDbLayerTableRecord
  2
222
 70
     0
 62
   222
  6
CONTINUOUS
  0
LAYER
  5
118
330
2
100
AcDbSymbolTableRecord
100
AcDbLayerTableRecord
  2
223
 70
     0
 62
   223
  6
CONTINUOUS
  0
LAYER
  5
119
330
2
100
AcDbSymbolTableRecord
100
AcDbLayerTableRecord
  2
224
 70
     0
 62
   224
  6
CONTINUOUS
  0
LAYER
  5
11A
330
2
100
AcDbSymbolTableRecord
100
AcDbLayerTableRecord
  2
225
 70
     0
 62
   225
  6
CONTINUOUS
  0
LAYER
  5
11B
330
2
100
AcDbSymbolTableRecord
100
AcDbLayerTableRecord
  2
226
 70
     0
 62
   226
  6
CONTINUOUS
  0
LAYER
  5
11C
330
2
100
AcDbSymbolTableRecord
100
AcDbLayerTableRecord
  2
227
 70
     0
 62
   227
  6
CONTINUOUS
  0
LAYER
  5
11D
330
2
100
AcDbSymbolTableRecord
100
AcDbLayerTableRecord
  2
228
 70
     0
 62
   228
  6
CONTINUOUS
  0
LAYER
  5
11E
330
2
100
AcDbSymbolTableRecord
100
AcDbLayerTableRecord
  2
229
 70
     0
 62
   229
  6
CONTINUOUS
  0
LAYER
  5
11F
330
2
100
AcDbSymbolTableRecord
100
AcDbLayerTableRecord
  2
230
 70
     0
 62
   230
  6
CONTINUOUS
  0
LAYER
  5
120
330
2
100
AcDbSymbolTableRecord
100
AcDbLayerTableRecord
  2
231
 70
     0
 62
   231
  6
CONTINUOUS
  0
LAYER
  5
121
330
2
100
AcDbSymbolTableRecord
100
AcDbLayerTableRecord
  2
232
 70
     0
 62
   232
  6
CONTINUOUS
  0
LAYER
  5
122
330
2
100
AcDbSymbolTableRecord
100
AcDbLayerTableRecord
  2
233
 70
     0
 62
   233
  6
CONTINUOUS
  0
LAYER
  5
123
330
2
100
AcDbSymbolTableRecord
100
AcDbLayerTableRecord
  2
234
 70
     0
 62
   234
  6
CONTINUOUS
  0
LAYER
  5
124
330
2
100
AcDbSymbolTableRecord
100
AcDbLayerTableRecord
  2
235
 70
     0
 62
   235
  6
CONTINUOUS
  0
LAYER
  5
125
330
2
100
AcDbSymbolTableRecord
100
AcDbLayerTableRecord
  2
236
 70
     0
 62
   236
  6
CONTINUOUS
  0
LAYER
  5
126
330
2
100
AcDbSymbolTableRecord
100
AcDbLayerTableRecord
  2
237
 70
     0
 62
   237
  6
CONTINUOUS
  0
LAYER
  5
127
330
2
100
AcDbSymbolTableRecord
100
AcDbLayerTableRecord
  2
238
 70
     0
 62
   238
  6
CONTINUOUS
  0
LAYER
  5
128
330
2
100
AcDbSymbolTableRecord
100
AcDbLayerTableRecord
  2
239
 70
     0
 62
   239
  6
CONTINUOUS
  0
LAYER
  5
129
330
2
100
AcDbSymbolTableRecord
100
AcDbLayerTableRecord
  2
240
 70
     0
 62
   240
  6
CONTINUOUS
  0
LAYER
  5
12A
330
2
100
AcDbSymbolTableRecord
100
AcDbLayerTableRecord
  2
241
 70
     0
 62
   241
  6
CONTINUOUS
  0
LAYER
  5
12B
330
2
100
AcDbSymbolTableRecord
100
AcDbLayerTableRecord
  2
242
 70
     0
 62
   242
  6
CONTINUOUS
  0
LAYER
  5
12C
330
2
100
AcDbSymbolTableRecord
100
AcDbLayerTableRecord
  2
243
 70
     0
 62
   243
  6
CONTINUOUS
  0
LAYER
  5
12D
330
2
100
AcDbSymbolTableRecord
100
AcDbLayerTableRecord
  2
244
 70
     0
 62
   244
  6
CONTINUOUS
  0
LAYER
  5
12E
330
2
100
AcDbSymbolTableRecord
100
AcDbLayerTableRecord
  2
245
 70
     0
 62
   245
  6
CONTINUOUS
  0
LAYER
  5
12F
330
2
100
AcDbSymbolTableRecord
100
AcDbLayerTableRecord
  2
246
 70
     0
 62
   246
  6
CONTINUOUS
  0
LAYER
  5
130
330
2
100
AcDbSymbolTableRecord
100
AcDbLayerTableRecord
  2
247
 70
     0
 62
   247
  6
CONTINUOUS
  0
LAYER
  5
131
330
2
100
AcDbSymbolTableRecord
100
AcDbLayerTableRecord
  2
248
 70
     0
 62
   248
  6
CONTINUOUS
  0
LAYER
  5
132
330
2
100
AcDbSymbolTableRecord
100
AcDbLayerTableRecord
  2
249
 70
     0
 62
   249
  6
CONTINUOUS
  0
LAYER
  5
133
330
2
100
AcDbSymbolTableRecord
100
AcDbLayerTableRecord
  2
250
 70
     0
 62
   250
  6
CONTINUOUS
  0
LAYER
  5
134
330
2
100
AcDbSymbolTableRecord
100
AcDbLayerTableRecord
  2
251
 70
     0
 62
   251
  6
CONTINUOUS
  0
LAYER
  5
135
330
2
100
AcDbSymbolTableRecord
100
AcDbLayerTableRecord
  2
252
 70
     0
 62
   252
  6
CONTINUOUS
  0
LAYER
  5
136
330
2
100
AcDbSymbolTableRecord
100
AcDbLayerTableRecord
  2
253
 70
     0
 62
   253
  6
CONTINUOUS
  0
LAYER
  5
137
330
2
100
AcDbSymbolTableRecord
100
AcDbLayerTableRecord
  2
254
 70
     0
 62
   254
  6
CONTINUOUS
  0
LAYER
  5
138
330
2
100
AcDbSymbolTableRecord
100
AcDbLayerTableRecord
  2
255
 70
     0
 62
   255
  6
CONTINUOUS
  0
LAYER
  5
488C
330
2
100
AcDbSymbolTableRecord
100
AcDbLayerTableRecord
  2
DEFPOINTS
 70
     0
 62
     7
  6
CONTINUOUS
  0
ENDTAB
  0
TABLE
  2
STYLE
  5
3
330
0
100
AcDbSymbolTable
 70
     1
  0
STYLE
  5
11
330
3
100
AcDbSymbolTableRecord
100
AcDbTextStyleTableRecord
  2
STANDARD
 70
     0
 40
0.0
 41
1.0
 50
0.0
 71
     0
 42
0.2
  3
monotxt
  4

  0
ENDTAB
  0
TABLE
  2
VIEW
  5
6
330
0
100
AcDbSymbolTable
 70
     0
  0
ENDTAB
  0
TABLE
  2
UCS
  5
7
330
0
100
AcDbSymbolTable
 70
     0
  0
ENDTAB
  0
TABLE
  2
APPID
  5
9
330
0
100
AcDbSymbolTable
 70
     1
  0
APPID
  5
12
330
9
100
AcDbSymbolTableRecord
100
AcDbRegAppTableRecord
  2
ACAD
 70
     0
  0
ENDTAB
  0
TABLE
  2
DIMSTYLE
  5
A
330
0
100
AcDbSymbolTable
 70
     1
  0
DIMSTYLE
105
354D
330
A
100
AcDbSymbolTableRecord
100
AcDbDimStyleTableRecord
  2
STANDARD
 70
     0
  3

  4

  5

  6

  7

 40
1.0
 41
0.18
 42
0.0625
 43
0.38
 44
0.18
 45
0.0
 46
0.0
 47
0.0
 48
0.0
140
0.18
141
0.09
142
0.0
143
25.4
144
1.0
145
0.0
146
1.0
147
0.09
 71
     0
 72
     0
 73
     1
 74
     1
 75
     0
 76
     0
 77
     0
 78
     0
170
     0
171
     2
172
     0
173
     0
174
     0
175
     0
176
     0
177
     0
178
     0
270
     2
271
     4
272
     4
273
     2
274
     2
340
11
275
     0
280
     0
281
     0
282
     0
283
     1
284
     0
285
     0
286
     0
287
     3
288
     0
  0
ENDTAB
  0
TABLE
  2
BLOCK_RECORD
  5
1
330
0
100
AcDbSymbolTable
 70
     1
  0
BLOCK_RECORD
  5
1E
102
{ACAD_XDICTIONARY
360
4855
102
}
330
1
100
AcDbSymbolTableRecord
100
AcDbBlockTableRecord
  2
*MODEL_SPACE
  0
BLOCK_RECORD
  5
1A
102
{ACAD_XDICTIONARY
360
4857
102
}
330
1
100
AcDbSymbolTableRecord
100
AcDbBlockTableRecord
  2
*PAPER_SPACE
  0
ENDTAB
  0
ENDSEC
  0
SECTION
  2
BLOCKS
  0
BLOCK
  5
13B
330
1E
100
AcDbEntity
  8
0
100
AcDbBlockBegin
  2
*MODEL_SPACE
 70
     0
 10
0.0
 20
0.0
 30
0.0
  3
*MODEL_SPACE
  1

  0
ENDBLK
  5
13C
330
1E
100
AcDbEntity
  8
0
100
AcDbBlockEnd
  0
BLOCK
  5
139
330
1A
100
AcDbEntity
 67
     1
  8
0
100
AcDbBlockBegin
  2
*PAPER_SPACE
 70
     0
 10
0.0
 20
0.0
 30
0.0
  3
*PAPER_SPACE
  1

  0
ENDBLK
  5
13A
330
1A
100
AcDbEntity
 67
     1
  8
0
100
AcDbBlockEnd
  0
ENDSEC
  0
SECTION
  2
ENTITIES
  0
LINE
  5
2CC3
330
1E
100
AcDbEntity
  8
7
100
AcDbLine
 10
0.8464566929133855
 20
6.466535433070865
 30
0.0
 11
0.9370078740157481
 21
6.466535433070865
 31
0.0
  0
LINE
  5
2CC4
330
1E
100
AcDbEntity
  8
7
100
AcDbLine
 10
0.8464566929133855
 20
6.468503937007874
 30
0.0
 11
0.9370078740157481
 21
6.468503937007874
 31
0.0
  0
LINE
  5
2CC5
330
1E
100
AcDbEntity
  8
7
100
AcDbLine
 10
0.9370078740157481
 20
6.513779527559054
 30
0.0
 11
0.8464566929133855
 21
6.513779527559054
 31
0.0
  0
LINE
  5
2CC6
330
1E
100
AcDbEntity
  8
7
100
AcDbLine
 10
0.9370078740157481
 20
6.541338582677165
 30
0.0
 11
0.8464566929133855
 21
6.541338582677165
 31
0.0
  0
LINE
  5
2CC7
330
1E
100
AcDbEntity
  8
7
100
AcDbLine
 10
1.482283464566929
 20
6.466535433070865
 30
0.0
 11
1.572834645669291
 21
6.466535433070865
 31
0.0
  0
LINE
  5
2CC8
330
1E
100
AcDbEntity
  8
7
100
AcDbLine
 10
1.482283464566929
 20
6.468503937007874
 30
0.0
 11
1.572834645669291
 21
6.468503937007874
 31
0.0
  0
LINE
  5
2CC9
330
1E
100
AcDbEntity
  8
7
100
AcDbLine
 10
1.572834645669291
 20
6.513779527559054
 30
0.0
 11
1.482283464566929
 21
6.513779527559054
 31
0.0
  0
LINE
  5
2CCA
330
1E
100
AcDbEntity
  8
7
100
AcDbLine
 10
1.572834645669291
 20
6.541338582677165
 30
0.0
 11
1.482283464566929
 21
6.541338582677165
 31
0.0
  0
LINE
  5
2CCB
330
1E
100
AcDbEntity
  8
7
100
AcDbLine
 10
0.8464566929133855
 20
4.968503937007874
 30
0.0
 11
0.9370078740157481
 21
4.968503937007874
 31
0.0
  0
LINE
  5
2CCC
330
1E
100
AcDbEntity
  8
7
100
AcDbLine
 10
0.8464566929133855
 20
4.970472440944882
 30
0.0
 11
0.9370078740157481
 21
4.970472440944882
 31
0.0
  0
LINE
  5
2CCD
330
1E
100
AcDbEntity
  8
7
100
AcDbLine
 10
0.9370078740157481
 20
5.015748031496063
 30
0.0
 11
0.8464566929133855
 21
5.015748031496063
 31
0.0
  0
LINE
  5
2CCE
330
1E
100
AcDbEntity
  8
7
100
AcDbLine
 10
0.9370078740157481
 20
5.043307086614173
 30
0.0
 11
0.8464566929133855
 21
5.043307086614173
 31
0.0
  0
LINE
  5
2CCF
330
1E
100
AcDbEntity
  8
7
100
AcDbLine
 10
1.482283464566929
 20
4.968503937007874
 30
0.0
 11
1.572834645669291
 21
4.968503937007874
 31
0.0
  0
LINE
  5
2CD0
330
1E
100
AcDbEntity
  8
7
100
AcDbLine
 10
1.482283464566929
 20
4.970472440944882
 30
0.0
 11
1.572834645669291
 21
4.970472440944882
 31
0.0
  0
LINE
  5
2CD1
330
1E
100
AcDbEntity
  8
7
100
AcDbLine
 10
1.572834645669291
 20
5.015748031496063
 30
0.0
 11
1.482283464566929
 21
5.015748031496063
 31
0.0
  0
LINE
  5
2CD2
330
1E
100
AcDbEntity
  8
7
100
AcDbLine
 10
1.572834645669291
 20
5.043307086614173
 30
0.0
 11
1.482283464566929
 21
5.043307086614173
 31
0.0
  0
LINE
  5
2CD3
330
1E
100
AcDbEntity
  8
7
100
AcDbLine
 10
0.8464566929133855
 20
4.710629921259843
 30
0.0
 11
0.8464566929133855
 21
4.736220472440945
 31
0.0
  0
LINE
  5
2CD4
330
1E
100
AcDbEntity
  8
7
100
AcDbLine
 10
0.8464566929133855
 20
4.710629921259843
 30
0.0
 11
0.6358267716535431
 21
4.710629921259843
 31
0.0
  0
LINE
  5
2CD5
330
1E
100
AcDbEntity
  8
7
100
AcDbLine
 10
0.8622047244094485
 20
4.736220472440945
 30
0.0
 11
0.8464566929133855
 21
4.736220472440945
 31
0.0
  0
LINE
  5
2CD6
330
1E
100
AcDbEntity
  8
7
100
AcDbLine
 10
1.480314960629921
 20
6.208661417322834
 30
0.0
 11
1.482283464566929
 21
6.234251968503937
 31
0.0
  0
LINE
  5
2CD7
330
1E
100
AcDbEntity
  8
7
100
AcDbLine
 10
1.480314960629921
 20
6.208661417322834
 30
0.0
 11
1.053149606299212
 21
6.208661417322834
 31
0.0
  0
LINE
  5
2CD8
330
1E
100
AcDbEntity
  8
7
100
AcDbLine
 10
1.051181102362204
 20
6.234251968503937
 30
0.0
 11
1.053149606299212
 21
6.208661417322834
 31
0.0
  0
LINE
  5
2CD9
330
1E
100
AcDbEntity
  8
7
100
AcDbLine
 10
1.051181102362204
 20
6.234251968503937
 30
0.0
 11
1.037401574803149
 21
6.234251968503937
 31
0.0
  0
LINE
  5
2CDA
330
1E
100
AcDbEntity
  8
7
100
AcDbLine
 10
1.496062992125984
 20
6.234251968503937
 30
0.0
 11
1.482283464566929
 21
6.234251968503937
 31
0.0
  0
LINE
  5
2CDB
330
1E
100
AcDbEntity
  8
7
100
AcDbLine
 10
0.8464566929133855
 20
6.208661417322834
 30
0.0
 11
0.8464566929133855
 21
6.234251968503937
 31
0.0
  0
LINE
  5
2CDC
330
1E
100
AcDbEntity
  8
7
100
AcDbLine
 10
0.8464566929133855
 20
6.208661417322834
 30
0.0
 11
0.6358267716535431
 21
6.208661417322834
 31
0.0
  0
LINE
  5
2CDD
330
1E
100
AcDbEntity
  8
7
100
AcDbLine
 10
0.8622047244094485
 20
6.234251968503937
 30
0.0
 11
0.8464566929133855
 21
6.234251968503937
 31
0.0
  0
LINE
  5
2CDE
330
1E
100
AcDbEntity
  8
7
100
AcDbLine
 10
1.051181102362204
 20
4.736220472440945
 30
0.0
 11
1.037401574803149
 21
4.736220472440945
 31
0.0
  0
LINE
  5
2CDF
330
1E
100
AcDbEntity
  8
7
100
AcDbLine
 10
1.496062992125984
 20
4.736220472440945
 30
0.0
 11
1.482283464566929
 21
4.736220472440945
 31
0.0
  0
LINE
  5
2CE0
330
1E
100
AcDbEntity
  8
7
100
AcDbLine
 10
1.480314960629921
 20
4.710629921259843
 30
0.0
 11
1.482283464566929
 21
4.736220472440945
 31
0.0
  0
LINE
  5
2CE1
330
1E
100
AcDbEntity
  8
7
100
AcDbLine
 10
1.480314960629921
 20
4.710629921259843
 30
0.0
 11
1.053149606299212
 21
4.710629921259843
 31
0.0
  0
LINE
  5
2CE2
330
1E
100
AcDbEntity
  8
7
100
AcDbLine
 10
1.051181102362204
 20
4.736220472440945
 30
0.0
 11
1.053149606299212
 21
4.710629921259843
 31
0.0
  0
LINE
  5
2CE3
330
1E
100
AcDbEntity
  8
7
100
AcDbLine
 10
1.161417322834645
 20
3.79527559055118
 30
0.0
 11
1.372047244094487
 21
3.79527559055118
 31
0.0
  0
LINE
  5
2CE4
330
1E
100
AcDbEntity
  8
7
100
AcDbLine
 10
1.161417322834645
 20
3.915354330708662
 30
0.0
 11
1.372047244094487
 21
3.915354330708662
 31
0.0
  0
LINE
  5
2CEA
330
1E
100
AcDbEntity
  8
7
100
AcDbLine
 10
1.135826771653543
 20
3.83267716535433
 30
0.0
 11
1.161417322834645
 21
3.79527559055118
 31
0.0
  0
LINE
  5
2CEB
330
1E
100
AcDbEntity
  8
7
100
AcDbLine
 10
1.362204724409449
 20
3.787401574803149
 30
0.0
 11
1.171259842519685
 21
3.787401574803149
 31
0.0
  0
LINE
  5
2CF1
330
1E
100
AcDbEntity
  8
7
100
AcDbLine
 10
1.326771653543307
 20
3.77755905511811
 30
0.0
 11
1.206692913385826
 21
3.77755905511811
 31
0.0
  0
LINE
  5
2CF7
330
1E
100
AcDbEntity
  8
7
100
AcDbLine
 10
1.161417322834645
 20
3.79527559055118
 30
0.0
 11
1.171259842519685
 21
3.787401574803149
 31
0.0
  0
LINE
  5
2CF8
330
1E
100
AcDbEntity
  8
7
100
AcDbLine
 10
1.362204724409449
 20
3.787401574803149
 30
0.0
 11
1.372047244094487
 21
3.79527559055118
 31
0.0
  0
LINE
  5
2D04
330
1E
100
AcDbEntity
  8
7
100
AcDbLine
 10
1.372047244094487
 20
3.915354330708662
 30
0.0
 11
1.362204724409449
 21
3.921259842519686
 31
0.0
  0
LINE
  5
2D0F
330
1E
100
AcDbEntity
  8
7
100
AcDbLine
 10
1.326771653543307
 20
3.931102362204724
 30
0.0
 11
1.206692913385826
 21
3.931102362204724
 31
0.0
  0
LINE
  5
2D19
330
1E
100
AcDbEntity
  8
7
100
AcDbLine
 10
1.326771653543307
 20
3.77755905511811
 30
0.0
 11
1.206692913385826
 21
3.77755905511811
 31
0.0
  0
LINE
  5
2D23
330
1E
100
AcDbEntity
  8
7
100
AcDbLine
 10
1.326771653543307
 20
3.931102362204724
 30
0.0
 11
1.206692913385826
 21
3.931102362204724
 31
0.0
  0
LINE
  5
2D24
330
1E
100
AcDbEntity
  8
7
100
AcDbLine
 10
1.206692913385826
 20
4.003937007874015
 30
0.0
 11
1.326771653543307
 21
4.003937007874015
 31
0.0
  0
LINE
  5
2D31
330
1E
100
AcDbEntity
  8
7
100
AcDbLine
 10
1.326771653543307
 20
3.704724409448819
 30
0.0
 11
1.206692913385826
 21
3.704724409448819
 31
0.0
  0
LINE
  5
2D3E
330
1E
100
AcDbEntity
  8
7
100
AcDbLine
 10
1.685039370078739
 20
4.435039370078739
 30
0.0
 11
1.484251968503937
 21
4.435039370078739
 31
0.0
  0
LINE
  5
2D3F
330
1E
100
AcDbEntity
  8
7
100
AcDbLine
 10
0.3937007874015746
 20
4.059055118110236
 30
0.0
 11
0.3937007874015746
 21
3.649606299212599
 31
0.0
  0
LINE
  5
2D40
330
1E
100
AcDbEntity
  8
7
100
AcDbLine
 10
1.206692913385826
 20
3.704724409448819
 30
0.0
 11
1.206692913385826
 21
3.702755905511811
 31
0.0
  0
LINE
  5
2D41
330
1E
100
AcDbEntity
  8
7
100
AcDbLine
 10
1.206692913385826
 20
4.005905511811023
 30
0.0
 11
1.206692913385826
 21
4.003937007874015
 31
0.0
  0
LINE
  5
2D51
330
1E
100
AcDbEntity
  8
7
100
AcDbLine
 10
1.326771653543307
 20
3.702755905511811
 30
0.0
 11
1.326771653543307
 21
3.704724409448819
 31
0.0
  0
LINE
  5
2D52
330
1E
100
AcDbEntity
  8
7
100
AcDbLine
 10
1.206692913385826
 20
3.702755905511811
 30
0.0
 11
1.326771653543307
 21
3.702755905511811
 31
0.0
  0
LINE
  5
2D53
330
1E
100
AcDbEntity
  8
7
100
AcDbLine
 10
1.326771653543307
 20
4.003937007874015
 30
0.0
 11
1.326771653543307
 21
4.005905511811023
 31
0.0
  0
LINE
  5
2D60
330
1E
100
AcDbEntity
  8
7
100
AcDbLine
 10
1.326771653543307
 20
4.005905511811023
 30
0.0
 11
1.206692913385826
 21
4.005905511811023
 31
0.0
  0
LINE
  5
2D61
330
1E
100
AcDbEntity
  8
7
100
AcDbLine
 10
2.139763779527559
 20
4.059055118110236
 30
0.0
 11
2.139763779527559
 21
3.649606299212599
 31
0.0
  0
LINE
  5
2D62
330
1E
100
AcDbEntity
  8
7
100
AcDbLine
 10
1.482283464566929
 20
4.368110236220473
 30
0.0
 11
1.687007874015748
 21
4.368110236220473
 31
0.0
  0
LINE
  5
2D63
330
1E
100
AcDbEntity
  8
7
100
AcDbLine
 10
1.687007874015748
 20
4.375984251968504
 30
0.0
 11
1.687007874015748
 21
4.368110236220473
 31
0.0
  0
LINE
  5
2D64
330
1E
100
AcDbEntity
  8
7
100
AcDbLine
 10
1.482283464566929
 20
4.375984251968504
 30
0.0
 11
1.687007874015748
 21
4.375984251968504
 31
0.0
  0
LINE
  5
2D65
330
1E
100
AcDbEntity
  8
7
100
AcDbLine
 10
1.482283464566929
 20
4.375984251968504
 30
0.0
 11
1.482283464566929
 21
4.368110236220473
 31
0.0
  0
LINE
  5
2D66
330
1E
100
AcDbEntity
  8
7
100
AcDbLine
 10
1.687007874015748
 20
4.403543307086613
 30
0.0
 11
1.687007874015748
 21
4.375984251968504
 31
0.0
  0
LINE
  5
2D67
330
1E
100
AcDbEntity
  8
7
100
AcDbLine
 10
1.687007874015748
 20
4.403543307086613
 30
0.0
 11
1.480314960629921
 21
4.403543307086613
 31
0.0
  0
LINE
  5
2D68
330
1E
100
AcDbEntity
  8
7
100
AcDbLine
 10
1.482283464566929
 20
4.375984251968504
 30
0.0
 11
1.480314960629921
 21
4.403543307086613
 31
0.0
  0
LINE
  5
2D69
330
1E
100
AcDbEntity
  8
7
100
AcDbLine
 10
1.687007874015748
 20
4.405511811023621
 30
0.0
 11
1.687007874015748
 21
4.403543307086613
 31
0.0
  0
LINE
  5
2D6A
330
1E
100
AcDbEntity
  8
7
100
AcDbLine
 10
1.480314960629921
 20
4.405511811023621
 30
0.0
 11
1.687007874015748
 21
4.405511811023621
 31
0.0
  0
LINE
  5
2D6B
330
1E
100
AcDbEntity
  8
7
100
AcDbLine
 10
1.480314960629921
 20
4.403543307086613
 30
0.0
 11
1.480314960629921
 21
4.405511811023621
 31
0.0
  0
LINE
  5
2D6C
330
1E
100
AcDbEntity
  8
7
100
AcDbLine
 10
1.480314960629921
 20
4.415354330708662
 30
0.0
 11
1.687007874015748
 21
4.415354330708662
 31
0.0
  0
LINE
  5
2D6D
330
1E
100
AcDbEntity
  8
7
100
AcDbLine
 10
1.480314960629921
 20
4.415354330708662
 30
0.0
 11
1.480314960629921
 21
4.405511811023621
 31
0.0
  0
LINE
  5
2D6E
330
1E
100
AcDbEntity
  8
7
100
AcDbLine
 10
1.687007874015748
 20
4.415354330708662
 30
0.0
 11
1.687007874015748
 21
4.405511811023621
 31
0.0
  0
LINE
  5
2D6F
330
1E
100
AcDbEntity
  8
7
100
AcDbLine
 10
1.687007874015748
 20
4.415354330708662
 30
0.0
 11
1.685039370078739
 21
4.435039370078739
 31
0.0
  0
LINE
  5
2D70
330
1E
100
AcDbEntity
  8
7
100
AcDbLine
 10
1.480314960629921
 20
4.415354330708662
 30
0.0
 11
1.484251968503937
 21
4.435039370078739
 31
0.0
  0
LINE
  5
2D71
330
1E
100
AcDbEntity
  8
7
100
AcDbLine
 10
1.049212598425197
 20
4.435039370078739
 30
0.0
 11
0.8484251968503929
 21
4.435039370078739
 31
0.0
  0
LINE
  5
2D72
330
1E
100
AcDbEntity
  8
7
100
AcDbLine
 10
1.053149606299212
 20
4.415354330708662
 30
0.0
 11
1.049212598425197
 21
4.435039370078739
 31
0.0
  0
LINE
  5
2D73
330
1E
100
AcDbEntity
  8
7
100
AcDbLine
 10
0.8464566929133855
 20
4.415354330708662
 30
0.0
 11
0.8484251968503929
 21
4.435039370078739
 31
0.0
  0
LINE
  5
2D79
330
1E
100
AcDbEntity
  8
7
100
AcDbLine
 10
1.053149606299212
 20
4.405511811023621
 30
0.0
 11
0.8464566929133855
 21
4.405511811023621
 31
0.0
  0
LINE
  5
2D7A
330
1E
100
AcDbEntity
  8
7
100
AcDbLine
 10
1.053149606299212
 20
4.415354330708662
 30
0.0
 11
1.053149606299212
 21
4.405511811023621
 31
0.0
  0
LINE
  5
2D80
330
1E
100
AcDbEntity
  8
7
100
AcDbLine
 10
0.8464566929133855
 20
4.405511811023621
 30
0.0
 11
0.8464566929133855
 21
4.403543307086613
 31
0.0
  0
LINE
  5
2D81
330
1E
100
AcDbEntity
  8
7
100
AcDbLine
 10
1.051181102362204
 20
4.375984251968504
 30
0.0
 11
0.8464566929133855
 21
4.375984251968504
 31
0.0
  0
LINE
  5
2D82
330
1E
100
AcDbEntity
  8
7
100
AcDbLine
 10
1.051181102362204
 20
4.375984251968504
 30
0.0
 11
1.051181102362204
 21
4.403543307086613
 31
0.0
  0
LINE
  5
2D83
330
1E
100
AcDbEntity
  8
7
100
AcDbLine
 10
0.8464566929133855
 20
4.403543307086613
 30
0.0
 11
0.8464566929133855
 21
4.375984251968504
 31
0.0
  0
LINE
  5
2D84
330
1E
100
AcDbEntity
  8
7
100
AcDbLine
 10
1.051181102362204
 20
4.368110236220473
 30
0.0
 11
0.8464566929133855
 21
4.368110236220473
 31
0.0
  0
LINE
  5
2D85
330
1E
100
AcDbEntity
  8
7
100
AcDbLine
 10
1.051181102362204
 20
4.375984251968504
 30
0.0
 11
1.051181102362204
 21
4.368110236220473
 31
0.0
  0
LINE
  5
2D8F
330
1E
100
AcDbEntity
  8
7
100
AcDbLine
 10
1.053149606299212
 20
4.346456692913386
 30
0.0
 11
1.074803149606299
 21
4.129921259842519
 31
0.0
  0
LINE
  5
2D90
330
1E
100
AcDbEntity
  8
7
100
AcDbLine
 10
1.194881889763779
 20
4.13779527559055
 30
0.0
 11
1.194881889763779
 21
4.080708661417323
 31
0.0
  0
LINE
  5
2D9B
330
1E
100
AcDbEntity
  8
7
100
AcDbLine
 10
1.338582677165354
 20
4.13779527559055
 30
0.0
 11
1.338582677165354
 21
4.080708661417323
 31
0.0
  0
LINE
  5
2D9C
330
1E
100
AcDbEntity
  8
7
100
AcDbLine
 10
1.074803149606299
 20
4.129921259842519
 30
0.0
 11
1.194881889763779
 21
4.129921259842519
 31
0.0
  0
LINE
  5
2DA4
330
1E
100
AcDbEntity
  8
7
100
AcDbLine
 10
1.687007874015748
 20
4.346456692913386
 30
0.0
 11
1.480314960629921
 21
4.346456692913386
 31
0.0
  0
LINE
  5
2DAA
330
1E
100
AcDbEntity
  8
7
100
AcDbLine
 10
0.3937007874015746
 20
4.059055118110236
 30
0.0
 11
0.3917322834645667
 21
4.061023622047243
 31
0.0
  0
LINE
  5
2DAB
330
1E
100
AcDbEntity
  8
7
100
AcDbLine
 10
2.139763779527559
 20
4.059055118110236
 30
0.0
 11
2.141732283464566
 21
4.061023622047243
 31
0.0
  0
LINE
  5
2DB9
330
1E
100
AcDbEntity
  8
7
100
AcDbLine
 10
0.3937007874015746
 20
3.649606299212599
 30
0.0
 11
0.3917322834645667
 21
3.649606299212599
 31
0.0
  0
LINE
  5
2DBA
330
1E
100
AcDbEntity
  8
7
100
AcDbLine
 10
2.139763779527559
 20
3.649606299212599
 30
0.0
 11
0.3937007874015746
 21
3.649606299212599
 31
0.0
  0
LINE
  5
2DBB
330
1E
100
AcDbEntity
  8
7
100
AcDbLine
 10
0.3937007874015746
 20
4.059055118110236
 30
0.0
 11
2.139763779527559
 21
4.059055118110236
 31
0.0
  0
LINE
  5
2DCA
330
1E
100
AcDbEntity
  8
7
100
AcDbLine
 10
1.828740157480314
 20
4.13779527559055
 30
0.0
 11
1.895669291338582
 21
4.13779527559055
 31
0.0
  0
LINE
  5
2DCB
330
1E
100
AcDbEntity
  8
7
100
AcDbLine
 10
1.828740157480314
 20
4.185039370078739
 30
0.0
 11
1.895669291338582
 21
4.185039370078739
 31
0.0
  0
LINE
  5
2DCC
330
1E
100
AcDbEntity
  8
7
100
AcDbLine
 10
1.828740157480314
 20
4.13779527559055
 30
0.0
 11
1.828740157480314
 21
4.185039370078739
 31
0.0
  0
LINE
  5
2DCD
330
1E
100
AcDbEntity
  8
7
100
AcDbLine
 10
1.828740157480314
 20
4.080708661417323
 30
0.0
 11
1.828740157480314
 21
4.13779527559055
 31
0.0
  0
LINE
  5
2DCE
330
1E
100
AcDbEntity
  8
7
100
AcDbLine
 10
0.7047244094488181
 20
4.185039370078739
 30
0.0
 11
0.6358267716535431
 21
4.185039370078739
 31
0.0
  0
LINE
  5
2DCF
330
1E
100
AcDbEntity
  8
7
100
AcDbLine
 10
0.7047244094488181
 20
4.13779527559055
 30
0.0
 11
0.6358267716535431
 21
4.13779527559055
 31
0.0
  0
LINE
  5
2DD0
330
1E
100
AcDbEntity
  8
7
100
AcDbLine
 10
0.7047244094488181
 20
4.13779527559055
 30
0.0
 11
0.7047244094488181
 21
4.185039370078739
 31
0.0
  0
LINE
  5
2DD1
330
1E
100
AcDbEntity
  8
7
100
AcDbLine
 10
0.7047244094488181
 20
4.080708661417323
 30
0.0
 11
0.7047244094488181
 21
4.13779527559055
 31
0.0
  0
LINE
  5
2DD2
330
1E
100
AcDbEntity
  8
7
100
AcDbLine
 10
1.687007874015748
 20
4.346456692913386
 30
0.0
 11
1.708661417322834
 21
4.129921259842519
 31
0.0
  0
LINE
  5
2DD3
330
1E
100
AcDbEntity
  8
7
100
AcDbLine
 10
0.8248031496062985
 20
4.129921259842519
 30
0.0
 11
0.8464566929133855
 21
4.346456692913386
 31
0.0
  0
LINE
  5
2DFC
330
1E
100
AcDbEntity
  8
7
100
AcDbLine
 10
2.63779527559055
 20
3.309055118110236
 30
0.0
 11
2.641732283464566
 21
3.305118110236221
 31
0.0
  0
LINE
  5
2E08
330
1E
100
AcDbEntity
  8
7
100
AcDbLine
 10
-0.0748031496062995
 20
3.255905511811023
 30
0.0
 11
-0.0452755905511815
 21
3.248031496062991
 31
0.0
  0
LINE
  5
2E09
330
1E
100
AcDbEntity
  8
7
100
AcDbLine
 10
-0.1082677165354333
 20
3.305118110236221
 30
0.0
 11
-0.1043307086614176
 21
3.309055118110236
 31
0.0
  0
LINE
  5
2E13
330
1E
100
AcDbEntity
  8
7
100
AcDbLine
 10
-0.1043307086614176
 20
3.309055118110236
 30
0.0
 11
-0.0944881889763783
 21
3.31496062992126
 31
0.0
  0
LINE
  5
2E1D
330
1E
100
AcDbEntity
  8
7
100
AcDbLine
 10
0.7047244094488181
 20
4.129921259842519
 30
0.0
 11
0.8248031496062985
 21
4.129921259842519
 31
0.0
  0
LINE
  5
2E1E
330
1E
100
AcDbEntity
  8
7
100
AcDbLine
 10
1.194881889763779
 20
4.080708661417323
 30
0.0
 11
0.7047244094488181
 21
4.080708661417323
 31
0.0
  0
LINE
  5
2E1F
330
1E
100
AcDbEntity
  8
7
100
AcDbLine
 10
1.338582677165354
 20
4.080708661417323
 30
0.0
 11
1.194881889763779
 21
4.080708661417323
 31
0.0
  0
LINE
  5
2E20
330
1E
100
AcDbEntity
  8
7
100
AcDbLine
 10
1.708661417322834
 20
4.129921259842519
 30
0.0
 11
1.828740157480314
 21
4.129921259842519
 31
0.0
  0
LINE
  5
2E21
330
1E
100
AcDbEntity
  8
7
100
AcDbLine
 10
1.338582677165354
 20
4.080708661417323
 30
0.0
 11
1.828740157480314
 21
4.080708661417323
 31
0.0
  0
LINE
  5
2E22
330
1E
100
AcDbEntity
  8
7
100
AcDbLine
 10
2.204724409448818
 20
4.029527559055117
 30
0.0
 11
2.204724409448818
 21
3.679133858267717
 31
0.0
  0
LINE
  5
2E23
330
1E
100
AcDbEntity
  8
7
100
AcDbLine
 10
2.204724409448818
 20
4.029527559055117
 30
0.0
 11
2.202755905511811
 21
4.029527559055117
 31
0.0
  0
LINE
  5
2E24
330
1E
100
AcDbEntity
  8
7
100
AcDbLine
 10
2.202755905511811
 20
3.681102362204724
 30
0.0
 11
2.204724409448818
 21
3.679133858267717
 31
0.0
  0
LINE
  5
2E2A
330
1E
100
AcDbEntity
  8
7
100
AcDbLine
 10
2.171259842519685
 20
4.061023622047243
 30
0.0
 11
2.173228346456692
 21
4.061023622047243
 31
0.0
  0
LINE
  5
2E2B
330
1E
100
AcDbEntity
  8
7
100
AcDbLine
 10
0.3602362204724407
 20
4.061023622047243
 30
0.0
 11
2.173228346456692
 21
4.061023622047243
 31
0.0
  0
LINE
  5
2E2C
330
1E
100
AcDbEntity
  8
7
100
AcDbLine
 10
0.3602362204724407
 20
4.061023622047243
 30
0.0
 11
0.3622047244094486
 21
4.061023622047243
 31
0.0
  0
LINE
  5
2E32
330
1E
100
AcDbEntity
  8
7
100
AcDbLine
 10
0.3307086614173222
 20
4.029527559055117
 30
0.0
 11
0.3287401574803144
 21
4.029527559055117
 31
0.0
  0
LINE
  5
2E33
330
1E
100
AcDbEntity
  8
7
100
AcDbLine
 10
0.3287401574803144
 20
3.679133858267717
 30
0.0
 11
0.3287401574803144
 21
4.029527559055117
 31
0.0
  0
LINE
  5
2E34
330
1E
100
AcDbEntity
  8
7
100
AcDbLine
 10
0.3287401574803144
 20
3.679133858267717
 30
0.0
 11
0.3307086614173222
 21
3.681102362204724
 31
0.0
  0
LINE
  5
2E3B
330
1E
100
AcDbEntity
  8
7
100
AcDbLine
 10
2.173228346456692
 20
3.649606299212599
 30
0.0
 11
0.3602362204724407
 21
3.649606299212599
 31
0.0
  0
LINE
  5
2E3C
330
1E
100
AcDbEntity
  8
7
100
AcDbLine
 10
2.173228346456692
 20
3.649606299212599
 30
0.0
 11
2.171259842519685
 21
3.649606299212599
 31
0.0
  0
LINE
  5
2E42
330
1E
100
AcDbEntity
  8
7
100
AcDbLine
 10
1.968503937007874
 20
4.080708661417323
 30
0.0
 11
1.828740157480314
 21
4.080708661417323
 31
0.0
  0
LINE
  5
2E49
330
1E
100
AcDbEntity
  8
7
100
AcDbLine
 10
0.7047244094488181
 20
4.080708661417323
 30
0.0
 11
0.5649606299212598
 21
4.080708661417323
 31
0.0
  0
LINE
  5
2E4A
330
1E
100
AcDbEntity
  8
7
100
AcDbLine
 10
0.6358267716535431
 20
4.710629921259843
 30
0.0
 11
0.6358267716535431
 21
4.13779527559055
 31
0.0
  0
LINE
  5
2E4B
330
1E
100
AcDbEntity
  8
7
100
AcDbLine
 10
0.8464566929133855
 20
4.736220472440945
 30
0.0
 11
0.8464566929133855
 21
4.710629921259843
 31
0.0
  0
LINE
  5
2E4C
330
1E
100
AcDbEntity
  8
7
100
AcDbLine
 10
1.053149606299212
 20
4.736220472440945
 30
0.0
 11
0.8464566929133855
 21
4.736220472440945
 31
0.0
  0
LINE
  5
2E4D
330
1E
100
AcDbEntity
  8
7
100
AcDbLine
 10
1.053149606299212
 20
4.710629921259843
 30
0.0
 11
1.053149606299212
 21
4.736220472440945
 31
0.0
  0
LINE
  5
2E4E
330
1E
100
AcDbEntity
  8
7
100
AcDbLine
 10
1.480314960629921
 20
4.736220472440945
 30
0.0
 11
1.480314960629921
 21
4.710629921259843
 31
0.0
  0
LINE
  5
2E4F
330
1E
100
AcDbEntity
  8
7
100
AcDbLine
 10
1.687007874015748
 20
4.736220472440945
 30
0.0
 11
1.480314960629921
 21
4.736220472440945
 31
0.0
  0
LINE
  5
2E50
330
1E
100
AcDbEntity
  8
7
100
AcDbLine
 10
1.687007874015748
 20
4.710629921259843
 30
0.0
 11
1.687007874015748
 21
4.736220472440945
 31
0.0
  0
LINE
  5
2E51
330
1E
100
AcDbEntity
  8
7
100
AcDbLine
 10
1.895669291338582
 20
4.710629921259843
 30
0.0
 11
1.687007874015748
 21
4.710629921259843
 31
0.0
  0
LINE
  5
2E52
330
1E
100
AcDbEntity
  8
7
100
AcDbLine
 10
1.895669291338582
 20
4.13779527559055
 30
0.0
 11
1.895669291338582
 21
4.710629921259843
 31
0.0
  0
LINE
  5
2E58
330
1E
100
AcDbEntity
  8
7
100
AcDbLine
 10
0.1200787401574801
 20
7.517716535433071
 30
0.0
 11
0.1200787401574801
 21
3.472440944881889
 31
0.0
  0
LINE
  5
2E59
330
1E
100
AcDbEntity
  8
7
100
AcDbLine
 10
0.4744094488188977
 20
5.242125984251969
 30
0.0
 11
0.4744094488188977
 21
4.261811023622047
 31
0.0
  0
LINE
  5
2E62
330
1E
100
AcDbEntity
  8
7
100
AcDbLine
 10
1.968503937007874
 20
5.399606299212599
 30
0.0
 11
0.5649606299212598
 21
5.399606299212599
 31
0.0
  0
LINE
  5
2E6B
330
1E
100
AcDbEntity
  8
7
100
AcDbLine
 10
2.059055118110236
 20
4.261811023622047
 30
0.0
 11
2.059055118110236
 21
5.242125984251969
 31
0.0
  0
LINE
  5
2E73
330
1E
100
AcDbEntity
  8
7
100
AcDbLine
 10
1.996062992125984
 20
4.088582677165354
 30
0.0
 11
1.968503937007874
 21
4.080708661417323
 31
0.0
  0
LINE
  5
2E7C
330
1E
100
AcDbEntity
  8
7
100
AcDbLine
 10
1.968503937007874
 20
6.897637795275589
 30
0.0
 11
0.5649606299212598
 21
6.897637795275589
 31
0.0
  0
LINE
  5
2E8F
330
1E
100
AcDbEntity
  8
7
100
AcDbLine
 10
1.338582677165354
 20
5.578740157480315
 30
0.0
 11
1.828740157480314
 21
5.578740157480315
 31
0.0
  0
LINE
  5
2EA1
330
1E
100
AcDbEntity
  8
7
100
AcDbLine
 10
2.173228346456692
 20
7.342519685039369
 30
0.0
 11
0.3602362204724407
 21
7.342519685039369
 31
0.0
  0
LINE
  5
2EA7
330
1E
100
AcDbEntity
  8
7
100
AcDbLine
 10
2.204724409448818
 20
6.960629921259843
 30
0.0
 11
2.204724409448818
 21
7.311023622047243
 31
0.0
  0
LINE
  5
2EAD
330
1E
100
AcDbEntity
  8
7
100
AcDbLine
 10
0.3602362204724407
 20
6.929133858267715
 30
0.0
 11
2.173228346456692
 21
6.929133858267715
 31
0.0
  0
LINE
  5
2EB3
330
1E
100
AcDbEntity
  8
7
100
AcDbLine
 10
0.3287401574803144
 20
7.311023622047243
 30
0.0
 11
0.3287401574803144
 21
6.960629921259843
 31
0.0
  0
LINE
  5
2ED1
330
1E
100
AcDbEntity
  8
7
100
AcDbLine
 10
2.58267716535433
 20
7.746062992125984
 30
0.0
 11
-0.0492125984251972
 21
7.746062992125984
 31
0.0
  0
LINE
  5
2EF4
330
1E
100
AcDbEntity
  8
7
100
AcDbLine
 10
0.8622047244094485
 20
4.736220472440945
 30
0.0
 11
1.037401574803149
 21
4.736220472440945
 31
0.0
  0
LINE
  5
2EFA
330
1E
100
AcDbEntity
  8
7
100
AcDbLine
 10
1.037401574803149
 20
4.736220472440945
 30
0.0
 11
1.037401574803149
 21
4.702755905511811
 31
0.0
  0
LINE
  5
2EFB
330
1E
100
AcDbEntity
  8
7
100
AcDbLine
 10
1.496062992125984
 20
4.736220472440945
 30
0.0
 11
1.671259842519685
 21
4.736220472440945
 31
0.0
  0
LINE
  5
2F01
330
1E
100
AcDbEntity
  8
7
100
AcDbLine
 10
1.671259842519685
 20
4.736220472440945
 30
0.0
 11
1.671259842519685
 21
4.702755905511811
 31
0.0
  0
LINE
  5
2F02
330
1E
100
AcDbEntity
  8
7
100
AcDbLine
 10
1.687007874015748
 20
4.736220472440945
 30
0.0
 11
1.671259842519685
 21
4.736220472440945
 31
0.0
  0
LINE
  5
2F03
330
1E
100
AcDbEntity
  8
7
100
AcDbLine
 10
1.687007874015748
 20
4.736220472440945
 30
0.0
 11
1.687007874015748
 21
4.710629921259843
 31
0.0
  0
LINE
  5
2F04
330
1E
100
AcDbEntity
  8
7
100
AcDbLine
 10
0.9370078740157481
 20
4.968503937007874
 30
0.0
 11
0.9370078740157481
 21
5.043307086614173
 31
0.0
  0
LINE
  5
2F05
330
1E
100
AcDbEntity
  8
7
100
AcDbLine
 10
0.8464566929133855
 20
5.043307086614173
 30
0.0
 11
0.8464566929133855
 21
4.968503937007874
 31
0.0
  0
LINE
  5
2F06
330
1E
100
AcDbEntity
  8
7
100
AcDbLine
 10
0.9606299212598425
 20
5.043307086614173
 30
0.0
 11
0.9606299212598425
 21
4.968503937007874
 31
0.0
  0
LINE
  5
2F07
330
1E
100
AcDbEntity
  8
7
100
AcDbLine
 10
1.051181102362204
 20
5.043307086614173
 30
0.0
 11
0.9606299212598425
 21
5.043307086614173
 31
0.0
  0
LINE
  5
2F08
330
1E
100
AcDbEntity
  8
7
100
AcDbLine
 10
1.051181102362204
 20
4.968503937007874
 30
0.0
 11
1.051181102362204
 21
5.043307086614173
 31
0.0
  0
LINE
  5
2F09
330
1E
100
AcDbEntity
  8
7
100
AcDbLine
 10
0.9606299212598425
 20
4.968503937007874
 30
0.0
 11
1.051181102362204
 21
4.968503937007874
 31
0.0
  0
LINE
  5
2F0A
330
1E
100
AcDbEntity
  8
7
100
AcDbLine
 10
1.572834645669291
 20
4.968503937007874
 30
0.0
 11
1.572834645669291
 21
5.043307086614173
 31
0.0
  0
LINE
  5
2F0B
330
1E
100
AcDbEntity
  8
7
100
AcDbLine
 10
1.482283464566929
 20
5.043307086614173
 30
0.0
 11
1.482283464566929
 21
4.968503937007874
 31
0.0
  0
LINE
  5
2F0C
330
1E
100
AcDbEntity
  8
7
100
AcDbLine
 10
1.596456692913386
 20
5.043307086614173
 30
0.0
 11
1.596456692913386
 21
4.968503937007874
 31
0.0
  0
LINE
  5
2F0D
330
1E
100
AcDbEntity
  8
7
100
AcDbLine
 10
1.687007874015748
 20
5.043307086614173
 30
0.0
 11
1.596456692913386
 21
5.043307086614173
 31
0.0
  0
LINE
  5
2F0E
330
1E
100
AcDbEntity
  8
7
100
AcDbLine
 10
1.687007874015748
 20
4.968503937007874
 30
0.0
 11
1.687007874015748
 21
5.043307086614173
 31
0.0
  0
LINE
  5
2F0F
330
1E
100
AcDbEntity
  8
7
100
AcDbLine
 10
1.596456692913386
 20
4.968503937007874
 30
0.0
 11
1.687007874015748
 21
4.968503937007874
 31
0.0
  0
LINE
  5
2F15
330
1E
100
AcDbEntity
  8
7
100
AcDbLine
 10
0.5649606299212598
 20
5.399606299212599
 30
0.0
 11
0.5787401574803144
 21
4.85236220472441
 31
0.0
  0
LINE
  5
2F16
330
1E
100
AcDbEntity
  8
7
100
AcDbLine
 10
1.687007874015748
 20
5.844488188976378
 30
0.0
 11
1.708661417322834
 21
5.627952755905512
 31
0.0
  0
LINE
  5
2F17
330
1E
100
AcDbEntity
  8
7
100
AcDbLine
 10
1.687007874015748
 20
5.844488188976378
 30
0.0
 11
1.480314960629921
 21
5.844488188976378
 31
0.0
  0
LINE
  5
2F18
330
1E
100
AcDbEntity
  8
7
100
AcDbLine
 10
1.458661417322834
 20
5.627952755905512
 30
0.0
 11
1.480314960629921
 21
5.844488188976378
 31
0.0
  0
LINE
  5
2F19
330
1E
100
AcDbEntity
  8
7
100
AcDbLine
 10
1.338582677165354
 20
5.627952755905512
 30
0.0
 11
1.458661417322834
 21
5.627952755905512
 31
0.0
  0
LINE
  5
2F1A
330
1E
100
AcDbEntity
  8
7
100
AcDbLine
 10
1.708661417322834
 20
5.627952755905512
 30
0.0
 11
1.828740157480314
 21
5.627952755905512
 31
0.0
  0
LINE
  5
2F1B
330
1E
100
AcDbEntity
  8
7
100
AcDbLine
 10
1.687007874015748
 20
5.913385826771652
 30
0.0
 11
1.685039370078739
 21
5.933070866141732
 31
0.0
  0
LINE
  5
2F2A
330
1E
100
AcDbEntity
  8
7
100
AcDbLine
 10
1.482283464566929
 20
5.874015748031495
 30
0.0
 11
1.482283464566929
 21
5.866141732283463
 31
0.0
  0
LINE
  5
2F30
330
1E
100
AcDbEntity
  8
7
100
AcDbLine
 10
1.480314960629921
 20
5.913385826771652
 30
0.0
 11
1.480314960629921
 21
5.903543307086613
 31
0.0
  0
LINE
  5
2F31
330
1E
100
AcDbEntity
  8
7
100
AcDbLine
 10
1.480314960629921
 20
5.913385826771652
 30
0.0
 11
1.484251968503937
 21
5.933070866141732
 31
0.0
  0
LINE
  5
2F32
330
1E
100
AcDbEntity
  8
7
100
AcDbLine
 10
1.053149606299212
 20
5.844488188976378
 30
0.0
 11
1.074803149606299
 21
5.627952755905512
 31
0.0
  0
LINE
  5
2F33
330
1E
100
AcDbEntity
  8
7
100
AcDbLine
 10
0.8464566929133855
 20
5.844488188976378
 30
0.0
 11
1.053149606299212
 21
5.844488188976378
 31
0.0
  0
LINE
  5
2F34
330
1E
100
AcDbEntity
  8
7
100
AcDbLine
 10
0.8248031496062985
 20
5.627952755905512
 30
0.0
 11
0.8464566929133855
 21
5.844488188976378
 31
0.0
  0
LINE
  5
2F35
330
1E
100
AcDbEntity
  8
7
100
AcDbLine
 10
0.7047244094488181
 20
5.627952755905512
 30
0.0
 11
0.8248031496062985
 21
5.627952755905512
 31
0.0
  0
LINE
  5
2F36
330
1E
100
AcDbEntity
  8
7
100
AcDbLine
 10
1.074803149606299
 20
5.627952755905512
 30
0.0
 11
1.194881889763779
 21
5.627952755905512
 31
0.0
  0
LINE
  5
2F37
330
1E
100
AcDbEntity
  8
7
100
AcDbLine
 10
1.053149606299212
 20
5.913385826771652
 30
0.0
 11
1.049212598425197
 21
5.933070866141732
 31
0.0
  0
LINE
  5
2F38
330
1E
100
AcDbEntity
  8
7
100
AcDbLine
 10
1.053149606299212
 20
5.913385826771652
 30
0.0
 11
1.053149606299212
 21
5.903543307086613
 31
0.0
  0
LINE
  5
2F39
330
1E
100
AcDbEntity
  8
7
100
AcDbLine
 10
1.051181102362204
 20
5.901574803149606
 30
0.0
 11
1.053149606299212
 21
5.903543307086613
 31
0.0
  0
LINE
  5
2F3A
330
1E
100
AcDbEntity
  8
7
100
AcDbLine
 10
1.051181102362204
 20
5.874015748031495
 30
0.0
 11
1.051181102362204
 21
5.901574803149606
 31
0.0
  0
LINE
  5
2F3B
330
1E
100
AcDbEntity
  8
7
100
AcDbLine
 10
1.051181102362204
 20
5.874015748031495
 30
0.0
 11
1.051181102362204
 21
5.866141732283463
 31
0.0
  0
LINE
  5
2F46
330
1E
100
AcDbEntity
  8
7
100
AcDbLine
 10
0.8464566929133855
 20
5.874015748031495
 30
0.0
 11
0.8464566929133855
 21
5.866141732283463
 31
0.0
  0
LINE
  5
2F47
330
1E
100
AcDbEntity
  8
7
100
AcDbLine
 10
0.8464566929133855
 20
5.901574803149606
 30
0.0
 11
0.8464566929133855
 21
5.874015748031495
 31
0.0
  0
LINE
  5
2F48
330
1E
100
AcDbEntity
  8
7
100
AcDbLine
 10
0.8464566929133855
 20
5.903543307086613
 30
0.0
 11
0.8464566929133855
 21
5.901574803149606
 31
0.0
  0
LINE
  5
2F49
330
1E
100
AcDbEntity
  8
7
100
AcDbLine
 10
0.8464566929133855
 20
5.913385826771652
 30
0.0
 11
0.8464566929133855
 21
5.903543307086613
 31
0.0
  0
LINE
  5
2F4A
330
1E
100
AcDbEntity
  8
7
100
AcDbLine
 10
0.8464566929133855
 20
5.913385826771652
 30
0.0
 11
0.8484251968503929
 21
5.933070866141732
 31
0.0
  0
LINE
  5
2F4B
330
1E
100
AcDbEntity
  8
7
100
AcDbLine
 10
1.828740157480314
 20
5.683070866141732
 30
0.0
 11
1.895669291338582
 21
5.683070866141732
 31
0.0
  0
LINE
  5
2F56
330
1E
100
AcDbEntity
  8
7
100
AcDbLine
 10
0.6358267716535431
 20
6.208661417322834
 30
0.0
 11
0.6358267716535431
 21
5.635826771653543
 31
0.0
  0
LINE
  5
2F57
330
1E
100
AcDbEntity
  8
7
100
AcDbLine
 10
1.895669291338582
 20
5.635826771653543
 30
0.0
 11
1.895669291338582
 21
6.208661417322834
 31
0.0
  0
LINE
  5
2F62
330
1E
100
AcDbEntity
  8
7
100
AcDbLine
 10
0.8464566929133855
 20
6.234251968503937
 30
0.0
 11
0.8464566929133855
 21
6.208661417322834
 31
0.0
  0
LINE
  5
2F63
330
1E
100
AcDbEntity
  8
7
100
AcDbLine
 10
1.053149606299212
 20
6.234251968503937
 30
0.0
 11
0.8464566929133855
 21
6.234251968503937
 31
0.0
  0
LINE
  5
2F64
330
1E
100
AcDbEntity
  8
7
100
AcDbLine
 10
1.053149606299212
 20
6.208661417322834
 30
0.0
 11
1.053149606299212
 21
6.234251968503937
 31
0.0
  0
LINE
  5
2F65
330
1E
100
AcDbEntity
  8
7
100
AcDbLine
 10
1.480314960629921
 20
6.234251968503937
 30
0.0
 11
1.480314960629921
 21
6.208661417322834
 31
0.0
  0
LINE
  5
2F66
330
1E
100
AcDbEntity
  8
7
100
AcDbLine
 10
1.687007874015748
 20
6.234251968503937
 30
0.0
 11
1.480314960629921
 21
6.234251968503937
 31
0.0
  0
LINE
  5
2F67
330
1E
100
AcDbEntity
  8
7
100
AcDbLine
 10
1.687007874015748
 20
6.208661417322834
 30
0.0
 11
1.687007874015748
 21
6.234251968503937
 31
0.0
  0
LINE
  5
2F68
330
1E
100
AcDbEntity
  8
7
100
AcDbLine
 10
1.895669291338582
 20
6.208661417322834
 30
0.0
 11
1.687007874015748
 21
6.208661417322834
 31
0.0
  0
LINE
  5
2F69
330
1E
100
AcDbEntity
  8
7
100
AcDbLine
 10
1.828740157480314
 20
5.635826771653543
 30
0.0
 11
1.895669291338582
 21
5.635826771653543
 31
0.0
  0
LINE
  5
2F6A
330
1E
100
AcDbEntity
  8
7
100
AcDbLine
 10
1.828740157480314
 20
5.578740157480315
 30
0.0
 11
1.828740157480314
 21
5.635826771653543
 31
0.0
  0
LINE
  5
2F6B
330
1E
100
AcDbEntity
  8
7
100
AcDbLine
 10
1.968503937007874
 20
5.578740157480315
 30
0.0
 11
1.954724409448818
 21
6.25
 31
0.0
  0
LINE
  5
2F6C
330
1E
100
AcDbEntity
  8
7
100
AcDbLine
 10
0.7047244094488181
 20
5.683070866141732
 30
0.0
 11
0.6358267716535431
 21
5.683070866141732
 31
0.0
  0
LINE
  5
2F6D
330
1E
100
AcDbEntity
  8
7
100
AcDbLine
 10
0.3937007874015746
 20
6.931102362204724
 30
0.0
 11
0.3937007874015746
 21
7.340551181102362
 31
0.0
  0
LINE
  5
2F6E
330
1E
100
AcDbEntity
  8
7
100
AcDbLine
 10
2.139763779527559
 20
6.931102362204724
 30
0.0
 11
2.139763779527559
 21
7.340551181102362
 31
0.0
  0
LINE
  5
2F7B
330
1E
100
AcDbEntity
  8
7
100
AcDbLine
 10
1.194881889763779
 20
5.683070866141732
 30
0.0
 11
1.338582677165354
 21
5.683070866141732
 31
0.0
  0
LINE
  5
2F7C
330
1E
100
AcDbEntity
  8
7
100
AcDbLine
 10
1.194881889763779
 20
5.635826771653543
 30
0.0
 11
1.194881889763779
 21
5.683070866141732
 31
0.0
  0
LINE
  5
2F82
330
1E
100
AcDbEntity
  8
7
100
AcDbLine
 10
0.7047244094488181
 20
5.635826771653543
 30
0.0
 11
0.7047244094488181
 21
5.683070866141732
 31
0.0
  0
LINE
  5
2F83
330
1E
100
AcDbEntity
  8
7
100
AcDbLine
 10
1.828740157480314
 20
5.635826771653543
 30
0.0
 11
1.828740157480314
 21
5.683070866141732
 31
0.0
  0
LINE
  5
2F84
330
1E
100
AcDbEntity
  8
7
100
AcDbLine
 10
1.194881889763779
 20
5.635826771653543
 30
0.0
 11
1.194881889763779
 21
5.578740157480315
 31
0.0
  0
LINE
  5
2F85
330
1E
100
AcDbEntity
  8
7
100
AcDbLine
 10
1.338582677165354
 20
5.635826771653543
 30
0.0
 11
1.338582677165354
 21
5.578740157480315
 31
0.0
  0
LINE
  5
2F86
330
1E
100
AcDbEntity
  8
7
100
AcDbLine
 10
1.482283464566929
 20
5.866141732283463
 30
0.0
 11
1.687007874015748
 21
5.866141732283463
 31
0.0
  0
LINE
  5
2F87
330
1E
100
AcDbEntity
  8
7
100
AcDbLine
 10
1.482283464566929
 20
5.874015748031495
 30
0.0
 11
1.687007874015748
 21
5.874015748031495
 31
0.0
  0
LINE
  5
2F88
330
1E
100
AcDbEntity
  8
7
100
AcDbLine
 10
1.685039370078739
 20
5.933070866141732
 30
0.0
 11
1.484251968503937
 21
5.933070866141732
 31
0.0
  0
LINE
  5
2F89
330
1E
100
AcDbEntity
  8
7
100
AcDbLine
 10
1.051181102362204
 20
5.866141732283463
 30
0.0
 11
0.8464566929133855
 21
5.866141732283463
 31
0.0
  0
LINE
  5
2F8A
330
1E
100
AcDbEntity
  8
7
100
AcDbLine
 10
1.049212598425197
 20
5.933070866141732
 30
0.0
 11
0.8484251968503929
 21
5.933070866141732
 31
0.0
  0
LINE
  5
2F8B
330
1E
100
AcDbEntity
  8
7
100
AcDbLine
 10
1.051181102362204
 20
5.874015748031495
 30
0.0
 11
0.8464566929133855
 21
5.874015748031495
 31
0.0
  0
LINE
  5
2F8C
330
1E
100
AcDbEntity
  8
7
100
AcDbLine
 10
0.8622047244094485
 20
6.234251968503937
 30
0.0
 11
1.037401574803149
 21
6.234251968503937
 31
0.0
  0
LINE
  5
2F92
330
1E
100
AcDbEntity
  8
7
100
AcDbLine
 10
1.037401574803149
 20
6.234251968503937
 30
0.0
 11
1.037401574803149
 21
6.200787401574802
 31
0.0
  0
LINE
  5
2F93
330
1E
100
AcDbEntity
  8
7
100
AcDbLine
 10
1.496062992125984
 20
6.234251968503937
 30
0.0
 11
1.671259842519685
 21
6.234251968503937
 31
0.0
  0
LINE
  5
2F99
330
1E
100
AcDbEntity
  8
7
100
AcDbLine
 10
1.671259842519685
 20
6.234251968503937
 30
0.0
 11
1.671259842519685
 21
6.200787401574802
 31
0.0
  0
LINE
  5
2F9A
330
1E
100
AcDbEntity
  8
7
100
AcDbLine
 10
1.687007874015748
 20
6.234251968503937
 30
0.0
 11
1.671259842519685
 21
6.234251968503937
 31
0.0
  0
LINE
  5
2F9B
330
1E
100
AcDbEntity
  8
7
100
AcDbLine
 10
1.687007874015748
 20
6.234251968503937
 30
0.0
 11
1.687007874015748
 21
6.208661417322834
 31
0.0
  0
LINE
  5
2F9C
330
1E
100
AcDbEntity
  8
7
100
AcDbLine
 10
0.9370078740157481
 20
6.466535433070865
 30
0.0
 11
0.9370078740157481
 21
6.541338582677165
 31
0.0
  0
LINE
  5
2F9D
330
1E
100
AcDbEntity
  8
7
100
AcDbLine
 10
0.8464566929133855
 20
6.541338582677165
 30
0.0
 11
0.8464566929133855
 21
6.466535433070865
 31
0.0
  0
LINE
  5
2F9E
330
1E
100
AcDbEntity
  8
7
100
AcDbLine
 10
0.9606299212598425
 20
6.541338582677165
 30
0.0
 11
0.9606299212598425
 21
6.466535433070865
 31
0.0
  0
LINE
  5
2F9F
330
1E
100
AcDbEntity
  8
7
100
AcDbLine
 10
1.051181102362204
 20
6.541338582677165
 30
0.0
 11
0.9606299212598425
 21
6.541338582677165
 31
0.0
  0
LINE
  5
2FA0
330
1E
100
AcDbEntity
  8
7
100
AcDbLine
 10
1.051181102362204
 20
6.466535433070865
 30
0.0
 11
1.051181102362204
 21
6.541338582677165
 31
0.0
  0
LINE
  5
2FA1
330
1E
100
AcDbEntity
  8
7
100
AcDbLine
 10
0.9606299212598425
 20
6.466535433070865
 30
0.0
 11
1.051181102362204
 21
6.466535433070865
 31
0.0
  0
LINE
  5
2FA2
330
1E
100
AcDbEntity
  8
7
100
AcDbLine
 10
1.572834645669291
 20
6.466535433070865
 30
0.0
 11
1.572834645669291
 21
6.541338582677165
 31
0.0
  0
LINE
  5
2FA3
330
1E
100
AcDbEntity
  8
7
100
AcDbLine
 10
1.482283464566929
 20
6.541338582677165
 30
0.0
 11
1.482283464566929
 21
6.466535433070865
 31
0.0
  0
LINE
  5
2FA4
330
1E
100
AcDbEntity
  8
7
100
AcDbLine
 10
1.596456692913386
 20
6.541338582677165
 30
0.0
 11
1.596456692913386
 21
6.466535433070865
 31
0.0
  0
LINE
  5
2FA5
330
1E
100
AcDbEntity
  8
7
100
AcDbLine
 10
1.687007874015748
 20
6.541338582677165
 30
0.0
 11
1.596456692913386
 21
6.541338582677165
 31
0.0
  0
LINE
  5
2FA6
330
1E
100
AcDbEntity
  8
7
100
AcDbLine
 10
1.687007874015748
 20
6.466535433070865
 30
0.0
 11
1.687007874015748
 21
6.541338582677165
 31
0.0
  0
LINE
  5
2FA7
330
1E
100
AcDbEntity
  8
7
100
AcDbLine
 10
1.596456692913386
 20
6.466535433070865
 30
0.0
 11
1.687007874015748
 21
6.466535433070865
 31
0.0
  0
LINE
  5
2FAE
330
1E
100
AcDbEntity
  8
7
100
AcDbLine
 10
1.480314960629921
 20
5.913385826771652
 30
0.0
 11
1.687007874015748
 21
5.913385826771652
 31
0.0
  0
LINE
  5
2FAF
330
1E
100
AcDbEntity
  8
7
100
AcDbLine
 10
1.480314960629921
 20
5.903543307086613
 30
0.0
 11
1.687007874015748
 21
5.903543307086613
 31
0.0
  0
LINE
  5
2FB0
330
1E
100
AcDbEntity
  8
7
100
AcDbLine
 10
1.687007874015748
 20
5.901574803149606
 30
0.0
 11
1.480314960629921
 21
5.901574803149606
 31
0.0
  0
LINE
  5
2FB1
330
1E
100
AcDbEntity
  8
7
100
AcDbLine
 10
1.053149606299212
 20
5.913385826771652
 30
0.0
 11
0.8464566929133855
 21
5.913385826771652
 31
0.0
  0
LINE
  5
2FB2
330
1E
100
AcDbEntity
  8
7
100
AcDbLine
 10
1.053149606299212
 20
5.903543307086613
 30
0.0
 11
0.8464566929133855
 21
5.903543307086613
 31
0.0
  0
LINE
  5
2FB3
330
1E
100
AcDbEntity
  8
7
100
AcDbLine
 10
0.8464566929133855
 20
5.901574803149606
 30
0.0
 11
1.051181102362204
 21
5.901574803149606
 31
0.0
  0
LINE
  5
2FB4
330
1E
100
AcDbEntity
  8
7
100
AcDbLine
 10
1.326771653543307
 20
7.287401574803149
 30
0.0
 11
1.326771653543307
 21
7.285433070866141
 31
0.0
  0
LINE
  5
2FC4
330
1E
100
AcDbEntity
  8
7
100
AcDbLine
 10
1.326771653543307
 20
6.986220472440945
 30
0.0
 11
1.326771653543307
 21
6.984251968503937
 31
0.0
  0
LINE
  5
2FD4
330
1E
100
AcDbEntity
  8
7
100
AcDbLine
 10
1.206692913385826
 20
7.285433070866141
 30
0.0
 11
1.206692913385826
 21
7.287401574803149
 31
0.0
  0
LINE
  5
2FD5
330
1E
100
AcDbEntity
  8
7
100
AcDbLine
 10
1.326771653543307
 20
7.285433070866141
 30
0.0
 11
1.206692913385826
 21
7.285433070866141
 31
0.0
  0
LINE
  5
2FD6
330
1E
100
AcDbEntity
  8
7
100
AcDbLine
 10
1.206692913385826
 20
7.287401574803149
 30
0.0
 11
1.326771653543307
 21
7.287401574803149
 31
0.0
  0
LINE
  5
2FD7
330
1E
100
AcDbEntity
  8
7
100
AcDbLine
 10
1.206692913385826
 20
6.984251968503937
 30
0.0
 11
1.206692913385826
 21
6.986220472440945
 31
0.0
  0
LINE
  5
2FF3
330
1E
100
AcDbEntity
  8
7
100
AcDbLine
 10
1.206692913385826
 20
6.986220472440945
 30
0.0
 11
1.326771653543307
 21
6.986220472440945
 31
0.0
  0
LINE
  5
2FF4
330
1E
100
AcDbEntity
  8
7
100
AcDbLine
 10
1.326771653543307
 20
6.984251968503937
 30
0.0
 11
1.206692913385826
 21
6.984251968503937
 31
0.0
  0
LINE
  5
2FF5
330
1E
100
AcDbEntity
  8
7
100
AcDbLine
 10
1.362204724409449
 20
7.068897637795275
 30
0.0
 11
1.171259842519685
 21
7.068897637795275
 31
0.0
  0
LINE
  5
2FF6
330
1E
100
AcDbEntity
  8
7
100
AcDbLine
 10
1.372047244094487
 20
7.074803149606299
 30
0.0
 11
1.362204724409449
 21
7.068897637795275
 31
0.0
  0
LINE
  5
2FF7
330
1E
100
AcDbEntity
  8
7
100
AcDbLine
 10
1.161417322834645
 20
7.074803149606299
 30
0.0
 11
1.372047244094487
 21
7.074803149606299
 31
0.0
  0
LINE
  5
2FF8
330
1E
100
AcDbEntity
  8
7
100
AcDbLine
 10
1.171259842519685
 20
7.068897637795275
 30
0.0
 11
1.161417322834645
 21
7.074803149606299
 31
0.0
  0
LINE
  5
2FFE
330
1E
100
AcDbEntity
  8
7
100
AcDbLine
 10
1.326771653543307
 20
7.059055118110236
 30
0.0
 11
1.206692913385826
 21
7.059055118110236
 31
0.0
  0
LINE
  5
3004
330
1E
100
AcDbEntity
  8
7
100
AcDbLine
 10
1.326771653543307
 20
7.059055118110236
 30
0.0
 11
1.206692913385826
 21
7.059055118110236
 31
0.0
  0
LINE
  5
3005
330
1E
100
AcDbEntity
  8
7
100
AcDbLine
 10
1.206692913385826
 20
7.210629921259843
 30
0.0
 11
1.169291338582676
 21
7.200787401574802
 31
0.0
  0
LINE
  5
300E
330
1E
100
AcDbEntity
  8
7
100
AcDbLine
 10
1.326771653543307
 20
7.21259842519685
 30
0.0
 11
1.206692913385826
 21
7.21259842519685
 31
0.0
  0
LINE
  5
301B
330
1E
100
AcDbEntity
  8
7
100
AcDbLine
 10
1.326771653543307
 20
7.21259842519685
 30
0.0
 11
1.206692913385826
 21
7.21259842519685
 31
0.0
  0
LINE
  5
301C
330
1E
100
AcDbEntity
  8
7
100
AcDbLine
 10
1.362204724409449
 20
7.202755905511811
 30
0.0
 11
1.171259842519685
 21
7.202755905511811
 31
0.0
  0
LINE
  5
3027
330
1E
100
AcDbEntity
  8
7
100
AcDbLine
 10
1.161417322834645
 20
7.19488188976378
 30
0.0
 11
1.372047244094487
 21
7.19488188976378
 31
0.0
  0
LINE
  5
3028
330
1E
100
AcDbEntity
  8
7
100
AcDbLine
 10
1.362204724409449
 20
7.202755905511811
 30
0.0
 11
1.372047244094487
 21
7.19488188976378
 31
0.0
  0
LINE
  5
3029
330
1E
100
AcDbEntity
  8
7
100
AcDbLine
 10
1.161417322834645
 20
7.19488188976378
 30
0.0
 11
1.171259842519685
 21
7.202755905511811
 31
0.0
  0
LINE
  5
304E
330
1E
100
AcDbEntity
  8
7
100
AcDbLine
 10
0.3937007874015746
 20
7.340551181102362
 30
0.0
 11
0.3917322834645667
 21
7.340551181102362
 31
0.0
  0
LINE
  5
304F
330
1E
100
AcDbEntity
  8
7
100
AcDbLine
 10
0.3937007874015746
 20
6.931102362204724
 30
0.0
 11
0.3917322834645667
 21
6.931102362204724
 31
0.0
  0
LINE
  5
3050
330
1E
100
AcDbEntity
  8
7
100
AcDbLine
 10
0.3622047244094486
 20
7.340551181102362
 30
0.0
 11
0.3917322834645667
 21
7.340551181102362
 31
0.0
  0
LINE
  5
3056
330
1E
100
AcDbEntity
  8
7
100
AcDbLine
 10
0.3307086614173222
 20
6.960629921259843
 30
0.0
 11
0.3307086614173222
 21
7.309055118110236
 31
0.0
  0
LINE
  5
305C
330
1E
100
AcDbEntity
  8
7
100
AcDbLine
 10
0.3917322834645667
 20
6.931102362204724
 30
0.0
 11
0.3622047244094486
 21
6.931102362204724
 31
0.0
  0
LINE
  5
305D
330
1E
100
AcDbEntity
  8
7
100
AcDbLine
 10
0.3287401574803144
 20
7.311023622047243
 30
0.0
 11
0.3307086614173222
 21
7.309055118110236
 31
0.0
  0
LINE
  5
305E
330
1E
100
AcDbEntity
  8
7
100
AcDbLine
 10
0.3622047244094486
 20
7.340551181102362
 30
0.0
 11
0.3602362204724407
 21
7.342519685039369
 31
0.0
  0
LINE
  5
305F
330
1E
100
AcDbEntity
  8
7
100
AcDbLine
 10
0.3307086614173222
 20
6.960629921259843
 30
0.0
 11
0.3287401574803144
 21
6.960629921259843
 31
0.0
  0
LINE
  5
3060
330
1E
100
AcDbEntity
  8
7
100
AcDbLine
 10
0.3602362204724407
 20
6.929133858267715
 30
0.0
 11
0.3622047244094486
 21
6.931102362204724
 31
0.0
  0
LINE
  5
3061
330
1E
100
AcDbEntity
  8
7
100
AcDbLine
 10
2.139763779527559
 20
6.931102362204724
 30
0.0
 11
2.141732283464566
 21
6.931102362204724
 31
0.0
  0
LINE
  5
3062
330
1E
100
AcDbEntity
  8
7
100
AcDbLine
 10
0.3937007874015746
 20
6.931102362204724
 30
0.0
 11
2.139763779527559
 21
6.931102362204724
 31
0.0
  0
LINE
  5
3063
330
1E
100
AcDbEntity
  8
7
100
AcDbLine
 10
2.171259842519685
 20
6.931102362204724
 30
0.0
 11
2.173228346456692
 21
6.929133858267715
 31
0.0
  0
LINE
  5
3064
330
1E
100
AcDbEntity
  8
7
100
AcDbLine
 10
2.171259842519685
 20
6.931102362204724
 30
0.0
 11
2.141732283464566
 21
6.931102362204724
 31
0.0
  0
LINE
  5
306B
330
1E
100
AcDbEntity
  8
7
100
AcDbLine
 10
2.202755905511811
 20
7.309055118110236
 30
0.0
 11
2.204724409448818
 21
7.311023622047243
 31
0.0
  0
LINE
  5
306C
330
1E
100
AcDbEntity
  8
7
100
AcDbLine
 10
2.202755905511811
 20
7.309055118110236
 30
0.0
 11
2.202755905511811
 21
6.960629921259843
 31
0.0
  0
LINE
  5
3073
330
1E
100
AcDbEntity
  8
7
100
AcDbLine
 10
2.139763779527559
 20
7.340551181102362
 30
0.0
 11
0.3937007874015746
 21
7.340551181102362
 31
0.0
  0
LINE
  5
3079
330
1E
100
AcDbEntity
  8
7
100
AcDbLine
 10
1.482283464566929
 20
4.736220472440945
 30
0.0
 11
1.480314960629921
 21
4.736220472440945
 31
0.0
  0
LINE
  5
307A
330
1E
100
AcDbEntity
  8
7
100
AcDbLine
 10
1.051181102362204
 20
6.234251968503937
 30
0.0
 11
1.053149606299212
 21
6.234251968503937
 31
0.0
  0
LINE
  5
307B
330
1E
100
AcDbEntity
  8
7
100
AcDbLine
 10
1.482283464566929
 20
6.234251968503937
 30
0.0
 11
1.480314960629921
 21
6.234251968503937
 31
0.0
  0
LINE
  5
307C
330
1E
100
AcDbEntity
  8
7
100
AcDbLine
 10
1.051181102362204
 20
4.736220472440945
 30
0.0
 11
1.053149606299212
 21
4.736220472440945
 31
0.0
  0
LINE
  5
307D
330
1E
100
AcDbEntity
  8
7
100
AcDbLine
 10
0.9606299212598425
 20
4.970472440944882
 30
0.0
 11
1.051181102362204
 21
4.970472440944882
 31
0.0
  0
LINE
  5
307E
330
1E
100
AcDbEntity
  8
7
100
AcDbLine
 10
1.051181102362204
 20
5.015748031496063
 30
0.0
 11
0.9606299212598425
 21
5.015748031496063
 31
0.0
  0
LINE
  5
307F
330
1E
100
AcDbEntity
  8
7
100
AcDbLine
 10
1.596456692913386
 20
4.970472440944882
 30
0.0
 11
1.687007874015748
 21
4.970472440944882
 31
0.0
  0
LINE
  5
3080
330
1E
100
AcDbEntity
  8
7
100
AcDbLine
 10
1.687007874015748
 20
5.015748031496063
 30
0.0
 11
1.596456692913386
 21
5.015748031496063
 31
0.0
  0
LINE
  5
3081
330
1E
100
AcDbEntity
  8
7
100
AcDbLine
 10
1.596456692913386
 20
6.468503937007874
 30
0.0
 11
1.687007874015748
 21
6.468503937007874
 31
0.0
  0
LINE
  5
3082
330
1E
100
AcDbEntity
  8
7
100
AcDbLine
 10
1.687007874015748
 20
6.513779527559054
 30
0.0
 11
1.596456692913386
 21
6.513779527559054
 31
0.0
  0
LINE
  5
3083
330
1E
100
AcDbEntity
  8
7
100
AcDbLine
 10
0.9606299212598425
 20
6.468503937007874
 30
0.0
 11
1.051181102362204
 21
6.468503937007874
 31
0.0
  0
LINE
  5
3084
330
1E
100
AcDbEntity
  8
7
100
AcDbLine
 10
1.051181102362204
 20
6.513779527559054
 30
0.0
 11
0.9606299212598425
 21
6.513779527559054
 31
0.0
  0
LINE
  5
30AC
330
1E
100
AcDbEntity
  8
7
100
AcDbLine
 10
0.5334645669291338
 20
4.757874015748032
 30
0.0
 11
0.5787401574803144
 21
4.751968503937008
 31
0.0
  0
LINE
  5
30C9
330
1E
100
AcDbEntity
  8
7
100
AcDbLine
 10
6.533464566929133
 20
4.419291338582676
 30
0.0
 11
6.39763779527559
 21
4.435039370078739
 31
0.0
  0
LINE
  5
30CA
330
1E
100
AcDbEntity
  8
7
100
AcDbLine
 10
6.393700787401574
 20
4.375984251968504
 30
0.0
 11
6.399606299212598
 21
4.368110236220473
 31
0.0
  0
LINE
  5
30CB
330
1E
100
AcDbEntity
  8
7
100
AcDbLine
 10
6.366141732283464
 20
4.403543307086613
 30
0.0
 11
6.393700787401574
 21
4.375984251968504
 31
0.0
  0
LINE
  5
30CC
330
1E
100
AcDbEntity
  8
7
100
AcDbLine
 10
6.362204724409448
 20
4.405511811023621
 30
0.0
 11
6.366141732283464
 21
4.403543307086613
 31
0.0
  0
LINE
  5
30CD
330
1E
100
AcDbEntity
  8
7
100
AcDbLine
 10
6.356299212598425
 20
4.415354330708662
 30
0.0
 11
6.362204724409448
 21
4.405511811023621
 31
0.0
  0
LINE
  5
30CE
330
1E
100
AcDbEntity
  8
7
100
AcDbLine
 10
6.356299212598425
 20
4.415354330708662
 30
0.0
 11
6.39763779527559
 21
4.435039370078739
 31
0.0
  0
LINE
  5
30CF
330
1E
100
AcDbEntity
  8
7
100
AcDbLine
 10
6.234251968503937
 20
4.145669291338582
 30
0.0
 11
6.545275590551181
 21
4.356299212598425
 31
0.0
  0
LINE
  5
30DB
330
1E
100
AcDbEntity
  8
7
100
AcDbLine
 10
6.393700787401574
 20
4.346456692913386
 30
0.0
 11
6.234251968503937
 21
4.25
 31
0.0
  0
LINE
  5
30E4
330
1E
100
AcDbEntity
  8
7
100
AcDbLine
 10
6.116141732283464
 20
3.31496062992126
 30
0.0
 11
6.173228346456692
 21
3.309055118110236
 31
0.0
  0
LINE
  5
30F4
330
1E
100
AcDbEntity
  8
7
100
AcDbLine
 10
6.234251968503937
 20
3.246062992125984
 30
0.0
 11
6.173228346456692
 21
3.248031496062991
 31
0.0
  0
LINE
  5
30FB
330
1E
100
AcDbEntity
  8
7
100
AcDbLine
 10
6.173228346456692
 20
3.309055118110236
 30
0.0
 11
6.234251968503937
 21
3.305118110236221
 31
0.0
  0
LINE
  5
3104
330
1E
100
AcDbEntity
  8
7
100
AcDbLine
 10
6.116141732283464
 20
3.257874015748032
 30
0.0
 11
6.173228346456692
 21
3.248031496062991
 31
0.0
  0
LINE
  5
3105
330
1E
100
AcDbEntity
  8
7
100
AcDbLine
 10
5.960629921259842
 20
4.080708661417323
 30
0.0
 11
5.57283464566929
 21
4.751968503937008
 31
0.0
  0
LINE
  5
3106
330
1E
100
AcDbEntity
  8
7
100
AcDbLine
 10
5.960629921259842
 20
3.472440944881889
 30
0.0
 11
5.960629921259842
 21
7.517716535433071
 31
0.0
  0
LINE
  5
310D
330
1E
100
AcDbEntity
  8
7
100
AcDbLine
 10
6.234251968503937
 20
3.305118110236221
 30
0.0
 11
6.234251968503937
 21
7.685039370078739
 31
0.0
  0
LINE
  5
311C
330
1E
100
AcDbEntity
  8
7
100
AcDbLine
 10
5.960629921259842
 20
5.242125984251969
 30
0.0
 11
5.649606299212598
 21
4.797244094488189
 31
0.0
  0
LINE
  5
311D
330
1E
100
AcDbEntity
  8
7
100
AcDbLine
 10
5.649606299212598
 20
4.797244094488189
 30
0.0
 11
5.960629921259842
 21
4.261811023622047
 31
0.0
  0
LINE
  5
311E
330
1E
100
AcDbEntity
  8
7
100
AcDbLine
 10
5.576771653543307
 20
4.85236220472441
 30
0.0
 11
5.960629921259842
 21
5.399606299212599
 31
0.0
  0
LINE
  5
311F
330
1E
100
AcDbEntity
  8
7
100
AcDbLine
 10
6.393700787401574
 20
5.844488188976378
 30
0.0
 11
6.234251968503937
 21
5.748031496062991
 31
0.0
  0
LINE
  5
3128
330
1E
100
AcDbEntity
  8
7
100
AcDbLine
 10
6.356299212598425
 20
5.913385826771652
 30
0.0
 11
6.39763779527559
 21
5.933070866141732
 31
0.0
  0
LINE
  5
3137
330
1E
100
AcDbEntity
  8
7
100
AcDbLine
 10
5.960629921259842
 20
5.578740157480315
 30
0.0
 11
5.57283464566929
 21
6.25
 31
0.0
  0
LINE
  5
3138
330
1E
100
AcDbEntity
  8
7
100
AcDbLine
 10
5.576771653543307
 20
6.3503937007874
 30
0.0
 11
5.960629921259842
 21
6.897637795275589
 31
0.0
  0
LINE
  5
3142
330
1E
100
AcDbEntity
  8
7
100
AcDbLine
 10
6.173228346456692
 20
7.681102362204724
 30
0.0
 11
6.171259842519685
 21
7.71259842519685
 31
0.0
  0
LINE
  5
3152
330
1E
100
AcDbEntity
  8
7
100
AcDbLine
 10
5.649606299212598
 20
6.297244094488189
 30
0.0
 11
5.612204724409448
 21
6.322834645669291
 31
0.0
  0
LINE
  5
36B3
330
1E
100
AcDbEntity
  8
7
100
AcDbLine
 10
5.649606299212598
 20
4.797244094488189
 30
0.0
 11
5.61023622047244
 21
4.775590551181102
 31
0.0
  0
LINE
  5
36B4
330
1E
100
AcDbEntity
  8
7
100
AcDbLine
 10
5.61023622047244
 20
4.775590551181102
 30
0.0
 11
5.582677165354331
 21
4.757874015748032
 31
0.0
  0
LINE
  5
36B5
330
1E
100
AcDbEntity
  8
7
100
AcDbLine
 10
5.582677165354331
 20
4.757874015748032
 30
0.0
 11
5.57283464566929
 21
4.751968503937008
 31
0.0
  0
LINE
  5
36B6
330
1E
100
AcDbEntity
  8
7
100
AcDbLine
 10
5.649606299212598
 20
4.797244094488189
 30
0.0
 11
5.612204724409448
 21
4.824803149606299
 31
0.0
  0
LINE
  5
36B7
330
1E
100
AcDbEntity
  8
7
100
AcDbLine
 10
5.612204724409448
 20
4.824803149606299
 30
0.0
 11
5.586614173228346
 21
4.844488188976378
 31
0.0
  0
LINE
  5
36B8
330
1E
100
AcDbEntity
  8
7
100
AcDbLine
 10
5.586614173228346
 20
4.844488188976378
 30
0.0
 11
5.576771653543307
 21
4.85236220472441
 31
0.0
  0
LINE
  5
36B9
330
1E
100
AcDbEntity
  8
7
100
AcDbLine
 10
5.576771653543307
 20
4.8503937007874
 30
0.0
 11
5.561023622047244
 21
4.801181102362204
 31
0.0
  0
LINE
  5
36BA
330
1E
100
AcDbEntity
  8
7
100
AcDbLine
 10
5.561023622047244
 20
4.801181102362204
 30
0.0
 11
5.57283464566929
 21
4.751968503937008
 31
0.0
  0
LINE
  5
36BB
330
1E
100
AcDbEntity
  8
7
100
AcDbLine
 10
5.576771653543307
 20
6.3503937007874
 30
0.0
 11
5.561023622047244
 21
6.301181102362204
 31
0.0
  0
LINE
  5
36BC
330
1E
100
AcDbEntity
  8
7
100
AcDbLine
 10
5.561023622047244
 20
6.301181102362204
 30
0.0
 11
5.57283464566929
 21
6.251968503937008
 31
0.0
  0
LINE
  5
36BD
330
1E
100
AcDbEntity
  8
7
100
AcDbLine
 10
5.57283464566929
 20
6.25
 30
0.0
 11
5.582677165354331
 21
6.255905511811023
 31
0.0
  0
LINE
  5
36BE
330
1E
100
AcDbEntity
  8
7
100
AcDbLine
 10
5.582677165354331
 20
6.255905511811023
 30
0.0
 11
5.61023622047244
 21
6.273622047244095
 31
0.0
  0
LINE
  5
36BF
330
1E
100
AcDbEntity
  8
7
100
AcDbLine
 10
5.61023622047244
 20
6.273622047244095
 30
0.0
 11
5.649606299212598
 21
6.297244094488189
 31
0.0
  0
LINE
  5
36C0
330
1E
100
AcDbEntity
  8
7
100
AcDbLine
 10
5.612204724409448
 20
6.322834645669291
 30
0.0
 11
5.586614173228346
 21
6.342519685039369
 31
0.0
  0
LINE
  5
36C1
330
1E
100
AcDbEntity
  8
7
100
AcDbLine
 10
5.586614173228346
 20
6.342519685039369
 30
0.0
 11
5.576771653543307
 21
6.3503937007874
 31
0.0
  0
LINE
  5
36C2
330
1E
100
AcDbEntity
  8
7
100
AcDbLine
 10
6.173228346456692
 20
7.742125984251969
 30
0.0
 11
6.116141732283464
 21
7.732283464566928
 31
0.0
  0
LINE
  5
36C3
330
1E
100
AcDbEntity
  8
7
100
AcDbLine
 10
6.116141732283464
 20
7.732283464566928
 30
0.0
 11
6.064960629921259
 21
7.708661417322834
 31
0.0
  0
LINE
  5
36C4
330
1E
100
AcDbEntity
  8
7
100
AcDbLine
 10
6.064960629921259
 20
7.708661417322834
 30
0.0
 11
6.021653543307087
 21
7.671259842519684
 31
0.0
  0
LINE
  5
36C5
330
1E
100
AcDbEntity
  8
7
100
AcDbLine
 10
6.021653543307087
 20
7.671259842519684
 30
0.0
 11
5.988188976377951
 21
7.625984251968504
 31
0.0
  0
LINE
  5
36C6
330
1E
100
AcDbEntity
  8
7
100
AcDbLine
 10
5.988188976377951
 20
7.625984251968504
 30
0.0
 11
5.966535433070866
 21
7.572834645669291
 31
0.0
  0
LINE
  5
36C7
330
1E
100
AcDbEntity
  8
7
100
AcDbLine
 10
5.966535433070866
 20
7.572834645669291
 30
0.0
 11
5.960629921259842
 21
7.517716535433071
 31
0.0
  0
LINE
  5
36C8
330
1E
100
AcDbEntity
  8
7
100
AcDbLine
 10
6.171259842519685
 20
7.71259842519685
 30
0.0
 11
6.171259842519685
 21
7.734251968503937
 31
0.0
  0
LINE
  5
36C9
330
1E
100
AcDbEntity
  8
7
100
AcDbLine
 10
6.171259842519685
 20
7.734251968503937
 30
0.0
 11
6.173228346456692
 21
7.742125984251969
 31
0.0
  0
LINE
  5
36CA
330
1E
100
AcDbEntity
  8
7
100
AcDbLine
 10
6.173228346456692
 20
7.742125984251969
 30
0.0
 11
6.234251968503937
 21
7.746062992125984
 31
0.0
  0
LINE
  5
36CB
330
1E
100
AcDbEntity
  8
7
100
AcDbLine
 10
5.960629921259842
 20
7.517716535433071
 30
0.0
 11
5.966535433070866
 21
7.572834645669291
 31
0.0
  0
LINE
  5
36CC
330
1E
100
AcDbEntity
  8
7
100
AcDbLine
 10
5.966535433070866
 20
7.572834645669291
 30
0.0
 11
5.988188976377951
 21
7.625984251968504
 31
0.0
  0
LINE
  5
36CD
330
1E
100
AcDbEntity
  8
7
100
AcDbLine
 10
5.988188976377951
 20
7.625984251968504
 30
0.0
 11
6.021653543307087
 21
7.671259842519684
 31
0.0
  0
LINE
  5
36CE
330
1E
100
AcDbEntity
  8
7
100
AcDbLine
 10
6.021653543307087
 20
7.671259842519684
 30
0.0
 11
6.064960629921259
 21
7.708661417322834
 31
0.0
  0
LINE
  5
36CF
330
1E
100
AcDbEntity
  8
7
100
AcDbLine
 10
6.064960629921259
 20
7.708661417322834
 30
0.0
 11
6.116141732283464
 21
7.732283464566928
 31
0.0
  0
LINE
  5
36D0
330
1E
100
AcDbEntity
  8
7
100
AcDbLine
 10
6.116141732283464
 20
7.732283464566928
 30
0.0
 11
6.173228346456692
 21
7.742125984251969
 31
0.0
  0
LINE
  5
36D1
330
1E
100
AcDbEntity
  8
7
100
AcDbLine
 10
5.960629921259842
 20
6.74015748031496
 30
0.0
 11
5.649606299212598
 21
6.297244094488189
 31
0.0
  0
LINE
  5
36D2
330
1E
100
AcDbEntity
  8
7
100
AcDbLine
 10
5.649606299212598
 20
6.297244094488189
 30
0.0
 11
5.960629921259842
 21
5.759842519685039
 31
0.0
  0
LINE
  5
36D3
330
1E
100
AcDbEntity
  8
7
100
AcDbLine
 10
6.356299212598425
 20
5.913385826771652
 30
0.0
 11
6.362204724409448
 21
5.903543307086613
 31
0.0
  0
LINE
  5
36D4
330
1E
100
AcDbEntity
  8
7
100
AcDbLine
 10
6.362204724409448
 20
5.903543307086613
 30
0.0
 11
6.366141732283464
 21
5.901574803149606
 31
0.0
  0
LINE
  5
36D5
330
1E
100
AcDbEntity
  8
7
100
AcDbLine
 10
6.366141732283464
 20
5.901574803149606
 30
0.0
 11
6.393700787401574
 21
5.874015748031495
 31
0.0
  0
LINE
  5
36D6
330
1E
100
AcDbEntity
  8
7
100
AcDbLine
 10
6.393700787401574
 20
5.874015748031495
 30
0.0
 11
6.399606299212598
 21
5.866141732283463
 31
0.0
  0
LINE
  5
36D7
330
1E
100
AcDbEntity
  8
7
100
AcDbLine
 10
6.399606299212598
 20
5.866141732283463
 30
0.0
 11
6.401574803149605
 21
5.854330708661417
 31
0.0
  0
LINE
  5
36D8
330
1E
100
AcDbEntity
  8
7
100
AcDbLine
 10
6.401574803149605
 20
5.854330708661417
 30
0.0
 11
6.393700787401574
 21
5.844488188976378
 31
0.0
  0
LINE
  5
36D9
330
1E
100
AcDbEntity
  8
7
100
AcDbLine
 10
6.234251968503937
 20
5.645669291338582
 30
0.0
 11
6.545275590551181
 21
5.854330708661417
 31
0.0
  0
LINE
  5
36DA
330
1E
100
AcDbEntity
  8
7
100
AcDbLine
 10
6.545275590551181
 20
5.854330708661417
 30
0.0
 11
6.559055118110237
 21
5.875984251968504
 31
0.0
  0
LINE
  5
36DB
330
1E
100
AcDbEntity
  8
7
100
AcDbLine
 10
6.559055118110237
 20
5.875984251968504
 30
0.0
 11
6.55511811023622
 21
5.901574803149606
 31
0.0
  0
LINE
  5
36DC
330
1E
100
AcDbEntity
  8
7
100
AcDbLine
 10
6.55511811023622
 20
5.901574803149606
 30
0.0
 11
6.533464566929133
 21
5.917322834645669
 31
0.0
  0
LINE
  5
36DD
330
1E
100
AcDbEntity
  8
7
100
AcDbLine
 10
6.533464566929133
 20
5.917322834645669
 30
0.0
 11
6.39763779527559
 21
5.933070866141732
 31
0.0
  0
LINE
  5
36DE
330
1E
100
AcDbEntity
  8
7
100
AcDbLine
 10
6.173228346456692
 20
7.681102362204724
 30
0.0
 11
6.116141732283464
 21
7.6751968503937
 31
0.0
  0
LINE
  5
36DF
330
1E
100
AcDbEntity
  8
7
100
AcDbLine
 10
6.116141732283464
 20
7.6751968503937
 30
0.0
 11
6.064960629921259
 21
7.65748031496063
 31
0.0
  0
LINE
  5
36E0
330
1E
100
AcDbEntity
  8
7
100
AcDbLine
 10
6.064960629921259
 20
7.65748031496063
 30
0.0
 11
6.021653543307087
 21
7.629921259842519
 31
0.0
  0
LINE
  5
36E1
330
1E
100
AcDbEntity
  8
7
100
AcDbLine
 10
6.021653543307087
 20
7.629921259842519
 30
0.0
 11
5.988188976377951
 21
7.596456692913386
 31
0.0
  0
LINE
  5
36E2
330
1E
100
AcDbEntity
  8
7
100
AcDbLine
 10
5.988188976377951
 20
7.596456692913386
 30
0.0
 11
5.966535433070866
 21
7.559055118110236
 31
0.0
  0
LINE
  5
36E3
330
1E
100
AcDbEntity
  8
7
100
AcDbLine
 10
5.966535433070866
 20
7.559055118110236
 30
0.0
 11
5.960629921259842
 21
7.517716535433071
 31
0.0
  0
LINE
  5
36E4
330
1E
100
AcDbEntity
  8
7
100
AcDbLine
 10
6.234251968503937
 20
7.685039370078739
 30
0.0
 11
6.173228346456692
 21
7.681102362204724
 31
0.0
  0
LINE
  5
36E5
330
1E
100
AcDbEntity
  8
7
100
AcDbLine
 10
6.173228346456692
 20
7.681102362204724
 30
0.0
 11
6.173228346456692
 21
3.309055118110236
 31
0.0
  0
LINE
  5
36E6
330
1E
100
AcDbEntity
  8
7
100
AcDbLine
 10
6.234251968503937
 20
7.746062992125984
 30
0.0
 11
6.234251968503937
 21
7.736220472440945
 31
0.0
  0
LINE
  5
36E7
330
1E
100
AcDbEntity
  8
7
100
AcDbLine
 10
6.234251968503937
 20
7.736220472440945
 30
0.0
 11
6.234251968503937
 21
7.714566929133858
 31
0.0
  0
LINE
  5
36E8
330
1E
100
AcDbEntity
  8
7
100
AcDbLine
 10
6.234251968503937
 20
7.714566929133858
 30
0.0
 11
6.234251968503937
 21
7.685039370078739
 31
0.0
  0
LINE
  5
36E9
330
1E
100
AcDbEntity
  8
7
100
AcDbLine
 10
5.960629921259842
 20
3.472440944881889
 30
0.0
 11
5.966535433070866
 21
3.417322834645669
 31
0.0
  0
LINE
  5
36EA
330
1E
100
AcDbEntity
  8
7
100
AcDbLine
 10
5.966535433070866
 20
3.417322834645669
 30
0.0
 11
5.988188976377951
 21
3.364173228346456
 31
0.0
  0
LINE
  5
36EB
330
1E
100
AcDbEntity
  8
7
100
AcDbLine
 10
5.988188976377951
 20
3.364173228346456
 30
0.0
 11
6.021653543307087
 21
3.318897637795275
 31
0.0
  0
LINE
  5
36EC
330
1E
100
AcDbEntity
  8
7
100
AcDbLine
 10
6.021653543307087
 20
3.318897637795275
 30
0.0
 11
6.064960629921259
 21
3.281496062992126
 31
0.0
  0
LINE
  5
36ED
330
1E
100
AcDbEntity
  8
7
100
AcDbLine
 10
6.064960629921259
 20
3.281496062992126
 30
0.0
 11
6.116141732283464
 21
3.257874015748032
 31
0.0
  0
LINE
  5
36EE
330
1E
100
AcDbEntity
  8
7
100
AcDbLine
 10
6.234251968503937
 20
3.305118110236221
 30
0.0
 11
6.234251968503937
 21
3.275590551181102
 31
0.0
  0
LINE
  5
36EF
330
1E
100
AcDbEntity
  8
7
100
AcDbLine
 10
6.234251968503937
 20
3.275590551181102
 30
0.0
 11
6.234251968503937
 21
3.253937007874015
 31
0.0
  0
LINE
  5
36F0
330
1E
100
AcDbEntity
  8
7
100
AcDbLine
 10
6.234251968503937
 20
3.253937007874015
 30
0.0
 11
6.234251968503937
 21
3.246062992125984
 31
0.0
  0
LINE
  5
36F1
330
1E
100
AcDbEntity
  8
7
100
AcDbLine
 10
6.173228346456692
 20
3.248031496062991
 30
0.0
 11
6.171259842519685
 21
3.255905511811023
 31
0.0
  0
LINE
  5
36F2
330
1E
100
AcDbEntity
  8
7
100
AcDbLine
 10
6.171259842519685
 20
3.255905511811023
 30
0.0
 11
6.171259842519685
 21
3.27755905511811
 31
0.0
  0
LINE
  5
36F3
330
1E
100
AcDbEntity
  8
7
100
AcDbLine
 10
6.171259842519685
 20
3.27755905511811
 30
0.0
 11
6.173228346456692
 21
3.309055118110236
 31
0.0
  0
LINE
  5
36F4
330
1E
100
AcDbEntity
  8
7
100
AcDbLine
 10
6.173228346456692
 20
3.248031496062991
 30
0.0
 11
6.116141732283464
 21
3.257874015748032
 31
0.0
  0
LINE
  5
36F5
330
1E
100
AcDbEntity
  8
7
100
AcDbLine
 10
6.116141732283464
 20
3.257874015748032
 30
0.0
 11
6.064960629921259
 21
3.281496062992126
 31
0.0
  0
LINE
  5
36F6
330
1E
100
AcDbEntity
  8
7
100
AcDbLine
 10
6.064960629921259
 20
3.281496062992126
 30
0.0
 11
6.021653543307087
 21
3.318897637795275
 31
0.0
  0
LINE
  5
36F7
330
1E
100
AcDbEntity
  8
7
100
AcDbLine
 10
6.021653543307087
 20
3.318897637795275
 30
0.0
 11
5.988188976377951
 21
3.364173228346456
 31
0.0
  0
LINE
  5
36F8
330
1E
100
AcDbEntity
  8
7
100
AcDbLine
 10
5.988188976377951
 20
3.364173228346456
 30
0.0
 11
5.966535433070866
 21
3.417322834645669
 31
0.0
  0
LINE
  5
36F9
330
1E
100
AcDbEntity
  8
7
100
AcDbLine
 10
5.966535433070866
 20
3.417322834645669
 30
0.0
 11
5.960629921259842
 21
3.472440944881889
 31
0.0
  0
LINE
  5
36FA
330
1E
100
AcDbEntity
  8
7
100
AcDbLine
 10
5.960629921259842
 20
3.472440944881889
 30
0.0
 11
5.966535433070866
 21
3.431102362204724
 31
0.0
  0
LINE
  5
36FB
330
1E
100
AcDbEntity
  8
7
100
AcDbLine
 10
5.966535433070866
 20
3.431102362204724
 30
0.0
 11
5.988188976377951
 21
3.393700787401574
 31
0.0
  0
LINE
  5
36FC
330
1E
100
AcDbEntity
  8
7
100
AcDbLine
 10
5.988188976377951
 20
3.393700787401574
 30
0.0
 11
6.021653543307087
 21
3.360236220472441
 31
0.0
  0
LINE
  5
36FD
330
1E
100
AcDbEntity
  8
7
100
AcDbLine
 10
6.021653543307087
 20
3.360236220472441
 30
0.0
 11
6.064960629921259
 21
3.33267716535433
 31
0.0
  0
LINE
  5
36FE
330
1E
100
AcDbEntity
  8
7
100
AcDbLine
 10
6.064960629921259
 20
3.33267716535433
 30
0.0
 11
6.116141732283464
 21
3.31496062992126
 31
0.0
  0
LINE
  5
36FF
330
1E
100
AcDbEntity
  8
7
100
AcDbLine
 10
6.545275590551181
 20
4.356299212598425
 30
0.0
 11
6.559055118110237
 21
4.377952755905512
 31
0.0
  0
LINE
  5
3700
330
1E
100
AcDbEntity
  8
7
100
AcDbLine
 10
6.559055118110237
 20
4.377952755905512
 30
0.0
 11
6.55511811023622
 21
4.403543307086613
 31
0.0
  0
LINE
  5
3701
330
1E
100
AcDbEntity
  8
7
100
AcDbLine
 10
6.55511811023622
 20
4.403543307086613
 30
0.0
 11
6.533464566929133
 21
4.419291338582676
 31
0.0
  0
LINE
  5
3702
330
1E
100
AcDbEntity
  8
7
100
AcDbLine
 10
6.399606299212598
 20
4.368110236220473
 30
0.0
 11
6.401574803149605
 21
4.356299212598425
 31
0.0
  0
LINE
  5
3703
330
1E
100
AcDbEntity
  8
7
100
AcDbLine
 10
6.401574803149605
 20
4.356299212598425
 30
0.0
 11
6.393700787401574
 21
4.346456692913386
 31
0.0
  0
LINE
  5
3704
330
1E
100
AcDbEntity
  8
7
100
AcDbLine
 10
2.047244094488188
 20
4.797244094488189
 30
0.0
 11
2.035433070866141
 21
4.775590551181102
 31
0.0
  0
LINE
  5
3705
330
1E
100
AcDbEntity
  8
7
100
AcDbLine
 10
2.035433070866141
 20
4.775590551181102
 30
0.0
 11
2.0
 21
4.757874015748032
 31
0.0
  0
LINE
  5
3706
330
1E
100
AcDbEntity
  8
7
100
AcDbLine
 10
2.0
 20
4.757874015748032
 30
0.0
 11
1.954724409448818
 21
4.751968503937008
 31
0.0
  0
LINE
  5
3707
330
1E
100
AcDbEntity
  8
7
100
AcDbLine
 10
2.047244094488188
 20
4.797244094488189
 30
0.0
 11
2.035433070866141
 21
4.824803149606299
 31
0.0
  0
LINE
  5
3708
330
1E
100
AcDbEntity
  8
7
100
AcDbLine
 10
2.035433070866141
 20
4.824803149606299
 30
0.0
 11
2.0
 21
4.844488188976378
 31
0.0
  0
LINE
  5
3709
330
1E
100
AcDbEntity
  8
7
100
AcDbLine
 10
2.0
 20
4.844488188976378
 30
0.0
 11
1.954724409448818
 21
4.85236220472441
 31
0.0
  0
LINE
  5
370A
330
1E
100
AcDbEntity
  8
7
100
AcDbLine
 10
1.954724409448818
 20
4.85236220472441
 30
0.0
 11
1.954724409448818
 21
4.803149606299212
 31
0.0
  0
LINE
  5
370B
330
1E
100
AcDbEntity
  8
7
100
AcDbLine
 10
1.954724409448818
 20
4.803149606299212
 30
0.0
 11
1.954724409448818
 21
4.751968503937008
 31
0.0
  0
LINE
  5
370C
330
1E
100
AcDbEntity
  8
7
100
AcDbLine
 10
0.5787401574803144
 20
4.85236220472441
 30
0.0
 11
0.5787401574803144
 21
4.803149606299212
 31
0.0
  0
LINE
  5
370D
330
1E
100
AcDbEntity
  8
7
100
AcDbLine
 10
0.5787401574803144
 20
4.803149606299212
 30
0.0
 11
0.5787401574803144
 21
4.751968503937008
 31
0.0
  0
LINE
  5
370E
330
1E
100
AcDbEntity
  8
7
100
AcDbLine
 10
0.5787401574803144
 20
4.85236220472441
 30
0.0
 11
0.5334645669291338
 21
4.844488188976378
 31
0.0
  0
LINE
  5
370F
330
1E
100
AcDbEntity
  8
7
100
AcDbLine
 10
0.5334645669291338
 20
4.844488188976378
 30
0.0
 11
0.4980314960629922
 21
4.824803149606299
 31
0.0
  0
LINE
  5
3710
330
1E
100
AcDbEntity
  8
7
100
AcDbLine
 10
0.4980314960629922
 20
4.824803149606299
 30
0.0
 11
0.4862204724409449
 21
4.797244094488189
 31
0.0
  0
LINE
  5
3711
330
1E
100
AcDbEntity
  8
7
100
AcDbLine
 10
0.4862204724409449
 20
4.797244094488189
 30
0.0
 11
0.4980314960629922
 21
4.775590551181102
 31
0.0
  0
LINE
  5
3712
330
1E
100
AcDbEntity
  8
7
100
AcDbLine
 10
0.4980314960629922
 20
4.775590551181102
 30
0.0
 11
0.5334645669291338
 21
4.757874015748032
 31
0.0
  0
LINE
  5
3713
330
1E
100
AcDbEntity
  8
7
100
AcDbLine
 10
0.5787401574803144
 20
6.25
 30
0.0
 11
0.5334645669291338
 21
6.255905511811023
 31
0.0
  0
LINE
  5
3714
330
1E
100
AcDbEntity
  8
7
100
AcDbLine
 10
0.5334645669291338
 20
6.255905511811023
 30
0.0
 11
0.4980314960629922
 21
6.273622047244095
 31
0.0
  0
LINE
  5
3715
330
1E
100
AcDbEntity
  8
7
100
AcDbLine
 10
0.4980314960629922
 20
6.273622047244095
 30
0.0
 11
0.4862204724409449
 21
6.297244094488189
 31
0.0
  0
LINE
  5
3716
330
1E
100
AcDbEntity
  8
7
100
AcDbLine
 10
0.5787401574803144
 20
6.25
 30
0.0
 11
0.5787401574803144
 21
6.301181102362204
 31
0.0
  0
LINE
  5
3717
330
1E
100
AcDbEntity
  8
7
100
AcDbLine
 10
0.5787401574803144
 20
6.301181102362204
 30
0.0
 11
0.5787401574803144
 21
6.3503937007874
 31
0.0
  0
LINE
  5
3718
330
1E
100
AcDbEntity
  8
7
100
AcDbLine
 10
0.5787401574803144
 20
6.3503937007874
 30
0.0
 11
0.5334645669291338
 21
6.342519685039369
 31
0.0
  0
LINE
  5
3719
330
1E
100
AcDbEntity
  8
7
100
AcDbLine
 10
0.5334645669291338
 20
6.342519685039369
 30
0.0
 11
0.4980314960629922
 21
6.322834645669291
 31
0.0
  0
LINE
  5
371A
330
1E
100
AcDbEntity
  8
7
100
AcDbLine
 10
0.4980314960629922
 20
6.322834645669291
 30
0.0
 11
0.4862204724409449
 21
6.297244094488189
 31
0.0
  0
LINE
  5
371B
330
1E
100
AcDbEntity
  8
7
100
AcDbLine
 10
1.954724409448818
 20
6.25
 30
0.0
 11
1.954724409448818
 21
6.301181102362204
 31
0.0
  0
LINE
  5
371C
330
1E
100
AcDbEntity
  8
7
100
AcDbLine
 10
1.954724409448818
 20
6.301181102362204
 30
0.0
 11
1.954724409448818
 21
6.3503937007874
 31
0.0
  0
LINE
  5
371D
330
1E
100
AcDbEntity
  8
7
100
AcDbLine
 10
1.954724409448818
 20
6.25
 30
0.0
 11
2.0
 21
6.255905511811023
 31
0.0
  0
LINE
  5
371E
330
1E
100
AcDbEntity
  8
7
100
AcDbLine
 10
2.0
 20
6.255905511811023
 30
0.0
 11
2.035433070866141
 21
6.273622047244095
 31
0.0
  0
LINE
  5
371F
330
1E
100
AcDbEntity
  8
7
100
AcDbLine
 10
2.035433070866141
 20
6.273622047244095
 30
0.0
 11
2.047244094488188
 21
6.297244094488189
 31
0.0
  0
LINE
  5
3720
330
1E
100
AcDbEntity
  8
7
100
AcDbLine
 10
2.047244094488188
 20
6.297244094488189
 30
0.0
 11
2.035433070866141
 21
6.322834645669291
 31
0.0
  0
LINE
  5
3721
330
1E
100
AcDbEntity
  8
7
100
AcDbLine
 10
2.035433070866141
 20
6.322834645669291
 30
0.0
 11
2.0
 21
6.342519685039369
 31
0.0
  0
LINE
  5
3722
330
1E
100
AcDbEntity
  8
7
100
AcDbLine
 10
2.0
 20
6.342519685039369
 30
0.0
 11
1.954724409448818
 21
6.3503937007874
 31
0.0
  0
LINE
  5
3723
330
1E
100
AcDbEntity
  8
7
100
AcDbLine
 10
2.139763779527559
 20
7.340551181102362
 30
0.0
 11
2.141732283464566
 21
7.340551181102362
 31
0.0
  0
LINE
  5
3724
330
1E
100
AcDbEntity
  8
7
100
AcDbLine
 10
2.141732283464566
 20
7.340551181102362
 30
0.0
 11
2.171259842519685
 21
7.340551181102362
 31
0.0
  0
LINE
  5
3725
330
1E
100
AcDbEntity
  8
7
100
AcDbLine
 10
2.173228346456692
 20
7.342519685039369
 30
0.0
 11
2.171259842519685
 21
7.340551181102362
 31
0.0
  0
LINE
  5
3726
330
1E
100
AcDbEntity
  8
7
100
AcDbLine
 10
2.171259842519685
 20
7.340551181102362
 30
0.0
 11
2.192913385826771
 21
7.33267716535433
 31
0.0
  0
LINE
  5
3727
330
1E
100
AcDbEntity
  8
7
100
AcDbLine
 10
2.192913385826771
 20
7.33267716535433
 30
0.0
 11
2.202755905511811
 21
7.309055118110236
 31
0.0
  0
LINE
  5
3728
330
1E
100
AcDbEntity
  8
7
100
AcDbLine
 10
2.204724409448818
 20
6.960629921259843
 30
0.0
 11
2.202755905511811
 21
6.960629921259843
 31
0.0
  0
LINE
  5
3729
330
1E
100
AcDbEntity
  8
7
100
AcDbLine
 10
2.202755905511811
 20
6.960629921259843
 30
0.0
 11
2.192913385826771
 21
6.938976377952756
 31
0.0
  0
LINE
  5
372A
330
1E
100
AcDbEntity
  8
7
100
AcDbLine
 10
2.192913385826771
 20
6.938976377952756
 30
0.0
 11
2.171259842519685
 21
6.931102362204724
 31
0.0
  0
LINE
  5
372B
330
1E
100
AcDbEntity
  8
7
100
AcDbLine
 10
0.3622047244094486
 20
6.931102362204724
 30
0.0
 11
0.3405511811023616
 21
6.938976377952756
 31
0.0
  0
LINE
  5
372C
330
1E
100
AcDbEntity
  8
7
100
AcDbLine
 10
0.3405511811023616
 20
6.938976377952756
 30
0.0
 11
0.3307086614173222
 21
6.960629921259843
 31
0.0
  0
LINE
  5
372D
330
1E
100
AcDbEntity
  8
7
100
AcDbLine
 10
0.3307086614173222
 20
7.309055118110236
 30
0.0
 11
0.3405511811023616
 21
7.33267716535433
 31
0.0
  0
LINE
  5
372E
330
1E
100
AcDbEntity
  8
7
100
AcDbLine
 10
0.3405511811023616
 20
7.33267716535433
 30
0.0
 11
0.3622047244094486
 21
7.340551181102362
 31
0.0
  0
LINE
  5
372F
330
1E
100
AcDbEntity
  8
7
100
AcDbLine
 10
-0.0452755905511815
 20
7.742125984251969
 30
0.0
 11
-0.03740157480315
 21
7.732283464566928
 31
0.0
  0
LINE
  5
3730
330
1E
100
AcDbEntity
  8
7
100
AcDbLine
 10
-0.03740157480315
 20
7.732283464566928
 30
0.0
 11
-0.0196850393700792
 21
7.708661417322834
 31
0.0
  0
LINE
  5
3731
330
1E
100
AcDbEntity
  8
7
100
AcDbLine
 10
-0.0196850393700792
 20
7.708661417322834
 30
0.0
 11
0.0059055118110232
 21
7.671259842519684
 31
0.0
  0
LINE
  5
3732
330
1E
100
AcDbEntity
  8
7
100
AcDbLine
 10
0.0059055118110232
 20
7.671259842519684
 30
0.0
 11
0.039370078740157
 21
7.625984251968504
 31
0.0
  0
LINE
  5
3733
330
1E
100
AcDbEntity
  8
7
100
AcDbLine
 10
0.039370078740157
 20
7.625984251968504
 30
0.0
 11
0.0787401574803144
 21
7.572834645669291
 31
0.0
  0
LINE
  5
3734
330
1E
100
AcDbEntity
  8
7
100
AcDbLine
 10
0.0787401574803144
 20
7.572834645669291
 30
0.0
 11
0.1200787401574801
 21
7.517716535433071
 31
0.0
  0
LINE
  5
3735
330
1E
100
AcDbEntity
  8
7
100
AcDbLine
 10
-0.0452755905511815
 20
7.742125984251969
 30
0.0
 11
-0.0748031496062995
 21
7.734251968503937
 31
0.0
  0
LINE
  5
3736
330
1E
100
AcDbEntity
  8
7
100
AcDbLine
 10
-0.0748031496062995
 20
7.734251968503937
 30
0.0
 11
-0.0964566929133861
 21
7.71259842519685
 31
0.0
  0
LINE
  5
3737
330
1E
100
AcDbEntity
  8
7
100
AcDbLine
 10
-0.0964566929133861
 20
7.71259842519685
 30
0.0
 11
-0.1043307086614176
 21
7.681102362204724
 31
0.0
  0
LINE
  5
3738
330
1E
100
AcDbEntity
  8
7
100
AcDbLine
 10
-0.0492125984251972
 20
7.746062992125984
 30
0.0
 11
-0.0452755905511815
 21
7.742125984251969
 31
0.0
  0
LINE
  5
3739
330
1E
100
AcDbEntity
  8
7
100
AcDbLine
 10
-0.0452755905511815
 20
7.742125984251969
 30
0.0
 11
2.578740157480314
 21
7.742125984251969
 31
0.0
  0
LINE
  5
373A
330
1E
100
AcDbEntity
  8
7
100
AcDbLine
 10
2.63779527559055
 20
7.681102362204724
 30
0.0
 11
2.629921259842519
 21
7.71259842519685
 31
0.0
  0
LINE
  5
373B
330
1E
100
AcDbEntity
  8
7
100
AcDbLine
 10
2.629921259842519
 20
7.71259842519685
 30
0.0
 11
2.608267716535433
 21
7.734251968503937
 31
0.0
  0
LINE
  5
373C
330
1E
100
AcDbEntity
  8
7
100
AcDbLine
 10
2.608267716535433
 20
7.734251968503937
 30
0.0
 11
2.578740157480314
 21
7.742125984251969
 31
0.0
  0
LINE
  5
373D
330
1E
100
AcDbEntity
  8
7
100
AcDbLine
 10
2.578740157480314
 20
7.742125984251969
 30
0.0
 11
2.58267716535433
 21
7.746062992125984
 31
0.0
  0
LINE
  5
373E
330
1E
100
AcDbEntity
  8
7
100
AcDbLine
 10
2.413385826771653
 20
7.517716535433071
 30
0.0
 11
2.454724409448818
 21
7.572834645669291
 31
0.0
  0
LINE
  5
373F
330
1E
100
AcDbEntity
  8
7
100
AcDbLine
 10
2.454724409448818
 20
7.572834645669291
 30
0.0
 11
2.494094488188976
 21
7.625984251968504
 31
0.0
  0
LINE
  5
3740
330
1E
100
AcDbEntity
  8
7
100
AcDbLine
 10
2.494094488188976
 20
7.625984251968504
 30
0.0
 11
2.52755905511811
 21
7.671259842519684
 31
0.0
  0
LINE
  5
3741
330
1E
100
AcDbEntity
  8
7
100
AcDbLine
 10
2.52755905511811
 20
7.671259842519684
 30
0.0
 11
2.553149606299212
 21
7.708661417322834
 31
0.0
  0
LINE
  5
3742
330
1E
100
AcDbEntity
  8
7
100
AcDbLine
 10
2.553149606299212
 20
7.708661417322834
 30
0.0
 11
2.570866141732283
 21
7.732283464566928
 31
0.0
  0
LINE
  5
3743
330
1E
100
AcDbEntity
  8
7
100
AcDbLine
 10
2.570866141732283
 20
7.732283464566928
 30
0.0
 11
2.578740157480314
 21
7.742125984251969
 31
0.0
  0
LINE
  5
3744
330
1E
100
AcDbEntity
  8
7
100
AcDbLine
 10
1.206692913385826
 20
7.210629921259843
 30
0.0
 11
1.188976377952755
 21
7.208661417322834
 31
0.0
  0
LINE
  5
3745
330
1E
100
AcDbEntity
  8
7
100
AcDbLine
 10
1.188976377952755
 20
7.208661417322834
 30
0.0
 11
1.171259842519685
 21
7.200787401574802
 31
0.0
  0
LINE
  5
3746
330
1E
100
AcDbEntity
  8
7
100
AcDbLine
 10
1.362204724409449
 20
7.200787401574802
 30
0.0
 11
1.344488188976377
 21
7.208661417322834
 31
0.0
  0
LINE
  5
3747
330
1E
100
AcDbEntity
  8
7
100
AcDbLine
 10
1.344488188976377
 20
7.208661417322834
 30
0.0
 11
1.326771653543307
 21
7.210629921259843
 31
0.0
  0
LINE
  5
3748
330
1E
100
AcDbEntity
  8
7
100
AcDbLine
 10
1.391732283464566
 20
7.173228346456693
 30
0.0
 11
1.364173228346456
 21
7.200787401574802
 31
0.0
  0
LINE
  5
3749
330
1E
100
AcDbEntity
  8
7
100
AcDbLine
 10
1.364173228346456
 20
7.200787401574802
 30
0.0
 11
1.326771653543307
 21
7.210629921259843
 31
0.0
  0
LINE
  5
374A
330
1E
100
AcDbEntity
  8
7
100
AcDbLine
 10
1.326771653543307
 20
7.061023622047243
 30
0.0
 11
1.364173228346456
 21
7.070866141732284
 31
0.0
  0
LINE
  5
374B
330
1E
100
AcDbEntity
  8
7
100
AcDbLine
 10
1.364173228346456
 20
7.070866141732284
 30
0.0
 11
1.391732283464566
 21
7.098425196850393
 31
0.0
  0
LINE
  5
374C
330
1E
100
AcDbEntity
  8
7
100
AcDbLine
 10
1.391732283464566
 20
7.098425196850393
 30
0.0
 11
1.401574803149606
 21
7.135826771653543
 31
0.0
  0
LINE
  5
374D
330
1E
100
AcDbEntity
  8
7
100
AcDbLine
 10
1.401574803149606
 20
7.135826771653543
 30
0.0
 11
1.391732283464566
 21
7.173228346456693
 31
0.0
  0
LINE
  5
374E
330
1E
100
AcDbEntity
  8
7
100
AcDbLine
 10
1.169291338582676
 20
7.200787401574802
 30
0.0
 11
1.141732283464566
 21
7.173228346456693
 31
0.0
  0
LINE
  5
374F
330
1E
100
AcDbEntity
  8
7
100
AcDbLine
 10
1.141732283464566
 20
7.173228346456693
 30
0.0
 11
1.131889763779527
 21
7.135826771653543
 31
0.0
  0
LINE
  5
3750
330
1E
100
AcDbEntity
  8
7
100
AcDbLine
 10
1.131889763779527
 20
7.135826771653543
 30
0.0
 11
1.141732283464566
 21
7.098425196850393
 31
0.0
  0
LINE
  5
3751
330
1E
100
AcDbEntity
  8
7
100
AcDbLine
 10
1.141732283464566
 20
7.098425196850393
 30
0.0
 11
1.169291338582676
 21
7.070866141732284
 31
0.0
  0
LINE
  5
3752
330
1E
100
AcDbEntity
  8
7
100
AcDbLine
 10
1.169291338582676
 20
7.070866141732284
 30
0.0
 11
1.206692913385826
 21
7.061023622047243
 31
0.0
  0
LINE
  5
3753
330
1E
100
AcDbEntity
  8
7
100
AcDbLine
 10
1.326771653543307
 20
7.061023622047243
 30
0.0
 11
1.344488188976377
 21
7.062992125984252
 31
0.0
  0
LINE
  5
3754
330
1E
100
AcDbEntity
  8
7
100
AcDbLine
 10
1.344488188976377
 20
7.062992125984252
 30
0.0
 11
1.362204724409449
 21
7.070866141732284
 31
0.0
  0
LINE
  5
3755
330
1E
100
AcDbEntity
  8
7
100
AcDbLine
 10
1.171259842519685
 20
7.070866141732284
 30
0.0
 11
1.188976377952755
 21
7.062992125984252
 31
0.0
  0
LINE
  5
3756
330
1E
100
AcDbEntity
  8
7
100
AcDbLine
 10
1.188976377952755
 20
7.062992125984252
 30
0.0
 11
1.206692913385826
 21
7.061023622047243
 31
0.0
  0
LINE
  5
3757
330
1E
100
AcDbEntity
  8
7
100
AcDbLine
 10
1.11023622047244
 20
7.251968503937008
 30
0.0
 11
1.074803149606299
 21
7.21259842519685
 31
0.0
  0
LINE
  5
3758
330
1E
100
AcDbEntity
  8
7
100
AcDbLine
 10
1.074803149606299
 20
7.21259842519685
 30
0.0
 11
1.057086614173228
 21
7.161417322834645
 31
0.0
  0
LINE
  5
3759
330
1E
100
AcDbEntity
  8
7
100
AcDbLine
 10
1.057086614173228
 20
7.161417322834645
 30
0.0
 11
1.057086614173228
 21
7.110236220472441
 31
0.0
  0
LINE
  5
375A
330
1E
100
AcDbEntity
  8
7
100
AcDbLine
 10
1.057086614173228
 20
7.110236220472441
 30
0.0
 11
1.074803149606299
 21
7.061023622047243
 31
0.0
  0
LINE
  5
375B
330
1E
100
AcDbEntity
  8
7
100
AcDbLine
 10
1.074803149606299
 20
7.061023622047243
 30
0.0
 11
1.11023622047244
 21
7.019685039370078
 31
0.0
  0
LINE
  5
375C
330
1E
100
AcDbEntity
  8
7
100
AcDbLine
 10
1.11023622047244
 20
7.019685039370078
 30
0.0
 11
1.155511811023622
 21
6.994094488188976
 31
0.0
  0
LINE
  5
375D
330
1E
100
AcDbEntity
  8
7
100
AcDbLine
 10
1.155511811023622
 20
6.994094488188976
 30
0.0
 11
1.206692913385826
 21
6.984251968503937
 31
0.0
  0
LINE
  5
375E
330
1E
100
AcDbEntity
  8
7
100
AcDbLine
 10
1.206692913385826
 20
7.287401574803149
 30
0.0
 11
1.155511811023622
 21
7.27755905511811
 31
0.0
  0
LINE
  5
375F
330
1E
100
AcDbEntity
  8
7
100
AcDbLine
 10
1.155511811023622
 20
7.27755905511811
 30
0.0
 11
1.11023622047244
 21
7.251968503937008
 31
0.0
  0
LINE
  5
3760
330
1E
100
AcDbEntity
  8
7
100
AcDbLine
 10
1.206692913385826
 20
7.285433070866141
 30
0.0
 11
1.155511811023622
 21
7.275590551181102
 31
0.0
  0
LINE
  5
3761
330
1E
100
AcDbEntity
  8
7
100
AcDbLine
 10
1.155511811023622
 20
7.275590551181102
 30
0.0
 11
1.11023622047244
 21
7.25
 31
0.0
  0
LINE
  5
3762
330
1E
100
AcDbEntity
  8
7
100
AcDbLine
 10
1.11023622047244
 20
7.25
 30
0.0
 11
1.076771653543307
 21
7.210629921259843
 31
0.0
  0
LINE
  5
3763
330
1E
100
AcDbEntity
  8
7
100
AcDbLine
 10
1.076771653543307
 20
7.210629921259843
 30
0.0
 11
1.059055118110236
 21
7.161417322834645
 31
0.0
  0
LINE
  5
3764
330
1E
100
AcDbEntity
  8
7
100
AcDbLine
 10
1.059055118110236
 20
7.161417322834645
 30
0.0
 11
1.059055118110236
 21
7.110236220472441
 31
0.0
  0
LINE
  5
3765
330
1E
100
AcDbEntity
  8
7
100
AcDbLine
 10
1.059055118110236
 20
7.110236220472441
 30
0.0
 11
1.076771653543307
 21
7.061023622047243
 31
0.0
  0
LINE
  5
3766
330
1E
100
AcDbEntity
  8
7
100
AcDbLine
 10
1.076771653543307
 20
7.061023622047243
 30
0.0
 11
1.11023622047244
 21
7.021653543307086
 31
0.0
  0
LINE
  5
3767
330
1E
100
AcDbEntity
  8
7
100
AcDbLine
 10
1.11023622047244
 20
7.021653543307086
 30
0.0
 11
1.155511811023622
 21
6.996062992125984
 31
0.0
  0
LINE
  5
3768
330
1E
100
AcDbEntity
  8
7
100
AcDbLine
 10
1.155511811023622
 20
6.996062992125984
 30
0.0
 11
1.206692913385826
 21
6.986220472440945
 31
0.0
  0
LINE
  5
3769
330
1E
100
AcDbEntity
  8
7
100
AcDbLine
 10
1.423228346456692
 20
7.251968503937008
 30
0.0
 11
1.377952755905512
 21
7.27755905511811
 31
0.0
  0
LINE
  5
376A
330
1E
100
AcDbEntity
  8
7
100
AcDbLine
 10
1.377952755905512
 20
7.27755905511811
 30
0.0
 11
1.326771653543307
 21
7.287401574803149
 31
0.0
  0
LINE
  5
376B
330
1E
100
AcDbEntity
  8
7
100
AcDbLine
 10
1.326771653543307
 20
6.984251968503937
 30
0.0
 11
1.377952755905512
 21
6.994094488188976
 31
0.0
  0
LINE
  5
376C
330
1E
100
AcDbEntity
  8
7
100
AcDbLine
 10
1.377952755905512
 20
6.994094488188976
 30
0.0
 11
1.423228346456692
 21
7.019685039370078
 31
0.0
  0
LINE
  5
376D
330
1E
100
AcDbEntity
  8
7
100
AcDbLine
 10
1.423228346456692
 20
7.019685039370078
 30
0.0
 11
1.458661417322834
 21
7.059055118110236
 31
0.0
  0
LINE
  5
376E
330
1E
100
AcDbEntity
  8
7
100
AcDbLine
 10
1.458661417322834
 20
7.059055118110236
 30
0.0
 11
1.476377952755905
 21
7.110236220472441
 31
0.0
  0
LINE
  5
376F
330
1E
100
AcDbEntity
  8
7
100
AcDbLine
 10
1.476377952755905
 20
7.110236220472441
 30
0.0
 11
1.476377952755905
 21
7.161417322834645
 31
0.0
  0
LINE
  5
3770
330
1E
100
AcDbEntity
  8
7
100
AcDbLine
 10
1.476377952755905
 20
7.161417322834645
 30
0.0
 11
1.458661417322834
 21
7.210629921259843
 31
0.0
  0
LINE
  5
3771
330
1E
100
AcDbEntity
  8
7
100
AcDbLine
 10
1.458661417322834
 20
7.210629921259843
 30
0.0
 11
1.423228346456692
 21
7.251968503937008
 31
0.0
  0
LINE
  5
3772
330
1E
100
AcDbEntity
  8
7
100
AcDbLine
 10
1.456692913385826
 20
7.210629921259843
 30
0.0
 11
1.423228346456692
 21
7.25
 31
0.0
  0
LINE
  5
3773
330
1E
100
AcDbEntity
  8
7
100
AcDbLine
 10
1.423228346456692
 20
7.25
 30
0.0
 11
1.377952755905512
 21
7.275590551181102
 31
0.0
  0
LINE
  5
3774
330
1E
100
AcDbEntity
  8
7
100
AcDbLine
 10
1.377952755905512
 20
7.275590551181102
 30
0.0
 11
1.326771653543307
 21
7.285433070866141
 31
0.0
  0
LINE
  5
3775
330
1E
100
AcDbEntity
  8
7
100
AcDbLine
 10
1.326771653543307
 20
6.986220472440945
 30
0.0
 11
1.377952755905512
 21
6.996062992125984
 31
0.0
  0
LINE
  5
3776
330
1E
100
AcDbEntity
  8
7
100
AcDbLine
 10
1.377952755905512
 20
6.996062992125984
 30
0.0
 11
1.423228346456692
 21
7.021653543307086
 31
0.0
  0
LINE
  5
3777
330
1E
100
AcDbEntity
  8
7
100
AcDbLine
 10
1.423228346456692
 20
7.021653543307086
 30
0.0
 11
1.456692913385826
 21
7.061023622047243
 31
0.0
  0
LINE
  5
3778
330
1E
100
AcDbEntity
  8
7
100
AcDbLine
 10
1.456692913385826
 20
7.061023622047243
 30
0.0
 11
1.474409448818897
 21
7.110236220472441
 31
0.0
  0
LINE
  5
3779
330
1E
100
AcDbEntity
  8
7
100
AcDbLine
 10
1.474409448818897
 20
7.110236220472441
 30
0.0
 11
1.474409448818897
 21
7.161417322834645
 31
0.0
  0
LINE
  5
377A
330
1E
100
AcDbEntity
  8
7
100
AcDbLine
 10
1.474409448818897
 20
7.161417322834645
 30
0.0
 11
1.456692913385826
 21
7.210629921259843
 31
0.0
  0
LINE
  5
377B
330
1E
100
AcDbEntity
  8
7
100
AcDbLine
 10
0.5649606299212598
 20
6.897637795275589
 30
0.0
 11
0.5787401574803144
 21
6.3503937007874
 31
0.0
  0
LINE
  5
377C
330
1E
100
AcDbEntity
  8
7
100
AcDbLine
 10
0.5787401574803144
 20
6.3503937007874
 30
0.0
 11
1.954724409448818
 21
6.3503937007874
 31
0.0
  0
LINE
  5
377D
330
1E
100
AcDbEntity
  8
7
100
AcDbLine
 10
1.954724409448818
 20
6.3503937007874
 30
0.0
 11
1.968503937007874
 21
6.897637795275589
 31
0.0
  0
LINE
  5
377E
330
1E
100
AcDbEntity
  8
7
100
AcDbLine
 10
1.496062992125984
 20
6.234251968503937
 30
0.0
 11
1.496062992125984
 21
6.200787401574802
 31
0.0
  0
LINE
  5
377F
330
1E
100
AcDbEntity
  8
7
100
AcDbLine
 10
1.496062992125984
 20
6.200787401574802
 30
0.0
 11
1.671259842519685
 21
6.200787401574802
 31
0.0
  0
LINE
  5
3780
330
1E
100
AcDbEntity
  8
7
100
AcDbLine
 10
0.8622047244094485
 20
6.234251968503937
 30
0.0
 11
0.8622047244094485
 21
6.200787401574802
 31
0.0
  0
LINE
  5
3781
330
1E
100
AcDbEntity
  8
7
100
AcDbLine
 10
0.8622047244094485
 20
6.200787401574802
 30
0.0
 11
1.037401574803149
 21
6.200787401574802
 31
0.0
  0
LINE
  5
3782
330
1E
100
AcDbEntity
  8
7
100
AcDbLine
 10
1.194881889763779
 20
5.635826771653543
 30
0.0
 11
1.338582677165354
 21
5.635826771653543
 31
0.0
  0
LINE
  5
3783
330
1E
100
AcDbEntity
  8
7
100
AcDbLine
 10
1.338582677165354
 20
5.635826771653543
 30
0.0
 11
1.338582677165354
 21
5.683070866141732
 31
0.0
  0
LINE
  5
3784
330
1E
100
AcDbEntity
  8
7
100
AcDbLine
 10
1.161417322834645
 20
7.19488188976378
 30
0.0
 11
1.135826771653543
 21
7.15748031496063
 31
0.0
  0
LINE
  5
3785
330
1E
100
AcDbEntity
  8
7
100
AcDbLine
 10
1.135826771653543
 20
7.15748031496063
 30
0.0
 11
1.135826771653543
 21
7.114173228346456
 31
0.0
  0
LINE
  5
3786
330
1E
100
AcDbEntity
  8
7
100
AcDbLine
 10
1.135826771653543
 20
7.114173228346456
 30
0.0
 11
1.161417322834645
 21
7.076771653543306
 31
0.0
  0
LINE
  5
3787
330
1E
100
AcDbEntity
  8
7
100
AcDbLine
 10
1.372047244094487
 20
7.076771653543306
 30
0.0
 11
1.39763779527559
 21
7.114173228346456
 31
0.0
  0
LINE
  5
3788
330
1E
100
AcDbEntity
  8
7
100
AcDbLine
 10
1.39763779527559
 20
7.114173228346456
 30
0.0
 11
1.39763779527559
 21
7.15748031496063
 31
0.0
  0
LINE
  5
3789
330
1E
100
AcDbEntity
  8
7
100
AcDbLine
 10
1.39763779527559
 20
7.15748031496063
 30
0.0
 11
1.372047244094487
 21
7.19488188976378
 31
0.0
  0
LINE
  5
378A
330
1E
100
AcDbEntity
  8
7
100
AcDbLine
 10
0.7047244094488181
 20
5.578740157480315
 30
0.0
 11
0.7047244094488181
 21
5.635826771653543
 31
0.0
  0
LINE
  5
378B
330
1E
100
AcDbEntity
  8
7
100
AcDbLine
 10
0.7047244094488181
 20
5.635826771653543
 30
0.0
 11
0.6358267716535431
 21
5.635826771653543
 31
0.0
  0
LINE
  5
378C
330
1E
100
AcDbEntity
  8
7
100
AcDbLine
 10
1.954724409448818
 20
6.25
 30
0.0
 11
0.5787401574803144
 21
6.25
 31
0.0
  0
LINE
  5
378D
330
1E
100
AcDbEntity
  8
7
100
AcDbLine
 10
0.5787401574803144
 20
6.25
 30
0.0
 11
0.5649606299212598
 21
5.578740157480315
 31
0.0
  0
LINE
  5
378E
330
1E
100
AcDbEntity
  8
7
100
AcDbLine
 10
0.4744094488188977
 20
5.759842519685039
 30
0.0
 11
0.4862204724409449
 21
6.297244094488189
 31
0.0
  0
LINE
  5
378F
330
1E
100
AcDbEntity
  8
7
100
AcDbLine
 10
0.4862204724409449
 20
6.297244094488189
 30
0.0
 11
0.4744094488188977
 21
6.74015748031496
 31
0.0
  0
LINE
  5
3790
330
1E
100
AcDbEntity
  8
7
100
AcDbLine
 10
2.059055118110236
 20
6.74015748031496
 30
0.0
 11
2.047244094488188
 21
6.297244094488189
 31
0.0
  0
LINE
  5
3791
330
1E
100
AcDbEntity
  8
7
100
AcDbLine
 10
2.047244094488188
 20
6.297244094488189
 30
0.0
 11
2.059055118110236
 21
5.759842519685039
 31
0.0
  0
LINE
  5
3792
330
1E
100
AcDbEntity
  8
7
100
AcDbLine
 10
0.8464566929133855
 20
5.866141732283463
 30
0.0
 11
0.8464566929133855
 21
5.854330708661417
 31
0.0
  0
LINE
  5
3793
330
1E
100
AcDbEntity
  8
7
100
AcDbLine
 10
0.8464566929133855
 20
5.854330708661417
 30
0.0
 11
0.8464566929133855
 21
5.844488188976378
 31
0.0
  0
LINE
  5
3794
330
1E
100
AcDbEntity
  8
7
100
AcDbLine
 10
1.053149606299212
 20
5.844488188976378
 30
0.0
 11
1.051181102362204
 21
5.854330708661417
 31
0.0
  0
LINE
  5
3795
330
1E
100
AcDbEntity
  8
7
100
AcDbLine
 10
1.051181102362204
 20
5.854330708661417
 30
0.0
 11
1.051181102362204
 21
5.866141732283463
 31
0.0
  0
LINE
  5
3796
330
1E
100
AcDbEntity
  8
7
100
AcDbLine
 10
1.482283464566929
 20
5.874015748031495
 30
0.0
 11
1.480314960629921
 21
5.901574803149606
 31
0.0
  0
LINE
  5
3797
330
1E
100
AcDbEntity
  8
7
100
AcDbLine
 10
1.480314960629921
 20
5.901574803149606
 30
0.0
 11
1.480314960629921
 21
5.903543307086613
 31
0.0
  0
LINE
  5
3798
330
1E
100
AcDbEntity
  8
7
100
AcDbLine
 10
1.480314960629921
 20
5.844488188976378
 30
0.0
 11
1.482283464566929
 21
5.854330708661417
 31
0.0
  0
LINE
  5
3799
330
1E
100
AcDbEntity
  8
7
100
AcDbLine
 10
1.482283464566929
 20
5.854330708661417
 30
0.0
 11
1.482283464566929
 21
5.866141732283463
 31
0.0
  0
LINE
  5
379A
330
1E
100
AcDbEntity
  8
7
100
AcDbLine
 10
1.687007874015748
 20
5.913385826771652
 30
0.0
 11
1.687007874015748
 21
5.903543307086613
 31
0.0
  0
LINE
  5
379B
330
1E
100
AcDbEntity
  8
7
100
AcDbLine
 10
1.687007874015748
 20
5.903543307086613
 30
0.0
 11
1.687007874015748
 21
5.901574803149606
 31
0.0
  0
LINE
  5
379C
330
1E
100
AcDbEntity
  8
7
100
AcDbLine
 10
1.687007874015748
 20
5.901574803149606
 30
0.0
 11
1.687007874015748
 21
5.874015748031495
 31
0.0
  0
LINE
  5
379D
330
1E
100
AcDbEntity
  8
7
100
AcDbLine
 10
1.687007874015748
 20
5.874015748031495
 30
0.0
 11
1.687007874015748
 21
5.866141732283463
 31
0.0
  0
LINE
  5
379E
330
1E
100
AcDbEntity
  8
7
100
AcDbLine
 10
1.687007874015748
 20
5.866141732283463
 30
0.0
 11
1.687007874015748
 21
5.854330708661417
 31
0.0
  0
LINE
  5
379F
330
1E
100
AcDbEntity
  8
7
100
AcDbLine
 10
1.687007874015748
 20
5.854330708661417
 30
0.0
 11
1.687007874015748
 21
5.844488188976378
 31
0.0
  0
LINE
  5
37A0
330
1E
100
AcDbEntity
  8
7
100
AcDbLine
 10
0.5787401574803144
 20
4.85236220472441
 30
0.0
 11
1.954724409448818
 21
4.85236220472441
 31
0.0
  0
LINE
  5
37A1
330
1E
100
AcDbEntity
  8
7
100
AcDbLine
 10
1.954724409448818
 20
4.85236220472441
 30
0.0
 11
1.968503937007874
 21
5.399606299212599
 31
0.0
  0
LINE
  5
37A2
330
1E
100
AcDbEntity
  8
7
100
AcDbLine
 10
1.496062992125984
 20
4.736220472440945
 30
0.0
 11
1.496062992125984
 21
4.702755905511811
 31
0.0
  0
LINE
  5
37A3
330
1E
100
AcDbEntity
  8
7
100
AcDbLine
 10
1.496062992125984
 20
4.702755905511811
 30
0.0
 11
1.671259842519685
 21
4.702755905511811
 31
0.0
  0
LINE
  5
37A4
330
1E
100
AcDbEntity
  8
7
100
AcDbLine
 10
0.8622047244094485
 20
4.736220472440945
 30
0.0
 11
0.8622047244094485
 21
4.702755905511811
 31
0.0
  0
LINE
  5
37A5
330
1E
100
AcDbEntity
  8
7
100
AcDbLine
 10
0.8622047244094485
 20
4.702755905511811
 30
0.0
 11
1.037401574803149
 21
4.702755905511811
 31
0.0
  0
LINE
  5
37A6
330
1E
100
AcDbEntity
  8
7
100
AcDbLine
 10
2.059055118110236
 20
5.242125984251969
 30
0.0
 11
2.047244094488188
 21
4.797244094488189
 31
0.0
  0
LINE
  5
37A7
330
1E
100
AcDbEntity
  8
7
100
AcDbLine
 10
2.047244094488188
 20
4.797244094488189
 30
0.0
 11
2.059055118110236
 21
4.261811023622047
 31
0.0
  0
LINE
  5
37A8
330
1E
100
AcDbEntity
  8
7
100
AcDbLine
 10
0.4744094488188977
 20
4.261811023622047
 30
0.0
 11
0.4862204724409449
 21
4.797244094488189
 31
0.0
  0
LINE
  5
37A9
330
1E
100
AcDbEntity
  8
7
100
AcDbLine
 10
0.4862204724409449
 20
4.797244094488189
 30
0.0
 11
0.4744094488188977
 21
5.242125984251969
 31
0.0
  0
LINE
  5
37AA
330
1E
100
AcDbEntity
  8
7
100
AcDbLine
 10
2.604330708661417
 20
7.65748031496063
 30
0.0
 11
2.568897637795275
 21
7.629921259842519
 31
0.0
  0
LINE
  5
37AB
330
1E
100
AcDbEntity
  8
7
100
AcDbLine
 10
2.568897637795275
 20
7.629921259842519
 30
0.0
 11
2.523622047244094
 21
7.596456692913386
 31
0.0
  0
LINE
  5
37AC
330
1E
100
AcDbEntity
  8
7
100
AcDbLine
 10
2.523622047244094
 20
7.596456692913386
 30
0.0
 11
2.470472440944881
 21
7.559055118110236
 31
0.0
  0
LINE
  5
37AD
330
1E
100
AcDbEntity
  8
7
100
AcDbLine
 10
2.470472440944881
 20
7.559055118110236
 30
0.0
 11
2.413385826771653
 21
7.517716535433071
 31
0.0
  0
LINE
  5
37AE
330
1E
100
AcDbEntity
  8
7
100
AcDbLine
 10
2.63779527559055
 20
7.681102362204724
 30
0.0
 11
2.627952755905512
 21
7.6751968503937
 31
0.0
  0
LINE
  5
37AF
330
1E
100
AcDbEntity
  8
7
100
AcDbLine
 10
2.627952755905512
 20
7.6751968503937
 30
0.0
 11
2.604330708661417
 21
7.65748031496063
 31
0.0
  0
LINE
  5
37B0
330
1E
100
AcDbEntity
  8
7
100
AcDbLine
 10
2.641732283464566
 20
3.305118110236221
 30
0.0
 11
2.641732283464566
 21
7.685039370078739
 31
0.0
  0
LINE
  5
37B1
330
1E
100
AcDbEntity
  8
7
100
AcDbLine
 10
2.641732283464566
 20
7.685039370078739
 30
0.0
 11
2.63779527559055
 21
7.681102362204724
 31
0.0
  0
LINE
  5
37B2
330
1E
100
AcDbEntity
  8
7
100
AcDbLine
 10
2.63779527559055
 20
7.681102362204724
 30
0.0
 11
2.63779527559055
 21
3.309055118110236
 31
0.0
  0
LINE
  5
37B3
330
1E
100
AcDbEntity
  8
7
100
AcDbLine
 10
2.58267716535433
 20
7.746062992125984
 30
0.0
 11
2.612204724409449
 21
7.736220472440945
 31
0.0
  0
LINE
  5
37B4
330
1E
100
AcDbEntity
  8
7
100
AcDbLine
 10
2.612204724409449
 20
7.736220472440945
 30
0.0
 11
2.633858267716535
 21
7.714566929133858
 31
0.0
  0
LINE
  5
37B5
330
1E
100
AcDbEntity
  8
7
100
AcDbLine
 10
2.633858267716535
 20
7.714566929133858
 30
0.0
 11
2.641732283464566
 21
7.685039370078739
 31
0.0
  0
LINE
  5
37B6
330
1E
100
AcDbEntity
  8
7
100
AcDbLine
 10
-0.1082677165354333
 20
7.685039370078739
 30
0.0
 11
-0.1003937007874018
 21
7.714566929133858
 31
0.0
  0
LINE
  5
37B7
330
1E
100
AcDbEntity
  8
7
100
AcDbLine
 10
-0.1003937007874018
 20
7.714566929133858
 30
0.0
 11
-0.0787401574803153
 21
7.736220472440945
 31
0.0
  0
LINE
  5
37B8
330
1E
100
AcDbEntity
  8
7
100
AcDbLine
 10
-0.0787401574803153
 20
7.736220472440945
 30
0.0
 11
-0.0492125984251972
 21
7.746062992125984
 31
0.0
  0
LINE
  5
37B9
330
1E
100
AcDbEntity
  8
7
100
AcDbLine
 10
-0.1043307086614176
 20
3.309055118110236
 30
0.0
 11
-0.1043307086614176
 21
7.681102362204724
 31
0.0
  0
LINE
  5
37BA
330
1E
100
AcDbEntity
  8
7
100
AcDbLine
 10
-0.1043307086614176
 20
7.681102362204724
 30
0.0
 11
-0.1082677165354333
 21
7.685039370078739
 31
0.0
  0
LINE
  5
37BB
330
1E
100
AcDbEntity
  8
7
100
AcDbLine
 10
-0.1082677165354333
 20
7.685039370078739
 30
0.0
 11
-0.1082677165354333
 21
3.305118110236221
 31
0.0
  0
LINE
  5
37BC
330
1E
100
AcDbEntity
  8
7
100
AcDbLine
 10
0.0098425196850389
 20
7.596456692913386
 30
0.0
 11
-0.0354330708661421
 21
7.629921259842519
 31
0.0
  0
LINE
  5
37BD
330
1E
100
AcDbEntity
  8
7
100
AcDbLine
 10
-0.0354330708661421
 20
7.629921259842519
 30
0.0
 11
-0.0708661417322838
 21
7.65748031496063
 31
0.0
  0
LINE
  5
37BE
330
1E
100
AcDbEntity
  8
7
100
AcDbLine
 10
-0.0708661417322838
 20
7.65748031496063
 30
0.0
 11
-0.0944881889763783
 21
7.6751968503937
 31
0.0
  0
LINE
  5
37BF
330
1E
100
AcDbEntity
  8
7
100
AcDbLine
 10
-0.0944881889763783
 20
7.6751968503937
 30
0.0
 11
-0.1043307086614176
 21
7.681102362204724
 31
0.0
  0
LINE
  5
37C0
330
1E
100
AcDbEntity
  8
7
100
AcDbLine
 10
0.1200787401574801
 20
7.517716535433071
 30
0.0
 11
0.0629921259842514
 21
7.559055118110236
 31
0.0
  0
LINE
  5
37C1
330
1E
100
AcDbEntity
  8
7
100
AcDbLine
 10
0.0629921259842514
 20
7.559055118110236
 30
0.0
 11
0.0098425196850389
 21
7.596456692913386
 31
0.0
  0
LINE
  5
37C2
330
1E
100
AcDbEntity
  8
7
100
AcDbLine
 10
0.3602362204724407
 20
7.342519685039369
 30
0.0
 11
0.3385826771653537
 21
7.33267716535433
 31
0.0
  0
LINE
  5
37C3
330
1E
100
AcDbEntity
  8
7
100
AcDbLine
 10
0.3385826771653537
 20
7.33267716535433
 30
0.0
 11
0.3287401574803144
 21
7.311023622047243
 31
0.0
  0
LINE
  5
37C4
330
1E
100
AcDbEntity
  8
7
100
AcDbLine
 10
0.3287401574803144
 20
6.960629921259843
 30
0.0
 11
0.3385826771653537
 21
6.938976377952756
 31
0.0
  0
LINE
  5
37C5
330
1E
100
AcDbEntity
  8
7
100
AcDbLine
 10
0.3385826771653537
 20
6.938976377952756
 30
0.0
 11
0.3602362204724407
 21
6.929133858267715
 31
0.0
  0
LINE
  5
37C6
330
1E
100
AcDbEntity
  8
7
100
AcDbLine
 10
2.173228346456692
 20
6.929133858267715
 30
0.0
 11
2.194881889763779
 21
6.938976377952756
 31
0.0
  0
LINE
  5
37C7
330
1E
100
AcDbEntity
  8
7
100
AcDbLine
 10
2.194881889763779
 20
6.938976377952756
 30
0.0
 11
2.204724409448818
 21
6.960629921259843
 31
0.0
  0
LINE
  5
37C8
330
1E
100
AcDbEntity
  8
7
100
AcDbLine
 10
2.204724409448818
 20
7.311023622047243
 30
0.0
 11
2.194881889763779
 21
7.33267716535433
 31
0.0
  0
LINE
  5
37C9
330
1E
100
AcDbEntity
  8
7
100
AcDbLine
 10
2.194881889763779
 20
7.33267716535433
 30
0.0
 11
2.173228346456692
 21
7.342519685039369
 31
0.0
  0
LINE
  5
37CA
330
1E
100
AcDbEntity
  8
7
100
AcDbLine
 10
1.338582677165354
 20
5.578740157480315
 30
0.0
 11
1.194881889763779
 21
5.578740157480315
 31
0.0
  0
LINE
  5
37CB
330
1E
100
AcDbEntity
  8
7
100
AcDbLine
 10
1.194881889763779
 20
5.578740157480315
 30
0.0
 11
0.7047244094488181
 21
5.578740157480315
 31
0.0
  0
LINE
  5
37CC
330
1E
100
AcDbEntity
  8
7
100
AcDbLine
 10
0.7047244094488181
 20
5.578740157480315
 30
0.0
 11
0.5649606299212598
 21
5.578740157480315
 31
0.0
  0
LINE
  5
37CD
330
1E
100
AcDbEntity
  8
7
100
AcDbLine
 10
0.5649606299212598
 20
5.578740157480315
 30
0.0
 11
0.5374015748031496
 21
5.586614173228347
 31
0.0
  0
LINE
  5
37CE
330
1E
100
AcDbEntity
  8
7
100
AcDbLine
 10
0.5374015748031496
 20
5.586614173228347
 30
0.0
 11
0.5118110236220468
 21
5.612204724409449
 31
0.0
  0
LINE
  5
37CF
330
1E
100
AcDbEntity
  8
7
100
AcDbLine
 10
0.5118110236220468
 20
5.612204724409449
 30
0.0
 11
0.4921259842519681
 21
5.653543307086613
 31
0.0
  0
LINE
  5
37D0
330
1E
100
AcDbEntity
  8
7
100
AcDbLine
 10
0.4921259842519681
 20
5.653543307086613
 30
0.0
 11
0.4783464566929135
 21
5.702755905511811
 31
0.0
  0
LINE
  5
37D1
330
1E
100
AcDbEntity
  8
7
100
AcDbLine
 10
0.4783464566929135
 20
5.702755905511811
 30
0.0
 11
0.4744094488188977
 21
5.759842519685039
 31
0.0
  0
LINE
  5
37D2
330
1E
100
AcDbEntity
  8
7
100
AcDbLine
 10
0.4744094488188977
 20
5.759842519685039
 30
0.0
 11
0.4744094488188977
 21
6.74015748031496
 31
0.0
  0
LINE
  5
37D3
330
1E
100
AcDbEntity
  8
7
100
AcDbLine
 10
0.4744094488188977
 20
6.74015748031496
 30
0.0
 11
0.4783464566929135
 21
6.787401574803149
 31
0.0
  0
LINE
  5
37D4
330
1E
100
AcDbEntity
  8
7
100
AcDbLine
 10
0.4783464566929135
 20
6.787401574803149
 30
0.0
 11
0.4921259842519681
 21
6.83267716535433
 31
0.0
  0
LINE
  5
37D5
330
1E
100
AcDbEntity
  8
7
100
AcDbLine
 10
0.4921259842519681
 20
6.83267716535433
 30
0.0
 11
0.5118110236220468
 21
6.866141732283463
 31
0.0
  0
LINE
  5
37D6
330
1E
100
AcDbEntity
  8
7
100
AcDbLine
 10
0.5118110236220468
 20
6.866141732283463
 30
0.0
 11
0.5374015748031496
 21
6.889763779527558
 31
0.0
  0
LINE
  5
37D7
330
1E
100
AcDbEntity
  8
7
100
AcDbLine
 10
0.5374015748031496
 20
6.889763779527558
 30
0.0
 11
0.5649606299212598
 21
6.897637795275589
 31
0.0
  0
LINE
  5
37D8
330
1E
100
AcDbEntity
  8
7
100
AcDbLine
 10
2.021653543307087
 20
6.866141732283463
 30
0.0
 11
2.041338582677165
 21
6.83267716535433
 31
0.0
  0
LINE
  5
37D9
330
1E
100
AcDbEntity
  8
7
100
AcDbLine
 10
2.041338582677165
 20
6.83267716535433
 30
0.0
 11
2.05511811023622
 21
6.787401574803149
 31
0.0
  0
LINE
  5
37DA
330
1E
100
AcDbEntity
  8
7
100
AcDbLine
 10
2.05511811023622
 20
6.787401574803149
 30
0.0
 11
2.059055118110236
 21
6.74015748031496
 31
0.0
  0
LINE
  5
37DB
330
1E
100
AcDbEntity
  8
7
100
AcDbLine
 10
2.059055118110236
 20
6.74015748031496
 30
0.0
 11
2.059055118110236
 21
5.759842519685039
 31
0.0
  0
LINE
  5
37DC
330
1E
100
AcDbEntity
  8
7
100
AcDbLine
 10
2.059055118110236
 20
5.759842519685039
 30
0.0
 11
2.05511811023622
 21
5.702755905511811
 31
0.0
  0
LINE
  5
37DD
330
1E
100
AcDbEntity
  8
7
100
AcDbLine
 10
2.05511811023622
 20
5.702755905511811
 30
0.0
 11
2.041338582677165
 21
5.653543307086613
 31
0.0
  0
LINE
  5
37DE
330
1E
100
AcDbEntity
  8
7
100
AcDbLine
 10
2.041338582677165
 20
5.653543307086613
 30
0.0
 11
2.021653543307087
 21
5.612204724409449
 31
0.0
  0
LINE
  5
37DF
330
1E
100
AcDbEntity
  8
7
100
AcDbLine
 10
2.021653543307087
 20
5.612204724409449
 30
0.0
 11
1.996062992125984
 21
5.586614173228347
 31
0.0
  0
LINE
  5
37E0
330
1E
100
AcDbEntity
  8
7
100
AcDbLine
 10
1.996062992125984
 20
5.586614173228347
 30
0.0
 11
1.968503937007874
 21
5.578740157480315
 31
0.0
  0
LINE
  5
37E1
330
1E
100
AcDbEntity
  8
7
100
AcDbLine
 10
1.968503937007874
 20
5.578740157480315
 30
0.0
 11
1.828740157480314
 21
5.578740157480315
 31
0.0
  0
LINE
  5
37E2
330
1E
100
AcDbEntity
  8
7
100
AcDbLine
 10
1.968503937007874
 20
6.897637795275589
 30
0.0
 11
1.996062992125984
 21
6.889763779527558
 31
0.0
  0
LINE
  5
37E3
330
1E
100
AcDbEntity
  8
7
100
AcDbLine
 10
1.996062992125984
 20
6.889763779527558
 30
0.0
 11
2.021653543307087
 21
6.866141732283463
 31
0.0
  0
LINE
  5
37E4
330
1E
100
AcDbEntity
  8
7
100
AcDbLine
 10
0.5649606299212598
 20
4.080708661417323
 30
0.0
 11
0.5374015748031496
 21
4.088582677165354
 31
0.0
  0
LINE
  5
37E5
330
1E
100
AcDbEntity
  8
7
100
AcDbLine
 10
0.5374015748031496
 20
4.088582677165354
 30
0.0
 11
0.5118110236220468
 21
4.114173228346456
 31
0.0
  0
LINE
  5
37E6
330
1E
100
AcDbEntity
  8
7
100
AcDbLine
 10
0.5118110236220468
 20
4.114173228346456
 30
0.0
 11
0.4921259842519681
 21
4.155511811023621
 31
0.0
  0
LINE
  5
37E7
330
1E
100
AcDbEntity
  8
7
100
AcDbLine
 10
0.4921259842519681
 20
4.155511811023621
 30
0.0
 11
0.4783464566929135
 21
4.204724409448819
 31
0.0
  0
LINE
  5
37E8
330
1E
100
AcDbEntity
  8
7
100
AcDbLine
 10
0.4783464566929135
 20
4.204724409448819
 30
0.0
 11
0.4744094488188977
 21
4.261811023622047
 31
0.0
  0
LINE
  5
37E9
330
1E
100
AcDbEntity
  8
7
100
AcDbLine
 10
2.059055118110236
 20
4.261811023622047
 30
0.0
 11
2.05511811023622
 21
4.204724409448819
 31
0.0
  0
LINE
  5
37EA
330
1E
100
AcDbEntity
  8
7
100
AcDbLine
 10
2.05511811023622
 20
4.204724409448819
 30
0.0
 11
2.041338582677165
 21
4.155511811023621
 31
0.0
  0
LINE
  5
37EB
330
1E
100
AcDbEntity
  8
7
100
AcDbLine
 10
2.041338582677165
 20
4.155511811023621
 30
0.0
 11
2.021653543307087
 21
4.114173228346456
 31
0.0
  0
LINE
  5
37EC
330
1E
100
AcDbEntity
  8
7
100
AcDbLine
 10
2.021653543307087
 20
4.114173228346456
 30
0.0
 11
1.996062992125984
 21
4.088582677165354
 31
0.0
  0
LINE
  5
37ED
330
1E
100
AcDbEntity
  8
7
100
AcDbLine
 10
1.968503937007874
 20
5.399606299212599
 30
0.0
 11
1.996062992125984
 21
5.391732283464567
 31
0.0
  0
LINE
  5
37EE
330
1E
100
AcDbEntity
  8
7
100
AcDbLine
 10
1.996062992125984
 20
5.391732283464567
 30
0.0
 11
2.021653543307087
 21
5.368110236220473
 31
0.0
  0
LINE
  5
37EF
330
1E
100
AcDbEntity
  8
7
100
AcDbLine
 10
2.021653543307087
 20
5.368110236220473
 30
0.0
 11
2.041338582677165
 21
5.334645669291337
 31
0.0
  0
LINE
  5
37F0
330
1E
100
AcDbEntity
  8
7
100
AcDbLine
 10
2.041338582677165
 20
5.334645669291337
 30
0.0
 11
2.05511811023622
 21
5.289370078740158
 31
0.0
  0
LINE
  5
37F1
330
1E
100
AcDbEntity
  8
7
100
AcDbLine
 10
2.05511811023622
 20
5.289370078740158
 30
0.0
 11
2.059055118110236
 21
5.242125984251969
 31
0.0
  0
LINE
  5
37F2
330
1E
100
AcDbEntity
  8
7
100
AcDbLine
 10
0.4744094488188977
 20
5.242125984251969
 30
0.0
 11
0.4783464566929135
 21
5.289370078740158
 31
0.0
  0
LINE
  5
37F3
330
1E
100
AcDbEntity
  8
7
100
AcDbLine
 10
0.4783464566929135
 20
5.289370078740158
 30
0.0
 11
0.4921259842519681
 21
5.334645669291337
 31
0.0
  0
LINE
  5
37F4
330
1E
100
AcDbEntity
  8
7
100
AcDbLine
 10
0.4921259842519681
 20
5.334645669291337
 30
0.0
 11
0.5118110236220468
 21
5.368110236220473
 31
0.0
  0
LINE
  5
37F5
330
1E
100
AcDbEntity
  8
7
100
AcDbLine
 10
0.5118110236220468
 20
5.368110236220473
 30
0.0
 11
0.5374015748031496
 21
5.391732283464567
 31
0.0
  0
LINE
  5
37F6
330
1E
100
AcDbEntity
  8
7
100
AcDbLine
 10
0.5374015748031496
 20
5.391732283464567
 30
0.0
 11
0.5649606299212598
 21
5.399606299212599
 31
0.0
  0
LINE
  5
37F7
330
1E
100
AcDbEntity
  8
7
100
AcDbLine
 10
2.413385826771653
 20
3.472440944881889
 30
0.0
 11
2.413385826771653
 21
7.517716535433071
 31
0.0
  0
LINE
  5
37F8
330
1E
100
AcDbEntity
  8
7
100
AcDbLine
 10
2.413385826771653
 20
7.517716535433071
 30
0.0
 11
0.1200787401574801
 21
7.517716535433071
 31
0.0
  0
LINE
  5
37F9
330
1E
100
AcDbEntity
  8
7
100
AcDbLine
 10
1.968503937007874
 20
4.080708661417323
 30
0.0
 11
1.954724409448818
 21
4.751968503937008
 31
0.0
  0
LINE
  5
37FA
330
1E
100
AcDbEntity
  8
7
100
AcDbLine
 10
1.954724409448818
 20
4.751968503937008
 30
0.0
 11
0.5787401574803144
 21
4.751968503937008
 31
0.0
  0
LINE
  5
37FB
330
1E
100
AcDbEntity
  8
7
100
AcDbLine
 10
0.5787401574803144
 20
4.751968503937008
 30
0.0
 11
0.5649606299212598
 21
4.080708661417323
 31
0.0
  0
LINE
  5
37FC
330
1E
100
AcDbEntity
  8
7
100
AcDbLine
 10
2.204724409448818
 20
3.679133858267717
 30
0.0
 11
2.194881889763779
 21
3.65748031496063
 31
0.0
  0
LINE
  5
37FD
330
1E
100
AcDbEntity
  8
7
100
AcDbLine
 10
2.194881889763779
 20
3.65748031496063
 30
0.0
 11
2.173228346456692
 21
3.649606299212599
 31
0.0
  0
LINE
  5
37FE
330
1E
100
AcDbEntity
  8
7
100
AcDbLine
 10
0.3622047244094486
 20
3.649606299212599
 30
0.0
 11
0.3602362204724407
 21
3.649606299212599
 31
0.0
  0
LINE
  5
37FF
330
1E
100
AcDbEntity
  8
7
100
AcDbLine
 10
0.3602362204724407
 20
3.649606299212599
 30
0.0
 11
0.3385826771653537
 21
3.65748031496063
 31
0.0
  0
LINE
  5
3800
330
1E
100
AcDbEntity
  8
7
100
AcDbLine
 10
0.3385826771653537
 20
3.65748031496063
 30
0.0
 11
0.3287401574803144
 21
3.679133858267717
 31
0.0
  0
LINE
  5
3801
330
1E
100
AcDbEntity
  8
7
100
AcDbLine
 10
0.3287401574803144
 20
4.029527559055117
 30
0.0
 11
0.3385826771653537
 21
4.051181102362204
 31
0.0
  0
LINE
  5
3802
330
1E
100
AcDbEntity
  8
7
100
AcDbLine
 10
0.3385826771653537
 20
4.051181102362204
 30
0.0
 11
0.3602362204724407
 21
4.061023622047243
 31
0.0
  0
LINE
  5
3803
330
1E
100
AcDbEntity
  8
7
100
AcDbLine
 10
2.173228346456692
 20
4.061023622047243
 30
0.0
 11
2.194881889763779
 21
4.051181102362204
 31
0.0
  0
LINE
  5
3804
330
1E
100
AcDbEntity
  8
7
100
AcDbLine
 10
2.194881889763779
 20
4.051181102362204
 30
0.0
 11
2.204724409448818
 21
4.029527559055117
 31
0.0
  0
LINE
  5
3805
330
1E
100
AcDbEntity
  8
7
100
AcDbLine
 10
-0.0944881889763783
 20
3.31496062992126
 30
0.0
 11
-0.0708661417322838
 21
3.33267716535433
 31
0.0
  0
LINE
  5
3806
330
1E
100
AcDbEntity
  8
7
100
AcDbLine
 10
-0.0708661417322838
 20
3.33267716535433
 30
0.0
 11
-0.0354330708661421
 21
3.360236220472441
 31
0.0
  0
LINE
  5
3807
330
1E
100
AcDbEntity
  8
7
100
AcDbLine
 10
-0.0354330708661421
 20
3.360236220472441
 30
0.0
 11
0.0098425196850389
 21
3.393700787401574
 31
0.0
  0
LINE
  5
3808
330
1E
100
AcDbEntity
  8
7
100
AcDbLine
 10
0.0098425196850389
 20
3.393700787401574
 30
0.0
 11
0.0629921259842514
 21
3.431102362204724
 31
0.0
  0
LINE
  5
3809
330
1E
100
AcDbEntity
  8
7
100
AcDbLine
 10
0.0629921259842514
 20
3.431102362204724
 30
0.0
 11
0.1200787401574801
 21
3.472440944881889
 31
0.0
  0
LINE
  5
380A
330
1E
100
AcDbEntity
  8
7
100
AcDbLine
 10
0.1200787401574801
 20
3.472440944881889
 30
0.0
 11
2.413385826771653
 21
3.472440944881889
 31
0.0
  0
LINE
  5
380B
330
1E
100
AcDbEntity
  8
7
100
AcDbLine
 10
0.1200787401574801
 20
3.472440944881889
 30
0.0
 11
0.0787401574803144
 21
3.417322834645669
 31
0.0
  0
LINE
  5
380C
330
1E
100
AcDbEntity
  8
7
100
AcDbLine
 10
0.0787401574803144
 20
3.417322834645669
 30
0.0
 11
0.039370078740157
 21
3.364173228346456
 31
0.0
  0
LINE
  5
380D
330
1E
100
AcDbEntity
  8
7
100
AcDbLine
 10
0.039370078740157
 20
3.364173228346456
 30
0.0
 11
0.0059055118110232
 21
3.318897637795275
 31
0.0
  0
LINE
  5
380E
330
1E
100
AcDbEntity
  8
7
100
AcDbLine
 10
0.0059055118110232
 20
3.318897637795275
 30
0.0
 11
-0.0196850393700792
 21
3.281496062992126
 31
0.0
  0
LINE
  5
380F
330
1E
100
AcDbEntity
  8
7
100
AcDbLine
 10
-0.0196850393700792
 20
3.281496062992126
 30
0.0
 11
-0.03740157480315
 21
3.257874015748032
 31
0.0
  0
LINE
  5
3810
330
1E
100
AcDbEntity
  8
7
100
AcDbLine
 10
-0.03740157480315
 20
3.257874015748032
 30
0.0
 11
-0.0452755905511815
 21
3.248031496062991
 31
0.0
  0
LINE
  5
3811
330
1E
100
AcDbEntity
  8
7
100
AcDbLine
 10
-0.1043307086614176
 20
3.309055118110236
 30
0.0
 11
-0.0964566929133861
 21
3.27755905511811
 31
0.0
  0
LINE
  5
3812
330
1E
100
AcDbEntity
  8
7
100
AcDbLine
 10
-0.0964566929133861
 20
3.27755905511811
 30
0.0
 11
-0.0748031496062995
 21
3.255905511811023
 31
0.0
  0
LINE
  5
3813
330
1E
100
AcDbEntity
  8
7
100
AcDbLine
 10
-0.0492125984251972
 20
3.246062992125984
 30
0.0
 11
-0.0787401574803153
 21
3.253937007874015
 31
0.0
  0
LINE
  5
3814
330
1E
100
AcDbEntity
  8
7
100
AcDbLine
 10
-0.0787401574803153
 20
3.253937007874015
 30
0.0
 11
-0.1003937007874018
 21
3.275590551181102
 31
0.0
  0
LINE
  5
3815
330
1E
100
AcDbEntity
  8
7
100
AcDbLine
 10
-0.1003937007874018
 20
3.275590551181102
 30
0.0
 11
-0.1082677165354333
 21
3.305118110236221
 31
0.0
  0
LINE
  5
3816
330
1E
100
AcDbEntity
  8
7
100
AcDbLine
 10
2.641732283464566
 20
3.305118110236221
 30
0.0
 11
2.633858267716535
 21
3.275590551181102
 31
0.0
  0
LINE
  5
3817
330
1E
100
AcDbEntity
  8
7
100
AcDbLine
 10
2.633858267716535
 20
3.275590551181102
 30
0.0
 11
2.612204724409449
 21
3.253937007874015
 31
0.0
  0
LINE
  5
3818
330
1E
100
AcDbEntity
  8
7
100
AcDbLine
 10
2.612204724409449
 20
3.253937007874015
 30
0.0
 11
2.58267716535433
 21
3.246062992125984
 31
0.0
  0
LINE
  5
3819
330
1E
100
AcDbEntity
  8
7
100
AcDbLine
 10
2.578740157480314
 20
3.248031496062991
 30
0.0
 11
-0.0452755905511815
 21
3.248031496062991
 31
0.0
  0
LINE
  5
381A
330
1E
100
AcDbEntity
  8
7
100
AcDbLine
 10
-0.0452755905511815
 20
3.248031496062991
 30
0.0
 11
-0.0492125984251972
 21
3.246062992125984
 31
0.0
  0
LINE
  5
381B
330
1E
100
AcDbEntity
  8
7
100
AcDbLine
 10
-0.0492125984251972
 20
3.246062992125984
 30
0.0
 11
2.58267716535433
 21
3.246062992125984
 31
0.0
  0
LINE
  5
381C
330
1E
100
AcDbEntity
  8
7
100
AcDbLine
 10
2.58267716535433
 20
3.246062992125984
 30
0.0
 11
2.578740157480314
 21
3.248031496062991
 31
0.0
  0
LINE
  5
381D
330
1E
100
AcDbEntity
  8
7
100
AcDbLine
 10
2.578740157480314
 20
3.248031496062991
 30
0.0
 11
2.608267716535433
 21
3.255905511811023
 31
0.0
  0
LINE
  5
381E
330
1E
100
AcDbEntity
  8
7
100
AcDbLine
 10
2.608267716535433
 20
3.255905511811023
 30
0.0
 11
2.629921259842519
 21
3.27755905511811
 31
0.0
  0
LINE
  5
381F
330
1E
100
AcDbEntity
  8
7
100
AcDbLine
 10
2.629921259842519
 20
3.27755905511811
 30
0.0
 11
2.63779527559055
 21
3.309055118110236
 31
0.0
  0
LINE
  5
3820
330
1E
100
AcDbEntity
  8
7
100
AcDbLine
 10
2.494094488188976
 20
3.364173228346456
 30
0.0
 11
2.454724409448818
 21
3.417322834645669
 31
0.0
  0
LINE
  5
3821
330
1E
100
AcDbEntity
  8
7
100
AcDbLine
 10
2.454724409448818
 20
3.417322834645669
 30
0.0
 11
2.413385826771653
 21
3.472440944881889
 31
0.0
  0
LINE
  5
3822
330
1E
100
AcDbEntity
  8
7
100
AcDbLine
 10
2.578740157480314
 20
3.248031496062991
 30
0.0
 11
2.570866141732283
 21
3.257874015748032
 31
0.0
  0
LINE
  5
3823
330
1E
100
AcDbEntity
  8
7
100
AcDbLine
 10
2.570866141732283
 20
3.257874015748032
 30
0.0
 11
2.553149606299212
 21
3.281496062992126
 31
0.0
  0
LINE
  5
3824
330
1E
100
AcDbEntity
  8
7
100
AcDbLine
 10
2.553149606299212
 20
3.281496062992126
 30
0.0
 11
2.52755905511811
 21
3.318897637795275
 31
0.0
  0
LINE
  5
3825
330
1E
100
AcDbEntity
  8
7
100
AcDbLine
 10
2.52755905511811
 20
3.318897637795275
 30
0.0
 11
2.494094488188976
 21
3.364173228346456
 31
0.0
  0
LINE
  5
3826
330
1E
100
AcDbEntity
  8
7
100
AcDbLine
 10
2.413385826771653
 20
3.472440944881889
 30
0.0
 11
2.470472440944881
 21
3.431102362204724
 31
0.0
  0
LINE
  5
3827
330
1E
100
AcDbEntity
  8
7
100
AcDbLine
 10
2.470472440944881
 20
3.431102362204724
 30
0.0
 11
2.523622047244094
 21
3.393700787401574
 31
0.0
  0
LINE
  5
3828
330
1E
100
AcDbEntity
  8
7
100
AcDbLine
 10
2.523622047244094
 20
3.393700787401574
 30
0.0
 11
2.568897637795275
 21
3.360236220472441
 31
0.0
  0
LINE
  5
3829
330
1E
100
AcDbEntity
  8
7
100
AcDbLine
 10
2.568897637795275
 20
3.360236220472441
 30
0.0
 11
2.604330708661417
 21
3.33267716535433
 31
0.0
  0
LINE
  5
382A
330
1E
100
AcDbEntity
  8
7
100
AcDbLine
 10
2.604330708661417
 20
3.33267716535433
 30
0.0
 11
2.627952755905512
 21
3.31496062992126
 31
0.0
  0
LINE
  5
382B
330
1E
100
AcDbEntity
  8
7
100
AcDbLine
 10
2.627952755905512
 20
3.31496062992126
 30
0.0
 11
2.63779527559055
 21
3.309055118110236
 31
0.0
  0
LINE
  5
382C
330
1E
100
AcDbEntity
  8
7
100
AcDbLine
 10
2.192913385826771
 20
3.65748031496063
 30
0.0
 11
2.202755905511811
 21
3.681102362204724
 31
0.0
  0
LINE
  5
382D
330
1E
100
AcDbEntity
  8
7
100
AcDbLine
 10
2.202755905511811
 20
3.681102362204724
 30
0.0
 11
2.202755905511811
 21
4.029527559055117
 31
0.0
  0
LINE
  5
382E
330
1E
100
AcDbEntity
  8
7
100
AcDbLine
 10
2.202755905511811
 20
4.029527559055117
 30
0.0
 11
2.192913385826771
 21
4.051181102362204
 31
0.0
  0
LINE
  5
382F
330
1E
100
AcDbEntity
  8
7
100
AcDbLine
 10
2.192913385826771
 20
4.051181102362204
 30
0.0
 11
2.171259842519685
 21
4.061023622047243
 31
0.0
  0
LINE
  5
3830
330
1E
100
AcDbEntity
  8
7
100
AcDbLine
 10
2.171259842519685
 20
4.061023622047243
 30
0.0
 11
2.141732283464566
 21
4.061023622047243
 31
0.0
  0
LINE
  5
3831
330
1E
100
AcDbEntity
  8
7
100
AcDbLine
 10
2.139763779527559
 20
3.649606299212599
 30
0.0
 11
2.141732283464566
 21
3.649606299212599
 31
0.0
  0
LINE
  5
3832
330
1E
100
AcDbEntity
  8
7
100
AcDbLine
 10
2.141732283464566
 20
3.649606299212599
 30
0.0
 11
2.171259842519685
 21
3.649606299212599
 31
0.0
  0
LINE
  5
3833
330
1E
100
AcDbEntity
  8
7
100
AcDbLine
 10
2.171259842519685
 20
3.649606299212599
 30
0.0
 11
2.192913385826771
 21
3.65748031496063
 31
0.0
  0
LINE
  5
3834
330
1E
100
AcDbEntity
  8
7
100
AcDbLine
 10
0.3307086614173222
 20
4.029527559055117
 30
0.0
 11
0.3307086614173222
 21
3.681102362204724
 31
0.0
  0
LINE
  5
3835
330
1E
100
AcDbEntity
  8
7
100
AcDbLine
 10
0.3307086614173222
 20
3.681102362204724
 30
0.0
 11
0.3405511811023616
 21
3.65748031496063
 31
0.0
  0
LINE
  5
3836
330
1E
100
AcDbEntity
  8
7
100
AcDbLine
 10
0.3405511811023616
 20
3.65748031496063
 30
0.0
 11
0.3622047244094486
 21
3.649606299212599
 31
0.0
  0
LINE
  5
3837
330
1E
100
AcDbEntity
  8
7
100
AcDbLine
 10
0.3622047244094486
 20
3.649606299212599
 30
0.0
 11
0.3917322834645667
 21
3.649606299212599
 31
0.0
  0
LINE
  5
3838
330
1E
100
AcDbEntity
  8
7
100
AcDbLine
 10
0.3917322834645667
 20
4.061023622047243
 30
0.0
 11
0.3622047244094486
 21
4.061023622047243
 31
0.0
  0
LINE
  5
3839
330
1E
100
AcDbEntity
  8
7
100
AcDbLine
 10
0.3622047244094486
 20
4.061023622047243
 30
0.0
 11
0.3405511811023616
 21
4.051181102362204
 31
0.0
  0
LINE
  5
383A
330
1E
100
AcDbEntity
  8
7
100
AcDbLine
 10
0.3405511811023616
 20
4.051181102362204
 30
0.0
 11
0.3307086614173222
 21
4.029527559055117
 31
0.0
  0
LINE
  5
383B
330
1E
100
AcDbEntity
  8
7
100
AcDbLine
 10
1.687007874015748
 20
4.368110236220473
 30
0.0
 11
1.687007874015748
 21
4.356299212598425
 31
0.0
  0
LINE
  5
383C
330
1E
100
AcDbEntity
  8
7
100
AcDbLine
 10
1.687007874015748
 20
4.356299212598425
 30
0.0
 11
1.687007874015748
 21
4.346456692913386
 31
0.0
  0
LINE
  5
383D
330
1E
100
AcDbEntity
  8
7
100
AcDbLine
 10
1.338582677165354
 20
4.129921259842519
 30
0.0
 11
1.458661417322834
 21
4.129921259842519
 31
0.0
  0
LINE
  5
383E
330
1E
100
AcDbEntity
  8
7
100
AcDbLine
 10
1.458661417322834
 20
4.129921259842519
 30
0.0
 11
1.480314960629921
 21
4.346456692913386
 31
0.0
  0
LINE
  5
383F
330
1E
100
AcDbEntity
  8
7
100
AcDbLine
 10
1.480314960629921
 20
4.346456692913386
 30
0.0
 11
1.482283464566929
 21
4.356299212598425
 31
0.0
  0
LINE
  5
3840
330
1E
100
AcDbEntity
  8
7
100
AcDbLine
 10
1.482283464566929
 20
4.356299212598425
 30
0.0
 11
1.482283464566929
 21
4.368110236220473
 31
0.0
  0
LINE
  5
3841
330
1E
100
AcDbEntity
  8
7
100
AcDbLine
 10
1.194881889763779
 20
4.13779527559055
 30
0.0
 11
1.338582677165354
 21
4.13779527559055
 31
0.0
  0
LINE
  5
3842
330
1E
100
AcDbEntity
  8
7
100
AcDbLine
 10
1.338582677165354
 20
4.13779527559055
 30
0.0
 11
1.338582677165354
 21
4.185039370078739
 31
0.0
  0
LINE
  5
3843
330
1E
100
AcDbEntity
  8
7
100
AcDbLine
 10
1.194881889763779
 20
4.13779527559055
 30
0.0
 11
1.194881889763779
 21
4.185039370078739
 31
0.0
  0
LINE
  5
3844
330
1E
100
AcDbEntity
  8
7
100
AcDbLine
 10
1.194881889763779
 20
4.185039370078739
 30
0.0
 11
1.338582677165354
 21
4.185039370078739
 31
0.0
  0
LINE
  5
3845
330
1E
100
AcDbEntity
  8
7
100
AcDbLine
 10
0.8464566929133855
 20
4.375984251968504
 30
0.0
 11
0.8464566929133855
 21
4.368110236220473
 31
0.0
  0
LINE
  5
3846
330
1E
100
AcDbEntity
  8
7
100
AcDbLine
 10
0.8464566929133855
 20
4.368110236220473
 30
0.0
 11
0.8464566929133855
 21
4.356299212598425
 31
0.0
  0
LINE
  5
3847
330
1E
100
AcDbEntity
  8
7
100
AcDbLine
 10
0.8464566929133855
 20
4.356299212598425
 30
0.0
 11
0.8464566929133855
 21
4.346456692913386
 31
0.0
  0
LINE
  5
3848
330
1E
100
AcDbEntity
  8
7
100
AcDbLine
 10
0.8464566929133855
 20
4.346456692913386
 30
0.0
 11
1.053149606299212
 21
4.346456692913386
 31
0.0
  0
LINE
  5
3849
330
1E
100
AcDbEntity
  8
7
100
AcDbLine
 10
1.053149606299212
 20
4.346456692913386
 30
0.0
 11
1.051181102362204
 21
4.356299212598425
 31
0.0
  0
LINE
  5
384A
330
1E
100
AcDbEntity
  8
7
100
AcDbLine
 10
1.051181102362204
 20
4.356299212598425
 30
0.0
 11
1.051181102362204
 21
4.368110236220473
 31
0.0
  0
LINE
  5
384B
330
1E
100
AcDbEntity
  8
7
100
AcDbLine
 10
0.8464566929133855
 20
4.403543307086613
 30
0.0
 11
1.051181102362204
 21
4.403543307086613
 31
0.0
  0
LINE
  5
384C
330
1E
100
AcDbEntity
  8
7
100
AcDbLine
 10
1.051181102362204
 20
4.403543307086613
 30
0.0
 11
1.053149606299212
 21
4.405511811023621
 31
0.0
  0
LINE
  5
384D
330
1E
100
AcDbEntity
  8
7
100
AcDbLine
 10
1.053149606299212
 20
4.415354330708662
 30
0.0
 11
0.8464566929133855
 21
4.415354330708662
 31
0.0
  0
LINE
  5
384E
330
1E
100
AcDbEntity
  8
7
100
AcDbLine
 10
0.8464566929133855
 20
4.415354330708662
 30
0.0
 11
0.8464566929133855
 21
4.405511811023621
 31
0.0
  0
LINE
  5
384F
330
1E
100
AcDbEntity
  8
7
100
AcDbLine
 10
1.326771653543307
 20
3.702755905511811
 30
0.0
 11
1.377952755905512
 21
3.71259842519685
 31
0.0
  0
LINE
  5
3850
330
1E
100
AcDbEntity
  8
7
100
AcDbLine
 10
1.377952755905512
 20
3.71259842519685
 30
0.0
 11
1.423228346456692
 21
3.738188976377952
 31
0.0
  0
LINE
  5
3851
330
1E
100
AcDbEntity
  8
7
100
AcDbLine
 10
1.423228346456692
 20
3.738188976377952
 30
0.0
 11
1.458661417322834
 21
3.77755905511811
 31
0.0
  0
LINE
  5
3852
330
1E
100
AcDbEntity
  8
7
100
AcDbLine
 10
1.458661417322834
 20
3.77755905511811
 30
0.0
 11
1.476377952755905
 21
3.828740157480315
 31
0.0
  0
LINE
  5
3853
330
1E
100
AcDbEntity
  8
7
100
AcDbLine
 10
1.476377952755905
 20
3.828740157480315
 30
0.0
 11
1.476377952755905
 21
3.879921259842519
 31
0.0
  0
LINE
  5
3854
330
1E
100
AcDbEntity
  8
7
100
AcDbLine
 10
1.476377952755905
 20
3.879921259842519
 30
0.0
 11
1.458661417322834
 21
3.929133858267717
 31
0.0
  0
LINE
  5
3855
330
1E
100
AcDbEntity
  8
7
100
AcDbLine
 10
1.458661417322834
 20
3.929133858267717
 30
0.0
 11
1.423228346456692
 21
3.970472440944882
 31
0.0
  0
LINE
  5
3856
330
1E
100
AcDbEntity
  8
7
100
AcDbLine
 10
1.423228346456692
 20
3.970472440944882
 30
0.0
 11
1.377952755905512
 21
3.996062992125984
 31
0.0
  0
LINE
  5
3857
330
1E
100
AcDbEntity
  8
7
100
AcDbLine
 10
1.377952755905512
 20
3.996062992125984
 30
0.0
 11
1.326771653543307
 21
4.005905511811023
 31
0.0
  0
LINE
  5
3858
330
1E
100
AcDbEntity
  8
7
100
AcDbLine
 10
1.11023622047244
 20
3.970472440944882
 30
0.0
 11
1.074803149606299
 21
3.931102362204724
 31
0.0
  0
LINE
  5
3859
330
1E
100
AcDbEntity
  8
7
100
AcDbLine
 10
1.074803149606299
 20
3.931102362204724
 30
0.0
 11
1.057086614173228
 21
3.879921259842519
 31
0.0
  0
LINE
  5
385A
330
1E
100
AcDbEntity
  8
7
100
AcDbLine
 10
1.057086614173228
 20
3.879921259842519
 30
0.0
 11
1.057086614173228
 21
3.828740157480315
 31
0.0
  0
LINE
  5
385B
330
1E
100
AcDbEntity
  8
7
100
AcDbLine
 10
1.057086614173228
 20
3.828740157480315
 30
0.0
 11
1.074803149606299
 21
3.779527559055117
 31
0.0
  0
LINE
  5
385C
330
1E
100
AcDbEntity
  8
7
100
AcDbLine
 10
1.074803149606299
 20
3.779527559055117
 30
0.0
 11
1.11023622047244
 21
3.738188976377952
 31
0.0
  0
LINE
  5
385D
330
1E
100
AcDbEntity
  8
7
100
AcDbLine
 10
1.11023622047244
 20
3.738188976377952
 30
0.0
 11
1.155511811023622
 21
3.71259842519685
 31
0.0
  0
LINE
  5
385E
330
1E
100
AcDbEntity
  8
7
100
AcDbLine
 10
1.155511811023622
 20
3.71259842519685
 30
0.0
 11
1.206692913385826
 21
3.702755905511811
 31
0.0
  0
LINE
  5
385F
330
1E
100
AcDbEntity
  8
7
100
AcDbLine
 10
1.206692913385826
 20
4.005905511811023
 30
0.0
 11
1.155511811023622
 21
3.996062992125984
 31
0.0
  0
LINE
  5
3860
330
1E
100
AcDbEntity
  8
7
100
AcDbLine
 10
1.155511811023622
 20
3.996062992125984
 30
0.0
 11
1.11023622047244
 21
3.970472440944882
 31
0.0
  0
LINE
  5
3861
330
1E
100
AcDbEntity
  8
7
100
AcDbLine
 10
1.326771653543307
 20
3.704724409448819
 30
0.0
 11
1.377952755905512
 21
3.714566929133858
 31
0.0
  0
LINE
  5
3862
330
1E
100
AcDbEntity
  8
7
100
AcDbLine
 10
1.377952755905512
 20
3.714566929133858
 30
0.0
 11
1.423228346456692
 21
3.74015748031496
 31
0.0
  0
LINE
  5
3863
330
1E
100
AcDbEntity
  8
7
100
AcDbLine
 10
1.423228346456692
 20
3.74015748031496
 30
0.0
 11
1.456692913385826
 21
3.779527559055117
 31
0.0
  0
LINE
  5
3864
330
1E
100
AcDbEntity
  8
7
100
AcDbLine
 10
1.456692913385826
 20
3.779527559055117
 30
0.0
 11
1.474409448818897
 21
3.828740157480315
 31
0.0
  0
LINE
  5
3865
330
1E
100
AcDbEntity
  8
7
100
AcDbLine
 10
1.474409448818897
 20
3.828740157480315
 30
0.0
 11
1.474409448818897
 21
3.879921259842519
 31
0.0
  0
LINE
  5
3866
330
1E
100
AcDbEntity
  8
7
100
AcDbLine
 10
1.474409448818897
 20
3.879921259842519
 30
0.0
 11
1.456692913385826
 21
3.929133858267717
 31
0.0
  0
LINE
  5
3867
330
1E
100
AcDbEntity
  8
7
100
AcDbLine
 10
1.456692913385826
 20
3.929133858267717
 30
0.0
 11
1.423228346456692
 21
3.968503937007874
 31
0.0
  0
LINE
  5
3868
330
1E
100
AcDbEntity
  8
7
100
AcDbLine
 10
1.423228346456692
 20
3.968503937007874
 30
0.0
 11
1.377952755905512
 21
3.994094488188976
 31
0.0
  0
LINE
  5
3869
330
1E
100
AcDbEntity
  8
7
100
AcDbLine
 10
1.377952755905512
 20
3.994094488188976
 30
0.0
 11
1.326771653543307
 21
4.003937007874015
 31
0.0
  0
LINE
  5
386A
330
1E
100
AcDbEntity
  8
7
100
AcDbLine
 10
1.206692913385826
 20
4.003937007874015
 30
0.0
 11
1.155511811023622
 21
3.994094488188976
 31
0.0
  0
LINE
  5
386B
330
1E
100
AcDbEntity
  8
7
100
AcDbLine
 10
1.155511811023622
 20
3.994094488188976
 30
0.0
 11
1.11023622047244
 21
3.968503937007874
 31
0.0
  0
LINE
  5
386C
330
1E
100
AcDbEntity
  8
7
100
AcDbLine
 10
1.11023622047244
 20
3.968503937007874
 30
0.0
 11
1.076771653543307
 21
3.929133858267717
 31
0.0
  0
LINE
  5
386D
330
1E
100
AcDbEntity
  8
7
100
AcDbLine
 10
1.076771653543307
 20
3.929133858267717
 30
0.0
 11
1.059055118110236
 21
3.879921259842519
 31
0.0
  0
LINE
  5
386E
330
1E
100
AcDbEntity
  8
7
100
AcDbLine
 10
1.059055118110236
 20
3.879921259842519
 30
0.0
 11
1.059055118110236
 21
3.828740157480315
 31
0.0
  0
LINE
  5
386F
330
1E
100
AcDbEntity
  8
7
100
AcDbLine
 10
1.059055118110236
 20
3.828740157480315
 30
0.0
 11
1.076771653543307
 21
3.779527559055117
 31
0.0
  0
LINE
  5
3870
330
1E
100
AcDbEntity
  8
7
100
AcDbLine
 10
1.076771653543307
 20
3.779527559055117
 30
0.0
 11
1.11023622047244
 21
3.74015748031496
 31
0.0
  0
LINE
  5
3871
330
1E
100
AcDbEntity
  8
7
100
AcDbLine
 10
1.11023622047244
 20
3.74015748031496
 30
0.0
 11
1.155511811023622
 21
3.714566929133858
 31
0.0
  0
LINE
  5
3872
330
1E
100
AcDbEntity
  8
7
100
AcDbLine
 10
1.155511811023622
 20
3.714566929133858
 30
0.0
 11
1.206692913385826
 21
3.704724409448819
 31
0.0
  0
LINE
  5
3873
330
1E
100
AcDbEntity
  8
7
100
AcDbLine
 10
1.326771653543307
 20
3.779527559055117
 30
0.0
 11
1.364173228346456
 21
3.789370078740158
 31
0.0
  0
LINE
  5
3874
330
1E
100
AcDbEntity
  8
7
100
AcDbLine
 10
1.364173228346456
 20
3.789370078740158
 30
0.0
 11
1.391732283464566
 21
3.816929133858267
 31
0.0
  0
LINE
  5
3875
330
1E
100
AcDbEntity
  8
7
100
AcDbLine
 10
1.391732283464566
 20
3.816929133858267
 30
0.0
 11
1.401574803149606
 21
3.854330708661417
 31
0.0
  0
LINE
  5
3876
330
1E
100
AcDbEntity
  8
7
100
AcDbLine
 10
1.401574803149606
 20
3.854330708661417
 30
0.0
 11
1.391732283464566
 21
3.891732283464567
 31
0.0
  0
LINE
  5
3877
330
1E
100
AcDbEntity
  8
7
100
AcDbLine
 10
1.391732283464566
 20
3.891732283464567
 30
0.0
 11
1.364173228346456
 21
3.919291338582676
 31
0.0
  0
LINE
  5
3878
330
1E
100
AcDbEntity
  8
7
100
AcDbLine
 10
1.364173228346456
 20
3.919291338582676
 30
0.0
 11
1.326771653543307
 21
3.929133858267717
 31
0.0
  0
LINE
  5
3879
330
1E
100
AcDbEntity
  8
7
100
AcDbLine
 10
1.206692913385826
 20
3.929133858267717
 30
0.0
 11
1.169291338582676
 21
3.919291338582676
 31
0.0
  0
LINE
  5
387A
330
1E
100
AcDbEntity
  8
7
100
AcDbLine
 10
1.169291338582676
 20
3.919291338582676
 30
0.0
 11
1.141732283464566
 21
3.891732283464567
 31
0.0
  0
LINE
  5
387B
330
1E
100
AcDbEntity
  8
7
100
AcDbLine
 10
1.141732283464566
 20
3.891732283464567
 30
0.0
 11
1.131889763779527
 21
3.854330708661417
 31
0.0
  0
LINE
  5
387C
330
1E
100
AcDbEntity
  8
7
100
AcDbLine
 10
1.131889763779527
 20
3.854330708661417
 30
0.0
 11
1.141732283464566
 21
3.816929133858267
 31
0.0
  0
LINE
  5
387D
330
1E
100
AcDbEntity
  8
7
100
AcDbLine
 10
1.141732283464566
 20
3.816929133858267
 30
0.0
 11
1.169291338582676
 21
3.789370078740158
 31
0.0
  0
LINE
  5
387E
330
1E
100
AcDbEntity
  8
7
100
AcDbLine
 10
1.169291338582676
 20
3.789370078740158
 30
0.0
 11
1.206692913385826
 21
3.779527559055117
 31
0.0
  0
LINE
  5
387F
330
1E
100
AcDbEntity
  8
7
100
AcDbLine
 10
1.362204724409449
 20
3.919291338582676
 30
0.0
 11
1.344488188976377
 21
3.927165354330708
 31
0.0
  0
LINE
  5
3880
330
1E
100
AcDbEntity
  8
7
100
AcDbLine
 10
1.344488188976377
 20
3.927165354330708
 30
0.0
 11
1.326771653543307
 21
3.929133858267717
 31
0.0
  0
LINE
  5
3881
330
1E
100
AcDbEntity
  8
7
100
AcDbLine
 10
1.206692913385826
 20
3.929133858267717
 30
0.0
 11
1.188976377952755
 21
3.927165354330708
 31
0.0
  0
LINE
  5
3882
330
1E
100
AcDbEntity
  8
7
100
AcDbLine
 10
1.188976377952755
 20
3.927165354330708
 30
0.0
 11
1.171259842519685
 21
3.919291338582676
 31
0.0
  0
LINE
  5
3883
330
1E
100
AcDbEntity
  8
7
100
AcDbLine
 10
1.362204724409449
 20
3.921259842519686
 30
0.0
 11
1.171259842519685
 21
3.921259842519686
 31
0.0
  0
LINE
  5
3884
330
1E
100
AcDbEntity
  8
7
100
AcDbLine
 10
1.171259842519685
 20
3.921259842519686
 30
0.0
 11
1.161417322834645
 21
3.915354330708662
 31
0.0
  0
LINE
  5
3885
330
1E
100
AcDbEntity
  8
7
100
AcDbLine
 10
1.372047244094487
 20
3.79527559055118
 30
0.0
 11
1.39763779527559
 21
3.83267716535433
 31
0.0
  0
LINE
  5
3886
330
1E
100
AcDbEntity
  8
7
100
AcDbLine
 10
1.39763779527559
 20
3.83267716535433
 30
0.0
 11
1.39763779527559
 21
3.875984251968504
 31
0.0
  0
LINE
  5
3887
330
1E
100
AcDbEntity
  8
7
100
AcDbLine
 10
1.39763779527559
 20
3.875984251968504
 30
0.0
 11
1.372047244094487
 21
3.913385826771654
 31
0.0
  0
LINE
  5
3888
330
1E
100
AcDbEntity
  8
7
100
AcDbLine
 10
1.326771653543307
 20
3.779527559055117
 30
0.0
 11
1.344488188976377
 21
3.781496062992126
 31
0.0
  0
LINE
  5
3889
330
1E
100
AcDbEntity
  8
7
100
AcDbLine
 10
1.344488188976377
 20
3.781496062992126
 30
0.0
 11
1.362204724409449
 21
3.789370078740158
 31
0.0
  0
LINE
  5
388A
330
1E
100
AcDbEntity
  8
7
100
AcDbLine
 10
1.171259842519685
 20
3.789370078740158
 30
0.0
 11
1.188976377952755
 21
3.781496062992126
 31
0.0
  0
LINE
  5
388B
330
1E
100
AcDbEntity
  8
7
100
AcDbLine
 10
1.188976377952755
 20
3.781496062992126
 30
0.0
 11
1.206692913385826
 21
3.779527559055117
 31
0.0
  0
LINE
  5
388C
330
1E
100
AcDbEntity
  8
7
100
AcDbLine
 10
1.161417322834645
 20
3.913385826771654
 30
0.0
 11
1.135826771653543
 21
3.875984251968504
 31
0.0
  0
LINE
  5
388D
330
1E
100
AcDbEntity
  8
7
100
AcDbLine
 10
1.135826771653543
 20
3.875984251968504
 30
0.0
 11
1.135826771653543
 21
3.83267716535433
 31
0.0
  0
ENDSEC
  0
SECTION
  2
OBJECTS
  0
DICTIONARY
  5
C
330
0
100
AcDbDictionary
  3
ACAD_GROUP
350
D
  3
ACAD_LAYOUT
350
19
  3
ACAD_MLINESTYLE
350
16
  3
ACAD_PLOTSETTINGS
350
18
1001
ACAD
1000
TREAT_AS_HARD
1070
     0
  0
DICTIONARY
  5
4855
330
1E
100
AcDbDictionary
  3
ACAD_LAYOUTSELFREF
350
48DE
1001
ACAD
1000
TREAT_AS_HARD
1070
     1
  0
DICTIONARY
  5
4857
330
1A
100
AcDbDictionary
  3
ACAD_LAYOUTSELFREF
350
48DD
1001
ACAD
1000
TREAT_AS_HARD
1070
     1
  0
DICTIONARY
  5
D
102
{ACAD_REACTORS
330
C
102
}
330
C
100
AcDbDictionary
1001
ACAD
1000
TREAT_AS_HARD
1070
     0
  0
DICTIONARY
  5
19
102
{ACAD_REACTORS
330
C
102
}
330
C
100
AcDbDictionary
1001
ACAD
1000
TREAT_AS_HARD
1070
     0
  0
DICTIONARY
  5
16
102
{ACAD_REACTORS
330
C
102
}
330
C
100
AcDbDictionary
  3
STANDARD
350
17
1001
ACAD
1000
TREAT_AS_HARD
1070
     0
  0
DICTIONARY
  5
18
102
{ACAD_REACTORS
330
C
102
}
330
C
100
AcDbDictionary
1001
ACAD
1000
TREAT_AS_HARD
1070
     0
  0
XRECORD
  5
48DE
102
{ACAD_REACTORS
330
4855
102
}
330
4855
100
AcDbXrecord
340
1E
  0
XRECORD
  5
48DD
102
{ACAD_REACTORS
330
4857
102
}
330
4857
100
AcDbXrecord
340
1A
  0
MLINESTYLE
  5
17
102
{ACAD_REACTORS
330
16
102
}
330
16
100
AcDbMlineStyle
  2
STANDARD
 70
     0
  3

 62
   256
 51
90.0
 52
90.0
 71
     2
 49
0.5
 62
   256
  6
BYLAYER
 49
-0.5
 62
   256
  6
BYLAYER
  0
ENDSEC
  0
EOF
