  0
SECTION
  2
HEADER
  9
$ACADVER
  1
AC1014
  9
$ACADMAINTVER
 70
     9
  9
$DWGCODEPAGE
  3
ANSI_1252
  9
$INSBASE
 10
0.0
 20
0.0
 30
0.0
  9
$EXTMIN
 10
3.181332155651578
 20
3.413050174713134
 30
0.0
  9
$EXTMAX
 10
6.219397544860839
 20
6.470733621921233
 30
0.0
  9
$LIMMIN
 10
-0.5
 20
-0.5
  9
$LIMMAX
 10
5.0
 20
5.0
  9
$ORTHOMODE
 70
     0
  9
$REGENMODE
 70
     1
  9
$FILLMODE
 70
     1
  9
$QTEXTMODE
 70
     0
  9
$MIRRTEXT
 70
     1
  9
$DRAGMODE
 70
     2
  9
$LTSCALE
 40
1.0
  9
$OSMODE
 70
   261
  9
$ATTMODE
 70
     1
  9
$TEXTSIZE
 40
0.0
  9
$TRACEWID
 40
0.05
  9
$TEXTSTYLE
  7
STANDARD
  9
$CLAYER
  8
0
  9
$CELTYPE
  6
CONTINUOUS
  9
$CECOLOR
 62
   256
  9
$CELTSCALE
 40
1.0
  9
$DELOBJ
 70
     1
  9
$DISPSILH
 70
     0
  9
$DIMSCALE
 40
1.0
  9
$DIMASZ
 40
0.18
  9
$DIMEXO
 40
0.0625
  9
$DIMDLI
 40
0.38
  9
$DIMRND
 40
0.0
  9
$DIMDLE
 40
0.0
  9
$DIMEXE
 40
0.18
  9
$DIMTP
 40
0.0
  9
$DIMTM
 40
0.0
  9
$DIMTXT
 40
0.18
  9
$DIMCEN
 40
0.09
  9
$DIMTSZ
 40
0.0
  9
$DIMTOL
 70
     0
  9
$DIMLIM
 70
     0
  9
$DIMTIH
 70
     1
  9
$DIMTOH
 70
     1
  9
$DIMSE1
 70
     0
  9
$DIMSE2
 70
     0
  9
$DIMTAD
 70
     0
  9
$DIMZIN
 70
     0
  9
$DIMBLK
  1

  9
$DIMASO
 70
     1
  9
$DIMSHO
 70
     1
  9
$DIMPOST
  1

  9
$DIMAPOST
  1

  9
$DIMALT
 70
     0
  9
$DIMALTD
 70
     2
  9
$DIMALTF
 40
25.4
  9
$DIMLFAC
 40
1.0
  9
$DIMTOFL
 70
     0
  9
$DIMTVP
 40
0.0
  9
$DIMTIX
 70
     0
  9
$DIMSOXD
 70
     0
  9
$DIMSAH
 70
     0
  9
$DIMBLK1
  1

  9
$DIMBLK2
  1

  9
$DIMSTYLE
  2
STANDARD
  9
$DIMCLRD
 70
     0
  9
$DIMCLRE
 70
     0
  9
$DIMCLRT
 70
     0
  9
$DIMTFAC
 40
1.0
  9
$DIMGAP
 40
0.09
  9
$DIMJUST
 70
     0
  9
$DIMSD1
 70
     0
  9
$DIMSD2
 70
     0
  9
$DIMTOLJ
 70
     1
  9
$DIMTZIN
 70
     0
  9
$DIMALTZ
 70
     0
  9
$DIMALTTZ
 70
     0
  9
$DIMFIT
 70
     3
  9
$DIMUPT
 70
     0
  9
$DIMUNIT
 70
     2
  9
$DIMDEC
 70
     4
  9
$DIMTDEC
 70
     4
  9
$DIMALTU
 70
     2
  9
$DIMALTTD
 70
     2
  9
$DIMTXSTY
  7
STANDARD
  9
$DIMAUNIT
 70
     0
  9
$LUNITS
 70
     2
  9
$LUPREC
 70
     4
  9
$SKETCHINC
 40
0.1
  9
$FILLETRAD
 40
0.0
  9
$AUNITS
 70
     0
  9
$AUPREC
 70
     0
  9
$MENU
  1
acad
  9
$ELEVATION
 40
0.0
  9
$PELEVATION
 40
0.0
  9
$THICKNESS
 40
0.0
  9
$LIMCHECK
 70
     0
  9
$BLIPMODE
 70
     0
  9
$CHAMFERA
 40
0.0
  9
$CHAMFERB
 40
0.0
  9
$CHAMFERC
 40
0.0
  9
$CHAMFERD
 40
0.0
  9
$SKPOLY
 70
     0
  9
$TDCREATE
 40
2452691.698722997
  9
$TDUPDATE
 40
2452793.533706967
  9
$TDINDWG
 40
0.0025359722
  9
$TDUSRTIMER
 40
0.0025359722
  9
$USRTIMER
 70
     1
  9
$ANGBASE
 50
0.0
  9
$ANGDIR
 70
     0
  9
$PDMODE
 70
     0
  9
$PDSIZE
 40
0.0
  9
$PLINEWID
 40
0.0
  9
$COORDS
 70
     1
  9
$SPLFRAME
 70
     0
  9
$SPLINETYPE
 70
     6
  9
$SPLINESEGS
 70
     8
  9
$ATTDIA
 70
     0
  9
$ATTREQ
 70
     1
  9
$HANDLING
 70
  4097
  9
$HANDSEED
  5
4CC
  9
$SURFTAB1
 70
     6
  9
$SURFTAB2
 70
     6
  9
$SURFTYPE
 70
     6
  9
$SURFU
 70
     6
  9
$SURFV
 70
     6
  9
$UCSNAME
  2

  9
$UCSORG
 10
0.0
 20
0.0
 30
0.0
  9
$UCSXDIR
 10
1.0
 20
0.0
 30
0.0
  9
$UCSYDIR
 10
0.0
 20
1.0
 30
0.0
  9
$PUCSNAME
  2

  9
$PUCSORG
 10
0.0
 20
0.0
 30
0.0
  9
$PUCSXDIR
 10
1.0
 20
0.0
 30
0.0
  9
$PUCSYDIR
 10
0.0
 20
1.0
 30
0.0
  9
$USERI1
 70
     0
  9
$USERI2
 70
     0
  9
$USERI3
 70
     0
  9
$USERI4
 70
     0
  9
$USERI5
 70
     0
  9
$USERR1
 40
0.0
  9
$USERR2
 40
0.0
  9
$USERR3
 40
0.0
  9
$USERR4
 40
0.0
  9
$USERR5
 40
0.0
  9
$WORLDVIEW
 70
     1
  9
$SHADEDGE
 70
     3
  9
$SHADEDIF
 70
    70
  9
$TILEMODE
 70
     1
  9
$MAXACTVP
 70
    16
  9
$PINSBASE
 10
0.0
 20
0.0
 30
0.0
  9
$PLIMCHECK
 70
     0
  9
$PEXTMIN
 10
1.000000000000000E+20
 20
1.000000000000000E+20
 30
1.000000000000000E+20
  9
$PEXTMAX
 10
-1.000000000000000E+20
 20
-1.000000000000000E+20
 30
-1.000000000000000E+20
  9
$PLIMMIN
 10
-0.1979161059762549
 20
-0.2112499935420479
  9
$PLIMMAX
 10
10.80208365372785
 20
8.288749766162061
  9
$UNITMODE
 70
     0
  9
$VISRETAIN
 70
     0
  9
$PLINEGEN
 70
     1
  9
$PSLTSCALE
 70
     0
  9
$TREEDEPTH
 70
  3020
  9
$PICKSTYLE
 70
     1
  9
$CMLSTYLE
  2
STANDARD
  9
$CMLJUST
 70
     0
  9
$CMLSCALE
 40
1.0
  9
$PROXYGRAPHICS
 70
     0
  9
$MEASUREMENT
 70
     0
  0
ENDSEC
  0
SECTION
  2
CLASSES
  0
CLASS
  1
LWPOLYLINE
  2
AcDbPolyline
  3
AutoCAD 2000
 90
        0
280
     0
281
     1
  0
CLASS
  1
IMAGE
  2
AcDbRasterImage
  3
ISM
 90
      127
280
     0
281
     1
  0
CLASS
  1
OLE2FRAME
  2
AcDbOle2Frame
  3
AutoCAD 2000
 90
        0
280
     0
281
     1
  0
CLASS
  1
HATCH
  2
AcDbHatch
  3
AutoCAD 2000
 90
        0
280
     0
281
     1
  0
CLASS
  1
DICTIONARYVAR
  2
AcDbDictionaryVar
  3
AutoCAD 2000
 90
        0
280
     0
281
     0
  0
CLASS
  1
RASTERVARIABLES
  2
AcDbRasterVariables
  3
ISM
 90
        0
280
     0
281
     0
  0
CLASS
  1
IMAGEDEF
  2
AcDbRasterImageDef
  3
ISM
 90
        0
280
     0
281
     0
  0
CLASS
  1
IMAGEDEF_REACTOR
  2
AcDbRasterImageDefReactor
  3
ISM
 90
        1
280
     0
281
     0
  0
CLASS
  1
IDBUFFER
  2
AcDbIdBuffer
  3
AutoCAD 2000
 90
        0
280
     0
281
     0
  0
CLASS
  1
SPATIAL_FILTER
  2
AcDbSpatialFilter
  3
AutoCAD 2000
 90
        0
280
     0
281
     0
  0
CLASS
  1
XRECORD
  2
AcDbXrecord
  3
AutoCAD 2000
 90
        0
280
     0
281
     0
  0
CLASS
  1
SORTENTSTABLE
  2
AcDbSortentsTable
  3
AutoCAD 2000
 90
        0
280
     0
281
     0
  0
CLASS
  1
LAYER_INDEX
  2
AcDbLayerIndex
  3
AutoCAD 2000
 90
        0
280
     0
281
     0
  0
CLASS
  1
SPATIAL_INDEX
  2
AcDbSpatialIndex
  3
AutoCAD 2000
 90
        0
280
     0
281
     0
  0
CLASS
  1
OBJECT_PTR
  2
CAseDLPNTableRecord
  3
ASE-LPNTableRecord
 90
        1
280
     0
281
     0
  0
CLASS
  1
LAYOUT
  2
AcDbLayout
  3
AutoCAD 2000
 90
        0
280
     0
281
     0
  0
CLASS
  1
PLOTSETTINGS
  2
AcDbPlotSettings
  3
AutoCAD 2000
 90
        0
280
     0
281
     0
  0
CLASS
  1
ACDBDICTIONARYWDFLT
  2
AcDbDictionaryWithDefault
  3
AutoCAD 2000
 90
        0
280
     0
281
     0
  0
CLASS
  1
ACDBPLACEHOLDER
  2
AcDbPlaceHolder
  3
AutoCAD 2000
 90
        0
280
     0
281
     0
  0
CLASS
  1
VBA_PROJECT
  2
AcDbVbaProject
  3
acadvba
 90
        0
280
     0
281
     0
  0
CLASS
  1
RTEXT
  2
RText
  3
RText|AutoCAD Express Tool|expresstools@autodesk.com
 90
        0
280
     0
281
     1
  0
CLASS
  1
ARCALIGNEDTEXT
  2
AcDbArcAlignedText
  3
ATEXT|AutoCAD Express Tool|expresstools@autodesk.com
 90
        0
280
     0
281
     1
  0
CLASS
  1
LONG_TRANSACTION
  2
AcDbLongTransaction
  3
AutoCAD 2000
 90
        0
280
     0
281
     0
  0
CLASS
  1
LWPOLYLINE
  2
AcDbPolyline
  3
AutoCAD 2000
 90
        0
280
     0
281
     1
  0
CLASS
  1
HATCH
  2
AcDbHatch
  3
AutoCAD 2000
 90
        0
280
     0
281
     1
  0
CLASS
  1
XRECORD
  2
AcDbXrecord
  3
AutoCAD 2000
 90
        0
280
     0
281
     0
  0
ENDSEC
  0
SECTION
  2
TABLES
  0
TABLE
  2
VPORT
  5
7
330
0
100
AcDbSymbolTable
 70
    18
  0
VPORT
  5
47D
330
7
100
AcDbSymbolTableRecord
100
AcDbViewportTableRecord
  2
L1
 70
     0
 10
0.0
 20
0.0
 11
1.0
 21
1.0
 12
0.0
 22
0.0
 13
0.0
 23
0.0
 14
1.0
 24
1.0
 15
0.0
 25
0.0
 16
0.0
 26
0.0
 36
1.0
 17
0.0
 27
0.0
 37
0.0
 40
7.926304133858266
 41
0.688564
 42
50.0
 43
22.86983526390032
 44
-22.86983526390032
 50
0.0
 51
0.0
 71
    16
 72
   100
 73
     1
 74
     1
 75
     0
 76
     0
 77
     0
 78
     0
  0
VPORT
  5
47E
330
7
100
AcDbSymbolTableRecord
100
AcDbViewportTableRecord
  2
L2
 70
     0
 10
0.0
 20
0.0
 11
0.5
 21
1.0
 12
0.0
 22
0.0
 13
0.0
 23
0.0
 14
1.0
 24
1.0
 15
0.0
 25
0.0
 16
0.0
 26
-1.0
 36
0.0
 17
0.0
 27
0.0
 37
0.0
 40
45.73967052780065
 41
0.688564
 42
50.0
 43
23.44633426093276
 44
-23.44633426093276
 50
0.0
 51
0.0
 71
    16
 72
   100
 73
     1
 74
     1
 75
     0
 76
     0
 77
     0
 78
     0
  0
VPORT
  5
47F
330
7
100
AcDbSymbolTableRecord
100
AcDbViewportTableRecord
  2
L2
 70
     0
 10
0.5
 20
0.0
 11
1.0
 21
1.0
 12
0.0
 22
0.0
 13
0.0
 23
0.0
 14
1.0
 24
1.0
 15
0.0
 25
0.0
 16
1.0
 26
0.0
 36
0.0
 17
0.0
 27
0.0
 37
0.0
 40
45.73967052780065
 41
0.688564
 42
50.0
 43
23.21068588610736
 44
-23.21068588610736
 50
0.0
 51
0.0
 71
    16
 72
   100
 73
     1
 74
     1
 75
     0
 76
     0
 77
     0
 78
     0
  0
VPORT
  5
480
330
7
100
AcDbSymbolTableRecord
100
AcDbViewportTableRecord
  2
L3
 70
     0
 10
0.0
 20
0.5
 11
1.0
 21
1.0
 12
0.0
 22
0.0
 13
0.0
 23
0.0
 14
1.0
 24
1.0
 15
0.0
 25
0.0
 16
0.0
 26
0.0
 36
1.0
 17
0.0
 27
0.0
 37
0.0
 40
7.926304133858266
 41
0.688564
 42
50.0
 43
22.86983526390032
 44
-22.86983526390032
 50
0.0
 51
0.0
 71
    16
 72
   100
 73
     1
 74
     1
 75
     0
 76
     0
 77
     0
 78
     0
  0
VPORT
  5
481
330
7
100
AcDbSymbolTableRecord
100
AcDbViewportTableRecord
  2
L3
 70
     0
 10
0.0
 20
0.0
 11
1.0
 21
0.5
 12
0.0
 22
0.0
 13
0.0
 23
0.0
 14
1.0
 24
1.0
 15
0.0
 25
0.0
 16
0.0
 26
-1.0
 36
0.0
 17
0.0
 27
0.0
 37
0.0
 40
45.73967052780065
 41
0.688564
 42
50.0
 43
23.44633426093276
 44
-23.44633426093276
 50
0.0
 51
0.0
 71
    16
 72
   100
 73
     1
 74
     1
 75
     0
 76
     0
 77
     0
 78
     0
  0
VPORT
  5
482
330
7
100
AcDbSymbolTableRecord
100
AcDbViewportTableRecord
  2
L4
 70
     0
 10
0.0
 20
0.5
 11
0.5
 21
1.0
 12
0.0
 22
0.0
 13
0.0
 23
0.0
 14
1.0
 24
1.0
 15
0.0
 25
0.0
 16
0.0
 26
0.0
 36
1.0
 17
0.0
 27
0.0
 37
0.0
 40
7.926304133858266
 41
0.688564
 42
50.0
 43
22.86983526390032
 44
-22.86983526390032
 50
0.0
 51
0.0
 71
    16
 72
   100
 73
     1
 74
     1
 75
     0
 76
     0
 77
     0
 78
     0
  0
VPORT
  5
483
330
7
100
AcDbSymbolTableRecord
100
AcDbViewportTableRecord
  2
L4
 70
     0
 10
0.0
 20
0.0
 11
0.5
 21
0.5
 12
0.0
 22
0.0
 13
0.0
 23
0.0
 14
1.0
 24
1.0
 15
0.0
 25
0.0
 16
0.0
 26
-1.0
 36
0.0
 17
0.0
 27
0.0
 37
0.0
 40
45.73967052780065
 41
0.688564
 42
50.0
 43
23.44633426093276
 44
-23.44633426093276
 50
0.0
 51
0.0
 71
    16
 72
   100
 73
     1
 74
     1
 75
     0
 76
     0
 77
     0
 78
     0
  0
VPORT
  5
484
330
7
100
AcDbSymbolTableRecord
100
AcDbViewportTableRecord
  2
L4
 70
     0
 10
0.5
 20
0.0
 11
1.0
 21
0.5
 12
0.0
 22
0.0
 13
0.0
 23
0.0
 14
1.0
 24
1.0
 15
0.0
 25
0.0
 16
1.0
 26
0.0
 36
0.0
 17
0.0
 27
0.0
 37
0.0
 40
45.73967052780065
 41
0.688564
 42
50.0
 43
23.21068588610736
 44
-23.21068588610736
 50
0.0
 51
0.0
 71
    16
 72
   100
 73
     1
 74
     1
 75
     0
 76
     0
 77
     0
 78
     0
  0
VPORT
  5
485
330
7
100
AcDbSymbolTableRecord
100
AcDbViewportTableRecord
  2
L4
 70
     0
 10
0.5
 20
0.5
 11
1.0
 21
1.0
 12
0.0
 22
0.0
 13
0.0
 23
0.0
 14
1.0
 24
1.0
 15
0.0
 25
0.0
 16
0.5773502691896259
 26
-0.5773502691896259
 36
0.5773502691896259
 17
0.0
 27
0.0
 37
0.0
 40
44.80128613809216
 41
0.688564
 42
50.0
 43
23.31247725727461
 44
-23.31247725727461
 50
0.0
 51
0.0
 71
    16
 72
   100
 73
     1
 74
     1
 75
     0
 76
     0
 77
     0
 78
     0
  0
VPORT
  5
486
330
7
100
AcDbSymbolTableRecord
100
AcDbViewportTableRecord
  2
L6
 70
     0
 10
0.0
 20
0.5
 11
0.3333333333333334
 21
1.0
 12
0.0
 22
0.0
 13
0.0
 23
0.0
 14
1.0
 24
1.0
 15
0.0
 25
0.0
 16
0.7188730927569434
 26
-0.5850486126764432
 36
0.3754192287502549
 17
0.0
 27
0.0
 37
0.0
 40
47.28156778779488
 41
0.688564
 42
50.0
 43
24.4750051625393
 44
-24.4750051625393
 50
0.0
 51
0.0
 71
    16
 72
   100
 73
     1
 74
     1
 75
     0
 76
     0
 77
     0
 78
     0
  0
VPORT
  5
487
330
7
100
AcDbSymbolTableRecord
100
AcDbViewportTableRecord
  2
L6
 70
     0
 10
0.0
 20
0.0
 11
0.3333333333333334
 21
0.5
 12
0.0
 22
0.0
 13
0.0
 23
0.0
 14
1.0
 24
1.0
 15
0.0
 25
0.0
 16
-1.0
 26
0.0
 36
0.0
 17
0.0
 27
0.0
 37
0.0
 40
45.73967052780065
 41
0.688564
 42
50.0
 43
23.21068588610736
 44
-23.21068588610736
 50
0.0
 51
0.0
 71
    16
 72
   100
 73
     1
 74
     1
 75
     0
 76
     0
 77
     0
 78
     0
  0
VPORT
  5
488
330
7
100
AcDbSymbolTableRecord
100
AcDbViewportTableRecord
  2
L6
 70
     0
 10
0.3333333333333334
 20
0.5
 11
0.6666666666666666
 21
1.0
 12
0.0
 22
0.0
 13
0.0
 23
0.0
 14
1.0
 24
1.0
 15
0.0
 25
0.0
 16
0.0
 26
0.0
 36
1.0
 17
0.0
 27
0.0
 37
0.0
 40
7.926304133858266
 41
0.688564
 42
50.0
 43
22.86983526390032
 44
-22.86983526390032
 50
0.0
 51
0.0
 71
    16
 72
   100
 73
     1
 74
     1
 75
     0
 76
     0
 77
     0
 78
     0
  0
VPORT
  5
489
330
7
100
AcDbSymbolTableRecord
100
AcDbViewportTableRecord
  2
L6
 70
     0
 10
0.3333333333333334
 20
0.0
 11
0.6666666666666666
 21
0.5
 12
0.0
 22
0.0
 13
0.0
 23
0.0
 14
1.0
 24
1.0
 15
0.0
 25
0.0
 16
0.0
 26
-1.0
 36
0.0
 17
0.0
 27
0.0
 37
0.0
 40
45.73967052780065
 41
0.688564
 42
50.0
 43
23.44633426093276
 44
-23.44633426093276
 50
0.0
 51
0.0
 71
    16
 72
   100
 73
     1
 74
     1
 75
     0
 76
     0
 77
     0
 78
     0
  0
VPORT
  5
48A
330
7
100
AcDbSymbolTableRecord
100
AcDbViewportTableRecord
  2
L6
 70
     0
 10
0.6666666666666666
 20
0.5
 11
1.0
 21
1.0
 12
0.0
 22
0.0
 13
0.0
 23
0.0
 14
1.0
 24
1.0
 15
0.0
 25
0.0
 16
0.5773502691896259
 26
-0.5773502691896259
 36
0.5773502691896259
 17
0.0
 27
0.0
 37
0.0
 40
44.80128613809216
 41
0.688564
 42
50.0
 43
23.31247725727461
 44
-23.31247725727461
 50
0.0
 51
0.0
 71
    16
 72
   100
 73
     1
 74
     1
 75
     0
 76
     0
 77
     0
 78
     0
  0
VPORT
  5
48B
330
7
100
AcDbSymbolTableRecord
100
AcDbViewportTableRecord
  2
L6
 70
     0
 10
0.6666666666666666
 20
0.0
 11
1.0
 21
0.5
 12
0.0
 22
0.0
 13
0.0
 23
0.0
 14
1.0
 24
1.0
 15
0.0
 25
0.0
 16
1.0
 26
0.0
 36
0.0
 17
0.0
 27
0.0
 37
0.0
 40
45.73967052780065
 41
0.688564
 42
50.0
 43
23.21068588610736
 44
-23.21068588610736
 50
0.0
 51
0.0
 71
    16
 72
   100
 73
     1
 74
     1
 75
     0
 76
     0
 77
     0
 78
     0
  0
VPORT
  5
4A6
330
7
100
AcDbSymbolTableRecord
100
AcDbViewportTableRecord
  2
*ACTIVE
 70
     0
 10
0.0
 20
0.0
 11
1.0
 21
1.0
 12
4.700351730746162
 22
4.966749402467757
 13
0.0
 23
0.0
 14
1.0
 24
1.0
 15
0.0
 25
0.0
 16
0.0
 26
0.0
 36
1.0
 17
0.0
 27
0.0
 37
0.0
 40
3.130776810729296
 41
1.507955936352509
 42
50.0
 43
22.86983526390032
 44
-22.86983526390032
 50
0.0
 51
0.0
 71
    16
 72
   100
 73
     1
 74
     1
 75
     0
 76
     0
 77
     0
 78
     0
  0
ENDTAB
  0
TABLE
  2
LTYPE
  5
4
330
0
100
AcDbSymbolTable
 70
     7
  0
LTYPE
  5
11
330
4
100
AcDbSymbolTableRecord
100
AcDbLinetypeTableRecord
  2
BYBLOCK
 70
     0
  3

 72
    65
 73
     0
 40
0.0
  0
LTYPE
  5
12
330
4
100
AcDbSymbolTableRecord
100
AcDbLinetypeTableRecord
  2
BYLAYER
 70
     0
  3

 72
    65
 73
     0
 40
0.0
  0
LTYPE
  5
13
330
4
100
AcDbSymbolTableRecord
100
AcDbLinetypeTableRecord
  2
CONTINUOUS
 70
     0
  3
Solid line
 72
    65
 73
     0
 40
0.0
  0
LTYPE
  5
22
330
4
100
AcDbSymbolTableRecord
100
AcDbLinetypeTableRecord
  2
DASHED
 70
     0
  3
__ __ __ __ __ __ __ __ __
 72
    65
 73
     2
 40
0.75
 49
0.5
 74
     0
 49
-0.25
 74
     0
  0
LTYPE
  5
23
330
4
100
AcDbSymbolTableRecord
100
AcDbLinetypeTableRecord
  2
HIDDEN
 70
     0
  3
_ _ _ _ _ _ _ _ _ _ _ _ _ _ _
 72
    65
 73
     2
 40
0.5
 49
0.25
 74
     0
 49
-0.25
 74
     0
  0
LTYPE
  5
24
330
4
100
AcDbSymbolTableRecord
100
AcDbLinetypeTableRecord
  2
PHANTOM
 70
     0
  3
____ _ _ ____ _ _ _____ _ _ ____
 72
    65
 73
     6
 40
2.5
 49
1.25
 74
     0
 49
-0.25
 74
     0
 49
0.25
 74
     0
 49
-0.25
 74
     0
 49
0.25
 74
     0
 49
-0.25
 74
     0
  0
LTYPE
  5
25
330
4
100
AcDbSymbolTableRecord
100
AcDbLinetypeTableRecord
  2
CENTER
 70
     0
  3
____ _ ____ _ ____ _ ____
 72
    65
 73
     4
 40
2.0
 49
1.25
 74
     0
 49
-0.25
 74
     0
 49
0.25
 74
     0
 49
-0.25
 74
     0
  0
LTYPE
  5
26
330
4
100
AcDbSymbolTableRecord
100
AcDbLinetypeTableRecord
  2
DOT
 70
     0
  3
.........................
 72
    65
 73
     2
 40
0.25
 49
0.0
 74
     0
 49
-0.25
 74
     0
  0
LTYPE
  5
27
330
4
100
AcDbSymbolTableRecord
100
AcDbLinetypeTableRecord
  2
DASHDOT
 70
     0
  3
_._._._._._._._._._._._._._._._.
 72
    65
 73
     4
 40
1.0
 49
0.5
 74
     0
 49
-0.25
 74
     0
 49
0.0
 74
     0
 49
-0.25
 74
     0
  0
ENDTAB
  0
TABLE
  2
LAYER
  5
2
330
0
100
AcDbSymbolTable
 70
     3
  0
LAYER
  5
14
330
2
100
AcDbSymbolTableRecord
100
AcDbLayerTableRecord
  2
0
 70
     0
 62
     7
  6
CONTINUOUS
  0
LAYER
  5
29
330
2
100
AcDbSymbolTableRecord
100
AcDbLayerTableRecord
  2
1
 70
     0
 62
     7
  6
CONTINUOUS
  0
LAYER
  5
2A
330
2
100
AcDbSymbolTableRecord
100
AcDbLayerTableRecord
  2
TOP
 70
     0
 62
     7
  6
CONTINUOUS
  0
ENDTAB
  0
TABLE
  2
STYLE
  5
3
330
0
100
AcDbSymbolTable
 70
     1
  0
STYLE
  5
17
330
3
100
AcDbSymbolTableRecord
100
AcDbTextStyleTableRecord
  2
STANDARD
 70
     0
 40
0.0
 41
1.0
 50
0.0
 71
     0
 42
0.0
  3
txt
  4

  0
ENDTAB
  0
TABLE
  2
VIEW
  5
5
330
0
100
AcDbSymbolTable
 70
     8
  0
VIEW
  5
474
330
5
100
AcDbSymbolTableRecord
100
AcDbViewTableRecord
  2
TOP
 70
     0
 40
7.926304133858266
 10
0.0
 20
0.0
 41
10.33464566929133
 11
0.0
 21
0.0
 31
1.0
 12
0.0
 22
0.0
 32
0.0
 42
50.0
 43
22.86983526390032
 44
-22.86983526390032
 50
0.0
 71
    16
  0
VIEW
  5
475
330
5
100
AcDbSymbolTableRecord
100
AcDbViewTableRecord
  2
FRONT
 70
     0
 40
45.73967052780065
 10
0.0
 20
0.0
 41
10.33464566929133
 11
0.0
 21
-1.0
 31
0.0
 12
0.0
 22
0.0
 32
0.0
 42
50.0
 43
23.44633426093276
 44
-23.44633426093276
 50
0.0
 71
    16
  0
VIEW
  5
476
330
5
100
AcDbSymbolTableRecord
100
AcDbViewTableRecord
  2
RIGHT
 70
     0
 40
45.73967052780065
 10
0.0
 20
0.0
 41
7.926304133858266
 11
1.0
 21
0.0
 31
0.0
 12
0.0
 22
0.0
 32
0.0
 42
50.0
 43
23.21068588610736
 44
-23.21068588610736
 50
0.0
 71
    16
  0
VIEW
  5
477
330
5
100
AcDbSymbolTableRecord
100
AcDbViewTableRecord
  2
BACK
 70
     0
 40
45.73967052780065
 10
0.0
 20
0.0
 41
10.33464566929133
 11
0.0
 21
1.0
 31
0.0
 12
0.0
 22
0.0
 32
0.0
 42
50.0
 43
23.44633426093276
 44
-23.44633426093276
 50
0.0
 71
    16
  0
VIEW
  5
478
330
5
100
AcDbSymbolTableRecord
100
AcDbViewTableRecord
  2
BOTTOM
 70
     0
 40
7.926304133858266
 10
0.0
 20
0.0
 41
10.33464566929133
 11
0.0
 21
0.0
 31
-1.0
 12
0.0
 22
0.0
 32
0.0
 42
50.0
 43
22.86983526390032
 44
-22.86983526390032
 50
180.0
 71
    16
  0
VIEW
  5
479
330
5
100
AcDbSymbolTableRecord
100
AcDbViewTableRecord
  2
LEFT
 70
     0
 40
45.73967052780065
 10
0.0
 20
0.0
 41
7.926304133858266
 11
-1.0
 21
0.0
 31
0.0
 12
0.0
 22
0.0
 32
0.0
 42
50.0
 43
23.21068588610736
 44
-23.21068588610736
 50
0.0
 71
    16
  0
VIEW
  5
47A
330
5
100
AcDbSymbolTableRecord
100
AcDbViewTableRecord
  2
TFR-ISO
 70
     0
 40
44.80128613809216
 10
0.0
 20
0.0
 41
12.91244143671423
 11
0.5773502691896259
 21
-0.5773502691896259
 31
0.5773502691896259
 12
0.0
 22
0.0
 32
0.0
 42
50.0
 43
23.31247725727461
 44
-23.31247725727461
 50
0.0
 71
    16
  0
VIEW
  5
47B
330
5
100
AcDbSymbolTableRecord
100
AcDbViewTableRecord
  2
TFR-TRI
 70
     0
 40
47.28156778779488
 10
0.0
 20
0.0
 41
12.67110328082996
 11
0.7188730927569434
 21
-0.5850486126764432
 31
0.3754192287502549
 12
0.0
 22
0.0
 32
0.0
 42
50.0
 43
24.4750051625393
 44
-24.4750051625393
 50
0.0
 71
    16
  0
ENDTAB
  0
TABLE
  2
UCS
  5
6
330
0
100
AcDbSymbolTable
 70
     0
  0
ENDTAB
  0
TABLE
  2
APPID
  5
8
330
0
100
AcDbSymbolTable
 70
     2
  0
APPID
  5
16
330
8
100
AcDbSymbolTableRecord
100
AcDbRegAppTableRecord
  2
ACAD
 70
     0
  0
APPID
  5
495
330
8
100
AcDbSymbolTableRecord
100
AcDbRegAppTableRecord
  2
DCO15
 70
     0
  0
ENDTAB
  0
TABLE
  2
DIMSTYLE
  5
9
330
0
100
AcDbSymbolTable
 70
     1
  0
DIMSTYLE
105
18
330
9
100
AcDbSymbolTableRecord
100
AcDbDimStyleTableRecord
  2
STANDARD
 70
     0
  3

  4

  5

  6

  7

 40
1.0
 41
0.18
 42
0.0625
 43
0.38
 44
0.18
 45
0.0
 46
0.0
 47
0.0
 48
0.0
140
0.18
141
0.09
142
0.0
143
25.4
144
1.0
145
0.0
146
1.0
147
0.09
 71
     0
 72
     0
 73
     1
 74
     1
 75
     0
 76
     0
 77
     0
 78
     0
170
     0
171
     2
172
     0
173
     0
174
     0
175
     0
176
     0
177
     0
178
     0
270
     2
271
     4
272
     4
273
     2
274
     2
340
17
275
     0
280
     0
281
     0
282
     0
283
     1
284
     0
285
     0
286
     0
287
     0
288
     0
  0
ENDTAB
  0
TABLE
  2
BLOCK_RECORD
  5
1
330
0
100
AcDbSymbolTable
 70
     0
  0
BLOCK_RECORD
  5
A
102
{ACAD_XDICTIONARY
360
4C8
102
}
330
1
100
AcDbSymbolTableRecord
100
AcDbBlockTableRecord
  2
*MODEL_SPACE
  0
BLOCK_RECORD
  5
B
102
{ACAD_XDICTIONARY
360
4CA
102
}
330
1
100
AcDbSymbolTableRecord
100
AcDbBlockTableRecord
  2
*PAPER_SPACE
  0
ENDTAB
  0
ENDSEC
  0
SECTION
  2
BLOCKS
  0
BLOCK
  5
D
330
A
100
AcDbEntity
  8
0
100
AcDbBlockBegin
  2
*MODEL_SPACE
 70
     0
 71
     1
 10
0.0
 20
0.0
 30
0.0
  3
*MODEL_SPACE
  1

  0
ENDBLK
  5
E
330
A
100
AcDbEntity
  8
0
100
AcDbBlockEnd
  0
BLOCK
  5
F
330
B
100
AcDbEntity
 67
     1
  8
0
100
AcDbBlockBegin
  2
*PAPER_SPACE
 70
     0
 71
     1
 10
0.0
 20
0.0
 30
0.0
  3
*PAPER_SPACE
  1

  0
ENDBLK
  5
10
330
B
100
AcDbEntity
 67
     1
  8
0
100
AcDbBlockEnd
  0
ENDSEC
  0
SECTION
  2
ENTITIES
  0
LINE
  5
28
330
A
100
AcDbEntity
  8
TOP
  6
CONTINUOUS
 62
     3
100
AcDbLine
 10
3.272665739059448
 20
3.711384534835815
 30
0.0
 11
3.265719175338745
 21
3.71113896369934
 31
0.0
  0
LINE
  5
2B
330
A
100
AcDbEntity
  8
TOP
  6
CONTINUOUS
 62
     3
100
AcDbLine
 10
3.416638374328613
 20
5.66211986541748
 30
0.0
 11
3.417093038558959
 21
5.636066913604736
 31
0.0
  0
LINE
  5
2C
330
A
100
AcDbEntity
  8
TOP
  6
CONTINUOUS
 62
     3
100
AcDbLine
 10
3.544173240661621
 20
6.317147731781005
 30
0.0
 11
3.544173240661621
 21
6.279571056365966
 31
0.0
  0
LINE
  5
2D
330
A
100
AcDbEntity
  8
TOP
  6
CONTINUOUS
 62
     3
100
AcDbLine
 10
3.257025718688964
 20
5.090143680572509
 30
0.0
 11
3.256939888000488
 21
5.095056533813476
 31
0.0
  0
LINE
  5
2E
330
A
100
AcDbEntity
  8
TOP
  6
CONTINUOUS
 62
     3
100
AcDbLine
 10
3.767215728759765
 20
5.855490684509277
 30
0.0
 11
3.767212390899658
 21
5.855490684509277
 31
0.0
  0
LINE
  5
2F
330
A
100
AcDbEntity
  8
TOP
  6
CONTINUOUS
 62
     3
100
AcDbLine
 10
3.722850799560546
 20
6.462143898010253
 30
0.0
 11
3.712483882904052
 21
6.462143898010253
 31
0.0
  0
LINE
  5
30
330
A
100
AcDbEntity
  8
TOP
  6
CONTINUOUS
 62
     3
100
AcDbLine
 10
3.414889812469482
 20
4.076538562774658
 30
0.0
 11
3.414889812469482
 21
4.008677005767822
 31
0.0
  0
LINE
  5
31
330
A
100
AcDbEntity
  8
TOP
  6
CONTINUOUS
 62
     3
100
AcDbLine
 10
3.643889665603637
 20
3.763894796371459
 30
0.0
 11
3.643889665603637
 21
3.762860059738159
 31
0.0
  0
LINE
  5
32
330
A
100
AcDbEntity
  8
TOP
  6
CONTINUOUS
 62
     3
100
AcDbLine
 10
6.219397544860839
 20
3.471454143524169
 30
0.0
 11
6.219397544860839
 21
3.536216259002685
 31
0.0
  0
LINE
  5
33
330
A
100
AcDbEntity
  8
TOP
  6
CONTINUOUS
 62
     3
100
AcDbLine
 10
3.465889692306518
 20
3.678816556930541
 30
0.0
 11
3.465889692306518
 21
3.67367672920227
 31
0.0
  0
LINE
  5
34
330
A
100
AcDbEntity
  8
TOP
  6
CONTINUOUS
 62
     3
100
AcDbLine
 10
3.257025718688964
 20
4.062191486358642
 30
0.0
 11
3.196537017822265
 21
4.062191486358642
 31
0.0
  0
LINE
  5
35
330
A
100
AcDbEntity
  8
TOP
  6
CONTINUOUS
 62
     3
100
AcDbLine
 10
3.363889694213867
 20
3.771223306655883
 30
0.0
 11
3.363889694213867
 21
3.764710903167724
 31
0.0
  0
LINE
  5
36
330
A
100
AcDbEntity
  8
TOP
  6
CONTINUOUS
 62
     3
100
AcDbLine
 10
4.847397327423095
 20
3.413050174713134
 30
0.0
 11
4.847397327423095
 21
4.062191486358642
 31
0.0
  0
LINE
  5
37
330
A
100
AcDbEntity
  8
TOP
  6
CONTINUOUS
 62
     3
100
AcDbLine
 10
3.52688980102539
 20
3.781023263931274
 30
0.0
 11
3.50288987159729
 21
3.781023263931274
 31
0.0
  0
LINE
  5
38
330
A
100
AcDbEntity
  8
TOP
  6
CONTINUOUS
 62
     3
100
AcDbLine
 10
3.625889778137207
 20
3.771223306655883
 30
0.0
 11
3.625889778137207
 21
3.771703481674194
 31
0.0
  0
LINE
  5
39
330
A
100
AcDbEntity
  8
TOP
  6
CONTINUOUS
 62
     3
100
AcDbLine
 10
3.544173240661621
 20
6.279571056365966
 30
0.0
 11
3.519433736801147
 21
6.267909049987792
 31
0.0
  0
LINE
  5
3A
330
A
100
AcDbEntity
  8
TOP
  6
CONTINUOUS
 62
     3
100
AcDbLine
 10
3.711750745773315
 20
3.711384534835815
 30
0.0
 11
3.711447954177856
 21
3.711081743240356
 31
0.0
  0
LINE
  5
3B
330
A
100
AcDbEntity
  8
TOP
  6
CONTINUOUS
 62
     3
100
AcDbLine
 10
3.807199954986572
 20
6.338243961334228
 30
0.0
 11
3.79859185218811
 21
6.340431213378906
 31
0.0
  0
LINE
  5
3C
330
A
100
AcDbEntity
  8
TOP
  6
CONTINUOUS
 62
     3
100
AcDbLine
 10
3.369958877563476
 20
6.44258689880371
 30
0.0
 11
3.369958877563476
 21
6.440983295440673
 31
0.0
  0
LINE
  5
3D
330
A
100
AcDbEntity
  8
TOP
  6
CONTINUOUS
 62
     3
100
AcDbLine
 10
3.356087446212768
 20
6.462143898010253
 30
0.0
 11
3.360202312469482
 21
6.462143898010253
 31
0.0
  0
LINE
  5
3E
330
A
100
AcDbEntity
  8
TOP
  6
CONTINUOUS
 62
     3
100
AcDbLine
 10
3.277093172073364
 20
3.707814931869506
 30
0.0
 11
3.277093172073364
 21
3.711384534835815
 31
0.0
  0
LINE
  5
3F
330
A
100
AcDbEntity
  8
TOP
  6
CONTINUOUS
 62
     3
100
AcDbLine
 10
3.620389699935913
 20
3.698966026306152
 30
0.0
 11
3.620389699935913
 21
3.704822778701782
 31
0.0
  0
LINE
  5
40
330
A
100
AcDbEntity
  8
TOP
  6
CONTINUOUS
 62
     3
100
AcDbLine
 10
3.443912982940673
 20
3.799930095672607
 30
0.0
 11
3.468652486801147
 21
3.799023866653442
 31
0.0
  0
LINE
  5
41
330
A
100
AcDbEntity
  8
TOP
  6
CONTINUOUS
 62
     3
100
AcDbLine
 10
3.689665794372558
 20
3.801461696624755
 30
0.0
 11
3.682719230651855
 21
3.80170726776123
 31
0.0
  0
LINE
  5
42
330
A
100
AcDbEntity
  8
TOP
  6
CONTINUOUS
 62
     3
100
AcDbLine
 10
3.399889707565307
 20
3.478049993515014
 30
0.0
 11
3.399889707565307
 21
3.478748321533203
 31
0.0
  0
LINE
  5
43
330
A
100
AcDbEntity
  8
TOP
  6
CONTINUOUS
 62
     3
100
AcDbLine
 10
3.181543111801147
 20
5.784476280212402
 30
0.0
 11
3.181543111801147
 21
5.904476165771484
 31
0.0
  0
LINE
  5
44
330
A
100
AcDbEntity
  8
TOP
  6
CONTINUOUS
 62
     3
100
AcDbLine
 10
3.369389772415161
 20
3.689875602722167
 30
0.0
 11
3.385893106460571
 21
3.689875602722167
 31
0.0
  0
LINE
  5
45
330
A
100
AcDbEntity
  8
TOP
  6
CONTINUOUS
 62
     3
100
AcDbLine
 10
3.241870164871215
 20
3.655157327651977
 30
0.0
 11
3.251602888107299
 21
3.664890050888061
 31
0.0
  0
LINE
  5
46
330
A
100
AcDbEntity
  8
TOP
  6
CONTINUOUS
 62
     3
100
AcDbLine
 10
6.190241336822509
 20
3.865292310714721
 30
0.0
 11
6.19481086730957
 21
3.86259388923645
 31
0.0
  0
LINE
  5
47
330
A
100
AcDbEntity
  8
TOP
  6
CONTINUOUS
 62
     3
100
AcDbLine
 10
6.166898727416992
 20
3.800676822662353
 30
0.0
 11
6.144752979278564
 21
3.800676822662353
 31
0.0
  0
LINE
  5
48
330
A
100
AcDbEntity
  8
TOP
  6
CONTINUOUS
 62
     3
100
AcDbLine
 10
3.505889654159545
 20
3.77231216430664
 30
0.0
 11
3.523889780044555
 21
3.77231216430664
 31
0.0
  0
LINE
  5
49
330
A
100
AcDbEntity
  8
TOP
  6
CONTINUOUS
 62
     3
100
AcDbLine
 10
3.519433736801147
 20
6.267909049987792
 30
0.0
 11
3.468652486801147
 21
6.267909049987792
 31
0.0
  0
LINE
  5
4A
330
A
100
AcDbEntity
  8
TOP
  6
CONTINUOUS
 62
     3
100
AcDbLine
 10
6.207567691802978
 20
3.426220178604125
 30
0.0
 11
6.194397449493408
 21
3.413050174713134
 31
0.0
  0
LINE
  5
4B
330
A
100
AcDbEntity
  8
TOP
  6
CONTINUOUS
 62
     3
100
AcDbLine
 10
6.219397544860839
 20
3.562514066696166
 30
0.0
 11
6.219397544860839
 21
3.550820589065551
 31
0.0
  0
LINE
  5
4C
330
A
100
AcDbEntity
  8
TOP
  6
CONTINUOUS
 62
     3
100
AcDbLine
 10
3.241870164871215
 20
3.961196422576904
 30
0.0
 11
3.251602888107299
 21
3.95146369934082
 31
0.0
  0
LINE
  5
4D
330
A
100
AcDbEntity
  8
TOP
  6
CONTINUOUS
 62
     3
100
AcDbLine
 10
3.468652486801147
 20
6.267909049987792
 30
0.0
 11
3.443912982940673
 21
6.254951477050781
 31
0.0
  0
LINE
  5
4E
330
A
100
AcDbEntity
  8
TOP
  6
CONTINUOUS
 62
     3
100
AcDbLine
 10
3.182579517364501
 20
6.394744396209716
 30
0.0
 11
3.182579517364501
 21
6.396494388580322
 31
0.0
  0
LINE
  5
4F
330
A
100
AcDbEntity
  8
TOP
  6
CONTINUOUS
 62
     3
100
AcDbLine
 10
3.189912796020507
 20
5.188143730163574
 30
0.0
 11
3.182389736175537
 21
5.619143962860107
 31
0.0
  0
LINE
  5
50
330
A
100
AcDbEntity
  8
TOP
  6
CONTINUOUS
 62
     3
100
AcDbLine
 10
3.773798704147338
 20
5.855526447296142
 30
0.0
 11
3.783114910125732
 21
5.855551242828369
 31
0.0
  0
LINE
  5
51
330
A
100
AcDbEntity
  8
TOP
  6
CONTINUOUS
 62
     3
100
AcDbLine
 10
3.734639644622802
 20
6.462143898010253
 30
0.0
 11
3.742334365844726
 21
6.462143898010253
 31
0.0
  0
LINE
  5
52
330
A
100
AcDbEntity
  8
TOP
  6
CONTINUOUS
 62
     3
100
AcDbLine
 10
3.342389822006225
 20
3.705670833587646
 30
0.0
 11
3.34538984298706
 21
3.702656984329223
 31
0.0
  0
LINE
  5
53
330
A
100
AcDbEntity
  8
TOP
  6
CONTINUOUS
 62
     3
100
AcDbLine
 10
3.578908920288085
 20
4.080557823181152
 30
0.0
 11
3.589889764785766
 21
4.083499908447265
 31
0.0
  0
LINE
  5
54
330
A
100
AcDbEntity
  8
TOP
  6
CONTINUOUS
 62
     3
100
AcDbLine
 10
3.625889778137207
 20
3.763894796371459
 30
0.0
 11
3.625889778137207
 21
3.762860059738159
 31
0.0
  0
LINE
  5
55
330
A
100
AcDbEntity
  8
TOP
  6
CONTINUOUS
 62
     3
100
AcDbLine
 10
6.219397544860839
 20
3.502172470092773
 30
0.0
 11
6.219397544860839
 21
3.519068956375122
 31
0.0
  0
LINE
  5
56
330
A
100
AcDbEntity
  8
TOP
  6
CONTINUOUS
 62
     3
100
AcDbLine
 10
3.465889692306518
 20
3.681512594223022
 30
0.0
 11
3.465889692306518
 21
3.762860059738159
 31
0.0
  0
LINE
  5
57
330
A
100
AcDbEntity
  8
TOP
  6
CONTINUOUS
 62
     3
100
AcDbLine
 10
3.732753753662109
 20
4.118902683258056
 30
0.0
 11
3.732753753662109
 21
4.062191486358642
 31
0.0
  0
LINE
  5
58
330
A
100
AcDbEntity
  8
TOP
  6
CONTINUOUS
 62
     3
100
AcDbLine
 10
3.425889730453491
 20
3.678816556930541
 30
0.0
 11
3.4438898563385
 21
3.678816556930541
 31
0.0
  0
LINE
  5
59
330
A
100
AcDbEntity
  8
TOP
  6
CONTINUOUS
 62
     3
100
AcDbLine
 10
6.093748092651367
 20
3.618676900863647
 30
0.0
 11
6.095497608184814
 21
3.638676881790161
 31
0.0
  0
LINE
  5
5A
330
A
100
AcDbEntity
  8
TOP
  6
CONTINUOUS
 62
     3
100
AcDbLine
 10
6.219397544860839
 20
3.509712934494018
 30
0.0
 11
6.219397544860839
 21
3.500985860824584
 31
0.0
  0
LINE
  5
5B
330
A
100
AcDbEntity
  8
TOP
  6
CONTINUOUS
 62
     3
100
AcDbLine
 10
3.486889839172363
 20
3.781023263931274
 30
0.0
 11
3.486889839172363
 21
3.704823017120361
 31
0.0
  0
LINE
  5
5C
330
A
100
AcDbEntity
  8
TOP
  6
CONTINUOUS
 62
     3
100
AcDbLine
 10
3.79859185218811
 20
6.340431213378906
 30
0.0
 11
3.79859185218811
 21
6.392557621002197
 31
0.0
  0
LINE
  5
5D
330
A
100
AcDbEntity
  8
TOP
  6
CONTINUOUS
 62
     3
100
AcDbLine
 10
3.806542873382568
 20
5.855490684509277
 30
0.0
 11
3.807389736175537
 21
5.855490684509277
 31
0.0
  0
LINE
  5
5E
330
A
100
AcDbEntity
  8
TOP
  6
CONTINUOUS
 62
     3
100
AcDbLine
 10
3.306964397430419
 20
6.462143898010253
 30
0.0
 11
3.327097654342651
 21
6.462143898010253
 31
0.0
  0
LINE
  5
5F
330
A
100
AcDbEntity
  8
TOP
  6
CONTINUOUS
 62
     3
100
AcDbLine
 10
3.585889816284179
 20
3.771223306655883
 30
0.0
 11
3.60388970375061
 21
3.771223306655883
 31
0.0
  0
LINE
  5
60
330
A
100
AcDbEntity
  8
TOP
  6
CONTINUOUS
 62
     3
100
AcDbLine
 10
3.403889656066894
 20
3.764710903167724
 30
0.0
 11
3.403889656066894
 21
3.763894796371459
 31
0.0
  0
LINE
  5
61
330
A
100
AcDbEntity
  8
TOP
  6
CONTINUOUS
 62
     3
100
AcDbLine
 10
3.689665794372558
 20
3.711384534835815
 30
0.0
 11
3.689665794372558
 21
3.801461696624755
 31
0.0
  0
LINE
  5
62
330
A
100
AcDbEntity
  8
TOP
  6
CONTINUOUS
 62
     3
100
AcDbLine
 10
3.399889707565307
 20
3.543050050735473
 30
0.0
 11
3.399889707565307
 21
3.542351961135864
 31
0.0
  0
LINE
  5
63
330
A
100
AcDbEntity
  8
TOP
  6
CONTINUOUS
 62
     3
100
AcDbLine
 10
3.193323612213134
 20
5.784476280212402
 30
0.0
 11
3.184648990631103
 21
5.784476280212402
 31
0.0
  0
LINE
  5
64
330
A
100
AcDbEntity
  8
TOP
  6
CONTINUOUS
 62
     3
100
AcDbLine
 10
3.622889757156372
 20
3.781023263931274
 30
0.0
 11
3.622889757156372
 21
3.704823017120361
 31
0.0
  0
LINE
  5
65
330
A
100
AcDbEntity
  8
TOP
  6
CONTINUOUS
 62
     3
100
AcDbLine
 10
3.729389667510986
 20
3.673676967620849
 30
0.0
 11
3.729389667510986
 21
3.942677021026611
 31
0.0
  0
LINE
  5
66
330
A
100
AcDbEntity
  8
TOP
  6
CONTINUOUS
 62
     3
100
AcDbLine
 10
3.647389650344848
 20
3.781023263931274
 30
0.0
 11
3.647389650344848
 21
3.704823017120361
 31
0.0
  0
LINE
  5
67
330
A
100
AcDbEntity
  8
TOP
  6
CONTINUOUS
 62
     3
100
AcDbLine
 10
6.184499263763427
 20
3.673676967620849
 30
0.0
 11
6.169115543365478
 21
3.673676967620849
 31
0.0
  0
LINE
  5
68
330
A
100
AcDbEntity
  8
TOP
  6
CONTINUOUS
 62
     3
100
AcDbLine
 10
6.178130149841308
 20
3.413050174713134
 30
0.0
 11
6.178130149841308
 21
3.573676824569702
 31
0.0
  0
LINE
  5
69
330
A
100
AcDbEntity
  8
TOP
  6
CONTINUOUS
 62
     3
100
AcDbLine
 10
6.219397544860839
 20
3.550820589065551
 30
0.0
 11
6.219397544860839
 21
3.562514066696166
 31
0.0
  0
LINE
  5
6A
330
A
100
AcDbEntity
  8
TOP
  6
CONTINUOUS
 62
     3
100
AcDbLine
 10
3.36210298538208
 20
3.95146369934082
 30
0.0
 11
3.352370262145996
 21
3.961196422576904
 31
0.0
  0
LINE
  5
6B
330
A
100
AcDbEntity
  8
TOP
  6
CONTINUOUS
 62
     3
100
AcDbLine
 10
3.465889692306518
 20
3.681512594223022
 30
0.0
 11
3.483889818191528
 21
3.681512594223022
 31
0.0
  0
LINE
  5
6C
330
A
100
AcDbEntity
  8
TOP
  6
CONTINUOUS
 62
     3
100
AcDbLine
 10
3.291447877883911
 20
5.66211986541748
 30
0.0
 11
3.290993213653564
 21
5.636066913604736
 31
0.0
  0
LINE
  5
6D
330
A
100
AcDbEntity
  8
TOP
  6
CONTINUOUS
 62
     3
100
AcDbLine
 10
3.182579517364501
 20
6.336494445800781
 30
0.0
 11
3.182579517364501
 21
6.338243961334228
 31
0.0
  0
LINE
  5
6E
330
A
100
AcDbEntity
  8
TOP
  6
CONTINUOUS
 62
     3
100
AcDbLine
 10
3.187388896942138
 20
5.619143962860107
 30
0.0
 11
3.194912195205688
 21
5.188143730163574
 31
0.0
  0
LINE
  5
6F
330
A
100
AcDbEntity
  8
TOP
  6
CONTINUOUS
 62
     3
100
AcDbLine
 10
3.773689031600952
 20
5.629246234893798
 30
0.0
 11
3.774043083190917
 21
5.629237174987792
 31
0.0
  0
LINE
  5
70
330
A
100
AcDbEntity
  8
TOP
  6
CONTINUOUS
 62
     3
100
AcDbLine
 10
3.70838975906372
 20
6.462143898010253
 30
0.0
 11
3.712483882904052
 21
6.462143898010253
 31
0.0
  0
LINE
  5
71
330
A
100
AcDbEntity
  8
TOP
  6
CONTINUOUS
 62
     3
100
AcDbLine
 10
3.623389720916748
 20
3.695977449417114
 30
0.0
 11
3.623389720916748
 21
3.6939537525177
 31
0.0
  0
LINE
  5
72
330
A
100
AcDbEntity
  8
TOP
  6
CONTINUOUS
 62
     3
100
AcDbLine
 10
3.625889778137207
 20
3.764710903167724
 30
0.0
 11
3.643889665603637
 21
3.764710903167724
 31
0.0
  0
LINE
  5
73
330
A
100
AcDbEntity
  8
TOP
  6
CONTINUOUS
 62
     3
100
AcDbLine
 10
6.219397544860839
 20
3.473782300949096
 30
0.0
 11
6.219397544860839
 21
3.467676877975463
 31
0.0
  0
LINE
  5
74
330
A
100
AcDbEntity
  8
TOP
  6
CONTINUOUS
 62
     3
100
AcDbLine
 10
3.465889692306518
 20
3.762860059738159
 30
0.0
 11
3.483889818191528
 21
3.762860059738159
 31
0.0
  0
LINE
  5
75
330
A
100
AcDbEntity
  8
TOP
  6
CONTINUOUS
 62
     3
100
AcDbLine
 10
3.425889730453491
 20
3.678816556930541
 30
0.0
 11
3.425889730453491
 21
3.67367672920227
 31
0.0
  0
LINE
  5
76
330
A
100
AcDbEntity
  8
TOP
  6
CONTINUOUS
 62
     3
100
AcDbLine
 10
6.185459613800048
 20
3.618676900863647
 30
0.0
 11
6.170075893402099
 21
3.618676900863647
 31
0.0
  0
LINE
  5
77
330
A
100
AcDbEntity
  8
TOP
  6
CONTINUOUS
 62
     3
100
AcDbLine
 10
6.219397544860839
 20
3.461715936660766
 30
0.0
 11
6.219397544860839
 21
3.474336624145507
 31
0.0
  0
LINE
  5
78
330
A
100
AcDbEntity
  8
TOP
  6
CONTINUOUS
 62
     3
100
AcDbLine
 10
3.655626773834228
 20
3.483630657196044
 30
0.0
 11
3.655626773834228
 21
3.528681993484497
 31
0.0
  0
LINE
  5
79
330
A
100
AcDbEntity
  8
TOP
  6
CONTINUOUS
 62
     3
100
AcDbLine
 10
3.446889638900756
 20
3.704823017120361
 30
0.0
 11
3.462889671325683
 21
3.704823017120361
 31
0.0
  0
LINE
  5
7A
330
A
100
AcDbEntity
  8
TOP
  6
CONTINUOUS
 62
     3
100
AcDbLine
 10
3.79476261138916
 20
5.855523109436035
 30
0.0
 11
3.79476261138916
 21
5.855486392974853
 31
0.0
  0
LINE
  5
7B
330
A
100
AcDbEntity
  8
TOP
  6
CONTINUOUS
 62
     3
100
AcDbLine
 10
6.219397544860839
 20
3.500985860824584
 30
0.0
 11
6.219397544860839
 21
3.509712934494018
 31
0.0
  0
LINE
  5
7C
330
A
100
AcDbEntity
  8
TOP
  6
CONTINUOUS
 62
     3
100
AcDbLine
 10
3.797212362289428
 20
5.629237174987792
 30
0.0
 11
3.790716886520385
 21
5.629237174987792
 31
0.0
  0
LINE
  5
7D
330
A
100
AcDbEntity
  8
TOP
  6
CONTINUOUS
 62
     3
100
AcDbLine
 10
3.220778465270996
 20
5.629237174987792
 30
0.0
 11
3.220778465270996
 21
5.634499073028564
 31
0.0
  0
LINE
  5
7E
330
A
100
AcDbEntity
  8
TOP
  6
CONTINUOUS
 62
     3
100
AcDbLine
 10
3.283607244491577
 20
6.462143898010253
 30
0.0
 11
3.299108505249023
 21
6.462143898010253
 31
0.0
  0
LINE
  5
7F
330
A
100
AcDbEntity
  8
TOP
  6
CONTINUOUS
 62
     3
100
AcDbLine
 10
3.344511032104492
 20
3.698090553283691
 30
0.0
 11
3.34538984298706
 21
3.695977449417114
 31
0.0
  0
LINE
  5
80
330
A
100
AcDbEntity
  8
TOP
  6
CONTINUOUS
 62
     3
100
AcDbLine
 10
3.385889768600463
 20
3.764710903167724
 30
0.0
 11
3.385889768600463
 21
3.763894796371459
 31
0.0
  0
LINE
  5
81
330
A
100
AcDbEntity
  8
TOP
  6
CONTINUOUS
 62
     3
100
AcDbLine
 10
3.717113733291625
 20
3.711384534835815
 30
0.0
 11
3.717113733291625
 21
3.801461696624755
 31
0.0
  0
LINE
  5
82
330
A
100
AcDbEntity
  8
TOP
  6
CONTINUOUS
 62
     3
100
AcDbLine
 10
3.412606239318847
 20
4.010960578918457
 30
0.0
 11
3.414889812469482
 21
4.008677005767822
 31
0.0
  0
LINE
  5
83
330
A
100
AcDbEntity
  8
TOP
  6
CONTINUOUS
 62
     3
100
AcDbLine
 10
3.193323612213134
 20
5.855523109436035
 30
0.0
 11
3.194543123245239
 21
5.903110027313232
 31
0.0
  0
LINE
  5
84
330
A
100
AcDbEntity
  8
TOP
  6
CONTINUOUS
 62
     3
100
AcDbLine
 10
3.523889780044555
 20
3.763894796371459
 30
0.0
 11
3.523889780044555
 21
3.762860059738159
 31
0.0
  0
LINE
  5
85
330
A
100
AcDbEntity
  8
TOP
  6
CONTINUOUS
 62
     3
100
AcDbLine
 10
6.19762372970581
 20
3.811157941818237
 30
0.0
 11
6.193647861480712
 21
3.811157941818237
 31
0.0
  0
LINE
  5
86
330
A
100
AcDbEntity
  8
TOP
  6
CONTINUOUS
 62
     3
100
AcDbLine
 10
6.200800418853759
 20
3.618676900863647
 30
0.0
 11
6.200015068054199
 21
3.573676824569702
 31
0.0
  0
LINE
  5
87
330
A
100
AcDbEntity
  8
TOP
  6
CONTINUOUS
 62
     3
100
AcDbLine
 10
6.219397544860839
 20
3.454428195953369
 30
0.0
 11
6.219397544860839
 21
3.465677022933959
 31
0.0
  0
LINE
  5
88
330
A
100
AcDbEntity
  8
TOP
  6
CONTINUOUS
 62
     3
100
AcDbLine
 10
6.198819160461425
 20
3.573676824569702
 30
0.0
 11
6.213891983032226
 21
3.573676824569702
 31
0.0
  0
LINE
  5
89
330
A
100
AcDbEntity
  8
TOP
  6
CONTINUOUS
 62
     3
100
AcDbLine
 10
6.219397544860839
 20
3.529516220092773
 30
0.0
 11
6.219397544860839
 21
3.519068956375122
 31
0.0
  0
LINE
  5
8A
330
A
100
AcDbEntity
  8
TOP
  6
CONTINUOUS
 62
     3
100
AcDbLine
 10
3.370889663696289
 20
3.942677021026611
 30
0.0
 11
3.260389804840087
 21
3.942677021026611
 31
0.0
  0
LINE
  5
8B
330
A
100
AcDbEntity
  8
TOP
  6
CONTINUOUS
 62
     3
100
AcDbLine
 10
3.445214986801147
 20
3.806816101074218
 30
0.0
 11
3.468652486801147
 21
3.807631731033325
 31
0.0
  0
LINE
  5
8C
330
A
100
AcDbEntity
  8
TOP
  6
CONTINUOUS
 62
     3
100
AcDbLine
 10
3.483889818191528
 20
3.771223306655883
 30
0.0
 11
3.483889818191528
 21
3.771703481674194
 31
0.0
  0
LINE
  5
8D
330
A
100
AcDbEntity
  8
TOP
  6
CONTINUOUS
 62
     3
100
AcDbLine
 10
3.182579517364501
 20
6.336494445800781
 30
0.0
 11
3.195071458816528
 21
6.336494445800781
 31
0.0
  0
LINE
  5
8E
330
A
100
AcDbEntity
  8
TOP
  6
CONTINUOUS
 62
     3
100
AcDbLine
 10
3.734464406967163
 20
5.188143730163574
 30
0.0
 11
3.732839584350585
 21
5.095056533813476
 31
0.0
  0
LINE
  5
8F
330
A
100
AcDbEntity
  8
TOP
  6
CONTINUOUS
 62
     3
100
AcDbLine
 10
3.76802110671997
 20
5.632716655731201
 30
0.0
 11
3.769505500793457
 21
5.630922794342041
 31
0.0
  0
LINE
  5
90
330
A
100
AcDbEntity
  8
TOP
  6
CONTINUOUS
 62
     3
100
AcDbLine
 10
3.320671081542968
 20
6.462143898010253
 30
0.0
 11
3.338790416717529
 21
6.462143898010253
 31
0.0
  0
LINE
  5
91
330
A
100
AcDbEntity
  8
TOP
  6
CONTINUOUS
 62
     3
100
AcDbLine
 10
3.644389867782592
 20
3.6939537525177
 30
0.0
 11
3.644389867782592
 21
3.695977449417114
 31
0.0
  0
LINE
  5
92
330
A
100
AcDbEntity
  8
TOP
  6
CONTINUOUS
 62
     3
100
AcDbLine
 10
3.370889663696289
 20
4.008677005767822
 30
0.0
 11
3.370889663696289
 21
3.942677021026611
 31
0.0
  0
LINE
  5
93
330
A
100
AcDbEntity
  8
TOP
  6
CONTINUOUS
 62
     3
100
AcDbLine
 10
3.462891101837158
 20
3.705702304840087
 30
0.0
 11
3.465891361236572
 21
3.705702304840087
 31
0.0
  0
LINE
  5
94
330
A
100
AcDbEntity
  8
TOP
  6
CONTINUOUS
 62
     3
100
AcDbLine
 10
6.219397544860839
 20
3.509712934494018
 30
0.0
 11
6.219397544860839
 21
3.546465635299682
 31
0.0
  0
LINE
  5
95
330
A
100
AcDbEntity
  8
TOP
  6
CONTINUOUS
 62
     3
100
AcDbLine
 10
3.799866676330566
 20
4.120527744293212
 30
0.0
 11
3.799866676330566
 21
4.063901901245117
 31
0.0
  0
LINE
  5
96
330
A
100
AcDbEntity
  8
TOP
  6
CONTINUOUS
 62
     3
100
AcDbLine
 10
3.399889707565307
 20
3.543050050735473
 30
0.0
 11
3.589889764785766
 21
3.543050050735473
 31
0.0
  0
LINE
  5
97
330
A
100
AcDbEntity
  8
TOP
  6
CONTINUOUS
 62
     3
100
AcDbLine
 10
3.4438898563385
 20
3.681512594223022
 30
0.0
 11
3.4438898563385
 21
3.680266141891479
 31
0.0
  0
LINE
  5
98
330
A
100
AcDbEntity
  8
TOP
  6
CONTINUOUS
 62
     3
100
AcDbLine
 10
5.386490821838378
 20
3.573676824569702
 30
0.0
 11
5.386490821838378
 21
3.618676900863647
 31
0.0
  0
LINE
  5
99
330
A
100
AcDbEntity
  8
TOP
  6
CONTINUOUS
 62
     3
100
AcDbLine
 10
6.219397544860839
 20
3.470080852508544
 30
0.0
 11
6.219397544860839
 21
3.459398746490478
 31
0.0
  0
LINE
  5
9A
330
A
100
AcDbEntity
  8
TOP
  6
CONTINUOUS
 62
     3
100
AcDbLine
 10
3.422889709472656
 20
3.781023263931274
 30
0.0
 11
3.422889709472656
 21
3.704823017120361
 31
0.0
  0
LINE
  5
9B
330
A
100
AcDbEntity
  8
TOP
  6
CONTINUOUS
 62
     3
100
AcDbLine
 10
3.220778465270996
 20
5.629237174987792
 30
0.0
 11
3.256983280181884
 21
5.629237174987792
 31
0.0
  0
LINE
  5
9C
330
A
100
AcDbEntity
  8
TOP
  6
CONTINUOUS
 62
     3
100
AcDbLine
 10
3.762197256088256
 20
6.430544376373291
 30
0.0
 11
3.762385368347167
 21
6.430653572082519
 31
0.0
  0
LINE
  5
9D
330
A
100
AcDbEntity
  8
TOP
  6
CONTINUOUS
 62
     3
100
AcDbLine
 10
3.617052555084228
 20
6.462143898010253
 30
0.0
 11
3.612946510314941
 21
6.462143898010253
 31
0.0
  0
LINE
  5
9E
330
A
100
AcDbEntity
  8
TOP
  6
CONTINUOUS
 62
     3
100
AcDbLine
 10
3.60388970375061
 20
3.763894796371459
 30
0.0
 11
3.60388970375061
 21
3.762860059738159
 31
0.0
  0
LINE
  5
9F
330
A
100
AcDbEntity
  8
TOP
  6
CONTINUOUS
 62
     3
100
AcDbLine
 10
3.620389699935913
 20
3.696075201034545
 30
0.0
 11
3.620389699935913
 21
3.698966026306152
 31
0.0
  0
LINE
  5
A0
330
A
100
AcDbEntity
  8
TOP
  6
CONTINUOUS
 62
     3
100
AcDbLine
 10
3.775051832199096
 20
6.437557220458984
 30
0.0
 11
3.784132242202758
 21
6.431018352508544
 31
0.0
  0
LINE
  5
A1
330
A
100
AcDbEntity
  8
TOP
  6
CONTINUOUS
 62
     3
100
AcDbLine
 10
3.523889780044555
 20
3.771703481674194
 30
0.0
 11
3.523889780044555
 21
3.77231216430664
 31
0.0
  0
LINE
  5
A2
330
A
100
AcDbEntity
  8
TOP
  6
CONTINUOUS
 62
     3
100
AcDbLine
 10
6.136490821838378
 20
3.811157941818237
 30
0.0
 11
6.167885303497314
 21
3.811157941818237
 31
0.0
  0
LINE
  5
A3
330
A
100
AcDbEntity
  8
TOP
  6
CONTINUOUS
 62
     3
100
AcDbLine
 10
5.613529682159423
 20
3.573676824569702
 30
0.0
 11
5.612744331359863
 21
3.618676900863647
 31
0.0
  0
LINE
  5
A4
330
A
100
AcDbEntity
  8
TOP
  6
CONTINUOUS
 62
     3
100
AcDbLine
 10
5.376397132873535
 20
3.573676824569702
 30
0.0
 11
5.613534927368164
 21
3.573676824569702
 31
0.0
  0
LINE
  5
A5
330
A
100
AcDbEntity
  8
TOP
  6
CONTINUOUS
 62
     3
100
AcDbLine
 10
3.618889808654785
 20
4.008677005767822
 30
0.0
 11
3.574889659881591
 21
4.008677005767822
 31
0.0
  0
LINE
  5
A6
330
A
100
AcDbEntity
  8
TOP
  6
CONTINUOUS
 62
     3
100
AcDbLine
 10
3.399889707565307
 20
3.478049993515014
 30
0.0
 11
3.589889764785766
 21
3.478049993515014
 31
0.0
  0
LINE
  5
A7
330
A
100
AcDbEntity
  8
TOP
  6
CONTINUOUS
 62
     3
100
AcDbLine
 10
3.220873832702636
 20
5.855490684509277
 30
0.0
 11
3.220873832702636
 21
5.634901046752929
 31
0.0
  0
LINE
  5
A8
330
A
100
AcDbEntity
  8
TOP
  6
CONTINUOUS
 62
     3
100
AcDbLine
 10
3.774049043655395
 20
6.439903736114501
 30
0.0
 11
3.78520131111145
 21
6.429829597473144
 31
0.0
  0
LINE
  5
A9
330
A
100
AcDbEntity
  8
TOP
  6
CONTINUOUS
 62
     3
100
AcDbLine
 10
3.807389736175537
 20
5.619143962860107
 30
0.0
 11
3.799866676330566
 21
5.188143730163574
 31
0.0
  0
LINE
  5
AA
330
A
100
AcDbEntity
  8
TOP
  6
CONTINUOUS
 62
     3
100
AcDbLine
 10
3.717889785766601
 20
6.462143898010253
 30
0.0
 11
3.721889734268188
 21
6.462143898010253
 31
0.0
  0
LINE
  5
AB
330
A
100
AcDbEntity
  8
TOP
  6
CONTINUOUS
 62
     3
100
AcDbLine
 10
3.644389867782592
 20
3.702656984329223
 30
0.0
 11
3.647389650344848
 21
3.705670833587646
 31
0.0
  0
LINE
  5
AC
330
A
100
AcDbEntity
  8
TOP
  6
CONTINUOUS
 62
     3
100
AcDbLine
 10
3.316455125808715
 20
3.807655096054077
 30
0.0
 11
3.32687497138977
 21
3.808023452758789
 31
0.0
  0
LINE
  5
AD
330
A
100
AcDbEntity
  8
TOP
  6
CONTINUOUS
 62
     3
100
AcDbLine
 10
3.403892517089843
 20
3.705702304840087
 30
0.0
 11
3.406892776489257
 21
3.705702304840087
 31
0.0
  0
LINE
  5
AF
330
A
100
AcDbEntity
  8
TOP
  6
CONTINUOUS
 62
     3
100
AcDbLine
 10
3.483889818191528
 20
3.771703481674194
 30
0.0
 11
3.483889818191528
 21
3.77231216430664
 31
0.0
  0
LINE
  5
B0
330
A
100
AcDbEntity
  8
TOP
  6
CONTINUOUS
 62
     3
100
AcDbLine
 10
3.425889730453491
 20
3.681512594223022
 30
0.0
 11
3.425889730453491
 21
3.762860059738159
 31
0.0
  0
LINE
  5
B1
330
A
100
AcDbEntity
  8
TOP
  6
CONTINUOUS
 62
     3
100
AcDbLine
 10
6.170075893402099
 20
3.618676900863647
 30
0.0
 11
6.169115543365478
 21
3.673676967620849
 31
0.0
  0
LINE
  5
B2
330
A
100
AcDbEntity
  8
TOP
  6
CONTINUOUS
 62
     3
100
AcDbLine
 10
6.219397544860839
 20
3.526604652404785
 30
0.0
 11
6.219397544860839
 21
3.506676912307739
 31
0.0
  0
LINE
  5
B3
330
A
100
AcDbEntity
  8
TOP
  6
CONTINUOUS
 62
     3
100
AcDbLine
 10
3.406889677047729
 20
3.781023263931274
 30
0.0
 11
3.382889747619628
 21
3.781023263931274
 31
0.0
  0
LINE
  5
B4
330
A
100
AcDbEntity
  8
TOP
  6
CONTINUOUS
 62
     3
100
AcDbLine
 10
3.696638345718383
 20
5.66211986541748
 30
0.0
 11
3.69709300994873
 21
5.636066913604736
 31
0.0
  0
LINE
  5
B5
330
A
100
AcDbEntity
  8
TOP
  6
CONTINUOUS
 62
     3
100
AcDbLine
 10
3.403889656066894
 20
3.77231216430664
 30
0.0
 11
3.403889656066894
 21
3.781023740768432
 31
0.0
  0
LINE
  5
B6
330
A
100
AcDbEntity
  8
TOP
  6
CONTINUOUS
 62
     3
100
AcDbLine
 10
3.731436491012573
 20
5.619143962860107
 30
0.0
 11
3.732625484466552
 21
5.619537353515625
 31
0.0
  0
LINE
  5
B7
330
A
100
AcDbEntity
  8
TOP
  6
CONTINUOUS
 62
     3
100
AcDbLine
 10
3.767215728759765
 20
5.855490684509277
 30
0.0
 11
3.762197256088256
 21
6.430544376373291
 31
0.0
  0
LINE
  5
B8
330
A
100
AcDbEntity
  8
TOP
  6
CONTINUOUS
 62
     3
100
AcDbLine
 10
3.666889667510986
 20
6.462143898010253
 30
0.0
 11
3.646246433258056
 21
6.462143898010253
 31
0.0
  0
LINE
  5
B9
330
A
100
AcDbEntity
  8
TOP
  6
CONTINUOUS
 62
     3
100
AcDbLine
 10
3.60388970375061
 20
3.771703481674194
 30
0.0
 11
3.60388970375061
 21
3.77231216430664
 31
0.0
  0
LINE
  5
BA
330
A
100
AcDbEntity
  8
TOP
  6
CONTINUOUS
 62
     3
100
AcDbLine
 10
3.625889778137207
 20
3.77231216430664
 30
0.0
 11
3.643889665603637
 21
3.77231216430664
 31
0.0
  0
LINE
  5
BB
330
A
100
AcDbEntity
  8
TOP
  6
CONTINUOUS
 62
     3
100
AcDbLine
 10
3.563887357711791
 20
3.689875602722167
 30
0.0
 11
3.585889101028442
 21
3.689875602722167
 31
0.0
  0
LINE
  5
BC
330
A
100
AcDbEntity
  8
TOP
  6
CONTINUOUS
 62
     3
100
AcDbLine
 10
3.195718526840209
 20
6.410631656646728
 30
0.0
 11
3.197901248931884
 21
6.421606540679931
 31
0.0
  0
LINE
  5
BD
330
A
100
AcDbEntity
  8
TOP
  6
CONTINUOUS
 62
     3
100
AcDbLine
 10
3.690108060836791
 20
3.711384534835815
 30
0.0
 11
3.696638107299804
 21
3.711081743240356
 31
0.0
  0
LINE
  5
BE
330
A
100
AcDbEntity
  8
TOP
  6
CONTINUOUS
 62
     3
100
AcDbLine
 10
3.260389804840087
 20
3.673676967620849
 30
0.0
 11
3.729389667510986
 21
3.673676967620849
 31
0.0
  0
LINE
  5
BF
330
A
100
AcDbEntity
  8
TOP
  6
CONTINUOUS
 62
     3
100
AcDbLine
 10
6.106491088867187
 20
3.673676967620849
 30
0.0
 11
6.121490955352783
 21
3.677696228027343
 31
0.0
  0
LINE
  5
C0
330
A
100
AcDbEntity
  8
TOP
  6
CONTINUOUS
 62
     3
100
AcDbLine
 10
3.44389271736145
 20
3.705702304840087
 30
0.0
 11
3.446892976760864
 21
3.705702304840087
 31
0.0
  0
LINE
  5
C1
330
A
100
AcDbEntity
  8
TOP
  6
CONTINUOUS
 62
     3
100
AcDbLine
 10
6.151998043060302
 20
3.638676881790161
 30
0.0
 11
6.153748035430908
 21
3.618676900863647
 31
0.0
  0
LINE
  5
C2
330
A
100
AcDbEntity
  8
TOP
  6
CONTINUOUS
 62
     3
100
AcDbLine
 10
4.94539737701416
 20
4.120527744293212
 30
0.0
 11
4.94539737701416
 21
4.125526905059814
 31
0.0
  0
LINE
  5
C3
330
A
100
AcDbEntity
  8
TOP
  6
CONTINUOUS
 62
     3
100
AcDbLine
 10
3.182389736175537
 20
4.128050804138183
 30
0.0
 11
3.187388896942138
 21
4.133049964904785
 31
0.0
  0
LINE
  5
C4
330
A
100
AcDbEntity
  8
TOP
  6
CONTINUOUS
 62
     3
100
AcDbLine
 10
3.769001483917236
 20
5.629237174987792
 30
0.0
 11
3.773866415023803
 21
5.629237174987792
 31
0.0
  0
LINE
  5
C5
330
A
100
AcDbEntity
  8
TOP
  6
CONTINUOUS
 62
     3
100
AcDbLine
 10
3.802390575408935
 20
5.619143962860107
 30
0.0
 11
3.187388896942138
 21
5.619143962860107
 31
0.0
  0
LINE
  5
C6
330
A
100
AcDbEntity
  8
TOP
  6
CONTINUOUS
 62
     3
100
AcDbLine
 10
3.483892679214477
 20
3.705702304840087
 30
0.0
 11
3.486892938613891
 21
3.705702304840087
 31
0.0
  0
LINE
  5
C7
330
A
100
AcDbEntity
  8
TOP
  6
CONTINUOUS
 62
     3
100
AcDbLine
 10
3.647390365600585
 20
3.713424921035766
 30
0.0
 11
3.644192695617675
 21
3.713424921035766
 31
0.0
  0
LINE
  5
C8
330
A
100
AcDbEntity
  8
TOP
  6
CONTINUOUS
 62
     3
100
AcDbLine
 10
3.563889741897583
 20
3.681512594223022
 30
0.0
 11
3.563889741897583
 21
3.680266141891479
 31
0.0
  0
LINE
  5
C9
330
A
100
AcDbEntity
  8
TOP
  6
CONTINUOUS
 62
     3
100
AcDbLine
 10
3.345345497131347
 20
3.707815647125244
 30
0.0
 11
3.345889806747436
 21
3.720670700073242
 31
0.0
  0
LINE
  5
CB
330
A
100
AcDbEntity
  8
TOP
  6
CONTINUOUS
 62
     3
100
AcDbLine
 10
3.465889692306518
 20
3.771703481674194
 30
0.0
 11
3.465889692306518
 21
3.77231216430664
 31
0.0
  0
LINE
  5
CC
330
A
100
AcDbEntity
  8
TOP
  6
CONTINUOUS
 62
     3
100
AcDbLine
 10
3.711447954177856
 20
3.711081743240356
 30
0.0
 11
3.711447954177856
 21
3.70781397819519
 31
0.0
  0
LINE
  5
CD
330
A
100
AcDbEntity
  8
TOP
  6
CONTINUOUS
 62
     3
100
AcDbLine
 10
3.425889730453491
 20
3.762860059738159
 30
0.0
 11
3.4438898563385
 21
3.762860059738159
 31
0.0
  0
LINE
  5
CE
330
A
100
AcDbEntity
  8
TOP
  6
CONTINUOUS
 62
     3
100
AcDbLine
 10
5.612744331359863
 20
3.618676900863647
 30
0.0
 11
5.729744434356689
 21
3.618676900863647
 31
0.0
  0
LINE
  5
CF
330
A
100
AcDbEntity
  8
TOP
  6
CONTINUOUS
 62
     3
100
AcDbLine
 10
6.219397544860839
 20
3.556904315948486
 30
0.0
 11
6.219397544860839
 21
3.553955316543579
 31
0.0
  0
LINE
  5
D0
330
A
100
AcDbEntity
  8
TOP
  6
CONTINUOUS
 62
     3
100
AcDbLine
 10
3.425889730453491
 20
3.77231216430664
 30
0.0
 11
3.425889730453491
 21
3.781023740768432
 31
0.0
  0
LINE
  5
D1
330
A
100
AcDbEntity
  8
TOP
  6
CONTINUOUS
 62
     3
100
AcDbLine
 10
3.366889715194702
 20
3.781023263931274
 30
0.0
 11
3.366889715194702
 21
3.704823017120361
 31
0.0
  0
LINE
  5
D2
330
A
100
AcDbEntity
  8
TOP
  6
CONTINUOUS
 62
     3
100
AcDbLine
 10
3.711447954177856
 20
3.711081743240356
 30
0.0
 11
3.717860698699951
 21
3.711382150650024
 31
0.0
  0
LINE
  5
D3
330
A
100
AcDbEntity
  8
TOP
  6
CONTINUOUS
 62
     3
100
AcDbLine
 10
3.52388858795166
 20
3.705702304840087
 30
0.0
 11
3.526888847351074
 21
3.705702304840087
 31
0.0
  0
LINE
  5
D4
330
A
100
AcDbEntity
  8
TOP
  6
CONTINUOUS
 62
     3
100
AcDbLine
 10
3.345889091491699
 20
3.707814455032348
 30
0.0
 11
3.34238862991333
 21
3.707814455032348
 31
0.0
  0
LINE
  5
D5
330
A
100
AcDbEntity
  8
TOP
  6
CONTINUOUS
 62
     3
100
AcDbLine
 10
3.345889806747436
 20
3.678816556930541
 30
0.0
 11
3.345889806747436
 21
3.67367672920227
 31
0.0
  0
LINE
  5
D6
330
A
100
AcDbEntity
  8
TOP
  6
CONTINUOUS
 62
     3
100
AcDbLine
 10
3.468652486801147
 20
6.205713272094726
 30
0.0
 11
3.519433736801147
 21
6.205713272094726
 31
0.0
  0
LINE
  5
D7
330
A
100
AcDbEntity
  8
TOP
  6
CONTINUOUS
 62
     3
100
AcDbLine
 10
3.759389638900756
 20
5.080143928527832
 30
0.0
 11
3.230389833450317
 21
5.080143928527832
 31
0.0
  0
LINE
  5
D8
330
A
100
AcDbEntity
  8
TOP
  6
CONTINUOUS
 62
     3
100
AcDbLine
 10
3.225717306137084
 20
6.440370082855224
 30
0.0
 11
3.762368917465209
 21
6.440370082855224
 31
0.0
  0
LINE
  5
D9
330
A
100
AcDbEntity
  8
TOP
  6
CONTINUOUS
 62
     3
100
AcDbLine
 10
3.716726779937744
 20
6.462143898010253
 30
0.0
 11
3.705033540725708
 21
6.462143898010253
 31
0.0
  0
LINE
  5
DA
330
A
100
AcDbEntity
  8
TOP
  6
CONTINUOUS
 62
     3
100
AcDbLine
 10
3.620389699935913
 20
3.698966026306152
 30
0.0
 11
3.622511148452758
 21
3.698090553283691
 31
0.0
  0
LINE
  5
DB
330
A
100
AcDbEntity
  8
TOP
  6
CONTINUOUS
 62
     3
100
AcDbLine
 10
3.345889806747436
 20
3.680266141891479
 30
0.0
 11
3.345889806747436
 21
3.678816556930541
 31
0.0
  0
LINE
  5
DC
330
A
100
AcDbEntity
  8
TOP
  6
CONTINUOUS
 62
     3
100
AcDbLine
 10
3.403889656066894
 20
3.771223306655883
 30
0.0
 11
3.403889656066894
 21
3.764710903167724
 31
0.0
  0
LINE
  5
DD
330
A
100
AcDbEntity
  8
TOP
  6
CONTINUOUS
 62
     3
100
AcDbLine
 10
3.213034391403198
 20
6.437557220458984
 30
0.0
 11
3.221647024154663
 21
6.432987689971923
 31
0.0
  0
LINE
  5
DE
330
A
100
AcDbEntity
  8
TOP
  6
CONTINUOUS
 62
     3
100
AcDbLine
 10
3.505889654159545
 20
3.771223306655883
 30
0.0
 11
3.505889654159545
 21
3.764710903167724
 31
0.0
  0
LINE
  5
DF
330
A
100
AcDbEntity
  8
TOP
  6
CONTINUOUS
 62
     3
100
AcDbLine
 10
5.612798690795898
 20
3.864417314529418
 30
0.0
 11
5.612776756286621
 21
3.857550382614135
 31
0.0
  0
LINE
  5
E0
330
A
100
AcDbEntity
  8
TOP
  6
CONTINUOUS
 62
     3
100
AcDbLine
 10
3.342389345169067
 20
3.778816699981689
 30
0.0
 11
3.344210147857666
 21
3.778816699981689
 31
0.0
  0
LINE
  5
E1
330
A
100
AcDbEntity
  8
TOP
  6
CONTINUOUS
 62
     3
100
AcDbLine
 10
3.363889694213867
 20
3.763894796371459
 30
0.0
 11
3.363889694213867
 21
3.762860059738159
 31
0.0
  0
LINE
  5
E2
330
A
100
AcDbEntity
  8
TOP
  6
CONTINUOUS
 62
     3
100
AcDbLine
 10
4.94539737701416
 20
4.120527744293212
 30
0.0
 11
4.94539737701416
 21
4.063901901245117
 31
0.0
  0
LINE
  5
E3
330
A
100
AcDbEntity
  8
TOP
  6
CONTINUOUS
 62
     3
100
AcDbLine
 10
3.182389736175537
 20
3.413050174713134
 30
0.0
 11
3.191537618637084
 21
3.413050174713134
 31
0.0
  0
LINE
  5
E4
330
A
100
AcDbEntity
  8
TOP
  6
CONTINUOUS
 62
     3
100
AcDbLine
 10
3.582887172698974
 20
3.705702304840087
 30
0.0
 11
3.585887432098388
 21
3.705702304840087
 31
0.0
  0
LINE
  5
E5
330
A
100
AcDbEntity
  8
TOP
  6
CONTINUOUS
 62
     3
100
AcDbLine
 10
3.224800825119018
 20
5.619139194488525
 30
0.0
 11
3.224624395370483
 21
5.629237174987792
 31
0.0
  0
LINE
  5
E6
330
A
100
AcDbEntity
  8
TOP
  6
CONTINUOUS
 62
     3
100
AcDbLine
 10
3.756318569183349
 20
6.440370082855224
 30
0.0
 11
3.758535385131835
 21
6.44258689880371
 31
0.0
  0
LINE
  5
E7
330
A
100
AcDbEntity
  8
TOP
  6
CONTINUOUS
 62
     3
100
AcDbLine
 10
3.257025718688964
 20
5.090143680572509
 30
0.0
 11
3.196537017822265
 21
5.090143680572509
 31
0.0
  0
LINE
  5
E8
330
A
100
AcDbEntity
  8
TOP
  6
CONTINUOUS
 62
     3
100
AcDbLine
 10
3.696335315704345
 20
3.711384534835815
 30
0.0
 11
3.696638107299804
 21
3.711081743240356
 31
0.0
  0
LINE
  5
E9
330
A
100
AcDbEntity
  8
TOP
  6
CONTINUOUS
 62
     3
100
AcDbLine
 10
3.563889741897583
 20
3.764710903167724
 30
0.0
 11
3.563889741897583
 21
3.763894796371459
 31
0.0
  0
LINE
  5
EA
330
A
100
AcDbEntity
  8
TOP
  6
CONTINUOUS
 62
     3
100
AcDbLine
 10
3.384889841079711
 20
4.038676738739013
 30
0.0
 11
3.384889841079711
 21
4.084577083587646
 31
0.0
  0
LINE
  5
EB
330
A
100
AcDbEntity
  8
TOP
  6
CONTINUOUS
 62
     3
100
AcDbLine
 10
3.310107707977294
 20
3.710540294647216
 30
0.0
 11
3.310107707977294
 21
3.802305936813354
 31
0.0
  0
LINE
  5
EC
330
A
100
AcDbEntity
  8
TOP
  6
CONTINUOUS
 62
     3
100
AcDbLine
 10
3.230389833450317
 20
3.623677015304565
 30
0.0
 11
3.230389833450317
 21
3.643676996231079
 31
0.0
  0
LINE
  5
EE
330
A
100
AcDbEntity
  8
TOP
  6
CONTINUOUS
 62
     3
100
AcDbLine
 10
3.672224760055541
 20
3.509712934494018
 30
0.0
 11
3.672224760055541
 21
3.546465635299682
 31
0.0
  0
LINE
  5
EF
330
A
100
AcDbEntity
  8
TOP
  6
CONTINUOUS
 62
     3
100
AcDbLine
 10
3.299108505249023
 20
3.471454143524169
 30
0.0
 11
3.299108505249023
 21
3.536216259002685
 31
0.0
  0
LINE
  5
F0
330
A
100
AcDbEntity
  8
TOP
  6
CONTINUOUS
 62
     3
100
AcDbLine
 10
3.689665794372558
 20
3.711384534835815
 30
0.0
 11
3.682719230651855
 21
3.71113896369934
 31
0.0
  0
LINE
  5
F1
330
A
100
AcDbEntity
  8
TOP
  6
CONTINUOUS
 62
     3
100
AcDbLine
 10
5.386490821838378
 20
3.875676870346069
 30
0.0
 11
5.388086318969726
 21
3.875676870346069
 31
0.0
  0
LINE
  5
F2
330
A
100
AcDbEntity
  8
TOP
  6
CONTINUOUS
 62
     3
100
AcDbLine
 10
3.4438898563385
 20
3.77231216430664
 30
0.0
 11
3.4438898563385
 21
3.781023740768432
 31
0.0
  0
LINE
  5
F3
330
A
100
AcDbEntity
  8
TOP
  6
CONTINUOUS
 62
     3
100
AcDbLine
 10
5.550991058349609
 20
3.618676900863647
 30
0.0
 11
5.612744331359863
 21
3.618676900863647
 31
0.0
  0
LINE
  5
F4
330
A
100
AcDbEntity
  8
TOP
  6
CONTINUOUS
 62
     3
100
AcDbLine
 10
6.219397544860839
 20
3.523940801620483
 30
0.0
 11
6.219397544860839
 21
3.536216259002685
 31
0.0
  0
LINE
  5
F5
330
A
100
AcDbEntity
  8
TOP
  6
CONTINUOUS
 62
     3
100
AcDbLine
 10
3.622887372970581
 20
3.705702304840087
 30
0.0
 11
3.625887393951416
 21
3.705702304840087
 31
0.0
  0
LINE
  5
F6
330
A
100
AcDbEntity
  8
TOP
  6
CONTINUOUS
 62
     3
100
AcDbLine
 10
3.32687497138977
 20
3.704823017120361
 30
0.0
 11
3.32687497138977
 21
3.808023452758789
 31
0.0
  0
LINE
  5
F7
330
A
100
AcDbEntity
  8
TOP
  6
CONTINUOUS
 62
     3
100
AcDbLine
 10
3.465889692306518
 20
3.77231216430664
 30
0.0
 11
3.483889818191528
 21
3.77231216430664
 31
0.0
  0
LINE
  5
F8
330
A
100
AcDbEntity
  8
TOP
  6
CONTINUOUS
 62
     3
100
AcDbLine
 10
5.389970302581787
 20
3.875666141510009
 30
0.0
 11
5.388176441192626
 21
3.875589132308959
 31
0.0
  0
LINE
  5
F9
330
A
100
AcDbEntity
  8
TOP
  6
CONTINUOUS
 62
     3
100
AcDbLine
 10
3.643890142440795
 20
3.707776308059692
 30
0.0
 11
3.647390127182006
 21
3.707776308059692
 31
0.0
  0
LINE
  5
FA
330
A
100
AcDbEntity
  8
TOP
  6
CONTINUOUS
 62
     3
100
AcDbLine
 10
3.571447849273681
 20
5.66211986541748
 30
0.0
 11
3.570993185043334
 21
5.636066913604736
 31
0.0
  0
LINE
  5
FB
330
A
100
AcDbEntity
  8
TOP
  6
CONTINUOUS
 62
     3
100
AcDbLine
 10
3.196383953094482
 20
6.42087697982788
 30
0.0
 11
3.196303606033325
 21
6.416266918182373
 31
0.0
  0
LINE
  5
FC
330
A
100
AcDbEntity
  8
TOP
  6
CONTINUOUS
 62
     3
100
AcDbLine
 10
3.202131032943725
 20
5.855552673339843
 30
0.0
 11
3.210941076278686
 21
5.855538845062255
 31
0.0
  0
LINE
  5
FD
330
A
100
AcDbEntity
  8
TOP
  6
CONTINUOUS
 62
     3
100
AcDbLine
 10
3.705033540725708
 20
6.462143898010253
 30
0.0
 11
3.716726779937744
 21
6.462143898010253
 31
0.0
  0
LINE
  5
FE
330
A
100
AcDbEntity
  8
TOP
  6
CONTINUOUS
 62
     3
100
AcDbLine
 10
3.645268440246582
 20
3.689799070358276
 30
0.0
 11
3.644389867782592
 21
3.689614057540893
 31
0.0
  0
LINE
  5
FF
330
A
100
AcDbEntity
  8
TOP
  6
CONTINUOUS
 62
     3
100
AcDbLine
 10
3.625889778137207
 20
3.678816556930541
 30
0.0
 11
3.643889665603637
 21
3.678816556930541
 31
0.0
  0
LINE
  5
100
330
A
100
AcDbEntity
  8
TOP
  6
CONTINUOUS
 62
     3
100
AcDbLine
 10
3.678569555282592
 20
3.707776308059692
 30
0.0
 11
3.728209733963012
 21
3.707776308059692
 31
0.0
  0
LINE
  5
101
330
A
100
AcDbEntity
  8
TOP
  6
CONTINUOUS
 62
     3
100
AcDbLine
 10
3.225717306137084
 20
6.440370082855224
 30
0.0
 11
3.225529193878173
 21
6.440369606018066
 31
0.0
  0
LINE
  5
102
330
A
100
AcDbEntity
  8
TOP
  6
CONTINUOUS
 62
     3
100
AcDbLine
 10
3.505889654159545
 20
3.681512594223022
 30
0.0
 11
3.505889654159545
 21
3.762860059738159
 31
0.0
  0
LINE
  5
103
330
A
100
AcDbEntity
  8
TOP
  6
CONTINUOUS
 62
     3
100
AcDbLine
 10
3.582889795303344
 20
3.781023263931274
 30
0.0
 11
3.582889795303344
 21
3.704823017120361
 31
0.0
  0
LINE
  5
104
330
A
100
AcDbEntity
  8
TOP
  6
CONTINUOUS
 62
     3
100
AcDbLine
 10
5.612744331359863
 20
3.875676870346069
 30
0.0
 11
5.61277961730957
 21
3.874944925308227
 31
0.0
  0
LINE
  5
105
330
A
100
AcDbEntity
  8
TOP
  6
CONTINUOUS
 62
     3
100
AcDbLine
 10
3.345889806747436
 20
3.763894796371459
 30
0.0
 11
3.345889806747436
 21
3.762860059738159
 31
0.0
  0
LINE
  5
106
330
A
100
AcDbEntity
  8
TOP
  6
CONTINUOUS
 62
     3
100
AcDbLine
 10
4.852310180664062
 20
4.062277317047119
 30
0.0
 11
4.852310180664062
 21
3.413050174713134
 31
0.0
  0
LINE
  5
107
330
A
100
AcDbEntity
  8
TOP
  6
CONTINUOUS
 62
     3
100
AcDbLine
 10
3.807199954986572
 20
6.336494445800781
 30
0.0
 11
3.793014764785766
 21
6.336494445800781
 31
0.0
  0
LINE
  5
108
330
A
100
AcDbEntity
  8
TOP
  6
CONTINUOUS
 62
     3
100
AcDbLine
 10
3.340889692306518
 20
4.038676738739013
 30
0.0
 11
3.352370262145996
 21
4.027196407318115
 31
0.0
  0
LINE
  5
109
330
A
100
AcDbEntity
  8
TOP
  6
CONTINUOUS
 62
     3
100
AcDbLine
 10
3.796746969223022
 20
3.413050174713134
 30
0.0
 11
3.793242454528808
 21
3.413050174713134
 31
0.0
  0
LINE
  5
10A
330
A
100
AcDbEntity
  8
TOP
  6
CONTINUOUS
 62
     3
100
AcDbLine
 10
3.403890371322631
 20
3.698966026306152
 30
0.0
 11
3.425892114639282
 21
3.698966026306152
 31
0.0
  0
LINE
  5
10B
330
A
100
AcDbEntity
  8
TOP
  6
CONTINUOUS
 62
     3
100
AcDbLine
 10
3.257153987884521
 20
5.619537353515625
 30
0.0
 11
3.256983280181884
 21
5.629237174987792
 31
0.0
  0
LINE
  5
10C
330
A
100
AcDbEntity
  8
TOP
  6
CONTINUOUS
 62
     3
100
AcDbLine
 10
3.300954580307006
 20
6.440500736236572
 30
0.0
 11
3.369958877563476
 21
6.44258689880371
 31
0.0
  0
LINE
  5
10D
330
A
100
AcDbEntity
  8
TOP
  6
CONTINUOUS
 62
     3
100
AcDbLine
 10
3.68734073638916
 20
6.462143898010253
 30
0.0
 11
3.677263498306274
 21
6.462143898010253
 31
0.0
  0
LINE
  5
10E
330
A
100
AcDbEntity
  8
TOP
  6
CONTINUOUS
 62
     3
100
AcDbLine
 10
3.344295024871826
 20
3.713424921035766
 30
0.0
 11
3.342389345169067
 21
3.713424921035766
 31
0.0
  0
LINE
  5
10F
330
A
100
AcDbEntity
  8
TOP
  6
CONTINUOUS
 62
     3
100
AcDbLine
 10
3.626638174057006
 20
5.66211986541748
 30
0.0
 11
3.627093076705932
 21
5.636066913604736
 31
0.0
  0
LINE
  5
110
330
A
100
AcDbEntity
  8
TOP
  6
CONTINUOUS
 62
     3
100
AcDbLine
 10
3.369389772415161
 20
3.689875602722167
 30
0.0
 11
3.369389772415161
 21
3.673676967620849
 31
0.0
  0
LINE
  5
111
330
A
100
AcDbEntity
  8
TOP
  6
CONTINUOUS
 62
     3
100
AcDbLine
 10
3.320671081542968
 20
3.477137565612792
 30
0.0
 11
3.320671081542968
 21
3.502172470092773
 31
0.0
  0
LINE
  5
112
330
A
100
AcDbEntity
  8
TOP
  6
CONTINUOUS
 62
     3
100
AcDbLine
 10
3.265719175338745
 20
3.80170726776123
 30
0.0
 11
3.262671709060668
 21
3.802305936813354
 31
0.0
  0
LINE
  5
113
330
A
100
AcDbEntity
  8
TOP
  6
CONTINUOUS
 62
     3
100
AcDbLine
 10
3.589889764785766
 20
3.542351961135864
 30
0.0
 11
3.399889707565307
 21
3.542351961135864
 31
0.0
  0
LINE
  5
115
330
A
100
AcDbEntity
  8
TOP
  6
CONTINUOUS
 62
     3
100
AcDbLine
 10
3.648889780044555
 20
4.038676738739013
 30
0.0
 11
3.648889780044555
 21
3.972676992416381
 31
0.0
  0
LINE
  5
116
330
A
100
AcDbEntity
  8
TOP
  6
CONTINUOUS
 62
     3
100
AcDbLine
 10
3.7316734790802
 20
3.944960594177246
 30
0.0
 11
3.729389667510986
 21
3.942677021026611
 31
0.0
  0
LINE
  5
117
330
A
100
AcDbEntity
  8
TOP
  6
CONTINUOUS
 62
     3
100
AcDbLine
 10
3.443893671035766
 20
3.698966026306152
 30
0.0
 11
3.465891361236572
 21
3.698966026306152
 31
0.0
  0
LINE
  5
118
330
A
100
AcDbEntity
  8
TOP
  6
CONTINUOUS
 62
     3
100
AcDbLine
 10
5.612740039825439
 20
3.847009658813476
 30
0.0
 11
5.612740039825439
 21
3.857550382614135
 31
0.0
  0
LINE
  5
119
330
A
100
AcDbEntity
  8
TOP
  6
CONTINUOUS
 62
     3
100
AcDbLine
 10
5.612740039825439
 20
3.673676967620849
 30
0.0
 11
5.612745285034179
 21
3.673676967620849
 31
0.0
  0
LINE
  5
11A
330
A
100
AcDbEntity
  8
TOP
  6
CONTINUOUS
 62
     3
100
AcDbLine
 10
3.4438898563385
 20
3.771223306655883
 30
0.0
 11
3.4438898563385
 21
3.771703481674194
 31
0.0
  0
LINE
  5
11B
330
A
100
AcDbEntity
  8
TOP
  6
CONTINUOUS
 62
     3
100
AcDbLine
 10
6.112535953521728
 20
3.673676967620849
 30
0.0
 11
6.142536163330078
 21
3.673676967620849
 31
0.0
  0
LINE
  5
11C
330
A
100
AcDbEntity
  8
TOP
  6
CONTINUOUS
 62
     3
100
AcDbLine
 10
6.219397544860839
 20
3.492033720016479
 30
0.0
 11
6.219397544860839
 21
3.512676954269409
 31
0.0
  0
LINE
  5
11D
330
A
100
AcDbEntity
  8
TOP
  6
CONTINUOUS
 62
     3
100
AcDbLine
 10
3.310107707977294
 20
3.710540294647216
 30
0.0
 11
3.307060480117797
 21
3.71113896369934
 31
0.0
  0
LINE
  5
11E
330
A
100
AcDbEntity
  8
TOP
  6
CONTINUOUS
 62
     3
100
AcDbLine
 10
3.4438898563385
 20
3.678816556930541
 30
0.0
 11
3.4438898563385
 21
3.67367672920227
 31
0.0
  0
LINE
  5
11F
330
A
100
AcDbEntity
  8
TOP
  6
CONTINUOUS
 62
     3
100
AcDbLine
 10
3.523888111114501
 20
3.698966026306152
 30
0.0
 11
3.545885801315307
 21
3.698966026306152
 31
0.0
  0
LINE
  5
120
330
A
100
AcDbEntity
  8
TOP
  6
CONTINUOUS
 62
     3
100
AcDbLine
 10
3.220873832702636
 20
5.855490684509277
 30
0.0
 11
3.220870494842529
 21
5.855490684509277
 31
0.0
  0
LINE
  5
121
330
A
100
AcDbEntity
  8
TOP
  6
CONTINUOUS
 62
     3
100
AcDbLine
 10
3.646246433258056
 20
6.462143898010253
 30
0.0
 11
3.666889667510986
 21
6.462143898010253
 31
0.0
  0
LINE
  5
122
330
A
100
AcDbEntity
  8
TOP
  6
CONTINUOUS
 62
     3
100
AcDbLine
 10
3.647389650344848
 20
3.698966026306152
 30
0.0
 11
3.645268440246582
 21
3.698090553283691
 31
0.0
  0
LINE
  5
123
330
A
100
AcDbEntity
  8
TOP
  6
CONTINUOUS
 62
     3
100
AcDbLine
 10
3.643889665603637
 20
3.681512594223022
 30
0.0
 11
3.643889665603637
 21
3.680266141891479
 31
0.0
  0
LINE
  5
124
330
A
100
AcDbEntity
  8
TOP
  6
CONTINUOUS
 62
     3
100
AcDbLine
 10
3.775051832199096
 20
6.437557220458984
 30
0.0
 11
3.772650241851806
 21
6.43855333328247
 31
0.0
  0
LINE
  5
125
330
A
100
AcDbEntity
  8
TOP
  6
CONTINUOUS
 62
     3
100
AcDbLine
 10
3.194912195205688
 20
4.125526905059814
 30
0.0
 11
3.189912796020507
 21
4.120527744293212
 31
0.0
  0
LINE
  5
126
330
A
100
AcDbEntity
  8
TOP
  6
CONTINUOUS
 62
     3
100
AcDbLine
 10
3.230389833450317
 20
3.972676992416381
 30
0.0
 11
3.340889692306518
 21
3.972676992416381
 31
0.0
  0
LINE
  5
127
330
A
100
AcDbEntity
  8
TOP
  6
CONTINUOUS
 62
     3
100
AcDbLine
 10
5.386981010437011
 20
3.875371932983398
 30
0.0
 11
5.386499881744384
 21
3.874969482421875
 31
0.0
  0
LINE
  5
128
330
A
100
AcDbEntity
  8
TOP
  6
CONTINUOUS
 62
     3
100
AcDbLine
 10
3.345889806747436
 20
3.77231216430664
 30
0.0
 11
3.345889806747436
 21
3.781023740768432
 31
0.0
  0
LINE
  5
129
330
A
100
AcDbEntity
  8
TOP
  6
CONTINUOUS
 62
     3
100
AcDbLine
 10
5.376397132873535
 20
4.128050804138183
 30
0.0
 11
5.376397132873535
 21
3.573676824569702
 31
0.0
  0
LINE
  5
12A
330
A
100
AcDbEntity
  8
TOP
  6
CONTINUOUS
 62
     3
100
AcDbLine
 10
3.563887357711791
 20
3.698966026306152
 30
0.0
 11
3.585889101028442
 21
3.698966026306152
 31
0.0
  0
LINE
  5
12B
330
A
100
AcDbEntity
  8
TOP
  6
CONTINUOUS
 62
     3
100
AcDbLine
 10
3.465889692306518
 20
3.764710903167724
 30
0.0
 11
3.483889818191528
 21
3.764710903167724
 31
0.0
  0
LINE
  5
12C
330
A
100
AcDbEntity
  8
TOP
  6
CONTINUOUS
 62
     3
100
AcDbLine
 10
3.637409210205078
 20
4.027196407318115
 30
0.0
 11
3.627676486968994
 21
4.017463684082031
 31
0.0
  0
LINE
  5
12D
330
A
100
AcDbEntity
  8
TOP
  6
CONTINUOUS
 62
     3
100
AcDbLine
 10
3.648889780044555
 20
3.972676992416381
 30
0.0
 11
3.759389638900756
 21
3.972676992416381
 31
0.0
  0
LINE
  5
12E
330
A
100
AcDbEntity
  8
TOP
  6
CONTINUOUS
 62
     3
100
AcDbLine
 10
3.483889818191528
 20
3.771223306655883
 30
0.0
 11
3.483889818191528
 21
3.764710903167724
 31
0.0
  0
LINE
  5
12F
330
A
100
AcDbEntity
  8
TOP
  6
CONTINUOUS
 62
     3
100
AcDbLine
 10
3.758535385131835
 20
6.44258689880371
 30
0.0
 11
3.776598215103149
 21
6.436780452728271
 31
0.0
  0
LINE
  5
130
330
A
100
AcDbEntity
  8
TOP
  6
CONTINUOUS
 62
     3
100
AcDbLine
 10
3.231263399124145
 20
6.44258689880371
 30
0.0
 11
3.231244087219238
 21
6.44258689880371
 31
0.0
  0
LINE
  5
131
330
A
100
AcDbEntity
  8
TOP
  6
CONTINUOUS
 62
     3
100
AcDbLine
 10
3.340263605117797
 20
6.462143898010253
 30
0.0
 11
3.333083152770996
 21
6.462143898010253
 31
0.0
  0
LINE
  5
132
330
A
100
AcDbEntity
  8
TOP
  6
CONTINUOUS
 62
     3
100
AcDbLine
 10
3.544173240661621
 20
6.217374801635742
 30
0.0
 11
3.544173240661621
 21
6.254951477050781
 31
0.0
  0
LINE
  5
133
330
A
100
AcDbEntity
  8
TOP
  6
CONTINUOUS
 62
     3
100
AcDbLine
 10
3.385889768600463
 20
3.680266141891479
 30
0.0
 11
3.385889768600463
 21
3.678816556930541
 31
0.0
  0
LINE
  5
134
330
A
100
AcDbEntity
  8
TOP
  6
CONTINUOUS
 62
     3
100
AcDbLine
 10
3.733889818191528
 20
3.475677013397216
 30
0.0
 11
3.721889734268188
 21
3.475677013397216
 31
0.0
  0
LINE
  5
135
330
A
100
AcDbEntity
  8
TOP
  6
CONTINUOUS
 62
     3
100
AcDbLine
 10
3.260389804840087
 20
3.808023452758789
 30
0.0
 11
3.262671709060668
 21
3.802305936813354
 31
0.0
  0
LINE
  5
136
330
A
100
AcDbEntity
  8
TOP
  6
CONTINUOUS
 62
     3
100
AcDbLine
 10
3.604191541671752
 20
3.493050098419189
 30
0.0
 11
3.604191541671752
 21
3.528049945831298
 31
0.0
  0
LINE
  5
137
330
A
100
AcDbEntity
  8
TOP
  6
CONTINUOUS
 62
     3
100
AcDbLine
 10
3.806543111801147
 20
5.972490787506103
 30
0.0
 11
3.806543111801147
 21
5.855486392974853
 31
0.0
  0
LINE
  5
138
330
A
100
AcDbEntity
  8
TOP
  6
CONTINUOUS
 62
     3
100
AcDbLine
 10
3.759389638900756
 20
3.972676992416381
 30
0.0
 11
3.747909307479858
 21
3.961196422576904
 31
0.0
  0
LINE
  5
139
330
A
100
AcDbEntity
  8
TOP
  6
CONTINUOUS
 62
     3
100
AcDbLine
 10
3.465889692306518
 20
3.764710903167724
 30
0.0
 11
3.465889692306518
 21
3.763894796371459
 31
0.0
  0
LINE
  5
13A
330
A
100
AcDbEntity
  8
TOP
  6
CONTINUOUS
 62
     3
100
AcDbLine
 10
3.331850290298461
 20
3.828023433685302
 30
0.0
 11
3.331850290298461
 21
3.860635042190551
 31
0.0
  0
LINE
  5
13B
330
A
100
AcDbEntity
  8
TOP
  6
CONTINUOUS
 62
     3
100
AcDbLine
 10
3.193032503128051
 20
3.413050174713134
 30
0.0
 11
3.191537618637084
 21
3.413050174713134
 31
0.0
  0
LINE
  5
13C
330
A
100
AcDbEntity
  8
TOP
  6
CONTINUOUS
 62
     3
100
AcDbLine
 10
5.37679100036621
 20
3.67370319366455
 30
0.0
 11
5.386490821838378
 21
3.673676967620849
 31
0.0
  0
LINE
  5
13D
330
A
100
AcDbEntity
  8
TOP
  6
CONTINUOUS
 62
     3
100
AcDbLine
 10
3.369389772415161
 20
3.696075201034545
 30
0.0
 11
3.369389772415161
 21
3.689875602722167
 31
0.0
  0
LINE
  5
13E
330
A
100
AcDbEntity
  8
TOP
  6
CONTINUOUS
 62
     3
100
AcDbLine
 10
3.519433736801147
 20
3.799023866653442
 30
0.0
 11
3.544173240661621
 21
3.799839496612548
 31
0.0
  0
LINE
  5
13F
330
A
100
AcDbEntity
  8
TOP
  6
CONTINUOUS
 62
     3
100
AcDbLine
 10
3.425889730453491
 20
3.77231216430664
 30
0.0
 11
3.4438898563385
 21
3.77231216430664
 31
0.0
  0
LINE
  5
140
330
A
100
AcDbEntity
  8
TOP
  6
CONTINUOUS
 62
     3
100
AcDbLine
 10
6.112530708312988
 20
3.673676967620849
 30
0.0
 11
6.142536163330078
 21
3.673676967620849
 31
0.0
  0
LINE
  5
141
330
A
100
AcDbEntity
  8
TOP
  6
CONTINUOUS
 62
     3
100
AcDbLine
 10
3.360202312469482
 20
6.462143898010253
 30
0.0
 11
3.356087446212768
 21
6.462143898010253
 31
0.0
  0
LINE
  5
142
330
A
100
AcDbEntity
  8
TOP
  6
CONTINUOUS
 62
     3
100
AcDbLine
 10
6.219397544860839
 20
3.458733558654785
 30
0.0
 11
6.219397544860839
 21
3.462839841842651
 31
0.0
  0
LINE
  5
143
330
A
100
AcDbEntity
  8
TOP
  6
CONTINUOUS
 62
     3
100
AcDbLine
 10
3.31188416481018
 20
3.706089496612548
 30
0.0
 11
3.316455125808715
 21
3.705191135406494
 31
0.0
  0
LINE
  5
144
330
A
100
AcDbEntity
  8
TOP
  6
CONTINUOUS
 62
     3
100
AcDbLine
 10
3.385889768600463
 20
3.771223306655883
 30
0.0
 11
3.385889768600463
 21
3.771703481674194
 31
0.0
  0
LINE
  5
145
330
A
100
AcDbEntity
  8
TOP
  6
CONTINUOUS
 62
     3
100
AcDbLine
 10
3.486638307571411
 20
5.66211986541748
 30
0.0
 11
3.487093210220336
 21
5.636066913604736
 31
0.0
  0
LINE
  5
146
330
A
100
AcDbEntity
  8
TOP
  6
CONTINUOUS
 62
     3
100
AcDbLine
 10
3.807389736175537
 20
5.619143962860107
 30
0.0
 11
3.803264379501342
 21
5.855492115020751
 31
0.0
  0
LINE
  5
147
330
A
100
AcDbEntity
  8
TOP
  6
CONTINUOUS
 62
     3
100
AcDbLine
 10
3.218332052230834
 20
5.630718231201171
 30
0.0
 11
3.21988034248352
 21
5.6324143409729
 31
0.0
  0
LINE
  5
148
330
A
100
AcDbEntity
  8
TOP
  6
CONTINUOUS
 62
     3
100
AcDbLine
 10
3.612946510314941
 20
6.462143898010253
 30
0.0
 11
3.617052555084228
 21
6.462143898010253
 31
0.0
  0
LINE
  5
149
330
A
100
AcDbEntity
  8
TOP
  6
CONTINUOUS
 62
     3
100
AcDbLine
 10
3.585889816284179
 20
3.678816556930541
 30
0.0
 11
3.585889816284179
 21
3.67367672920227
 31
0.0
  0
LINE
  5
14A
330
A
100
AcDbEntity
  8
TOP
  6
CONTINUOUS
 62
     3
100
AcDbLine
 10
3.625889778137207
 20
3.678816556930541
 30
0.0
 11
3.625889778137207
 21
3.67367672920227
 31
0.0
  0
LINE
  5
14B
330
A
100
AcDbEntity
  8
TOP
  6
CONTINUOUS
 62
     3
100
AcDbLine
 10
3.191537618637084
 20
4.062277317047119
 30
0.0
 11
3.196537017822265
 21
4.062191486358642
 31
0.0
  0
LINE
  5
14C
330
A
100
AcDbEntity
  8
TOP
  6
CONTINUOUS
 62
     3
100
AcDbLine
 10
3.732753753662109
 20
4.062191486358642
 30
0.0
 11
3.793242454528808
 21
4.062191486358642
 31
0.0
  0
LINE
  5
14D
330
A
100
AcDbEntity
  8
TOP
  6
CONTINUOUS
 62
     3
100
AcDbLine
 10
5.392154693603515
 20
3.875676870346069
 30
0.0
 11
5.389970302581787
 21
3.875666141510009
 31
0.0
  0
LINE
  5
14E
330
A
100
AcDbEntity
  8
TOP
  6
CONTINUOUS
 62
     3
100
AcDbLine
 10
3.483889818191528
 20
3.764710903167724
 30
0.0
 11
3.483889818191528
 21
3.763894796371459
 31
0.0
  0
LINE
  5
14F
330
A
100
AcDbEntity
  8
TOP
  6
CONTINUOUS
 62
     3
100
AcDbLine
 10
3.345889806747436
 20
3.771703481674194
 30
0.0
 11
3.345889806747436
 21
3.77231216430664
 31
0.0
  0
LINE
  5
150
330
A
100
AcDbEntity
  8
TOP
  6
CONTINUOUS
 62
     3
100
AcDbLine
 10
3.443893671035766
 20
3.689875602722167
 30
0.0
 11
3.465891361236572
 21
3.689875602722167
 31
0.0
  0
LINE
  5
151
330
A
100
AcDbEntity
  8
TOP
  6
CONTINUOUS
 62
     3
100
AcDbLine
 10
6.194397449493408
 20
3.413050174713134
 30
0.0
 11
6.186443328857421
 21
3.413050174713134
 31
0.0
  0
LINE
  5
152
330
A
100
AcDbEntity
  8
TOP
  6
CONTINUOUS
 62
     3
100
AcDbLine
 10
6.219397544860839
 20
3.459691524505615
 30
0.0
 11
6.219397544860839
 21
3.45052146911621
 31
0.0
  0
LINE
  5
153
330
A
100
AcDbEntity
  8
TOP
  6
CONTINUOUS
 62
     3
100
AcDbLine
 10
3.566889762878417
 20
3.781023263931274
 30
0.0
 11
3.542889833450317
 21
3.781023263931274
 31
0.0
  0
LINE
  5
154
330
A
100
AcDbEntity
  8
TOP
  6
CONTINUOUS
 62
     3
100
AcDbLine
 10
3.604889869689941
 20
4.084577083587646
 30
0.0
 11
3.604889869689941
 21
4.038676738739013
 31
0.0
  0
LINE
  5
155
330
A
100
AcDbEntity
  8
TOP
  6
CONTINUOUS
 62
     3
100
AcDbLine
 10
3.797300100326538
 20
5.629237174987792
 30
0.0
 11
3.797212362289428
 21
5.639302730560302
 31
0.0
  0
LINE
  5
156
330
A
100
AcDbEntity
  8
TOP
  6
CONTINUOUS
 62
     3
100
AcDbLine
 10
3.807389736175537
 20
5.855490684509277
 30
0.0
 11
3.807389736175537
 21
5.972490787506103
 31
0.0
  0
LINE
  5
157
330
A
100
AcDbEntity
  8
TOP
  6
CONTINUOUS
 62
     3
100
AcDbLine
 10
3.327097654342651
 20
6.462143898010253
 30
0.0
 11
3.306964397430419
 21
6.462143898010253
 31
0.0
  0
LINE
  5
158
330
A
100
AcDbEntity
  8
TOP
  6
CONTINUOUS
 62
     3
100
AcDbLine
 10
3.802390575408935
 20
4.133049964904785
 30
0.0
 11
3.187388896942138
 21
4.133049964904785
 31
0.0
  0
LINE
  5
159
330
A
100
AcDbEntity
  8
TOP
  6
CONTINUOUS
 62
     3
100
AcDbLine
 10
3.291447877883911
 20
3.711081743240356
 30
0.0
 11
3.291447877883911
 21
3.70781397819519
 31
0.0
  0
LINE
  5
15A
330
A
100
AcDbEntity
  8
TOP
  6
CONTINUOUS
 62
     3
100
AcDbLine
 10
3.523888111114501
 20
3.689875602722167
 30
0.0
 11
3.545885801315307
 21
3.689875602722167
 31
0.0
  0
LINE
  5
15B
330
A
100
AcDbEntity
  8
TOP
  6
CONTINUOUS
 62
     3
100
AcDbLine
 10
3.647389650344848
 20
3.698966026306152
 30
0.0
 11
3.729346752166748
 21
3.698966026306152
 31
0.0
  0
LINE
  5
15C
330
A
100
AcDbEntity
  8
TOP
  6
CONTINUOUS
 62
     3
100
AcDbLine
 10
3.717889785766601
 20
3.467676877975463
 30
0.0
 11
3.721889734268188
 21
3.465782165527343
 31
0.0
  0
LINE
  5
15D
330
A
100
AcDbEntity
  8
TOP
  6
CONTINUOUS
 62
     3
100
AcDbLine
 10
3.604889869689941
 20
3.493050098419189
 30
0.0
 11
3.604191541671752
 21
3.493050098419189
 31
0.0
  0
LINE
  5
15E
330
A
100
AcDbEntity
  8
TOP
  6
CONTINUOUS
 62
     3
100
AcDbLine
 10
3.791543006896972
 20
5.972490787506103
 30
0.0
 11
3.802523851394653
 21
5.972490787506103
 31
0.0
  0
LINE
  5
15F
330
A
100
AcDbEntity
  8
TOP
  6
CONTINUOUS
 62
     3
100
AcDbLine
 10
3.637409210205078
 20
3.961196422576904
 30
0.0
 11
3.627676486968994
 21
3.95146369934082
 31
0.0
  0
LINE
  5
160
330
A
100
AcDbEntity
  8
TOP
  6
CONTINUOUS
 62
     3
100
AcDbLine
 10
3.331850290298461
 20
3.828023433685302
 30
0.0
 11
3.331850290298461
 21
3.808023452758789
 31
0.0
  0
LINE
  5
161
330
A
100
AcDbEntity
  8
TOP
  6
CONTINUOUS
 62
     3
100
AcDbLine
 10
6.136490821838378
 20
3.800676822662353
 30
0.0
 11
6.144752979278564
 21
3.800676822662353
 31
0.0
  0
LINE
  5
162
330
A
100
AcDbEntity
  8
TOP
  6
CONTINUOUS
 62
     3
100
AcDbLine
 10
3.425889730453491
 20
3.764710903167724
 30
0.0
 11
3.4438898563385
 21
3.764710903167724
 31
0.0
  0
LINE
  5
163
330
A
100
AcDbEntity
  8
TOP
  6
CONTINUOUS
 62
     3
100
AcDbLine
 10
5.376397132873535
 20
3.696259260177612
 30
0.0
 11
5.37679100036621
 21
3.67370319366455
 31
0.0
  0
LINE
  5
164
330
A
100
AcDbEntity
  8
TOP
  6
CONTINUOUS
 62
     3
100
AcDbLine
 10
6.219397544860839
 20
3.492033720016479
 30
0.0
 11
6.219397544860839
 21
3.474533319473266
 31
0.0
  0
LINE
  5
165
330
A
100
AcDbEntity
  8
TOP
  6
CONTINUOUS
 62
     3
100
AcDbLine
 10
3.265719175338745
 20
3.71113896369934
 30
0.0
 11
3.262671709060668
 21
3.710540294647216
 31
0.0
  0
LINE
  5
166
330
A
100
AcDbEntity
  8
TOP
  6
CONTINUOUS
 62
     3
100
AcDbLine
 10
3.603886604309082
 20
3.689875602722167
 30
0.0
 11
3.620389699935913
 21
3.689875602722167
 31
0.0
  0
LINE
  5
167
330
A
100
AcDbEntity
  8
TOP
  6
CONTINUOUS
 62
     3
100
AcDbLine
 10
3.799866676330566
 20
5.188143730163574
 30
0.0
 11
3.794867277145385
 21
5.188143730163574
 31
0.0
  0
LINE
  5
168
330
A
100
AcDbEntity
  8
TOP
  6
CONTINUOUS
 62
     3
100
AcDbLine
 10
3.190873861312866
 20
5.629237174987792
 30
0.0
 11
3.190873861312866
 21
5.784476280212402
 31
0.0
  0
LINE
  5
169
330
A
100
AcDbEntity
  8
TOP
  6
CONTINUOUS
 62
     3
100
AcDbLine
 10
3.712483882904052
 20
6.462143898010253
 30
0.0
 11
3.70838975906372
 21
6.462143898010253
 31
0.0
  0
LINE
  5
16A
330
A
100
AcDbEntity
  8
TOP
  6
CONTINUOUS
 62
     3
100
AcDbLine
 10
3.545889854431152
 20
3.762860059738159
 30
0.0
 11
3.563889741897583
 21
3.762860059738159
 31
0.0
  0
LINE
  5
16B
330
A
100
AcDbEntity
  8
TOP
  6
CONTINUOUS
 62
     3
100
AcDbLine
 10
3.724060297012329
 20
3.71113896369934
 30
0.0
 11
3.717113733291625
 21
3.711384534835815
 31
0.0
  0
LINE
  5
16C
330
A
100
AcDbEntity
  8
TOP
  6
CONTINUOUS
 62
     3
100
AcDbLine
 10
3.625889778137207
 20
3.681512594223022
 30
0.0
 11
3.625889778137207
 21
3.762860059738159
 31
0.0
  0
LINE
  5
16D
330
A
100
AcDbEntity
  8
TOP
  6
CONTINUOUS
 62
     3
100
AcDbLine
 10
6.219397544860839
 20
3.465677022933959
 30
0.0
 11
6.219397544860839
 21
3.476925611495971
 31
0.0
  0
LINE
  5
16E
330
A
100
AcDbEntity
  8
TOP
  6
CONTINUOUS
 62
     3
100
AcDbLine
 10
3.662904500961303
 20
3.704823017120361
 30
0.0
 11
3.647389650344848
 21
3.704823017120361
 31
0.0
  0
LINE
  5
16F
330
A
100
AcDbEntity
  8
TOP
  6
CONTINUOUS
 62
     3
100
AcDbLine
 10
3.311195373535156
 20
3.707814455032348
 30
0.0
 11
3.261585235595703
 21
3.707814455032348
 31
0.0
  0
LINE
  5
170
330
A
100
AcDbEntity
  8
TOP
  6
CONTINUOUS
 62
     3
100
AcDbLine
 10
3.189912796020507
 20
4.063901901245117
 30
0.0
 11
3.189912796020507
 21
4.120527744293212
 31
0.0
  0
LINE
  5
171
330
A
100
AcDbEntity
  8
TOP
  6
CONTINUOUS
 62
     3
100
AcDbLine
 10
3.196537017822265
 20
4.062191486358642
 30
0.0
 11
3.196537017822265
 21
3.413050174713134
 31
0.0
  0
LINE
  5
172
330
A
100
AcDbEntity
  8
TOP
  6
CONTINUOUS
 62
     3
100
AcDbLine
 10
5.386490821838378
 20
3.864319324493408
 30
0.0
 11
5.386490821838378
 21
3.874888896942138
 31
0.0
  0
LINE
  5
173
330
A
100
AcDbEntity
  8
TOP
  6
CONTINUOUS
 62
     3
100
AcDbLine
 10
3.345889806747436
 20
3.771223306655883
 30
0.0
 11
3.363889694213867
 21
3.771223306655883
 31
0.0
  0
LINE
  5
174
330
A
100
AcDbEntity
  8
TOP
  6
CONTINUOUS
 62
     3
100
AcDbLine
 10
3.465889692306518
 20
3.681512594223022
 30
0.0
 11
3.465889692306518
 21
3.680266141891479
 31
0.0
  0
LINE
  5
175
330
A
100
AcDbEntity
  8
TOP
  6
CONTINUOUS
 62
     3
100
AcDbLine
 10
5.376397132873535
 20
3.413050174713134
 30
0.0
 11
4.852310180664062
 21
3.413050174713134
 31
0.0
  0
LINE
  5
176
330
A
100
AcDbEntity
  8
TOP
  6
CONTINUOUS
 62
     3
100
AcDbLine
 10
3.52688980102539
 20
3.781023263931274
 30
0.0
 11
3.52688980102539
 21
3.704823017120361
 31
0.0
  0
LINE
  5
177
330
A
100
AcDbEntity
  8
TOP
  6
CONTINUOUS
 62
     3
100
AcDbLine
 10
5.612744331359863
 20
3.875676870346069
 30
0.0
 11
6.187798023223876
 21
3.865639448165893
 31
0.0
  0
LINE
  5
178
330
A
100
AcDbEntity
  8
TOP
  6
CONTINUOUS
 62
     3
100
AcDbLine
 10
3.261569738388061
 20
3.707776308059692
 30
0.0
 11
3.311210632324218
 21
3.707776308059692
 31
0.0
  0
LINE
  5
179
330
A
100
AcDbEntity
  8
TOP
  6
CONTINUOUS
 62
     3
100
AcDbLine
 10
3.79859185218811
 20
6.392557621002197
 30
0.0
 11
3.807199954986572
 21
6.394744396209716
 31
0.0
  0
LINE
  5
17A
330
A
100
AcDbEntity
  8
TOP
  6
CONTINUOUS
 62
     3
100
AcDbLine
 10
3.619820594787597
 20
6.440983295440673
 30
0.0
 11
3.369958877563476
 21
6.440983295440673
 31
0.0
  0
LINE
  5
17B
330
A
100
AcDbEntity
  8
TOP
  6
CONTINUOUS
 62
     3
100
AcDbLine
 10
3.270812511444091
 20
3.711369514465332
 30
0.0
 11
3.276638031005859
 21
3.711081743240356
 31
0.0
  0
LINE
  5
17C
330
A
100
AcDbEntity
  8
TOP
  6
CONTINUOUS
 62
     3
100
AcDbLine
 10
3.483889818191528
 20
3.681512594223022
 30
0.0
 11
3.483889818191528
 21
3.680266141891479
 31
0.0
  0
LINE
  5
17D
330
A
100
AcDbEntity
  8
TOP
  6
CONTINUOUS
 62
     3
100
AcDbLine
 10
3.403889656066894
 20
3.681512594223022
 30
0.0
 11
3.403889656066894
 21
3.762860059738159
 31
0.0
  0
LINE
  5
17E
330
A
100
AcDbEntity
  8
TOP
  6
CONTINUOUS
 62
     3
100
AcDbLine
 10
3.721889734268188
 20
3.475677013397216
 30
0.0
 11
3.717889785766601
 21
3.473782300949096
 31
0.0
  0
LINE
  5
17F
330
A
100
AcDbEntity
  8
TOP
  6
CONTINUOUS
 62
     3
100
AcDbLine
 10
3.791543006896972
 20
5.971814632415771
 30
0.0
 11
3.79476261138916
 21
5.855523109436035
 31
0.0
  0
LINE
  5
180
330
A
100
AcDbEntity
  8
TOP
  6
CONTINUOUS
 62
     3
100
AcDbLine
 10
3.647389650344848
 20
3.689875602722167
 30
0.0
 11
3.645268440246582
 21
3.689799070358276
 31
0.0
  0
LINE
  5
181
330
A
100
AcDbEntity
  8
TOP
  6
CONTINUOUS
 62
     3
100
AcDbLine
 10
3.251602888107299
 20
3.664890050888061
 30
0.0
 11
3.258106231689453
 21
3.671393394470214
 31
0.0
  0
LINE
  5
182
330
A
100
AcDbEntity
  8
TOP
  6
CONTINUOUS
 62
     3
100
AcDbLine
 10
6.19481086730957
 20
3.86259388923645
 30
0.0
 11
6.195806980133056
 21
3.861388444900512
 31
0.0
  0
LINE
  5
183
330
A
100
AcDbEntity
  8
TOP
  6
CONTINUOUS
 62
     3
100
AcDbLine
 10
6.166898727416992
 20
3.800676822662353
 30
0.0
 11
6.182282447814941
 21
3.800676822662353
 31
0.0
  0
LINE
  5
184
330
A
100
AcDbEntity
  8
TOP
  6
CONTINUOUS
 62
     3
100
AcDbLine
 10
3.505889654159545
 20
3.681512594223022
 30
0.0
 11
3.523889780044555
 21
3.681512594223022
 31
0.0
  0
LINE
  5
185
330
A
100
AcDbEntity
  8
TOP
  6
CONTINUOUS
 62
     3
100
AcDbLine
 10
4.847397327423095
 20
3.623677015304565
 30
0.0
 11
4.837397575378417
 21
3.623677015304565
 31
0.0
  0
LINE
  5
186
330
A
100
AcDbEntity
  8
TOP
  6
CONTINUOUS
 62
     3
100
AcDbLine
 10
3.483889818191528
 20
3.680266141891479
 30
0.0
 11
3.483889818191528
 21
3.678816556930541
 31
0.0
  0
LINE
  5
187
330
A
100
AcDbEntity
  8
TOP
  6
CONTINUOUS
 62
     3
100
AcDbLine
 10
3.260432958602905
 20
3.698966026306152
 30
0.0
 11
3.260389804840087
 21
3.699259042739868
 31
0.0
  0
LINE
  5
188
330
A
100
AcDbEntity
  8
TOP
  6
CONTINUOUS
 62
     3
100
AcDbLine
 10
3.251602888107299
 20
3.95146369934082
 30
0.0
 11
3.258106231689453
 21
3.944960594177246
 31
0.0
  0
LINE
  5
189
330
A
100
AcDbEntity
  8
TOP
  6
CONTINUOUS
 62
     3
100
AcDbLine
 10
3.361447811126708
 20
5.66211986541748
 30
0.0
 11
3.360993146896362
 21
5.636066913604736
 31
0.0
  0
LINE
  5
18A
330
A
100
AcDbEntity
  8
TOP
  6
CONTINUOUS
 62
     3
100
AcDbLine
 10
3.191187620162963
 20
6.392557621002197
 30
0.0
 11
3.182579517364501
 21
6.394744396209716
 31
0.0
  0
LINE
  5
18B
330
A
100
AcDbEntity
  8
TOP
  6
CONTINUOUS
 62
     3
100
AcDbLine
 10
3.191537618637084
 20
5.095056533813476
 30
0.0
 11
3.196537017822265
 21
5.090143680572509
 31
0.0
  0
LINE
  5
18C
330
A
100
AcDbEntity
  8
TOP
  6
CONTINUOUS
 62
     3
100
AcDbLine
 10
3.783114910125732
 20
5.855551242828369
 30
0.0
 11
3.79063868522644
 21
5.855545043945312
 31
0.0
  0
LINE
  5
18D
330
A
100
AcDbEntity
  8
TOP
  6
CONTINUOUS
 62
     3
100
AcDbLine
 10
3.742334365844726
 20
6.462143898010253
 30
0.0
 11
3.734639644622802
 21
6.462143898010253
 31
0.0
  0
LINE
  5
18E
330
A
100
AcDbEntity
  8
TOP
  6
CONTINUOUS
 62
     3
100
AcDbLine
 10
3.366389751434326
 20
3.702656984329223
 30
0.0
 11
3.367303609848022
 21
3.704822778701782
 31
0.0
  0
LINE
  5
18F
330
A
100
AcDbEntity
  8
TOP
  6
CONTINUOUS
 62
     3
100
AcDbLine
 10
3.589889764785766
 20
4.083499908447265
 30
0.0
 11
3.604889869689941
 21
4.084577083587646
 31
0.0
  0
LINE
  5
190
330
A
100
AcDbEntity
  8
TOP
  6
CONTINUOUS
 62
     3
100
AcDbLine
 10
3.603888750076293
 20
3.705702304840087
 30
0.0
 11
3.606889009475708
 21
3.705702304840087
 31
0.0
  0
LINE
  5
191
330
A
100
AcDbEntity
  8
TOP
  6
CONTINUOUS
 62
     3
100
AcDbLine
 10
3.465889692306518
 20
3.678816556930541
 30
0.0
 11
3.483889818191528
 21
3.678816556930541
 31
0.0
  0
LINE
  5
192
330
A
100
AcDbEntity
  8
TOP
  6
CONTINUOUS
 62
     3
100
AcDbLine
 10
6.219397544860839
 20
3.509712934494018
 30
0.0
 11
6.219397544860839
 21
3.546465635299682
 31
0.0
  0
LINE
  5
193
330
A
100
AcDbEntity
  8
TOP
  6
CONTINUOUS
 62
     3
100
AcDbLine
 10
3.732753753662109
 20
5.090143680572509
 30
0.0
 11
3.257025718688964
 21
5.090143680572509
 31
0.0
  0
LINE
  5
194
330
A
100
AcDbEntity
  8
TOP
  6
CONTINUOUS
 62
     3
100
AcDbLine
 10
3.342389822006225
 20
3.698966026306152
 30
0.0
 11
3.342389822006225
 21
3.704822778701782
 31
0.0
  0
LINE
  5
195
330
A
100
AcDbEntity
  8
TOP
  6
CONTINUOUS
 62
     3
100
AcDbLine
 10
3.255315065383911
 20
4.125526905059814
 30
0.0
 11
3.194912195205688
 21
4.125526905059814
 31
0.0
  0
LINE
  5
196
330
A
100
AcDbEntity
  8
TOP
  6
CONTINUOUS
 62
     3
100
AcDbLine
 10
3.732753753662109
 20
4.118902683258056
 30
0.0
 11
3.257025718688964
 21
4.118902683258056
 31
0.0
  0
LINE
  5
197
330
A
100
AcDbEntity
  8
TOP
  6
CONTINUOUS
 62
     3
100
AcDbLine
 10
3.345889806747436
 20
3.771223306655883
 30
0.0
 11
3.345889806747436
 21
3.764710903167724
 31
0.0
  0
LINE
  5
198
330
A
100
AcDbEntity
  8
TOP
  6
CONTINUOUS
 62
     3
100
AcDbLine
 10
3.363889694213867
 20
3.764710903167724
 30
0.0
 11
3.363889694213867
 21
3.763894796371459
 31
0.0
  0
LINE
  5
199
330
A
100
AcDbEntity
  8
TOP
  6
CONTINUOUS
 62
     3
100
AcDbLine
 10
3.505889654159545
 20
3.678816556930541
 30
0.0
 11
3.505889654159545
 21
3.67367672920227
 31
0.0
  0
LINE
  5
19A
330
A
100
AcDbEntity
  8
TOP
  6
CONTINUOUS
 62
     3
100
AcDbLine
 10
6.195806980133056
 20
3.861388444900512
 30
0.0
 11
6.197623252868652
 21
3.855749607086181
 31
0.0
  0
LINE
  5
19B
330
A
100
AcDbEntity
  8
TOP
  6
CONTINUOUS
 62
     3
100
AcDbLine
 10
3.486889839172363
 20
3.704823017120361
 30
0.0
 11
3.50288987159729
 21
3.704823017120361
 31
0.0
  0
LINE
  5
19C
330
A
100
AcDbEntity
  8
TOP
  6
CONTINUOUS
 62
     3
100
AcDbLine
 10
3.366889715194702
 20
3.705670833587646
 30
0.0
 11
3.363889455795288
 21
3.705670833587646
 31
0.0
  0
LINE
  5
19D
330
A
100
AcDbEntity
  8
TOP
  6
CONTINUOUS
 62
     3
100
AcDbLine
 10
3.345890045166015
 20
3.705670833587646
 30
0.0
 11
3.342389822006225
 21
3.705670833587646
 31
0.0
  0
LINE
  5
19E
330
A
100
AcDbEntity
  8
TOP
  6
CONTINUOUS
 62
     3
100
AcDbLine
 10
3.79859185218811
 20
6.392557621002197
 30
0.0
 11
3.79252552986145
 21
6.392557621002197
 31
0.0
  0
LINE
  5
19F
330
A
100
AcDbEntity
  8
TOP
  6
CONTINUOUS
 62
     3
100
AcDbLine
 10
3.662904500961303
 20
3.704823017120361
 30
0.0
 11
3.662904500961303
 21
3.808023452758789
 31
0.0
  0
LINE
  5
1A0
330
A
100
AcDbEntity
  8
TOP
  6
CONTINUOUS
 62
     3
100
AcDbLine
 10
3.327097654342651
 20
6.462143898010253
 30
0.0
 11
3.344416379928588
 21
6.462143898010253
 31
0.0
  0
LINE
  5
1A1
330
A
100
AcDbEntity
  8
TOP
  6
CONTINUOUS
 62
     3
100
AcDbLine
 10
3.519433736801147
 20
3.803373098373413
 30
0.0
 11
3.468652486801147
 21
3.803373098373413
 31
0.0
  0
LINE
  5
1A2
330
A
100
AcDbEntity
  8
TOP
  6
CONTINUOUS
 62
     3
100
AcDbLine
 10
3.403889656066894
 20
3.763894796371459
 30
0.0
 11
3.403889656066894
 21
3.762860059738159
 31
0.0
  0
LINE
  5
1A3
330
A
100
AcDbEntity
  8
TOP
  6
CONTINUOUS
 62
     3
100
AcDbLine
 10
3.443912982940673
 20
3.802467107772827
 30
0.0
 11
3.443912982940673
 21
3.799930095672607
 31
0.0
  0
LINE
  5
1A4
330
A
100
AcDbEntity
  8
TOP
  6
CONTINUOUS
 62
     3
100
AcDbLine
 10
3.689665794372558
 20
3.801461696624755
 30
0.0
 11
3.717113733291625
 21
3.801461696624755
 31
0.0
  0
LINE
  5
1A5
330
A
100
AcDbEntity
  8
TOP
  6
CONTINUOUS
 62
     3
100
AcDbLine
 10
3.384889841079711
 20
3.493050098419189
 30
0.0
 11
3.385587930679321
 21
3.493050098419189
 31
0.0
  0
LINE
  5
1A6
330
A
100
AcDbEntity
  8
TOP
  6
CONTINUOUS
 62
     3
100
AcDbLine
 10
3.184648990631103
 20
5.784476280212402
 30
0.0
 11
3.181543111801147
 21
5.784476280212402
 31
0.0
  0
LINE
  5
1A7
330
A
100
AcDbEntity
  8
TOP
  6
CONTINUOUS
 62
     3
100
AcDbLine
 10
6.219397544860839
 20
3.550820589065551
 30
0.0
 11
6.219397544860839
 21
3.533320188522338
 31
0.0
  0
LINE
  5
1A8
330
A
100
AcDbEntity
  8
TOP
  6
CONTINUOUS
 62
     3
100
AcDbLine
 10
3.523889780044555
 20
3.681512594223022
 30
0.0
 11
3.523889780044555
 21
3.680266141891479
 31
0.0
  0
LINE
  5
1A9
330
A
100
AcDbEntity
  8
TOP
  6
CONTINUOUS
 62
     3
100
AcDbLine
 10
6.187798023223876
 20
3.865639448165893
 30
0.0
 11
6.187907218933105
 21
3.865636825561523
 31
0.0
  0
LINE
  5
1AA
330
A
100
AcDbEntity
  8
TOP
  6
CONTINUOUS
 62
     3
100
AcDbLine
 10
3.523889780044555
 20
3.678816556930541
 30
0.0
 11
3.523889780044555
 21
3.67367672920227
 31
0.0
  0
LINE
  5
1AB
330
A
100
AcDbEntity
  8
TOP
  6
CONTINUOUS
 62
     3
100
AcDbLine
 10
6.169115543365478
 20
3.673676967620849
 30
0.0
 11
6.142536163330078
 21
3.673676967620849
 31
0.0
  0
LINE
  5
1AC
330
A
100
AcDbEntity
  8
TOP
  6
CONTINUOUS
 62
     3
100
AcDbLine
 10
3.662904500961303
 20
3.808023452758789
 30
0.0
 11
3.729389667510986
 21
3.808023452758789
 31
0.0
  0
LINE
  5
1AD
330
A
100
AcDbEntity
  8
TOP
  6
CONTINUOUS
 62
     3
100
AcDbLine
 10
3.505889654159545
 20
3.762860059738159
 30
0.0
 11
3.523889780044555
 21
3.762860059738159
 31
0.0
  0
LINE
  5
1AE
330
A
100
AcDbEntity
  8
TOP
  6
CONTINUOUS
 62
     3
100
AcDbLine
 10
6.219397544860839
 20
3.438050031661987
 30
0.0
 11
6.216327667236328
 21
3.434980392456054
 31
0.0
  0
LINE
  5
1AF
330
A
100
AcDbEntity
  8
TOP
  6
CONTINUOUS
 62
     3
100
AcDbLine
 10
6.219397544860839
 20
3.562514066696166
 30
0.0
 11
6.219397544860839
 21
3.566620349884033
 31
0.0
  0
LINE
  5
1B0
330
A
100
AcDbEntity
  8
TOP
  6
CONTINUOUS
 62
     3
100
AcDbLine
 10
3.603886604309082
 20
3.698966026306152
 30
0.0
 11
3.620389699935913
 21
3.698966026306152
 31
0.0
  0
LINE
  5
1B1
330
A
100
AcDbEntity
  8
TOP
  6
CONTINUOUS
 62
     3
100
AcDbLine
 10
3.643889665603637
 20
3.771223306655883
 30
0.0
 11
3.643889665603637
 21
3.771703481674194
 31
0.0
  0
LINE
  5
1B2
330
A
100
AcDbEntity
  8
TOP
  6
CONTINUOUS
 62
     3
100
AcDbLine
 10
3.352370262145996
 20
3.961196422576904
 30
0.0
 11
3.340889692306518
 21
3.972676992416381
 31
0.0
  0
LINE
  5
1B3
330
A
100
AcDbEntity
  8
TOP
  6
CONTINUOUS
 62
     3
100
AcDbLine
 10
3.643889665603637
 20
3.771703481674194
 30
0.0
 11
3.643889665603637
 21
3.77231216430664
 31
0.0
  0
LINE
  5
1B4
330
A
100
AcDbEntity
  8
TOP
  6
CONTINUOUS
 62
     3
100
AcDbLine
 10
3.191187620162963
 20
6.392557621002197
 30
0.0
 11
3.195560693740844
 21
6.392557621002197
 31
0.0
  0
LINE
  5
1B5
330
A
100
AcDbEntity
  8
TOP
  6
CONTINUOUS
 62
     3
100
AcDbLine
 10
3.255315065383911
 20
5.188143730163574
 30
0.0
 11
3.194912195205688
 21
5.188143730163574
 31
0.0
  0
LINE
  5
1B6
330
A
100
AcDbEntity
  8
TOP
  6
CONTINUOUS
 62
     3
100
AcDbLine
 10
3.657929182052612
 20
3.828023433685302
 30
0.0
 11
3.657929182052612
 21
3.808023452758789
 31
0.0
  0
LINE
  5
1B7
330
A
100
AcDbEntity
  8
TOP
  6
CONTINUOUS
 62
     3
100
AcDbLine
 10
3.712483882904052
 20
6.462143898010253
 30
0.0
 11
3.722850799560546
 21
6.462143898010253
 31
0.0
  0
LINE
  5
1B8
330
A
100
AcDbEntity
  8
TOP
  6
CONTINUOUS
 62
     3
100
AcDbLine
 10
3.623389720916748
 20
3.6939537525177
 30
0.0
 11
3.623389720916748
 21
3.689614057540893
 31
0.0
  0
LINE
  5
1B9
330
A
100
AcDbEntity
  8
TOP
  6
CONTINUOUS
 62
     3
100
AcDbLine
 10
3.542887210845947
 20
3.705702304840087
 30
0.0
 11
3.545887231826782
 21
3.705702304840087
 31
0.0
  0
LINE
  5
1BA
330
A
100
AcDbEntity
  8
TOP
  6
CONTINUOUS
 62
     3
100
AcDbLine
 10
6.219397544860839
 20
3.483630657196044
 30
0.0
 11
6.219397544860839
 21
3.528681993484497
 31
0.0
  0
LINE
  5
1BB
330
A
100
AcDbEntity
  8
TOP
  6
CONTINUOUS
 62
     3
100
AcDbLine
 10
3.606889724731445
 20
3.781023263931274
 30
0.0
 11
3.606889724731445
 21
3.704823017120361
 31
0.0
  0
LINE
  5
1BC
330
A
100
AcDbEntity
  8
TOP
  6
CONTINUOUS
 62
     3
100
AcDbLine
 10
3.734464406967163
 20
4.125526905059814
 30
0.0
 11
3.794867277145385
 21
4.125526905059814
 31
0.0
  0
LINE
  5
1BD
330
A
100
AcDbEntity
  8
TOP
  6
CONTINUOUS
 62
     3
100
AcDbLine
 10
5.729068279266357
 20
3.859697341918945
 30
0.0
 11
5.612776756286621
 21
3.857550382614135
 31
0.0
  0
LINE
  5
1BE
330
A
100
AcDbEntity
  8
TOP
  6
CONTINUOUS
 62
     3
100
AcDbLine
 10
3.425889730453491
 20
3.681512594223022
 30
0.0
 11
3.425889730453491
 21
3.680266141891479
 31
0.0
  0
LINE
  5
1BF
330
A
100
AcDbEntity
  8
TOP
  6
CONTINUOUS
 62
     3
100
AcDbLine
 10
3.657929182052612
 20
3.808023452758789
 30
0.0
 11
3.331850290298461
 21
3.808023452758789
 31
0.0
  0
LINE
  5
1C0
330
A
100
AcDbEntity
  8
TOP
  6
CONTINUOUS
 62
     3
100
AcDbLine
 10
6.219397544860839
 20
3.498538255691528
 30
0.0
 11
6.219397544860839
 21
3.485443115234375
 31
0.0
  0
LINE
  5
1C1
330
A
100
AcDbEntity
  8
TOP
  6
CONTINUOUS
 62
     3
100
AcDbLine
 10
3.462889671325683
 20
3.781023263931274
 30
0.0
 11
3.462889671325683
 21
3.704823017120361
 31
0.0
  0
LINE
  5
1C2
330
A
100
AcDbEntity
  8
TOP
  6
CONTINUOUS
 62
     3
100
AcDbLine
 10
5.612740039825439
 20
3.673676967620849
 30
0.0
 11
5.612740039825439
 21
3.833716630935668
 31
0.0
  0
LINE
  5
1C3
330
A
100
AcDbEntity
  8
TOP
  6
CONTINUOUS
 62
     3
100
AcDbLine
 10
3.647389650344848
 20
3.704822778701782
 30
0.0
 11
3.647389650344848
 21
3.698966026306152
 31
0.0
  0
LINE
  5
1C4
330
A
100
AcDbEntity
  8
TOP
  6
CONTINUOUS
 62
     3
100
AcDbLine
 10
3.544173240661621
 20
3.80418848991394
 30
0.0
 11
3.519433736801147
 21
3.803373098373413
 31
0.0
  0
LINE
  5
1C5
330
A
100
AcDbEntity
  8
TOP
  6
CONTINUOUS
 62
     3
100
AcDbLine
 10
3.790716886520385
 20
5.629237174987792
 30
0.0
 11
3.774043083190917
 21
5.629237174987792
 31
0.0
  0
LINE
  5
1C6
330
A
100
AcDbEntity
  8
TOP
  6
CONTINUOUS
 62
     3
100
AcDbLine
 10
3.256983280181884
 20
5.629237174987792
 30
0.0
 11
3.732796192169189
 21
5.629237174987792
 31
0.0
  0
LINE
  5
1C7
330
A
100
AcDbEntity
  8
TOP
  6
CONTINUOUS
 62
     3
100
AcDbLine
 10
3.271348237991333
 20
6.462143898010253
 30
0.0
 11
3.287309646606445
 21
6.462143898010253
 31
0.0
  0
LINE
  5
1C8
330
A
100
AcDbEntity
  8
TOP
  6
CONTINUOUS
 62
     3
100
AcDbLine
 10
3.182389974594116
 20
3.673676967620849
 30
0.0
 11
3.181543111801147
 21
3.673676967620849
 31
0.0
  0
LINE
  5
1C9
330
A
100
AcDbEntity
  8
TOP
  6
CONTINUOUS
 62
     3
100
AcDbLine
 10
3.331850290298461
 20
3.828023433685302
 30
0.0
 11
3.260389804840087
 21
3.828023433685302
 31
0.0
  0
LINE
  5
1CA
330
A
100
AcDbEntity
  8
TOP
  6
CONTINUOUS
 62
     3
100
AcDbLine
 10
3.260432958602905
 20
3.698966026306152
 30
0.0
 11
3.342389822006225
 21
3.698966026306152
 31
0.0
  0
LINE
  5
1CB
330
A
100
AcDbEntity
  8
TOP
  6
CONTINUOUS
 62
     3
100
AcDbLine
 10
3.727107763290405
 20
3.802305936813354
 30
0.0
 11
3.724060297012329
 21
3.80170726776123
 31
0.0
  0
LINE
  5
1CC
330
A
100
AcDbEntity
  8
TOP
  6
CONTINUOUS
 62
     3
100
AcDbLine
 10
3.384889841079711
 20
3.528049945831298
 30
0.0
 11
3.385587930679321
 21
3.528049945831298
 31
0.0
  0
LINE
  5
1CD
330
A
100
AcDbEntity
  8
TOP
  6
CONTINUOUS
 62
     3
100
AcDbLine
 10
3.181543111801147
 20
5.904476165771484
 30
0.0
 11
3.184991359710693
 21
5.904476165771484
 31
0.0
  0
LINE
  5
1CE
330
A
100
AcDbEntity
  8
TOP
  6
CONTINUOUS
 62
     3
100
AcDbLine
 10
3.523889780044555
 20
3.681512594223022
 30
0.0
 11
3.523889780044555
 21
3.762860059738159
 31
0.0
  0
LINE
  5
1CF
330
A
100
AcDbEntity
  8
TOP
  6
CONTINUOUS
 62
     3
100
AcDbLine
 10
6.193647861480712
 20
3.811157941818237
 30
0.0
 11
6.182774543762207
 21
3.811157941818237
 31
0.0
  0
LINE
  5
1D0
330
A
100
AcDbEntity
  8
TOP
  6
CONTINUOUS
 62
     3
100
AcDbLine
 10
3.505889654159545
 20
3.771703481674194
 30
0.0
 11
3.505889654159545
 21
3.77231216430664
 31
0.0
  0
LINE
  5
1D1
330
A
100
AcDbEntity
  8
TOP
  6
CONTINUOUS
 62
     3
100
AcDbLine
 10
3.625889778137207
 20
3.764710903167724
 30
0.0
 11
3.625889778137207
 21
3.763894796371459
 31
0.0
  0
LINE
  5
1D2
330
A
100
AcDbEntity
  8
TOP
  6
CONTINUOUS
 62
     3
100
AcDbLine
 10
6.199840545654296
 20
3.673676967620849
 30
0.0
 11
6.195733070373535
 21
3.673676967620849
 31
0.0
  0
LINE
  5
1D3
330
A
100
AcDbEntity
  8
TOP
  6
CONTINUOUS
 62
     3
100
AcDbLine
 10
3.729346752166748
 20
3.698966026306152
 30
0.0
 11
3.729389667510986
 21
3.699259042739868
 31
0.0
  0
LINE
  5
1D4
330
A
100
AcDbEntity
  8
TOP
  6
CONTINUOUS
 62
     3
100
AcDbLine
 10
6.213891983032226
 20
3.573676824569702
 30
0.0
 11
6.219397544860839
 21
3.573676824569702
 31
0.0
  0
LINE
  5
1D5
330
A
100
AcDbEntity
  8
TOP
  6
CONTINUOUS
 62
     3
100
AcDbLine
 10
3.32687497138977
 20
3.808023452758789
 30
0.0
 11
3.260389804840087
 21
3.808023452758789
 31
0.0
  0
LINE
  5
1D6
330
A
100
AcDbEntity
  8
TOP
  6
CONTINUOUS
 62
     3
100
AcDbLine
 10
6.219397544860839
 20
3.512676954269409
 30
0.0
 11
6.219397544860839
 21
3.533320188522338
 31
0.0
  0
LINE
  5
1D7
330
A
100
AcDbEntity
  8
TOP
  6
CONTINUOUS
 62
     3
100
AcDbLine
 10
3.370889663696289
 20
3.942677021026611
 30
0.0
 11
3.368606090545654
 21
3.944960594177246
 31
0.0
  0
LINE
  5
1D8
330
A
100
AcDbEntity
  8
TOP
  6
CONTINUOUS
 62
     3
100
AcDbLine
 10
3.505889654159545
 20
3.77231216430664
 30
0.0
 11
3.505889654159545
 21
3.781023740768432
 31
0.0
  0
LINE
  5
1D9
330
A
100
AcDbEntity
  8
TOP
  6
CONTINUOUS
 62
     3
100
AcDbLine
 10
5.729744434356689
 20
3.859697341918945
 30
0.0
 11
5.729744434356689
 21
3.848716497421264
 31
0.0
  0
LINE
  5
1DA
330
A
100
AcDbEntity
  8
TOP
  6
CONTINUOUS
 62
     3
100
AcDbLine
 10
3.647389650344848
 20
3.698966026306152
 30
0.0
 11
3.647389650344848
 21
3.696075201034545
 31
0.0
  0
LINE
  5
1DB
330
A
100
AcDbEntity
  8
TOP
  6
CONTINUOUS
 62
     3
100
AcDbLine
 10
3.643889665603637
 20
3.771223306655883
 30
0.0
 11
3.643889665603637
 21
3.764710903167724
 31
0.0
  0
LINE
  5
1DC
330
A
100
AcDbEntity
  8
TOP
  6
CONTINUOUS
 62
     3
100
AcDbLine
 10
3.544173240661621
 20
3.799839496612548
 30
0.0
 11
3.544173240661621
 21
3.802467107772827
 31
0.0
  0
LINE
  5
1DD
330
A
100
AcDbEntity
  8
TOP
  6
CONTINUOUS
 62
     3
100
AcDbLine
 10
3.276638269424438
 20
5.66211986541748
 30
0.0
 11
3.277093172073364
 21
5.636066913604736
 31
0.0
  0
LINE
  5
1DE
330
A
100
AcDbEntity
  8
TOP
  6
CONTINUOUS
 62
     3
100
AcDbLine
 10
3.191187620162963
 20
6.340431213378906
 30
0.0
 11
3.195106029510498
 21
6.340431213378906
 31
0.0
  0
LINE
  5
1DF
330
A
100
AcDbEntity
  8
TOP
  6
CONTINUOUS
 62
     3
100
AcDbLine
 10
3.523889780044555
 20
3.77231216430664
 30
0.0
 11
3.523889780044555
 21
3.781023740768432
 31
0.0
  0
LINE
  5
1E0
330
A
100
AcDbEntity
  8
TOP
  6
CONTINUOUS
 62
     3
100
AcDbLine
 10
3.734464406967163
 20
5.188143730163574
 30
0.0
 11
3.794867277145385
 21
5.188143730163574
 31
0.0
  0
LINE
  5
1E1
330
A
100
AcDbEntity
  8
TOP
  6
CONTINUOUS
 62
     3
100
AcDbLine
 10
5.729744434356689
 20
3.848716497421264
 30
0.0
 11
5.729744434356689
 21
3.833716630935668
 31
0.0
  0
LINE
  5
1E2
330
A
100
AcDbEntity
  8
TOP
  6
CONTINUOUS
 62
     3
100
AcDbLine
 10
3.769505500793457
 20
5.630922794342041
 30
0.0
 11
3.771478652954101
 21
5.629727840423583
 31
0.0
  0
LINE
  5
1E3
330
A
100
AcDbEntity
  8
TOP
  6
CONTINUOUS
 62
     3
100
AcDbLine
 10
3.721889734268188
 20
6.462143898010253
 30
0.0
 11
3.733889818191528
 21
6.462143898010253
 31
0.0
  0
LINE
  5
1E4
330
A
100
AcDbEntity
  8
TOP
  6
CONTINUOUS
 62
     3
100
AcDbLine
 10
3.647389650344848
 20
3.696075201034545
 30
0.0
 11
3.647389650344848
 21
3.689875602722167
 31
0.0
  0
LINE
  5
1E5
330
A
100
AcDbEntity
  8
TOP
  6
CONTINUOUS
 62
     3
100
AcDbLine
 10
3.644389867782592
 20
3.695977449417114
 30
0.0
 11
3.644389867782592
 21
3.702656984329223
 31
0.0
  0
LINE
  5
1E6
330
A
100
AcDbEntity
  8
TOP
  6
CONTINUOUS
 62
     3
100
AcDbLine
 10
3.331850290298461
 20
3.860635042190551
 30
0.0
 11
3.260389804840087
 21
3.860635042190551
 31
0.0
  0
LINE
  5
1E7
330
A
100
AcDbEntity
  8
TOP
  6
CONTINUOUS
 62
     3
100
AcDbLine
 10
6.219397544860839
 20
3.467676877975463
 30
0.0
 11
6.219397544860839
 21
3.465782165527343
 31
0.0
  0
LINE
  5
1E8
330
A
100
AcDbEntity
  8
TOP
  6
CONTINUOUS
 62
     3
100
AcDbLine
 10
3.255315065383911
 20
4.125526905059814
 30
0.0
 11
3.256939888000488
 21
4.123901844024658
 31
0.0
  0
LINE
  5
1E9
330
A
100
AcDbEntity
  8
TOP
  6
CONTINUOUS
 62
     3
100
AcDbLine
 10
3.4438898563385
 20
3.680266141891479
 30
0.0
 11
3.4438898563385
 21
3.678816556930541
 31
0.0
  0
LINE
  5
1EA
330
A
100
AcDbEntity
  8
TOP
  6
CONTINUOUS
 62
     3
100
AcDbLine
 10
5.729744434356689
 20
3.673676967620849
 30
0.0
 11
5.729744434356689
 21
3.833716630935668
 31
0.0
  0
LINE
  5
1EB
330
A
100
AcDbEntity
  8
TOP
  6
CONTINUOUS
 62
     3
100
AcDbLine
 10
6.200800418853759
 20
3.618676900863647
 30
0.0
 11
6.196692943572998
 21
3.618676900863647
 31
0.0
  0
LINE
  5
1EC
330
A
100
AcDbEntity
  8
TOP
  6
CONTINUOUS
 62
     3
100
AcDbLine
 10
6.219397544860839
 20
3.459398746490478
 30
0.0
 11
6.219397544860839
 21
3.456449508666992
 31
0.0
  0
LINE
  5
1ED
330
A
100
AcDbEntity
  8
TOP
  6
CONTINUOUS
 62
     3
100
AcDbLine
 10
3.191537618637084
 20
3.413050174713134
 30
0.0
 11
3.191537618637084
 21
4.062277317047119
 31
0.0
  0
LINE
  5
1EE
330
A
100
AcDbEntity
  8
TOP
  6
CONTINUOUS
 62
     3
100
AcDbLine
 10
3.545889854431152
 20
3.771223306655883
 30
0.0
 11
3.545889854431152
 21
3.764710903167724
 31
0.0
  0
LINE
  5
1EF
330
A
100
AcDbEntity
  8
TOP
  6
CONTINUOUS
 62
     3
100
AcDbLine
 10
3.446889638900756
 20
3.781023263931274
 30
0.0
 11
3.422889709472656
 21
3.781023263931274
 31
0.0
  0
LINE
  5
1F0
330
A
100
AcDbEntity
  8
TOP
  6
CONTINUOUS
 62
     3
100
AcDbLine
 10
3.60388970375061
 20
3.678816556930541
 30
0.0
 11
3.60388970375061
 21
3.67367672920227
 31
0.0
  0
LINE
  5
1F1
330
A
100
AcDbEntity
  8
TOP
  6
CONTINUOUS
 62
     3
100
AcDbLine
 10
3.622889757156372
 20
3.705670833587646
 30
0.0
 11
3.625890254974365
 21
3.705670833587646
 31
0.0
  0
LINE
  5
1F2
330
A
100
AcDbEntity
  8
TOP
  6
CONTINUOUS
 62
     3
100
AcDbLine
 10
3.727107763290405
 20
3.710540294647216
 30
0.0
 11
3.724060297012329
 21
3.71113896369934
 31
0.0
  0
LINE
  5
1F3
330
A
100
AcDbEntity
  8
TOP
  6
CONTINUOUS
 62
     3
100
AcDbLine
 10
3.214043140411376
 20
5.629237174987792
 30
0.0
 11
3.197369337081909
 21
5.629237174987792
 31
0.0
  0
LINE
  5
1F4
330
A
100
AcDbEntity
  8
TOP
  6
CONTINUOUS
 62
     3
100
AcDbLine
 10
3.214042663574218
 20
5.629237174987792
 30
0.0
 11
3.220778226852416
 21
5.629237174987792
 31
0.0
  0
LINE
  5
1F5
330
A
100
AcDbEntity
  8
TOP
  6
CONTINUOUS
 62
     3
100
AcDbLine
 10
3.285801172256469
 20
6.462143898010253
 30
0.0
 11
3.278498172760009
 21
6.462143898010253
 31
0.0
  0
LINE
  5
1F6
330
A
100
AcDbEntity
  8
TOP
  6
CONTINUOUS
 62
     3
100
AcDbLine
 10
3.523889780044555
 20
3.771223306655883
 30
0.0
 11
3.523889780044555
 21
3.764710903167724
 31
0.0
  0
LINE
  5
1F7
330
A
100
AcDbEntity
  8
TOP
  6
CONTINUOUS
 62
     3
100
AcDbLine
 10
5.729744434356689
 20
3.833716630935668
 30
0.0
 11
5.612740039825439
 21
3.833716630935668
 31
0.0
  0
LINE
  5
1F8
330
A
100
AcDbEntity
  8
TOP
  6
CONTINUOUS
 62
     3
100
AcDbLine
 10
3.738176584243774
 20
3.664890050888061
 30
0.0
 11
3.747909307479858
 21
3.655157327651977
 31
0.0
  0
LINE
  5
1F9
330
A
100
AcDbEntity
  8
TOP
  6
CONTINUOUS
 62
     3
100
AcDbLine
 10
3.385889768600463
 20
3.77231216430664
 30
0.0
 11
3.385889768600463
 21
3.781023740768432
 31
0.0
  0
LINE
  5
1FA
330
A
100
AcDbEntity
  8
TOP
  6
CONTINUOUS
 62
     3
100
AcDbLine
 10
3.544173240661621
 20
3.806816101074218
 30
0.0
 11
3.544173240661621
 21
3.80418848991394
 31
0.0
  0
LINE
  5
1FB
330
A
100
AcDbEntity
  8
TOP
  6
CONTINUOUS
 62
     3
100
AcDbLine
 10
3.727107763290405
 20
3.710540294647216
 30
0.0
 11
3.727107763290405
 21
3.802305936813354
 31
0.0
  0
LINE
  5
1FC
330
A
100
AcDbEntity
  8
TOP
  6
CONTINUOUS
 62
     3
100
AcDbLine
 10
3.39637017250061
 20
4.027196407318115
 30
0.0
 11
3.406102895736694
 21
4.017463684082031
 31
0.0
  0
LINE
  5
1FD
330
A
100
AcDbEntity
  8
TOP
  6
CONTINUOUS
 62
     3
100
AcDbLine
 10
3.784132242202758
 20
6.431018352508544
 30
0.0
 11
3.79018497467041
 21
6.421606540679931
 31
0.0
  0
LINE
  5
1FE
330
A
100
AcDbEntity
  8
TOP
  6
CONTINUOUS
 62
     3
100
AcDbLine
 10
3.657929182052612
 20
3.828274250030517
 30
0.0
 11
3.331850290298461
 21
3.828274250030517
 31
0.0
  0
LINE
  5
1FF
330
A
100
AcDbEntity
  8
TOP
  6
CONTINUOUS
 62
     3
100
AcDbLine
 10
6.167885303497314
 20
3.811157941818237
 30
0.0
 11
6.167885303497314
 21
3.835986852645874
 31
0.0
  0
LINE
  5
200
330
A
100
AcDbEntity
  8
TOP
  6
CONTINUOUS
 62
     3
100
AcDbLine
 10
5.72895860671997
 20
3.573676824569702
 30
0.0
 11
5.729744434356689
 21
3.618676900863647
 31
0.0
  0
LINE
  5
201
330
A
100
AcDbEntity
  8
TOP
  6
CONTINUOUS
 62
     3
100
AcDbLine
 10
3.523889780044555
 20
3.764710903167724
 30
0.0
 11
3.523889780044555
 21
3.763894796371459
 31
0.0
  0
LINE
  5
202
330
A
100
AcDbEntity
  8
TOP
  6
CONTINUOUS
 62
     3
100
AcDbLine
 10
5.728959560394287
 20
3.573676824569702
 30
0.0
 11
6.178130149841308
 21
3.573676824569702
 31
0.0
  0
LINE
  5
203
330
A
100
AcDbEntity
  8
TOP
  6
CONTINUOUS
 62
     3
100
AcDbLine
 10
3.370889663696289
 20
3.902676820755004
 30
0.0
 11
3.260389804840087
 21
3.902676820755004
 31
0.0
  0
LINE
  5
204
330
A
100
AcDbEntity
  8
TOP
  6
CONTINUOUS
 62
     3
100
AcDbLine
 10
3.260390281677246
 20
3.689875602722167
 30
0.0
 11
3.342389822006225
 21
3.689875602722167
 31
0.0
  0
LINE
  5
205
330
A
100
AcDbEntity
  8
TOP
  6
CONTINUOUS
 62
     3
100
AcDbLine
 10
3.209834814071655
 20
6.435820579528808
 30
0.0
 11
3.230311632156372
 21
6.443546772003173
 31
0.0
  0
LINE
  5
206
330
A
100
AcDbEntity
  8
TOP
  6
CONTINUOUS
 62
     3
100
AcDbLine
 10
3.255315065383911
 20
5.188143730163574
 30
0.0
 11
3.256939888000488
 21
5.095056533813476
 31
0.0
  0
LINE
  5
207
330
A
100
AcDbEntity
  8
TOP
  6
CONTINUOUS
 62
     3
100
AcDbLine
 10
3.385889768600463
 20
3.771223306655883
 30
0.0
 11
3.385889768600463
 21
3.764710903167724
 31
0.0
  0
LINE
  5
208
330
A
100
AcDbEntity
  8
TOP
  6
CONTINUOUS
 62
     3
100
AcDbLine
 10
3.797212362289428
 20
5.855486392974853
 30
0.0
 11
3.797212362289428
 21
5.629237174987792
 31
0.0
  0
LINE
  5
209
330
A
100
AcDbEntity
  8
TOP
  6
CONTINUOUS
 62
     3
100
AcDbLine
 10
3.299108505249023
 20
6.462143898010253
 30
0.0
 11
3.278444528579711
 21
6.462143898010253
 31
0.0
  0
LINE
  5
20A
330
A
100
AcDbEntity
  8
TOP
  6
CONTINUOUS
 62
     3
100
AcDbLine
 10
3.644389867782592
 20
3.673676967620849
 30
0.0
 11
3.644389867782592
 21
3.689614057540893
 31
0.0
  0
LINE
  5
20B
330
A
100
AcDbEntity
  8
TOP
  6
CONTINUOUS
 62
     3
100
AcDbLine
 10
3.414889812469482
 20
4.008677005767822
 30
0.0
 11
3.370889663696289
 21
4.008677005767822
 31
0.0
  0
LINE
  5
20C
330
A
100
AcDbEntity
  8
TOP
  6
CONTINUOUS
 62
     3
100
AcDbLine
 10
3.42289113998413
 20
3.705702304840087
 30
0.0
 11
3.425891399383544
 21
3.705702304840087
 31
0.0
  0
LINE
  5
20D
330
A
100
AcDbEntity
  8
TOP
  6
CONTINUOUS
 62
     3
100
AcDbLine
 10
6.219397544860839
 20
3.475677013397216
 30
0.0
 11
6.219397544860839
 21
3.473782300949096
 31
0.0
  0
LINE
  5
20E
330
A
100
AcDbEntity
  8
TOP
  6
CONTINUOUS
 62
     3
100
AcDbLine
 10
3.647389650344848
 20
3.689875602722167
 30
0.0
 11
3.647389650344848
 21
3.673676967620849
 31
0.0
  0
LINE
  5
20F
330
A
100
AcDbEntity
  8
TOP
  6
CONTINUOUS
 62
     3
100
AcDbLine
 10
3.682719230651855
 20
3.71113896369934
 30
0.0
 11
3.679671764373779
 21
3.710540294647216
 31
0.0
  0
LINE
  5
210
330
A
100
AcDbEntity
  8
TOP
  6
CONTINUOUS
 62
     3
100
AcDbLine
 10
3.807389736175537
 20
3.413050174713134
 30
0.0
 11
3.807389736175537
 21
3.573676824569702
 31
0.0
  0
LINE
  5
211
330
A
100
AcDbEntity
  8
TOP
  6
CONTINUOUS
 62
     3
100
AcDbLine
 10
3.384889841079711
 20
3.528049945831298
 30
0.0
 11
3.384889841079711
 21
3.493050098419189
 31
0.0
  0
LINE
  5
212
330
A
100
AcDbEntity
  8
TOP
  6
CONTINUOUS
 62
     3
100
AcDbLine
 10
3.425889730453491
 20
3.681512594223022
 30
0.0
 11
3.4438898563385
 21
3.681512594223022
 31
0.0
  0
LINE
  5
213
330
A
100
AcDbEntity
  8
TOP
  6
CONTINUOUS
 62
     3
100
AcDbLine
 10
3.382891178131103
 20
3.705702304840087
 30
0.0
 11
3.385891199111938
 21
3.705702304840087
 31
0.0
  0
LINE
  5
214
330
A
100
AcDbEntity
  8
TOP
  6
CONTINUOUS
 62
     3
100
AcDbLine
 10
3.483889818191528
 20
3.763894796371459
 30
0.0
 11
3.483889818191528
 21
3.762860059738159
 31
0.0
  0
LINE
  5
215
330
A
100
AcDbEntity
  8
TOP
  6
CONTINUOUS
 62
     3
100
AcDbLine
 10
6.219397544860839
 20
3.506676912307739
 30
0.0
 11
6.219397544860839
 21
3.486749172210693
 31
0.0
  0
LINE
  5
216
330
A
100
AcDbEntity
  8
TOP
  6
CONTINUOUS
 62
     3
100
AcDbLine
 10
3.625889778137207
 20
3.681512594223022
 30
0.0
 11
3.625889778137207
 21
3.680266141891479
 31
0.0
  0
LINE
  5
217
330
A
100
AcDbEntity
  8
TOP
  6
CONTINUOUS
 62
     3
100
AcDbLine
 10
3.620389699935913
 20
3.673676967620849
 30
0.0
 11
3.620389699935913
 21
3.689875602722167
 31
0.0
  0
LINE
  5
218
330
A
100
AcDbEntity
  8
TOP
  6
CONTINUOUS
 62
     3
100
AcDbLine
 10
3.729389667510986
 20
3.828023433685302
 30
0.0
 11
3.657929182052612
 21
3.828023433685302
 31
0.0
  0
LINE
  5
219
330
A
100
AcDbEntity
  8
TOP
  6
CONTINUOUS
 62
     3
100
AcDbLine
 10
3.406889677047729
 20
3.781023263931274
 30
0.0
 11
3.406889677047729
 21
3.704823017120361
 31
0.0
  0
LINE
  5
21A
330
A
100
AcDbEntity
  8
TOP
  6
CONTINUOUS
 62
     3
100
AcDbLine
 10
3.728195667266845
 20
3.707814455032348
 30
0.0
 11
3.678584814071655
 21
3.707814455032348
 31
0.0
  0
LINE
  5
21B
330
A
100
AcDbEntity
  8
TOP
  6
CONTINUOUS
 62
     3
100
AcDbLine
 10
3.257025718688964
 20
4.118902683258056
 30
0.0
 11
3.256939888000488
 21
4.123901844024658
 31
0.0
  0
LINE
  5
21C
330
A
100
AcDbEntity
  8
TOP
  6
CONTINUOUS
 62
     3
100
AcDbLine
 10
6.219397544860839
 20
3.480832338333129
 30
0.0
 11
6.219397544860839
 21
3.471662282943725
 31
0.0
  0
LINE
  5
21D
330
A
100
AcDbEntity
  8
TOP
  6
CONTINUOUS
 62
     3
100
AcDbLine
 10
3.662904500961303
 20
3.704823017120361
 30
0.0
 11
3.673324346542358
 21
3.705191135406494
 31
0.0
  0
LINE
  5
21E
330
A
100
AcDbEntity
  8
TOP
  6
CONTINUOUS
 62
     3
100
AcDbLine
 10
3.257153987884521
 20
5.619537353515625
 30
0.0
 11
3.732625484466552
 21
5.619537353515625
 31
0.0
  0
LINE
  5
21F
330
A
100
AcDbEntity
  8
TOP
  6
CONTINUOUS
 62
     3
100
AcDbLine
 10
3.468652486801147
 20
6.328809261322021
 30
0.0
 11
3.519433736801147
 21
6.328809261322021
 31
0.0
  0
LINE
  5
220
330
A
100
AcDbEntity
  8
TOP
  6
CONTINUOUS
 62
     3
100
AcDbLine
 10
3.646246433258056
 20
6.462143898010253
 30
0.0
 11
3.628746032714843
 21
6.462143898010253
 31
0.0
  0
LINE
  5
221
330
A
100
AcDbEntity
  8
TOP
  6
CONTINUOUS
 62
     3
100
AcDbLine
 10
3.369389772415161
 20
3.689875602722167
 30
0.0
 11
3.367268323898315
 21
3.689799070358276
 31
0.0
  0
LINE
  5
222
330
A
100
AcDbEntity
  8
TOP
  6
CONTINUOUS
 62
     3
100
AcDbLine
 10
3.385889768600463
 20
3.771703481674194
 30
0.0
 11
3.385889768600463
 21
3.77231216430664
 31
0.0
  0
LINE
  5
223
330
A
100
AcDbEntity
  8
TOP
  6
CONTINUOUS
 62
     3
100
AcDbLine
 10
3.197901248931884
 20
6.421606540679931
 30
0.0
 11
3.203953981399536
 21
6.431018352508544
 31
0.0
  0
LINE
  5
224
330
A
100
AcDbEntity
  8
TOP
  6
CONTINUOUS
 62
     3
100
AcDbLine
 10
3.657929182052612
 20
3.828023433685302
 30
0.0
 11
3.657929182052612
 21
3.860635042190551
 31
0.0
  0
LINE
  5
225
330
A
100
AcDbEntity
  8
TOP
  6
CONTINUOUS
 62
     3
100
AcDbLine
 10
6.121490955352783
 20
3.677696228027343
 30
0.0
 11
6.132471561431884
 21
3.688676834106445
 31
0.0
  0
LINE
  5
226
330
A
100
AcDbEntity
  8
TOP
  6
CONTINUOUS
 62
     3
100
AcDbLine
 10
6.151998043060302
 20
3.638676881790161
 30
0.0
 11
6.095497608184814
 21
3.638676881790161
 31
0.0
  0
LINE
  5
227
330
A
100
AcDbEntity
  8
TOP
  6
CONTINUOUS
 62
     3
100
AcDbLine
 10
4.852310180664062
 20
4.123901844024658
 30
0.0
 11
4.847397327423095
 21
4.118902683258056
 31
0.0
  0
LINE
  5
228
330
A
100
AcDbEntity
  8
TOP
  6
CONTINUOUS
 62
     3
100
AcDbLine
 10
3.643889665603637
 20
3.777389049530029
 30
0.0
 11
3.643892049789428
 21
3.778826475143432
 31
0.0
  0
LINE
  5
229
330
A
100
AcDbEntity
  8
TOP
  6
CONTINUOUS
 62
     3
100
AcDbLine
 10
3.225700855255126
 20
6.430653572082519
 30
0.0
 11
3.225888967514038
 21
6.430544376373291
 31
0.0
  0
LINE
  5
22A
330
A
100
AcDbEntity
  8
TOP
  6
CONTINUOUS
 62
     3
100
AcDbLine
 10
3.625889778137207
 20
3.762860059738159
 30
0.0
 11
3.643889665603637
 21
3.762860059738159
 31
0.0
  0
LINE
  5
22B
330
A
100
AcDbEntity
  8
TOP
  6
CONTINUOUS
 62
     3
100
AcDbLine
 10
3.622475862503051
 20
3.704822778701782
 30
0.0
 11
3.623389720916748
 21
3.702656984329223
 31
0.0
  0
LINE
  5
22C
330
A
100
AcDbEntity
  8
TOP
  6
CONTINUOUS
 62
     3
100
AcDbLine
 10
3.767212390899658
 20
5.634901046752929
 30
0.0
 11
3.767212390899658
 21
5.855490684509277
 31
0.0
  0
LINE
  5
22D
330
A
100
AcDbEntity
  8
TOP
  6
CONTINUOUS
 62
     3
100
AcDbLine
 10
3.797212362289428
 20
5.629237174987792
 30
0.0
 11
3.797300100326538
 21
5.629237174987792
 31
0.0
  0
LINE
  5
22E
330
A
100
AcDbEntity
  8
TOP
  6
CONTINUOUS
 62
     3
100
AcDbLine
 10
3.802390575408935
 20
5.619143962860107
 30
0.0
 11
3.807389736175537
 21
5.619143962860107
 31
0.0
  0
LINE
  5
22F
330
A
100
AcDbEntity
  8
TOP
  6
CONTINUOUS
 62
     3
100
AcDbLine
 10
3.721889734268188
 20
6.462143898010253
 30
0.0
 11
3.717889785766601
 21
6.462143898010253
 31
0.0
  0
LINE
  5
230
330
A
100
AcDbEntity
  8
TOP
  6
CONTINUOUS
 62
     3
100
AcDbLine
 10
3.625889778137207
 20
3.771703481674194
 30
0.0
 11
3.625889778137207
 21
3.77231216430664
 31
0.0
  0
LINE
  5
231
330
A
100
AcDbEntity
  8
TOP
  6
CONTINUOUS
 62
     3
100
AcDbLine
 10
3.260432958602905
 20
3.698966026306152
 30
0.0
 11
3.260389804840087
 21
3.696080923080444
 31
0.0
  0
LINE
  5
232
330
A
100
AcDbEntity
  8
TOP
  6
CONTINUOUS
 62
     3
100
AcDbLine
 10
3.363892555236816
 20
3.705702304840087
 30
0.0
 11
3.36689281463623
 21
3.705702304840087
 31
0.0
  0
LINE
  5
234
330
A
100
AcDbEntity
  8
TOP
  6
CONTINUOUS
 62
     3
100
AcDbLine
 10
6.219397544860839
 20
3.486749172210693
 30
0.0
 11
6.219397544860839
 21
3.470080852508544
 31
0.0
  0
LINE
  5
235
330
A
100
AcDbEntity
  8
TOP
  6
CONTINUOUS
 62
     3
100
AcDbLine
 10
3.673324346542358
 20
3.705191135406494
 30
0.0
 11
3.677895307540893
 21
3.706089496612548
 31
0.0
  0
LINE
  5
236
330
A
100
AcDbEntity
  8
TOP
  6
CONTINUOUS
 62
     3
100
AcDbLine
 10
3.505889654159545
 20
3.763894796371459
 30
0.0
 11
3.505889654159545
 21
3.762860059738159
 31
0.0
  0
LINE
  5
237
330
A
100
AcDbEntity
  8
TOP
  6
CONTINUOUS
 62
     3
100
AcDbLine
 10
3.4438898563385
 20
3.764710903167724
 30
0.0
 11
3.4438898563385
 21
3.763894796371459
 31
0.0
  0
LINE
  5
238
330
A
100
AcDbEntity
  8
TOP
  6
CONTINUOUS
 62
     3
100
AcDbLine
 10
5.729744434356689
 20
3.618676900863647
 30
0.0
 11
6.093748092651367
 21
3.618676900863647
 31
0.0
  0
LINE
  5
239
330
A
100
AcDbEntity
  8
TOP
  6
CONTINUOUS
 62
     3
100
AcDbLine
 10
6.219397544860839
 20
3.553955316543579
 30
0.0
 11
6.219397544860839
 21
3.543272972106933
 31
0.0
  0
LINE
  5
23A
330
A
100
AcDbEntity
  8
TOP
  6
CONTINUOUS
 62
     3
100
AcDbLine
 10
3.366889715194702
 20
3.704823017120361
 30
0.0
 11
3.382889747619628
 21
3.704823017120361
 31
0.0
  0
LINE
  5
23B
330
A
100
AcDbEntity
  8
TOP
  6
CONTINUOUS
 62
     3
100
AcDbLine
 10
3.545889854431152
 20
3.77231216430664
 30
0.0
 11
3.545889854431152
 21
3.781023740768432
 31
0.0
  0
LINE
  5
23C
330
A
100
AcDbEntity
  8
TOP
  6
CONTINUOUS
 62
     3
100
AcDbLine
 10
3.641447782516479
 20
5.66211986541748
 30
0.0
 11
3.640993118286132
 21
5.636066913604736
 31
0.0
  0
LINE
  5
23D
330
A
100
AcDbEntity
  8
TOP
  6
CONTINUOUS
 62
     3
100
AcDbLine
 10
3.759389638900756
 20
5.080143928527832
 30
0.0
 11
3.759389638900756
 21
5.090143680572509
 31
0.0
  0
LINE
  5
23E
330
A
100
AcDbEntity
  8
TOP
  6
CONTINUOUS
 62
     3
100
AcDbLine
 10
3.792367696762084
 20
6.410631656646728
 30
0.0
 11
3.796191215515136
 21
5.972490787506103
 31
0.0
  0
LINE
  5
23F
330
A
100
AcDbEntity
  8
TOP
  6
CONTINUOUS
 62
     3
100
AcDbLine
 10
3.705033540725708
 20
6.462143898010253
 30
0.0
 11
3.687532901763916
 21
6.462143898010253
 31
0.0
  0
LINE
  5
240
330
A
100
AcDbEntity
  8
TOP
  6
CONTINUOUS
 62
     3
100
AcDbLine
 10
3.622511148452758
 20
3.698090553283691
 30
0.0
 11
3.623389720916748
 21
3.695977449417114
 31
0.0
  0
LINE
  5
241
330
A
100
AcDbEntity
  8
TOP
  6
CONTINUOUS
 62
     3
100
AcDbLine
 10
3.483892917633056
 20
3.689875602722167
 30
0.0
 11
3.505886793136596
 21
3.689875602722167
 31
0.0
  0
LINE
  5
242
330
A
100
AcDbEntity
  8
TOP
  6
CONTINUOUS
 62
     3
100
AcDbLine
 10
3.221647024154663
 20
6.432987689971923
 30
0.0
 11
3.225700855255126
 21
6.430653572082519
 31
0.0
  0
LINE
  5
243
330
A
100
AcDbEntity
  8
TOP
  6
CONTINUOUS
 62
     3
100
AcDbLine
 10
3.505889654159545
 20
3.771223306655883
 30
0.0
 11
3.505889654159545
 21
3.771703481674194
 31
0.0
  0
LINE
  5
244
330
A
100
AcDbEntity
  8
TOP
  6
CONTINUOUS
 62
     3
100
AcDbLine
 10
6.136490821838378
 20
3.811157941818237
 30
0.0
 11
6.136490821838378
 21
3.70367693901062
 31
0.0
  0
LINE
  5
245
330
A
100
AcDbEntity
  8
TOP
  6
CONTINUOUS
 62
     3
100
AcDbLine
 10
6.095497608184814
 20
3.638676881790161
 30
0.0
 11
6.097684860229492
 21
3.663676977157592
 31
0.0
  0
LINE
  5
246
330
A
100
AcDbEntity
  8
TOP
  6
CONTINUOUS
 62
     3
100
AcDbLine
 10
4.94539737701416
 20
4.125526905059814
 30
0.0
 11
4.852310180664062
 21
4.123901844024658
 31
0.0
  0
LINE
  5
247
330
A
100
AcDbEntity
  8
TOP
  6
CONTINUOUS
 62
     3
100
AcDbLine
 10
3.807389736175537
 20
4.128050804138183
 30
0.0
 11
3.807389736175537
 21
3.573676824569702
 31
0.0
  0
LINE
  5
248
330
A
100
AcDbEntity
  8
TOP
  6
CONTINUOUS
 62
     3
100
AcDbLine
 10
3.385889768600463
 20
3.771223306655883
 30
0.0
 11
3.403889656066894
 21
3.771223306655883
 31
0.0
  0
LINE
  5
249
330
A
100
AcDbEntity
  8
TOP
  6
CONTINUOUS
 62
     3
100
AcDbLine
 10
3.764978647232055
 20
5.619139194488525
 30
0.0
 11
3.76515507698059
 21
5.629237174987792
 31
0.0
  0
LINE
  5
24A
330
A
100
AcDbEntity
  8
TOP
  6
CONTINUOUS
 62
     3
100
AcDbLine
 10
3.758535385131835
 20
6.44258689880371
 30
0.0
 11
3.758516073226928
 21
6.44258689880371
 31
0.0
  0
LINE
  5
24B
330
A
100
AcDbEntity
  8
TOP
  6
CONTINUOUS
 62
     3
100
AcDbLine
 10
3.732753753662109
 20
5.090143680572509
 30
0.0
 11
3.793242454528808
 21
5.090143680572509
 31
0.0
  0
LINE
  5
24C
330
A
100
AcDbEntity
  8
TOP
  6
CONTINUOUS
 62
     3
100
AcDbLine
 10
3.623389720916748
 20
3.702656984329223
 30
0.0
 11
3.623389720916748
 21
3.695977449417114
 31
0.0
  0
LINE
  5
24D
330
A
100
AcDbEntity
  8
TOP
  6
CONTINUOUS
 62
     3
100
AcDbLine
 10
3.696638107299804
 20
3.711081743240356
 30
0.0
 11
3.696638107299804
 21
3.70781397819519
 31
0.0
  0
LINE
  5
24E
330
A
100
AcDbEntity
  8
TOP
  6
CONTINUOUS
 62
     3
100
AcDbLine
 10
3.563889741897583
 20
3.763894796371459
 30
0.0
 11
3.563889741897583
 21
3.762860059738159
 31
0.0
  0
LINE
  5
24F
330
A
100
AcDbEntity
  8
TOP
  6
CONTINUOUS
 62
     3
100
AcDbLine
 10
3.310107707977294
 20
3.802305936813354
 30
0.0
 11
3.307060480117797
 21
3.80170726776123
 31
0.0
  0
LINE
  5
250
330
A
100
AcDbEntity
  8
TOP
  6
CONTINUOUS
 62
     3
100
AcDbLine
 10
3.759389638900756
 20
3.623677015304565
 30
0.0
 11
3.759389638900756
 21
3.643676996231079
 31
0.0
  0
LINE
  5
252
330
A
100
AcDbEntity
  8
TOP
  6
CONTINUOUS
 62
     3
100
AcDbLine
 10
5.729068279266357
 20
3.859697341918945
 30
0.0
 11
5.729744434356689
 21
3.859697341918945
 31
0.0
  0
LINE
  5
253
330
A
100
AcDbEntity
  8
TOP
  6
CONTINUOUS
 62
     3
100
AcDbLine
 10
5.388086318969726
 20
3.875676870346069
 30
0.0
 11
5.392140865325927
 21
3.875676870346069
 31
0.0
  0
LINE
  5
254
330
A
100
AcDbEntity
  8
TOP
  6
CONTINUOUS
 62
     3
100
AcDbLine
 10
3.425889730453491
 20
3.764710903167724
 30
0.0
 11
3.425889730453491
 21
3.763894796371459
 31
0.0
  0
LINE
  5
255
330
A
100
AcDbEntity
  8
TOP
  6
CONTINUOUS
 62
     3
100
AcDbLine
 10
5.612744331359863
 20
3.673676967620849
 30
0.0
 11
5.612744331359863
 21
3.618676900863647
 31
0.0
  0
LINE
  5
256
330
A
100
AcDbEntity
  8
TOP
  6
CONTINUOUS
 62
     3
100
AcDbLine
 10
6.219397544860839
 20
3.53901720046997
 30
0.0
 11
6.219397544860839
 21
3.551637887954711
 31
0.0
  0
LINE
  5
257
330
A
100
AcDbEntity
  8
TOP
  6
CONTINUOUS
 62
     3
100
AcDbLine
 10
3.342389822006225
 20
3.781023263931274
 30
0.0
 11
3.342389822006225
 21
3.704823017120361
 31
0.0
  0
LINE
  5
258
330
A
100
AcDbEntity
  8
TOP
  6
CONTINUOUS
 62
     3
100
AcDbLine
 10
3.194911241531372
 20
6.336494445800781
 30
0.0
 11
3.187370300292968
 21
5.904485702514648
 31
0.0
  0
LINE
  5
259
330
A
100
AcDbEntity
  8
TOP
  6
CONTINUOUS
 62
     3
100
AcDbLine
 10
3.210941076278686
 20
5.855538845062255
 30
0.0
 11
3.220870494842529
 21
5.855490684509277
 31
0.0
  0
LINE
  5
25A
330
A
100
AcDbEntity
  8
TOP
  6
CONTINUOUS
 62
     3
100
AcDbLine
 10
3.716726779937744
 20
6.462143898010253
 30
0.0
 11
3.72083306312561
 21
6.462143898010253
 31
0.0
  0
LINE
  5
25B
330
A
100
AcDbEntity
  8
TOP
  6
CONTINUOUS
 62
     3
100
AcDbLine
 10
3.620389699935913
 20
3.689875602722167
 30
0.0
 11
3.622511148452758
 21
3.689799070358276
 31
0.0
  0
LINE
  5
25C
330
A
100
AcDbEntity
  8
TOP
  6
CONTINUOUS
 62
     3
100
AcDbLine
 10
3.225529193878173
 20
6.440369606018066
 30
0.0
 11
3.215435981750488
 21
6.43855333328247
 31
0.0
  0
LINE
  5
25D
330
A
100
AcDbEntity
  8
TOP
  6
CONTINUOUS
 62
     3
100
AcDbLine
 10
3.505889654159545
 20
3.764710903167724
 30
0.0
 11
3.505889654159545
 21
3.763894796371459
 31
0.0
  0
LINE
  5
25E
330
A
100
AcDbEntity
  8
TOP
  6
CONTINUOUS
 62
     3
100
AcDbLine
 10
3.606889724731445
 20
3.781023263931274
 30
0.0
 11
3.582889795303344
 21
3.781023263931274
 31
0.0
  0
LINE
  5
25F
330
A
100
AcDbEntity
  8
TOP
  6
CONTINUOUS
 62
     3
100
AcDbLine
 10
5.61277961730957
 20
3.874944925308227
 30
0.0
 11
5.612804889678955
 21
3.871115207672119
 31
0.0
  0
LINE
  5
260
330
A
100
AcDbEntity
  8
TOP
  6
CONTINUOUS
 62
     3
100
AcDbLine
 10
3.345889806747436
 20
3.762860059738159
 30
0.0
 11
3.363889694213867
 21
3.762860059738159
 31
0.0
  0
LINE
  5
261
330
A
100
AcDbEntity
  8
TOP
  6
CONTINUOUS
 62
     3
100
AcDbLine
 10
5.376397132873535
 20
3.413050174713134
 30
0.0
 11
5.376397132873535
 21
3.573676824569702
 31
0.0
  0
LINE
  5
262
330
A
100
AcDbEntity
  8
TOP
  6
CONTINUOUS
 62
     3
100
AcDbLine
 10
3.352370262145996
 20
4.027196407318115
 30
0.0
 11
3.36210298538208
 21
4.017463684082031
 31
0.0
  0
LINE
  5
263
330
A
100
AcDbEntity
  8
TOP
  6
CONTINUOUS
 62
     3
100
AcDbLine
 10
3.196537017822265
 20
3.413050174713134
 30
0.0
 11
3.193032503128051
 21
3.413050174713134
 31
0.0
  0
LINE
  5
264
330
A
100
AcDbEntity
  8
TOP
  6
CONTINUOUS
 62
     3
100
AcDbLine
 10
3.647389650344848
 20
3.781023263931274
 30
0.0
 11
3.622889757156372
 21
3.781023263931274
 31
0.0
  0
LINE
  5
265
330
A
100
AcDbEntity
  8
TOP
  6
CONTINUOUS
 62
     3
100
AcDbLine
 10
3.254277229309082
 20
5.619139194488525
 30
0.0
 11
3.254100799560546
 21
5.629237174987792
 31
0.0
  0
LINE
  5
266
330
A
100
AcDbEntity
  8
TOP
  6
CONTINUOUS
 62
     3
100
AcDbLine
 10
3.688824892044067
 20
6.440500736236572
 30
0.0
 11
3.619820594787597
 21
6.44258689880371
 31
0.0
  0
LINE
  5
267
330
A
100
AcDbEntity
  8
TOP
  6
CONTINUOUS
 62
     3
100
AcDbLine
 10
3.677263498306274
 20
6.462143898010253
 30
0.0
 11
3.672224760055541
 21
6.462143898010253
 31
0.0
  0
LINE
  5
268
330
A
100
AcDbEntity
  8
TOP
  6
CONTINUOUS
 62
     3
100
AcDbLine
 10
3.291447877883911
 20
3.711081743240356
 30
0.0
 11
3.297977924346923
 21
3.711384534835815
 31
0.0
  0
LINE
  5
269
330
A
100
AcDbEntity
  8
TOP
  6
CONTINUOUS
 62
     3
100
AcDbLine
 10
3.342389822006225
 20
3.673676967620849
 30
0.0
 11
3.342389822006225
 21
3.689875602722167
 31
0.0
  0
LINE
  5
26A
330
A
100
AcDbEntity
  8
TOP
  6
CONTINUOUS
 62
     3
100
AcDbLine
 10
3.320671081542968
 20
3.502172470092773
 30
0.0
 11
3.338790416717529
 21
3.519068956375122
 31
0.0
  0
LINE
  5
26B
330
A
100
AcDbEntity
  8
TOP
  6
CONTINUOUS
 62
     3
100
AcDbLine
 10
3.300113916397094
 20
3.711384534835815
 30
0.0
 11
3.300113916397094
 21
3.801461696624755
 31
0.0
  0
LINE
  5
26C
330
A
100
AcDbEntity
  8
TOP
  6
CONTINUOUS
 62
     3
100
AcDbLine
 10
3.759389638900756
 20
3.623677015304565
 30
0.0
 11
3.230389833450317
 21
3.623677015304565
 31
0.0
  0
LINE
  5
26E
330
A
100
AcDbEntity
  8
TOP
  6
CONTINUOUS
 62
     3
100
AcDbLine
 10
3.729389667510986
 20
3.673676967620849
 30
0.0
 11
3.7316734790802
 21
3.671393394470214
 31
0.0
  0
LINE
  5
26F
330
A
100
AcDbEntity
  8
TOP
  6
CONTINUOUS
 62
     3
100
AcDbLine
 10
3.643892526626586
 20
3.778816699981689
 30
0.0
 11
3.647390127182006
 21
3.778816699981689
 31
0.0
  0
LINE
  5
270
330
A
100
AcDbEntity
  8
TOP
  6
CONTINUOUS
 62
     3
100
AcDbLine
 10
5.612740039825439
 20
3.673676967620849
 30
0.0
 11
5.386490821838378
 21
3.673676967620849
 31
0.0
  0
LINE
  5
271
330
A
100
AcDbEntity
  8
TOP
  6
CONTINUOUS
 62
     3
100
AcDbLine
 10
3.4438898563385
 20
3.771703481674194
 30
0.0
 11
3.4438898563385
 21
3.77231216430664
 31
0.0
  0
LINE
  5
272
330
A
100
AcDbEntity
  8
TOP
  6
CONTINUOUS
 62
     3
100
AcDbLine
 10
6.144752979278564
 20
3.800676822662353
 30
0.0
 11
6.142536163330078
 21
3.673676967620849
 31
0.0
  0
LINE
  5
273
330
A
100
AcDbEntity
  8
TOP
  6
CONTINUOUS
 62
     3
100
AcDbLine
 10
6.219397544860839
 20
3.486464262008666
 30
0.0
 11
6.219397544860839
 21
3.504839181900024
 31
0.0
  0
LINE
  5
274
330
A
100
AcDbEntity
  8
TOP
  6
CONTINUOUS
 62
     3
100
AcDbLine
 10
3.307060480117797
 20
3.71113896369934
 30
0.0
 11
3.300113916397094
 21
3.711384534835815
 31
0.0
  0
LINE
  5
275
330
A
100
AcDbEntity
  8
TOP
  6
CONTINUOUS
 62
     3
100
AcDbLine
 10
3.542889833450317
 20
3.781023263931274
 30
0.0
 11
3.542889833450317
 21
3.704823017120361
 31
0.0
  0
LINE
  5
276
330
A
100
AcDbEntity
  8
TOP
  6
CONTINUOUS
 62
     3
100
AcDbLine
 10
3.556638002395629
 20
5.66211986541748
 30
0.0
 11
3.557093143463134
 21
5.636066913604736
 31
0.0
  0
LINE
  5
277
330
A
100
AcDbEntity
  8
TOP
  6
CONTINUOUS
 62
     3
100
AcDbLine
 10
3.751401901245117
 20
6.462143898010253
 30
0.0
 11
3.238377571105957
 21
6.462143898010253
 31
0.0
  0
LINE
  5
278
330
A
100
AcDbEntity
  8
TOP
  6
CONTINUOUS
 62
     3
100
AcDbLine
 10
3.193323612213134
 20
5.855523109436035
 30
0.0
 11
3.19543433189392
 21
5.855536937713623
 31
0.0
  0
LINE
  5
279
330
A
100
AcDbEntity
  8
TOP
  6
CONTINUOUS
 62
     3
100
AcDbLine
 10
3.666889667510986
 20
6.462143898010253
 30
0.0
 11
3.687532901763916
 21
6.462143898010253
 31
0.0
  0
LINE
  5
27A
330
A
100
AcDbEntity
  8
TOP
  6
CONTINUOUS
 62
     3
100
AcDbLine
 10
3.585889816284179
 20
3.764710903167724
 30
0.0
 11
3.585889816284179
 21
3.763894796371459
 31
0.0
  0
LINE
  5
27B
330
A
100
AcDbEntity
  8
TOP
  6
CONTINUOUS
 62
     3
100
AcDbLine
 10
3.643889665603637
 20
3.680266141891479
 30
0.0
 11
3.643889665603637
 21
3.678816556930541
 31
0.0
  0
LINE
  5
27C
330
A
100
AcDbEntity
  8
TOP
  6
CONTINUOUS
 62
     3
100
AcDbLine
 10
3.772650241851806
 20
6.43855333328247
 30
0.0
 11
3.762557029724121
 21
6.440369606018066
 31
0.0
  0
LINE
  5
27D
330
A
100
AcDbEntity
  8
TOP
  6
CONTINUOUS
 62
     3
100
AcDbLine
 10
3.505889654159545
 20
3.681512594223022
 30
0.0
 11
3.505889654159545
 21
3.680266141891479
 31
0.0
  0
LINE
  5
27E
330
A
100
AcDbEntity
  8
TOP
  6
CONTINUOUS
 62
     3
100
AcDbLine
 10
3.340889692306518
 20
3.972676992416381
 30
0.0
 11
3.340889692306518
 21
4.038676738739013
 31
0.0
  0
LINE
  5
27F
330
A
100
AcDbEntity
  8
TOP
  6
CONTINUOUS
 62
     3
100
AcDbLine
 10
5.386499881744384
 20
3.874969482421875
 30
0.0
 11
5.386490821838378
 21
3.874888896942138
 31
0.0
  0
LINE
  5
280
330
A
100
AcDbEntity
  8
TOP
  6
CONTINUOUS
 62
     3
100
AcDbLine
 10
3.363889694213867
 20
3.77231216430664
 30
0.0
 11
3.363889694213867
 21
3.781023740768432
 31
0.0
  0
LINE
  5
281
330
A
100
AcDbEntity
  8
TOP
  6
CONTINUOUS
 62
     3
100
AcDbLine
 10
5.376397132873535
 20
4.133049964904785
 30
0.0
 11
5.376397132873535
 21
4.128050804138183
 31
0.0
  0
LINE
  5
282
330
A
100
AcDbEntity
  8
TOP
  6
CONTINUOUS
 62
     3
100
AcDbLine
 10
3.627676486968994
 20
4.017463684082031
 30
0.0
 11
3.621173381805419
 21
4.010960578918457
 31
0.0
  0
LINE
  5
283
330
A
100
AcDbEntity
  8
TOP
  6
CONTINUOUS
 62
     3
100
AcDbLine
 10
3.807389736175537
 20
3.413050174713134
 30
0.0
 11
3.798241853713989
 21
3.413050174713134
 31
0.0
  0
LINE
  5
284
330
A
100
AcDbEntity
  8
TOP
  6
CONTINUOUS
 62
     3
100
AcDbLine
 10
6.219397544860839
 20
3.448442697525024
 30
0.0
 11
6.219397544860839
 21
3.454428195953369
 31
0.0
  0
LINE
  5
285
330
A
100
AcDbEntity
  8
TOP
  6
CONTINUOUS
 62
     3
100
AcDbLine
 10
6.219397544860839
 20
3.536216259002685
 30
0.0
 11
6.219397544860839
 21
3.529516220092773
 31
0.0
  0
LINE
  5
286
330
A
100
AcDbEntity
  8
TOP
  6
CONTINUOUS
 62
     3
100
AcDbLine
 10
3.688824892044067
 20
6.440500736236572
 30
0.0
 11
3.688824892044067
 21
6.440369606018066
 31
0.0
  0
LINE
  5
287
330
A
100
AcDbEntity
  8
TOP
  6
CONTINUOUS
 62
     3
100
AcDbLine
 10
3.231244087219238
 20
6.44258689880371
 30
0.0
 11
3.233460903167724
 21
6.440370082855224
 31
0.0
  0
LINE
  5
288
330
A
100
AcDbEntity
  8
TOP
  6
CONTINUOUS
 62
     3
100
AcDbLine
 10
3.333083152770996
 20
6.462143898010253
 30
0.0
 11
3.320671081542968
 21
6.462143898010253
 31
0.0
  0
LINE
  5
289
330
A
100
AcDbEntity
  8
TOP
  6
CONTINUOUS
 62
     3
100
AcDbLine
 10
3.345560550689697
 20
3.781023502349853
 30
0.0
 11
3.345497369766235
 21
3.780131101608276
 31
0.0
  0
LINE
  5
28A
330
A
100
AcDbEntity
  8
TOP
  6
CONTINUOUS
 62
     3
100
AcDbLine
 10
3.647389650344848
 20
3.689875602722167
 30
0.0
 11
3.729389190673828
 21
3.689875602722167
 31
0.0
  0
LINE
  5
28B
330
A
100
AcDbEntity
  8
TOP
  6
CONTINUOUS
 62
     3
100
AcDbLine
 10
3.717889785766601
 20
3.473782300949096
 30
0.0
 11
3.717889785766601
 21
3.467676877975463
 31
0.0
  0
LINE
  5
28C
330
A
100
AcDbEntity
  8
TOP
  6
CONTINUOUS
 62
     3
100
AcDbLine
 10
3.272665739059448
 20
3.711384534835815
 30
0.0
 11
3.272665739059448
 21
3.801461696624755
 31
0.0
  0
LINE
  5
28D
330
A
100
AcDbEntity
  8
TOP
  6
CONTINUOUS
 62
     3
100
AcDbLine
 10
3.589889764785766
 20
3.543050050735473
 30
0.0
 11
3.589889764785766
 21
3.542351961135864
 31
0.0
  0
LINE
  5
28F
330
A
100
AcDbEntity
  8
TOP
  6
CONTINUOUS
 62
     3
100
AcDbLine
 10
3.747909307479858
 20
3.961196422576904
 30
0.0
 11
3.738176584243774
 21
3.95146369934082
 31
0.0
  0
LINE
  5
290
330
A
100
AcDbEntity
  8
TOP
  6
CONTINUOUS
 62
     3
100
AcDbLine
 10
3.345497369766235
 20
3.780131101608276
 30
0.0
 11
3.342389822006225
 21
3.780131101608276
 31
0.0
  0
LINE
  5
291
330
A
100
AcDbEntity
  8
TOP
  6
CONTINUOUS
 62
     3
100
AcDbLine
 10
5.376392841339111
 20
3.618676900863647
 30
0.0
 11
5.386490821838378
 21
3.618676900863647
 31
0.0
  0
LINE
  5
292
330
A
100
AcDbEntity
  8
TOP
  6
CONTINUOUS
 62
     3
100
AcDbLine
 10
3.425889730453491
 20
3.771223306655883
 30
0.0
 11
3.425889730453491
 21
3.771703481674194
 31
0.0
  0
LINE
  5
293
330
A
100
AcDbEntity
  8
TOP
  6
CONTINUOUS
 62
     3
100
AcDbLine
 10
5.612744331359863
 20
3.673676967620849
 30
0.0
 11
5.729744434356689
 21
3.673676967620849
 31
0.0
  0
LINE
  5
294
330
A
100
AcDbEntity
  8
TOP
  6
CONTINUOUS
 62
     3
100
AcDbLine
 10
6.219397544860839
 20
3.462839841842651
 30
0.0
 11
6.219397544860839
 21
3.474533319473266
 31
0.0
  0
LINE
  5
295
330
A
100
AcDbEntity
  8
TOP
  6
CONTINUOUS
 62
     3
100
AcDbLine
 10
3.316455125808715
 20
3.705191135406494
 30
0.0
 11
3.32687497138977
 21
3.704823017120361
 31
0.0
  0
LINE
  5
296
330
A
100
AcDbEntity
  8
TOP
  6
CONTINUOUS
 62
     3
100
AcDbLine
 10
3.801222085952758
 20
5.972495079040527
 30
0.0
 11
3.794868469238281
 21
6.336494445800781
 31
0.0
  0
LINE
  5
297
330
A
100
AcDbEntity
  8
TOP
  6
CONTINUOUS
 62
     3
100
AcDbLine
 10
3.255315065383911
 20
4.125526905059814
 30
0.0
 11
3.255315065383911
 21
4.063901901245117
 31
0.0
  0
LINE
  5
298
330
A
100
AcDbEntity
  8
TOP
  6
CONTINUOUS
 62
     3
100
AcDbLine
 10
3.21988034248352
 20
5.6324143409729
 30
0.0
 11
3.220795392990112
 21
5.634537696838378
 31
0.0
  0
LINE
  5
299
330
A
100
AcDbEntity
  8
TOP
  6
CONTINUOUS
 62
     3
100
AcDbLine
 10
3.617052555084228
 20
6.462143898010253
 30
0.0
 11
3.628746032714843
 21
6.462143898010253
 31
0.0
  0
LINE
  5
29A
330
A
100
AcDbEntity
  8
TOP
  6
CONTINUOUS
 62
     3
100
AcDbLine
 10
3.366389751434326
 20
3.6939537525177
 30
0.0
 11
3.366389751434326
 21
3.695977449417114
 31
0.0
  0
LINE
  5
29B
330
A
100
AcDbEntity
  8
TOP
  6
CONTINUOUS
 62
     3
100
AcDbLine
 10
3.345889806747436
 20
3.681512594223022
 30
0.0
 11
3.345889806747436
 21
3.762860059738159
 31
0.0
  0
LINE
  5
29C
330
A
100
AcDbEntity
  8
TOP
  6
CONTINUOUS
 62
     3
100
AcDbLine
 10
3.483892917633056
 20
3.698966026306152
 30
0.0
 11
3.505886793136596
 21
3.698966026306152
 31
0.0
  0
LINE
  5
29D
330
A
100
AcDbEntity
  8
TOP
  6
CONTINUOUS
 62
     3
100
AcDbLine
 10
3.762385368347167
 20
6.430653572082519
 30
0.0
 11
3.766439199447631
 21
6.432987689971923
 31
0.0
  0
LINE
  5
29E
330
A
100
AcDbEntity
  8
TOP
  6
CONTINUOUS
 62
     3
100
AcDbLine
 10
3.257025718688964
 20
4.062191486358642
 30
0.0
 11
3.255315065383911
 21
4.063901901245117
 31
0.0
  0
LINE
  5
29F
330
A
100
AcDbEntity
  8
TOP
  6
CONTINUOUS
 62
     3
100
AcDbLine
 10
3.759389638900756
 20
3.972676992416381
 30
0.0
 11
3.759389638900756
 21
3.643676996231079
 31
0.0
  0
LINE
  5
2A0
330
A
100
AcDbEntity
  8
TOP
  6
CONTINUOUS
 62
     3
100
AcDbLine
 10
3.645268440246582
 20
3.698090553283691
 30
0.0
 11
3.644389867782592
 21
3.695977449417114
 31
0.0
  0
LINE
  5
2A1
330
A
100
AcDbEntity
  8
TOP
  6
CONTINUOUS
 62
     3
100
AcDbLine
 10
3.363889694213867
 20
3.771223306655883
 30
0.0
 11
3.363889694213867
 21
3.771703481674194
 31
0.0
  0
LINE
  5
2A2
330
A
100
AcDbEntity
  8
TOP
  6
CONTINUOUS
 62
     3
100
AcDbLine
 10
6.186443328857421
 20
3.413050174713134
 30
0.0
 11
6.178130149841308
 21
3.413050174713134
 31
0.0
  0
LINE
  5
2A3
330
A
100
AcDbEntity
  8
TOP
  6
CONTINUOUS
 62
     3
100
AcDbLine
 10
6.219397544860839
 20
3.45052146911621
 30
0.0
 11
6.219397544860839
 21
3.448442697525024
 31
0.0
  0
LINE
  5
2A4
330
A
100
AcDbEntity
  8
TOP
  6
CONTINUOUS
 62
     3
100
AcDbLine
 10
3.566889762878417
 20
3.781023263931274
 30
0.0
 11
3.566889762878417
 21
3.704823017120361
 31
0.0
  0
LINE
  5
2A5
330
A
100
AcDbEntity
  8
TOP
  6
CONTINUOUS
 62
     3
100
AcDbLine
 10
3.604889869689941
 20
4.038676738739013
 30
0.0
 11
3.648889780044555
 21
4.038676738739013
 31
0.0
  0
LINE
  5
2A6
330
A
100
AcDbEntity
  8
TOP
  6
CONTINUOUS
 62
     3
100
AcDbLine
 10
3.519433736801147
 20
3.807631731033325
 30
0.0
 11
3.544173240661621
 21
3.806816101074218
 31
0.0
  0
LINE
  5
2A7
330
A
100
AcDbEntity
  8
TOP
  6
CONTINUOUS
 62
     3
100
AcDbLine
 10
3.216346740722656
 20
6.438772678375244
 30
0.0
 11
3.231244087219238
 21
6.44258689880371
 31
0.0
  0
LINE
  5
2A8
330
A
100
AcDbEntity
  8
TOP
  6
CONTINUOUS
 62
     3
100
AcDbLine
 10
3.759467840194702
 20
6.443546772003173
 30
0.0
 11
3.230311632156372
 21
6.443546772003173
 31
0.0
  0
LINE
  5
2A9
330
A
100
AcDbEntity
  8
TOP
  6
CONTINUOUS
 62
     3
100
AcDbLine
 10
3.306964397430419
 20
6.462143898010253
 30
0.0
 11
3.287309646606445
 21
6.462143898010253
 31
0.0
  0
LINE
  5
2AA
330
A
100
AcDbEntity
  8
TOP
  6
CONTINUOUS
 62
     3
100
AcDbLine
 10
3.344195842742919
 20
3.77882957458496
 30
0.0
 11
3.345497369766235
 21
3.780131101608276
 31
0.0
  0
LINE
  5
2AB
330
A
100
AcDbEntity
  8
TOP
  6
CONTINUOUS
 62
     3
100
AcDbLine
 10
3.385889768600463
 20
3.678816556930541
 30
0.0
 11
3.385889768600463
 21
3.67367672920227
 31
0.0
  0
LINE
  5
2AC
330
A
100
AcDbEntity
  8
TOP
  6
CONTINUOUS
 62
     3
100
AcDbLine
 10
3.717889785766601
 20
3.455677032470703
 30
0.0
 11
3.721889734268188
 21
3.465782165527343
 31
0.0
  0
LINE
  5
2AD
330
A
100
AcDbEntity
  8
TOP
  6
CONTINUOUS
 62
     3
100
AcDbLine
 10
3.802523851394653
 20
5.972490787506103
 30
0.0
 11
3.806543111801147
 21
5.972490787506103
 31
0.0
  0
LINE
  5
2AE
330
A
100
AcDbEntity
  8
TOP
  6
CONTINUOUS
 62
     3
100
AcDbLine
 10
3.627676486968994
 20
3.95146369934082
 30
0.0
 11
3.621173381805419
 21
3.944960594177246
 31
0.0
  0
LINE
  5
2AF
330
A
100
AcDbEntity
  8
TOP
  6
CONTINUOUS
 62
     3
100
AcDbLine
 10
6.18827199935913
 20
3.856090545654296
 30
0.0
 11
6.178860187530517
 21
3.846790313720703
 31
0.0
  0
LINE
  5
2B0
330
A
100
AcDbEntity
  8
TOP
  6
CONTINUOUS
 62
     3
100
AcDbLine
 10
3.677895307540893
 20
3.806756734848022
 30
0.0
 11
3.679671764373779
 21
3.802305936813354
 31
0.0
  0
LINE
  5
2B1
330
A
100
AcDbEntity
  8
TOP
  6
CONTINUOUS
 62
     3
100
AcDbLine
 10
6.136490821838378
 20
3.785938739776611
 30
0.0
 11
6.144495487213134
 21
3.785938739776611
 31
0.0
  0
LINE
  5
2B2
330
A
100
AcDbEntity
  8
TOP
  6
CONTINUOUS
 62
     3
100
AcDbLine
 10
3.4438898563385
 20
3.771223306655883
 30
0.0
 11
3.4438898563385
 21
3.764710903167724
 31
0.0
  0
LINE
  5
2B3
330
A
100
AcDbEntity
  8
TOP
  6
CONTINUOUS
 62
     3
100
AcDbLine
 10
5.386490821838378
 20
3.673676967620849
 30
0.0
 11
5.386490821838378
 21
3.618676900863647
 31
0.0
  0
LINE
  5
2B4
330
A
100
AcDbEntity
  8
TOP
  6
CONTINUOUS
 62
     3
100
AcDbLine
 10
6.219397544860839
 20
3.474533319473266
 30
0.0
 11
6.219397544860839
 21
3.462839841842651
 31
0.0
  0
LINE
  5
2B5
330
A
100
AcDbEntity
  8
TOP
  6
CONTINUOUS
 62
     3
100
AcDbLine
 10
3.260389804840087
 20
3.704823017120361
 30
0.0
 11
3.262671709060668
 21
3.710540294647216
 31
0.0
  0
LINE
  5
2B6
330
A
100
AcDbEntity
  8
TOP
  6
CONTINUOUS
 62
     3
100
AcDbLine
 10
3.545889854431152
 20
3.678816556930541
 30
0.0
 11
3.563889741897583
 21
3.678816556930541
 31
0.0
  0
LINE
  5
2B7
330
A
100
AcDbEntity
  8
TOP
  6
CONTINUOUS
 62
     3
100
AcDbLine
 10
3.369389772415161
 20
3.698966026306152
 30
0.0
 11
3.369389772415161
 21
3.696075201034545
 31
0.0
  0
LINE
  5
2B8
330
A
100
AcDbEntity
  8
TOP
  6
CONTINUOUS
 62
     3
100
AcDbLine
 10
3.431447982788085
 20
5.66211986541748
 30
0.0
 11
3.43099308013916
 21
5.636066913604736
 31
0.0
  0
LINE
  5
2B9
330
A
100
AcDbEntity
  8
TOP
  6
CONTINUOUS
 62
     3
100
AcDbLine
 10
3.673324346542358
 20
3.807655096054077
 30
0.0
 11
3.677895307540893
 21
3.806756734848022
 31
0.0
  0
LINE
  5
2BA
330
A
100
AcDbEntity
  8
TOP
  6
CONTINUOUS
 62
     3
100
AcDbLine
 10
3.732839584350585
 20
5.095056533813476
 30
0.0
 11
3.732753753662109
 21
5.090143680572509
 31
0.0
  0
LINE
  5
2BB
330
A
100
AcDbEntity
  8
TOP
  6
CONTINUOUS
 62
     3
100
AcDbLine
 10
3.214043140411376
 20
5.629237174987792
 30
0.0
 11
3.216297388076782
 21
5.629612922668457
 31
0.0
  0
LINE
  5
2BC
330
A
100
AcDbEntity
  8
TOP
  6
CONTINUOUS
 62
     3
100
AcDbLine
 10
3.320671081542968
 20
6.462143898010253
 30
0.0
 11
3.331503868103027
 21
6.462143898010253
 31
0.0
  0
LINE
  5
2BD
330
A
100
AcDbEntity
  8
TOP
  6
CONTINUOUS
 62
     3
100
AcDbLine
 10
3.34538984298706
 20
3.689614057540893
 30
0.0
 11
3.34538984298706
 21
3.673676967620849
 31
0.0
  0
LINE
  5
2BE
330
A
100
AcDbEntity
  8
TOP
  6
CONTINUOUS
 62
     3
100
AcDbLine
 10
3.625889778137207
 20
3.681512594223022
 30
0.0
 11
3.643889665603637
 21
3.681512594223022
 31
0.0
  0
LINE
  5
2BF
330
A
100
AcDbEntity
  8
TOP
  6
CONTINUOUS
 62
     3
100
AcDbLine
 10
6.219397544860839
 20
3.476925611495971
 30
0.0
 11
6.219397544860839
 21
3.482911109924316
 31
0.0
  0
LINE
  5
2C0
330
A
100
AcDbEntity
  8
TOP
  6
CONTINUOUS
 62
     3
100
AcDbLine
 10
3.189912796020507
 20
4.120527744293212
 30
0.0
 11
3.182389736175537
 21
4.128050804138183
 31
0.0
  0
LINE
  5
2C1
330
A
100
AcDbEntity
  8
TOP
  6
CONTINUOUS
 62
     3
100
AcDbLine
 10
3.793242454528808
 20
3.413050174713134
 30
0.0
 11
3.196537017822265
 21
3.413050174713134
 31
0.0
  0
LINE
  5
2C2
330
A
100
AcDbEntity
  8
TOP
  6
CONTINUOUS
 62
     3
100
AcDbLine
 10
5.386490821838378
 20
3.673676967620849
 30
0.0
 11
5.386490821838378
 21
3.845676898956298
 31
0.0
  0
LINE
  5
2C3
330
A
100
AcDbEntity
  8
TOP
  6
CONTINUOUS
 62
     3
100
AcDbLine
 10
3.385889768600463
 20
3.678816556930541
 30
0.0
 11
3.403889656066894
 21
3.678816556930541
 31
0.0
  0
LINE
  5
2C4
330
A
100
AcDbEntity
  8
TOP
  6
CONTINUOUS
 62
     3
100
AcDbLine
 10
3.345889806747436
 20
3.77231216430664
 30
0.0
 11
3.363889694213867
 21
3.77231216430664
 31
0.0
  0
LINE
  5
2C5
330
A
100
AcDbEntity
  8
TOP
  6
CONTINUOUS
 62
     3
100
AcDbLine
 10
4.852310180664062
 20
3.413050174713134
 30
0.0
 11
4.848831176757812
 21
3.413050174713134
 31
0.0
  0
LINE
  5
2C6
330
A
100
AcDbEntity
  8
TOP
  6
CONTINUOUS
 62
     3
100
AcDbLine
 10
3.793242454528808
 20
4.062191486358642
 30
0.0
 11
3.798241853713989
 21
4.062277317047119
 31
0.0
  0
LINE
  5
2C7
330
A
100
AcDbEntity
  8
TOP
  6
CONTINUOUS
 62
     3
100
AcDbLine
 10
3.52688980102539
 20
3.704823017120361
 30
0.0
 11
3.542889833450317
 21
3.704823017120361
 31
0.0
  0
LINE
  5
2C8
330
A
100
AcDbEntity
  8
TOP
  6
CONTINUOUS
 62
     3
100
AcDbLine
 10
3.344194412231445
 20
3.778753519058227
 30
0.0
 11
3.344294071197509
 21
3.713425397872924
 31
0.0
  0
LINE
  5
2C9
330
A
100
AcDbEntity
  8
TOP
  6
CONTINUOUS
 62
     3
100
AcDbLine
 10
3.807199954986572
 20
6.394744396209716
 30
0.0
 11
3.807199954986572
 21
6.396494388580322
 31
0.0
  0
LINE
  5
2CA
330
A
100
AcDbEntity
  8
TOP
  6
CONTINUOUS
 62
     3
100
AcDbLine
 10
3.619820594787597
 20
6.44258689880371
 30
0.0
 11
3.619820594787597
 21
6.440983295440673
 31
0.0
  0
LINE
  5
2CB
330
A
100
AcDbEntity
  8
TOP
  6
CONTINUOUS
 62
     3
100
AcDbLine
 10
3.544173240661621
 20
6.254951477050781
 30
0.0
 11
3.519433736801147
 21
6.267909049987792
 31
0.0
  0
LINE
  5
2CC
330
A
100
AcDbEntity
  8
TOP
  6
CONTINUOUS
 62
     3
100
AcDbLine
 10
3.403889656066894
 20
3.681512594223022
 30
0.0
 11
3.403889656066894
 21
3.680266141891479
 31
0.0
  0
LINE
  5
2CD
330
A
100
AcDbEntity
  8
TOP
  6
CONTINUOUS
 62
     3
100
AcDbLine
 10
3.320671081542968
 20
3.536216259002685
 30
0.0
 11
3.320671081542968
 21
3.521051883697509
 31
0.0
  0
LINE
  5
2CE
330
A
100
AcDbEntity
  8
TOP
  6
CONTINUOUS
 62
     3
100
AcDbLine
 10
3.677895307540893
 20
3.706089496612548
 30
0.0
 11
3.677895307540893
 21
3.806756734848022
 31
0.0
  0
LINE
  5
2CF
330
A
100
AcDbEntity
  8
TOP
  6
CONTINUOUS
 62
     3
100
AcDbLine
 10
3.589889764785766
 20
3.478049993515014
 30
0.0
 11
3.589889764785766
 21
3.478748321533203
 31
0.0
  0
LINE
  5
2D0
330
A
100
AcDbEntity
  8
TOP
  6
CONTINUOUS
 62
     3
100
AcDbLine
 10
3.806543111801147
 20
5.855486392974853
 30
0.0
 11
3.803437232971191
 21
5.855486392974853
 31
0.0
  0
LINE
  5
2D1
330
A
100
AcDbEntity
  8
TOP
  6
CONTINUOUS
 62
     3
100
AcDbLine
 10
3.258106231689453
 20
3.671393394470214
 30
0.0
 11
3.260389804840087
 21
3.673676967620849
 31
0.0
  0
LINE
  5
2D2
330
A
100
AcDbEntity
  8
TOP
  6
CONTINUOUS
 62
     3
100
AcDbLine
 10
3.644283533096313
 20
3.711286067962646
 30
0.0
 11
3.647390127182006
 21
3.711371898651123
 31
0.0
  0
LINE
  5
2D3
330
A
100
AcDbEntity
  8
TOP
  6
CONTINUOUS
 62
     3
100
AcDbLine
 10
6.182282447814941
 20
3.800676822662353
 30
0.0
 11
6.193516254425048
 21
3.800676822662353
 31
0.0
  0
LINE
  5
2D4
330
A
100
AcDbEntity
  8
TOP
  6
CONTINUOUS
 62
     3
100
AcDbLine
 10
3.505889654159545
 20
3.678816556930541
 30
0.0
 11
3.523889780044555
 21
3.678816556930541
 31
0.0
  0
LINE
  5
2D5
330
A
100
AcDbEntity
  8
TOP
  6
CONTINUOUS
 62
     3
100
AcDbLine
 10
4.837397575378417
 20
3.623677015304565
 30
0.0
 11
4.837397575378417
 21
3.643676996231079
 31
0.0
  0
LINE
  5
2D6
330
A
100
AcDbEntity
  8
TOP
  6
CONTINUOUS
 62
     3
100
AcDbLine
 10
6.219397544860839
 20
3.533320188522338
 30
0.0
 11
6.219397544860839
 21
3.512676954269409
 31
0.0
  0
LINE
  5
2D7
330
A
100
AcDbEntity
  8
TOP
  6
CONTINUOUS
 62
     3
100
AcDbLine
 10
3.258106231689453
 20
3.944960594177246
 30
0.0
 11
3.260389804840087
 21
3.942677021026611
 31
0.0
  0
LINE
  5
2D8
330
A
100
AcDbEntity
  8
TOP
  6
CONTINUOUS
 62
     3
100
AcDbLine
 10
3.182579517364501
 20
6.394744396209716
 30
0.0
 11
3.182579517364501
 21
6.338243961334228
 31
0.0
  0
LINE
  5
2D9
330
A
100
AcDbEntity
  8
TOP
  6
CONTINUOUS
 62
     3
100
AcDbLine
 10
3.194912195205688
 20
5.188143730163574
 30
0.0
 11
3.189912796020507
 21
5.188143730163574
 31
0.0
  0
LINE
  5
2DA
330
A
100
AcDbEntity
  8
TOP
  6
CONTINUOUS
 62
     3
100
AcDbLine
 10
3.79063868522644
 20
5.855545043945312
 30
0.0
 11
3.79476261138916
 21
5.855523109436035
 31
0.0
  0
LINE
  5
2DB
330
A
100
AcDbEntity
  8
TOP
  6
CONTINUOUS
 62
     3
100
AcDbLine
 10
3.734639644622802
 20
6.462143898010253
 30
0.0
 11
3.722850799560546
 21
6.462143898010253
 31
0.0
  0
LINE
  5
2DC
330
A
100
AcDbEntity
  8
TOP
  6
CONTINUOUS
 62
     3
100
AcDbLine
 10
3.34538984298706
 20
3.702656984329223
 30
0.0
 11
3.34538984298706
 21
3.695977449417114
 31
0.0
  0
LINE
  5
2DD
330
A
100
AcDbEntity
  8
TOP
  6
CONTINUOUS
 62
     3
100
AcDbLine
 10
3.643889665603637
 20
3.764710903167724
 30
0.0
 11
3.643889665603637
 21
3.763894796371459
 31
0.0
  0
LINE
  5
2DE
330
A
100
AcDbEntity
  8
TOP
  6
CONTINUOUS
 62
     3
100
AcDbLine
 10
6.219397544860839
 20
3.455677032470703
 30
0.0
 11
6.219397544860839
 21
3.475677013397216
 31
0.0
  0
LINE
  5
2DF
330
A
100
AcDbEntity
  8
TOP
  6
CONTINUOUS
 62
     3
100
AcDbLine
 10
3.483889818191528
 20
3.681512594223022
 30
0.0
 11
3.483889818191528
 21
3.762860059738159
 31
0.0
  0
LINE
  5
2E0
330
A
100
AcDbEntity
  8
TOP
  6
CONTINUOUS
 62
     3
100
AcDbLine
 10
3.257025718688964
 20
4.118902683258056
 30
0.0
 11
3.257025718688964
 21
4.062191486358642
 31
0.0
  0
LINE
  5
2E1
330
A
100
AcDbEntity
  8
TOP
  6
CONTINUOUS
 62
     3
100
AcDbLine
 10
3.345889806747436
 20
3.764710903167724
 30
0.0
 11
3.363889694213867
 21
3.764710903167724
 31
0.0
  0
LINE
  5
2E2
330
A
100
AcDbEntity
  8
TOP
  6
CONTINUOUS
 62
     3
100
AcDbLine
 10
4.847397327423095
 20
4.118902683258056
 30
0.0
 11
4.847397327423095
 21
4.062191486358642
 31
0.0
  0
LINE
  5
2E3
330
A
100
AcDbEntity
  8
TOP
  6
CONTINUOUS
 62
     3
100
AcDbLine
 10
3.50288987159729
 20
3.781023263931274
 30
0.0
 11
3.50288987159729
 21
3.704823017120361
 31
0.0
  0
LINE
  5
2E4
330
A
100
AcDbEntity
  8
TOP
  6
CONTINUOUS
 62
     3
100
AcDbLine
 10
3.563889741897583
 20
3.681512594223022
 30
0.0
 11
3.563889741897583
 21
3.762860059738159
 31
0.0
  0
LINE
  5
2E5
330
A
100
AcDbEntity
  8
TOP
  6
CONTINUOUS
 62
     3
100
AcDbLine
 10
3.807199954986572
 20
6.336494445800781
 30
0.0
 11
3.807199954986572
 21
6.338243961334228
 31
0.0
  0
LINE
  5
2E6
330
A
100
AcDbEntity
  8
TOP
  6
CONTINUOUS
 62
     3
100
AcDbLine
 10
3.806543111801147
 20
5.972490787506103
 30
0.0
 11
3.807389736175537
 21
5.972490787506103
 31
0.0
  0
LINE
  5
2E7
330
A
100
AcDbEntity
  8
TOP
  6
CONTINUOUS
 62
     3
100
AcDbLine
 10
3.344416379928588
 20
6.462143898010253
 30
0.0
 11
3.356087446212768
 21
6.462143898010253
 31
0.0
  0
LINE
  5
2E8
330
A
100
AcDbEntity
  8
TOP
  6
CONTINUOUS
 62
     3
100
AcDbLine
 10
3.276638031005859
 20
3.70781397819519
 30
0.0
 11
3.276638031005859
 21
3.711081743240356
 31
0.0
  0
LINE
  5
2E9
330
A
100
AcDbEntity
  8
TOP
  6
CONTINUOUS
 62
     3
100
AcDbLine
 10
3.385889768600463
 20
3.681512594223022
 30
0.0
 11
3.385889768600463
 21
3.762860059738159
 31
0.0
  0
LINE
  5
2EA
330
A
100
AcDbEntity
  8
TOP
  6
CONTINUOUS
 62
     3
100
AcDbLine
 10
3.468652486801147
 20
3.803373098373413
 30
0.0
 11
3.445214986801147
 21
3.80418848991394
 31
0.0
  0
LINE
  5
2EB
330
A
100
AcDbEntity
  8
TOP
  6
CONTINUOUS
 62
     3
100
AcDbLine
 10
3.679671764373779
 20
3.710540294647216
 30
0.0
 11
3.679671764373779
 21
3.802305936813354
 31
0.0
  0
LINE
  5
2EC
330
A
100
AcDbEntity
  8
TOP
  6
CONTINUOUS
 62
     3
100
AcDbLine
 10
3.385587930679321
 20
3.493050098419189
 30
0.0
 11
3.385587930679321
 21
3.528049945831298
 31
0.0
  0
LINE
  5
2ED
330
A
100
AcDbEntity
  8
TOP
  6
CONTINUOUS
 62
     3
100
AcDbLine
 10
3.194543123245239
 20
5.904476165771484
 30
0.0
 11
3.194543123245239
 21
5.903110027313232
 31
0.0
  0
LINE
  5
2EE
330
A
100
AcDbEntity
  8
TOP
  6
CONTINUOUS
 62
     3
100
AcDbLine
 10
3.230389833450317
 20
3.643676996231079
 30
0.0
 11
3.241870164871215
 21
3.655157327651977
 31
0.0
  0
LINE
  5
2EF
330
A
100
AcDbEntity
  8
TOP
  6
CONTINUOUS
 62
     3
100
AcDbLine
 10
6.187907218933105
 20
3.865636825561523
 30
0.0
 11
6.190241336822509
 21
3.865292310714721
 31
0.0
  0
LINE
  5
2F0
330
A
100
AcDbEntity
  8
TOP
  6
CONTINUOUS
 62
     3
100
AcDbLine
 10
6.169115543365478
 20
3.673676967620849
 30
0.0
 11
6.166898727416992
 21
3.800676822662353
 31
0.0
  0
LINE
  5
2F1
330
A
100
AcDbEntity
  8
TOP
  6
CONTINUOUS
 62
     3
100
AcDbLine
 10
3.505889654159545
 20
3.771223306655883
 30
0.0
 11
3.523889780044555
 21
3.771223306655883
 31
0.0
  0
LINE
  5
2F2
330
A
100
AcDbEntity
  8
TOP
  6
CONTINUOUS
 62
     3
100
AcDbLine
 10
6.216327667236328
 20
3.434980392456054
 30
0.0
 11
6.207567691802978
 21
3.426220178604125
 31
0.0
  0
LINE
  5
2F3
330
A
100
AcDbEntity
  8
TOP
  6
CONTINUOUS
 62
     3
100
AcDbLine
 10
6.219397544860839
 20
3.566620349884033
 30
0.0
 11
6.219397544860839
 21
3.562514066696166
 31
0.0
  0
LINE
  5
2F4
330
A
100
AcDbEntity
  8
TOP
  6
CONTINUOUS
 62
     3
100
AcDbLine
 10
3.230389833450317
 20
3.972676992416381
 30
0.0
 11
3.241870164871215
 21
3.961196422576904
 31
0.0
  0
LINE
  5
2F5
330
A
100
AcDbEntity
  8
TOP
  6
CONTINUOUS
 62
     3
100
AcDbLine
 10
3.721889734268188
 20
3.465782165527343
 30
0.0
 11
3.733889818191528
 21
3.465782165527343
 31
0.0
  0
LINE
  5
2F6
330
A
100
AcDbEntity
  8
TOP
  6
CONTINUOUS
 62
     3
100
AcDbLine
 10
3.655626773834228
 20
3.483630657196044
 30
0.0
 11
3.635472297668457
 21
3.483630657196044
 31
0.0
  0
LINE
  5
2F7
330
A
100
AcDbEntity
  8
TOP
  6
CONTINUOUS
 62
     3
100
AcDbLine
 10
3.346638441085815
 20
5.66211986541748
 30
0.0
 11
3.347093105316162
 21
5.636066913604736
 31
0.0
  0
LINE
  5
2F8
330
A
100
AcDbEntity
  8
TOP
  6
CONTINUOUS
 62
     3
100
AcDbLine
 10
3.191187620162963
 20
6.340431213378906
 30
0.0
 11
3.191187620162963
 21
6.392557621002197
 31
0.0
  0
LINE
  5
2F9
330
A
100
AcDbEntity
  8
TOP
  6
CONTINUOUS
 62
     3
100
AcDbLine
 10
3.191537618637084
 20
5.095056533813476
 30
0.0
 11
3.189912796020507
 21
5.188143730163574
 31
0.0
  0
LINE
  5
2FA
330
A
100
AcDbEntity
  8
TOP
  6
CONTINUOUS
 62
     3
100
AcDbLine
 10
3.767215728759765
 20
5.855490684509277
 30
0.0
 11
3.773798704147338
 21
5.855526447296142
 31
0.0
  0
LINE
  5
2FB
330
A
100
AcDbEntity
  8
TOP
  6
CONTINUOUS
 62
     3
100
AcDbLine
 10
3.722850799560546
 20
6.462143898010253
 30
0.0
 11
3.734639644622802
 21
6.462143898010253
 31
0.0
  0
LINE
  5
2FC
330
A
100
AcDbEntity
  8
TOP
  6
CONTINUOUS
 62
     3
100
AcDbLine
 10
3.623389720916748
 20
3.689614057540893
 30
0.0
 11
3.623389720916748
 21
3.673676967620849
 31
0.0
  0
LINE
  5
2FD
330
A
100
AcDbEntity
  8
TOP
  6
CONTINUOUS
 62
     3
100
AcDbLine
 10
3.563888549804687
 20
3.705702304840087
 30
0.0
 11
3.566888809204101
 21
3.705702304840087
 31
0.0
  0
LINE
  5
2FE
330
A
100
AcDbEntity
  8
TOP
  6
CONTINUOUS
 62
     3
100
AcDbLine
 10
6.219397544860839
 20
3.477137565612792
 30
0.0
 11
6.219397544860839
 21
3.502172470092773
 31
0.0
  0
LINE
  5
2FF
330
A
100
AcDbEntity
  8
TOP
  6
CONTINUOUS
 62
     3
100
AcDbLine
 10
3.794867277145385
 20
4.125526905059814
 30
0.0
 11
3.802390575408935
 21
4.133049964904785
 31
0.0
  0
LINE
  5
300
330
A
100
AcDbEntity
  8
TOP
  6
CONTINUOUS
 62
     3
100
AcDbLine
 10
3.425889730453491
 20
3.680266141891479
 30
0.0
 11
3.425889730453491
 21
3.678816556930541
 31
0.0
  0
LINE
  5
301
330
A
100
AcDbEntity
  8
TOP
  6
CONTINUOUS
 62
     3
100
AcDbLine
 10
6.097684860229492
 20
3.663676977157592
 30
0.0
 11
6.149810791015625
 21
3.663676977157592
 31
0.0
  0
LINE
  5
302
330
A
100
AcDbEntity
  8
TOP
  6
CONTINUOUS
 62
     3
100
AcDbLine
 10
6.219397544860839
 20
3.485443115234375
 30
0.0
 11
6.219397544860839
 21
3.477137565612792
 31
0.0
  0
LINE
  5
303
330
A
100
AcDbEntity
  8
TOP
  6
CONTINUOUS
 62
     3
100
AcDbLine
 10
3.486889839172363
 20
3.781023263931274
 30
0.0
 11
3.462889671325683
 21
3.781023263931274
 31
0.0
  0
LINE
  5
304
330
A
100
AcDbEntity
  8
TOP
  6
CONTINUOUS
 62
     3
100
AcDbLine
 10
3.545889854431152
 20
3.680266141891479
 30
0.0
 11
3.545889854431152
 21
3.678816556930541
 31
0.0
  0
LINE
  5
305
330
A
100
AcDbEntity
  8
TOP
  6
CONTINUOUS
 62
     3
100
AcDbLine
 10
3.807199954986572
 20
6.396494388580322
 30
0.0
 11
3.792491197586059
 21
6.396494388580322
 31
0.0
  0
LINE
  5
306
330
A
100
AcDbEntity
  8
TOP
  6
CONTINUOUS
 62
     3
100
AcDbLine
 10
3.79859185218811
 20
6.340431213378906
 30
0.0
 11
3.792980432510375
 21
6.340431213378906
 31
0.0
  0
LINE
  5
307
330
A
100
AcDbEntity
  8
TOP
  6
CONTINUOUS
 62
     3
100
AcDbLine
 10
3.769001007080078
 20
5.629237174987792
 30
0.0
 11
3.769001007080078
 21
5.631533622741699
 31
0.0
  0
LINE
  5
308
330
A
100
AcDbEntity
  8
TOP
  6
CONTINUOUS
 62
     3
100
AcDbLine
 10
3.287309646606445
 20
6.462143898010253
 30
0.0
 11
3.306964397430419
 21
6.462143898010253
 31
0.0
  0
LINE
  5
309
330
A
100
AcDbEntity
  8
TOP
  6
CONTINUOUS
 62
     3
100
AcDbLine
 10
3.585889816284179
 20
3.764710903167724
 30
0.0
 11
3.60388970375061
 21
3.764710903167724
 31
0.0
  0
LINE
  5
30A
330
A
100
AcDbEntity
  8
TOP
  6
CONTINUOUS
 62
     3
100
AcDbLine
 10
3.385889768600463
 20
3.762860059738159
 30
0.0
 11
3.403889656066894
 21
3.762860059738159
 31
0.0
  0
LINE
  5
30B
330
A
100
AcDbEntity
  8
TOP
  6
CONTINUOUS
 62
     3
100
AcDbLine
 10
3.724060297012329
 20
3.80170726776123
 30
0.0
 11
3.717113733291625
 21
3.801461696624755
 31
0.0
  0
LINE
  5
30C
330
A
100
AcDbEntity
  8
TOP
  6
CONTINUOUS
 62
     3
100
AcDbLine
 10
3.184991359710693
 20
5.904476165771484
 30
0.0
 11
3.194543123245239
 21
5.904476165771484
 31
0.0
  0
LINE
  5
30D
330
A
100
AcDbEntity
  8
TOP
  6
CONTINUOUS
 62
     3
100
AcDbLine
 10
3.729389667510986
 20
3.942677021026611
 30
0.0
 11
3.618889808654785
 21
3.942677021026611
 31
0.0
  0
LINE
  5
30E
330
A
100
AcDbEntity
  8
TOP
  6
CONTINUOUS
 62
     3
100
AcDbLine
 10
6.182774543762207
 20
3.811157941818237
 30
0.0
 11
6.167885303497314
 21
3.811157941818237
 31
0.0
  0
LINE
  5
30F
330
A
100
AcDbEntity
  8
TOP
  6
CONTINUOUS
 62
     3
100
AcDbLine
 10
6.195733070373535
 20
3.673676967620849
 30
0.0
 11
6.184499263763427
 21
3.673676967620849
 31
0.0
  0
LINE
  5
310
330
A
100
AcDbEntity
  8
TOP
  6
CONTINUOUS
 62
     3
100
AcDbLine
 10
6.219397544860839
 20
3.573676824569702
 30
0.0
 11
6.219397544860839
 21
3.438050031661987
 31
0.0
  0
LINE
  5
311
330
A
100
AcDbEntity
  8
TOP
  6
CONTINUOUS
 62
     3
100
AcDbLine
 10
6.219397544860839
 20
3.533320188522338
 30
0.0
 11
6.219397544860839
 21
3.550820589065551
 31
0.0
  0
LINE
  5
312
330
A
100
AcDbEntity
  8
TOP
  6
CONTINUOUS
 62
     3
100
AcDbLine
 10
3.368606090545654
 20
3.944960594177246
 30
0.0
 11
3.36210298538208
 21
3.95146369934082
 31
0.0
  0
LINE
  5
313
330
A
100
AcDbEntity
  8
TOP
  6
CONTINUOUS
 62
     3
100
AcDbLine
 10
3.182579517364501
 20
6.338243961334228
 30
0.0
 11
3.191187620162963
 21
6.340431213378906
 31
0.0
  0
LINE
  5
314
330
A
100
AcDbEntity
  8
TOP
  6
CONTINUOUS
 62
     3
100
AcDbLine
 10
3.794867277145385
 20
5.188143730163574
 30
0.0
 11
3.802390575408935
 21
5.619143962860107
 31
0.0
  0
LINE
  5
315
330
A
100
AcDbEntity
  8
TOP
  6
CONTINUOUS
 62
     3
100
AcDbLine
 10
3.771478652954101
 20
5.629727840423583
 30
0.0
 11
3.773689031600952
 21
5.629246234893798
 31
0.0
  0
LINE
  5
316
330
A
100
AcDbEntity
  8
TOP
  6
CONTINUOUS
 62
     3
100
AcDbLine
 10
3.655626773834228
 20
6.462143898010253
 30
0.0
 11
3.635472297668457
 21
6.462143898010253
 31
0.0
  0
LINE
  5
317
330
A
100
AcDbEntity
  8
TOP
  6
CONTINUOUS
 62
     3
100
AcDbLine
 10
3.545889854431152
 20
3.763894796371459
 30
0.0
 11
3.545889854431152
 21
3.762860059738159
 31
0.0
  0
LINE
  5
318
330
A
100
AcDbEntity
  8
TOP
  6
CONTINUOUS
 62
     3
100
AcDbLine
 10
3.625889778137207
 20
3.771223306655883
 30
0.0
 11
3.625889778137207
 21
3.764710903167724
 31
0.0
  0
LINE
  5
319
330
A
100
AcDbEntity
  8
TOP
  6
CONTINUOUS
 62
     3
100
AcDbLine
 10
6.219397544860839
 20
3.455677032470703
 30
0.0
 11
6.219397544860839
 21
3.465782165527343
 31
0.0
  0
LINE
  5
31A
330
A
100
AcDbEntity
  8
TOP
  6
CONTINUOUS
 62
     3
100
AcDbLine
 10
3.256939888000488
 20
4.123901844024658
 30
0.0
 11
3.732839584350585
 21
4.123901844024658
 31
0.0
  0
LINE
  5
31B
330
A
100
AcDbEntity
  8
TOP
  6
CONTINUOUS
 62
     3
100
AcDbLine
 10
3.604889869689941
 20
3.528049945831298
 30
0.0
 11
3.604889869689941
 21
3.493050098419189
 31
0.0
  0
LINE
  5
31C
330
A
100
AcDbEntity
  8
TOP
  6
CONTINUOUS
 62
     3
100
AcDbLine
 10
6.196692943572998
 20
3.618676900863647
 30
0.0
 11
6.185459613800048
 21
3.618676900863647
 31
0.0
  0
LINE
  5
31D
330
A
100
AcDbEntity
  8
TOP
  6
CONTINUOUS
 62
     3
100
AcDbLine
 10
6.219397544860839
 20
3.456449508666992
 30
0.0
 11
6.219397544860839
 21
3.461715936660766
 31
0.0
  0
LINE
  5
31E
330
A
100
AcDbEntity
  8
TOP
  6
CONTINUOUS
 62
     3
100
AcDbLine
 10
3.446889638900756
 20
3.781023263931274
 30
0.0
 11
3.446889638900756
 21
3.704823017120361
 31
0.0
  0
LINE
  5
31F
330
A
100
AcDbEntity
  8
TOP
  6
CONTINUOUS
 62
     3
100
AcDbLine
 10
3.399889707565307
 20
4.083499908447265
 30
0.0
 11
3.410870552062988
 21
4.080557823181152
 31
0.0
  0
LINE
  5
320
330
A
100
AcDbEntity
  8
TOP
  6
CONTINUOUS
 62
     3
100
AcDbLine
 10
3.606889724731445
 20
3.704823017120361
 30
0.0
 11
3.622889757156372
 21
3.704823017120361
 31
0.0
  0
LINE
  5
321
330
A
100
AcDbEntity
  8
TOP
  6
CONTINUOUS
 62
     3
100
AcDbLine
 10
3.197369337081909
 20
5.629237174987792
 30
0.0
 11
3.190873861312866
 21
5.629237174987792
 31
0.0
  0
LINE
  5
322
330
A
100
AcDbEntity
  8
TOP
  6
CONTINUOUS
 62
     3
100
AcDbLine
 10
3.732796192169189
 20
5.629237174987792
 30
0.0
 11
3.769001007080078
 21
5.629237174987792
 31
0.0
  0
LINE
  5
323
330
A
100
AcDbEntity
  8
TOP
  6
CONTINUOUS
 62
     3
100
AcDbLine
 10
3.278498172760009
 20
6.462143898010253
 30
0.0
 11
3.283607244491577
 21
6.462143898010253
 31
0.0
  0
LINE
  5
324
330
A
100
AcDbEntity
  8
TOP
  6
CONTINUOUS
 62
     3
100
AcDbLine
 10
3.342389822006225
 20
3.698966026306152
 30
0.0
 11
3.344511032104492
 21
3.698090553283691
 31
0.0
  0
LINE
  5
325
330
A
100
AcDbEntity
  8
TOP
  6
CONTINUOUS
 62
     3
100
AcDbLine
 10
3.342388868331909
 20
3.707776308059692
 30
0.0
 11
3.345888614654541
 21
3.707776308059692
 31
0.0
  0
LINE
  5
326
330
A
100
AcDbEntity
  8
TOP
  6
CONTINUOUS
 62
     3
100
AcDbLine
 10
3.729389667510986
 20
3.808023452758789
 30
0.0
 11
3.727107763290405
 21
3.802305936813354
 31
0.0
  0
LINE
  5
327
330
A
100
AcDbEntity
  8
TOP
  6
CONTINUOUS
 62
     3
100
AcDbLine
 10
3.406102895736694
 20
4.017463684082031
 30
0.0
 11
3.412606239318847
 21
4.010960578918457
 31
0.0
  0
LINE
  5
328
330
A
100
AcDbEntity
  8
TOP
  6
CONTINUOUS
 62
     3
100
AcDbLine
 10
3.79018497467041
 20
6.421606540679931
 30
0.0
 11
3.792367696762084
 21
6.410631656646728
 31
0.0
  0
LINE
  5
329
330
A
100
AcDbEntity
  8
TOP
  6
CONTINUOUS
 62
     3
100
AcDbLine
 10
3.618889808654785
 20
3.966530084609985
 30
0.0
 11
3.370889663696289
 21
3.966530084609985
 31
0.0
  0
LINE
  5
32A
330
A
100
AcDbEntity
  8
TOP
  6
CONTINUOUS
 62
     3
100
AcDbLine
 10
6.167885303497314
 20
3.835986852645874
 30
0.0
 11
5.729744434356689
 21
3.843634605407714
 31
0.0
  0
LINE
  5
32B
330
A
100
AcDbEntity
  8
TOP
  6
CONTINUOUS
 62
     3
100
AcDbLine
 10
6.16929006576538
 20
3.573676824569702
 30
0.0
 11
6.170075893402099
 21
3.618676900863647
 31
0.0
  0
LINE
  5
32C
330
A
100
AcDbEntity
  8
TOP
  6
CONTINUOUS
 62
     3
100
AcDbLine
 10
6.178130149841308
 20
3.573676824569702
 30
0.0
 11
6.198819160461425
 21
3.573676824569702
 31
0.0
  0
LINE
  5
32D
330
A
100
AcDbEntity
  8
TOP
  6
CONTINUOUS
 62
     3
100
AcDbLine
 10
3.370889663696289
 20
3.902676820755004
 30
0.0
 11
3.370889663696289
 21
3.942677021026611
 31
0.0
  0
LINE
  5
32E
330
A
100
AcDbEntity
  8
TOP
  6
CONTINUOUS
 62
     3
100
AcDbLine
 10
6.10648775100708
 20
3.673676967620849
 30
0.0
 11
6.142536163330078
 21
3.673676967620849
 31
0.0
  0
LINE
  5
32F
330
A
100
AcDbEntity
  8
TOP
  6
CONTINUOUS
 62
     3
100
AcDbLine
 10
3.445214986801147
 20
3.80418848991394
 30
0.0
 11
3.445214986801147
 21
3.806816101074218
 31
0.0
  0
LINE
  5
330
330
A
100
AcDbEntity
  8
TOP
  6
CONTINUOUS
 62
     3
100
AcDbLine
 10
3.221447944641113
 20
5.66211986541748
 30
0.0
 11
3.220993041992187
 21
5.636066913604736
 31
0.0
  0
LINE
  5
331
330
A
100
AcDbEntity
  8
TOP
  6
CONTINUOUS
 62
     3
100
AcDbLine
 10
3.182579517364501
 20
6.396494388580322
 30
0.0
 11
3.195595026016235
 21
6.396494388580322
 31
0.0
  0
LINE
  5
332
330
A
100
AcDbEntity
  8
TOP
  6
CONTINUOUS
 62
     3
100
AcDbLine
 10
3.732753753662109
 20
4.062191486358642
 30
0.0
 11
3.734464406967163
 21
4.063901901245117
 31
0.0
  0
LINE
  5
333
330
A
100
AcDbEntity
  8
TOP
  6
CONTINUOUS
 62
     3
100
AcDbLine
 10
3.256939888000488
 20
5.095056533813476
 30
0.0
 11
3.732839584350585
 21
5.095056533813476
 31
0.0
  0
LINE
  5
334
330
A
100
AcDbEntity
  8
TOP
  6
CONTINUOUS
 62
     3
100
AcDbLine
 10
3.545889854431152
 20
3.771223306655883
 30
0.0
 11
3.563889741897583
 21
3.771223306655883
 31
0.0
  0
LINE
  5
335
330
A
100
AcDbEntity
  8
TOP
  6
CONTINUOUS
 62
     3
100
AcDbLine
 10
3.733889818191528
 20
6.462143898010253
 30
0.0
 11
3.721889734268188
 21
6.462143898010253
 31
0.0
  0
LINE
  5
336
330
A
100
AcDbEntity
  8
TOP
  6
CONTINUOUS
 62
     3
100
AcDbLine
 10
3.644389867782592
 20
3.689614057540893
 30
0.0
 11
3.644389867782592
 21
3.6939537525177
 31
0.0
  0
LINE
  5
337
330
A
100
AcDbEntity
  8
TOP
  6
CONTINUOUS
 62
     3
100
AcDbLine
 10
3.618889808654785
 20
3.942677021026611
 30
0.0
 11
3.618889808654785
 21
4.008677005767822
 31
0.0
  0
LINE
  5
338
330
A
100
AcDbEntity
  8
TOP
  6
CONTINUOUS
 62
     3
100
AcDbLine
 10
3.625889778137207
 20
3.771223306655883
 30
0.0
 11
3.643889665603637
 21
3.771223306655883
 31
0.0
  0
LINE
  5
339
330
A
100
AcDbEntity
  8
TOP
  6
CONTINUOUS
 62
     3
100
AcDbLine
 10
6.219397544860839
 20
3.536216259002685
 30
0.0
 11
6.219397544860839
 21
3.521051883697509
 31
0.0
  0
LINE
  5
33A
330
A
100
AcDbEntity
  8
TOP
  6
CONTINUOUS
 62
     3
100
AcDbLine
 10
3.807389736175537
 20
4.128050804138183
 30
0.0
 11
3.799866676330566
 21
4.120527744293212
 31
0.0
  0
LINE
  5
33B
330
A
100
AcDbEntity
  8
TOP
  6
CONTINUOUS
 62
     3
100
AcDbLine
 10
3.4438898563385
 20
3.681512594223022
 30
0.0
 11
3.4438898563385
 21
3.762860059738159
 31
0.0
  0
LINE
  5
33C
330
A
100
AcDbEntity
  8
TOP
  6
CONTINUOUS
 62
     3
100
AcDbLine
 10
3.545889854431152
 20
3.764710903167724
 30
0.0
 11
3.563889741897583
 21
3.764710903167724
 31
0.0
  0
LINE
  5
33D
330
A
100
AcDbEntity
  8
TOP
  6
CONTINUOUS
 62
     3
100
AcDbLine
 10
3.406889677047729
 20
3.704823017120361
 30
0.0
 11
3.422889709472656
 21
3.704823017120361
 31
0.0
  0
LINE
  5
33E
330
A
100
AcDbEntity
  8
TOP
  6
CONTINUOUS
 62
     3
100
AcDbLine
 10
3.647390365600585
 20
3.707814455032348
 30
0.0
 11
3.643891096115112
 21
3.707814455032348
 31
0.0
  0
LINE
  5
33F
330
A
100
AcDbEntity
  8
TOP
  6
CONTINUOUS
 62
     3
100
AcDbLine
 10
3.574889659881591
 20
4.008677005767822
 30
0.0
 11
3.574889659881591
 21
4.076538562774658
 31
0.0
  0
LINE
  5
340
330
A
100
AcDbEntity
  8
TOP
  6
CONTINUOUS
 62
     3
100
AcDbLine
 10
3.711447954177856
 20
5.66211986541748
 30
0.0
 11
3.71099305152893
 21
5.636066913604736
 31
0.0
  0
LINE
  5
341
330
A
100
AcDbEntity
  8
TOP
  6
CONTINUOUS
 62
     3
100
AcDbLine
 10
3.2583429813385
 20
5.619143962860107
 30
0.0
 11
3.257153987884521
 21
5.619537353515625
 31
0.0
  0
LINE
  5
342
330
A
100
AcDbEntity
  8
TOP
  6
CONTINUOUS
 62
     3
100
AcDbLine
 10
3.225888967514038
 20
6.430544376373291
 30
0.0
 11
3.220870494842529
 21
5.855490684509277
 31
0.0
  0
LINE
  5
343
330
A
100
AcDbEntity
  8
TOP
  6
CONTINUOUS
 62
     3
100
AcDbLine
 10
3.628746032714843
 20
6.462143898010253
 30
0.0
 11
3.617052555084228
 21
6.462143898010253
 31
0.0
  0
LINE
  5
344
330
A
100
AcDbEntity
  8
TOP
  6
CONTINUOUS
 62
     3
100
AcDbLine
 10
3.367268323898315
 20
3.689799070358276
 30
0.0
 11
3.366389751434326
 21
3.689614057540893
 31
0.0
  0
LINE
  5
345
330
A
100
AcDbEntity
  8
TOP
  6
CONTINUOUS
 62
     3
100
AcDbLine
 10
3.545889854431152
 20
3.681512594223022
 30
0.0
 11
3.563889741897583
 21
3.681512594223022
 31
0.0
  0
LINE
  5
346
330
A
100
AcDbEntity
  8
TOP
  6
CONTINUOUS
 62
     3
100
AcDbLine
 10
3.403889656066894
 20
3.771223306655883
 30
0.0
 11
3.403889656066894
 21
3.771703481674194
 31
0.0
  0
LINE
  5
347
330
A
100
AcDbEntity
  8
TOP
  6
CONTINUOUS
 62
     3
100
AcDbLine
 10
3.203953981399536
 20
6.431018352508544
 30
0.0
 11
3.213034391403198
 21
6.437557220458984
 31
0.0
  0
LINE
  5
348
330
A
100
AcDbEntity
  8
TOP
  6
CONTINUOUS
 62
     3
100
AcDbLine
 10
3.729389667510986
 20
3.860635042190551
 30
0.0
 11
3.657929182052612
 21
3.860635042190551
 31
0.0
  0
LINE
  5
349
330
A
100
AcDbEntity
  8
TOP
  6
CONTINUOUS
 62
     3
100
AcDbLine
 10
6.132471561431884
 20
3.688676834106445
 30
0.0
 11
6.136490821838378
 21
3.70367693901062
 31
0.0
  0
LINE
  5
34A
330
A
100
AcDbEntity
  8
TOP
  6
CONTINUOUS
 62
     3
100
AcDbLine
 10
5.386490821838378
 20
3.618676900863647
 30
0.0
 11
5.550991058349609
 21
3.618676900863647
 31
0.0
  0
LINE
  5
34B
330
A
100
AcDbEntity
  8
TOP
  6
CONTINUOUS
 62
     3
100
AcDbLine
 10
4.847397327423095
 20
4.062191486358642
 30
0.0
 11
4.852310180664062
 21
4.062277317047119
 31
0.0
  0
LINE
  5
34C
330
A
100
AcDbEntity
  8
TOP
  6
CONTINUOUS
 62
     3
100
AcDbLine
 10
6.19481086730957
 20
3.86259388923645
 30
0.0
 11
6.18827199935913
 21
3.856090545654296
 31
0.0
  0
LINE
  5
34D
330
A
100
AcDbEntity
  8
TOP
  6
CONTINUOUS
 62
     3
100
AcDbLine
 10
3.767212390899658
 20
5.855490684509277
 30
0.0
 11
3.220873832702636
 21
5.855490684509277
 31
0.0
  0
LINE
  5
34E
330
A
100
AcDbEntity
  8
TOP
  6
CONTINUOUS
 62
     3
100
AcDbLine
 10
3.759467840194702
 20
6.443546772003173
 30
0.0
 11
3.774049043655395
 21
6.439903736114501
 31
0.0
  0
LINE
  5
34F
330
A
100
AcDbEntity
  8
TOP
  6
CONTINUOUS
 62
     3
100
AcDbLine
 10
3.799866676330566
 20
5.188143730163574
 30
0.0
 11
3.798241853713989
 21
5.095056533813476
 31
0.0
  0
LINE
  5
350
330
A
100
AcDbEntity
  8
TOP
  6
CONTINUOUS
 62
     3
100
AcDbLine
 10
3.717889785766601
 20
6.462143898010253
 30
0.0
 11
3.721889734268188
 21
6.462143898010253
 31
0.0
  0
LINE
  5
351
330
A
100
AcDbEntity
  8
TOP
  6
CONTINUOUS
 62
     3
100
AcDbLine
 10
3.563889741897583
 20
3.678816556930541
 30
0.0
 11
3.563889741897583
 21
3.67367672920227
 31
0.0
  0
LINE
  5
352
330
A
100
AcDbEntity
  8
TOP
  6
CONTINUOUS
 62
     3
100
AcDbLine
 10
3.31188416481018
 20
3.806756734848022
 30
0.0
 11
3.316455125808715
 21
3.807655096054077
 31
0.0
  0
LINE
  5
354
330
A
100
AcDbEntity
  8
TOP
  6
CONTINUOUS
 62
     3
100
AcDbLine
 10
3.802390575408935
 20
4.133049964904785
 30
0.0
 11
3.807389736175537
 21
4.128050804138183
 31
0.0
  0
LINE
  5
355
330
A
100
AcDbEntity
  8
TOP
  6
CONTINUOUS
 62
     3
100
AcDbLine
 10
3.799866676330566
 20
4.063901901245117
 30
0.0
 11
3.798241853713989
 21
4.062277317047119
 31
0.0
  0
LINE
  5
356
330
A
100
AcDbEntity
  8
TOP
  6
CONTINUOUS
 62
     3
100
AcDbLine
 10
3.4438898563385
 20
3.763894796371459
 30
0.0
 11
3.4438898563385
 21
3.762860059738159
 31
0.0
  0
LINE
  5
357
330
A
100
AcDbEntity
  8
TOP
  6
CONTINUOUS
 62
     3
100
AcDbLine
 10
6.153748035430908
 20
3.618676900863647
 30
0.0
 11
6.170075893402099
 21
3.618676900863647
 31
0.0
  0
LINE
  5
358
330
A
100
AcDbEntity
  8
TOP
  6
CONTINUOUS
 62
     3
100
AcDbLine
 10
6.219397544860839
 20
3.543272972106933
 30
0.0
 11
6.219397544860839
 21
3.526604652404785
 31
0.0
  0
LINE
  5
359
330
A
100
AcDbEntity
  8
TOP
  6
CONTINUOUS
 62
     3
100
AcDbLine
 10
3.34538984298706
 20
3.6939537525177
 30
0.0
 11
3.34538984298706
 21
3.689614057540893
 31
0.0
  0
LINE
  5
35A
330
A
100
AcDbEntity
  8
TOP
  6
CONTINUOUS
 62
     3
100
AcDbLine
 10
3.604889869689941
 20
4.038676738739013
 30
0.0
 11
3.593409299850463
 21
4.027196407318115
 31
0.0
  0
LINE
  5
35B
330
A
100
AcDbEntity
  8
TOP
  6
CONTINUOUS
 62
     3
100
AcDbLine
 10
3.230389833450317
 20
5.080143928527832
 30
0.0
 11
3.230389833450317
 21
5.090143680572509
 31
0.0
  0
LINE
  5
35C
330
A
100
AcDbEntity
  8
TOP
  6
CONTINUOUS
 62
     3
100
AcDbLine
 10
3.191301345825195
 20
5.904476165771484
 30
0.0
 11
3.195718526840209
 21
6.410631656646728
 31
0.0
  0
LINE
  5
35D
330
A
100
AcDbEntity
  8
TOP
  6
CONTINUOUS
 62
     3
100
AcDbLine
 10
3.687532901763916
 20
6.462143898010253
 30
0.0
 11
3.666889667510986
 21
6.462143898010253
 31
0.0
  0
LINE
  5
35E
330
A
100
AcDbEntity
  8
TOP
  6
CONTINUOUS
 62
     3
100
AcDbLine
 10
3.369389772415161
 20
3.698966026306152
 30
0.0
 11
3.367268323898315
 21
3.698090553283691
 31
0.0
  0
LINE
  5
35F
330
A
100
AcDbEntity
  8
TOP
  6
CONTINUOUS
 62
     3
100
AcDbLine
 10
3.585889816284179
 20
3.771703481674194
 30
0.0
 11
3.585889816284179
 21
3.77231216430664
 31
0.0
  0
LINE
  5
360
330
A
100
AcDbEntity
  8
TOP
  6
CONTINUOUS
 62
     3
100
AcDbLine
 10
3.385889768600463
 20
3.77231216430664
 30
0.0
 11
3.403889656066894
 21
3.77231216430664
 31
0.0
  0
LINE
  5
361
330
A
100
AcDbEntity
  8
TOP
  6
CONTINUOUS
 62
     3
100
AcDbLine
 10
6.19762372970581
 20
3.855640888214111
 30
0.0
 11
6.19762372970581
 21
3.811157941818237
 31
0.0
  0
LINE
  5
362
330
A
100
AcDbEntity
  8
TOP
  6
CONTINUOUS
 62
     3
100
AcDbLine
 10
6.149810791015625
 20
3.663676977157592
 30
0.0
 11
6.151998043060302
 21
3.638676881790161
 31
0.0
  0
LINE
  5
363
330
A
100
AcDbEntity
  8
TOP
  6
CONTINUOUS
 62
     3
100
AcDbLine
 10
4.94539737701416
 20
4.125526905059814
 30
0.0
 11
5.376397132873535
 21
4.133049964904785
 31
0.0
  0
LINE
  5
364
330
A
100
AcDbEntity
  8
TOP
  6
CONTINUOUS
 62
     3
100
AcDbLine
 10
3.585889816284179
 20
3.678816556930541
 30
0.0
 11
3.60388970375061
 21
3.678816556930541
 31
0.0
  0
LINE
  5
365
330
A
100
AcDbEntity
  8
TOP
  6
CONTINUOUS
 62
     3
100
AcDbLine
 10
3.182389736175537
 20
4.128050804138183
 30
0.0
 11
3.182389736175537
 21
3.573676824569702
 31
0.0
  0
LINE
  5
366
330
A
100
AcDbEntity
  8
TOP
  6
CONTINUOUS
 62
     3
100
AcDbLine
 10
3.682719230651855
 20
3.80170726776123
 30
0.0
 11
3.679671764373779
 21
3.802305936813354
 31
0.0
  0
LINE
  5
367
330
A
100
AcDbEntity
  8
TOP
  6
CONTINUOUS
 62
     3
100
AcDbLine
 10
3.766638278961181
 20
5.66211986541748
 30
0.0
 11
3.767093181610107
 21
5.636066913604736
 31
0.0
  0
LINE
  5
368
330
A
100
AcDbEntity
  8
TOP
  6
CONTINUOUS
 62
     3
100
AcDbLine
 10
3.758516073226928
 20
6.44258689880371
 30
0.0
 11
3.759467840194702
 21
6.443546772003173
 31
0.0
  0
LINE
  5
369
330
A
100
AcDbEntity
  8
TOP
  6
CONTINUOUS
 62
     3
100
AcDbLine
 10
3.182389736175537
 20
5.619143962860107
 30
0.0
 11
3.187388896942138
 21
5.619143962860107
 31
0.0
  0
LINE
  5
36A
330
A
100
AcDbEntity
  8
TOP
  6
CONTINUOUS
 62
     3
100
AcDbLine
 10
3.468652486801147
 20
6.267909049987792
 30
0.0
 11
3.445214986801147
 21
6.279571056365966
 31
0.0
  0
LINE
  5
36B
330
A
100
AcDbEntity
  8
TOP
  6
CONTINUOUS
 62
     3
100
AcDbLine
 10
3.342389822006225
 20
3.689875602722167
 30
0.0
 11
3.342389822006225
 21
3.696075201034545
 31
0.0
  0
LINE
  5
36C
330
A
100
AcDbEntity
  8
TOP
  6
CONTINUOUS
 62
     3
100
AcDbLine
 10
3.307060480117797
 20
3.80170726776123
 30
0.0
 11
3.300113916397094
 21
3.801461696624755
 31
0.0
  0
LINE
  5
36D
330
A
100
AcDbEntity
  8
TOP
  6
CONTINUOUS
 62
     3
100
AcDbLine
 10
3.64443016052246
 20
3.707815647125244
 30
0.0
 11
3.643889665603637
 21
3.720582962036132
 31
0.0
  0
LINE
  5
36E
330
A
100
AcDbEntity
  8
TOP
  6
CONTINUOUS
 62
     3
100
AcDbLine
 10
3.465889692306518
 20
3.771223306655883
 30
0.0
 11
3.465889692306518
 21
3.771703481674194
 31
0.0
  0
LINE
  5
36F
330
A
100
AcDbEntity
  8
TOP
  6
CONTINUOUS
 62
     3
100
AcDbLine
 10
5.386490821838378
 20
3.845676898956298
 30
0.0
 11
5.386490821838378
 21
3.864319324493408
 31
0.0
  0
LINE
  5
370
330
A
100
AcDbEntity
  8
TOP
  6
CONTINUOUS
 62
     3
100
AcDbLine
 10
3.425889730453491
 20
3.763894796371459
 30
0.0
 11
3.425889730453491
 21
3.762860059738159
 31
0.0
  0
LINE
  5
371
330
A
100
AcDbEntity
  8
TOP
  6
CONTINUOUS
 62
     3
100
AcDbLine
 10
5.729744434356689
 20
3.673676967620849
 30
0.0
 11
5.729744434356689
 21
3.618676900863647
 31
0.0
  0
LINE
  5
372
330
A
100
AcDbEntity
  8
TOP
  6
CONTINUOUS
 62
     3
100
AcDbLine
 10
3.32687497138977
 20
3.704823017120361
 30
0.0
 11
3.342389822006225
 21
3.704823017120361
 31
0.0
  0
LINE
  5
373
330
A
100
AcDbEntity
  8
TOP
  6
CONTINUOUS
 62
     3
100
AcDbLine
 10
6.219397544860839
 20
3.551637887954711
 30
0.0
 11
6.219397544860839
 21
3.556904315948486
 31
0.0
  0
LINE
  5
374
330
A
100
AcDbEntity
  8
TOP
  6
CONTINUOUS
 62
     3
100
AcDbLine
 10
3.545889854431152
 20
3.77231216430664
 30
0.0
 11
3.563889741897583
 21
3.77231216430664
 31
0.0
  0
LINE
  5
375
330
A
100
AcDbEntity
  8
TOP
  6
CONTINUOUS
 62
     3
100
AcDbLine
 10
3.185275793075561
 20
5.784488677978515
 30
0.0
 11
3.182389736175537
 21
5.619143962860107
 31
0.0
  0
LINE
  5
376
330
A
100
AcDbEntity
  8
TOP
  6
CONTINUOUS
 62
     3
100
AcDbLine
 10
3.193323612213134
 20
5.784476280212402
 30
0.0
 11
3.193323612213134
 21
5.855523109436035
 31
0.0
  0
LINE
  5
377
330
A
100
AcDbEntity
  8
TOP
  6
CONTINUOUS
 62
     3
100
AcDbLine
 10
3.72083306312561
 20
6.462143898010253
 30
0.0
 11
3.716726779937744
 21
6.462143898010253
 31
0.0
  0
LINE
  5
378
330
A
100
AcDbEntity
  8
TOP
  6
CONTINUOUS
 62
     3
100
AcDbLine
 10
3.622511148452758
 20
3.689799070358276
 30
0.0
 11
3.623389720916748
 21
3.689614057540893
 31
0.0
  0
LINE
  5
379
330
A
100
AcDbEntity
  8
TOP
  6
CONTINUOUS
 62
     3
100
AcDbLine
 10
3.403890371322631
 20
3.689875602722167
 30
0.0
 11
3.425892114639282
 21
3.689875602722167
 31
0.0
  0
LINE
  5
37A
330
A
100
AcDbEntity
  8
TOP
  6
CONTINUOUS
 62
     3
100
AcDbLine
 10
3.215435981750488
 20
6.43855333328247
 30
0.0
 11
3.213034391403198
 21
6.437557220458984
 31
0.0
  0
LINE
  5
37B
330
A
100
AcDbEntity
  8
TOP
  6
CONTINUOUS
 62
     3
100
AcDbLine
 10
3.60388970375061
 20
3.681512594223022
 30
0.0
 11
3.60388970375061
 21
3.762860059738159
 31
0.0
  0
LINE
  5
37C
330
A
100
AcDbEntity
  8
TOP
  6
CONTINUOUS
 62
     3
100
AcDbLine
 10
3.799866676330566
 20
4.063901901245117
 30
0.0
 11
3.734464406967163
 21
4.063901901245117
 31
0.0
  0
LINE
  5
37D
330
A
100
AcDbEntity
  8
TOP
  6
CONTINUOUS
 62
     3
100
AcDbLine
 10
5.612804889678955
 20
3.871115207672119
 30
0.0
 11
5.612798690795898
 21
3.864417314529418
 31
0.0
  0
LINE
  5
37E
330
A
100
AcDbEntity
  8
TOP
  6
CONTINUOUS
 62
     3
100
AcDbLine
 10
5.376397132873535
 20
4.128050804138183
 30
0.0
 11
4.94539737701416
 21
4.120527744293212
 31
0.0
  0
LINE
  5
37F
330
A
100
AcDbEntity
  8
TOP
  6
CONTINUOUS
 62
     3
100
AcDbLine
 10
3.807389736175537
 20
5.855490684509277
 30
0.0
 11
3.807389736175537
 21
5.972490787506103
 31
0.0
  0
LINE
  5
380
330
A
100
AcDbEntity
  8
TOP
  6
CONTINUOUS
 62
     3
100
AcDbLine
 10
3.345889806747436
 20
3.681512594223022
 30
0.0
 11
3.345889806747436
 21
3.680266141891479
 31
0.0
  0
LINE
  5
381
330
A
100
AcDbEntity
  8
TOP
  6
CONTINUOUS
 62
     3
100
AcDbLine
 10
3.2763352394104
 20
3.711384534835815
 30
0.0
 11
3.276638031005859
 21
3.711081743240356
 31
0.0
  0
LINE
  5
382
330
A
100
AcDbEntity
  8
TOP
  6
CONTINUOUS
 62
     3
100
AcDbLine
 10
3.260389804840087
 20
3.942677021026611
 30
0.0
 11
3.260389804840087
 21
3.673676967620849
 31
0.0
  0
LINE
  5
383
330
A
100
AcDbEntity
  8
TOP
  6
CONTINUOUS
 62
     3
100
AcDbLine
 10
3.523889780044555
 20
3.680266141891479
 30
0.0
 11
3.523889780044555
 21
3.678816556930541
 31
0.0
  0
LINE
  5
384
330
A
100
AcDbEntity
  8
TOP
  6
CONTINUOUS
 62
     3
100
AcDbLine
 10
3.505889654159545
 20
3.764710903167724
 30
0.0
 11
3.523889780044555
 21
3.764710903167724
 31
0.0
  0
LINE
  5
385
330
A
100
AcDbEntity
  8
TOP
  6
CONTINUOUS
 62
     3
100
AcDbLine
 10
3.36210298538208
 20
4.017463684082031
 30
0.0
 11
3.368606090545654
 21
4.010960578918457
 31
0.0
  0
LINE
  5
386
330
A
100
AcDbEntity
  8
TOP
  6
CONTINUOUS
 62
     3
100
AcDbLine
 10
3.735502481460571
 20
5.619139194488525
 30
0.0
 11
3.735678672790527
 21
5.629237174987792
 31
0.0
  0
LINE
  5
387
330
A
100
AcDbEntity
  8
TOP
  6
CONTINUOUS
 62
     3
100
AcDbLine
 10
3.688824892044067
 20
6.440500736236572
 30
0.0
 11
3.701814889907836
 21
6.440370082855224
 31
0.0
  0
LINE
  5
388
330
A
100
AcDbEntity
  8
TOP
  6
CONTINUOUS
 62
     3
100
AcDbLine
 10
3.342389345169067
 20
3.71133017539978
 30
0.0
 11
3.345489025115966
 21
3.711211204528808
 31
0.0
  0
LINE
  5
389
330
A
100
AcDbEntity
  8
TOP
  6
CONTINUOUS
 62
     3
100
AcDbLine
 10
3.563889741897583
 20
3.771223306655883
 30
0.0
 11
3.563889741897583
 21
3.764710903167724
 31
0.0
  0
LINE
  5
38A
330
A
100
AcDbEntity
  8
TOP
  6
CONTINUOUS
 62
     3
100
AcDbLine
 10
3.340889692306518
 20
4.038676738739013
 30
0.0
 11
3.384889841079711
 21
4.038676738739013
 31
0.0
  0
LINE
  5
38B
330
A
100
AcDbEntity
  8
TOP
  6
CONTINUOUS
 62
     3
100
AcDbLine
 10
3.300113916397094
 20
3.801461696624755
 30
0.0
 11
3.272665739059448
 21
3.801461696624755
 31
0.0
  0
LINE
  5
38C
330
A
100
AcDbEntity
  8
TOP
  6
CONTINUOUS
 62
     3
100
AcDbLine
 10
3.759389638900756
 20
3.643676996231079
 30
0.0
 11
3.230389833450317
 21
3.643676996231079
 31
0.0
  0
LINE
  5
38E
330
A
100
AcDbEntity
  8
TOP
  6
CONTINUOUS
 62
     3
100
AcDbLine
 10
3.689665794372558
 20
3.711384534835815
 30
0.0
 11
3.717113733291625
 21
3.711384534835815
 31
0.0
  0
LINE
  5
38F
330
A
100
AcDbEntity
  8
TOP
  6
CONTINUOUS
 62
     3
100
AcDbLine
 10
5.392154693603515
 20
3.875676870346069
 30
0.0
 11
5.612744331359863
 21
3.875676870346069
 31
0.0
  0
LINE
  5
390
330
A
100
AcDbEntity
  8
TOP
  6
CONTINUOUS
 62
     3
100
AcDbLine
 10
5.555802822113037
 20
3.673676967620849
 30
0.0
 11
5.550991058349609
 21
3.618676900863647
 31
0.0
  0
LINE
  5
391
330
A
100
AcDbEntity
  8
TOP
  6
CONTINUOUS
 62
     3
100
AcDbLine
 10
6.219397544860839
 20
3.504839181900024
 30
0.0
 11
6.219397544860839
 21
3.523940801620483
 31
0.0
  0
LINE
  5
392
330
A
100
AcDbEntity
  8
TOP
  6
CONTINUOUS
 62
     3
100
AcDbLine
 10
3.545889854431152
 20
3.771223306655883
 30
0.0
 11
3.545889854431152
 21
3.771703481674194
 31
0.0
  0
LINE
  5
393
330
A
100
AcDbEntity
  8
TOP
  6
CONTINUOUS
 62
     3
100
AcDbLine
 10
3.574889659881591
 20
4.063676834106445
 30
0.0
 11
3.414889812469482
 21
4.063676834106445
 31
0.0
  0
LINE
  5
394
330
A
100
AcDbEntity
  8
TOP
  6
CONTINUOUS
 62
     3
100
AcDbLine
 10
3.563889741897583
 20
3.77231216430664
 30
0.0
 11
3.563889741897583
 21
3.781023740768432
 31
0.0
  0
LINE
  5
395
330
A
100
AcDbEntity
  8
TOP
  6
CONTINUOUS
 62
     3
100
AcDbLine
 10
6.153748035430908
 20
3.618676900863647
 30
0.0
 11
6.093748092651367
 21
3.618676900863647
 31
0.0
  0
LINE
  5
396
330
A
100
AcDbEntity
  8
TOP
  6
CONTINUOUS
 62
     3
100
AcDbLine
 10
3.19543433189392
 20
5.855536937713623
 30
0.0
 11
3.202131032943725
 21
5.855552673339843
 31
0.0
  0
LINE
  5
397
330
A
100
AcDbEntity
  8
TOP
  6
CONTINUOUS
 62
     3
100
AcDbLine
 10
3.687532901763916
 20
6.462143898010253
 30
0.0
 11
3.705033540725708
 21
6.462143898010253
 31
0.0
  0
LINE
  5
398
330
A
100
AcDbEntity
  8
TOP
  6
CONTINUOUS
 62
     3
100
AcDbLine
 10
3.585889816284179
 20
3.763894796371459
 30
0.0
 11
3.585889816284179
 21
3.762860059738159
 31
0.0
  0
LINE
  5
399
330
A
100
AcDbEntity
  8
TOP
  6
CONTINUOUS
 62
     3
100
AcDbLine
 10
3.643889665603637
 20
3.678816556930541
 30
0.0
 11
3.643889665603637
 21
3.67367672920227
 31
0.0
  0
LINE
  5
39A
330
A
100
AcDbEntity
  8
TOP
  6
CONTINUOUS
 62
     3
100
AcDbLine
 10
3.762557029724121
 20
6.440369606018066
 30
0.0
 11
3.762368917465209
 21
6.440370082855224
 31
0.0
  0
LINE
  5
39B
330
A
100
AcDbEntity
  8
TOP
  6
CONTINUOUS
 62
     3
100
AcDbLine
 10
3.505889654159545
 20
3.680266141891479
 30
0.0
 11
3.505889654159545
 21
3.678816556930541
 31
0.0
  0
LINE
  5
39C
330
A
100
AcDbEntity
  8
TOP
  6
CONTINUOUS
 62
     3
100
AcDbLine
 10
5.612776756286621
 20
3.857550382614135
 30
0.0
 11
5.612740039825439
 21
3.857550382614135
 31
0.0
  0
LINE
  5
39D
330
A
100
AcDbEntity
  8
TOP
  6
CONTINUOUS
 62
     3
100
AcDbLine
 10
3.345889806747436
 20
3.764710903167724
 30
0.0
 11
3.345889806747436
 21
3.763894796371459
 31
0.0
  0
LINE
  5
39E
330
A
100
AcDbEntity
  8
TOP
  6
CONTINUOUS
 62
     3
100
AcDbLine
 10
4.94539737701416
 20
4.063901901245117
 30
0.0
 11
4.852310180664062
 21
4.062277317047119
 31
0.0
  0
LINE
  5
39F
330
A
100
AcDbEntity
  8
TOP
  6
CONTINUOUS
 62
     3
100
AcDbLine
 10
3.621173381805419
 20
4.010960578918457
 30
0.0
 11
3.618889808654785
 21
4.008677005767822
 31
0.0
  0
LINE
  5
3A0
330
A
100
AcDbEntity
  8
TOP
  6
CONTINUOUS
 62
     3
100
AcDbLine
 10
3.385889768600463
 20
3.763894796371459
 30
0.0
 11
3.385889768600463
 21
3.762860059738159
 31
0.0
  0
LINE
  5
3A1
330
A
100
AcDbEntity
  8
TOP
  6
CONTINUOUS
 62
     3
100
AcDbLine
 10
3.618889808654785
 20
3.902676820755004
 30
0.0
 11
3.618889808654785
 21
3.942677021026611
 31
0.0
  0
LINE
  5
3A2
330
A
100
AcDbEntity
  8
TOP
  6
CONTINUOUS
 62
     3
100
AcDbLine
 10
3.732625484466552
 20
5.619537353515625
 30
0.0
 11
3.732796192169189
 21
5.629237174987792
 31
0.0
  0
LINE
  5
3A3
330
A
100
AcDbEntity
  8
TOP
  6
CONTINUOUS
 62
     3
100
AcDbLine
 10
3.300954580307006
 20
6.440500736236572
 30
0.0
 11
3.287964582443237
 21
6.440370082855224
 31
0.0
  0
LINE
  5
3A4
330
A
100
AcDbEntity
  8
TOP
  6
CONTINUOUS
 62
     3
100
AcDbLine
 10
3.692379474639892
 20
6.462143898010253
 30
0.0
 11
3.68734073638916
 21
6.462143898010253
 31
0.0
  0
LINE
  5
3A5
330
A
100
AcDbEntity
  8
TOP
  6
CONTINUOUS
 62
     3
100
AcDbLine
 10
3.344295740127563
 20
3.713424444198608
 30
0.0
 11
3.344295024871826
 21
3.713424921035766
 31
0.0
  0
LINE
  5
3A6
330
A
100
AcDbEntity
  8
TOP
  6
CONTINUOUS
 62
     3
100
AcDbLine
 10
3.729346752166748
 20
3.698966026306152
 30
0.0
 11
3.729389667510986
 21
3.696080923080444
 31
0.0
  0
LINE
  5
3A7
330
A
100
AcDbEntity
  8
TOP
  6
CONTINUOUS
 62
     3
100
AcDbLine
 10
3.272665739059448
 20
3.801461696624755
 30
0.0
 11
3.265719175338745
 21
3.80170726776123
 31
0.0
  0
LINE
  5
3A9
330
A
100
AcDbEntity
  8
TOP
  6
CONTINUOUS
 62
     3
100
AcDbLine
 10
3.60388970375061
 20
3.771223306655883
 30
0.0
 11
3.60388970375061
 21
3.771703481674194
 31
0.0
  0
LINE
  5
3AA
330
A
100
AcDbEntity
  8
TOP
  6
CONTINUOUS
 62
     3
100
AcDbLine
 10
3.738176584243774
 20
3.95146369934082
 30
0.0
 11
3.7316734790802
 21
3.944960594177246
 31
0.0
  0
LINE
  5
3AB
330
A
100
AcDbEntity
  8
TOP
  6
CONTINUOUS
 62
     3
100
AcDbLine
 10
3.729389667510986
 20
3.704823017120361
 30
0.0
 11
3.727107763290405
 21
3.710540294647216
 31
0.0
  0
LINE
  5
3AC
330
A
100
AcDbEntity
  8
TOP
  6
CONTINUOUS
 62
     3
100
AcDbLine
 10
6.106491088867187
 20
3.673676967620849
 30
0.0
 11
5.729744434356689
 21
3.673676967620849
 31
0.0
  0
LINE
  5
3AD
330
A
100
AcDbEntity
  8
TOP
  6
CONTINUOUS
 62
     3
100
AcDbLine
 10
3.425889730453491
 20
3.771703481674194
 30
0.0
 11
3.425889730453491
 21
3.77231216430664
 31
0.0
  0
LINE
  5
3AE
330
A
100
AcDbEntity
  8
TOP
  6
CONTINUOUS
 62
     3
100
AcDbLine
 10
3.31188416481018
 20
3.706089496612548
 30
0.0
 11
3.310107707977294
 21
3.710540294647216
 31
0.0
  0
LINE
  5
3AF
330
A
100
AcDbEntity
  8
TOP
  6
CONTINUOUS
 62
     3
100
AcDbLine
 10
6.219397544860839
 20
3.474533319473266
 30
0.0
 11
6.219397544860839
 21
3.492033720016479
 31
0.0
  0
LINE
  5
3B0
330
A
100
AcDbEntity
  8
TOP
  6
CONTINUOUS
 62
     3
100
AcDbLine
 10
3.363889694213867
 20
3.681512594223022
 30
0.0
 11
3.363889694213867
 21
3.762860059738159
 31
0.0
  0
LINE
  5
3B1
330
A
100
AcDbEntity
  8
TOP
  6
CONTINUOUS
 62
     3
100
AcDbLine
 10
3.545889854431152
 20
3.764710903167724
 30
0.0
 11
3.545889854431152
 21
3.763894796371459
 31
0.0
  0
LINE
  5
3B2
330
A
100
AcDbEntity
  8
TOP
  6
CONTINUOUS
 62
     3
100
AcDbLine
 10
3.501447916030883
 20
5.66211986541748
 30
0.0
 11
3.500993251800537
 21
5.636066913604736
 31
0.0
  0
LINE
  5
3B3
330
A
100
AcDbEntity
  8
TOP
  6
CONTINUOUS
 62
     3
100
AcDbLine
 10
3.793821096420288
 20
6.396486759185791
 30
0.0
 11
3.793395519256591
 21
6.42087697982788
 31
0.0
  0
LINE
  5
3B4
330
A
100
AcDbEntity
  8
TOP
  6
CONTINUOUS
 62
     3
100
AcDbLine
 10
3.220795392990112
 20
5.634537696838378
 30
0.0
 11
3.220873832702636
 21
5.634901046752929
 31
0.0
  0
LINE
  5
3B5
330
A
100
AcDbEntity
  8
TOP
  6
CONTINUOUS
 62
     3
100
AcDbLine
 10
3.628746032714843
 20
6.462143898010253
 30
0.0
 11
3.646246433258056
 21
6.462143898010253
 31
0.0
  0
LINE
  5
3B6
330
A
100
AcDbEntity
  8
TOP
  6
CONTINUOUS
 62
     3
100
AcDbLine
 10
3.366389751434326
 20
3.695977449417114
 30
0.0
 11
3.366389751434326
 21
3.702656984329223
 31
0.0
  0
LINE
  5
3B7
330
A
100
AcDbEntity
  8
TOP
  6
CONTINUOUS
 62
     3
100
AcDbLine
 10
3.345889806747436
 20
3.681512594223022
 30
0.0
 11
3.363889694213867
 21
3.681512594223022
 31
0.0
  0
LINE
  5
3B8
330
A
100
AcDbEntity
  8
TOP
  6
CONTINUOUS
 62
     3
100
AcDbLine
 10
3.625889778137207
 20
3.680266141891479
 30
0.0
 11
3.625889778137207
 21
3.678816556930541
 31
0.0
  0
LINE
  5
3B9
330
A
100
AcDbEntity
  8
TOP
  6
CONTINUOUS
 62
     3
100
AcDbLine
 10
3.766439199447631
 20
6.432987689971923
 30
0.0
 11
3.775051832199096
 21
6.437557220458984
 31
0.0
  0
LINE
  5
3BA
330
A
100
AcDbEntity
  8
TOP
  6
CONTINUOUS
 62
     3
100
AcDbLine
 10
3.189912796020507
 20
4.063901901245117
 30
0.0
 11
3.255315065383911
 21
4.063901901245117
 31
0.0
  0
LINE
  5
3BB
330
A
100
AcDbEntity
  8
TOP
  6
CONTINUOUS
 62
     3
100
AcDbLine
 10
3.230389833450317
 20
3.643676996231079
 30
0.0
 11
3.230389833450317
 21
3.972676992416381
 31
0.0
  0
LINE
  5
3BC
330
A
100
AcDbEntity
  8
TOP
  6
CONTINUOUS
 62
     3
100
AcDbLine
 10
5.388176441192626
 20
3.875589132308959
 30
0.0
 11
5.386981010437011
 21
3.875371932983398
 31
0.0
  0
LINE
  5
3BD
330
A
100
AcDbEntity
  8
TOP
  6
CONTINUOUS
 62
     3
100
AcDbLine
 10
3.363889694213867
 20
3.771703481674194
 30
0.0
 11
3.363889694213867
 21
3.77231216430664
 31
0.0
  0
LINE
  5
3BE
330
A
100
AcDbEntity
  8
TOP
  6
CONTINUOUS
 62
     3
100
AcDbLine
 10
5.376397132873535
 20
3.413050174713134
 30
0.0
 11
6.178130149841308
 21
3.413050174713134
 31
0.0
  0
LINE
  5
3BF
330
A
100
AcDbEntity
  8
TOP
  6
CONTINUOUS
 62
     3
100
AcDbLine
 10
3.344511032104492
 20
3.689799070358276
 30
0.0
 11
3.34538984298706
 21
3.689614057540893
 31
0.0
  0
LINE
  5
3C0
330
A
100
AcDbEntity
  8
TOP
  6
CONTINUOUS
 62
     3
100
AcDbLine
 10
3.368606090545654
 20
4.010960578918457
 30
0.0
 11
3.370889663696289
 21
4.008677005767822
 31
0.0
  0
LINE
  5
3C1
330
A
100
AcDbEntity
  8
TOP
  6
CONTINUOUS
 62
     3
100
AcDbLine
 10
3.747909307479858
 20
3.655157327651977
 30
0.0
 11
3.759389638900756
 21
3.643676996231079
 31
0.0
  0
LINE
  5
3C2
330
A
100
AcDbEntity
  8
TOP
  6
CONTINUOUS
 62
     3
100
AcDbLine
 10
3.384889841079711
 20
4.038676738739013
 30
0.0
 11
3.39637017250061
 21
4.027196407318115
 31
0.0
  0
LINE
  5
3C3
330
A
100
AcDbEntity
  8
TOP
  6
CONTINUOUS
 62
     3
100
AcDbLine
 10
3.468652486801147
 20
3.799023866653442
 30
0.0
 11
3.519433736801147
 21
3.799023866653442
 31
0.0
  0
LINE
  5
3C4
330
A
100
AcDbEntity
  8
TOP
  6
CONTINUOUS
 62
     3
100
AcDbLine
 10
3.300954580307006
 20
6.440500736236572
 30
0.0
 11
3.300954580307006
 21
6.440369606018066
 31
0.0
  0
LINE
  5
3C5
330
A
100
AcDbEntity
  8
TOP
  6
CONTINUOUS
 62
     3
100
AcDbLine
 10
3.230311632156372
 20
6.443546772003173
 30
0.0
 11
3.231263399124145
 21
6.44258689880371
 31
0.0
  0
LINE
  5
3C6
330
A
100
AcDbEntity
  8
TOP
  6
CONTINUOUS
 62
     3
100
AcDbLine
 10
3.287309646606445
 20
6.462143898010253
 30
0.0
 11
3.271348237991333
 21
6.462143898010253
 31
0.0
  0
LINE
  5
3C7
330
A
100
AcDbEntity
  8
TOP
  6
CONTINUOUS
 62
     3
100
AcDbLine
 10
3.344195842742919
 20
3.77882957458496
 30
0.0
 11
3.344295740127563
 21
3.713424444198608
 31
0.0
  0
LINE
  5
3C8
330
A
100
AcDbEntity
  8
TOP
  6
CONTINUOUS
 62
     3
100
AcDbLine
 10
3.385889768600463
 20
3.681512594223022
 30
0.0
 11
3.385889768600463
 21
3.680266141891479
 31
0.0
  0
LINE
  5
3C9
330
A
100
AcDbEntity
  8
TOP
  6
CONTINUOUS
 62
     3
100
AcDbLine
 10
3.299108505249023
 20
3.506676912307739
 30
0.0
 11
3.278444528579711
 21
3.506676912307739
 31
0.0
  0
LINE
  5
3CA
330
A
100
AcDbEntity
  8
TOP
  6
CONTINUOUS
 62
     3
100
AcDbLine
 10
3.262671709060668
 20
3.710540294647216
 30
0.0
 11
3.262671709060668
 21
3.802305936813354
 31
0.0
  0
LINE
  5
3CB
330
A
100
AcDbEntity
  8
TOP
  6
CONTINUOUS
 62
     3
100
AcDbLine
 10
3.604889869689941
 20
3.528049945831298
 30
0.0
 11
3.604191541671752
 21
3.528049945831298
 31
0.0
  0
LINE
  5
3CC
330
A
100
AcDbEntity
  8
TOP
  6
CONTINUOUS
 62
     3
100
AcDbLine
 10
3.791543006896972
 20
5.971814632415771
 30
0.0
 11
3.791543006896972
 21
5.972490787506103
 31
0.0
  0
LINE
  5
3CD
330
A
100
AcDbEntity
  8
TOP
  6
CONTINUOUS
 62
     3
100
AcDbLine
 10
3.621173381805419
 20
3.944960594177246
 30
0.0
 11
3.618889808654785
 21
3.942677021026611
 31
0.0
  0
LINE
  5
3CE
330
A
100
AcDbEntity
  8
TOP
  6
CONTINUOUS
 62
     3
100
AcDbLine
 10
6.178860187530517
 20
3.846790313720703
 30
0.0
 11
6.167885303497314
 21
3.835986852645874
 31
0.0
  0
LINE
  5
3CF
330
A
100
AcDbEntity
  8
TOP
  6
CONTINUOUS
 62
     3
100
AcDbLine
 10
6.112535953521728
 20
3.673676967620849
 30
0.0
 11
6.112546920776367
 21
3.674296140670776
 31
0.0
  0
LINE
  5
3D0
330
A
100
AcDbEntity
  8
TOP
  6
CONTINUOUS
 62
     3
100
AcDbLine
 10
3.425889730453491
 20
3.771223306655883
 30
0.0
 11
3.4438898563385
 21
3.771223306655883
 31
0.0
  0
LINE
  5
3D1
330
A
100
AcDbEntity
  8
TOP
  6
CONTINUOUS
 62
     3
100
AcDbLine
 10
5.613529682159423
 20
3.573676824569702
 30
0.0
 11
5.72895860671997
 21
3.573676824569702
 31
0.0
  0
LINE
  5
3D2
330
A
100
AcDbEntity
  8
TOP
  6
CONTINUOUS
 62
     3
100
AcDbLine
 10
3.733889818191528
 20
3.455677032470703
 30
0.0
 11
3.733889818191528
 21
3.475677013397216
 31
0.0
  0
LINE
  5
3D3
330
A
100
AcDbEntity
  8
TOP
  6
CONTINUOUS
 62
     3
100
AcDbLine
 10
3.545889854431152
 20
3.681512594223022
 30
0.0
 11
3.545889854431152
 21
3.680266141891479
 31
0.0
  0
LINE
  5
3D4
330
A
100
AcDbEntity
  8
TOP
  6
CONTINUOUS
 62
     3
100
AcDbLine
 10
3.465889692306518
 20
3.771223306655883
 30
0.0
 11
3.465889692306518
 21
3.764710903167724
 31
0.0
  0
LINE
  5
3D5
330
A
100
AcDbEntity
  8
TOP
  6
CONTINUOUS
 62
     3
100
AcDbLine
 10
3.545889854431152
 20
3.771703481674194
 30
0.0
 11
3.545889854431152
 21
3.77231216430664
 31
0.0
  0
LINE
  5
3D6
330
A
100
AcDbEntity
  8
TOP
  6
CONTINUOUS
 62
     3
100
AcDbLine
 10
3.574889659881591
 20
4.076538562774658
 30
0.0
 11
3.578908920288085
 21
4.080557823181152
 31
0.0
  0
LINE
  5
3D7
330
A
100
AcDbEntity
  8
TOP
  6
CONTINUOUS
 62
     3
100
AcDbLine
 10
6.19762372970581
 20
3.800676822662353
 30
0.0
 11
6.199840545654296
 21
3.673676967620849
 31
0.0
  0
LINE
  5
3D8
330
A
100
AcDbEntity
  8
TOP
  6
CONTINUOUS
 62
     3
100
AcDbLine
 10
3.793242454528808
 20
5.090143680572509
 30
0.0
 11
3.798241853713989
 21
5.095056533813476
 31
0.0
  0
LINE
  5
3D9
330
A
100
AcDbEntity
  8
TOP
  6
CONTINUOUS
 62
     3
100
AcDbLine
 10
3.331503868103027
 20
6.462143898010253
 30
0.0
 11
3.338790416717529
 21
6.462143898010253
 31
0.0
  0
LINE
  5
3DA
330
A
100
AcDbEntity
  8
TOP
  6
CONTINUOUS
 62
     3
100
AcDbLine
 10
3.366389751434326
 20
3.673676967620849
 30
0.0
 11
3.366389751434326
 21
3.689614057540893
 31
0.0
  0
LINE
  5
3DB
330
A
100
AcDbEntity
  8
TOP
  6
CONTINUOUS
 62
     3
100
AcDbLine
 10
3.583676576614379
 20
4.017463684082031
 30
0.0
 11
3.577173471450805
 21
4.010960578918457
 31
0.0
  0
LINE
  5
3DC
330
A
100
AcDbEntity
  8
TOP
  6
CONTINUOUS
 62
     3
100
AcDbLine
 10
3.643889665603637
 20
3.681512594223022
 30
0.0
 11
3.643889665603637
 21
3.762860059738159
 31
0.0
  0
LINE
  5
3DD
330
A
100
AcDbEntity
  8
TOP
  6
CONTINUOUS
 62
     3
100
AcDbLine
 10
6.219397544860839
 20
3.482911109924316
 30
0.0
 11
6.219397544860839
 21
3.480832338333129
 31
0.0
  0
LINE
  5
3DE
330
A
100
AcDbEntity
  8
TOP
  6
CONTINUOUS
 62
     3
100
AcDbLine
 10
3.182389736175537
 20
3.413050174713134
 30
0.0
 11
3.182389736175537
 21
3.573676824569702
 31
0.0
  0
LINE
  5
3DF
330
A
100
AcDbEntity
  8
TOP
  6
CONTINUOUS
 62
     3
100
AcDbLine
 10
3.793242454528808
 20
3.413050174713134
 30
0.0
 11
3.793242454528808
 21
4.062191486358642
 31
0.0
  0
LINE
  5
3E0
330
A
100
AcDbEntity
  8
TOP
  6
CONTINUOUS
 62
     3
100
AcDbLine
 10
5.612740039825439
 20
3.845676898956298
 30
0.0
 11
5.386490821838378
 21
3.845676898956298
 31
0.0
  0
LINE
  5
3E1
330
A
100
AcDbEntity
  8
TOP
  6
CONTINUOUS
 62
     3
100
AcDbLine
 10
3.585889816284179
 20
3.771223306655883
 30
0.0
 11
3.585889816284179
 21
3.764710903167724
 31
0.0
  0
LINE
  5
3E2
330
A
100
AcDbEntity
  8
TOP
  6
CONTINUOUS
 62
     3
100
AcDbLine
 10
3.345889806747436
 20
3.771223306655883
 30
0.0
 11
3.345889806747436
 21
3.771703481674194
 31
0.0
  0
LINE
  5
3E3
330
A
100
AcDbEntity
  8
TOP
  6
CONTINUOUS
 62
     3
100
AcDbLine
 10
3.363889694213867
 20
3.678816556930541
 30
0.0
 11
3.363889694213867
 21
3.67367672920227
 31
0.0
  0
LINE
  5
3E4
330
A
100
AcDbEntity
  8
TOP
  6
CONTINUOUS
 62
     3
100
AcDbLine
 10
4.848831176757812
 20
3.413050174713134
 30
0.0
 11
4.847397327423095
 21
3.413050174713134
 31
0.0
  0
LINE
  5
3E5
330
A
100
AcDbEntity
  8
TOP
  6
CONTINUOUS
 62
     3
100
AcDbLine
 10
6.219397544860839
 20
3.471662282943725
 30
0.0
 11
6.219397544860839
 21
3.459691524505615
 31
0.0
  0
LINE
  5
3E6
330
A
100
AcDbEntity
  8
TOP
  6
CONTINUOUS
 62
     3
100
AcDbLine
 10
3.799866676330566
 20
4.120527744293212
 30
0.0
 11
3.794867277145385
 21
4.125526905059814
 31
0.0
  0
LINE
  5
3E7
330
A
100
AcDbEntity
  8
TOP
  6
CONTINUOUS
 62
     3
100
AcDbLine
 10
3.60388970375061
 20
3.771223306655883
 30
0.0
 11
3.60388970375061
 21
3.764710903167724
 31
0.0
  0
LINE
  5
3E8
330
A
100
AcDbEntity
  8
TOP
  6
CONTINUOUS
 62
     3
100
AcDbLine
 10
3.643889665603637
 20
3.77231216430664
 30
0.0
 11
3.643889665603637
 21
3.781023740768432
 31
0.0
  0
LINE
  5
3E9
330
A
100
AcDbEntity
  8
TOP
  6
CONTINUOUS
 62
     3
100
AcDbLine
 10
3.604889869689941
 20
4.084577083587646
 30
0.0
 11
3.384889841079711
 21
4.084577083587646
 31
0.0
  0
LINE
  5
3EA
330
A
100
AcDbEntity
  8
TOP
  6
CONTINUOUS
 62
     3
100
AcDbLine
 10
3.807199954986572
 20
6.394744396209716
 30
0.0
 11
3.807199954986572
 21
6.338243961334228
 31
0.0
  0
LINE
  5
3EB
330
A
100
AcDbEntity
  8
TOP
  6
CONTINUOUS
 62
     3
100
AcDbLine
 10
3.344416379928588
 20
6.462143898010253
 30
0.0
 11
3.327097654342651
 21
6.462143898010253
 31
0.0
  0
LINE
  5
3EC
330
A
100
AcDbEntity
  8
TOP
  6
CONTINUOUS
 62
     3
100
AcDbLine
 10
3.290993213653564
 20
3.711384534835815
 30
0.0
 11
3.290993213653564
 21
3.707814931869506
 31
0.0
  0
LINE
  5
3ED
330
A
100
AcDbEntity
  8
TOP
  6
CONTINUOUS
 62
     3
100
AcDbLine
 10
3.403889656066894
 20
3.680266141891479
 30
0.0
 11
3.403889656066894
 21
3.678816556930541
 31
0.0
  0
LINE
  5
3EE
330
A
100
AcDbEntity
  8
TOP
  6
CONTINUOUS
 62
     3
100
AcDbLine
 10
3.692379474639892
 20
3.509712934494018
 30
0.0
 11
3.692379474639892
 21
3.546465635299682
 31
0.0
  0
LINE
  5
3EF
330
A
100
AcDbEntity
  8
TOP
  6
CONTINUOUS
 62
     3
100
AcDbLine
 10
3.589889764785766
 20
3.478748321533203
 30
0.0
 11
3.399889707565307
 21
3.478748321533203
 31
0.0
  0
LINE
  5
3F0
330
A
100
AcDbEntity
  8
TOP
  6
CONTINUOUS
 62
     3
100
AcDbLine
 10
3.803437232971191
 20
5.855486392974853
 30
0.0
 11
3.79476261138916
 21
5.855486392974853
 31
0.0
  0
LINE
  5
3F1
330
A
100
AcDbEntity
  8
TOP
  6
CONTINUOUS
 62
     3
100
AcDbLine
 10
3.648889780044555
 20
3.972676992416381
 30
0.0
 11
3.637409210205078
 21
3.961196422576904
 31
0.0
  0
LINE
  5
3F2
330
A
100
AcDbEntity
  8
TOP
  6
CONTINUOUS
 62
     3
100
AcDbLine
 10
6.197623252868652
 20
3.855749607086181
 30
0.0
 11
6.19762372970581
 21
3.855640888214111
 31
0.0
  0
LINE
  5
3F3
330
A
100
AcDbEntity
  8
TOP
  6
CONTINUOUS
 62
     3
100
AcDbLine
 10
6.193516254425048
 20
3.800676822662353
 30
0.0
 11
6.19762372970581
 21
3.800676822662353
 31
0.0
  0
LINE
  5
3F4
330
A
100
AcDbEntity
  8
TOP
  6
CONTINUOUS
 62
     3
100
AcDbLine
 10
3.563889741897583
 20
3.771223306655883
 30
0.0
 11
3.563889741897583
 21
3.771703481674194
 31
0.0
  0
LINE
  5
3F5
330
A
100
AcDbEntity
  8
TOP
  6
CONTINUOUS
 62
     3
100
AcDbLine
 10
3.425889730453491
 20
3.771223306655883
 30
0.0
 11
3.425889730453491
 21
3.764710903167724
 31
0.0
  0
LINE
  5
3F6
330
A
100
AcDbEntity
  8
TOP
  6
CONTINUOUS
 62
     3
100
AcDbLine
 10
4.837397575378417
 20
3.643676996231079
 30
0.0
 11
4.847397327423095
 21
3.643676996231079
 31
0.0
  0
LINE
  5
3F7
330
A
100
AcDbEntity
  8
TOP
  6
CONTINUOUS
 62
     3
100
AcDbLine
 10
3.619820594787597
 20
6.44258689880371
 30
0.0
 11
3.369958877563476
 21
6.44258689880371
 31
0.0
  0
LINE
  5
3F8
330
A
100
AcDbEntity
  8
TOP
  6
CONTINUOUS
 62
     3
100
AcDbLine
 10
3.647390365600585
 20
3.780131101608276
 30
0.0
 11
3.643890142440795
 21
3.780131101608276
 31
0.0
  0
LINE
  5
3F9
330
A
100
AcDbEntity
  8
TOP
  6
CONTINUOUS
 62
     3
100
AcDbLine
 10
3.563889741897583
 20
3.680266141891479
 30
0.0
 11
3.563889741897583
 21
3.678816556930541
 31
0.0
  0
LINE
  5
3FA
330
A
100
AcDbEntity
  8
TOP
  6
CONTINUOUS
 62
     3
100
AcDbLine
 10
3.31188416481018
 20
3.806756734848022
 30
0.0
 11
3.310107707977294
 21
3.802305936813354
 31
0.0
  0
LINE
  5
3FB
330
A
100
AcDbEntity
  8
TOP
  6
CONTINUOUS
 62
     3
100
AcDbLine
 10
3.465889692306518
 20
3.771223306655883
 30
0.0
 11
3.483889818191528
 21
3.771223306655883
 31
0.0
  0
LINE
  5
3FC
330
A
100
AcDbEntity
  8
TOP
  6
CONTINUOUS
 62
     3
100
AcDbLine
 10
3.50288701057434
 20
3.705702304840087
 30
0.0
 11
3.505887269973754
 21
3.705702304840087
 31
0.0
  0
LINE
  5
3FD
330
A
100
AcDbEntity
  8
TOP
  6
CONTINUOUS
 62
     3
100
AcDbLine
 10
3.465889692306518
 20
3.763894796371459
 30
0.0
 11
3.465889692306518
 21
3.762860059738159
 31
0.0
  0
LINE
  5
3FE
330
A
100
AcDbEntity
  8
TOP
  6
CONTINUOUS
 62
     3
100
AcDbLine
 10
3.34538984298706
 20
3.695977449417114
 30
0.0
 11
3.34538984298706
 21
3.6939537525177
 31
0.0
  0
LINE
  5
3FF
330
A
100
AcDbEntity
  8
TOP
  6
CONTINUOUS
 62
     3
100
AcDbLine
 10
3.191537618637084
 20
4.062277317047119
 30
0.0
 11
3.189912796020507
 21
4.063901901245117
 31
0.0
  0
LINE
  5
400
330
A
100
AcDbEntity
  8
TOP
  6
CONTINUOUS
 62
     3
100
AcDbLine
 10
6.219397544860839
 20
3.462839841842651
 30
0.0
 11
6.219397544860839
 21
3.458733558654785
 31
0.0
  0
LINE
  5
401
330
A
100
AcDbEntity
  8
TOP
  6
CONTINUOUS
 62
     3
100
AcDbLine
 10
3.585889816284179
 20
3.681512594223022
 30
0.0
 11
3.585889816284179
 21
3.762860059738159
 31
0.0
  0
LINE
  5
402
330
A
100
AcDbEntity
  8
TOP
  6
CONTINUOUS
 62
     3
100
AcDbLine
 10
3.216297388076782
 20
5.629612922668457
 30
0.0
 11
3.218332052230834
 21
5.630718231201171
 31
0.0
  0
LINE
  5
403
330
A
100
AcDbEntity
  8
TOP
  6
CONTINUOUS
 62
     3
100
AcDbLine
 10
3.60388970375061
 20
3.77231216430664
 30
0.0
 11
3.60388970375061
 21
3.781023740768432
 31
0.0
  0
LINE
  5
404
330
A
100
AcDbEntity
  8
TOP
  6
CONTINUOUS
 62
     3
100
AcDbLine
 10
3.345889806747436
 20
3.678816556930541
 30
0.0
 11
3.363889694213867
 21
3.678816556930541
 31
0.0
  0
LINE
  5
405
330
A
100
AcDbEntity
  8
TOP
  6
CONTINUOUS
 62
     3
100
AcDbLine
 10
3.60388970375061
 20
3.681512594223022
 30
0.0
 11
3.60388970375061
 21
3.680266141891479
 31
0.0
  0
LINE
  5
406
330
A
100
AcDbEntity
  8
TOP
  6
CONTINUOUS
 62
     3
100
AcDbLine
 10
3.585889816284179
 20
3.681512594223022
 30
0.0
 11
3.60388970375061
 21
3.681512594223022
 31
0.0
  0
LINE
  5
407
330
A
100
AcDbEntity
  8
TOP
  6
CONTINUOUS
 62
     3
100
AcDbLine
 10
3.385889768600463
 20
3.681512594223022
 30
0.0
 11
3.403889656066894
 21
3.681512594223022
 31
0.0
  0
LINE
  5
408
330
A
100
AcDbEntity
  8
TOP
  6
CONTINUOUS
 62
     3
100
AcDbLine
 10
3.344295740127563
 20
3.713424444198608
 30
0.0
 11
3.345530748367309
 21
3.712189197540283
 31
0.0
  0
LINE
  5
409
330
A
100
AcDbEntity
  8
TOP
  6
CONTINUOUS
 62
     3
100
AcDbLine
 10
3.443912982940673
 20
6.254951477050781
 30
0.0
 11
3.443912982940673
 21
6.218670845031738
 31
0.0
  0
LINE
  5
40A
330
A
100
AcDbEntity
  8
TOP
  6
CONTINUOUS
 62
     3
100
AcDbLine
 10
3.483889818191528
 20
3.77231216430664
 30
0.0
 11
3.483889818191528
 21
3.781023740768432
 31
0.0
  0
LINE
  5
40B
330
A
100
AcDbEntity
  8
TOP
  6
CONTINUOUS
 62
     3
100
AcDbLine
 10
6.199840545654296
 20
3.673676967620849
 30
0.0
 11
6.200800418853759
 21
3.618676900863647
 31
0.0
  0
LINE
  5
40C
330
A
100
AcDbEntity
  8
TOP
  6
CONTINUOUS
 62
     3
100
AcDbLine
 10
3.187388896942138
 20
4.133049964904785
 30
0.0
 11
3.194912195205688
 21
4.125526905059814
 31
0.0
  0
LINE
  5
40D
330
A
100
AcDbEntity
  8
TOP
  6
CONTINUOUS
 62
     3
100
AcDbLine
 10
3.366389751434326
 20
3.689614057540893
 30
0.0
 11
3.366389751434326
 21
3.6939537525177
 31
0.0
  0
LINE
  5
40E
330
A
100
AcDbEntity
  8
TOP
  6
CONTINUOUS
 62
     3
100
AcDbLine
 10
3.577173471450805
 20
4.010960578918457
 30
0.0
 11
3.574889659881591
 21
4.008677005767822
 31
0.0
  0
LINE
  5
40F
330
A
100
AcDbEntity
  8
TOP
  6
CONTINUOUS
 62
     3
100
AcDbLine
 10
3.585889816284179
 20
3.771223306655883
 30
0.0
 11
3.585889816284179
 21
3.771703481674194
 31
0.0
  0
LINE
  5
410
330
A
100
AcDbEntity
  8
TOP
  6
CONTINUOUS
 62
     3
100
AcDbLine
 10
3.734464406967163
 20
4.125526905059814
 30
0.0
 11
3.734464406967163
 21
4.063901901245117
 31
0.0
  0
LINE
  5
411
330
A
100
AcDbEntity
  8
TOP
  6
CONTINUOUS
 62
     3
100
AcDbLine
 10
3.60388970375061
 20
3.764710903167724
 30
0.0
 11
3.60388970375061
 21
3.763894796371459
 31
0.0
  0
LINE
  5
412
330
A
100
AcDbEntity
  8
TOP
  6
CONTINUOUS
 62
     3
100
AcDbLine
 10
3.620389699935913
 20
3.689875602722167
 30
0.0
 11
3.620389699935913
 21
3.696075201034545
 31
0.0
  0
LINE
  5
413
330
A
100
AcDbEntity
  8
TOP
  6
CONTINUOUS
 62
     3
100
AcDbLine
 10
3.544173240661621
 20
3.802467107772827
 30
0.0
 11
3.519433736801147
 21
3.803373098373413
 31
0.0
  0
LINE
  5
414
330
A
100
AcDbEntity
  8
TOP
  6
CONTINUOUS
 62
     3
100
AcDbLine
 10
3.523889780044555
 20
3.771223306655883
 30
0.0
 11
3.523889780044555
 21
3.771703481674194
 31
0.0
  0
LINE
  5
415
330
A
100
AcDbEntity
  8
TOP
  6
CONTINUOUS
 62
     3
100
AcDbLine
 10
3.181543111801147
 20
3.833716630935668
 30
0.0
 11
3.181543111801147
 21
3.673676967620849
 31
0.0
  0
LINE
  5
416
330
A
100
AcDbEntity
  8
TOP
  6
CONTINUOUS
 62
     3
100
AcDbLine
 10
3.519433736801147
 20
6.205713272094726
 30
0.0
 11
3.544173240661621
 21
6.217374801635742
 31
0.0
  0
LINE
  5
417
330
A
100
AcDbEntity
  8
TOP
  6
CONTINUOUS
 62
     3
100
AcDbLine
 10
3.403889656066894
 20
3.678816556930541
 30
0.0
 11
3.403889656066894
 21
3.67367672920227
 31
0.0
  0
LINE
  5
418
330
A
100
AcDbEntity
  8
TOP
  6
CONTINUOUS
 62
     3
100
AcDbLine
 10
3.585889816284179
 20
3.680266141891479
 30
0.0
 11
3.585889816284179
 21
3.678816556930541
 31
0.0
  0
LINE
  5
419
330
A
100
AcDbEntity
  8
TOP
  6
CONTINUOUS
 62
     3
100
AcDbLine
 10
3.563889741897583
 20
3.771703481674194
 30
0.0
 11
3.563889741897583
 21
3.77231216430664
 31
0.0
  0
LINE
  5
41A
330
A
100
AcDbEntity
  8
TOP
  6
CONTINUOUS
 62
     3
100
AcDbLine
 10
3.585889816284179
 20
3.77231216430664
 30
0.0
 11
3.585889816284179
 21
3.781023740768432
 31
0.0
  0
LINE
  5
41B
330
A
100
AcDbEntity
  8
TOP
  6
CONTINUOUS
 62
     3
100
AcDbLine
 10
3.732839584350585
 20
4.123901844024658
 30
0.0
 11
3.732753753662109
 21
4.118902683258056
 31
0.0
  0
LINE
  5
41C
330
A
100
AcDbEntity
  8
TOP
  6
CONTINUOUS
 62
     3
100
AcDbLine
 10
3.7316734790802
 20
3.671393394470214
 30
0.0
 11
3.738176584243774
 21
3.664890050888061
 31
0.0
  0
LINE
  5
41D
330
A
100
AcDbEntity
  8
TOP
  6
CONTINUOUS
 62
     3
100
AcDbLine
 10
3.648889780044555
 20
4.038676738739013
 30
0.0
 11
3.637409210205078
 21
4.027196407318115
 31
0.0
  0
LINE
  5
41E
330
A
100
AcDbEntity
  8
TOP
  6
CONTINUOUS
 62
     3
100
AcDbLine
 10
3.468652486801147
 20
3.807631731033325
 30
0.0
 11
3.519433736801147
 21
3.807631731033325
 31
0.0
  0
LINE
  5
41F
330
A
100
AcDbEntity
  8
TOP
  6
CONTINUOUS
 62
     3
100
AcDbLine
 10
3.410870552062988
 20
4.080557823181152
 30
0.0
 11
3.414889812469482
 21
4.076538562774658
 31
0.0
  0
LINE
  5
420
330
A
100
AcDbEntity
  8
TOP
  6
CONTINUOUS
 62
     3
100
AcDbLine
 10
3.585889816284179
 20
3.762860059738159
 30
0.0
 11
3.60388970375061
 21
3.762860059738159
 31
0.0
  0
LINE
  5
421
330
A
100
AcDbEntity
  8
TOP
  6
CONTINUOUS
 62
     3
100
AcDbLine
 10
3.369389772415161
 20
3.704822778701782
 30
0.0
 11
3.369389772415161
 21
3.698966026306152
 31
0.0
  0
LINE
  5
422
330
A
100
AcDbEntity
  8
TOP
  6
CONTINUOUS
 62
     3
100
AcDbLine
 10
3.734464406967163
 20
4.125526905059814
 30
0.0
 11
3.732839584350585
 21
4.123901844024658
 31
0.0
  0
LINE
  5
423
330
A
100
AcDbEntity
  8
TOP
  6
CONTINUOUS
 62
     3
100
AcDbLine
 10
3.382889747619628
 20
3.781023263931274
 30
0.0
 11
3.382889747619628
 21
3.704823017120361
 31
0.0
  0
LINE
  5
424
330
A
100
AcDbEntity
  8
TOP
  6
CONTINUOUS
 62
     3
100
AcDbLine
 10
3.445214986801147
 20
6.317147731781005
 30
0.0
 11
3.468652486801147
 21
6.328809261322021
 31
0.0
  0
LINE
  5
425
330
A
100
AcDbEntity
  8
TOP
  6
CONTINUOUS
 62
     3
100
AcDbLine
 10
3.662904500961303
 20
3.808023452758789
 30
0.0
 11
3.673324346542358
 21
3.807655096054077
 31
0.0
  0
LINE
  5
426
330
A
100
AcDbEntity
  8
TOP
  6
CONTINUOUS
 62
     3
100
AcDbLine
 10
3.363889694213867
 20
3.681512594223022
 30
0.0
 11
3.363889694213867
 21
3.680266141891479
 31
0.0
  0
LINE
  5
427
330
A
100
AcDbEntity
  8
TOP
  6
CONTINUOUS
 62
     3
100
AcDbLine
 10
3.625889778137207
 20
3.77231216430664
 30
0.0
 11
3.625889778137207
 21
3.781023740768432
 31
0.0
  0
LINE
  5
428
330
A
100
AcDbEntity
  8
TOP
  6
CONTINUOUS
 62
     3
100
AcDbLine
 10
3.60388970375061
 20
3.680266141891479
 30
0.0
 11
3.60388970375061
 21
3.678816556930541
 31
0.0
  0
LINE
  5
429
330
A
100
AcDbEntity
  8
TOP
  6
CONTINUOUS
 62
     3
100
AcDbLine
 10
3.729389667510986
 20
3.902676820755004
 30
0.0
 11
3.618889808654785
 21
3.902676820755004
 31
0.0
  0
LINE
  5
42A
330
A
100
AcDbEntity
  8
TOP
  6
CONTINUOUS
 62
     3
100
AcDbLine
 10
3.69709300994873
 20
3.707814931869506
 30
0.0
 11
3.69709300994873
 21
3.711384534835815
 31
0.0
  0
LINE
  5
42C
330
A
100
AcDbEntity
  8
TOP
  6
CONTINUOUS
 62
     3
100
AcDbLine
 10
3.677895307540893
 20
3.706089496612548
 30
0.0
 11
3.679671764373779
 21
3.710540294647216
 31
0.0
  0
LINE
  5
42D
330
A
100
AcDbEntity
  8
TOP
  6
CONTINUOUS
 62
     3
100
AcDbLine
 10
3.342396974563598
 20
3.778676986694335
 30
0.0
 11
3.344199419021606
 21
3.778676986694335
 31
0.0
  0
LINE
  5
42E
330
A
100
AcDbEntity
  8
TOP
  6
CONTINUOUS
 62
     3
100
AcDbLine
 10
3.545889854431152
 20
3.681512594223022
 30
0.0
 11
3.545889854431152
 21
3.762860059738159
 31
0.0
  0
LINE
  5
42F
330
A
100
AcDbEntity
  8
TOP
  6
CONTINUOUS
 62
     3
100
AcDbLine
 10
3.366889715194702
 20
3.781023263931274
 30
0.0
 11
3.342389822006225
 21
3.781023263931274
 31
0.0
  0
LINE
  5
430
330
A
100
AcDbEntity
  8
TOP
  6
CONTINUOUS
 62
     3
100
AcDbLine
 10
3.71099305152893
 20
3.711384534835815
 30
0.0
 11
3.71099305152893
 21
3.707814931869506
 31
0.0
  0
LINE
  5
431
330
A
100
AcDbEntity
  8
TOP
  6
CONTINUOUS
 62
     3
100
AcDbLine
 10
3.465889692306518
 20
3.77231216430664
 30
0.0
 11
3.465889692306518
 21
3.781023740768432
 31
0.0
  0
LINE
  5
432
330
A
100
AcDbEntity
  8
TOP
  6
CONTINUOUS
 62
     3
100
AcDbLine
 10
3.519433736801147
 20
6.328809261322021
 30
0.0
 11
3.544173240661621
 21
6.317147731781005
 31
0.0
  0
LINE
  5
433
330
A
100
AcDbEntity
  8
TOP
  6
CONTINUOUS
 62
     3
100
AcDbLine
 10
3.545889854431152
 20
3.678816556930541
 30
0.0
 11
3.545889854431152
 21
3.67367672920227
 31
0.0
  0
LINE
  5
434
330
A
100
AcDbEntity
  8
TOP
  6
CONTINUOUS
 62
     3
100
AcDbLine
 10
3.798241853713989
 20
4.062277317047119
 30
0.0
 11
3.798241853713989
 21
3.413050174713134
 31
0.0
  0
LINE
  5
435
330
A
100
AcDbEntity
  8
TOP
  6
CONTINUOUS
 62
     3
100
AcDbLine
 10
3.300113916397094
 20
3.711384534835815
 30
0.0
 11
3.272665739059448
 21
3.711384534835815
 31
0.0
  0
LINE
  5
436
330
A
100
AcDbEntity
  8
TOP
  6
CONTINUOUS
 62
     3
100
AcDbLine
 10
3.369389772415161
 20
3.698966026306152
 30
0.0
 11
3.385893106460571
 21
3.698966026306152
 31
0.0
  0
LINE
  5
437
330
A
100
AcDbEntity
  8
TOP
  6
CONTINUOUS
 62
     3
100
AcDbLine
 10
3.585889816284179
 20
3.681512594223022
 30
0.0
 11
3.585889816284179
 21
3.680266141891479
 31
0.0
  0
LINE
  5
438
330
A
100
AcDbEntity
  8
TOP
  6
CONTINUOUS
 62
     3
100
AcDbLine
 10
3.465889692306518
 20
3.680266141891479
 30
0.0
 11
3.465889692306518
 21
3.678816556930541
 31
0.0
  0
LINE
  5
439
330
A
100
AcDbEntity
  8
TOP
  6
CONTINUOUS
 62
     3
100
AcDbLine
 10
3.593409299850463
 20
4.027196407318115
 30
0.0
 11
3.583676576614379
 21
4.017463684082031
 31
0.0
  0
LINE
  5
43A
330
A
100
AcDbEntity
  8
TOP
  6
CONTINUOUS
 62
     3
100
AcDbLine
 10
3.363889694213867
 20
3.680266141891479
 30
0.0
 11
3.363889694213867
 21
3.678816556930541
 31
0.0
  0
LINE
  5
43B
330
A
100
AcDbEntity
  8
TOP
  6
CONTINUOUS
 62
     3
100
AcDbLine
 10
3.566889762878417
 20
3.704823017120361
 30
0.0
 11
3.582889795303344
 21
3.704823017120361
 31
0.0
  0
LINE
  5
43C
330
A
100
AcDbEntity
  8
TOP
  6
CONTINUOUS
 62
     3
100
AcDbLine
 10
3.367268323898315
 20
3.698090553283691
 30
0.0
 11
3.366389751434326
 21
3.695977449417114
 31
0.0
  0
LINE
  5
43D
330
A
100
AcDbEntity
  8
TOP
  6
CONTINUOUS
 62
     3
100
AcDbLine
 10
3.767212390899658
 20
5.634901046752929
 30
0.0
 11
3.76802110671997
 21
5.632716655731201
 31
0.0
  0
LINE
  5
43E
330
A
100
AcDbEntity
  8
TOP
  6
CONTINUOUS
 62
     3
100
AcDbLine
 10
3.798241853713989
 20
3.413050174713134
 30
0.0
 11
3.796746969223022
 21
3.413050174713134
 31
0.0
  0
LINE
  5
43F
330
A
100
AcDbEntity
  8
TOP
  6
CONTINUOUS
 62
     3
100
AcDbLine
 10
3.356087446212768
 20
6.462143898010253
 30
0.0
 11
3.344416379928588
 21
6.462143898010253
 31
0.0
  0
LINE
  5
440
330
A
100
AcDbEntity
  8
TOP
  6
CONTINUOUS
 62
     3
100
AcDbLine
 10
3.29175066947937
 20
3.711384534835815
 30
0.0
 11
3.291447877883911
 21
3.711081743240356
 31
0.0
  0
LINE
  5
441
330
A
100
AcDbEntity
  8
TOP
  6
CONTINUOUS
 62
     3
100
AcDbLine
 10
3.762197256088256
 20
6.430544376373291
 30
0.0
 11
3.225888967514038
 21
6.430544376373291
 31
0.0
  0
LINE
  5
442
330
A
100
AcDbEntity
  8
TOP
  6
CONTINUOUS
 62
     3
100
AcDbLine
 10
3.729389667510986
 20
3.873724222183227
 30
0.0
 11
3.260389804840087
 21
3.873724222183227
 31
0.0
  0
LINE
  5
443
330
A
100
AcDbEntity
  8
TOP
  6
CONTINUOUS
 62
     3
100
AcDbLine
 10
3.384889841079711
 20
4.084577083587646
 30
0.0
 11
3.399889707565307
 21
4.083499908447265
 31
0.0
  0
LINE
  5
444
330
A
100
AcDbEntity
  8
TOP
  6
CONTINUOUS
 62
     3
100
AcDbLine
 10
3.643889427185058
 20
3.705670833587646
 30
0.0
 11
3.647389650344848
 21
3.705670833587646
 31
0.0
  0
LINE
  5
445
330
A
100
AcDbEntity
  8
TOP
  6
CONTINUOUS
 62
     3
100
AcDbLine
 10
5.612740039825439
 20
3.833716630935668
 30
0.0
 11
5.612740039825439
 21
3.847009658813476
 31
0.0
  0
LINE
  5
446
330
A
100
AcDbEntity
  8
TOP
  6
CONTINUOUS
 62
     3
100
AcDbLine
 10
3.443912982940673
 20
6.218670845031738
 30
0.0
 11
3.468652486801147
 21
6.205713272094726
 31
0.0
  0
LINE
  5
447
330
A
100
AcDbEntity
  8
TOP
  6
CONTINUOUS
 62
     3
100
AcDbLine
 10
3.342389822006225
 20
3.696075201034545
 30
0.0
 11
3.342389822006225
 21
3.698966026306152
 31
0.0
  0
LINE
  5
448
330
A
100
AcDbEntity
  8
TOP
  6
CONTINUOUS
 62
     3
100
AcDbLine
 10
3.31188416481018
 20
3.706089496612548
 30
0.0
 11
3.31188416481018
 21
3.806756734848022
 31
0.0
  0
LINE
  5
449
330
A
100
AcDbEntity
  8
TOP
  6
CONTINUOUS
 62
     3
100
AcDbLine
 10
3.483889818191528
 20
3.678816556930541
 30
0.0
 11
3.483889818191528
 21
3.67367672920227
 31
0.0
  0
LINE
  5
44A
330
A
100
AcDbEntity
  8
TOP
  6
CONTINUOUS
 62
     3
100
AcDbLine
 10
6.219397544860839
 20
3.512676954269409
 30
0.0
 11
6.219397544860839
 21
3.492033720016479
 31
0.0
  0
LINE
  5
44B
330
A
100
AcDbEntity
  8
TOP
  6
CONTINUOUS
 62
     3
100
AcDbLine
 10
3.585889816284179
 20
3.77231216430664
 30
0.0
 11
3.60388970375061
 21
3.77231216430664
 31
0.0
  0
LINE
  5
44C
330
A
100
AcDbEntity
  8
TOP
  6
CONTINUOUS
 62
     3
100
AcDbLine
 10
3.385889768600463
 20
3.764710903167724
 30
0.0
 11
3.403889656066894
 21
3.764710903167724
 31
0.0
  0
LINE
  5
44D
330
A
100
AcDbEntity
  8
TOP
  6
CONTINUOUS
 62
     3
100
AcDbLine
 10
3.468652486801147
 20
3.803373098373413
 30
0.0
 11
3.443912982940673
 21
3.802467107772827
 31
0.0
  0
LINE
  5
44E
330
A
100
AcDbEntity
  8
TOP
  6
CONTINUOUS
 62
     3
100
AcDbLine
 10
3.342389822006225
 20
3.689875602722167
 30
0.0
 11
3.344511032104492
 21
3.689799070358276
 31
0.0
  0
LINE
  5
44F
330
A
100
AcDbEntity
  8
TOP
  6
CONTINUOUS
 62
     3
100
AcDbLine
 10
3.445214986801147
 20
6.279571056365966
 30
0.0
 11
3.445214986801147
 21
6.317147731781005
 31
0.0
  0
LINE
  5
450
330
A
100
AcDbEntity
  8
TOP
  6
CONTINUOUS
 62
     3
100
AcDbLine
 10
3.403889656066894
 20
3.771703481674194
 30
0.0
 11
3.403889656066894
 21
3.77231216430664
 31
0.0
  0
ARC
  5
451
330
A
100
AcDbEntity
  8
TOP
  6
CONTINUOUS
 62
     3
100
AcDbCircle
 10
3.354043006896972
 20
5.636188507080078
 30
0.0
 40
0.0069510787725449
100
AcDbArc
 50
180.9999999793639
 51
359.000000020636
  0
ARC
  5
452
330
A
100
AcDbEntity
  8
TOP
  6
CONTINUOUS
 62
     3
100
AcDbCircle
 10
3.589889764785766
 20
3.493050098419189
 30
0.0
 40
0.0149999996647239
100
AcDbArc
 50
270.0
 51
360.0
  0
ARC
  5
453
330
A
100
AcDbEntity
  8
TOP
  6
CONTINUOUS
 62
     3
100
AcDbCircle
 10
3.249042987823486
 20
5.661638259887695
 30
0.0
 40
0.0275992937386036
100
AcDbArc
 50
0.9999898221594277
 51
179.0000000289643
  0
ARC
  5
454
330
A
100
AcDbEntity
  8
TOP
  6
CONTINUOUS
 62
     3
100
AcDbCircle
 10
3.739042997360229
 20
5.661638259887695
 30
0.0
 40
0.0275992937386036
100
AcDbArc
 50
0.9999898221594277
 51
179.0000000289643
  0
ARC
  5
455
330
A
100
AcDbEntity
  8
TOP
  6
CONTINUOUS
 62
     3
100
AcDbCircle
 10
3.682302236557006
 20
3.509712934494018
 30
0.0
 40
0.0100773200392723
100
AcDbArc
 50
180.0
 51
360.0
  0
ARC
  5
456
330
A
100
AcDbEntity
  8
TOP
  6
CONTINUOUS
 62
     3
100
AcDbCircle
 10
3.774043083190917
 20
5.636188507080078
 30
0.0
 40
0.0069510787725449
100
AcDbArc
 50
180.9999999793639
 51
190.6739364758075
  0
ARC
  5
457
330
A
100
AcDbEntity
  8
TOP
  6
CONTINUOUS
 62
     3
100
AcDbCircle
 10
3.309889793395996
 20
3.506676912307739
 30
0.0
 40
0.0314453132450581
100
AcDbArc
 50
110.0510423309285
 51
219.9999999658636
  0
ARC
  5
458
330
A
100
AcDbEntity
  8
TOP
  6
CONTINUOUS
 62
     3
100
AcDbCircle
 10
3.634043216705322
 20
5.636188507080078
 30
0.0
 40
0.0069510787725449
100
AcDbArc
 50
180.9999999793639
 51
359.000000020636
  0
ARC
  5
459
330
A
100
AcDbEntity
  8
TOP
  6
CONTINUOUS
 62
     3
100
AcDbCircle
 10
3.725889682769775
 20
3.465677022933959
 30
0.0
 40
0.0175000000745058
100
AcDbArc
 50
180.0
 51
540.0
  0
ARC
  5
45A
330
A
100
AcDbEntity
  8
TOP
  6
CONTINUOUS
 62
     3
100
AcDbCircle
 10
3.529042959213256
 20
5.661638259887695
 30
0.0
 40
0.0275992937386036
100
AcDbArc
 50
0.9999898221594277
 51
179.0000000289643
  0
ARC
  5
45B
330
A
100
AcDbEntity
  8
TOP
  6
CONTINUOUS
 62
     3
100
AcDbCircle
 10
3.751401901245117
 20
6.420143604278564
 30
0.0
 40
0.0419999994337559
100
AcDbArc
 50
1.000000041701468
 51
90.0
  0
ARC
  5
45C
330
A
100
AcDbEntity
  8
TOP
  6
CONTINUOUS
 62
     3
100
AcDbCircle
 10
3.424043178558349
 20
5.636188507080078
 30
0.0
 40
0.0069510787725449
100
AcDbArc
 50
180.9999999793639
 51
359.000000020636
  0
ARC
  5
45D
330
A
100
AcDbEntity
  8
TOP
  6
CONTINUOUS
 62
     3
100
AcDbCircle
 10
3.399889707565307
 20
3.493050098419189
 30
0.0
 40
0.014301797375083
100
AcDbArc
 50
180.0
 51
270.0
  0
ARC
  5
45E
330
A
100
AcDbEntity
  8
TOP
  6
CONTINUOUS
 62
     3
100
AcDbCircle
 10
3.319042921066284
 20
5.661638259887695
 30
0.0
 40
0.0275992937386036
100
AcDbArc
 50
0.9999898221594277
 51
179.0000000289643
  0
ARC
  5
45F
330
A
100
AcDbEntity
  8
TOP
  6
CONTINUOUS
 62
     3
100
AcDbCircle
 10
3.666889667510986
 20
3.512676954269409
 30
0.0
 40
0.0539432987570763
100
AcDbArc
 50
180.0
 51
540.0
  0
ARC
  5
460
330
A
100
AcDbEntity
  8
TOP
  6
CONTINUOUS
 62
     3
100
AcDbCircle
 10
3.589889764785766
 20
3.528049945831298
 30
0.0
 40
0.0149999996647239
100
AcDbArc
 50
0.0
 51
90.0
  0
ARC
  5
461
330
A
100
AcDbEntity
  8
TOP
  6
CONTINUOUS
 62
     3
100
AcDbCircle
 10
3.214043140411376
 20
5.636188507080078
 30
0.0
 40
0.0069510787725449
100
AcDbArc
 50
349.3260625812172
 51
359.000000020636
  0
ARC
  5
462
330
A
100
AcDbEntity
  8
TOP
  6
CONTINUOUS
 62
     3
100
AcDbCircle
 10
3.70404314994812
 20
5.636188507080078
 30
0.0
 40
0.0069510787725449
100
AcDbArc
 50
180.9999999793639
 51
359.000000020636
  0
ARC
  5
463
330
A
100
AcDbEntity
  8
TOP
  6
CONTINUOUS
 62
     3
100
AcDbCircle
 10
3.309889793395996
 20
3.506676912307739
 30
0.0
 40
0.0503125004470348
100
AcDbArc
 50
219.9999992113175
 51
500.0000007886824
  0
ARC
  5
464
330
A
100
AcDbEntity
  8
TOP
  6
CONTINUOUS
 62
     3
100
AcDbCircle
 10
3.309889793395996
 20
3.506676912307739
 30
0.0
 40
0.0314453132450581
100
AcDbArc
 50
23.20869492437413
 51
69.9489576690715
  0
ARC
  5
465
330
A
100
AcDbEntity
  8
TOP
  6
CONTINUOUS
 62
     3
100
AcDbCircle
 10
3.599042892456054
 20
5.661638259887695
 30
0.0
 40
0.0275992937386036
100
AcDbArc
 50
0.9999898221594277
 51
179.0000000289643
  0
ARC
  5
466
330
A
100
AcDbEntity
  8
TOP
  6
CONTINUOUS
 62
     3
100
AcDbCircle
 10
3.494043111801147
 20
5.636188507080078
 30
0.0
 40
0.0069510787725449
100
AcDbArc
 50
180.9999999793639
 51
359.000000020636
  0
ARC
  5
467
330
A
100
AcDbEntity
  8
TOP
  6
CONTINUOUS
 62
     3
100
AcDbCircle
 10
3.589889764785766
 20
3.493050098419189
 30
0.0
 40
0.014301797375083
100
AcDbArc
 50
270.0
 51
360.0
  0
ARC
  5
468
330
A
100
AcDbEntity
  8
TOP
  6
CONTINUOUS
 62
     3
100
AcDbCircle
 10
3.389042854309082
 20
5.661638259887695
 30
0.0
 40
0.0275992937386036
100
AcDbArc
 50
0.9999898221594277
 51
179.0000000289643
  0
ARC
  5
469
330
A
100
AcDbEntity
  8
TOP
  6
CONTINUOUS
 62
     3
100
AcDbCircle
 10
3.211543083190917
 20
3.833716630935668
 30
0.0
 40
0.0299999993294478
100
AcDbArc
 50
166.354983961758
 51
180.0
  0
ARC
  5
46A
330
A
100
AcDbEntity
  8
TOP
  6
CONTINUOUS
 62
     3
100
AcDbCircle
 10
3.399889707565307
 20
3.493050098419189
 30
0.0
 40
0.0149999996647239
100
AcDbArc
 50
180.0
 51
270.0
  0
ARC
  5
46B
330
A
100
AcDbEntity
  8
TOP
  6
CONTINUOUS
 62
     3
100
AcDbCircle
 10
3.399889707565307
 20
3.528049945831298
 30
0.0
 40
0.014301797375083
100
AcDbArc
 50
90.0
 51
180.0
  0
ARC
  5
46C
330
A
100
AcDbEntity
  8
TOP
  6
CONTINUOUS
 62
     3
100
AcDbCircle
 10
3.284043073654174
 20
5.636188507080078
 30
0.0
 40
0.0069510787725449
100
AcDbArc
 50
180.9999999793639
 51
359.000000020636
  0
ARC
  5
46D
330
A
100
AcDbEntity
  8
TOP
  6
CONTINUOUS
 62
     3
100
AcDbCircle
 10
3.399889707565307
 20
3.528049945831298
 30
0.0
 40
0.0149999996647239
100
AcDbArc
 50
90.0
 51
180.0
  0
ARC
  5
46E
330
A
100
AcDbEntity
  8
TOP
  6
CONTINUOUS
 62
     3
100
AcDbCircle
 10
3.669043064117431
 20
5.661638259887695
 30
0.0
 40
0.0275992937386036
100
AcDbArc
 50
0.9999898221594277
 51
179.0000000289643
  0
ARC
  5
46F
330
A
100
AcDbEntity
  8
TOP
  6
CONTINUOUS
 62
     3
100
AcDbCircle
 10
3.564043045043945
 20
5.636188507080078
 30
0.0
 40
0.0069510787725449
100
AcDbArc
 50
180.9999999793639
 51
359.000000020636
  0
ARC
  5
470
330
A
100
AcDbEntity
  8
TOP
  6
CONTINUOUS
 62
     3
100
AcDbCircle
 10
3.238377571105957
 20
6.420143604278564
 30
0.0
 40
0.0419999994337559
100
AcDbArc
 50
90.0
 51
178.9999999582985
  0
ARC
  5
471
330
A
100
AcDbEntity
  8
TOP
  6
CONTINUOUS
 62
     3
100
AcDbCircle
 10
3.459043025970458
 20
5.661638259887695
 30
0.0
 40
0.0275992937386036
100
AcDbArc
 50
0.9999898221594277
 51
179.0000000289643
  0
ARC
  5
472
330
A
100
AcDbEntity
  8
TOP
  6
CONTINUOUS
 62
     3
100
AcDbCircle
 10
3.309889793395996
 20
3.506676912307739
 30
0.0
 40
0.0314453132450581
100
AcDbArc
 50
290.0510423309285
 51
345.0000006476515
  0
ARC
  5
473
330
A
100
AcDbEntity
  8
TOP
  6
CONTINUOUS
 62
     3
100
AcDbCircle
 10
3.589889764785766
 20
3.528049945831298
 30
0.0
 40
0.014301797375083
100
AcDbArc
 50
0.0
 51
90.0
  0
VIEWPORT
  5
492
330
B
100
AcDbEntity
 67
     1
  8
0
  6
CONTINUOUS
100
AcDbViewport
 10
3.713930348258706
 20
2.25
 30
0.0
 40
8.427860696517413
 41
5.5
 68
     1
 69
     1
1001
ACAD
1000
MVIEW
1002
{
1070
    16
1010
0.0
1020
0.0
1030
0.0
1010
0.0
1020
0.0
1030
1.0
1040
0.0
1040
5.5
1040
3.713930348258706
1040
2.25
1040
50.0
1040
0.0
1040
0.0
1070
     0
1070
   100
1070
     1
1070
     1
1070
     0
1070
     0
1070
     0
1070
     0
1040
0.0
1040
0.0
1040
0.0
1040
1.0
1040
1.0
1040
0.0
1040
0.0
1070
     0
1002
{
1002
}
1002
}
  0
ENDSEC
  0
SECTION
  2
OBJECTS
  0
DICTIONARY
  5
19
330
0
100
AcDbDictionary
  3
ACAD_GROUP
350
1A
  3
ACAD_LAYOUT
350
1E
  3
ACAD_MLINESTYLE
350
1B
  3
ACAD_PLOTSETTINGS
350
21
  3
ACAD_PLOTSTYLENAME
350
1F
  3
ACDBHEADERROUNDTRIPXREC
350
4A7
  0
DICTIONARY
  5
4C8
330
A
100
AcDbDictionary
280
     1
  3
ACAD_LAYOUTSELFREF
360
4C9
  0
DICTIONARY
  5
4CA
330
B
100
AcDbDictionary
280
     1
  3
ACAD_LAYOUTSELFREF
360
4CB
  0
DICTIONARY
  5
1A
102
{ACAD_REACTORS
330
19
102
}
330
19
100
AcDbDictionary
  0
DICTIONARY
  5
1E
102
{ACAD_REACTORS
330
19
102
}
330
19
100
AcDbDictionary
  0
DICTIONARY
  5
1B
102
{ACAD_REACTORS
330
19
102
}
330
19
100
AcDbDictionary
  3
STANDARD
350
1C
  0
DICTIONARY
  5
21
102
{ACAD_REACTORS
330
19
102
}
330
19
100
AcDbDictionary
  0
ACDBDICTIONARYWDFLT
  5
1F
102
{ACAD_REACTORS
330
19
102
}
330
19
100
AcDbDictionary
281
     1
  3
Normal
350
1D
100
AcDbDictionaryWithDefault
340
1D
  0
DICTIONARY
  5
4A7
102
{ACAD_REACTORS
330
19
102
}
330
19
100
AcDbDictionary
  3
TSTACKALIGN
350
4A8
  3
TSTACKSIZE
350
4A9
  3
HYPERLINKBASE
350
4AA
  3
STYLESHEET
350
4AB
  3
LAYOUTDICT
350
4AC
  3
PLOTSETDICT
350
4AD
  3
PLOTSTYLNAMDICT
350
4AE
  3
LWETCUNION
350
4AF
  3
INSUNITS
350
4B0
  3
CEPSNTYPE
350
4B1
  3
FINGERPRINTGUID
350
4B2
  3
VERSIONGUID
350
4B3
  3
PSVPSCALE
350
4B4
  3
DIMSTYLEDATA
350
4B5
  3
PUCSORTHOREF
350
4B6
  3
PUCSORTHOVIEW
350
4B7
  3
PUCSBASE
350
4B8
  3
PUCSORGTOP
350
4B9
  3
PUCSORGBOTTOM
350
4BA
  3
PUCSORGLEFT
350
4BB
  3
PUCSORGRIGHT
350
4BC
  3
PUCSORGFRONT
350
4BD
  3
PUCSORGBACK
350
4BE
  3
UCSORTHOREF
350
4BF
  3
UCSORTHOVIEW
350
4C0
  3
UCSBASE
350
4C1
  3
UCSORGTOP
350
4C2
  3
UCSORGBOTTOM
350
4C3
  3
UCSORGLEFT
350
4C4
  3
UCSORGRIGHT
350
4C5
  3
UCSORGFRONT
350
4C6
  3
UCSORGBACK
350
4C7
  0
XRECORD
  5
4C9
102
{ACAD_REACTORS
330
4C8
102
}
330
4C8
100
AcDbXrecord
340
A
  0
XRECORD
  5
4CB
102
{ACAD_REACTORS
330
4CA
102
}
330
4CA
100
AcDbXrecord
340
B
  0
MLINESTYLE
  5
1C
102
{ACAD_REACTORS
330
1B
102
}
330
1B
100
AcDbMlineStyle
  2
STANDARD
 70
     0
  3

 62
     0
 51
90.00000000000019
 52
90.00000000000019
 71
     2
 49
0.5
 62
   256
  6
BYLAYER
 49
-0.5
 62
   256
  6
BYLAYER
  0
ACDBPLACEHOLDER
  5
1D
102
{ACAD_REACTORS
330
1F
102
}
330
1F
100
AcDbPlaceHolder
280
     0
  0
XRECORD
  5
4A8
102
{ACAD_REACTORS
330
4A7
102
}
330
4A7
100
AcDbXrecord
 90
        0
  0
XRECORD
  5
4A9
102
{ACAD_REACTORS
330
4A7
102
}
330
4A7
100
AcDbXrecord
 90
        0
  0
XRECORD
  5
4AA
102
{ACAD_REACTORS
330
4A7
102
}
330
4A7
100
AcDbXrecord
  1

  0
XRECORD
  5
4AB
102
{ACAD_REACTORS
330
4A7
102
}
330
4A7
100
AcDbXrecord
  1

  0
XRECORD
  5
4AC
102
{ACAD_REACTORS
330
4A7
102
}
330
4A7
100
AcDbXrecord
340
1E
  0
XRECORD
  5
4AD
102
{ACAD_REACTORS
330
4A7
102
}
330
4A7
100
AcDbXrecord
340
21
  0
XRECORD
  5
4AE
102
{ACAD_REACTORS
330
4A7
102
}
330
4A7
100
AcDbXrecord
340
1F
  0
XRECORD
  5
4AF
102
{ACAD_REACTORS
330
4A7
102
}
330
4A7
100
AcDbXrecord
 90
    10752
  0
XRECORD
  5
4B0
102
{ACAD_REACTORS
330
4A7
102
}
330
4A7
100
AcDbXrecord
 90
        0
  0
XRECORD
  5
4B1
102
{ACAD_REACTORS
330
4A7
102
}
330
4A7
100
AcDbXrecord
 90
        0
  0
XRECORD
  5
4B2
102
{ACAD_REACTORS
330
4A7
102
}
330
4A7
100
AcDbXrecord
  1

  0
XRECORD
  5
4B3
102
{ACAD_REACTORS
330
4A7
102
}
330
4A7
100
AcDbXrecord
  1
{AD62C094-451C-11D7-9DDF-00B0D0207C84}
  0
XRECORD
  5
4B4
102
{ACAD_REACTORS
330
4A7
102
}
330
4A7
100
AcDbXrecord
 40
0.0
  0
XRECORD
  5
4B5
102
{ACAD_REACTORS
330
4A7
102
}
330
4A7
100
AcDbXrecord
1000
DSTYLE
1002
{
1070
   278
 70
     0
1070
   371
 70
     0
1070
   372
 70
     0
1002
}
  0
XRECORD
  5
4B6
102
{ACAD_REACTORS
330
4A7
102
}
330
4A7
100
AcDbXrecord
340
0
  0
XRECORD
  5
4B7
102
{ACAD_REACTORS
330
4A7
102
}
330
4A7
100
AcDbXrecord
 70
     0
  0
XRECORD
  5
4B8
102
{ACAD_REACTORS
330
4A7
102
}
330
4A7
100
AcDbXrecord
340
0
  0
XRECORD
  5
4B9
102
{ACAD_REACTORS
330
4A7
102
}
330
4A7
100
AcDbXrecord
 10
0.0
 20
0.0
 30
0.0
  0
XRECORD
  5
4BA
102
{ACAD_REACTORS
330
4A7
102
}
330
4A7
100
AcDbXrecord
 10
0.0
 20
0.0
 30
0.0
  0
XRECORD
  5
4BB
102
{ACAD_REACTORS
330
4A7
102
}
330
4A7
100
AcDbXrecord
 10
0.0
 20
0.0
 30
0.0
  0
XRECORD
  5
4BC
102
{ACAD_REACTORS
330
4A7
102
}
330
4A7
100
AcDbXrecord
 10
0.0
 20
0.0
 30
0.0
  0
XRECORD
  5
4BD
102
{ACAD_REACTORS
330
4A7
102
}
330
4A7
100
AcDbXrecord
 10
0.0
 20
0.0
 30
0.0
  0
XRECORD
  5
4BE
102
{ACAD_REACTORS
330
4A7
102
}
330
4A7
100
AcDbXrecord
 10
0.0
 20
0.0
 30
0.0
  0
XRECORD
  5
4BF
102
{ACAD_REACTORS
330
4A7
102
}
330
4A7
100
AcDbXrecord
340
0
  0
XRECORD
  5
4C0
102
{ACAD_REACTORS
330
4A7
102
}
330
4A7
100
AcDbXrecord
 70
     0
  0
XRECORD
  5
4C1
102
{ACAD_REACTORS
330
4A7
102
}
330
4A7
100
AcDbXrecord
340
0
  0
XRECORD
  5
4C2
102
{ACAD_REACTORS
330
4A7
102
}
330
4A7
100
AcDbXrecord
 10
0.0
 20
0.0
 30
0.0
  0
XRECORD
  5
4C3
102
{ACAD_REACTORS
330
4A7
102
}
330
4A7
100
AcDbXrecord
 10
0.0
 20
0.0
 30
0.0
  0
XRECORD
  5
4C4
102
{ACAD_REACTORS
330
4A7
102
}
330
4A7
100
AcDbXrecord
 10
0.0
 20
0.0
 30
0.0
  0
XRECORD
  5
4C5
102
{ACAD_REACTORS
330
4A7
102
}
330
4A7
100
AcDbXrecord
 10
0.0
 20
0.0
 30
0.0
  0
XRECORD
  5
4C6
102
{ACAD_REACTORS
330
4A7
102
}
330
4A7
100
AcDbXrecord
 10
0.0
 20
0.0
 30
0.0
  0
XRECORD
  5
4C7
102
{ACAD_REACTORS
330
4A7
102
}
330
4A7
100
AcDbXrecord
 10
0.0
 20
0.0
 30
0.0
  0
ENDSEC
  0
EOF
