  0
SECTION
  2
HEADER
  9
$ACADVER
  1
AC1014
  9
$ACADMAINTVER
 70
     9
  9
$DWGCODEPAGE
  3
ANSI_1252
  9
$INSBASE
 10
0.0
 20
0.0
 30
0.0
  9
$EXTMIN
 10
58.35728545251305
 20
19.40792309736426
 30
-0.0015258207003583
  9
$EXTMAX
 10
93.68775498805357
 20
111.995727565824
 30
0.0000000349246037
  9
$LIMMIN
 10
-0.5
 20
-0.5
  9
$LIMMAX
 10
5.0
 20
5.0
  9
$ORTHOMODE
 70
     0
  9
$REGENMODE
 70
     1
  9
$FILLMODE
 70
     1
  9
$QTEXTMODE
 70
     0
  9
$MIRRTEXT
 70
     1
  9
$DRAGMODE
 70
     2
  9
$LTSCALE
 40
1.0
  9
$OSMODE
 70
    37
  9
$ATTMODE
 70
     1
  9
$TEXTSIZE
 40
0.0
  9
$TRACEWID
 40
0.05
  9
$TEXTSTYLE
  7
STANDARD
  9
$CLAYER
  8
0
  9
$CELTYPE
  6
CONTINUOUS
  9
$CECOLOR
 62
   256
  9
$CELTSCALE
 40
1.0
  9
$DELOBJ
 70
     1
  9
$DISPSILH
 70
     0
  9
$DIMSCALE
 40
1.0
  9
$DIMASZ
 40
0.18
  9
$DIMEXO
 40
0.0625
  9
$DIMDLI
 40
0.38
  9
$DIMRND
 40
0.0
  9
$DIMDLE
 40
0.0
  9
$DIMEXE
 40
0.18
  9
$DIMTP
 40
0.0
  9
$DIMTM
 40
0.0
  9
$DIMTXT
 40
0.18
  9
$DIMCEN
 40
0.09
  9
$DIMTSZ
 40
0.0
  9
$DIMTOL
 70
     0
  9
$DIMLIM
 70
     0
  9
$DIMTIH
 70
     1
  9
$DIMTOH
 70
     1
  9
$DIMSE1
 70
     0
  9
$DIMSE2
 70
     0
  9
$DIMTAD
 70
     0
  9
$DIMZIN
 70
     0
  9
$DIMBLK
  1

  9
$DIMASO
 70
     1
  9
$DIMSHO
 70
     1
  9
$DIMPOST
  1

  9
$DIMAPOST
  1

  9
$DIMALT
 70
     0
  9
$DIMALTD
 70
     2
  9
$DIMALTF
 40
25.4
  9
$DIMLFAC
 40
1.0
  9
$DIMTOFL
 70
     0
  9
$DIMTVP
 40
0.0
  9
$DIMTIX
 70
     0
  9
$DIMSOXD
 70
     0
  9
$DIMSAH
 70
     0
  9
$DIMBLK1
  1

  9
$DIMBLK2
  1

  9
$DIMSTYLE
  2
STANDARD
  9
$DIMCLRD
 70
     0
  9
$DIMCLRE
 70
     0
  9
$DIMCLRT
 70
     0
  9
$DIMTFAC
 40
1.0
  9
$DIMGAP
 40
0.09
  9
$DIMJUST
 70
     0
  9
$DIMSD1
 70
     0
  9
$DIMSD2
 70
     0
  9
$DIMTOLJ
 70
     1
  9
$DIMTZIN
 70
     0
  9
$DIMALTZ
 70
     0
  9
$DIMALTTZ
 70
     0
  9
$DIMFIT
 70
     3
  9
$DIMUPT
 70
     0
  9
$DIMUNIT
 70
     2
  9
$DIMDEC
 70
     4
  9
$DIMTDEC
 70
     4
  9
$DIMALTU
 70
     2
  9
$DIMALTTD
 70
     2
  9
$DIMTXSTY
  7
STANDARD
  9
$DIMAUNIT
 70
     0
  9
$LUNITS
 70
     2
  9
$LUPREC
 70
     4
  9
$SKETCHINC
 40
0.1
  9
$FILLETRAD
 40
0.0
  9
$AUNITS
 70
     0
  9
$AUPREC
 70
     0
  9
$MENU
  1
acad
  9
$ELEVATION
 40
0.0
  9
$PELEVATION
 40
0.0
  9
$THICKNESS
 40
0.0
  9
$LIMCHECK
 70
     0
  9
$BLIPMODE
 70
     0
  9
$CHAMFERA
 40
0.0
  9
$CHAMFERB
 40
0.0
  9
$CHAMFERC
 40
0.0
  9
$CHAMFERD
 40
0.0
  9
$SKPOLY
 70
     0
  9
$TDCREATE
 40
2453930.604372095
  9
$TDUPDATE
 40
2453930.609864421
  9
$TDINDWG
 40
0.0054928704
  9
$TDUSRTIMER
 40
0.0054928704
  9
$USRTIMER
 70
     1
  9
$ANGBASE
 50
0.0
  9
$ANGDIR
 70
     0
  9
$PDMODE
 70
     0
  9
$PDSIZE
 40
0.0
  9
$PLINEWID
 40
0.0
  9
$COORDS
 70
     1
  9
$SPLFRAME
 70
     0
  9
$SPLINETYPE
 70
     6
  9
$SPLINESEGS
 70
     8
  9
$ATTDIA
 70
     0
  9
$ATTREQ
 70
     1
  9
$HANDLING
 70
-16383
  9
$HANDSEED
  5
27B
  9
$SURFTAB1
 70
     6
  9
$SURFTAB2
 70
     6
  9
$SURFTYPE
 70
     6
  9
$SURFU
 70
     6
  9
$SURFV
 70
     6
  9
$UCSNAME
  2

  9
$UCSORG
 10
0.0
 20
0.0
 30
0.0
  9
$UCSXDIR
 10
1.0
 20
0.0
 30
0.0
  9
$UCSYDIR
 10
0.0
 20
1.0
 30
0.0
  9
$PUCSNAME
  2

  9
$PUCSORG
 10
0.0
 20
0.0
 30
0.0
  9
$PUCSXDIR
 10
1.0
 20
0.0
 30
0.0
  9
$PUCSYDIR
 10
0.0
 20
1.0
 30
0.0
  9
$USERI1
 70
     0
  9
$USERI2
 70
     0
  9
$USERI3
 70
     0
  9
$USERI4
 70
     0
  9
$USERI5
 70
     0
  9
$USERR1
 40
0.0
  9
$USERR2
 40
0.0
  9
$USERR3
 40
0.0
  9
$USERR4
 40
0.0
  9
$USERR5
 40
0.0
  9
$WORLDVIEW
 70
     1
  9
$SHADEDGE
 70
     3
  9
$SHADEDIF
 70
    70
  9
$TILEMODE
 70
     1
  9
$MAXACTVP
 70
    64
  9
$PINSBASE
 10
0.0
 20
0.0
 30
0.0
  9
$PLIMCHECK
 70
     0
  9
$PEXTMIN
 10
1.000000000000000E+20
 20
1.000000000000000E+20
 30
1.000000000000000E+20
  9
$PEXTMAX
 10
-1.000000000000000E+20
 20
-1.000000000000000E+20
 30
-1.000000000000000E+20
  9
$PLIMMIN
 10
-0.7112501249538632
 20
-0.6979166691697488
  9
$PLIMMAX
 10
10.28874963475024
 20
7.802083090534359
  9
$UNITMODE
 70
     0
  9
$VISRETAIN
 70
     0
  9
$PLINEGEN
 70
     1
  9
$PSLTSCALE
 70
     0
  9
$TREEDEPTH
 70
  3020
  9
$PICKSTYLE
 70
     1
  9
$CMLSTYLE
  2
STANDARD
  9
$CMLJUST
 70
     0
  9
$CMLSCALE
 40
1.0
  9
$PROXYGRAPHICS
 70
     0
  9
$MEASUREMENT
 70
     0
  0
ENDSEC
  0
SECTION
  2
CLASSES
  0
CLASS
  1
LWPOLYLINE
  2
AcDbPolyline
  3
AutoCAD 2000
 90
        0
280
     0
281
     1
  0
CLASS
  1
IMAGE
  2
AcDbRasterImage
  3
ISM
 90
      127
280
     0
281
     1
  0
CLASS
  1
OLE2FRAME
  2
AcDbOle2Frame
  3
AutoCAD 2000
 90
        0
280
     0
281
     1
  0
CLASS
  1
HATCH
  2
AcDbHatch
  3
AutoCAD 2000
 90
        0
280
     0
281
     1
  0
CLASS
  1
DICTIONARYVAR
  2
AcDbDictionaryVar
  3
AutoCAD 2000
 90
        0
280
     0
281
     0
  0
CLASS
  1
RASTERVARIABLES
  2
AcDbRasterVariables
  3
ISM
 90
        0
280
     0
281
     0
  0
CLASS
  1
IMAGEDEF
  2
AcDbRasterImageDef
  3
ISM
 90
        0
280
     0
281
     0
  0
CLASS
  1
IMAGEDEF_REACTOR
  2
AcDbRasterImageDefReactor
  3
ISM
 90
        1
280
     0
281
     0
  0
CLASS
  1
IDBUFFER
  2
AcDbIdBuffer
  3
AutoCAD 2000
 90
        0
280
     0
281
     0
  0
CLASS
  1
SPATIAL_FILTER
  2
AcDbSpatialFilter
  3
AutoCAD 2000
 90
        0
280
     0
281
     0
  0
CLASS
  1
XRECORD
  2
AcDbXrecord
  3
AutoCAD 2000
 90
        0
280
     0
281
     0
  0
CLASS
  1
SORTENTSTABLE
  2
AcDbSortentsTable
  3
AutoCAD 2000
 90
        0
280
     0
281
     0
  0
CLASS
  1
LAYER_INDEX
  2
AcDbLayerIndex
  3
AutoCAD 2000
 90
        0
280
     0
281
     0
  0
CLASS
  1
SPATIAL_INDEX
  2
AcDbSpatialIndex
  3
AutoCAD 2000
 90
        0
280
     0
281
     0
  0
CLASS
  1
OBJECT_PTR
  2
CAseDLPNTableRecord
  3
ASE-LPNTableRecord
 90
        1
280
     0
281
     0
  0
CLASS
  1
LAYOUT
  2
AcDbLayout
  3
AutoCAD 2000
 90
        0
280
     0
281
     0
  0
CLASS
  1
PLOTSETTINGS
  2
AcDbPlotSettings
  3
AutoCAD 2000
 90
        0
280
     0
281
     0
  0
CLASS
  1
ACDBDICTIONARYWDFLT
  2
AcDbDictionaryWithDefault
  3
AutoCAD 2000
 90
        0
280
     0
281
     0
  0
CLASS
  1
ACDBPLACEHOLDER
  2
AcDbPlaceHolder
  3
AutoCAD 2000
 90
        0
280
     0
281
     0
  0
CLASS
  1
VBA_PROJECT
  2
AcDbVbaProject
  3
acadvba
 90
        0
280
     0
281
     0
  0
CLASS
  1
WIPEOUT
  2
AcDbWipeout
  3
WipeOut|AutoCAD Express Tool|expresstools@autodesk.com
 90
      127
280
     0
281
     1
  0
CLASS
  1
WIPEOUTVARIABLES
  2
AcDbWipeoutVariables
  3
WipeOut|AutoCAD Express Tool|expresstools@autodesk.com
 90
        0
280
     0
281
     0
  0
CLASS
  1
RTEXT
  2
RText
  3
RText|AutoCAD Express Tool|expresstools@autodesk.com
 90
        0
280
     0
281
     1
  0
CLASS
  1
ARCALIGNEDTEXT
  2
AcDbArcAlignedText
  3
ATEXT|AutoCAD Express Tool|expresstools@autodesk.com
 90
        0
280
     0
281
     1
  0
CLASS
  1
ACAD_PROXY_OBJECT_WRAPPER
  2
AcDbProxyObjectWrapper
  3
AutoCAD 2000
 90
        0
280
     0
281
     0
  0
CLASS
  1
LONG_TRANSACTION
  2
AcDbLongTransaction
  3
AutoCAD 2000
 90
        0
280
     0
281
     0
  0
CLASS
  1
LWPOLYLINE
  2
AcDbPolyline
  3
AutoCAD 2000
 90
        0
280
     0
281
     1
  0
CLASS
  1
HATCH
  2
AcDbHatch
  3
AutoCAD 2000
 90
        0
280
     0
281
     1
  0
CLASS
  1
XRECORD
  2
AcDbXrecord
  3
AutoCAD 2000
 90
        0
280
     0
281
     0
  0
ENDSEC
  0
SECTION
  2
TABLES
  0
TABLE
  2
VPORT
  5
7
330
0
100
AcDbSymbolTable
 70
    18
  0
VPORT
  5
1BA
330
7
100
AcDbSymbolTableRecord
100
AcDbViewportTableRecord
  2
L1
 70
     0
 10
0.0
 20
0.0
 11
1.0
 21
1.0
 12
0.0
 22
0.0
 13
0.0
 23
0.0
 14
1.0
 24
1.0
 15
0.0
 25
0.0
 16
0.7188730927569434
 26
-0.5850486126764432
 36
0.3754192287502549
 17
0.0
 27
0.0
 37
0.0
 40
49.36145728255011
 41
0.688564
 42
50.0
 43
24.45113319013988
 44
-24.45113319013988
 50
0.0
 51
0.0
 71
    16
 72
   100
 73
     1
 74
     1
 75
     0
 76
     0
 77
     0
 78
     0
  0
VPORT
  5
1BB
330
7
100
AcDbSymbolTableRecord
100
AcDbViewportTableRecord
  2
L2
 70
     0
 10
0.0
 20
0.0
 11
0.5
 21
1.0
 12
0.0
 22
0.0
 13
0.0
 23
0.0
 14
1.0
 24
1.0
 15
0.0
 25
0.0
 16
0.0
 26
-1.0
 36
0.0
 17
0.0
 27
0.0
 37
0.0
 40
47.7095281758827
 41
0.688564
 42
50.0
 43
24.4929862032499
 44
-24.4929862032499
 50
0.0
 51
0.0
 71
    16
 72
   100
 73
     1
 74
     1
 75
     0
 76
     0
 77
     0
 78
     0
  0
VPORT
  5
1BC
330
7
100
AcDbSymbolTableRecord
100
AcDbViewportTableRecord
  2
L2
 70
     0
 10
0.5
 20
0.0
 11
1.0
 21
1.0
 12
0.0
 22
0.0
 13
0.0
 23
0.0
 14
1.0
 24
1.0
 15
0.0
 25
0.0
 16
1.0
 26
0.0
 36
0.0
 17
0.0
 27
0.0
 37
0.0
 40
47.7095281758827
 41
0.688564
 42
50.0
 43
24.19163789524538
 44
-24.19163789524538
 50
0.0
 51
0.0
 71
    16
 72
   100
 73
     1
 74
     1
 75
     0
 76
     0
 77
     0
 78
     0
  0
VPORT
  5
1BD
330
7
100
AcDbSymbolTableRecord
100
AcDbViewportTableRecord
  2
L3
 70
     0
 10
0.0
 20
0.5
 11
1.0
 21
1.0
 12
0.0
 22
0.0
 13
0.0
 23
0.0
 14
1.0
 24
1.0
 15
0.0
 25
0.0
 16
0.0
 26
0.0
 36
1.0
 17
0.0
 27
0.0
 37
0.0
 40
8.046259842519685
 41
0.688564
 42
50.0
 43
23.85476408794135
 44
-23.85476408794135
 50
0.0
 51
0.0
 71
    16
 72
   100
 73
     1
 74
     1
 75
     0
 76
     0
 77
     0
 78
     0
  0
VPORT
  5
1BE
330
7
100
AcDbSymbolTableRecord
100
AcDbViewportTableRecord
  2
L3
 70
     0
 10
0.0
 20
0.0
 11
1.0
 21
0.5
 12
0.0
 22
0.0
 13
0.0
 23
0.0
 14
1.0
 24
1.0
 15
0.0
 25
0.0
 16
0.0
 26
-1.0
 36
0.0
 17
0.0
 27
0.0
 37
0.0
 40
47.7095281758827
 41
0.688564
 42
50.0
 43
24.4929862032499
 44
-24.4929862032499
 50
0.0
 51
0.0
 71
    16
 72
   100
 73
     1
 74
     1
 75
     0
 76
     0
 77
     0
 78
     0
  0
VPORT
  5
1BF
330
7
100
AcDbSymbolTableRecord
100
AcDbViewportTableRecord
  2
L4
 70
     0
 10
0.0
 20
0.5
 11
0.5
 21
1.0
 12
0.0
 22
0.0
 13
0.0
 23
0.0
 14
1.0
 24
1.0
 15
0.0
 25
0.0
 16
0.0
 26
0.0
 36
1.0
 17
0.0
 27
0.0
 37
0.0
 40
8.046259842519685
 41
0.688564
 42
50.0
 43
23.85476408794135
 44
-23.85476408794135
 50
0.0
 51
0.0
 71
    16
 72
   100
 73
     1
 74
     1
 75
     0
 76
     0
 77
     0
 78
     0
  0
VPORT
  5
1C0
330
7
100
AcDbSymbolTableRecord
100
AcDbViewportTableRecord
  2
L4
 70
     0
 10
0.0
 20
0.0
 11
0.5
 21
0.5
 12
0.0
 22
0.0
 13
0.0
 23
0.0
 14
1.0
 24
1.0
 15
0.0
 25
0.0
 16
0.0
 26
-1.0
 36
0.0
 17
0.0
 27
0.0
 37
0.0
 40
47.7095281758827
 41
0.688564
 42
50.0
 43
24.4929862032499
 44
-24.4929862032499
 50
0.0
 51
0.0
 71
    16
 72
   100
 73
     1
 74
     1
 75
     0
 76
     0
 77
     0
 78
     0
  0
VPORT
  5
1C1
330
7
100
AcDbSymbolTableRecord
100
AcDbViewportTableRecord
  2
L4
 70
     0
 10
0.5
 20
0.0
 11
1.0
 21
0.5
 12
0.0
 22
0.0
 13
0.0
 23
0.0
 14
1.0
 24
1.0
 15
0.0
 25
0.0
 16
1.0
 26
0.0
 36
0.0
 17
0.0
 27
0.0
 37
0.0
 40
47.7095281758827
 41
0.688564
 42
50.0
 43
24.19163789524538
 44
-24.19163789524538
 50
0.0
 51
0.0
 71
    16
 72
   100
 73
     1
 74
     1
 75
     0
 76
     0
 77
     0
 78
     0
  0
VPORT
  5
1C2
330
7
100
AcDbSymbolTableRecord
100
AcDbViewportTableRecord
  2
L4
 70
     0
 10
0.5
 20
0.5
 11
1.0
 21
1.0
 12
0.0
 22
0.0
 13
0.0
 23
0.0
 14
1.0
 24
1.0
 15
0.0
 25
0.0
 16
0.5773502691896259
 26
-0.5773502691896259
 36
0.5773502691896259
 17
0.0
 27
0.0
 37
0.0
 40
46.77507249268574
 41
0.6885639999999999
 42
50.0
 43
24.34842731119064
 44
-24.34842731119064
 50
0.0
 51
0.0
 71
    16
 72
   100
 73
     1
 74
     1
 75
     0
 76
     0
 77
     0
 78
     0
  0
VPORT
  5
1C3
330
7
100
AcDbSymbolTableRecord
100
AcDbViewportTableRecord
  2
L6
 70
     0
 10
0.0
 20
0.5
 11
0.3333333333333334
 21
1.0
 12
0.0
 22
0.0
 13
0.0
 23
0.0
 14
1.0
 24
1.0
 15
0.0
 25
0.0
 16
0.7188730927569434
 26
-0.5850486126764432
 36
0.3754192287502549
 17
0.0
 27
0.0
 37
0.0
 40
49.36145728255011
 41
0.688564
 42
50.0
 43
24.45113319013988
 44
-24.45113319013988
 50
0.0
 51
0.0
 71
    16
 72
   100
 73
     1
 74
     1
 75
     0
 76
     0
 77
     0
 78
     0
  0
VPORT
  5
1C4
330
7
100
AcDbSymbolTableRecord
100
AcDbViewportTableRecord
  2
L6
 70
     0
 10
0.0
 20
0.0
 11
0.3333333333333334
 21
0.5
 12
0.0
 22
0.0
 13
0.0
 23
0.0
 14
1.0
 24
1.0
 15
0.0
 25
0.0
 16
-1.0
 26
0.0
 36
0.0
 17
0.0
 27
0.0
 37
0.0
 40
47.7095281758827
 41
0.688564
 42
50.0
 43
24.19163789524538
 44
-24.19163789524538
 50
0.0
 51
0.0
 71
    16
 72
   100
 73
     1
 74
     1
 75
     0
 76
     0
 77
     0
 78
     0
  0
VPORT
  5
1C5
330
7
100
AcDbSymbolTableRecord
100
AcDbViewportTableRecord
  2
L6
 70
     0
 10
0.3333333333333334
 20
0.5
 11
0.6666666666666666
 21
1.0
 12
0.0
 22
0.0
 13
0.0
 23
0.0
 14
1.0
 24
1.0
 15
0.0
 25
0.0
 16
0.0
 26
0.0
 36
1.0
 17
0.0
 27
0.0
 37
0.0
 40
8.046259842519685
 41
0.688564
 42
50.0
 43
23.85476408794135
 44
-23.85476408794135
 50
0.0
 51
0.0
 71
    16
 72
   100
 73
     1
 74
     1
 75
     0
 76
     0
 77
     0
 78
     0
  0
VPORT
  5
1C6
330
7
100
AcDbSymbolTableRecord
100
AcDbViewportTableRecord
  2
L6
 70
     0
 10
0.3333333333333334
 20
0.0
 11
0.6666666666666666
 21
0.5
 12
0.0
 22
0.0
 13
0.0
 23
0.0
 14
1.0
 24
1.0
 15
0.0
 25
0.0
 16
0.0
 26
-1.0
 36
0.0
 17
0.0
 27
0.0
 37
0.0
 40
47.7095281758827
 41
0.688564
 42
50.0
 43
24.4929862032499
 44
-24.4929862032499
 50
0.0
 51
0.0
 71
    16
 72
   100
 73
     1
 74
     1
 75
     0
 76
     0
 77
     0
 78
     0
  0
VPORT
  5
1C7
330
7
100
AcDbSymbolTableRecord
100
AcDbViewportTableRecord
  2
L6
 70
     0
 10
0.6666666666666666
 20
0.5
 11
1.0
 21
1.0
 12
0.0
 22
0.0
 13
0.0
 23
0.0
 14
1.0
 24
1.0
 15
0.0
 25
0.0
 16
0.5773502691896259
 26
-0.5773502691896259
 36
0.5773502691896259
 17
0.0
 27
0.0
 37
0.0
 40
46.77507249268574
 41
0.6885639999999999
 42
50.0
 43
24.34842731119064
 44
-24.34842731119064
 50
0.0
 51
0.0
 71
    16
 72
   100
 73
     1
 74
     1
 75
     0
 76
     0
 77
     0
 78
     0
  0
VPORT
  5
1C8
330
7
100
AcDbSymbolTableRecord
100
AcDbViewportTableRecord
  2
L6
 70
     0
 10
0.6666666666666666
 20
0.0
 11
1.0
 21
0.5
 12
0.0
 22
0.0
 13
0.0
 23
0.0
 14
1.0
 24
1.0
 15
0.0
 25
0.0
 16
1.0
 26
0.0
 36
0.0
 17
0.0
 27
0.0
 37
0.0
 40
47.7095281758827
 41
0.688564
 42
50.0
 43
24.19163789524538
 44
-24.19163789524538
 50
0.0
 51
0.0
 71
    16
 72
   100
 73
     1
 74
     1
 75
     0
 76
     0
 77
     0
 78
     0
  0
VPORT
  5
255
330
7
100
AcDbSymbolTableRecord
100
AcDbViewportTableRecord
  2
*ACTIVE
 70
     0
 10
0.0
 20
0.0
 11
1.0
 21
1.0
 12
76.0225202202833
 22
65.70182533159417
 13
0.0
 23
0.0
 14
1.0
 24
1.0
 15
0.0
 25
0.0
 16
0.0
 26
0.0
 36
1.0
 17
0.0
 27
0.0
 37
0.0
 40
93.31876081952662
 41
1.550724637681159
 42
50.0
 43
24.45113319013988
 44
-24.45113319013988
 50
0.0
 51
0.0
 71
    16
 72
   100
 73
     1
 74
     1
 75
     0
 76
     0
 77
     0
 78
     0
  0
ENDTAB
  0
TABLE
  2
LTYPE
  5
4
330
0
100
AcDbSymbolTable
 70
     7
  0
LTYPE
  5
11
330
4
100
AcDbSymbolTableRecord
100
AcDbLinetypeTableRecord
  2
BYBLOCK
 70
     0
  3

 72
    65
 73
     0
 40
0.0
  0
LTYPE
  5
12
330
4
100
AcDbSymbolTableRecord
100
AcDbLinetypeTableRecord
  2
BYLAYER
 70
     0
  3

 72
    65
 73
     0
 40
0.0
  0
LTYPE
  5
13
330
4
100
AcDbSymbolTableRecord
100
AcDbLinetypeTableRecord
  2
CONTINUOUS
 70
     0
  3
Solid line
 72
    65
 73
     0
 40
0.0
  0
LTYPE
  5
24
330
4
100
AcDbSymbolTableRecord
100
AcDbLinetypeTableRecord
  2
DASHED
 70
     0
  3
__ __ __ __ __ __ __ __ __
 72
    65
 73
     2
 40
0.75
 49
0.5
 74
     0
 49
-0.25
 74
     0
  0
LTYPE
  5
25
330
4
100
AcDbSymbolTableRecord
100
AcDbLinetypeTableRecord
  2
HIDDEN
 70
     0
  3
_ _ _ _ _ _ _ _ _ _ _ _ _ _ _
 72
    65
 73
     2
 40
0.5
 49
0.25
 74
     0
 49
-0.25
 74
     0
  0
LTYPE
  5
26
330
4
100
AcDbSymbolTableRecord
100
AcDbLinetypeTableRecord
  2
PHANTOM
 70
     0
  3
____ _ _ ____ _ _ _____ _ _ ____
 72
    65
 73
     6
 40
2.5
 49
1.25
 74
     0
 49
-0.25
 74
     0
 49
0.25
 74
     0
 49
-0.25
 74
     0
 49
0.25
 74
     0
 49
-0.25
 74
     0
  0
LTYPE
  5
27
330
4
100
AcDbSymbolTableRecord
100
AcDbLinetypeTableRecord
  2
CENTER
 70
     0
  3
____ _ ____ _ ____ _ ____
 72
    65
 73
     4
 40
2.0
 49
1.25
 74
     0
 49
-0.25
 74
     0
 49
0.25
 74
     0
 49
-0.25
 74
     0
  0
LTYPE
  5
28
330
4
100
AcDbSymbolTableRecord
100
AcDbLinetypeTableRecord
  2
DOT
 70
     0
  3
.........................
 72
    65
 73
     2
 40
0.25
 49
0.0
 74
     0
 49
-0.25
 74
     0
  0
LTYPE
  5
29
330
4
100
AcDbSymbolTableRecord
100
AcDbLinetypeTableRecord
  2
DASHDOT
 70
     0
  3
_._._._._._._._._._._._._._._._.
 72
    65
 73
     4
 40
1.0
 49
0.5
 74
     0
 49
-0.25
 74
     0
 49
0.0
 74
     0
 49
-0.25
 74
     0
  0
ENDTAB
  0
TABLE
  2
LAYER
  5
2
330
0
100
AcDbSymbolTable
 70
     3
  0
LAYER
  5
14
330
2
100
AcDbSymbolTableRecord
100
AcDbLayerTableRecord
  2
0
 70
     0
 62
     7
  6
CONTINUOUS
  0
LAYER
  5
2B
330
2
100
AcDbSymbolTableRecord
100
AcDbLayerTableRecord
  2
1
 70
     0
 62
     7
  6
CONTINUOUS
  0
LAYER
  5
1DF
330
2
100
AcDbSymbolTableRecord
100
AcDbLayerTableRecord
  2
DEFPOINTS
 70
     0
 62
     7
  6
CONTINUOUS
  0
ENDTAB
  0
TABLE
  2
STYLE
  5
3
330
0
100
AcDbSymbolTable
 70
     1
  0
STYLE
  5
17
330
3
100
AcDbSymbolTableRecord
100
AcDbTextStyleTableRecord
  2
STANDARD
 70
     0
 40
0.0
 41
1.0
 50
0.0
 71
     0
 42
0.0
  3
txt
  4

  0
ENDTAB
  0
TABLE
  2
VIEW
  5
5
330
0
100
AcDbSymbolTable
 70
     8
  0
VIEW
  5
1B1
330
5
100
AcDbSymbolTableRecord
100
AcDbViewTableRecord
  2
TOP
 70
     0
 40
8.046259842519685
 10
0.0
 20
0.0
 41
11.10974409448819
 11
0.0
 21
0.0
 31
1.0
 12
0.0
 22
0.0
 32
0.0
 42
50.0
 43
23.85476408794135
 44
-23.85476408794135
 50
0.0
 71
    16
  0
VIEW
  5
1B2
330
5
100
AcDbSymbolTableRecord
100
AcDbViewTableRecord
  2
FRONT
 70
     0
 40
47.7095281758827
 10
0.0
 20
0.0
 41
11.10974409448819
 11
0.0
 21
-1.0
 31
0.0
 12
0.0
 22
0.0
 32
0.0
 42
50.0
 43
24.4929862032499
 44
-24.4929862032499
 50
0.0
 71
    16
  0
VIEW
  5
1B3
330
5
100
AcDbSymbolTableRecord
100
AcDbViewTableRecord
  2
RIGHT
 70
     0
 40
47.7095281758827
 10
0.0
 20
0.0
 41
8.046259842519685
 11
1.0
 21
0.0
 31
0.0
 12
0.0
 22
0.0
 32
0.0
 42
50.0
 43
24.19163789524538
 44
-24.19163789524538
 50
0.0
 71
    16
  0
VIEW
  5
1B4
330
5
100
AcDbSymbolTableRecord
100
AcDbViewTableRecord
  2
BACK
 70
     0
 40
47.7095281758827
 10
0.0
 20
0.0
 41
11.10974409448819
 11
0.0
 21
1.0
 31
0.0
 12
0.0
 22
0.0
 32
0.0
 42
50.0
 43
24.4929862032499
 44
-24.4929862032499
 50
0.0
 71
    16
  0
VIEW
  5
1B5
330
5
100
AcDbSymbolTableRecord
100
AcDbViewTableRecord
  2
BOTTOM
 70
     0
 40
8.046259842519685
 10
0.0
 20
0.0
 41
11.10974409448819
 11
0.0
 21
0.0
 31
-1.0
 12
0.0
 22
0.0
 32
0.0
 42
50.0
 43
23.85476408794135
 44
-23.85476408794135
 50
180.0
 71
    16
  0
VIEW
  5
1B6
330
5
100
AcDbSymbolTableRecord
100
AcDbViewTableRecord
  2
LEFT
 70
     0
 40
47.7095281758827
 10
0.0
 20
0.0
 41
8.046259842519685
 11
-1.0
 21
0.0
 31
0.0
 12
0.0
 22
0.0
 32
0.0
 42
50.0
 43
24.19163789524538
 44
-24.19163789524538
 50
0.0
 71
    16
  0
VIEW
  5
1B7
330
5
100
AcDbSymbolTableRecord
100
AcDbViewTableRecord
  2
TFR-ISO
 70
     0
 40
46.77507249268574
 10
0.0
 20
0.0
 41
13.54534028429447
 11
0.5773502691896259
 21
-0.5773502691896259
 31
0.5773502691896259
 12
0.0
 22
0.0
 32
0.0
 42
50.0
 43
24.34842731119064
 44
-24.34842731119064
 50
0.0
 71
    16
  0
VIEW
  5
1B8
330
5
100
AcDbSymbolTableRecord
100
AcDbViewTableRecord
  2
TFR-TRI
 70
     0
 40
49.36145728255011
 10
0.0
 20
0.0
 41
13.25339837892084
 11
0.7188730927569434
 21
-0.5850486126764432
 31
0.3754192287502549
 12
0.0
 22
0.0
 32
0.0
 42
50.0
 43
24.45113319013988
 44
-24.45113319013988
 50
0.0
 71
    16
  0
ENDTAB
  0
TABLE
  2
UCS
  5
6
330
0
100
AcDbSymbolTable
 70
     0
  0
ENDTAB
  0
TABLE
  2
APPID
  5
8
330
0
100
AcDbSymbolTable
 70
     1
  0
APPID
  5
16
330
8
100
AcDbSymbolTableRecord
100
AcDbRegAppTableRecord
  2
ACAD
 70
     0
  0
ENDTAB
  0
TABLE
  2
DIMSTYLE
  5
9
330
0
100
AcDbSymbolTable
 70
     1
  0
DIMSTYLE
105
18
330
9
100
AcDbSymbolTableRecord
100
AcDbDimStyleTableRecord
  2
STANDARD
 70
     0
  3

  4

  5

  6

  7

 40
1.0
 41
0.18
 42
0.0625
 43
0.38
 44
0.18
 45
0.0
 46
0.0
 47
0.0
 48
0.0
140
0.18
141
0.09
142
0.0
143
25.4
144
1.0
145
0.0
146
1.0
147
0.09
 71
     0
 72
     0
 73
     1
 74
     1
 75
     0
 76
     0
 77
     0
 78
     0
170
     0
171
     2
172
     0
173
     0
174
     0
175
     0
176
     0
177
     0
178
     0
270
     2
271
     4
272
     4
273
     2
274
     2
340
17
275
     0
280
     0
281
     0
282
     0
283
     1
284
     0
285
     0
286
     0
287
     3
288
     0
  0
ENDTAB
  0
TABLE
  2
BLOCK_RECORD
  5
1
330
0
100
AcDbSymbolTable
 70
     1
  0
BLOCK_RECORD
  5
A
102
{ACAD_XDICTIONARY
360
277
102
}
330
1
100
AcDbSymbolTableRecord
100
AcDbBlockTableRecord
  2
*MODEL_SPACE
  0
BLOCK_RECORD
  5
B
102
{ACAD_XDICTIONARY
360
279
102
}
330
1
100
AcDbSymbolTableRecord
100
AcDbBlockTableRecord
  2
*PAPER_SPACE
  0
BLOCK_RECORD
  5
1E0
330
1
100
AcDbSymbolTableRecord
100
AcDbBlockTableRecord
  2
*D0
  0
ENDTAB
  0
ENDSEC
  0
SECTION
  2
BLOCKS
  0
BLOCK
  5
D
330
A
100
AcDbEntity
  8
0
100
AcDbBlockBegin
  2
*MODEL_SPACE
 70
     0
 10
0.0
 20
0.0
 30
0.0
  3
*MODEL_SPACE
  1

  0
ENDBLK
  5
E
330
A
100
AcDbEntity
  8
0
100
AcDbBlockEnd
  0
BLOCK
  5
F
330
B
100
AcDbEntity
 67
     1
  8
0
100
AcDbBlockBegin
  2
*PAPER_SPACE
 70
     0
 10
0.0
 20
0.0
 30
0.0
  3
*PAPER_SPACE
  1

  0
ENDBLK
  5
10
330
B
100
AcDbEntity
 67
     1
  8
0
100
AcDbBlockEnd
  0
BLOCK
  5
1EB
330
1E0
100
AcDbEntity
  8
0
100
AcDbBlockBegin
  2
*D0
 70
     1
 10
0.0
 20
0.0
 30
0.0
  3
*D0
  1

  0
LINE
  5
1E1
330
1E0
100
AcDbEntity
  8
0
  6
CONTINUOUS
 62
     0
100
AcDbLine
 10
59.16695404052735
 20
100.0361328125
 30
0.0
 11
50.72426182642569
 21
100.0361328125
 31
0.0
  0
LINE
  5
1E2
330
1E0
100
AcDbEntity
  8
0
  6
CONTINUOUS
 62
     0
100
AcDbLine
 10
59.1066551208496
 20
19.41613006591796
 30
0.0
 11
50.72426182642567
 21
19.41613006591797
 31
0.0
  0
LINE
  5
1E3
330
1E0
100
AcDbEntity
  8
0
  6
CONTINUOUS
 62
     0
100
AcDbLine
 10
50.90426182642569
 20
99.8561328125
 30
0.0
 11
50.90426182642568
 21
59.90613143920898
 31
0.0
  0
LINE
  5
1E4
330
1E0
100
AcDbEntity
  8
0
  6
CONTINUOUS
 62
     0
100
AcDbLine
 10
50.90426182642567
 20
19.59613006591797
 30
0.0
 11
50.90426182642568
 21
59.54613143920898
 31
0.0
  0
SOLID
  5
1E5
330
1E0
100
AcDbEntity
  8
0
  6
CONTINUOUS
 62
     0
100
AcDbTrace
 10
50.87426182642569
 20
99.8561328125
 30
0.0
 11
50.93426182642569
 21
99.8561328125
 31
0.0
 12
50.90426182642569
 22
100.0361328125
 32
0.0
 13
50.90426182642569
 23
100.0361328125
 33
0.0
  0
SOLID
  5
1E6
330
1E0
100
AcDbEntity
  8
0
  6
CONTINUOUS
 62
     0
100
AcDbTrace
 10
50.87426182642567
 20
19.59613006591797
 30
0.0
 11
50.93426182642567
 21
19.59613006591797
 31
0.0
 12
50.90426182642567
 22
19.41613006591797
 32
0.0
 13
50.90426182642567
 23
19.41613006591797
 33
0.0
  0
MTEXT
  5
1E7
330
1E0
100
AcDbEntity
  8
0
  6
CONTINUOUS
 62
     0
100
AcDbMText
 10
50.90426182642567
 20
59.726131439209
 30
0.0
 40
0.18
 41
0.0
 71
     5
 72
     1
  1
\A1;80.6200
1001
ACAD
1000
MTEXTBEGIN
1070
    73
1070
     1
1070
    44
1040
1.0
1070
    74
1070
     0
1000
MTEXTEND
  0
POINT
  5
1E8
330
1E0
100
AcDbEntity
  8
DEFPOINTS
  6
CONTINUOUS
 62
     0
100
AcDbPoint
 10
59.22945404052734
 20
100.0361328125
 30
0.0
  0
POINT
  5
1E9
330
1E0
100
AcDbEntity
  8
DEFPOINTS
  6
CONTINUOUS
 62
     0
100
AcDbPoint
 10
59.16915512084961
 20
19.41613006591796
 30
0.0
  0
POINT
  5
1EA
330
1E0
100
AcDbEntity
  8
DEFPOINTS
  6
CONTINUOUS
 62
     0
100
AcDbPoint
 10
50.90426182642567
 20
19.41613006591797
 30
0.0
  0
ENDBLK
  5
1EC
330
1E0
100
AcDbEntity
  8
0
100
AcDbBlockEnd
  0
ENDSEC
  0
SECTION
  2
ENTITIES
  0
LINE
  5
2A
330
A
100
AcDbEntity
  8
1
  6
CONTINUOUS
 62
     3
100
AcDbLine
 10
65.04105377197266
 20
59.64453125
 30
0.0
 11
65.04105377197266
 21
19.49773025512695
 31
0.0
  0
LINE
  5
2C
330
A
100
AcDbEntity
  8
1
  6
CONTINUOUS
 62
     5
100
AcDbLine
 10
65.15299224853515
 20
111.6938934326171
 30
0.0
 11
65.15265655517578
 21
111.6938934326171
 31
0.0
  0
LINE
  5
2D
330
A
100
AcDbEntity
  8
1
  6
CONTINUOUS
 62
     3
100
AcDbLine
 10
62.04105377197265
 20
59.64453125
 30
0.0
 11
62.04105377197265
 21
59.72613143920899
 31
0.0
  0
LINE
  5
2E
330
A
100
AcDbEntity
  8
1
  6
CONTINUOUS
 62
     3
100
AcDbLine
 10
62.04105377197265
 20
59.64453125
 30
0.0
 11
62.01984024047852
 21
59.64453125
 31
0.0
  0
LINE
  5
2F
330
A
100
AcDbEntity
  8
1
  6
CONTINUOUS
 62
     3
100
AcDbLine
 10
67.85295867919922
 20
59.72613143920899
 30
0.0
 11
65.1529541015625
 21
59.72613143920899
 31
0.0
  0
LINE
  5
30
330
A
100
AcDbEntity
  8
1
  6
CONTINUOUS
 62
     3
100
AcDbLine
 10
62.04105377197265
 20
19.49773025512695
 30
0.0
 11
62.01984024047852
 21
19.49773025512695
 31
0.0
  0
LINE
  5
31
330
A
100
AcDbEntity
  8
1
  6
CONTINUOUS
 62
     5
100
AcDbLine
 10
59.16945648193359
 20
111.6938934326171
 30
0.0
 11
58.44515609741211
 21
111.6938934326171
 31
0.0
  0
LINE
  5
32
330
A
100
AcDbEntity
  8
1
  6
CONTINUOUS
 62
     3
100
AcDbLine
 10
62.01105499267578
 20
59.64453125
 30
0.0
 11
62.01105499267578
 21
19.49773025512695
 31
0.0
  0
LINE
  5
33
330
A
100
AcDbEntity
  8
1
  6
CONTINUOUS
 62
     5
100
AcDbLine
 10
59.16945648193359
 20
111.6938934326171
 30
0.0
 11
59.16945648193359
 21
111.830696105957
 31
0.0
  0
LINE
  5
34
330
A
100
AcDbEntity
  8
1
  6
CONTINUOUS
 62
     3
100
AcDbLine
 10
62.01105499267578
 20
59.64453125
 30
0.0
 11
61.98715591430664
 21
59.64453125
 31
0.0
  0
LINE
  5
35
330
A
100
AcDbEntity
  8
1
  6
CONTINUOUS
 62
     3
100
AcDbLine
 10
61.98715591430664
 20
59.64453125
 30
0.0
 11
61.92945480346679
 21
59.64453125
 31
0.0
  0
LINE
  5
36
330
A
100
AcDbEntity
  8
1
  6
CONTINUOUS
 62
     3
100
AcDbLine
 10
62.01105499267578
 20
19.49773025512695
 30
0.0
 11
61.98715591430664
 21
19.49773025512695
 31
0.0
  0
LINE
  5
37
330
A
100
AcDbEntity
  8
1
  6
CONTINUOUS
 62
     3
100
AcDbLine
 10
61.98715591430664
 20
19.49773025512695
 30
0.0
 11
61.92945480346679
 21
19.49773025512695
 31
0.0
  0
LINE
  5
38
330
A
100
AcDbEntity
  8
1
  6
CONTINUOUS
 62
     3
100
AcDbLine
 10
61.92945480346679
 20
59.64453125
 30
0.0
 11
61.92945480346679
 21
19.49773025512695
 31
0.0
  0
LINE
  5
39
330
A
100
AcDbEntity
  8
1
  6
CONTINUOUS
 62
     3
100
AcDbLine
 10
61.92945480346679
 20
59.64453125
 30
0.0
 11
59.22945404052734
 21
59.64453125
 31
0.0
  0
LINE
  5
3A
330
A
100
AcDbEntity
  8
1
  6
CONTINUOUS
 62
     3
100
AcDbLine
 10
59.16945648193359
 20
59.64453125
 30
0.0
 11
58.44515609741211
 21
59.64453125
 31
0.0
  0
LINE
  5
3B
330
A
100
AcDbEntity
  8
1
  6
CONTINUOUS
 62
     3
100
AcDbLine
 10
58.44515609741211
 20
59.64453125
 30
0.0
 11
58.44515609741211
 21
19.49773025512695
 31
0.0
  0
LINE
  5
3C
330
A
100
AcDbEntity
  8
1
  6
CONTINUOUS
 62
     3
100
AcDbLine
 10
58.44515609741211
 20
19.49773025512695
 30
0.0
 11
59.16915512084961
 21
19.49773025512695
 31
0.0
  0
LINE
  5
3D
330
A
100
AcDbEntity
  8
1
  6
CONTINUOUS
 62
     3
100
AcDbLine
 10
59.22945404052734
 20
59.70222854614258
 30
0.0
 11
59.22945404052734
 21
59.72613143920899
 31
0.0
  0
LINE
  5
3E
330
A
100
AcDbEntity
  8
1
  6
CONTINUOUS
 62
     3
100
AcDbLine
 10
59.22915649414062
 20
19.49773025512695
 30
0.0
 11
61.92915344238281
 21
19.49773025512695
 31
0.0
  0
LINE
  5
3F
330
A
100
AcDbEntity
  8
1
  6
CONTINUOUS
 62
     3
100
AcDbLine
 10
65.04105377197266
 20
59.64453125
 30
0.0
 11
65.06227111816406
 21
59.64453125
 31
0.0
  0
LINE
  5
40
330
A
100
AcDbEntity
  8
1
  6
CONTINUOUS
 62
     3
100
AcDbLine
 10
65.06227111816406
 20
59.64453125
 30
0.0
 11
65.07105255126953
 21
59.64453125
 31
0.0
  0
LINE
  5
41
330
A
100
AcDbEntity
  8
1
  6
CONTINUOUS
 62
     3
100
AcDbLine
 10
65.04105377197266
 20
19.49773025512695
 30
0.0
 11
65.06227111816406
 21
19.49773025512695
 31
0.0
  0
LINE
  5
42
330
A
100
AcDbEntity
  8
1
  6
CONTINUOUS
 62
     3
100
AcDbLine
 10
65.06227111816406
 20
19.49773025512695
 30
0.0
 11
65.07105255126953
 21
19.49773025512695
 31
0.0
  0
LINE
  5
43
330
A
100
AcDbEntity
  8
1
  6
CONTINUOUS
 62
     3
100
AcDbLine
 10
65.07105255126953
 20
19.49773025512695
 30
0.0
 11
65.07105255126953
 21
59.64453125
 31
0.0
  0
LINE
  5
44
330
A
100
AcDbEntity
  8
1
  6
CONTINUOUS
 62
     3
100
AcDbLine
 10
65.07105255126953
 20
19.49773025512695
 30
0.0
 11
65.09495544433594
 21
19.49773025512695
 31
0.0
  0
LINE
  5
45
330
A
100
AcDbEntity
  8
1
  6
CONTINUOUS
 62
     3
100
AcDbLine
 10
65.09495544433594
 20
19.49773025512695
 30
0.0
 11
65.15265655517578
 21
19.49773025512695
 31
0.0
  0
LINE
  5
46
330
A
100
AcDbEntity
  8
1
  6
CONTINUOUS
 62
     3
100
AcDbLine
 10
65.07105255126953
 20
59.64453125
 30
0.0
 11
65.09495544433594
 21
59.64453125
 31
0.0
  0
LINE
  5
47
330
A
100
AcDbEntity
  8
1
  6
CONTINUOUS
 62
     3
100
AcDbLine
 10
65.04105377197266
 20
19.41613006591796
 30
0.0
 11
62.04105377197265
 21
19.41613006591796
 31
0.0
  0
LINE
  5
48
330
A
100
AcDbEntity
  8
1
  6
CONTINUOUS
 62
     3
100
AcDbLine
 10
65.09495544433594
 20
59.64453125
 30
0.0
 11
65.15265655517578
 21
59.64453125
 31
0.0
  0
LINE
  5
49
330
A
100
AcDbEntity
  8
1
  6
CONTINUOUS
 62
     5
100
AcDbLine
 10
59.16945648193359
 20
111.6122970581054
 30
0.0
 11
59.16945648193359
 21
111.6361923217773
 31
0.0
  0
LINE
  5
4A
330
A
100
AcDbEntity
  8
1
  6
CONTINUOUS
 62
     3
100
AcDbLine
 10
65.15265655517578
 20
19.49773025512695
 30
0.0
 11
65.15265655517578
 21
59.64453125
 31
0.0
  0
LINE
  5
4B
330
A
100
AcDbEntity
  8
1
  6
CONTINUOUS
 62
     5
100
AcDbLine
 10
59.16945648193359
 20
111.6361923217773
 30
0.0
 11
59.16945648193359
 21
111.6938934326171
 31
0.0
  0
LINE
  5
4C
330
A
100
AcDbEntity
  8
1
  6
CONTINUOUS
 62
     3
100
AcDbLine
 10
65.15265655517578
 20
19.49773025512695
 30
0.0
 11
67.85265350341797
 21
19.49773025512695
 31
0.0
  0
LINE
  5
4D
330
A
100
AcDbEntity
  8
1
  6
CONTINUOUS
 62
     3
100
AcDbLine
 10
67.91265869140625
 20
19.49773025512695
 30
0.0
 11
68.63695526123047
 21
19.49773025512695
 31
0.0
  0
LINE
  5
4E
330
A
100
AcDbEntity
  8
1
  6
CONTINUOUS
 62
     3
100
AcDbLine
 10
68.63695526123047
 20
19.49773025512695
 30
0.0
 11
68.63695526123047
 21
59.64453125
 31
0.0
  0
LINE
  5
4F
330
A
100
AcDbEntity
  8
1
  6
CONTINUOUS
 62
     3
100
AcDbLine
 10
68.63695526123047
 20
59.64453125
 30
0.0
 11
67.91295623779297
 21
59.64453125
 31
0.0
  0
LINE
  5
50
330
A
100
AcDbEntity
  8
1
  6
CONTINUOUS
 62
     3
100
AcDbLine
 10
67.85295867919922
 20
59.64453125
 30
0.0
 11
65.1529541015625
 21
59.64453125
 31
0.0
  0
LINE
  5
51
330
A
100
AcDbEntity
  8
1
  6
CONTINUOUS
 62
     3
100
AcDbLine
 10
58.44515609741211
 20
59.64453125
 30
0.0
 11
58.38745498657226
 21
59.64453125
 31
0.0
  0
LINE
  5
52
330
A
100
AcDbEntity
  8
1
  6
CONTINUOUS
 62
     3
100
AcDbLine
 10
58.38745498657226
 20
59.64453125
 30
0.0
 11
58.36355590820312
 21
59.64453125
 31
0.0
  0
LINE
  5
53
330
A
100
AcDbEntity
  8
1
  6
CONTINUOUS
 62
     3
100
AcDbLine
 10
58.44515609741211
 20
19.49773025512695
 30
0.0
 11
58.38745498657226
 21
19.49773025512695
 31
0.0
  0
LINE
  5
54
330
A
100
AcDbEntity
  8
1
  6
CONTINUOUS
 62
     3
100
AcDbLine
 10
58.38745498657226
 20
19.49773025512695
 30
0.0
 11
58.36355590820312
 21
19.49773025512695
 31
0.0
  0
LINE
  5
55
330
A
100
AcDbEntity
  8
1
  6
CONTINUOUS
 62
     5
100
AcDbLine
 10
68.63695526123047
 20
59.80772781372071
 30
0.0
 11
68.63695526123047
 21
99.95452880859375
 31
0.0
  0
LINE
  5
56
330
A
100
AcDbEntity
  8
1
  6
CONTINUOUS
 62
     5
100
AcDbLine
 10
62.01105499267578
 20
99.95452880859375
 30
0.0
 11
61.98715591430664
 21
99.95452880859375
 31
0.0
  0
LINE
  5
57
330
A
100
AcDbEntity
  8
1
  6
CONTINUOUS
 62
     5
100
AcDbLine
 10
93.38395690917968
 20
59.72613143920899
 30
0.0
 11
93.52075195312499
 21
59.72613143920899
 31
0.0
  0
LINE
  5
58
330
A
100
AcDbEntity
  8
1
  6
CONTINUOUS
 62
     5
100
AcDbLine
 10
93.30235290527344
 20
99.95452880859375
 30
0.0
 11
93.32625579833985
 21
99.95452880859375
 31
0.0
  0
LINE
  5
59
330
A
100
AcDbEntity
  8
1
  6
CONTINUOUS
 62
     5
100
AcDbLine
 10
62.04105377197265
 20
111.9122924804687
 30
0.0
 11
62.04105377197265
 21
111.8606948852539
 31
0.0
  0
LINE
  5
5A
330
A
100
AcDbEntity
  8
1
  6
CONTINUOUS
 62
     5
100
AcDbLine
 10
65.15265655517578
 20
99.95452880859375
 30
0.0
 11
65.1529541015625
 21
99.95452880859375
 31
0.0
  0
LINE
  5
5B
330
A
100
AcDbEntity
  8
1
  6
CONTINUOUS
 62
     5
100
AcDbLine
 10
93.30235290527344
 20
59.80772781372071
 30
0.0
 11
93.30235290527344
 21
99.95452880859375
 31
0.0
  0
LINE
  5
5C
330
A
100
AcDbEntity
  8
1
  6
CONTINUOUS
 62
     5
100
AcDbLine
 10
59.22915649414062
 20
59.80772781372071
 30
0.0
 11
59.16915512084961
 21
59.80772781372071
 31
0.0
  0
LINE
  5
5D
330
A
100
AcDbEntity
  8
1
  6
CONTINUOUS
 62
     5
100
AcDbLine
 10
65.06227111816406
 20
59.80772781372071
 30
0.0
 11
65.07105255126953
 21
59.80772781372071
 31
0.0
  0
LINE
  5
5E
330
A
100
AcDbEntity
  8
1
  6
CONTINUOUS
 62
     3
100
AcDbLine
 10
67.91265869140625
 20
19.41613006591796
 30
0.0
 11
68.63695526123047
 21
19.41613006591796
 31
0.0
  0
LINE
  5
5F
330
A
100
AcDbEntity
  8
1
  6
CONTINUOUS
 62
     5
100
AcDbLine
 10
59.22945404052734
 20
99.95452880859375
 30
0.0
 11
59.16945648193359
 21
99.95452880859375
 31
0.0
  0
LINE
  5
60
330
A
100
AcDbEntity
  8
1
  6
CONTINUOUS
 62
     5
100
AcDbLine
 10
67.85295867919922
 20
99.95452880859375
 30
0.0
 11
67.91295623779297
 21
99.95452880859375
 31
0.0
  0
LINE
  5
61
330
A
100
AcDbEntity
  8
1
  6
CONTINUOUS
 62
     5
100
AcDbLine
 10
65.15265655517578
 20
111.6122970581054
 30
0.0
 11
65.1529541015625
 21
111.6122970581054
 31
0.0
  0
LINE
  5
62
330
A
100
AcDbEntity
  8
1
  6
CONTINUOUS
 62
     5
100
AcDbLine
 10
58.36355590820312
 20
111.9106903076171
 30
0.0
 11
58.36355590820312
 21
111.968391418457
 31
0.0
  0
LINE
  5
63
330
A
100
AcDbEntity
  8
1
  6
CONTINUOUS
 62
     5
100
AcDbLine
 10
68.71855163574219
 20
59.80772781372071
 30
0.0
 11
68.71855163574219
 21
99.95452880859375
 31
0.0
  0
LINE
  5
64
330
A
100
AcDbEntity
  8
1
  6
CONTINUOUS
 62
     3
100
AcDbLine
 10
68.69465637207031
 20
19.49773025512695
 30
0.0
 11
68.71855163574219
 21
19.49773025512695
 31
0.0
  0
LINE
  5
65
330
A
100
AcDbEntity
  8
1
  6
CONTINUOUS
 62
     5
100
AcDbLine
 10
68.63695526123047
 20
111.6361923217773
 30
0.0
 11
68.63695526123047
 21
111.6938934326171
 31
0.0
  0
LINE
  5
66
330
A
100
AcDbEntity
  8
1
  6
CONTINUOUS
 62
     5
100
AcDbLine
 10
65.15265655517578
 20
59.80772781372071
 30
0.0
 11
67.85265350341797
 21
59.80772781372071
 31
0.0
  0
LINE
  5
67
330
A
100
AcDbEntity
  8
1
  6
CONTINUOUS
 62
     5
100
AcDbLine
 10
67.91265869140625
 20
59.80772781372071
 30
0.0
 11
68.63695526123047
 21
59.80772781372071
 31
0.0
  0
LINE
  5
68
330
A
100
AcDbEntity
  8
1
  6
CONTINUOUS
 62
     3
100
AcDbLine
 10
62.01984024047852
 20
59.64453125
 30
0.0
 11
62.01105499267578
 21
59.64453125
 31
0.0
  0
LINE
  5
69
330
A
100
AcDbEntity
  8
1
  6
CONTINUOUS
 62
     5
100
AcDbLine
 10
65.04105377197266
 20
59.80772781372071
 30
0.0
 11
65.06227111816406
 21
59.80772781372071
 31
0.0
  0
LINE
  5
6A
330
A
100
AcDbEntity
  8
1
  6
CONTINUOUS
 62
     5
100
AcDbLine
 10
65.15265655517578
 20
111.6726837158203
 30
0.0
 11
65.15265655517578
 21
111.6938934326171
 31
0.0
  0
LINE
  5
6B
330
A
100
AcDbEntity
  8
1
  6
CONTINUOUS
 62
     5
100
AcDbLine
 10
59.22945404052734
 20
100.0122299194335
 30
0.0
 11
59.22945404052734
 21
100.0361328125
 31
0.0
  0
LINE
  5
6C
330
A
100
AcDbEntity
  8
1
  6
CONTINUOUS
 62
     5
100
AcDbLine
 10
59.22915649414062
 20
59.80772781372071
 30
0.0
 11
61.92915344238281
 21
59.80772781372071
 31
0.0
  0
LINE
  5
6D
330
A
100
AcDbEntity
  8
1
  6
CONTINUOUS
 62
     5
100
AcDbLine
 10
61.92945480346679
 20
111.6938934326171
 30
0.0
 11
59.22945404052734
 21
111.6938934326171
 31
0.0
  0
LINE
  5
6E
330
A
100
AcDbEntity
  8
1
  6
CONTINUOUS
 62
     5
100
AcDbLine
 10
58.44515609741211
 20
111.6938934326171
 30
0.0
 11
58.44515609741211
 21
111.830696105957
 31
0.0
  0
LINE
  5
6F
330
A
100
AcDbEntity
  8
1
  6
CONTINUOUS
 62
     5
100
AcDbLine
 10
59.08785629272461
 20
111.9122924804687
 30
0.0
 11
58.52675628662109
 21
111.9122924804687
 31
0.0
  0
LINE
  5
70
330
A
100
AcDbEntity
  8
1
  6
CONTINUOUS
 62
     5
100
AcDbLine
 10
65.15265655517578
 20
111.6122970581054
 30
0.0
 11
65.15265655517578
 21
111.6638946533203
 31
0.0
  0
LINE
  5
71
330
A
100
AcDbEntity
  8
1
  6
CONTINUOUS
 62
     5
100
AcDbLine
 10
67.85265350341797
 20
59.80772781372071
 30
0.0
 11
67.91265869140625
 21
59.80772781372071
 31
0.0
  0
LINE
  5
72
330
A
100
AcDbEntity
  8
1
  6
CONTINUOUS
 62
     5
100
AcDbLine
 10
68.71855163574219
 20
111.6938934326171
 30
0.0
 11
68.66695404052734
 21
111.6938934326171
 31
0.0
  0
LINE
  5
73
330
A
100
AcDbEntity
  8
1
  6
CONTINUOUS
 62
     5
100
AcDbLine
 10
59.16945648193359
 20
99.95452880859375
 30
0.0
 11
58.44515609741211
 21
99.95452880859375
 31
0.0
  0
LINE
  5
74
330
A
100
AcDbEntity
  8
1
  6
CONTINUOUS
 62
     5
100
AcDbLine
 10
58.44515609741211
 20
99.95452880859375
 30
0.0
 11
58.44515609741211
 21
59.80772781372071
 31
0.0
  0
LINE
  5
75
330
A
100
AcDbEntity
  8
1
  6
CONTINUOUS
 62
     5
100
AcDbLine
 10
68.63695526123047
 20
111.6938934326171
 30
0.0
 11
67.91295623779297
 21
111.6938934326171
 31
0.0
  0
LINE
  5
76
330
A
100
AcDbEntity
  8
1
  6
CONTINUOUS
 62
     5
100
AcDbLine
 10
67.91295623779297
 20
111.6122970581054
 30
0.0
 11
67.91295623779297
 21
111.6361923217773
 31
0.0
  0
LINE
  5
77
330
A
100
AcDbEntity
  8
1
  6
CONTINUOUS
 62
     5
100
AcDbLine
 10
65.04105377197266
 20
100.0361328125
 30
0.0
 11
65.04105377197266
 21
99.95452880859375
 31
0.0
  0
LINE
  5
78
330
A
100
AcDbEntity
  8
1
  6
CONTINUOUS
 62
     5
100
AcDbLine
 10
62.04105377197265
 20
100.0361328125
 30
0.0
 11
65.04105377197266
 21
100.0361328125
 31
0.0
  0
LINE
  5
79
330
A
100
AcDbEntity
  8
1
  6
CONTINUOUS
 62
     5
100
AcDbLine
 10
68.66695404052734
 20
111.6938934326171
 30
0.0
 11
68.66695404052734
 21
111.9106903076171
 31
0.0
  0
LINE
  5
7A
330
A
100
AcDbEntity
  8
1
  6
CONTINUOUS
 62
     5
100
AcDbLine
 10
67.85295867919922
 20
111.6638946533203
 30
0.0
 11
67.91295623779297
 21
111.6638946533203
 31
0.0
  0
LINE
  5
7B
330
A
100
AcDbEntity
  8
1
  6
CONTINUOUS
 62
     5
100
AcDbLine
 10
61.92945480346679
 20
59.80772781372071
 30
0.0
 11
61.92915344238281
 21
59.80772781372071
 31
0.0
  0
LINE
  5
7C
330
A
100
AcDbEntity
  8
1
  6
CONTINUOUS
 62
     5
100
AcDbLine
 10
68.63695526123047
 20
99.95452880859375
 30
0.0
 11
68.69465637207031
 21
99.95452880859375
 31
0.0
  0
LINE
  5
7D
330
A
100
AcDbEntity
  8
1
  6
CONTINUOUS
 62
     5
100
AcDbLine
 10
68.69465637207031
 20
99.95452880859375
 30
0.0
 11
68.71855163574219
 21
99.95452880859375
 31
0.0
  0
LINE
  5
7E
330
A
100
AcDbEntity
  8
1
  6
CONTINUOUS
 62
     5
100
AcDbLine
 10
62.01105499267578
 20
111.830696105957
 30
0.0
 11
62.01105499267578
 21
111.6938934326171
 31
0.0
  0
LINE
  5
7F
330
A
100
AcDbEntity
  8
1
  6
CONTINUOUS
 62
     5
100
AcDbLine
 10
93.5507583618164
 20
99.98452758789063
 30
0.0
 11
93.5507583618164
 21
99.95452880859375
 31
0.0
  0
LINE
  5
80
330
A
100
AcDbEntity
  8
1
  6
CONTINUOUS
 62
     5
100
AcDbLine
 10
58.44515609741211
 20
111.6122970581054
 30
0.0
 11
58.44515609741211
 21
111.6361923217773
 31
0.0
  0
LINE
  5
81
330
A
100
AcDbEntity
  8
1
  6
CONTINUOUS
 62
     5
100
AcDbLine
 10
58.44515609741211
 20
111.6361923217773
 30
0.0
 11
58.44515609741211
 21
111.6938934326171
 31
0.0
  0
LINE
  5
82
330
A
100
AcDbEntity
  8
1
  6
CONTINUOUS
 62
     3
100
AcDbLine
 10
61.92945480346679
 20
19.49773025512695
 30
0.0
 11
61.92915344238281
 21
19.49773025512695
 31
0.0
  0
LINE
  5
83
330
A
100
AcDbEntity
  8
1
  6
CONTINUOUS
 62
     5
100
AcDbLine
 10
59.22915649414062
 20
59.72613143920899
 30
0.0
 11
61.92915344238281
 21
59.72613143920899
 31
0.0
  0
LINE
  5
84
330
A
100
AcDbEntity
  8
1
  6
CONTINUOUS
 62
     5
100
AcDbLine
 10
68.63695526123047
 20
100.0122299194335
 30
0.0
 11
68.63695526123047
 21
100.0361328125
 31
0.0
  0
LINE
  5
85
330
A
100
AcDbEntity
  8
1
  6
CONTINUOUS
 62
     5
100
AcDbLine
 10
67.91295623779297
 20
99.95452880859375
 30
0.0
 11
67.91295623779297
 21
100.0122299194335
 31
0.0
  0
LINE
  5
86
330
A
100
AcDbEntity
  8
1
  6
CONTINUOUS
 62
     5
100
AcDbLine
 10
68.63695526123047
 20
100.0361328125
 30
0.0
 11
67.91295623779297
 21
100.0361328125
 31
0.0
  0
LINE
  5
87
330
A
100
AcDbEntity
  8
1
  6
CONTINUOUS
 62
     5
100
AcDbLine
 10
65.15265655517578
 20
59.80772781372071
 30
0.0
 11
65.15265655517578
 21
59.75003051757813
 31
0.0
  0
LINE
  5
88
330
A
100
AcDbEntity
  8
1
  6
CONTINUOUS
 62
     5
100
AcDbLine
 10
65.15265655517578
 20
59.75003051757813
 30
0.0
 11
65.15265655517578
 21
59.72613143920899
 31
0.0
  0
LINE
  5
89
330
A
100
AcDbEntity
  8
1
  6
CONTINUOUS
 62
     5
100
AcDbLine
 10
67.85265350341797
 20
59.80772781372071
 30
0.0
 11
67.85265350341797
 21
59.75003051757813
 31
0.0
  0
LINE
  5
8A
330
A
100
AcDbEntity
  8
1
  6
CONTINUOUS
 62
     5
100
AcDbLine
 10
59.16945648193359
 20
111.6122970581054
 30
0.0
 11
58.44515609741211
 21
111.6122970581054
 31
0.0
  0
LINE
  5
8B
330
A
100
AcDbEntity
  8
1
  6
CONTINUOUS
 62
     5
100
AcDbLine
 10
61.95945358276367
 20
111.830696105957
 30
0.0
 11
61.95945358276367
 21
111.6938934326171
 31
0.0
  0
LINE
  5
8C
330
A
100
AcDbEntity
  8
1
  6
CONTINUOUS
 62
     5
100
AcDbLine
 10
58.41515350341797
 20
111.968391418457
 30
0.0
 11
58.41515350341797
 21
111.9106903076171
 31
0.0
  0
LINE
  5
8D
330
A
100
AcDbEntity
  8
1
  6
CONTINUOUS
 62
     3
100
AcDbLine
 10
68.63695526123047
 20
59.64453125
 30
0.0
 11
68.69465637207031
 21
59.64453125
 31
0.0
  0
LINE
  5
8E
330
A
100
AcDbEntity
  8
1
  6
CONTINUOUS
 62
     5
100
AcDbLine
 10
68.71855163574219
 20
111.968391418457
 30
0.0
 11
68.71855163574219
 21
111.9106903076171
 31
0.0
  0
LINE
  5
8F
330
A
100
AcDbEntity
  8
1
  6
CONTINUOUS
 62
     5
100
AcDbLine
 10
68.71855163574219
 20
111.9922943115234
 30
0.0
 11
68.71855163574219
 21
111.968391418457
 31
0.0
  0
LINE
  5
90
330
A
100
AcDbEntity
  8
1
  6
CONTINUOUS
 62
     5
100
AcDbLine
 10
58.44515609741211
 20
59.80772781372071
 30
0.0
 11
59.16915512084961
 21
59.80772781372071
 31
0.0
  0
LINE
  5
91
330
A
100
AcDbEntity
  8
1
  6
CONTINUOUS
 62
     5
100
AcDbLine
 10
62.01984024047852
 20
59.80772781372071
 30
0.0
 11
62.01105499267578
 21
59.80772781372071
 31
0.0
  0
LINE
  5
92
330
A
100
AcDbEntity
  8
1
  6
CONTINUOUS
 62
     3
100
AcDbLine
 10
65.04105377197266
 20
19.49773025512695
 30
0.0
 11
65.04105377197266
 21
19.41613006591796
 31
0.0
  0
LINE
  5
93
330
A
100
AcDbEntity
  8
1
  6
CONTINUOUS
 62
     5
100
AcDbLine
 10
62.96605682373047
 20
90.3861312866211
 30
0.0
 11
62.96605682373047
 21
90.42613220214844
 31
0.0
  0
LINE
  5
94
330
A
100
AcDbEntity
  8
1
  6
CONTINUOUS
 62
     5
100
AcDbLine
 10
65.07105255126953
 20
59.80772781372071
 30
0.0
 11
65.07105255126953
 21
99.95452880859375
 31
0.0
  0
LINE
  5
95
330
A
100
AcDbEntity
  8
1
  6
CONTINUOUS
 62
     5
100
AcDbLine
 10
61.98715591430664
 20
99.95452880859375
 30
0.0
 11
61.92945480346679
 21
99.95452880859375
 31
0.0
  0
LINE
  5
96
330
A
100
AcDbEntity
  8
1
  6
CONTINUOUS
 62
     5
100
AcDbLine
 10
59.22945404052734
 20
111.6361923217773
 30
0.0
 11
59.22945404052734
 21
111.6938934326171
 31
0.0
  0
LINE
  5
97
330
A
100
AcDbEntity
  8
1
  6
CONTINUOUS
 62
     5
100
AcDbLine
 10
68.55535125732422
 20
111.9122924804687
 30
0.0
 11
67.99455261230469
 21
111.9122924804687
 31
0.0
  0
LINE
  5
98
330
A
100
AcDbEntity
  8
1
  6
CONTINUOUS
 62
     5
100
AcDbLine
 10
68.63695526123047
 20
111.6122970581054
 30
0.0
 11
68.63695526123047
 21
111.6361923217773
 31
0.0
  0
LINE
  5
99
330
A
100
AcDbEntity
  8
1
  6
CONTINUOUS
 62
     5
100
AcDbLine
 10
68.66695404052734
 20
111.9922943115234
 30
0.0
 11
68.71855163574219
 21
111.9922943115234
 31
0.0
  0
LINE
  5
9A
330
A
100
AcDbEntity
  8
1
  6
CONTINUOUS
 62
     5
100
AcDbLine
 10
65.07105255126953
 20
111.6938934326171
 30
0.0
 11
65.12265777587891
 21
111.6938934326171
 31
0.0
  0
LINE
  5
9B
330
A
100
AcDbEntity
  8
1
  6
CONTINUOUS
 62
     5
100
AcDbLine
 10
61.95945358276367
 20
111.6938934326171
 30
0.0
 11
62.01105499267578
 21
111.6938934326171
 31
0.0
  0
LINE
  5
9C
330
A
100
AcDbEntity
  8
1
  6
CONTINUOUS
 62
     5
100
AcDbLine
 10
68.66695404052734
 20
111.9106903076171
 30
0.0
 11
68.66695404052734
 21
111.968391418457
 31
0.0
  0
LINE
  5
9D
330
A
100
AcDbEntity
  8
1
  6
CONTINUOUS
 62
     5
100
AcDbLine
 10
67.85295867919922
 20
99.95452880859375
 30
0.0
 11
67.85295867919922
 21
100.0122299194335
 31
0.0
  0
LINE
  5
9E
330
A
100
AcDbEntity
  8
1
  6
CONTINUOUS
 62
     3
100
AcDbLine
 10
93.57845306396484
 20
59.67453002929687
 30
0.0
 11
93.52075195312499
 21
59.67453002929687
 31
0.0
  0
LINE
  5
9F
330
A
100
AcDbEntity
  8
1
  6
CONTINUOUS
 62
     5
100
AcDbLine
 10
67.91295623779297
 20
100.0122299194335
 30
0.0
 11
67.91295623779297
 21
100.0361328125
 31
0.0
  0
LINE
  5
A0
330
A
100
AcDbEntity
  8
1
  6
CONTINUOUS
 62
     3
100
AcDbLine
 10
93.60235595703125
 20
19.46772956848144
 30
0.0
 11
93.60235595703125
 21
19.49773025512695
 31
0.0
  0
LINE
  5
A1
330
A
100
AcDbEntity
  8
1
  6
CONTINUOUS
 62
     5
100
AcDbLine
 10
93.57845306396484
 20
100.0361328125
 30
0.0
 11
93.60235595703125
 21
100.0361328125
 31
0.0
  0
LINE
  5
A2
330
A
100
AcDbEntity
  8
1
  6
CONTINUOUS
 62
     5
100
AcDbLine
 10
59.22945404052734
 20
111.6938934326171
 30
0.0
 11
59.22945404052734
 21
111.830696105957
 31
0.0
  0
LINE
  5
A3
330
A
100
AcDbEntity
  8
1
  6
CONTINUOUS
 62
     5
100
AcDbLine
 10
68.63695526123047
 20
99.95452880859375
 30
0.0
 11
67.91295623779297
 21
99.95452880859375
 31
0.0
  0
LINE
  5
A4
330
A
100
AcDbEntity
  8
1
  6
CONTINUOUS
 62
     5
100
AcDbLine
 10
67.85295867919922
 20
111.6122970581054
 30
0.0
 11
67.91295623779297
 21
111.6122970581054
 31
0.0
  0
LINE
  5
A5
330
A
100
AcDbEntity
  8
1
  6
CONTINUOUS
 62
     5
100
AcDbLine
 10
65.04105377197266
 20
99.95452880859375
 30
0.0
 11
65.06227111816406
 21
99.95452880859375
 31
0.0
  0
LINE
  5
A6
330
A
100
AcDbEntity
  8
1
  6
CONTINUOUS
 62
     3
100
AcDbLine
 10
62.01984024047852
 20
19.49773025512695
 30
0.0
 11
62.01105499267578
 21
19.49773025512695
 31
0.0
  0
LINE
  5
A7
330
A
100
AcDbEntity
  8
1
  6
CONTINUOUS
 62
     5
100
AcDbLine
 10
59.22945404052734
 20
111.6122970581054
 30
0.0
 11
59.16945648193359
 21
111.6122970581054
 31
0.0
  0
LINE
  5
A8
330
A
100
AcDbEntity
  8
1
  6
CONTINUOUS
 62
     5
100
AcDbLine
 10
67.91265869140625
 20
59.72613143920899
 30
0.0
 11
68.63695526123047
 21
59.72613143920899
 31
0.0
  0
LINE
  5
A9
330
A
100
AcDbEntity
  8
1
  6
CONTINUOUS
 62
     5
100
AcDbLine
 10
58.44515609741211
 20
99.95452880859375
 30
0.0
 11
58.38745498657226
 21
99.95452880859375
 31
0.0
  0
LINE
  5
AA
330
A
100
AcDbEntity
  8
1
  6
CONTINUOUS
 62
     5
100
AcDbLine
 10
65.09495544433594
 20
99.95452880859375
 30
0.0
 11
65.15265655517578
 21
99.95452880859375
 31
0.0
  0
LINE
  5
AB
330
A
100
AcDbEntity
  8
1
  6
CONTINUOUS
 62
     3
100
AcDbLine
 10
68.69465637207031
 20
59.64453125
 30
0.0
 11
68.71855163574219
 21
59.64453125
 31
0.0
  0
LINE
  5
AC
330
A
100
AcDbEntity
  8
1
  6
CONTINUOUS
 62
     5
100
AcDbLine
 10
65.15265655517578
 20
59.80772781372071
 30
0.0
 11
65.15265655517578
 21
99.95452880859375
 31
0.0
  0
LINE
  5
AD
330
A
100
AcDbEntity
  8
1
  6
CONTINUOUS
 62
     5
100
AcDbLine
 10
68.63695526123047
 20
99.95452880859375
 30
0.0
 11
68.63695526123047
 21
100.0122299194335
 31
0.0
  0
LINE
  5
AE
330
A
100
AcDbEntity
  8
1
  6
CONTINUOUS
 62
     5
100
AcDbLine
 10
61.92945480346679
 20
99.95452880859375
 30
0.0
 11
61.92945480346679
 21
100.0122299194335
 31
0.0
  0
LINE
  5
AF
330
A
100
AcDbEntity
  8
1
  6
CONTINUOUS
 62
     5
100
AcDbLine
 10
59.22915649414062
 20
111.6726837158203
 30
0.0
 11
59.22915649414062
 21
111.6938934326171
 31
0.0
  0
LINE
  5
B0
330
A
100
AcDbEntity
  8
1
  6
CONTINUOUS
 62
     5
100
AcDbLine
 10
59.2294921875
 20
111.6938934326171
 30
0.0
 11
59.22915649414062
 21
111.6938934326171
 31
0.0
  0
LINE
  5
B1
330
A
100
AcDbEntity
  8
1
  6
CONTINUOUS
 62
     5
100
AcDbLine
 10
65.04105377197266
 20
59.72613143920899
 30
0.0
 11
62.04105377197265
 21
59.72613143920899
 31
0.0
  0
LINE
  5
B2
330
A
100
AcDbEntity
  8
1
  6
CONTINUOUS
 62
     3
100
AcDbLine
 10
65.1529541015625
 20
59.70222854614258
 30
0.0
 11
65.1529541015625
 21
59.72613143920899
 31
0.0
  0
LINE
  5
B3
330
A
100
AcDbEntity
  8
1
  6
CONTINUOUS
 62
     5
100
AcDbLine
 10
58.36355590820312
 20
111.9922943115234
 30
0.0
 11
58.41515350341797
 21
111.9922943115234
 31
0.0
  0
LINE
  5
B4
330
A
100
AcDbEntity
  8
1
  6
CONTINUOUS
 62
     3
100
AcDbLine
 10
59.22915649414062
 20
19.49773025512695
 30
0.0
 11
59.16915512084961
 21
19.49773025512695
 31
0.0
  0
LINE
  5
B5
330
A
100
AcDbEntity
  8
1
  6
CONTINUOUS
 62
     5
100
AcDbLine
 10
65.15265655517578
 20
111.6938934326171
 30
0.0
 11
65.15265655517578
 21
111.830696105957
 31
0.0
  0
LINE
  5
B6
330
A
100
AcDbEntity
  8
1
  6
CONTINUOUS
 62
     5
100
AcDbLine
 10
68.69465637207031
 20
59.80772781372071
 30
0.0
 11
68.71855163574219
 21
59.80772781372071
 31
0.0
  0
LINE
  5
B7
330
A
100
AcDbEntity
  8
1
  6
CONTINUOUS
 62
     5
100
AcDbLine
 10
61.92945480346679
 20
99.95452880859375
 30
0.0
 11
61.92945480346679
 21
59.80772781372071
 31
0.0
  0
LINE
  5
B8
330
A
100
AcDbEntity
  8
1
  6
CONTINUOUS
 62
     5
100
AcDbLine
 10
61.92945480346679
 20
99.95452880859375
 30
0.0
 11
59.22945404052734
 21
99.95452880859375
 31
0.0
  0
LINE
  5
B9
330
A
100
AcDbEntity
  8
1
  6
CONTINUOUS
 62
     3
100
AcDbLine
 10
93.38395690917968
 20
59.64453125
 30
0.0
 11
93.60075378417969
 21
59.64453125
 31
0.0
  0
LINE
  5
BA
330
A
100
AcDbEntity
  8
1
  6
CONTINUOUS
 62
     5
100
AcDbLine
 10
58.38745498657226
 20
59.80772781372071
 30
0.0
 11
58.36355590820312
 21
59.80772781372071
 31
0.0
  0
LINE
  5
BB
330
A
100
AcDbEntity
  8
1
  6
CONTINUOUS
 62
     3
100
AcDbLine
 10
62.04105377197265
 20
19.41613006591796
 30
0.0
 11
62.04105377197265
 21
19.49773025512695
 31
0.0
  0
LINE
  5
BC
330
A
100
AcDbEntity
  8
1
  6
CONTINUOUS
 62
     5
100
AcDbLine
 10
65.04105377197266
 20
59.80772781372071
 30
0.0
 11
65.04105377197266
 21
59.72613143920899
 31
0.0
  0
LINE
  5
BD
330
A
100
AcDbEntity
  8
1
  6
CONTINUOUS
 62
     5
100
AcDbLine
 10
65.04105377197266
 20
99.95452880859375
 30
0.0
 11
65.04105377197266
 21
59.80772781372071
 31
0.0
  0
LINE
  5
BE
330
A
100
AcDbEntity
  8
1
  6
CONTINUOUS
 62
     5
100
AcDbLine
 10
65.07105255126953
 20
59.80772781372071
 30
0.0
 11
65.09495544433594
 21
59.80772781372071
 31
0.0
  0
LINE
  5
BF
330
A
100
AcDbEntity
  8
1
  6
CONTINUOUS
 62
     5
100
AcDbLine
 10
58.36355590820312
 20
111.6938934326171
 30
0.0
 11
58.36355590820312
 21
111.9106903076171
 31
0.0
  0
LINE
  5
C0
330
A
100
AcDbEntity
  8
1
  6
CONTINUOUS
 62
     5
100
AcDbLine
 10
61.95945358276367
 20
111.830696105957
 30
0.0
 11
62.01105499267578
 21
111.830696105957
 31
0.0
  0
LINE
  5
C1
330
A
100
AcDbEntity
  8
1
  6
CONTINUOUS
 62
     5
100
AcDbLine
 10
68.63695526123047
 20
111.6938934326171
 30
0.0
 11
68.63695526123047
 21
111.830696105957
 31
0.0
  0
LINE
  5
C2
330
A
100
AcDbEntity
  8
1
  6
CONTINUOUS
 62
     5
100
AcDbLine
 10
61.92945480346679
 20
111.6122970581054
 30
0.0
 11
59.22945404052734
 21
111.6122970581054
 31
0.0
  0
LINE
  5
C3
330
A
100
AcDbEntity
  8
1
  6
CONTINUOUS
 62
     5
100
AcDbLine
 10
68.71855163574219
 20
111.9106903076171
 30
0.0
 11
68.66695404052734
 21
111.9106903076171
 31
0.0
  0
LINE
  5
C4
330
A
100
AcDbEntity
  8
1
  6
CONTINUOUS
 62
     5
100
AcDbLine
 10
65.15265655517578
 20
111.6638946533203
 30
0.0
 11
65.15265655517578
 21
111.6726837158203
 31
0.0
  0
LINE
  5
C5
330
A
100
AcDbEntity
  8
1
  6
CONTINUOUS
 62
     5
100
AcDbLine
 10
67.85295867919922
 20
111.6122970581054
 30
0.0
 11
65.1529541015625
 21
111.6122970581054
 31
0.0
  0
LINE
  5
C6
330
A
100
AcDbEntity
  8
1
  6
CONTINUOUS
 62
     3
100
AcDbLine
 10
68.63695526123047
 20
19.49773025512695
 30
0.0
 11
68.63695526123047
 21
19.4400291442871
 31
0.0
  0
LINE
  5
C7
330
A
100
AcDbEntity
  8
1
  6
CONTINUOUS
 62
     3
100
AcDbLine
 10
93.60235595703125
 20
59.72613143920899
 30
0.0
 11
93.60235595703125
 21
59.67453002929687
 31
0.0
  0
LINE
  5
C8
330
A
100
AcDbEntity
  8
1
  6
CONTINUOUS
 62
     5
100
AcDbLine
 10
58.41515350341797
 20
111.9106903076171
 30
0.0
 11
58.36355590820312
 21
111.9106903076171
 31
0.0
  0
LINE
  5
C9
330
A
100
AcDbEntity
  8
1
  6
CONTINUOUS
 62
     3
100
AcDbLine
 10
93.60235595703125
 20
59.64453125
 30
0.0
 11
93.60235595703125
 21
59.67453002929687
 31
0.0
  0
LINE
  5
CA
330
A
100
AcDbEntity
  8
1
  6
CONTINUOUS
 62
     4
100
AcDbLine
 10
93.37395477294922
 20
59.2711296081543
 30
0.0
 11
93.37395477294922
 21
59.09613037109375
 31
0.0
  0
LINE
  5
CB
330
A
100
AcDbEntity
  8
1
  6
CONTINUOUS
 62
     3
100
AcDbLine
 10
59.16915512084961
 20
19.4400291442871
 30
0.0
 11
59.16915512084961
 21
19.41613006591796
 31
0.0
  0
LINE
  5
CC
330
A
100
AcDbEntity
  8
1
  6
CONTINUOUS
 62
     5
100
AcDbLine
 10
65.09495544433594
 20
59.80772781372071
 30
0.0
 11
65.15265655517578
 21
59.80772781372071
 31
0.0
  0
LINE
  5
CD
330
A
100
AcDbEntity
  8
1
  6
CONTINUOUS
 62
     5
100
AcDbLine
 10
59.16915512084961
 20
59.75003051757813
 30
0.0
 11
59.16915512084961
 21
59.72613143920899
 31
0.0
  0
LINE
  5
CE
330
A
100
AcDbEntity
  8
1
  6
CONTINUOUS
 62
     5
100
AcDbLine
 10
62.04105377197265
 20
111.8606948852539
 30
0.0
 11
65.04105377197266
 21
111.8606948852539
 31
0.0
  0
LINE
  5
CF
330
A
100
AcDbEntity
  8
1
  6
CONTINUOUS
 62
     5
100
AcDbLine
 10
58.41515350341797
 20
111.6938934326171
 30
0.0
 11
58.36355590820312
 21
111.6938934326171
 31
0.0
  0
LINE
  5
D0
330
A
100
AcDbEntity
  8
1
  6
CONTINUOUS
 62
     5
100
AcDbLine
 10
67.85295867919922
 20
111.6938934326171
 30
0.0
 11
65.1529541015625
 21
111.6938934326171
 31
0.0
  0
LINE
  5
D1
330
A
100
AcDbEntity
  8
1
  6
CONTINUOUS
 62
     5
100
AcDbLine
 10
67.85295867919922
 20
111.6938934326171
 30
0.0
 11
67.85295867919922
 21
111.830696105957
 31
0.0
  0
LINE
  5
D2
330
A
100
AcDbEntity
  8
1
  6
CONTINUOUS
 62
     5
100
AcDbLine
 10
61.98715591430664
 20
59.80772781372071
 30
0.0
 11
61.92945480346679
 21
59.80772781372071
 31
0.0
  0
LINE
  5
D3
330
A
100
AcDbEntity
  8
1
  6
CONTINUOUS
 62
     5
100
AcDbLine
 10
67.85295867919922
 20
111.6361923217773
 30
0.0
 11
67.85295867919922
 21
111.6938934326171
 31
0.0
  0
LINE
  5
D4
330
A
100
AcDbEntity
  8
1
  6
CONTINUOUS
 62
     5
100
AcDbLine
 10
61.92945480346679
 20
111.6122970581054
 30
0.0
 11
61.92945480346679
 21
111.6361923217773
 31
0.0
  0
LINE
  5
D5
330
A
100
AcDbEntity
  8
1
  6
CONTINUOUS
 62
     5
100
AcDbLine
 10
65.06227111816406
 20
99.95452880859375
 30
0.0
 11
65.07105255126953
 21
99.95452880859375
 31
0.0
  0
LINE
  5
D6
330
A
100
AcDbEntity
  8
1
  6
CONTINUOUS
 62
     3
100
AcDbLine
 10
65.04105377197266
 20
59.72613143920899
 30
0.0
 11
65.04105377197266
 21
59.64453125
 31
0.0
  0
LINE
  5
D7
330
A
100
AcDbEntity
  8
1
  6
CONTINUOUS
 62
     5
100
AcDbLine
 10
61.92945480346679
 20
100.0361328125
 30
0.0
 11
59.22945404052734
 21
100.0361328125
 31
0.0
  0
LINE
  5
D8
330
A
100
AcDbEntity
  8
1
  6
CONTINUOUS
 62
     5
100
AcDbLine
 10
62.01984024047852
 20
99.95452880859375
 30
0.0
 11
62.01105499267578
 21
99.95452880859375
 31
0.0
  0
LINE
  5
D9
330
A
100
AcDbEntity
  8
1
  6
CONTINUOUS
 62
     5
100
AcDbLine
 10
62.04105377197265
 20
59.80772781372071
 30
0.0
 11
62.01984024047852
 21
59.80772781372071
 31
0.0
  0
LINE
  5
DA
330
A
100
AcDbEntity
  8
1
  6
CONTINUOUS
 62
     5
100
AcDbLine
 10
58.41515350341797
 20
111.6938934326171
 30
0.0
 11
58.41515350341797
 21
111.9106903076171
 31
0.0
  0
LINE
  5
DB
330
A
100
AcDbEntity
  8
1
  6
CONTINUOUS
 62
     5
100
AcDbLine
 10
62.56605529785156
 20
90.3861312866211
 30
0.0
 11
62.56605529785156
 21
90.42613220214844
 31
0.0
  0
LINE
  5
DC
330
A
100
AcDbEntity
  8
1
  6
CONTINUOUS
 62
     5
100
AcDbLine
 10
67.85295867919922
 20
111.6122970581054
 30
0.0
 11
67.85295867919922
 21
111.6361923217773
 31
0.0
  0
LINE
  5
DD
330
A
100
AcDbEntity
  8
1
  6
CONTINUOUS
 62
     5
100
AcDbLine
 10
68.63695526123047
 20
59.80772781372071
 30
0.0
 11
68.69465637207031
 21
59.80772781372071
 31
0.0
  0
LINE
  5
DE
330
A
100
AcDbEntity
  8
1
  6
CONTINUOUS
 62
     3
100
AcDbLine
 10
93.32625579833985
 20
59.64453125
 30
0.0
 11
93.38395690917968
 21
59.64453125
 31
0.0
  0
LINE
  5
DF
330
A
100
AcDbEntity
  8
1
  6
CONTINUOUS
 62
     5
100
AcDbLine
 10
65.07105255126953
 20
111.830696105957
 30
0.0
 11
65.12265777587891
 21
111.830696105957
 31
0.0
  0
LINE
  5
E0
330
A
100
AcDbEntity
  8
1
  6
CONTINUOUS
 62
     5
100
AcDbLine
 10
59.22945404052734
 20
111.6122970581054
 30
0.0
 11
59.22945404052734
 21
111.6361923217773
 31
0.0
  0
LINE
  5
E1
330
A
100
AcDbEntity
  8
1
  6
CONTINUOUS
 62
     5
100
AcDbLine
 10
67.85265350341797
 20
59.75003051757813
 30
0.0
 11
67.85265350341797
 21
59.72613143920899
 31
0.0
  0
LINE
  5
E2
330
A
100
AcDbEntity
  8
1
  6
CONTINUOUS
 62
     5
100
AcDbLine
 10
59.22915649414062
 20
59.75003051757813
 30
0.0
 11
59.22915649414062
 21
59.72613143920899
 31
0.0
  0
LINE
  5
E3
330
A
100
AcDbEntity
  8
1
  6
CONTINUOUS
 62
     5
100
AcDbLine
 10
61.92915344238281
 20
59.80772781372071
 30
0.0
 11
61.92915344238281
 21
59.75003051757813
 31
0.0
  0
LINE
  5
E4
330
A
100
AcDbEntity
  8
1
  6
CONTINUOUS
 62
     5
100
AcDbLine
 10
61.92915344238281
 20
59.75003051757813
 30
0.0
 11
61.92915344238281
 21
59.72613143920899
 31
0.0
  0
LINE
  5
E5
330
A
100
AcDbEntity
  8
1
  6
CONTINUOUS
 62
     5
100
AcDbLine
 10
67.85295867919922
 20
99.95452880859375
 30
0.0
 11
65.1529541015625
 21
99.95452880859375
 31
0.0
  0
LINE
  5
E6
330
A
100
AcDbEntity
  8
1
  6
CONTINUOUS
 62
     5
100
AcDbLine
 10
62.04105377197265
 20
59.80772781372071
 30
0.0
 11
62.04105377197265
 21
99.95452880859375
 31
0.0
  0
LINE
  5
E7
330
A
100
AcDbEntity
  8
1
  6
CONTINUOUS
 62
     5
100
AcDbLine
 10
67.85295867919922
 20
100.0122299194335
 30
0.0
 11
67.85295867919922
 21
100.0361328125
 31
0.0
  0
LINE
  5
E8
330
A
100
AcDbEntity
  8
1
  6
CONTINUOUS
 62
     5
100
AcDbLine
 10
65.1529541015625
 20
99.95452880859375
 30
0.0
 11
65.1529541015625
 21
100.0122299194335
 31
0.0
  0
LINE
  5
E9
330
A
100
AcDbEntity
  8
1
  6
CONTINUOUS
 62
     5
100
AcDbLine
 10
59.16945648193359
 20
99.95452880859375
 30
0.0
 11
59.16945648193359
 21
100.0122299194335
 31
0.0
  0
LINE
  5
EA
330
A
100
AcDbEntity
  8
1
  6
CONTINUOUS
 62
     5
100
AcDbLine
 10
59.16945648193359
 20
100.0122299194335
 30
0.0
 11
59.16945648193359
 21
100.0361328125
 31
0.0
  0
LINE
  5
EB
330
A
100
AcDbEntity
  8
1
  6
CONTINUOUS
 62
     5
100
AcDbLine
 10
58.44515609741211
 20
99.95452880859375
 30
0.0
 11
58.44515609741211
 21
100.0122299194335
 31
0.0
  0
LINE
  5
EC
330
A
100
AcDbEntity
  8
1
  6
CONTINUOUS
 62
     5
100
AcDbLine
 10
58.44515609741211
 20
100.0122299194335
 30
0.0
 11
58.44515609741211
 21
100.0361328125
 31
0.0
  0
LINE
  5
ED
330
A
100
AcDbEntity
  8
1
  6
CONTINUOUS
 62
     5
100
AcDbLine
 10
59.16945648193359
 20
100.0361328125
 30
0.0
 11
58.44515609741211
 21
100.0361328125
 31
0.0
  0
LINE
  5
EE
330
A
100
AcDbEntity
  8
1
  6
CONTINUOUS
 62
     5
100
AcDbLine
 10
67.91265869140625
 20
59.80772781372071
 30
0.0
 11
67.91265869140625
 21
59.75003051757813
 31
0.0
  0
LINE
  5
EF
330
A
100
AcDbEntity
  8
1
  6
CONTINUOUS
 62
     5
100
AcDbLine
 10
67.91265869140625
 20
59.75003051757813
 30
0.0
 11
67.91265869140625
 21
59.72613143920899
 31
0.0
  0
LINE
  5
F0
330
A
100
AcDbEntity
  8
1
  6
CONTINUOUS
 62
     5
100
AcDbLine
 10
68.63695526123047
 20
111.6122970581054
 30
0.0
 11
67.91295623779297
 21
111.6122970581054
 31
0.0
  0
LINE
  5
F1
330
A
100
AcDbEntity
  8
1
  6
CONTINUOUS
 62
     5
100
AcDbLine
 10
68.63695526123047
 20
59.80772781372071
 30
0.0
 11
68.63695526123047
 21
59.75003051757813
 31
0.0
  0
LINE
  5
F2
330
A
100
AcDbEntity
  8
1
  6
CONTINUOUS
 62
     5
100
AcDbLine
 10
65.15265655517578
 20
111.6638946533203
 30
0.0
 11
65.1529541015625
 21
111.6638946533203
 31
0.0
  0
LINE
  5
F3
330
A
100
AcDbEntity
  8
1
  6
CONTINUOUS
 62
     5
100
AcDbLine
 10
58.38745498657226
 20
99.95452880859375
 30
0.0
 11
58.36355590820312
 21
99.95452880859375
 31
0.0
  0
LINE
  5
F4
330
A
100
AcDbEntity
  8
1
  6
CONTINUOUS
 62
     5
100
AcDbLine
 10
58.44515609741211
 20
59.80772781372071
 30
0.0
 11
58.38745498657226
 21
59.80772781372071
 31
0.0
  0
LINE
  5
F5
330
A
100
AcDbEntity
  8
1
  6
CONTINUOUS
 62
     5
100
AcDbLine
 10
58.44515609741211
 20
59.72613143920899
 30
0.0
 11
59.16915512084961
 21
59.72613143920899
 31
0.0
  0
LINE
  5
F6
330
A
100
AcDbEntity
  8
1
  6
CONTINUOUS
 62
     5
100
AcDbLine
 10
59.22915649414062
 20
111.6938934326171
 30
0.0
 11
59.22915649414062
 21
111.830696105957
 31
0.0
  0
LINE
  5
F7
330
A
100
AcDbEntity
  8
1
  6
CONTINUOUS
 62
     5
100
AcDbLine
 10
61.92945480346679
 20
111.6361923217773
 30
0.0
 11
61.92945480346679
 21
111.6938934326171
 31
0.0
  0
LINE
  5
F8
330
A
100
AcDbEntity
  8
1
  6
CONTINUOUS
 62
     5
100
AcDbLine
 10
68.71855163574219
 20
111.6938934326171
 30
0.0
 11
68.71855163574219
 21
111.9106903076171
 31
0.0
  0
LINE
  5
F9
330
A
100
AcDbEntity
  8
1
  6
CONTINUOUS
 62
     3
100
AcDbLine
 10
61.92945480346679
 20
59.72613143920899
 30
0.0
 11
59.22945404052734
 21
59.72613143920899
 31
0.0
  0
LINE
  5
FA
330
A
100
AcDbEntity
  8
1
  6
CONTINUOUS
 62
     3
100
AcDbLine
 10
68.63695526123047
 20
59.64453125
 30
0.0
 11
68.63695526123047
 21
59.70222854614258
 31
0.0
  0
LINE
  5
FB
330
A
100
AcDbEntity
  8
1
  6
CONTINUOUS
 62
     5
100
AcDbLine
 10
65.15265655517578
 20
59.72613143920899
 30
0.0
 11
67.85265350341797
 21
59.72613143920899
 31
0.0
  0
LINE
  5
FC
330
A
100
AcDbEntity
  8
1
  6
CONTINUOUS
 62
     3
100
AcDbLine
 10
67.91295623779297
 20
59.64453125
 30
0.0
 11
67.91295623779297
 21
59.70222854614258
 31
0.0
  0
LINE
  5
FD
330
A
100
AcDbEntity
  8
1
  6
CONTINUOUS
 62
     5
100
AcDbLine
 10
58.44515609741211
 20
59.80772781372071
 30
0.0
 11
58.44515609741211
 21
59.75003051757813
 31
0.0
  0
LINE
  5
FE
330
A
100
AcDbEntity
  8
1
  6
CONTINUOUS
 62
     3
100
AcDbLine
 10
67.91295623779297
 20
59.70222854614258
 30
0.0
 11
67.91295623779297
 21
59.72613143920899
 31
0.0
  0
LINE
  5
FF
330
A
100
AcDbEntity
  8
1
  6
CONTINUOUS
 62
     3
100
AcDbLine
 10
68.63695526123047
 20
59.72613143920899
 30
0.0
 11
67.91295623779297
 21
59.72613143920899
 31
0.0
  0
LINE
  5
100
330
A
100
AcDbEntity
  8
1
  6
CONTINUOUS
 62
     3
100
AcDbLine
 10
65.15265655517578
 20
19.49773025512695
 30
0.0
 11
65.15265655517578
 21
19.4400291442871
 31
0.0
  0
LINE
  5
101
330
A
100
AcDbEntity
  8
1
  6
CONTINUOUS
 62
     3
100
AcDbLine
 10
65.15265655517578
 20
19.4400291442871
 30
0.0
 11
65.15265655517578
 21
19.41613006591796
 31
0.0
  0
LINE
  5
102
330
A
100
AcDbEntity
  8
1
  6
CONTINUOUS
 62
     3
100
AcDbLine
 10
67.85265350341797
 20
19.49773025512695
 30
0.0
 11
67.85265350341797
 21
19.4400291442871
 31
0.0
  0
LINE
  5
103
330
A
100
AcDbEntity
  8
1
  6
CONTINUOUS
 62
     3
100
AcDbLine
 10
67.85265350341797
 20
19.4400291442871
 30
0.0
 11
67.85265350341797
 21
19.41613006591796
 31
0.0
  0
LINE
  5
104
330
A
100
AcDbEntity
  8
1
  6
CONTINUOUS
 62
     5
100
AcDbLine
 10
67.91265869140625
 20
111.6638946533203
 30
0.0
 11
67.91265869140625
 21
111.6726837158203
 31
0.0
  0
LINE
  5
105
330
A
100
AcDbEntity
  8
1
  6
CONTINUOUS
 62
     3
100
AcDbLine
 10
65.15265655517578
 20
19.41613006591796
 30
0.0
 11
67.85265350341797
 21
19.41613006591796
 31
0.0
  0
LINE
  5
106
330
A
100
AcDbEntity
  8
1
  6
CONTINUOUS
 62
     3
100
AcDbLine
 10
58.44515609741211
 20
19.49773025512695
 30
0.0
 11
58.44515609741211
 21
19.4400291442871
 31
0.0
  0
LINE
  5
107
330
A
100
AcDbEntity
  8
1
  6
CONTINUOUS
 62
     3
100
AcDbLine
 10
58.44515609741211
 20
19.4400291442871
 30
0.0
 11
58.44515609741211
 21
19.41613006591796
 31
0.0
  0
LINE
  5
108
330
A
100
AcDbEntity
  8
1
  6
CONTINUOUS
 62
     3
100
AcDbLine
 10
59.16915512084961
 20
19.49773025512695
 30
0.0
 11
59.16915512084961
 21
19.4400291442871
 31
0.0
  0
LINE
  5
109
330
A
100
AcDbEntity
  8
1
  6
CONTINUOUS
 62
     3
100
AcDbLine
 10
58.44515609741211
 20
19.41613006591796
 30
0.0
 11
59.16915512084961
 21
19.41613006591796
 31
0.0
  0
LINE
  5
10A
330
A
100
AcDbEntity
  8
1
  6
CONTINUOUS
 62
     5
100
AcDbLine
 10
61.92945480346679
 20
111.6938934326171
 30
0.0
 11
61.92945480346679
 21
111.830696105957
 31
0.0
  0
LINE
  5
10B
330
A
100
AcDbEntity
  8
1
  6
CONTINUOUS
 62
     3
100
AcDbLine
 10
59.22915649414062
 20
19.49773025512695
 30
0.0
 11
59.22915649414062
 21
19.4400291442871
 31
0.0
  0
LINE
  5
10C
330
A
100
AcDbEntity
  8
1
  6
CONTINUOUS
 62
     3
100
AcDbLine
 10
59.22915649414062
 20
19.4400291442871
 30
0.0
 11
59.22915649414062
 21
19.41613006591796
 31
0.0
  0
LINE
  5
10D
330
A
100
AcDbEntity
  8
1
  6
CONTINUOUS
 62
     3
100
AcDbLine
 10
61.92915344238281
 20
19.49773025512695
 30
0.0
 11
61.92915344238281
 21
19.4400291442871
 31
0.0
  0
LINE
  5
10E
330
A
100
AcDbEntity
  8
1
  6
CONTINUOUS
 62
     3
100
AcDbLine
 10
61.92915344238281
 20
19.4400291442871
 30
0.0
 11
61.92915344238281
 21
19.41613006591796
 31
0.0
  0
LINE
  5
10F
330
A
100
AcDbEntity
  8
1
  6
CONTINUOUS
 62
     3
100
AcDbLine
 10
67.85295867919922
 20
59.64453125
 30
0.0
 11
67.85295867919922
 21
59.70222854614258
 31
0.0
  0
LINE
  5
110
330
A
100
AcDbEntity
  8
1
  6
CONTINUOUS
 62
     3
100
AcDbLine
 10
67.85295867919922
 20
59.70222854614258
 30
0.0
 11
67.85295867919922
 21
59.72613143920899
 31
0.0
  0
LINE
  5
111
330
A
100
AcDbEntity
  8
1
  6
CONTINUOUS
 62
     3
100
AcDbLine
 10
65.1529541015625
 20
59.64453125
 30
0.0
 11
65.1529541015625
 21
59.70222854614258
 31
0.0
  0
LINE
  5
112
330
A
100
AcDbEntity
  8
1
  6
CONTINUOUS
 62
     3
100
AcDbLine
 10
59.16945648193359
 20
59.64453125
 30
0.0
 11
59.16945648193359
 21
59.70222854614258
 31
0.0
  0
LINE
  5
113
330
A
100
AcDbEntity
  8
1
  6
CONTINUOUS
 62
     3
100
AcDbLine
 10
59.16945648193359
 20
59.70222854614258
 30
0.0
 11
59.16945648193359
 21
59.72613143920899
 31
0.0
  0
LINE
  5
114
330
A
100
AcDbEntity
  8
1
  6
CONTINUOUS
 62
     3
100
AcDbLine
 10
58.44515609741211
 20
59.70222854614258
 30
0.0
 11
58.44515609741211
 21
59.72613143920899
 31
0.0
  0
LINE
  5
115
330
A
100
AcDbEntity
  8
1
  6
CONTINUOUS
 62
     3
100
AcDbLine
 10
59.16945648193359
 20
59.72613143920899
 30
0.0
 11
58.44515609741211
 21
59.72613143920899
 31
0.0
  0
LINE
  5
116
330
A
100
AcDbEntity
  8
1
  6
CONTINUOUS
 62
     3
100
AcDbLine
 10
67.91265869140625
 20
19.49773025512695
 30
0.0
 11
67.91265869140625
 21
19.4400291442871
 31
0.0
  0
LINE
  5
117
330
A
100
AcDbEntity
  8
1
  6
CONTINUOUS
 62
     3
100
AcDbLine
 10
67.91265869140625
 20
19.4400291442871
 30
0.0
 11
67.91265869140625
 21
19.41613006591796
 31
0.0
  0
LINE
  5
118
330
A
100
AcDbEntity
  8
1
  6
CONTINUOUS
 62
     3
100
AcDbLine
 10
62.04105377197265
 20
59.72613143920899
 30
0.0
 11
65.04105377197266
 21
59.72613143920899
 31
0.0
  0
LINE
  5
119
330
A
100
AcDbEntity
  8
1
  6
CONTINUOUS
 62
     3
100
AcDbLine
 10
68.63695526123047
 20
19.4400291442871
 30
0.0
 11
68.63695526123047
 21
19.41613006591796
 31
0.0
  0
LINE
  5
11A
330
A
100
AcDbEntity
  8
1
  6
CONTINUOUS
 62
     4
100
AcDbLine
 10
93.37395477294922
 20
58.74612808227539
 30
0.0
 11
93.37395477294922
 21
58.57112884521484
 31
0.0
  0
LINE
  5
11B
330
A
100
AcDbEntity
  8
1
  6
CONTINUOUS
 62
     4
100
AcDbLine
 10
93.37395477294922
 20
58.57112884521484
 30
0.0
 11
93.37395477294922
 21
58.74612808227539
 31
0.0
  0
LINE
  5
11C
330
A
100
AcDbEntity
  8
1
  6
CONTINUOUS
 62
     4
100
AcDbLine
 10
93.37395477294922
 20
59.09613037109375
 30
0.0
 11
93.37395477294922
 21
59.2711296081543
 31
0.0
  0
LINE
  5
11D
330
A
100
AcDbEntity
  8
1
  6
CONTINUOUS
 62
     5
100
AcDbLine
 10
93.5507583618164
 20
59.80772781372071
 30
0.0
 11
93.5507583618164
 21
59.77772903442382
 31
0.0
  0
LINE
  5
11E
330
A
100
AcDbEntity
  8
1
  6
CONTINUOUS
 62
     5
100
AcDbLine
 10
93.60235595703125
 20
59.77772903442382
 30
0.0
 11
93.60235595703125
 21
59.80772781372071
 31
0.0
  0
LINE
  5
11F
330
A
100
AcDbEntity
  8
1
  6
CONTINUOUS
 62
     5
100
AcDbLine
 10
93.60235595703125
 20
99.95452880859375
 30
0.0
 11
93.60235595703125
 21
99.98452758789063
 31
0.0
  0
LINE
  5
120
330
A
100
AcDbEntity
  8
1
  6
CONTINUOUS
 62
     5
100
AcDbLine
 10
93.30235290527344
 20
59.80772781372071
 30
0.0
 11
93.32625579833985
 21
59.80772781372071
 31
0.0
  0
LINE
  5
121
330
A
100
AcDbEntity
  8
1
  6
CONTINUOUS
 62
     5
100
AcDbLine
 10
62.01105499267578
 20
59.80772781372071
 30
0.0
 11
61.98715591430664
 21
59.80772781372071
 31
0.0
  0
LINE
  5
122
330
A
100
AcDbEntity
  8
1
  6
CONTINUOUS
 62
     5
100
AcDbLine
 10
93.32625579833985
 20
99.95452880859375
 30
0.0
 11
93.38395690917968
 21
99.95452880859375
 31
0.0
  0
LINE
  5
123
330
A
100
AcDbEntity
  8
1
  6
CONTINUOUS
 62
     5
100
AcDbLine
 10
93.38395690917968
 20
59.80772781372071
 30
0.0
 11
93.38395690917968
 21
99.95452880859375
 31
0.0
  0
LINE
  5
124
330
A
100
AcDbEntity
  8
1
  6
CONTINUOUS
 62
     5
100
AcDbLine
 10
93.38395690917968
 20
59.72613143920899
 30
0.0
 11
93.38395690917968
 21
59.77772903442382
 31
0.0
  0
LINE
  5
125
330
A
100
AcDbEntity
  8
1
  6
CONTINUOUS
 62
     5
100
AcDbLine
 10
93.38395690917968
 20
59.80772781372071
 30
0.0
 11
93.60075378417969
 21
59.80772781372071
 31
0.0
  0
LINE
  5
126
330
A
100
AcDbEntity
  8
1
  6
CONTINUOUS
 62
     5
100
AcDbLine
 10
93.38395690917968
 20
99.95452880859375
 30
0.0
 11
93.60075378417969
 21
99.95452880859375
 31
0.0
  0
LINE
  5
127
330
A
100
AcDbEntity
  8
1
  6
CONTINUOUS
 62
     5
100
AcDbLine
 10
93.68235778808594
 20
59.88932800292968
 30
0.0
 11
93.68235778808594
 21
99.87293243408203
 31
0.0
  0
LINE
  5
128
330
A
100
AcDbEntity
  8
1
  6
CONTINUOUS
 62
     5
100
AcDbLine
 10
93.38395690917968
 20
99.98452758789063
 30
0.0
 11
93.38395690917968
 21
100.0361328125
 31
0.0
  0
LINE
  5
129
330
A
100
AcDbEntity
  8
1
  6
CONTINUOUS
 62
     3
100
AcDbLine
 10
93.52075195312499
 20
19.46772956848144
 30
0.0
 11
93.57845306396484
 21
19.46772956848144
 31
0.0
  0
LINE
  5
12A
330
A
100
AcDbEntity
  8
1
  6
CONTINUOUS
 62
     5
100
AcDbLine
 10
93.52075195312499
 20
99.98452758789063
 30
0.0
 11
93.52075195312499
 21
100.0361328125
 31
0.0
  0
LINE
  5
12B
330
A
100
AcDbEntity
  8
1
  6
CONTINUOUS
 62
     5
100
AcDbLine
 10
93.38395690917968
 20
100.0361328125
 30
0.0
 11
93.52075195312499
 21
100.0361328125
 31
0.0
  0
LINE
  5
12C
330
A
100
AcDbEntity
  8
1
  6
CONTINUOUS
 62
     5
100
AcDbLine
 10
58.44515609741211
 20
59.75003051757813
 30
0.0
 11
58.44515609741211
 21
59.72613143920899
 31
0.0
  0
LINE
  5
12D
330
A
100
AcDbEntity
  8
1
  6
CONTINUOUS
 62
     5
100
AcDbLine
 10
93.52075195312499
 20
100.0361328125
 30
0.0
 11
93.57845306396484
 21
100.0361328125
 31
0.0
  0
LINE
  5
12E
330
A
100
AcDbEntity
  8
1
  6
CONTINUOUS
 62
     5
100
AcDbLine
 10
93.60235595703125
 20
99.98452758789063
 30
0.0
 11
93.57845306396484
 21
99.98452758789063
 31
0.0
  0
LINE
  5
12F
330
A
100
AcDbEntity
  8
1
  6
CONTINUOUS
 62
     5
100
AcDbLine
 10
65.07105255126953
 20
99.95452880859375
 30
0.0
 11
65.09495544433594
 21
99.95452880859375
 31
0.0
  0
LINE
  5
130
330
A
100
AcDbEntity
  8
1
  6
CONTINUOUS
 62
     5
100
AcDbLine
 10
93.57845306396484
 20
99.98452758789063
 30
0.0
 11
93.52075195312499
 21
99.98452758789063
 31
0.0
  0
LINE
  5
131
330
A
100
AcDbEntity
  8
1
  6
CONTINUOUS
 62
     5
100
AcDbLine
 10
62.04105377197265
 20
59.72613143920899
 30
0.0
 11
62.04105377197265
 21
59.80772781372071
 31
0.0
  0
LINE
  5
132
330
A
100
AcDbEntity
  8
1
  6
CONTINUOUS
 62
     5
100
AcDbLine
 10
93.60235595703125
 20
100.0361328125
 30
0.0
 11
93.60235595703125
 21
99.98452758789063
 31
0.0
  0
LINE
  5
133
330
A
100
AcDbEntity
  8
1
  6
CONTINUOUS
 62
     5
100
AcDbLine
 10
93.52075195312499
 20
59.72613143920899
 30
0.0
 11
93.52075195312499
 21
59.77772903442382
 31
0.0
  0
LINE
  5
134
330
A
100
AcDbEntity
  8
1
  6
CONTINUOUS
 62
     5
100
AcDbLine
 10
93.38395690917968
 20
59.77772903442382
 30
0.0
 11
93.52075195312499
 21
59.77772903442382
 31
0.0
  0
LINE
  5
135
330
A
100
AcDbEntity
  8
1
  6
CONTINUOUS
 62
     5
100
AcDbLine
 10
93.60235595703125
 20
59.72613143920899
 30
0.0
 11
93.57845306396484
 21
59.72613143920899
 31
0.0
  0
LINE
  5
136
330
A
100
AcDbEntity
  8
1
  6
CONTINUOUS
 62
     5
100
AcDbLine
 10
61.92945480346679
 20
100.0122299194335
 30
0.0
 11
61.92945480346679
 21
100.0361328125
 31
0.0
  0
LINE
  5
137
330
A
100
AcDbEntity
  8
1
  6
CONTINUOUS
 62
     5
100
AcDbLine
 10
93.57845306396484
 20
59.72613143920899
 30
0.0
 11
93.52075195312499
 21
59.72613143920899
 31
0.0
  0
LINE
  5
138
330
A
100
AcDbEntity
  8
1
  6
CONTINUOUS
 62
     5
100
AcDbLine
 10
59.22945404052734
 20
99.95452880859375
 30
0.0
 11
59.22945404052734
 21
100.0122299194335
 31
0.0
  0
LINE
  5
139
330
A
100
AcDbEntity
  8
1
  6
CONTINUOUS
 62
     5
100
AcDbLine
 10
93.52075195312499
 20
59.77772903442382
 30
0.0
 11
93.57845306396484
 21
59.77772903442382
 31
0.0
  0
LINE
  5
13A
330
A
100
AcDbEntity
  8
1
  6
CONTINUOUS
 62
     5
100
AcDbLine
 10
93.57845306396484
 20
59.77772903442382
 30
0.0
 11
93.60235595703125
 21
59.77772903442382
 31
0.0
  0
LINE
  5
13B
330
A
100
AcDbEntity
  8
1
  6
CONTINUOUS
 62
     5
100
AcDbLine
 10
93.60235595703125
 20
59.77772903442382
 30
0.0
 11
93.60235595703125
 21
59.72613143920899
 31
0.0
  0
LINE
  5
13C
330
A
100
AcDbEntity
  8
1
  6
CONTINUOUS
 62
     5
100
AcDbLine
 10
68.63695526123047
 20
59.75003051757813
 30
0.0
 11
68.63695526123047
 21
59.72613143920899
 31
0.0
  0
LINE
  5
13D
330
A
100
AcDbEntity
  8
1
  6
CONTINUOUS
 62
     3
100
AcDbLine
 10
93.5507583618164
 20
19.49773025512695
 30
0.0
 11
93.5507583618164
 21
19.46772956848144
 31
0.0
  0
LINE
  5
13E
330
A
100
AcDbEntity
  8
1
  6
CONTINUOUS
 62
     3
100
AcDbLine
 10
93.5507583618164
 20
59.67453002929687
 30
0.0
 11
93.5507583618164
 21
59.64453125
 31
0.0
  0
LINE
  5
13F
330
A
100
AcDbEntity
  8
1
  6
CONTINUOUS
 62
     3
100
AcDbLine
 10
67.85295867919922
 20
59.64453125
 30
0.0
 11
67.91295623779297
 21
59.64453125
 31
0.0
  0
LINE
  5
140
330
A
100
AcDbEntity
  8
1
  6
CONTINUOUS
 62
     3
100
AcDbLine
 10
93.30235290527344
 20
19.49773025512695
 30
0.0
 11
93.30235290527344
 21
59.64453125
 31
0.0
  0
LINE
  5
141
330
A
100
AcDbEntity
  8
1
  6
CONTINUOUS
 62
     3
100
AcDbLine
 10
65.15265655517578
 20
59.64453125
 30
0.0
 11
65.1529541015625
 21
59.64453125
 31
0.0
  0
LINE
  5
142
330
A
100
AcDbEntity
  8
1
  6
CONTINUOUS
 62
     3
100
AcDbLine
 10
93.30235290527344
 20
19.49773025512695
 30
0.0
 11
93.32625579833985
 21
19.49773025512695
 31
0.0
  0
LINE
  5
143
330
A
100
AcDbEntity
  8
1
  6
CONTINUOUS
 62
     3
100
AcDbLine
 10
93.32625579833985
 20
19.49773025512695
 30
0.0
 11
93.38395690917968
 21
19.49773025512695
 31
0.0
  0
LINE
  5
144
330
A
100
AcDbEntity
  8
1
  6
CONTINUOUS
 62
     3
100
AcDbLine
 10
93.30235290527344
 20
59.64453125
 30
0.0
 11
93.32625579833985
 21
59.64453125
 31
0.0
  0
LINE
  5
145
330
A
100
AcDbEntity
  8
1
  6
CONTINUOUS
 62
     3
100
AcDbLine
 10
62.56605529785156
 20
29.0261287689209
 30
0.0
 11
62.56605529785156
 21
29.06612968444824
 31
0.0
  0
LINE
  5
146
330
A
100
AcDbEntity
  8
1
  6
CONTINUOUS
 62
     3
100
AcDbLine
 10
93.38395690917968
 20
19.49773025512695
 30
0.0
 11
93.38395690917968
 21
59.64453125
 31
0.0
  0
LINE
  5
147
330
A
100
AcDbEntity
  8
1
  6
CONTINUOUS
 62
     3
100
AcDbLine
 10
93.38395690917968
 20
19.49773025512695
 30
0.0
 11
93.60075378417969
 21
19.49773025512695
 31
0.0
  0
LINE
  5
148
330
A
100
AcDbEntity
  8
1
  6
CONTINUOUS
 62
     3
100
AcDbLine
 10
68.63695526123047
 20
19.49773025512695
 30
0.0
 11
68.69465637207031
 21
19.49773025512695
 31
0.0
  0
LINE
  5
149
330
A
100
AcDbEntity
  8
1
  6
CONTINUOUS
 62
     5
100
AcDbLine
 10
65.04105377197266
 20
111.9122924804687
 30
0.0
 11
65.04105377197266
 21
111.8606948852539
 31
0.0
  0
LINE
  5
14A
330
A
100
AcDbEntity
  8
1
  6
CONTINUOUS
 62
     3
100
AcDbLine
 10
68.71855163574219
 20
19.49773025512695
 30
0.0
 11
68.71855163574219
 21
59.64453125
 31
0.0
  0
LINE
  5
14B
330
A
100
AcDbEntity
  8
1
  6
CONTINUOUS
 62
     3
100
AcDbLine
 10
61.92945480346679
 20
59.64453125
 30
0.0
 11
61.92945480346679
 21
59.70222854614258
 31
0.0
  0
LINE
  5
14C
330
A
100
AcDbEntity
  8
1
  6
CONTINUOUS
 62
     3
100
AcDbLine
 10
61.92945480346679
 20
59.70222854614258
 30
0.0
 11
61.92945480346679
 21
59.72613143920899
 31
0.0
  0
LINE
  5
14D
330
A
100
AcDbEntity
  8
1
  6
CONTINUOUS
 62
     3
100
AcDbLine
 10
59.22945404052734
 20
59.64453125
 30
0.0
 11
59.22945404052734
 21
59.70222854614258
 31
0.0
  0
LINE
  5
14E
330
A
100
AcDbEntity
  8
1
  6
CONTINUOUS
 62
     3
100
AcDbLine
 10
93.38395690917968
 20
59.67453002929687
 30
0.0
 11
93.52075195312499
 21
59.67453002929687
 31
0.0
  0
LINE
  5
14F
330
A
100
AcDbEntity
  8
1
  6
CONTINUOUS
 62
     3
100
AcDbLine
 10
93.52075195312499
 20
59.67453002929687
 30
0.0
 11
93.52075195312499
 21
59.72613143920899
 31
0.0
  0
LINE
  5
150
330
A
100
AcDbEntity
  8
1
  6
CONTINUOUS
 62
     3
100
AcDbLine
 10
93.38395690917968
 20
59.72613143920899
 30
0.0
 11
93.52075195312499
 21
59.72613143920899
 31
0.0
  0
LINE
  5
151
330
A
100
AcDbEntity
  8
1
  6
CONTINUOUS
 62
     3
100
AcDbLine
 10
93.52075195312499
 20
59.72613143920899
 30
0.0
 11
93.57845306396484
 21
59.72613143920899
 31
0.0
  0
LINE
  5
152
330
A
100
AcDbEntity
  8
1
  6
CONTINUOUS
 62
     3
100
AcDbLine
 10
93.57845306396484
 20
59.72613143920899
 30
0.0
 11
93.60235595703125
 21
59.72613143920899
 31
0.0
  0
LINE
  5
153
330
A
100
AcDbEntity
  8
1
  6
CONTINUOUS
 62
     3
100
AcDbLine
 10
93.60235595703125
 20
59.67453002929687
 30
0.0
 11
93.57845306396484
 21
59.67453002929687
 31
0.0
  0
LINE
  5
154
330
A
100
AcDbEntity
  8
1
  6
CONTINUOUS
 62
     3
100
AcDbLine
 10
93.38395690917968
 20
19.41613006591796
 30
0.0
 11
93.38395690917968
 21
19.46772956848144
 31
0.0
  0
LINE
  5
155
330
A
100
AcDbEntity
  8
1
  6
CONTINUOUS
 62
     5
100
AcDbLine
 10
59.22915649414062
 20
59.80772781372071
 30
0.0
 11
59.22915649414062
 21
59.75003051757813
 31
0.0
  0
LINE
  5
156
330
A
100
AcDbEntity
  8
1
  6
CONTINUOUS
 62
     3
100
AcDbLine
 10
93.38395690917968
 20
19.41613006591796
 30
0.0
 11
93.52075195312499
 21
19.41613006591796
 31
0.0
  0
LINE
  5
157
330
A
100
AcDbEntity
  8
1
  6
CONTINUOUS
 62
     5
100
AcDbLine
 10
65.07105255126953
 20
111.830696105957
 30
0.0
 11
65.07105255126953
 21
111.6938934326171
 31
0.0
  0
LINE
  5
158
330
A
100
AcDbEntity
  8
1
  6
CONTINUOUS
 62
     3
100
AcDbLine
 10
93.52075195312499
 20
19.41613006591796
 30
0.0
 11
93.52075195312499
 21
19.46772956848144
 31
0.0
  0
LINE
  5
159
330
A
100
AcDbEntity
  8
1
  6
CONTINUOUS
 62
     3
100
AcDbLine
 10
93.38395690917968
 20
19.46772956848144
 30
0.0
 11
93.52075195312499
 21
19.46772956848144
 31
0.0
  0
LINE
  5
15A
330
A
100
AcDbEntity
  8
1
  6
CONTINUOUS
 62
     3
100
AcDbLine
 10
93.60235595703125
 20
19.41613006591796
 30
0.0
 11
93.57845306396484
 21
19.41613006591796
 31
0.0
  0
LINE
  5
15B
330
A
100
AcDbEntity
  8
1
  6
CONTINUOUS
 62
     5
100
AcDbLine
 10
65.12265777587891
 20
111.830696105957
 30
0.0
 11
65.12265777587891
 21
111.6938934326171
 31
0.0
  0
LINE
  5
15C
330
A
100
AcDbEntity
  8
1
  6
CONTINUOUS
 62
     3
100
AcDbLine
 10
93.57845306396484
 20
19.41613006591796
 30
0.0
 11
93.52075195312499
 21
19.41613006591796
 31
0.0
  0
LINE
  5
15D
330
A
100
AcDbEntity
  8
1
  6
CONTINUOUS
 62
     5
100
AcDbLine
 10
67.91265869140625
 20
111.6726837158203
 30
0.0
 11
67.91265869140625
 21
111.6938934326171
 31
0.0
  0
LINE
  5
15E
330
A
100
AcDbEntity
  8
1
  6
CONTINUOUS
 62
     3
100
AcDbLine
 10
93.60235595703125
 20
19.46772956848144
 30
0.0
 11
93.60235595703125
 21
19.41613006591796
 31
0.0
  0
LINE
  5
15F
330
A
100
AcDbEntity
  8
1
  6
CONTINUOUS
 62
     5
100
AcDbLine
 10
67.91295623779297
 20
111.6361923217773
 30
0.0
 11
67.91295623779297
 21
111.6938934326171
 31
0.0
  0
LINE
  5
160
330
A
100
AcDbEntity
  8
1
  6
CONTINUOUS
 62
     3
100
AcDbLine
 10
67.85265350341797
 20
19.49773025512695
 30
0.0
 11
67.91265869140625
 21
19.49773025512695
 31
0.0
  0
LINE
  5
161
330
A
100
AcDbEntity
  8
1
  6
CONTINUOUS
 62
     5
100
AcDbLine
 10
59.16915512084961
 20
59.80772781372071
 30
0.0
 11
59.16915512084961
 21
59.75003051757813
 31
0.0
  0
LINE
  5
162
330
A
100
AcDbEntity
  8
1
  6
CONTINUOUS
 62
     5
100
AcDbLine
 10
61.84785461425781
 20
111.9122924804687
 30
0.0
 11
59.31105422973633
 21
111.9122924804687
 31
0.0
  0
LINE
  5
163
330
A
100
AcDbEntity
  8
1
  6
CONTINUOUS
 62
     5
100
AcDbLine
 10
58.36355590820312
 20
99.95452880859375
 30
0.0
 11
58.36355590820312
 21
59.80772781372071
 31
0.0
  0
LINE
  5
164
330
A
100
AcDbEntity
  8
1
  6
CONTINUOUS
 62
     5
100
AcDbLine
 10
65.1529541015625
 20
111.6938934326171
 30
0.0
 11
65.1529541015625
 21
111.830696105957
 31
0.0
  0
LINE
  5
165
330
A
100
AcDbEntity
  8
1
  6
CONTINUOUS
 62
     3
100
AcDbLine
 10
59.22915649414062
 20
19.41613006591796
 30
0.0
 11
61.92915344238281
 21
19.41613006591796
 31
0.0
  0
LINE
  5
166
330
A
100
AcDbEntity
  8
1
  6
CONTINUOUS
 62
     5
100
AcDbLine
 10
58.36355590820312
 20
111.968391418457
 30
0.0
 11
58.36355590820312
 21
111.9922943115234
 31
0.0
  0
LINE
  5
167
330
A
100
AcDbEntity
  8
1
  6
CONTINUOUS
 62
     5
100
AcDbLine
 10
68.66695404052734
 20
111.968391418457
 30
0.0
 11
68.66695404052734
 21
111.9922943115234
 31
0.0
  0
LINE
  5
168
330
A
100
AcDbEntity
  8
1
  6
CONTINUOUS
 62
     3
100
AcDbLine
 10
93.38395690917968
 20
59.67453002929687
 30
0.0
 11
93.38395690917968
 21
59.72613143920899
 31
0.0
  0
LINE
  5
169
330
A
100
AcDbEntity
  8
1
  6
CONTINUOUS
 62
     5
100
AcDbLine
 10
62.56605529785156
 20
69.33612823486328
 30
0.0
 11
62.56605529785156
 21
69.37612915039062
 31
0.0
  0
LINE
  5
16A
330
A
100
AcDbEntity
  8
1
  6
CONTINUOUS
 62
     5
100
AcDbLine
 10
93.38395690917968
 20
99.98452758789063
 30
0.0
 11
93.52075195312499
 21
99.98452758789063
 31
0.0
  0
LINE
  5
16B
330
A
100
AcDbEntity
  8
1
  6
CONTINUOUS
 62
     5
100
AcDbLine
 10
65.1529541015625
 20
111.6122970581054
 30
0.0
 11
65.1529541015625
 21
111.6361923217773
 31
0.0
  0
LINE
  5
16C
330
A
100
AcDbEntity
  8
1
  6
CONTINUOUS
 62
     5
100
AcDbLine
 10
65.1529541015625
 20
111.6361923217773
 30
0.0
 11
65.1529541015625
 21
111.6938934326171
 31
0.0
  0
LINE
  5
16D
330
A
100
AcDbEntity
  8
1
  6
CONTINUOUS
 62
     5
100
AcDbLine
 10
59.22945404052734
 20
111.6638946533203
 30
0.0
 11
59.16945648193359
 21
111.6638946533203
 31
0.0
  0
LINE
  5
16E
330
A
100
AcDbEntity
  8
1
  6
CONTINUOUS
 62
     5
100
AcDbLine
 10
62.01105499267578
 20
99.95452880859375
 30
0.0
 11
62.01105499267578
 21
59.80772781372071
 31
0.0
  0
LINE
  5
16F
330
A
100
AcDbEntity
  8
1
  6
CONTINUOUS
 62
     3
100
AcDbLine
 10
58.44515609741211
 20
59.64453125
 30
0.0
 11
58.44515609741211
 21
59.70222854614258
 31
0.0
  0
LINE
  5
170
330
A
100
AcDbEntity
  8
1
  6
CONTINUOUS
 62
     5
100
AcDbLine
 10
67.9129638671875
 20
111.6938934326171
 30
0.0
 11
67.91265869140625
 21
111.6938934326171
 31
0.0
  0
LINE
  5
171
330
A
100
AcDbEntity
  8
1
  6
CONTINUOUS
 62
     5
100
AcDbLine
 10
67.91265869140625
 20
111.6938934326171
 30
0.0
 11
67.91265869140625
 21
111.830696105957
 31
0.0
  0
LINE
  5
172
330
A
100
AcDbEntity
  8
1
  6
CONTINUOUS
 62
     3
100
AcDbLine
 10
93.68235778808594
 20
19.57933044433593
 30
0.0
 11
93.68235778808594
 21
59.56293106079101
 31
0.0
  0
LINE
  5
173
330
A
100
AcDbEntity
  8
1
  6
CONTINUOUS
 62
     5
100
AcDbLine
 10
62.04105377197265
 20
99.95452880859375
 30
0.0
 11
62.04105377197265
 21
100.0361328125
 31
0.0
  0
LINE
  5
174
330
A
100
AcDbEntity
  8
1
  6
CONTINUOUS
 62
     5
100
AcDbLine
 10
62.04105377197265
 20
99.95452880859375
 30
0.0
 11
62.01984024047852
 21
99.95452880859375
 31
0.0
  0
LINE
  5
175
330
A
100
AcDbEntity
  8
1
  6
CONTINUOUS
 62
     5
100
AcDbLine
 10
93.32625579833985
 20
59.80772781372071
 30
0.0
 11
93.38395690917968
 21
59.80772781372071
 31
0.0
  0
LINE
  5
176
330
A
100
AcDbEntity
  8
1
  6
CONTINUOUS
 62
     3
100
AcDbLine
 10
68.63695526123047
 20
59.70222854614258
 30
0.0
 11
68.63695526123047
 21
59.72613143920899
 31
0.0
  0
LINE
  5
177
330
A
100
AcDbEntity
  8
1
  6
CONTINUOUS
 62
     5
100
AcDbLine
 10
58.41515350341797
 20
111.9922943115234
 30
0.0
 11
58.41515350341797
 21
111.968391418457
 31
0.0
  0
LINE
  5
178
330
A
100
AcDbEntity
  8
1
  6
CONTINUOUS
 62
     5
100
AcDbLine
 10
59.22915649414062
 20
111.6638946533203
 30
0.0
 11
59.22915649414062
 21
111.6726837158203
 31
0.0
  0
LINE
  5
179
330
A
100
AcDbEntity
  8
1
  6
CONTINUOUS
 62
     3
100
AcDbLine
 10
59.22945404052734
 20
59.64453125
 30
0.0
 11
59.16945648193359
 21
59.64453125
 31
0.0
  0
LINE
  5
17A
330
A
100
AcDbEntity
  8
1
  6
CONTINUOUS
 62
     5
100
AcDbLine
 10
65.1529541015625
 20
100.0122299194335
 30
0.0
 11
65.1529541015625
 21
100.0361328125
 31
0.0
  0
LINE
  5
17B
330
A
100
AcDbEntity
  8
1
  6
CONTINUOUS
 62
     5
100
AcDbLine
 10
67.85295867919922
 20
100.0361328125
 30
0.0
 11
65.1529541015625
 21
100.0361328125
 31
0.0
  0
LINE
  5
17C
330
A
100
AcDbEntity
  8
1
  6
CONTINUOUS
 62
     5
100
AcDbLine
 10
62.96605682373047
 20
69.33612823486328
 30
0.0
 11
62.96605682373047
 21
69.37612915039062
 31
0.0
  0
LINE
  5
17D
330
A
100
AcDbEntity
  8
1
  6
CONTINUOUS
 62
     3
100
AcDbLine
 10
62.96605682373047
 20
29.0261287689209
 30
0.0
 11
62.96605682373047
 21
29.06612968444824
 31
0.0
  0
LINE
  5
17E
330
A
100
AcDbEntity
  8
1
  6
CONTINUOUS
 62
     5
100
AcDbLine
 10
67.91295623779297
 20
111.6938934326171
 30
0.0
 11
67.91295623779297
 21
111.830696105957
 31
0.0
  0
LINE
  5
17F
330
A
100
AcDbEntity
  8
1
  6
CONTINUOUS
 62
     5
100
AcDbLine
 10
65.04105377197266
 20
111.9122924804687
 30
0.0
 11
62.04105377197265
 21
111.9122924804687
 31
0.0
  0
LINE
  5
180
330
A
100
AcDbEntity
  8
1
  6
CONTINUOUS
 62
     3
100
AcDbLine
 10
62.96605682373047
 20
50.07612991333008
 30
0.0
 11
62.96605682373047
 21
50.11613082885742
 31
0.0
  0
LINE
  5
181
330
A
100
AcDbEntity
  8
1
  6
CONTINUOUS
 62
     3
100
AcDbLine
 10
93.57845306396484
 20
19.46772956848144
 30
0.0
 11
93.60235595703125
 21
19.46772956848144
 31
0.0
  0
LINE
  5
182
330
A
100
AcDbEntity
  8
1
  6
CONTINUOUS
 62
     3
100
AcDbLine
 10
62.56605529785156
 20
50.07612991333008
 30
0.0
 11
62.56605529785156
 21
50.11613082885742
 31
0.0
  0
LINE
  5
183
330
A
100
AcDbEntity
  8
1
  6
CONTINUOUS
 62
     5
100
AcDbLine
 10
67.77135467529297
 20
111.9122924804687
 30
0.0
 11
65.23455810546875
 21
111.9122924804687
 31
0.0
  0
LINE
  5
184
330
A
100
AcDbEntity
  8
1
  6
CONTINUOUS
 62
     3
100
AcDbLine
 10
62.04105377197265
 20
19.49773025512695
 30
0.0
 11
62.04105377197265
 21
59.64453125
 31
0.0
  0
LINE
  5
185
330
A
100
AcDbEntity
  8
1
  6
CONTINUOUS
 62
     3
100
AcDbLine
 10
58.36355590820312
 20
59.64453125
 30
0.0
 11
58.36355590820312
 21
19.49773025512695
 31
0.0
  0
ARC
  5
186
330
A
100
AcDbEntity
  8
1
  6
CONTINUOUS
 62
     5
100
AcDbCircle
 10
65.15265655517578
 20
111.6938934326171
 30
0.0
 40
0.0299999993294478
100
AcDbArc
 50
180.0
 51
270.0
  0
ARC
  5
187
330
A
100
AcDbEntity
  8
1
  6
CONTINUOUS
 62
     5
100
AcDbCircle
 10
62.76605606079101
 20
90.3861312866211
 30
0.0
 40
0.2000000029802322
100
AcDbArc
 50
180.0
 51
0.0
  0
ARC
  5
188
330
A
100
AcDbEntity
  8
1
  6
CONTINUOUS
 62
     5
100
AcDbCircle
 10
67.99455261230469
 20
111.830696105957
 30
0.0
 40
0.0816000029444695
100
AcDbArc
 50
90.0
 51
180.0
  0
ARC
  5
189
330
A
100
AcDbEntity
  8
1
  6
CONTINUOUS
 62
     5
100
AcDbCircle
 10
93.38395690917968
 20
59.80772781372071
 30
0.0
 40
0.0299999993294478
100
AcDbArc
 50
180.0
 51
270.0
  0
ARC
  5
18A
330
A
100
AcDbEntity
  8
1
  6
CONTINUOUS
 62
     5
100
AcDbCircle
 10
68.63695526123047
 20
111.6938934326171
 30
0.0
 40
0.0816000029444695
100
AcDbArc
 50
270.0
 51
0.0
  0
ARC
  5
18B
330
A
100
AcDbEntity
  8
1
  6
CONTINUOUS
 62
     5
100
AcDbCircle
 10
62.04105377197265
 20
111.830696105957
 30
0.0
 40
0.0299999993294478
100
AcDbArc
 50
90.0
 51
180.0
  0
ARC
  5
18C
330
A
100
AcDbEntity
  8
1
  6
CONTINUOUS
 62
     5
100
AcDbCircle
 10
68.55535125732422
 20
111.830696105957
 30
0.0
 40
0.0816000029444695
100
AcDbArc
 50
0.0
 51
90.0
  0
ARC
  5
18D
330
A
100
AcDbEntity
  8
1
  6
CONTINUOUS
 62
     5
100
AcDbCircle
 10
62.76605606079101
 20
90.42613220214844
 30
0.0
 40
0.2000000029802322
100
AcDbArc
 50
0.0
 51
180.0
  0
ARC
  5
18E
330
A
100
AcDbEntity
  8
1
  6
CONTINUOUS
 62
     3
100
AcDbCircle
 10
62.76605606079101
 20
50.07612991333008
 30
0.0
 40
0.2000000029802322
100
AcDbArc
 50
180.0
 51
0.0
  0
ARC
  5
18F
330
A
100
AcDbEntity
  8
1
  6
CONTINUOUS
 62
     5
100
AcDbCircle
 10
67.77135467529297
 20
111.830696105957
 30
0.0
 40
0.0816000029444695
100
AcDbArc
 50
0.0
 51
90.0
  0
ARC
  5
190
330
A
100
AcDbEntity
  8
1
  6
CONTINUOUS
 62
     5
100
AcDbCircle
 10
62.76605606079101
 20
69.33612823486328
 30
0.0
 40
0.2000000029802322
100
AcDbArc
 50
180.0
 51
0.0
  0
ARC
  5
191
330
A
100
AcDbEntity
  8
1
  6
CONTINUOUS
 62
     5
100
AcDbCircle
 10
67.99425506591797
 20
111.830696105957
 30
0.0
 40
0.0816000029444695
100
AcDbArc
 50
90.0
 51
180.0
  0
ARC
  5
192
330
A
100
AcDbEntity
  8
1
  6
CONTINUOUS
 62
     5
100
AcDbCircle
 10
58.44515609741211
 20
111.6938934326171
 30
0.0
 40
0.0299999993294478
100
AcDbArc
 50
180.0
 51
270.0
  0
ARC
  5
193
330
A
100
AcDbEntity
  8
1
  6
CONTINUOUS
 62
     5
100
AcDbCircle
 10
65.04105377197266
 20
111.830696105957
 30
0.0
 40
0.0816000029444695
100
AcDbArc
 50
0.0
 51
90.0
  0
ARC
  5
194
330
A
100
AcDbEntity
  8
1
  6
CONTINUOUS
 62
     5
100
AcDbCircle
 10
65.23455810546875
 20
111.830696105957
 30
0.0
 40
0.0816000029444695
100
AcDbArc
 50
90.0
 51
180.0
  0
ARC
  5
195
330
A
100
AcDbEntity
  8
1
  6
CONTINUOUS
 62
     5
100
AcDbCircle
 10
61.92945480346679
 20
111.6938934326171
 30
0.0
 40
0.0816000029444695
100
AcDbArc
 50
270.0
 51
0.0
  0
ARC
  5
196
330
A
100
AcDbEntity
  8
1
  6
CONTINUOUS
 62
     5
100
AcDbCircle
 10
59.31075668334961
 20
111.830696105957
 30
0.0
 40
0.0816000029444695
100
AcDbArc
 50
90.0
 51
180.0
  0
ARC
  5
197
330
A
100
AcDbEntity
  8
1
  6
CONTINUOUS
 62
     5
100
AcDbCircle
 10
62.04105377197265
 20
111.830696105957
 30
0.0
 40
0.0816000029444695
100
AcDbArc
 50
90.0
 51
180.0
  0
ARC
  5
198
330
A
100
AcDbEntity
  8
1
  6
CONTINUOUS
 62
     5
100
AcDbCircle
 10
68.63695526123047
 20
111.6938934326171
 30
0.0
 40
0.0299999993294478
100
AcDbArc
 50
270.0
 51
0.0
  0
ARC
  5
199
330
A
100
AcDbEntity
  8
1
  6
CONTINUOUS
 62
     5
100
AcDbCircle
 10
61.92945480346679
 20
111.6938934326171
 30
0.0
 40
0.0299999993294478
100
AcDbArc
 50
270.0
 51
0.0
  0
ARC
  5
19A
330
A
100
AcDbEntity
  8
1
  6
CONTINUOUS
 62
     3
100
AcDbCircle
 10
62.76605606079101
 20
29.06612968444824
 30
0.0
 40
0.2000000029802322
100
AcDbArc
 50
0.0
 51
180.0
  0
ARC
  5
19B
330
A
100
AcDbEntity
  8
1
  6
CONTINUOUS
 62
     3
100
AcDbCircle
 10
93.60075378417969
 20
19.57933044433593
 30
0.0
 40
0.0816000029444695
100
AcDbArc
 50
270.0
 51
0.0
  0
ARC
  5
19C
330
A
100
AcDbEntity
  8
1
  6
CONTINUOUS
 62
     5
100
AcDbCircle
 10
59.31105422973633
 20
111.830696105957
 30
0.0
 40
0.0816000029444695
100
AcDbArc
 50
90.0
 51
180.0
  0
ARC
  5
19D
330
A
100
AcDbEntity
  8
1
  6
CONTINUOUS
 62
     5
100
AcDbCircle
 10
93.60075378417969
 20
59.88932800292968
 30
0.0
 40
0.0816000029444695
100
AcDbArc
 50
270.0
 51
0.0
  0
ARC
  5
19E
330
A
100
AcDbEntity
  8
1
  6
CONTINUOUS
 62
     5
100
AcDbCircle
 10
93.60075378417969
 20
99.87293243408203
 30
0.0
 40
0.0816000029444695
100
AcDbArc
 50
0.0
 51
90.0
  0
ARC
  5
19F
330
A
100
AcDbEntity
  8
1
  6
CONTINUOUS
 62
     5
100
AcDbCircle
 10
93.38395690917968
 20
99.95452880859375
 30
0.0
 40
0.0299999993294478
100
AcDbArc
 50
90.0
 51
180.0
  0
ARC
  5
1A0
330
A
100
AcDbEntity
  8
1
  6
CONTINUOUS
 62
     5
100
AcDbCircle
 10
93.38395690917968
 20
99.95452880859375
 30
0.0
 40
0.0816000029444695
100
AcDbArc
 50
90.0
 51
180.0
  0
ARC
  5
1A1
330
A
100
AcDbEntity
  8
1
  6
CONTINUOUS
 62
     5
100
AcDbCircle
 10
93.38395690917968
 20
59.80772781372071
 30
0.0
 40
0.0816000029444695
100
AcDbArc
 50
180.0
 51
270.0
  0
ARC
  5
1A2
330
A
100
AcDbEntity
  8
1
  6
CONTINUOUS
 62
     5
100
AcDbCircle
 10
58.44515609741211
 20
111.6938934326171
 30
0.0
 40
0.0816000029444695
100
AcDbArc
 50
180.0
 51
270.0
  0
ARC
  5
1A3
330
A
100
AcDbEntity
  8
1
  6
CONTINUOUS
 62
     5
100
AcDbCircle
 10
58.52675628662109
 20
111.830696105957
 30
0.0
 40
0.0816000029444695
100
AcDbArc
 50
90.0
 51
180.0
  0
ARC
  5
1A4
330
A
100
AcDbEntity
  8
1
  6
CONTINUOUS
 62
     3
100
AcDbCircle
 10
93.60075378417969
 20
59.56293106079101
 30
0.0
 40
0.0816000029444695
100
AcDbArc
 50
0.0
 51
90.0
  0
ARC
  5
1A5
330
A
100
AcDbEntity
  8
1
  6
CONTINUOUS
 62
     3
100
AcDbCircle
 10
93.38395690917968
 20
59.64453125
 30
0.0
 40
0.0299999993294478
100
AcDbArc
 50
90.0
 51
180.0
  0
ARC
  5
1A6
330
A
100
AcDbEntity
  8
1
  6
CONTINUOUS
 62
     3
100
AcDbCircle
 10
93.38395690917968
 20
59.64453125
 30
0.0
 40
0.0816000029444695
100
AcDbArc
 50
90.0
 51
180.0
  0
ARC
  5
1A7
330
A
100
AcDbEntity
  8
1
  6
CONTINUOUS
 62
     3
100
AcDbCircle
 10
93.38395690917968
 20
19.49773025512695
 30
0.0
 40
0.0816000029444695
100
AcDbArc
 50
180.0
 51
270.0
  0
ARC
  5
1A8
330
A
100
AcDbEntity
  8
1
  6
CONTINUOUS
 62
     3
100
AcDbCircle
 10
93.38395690917968
 20
19.49773025512695
 30
0.0
 40
0.0299999993294478
100
AcDbArc
 50
180.0
 51
270.0
  0
ARC
  5
1A9
330
A
100
AcDbEntity
  8
1
  6
CONTINUOUS
 62
     5
100
AcDbCircle
 10
65.15265655517578
 20
111.6938934326171
 30
0.0
 40
0.0816000029444695
100
AcDbArc
 50
180.0
 51
270.0
  0
ARC
  5
1AA
330
A
100
AcDbEntity
  8
1
  6
CONTINUOUS
 62
     5
100
AcDbCircle
 10
62.76605606079101
 20
69.37612915039062
 30
0.0
 40
0.2000000029802322
100
AcDbArc
 50
0.0
 51
180.0
  0
ARC
  5
1AB
330
A
100
AcDbEntity
  8
1
  6
CONTINUOUS
 62
     5
100
AcDbCircle
 10
59.08785629272461
 20
111.830696105957
 30
0.0
 40
0.0816000029444695
100
AcDbArc
 50
0.0
 51
90.0
  0
ARC
  5
1AC
330
A
100
AcDbEntity
  8
1
  6
CONTINUOUS
 62
     5
100
AcDbCircle
 10
61.84785461425781
 20
111.830696105957
 30
0.0
 40
0.0816000029444695
100
AcDbArc
 50
0.0
 51
90.0
  0
ARC
  5
1AD
330
A
100
AcDbEntity
  8
1
  6
CONTINUOUS
 62
     5
100
AcDbCircle
 10
65.2342529296875
 20
111.830696105957
 30
0.0
 40
0.0816000029444695
100
AcDbArc
 50
90.0
 51
180.0
  0
ARC
  5
1AE
330
A
100
AcDbEntity
  8
1
  6
CONTINUOUS
 62
     3
100
AcDbCircle
 10
62.76605606079101
 20
29.0261287689209
 30
0.0
 40
0.2000000029802322
100
AcDbArc
 50
180.0
 51
0.0
  0
ARC
  5
1AF
330
A
100
AcDbEntity
  8
1
  6
CONTINUOUS
 62
     3
100
AcDbCircle
 10
62.76605606079101
 20
50.11613082885742
 30
0.0
 40
0.2000000029802322
100
AcDbArc
 50
0.0
 51
180.0
  0
ARC
  5
1B0
330
A
100
AcDbEntity
  8
1
  6
CONTINUOUS
 62
     5
100
AcDbCircle
 10
65.04105377197266
 20
111.830696105957
 30
0.0
 40
0.0299999993294478
100
AcDbArc
 50
0.0
 51
90.0
  0
VIEWPORT
  5
1CE
330
B
100
AcDbEntity
 67
     1
  8
0
  6
CONTINUOUS
100
AcDbViewport
 10
3.764492753623188
 20
2.25
 30
0.0
 40
8.528985507246376
 41
5.5
 68
     1
 69
     1
1001
ACAD
1000
MVIEW
1002
{
1070
    16
1010
0.0
1020
0.0
1030
0.0
1010
0.0
1020
0.0
1030
1.0
1040
0.0
1040
5.5
1040
3.764492753623188
1040
2.25
1040
50.0
1040
0.0
1040
0.0
1070
     0
1070
   100
1070
     1
1070
     1
1070
     0
1070
     0
1070
     0
1070
     0
1040
0.0
1040
0.0
1040
0.0
1040
1.0
1040
1.0
1040
0.0
1040
0.0
1070
     0
1002
{
1002
}
1002
}
  0
ENDSEC
  0
SECTION
  2
OBJECTS
  0
DICTIONARY
  5
19
330
0
100
AcDbDictionary
  3
ACAD_GROUP
350
1A
  3
ACAD_LAYOUT
350
1E
  3
ACAD_MLINESTYLE
350
1B
  3
ACAD_PLOTSETTINGS
350
22
  3
ACAD_PLOTSTYLENAME
350
1F
  3
ACAD_WIPEOUT_VARS
350
23
  3
ACDBHEADERROUNDTRIPXREC
350
256
  0
DICTIONARY
  5
277
330
A
100
AcDbDictionary
280
     1
  3
ACAD_LAYOUTSELFREF
360
278
  0
DICTIONARY
  5
279
330
B
100
AcDbDictionary
280
     1
  3
ACAD_LAYOUTSELFREF
360
27A
  0
DICTIONARY
  5
1A
102
{ACAD_REACTORS
330
19
102
}
330
19
100
AcDbDictionary
  0
DICTIONARY
  5
1E
102
{ACAD_REACTORS
330
19
102
}
330
19
100
AcDbDictionary
  0
DICTIONARY
  5
1B
102
{ACAD_REACTORS
330
19
102
}
330
19
100
AcDbDictionary
  3
STANDARD
350
1C
  0
DICTIONARY
  5
22
102
{ACAD_REACTORS
330
19
102
}
330
19
100
AcDbDictionary
  0
ACDBDICTIONARYWDFLT
  5
1F
102
{ACAD_REACTORS
330
19
102
}
330
19
100
AcDbDictionary
281
     1
  3
Normal
350
1D
100
AcDbDictionaryWithDefault
340
1D
  0
ACAD_PROXY_OBJECT
  5
23
330
19
100
AcDbProxyObject
 90
      499
 91
      524
 93
       10
310
4041
 94
        0
1001
ACAD
1000
AcadProxyRoundTripData
1071
      521
1071
   655383
1070
     0
  0
DICTIONARY
  5
256
102
{ACAD_REACTORS
330
19
102
}
330
19
100
AcDbDictionary
  3
CEPSNTYPE
350
260
  3
DIMSTYLEDATA
350
264
  3
FINGERPRINTGUID
350
261
  3
HYPERLINKBASE
350
259
  3
INSUNITS
350
25F
  3
LAYOUTDICT
350
25B
  3
LWETCUNION
350
25E
  3
PLOTSETDICT
350
25C
  3
PLOTSTYLNAMDICT
350
25D
  3
PSVPSCALE
350
263
  3
PUCSBASE
350
267
  3
PUCSORGBACK
350
26D
  3
PUCSORGBOTTOM
350
269
  3
PUCSORGFRONT
350
26C
  3
PUCSORGLEFT
350
26A
  3
PUCSORGRIGHT
350
26B
  3
PUCSORGTOP
350
268
  3
PUCSORTHOREF
350
265
  3
PUCSORTHOVIEW
350
266
  3
STYLESHEET
350
25A
  3
TSTACKALIGN
350
257
  3
TSTACKSIZE
350
258
  3
UCSBASE
350
270
  3
UCSORGBACK
350
276
  3
UCSORGBOTTOM
350
272
  3
UCSORGFRONT
350
275
  3
UCSORGLEFT
350
273
  3
UCSORGRIGHT
350
274
  3
UCSORGTOP
350
271
  3
UCSORTHOREF
350
26E
  3
UCSORTHOVIEW
350
26F
  3
VERSIONGUID
350
262
  0
XRECORD
  5
278
102
{ACAD_REACTORS
330
277
102
}
330
277
100
AcDbXrecord
340
A
  0
XRECORD
  5
27A
102
{ACAD_REACTORS
330
279
102
}
330
279
100
AcDbXrecord
340
B
  0
MLINESTYLE
  5
1C
102
{ACAD_REACTORS
330
1B
102
}
330
1B
100
AcDbMlineStyle
  2
STANDARD
 70
     0
  3

 62
     0
 51
90.0
 52
90.0
 71
     2
 49
0.5
 62
   256
  6
BYLAYER
 49
-0.5
 62
   256
  6
BYLAYER
  0
ACDBPLACEHOLDER
  5
1D
102
{ACAD_REACTORS
330
1F
102
}
330
1F
100
AcDbPlaceHolder
280
     0
  0
XRECORD
  5
260
102
{ACAD_REACTORS
330
256
102
}
330
256
100
AcDbXrecord
 90
        0
  0
XRECORD
  5
264
102
{ACAD_REACTORS
330
256
102
}
330
256
100
AcDbXrecord
1000
DSTYLE
1002
{
1070
   278
 70
     0
1070
   371
 70
     0
1070
   372
 70
     0
1002
}
  0
XRECORD
  5
261
102
{ACAD_REACTORS
330
256
102
}
330
256
100
AcDbXrecord
  1

  0
XRECORD
  5
259
102
{ACAD_REACTORS
330
256
102
}
330
256
100
AcDbXrecord
  1

  0
XRECORD
  5
25F
102
{ACAD_REACTORS
330
256
102
}
330
256
100
AcDbXrecord
 90
        0
  0
XRECORD
  5
25B
102
{ACAD_REACTORS
330
256
102
}
330
256
100
AcDbXrecord
340
1E
  0
XRECORD
  5
25E
102
{ACAD_REACTORS
330
256
102
}
330
256
100
AcDbXrecord
 90
    10752
  0
XRECORD
  5
25C
102
{ACAD_REACTORS
330
256
102
}
330
256
100
AcDbXrecord
340
22
  0
XRECORD
  5
25D
102
{ACAD_REACTORS
330
256
102
}
330
256
100
AcDbXrecord
340
1F
  0
XRECORD
  5
263
102
{ACAD_REACTORS
330
256
102
}
330
256
100
AcDbXrecord
 40
0.0
  0
XRECORD
  5
267
102
{ACAD_REACTORS
330
256
102
}
330
256
100
AcDbXrecord
340
0
  0
XRECORD
  5
26D
102
{ACAD_REACTORS
330
256
102
}
330
256
100
AcDbXrecord
 10
0.0
 20
0.0
 30
0.0
  0
XRECORD
  5
269
102
{ACAD_REACTORS
330
256
102
}
330
256
100
AcDbXrecord
 10
0.0
 20
0.0
 30
0.0
  0
XRECORD
  5
26C
102
{ACAD_REACTORS
330
256
102
}
330
256
100
AcDbXrecord
 10
0.0
 20
0.0
 30
0.0
  0
XRECORD
  5
26A
102
{ACAD_REACTORS
330
256
102
}
330
256
100
AcDbXrecord
 10
0.0
 20
0.0
 30
0.0
  0
XRECORD
  5
26B
102
{ACAD_REACTORS
330
256
102
}
330
256
100
AcDbXrecord
 10
0.0
 20
0.0
 30
0.0
  0
XRECORD
  5
268
102
{ACAD_REACTORS
330
256
102
}
330
256
100
AcDbXrecord
 10
0.0
 20
0.0
 30
0.0
  0
XRECORD
  5
265
102
{ACAD_REACTORS
330
256
102
}
330
256
100
AcDbXrecord
340
0
  0
XRECORD
  5
266
102
{ACAD_REACTORS
330
256
102
}
330
256
100
AcDbXrecord
 70
     0
  0
XRECORD
  5
25A
102
{ACAD_REACTORS
330
256
102
}
330
256
100
AcDbXrecord
  1

  0
XRECORD
  5
257
102
{ACAD_REACTORS
330
256
102
}
330
256
100
AcDbXrecord
 90
        1
  0
XRECORD
  5
258
102
{ACAD_REACTORS
330
256
102
}
330
256
100
AcDbXrecord
 90
       70
  0
XRECORD
  5
270
102
{ACAD_REACTORS
330
256
102
}
330
256
100
AcDbXrecord
340
0
  0
XRECORD
  5
276
102
{ACAD_REACTORS
330
256
102
}
330
256
100
AcDbXrecord
 10
0.0
 20
0.0
 30
0.0
  0
XRECORD
  5
272
102
{ACAD_REACTORS
330
256
102
}
330
256
100
AcDbXrecord
 10
0.0
 20
0.0
 30
0.0
  0
XRECORD
  5
275
102
{ACAD_REACTORS
330
256
102
}
330
256
100
AcDbXrecord
 10
0.0
 20
0.0
 30
0.0
  0
XRECORD
  5
273
102
{ACAD_REACTORS
330
256
102
}
330
256
100
AcDbXrecord
 10
0.0
 20
0.0
 30
0.0
  0
XRECORD
  5
274
102
{ACAD_REACTORS
330
256
102
}
330
256
100
AcDbXrecord
 10
0.0
 20
0.0
 30
0.0
  0
XRECORD
  5
271
102
{ACAD_REACTORS
330
256
102
}
330
256
100
AcDbXrecord
 10
0.0
 20
0.0
 30
0.0
  0
XRECORD
  5
26E
102
{ACAD_REACTORS
330
256
102
}
330
256
100
AcDbXrecord
340
0
  0
XRECORD
  5
26F
102
{ACAD_REACTORS
330
256
102
}
330
256
100
AcDbXrecord
 70
     1
  0
XRECORD
  5
262
102
{ACAD_REACTORS
330
256
102
}
330
256
100
AcDbXrecord
  1
{CA2B99C1-5C91-4988-8037-2E9A2866F5CA}
  0
ENDSEC
  0
EOF
