  0
SECTION
  2
HEADER
  9
$ACADVER
  1
AC1014
  9
$ACADMAINTVER
 70
     9
  9
$DWGCODEPAGE
  3
ANSI_1252
  9
$INSBASE
 10
0.0
 20
0.0
 30
0.0
  9
$EXTMIN
 10
-0.069946261204251
 20
3.332702661553284
 30
-0.0015258207003583
  9
$EXTMAX
 10
6.243530294675764
 20
7.833663960026651
 30
0.0000000349246037
  9
$LIMMIN
 10
0.0
 20
0.0
  9
$LIMMAX
 10
12.0
 20
9.0
  9
$ORTHOMODE
 70
     0
  9
$REGENMODE
 70
     1
  9
$FILLMODE
 70
     1
  9
$QTEXTMODE
 70
     0
  9
$MIRRTEXT
 70
     1
  9
$DRAGMODE
 70
     2
  9
$LTSCALE
 40
1.0
  9
$OSMODE
 70
    39
  9
$ATTMODE
 70
     1
  9
$TEXTSIZE
 40
0.2
  9
$TRACEWID
 40
0.05
  9
$TEXTSTYLE
  7
STANDARD
  9
$CLAYER
  8
0
  9
$CELTYPE
  6
BYLAYER
  9
$CECOLOR
 62
   256
  9
$CELTSCALE
 40
1.0
  9
$DELOBJ
 70
     1
  9
$DISPSILH
 70
     0
  9
$DIMSCALE
 40
1.0
  9
$DIMASZ
 40
0.18
  9
$DIMEXO
 40
0.0625
  9
$DIMDLI
 40
0.38
  9
$DIMRND
 40
0.0
  9
$DIMDLE
 40
0.0
  9
$DIMEXE
 40
0.18
  9
$DIMTP
 40
0.0
  9
$DIMTM
 40
0.0
  9
$DIMTXT
 40
0.18
  9
$DIMCEN
 40
0.09
  9
$DIMTSZ
 40
0.0
  9
$DIMTOL
 70
     0
  9
$DIMLIM
 70
     0
  9
$DIMTIH
 70
     1
  9
$DIMTOH
 70
     1
  9
$DIMSE1
 70
     0
  9
$DIMSE2
 70
     0
  9
$DIMTAD
 70
     0
  9
$DIMZIN
 70
     0
  9
$DIMBLK
  1

  9
$DIMASO
 70
     1
  9
$DIMSHO
 70
     1
  9
$DIMPOST
  1

  9
$DIMAPOST
  1

  9
$DIMALT
 70
     0
  9
$DIMALTD
 70
     2
  9
$DIMALTF
 40
25.4
  9
$DIMLFAC
 40
1.0
  9
$DIMTOFL
 70
     0
  9
$DIMTVP
 40
0.0
  9
$DIMTIX
 70
     0
  9
$DIMSOXD
 70
     0
  9
$DIMSAH
 70
     0
  9
$DIMBLK1
  1

  9
$DIMBLK2
  1

  9
$DIMSTYLE
  2
STANDARD
  9
$DIMCLRD
 70
     0
  9
$DIMCLRE
 70
     0
  9
$DIMCLRT
 70
     0
  9
$DIMTFAC
 40
1.0
  9
$DIMGAP
 40
0.09
  9
$DIMJUST
 70
     0
  9
$DIMSD1
 70
     0
  9
$DIMSD2
 70
     0
  9
$DIMTOLJ
 70
     1
  9
$DIMTZIN
 70
     0
  9
$DIMALTZ
 70
     0
  9
$DIMALTTZ
 70
     0
  9
$DIMFIT
 70
     5
  9
$DIMUPT
 70
     0
  9
$DIMUNIT
 70
     2
  9
$DIMDEC
 70
     4
  9
$DIMTDEC
 70
     4
  9
$DIMALTU
 70
     2
  9
$DIMALTTD
 70
     2
  9
$DIMTXSTY
  7
STANDARD
  9
$DIMAUNIT
 70
     0
  9
$LUNITS
 70
     2
  9
$LUPREC
 70
     4
  9
$SKETCHINC
 40
0.1
  9
$FILLETRAD
 40
0.0
  9
$AUNITS
 70
     0
  9
$AUPREC
 70
     0
  9
$MENU
  1
acad
  9
$ELEVATION
 40
0.0
  9
$PELEVATION
 40
0.0
  9
$THICKNESS
 40
0.0
  9
$LIMCHECK
 70
     0
  9
$BLIPMODE
 70
     0
  9
$CHAMFERA
 40
0.0
  9
$CHAMFERB
 40
0.0
  9
$CHAMFERC
 40
0.0
  9
$CHAMFERD
 40
0.0
  9
$SKPOLY
 70
     0
  9
$TDCREATE
 40
2454434.410011574
  9
$TDUPDATE
 40
2454434.418424467
  9
$TDINDWG
 40
0.0009760301
  9
$TDUSRTIMER
 40
0.0009760301
  9
$USRTIMER
 70
     1
  9
$ANGBASE
 50
0.0
  9
$ANGDIR
 70
     0
  9
$PDMODE
 70
     0
  9
$PDSIZE
 40
0.0
  9
$PLINEWID
 40
0.0
  9
$COORDS
 70
     0
  9
$SPLFRAME
 70
     0
  9
$SPLINETYPE
 70
     6
  9
$SPLINESEGS
 70
     8
  9
$ATTDIA
 70
     0
  9
$ATTREQ
 70
     1
  9
$HANDLING
 70
  4097
  9
$HANDSEED
  5
3108
  9
$SURFTAB1
 70
     6
  9
$SURFTAB2
 70
     6
  9
$SURFTYPE
 70
     6
  9
$SURFU
 70
     6
  9
$SURFV
 70
     6
  9
$UCSNAME
  2

  9
$UCSORG
 10
0.0
 20
0.0
 30
0.0
  9
$UCSXDIR
 10
1.0
 20
0.0
 30
0.0
  9
$UCSYDIR
 10
0.0
 20
1.0
 30
0.0
  9
$PUCSNAME
  2

  9
$PUCSORG
 10
0.0
 20
0.0
 30
0.0
  9
$PUCSXDIR
 10
1.0
 20
0.0
 30
0.0
  9
$PUCSYDIR
 10
0.0
 20
1.0
 30
0.0
  9
$USERI1
 70
     0
  9
$USERI2
 70
     0
  9
$USERI3
 70
     0
  9
$USERI4
 70
     0
  9
$USERI5
 70
     0
  9
$USERR1
 40
0.0
  9
$USERR2
 40
0.0
  9
$USERR3
 40
0.0
  9
$USERR4
 40
0.0
  9
$USERR5
 40
0.0
  9
$WORLDVIEW
 70
     1
  9
$SHADEDGE
 70
     3
  9
$SHADEDIF
 70
    70
  9
$TILEMODE
 70
     1
  9
$MAXACTVP
 70
    16
  9
$PINSBASE
 10
0.0
 20
0.0
 30
0.0
  9
$PLIMCHECK
 70
     0
  9
$PEXTMIN
 10
1.000000000000000E+20
 20
1.000000000000000E+20
 30
1.000000000000000E+20
  9
$PEXTMAX
 10
-1.000000000000000E+20
 20
-1.000000000000000E+20
 30
-1.000000000000000E+20
  9
$PLIMMIN
 10
0.0
 20
0.0
  9
$PLIMMAX
 10
12.0
 20
9.0
  9
$UNITMODE
 70
     0
  9
$VISRETAIN
 70
     0
  9
$PLINEGEN
 70
     0
  9
$PSLTSCALE
 70
     1
  9
$TREEDEPTH
 70
  3020
  9
$PICKSTYLE
 70
     1
  9
$CMLSTYLE
  2
STANDARD
  9
$CMLJUST
 70
     0
  9
$CMLSCALE
 40
1.0
  9
$PROXYGRAPHICS
 70
     1
  9
$MEASUREMENT
 70
     0
  0
ENDSEC
  0
SECTION
  2
CLASSES
  0
CLASS
  1
ACDBDICTIONARYWDFLT
  2
AcDbDictionaryWithDefault
  3
AutoCAD 2000
 90
        0
280
     0
281
     0
  0
CLASS
  1
ACDBPLACEHOLDER
  2
AcDbPlaceHolder
  3
AutoCAD 2000
 90
        0
280
     0
281
     0
  0
CLASS
  1
LAYOUT
  2
AcDbLayout
  3
AutoCAD 2000
 90
        0
280
     0
281
     0
  0
CLASS
  1
LONG_TRANSACTION
  2
AcDbLongTransaction
  3
AutoCAD 2000
 90
        0
280
     0
281
     0
  0
CLASS
  1
LWPOLYLINE
  2
AcDbPolyline
  3
AutoCAD 2000
 90
        0
280
     0
281
     1
  0
CLASS
  1
HATCH
  2
AcDbHatch
  3
AutoCAD 2000
 90
        0
280
     0
281
     1
  0
CLASS
  1
XRECORD
  2
AcDbXrecord
  3
AutoCAD 2000
 90
        0
280
     0
281
     0
  0
ENDSEC
  0
SECTION
  2
TABLES
  0
TABLE
  2
VPORT
  5
8
330
0
100
AcDbSymbolTable
 70
     3
  0
VPORT
  5
30E2
330
8
100
AcDbSymbolTableRecord
100
AcDbViewportTableRecord
  2
*ACTIVE
 70
     0
 10
0.0
 20
0.0
 11
1.0
 21
1.0
 12
3.086792016735756
 22
5.583183310789967
 13
0.0
 23
0.0
 14
1.0
 24
1.0
 15
0.0
 25
0.0
 16
0.0
 26
0.0
 36
1.0
 17
0.0
 27
0.0
 37
0.0
 40
4.555189747852564
 41
1.853118712273641
 42
50.0
 43
0.0
 44
0.0
 50
0.0
 51
0.0
 71
     0
 72
   100
 73
     1
 74
     1
 75
     0
 76
     0
 77
     0
 78
     0
  0
ENDTAB
  0
TABLE
  2
LTYPE
  5
5
330
0
100
AcDbSymbolTable
 70
    25
  0
LTYPE
  5
13
330
5
100
AcDbSymbolTableRecord
100
AcDbLinetypeTableRecord
  2
BYBLOCK
 70
     0
  3

 72
    65
 73
     0
 40
0.0
  0
LTYPE
  5
14
330
5
100
AcDbSymbolTableRecord
100
AcDbLinetypeTableRecord
  2
BYLAYER
 70
     0
  3

 72
    65
 73
     0
 40
0.0
  0
LTYPE
  5
15
330
5
100
AcDbSymbolTableRecord
100
AcDbLinetypeTableRecord
  2
CONTINUOUS
 70
     0
  3
Solid line
 72
    65
 73
     0
 40
0.0
  0
LTYPE
  5
22
330
5
100
AcDbSymbolTableRecord
100
AcDbLinetypeTableRecord
  2
BORDER
 70
     0
  3
__ __ . __ __ . __ __ . __ __ . __ __ . __ __ .
 72
    65
 73
     6
 40
1.75
 49
0.5
 74
     0
 49
-0.25
 74
     0
 49
0.5
 74
     0
 49
-0.25
 74
     0
 49
0.5
 74
     0
 49
-0.25
 74
     0
  0
LTYPE
  5
23
330
5
100
AcDbSymbolTableRecord
100
AcDbLinetypeTableRecord
  2
BORDER2
 70
     0
  3
__.__.__.__.__.__.__.__.
 72
    65
 73
     6
 40
0.875
 49
0.25
 74
     0
 49
-0.125
 74
     0
 49
0.25
 74
     0
 49
-0.125
 74
     0
 49
0.25
 74
     0
 49
-0.125
 74
     0
  0
LTYPE
  5
24
330
5
100
AcDbSymbolTableRecord
100
AcDbLinetypeTableRecord
  2
BORDERX2
 70
     0
  3
____  ____  .  
 72
    65
 73
     6
 40
3.5
 49
1.0
 74
     0
 49
-0.5
 74
     0
 49
1.0
 74
     0
 49
-0.5
 74
     0
 49
1.0
 74
     0
 49
-0.5
 74
     0
  0
LTYPE
  5
25
330
5
100
AcDbSymbolTableRecord
100
AcDbLinetypeTableRecord
  2
CENTER
 70
     0
  3
____ _ ____ _ ____ _ 
 72
    65
 73
     4
 40
2.0
 49
1.25
 74
     0
 49
-0.25
 74
     0
 49
0.25
 74
     0
 49
-0.25
 74
     0
  0
LTYPE
  5
26
330
5
100
AcDbSymbolTableRecord
100
AcDbLinetypeTableRecord
  2
CENTER2
 70
     0
  3
____ _ ____ _ ____ _ 
 72
    65
 73
     4
 40
1.125
 49
0.75
 74
     0
 49
-0.125
 74
     0
 49
0.125
 74
     0
 49
-0.125
 74
     0
  0
LTYPE
  5
27
330
5
100
AcDbSymbolTableRecord
100
AcDbLinetypeTableRecord
  2
CENTERX2
 70
     0
  3
________  __  
 72
    65
 73
     4
 40
4.0
 49
2.5
 74
     0
 49
-0.5
 74
     0
 49
0.5
 74
     0
 49
-0.5
 74
     0
  0
LTYPE
  5
28
330
5
100
AcDbSymbolTableRecord
100
AcDbLinetypeTableRecord
  2
DASHDOT
 70
     0
  3
__ . __ . __ . __ . 
 72
    65
 73
     4
 40
1.0
 49
0.5
 74
     0
 49
-0.25
 74
     0
 49
0.0
 74
     0
 49
-0.25
 74
     0
  0
LTYPE
  5
29
330
5
100
AcDbSymbolTableRecord
100
AcDbLinetypeTableRecord
  2
DASHDOT2
 70
     0
  3
_._._._._._._._._.
 72
    65
 73
     4
 40
0.5
 49
0.25
 74
     0
 49
-0.125
 74
     0
 49
0.0
 74
     0
 49
-0.125
 74
     0
  0
LTYPE
  5
2A
330
5
100
AcDbSymbolTableRecord
100
AcDbLinetypeTableRecord
  2
DASHDOTX2
 70
     0
  3
____  .  ____  .  
 72
    65
 73
     4
 40
2.0
 49
1.0
 74
     0
 49
-0.5
 74
     0
 49
0.0
 74
     0
 49
-0.5
 74
     0
  0
LTYPE
  5
2B
330
5
100
AcDbSymbolTableRecord
100
AcDbLinetypeTableRecord
  2
DASHED
 70
     0
  3
__ __ __ __ __ __ __ 
 72
    65
 73
     2
 40
0.75
 49
0.5
 74
     0
 49
-0.25
 74
     0
  0
LTYPE
  5
2C
330
5
100
AcDbSymbolTableRecord
100
AcDbLinetypeTableRecord
  2
DASHED2
 70
     0
  3
_ _ _ _ _ _ _ _ _ _ 
 72
    65
 73
     2
 40
0.375
 49
0.25
 74
     0
 49
-0.125
 74
     0
  0
LTYPE
  5
2D
330
5
100
AcDbSymbolTableRecord
100
AcDbLinetypeTableRecord
  2
DASHEDX2
 70
     0
  3
____  ____  ____  
 72
    65
 73
     2
 40
1.5
 49
1.0
 74
     0
 49
-0.5
 74
     0
  0
LTYPE
  5
2E
330
5
100
AcDbSymbolTableRecord
100
AcDbLinetypeTableRecord
  2
DIVIDE
 70
     0
  3
____ . . ____ . . 
 72
    65
 73
     6
 40
1.25
 49
0.5
 74
     0
 49
-0.25
 74
     0
 49
0.0
 74
     0
 49
-0.25
 74
     0
 49
0.0
 74
     0
 49
-0.25
 74
     0
  0
LTYPE
  5
2F
330
5
100
AcDbSymbolTableRecord
100
AcDbLinetypeTableRecord
  2
DIVIDE2
 70
     0
  3
__..__..__..__..__..
 72
    65
 73
     6
 40
0.625
 49
0.25
 74
     0
 49
-0.125
 74
     0
 49
0.0
 74
     0
 49
-0.125
 74
     0
 49
0.0
 74
     0
 49
-0.125
 74
     0
  0
LTYPE
  5
30
330
5
100
AcDbSymbolTableRecord
100
AcDbLinetypeTableRecord
  2
DIVIDEX2
 70
     0
  3
________  .  .  
 72
    65
 73
     6
 40
2.5
 49
1.0
 74
     0
 49
-0.5
 74
     0
 49
0.0
 74
     0
 49
-0.5
 74
     0
 49
0.0
 74
     0
 49
-0.5
 74
     0
  0
LTYPE
  5
31
330
5
100
AcDbSymbolTableRecord
100
AcDbLinetypeTableRecord
  2
DOT
 70
     0
  3
. . . . . . . . . 
 72
    65
 73
     2
 40
0.25
 49
0.0
 74
     0
 49
-0.25
 74
     0
  0
LTYPE
  5
32
330
5
100
AcDbSymbolTableRecord
100
AcDbLinetypeTableRecord
  2
DOT2
 70
     0
  3
..................
 72
    65
 73
     2
 40
0.125
 49
0.0
 74
     0
 49
-0.125
 74
     0
  0
LTYPE
  5
33
330
5
100
AcDbSymbolTableRecord
100
AcDbLinetypeTableRecord
  2
DOTX2
 70
     0
  3
.  .  .  .  .  .  
 72
    65
 73
     2
 40
0.5
 49
0.0
 74
     0
 49
-0.5
 74
     0
  0
LTYPE
  5
34
330
5
100
AcDbSymbolTableRecord
100
AcDbLinetypeTableRecord
  2
HIDDEN
 70
     0
  3
__ __ __ __ __ __ 
 72
    65
 73
     2
 40
0.375
 49
0.25
 74
     0
 49
-0.125
 74
     0
  0
LTYPE
  5
35
330
5
100
AcDbSymbolTableRecord
100
AcDbLinetypeTableRecord
  2
HIDDEN2
 70
     0
  3
_ _ _ _ _ _ _ _ _ 
 72
    65
 73
     2
 40
0.1875
 49
0.125
 74
     0
 49
-0.0625
 74
     0
  0
LTYPE
  5
36
330
5
100
AcDbSymbolTableRecord
100
AcDbLinetypeTableRecord
  2
HIDDENX2
 70
     0
  3
____ ____ ____ ____ 
 72
    65
 73
     2
 40
0.75
 49
0.5
 74
     0
 49
-0.25
 74
     0
  0
LTYPE
  5
37
330
5
100
AcDbSymbolTableRecord
100
AcDbLinetypeTableRecord
  2
PHANTOM
 70
     0
  3
______  __  __  
 72
    65
 73
     6
 40
2.5
 49
1.25
 74
     0
 49
-0.25
 74
     0
 49
0.25
 74
     0
 49
-0.25
 74
     0
 49
0.25
 74
     0
 49
-0.25
 74
     0
  0
LTYPE
  5
38
330
5
100
AcDbSymbolTableRecord
100
AcDbLinetypeTableRecord
  2
PHANTOM2
 70
     0
  3
___ _ _ ___ _ _ 
 72
    65
 73
     6
 40
1.25
 49
0.625
 74
     0
 49
-0.125
 74
     0
 49
0.125
 74
     0
 49
-0.125
 74
     0
 49
0.125
 74
     0
 49
-0.125
 74
     0
  0
LTYPE
  5
39
330
5
100
AcDbSymbolTableRecord
100
AcDbLinetypeTableRecord
  2
PHANTOMX2
 70
     0
  3
___ _ _ ___ _ _ 
 72
    65
 73
     6
 40
5.0
 49
2.5
 74
     0
 49
-0.5
 74
     0
 49
0.5
 74
     0
 49
-0.5
 74
     0
 49
0.5
 74
     0
 49
-0.5
 74
     0
  0
ENDTAB
  0
TABLE
  2
LAYER
  5
2
330
0
100
AcDbSymbolTable
 70
   257
  0
LAYER
  5
10
330
2
100
AcDbSymbolTableRecord
100
AcDbLayerTableRecord
  2
0
 70
     0
 62
     7
  6
CONTINUOUS
  0
LAYER
  5
3A
330
2
100
AcDbSymbolTableRecord
100
AcDbLayerTableRecord
  2
1
 70
     0
 62
     1
  6
CONTINUOUS
  0
LAYER
  5
3B
330
2
100
AcDbSymbolTableRecord
100
AcDbLayerTableRecord
  2
2
 70
     0
 62
     2
  6
CONTINUOUS
  0
LAYER
  5
3C
330
2
100
AcDbSymbolTableRecord
100
AcDbLayerTableRecord
  2
3
 70
     0
 62
     3
  6
CONTINUOUS
  0
LAYER
  5
3D
330
2
100
AcDbSymbolTableRecord
100
AcDbLayerTableRecord
  2
4
 70
     0
 62
     4
  6
CONTINUOUS
  0
LAYER
  5
3E
330
2
100
AcDbSymbolTableRecord
100
AcDbLayerTableRecord
  2
5
 70
     0
 62
     5
  6
CONTINUOUS
  0
LAYER
  5
3F
330
2
100
AcDbSymbolTableRecord
100
AcDbLayerTableRecord
  2
6
 70
     0
 62
     6
  6
CONTINUOUS
  0
LAYER
  5
40
330
2
100
AcDbSymbolTableRecord
100
AcDbLayerTableRecord
  2
7
 70
     0
 62
     7
  6
CONTINUOUS
  0
LAYER
  5
41
330
2
100
AcDbSymbolTableRecord
100
AcDbLayerTableRecord
  2
8
 70
     0
 62
     8
  6
CONTINUOUS
  0
LAYER
  5
42
330
2
100
AcDbSymbolTableRecord
100
AcDbLayerTableRecord
  2
9
 70
     0
 62
     9
  6
CONTINUOUS
  0
LAYER
  5
43
330
2
100
AcDbSymbolTableRecord
100
AcDbLayerTableRecord
  2
10
 70
     0
 62
    10
  6
CONTINUOUS
  0
LAYER
  5
44
330
2
100
AcDbSymbolTableRecord
100
AcDbLayerTableRecord
  2
11
 70
     0
 62
    11
  6
CONTINUOUS
  0
LAYER
  5
45
330
2
100
AcDbSymbolTableRecord
100
AcDbLayerTableRecord
  2
12
 70
     0
 62
    12
  6
CONTINUOUS
  0
LAYER
  5
46
330
2
100
AcDbSymbolTableRecord
100
AcDbLayerTableRecord
  2
13
 70
     0
 62
    13
  6
CONTINUOUS
  0
LAYER
  5
47
330
2
100
AcDbSymbolTableRecord
100
AcDbLayerTableRecord
  2
14
 70
     0
 62
    14
  6
CONTINUOUS
  0
LAYER
  5
48
330
2
100
AcDbSymbolTableRecord
100
AcDbLayerTableRecord
  2
15
 70
     0
 62
    15
  6
CONTINUOUS
  0
LAYER
  5
49
330
2
100
AcDbSymbolTableRecord
100
AcDbLayerTableRecord
  2
16
 70
     0
 62
    16
  6
CONTINUOUS
  0
LAYER
  5
4A
330
2
100
AcDbSymbolTableRecord
100
AcDbLayerTableRecord
  2
17
 70
     0
 62
    17
  6
CONTINUOUS
  0
LAYER
  5
4B
330
2
100
AcDbSymbolTableRecord
100
AcDbLayerTableRecord
  2
18
 70
     0
 62
    18
  6
CONTINUOUS
  0
LAYER
  5
4C
330
2
100
AcDbSymbolTableRecord
100
AcDbLayerTableRecord
  2
19
 70
     0
 62
    19
  6
CONTINUOUS
  0
LAYER
  5
4D
330
2
100
AcDbSymbolTableRecord
100
AcDbLayerTableRecord
  2
20
 70
     0
 62
    20
  6
CONTINUOUS
  0
LAYER
  5
4E
330
2
100
AcDbSymbolTableRecord
100
AcDbLayerTableRecord
  2
21
 70
     0
 62
    21
  6
CONTINUOUS
  0
LAYER
  5
4F
330
2
100
AcDbSymbolTableRecord
100
AcDbLayerTableRecord
  2
22
 70
     0
 62
    22
  6
CONTINUOUS
  0
LAYER
  5
50
330
2
100
AcDbSymbolTableRecord
100
AcDbLayerTableRecord
  2
23
 70
     0
 62
    23
  6
CONTINUOUS
  0
LAYER
  5
51
330
2
100
AcDbSymbolTableRecord
100
AcDbLayerTableRecord
  2
24
 70
     0
 62
    24
  6
CONTINUOUS
  0
LAYER
  5
52
330
2
100
AcDbSymbolTableRecord
100
AcDbLayerTableRecord
  2
25
 70
     0
 62
    25
  6
CONTINUOUS
  0
LAYER
  5
53
330
2
100
AcDbSymbolTableRecord
100
AcDbLayerTableRecord
  2
26
 70
     0
 62
    26
  6
CONTINUOUS
  0
LAYER
  5
54
330
2
100
AcDbSymbolTableRecord
100
AcDbLayerTableRecord
  2
27
 70
     0
 62
    27
  6
CONTINUOUS
  0
LAYER
  5
55
330
2
100
AcDbSymbolTableRecord
100
AcDbLayerTableRecord
  2
28
 70
     0
 62
    28
  6
CONTINUOUS
  0
LAYER
  5
56
330
2
100
AcDbSymbolTableRecord
100
AcDbLayerTableRecord
  2
29
 70
     0
 62
    29
  6
CONTINUOUS
  0
LAYER
  5
57
330
2
100
AcDbSymbolTableRecord
100
AcDbLayerTableRecord
  2
30
 70
     0
 62
    30
  6
CONTINUOUS
  0
LAYER
  5
58
330
2
100
AcDbSymbolTableRecord
100
AcDbLayerTableRecord
  2
31
 70
     0
 62
    31
  6
CONTINUOUS
  0
LAYER
  5
59
330
2
100
AcDbSymbolTableRecord
100
AcDbLayerTableRecord
  2
32
 70
     0
 62
    32
  6
CONTINUOUS
  0
LAYER
  5
5A
330
2
100
AcDbSymbolTableRecord
100
AcDbLayerTableRecord
  2
33
 70
     0
 62
    33
  6
CONTINUOUS
  0
LAYER
  5
5B
330
2
100
AcDbSymbolTableRecord
100
AcDbLayerTableRecord
  2
34
 70
     0
 62
    34
  6
CONTINUOUS
  0
LAYER
  5
5C
330
2
100
AcDbSymbolTableRecord
100
AcDbLayerTableRecord
  2
35
 70
     0
 62
    35
  6
CONTINUOUS
  0
LAYER
  5
5D
330
2
100
AcDbSymbolTableRecord
100
AcDbLayerTableRecord
  2
36
 70
     0
 62
    36
  6
CONTINUOUS
  0
LAYER
  5
5E
330
2
100
AcDbSymbolTableRecord
100
AcDbLayerTableRecord
  2
37
 70
     0
 62
    37
  6
CONTINUOUS
  0
LAYER
  5
5F
330
2
100
AcDbSymbolTableRecord
100
AcDbLayerTableRecord
  2
38
 70
     0
 62
    38
  6
CONTINUOUS
  0
LAYER
  5
60
330
2
100
AcDbSymbolTableRecord
100
AcDbLayerTableRecord
  2
39
 70
     0
 62
    39
  6
CONTINUOUS
  0
LAYER
  5
61
330
2
100
AcDbSymbolTableRecord
100
AcDbLayerTableRecord
  2
40
 70
     0
 62
    40
  6
CONTINUOUS
  0
LAYER
  5
62
330
2
100
AcDbSymbolTableRecord
100
AcDbLayerTableRecord
  2
41
 70
     0
 62
    41
  6
CONTINUOUS
  0
LAYER
  5
63
330
2
100
AcDbSymbolTableRecord
100
AcDbLayerTableRecord
  2
42
 70
     0
 62
    42
  6
CONTINUOUS
  0
LAYER
  5
64
330
2
100
AcDbSymbolTableRecord
100
AcDbLayerTableRecord
  2
43
 70
     0
 62
    43
  6
CONTINUOUS
  0
LAYER
  5
65
330
2
100
AcDbSymbolTableRecord
100
AcDbLayerTableRecord
  2
44
 70
     0
 62
    44
  6
CONTINUOUS
  0
LAYER
  5
66
330
2
100
AcDbSymbolTableRecord
100
AcDbLayerTableRecord
  2
45
 70
     0
 62
    45
  6
CONTINUOUS
  0
LAYER
  5
67
330
2
100
AcDbSymbolTableRecord
100
AcDbLayerTableRecord
  2
46
 70
     0
 62
    46
  6
CONTINUOUS
  0
LAYER
  5
68
330
2
100
AcDbSymbolTableRecord
100
AcDbLayerTableRecord
  2
47
 70
     0
 62
    47
  6
CONTINUOUS
  0
LAYER
  5
69
330
2
100
AcDbSymbolTableRecord
100
AcDbLayerTableRecord
  2
48
 70
     0
 62
    48
  6
CONTINUOUS
  0
LAYER
  5
6A
330
2
100
AcDbSymbolTableRecord
100
AcDbLayerTableRecord
  2
49
 70
     0
 62
    49
  6
CONTINUOUS
  0
LAYER
  5
6B
330
2
100
AcDbSymbolTableRecord
100
AcDbLayerTableRecord
  2
50
 70
     0
 62
    50
  6
CONTINUOUS
  0
LAYER
  5
6C
330
2
100
AcDbSymbolTableRecord
100
AcDbLayerTableRecord
  2
51
 70
     0
 62
    51
  6
CONTINUOUS
  0
LAYER
  5
6D
330
2
100
AcDbSymbolTableRecord
100
AcDbLayerTableRecord
  2
52
 70
     0
 62
    52
  6
CONTINUOUS
  0
LAYER
  5
6E
330
2
100
AcDbSymbolTableRecord
100
AcDbLayerTableRecord
  2
53
 70
     0
 62
    53
  6
CONTINUOUS
  0
LAYER
  5
6F
330
2
100
AcDbSymbolTableRecord
100
AcDbLayerTableRecord
  2
54
 70
     0
 62
    54
  6
CONTINUOUS
  0
LAYER
  5
70
330
2
100
AcDbSymbolTableRecord
100
AcDbLayerTableRecord
  2
55
 70
     0
 62
    55
  6
CONTINUOUS
  0
LAYER
  5
71
330
2
100
AcDbSymbolTableRecord
100
AcDbLayerTableRecord
  2
56
 70
     0
 62
    56
  6
CONTINUOUS
  0
LAYER
  5
72
330
2
100
AcDbSymbolTableRecord
100
AcDbLayerTableRecord
  2
57
 70
     0
 62
    57
  6
CONTINUOUS
  0
LAYER
  5
73
330
2
100
AcDbSymbolTableRecord
100
AcDbLayerTableRecord
  2
58
 70
     0
 62
    58
  6
CONTINUOUS
  0
LAYER
  5
74
330
2
100
AcDbSymbolTableRecord
100
AcDbLayerTableRecord
  2
59
 70
     0
 62
    59
  6
CONTINUOUS
  0
LAYER
  5
75
330
2
100
AcDbSymbolTableRecord
100
AcDbLayerTableRecord
  2
60
 70
     0
 62
    60
  6
CONTINUOUS
  0
LAYER
  5
76
330
2
100
AcDbSymbolTableRecord
100
AcDbLayerTableRecord
  2
61
 70
     0
 62
    61
  6
CONTINUOUS
  0
LAYER
  5
77
330
2
100
AcDbSymbolTableRecord
100
AcDbLayerTableRecord
  2
62
 70
     0
 62
    62
  6
CONTINUOUS
  0
LAYER
  5
78
330
2
100
AcDbSymbolTableRecord
100
AcDbLayerTableRecord
  2
63
 70
     0
 62
    63
  6
CONTINUOUS
  0
LAYER
  5
79
330
2
100
AcDbSymbolTableRecord
100
AcDbLayerTableRecord
  2
64
 70
     0
 62
    64
  6
CONTINUOUS
  0
LAYER
  5
7A
330
2
100
AcDbSymbolTableRecord
100
AcDbLayerTableRecord
  2
65
 70
     0
 62
    65
  6
CONTINUOUS
  0
LAYER
  5
7B
330
2
100
AcDbSymbolTableRecord
100
AcDbLayerTableRecord
  2
66
 70
     0
 62
    66
  6
CONTINUOUS
  0
LAYER
  5
7C
330
2
100
AcDbSymbolTableRecord
100
AcDbLayerTableRecord
  2
67
 70
     0
 62
    67
  6
CONTINUOUS
  0
LAYER
  5
7D
330
2
100
AcDbSymbolTableRecord
100
AcDbLayerTableRecord
  2
68
 70
     0
 62
    68
  6
CONTINUOUS
  0
LAYER
  5
7E
330
2
100
AcDbSymbolTableRecord
100
AcDbLayerTableRecord
  2
69
 70
     0
 62
    69
  6
CONTINUOUS
  0
LAYER
  5
7F
330
2
100
AcDbSymbolTableRecord
100
AcDbLayerTableRecord
  2
70
 70
     0
 62
    70
  6
CONTINUOUS
  0
LAYER
  5
80
330
2
100
AcDbSymbolTableRecord
100
AcDbLayerTableRecord
  2
71
 70
     0
 62
    71
  6
CONTINUOUS
  0
LAYER
  5
81
330
2
100
AcDbSymbolTableRecord
100
AcDbLayerTableRecord
  2
72
 70
     0
 62
    72
  6
CONTINUOUS
  0
LAYER
  5
82
330
2
100
AcDbSymbolTableRecord
100
AcDbLayerTableRecord
  2
73
 70
     0
 62
    73
  6
CONTINUOUS
  0
LAYER
  5
83
330
2
100
AcDbSymbolTableRecord
100
AcDbLayerTableRecord
  2
74
 70
     0
 62
    74
  6
CONTINUOUS
  0
LAYER
  5
84
330
2
100
AcDbSymbolTableRecord
100
AcDbLayerTableRecord
  2
75
 70
     0
 62
    75
  6
CONTINUOUS
  0
LAYER
  5
85
330
2
100
AcDbSymbolTableRecord
100
AcDbLayerTableRecord
  2
76
 70
     0
 62
    76
  6
CONTINUOUS
  0
LAYER
  5
86
330
2
100
AcDbSymbolTableRecord
100
AcDbLayerTableRecord
  2
77
 70
     0
 62
    77
  6
CONTINUOUS
  0
LAYER
  5
87
330
2
100
AcDbSymbolTableRecord
100
AcDbLayerTableRecord
  2
78
 70
     0
 62
    78
  6
CONTINUOUS
  0
LAYER
  5
88
330
2
100
AcDbSymbolTableRecord
100
AcDbLayerTableRecord
  2
79
 70
     0
 62
    79
  6
CONTINUOUS
  0
LAYER
  5
89
330
2
100
AcDbSymbolTableRecord
100
AcDbLayerTableRecord
  2
80
 70
     0
 62
    80
  6
CONTINUOUS
  0
LAYER
  5
8A
330
2
100
AcDbSymbolTableRecord
100
AcDbLayerTableRecord
  2
81
 70
     0
 62
    81
  6
CONTINUOUS
  0
LAYER
  5
8B
330
2
100
AcDbSymbolTableRecord
100
AcDbLayerTableRecord
  2
82
 70
     0
 62
    82
  6
CONTINUOUS
  0
LAYER
  5
8C
330
2
100
AcDbSymbolTableRecord
100
AcDbLayerTableRecord
  2
83
 70
     0
 62
    83
  6
CONTINUOUS
  0
LAYER
  5
8D
330
2
100
AcDbSymbolTableRecord
100
AcDbLayerTableRecord
  2
84
 70
     0
 62
    84
  6
CONTINUOUS
  0
LAYER
  5
8E
330
2
100
AcDbSymbolTableRecord
100
AcDbLayerTableRecord
  2
85
 70
     0
 62
    85
  6
CONTINUOUS
  0
LAYER
  5
8F
330
2
100
AcDbSymbolTableRecord
100
AcDbLayerTableRecord
  2
86
 70
     0
 62
    86
  6
CONTINUOUS
  0
LAYER
  5
90
330
2
100
AcDbSymbolTableRecord
100
AcDbLayerTableRecord
  2
87
 70
     0
 62
    87
  6
CONTINUOUS
  0
LAYER
  5
91
330
2
100
AcDbSymbolTableRecord
100
AcDbLayerTableRecord
  2
88
 70
     0
 62
    88
  6
CONTINUOUS
  0
LAYER
  5
92
330
2
100
AcDbSymbolTableRecord
100
AcDbLayerTableRecord
  2
89
 70
     0
 62
    89
  6
CONTINUOUS
  0
LAYER
  5
93
330
2
100
AcDbSymbolTableRecord
100
AcDbLayerTableRecord
  2
90
 70
     0
 62
    90
  6
CONTINUOUS
  0
LAYER
  5
94
330
2
100
AcDbSymbolTableRecord
100
AcDbLayerTableRecord
  2
91
 70
     0
 62
    91
  6
CONTINUOUS
  0
LAYER
  5
95
330
2
100
AcDbSymbolTableRecord
100
AcDbLayerTableRecord
  2
92
 70
     0
 62
    92
  6
CONTINUOUS
  0
LAYER
  5
96
330
2
100
AcDbSymbolTableRecord
100
AcDbLayerTableRecord
  2
93
 70
     0
 62
    93
  6
CONTINUOUS
  0
LAYER
  5
97
330
2
100
AcDbSymbolTableRecord
100
AcDbLayerTableRecord
  2
94
 70
     0
 62
    94
  6
CONTINUOUS
  0
LAYER
  5
98
330
2
100
AcDbSymbolTableRecord
100
AcDbLayerTableRecord
  2
95
 70
     0
 62
    95
  6
CONTINUOUS
  0
LAYER
  5
99
330
2
100
AcDbSymbolTableRecord
100
AcDbLayerTableRecord
  2
96
 70
     0
 62
    96
  6
CONTINUOUS
  0
LAYER
  5
9A
330
2
100
AcDbSymbolTableRecord
100
AcDbLayerTableRecord
  2
97
 70
     0
 62
    97
  6
CONTINUOUS
  0
LAYER
  5
9B
330
2
100
AcDbSymbolTableRecord
100
AcDbLayerTableRecord
  2
98
 70
     0
 62
    98
  6
CONTINUOUS
  0
LAYER
  5
9C
330
2
100
AcDbSymbolTableRecord
100
AcDbLayerTableRecord
  2
99
 70
     0
 62
    99
  6
CONTINUOUS
  0
LAYER
  5
9D
330
2
100
AcDbSymbolTableRecord
100
AcDbLayerTableRecord
  2
100
 70
     0
 62
   100
  6
CONTINUOUS
  0
LAYER
  5
9E
330
2
100
AcDbSymbolTableRecord
100
AcDbLayerTableRecord
  2
101
 70
     0
 62
   101
  6
CONTINUOUS
  0
LAYER
  5
9F
330
2
100
AcDbSymbolTableRecord
100
AcDbLayerTableRecord
  2
102
 70
     0
 62
   102
  6
CONTINUOUS
  0
LAYER
  5
A0
330
2
100
AcDbSymbolTableRecord
100
AcDbLayerTableRecord
  2
103
 70
     0
 62
   103
  6
CONTINUOUS
  0
LAYER
  5
A1
330
2
100
AcDbSymbolTableRecord
100
AcDbLayerTableRecord
  2
104
 70
     0
 62
   104
  6
CONTINUOUS
  0
LAYER
  5
A2
330
2
100
AcDbSymbolTableRecord
100
AcDbLayerTableRecord
  2
105
 70
     0
 62
   105
  6
CONTINUOUS
  0
LAYER
  5
A3
330
2
100
AcDbSymbolTableRecord
100
AcDbLayerTableRecord
  2
106
 70
     0
 62
   106
  6
CONTINUOUS
  0
LAYER
  5
A4
330
2
100
AcDbSymbolTableRecord
100
AcDbLayerTableRecord
  2
107
 70
     0
 62
   107
  6
CONTINUOUS
  0
LAYER
  5
A5
330
2
100
AcDbSymbolTableRecord
100
AcDbLayerTableRecord
  2
108
 70
     0
 62
   108
  6
CONTINUOUS
  0
LAYER
  5
A6
330
2
100
AcDbSymbolTableRecord
100
AcDbLayerTableRecord
  2
109
 70
     0
 62
   109
  6
CONTINUOUS
  0
LAYER
  5
A7
330
2
100
AcDbSymbolTableRecord
100
AcDbLayerTableRecord
  2
110
 70
     0
 62
   110
  6
CONTINUOUS
  0
LAYER
  5
A8
330
2
100
AcDbSymbolTableRecord
100
AcDbLayerTableRecord
  2
111
 70
     0
 62
   111
  6
CONTINUOUS
  0
LAYER
  5
A9
330
2
100
AcDbSymbolTableRecord
100
AcDbLayerTableRecord
  2
112
 70
     0
 62
   112
  6
CONTINUOUS
  0
LAYER
  5
AA
330
2
100
AcDbSymbolTableRecord
100
AcDbLayerTableRecord
  2
113
 70
     0
 62
   113
  6
CONTINUOUS
  0
LAYER
  5
AB
330
2
100
AcDbSymbolTableRecord
100
AcDbLayerTableRecord
  2
114
 70
     0
 62
   114
  6
CONTINUOUS
  0
LAYER
  5
AC
330
2
100
AcDbSymbolTableRecord
100
AcDbLayerTableRecord
  2
115
 70
     0
 62
   115
  6
CONTINUOUS
  0
LAYER
  5
AD
330
2
100
AcDbSymbolTableRecord
100
AcDbLayerTableRecord
  2
116
 70
     0
 62
   116
  6
CONTINUOUS
  0
LAYER
  5
AE
330
2
100
AcDbSymbolTableRecord
100
AcDbLayerTableRecord
  2
117
 70
     0
 62
   117
  6
CONTINUOUS
  0
LAYER
  5
AF
330
2
100
AcDbSymbolTableRecord
100
AcDbLayerTableRecord
  2
118
 70
     0
 62
   118
  6
CONTINUOUS
  0
LAYER
  5
B0
330
2
100
AcDbSymbolTableRecord
100
AcDbLayerTableRecord
  2
119
 70
     0
 62
   119
  6
CONTINUOUS
  0
LAYER
  5
B1
330
2
100
AcDbSymbolTableRecord
100
AcDbLayerTableRecord
  2
120
 70
     0
 62
   120
  6
CONTINUOUS
  0
LAYER
  5
B2
330
2
100
AcDbSymbolTableRecord
100
AcDbLayerTableRecord
  2
121
 70
     0
 62
   121
  6
CONTINUOUS
  0
LAYER
  5
B3
330
2
100
AcDbSymbolTableRecord
100
AcDbLayerTableRecord
  2
122
 70
     0
 62
   122
  6
CONTINUOUS
  0
LAYER
  5
B4
330
2
100
AcDbSymbolTableRecord
100
AcDbLayerTableRecord
  2
123
 70
     0
 62
   123
  6
CONTINUOUS
  0
LAYER
  5
B5
330
2
100
AcDbSymbolTableRecord
100
AcDbLayerTableRecord
  2
124
 70
     0
 62
   124
  6
CONTINUOUS
  0
LAYER
  5
B6
330
2
100
AcDbSymbolTableRecord
100
AcDbLayerTableRecord
  2
125
 70
     0
 62
   125
  6
CONTINUOUS
  0
LAYER
  5
B7
330
2
100
AcDbSymbolTableRecord
100
AcDbLayerTableRecord
  2
126
 70
     0
 62
   126
  6
CONTINUOUS
  0
LAYER
  5
B8
330
2
100
AcDbSymbolTableRecord
100
AcDbLayerTableRecord
  2
127
 70
     0
 62
   127
  6
CONTINUOUS
  0
LAYER
  5
B9
330
2
100
AcDbSymbolTableRecord
100
AcDbLayerTableRecord
  2
128
 70
     0
 62
   128
  6
CONTINUOUS
  0
LAYER
  5
BA
330
2
100
AcDbSymbolTableRecord
100
AcDbLayerTableRecord
  2
129
 70
     0
 62
   129
  6
CONTINUOUS
  0
LAYER
  5
BB
330
2
100
AcDbSymbolTableRecord
100
AcDbLayerTableRecord
  2
130
 70
     0
 62
   130
  6
CONTINUOUS
  0
LAYER
  5
BC
330
2
100
AcDbSymbolTableRecord
100
AcDbLayerTableRecord
  2
131
 70
     0
 62
   131
  6
CONTINUOUS
  0
LAYER
  5
BD
330
2
100
AcDbSymbolTableRecord
100
AcDbLayerTableRecord
  2
132
 70
     0
 62
   132
  6
CONTINUOUS
  0
LAYER
  5
BE
330
2
100
AcDbSymbolTableRecord
100
AcDbLayerTableRecord
  2
133
 70
     0
 62
   133
  6
CONTINUOUS
  0
LAYER
  5
BF
330
2
100
AcDbSymbolTableRecord
100
AcDbLayerTableRecord
  2
134
 70
     0
 62
   134
  6
CONTINUOUS
  0
LAYER
  5
C0
330
2
100
AcDbSymbolTableRecord
100
AcDbLayerTableRecord
  2
135
 70
     0
 62
   135
  6
CONTINUOUS
  0
LAYER
  5
C1
330
2
100
AcDbSymbolTableRecord
100
AcDbLayerTableRecord
  2
136
 70
     0
 62
   136
  6
CONTINUOUS
  0
LAYER
  5
C2
330
2
100
AcDbSymbolTableRecord
100
AcDbLayerTableRecord
  2
137
 70
     0
 62
   137
  6
CONTINUOUS
  0
LAYER
  5
C3
330
2
100
AcDbSymbolTableRecord
100
AcDbLayerTableRecord
  2
138
 70
     0
 62
   138
  6
CONTINUOUS
  0
LAYER
  5
C4
330
2
100
AcDbSymbolTableRecord
100
AcDbLayerTableRecord
  2
139
 70
     0
 62
   139
  6
CONTINUOUS
  0
LAYER
  5
C5
330
2
100
AcDbSymbolTableRecord
100
AcDbLayerTableRecord
  2
140
 70
     0
 62
   140
  6
CONTINUOUS
  0
LAYER
  5
C6
330
2
100
AcDbSymbolTableRecord
100
AcDbLayerTableRecord
  2
141
 70
     0
 62
   141
  6
CONTINUOUS
  0
LAYER
  5
C7
330
2
100
AcDbSymbolTableRecord
100
AcDbLayerTableRecord
  2
142
 70
     0
 62
   142
  6
CONTINUOUS
  0
LAYER
  5
C8
330
2
100
AcDbSymbolTableRecord
100
AcDbLayerTableRecord
  2
143
 70
     0
 62
   143
  6
CONTINUOUS
  0
LAYER
  5
C9
330
2
100
AcDbSymbolTableRecord
100
AcDbLayerTableRecord
  2
144
 70
     0
 62
   144
  6
CONTINUOUS
  0
LAYER
  5
CA
330
2
100
AcDbSymbolTableRecord
100
AcDbLayerTableRecord
  2
145
 70
     0
 62
   145
  6
CONTINUOUS
  0
LAYER
  5
CB
330
2
100
AcDbSymbolTableRecord
100
AcDbLayerTableRecord
  2
146
 70
     0
 62
   146
  6
CONTINUOUS
  0
LAYER
  5
CC
330
2
100
AcDbSymbolTableRecord
100
AcDbLayerTableRecord
  2
147
 70
     0
 62
   147
  6
CONTINUOUS
  0
LAYER
  5
CD
330
2
100
AcDbSymbolTableRecord
100
AcDbLayerTableRecord
  2
148
 70
     0
 62
   148
  6
CONTINUOUS
  0
LAYER
  5
CE
330
2
100
AcDbSymbolTableRecord
100
AcDbLayerTableRecord
  2
149
 70
     0
 62
   149
  6
CONTINUOUS
  0
LAYER
  5
CF
330
2
100
AcDbSymbolTableRecord
100
AcDbLayerTableRecord
  2
150
 70
     0
 62
   150
  6
CONTINUOUS
  0
LAYER
  5
D0
330
2
100
AcDbSymbolTableRecord
100
AcDbLayerTableRecord
  2
151
 70
     0
 62
   151
  6
CONTINUOUS
  0
LAYER
  5
D1
330
2
100
AcDbSymbolTableRecord
100
AcDbLayerTableRecord
  2
152
 70
     0
 62
   152
  6
CONTINUOUS
  0
LAYER
  5
D2
330
2
100
AcDbSymbolTableRecord
100
AcDbLayerTableRecord
  2
153
 70
     0
 62
   153
  6
CONTINUOUS
  0
LAYER
  5
D3
330
2
100
AcDbSymbolTableRecord
100
AcDbLayerTableRecord
  2
154
 70
     0
 62
   154
  6
CONTINUOUS
  0
LAYER
  5
D4
330
2
100
AcDbSymbolTableRecord
100
AcDbLayerTableRecord
  2
155
 70
     0
 62
   155
  6
CONTINUOUS
  0
LAYER
  5
D5
330
2
100
AcDbSymbolTableRecord
100
AcDbLayerTableRecord
  2
156
 70
     0
 62
   156
  6
CONTINUOUS
  0
LAYER
  5
D6
330
2
100
AcDbSymbolTableRecord
100
AcDbLayerTableRecord
  2
157
 70
     0
 62
   157
  6
CONTINUOUS
  0
LAYER
  5
D7
330
2
100
AcDbSymbolTableRecord
100
AcDbLayerTableRecord
  2
158
 70
     0
 62
   158
  6
CONTINUOUS
  0
LAYER
  5
D8
330
2
100
AcDbSymbolTableRecord
100
AcDbLayerTableRecord
  2
159
 70
     0
 62
   159
  6
CONTINUOUS
  0
LAYER
  5
D9
330
2
100
AcDbSymbolTableRecord
100
AcDbLayerTableRecord
  2
160
 70
     0
 62
   160
  6
CONTINUOUS
  0
LAYER
  5
DA
330
2
100
AcDbSymbolTableRecord
100
AcDbLayerTableRecord
  2
161
 70
     0
 62
   161
  6
CONTINUOUS
  0
LAYER
  5
DB
330
2
100
AcDbSymbolTableRecord
100
AcDbLayerTableRecord
  2
162
 70
     0
 62
   162
  6
CONTINUOUS
  0
LAYER
  5
DC
330
2
100
AcDbSymbolTableRecord
100
AcDbLayerTableRecord
  2
163
 70
     0
 62
   163
  6
CONTINUOUS
  0
LAYER
  5
DD
330
2
100
AcDbSymbolTableRecord
100
AcDbLayerTableRecord
  2
164
 70
     0
 62
   164
  6
CONTINUOUS
  0
LAYER
  5
DE
330
2
100
AcDbSymbolTableRecord
100
AcDbLayerTableRecord
  2
165
 70
     0
 62
   165
  6
CONTINUOUS
  0
LAYER
  5
DF
330
2
100
AcDbSymbolTableRecord
100
AcDbLayerTableRecord
  2
166
 70
     0
 62
   166
  6
CONTINUOUS
  0
LAYER
  5
E0
330
2
100
AcDbSymbolTableRecord
100
AcDbLayerTableRecord
  2
167
 70
     0
 62
   167
  6
CONTINUOUS
  0
LAYER
  5
E1
330
2
100
AcDbSymbolTableRecord
100
AcDbLayerTableRecord
  2
168
 70
     0
 62
   168
  6
CONTINUOUS
  0
LAYER
  5
E2
330
2
100
AcDbSymbolTableRecord
100
AcDbLayerTableRecord
  2
169
 70
     0
 62
   169
  6
CONTINUOUS
  0
LAYER
  5
E3
330
2
100
AcDbSymbolTableRecord
100
AcDbLayerTableRecord
  2
170
 70
     0
 62
   170
  6
CONTINUOUS
  0
LAYER
  5
E4
330
2
100
AcDbSymbolTableRecord
100
AcDbLayerTableRecord
  2
171
 70
     0
 62
   171
  6
CONTINUOUS
  0
LAYER
  5
E5
330
2
100
AcDbSymbolTableRecord
100
AcDbLayerTableRecord
  2
172
 70
     0
 62
   172
  6
CONTINUOUS
  0
LAYER
  5
E6
330
2
100
AcDbSymbolTableRecord
100
AcDbLayerTableRecord
  2
173
 70
     0
 62
   173
  6
CONTINUOUS
  0
LAYER
  5
E7
330
2
100
AcDbSymbolTableRecord
100
AcDbLayerTableRecord
  2
174
 70
     0
 62
   174
  6
CONTINUOUS
  0
LAYER
  5
E8
330
2
100
AcDbSymbolTableRecord
100
AcDbLayerTableRecord
  2
175
 70
     0
 62
   175
  6
CONTINUOUS
  0
LAYER
  5
E9
330
2
100
AcDbSymbolTableRecord
100
AcDbLayerTableRecord
  2
176
 70
     0
 62
   176
  6
CONTINUOUS
  0
LAYER
  5
EA
330
2
100
AcDbSymbolTableRecord
100
AcDbLayerTableRecord
  2
177
 70
     0
 62
   177
  6
CONTINUOUS
  0
LAYER
  5
EB
330
2
100
AcDbSymbolTableRecord
100
AcDbLayerTableRecord
  2
178
 70
     0
 62
   178
  6
CONTINUOUS
  0
LAYER
  5
EC
330
2
100
AcDbSymbolTableRecord
100
AcDbLayerTableRecord
  2
179
 70
     0
 62
   179
  6
CONTINUOUS
  0
LAYER
  5
ED
330
2
100
AcDbSymbolTableRecord
100
AcDbLayerTableRecord
  2
180
 70
     0
 62
   180
  6
CONTINUOUS
  0
LAYER
  5
EE
330
2
100
AcDbSymbolTableRecord
100
AcDbLayerTableRecord
  2
181
 70
     0
 62
   181
  6
CONTINUOUS
  0
LAYER
  5
EF
330
2
100
AcDbSymbolTableRecord
100
AcDbLayerTableRecord
  2
182
 70
     0
 62
   182
  6
CONTINUOUS
  0
LAYER
  5
F0
330
2
100
AcDbSymbolTableRecord
100
AcDbLayerTableRecord
  2
183
 70
     0
 62
   183
  6
CONTINUOUS
  0
LAYER
  5
F1
330
2
100
AcDbSymbolTableRecord
100
AcDbLayerTableRecord
  2
184
 70
     0
 62
   184
  6
CONTINUOUS
  0
LAYER
  5
F2
330
2
100
AcDbSymbolTableRecord
100
AcDbLayerTableRecord
  2
185
 70
     0
 62
   185
  6
CONTINUOUS
  0
LAYER
  5
F3
330
2
100
AcDbSymbolTableRecord
100
AcDbLayerTableRecord
  2
186
 70
     0
 62
   186
  6
CONTINUOUS
  0
LAYER
  5
F4
330
2
100
AcDbSymbolTableRecord
100
AcDbLayerTableRecord
  2
187
 70
     0
 62
   187
  6
CONTINUOUS
  0
LAYER
  5
F5
330
2
100
AcDbSymbolTableRecord
100
AcDbLayerTableRecord
  2
188
 70
     0
 62
   188
  6
CONTINUOUS
  0
LAYER
  5
F6
330
2
100
AcDbSymbolTableRecord
100
AcDbLayerTableRecord
  2
189
 70
     0
 62
   189
  6
CONTINUOUS
  0
LAYER
  5
F7
330
2
100
AcDbSymbolTableRecord
100
AcDbLayerTableRecord
  2
190
 70
     0
 62
   190
  6
CONTINUOUS
  0
LAYER
  5
F8
330
2
100
AcDbSymbolTableRecord
100
AcDbLayerTableRecord
  2
191
 70
     0
 62
   191
  6
CONTINUOUS
  0
LAYER
  5
F9
330
2
100
AcDbSymbolTableRecord
100
AcDbLayerTableRecord
  2
192
 70
     0
 62
   192
  6
CONTINUOUS
  0
LAYER
  5
FA
330
2
100
AcDbSymbolTableRecord
100
AcDbLayerTableRecord
  2
193
 70
     0
 62
   193
  6
CONTINUOUS
  0
LAYER
  5
FB
330
2
100
AcDbSymbolTableRecord
100
AcDbLayerTableRecord
  2
194
 70
     0
 62
   194
  6
CONTINUOUS
  0
LAYER
  5
FC
330
2
100
AcDbSymbolTableRecord
100
AcDbLayerTableRecord
  2
195
 70
     0
 62
   195
  6
CONTINUOUS
  0
LAYER
  5
FD
330
2
100
AcDbSymbolTableRecord
100
AcDbLayerTableRecord
  2
196
 70
     0
 62
   196
  6
CONTINUOUS
  0
LAYER
  5
FE
330
2
100
AcDbSymbolTableRecord
100
AcDbLayerTableRecord
  2
197
 70
     0
 62
   197
  6
CONTINUOUS
  0
LAYER
  5
FF
330
2
100
AcDbSymbolTableRecord
100
AcDbLayerTableRecord
  2
198
 70
     0
 62
   198
  6
CONTINUOUS
  0
LAYER
  5
100
330
2
100
AcDbSymbolTableRecord
100
AcDbLayerTableRecord
  2
199
 70
     0
 62
   199
  6
CONTINUOUS
  0
LAYER
  5
101
330
2
100
AcDbSymbolTableRecord
100
AcDbLayerTableRecord
  2
200
 70
     0
 62
   200
  6
CONTINUOUS
  0
LAYER
  5
102
330
2
100
AcDbSymbolTableRecord
100
AcDbLayerTableRecord
  2
201
 70
     0
 62
   201
  6
CONTINUOUS
  0
LAYER
  5
103
330
2
100
AcDbSymbolTableRecord
100
AcDbLayerTableRecord
  2
202
 70
     0
 62
   202
  6
CONTINUOUS
  0
LAYER
  5
104
330
2
100
AcDbSymbolTableRecord
100
AcDbLayerTableRecord
  2
203
 70
     0
 62
   203
  6
CONTINUOUS
  0
LAYER
  5
105
330
2
100
AcDbSymbolTableRecord
100
AcDbLayerTableRecord
  2
204
 70
     0
 62
   204
  6
CONTINUOUS
  0
LAYER
  5
106
330
2
100
AcDbSymbolTableRecord
100
AcDbLayerTableRecord
  2
205
 70
     0
 62
   205
  6
CONTINUOUS
  0
LAYER
  5
107
330
2
100
AcDbSymbolTableRecord
100
AcDbLayerTableRecord
  2
206
 70
     0
 62
   206
  6
CONTINUOUS
  0
LAYER
  5
108
330
2
100
AcDbSymbolTableRecord
100
AcDbLayerTableRecord
  2
207
 70
     0
 62
   207
  6
CONTINUOUS
  0
LAYER
  5
109
330
2
100
AcDbSymbolTableRecord
100
AcDbLayerTableRecord
  2
208
 70
     0
 62
   208
  6
CONTINUOUS
  0
LAYER
  5
10A
330
2
100
AcDbSymbolTableRecord
100
AcDbLayerTableRecord
  2
209
 70
     0
 62
   209
  6
CONTINUOUS
  0
LAYER
  5
10B
330
2
100
AcDbSymbolTableRecord
100
AcDbLayerTableRecord
  2
210
 70
     0
 62
   210
  6
CONTINUOUS
  0
LAYER
  5
10C
330
2
100
AcDbSymbolTableRecord
100
AcDbLayerTableRecord
  2
211
 70
     0
 62
   211
  6
CONTINUOUS
  0
LAYER
  5
10D
330
2
100
AcDbSymbolTableRecord
100
AcDbLayerTableRecord
  2
212
 70
     0
 62
   212
  6
CONTINUOUS
  0
LAYER
  5
10E
330
2
100
AcDbSymbolTableRecord
100
AcDbLayerTableRecord
  2
213
 70
     0
 62
   213
  6
CONTINUOUS
  0
LAYER
  5
10F
330
2
100
AcDbSymbolTableRecord
100
AcDbLayerTableRecord
  2
214
 70
     0
 62
   214
  6
CONTINUOUS
  0
LAYER
  5
110
330
2
100
AcDbSymbolTableRecord
100
AcDbLayerTableRecord
  2
215
 70
     0
 62
   215
  6
CONTINUOUS
  0
LAYER
  5
111
330
2
100
AcDbSymbolTableRecord
100
AcDbLayerTableRecord
  2
216
 70
     0
 62
   216
  6
CONTINUOUS
  0
LAYER
  5
112
330
2
100
AcDbSymbolTableRecord
100
AcDbLayerTableRecord
  2
217
 70
     0
 62
   217
  6
CONTINUOUS
  0
LAYER
  5
113
330
2
100
AcDbSymbolTableRecord
100
AcDbLayerTableRecord
  2
218
 70
     0
 62
   218
  6
CONTINUOUS
  0
LAYER
  5
114
330
2
100
AcDbSymbolTableRecord
100
AcDbLayerTableRecord
  2
219
 70
     0
 62
   219
  6
CONTINUOUS
  0
LAYER
  5
115
330
2
100
AcDbSymbolTableRecord
100
AcDbLayerTableRecord
  2
220
 70
     0
 62
   220
  6
CONTINUOUS
  0
LAYER
  5
116
330
2
100
AcDbSymbolTableRecord
100
AcDbLayerTableRecord
  2
221
 70
     0
 62
   221
  6
CONTINUOUS
  0
LAYER
  5
117
330
2
100
AcDbSymbolTableRecord
100
AcDbLayerTableRecord
  2
222
 70
     0
 62
   222
  6
CONTINUOUS
  0
LAYER
  5
118
330
2
100
AcDbSymbolTableRecord
100
AcDbLayerTableRecord
  2
223
 70
     0
 62
   223
  6
CONTINUOUS
  0
LAYER
  5
119
330
2
100
AcDbSymbolTableRecord
100
AcDbLayerTableRecord
  2
224
 70
     0
 62
   224
  6
CONTINUOUS
  0
LAYER
  5
11A
330
2
100
AcDbSymbolTableRecord
100
AcDbLayerTableRecord
  2
225
 70
     0
 62
   225
  6
CONTINUOUS
  0
LAYER
  5
11B
330
2
100
AcDbSymbolTableRecord
100
AcDbLayerTableRecord
  2
226
 70
     0
 62
   226
  6
CONTINUOUS
  0
LAYER
  5
11C
330
2
100
AcDbSymbolTableRecord
100
AcDbLayerTableRecord
  2
227
 70
     0
 62
   227
  6
CONTINUOUS
  0
LAYER
  5
11D
330
2
100
AcDbSymbolTableRecord
100
AcDbLayerTableRecord
  2
228
 70
     0
 62
   228
  6
CONTINUOUS
  0
LAYER
  5
11E
330
2
100
AcDbSymbolTableRecord
100
AcDbLayerTableRecord
  2
229
 70
     0
 62
   229
  6
CONTINUOUS
  0
LAYER
  5
11F
330
2
100
AcDbSymbolTableRecord
100
AcDbLayerTableRecord
  2
230
 70
     0
 62
   230
  6
CONTINUOUS
  0
LAYER
  5
120
330
2
100
AcDbSymbolTableRecord
100
AcDbLayerTableRecord
  2
231
 70
     0
 62
   231
  6
CONTINUOUS
  0
LAYER
  5
121
330
2
100
AcDbSymbolTableRecord
100
AcDbLayerTableRecord
  2
232
 70
     0
 62
   232
  6
CONTINUOUS
  0
LAYER
  5
122
330
2
100
AcDbSymbolTableRecord
100
AcDbLayerTableRecord
  2
233
 70
     0
 62
   233
  6
CONTINUOUS
  0
LAYER
  5
123
330
2
100
AcDbSymbolTableRecord
100
AcDbLayerTableRecord
  2
234
 70
     0
 62
   234
  6
CONTINUOUS
  0
LAYER
  5
124
330
2
100
AcDbSymbolTableRecord
100
AcDbLayerTableRecord
  2
235
 70
     0
 62
   235
  6
CONTINUOUS
  0
LAYER
  5
125
330
2
100
AcDbSymbolTableRecord
100
AcDbLayerTableRecord
  2
236
 70
     0
 62
   236
  6
CONTINUOUS
  0
LAYER
  5
126
330
2
100
AcDbSymbolTableRecord
100
AcDbLayerTableRecord
  2
237
 70
     0
 62
   237
  6
CONTINUOUS
  0
LAYER
  5
127
330
2
100
AcDbSymbolTableRecord
100
AcDbLayerTableRecord
  2
238
 70
     0
 62
   238
  6
CONTINUOUS
  0
LAYER
  5
128
330
2
100
AcDbSymbolTableRecord
100
AcDbLayerTableRecord
  2
239
 70
     0
 62
   239
  6
CONTINUOUS
  0
LAYER
  5
129
330
2
100
AcDbSymbolTableRecord
100
AcDbLayerTableRecord
  2
240
 70
     0
 62
   240
  6
CONTINUOUS
  0
LAYER
  5
12A
330
2
100
AcDbSymbolTableRecord
100
AcDbLayerTableRecord
  2
241
 70
     0
 62
   241
  6
CONTINUOUS
  0
LAYER
  5
12B
330
2
100
AcDbSymbolTableRecord
100
AcDbLayerTableRecord
  2
242
 70
     0
 62
   242
  6
CONTINUOUS
  0
LAYER
  5
12C
330
2
100
AcDbSymbolTableRecord
100
AcDbLayerTableRecord
  2
243
 70
     0
 62
   243
  6
CONTINUOUS
  0
LAYER
  5
12D
330
2
100
AcDbSymbolTableRecord
100
AcDbLayerTableRecord
  2
244
 70
     0
 62
   244
  6
CONTINUOUS
  0
LAYER
  5
12E
330
2
100
AcDbSymbolTableRecord
100
AcDbLayerTableRecord
  2
245
 70
     0
 62
   245
  6
CONTINUOUS
  0
LAYER
  5
12F
330
2
100
AcDbSymbolTableRecord
100
AcDbLayerTableRecord
  2
246
 70
     0
 62
   246
  6
CONTINUOUS
  0
LAYER
  5
130
330
2
100
AcDbSymbolTableRecord
100
AcDbLayerTableRecord
  2
247
 70
     0
 62
   247
  6
CONTINUOUS
  0
LAYER
  5
131
330
2
100
AcDbSymbolTableRecord
100
AcDbLayerTableRecord
  2
248
 70
     0
 62
   248
  6
CONTINUOUS
  0
LAYER
  5
132
330
2
100
AcDbSymbolTableRecord
100
AcDbLayerTableRecord
  2
249
 70
     0
 62
   249
  6
CONTINUOUS
  0
LAYER
  5
133
330
2
100
AcDbSymbolTableRecord
100
AcDbLayerTableRecord
  2
250
 70
     0
 62
   250
  6
CONTINUOUS
  0
LAYER
  5
134
330
2
100
AcDbSymbolTableRecord
100
AcDbLayerTableRecord
  2
251
 70
     0
 62
   251
  6
CONTINUOUS
  0
LAYER
  5
135
330
2
100
AcDbSymbolTableRecord
100
AcDbLayerTableRecord
  2
252
 70
     0
 62
   252
  6
CONTINUOUS
  0
LAYER
  5
136
330
2
100
AcDbSymbolTableRecord
100
AcDbLayerTableRecord
  2
253
 70
     0
 62
   253
  6
CONTINUOUS
  0
LAYER
  5
137
330
2
100
AcDbSymbolTableRecord
100
AcDbLayerTableRecord
  2
254
 70
     0
 62
   254
  6
CONTINUOUS
  0
LAYER
  5
138
330
2
100
AcDbSymbolTableRecord
100
AcDbLayerTableRecord
  2
255
 70
     0
 62
   255
  6
CONTINUOUS
  0
LAYER
  5
30C9
330
2
100
AcDbSymbolTableRecord
100
AcDbLayerTableRecord
  2
DEFPOINTS
 70
     0
 62
     7
  6
CONTINUOUS
  0
ENDTAB
  0
TABLE
  2
STYLE
  5
3
330
0
100
AcDbSymbolTable
 70
     1
  0
STYLE
  5
11
330
3
100
AcDbSymbolTableRecord
100
AcDbTextStyleTableRecord
  2
STANDARD
 70
     0
 40
0.0
 41
1.0
 50
0.0
 71
     0
 42
0.2
  3
txt
  4

  0
ENDTAB
  0
TABLE
  2
VIEW
  5
6
330
0
100
AcDbSymbolTable
 70
     0
  0
ENDTAB
  0
TABLE
  2
UCS
  5
7
330
0
100
AcDbSymbolTable
 70
     0
  0
ENDTAB
  0
TABLE
  2
APPID
  5
9
330
0
100
AcDbSymbolTable
 70
     1
  0
APPID
  5
12
330
9
100
AcDbSymbolTableRecord
100
AcDbRegAppTableRecord
  2
ACAD
 70
     0
  0
ENDTAB
  0
TABLE
  2
DIMSTYLE
  5
A
330
0
100
AcDbSymbolTable
 70
     1
  0
DIMSTYLE
105
30C5
102
{ACAD_REACTORS
330
30C8
102
}
330
A
100
AcDbSymbolTableRecord
100
AcDbDimStyleTableRecord
  2
STANDARD
 70
     0
  3

  4

  5

  6

  7

 40
1.0
 41
0.18
 42
0.0625
 43
0.38
 44
0.18
 45
0.0
 46
0.0
 47
0.0
 48
0.0
140
0.18
141
0.09
142
0.0
143
25.4
144
1.0
145
0.0
146
1.0
147
0.09
 71
     0
 72
     0
 73
     1
 74
     1
 75
     0
 76
     0
 77
     0
 78
     0
170
     0
171
     2
172
     0
173
     0
174
     0
175
     0
176
     0
177
     0
178
     0
270
     2
271
     4
272
     4
273
     2
274
     2
340
11
275
     0
280
     0
281
     0
282
     0
283
     1
284
     0
285
     0
286
     0
287
     3
288
     0
  0
ENDTAB
  0
TABLE
  2
BLOCK_RECORD
  5
1
330
0
100
AcDbSymbolTable
 70
     1
  0
BLOCK_RECORD
  5
1E
102
{ACAD_XDICTIONARY
360
3106
102
}
330
1
100
AcDbSymbolTableRecord
100
AcDbBlockTableRecord
  2
*MODEL_SPACE
  0
BLOCK_RECORD
  5
1A
102
{ACAD_XDICTIONARY
360
3104
102
}
330
1
100
AcDbSymbolTableRecord
100
AcDbBlockTableRecord
  2
*PAPER_SPACE
  0
BLOCK_RECORD
  5
30CA
330
1
100
AcDbSymbolTableRecord
100
AcDbBlockTableRecord
  2
*D0
  0
ENDTAB
  0
ENDSEC
  0
SECTION
  2
BLOCKS
  0
BLOCK
  5
13B
330
1E
100
AcDbEntity
  8
0
100
AcDbBlockBegin
  2
*MODEL_SPACE
 70
     0
 10
0.0
 20
0.0
 30
0.0
  3
*MODEL_SPACE
  1

  0
ENDBLK
  5
13C
330
1E
100
AcDbEntity
  8
0
100
AcDbBlockEnd
  0
BLOCK
  5
139
330
1A
100
AcDbEntity
 67
     1
  8
0
100
AcDbBlockBegin
  2
*PAPER_SPACE
 70
     0
 10
0.0
 20
0.0
 30
0.0
  3
*PAPER_SPACE
  1

  0
ENDBLK
  5
13A
330
1A
100
AcDbEntity
 67
     1
  8
0
100
AcDbBlockEnd
  0
BLOCK
  5
30D5
330
30CA
100
AcDbEntity
  8
0
100
AcDbBlockBegin
  2
*D0
 70
     1
 10
0.0
 20
0.0
 30
0.0
  3
*D0
  1

  0
LINE
  5
30D7
330
30CA
100
AcDbEntity
  8
0
 62
     0
100
AcDbLine
 10
-1.575310283197304
 20
7.833228390822039
 30
0.0
 11
-3.241935456943842
 21
7.83322839082204
 31
0.0
  0
LINE
  5
30D8
330
30CA
100
AcDbEntity
  8
0
 62
     0
100
AcDbLine
 10
-1.575310283197304
 20
3.33322839082204
 30
0.0
 11
-3.241935456943843
 21
3.33322839082204
 31
0.0
  0
LINE
  5
30D9
330
30CA
100
AcDbEntity
  8
0
 62
     0
100
AcDbLine
 10
-3.061935456943842
 20
7.65322839082204
 30
0.0
 11
-3.061935456943842
 21
5.76322839082204
 31
0.0
  0
LINE
  5
30DA
330
30CA
100
AcDbEntity
  8
0
 62
     0
100
AcDbLine
 10
-3.061935456943843
 20
3.51322839082204
 30
0.0
 11
-3.061935456943842
 21
5.40322839082204
 31
0.0
  0
SOLID
  5
30DB
330
30CA
100
AcDbEntity
  8
0
 62
     0
100
AcDbTrace
 10
-3.091935456943842
 20
7.65322839082204
 30
0.0
 11
-3.031935456943842
 21
7.65322839082204
 31
0.0
 12
-3.061935456943842
 22
7.83322839082204
 32
0.0
 13
-3.061935456943842
 23
7.83322839082204
 33
0.0
  0
SOLID
  5
30DC
330
30CA
100
AcDbEntity
  8
0
 62
     0
100
AcDbTrace
 10
-3.091935456943843
 20
3.51322839082204
 30
0.0
 11
-3.031935456943843
 21
3.51322839082204
 31
0.0
 12
-3.061935456943843
 22
3.33322839082204
 32
0.0
 13
-3.061935456943843
 23
3.33322839082204
 33
0.0
  0
MTEXT
  5
30DD
330
30CA
100
AcDbEntity
  8
0
 62
     0
100
AcDbMText
 10
-3.061935456943843
 20
5.583228390822039
 30
0.0
 40
0.18
 41
0.0
 71
     5
 72
     1
  1
\A1;4.5000
1001
ACAD
1000
MTEXTBEGIN
1070
    73
1070
     1
1070
    44
1040
1.0
1070
    74
1070
     0
1000
MTEXTEND
  0
POINT
  5
30DE
330
30CA
100
AcDbEntity
  8
DEFPOINTS
 62
     0
100
AcDbPoint
 10
-1.512810283197304
 20
7.833228390822039
 30
0.0
  0
POINT
  5
30DF
330
30CA
100
AcDbEntity
  8
DEFPOINTS
 62
     0
100
AcDbPoint
 10
-1.512810283197304
 20
3.33322839082204
 30
0.0
  0
POINT
  5
30E0
330
30CA
100
AcDbEntity
  8
DEFPOINTS
 62
     0
100
AcDbPoint
 10
-3.061935456943843
 20
3.33322839082204
 30
0.0
  0
ENDBLK
  5
30D6
330
30CA
100
AcDbEntity
  8
0
100
AcDbBlockEnd
  0
ENDSEC
  0
SECTION
  2
ENTITIES
  0
LINE
  5
27CC
330
1E
100
AcDbEntity
  8
0
100
AcDbLine
 10
2.27852829947986
 20
3.767611592921777
 30
0.0
 11
2.27852829947986
 21
4.116692957751173
 31
0.0
  0
LWPOLYLINE
  5
27CD
330
1E
100
AcDbEntity
  8
0
100
AcDbPolyline
 90
        4
 70
     0
 43
0.0
 10
2.27852829947986
 20
4.116692957751174
 10
2.282465307353876
 20
4.132440989247237
 10
2.294276330975923
 20
4.144252012869284
 10
2.310024362471986
 20
4.1481890207433
  0
LINE
  5
27D3
330
1E
100
AcDbEntity
  8
0
100
AcDbLine
 10
2.310024362471986
 20
4.148189020743299
 30
0.0
 11
4.122360320477234
 21
4.148189020743299
 31
0.0
  0
LWPOLYLINE
  5
27D4
330
1E
100
AcDbEntity
  8
0
100
AcDbPolyline
 90
        4
 70
     0
 43
0.0
 10
4.122360320477234
 20
4.1481890207433
 10
4.138108351973297
 20
4.144252012869284
 10
4.149919375595345
 20
4.132440989247237
 10
4.15385638346936
 20
4.116692957751174
  0
LINE
  5
27DA
330
1E
100
AcDbEntity
  8
0
100
AcDbLine
 10
4.15385638346936
 20
4.116692957751173
 30
0.0
 11
4.15385638346936
 21
3.767611592921777
 31
0.0
  0
LWPOLYLINE
  5
27DB
330
1E
100
AcDbEntity
  8
0
100
AcDbPolyline
 90
        4
 70
     0
 43
0.0
 10
4.15385638346936
 20
3.767611592921778
 10
4.149919375595345
 20
3.751863561425715
 10
4.138108351973297
 20
3.740052537803667
 10
4.122360320477234
 20
3.736115529929652
  0
LINE
  5
27E1
330
1E
100
AcDbEntity
  8
0
100
AcDbLine
 10
4.122360320477234
 20
3.736115529929652
 30
0.0
 11
2.310024362471986
 21
3.736115529929652
 31
0.0
  0
LWPOLYLINE
  5
27E2
330
1E
100
AcDbEntity
  8
0
100
AcDbPolyline
 90
        4
 70
     0
 43
0.0
 10
2.310024362471986
 20
3.736115529929652
 10
2.294276330975923
 20
3.740052537803667
 10
2.282465307353876
 20
3.751863561425715
 10
2.27852829947986
 20
3.767611592921778
  0
LINE
  5
27E8
330
1E
100
AcDbEntity
  8
0
100
AcDbLine
 10
2.27852829947986
 20
7.398845188722301
 30
0.0
 11
2.27852829947986
 21
7.048451487934901
 31
0.0
  0
LWPOLYLINE
  5
27E9
330
1E
100
AcDbEntity
  8
0
100
AcDbPolyline
 90
        4
 70
     0
 43
0.0
 10
2.310024362471986
 20
7.429028915756424
 10
2.294276330975923
 20
7.425091907882407
 10
2.282465307353876
 20
7.413280884260361
 10
2.27852829947986
 20
7.398845188722303
  0
LINE
  5
27EF
330
1E
100
AcDbEntity
  8
0
100
AcDbLine
 10
4.122360320477234
 20
7.429028915756422
 30
0.0
 11
2.310024362471986
 21
7.429028915756422
 31
0.0
  0
LWPOLYLINE
  5
27F0
330
1E
100
AcDbEntity
  8
0
100
AcDbPolyline
 90
        4
 70
     0
 43
0.0
 10
4.15385638346936
 20
7.398845188722303
 10
4.149919375595345
 20
7.413280884260361
 10
4.138108351973297
 20
7.425091907882407
 10
4.122360320477234
 20
7.429028915756424
  0
LINE
  5
27F6
330
1E
100
AcDbEntity
  8
0
100
AcDbLine
 10
4.15385638346936
 20
7.048451487934901
 30
0.0
 11
4.15385638346936
 21
7.398845188722301
 31
0.0
  0
LWPOLYLINE
  5
27F7
330
1E
100
AcDbEntity
  8
0
100
AcDbPolyline
 90
        4
 70
     0
 43
0.0
 10
4.122360320477234
 20
7.016955424942775
 10
4.138108351973297
 20
7.022204768774797
 10
4.149919375595345
 20
7.032703456438838
 10
4.15385638346936
 20
7.048451487934901
  0
LINE
  5
27FD
330
1E
100
AcDbEntity
  8
0
100
AcDbLine
 10
2.310024362471986
 20
7.016955424942775
 30
0.0
 11
4.122360320477234
 21
7.016955424942775
 31
0.0
  0
LWPOLYLINE
  5
27FE
330
1E
100
AcDbEntity
  8
0
100
AcDbPolyline
 90
        4
 70
     0
 43
0.0
 10
2.27852829947986
 20
7.048451487934901
 10
2.282465307353876
 20
7.032703456438838
 10
2.294276330975923
 20
7.022204768774797
 10
2.310024362471986
 20
7.016955424942775
  0
LINE
  5
2804
330
1E
100
AcDbEntity
  8
0
100
AcDbLine
 10
2.084302577695082
 20
3.767611592921777
 30
0.0
 11
2.084302577695082
 21
4.116692957751173
 31
0.0
  0
LWPOLYLINE
  5
2805
330
1E
100
AcDbEntity
  8
0
100
AcDbPolyline
 90
        4
 70
     0
 43
0.0
 10
2.052806514702957
 20
3.736115529929652
 10
2.06855454619902
 20
3.740052537803667
 10
2.079053233863062
 20
3.751863561425715
 10
2.084302577695083
 20
3.767611592921778
  0
LINE
  5
280B
330
1E
100
AcDbEntity
  8
0
100
AcDbLine
 10
0.2404705566977077
 20
3.736115529929652
 30
0.0
 11
2.052806514702957
 21
3.736115529929652
 31
0.0
  0
LWPOLYLINE
  5
280C
330
1E
100
AcDbEntity
  8
0
100
AcDbPolyline
 90
        4
 70
     0
 43
0.0
 10
0.2089744937055826
 20
3.767611592921778
 10
0.2129115015795984
 20
3.751863561425715
 10
0.2247225252016456
 20
3.740052537803667
 10
0.2404705566977086
 20
3.736115529929652
  0
LINE
  5
2812
330
1E
100
AcDbEntity
  8
0
100
AcDbLine
 10
0.2089744937055817
 20
4.116692957751173
 30
0.0
 11
0.2089744937055817
 21
3.767611592921777
 31
0.0
  0
LWPOLYLINE
  5
2813
330
1E
100
AcDbEntity
  8
0
100
AcDbPolyline
 90
        4
 70
     0
 43
0.0
 10
0.2404705566977086
 20
4.1481890207433
 10
0.2247225252016456
 20
4.144252012869284
 10
0.2129115015795984
 20
4.132440989247237
 10
0.2089744937055826
 20
4.116692957751174
  0
LINE
  5
2819
330
1E
100
AcDbEntity
  8
0
100
AcDbLine
 10
2.052806514702957
 20
4.148189020743299
 30
0.0
 11
0.2404705566977077
 21
4.148189020743299
 31
0.0
  0
LWPOLYLINE
  5
281A
330
1E
100
AcDbEntity
  8
0
100
AcDbPolyline
 90
        4
 70
     0
 43
0.0
 10
2.084302577695083
 20
4.116692957751174
 10
2.079053233863062
 20
4.132440989247237
 10
2.06855454619902
 20
4.144252012869284
 10
2.052806514702957
 20
4.1481890207433
  0
LINE
  5
2820
330
1E
100
AcDbEntity
  8
0
100
AcDbLine
 10
2.084302577695082
 20
7.398845188722301
 30
0.0
 11
2.084302577695082
 21
7.048451487934901
 31
0.0
  0
LWPOLYLINE
  5
2821
330
1E
100
AcDbEntity
  8
0
100
AcDbPolyline
 90
        4
 70
     0
 43
0.0
 10
2.084302577695083
 20
7.048451487934901
 10
2.079053233863062
 20
7.032703456438838
 10
2.06855454619902
 20
7.022204768774797
 10
2.052806514702957
 20
7.016955424942775
  0
LINE
  5
2827
330
1E
100
AcDbEntity
  8
0
100
AcDbLine
 10
2.052806514702957
 20
7.016955424942775
 30
0.0
 11
0.2404705566977077
 21
7.016955424942775
 31
0.0
  0
LWPOLYLINE
  5
2828
330
1E
100
AcDbEntity
  8
0
100
AcDbPolyline
 90
        4
 70
     0
 43
0.0
 10
0.2404705566977086
 20
7.016955424942775
 10
0.2247225252016456
 20
7.022204768774797
 10
0.2129115015795984
 20
7.032703456438838
 10
0.2089744937055826
 20
7.048451487934901
  0
LINE
  5
282E
330
1E
100
AcDbEntity
  8
0
100
AcDbLine
 10
0.2089744937055817
 20
7.048451487934901
 30
0.0
 11
0.2089744937055817
 21
7.398845188722301
 31
0.0
  0
LWPOLYLINE
  5
282F
330
1E
100
AcDbEntity
  8
0
100
AcDbPolyline
 90
        4
 70
     0
 43
0.0
 10
0.2089744937055826
 20
7.398845188722303
 10
0.2129115015795984
 20
7.413280884260361
 10
0.2247225252016456
 20
7.425091907882407
 10
0.2404705566977086
 20
7.429028915756424
  0
LINE
  5
2835
330
1E
100
AcDbEntity
  8
0
100
AcDbLine
 10
0.2404705566977077
 20
7.429028915756422
 30
0.0
 11
2.052806514702957
 21
7.429028915756422
 31
0.0
  0
LWPOLYLINE
  5
2836
330
1E
100
AcDbEntity
  8
0
100
AcDbPolyline
 90
        4
 70
     0
 43
0.0
 10
2.052806514702957
 20
7.429028915756424
 10
2.06855454619902
 20
7.425091907882407
 10
2.079053233863062
 20
7.413280884260361
 10
2.084302577695083
 20
7.398845188722303
  0
LINE
  5
283C
330
1E
100
AcDbEntity
  8
0
100
AcDbLine
 10
0.1591057273013829
 20
3.561574847514954
 30
0.0
 11
4.203725149873559
 21
3.561574847514954
 31
0.0
  0
LINE
  5
283D
330
1E
100
AcDbEntity
  8
0
100
AcDbLine
 10
4.203725149873559
 20
7.604881934129126
 30
0.0
 11
4.203725149873559
 21
3.561574847514954
 31
0.0
  0
LINE
  5
283E
330
1E
100
AcDbEntity
  8
0
100
AcDbLine
 10
4.203725149873559
 20
7.604881934129126
 30
0.0
 11
0.1591057273013829
 21
7.604881934129126
 31
0.0
  0
LINE
  5
283F
330
1E
100
AcDbEntity
  8
0
100
AcDbLine
 10
0.1591057273013829
 20
7.604881934129126
 30
0.0
 11
0.1591057273013829
 21
3.561574847514954
 31
0.0
  0
LINE
  5
2840
330
1E
100
AcDbEntity
  8
0
100
AcDbLine
 10
3.256218588193771
 20
4.684934427567447
 30
0.0
 11
3.256218588193771
 21
5.330603718906029
 31
0.0
  0
LINE
  5
2841
330
1E
100
AcDbEntity
  8
0
100
AcDbLine
 10
3.83627108163209
 20
5.330603718906029
 30
0.0
 11
3.256218588193771
 21
5.330603718906029
 31
0.0
  0
LINE
  5
2842
330
1E
100
AcDbEntity
  8
0
100
AcDbLine
 10
3.83627108163209
 20
4.684934427567447
 30
0.0
 11
3.83627108163209
 21
5.330603718906029
 31
0.0
  0
LINE
  5
2843
330
1E
100
AcDbEntity
  8
0
100
AcDbLine
 10
3.83627108163209
 20
4.684934427567447
 30
0.0
 11
3.256218588193771
 21
4.684934427567447
 31
0.0
  0
LINE
  5
2844
330
1E
100
AcDbEntity
  8
0
100
AcDbLine
 10
3.256218588193771
 20
5.83585306273805
 30
0.0
 11
3.256218588193771
 21
6.480210018118627
 31
0.0
  0
LINE
  5
2845
330
1E
100
AcDbEntity
  8
0
100
AcDbLine
 10
3.83627108163209
 20
6.480210018118627
 30
0.0
 11
3.256218588193771
 21
6.480210018118627
 31
0.0
  0
LINE
  5
2846
330
1E
100
AcDbEntity
  8
0
100
AcDbLine
 10
3.83627108163209
 20
5.83585306273805
 30
0.0
 11
3.83627108163209
 21
6.480210018118627
 31
0.0
  0
LINE
  5
2847
330
1E
100
AcDbEntity
  8
0
100
AcDbLine
 10
3.83627108163209
 20
5.83585306273805
 30
0.0
 11
3.256218588193771
 21
5.83585306273805
 31
0.0
  0
LINE
  5
2848
330
1E
100
AcDbEntity
  8
0
100
AcDbLine
 10
2.346769769296132
 20
4.684934427567447
 30
0.0
 11
2.346769769296132
 21
5.330603718906029
 31
0.0
  0
LINE
  5
2849
330
1E
100
AcDbEntity
  8
0
100
AcDbLine
 10
2.926822262734453
 20
5.330603718906029
 30
0.0
 11
2.346769769296132
 21
5.330603718906029
 31
0.0
  0
LINE
  5
284A
330
1E
100
AcDbEntity
  8
0
100
AcDbLine
 10
2.926822262734453
 20
4.684934427567447
 30
0.0
 11
2.926822262734453
 21
5.330603718906029
 31
0.0
  0
LINE
  5
284B
330
1E
100
AcDbEntity
  8
0
100
AcDbLine
 10
2.926822262734453
 20
4.684934427567447
 30
0.0
 11
2.346769769296132
 21
4.684934427567447
 31
0.0
  0
LINE
  5
284C
330
1E
100
AcDbEntity
  8
0
100
AcDbLine
 10
2.346769769296132
 20
5.83585306273805
 30
0.0
 11
2.346769769296132
 21
6.480210018118627
 31
0.0
  0
LINE
  5
284D
330
1E
100
AcDbEntity
  8
0
100
AcDbLine
 10
2.926822262734453
 20
6.480210018118627
 30
0.0
 11
2.346769769296132
 21
6.480210018118627
 31
0.0
  0
LINE
  5
284E
330
1E
100
AcDbEntity
  8
0
100
AcDbLine
 10
2.926822262734453
 20
5.83585306273805
 30
0.0
 11
2.926822262734453
 21
6.480210018118627
 31
0.0
  0
LINE
  5
284F
330
1E
100
AcDbEntity
  8
0
100
AcDbLine
 10
2.926822262734453
 20
5.83585306273805
 30
0.0
 11
2.346769769296132
 21
5.83585306273805
 31
0.0
  0
LINE
  5
2850
330
1E
100
AcDbEntity
  8
0
100
AcDbLine
 10
1.436008614440489
 20
4.684934427567447
 30
0.0
 11
1.436008614440489
 21
5.330603718906029
 31
0.0
  0
LINE
  5
2851
330
1E
100
AcDbEntity
  8
0
100
AcDbLine
 10
2.01606110787881
 20
5.330603718906029
 30
0.0
 11
1.436008614440489
 21
5.330603718906029
 31
0.0
  0
LINE
  5
2852
330
1E
100
AcDbEntity
  8
0
100
AcDbLine
 10
2.01606110787881
 20
4.684934427567447
 30
0.0
 11
2.01606110787881
 21
5.330603718906029
 31
0.0
  0
LINE
  5
2853
330
1E
100
AcDbEntity
  8
0
100
AcDbLine
 10
2.01606110787881
 20
4.684934427567447
 30
0.0
 11
1.436008614440489
 21
4.684934427567447
 31
0.0
  0
LINE
  5
2854
330
1E
100
AcDbEntity
  8
0
100
AcDbLine
 10
1.436008614440489
 20
5.83585306273805
 30
0.0
 11
1.436008614440489
 21
6.480210018118627
 31
0.0
  0
LINE
  5
2855
330
1E
100
AcDbEntity
  8
0
100
AcDbLine
 10
2.01606110787881
 20
6.480210018118627
 30
0.0
 11
1.436008614440489
 21
6.480210018118627
 31
0.0
  0
LINE
  5
2856
330
1E
100
AcDbEntity
  8
0
100
AcDbLine
 10
2.01606110787881
 20
5.83585306273805
 30
0.0
 11
2.01606110787881
 21
6.480210018118627
 31
0.0
  0
LINE
  5
2857
330
1E
100
AcDbEntity
  8
0
100
AcDbLine
 10
2.01606110787881
 20
5.83585306273805
 30
0.0
 11
1.436008614440489
 21
5.83585306273805
 31
0.0
  0
LINE
  5
2858
330
1E
100
AcDbEntity
  8
0
100
AcDbLine
 10
0.5265597955428536
 20
4.684934427567447
 30
0.0
 11
0.5265597955428536
 21
5.330603718906029
 31
0.0
  0
LINE
  5
2859
330
1E
100
AcDbEntity
  8
0
100
AcDbLine
 10
1.106612288981172
 20
5.330603718906029
 30
0.0
 11
0.5265597955428536
 21
5.330603718906029
 31
0.0
  0
LINE
  5
285A
330
1E
100
AcDbEntity
  8
0
100
AcDbLine
 10
1.106612288981172
 20
4.684934427567447
 30
0.0
 11
1.106612288981172
 21
5.330603718906029
 31
0.0
  0
LINE
  5
285B
330
1E
100
AcDbEntity
  8
0
100
AcDbLine
 10
1.106612288981172
 20
4.684934427567447
 30
0.0
 11
0.5265597955428536
 21
4.684934427567447
 31
0.0
  0
LINE
  5
285C
330
1E
100
AcDbEntity
  8
0
100
AcDbLine
 10
0.5265597955428536
 20
5.83585306273805
 30
0.0
 11
0.5265597955428536
 21
6.480210018118627
 31
0.0
  0
LINE
  5
285D
330
1E
100
AcDbEntity
  8
0
100
AcDbLine
 10
1.106612288981172
 20
6.480210018118627
 30
0.0
 11
0.5265597955428536
 21
6.480210018118627
 31
0.0
  0
LINE
  5
285E
330
1E
100
AcDbEntity
  8
0
100
AcDbLine
 10
1.106612288981172
 20
5.83585306273805
 30
0.0
 11
1.106612288981172
 21
6.480210018118627
 31
0.0
  0
LINE
  5
285F
330
1E
100
AcDbEntity
  8
0
100
AcDbLine
 10
1.106612288981172
 20
5.83585306273805
 30
0.0
 11
0.5265597955428536
 21
5.83585306273805
 31
0.0
  0
LINE
  5
2860
330
1E
100
AcDbEntity
  8
0
100
AcDbLine
 10
4.092176593443113
 20
3.737427865887656
 30
0.0
 11
4.121047984519229
 21
3.737427865887656
 31
0.0
  0
LWPOLYLINE
  5
2861
330
1E
100
AcDbEntity
  8
0
100
AcDbPolyline
 90
        4
 70
     0
 43
0.0
 10
4.121047984519229
 20
3.737427865887657
 10
4.136796016015292
 20
3.741364873761673
 10
4.147294703679335
 20
3.75317589738372
 10
4.152544047511355
 20
3.767611592921778
  0
LINE
  5
2867
330
1E
100
AcDbEntity
  8
0
100
AcDbLine
 10
4.152544047511355
 20
3.767611592921777
 30
0.0
 11
4.152544047511355
 21
4.116692957751173
 31
0.0
  0
LWPOLYLINE
  5
2868
330
1E
100
AcDbEntity
  8
0
100
AcDbPolyline
 90
        4
 70
     0
 43
0.0
 10
4.152544047511355
 20
4.116692957751174
 10
4.147294703679335
 20
4.132440989247237
 10
4.136796016015292
 20
4.144252012869284
 10
4.121047984519229
 20
4.1481890207433
  0
LINE
  5
286E
330
1E
100
AcDbEntity
  8
0
100
AcDbLine
 10
4.121047984519229
 20
4.148189020743299
 30
0.0
 11
4.092176593443113
 21
4.148189020743299
 31
0.0
  0
LWPOLYLINE
  5
286F
330
1E
100
AcDbEntity
  8
0
100
AcDbPolyline
 90
        5
 70
     0
 43
0.0
 10
2.981940372970674
 20
4.002519729404717
 10
2.959630661684584
 20
3.976273010244612
 10
2.951756645936553
 20
3.942152275336475
 10
2.959630661684584
 20
3.909343876386344
 10
2.981940372970674
 20
3.883097157226239
  0
LWPOLYLINE
  5
2876
330
1E
100
AcDbEntity
  8
0
100
AcDbPolyline
 90
        5
 70
     0
 43
0.0
 10
3.193226462209518
 20
3.883097157226239
 10
3.215536173495608
 20
3.909343876386344
 10
3.223410189243639
 20
3.942152275336475
 10
3.215536173495608
 20
3.976273010244612
 10
3.193226462209518
 20
4.002519729404717
  0
LINE
  5
287D
330
1E
100
AcDbEntity
  8
0
100
AcDbLine
 10
3.147294703679335
 20
4.094383246465085
 30
0.0
 11
3.027872131500857
 21
4.094383246465085
 31
0.0
  0
LWPOLYLINE
  5
287E
330
1E
100
AcDbEntity
  8
0
100
AcDbPolyline
 90
       12
 70
     0
 43
0.0
 10
3.147294703679335
 20
3.791233640165872
 10
3.190601790293508
 20
3.796482983997893
 10
3.229971869033666
 20
3.814855687409967
 10
3.262780267983797
 20
3.843727078486081
 10
3.285089979269886
 20
3.879160149352223
 10
3.298213338849939
 20
3.921154900008391
 10
3.298213338849939
 20
3.964461986622565
 10
3.285089979269886
 20
4.005144401320727
 10
3.262780267983797
 20
4.041889808144874
 10
3.229971869033666
 20
4.07076119922099
 10
3.190601790293508
 20
4.087821566675058
 10
3.147294703679335
 20
4.094383246465085
  0
LINE
  5
288C
330
1E
100
AcDbEntity
  8
0
100
AcDbLine
 10
3.027872131500857
 20
3.791233640165872
 30
0.0
 11
3.147294703679335
 21
3.791233640165872
 31
0.0
  0
LWPOLYLINE
  5
288D
330
1E
100
AcDbEntity
  8
0
100
AcDbPolyline
 90
       12
 70
     0
 43
0.0
 10
3.027872131500858
 20
4.094383246465085
 10
2.984565044886684
 20
4.087821566675058
 10
2.945194966146526
 20
4.07076119922099
 10
2.912386567196395
 20
4.041889808144874
 10
2.890076855910306
 20
4.005144401320727
 10
2.876953496330253
 20
3.964461986622565
 10
2.876953496330253
 20
3.921154900008391
 10
2.890076855910306
 20
3.879160149352223
 10
2.912386567196395
 20
3.843727078486081
 10
2.945194966146526
 20
3.814855687409967
 10
2.984565044886684
 20
3.796482983997893
 10
3.027872131500858
 20
3.791233640165872
  0
LINE
  5
289B
330
1E
100
AcDbEntity
  8
0
100
AcDbLine
 10
4.088239585569098
 20
4.146876684785294
 30
0.0
 11
4.088239585569098
 21
3.737427865887656
 31
0.0
  0
LINE
  5
289C
330
1E
100
AcDbEntity
  8
0
100
AcDbLine
 10
2.344145097380122
 20
4.146876684785294
 30
0.0
 11
4.088239585569098
 21
4.146876684785294
 31
0.0
  0
LINE
  5
289D
330
1E
100
AcDbEntity
  8
0
100
AcDbLine
 10
2.344145097380122
 20
4.146876684785294
 30
0.0
 11
2.344145097380122
 21
3.737427865887656
 31
0.0
  0
LINE
  5
289E
330
1E
100
AcDbEntity
  8
0
100
AcDbLine
 10
4.088239585569098
 20
3.737427865887656
 30
0.0
 11
2.344145097380122
 21
3.737427865887656
 31
0.0
  0
LINE
  5
289F
330
1E
100
AcDbEntity
  8
0
100
AcDbLine
 10
4.088239585569098
 20
4.146876684785294
 30
0.0
 11
4.092176593443113
 21
4.148189020743299
 31
0.0
  0
LINE
  5
28A0
330
1E
100
AcDbEntity
  8
0
100
AcDbLine
 10
4.088239585569098
 20
3.737427865887656
 30
0.0
 11
4.092176593443113
 21
3.737427865887656
 31
0.0
  0
LINE
  5
28A1
330
1E
100
AcDbEntity
  8
0
100
AcDbLine
 10
2.344145097380122
 20
4.146876684785294
 30
0.0
 11
2.340208089506106
 21
4.148189020743299
 31
0.0
  0
LINE
  5
28A2
330
1E
100
AcDbEntity
  8
0
100
AcDbLine
 10
2.344145097380122
 20
3.737427865887656
 30
0.0
 11
2.340208089506106
 21
3.737427865887656
 31
0.0
  0
LINE
  5
28A3
330
1E
100
AcDbEntity
  8
0
100
AcDbLine
 10
2.340208089506106
 20
4.148189020743299
 30
0.0
 11
2.311336698429991
 21
4.148189020743299
 31
0.0
  0
LWPOLYLINE
  5
28A4
330
1E
100
AcDbEntity
  8
0
100
AcDbPolyline
 90
        4
 70
     0
 43
0.0
 10
2.311336698429991
 20
4.1481890207433
 10
2.295588666933928
 20
4.144252012869284
 10
2.285089979269886
 20
4.132440989247237
 10
2.281152971395871
 20
4.116692957751174
  0
LINE
  5
28AA
330
1E
100
AcDbEntity
  8
0
100
AcDbLine
 10
2.28115297139587
 20
4.116692957751173
 30
0.0
 11
2.28115297139587
 21
3.767611592921777
 31
0.0
  0
LWPOLYLINE
  5
28AB
330
1E
100
AcDbEntity
  8
0
100
AcDbPolyline
 90
        4
 70
     0
 43
0.0
 10
2.281152971395871
 20
3.767611592921778
 10
2.285089979269886
 20
3.75317589738372
 10
2.295588666933928
 20
3.741364873761673
 10
2.311336698429991
 20
3.737427865887657
  0
LINE
  5
28B1
330
1E
100
AcDbEntity
  8
0
100
AcDbLine
 10
2.311336698429991
 20
3.737427865887656
 30
0.0
 11
2.340208089506106
 21
3.737427865887656
 31
0.0
  0
LINE
  5
28B2
330
1E
100
AcDbEntity
  8
0
100
AcDbLine
 10
2.28115297139587
 20
4.116692957751173
 30
0.0
 11
2.27852829947986
 21
4.116692957751173
 31
0.0
  0
LINE
  5
28B3
330
1E
100
AcDbEntity
  8
0
100
AcDbLine
 10
2.310024362471986
 20
4.148189020743299
 30
0.0
 11
2.311336698429991
 21
4.148189020743299
 31
0.0
  0
LINE
  5
28B4
330
1E
100
AcDbEntity
  8
0
100
AcDbLine
 10
2.311336698429991
 20
3.737427865887656
 30
0.0
 11
2.310024362471986
 21
3.736115529929652
 31
0.0
  0
LINE
  5
28B5
330
1E
100
AcDbEntity
  8
0
100
AcDbLine
 10
2.27852829947986
 20
3.767611592921777
 30
0.0
 11
2.28115297139587
 21
3.767611592921777
 31
0.0
  0
LINE
  5
28B6
330
1E
100
AcDbEntity
  8
0
100
AcDbLine
 10
4.152544047511355
 20
3.767611592921777
 30
0.0
 11
4.15385638346936
 21
3.767611592921777
 31
0.0
  0
LINE
  5
28B7
330
1E
100
AcDbEntity
  8
0
100
AcDbLine
 10
4.122360320477234
 20
3.736115529929652
 30
0.0
 11
4.121047984519229
 21
3.737427865887656
 31
0.0
  0
LINE
  5
28B8
330
1E
100
AcDbEntity
  8
0
100
AcDbLine
 10
4.121047984519229
 20
4.148189020743299
 30
0.0
 11
4.122360320477234
 21
4.148189020743299
 31
0.0
  0
LINE
  5
28B9
330
1E
100
AcDbEntity
  8
0
100
AcDbLine
 10
4.15385638346936
 20
4.116692957751173
 30
0.0
 11
4.152544047511355
 21
4.116692957751173
 31
0.0
  0
LINE
  5
28BA
330
1E
100
AcDbEntity
  8
0
100
AcDbLine
 10
3.147294703679335
 20
4.093070910507079
 30
0.0
 11
3.147294703679335
 21
4.094383246465085
 31
0.0
  0
LINE
  5
28BB
330
1E
100
AcDbEntity
  8
0
100
AcDbLine
 10
3.027872131500857
 20
4.094383246465085
 30
0.0
 11
3.027872131500857
 21
4.093070910507079
 31
0.0
  0
LINE
  5
28BC
330
1E
100
AcDbEntity
  8
0
100
AcDbLine
 10
3.027872131500857
 20
4.093070910507079
 30
0.0
 11
3.147294703679335
 21
4.093070910507079
 31
0.0
  0
LINE
  5
28BD
330
1E
100
AcDbEntity
  8
0
100
AcDbLine
 10
3.027872131500857
 20
3.792545976123877
 30
0.0
 11
3.027872131500857
 21
3.791233640165872
 31
0.0
  0
LINE
  5
28BE
330
1E
100
AcDbEntity
  8
0
100
AcDbLine
 10
3.147294703679335
 20
3.791233640165872
 30
0.0
 11
3.147294703679335
 21
3.792545976123877
 31
0.0
  0
LINE
  5
28BF
330
1E
100
AcDbEntity
  8
0
100
AcDbLine
 10
3.147294703679335
 20
3.792545976123877
 30
0.0
 11
3.027872131500857
 21
3.792545976123877
 31
0.0
  0
LWPOLYLINE
  5
28C0
330
1E
100
AcDbEntity
  8
0
100
AcDbPolyline
 90
       12
 70
     0
 43
0.0
 10
3.027872131500858
 20
4.093070910507078
 10
2.985877380844689
 20
4.086509230717053
 10
2.946507302104531
 20
4.06813652730498
 10
2.9136989031544
 20
4.040577472186869
 10
2.891389191868311
 20
4.005144401320727
 10
2.879578168246263
 20
3.964461986622565
 10
2.879578168246263
 20
3.921154900008391
 10
2.891389191868311
 20
3.88047248531023
 10
2.9136989031544
 20
3.843727078486081
 10
2.946507302104531
 20
3.816168023367972
 10
2.985877380844689
 20
3.799107655913904
 10
3.027872131500858
 20
3.792545976123877
  0
LWPOLYLINE
  5
28CE
330
1E
100
AcDbEntity
  8
0
100
AcDbPolyline
 90
       12
 70
     0
 43
0.0
 10
3.147294703679335
 20
3.792545976123877
 10
3.189289454335503
 20
3.799107655913904
 10
3.22865953307566
 20
3.816168023367972
 10
3.261467932025792
 20
3.843727078486081
 10
3.283777643311881
 20
3.88047248531023
 10
3.295588666933928
 20
3.921154900008391
 10
3.295588666933928
 20
3.964461986622565
 10
3.283777643311881
 20
4.005144401320727
 10
3.261467932025792
 20
4.040577472186869
 10
3.22865953307566
 20
4.06813652730498
 10
3.189289454335503
 20
4.086509230717053
 10
3.147294703679335
 20
4.093070910507078
  0
LINE
  5
28DC
330
1E
100
AcDbEntity
  8
0
100
AcDbLine
 10
3.147294703679335
 20
4.019580096858785
 30
0.0
 11
3.027872131500857
 21
4.019580096858785
 31
0.0
  0
LWPOLYLINE
  5
28DD
330
1E
100
AcDbEntity
  8
0
100
AcDbPolyline
 90
        9
 70
     0
 43
0.0
 10
3.147294703679335
 20
3.866036789772171
 10
3.17616609475545
 20
3.871286133604192
 10
3.20110047795755
 20
3.88834650105826
 10
3.218160845411618
 20
3.91328088426036
 10
3.223410189243639
 20
3.942152275336475
 10
3.218160845411618
 20
3.972336002370596
 10
3.20110047795755
 20
3.995958049614691
 10
3.17616609475545
 20
4.013018417068758
 10
3.147294703679335
 20
4.019580096858785
  0
LINE
  5
28E8
330
1E
100
AcDbEntity
  8
0
100
AcDbLine
 10
3.147294703679335
 20
3.866036789772171
 30
0.0
 11
3.027872131500857
 21
3.866036789772171
 31
0.0
  0
LWPOLYLINE
  5
28E9
330
1E
100
AcDbEntity
  8
0
100
AcDbPolyline
 90
        9
 70
     0
 43
0.0
 10
3.027872131500858
 20
4.019580096858785
 10
2.997688404466737
 20
4.013018417068758
 10
2.974066357222642
 20
3.995958049614691
 10
2.957005989768573
 20
3.972336002370596
 10
2.950444309978548
 20
3.942152275336475
 10
2.957005989768573
 20
3.91328088426036
 10
2.974066357222642
 20
3.88834650105826
 10
2.997688404466737
 20
3.871286133604192
 10
3.027872131500858
 20
3.866036789772171
  0
LINE
  5
28F4
330
1E
100
AcDbEntity
  8
0
100
AcDbLine
 10
3.027872131500857
 20
3.866036789772171
 30
0.0
 11
3.027872131500857
 21
3.866036789772171
 31
0.0
  0
LINE
  5
28F5
330
1E
100
AcDbEntity
  8
0
100
AcDbLine
 10
3.147294703679335
 20
3.866036789772171
 30
0.0
 11
3.147294703679335
 21
3.866036789772171
 31
0.0
  0
LINE
  5
28F6
330
1E
100
AcDbEntity
  8
0
100
AcDbLine
 10
3.147294703679335
 20
3.866036789772171
 30
0.0
 11
3.027872131500857
 21
3.866036789772171
 31
0.0
  0
LINE
  5
28F7
330
1E
100
AcDbEntity
  8
0
100
AcDbLine
 10
3.147294703679335
 20
4.01826776090078
 30
0.0
 11
3.147294703679335
 21
4.019580096858785
 31
0.0
  0
LINE
  5
28F8
330
1E
100
AcDbEntity
  8
0
100
AcDbLine
 10
3.027872131500857
 20
4.01826776090078
 30
0.0
 11
3.027872131500857
 21
4.019580096858785
 31
0.0
  0
LINE
  5
28F9
330
1E
100
AcDbEntity
  8
0
100
AcDbLine
 10
3.147294703679335
 20
4.01826776090078
 30
0.0
 11
3.027872131500857
 21
4.01826776090078
 31
0.0
  0
LINE
  5
28FA
330
1E
100
AcDbEntity
  8
0
100
AcDbLine
 10
2.981940372970673
 20
3.883097157226239
 30
0.0
 11
2.99112672467671
 21
3.875223141478208
 31
0.0
  0
LINE
  5
28FB
330
1E
100
AcDbEntity
  8
0
100
AcDbLine
 10
2.99112672467671
 20
4.010393745152748
 30
0.0
 11
2.981940372970673
 21
4.002519729404717
 31
0.0
  0
LWPOLYLINE
  5
28FC
330
1E
100
AcDbEntity
  8
0
100
AcDbPolyline
 90
        3
 70
     0
 43
0.0
 10
3.027872131500858
 20
4.01826776090078
 10
3.009499428088783
 20
4.016955424942775
 10
2.99112672467671
 20
4.010393745152748
  0
LWPOLYLINE
  5
2901
330
1E
100
AcDbEntity
  8
0
100
AcDbPolyline
 90
        3
 70
     0
 43
0.0
 10
2.99112672467671
 20
3.875223141478209
 10
3.009499428088783
 20
3.868661461688181
 10
3.027872131500858
 20
3.866036789772171
  0
LWPOLYLINE
  5
2906
330
1E
100
AcDbEntity
  8
0
100
AcDbPolyline
 90
        3
 70
     0
 43
0.0
 10
3.184040110503482
 20
4.010393745152748
 10
3.165667407091408
 20
4.016955424942775
 10
3.147294703679335
 20
4.01826776090078
  0
LINE
  5
290B
330
1E
100
AcDbEntity
  8
0
100
AcDbLine
 10
3.193226462209518
 20
4.002519729404717
 30
0.0
 11
3.184040110503482
 21
4.010393745152748
 31
0.0
  0
LINE
  5
290C
330
1E
100
AcDbEntity
  8
0
100
AcDbLine
 10
3.184040110503482
 20
3.875223141478208
 30
0.0
 11
3.193226462209518
 21
3.883097157226239
 31
0.0
  0
LWPOLYLINE
  5
290D
330
1E
100
AcDbEntity
  8
0
100
AcDbPolyline
 90
        3
 70
     0
 43
0.0
 10
3.147294703679335
 20
3.866036789772171
 10
3.165667407091408
 20
3.868661461688181
 10
3.184040110503482
 20
3.875223141478209
  0
LINE
  5
2912
330
1E
100
AcDbEntity
  8
0
100
AcDbLine
 10
3.184040110503482
 20
4.010393745152748
 30
0.0
 11
2.99112672467671
 21
4.010393745152748
 31
0.0
  0
LINE
  5
2913
330
1E
100
AcDbEntity
  8
0
100
AcDbLine
 10
2.981940372970673
 20
4.002519729404717
 30
0.0
 11
3.193226462209518
 21
4.002519729404717
 31
0.0
  0
LINE
  5
2914
330
1E
100
AcDbEntity
  8
0
100
AcDbLine
 10
3.184040110503482
 20
3.875223141478208
 30
0.0
 11
2.99112672467671
 21
3.875223141478208
 31
0.0
  0
LINE
  5
2915
330
1E
100
AcDbEntity
  8
0
100
AcDbLine
 10
2.981940372970673
 20
3.883097157226239
 30
0.0
 11
3.193226462209518
 21
3.883097157226239
 31
0.0
  0
LINE
  5
2916
330
1E
100
AcDbEntity
  8
0
100
AcDbLine
 10
4.428134598692459
 20
3.396220516806292
 30
0.0
 11
4.428134598692459
 21
7.770236264837786
 31
0.0
  0
LINE
  5
2917
330
1E
100
AcDbEntity
  8
0
100
AcDbLine
 10
4.430759270608469
 20
3.392283508932276
 30
0.0
 11
4.428134598692459
 21
3.396220516806292
 31
0.0
  0
LINE
  5
2918
330
1E
100
AcDbEntity
  8
0
100
AcDbLine
 10
4.430759270608469
 20
7.772860936753797
 30
0.0
 11
4.430759270608469
 21
3.392283508932276
 31
0.0
  0
LINE
  5
2919
330
1E
100
AcDbEntity
  8
0
100
AcDbLine
 10
4.428134598692459
 20
7.770236264837786
 30
0.0
 11
4.430759270608469
 21
7.772860936753797
 31
0.0
  0
LWPOLYLINE
  5
291A
330
1E
100
AcDbEntity
  8
0
100
AcDbPolyline
 90
        9
 70
     0
 43
0.0
 10
4.428134598692459
 20
3.396220516806292
 10
4.42157291890243
 20
3.400157524680308
 10
4.407137223364374
 20
3.41065621234435
 10
4.38613984803629
 20
3.426404243840412
 10
4.358580792918179
 20
3.447401619168497
 10
4.324460058010043
 20
3.472336002370596
 10
4.28640231522789
 20
3.499895057488707
 10
4.245719900529728
 20
3.530078784522828
 10
4.203725149873559
 20
3.561574847514954
  0
LWPOLYLINE
  5
2925
330
1E
100
AcDbEntity
  8
0
100
AcDbPolyline
 90
        9
 70
     0
 43
0.0
 10
4.203725149873559
 20
7.604881934129126
 10
4.245719900529728
 20
7.636377997121252
 10
4.28640231522789
 20
7.666561724155373
 10
4.324460058010043
 20
7.694120779273484
 10
4.358580792918179
 20
7.719055162475584
 10
4.38613984803629
 20
7.738740201845661
 10
4.407137223364374
 20
7.754488233341724
 10
4.42157291890243
 20
7.764986921005766
 10
4.428134598692459
 20
7.770236264837787
  0
LWPOLYLINE
  5
2930
330
1E
100
AcDbEntity
  8
0
100
AcDbPolyline
 90
        5
 70
     0
 43
0.0
 10
4.430759270608469
 20
7.772860936753799
 10
4.426822262734452
 20
7.796482983997892
 10
4.413698903154401
 20
7.814855687409966
 10
4.394013863784321
 20
7.827979046990018
 10
4.371704152498232
 20
7.833228390822039
  0
LINE
  5
2937
330
1E
100
AcDbEntity
  8
0
100
AcDbLine
 10
4.371704152498232
 20
7.833228390822038
 30
0.0
 11
4.367767144624217
 21
7.829291382948023
 31
0.0
  0
LWPOLYLINE
  5
2938
330
1E
100
AcDbEntity
  8
0
100
AcDbPolyline
 90
        4
 70
     0
 43
0.0
 10
4.367767144624217
 20
7.829291382948024
 10
4.397950871658338
 20
7.821417367199991
 10
4.420260582944425
 20
7.800419991871908
 10
4.428134598692459
 20
7.770236264837787
  0
LWPOLYLINE
  5
293E
330
1E
100
AcDbEntity
  8
0
100
AcDbPolyline
 90
        9
 70
     0
 43
0.0
 10
4.367767144624217
 20
7.829291382948024
 10
4.3638301367502
 20
7.824042039116003
 10
4.353331449086159
 20
7.809606343577945
 10
4.337583417590096
 20
7.788608968249862
 10
4.316586042262011
 20
7.759737577173746
 10
4.291651659059912
 20
7.726929178223615
 10
4.264092603941801
 20
7.688871435441463
 10
4.23390887690768
 20
7.6481890207433
 10
4.203725149873559
 20
7.604881934129126
  0
LWPOLYLINE
  5
2949
330
1E
100
AcDbEntity
  8
0
100
AcDbPolyline
 90
        5
 70
     0
 43
0.0
 10
4.371704152498232
 20
3.33322839082204
 10
4.394013863784321
 20
3.337165398696055
 10
4.413698903154401
 20
3.350288758276108
 10
4.426822262734452
 20
3.369973797646187
 10
4.430759270608469
 20
3.392283508932277
  0
LWPOLYLINE
  5
2950
330
1E
100
AcDbEntity
  8
0
100
AcDbPolyline
 90
        4
 70
     0
 43
0.0
 10
4.428134598692459
 20
3.396220516806292
 10
4.420260582944425
 20
3.366036789772171
 10
4.397950871658338
 20
3.343727078486082
 10
4.367767144624217
 20
3.33585306273805
  0
LINE
  5
2956
330
1E
100
AcDbEntity
  8
0
100
AcDbLine
 10
4.367767144624217
 20
3.335853062738051
 30
0.0
 11
4.371704152498232
 21
3.33322839082204
 31
0.0
  0
LWPOLYLINE
  5
2957
330
1E
100
AcDbEntity
  8
0
100
AcDbPolyline
 90
        9
 70
     0
 43
0.0
 10
4.203725149873559
 20
3.561574847514954
 10
4.23390887690768
 20
3.51826776090078
 10
4.264092603941801
 20
3.477585346202617
 10
4.291651659059912
 20
3.439527603420466
 10
4.316586042262011
 20
3.406719204470334
 10
4.337583417590096
 20
3.377847813394219
 10
4.353331449086159
 20
3.356850438066134
 10
4.3638301367502
 20
3.342414742528076
 10
4.367767144624217
 20
3.33585306273805
  0
LINE
  5
2962
330
1E
100
AcDbEntity
  8
0
100
AcDbLine
 10
2.981940372970673
 20
7.28335962441784
 30
0.0
 11
3.193226462209518
 21
7.28335962441784
 31
0.0
  0
LINE
  5
2963
330
1E
100
AcDbEntity
  8
0
100
AcDbLine
 10
3.184040110503482
 20
7.29123364016587
 30
0.0
 11
3.193226462209518
 21
7.28335962441784
 31
0.0
  0
LINE
  5
2964
330
1E
100
AcDbEntity
  8
0
100
AcDbLine
 10
3.184040110503482
 20
7.29123364016587
 30
0.0
 11
2.99112672467671
 21
7.29123364016587
 31
0.0
  0
LINE
  5
2965
330
1E
100
AcDbEntity
  8
0
100
AcDbLine
 10
2.981940372970673
 20
7.28335962441784
 30
0.0
 11
2.99112672467671
 21
7.29123364016587
 31
0.0
  0
LWPOLYLINE
  5
2966
330
1E
100
AcDbEntity
  8
0
100
AcDbPolyline
 90
        3
 70
     0
 43
0.0
 10
3.147294703679335
 20
7.300419991871908
 10
3.165667407091408
 20
7.297795319955898
 10
3.184040110503482
 20
7.291233640165872
  0
LINE
  5
296B
330
1E
100
AcDbEntity
  8
0
100
AcDbLine
 10
3.147294703679335
 20
7.300419991871908
 30
0.0
 11
3.027872131500857
 21
7.300419991871908
 31
0.0
  0
LWPOLYLINE
  5
296C
330
1E
100
AcDbEntity
  8
0
100
AcDbPolyline
 90
        3
 70
     0
 43
0.0
 10
2.99112672467671
 20
7.291233640165872
 10
3.009499428088783
 20
7.297795319955898
 10
3.027872131500858
 20
7.300419991871908
  0
LINE
  5
2971
330
1E
100
AcDbEntity
  8
0
100
AcDbLine
 10
2.981940372970673
 20
7.163937052239361
 30
0.0
 11
3.193226462209518
 21
7.163937052239361
 31
0.0
  0
LWPOLYLINE
  5
2972
330
1E
100
AcDbEntity
  8
0
100
AcDbPolyline
 90
        3
 70
     0
 43
0.0
 10
3.027872131500858
 20
7.146876684785295
 10
3.009499428088783
 20
7.149501356701305
 10
2.99112672467671
 20
7.15606303649133
  0
LINE
  5
2977
330
1E
100
AcDbEntity
  8
0
100
AcDbLine
 10
3.147294703679335
 20
7.146876684785294
 30
0.0
 11
3.027872131500857
 21
7.146876684785294
 31
0.0
  0
LWPOLYLINE
  5
2978
330
1E
100
AcDbEntity
  8
0
100
AcDbPolyline
 90
        3
 70
     0
 43
0.0
 10
3.184040110503482
 20
7.15606303649133
 10
3.165667407091408
 20
7.149501356701305
 10
3.147294703679335
 20
7.146876684785295
  0
LINE
  5
297D
330
1E
100
AcDbEntity
  8
0
100
AcDbLine
 10
3.184040110503482
 20
7.15606303649133
 30
0.0
 11
2.99112672467671
 21
7.15606303649133
 31
0.0
  0
LINE
  5
297E
330
1E
100
AcDbEntity
  8
0
100
AcDbLine
 10
3.193226462209518
 20
7.163937052239361
 30
0.0
 11
3.184040110503482
 21
7.15606303649133
 31
0.0
  0
LINE
  5
297F
330
1E
100
AcDbEntity
  8
0
100
AcDbLine
 10
2.99112672467671
 20
7.15606303649133
 30
0.0
 11
2.981940372970673
 21
7.163937052239361
 31
0.0
  0
LINE
  5
2980
330
1E
100
AcDbEntity
  8
0
100
AcDbLine
 10
3.147294703679335
 20
7.300419991871908
 30
0.0
 11
3.147294703679335
 21
7.300419991871908
 31
0.0
  0
LWPOLYLINE
  5
2981
330
1E
100
AcDbEntity
  8
0
100
AcDbPolyline
 90
        5
 70
     0
 43
0.0
 10
3.193226462209518
 20
7.163937052239363
 10
3.215536173495608
 20
7.190183771399468
 10
3.223410189243639
 20
7.222992170349598
 10
3.215536173495608
 20
7.257112905257736
 10
3.193226462209518
 20
7.28335962441784
  0
LINE
  5
2988
330
1E
100
AcDbEntity
  8
0
100
AcDbLine
 10
3.147294703679335
 20
7.146876684785294
 30
0.0
 11
3.147294703679335
 21
7.146876684785294
 31
0.0
  0
LWPOLYLINE
  5
2989
330
1E
100
AcDbEntity
  8
0
100
AcDbPolyline
 90
        9
 70
     0
 43
0.0
 10
3.147294703679335
 20
7.300419991871908
 10
3.17616609475545
 20
7.293858312081882
 10
3.20110047795755
 20
7.278110280585819
 10
3.218160845411618
 20
7.253175897383719
 10
3.223410189243639
 20
7.222992170349598
 10
3.218160845411618
 20
7.194120779273484
 10
3.20110047795755
 20
7.169186396071383
 10
3.17616609475545
 20
7.15343836457532
 10
3.147294703679335
 20
7.146876684785295
  0
LINE
  5
2994
330
1E
100
AcDbEntity
  8
0
100
AcDbLine
 10
3.027872131500857
 20
7.300419991871908
 30
0.0
 11
3.027872131500857
 21
7.300419991871908
 31
0.0
  0
LWPOLYLINE
  5
2995
330
1E
100
AcDbEntity
  8
0
100
AcDbPolyline
 90
        9
 70
     0
 43
0.0
 10
3.027872131500858
 20
7.146876684785295
 10
2.997688404466737
 20
7.15343836457532
 10
2.974066357222642
 20
7.169186396071383
 10
2.957005989768573
 20
7.194120779273484
 10
2.950444309978548
 20
7.222992170349598
 10
2.957005989768573
 20
7.253175897383719
 10
2.974066357222642
 20
7.278110280585819
 10
2.997688404466737
 20
7.293858312081882
 10
3.027872131500858
 20
7.300419991871908
  0
LINE
  5
29A0
330
1E
100
AcDbEntity
  8
0
100
AcDbLine
 10
3.027872131500857
 20
7.146876684785294
 30
0.0
 11
3.027872131500857
 21
7.146876684785294
 31
0.0
  0
LWPOLYLINE
  5
29A1
330
1E
100
AcDbEntity
  8
0
100
AcDbPolyline
 90
        5
 70
     0
 43
0.0
 10
2.981940372970674
 20
7.28335962441784
 10
2.959630661684584
 20
7.257112905257736
 10
2.951756645936553
 20
7.222992170349598
 10
2.959630661684584
 20
7.190183771399468
 10
2.981940372970674
 20
7.163937052239363
  0
LINE
  5
29A8
330
1E
100
AcDbEntity
  8
0
100
AcDbLine
 10
3.147294703679335
 20
7.146876684785294
 30
0.0
 11
3.027872131500857
 21
7.146876684785294
 31
0.0
  0
LINE
  5
29A9
330
1E
100
AcDbEntity
  8
0
100
AcDbLine
 10
3.147294703679335
 20
7.300419991871908
 30
0.0
 11
3.027872131500857
 21
7.300419991871908
 31
0.0
  0
LINE
  5
29AA
330
1E
100
AcDbEntity
  8
0
100
AcDbLine
 10
3.027872131500857
 20
7.073385871137
 30
0.0
 11
3.147294703679335
 21
7.073385871137
 31
0.0
  0
LWPOLYLINE
  5
29AB
330
1E
100
AcDbEntity
  8
0
100
AcDbPolyline
 90
       12
 70
     0
 43
0.0
 10
3.147294703679335
 20
7.373910805520202
 10
3.189289454335503
 20
7.367349125730177
 10
3.22865953307566
 20
7.350288758276109
 10
3.261467932025792
 20
7.321417367199993
 10
3.283777643311881
 20
7.28598429633385
 10
3.295588666933928
 20
7.245301881635688
 10
3.295588666933928
 20
7.201994795021514
 10
3.283777643311881
 20
7.161312380323352
 10
3.261467932025792
 20
7.125879309457211
 10
3.22865953307566
 20
7.097007918381095
 10
3.189289454335503
 20
7.079947550927027
 10
3.147294703679335
 20
7.073385871137
  0
LINE
  5
29B9
330
1E
100
AcDbEntity
  8
0
100
AcDbLine
 10
3.147294703679335
 20
7.373910805520202
 30
0.0
 11
3.027872131500857
 21
7.373910805520202
 31
0.0
  0
LWPOLYLINE
  5
29BA
330
1E
100
AcDbEntity
  8
0
100
AcDbPolyline
 90
       12
 70
     0
 43
0.0
 10
3.027872131500858
 20
7.073385871137
 10
2.985877380844689
 20
7.079947550927027
 10
2.946507302104531
 20
7.097007918381095
 10
2.9136989031544
 20
7.125879309457211
 10
2.891389191868311
 20
7.161312380323352
 10
2.879578168246263
 20
7.201994795021514
 10
2.879578168246263
 20
7.245301881635688
 10
2.891389191868311
 20
7.28598429633385
 10
2.9136989031544
 20
7.321417367199993
 10
2.946507302104531
 20
7.350288758276109
 10
2.985877380844689
 20
7.367349125730177
 10
3.027872131500858
 20
7.373910805520202
  0
LINE
  5
29C8
330
1E
100
AcDbEntity
  8
0
100
AcDbLine
 10
3.147294703679335
 20
7.375223141478208
 30
0.0
 11
3.147294703679335
 21
7.373910805520202
 31
0.0
  0
LINE
  5
29C9
330
1E
100
AcDbEntity
  8
0
100
AcDbLine
 10
3.147294703679335
 20
7.073385871137
 30
0.0
 11
3.147294703679335
 21
7.072073535178994
 31
0.0
  0
LWPOLYLINE
  5
29CA
330
1E
100
AcDbEntity
  8
0
100
AcDbPolyline
 90
       12
 70
     0
 43
0.0
 10
3.147294703679335
 20
7.375223141478208
 10
3.190601790293508
 20
7.368661461688182
 10
3.229971869033666
 20
7.351601094234114
 10
3.262780267983797
 20
7.322729703157998
 10
3.285089979269886
 20
7.28598429633385
 10
3.298213338849939
 20
7.245301881635688
 10
3.298213338849939
 20
7.201994795021514
 10
3.285089979269886
 20
7.160000044365347
 10
3.262780267983797
 20
7.124566973499204
 10
3.229971869033666
 20
7.09569558242309
 10
3.190601790293508
 20
7.077322879011015
 10
3.147294703679335
 20
7.072073535178995
  0
LINE
  5
29D8
330
1E
100
AcDbEntity
  8
0
100
AcDbLine
 10
3.027872131500857
 20
7.072073535178994
 30
0.0
 11
3.027872131500857
 21
7.073385871137
 31
0.0
  0
LINE
  5
29D9
330
1E
100
AcDbEntity
  8
0
100
AcDbLine
 10
3.027872131500857
 20
7.373910805520202
 30
0.0
 11
3.027872131500857
 21
7.375223141478208
 31
0.0
  0
LWPOLYLINE
  5
29DA
330
1E
100
AcDbEntity
  8
0
100
AcDbPolyline
 90
       12
 70
     0
 43
0.0
 10
3.027872131500858
 20
7.072073535178995
 10
2.984565044886684
 20
7.077322879011015
 10
2.945194966146526
 20
7.09569558242309
 10
2.912386567196395
 20
7.124566973499204
 10
2.890076855910306
 20
7.160000044365347
 10
2.876953496330253
 20
7.201994795021514
 10
2.876953496330253
 20
7.245301881635688
 10
2.890076855910306
 20
7.28598429633385
 10
2.912386567196395
 20
7.322729703157998
 10
2.945194966146526
 20
7.351601094234114
 10
2.984565044886684
 20
7.368661461688182
 10
3.027872131500858
 20
7.375223141478208
  0
LINE
  5
29E8
330
1E
100
AcDbEntity
  8
0
100
AcDbLine
 10
3.027872131500857
 20
7.375223141478208
 30
0.0
 11
3.147294703679335
 21
7.375223141478208
 31
0.0
  0
LINE
  5
29E9
330
1E
100
AcDbEntity
  8
0
100
AcDbLine
 10
3.147294703679335
 20
7.072073535178994
 30
0.0
 11
3.027872131500857
 21
7.072073535178994
 31
0.0
  0
LINE
  5
29EA
330
1E
100
AcDbEntity
  8
0
100
AcDbLine
 10
4.152544047511355
 20
7.397532852764296
 30
0.0
 11
4.15385638346936
 21
7.398845188722301
 31
0.0
  0
LINE
  5
29EB
330
1E
100
AcDbEntity
  8
0
100
AcDbLine
 10
4.152544047511355
 20
7.397532852764296
 30
0.0
 11
4.152544047511355
 21
7.049763823892906
 31
0.0
  0
LINE
  5
29EC
330
1E
100
AcDbEntity
  8
0
100
AcDbLine
 10
4.15385638346936
 20
7.048451487934901
 30
0.0
 11
4.152544047511355
 21
7.049763823892906
 31
0.0
  0
LINE
  5
29ED
330
1E
100
AcDbEntity
  8
0
100
AcDbLine
 10
2.311336698429991
 20
7.429028915756422
 30
0.0
 11
2.310024362471986
 21
7.429028915756422
 31
0.0
  0
LINE
  5
29EE
330
1E
100
AcDbEntity
  8
0
100
AcDbLine
 10
2.311336698429991
 20
7.429028915756422
 30
0.0
 11
2.340208089506106
 21
7.429028915756422
 31
0.0
  0
LINE
  5
29EF
330
1E
100
AcDbEntity
  8
0
100
AcDbLine
 10
2.344145097380122
 20
7.429028915756422
 30
0.0
 11
2.340208089506106
 21
7.429028915756422
 31
0.0
  0
LINE
  5
29F0
330
1E
100
AcDbEntity
  8
0
100
AcDbLine
 10
4.088239585569098
 20
7.429028915756422
 30
0.0
 11
2.344145097380122
 21
7.429028915756422
 31
0.0
  0
LINE
  5
29F1
330
1E
100
AcDbEntity
  8
0
100
AcDbLine
 10
4.088239585569098
 20
7.429028915756422
 30
0.0
 11
4.092176593443113
 21
7.429028915756422
 31
0.0
  0
LINE
  5
29F2
330
1E
100
AcDbEntity
  8
0
100
AcDbLine
 10
4.092176593443113
 20
7.429028915756422
 30
0.0
 11
4.121047984519229
 21
7.429028915756422
 31
0.0
  0
LINE
  5
29F3
330
1E
100
AcDbEntity
  8
0
100
AcDbLine
 10
4.122360320477234
 20
7.429028915756422
 30
0.0
 11
4.121047984519229
 21
7.429028915756422
 31
0.0
  0
LINE
  5
29F4
330
1E
100
AcDbEntity
  8
0
100
AcDbLine
 10
2.28115297139587
 20
7.049763823892906
 30
0.0
 11
2.27852829947986
 21
7.048451487934901
 31
0.0
  0
LINE
  5
29F5
330
1E
100
AcDbEntity
  8
0
100
AcDbLine
 10
2.28115297139587
 20
7.049763823892906
 30
0.0
 11
2.28115297139587
 21
7.397532852764296
 31
0.0
  0
LINE
  5
29F6
330
1E
100
AcDbEntity
  8
0
100
AcDbLine
 10
2.27852829947986
 20
7.398845188722301
 30
0.0
 11
2.28115297139587
 21
7.397532852764296
 31
0.0
  0
LINE
  5
29F7
330
1E
100
AcDbEntity
  8
0
100
AcDbLine
 10
4.121047984519229
 20
7.01826776090078
 30
0.0
 11
4.122360320477234
 21
7.016955424942775
 31
0.0
  0
LINE
  5
29F8
330
1E
100
AcDbEntity
  8
0
100
AcDbLine
 10
4.121047984519229
 20
7.01826776090078
 30
0.0
 11
4.092176593443113
 21
7.01826776090078
 31
0.0
  0
LINE
  5
29F9
330
1E
100
AcDbEntity
  8
0
100
AcDbLine
 10
4.088239585569098
 20
7.01826776090078
 30
0.0
 11
4.092176593443113
 21
7.01826776090078
 31
0.0
  0
LINE
  5
29FA
330
1E
100
AcDbEntity
  8
0
100
AcDbLine
 10
2.344145097380122
 20
7.01826776090078
 30
0.0
 11
4.088239585569098
 21
7.01826776090078
 31
0.0
  0
LINE
  5
29FB
330
1E
100
AcDbEntity
  8
0
100
AcDbLine
 10
2.344145097380122
 20
7.01826776090078
 30
0.0
 11
2.340208089506106
 21
7.01826776090078
 31
0.0
  0
LINE
  5
29FC
330
1E
100
AcDbEntity
  8
0
100
AcDbLine
 10
2.340208089506106
 20
7.01826776090078
 30
0.0
 11
2.311336698429991
 21
7.01826776090078
 31
0.0
  0
LINE
  5
29FD
330
1E
100
AcDbEntity
  8
0
100
AcDbLine
 10
2.310024362471986
 20
7.016955424942775
 30
0.0
 11
2.311336698429991
 21
7.01826776090078
 31
0.0
  0
LWPOLYLINE
  5
29FE
330
1E
100
AcDbEntity
  8
0
100
AcDbPolyline
 90
        4
 70
     0
 43
0.0
 10
4.152544047511355
 20
7.049763823892906
 10
4.147294703679335
 20
7.034015792396843
 10
4.136796016015292
 20
7.022204768774797
 10
4.121047984519229
 20
7.01826776090078
  0
LWPOLYLINE
  5
2A04
330
1E
100
AcDbEntity
  8
0
100
AcDbPolyline
 90
        4
 70
     0
 43
0.0
 10
4.121047984519229
 20
7.429028915756424
 10
4.136796016015292
 20
7.425091907882407
 10
4.147294703679335
 20
7.413280884260361
 10
4.152544047511355
 20
7.397532852764298
  0
LWPOLYLINE
  5
2A0A
330
1E
100
AcDbEntity
  8
0
100
AcDbPolyline
 90
        4
 70
     0
 43
0.0
 10
2.281152971395871
 20
7.397532852764298
 10
2.285089979269886
 20
7.413280884260361
 10
2.295588666933928
 20
7.425091907882407
 10
2.311336698429991
 20
7.429028915756424
  0
LWPOLYLINE
  5
2A10
330
1E
100
AcDbEntity
  8
0
100
AcDbPolyline
 90
        4
 70
     0
 43
0.0
 10
2.311336698429991
 20
7.01826776090078
 10
2.295588666933928
 20
7.022204768774797
 10
2.285089979269886
 20
7.034015792396843
 10
2.281152971395871
 20
7.049763823892906
  0
LINE
  5
2A16
330
1E
100
AcDbEntity
  8
0
100
AcDbLine
 10
2.344145097380122
 20
7.01826776090078
 30
0.0
 11
2.344145097380122
 21
7.429028915756422
 31
0.0
  0
LINE
  5
2A17
330
1E
100
AcDbEntity
  8
0
100
AcDbLine
 10
4.088239585569098
 20
7.01826776090078
 30
0.0
 11
4.088239585569098
 21
7.429028915756422
 31
0.0
  0
LINE
  5
2A18
330
1E
100
AcDbEntity
  8
0
100
AcDbLine
 10
0.2417828926557135
 20
4.148189020743299
 30
0.0
 11
0.2706542837318286
 21
4.148189020743299
 31
0.0
  0
LWPOLYLINE
  5
2A19
330
1E
100
AcDbEntity
  8
0
100
AcDbPolyline
 90
        4
 70
     0
 43
0.0
 10
0.2102868296635876
 20
4.116692957751174
 10
0.2142238375376033
 20
4.132440989247237
 10
0.2260348611596505
 20
4.144252012869284
 10
0.2417828926557135
 20
4.1481890207433
  0
LINE
  5
2A1F
330
1E
100
AcDbEntity
  8
0
100
AcDbLine
 10
0.2102868296635876
 20
3.767611592921777
 30
0.0
 11
0.2102868296635876
 21
4.116692957751173
 31
0.0
  0
LWPOLYLINE
  5
2A20
330
1E
100
AcDbEntity
  8
0
100
AcDbPolyline
 90
        4
 70
     0
 43
0.0
 10
0.2417828926557135
 20
3.737427865887657
 10
0.2260348611596505
 20
3.741364873761673
 10
0.2142238375376033
 20
3.75317589738372
 10
0.2102868296635876
 20
3.767611592921778
  0
LINE
  5
2A26
330
1E
100
AcDbEntity
  8
0
100
AcDbLine
 10
0.2706542837318286
 20
3.737427865887656
 30
0.0
 11
0.2417828926557135
 21
3.737427865887656
 31
0.0
  0
LWPOLYLINE
  5
2A27
330
1E
100
AcDbEntity
  8
0
100
AcDbPolyline
 90
        5
 70
     0
 43
0.0
 10
1.380890504204269
 20
4.002519729404717
 10
1.403200215490359
 20
3.976273010244612
 10
1.41107423123839
 20
3.942152275336475
 10
1.403200215490359
 20
3.909343876386344
 10
1.380890504204269
 20
3.883097157226239
  0
LWPOLYLINE
  5
2A2E
330
1E
100
AcDbEntity
  8
0
100
AcDbPolyline
 90
        5
 70
     0
 43
0.0
 10
1.168292079007419
 20
3.883097157226239
 10
1.147294703679335
 20
3.909343876386344
 10
1.139420687931303
 20
3.942152275336475
 10
1.147294703679335
 20
3.976273010244612
 10
1.168292079007419
 20
4.002519729404717
  0
LINE
  5
2A35
330
1E
100
AcDbEntity
  8
0
100
AcDbLine
 10
1.215536173495608
 20
4.094383246465085
 30
0.0
 11
1.334958745674085
 21
4.094383246465085
 31
0.0
  0
LWPOLYLINE
  5
2A36
330
1E
100
AcDbEntity
  8
0
100
AcDbPolyline
 90
       12
 70
     0
 43
0.0
 10
1.334958745674085
 20
4.094383246465085
 10
1.378265832288259
 20
4.087821566675058
 10
1.417635911028416
 20
4.07076119922099
 10
1.449131974020542
 20
4.041889808144874
 10
1.472754021264637
 20
4.005144401320727
 10
1.485877380844689
 20
3.964461986622565
 10
1.485877380844689
 20
3.921154900008391
 10
1.472754021264637
 20
3.879160149352223
 10
1.449131974020542
 20
3.843727078486081
 10
1.417635911028416
 20
3.814855687409967
 10
1.378265832288259
 20
3.796482983997893
 10
1.334958745674085
 20
3.791233640165872
  0
LINE
  5
2A44
330
1E
100
AcDbEntity
  8
0
100
AcDbLine
 10
1.334958745674085
 20
3.791233640165872
 30
0.0
 11
1.215536173495608
 21
3.791233640165872
 31
0.0
  0
LWPOLYLINE
  5
2A45
330
1E
100
AcDbEntity
  8
0
100
AcDbPolyline
 90
       12
 70
     0
 43
0.0
 10
1.215536173495608
 20
3.791233640165872
 10
1.172229086881435
 20
3.796482983997893
 10
1.132859008141278
 20
3.814855687409967
 10
1.100050609191146
 20
3.843727078486081
 10
1.076428561947051
 20
3.879160149352223
 10
1.064617538325005
 20
3.921154900008391
 10
1.064617538325005
 20
3.964461986622565
 10
1.076428561947051
 20
4.005144401320727
 10
1.100050609191146
 20
4.041889808144874
 10
1.132859008141278
 20
4.07076119922099
 10
1.172229086881435
 20
4.087821566675058
 10
1.215536173495608
 20
4.094383246465085
  0
LINE
  5
2A53
330
1E
100
AcDbEntity
  8
0
100
AcDbLine
 10
0.2732789556478394
 20
4.146876684785294
 30
0.0
 11
0.2732789556478394
 21
3.737427865887656
 31
0.0
  0
LINE
  5
2A54
330
1E
100
AcDbEntity
  8
0
100
AcDbLine
 10
0.2732789556478394
 20
3.737427865887656
 30
0.0
 11
2.018685779794821
 21
3.737427865887656
 31
0.0
  0
LINE
  5
2A55
330
1E
100
AcDbEntity
  8
0
100
AcDbLine
 10
2.018685779794821
 20
4.146876684785294
 30
0.0
 11
2.018685779794821
 21
3.737427865887656
 31
0.0
  0
LINE
  5
2A56
330
1E
100
AcDbEntity
  8
0
100
AcDbLine
 10
2.018685779794821
 20
4.146876684785294
 30
0.0
 11
0.2732789556478394
 21
4.146876684785294
 31
0.0
  0
LINE
  5
2A57
330
1E
100
AcDbEntity
  8
0
100
AcDbLine
 10
0.2732789556478394
 20
4.146876684785294
 30
0.0
 11
0.2706542837318286
 21
4.148189020743299
 31
0.0
  0
LINE
  5
2A58
330
1E
100
AcDbEntity
  8
0
100
AcDbLine
 10
0.2732789556478394
 20
3.737427865887656
 30
0.0
 11
0.2706542837318286
 21
3.737427865887656
 31
0.0
  0
LINE
  5
2A59
330
1E
100
AcDbEntity
  8
0
100
AcDbLine
 10
2.018685779794821
 20
4.146876684785294
 30
0.0
 11
2.021310451710831
 21
4.148189020743299
 31
0.0
  0
LINE
  5
2A5A
330
1E
100
AcDbEntity
  8
0
100
AcDbLine
 10
2.018685779794821
 20
3.737427865887656
 30
0.0
 11
2.021310451710831
 21
3.737427865887656
 31
0.0
  0
LINE
  5
2A5B
330
1E
100
AcDbEntity
  8
0
100
AcDbLine
 10
2.050181842786947
 20
3.737427865887656
 30
0.0
 11
2.021310451710831
 21
3.737427865887656
 31
0.0
  0
LWPOLYLINE
  5
2A5C
330
1E
100
AcDbEntity
  8
0
100
AcDbPolyline
 90
        4
 70
     0
 43
0.0
 10
2.081677905779072
 20
3.767611592921778
 10
2.077740897905057
 20
3.75317589738372
 10
2.065929874283009
 20
3.741364873761673
 10
2.050181842786946
 20
3.737427865887657
  0
LINE
  5
2A62
330
1E
100
AcDbEntity
  8
0
100
AcDbLine
 10
2.081677905779073
 20
4.116692957751173
 30
0.0
 11
2.081677905779073
 21
3.767611592921777
 31
0.0
  0
LWPOLYLINE
  5
2A63
330
1E
100
AcDbEntity
  8
0
100
AcDbPolyline
 90
        4
 70
     0
 43
0.0
 10
2.050181842786946
 20
4.1481890207433
 10
2.065929874283009
 20
4.144252012869284
 10
2.077740897905057
 20
4.132440989247237
 10
2.081677905779072
 20
4.116692957751174
  0
LINE
  5
2A69
330
1E
100
AcDbEntity
  8
0
100
AcDbLine
 10
2.021310451710831
 20
4.148189020743299
 30
0.0
 11
2.050181842786947
 21
4.148189020743299
 31
0.0
  0
LINE
  5
2A6A
330
1E
100
AcDbEntity
  8
0
100
AcDbLine
 10
2.052806514702957
 20
4.148189020743299
 30
0.0
 11
2.050181842786947
 21
4.148189020743299
 31
0.0
  0
LINE
  5
2A6B
330
1E
100
AcDbEntity
  8
0
100
AcDbLine
 10
2.081677905779073
 20
4.116692957751173
 30
0.0
 11
2.084302577695082
 21
4.116692957751173
 31
0.0
  0
LINE
  5
2A6C
330
1E
100
AcDbEntity
  8
0
100
AcDbLine
 10
2.084302577695082
 20
3.767611592921777
 30
0.0
 11
2.081677905779073
 21
3.767611592921777
 31
0.0
  0
LINE
  5
2A6D
330
1E
100
AcDbEntity
  8
0
100
AcDbLine
 10
2.050181842786947
 20
3.737427865887656
 30
0.0
 11
2.052806514702957
 21
3.736115529929652
 31
0.0
  0
LINE
  5
2A6E
330
1E
100
AcDbEntity
  8
0
100
AcDbLine
 10
0.2404705566977077
 20
3.736115529929652
 30
0.0
 11
0.2417828926557135
 21
3.737427865887656
 31
0.0
  0
LINE
  5
2A6F
330
1E
100
AcDbEntity
  8
0
100
AcDbLine
 10
0.2102868296635876
 20
3.767611592921777
 30
0.0
 11
0.2089744937055817
 21
3.767611592921777
 31
0.0
  0
LINE
  5
2A70
330
1E
100
AcDbEntity
  8
0
100
AcDbLine
 10
0.2089744937055817
 20
4.116692957751173
 30
0.0
 11
0.2102868296635876
 21
4.116692957751173
 31
0.0
  0
LINE
  5
2A71
330
1E
100
AcDbEntity
  8
0
100
AcDbLine
 10
0.2417828926557135
 20
4.148189020743299
 30
0.0
 11
0.2404705566977077
 21
4.148189020743299
 31
0.0
  0
LINE
  5
2A72
330
1E
100
AcDbEntity
  8
0
100
AcDbLine
 10
1.215536173495608
 20
4.093070910507079
 30
0.0
 11
1.215536173495608
 21
4.094383246465085
 31
0.0
  0
LINE
  5
2A73
330
1E
100
AcDbEntity
  8
0
100
AcDbLine
 10
1.334958745674085
 20
4.093070910507079
 30
0.0
 11
1.215536173495608
 21
4.093070910507079
 31
0.0
  0
LINE
  5
2A74
330
1E
100
AcDbEntity
  8
0
100
AcDbLine
 10
1.334958745674085
 20
4.094383246465085
 30
0.0
 11
1.334958745674085
 21
4.093070910507079
 31
0.0
  0
LINE
  5
2A75
330
1E
100
AcDbEntity
  8
0
100
AcDbLine
 10
1.334958745674085
 20
3.792545976123877
 30
0.0
 11
1.334958745674085
 21
3.791233640165872
 31
0.0
  0
LINE
  5
2A76
330
1E
100
AcDbEntity
  8
0
100
AcDbLine
 10
1.215536173495608
 20
3.792545976123877
 30
0.0
 11
1.334958745674085
 21
3.792545976123877
 31
0.0
  0
LINE
  5
2A77
330
1E
100
AcDbEntity
  8
0
100
AcDbLine
 10
1.215536173495608
 20
3.791233640165872
 30
0.0
 11
1.215536173495608
 21
3.792545976123877
 31
0.0
  0
LWPOLYLINE
  5
2A78
330
1E
100
AcDbEntity
  8
0
100
AcDbPolyline
 90
       12
 70
     0
 43
0.0
 10
1.334958745674085
 20
4.093070910507078
 10
1.376953496330253
 20
4.086509230717053
 10
1.416323575070411
 20
4.06813652730498
 10
1.447819638062537
 20
4.040577472186869
 10
1.471441685306632
 20
4.005144401320727
 10
1.483252708928679
 20
3.964461986622565
 10
1.483252708928679
 20
3.921154900008391
 10
1.471441685306632
 20
3.88047248531023
 10
1.447819638062537
 20
3.843727078486081
 10
1.416323575070411
 20
3.816168023367972
 10
1.376953496330253
 20
3.799107655913904
 10
1.334958745674085
 20
3.792545976123877
  0
LWPOLYLINE
  5
2A86
330
1E
100
AcDbEntity
  8
0
100
AcDbPolyline
 90
       12
 70
     0
 43
0.0
 10
1.215536173495608
 20
3.792545976123877
 10
1.172229086881435
 20
3.799107655913904
 10
1.134171344099283
 20
3.816168023367972
 10
1.101362945149152
 20
3.843727078486081
 10
1.079053233863062
 20
3.88047248531023
 10
1.06592987428301
 20
3.921154900008391
 10
1.06592987428301
 20
3.964461986622565
 10
1.079053233863062
 20
4.005144401320727
 10
1.101362945149152
 20
4.040577472186869
 10
1.134171344099283
 20
4.06813652730498
 10
1.172229086881435
 20
4.086509230717053
 10
1.215536173495608
 20
4.093070910507078
  0
LINE
  5
2A94
330
1E
100
AcDbEntity
  8
0
100
AcDbLine
 10
1.215536173495608
 20
4.019580096858785
 30
0.0
 11
1.334958745674085
 21
4.019580096858785
 31
0.0
  0
LWPOLYLINE
  5
2A95
330
1E
100
AcDbEntity
  8
0
100
AcDbPolyline
 90
        9
 70
     0
 43
0.0
 10
1.334958745674085
 20
4.019580096858785
 10
1.363830136750201
 20
4.013018417068758
 10
1.388764519952301
 20
3.995958049614691
 10
1.405824887406369
 20
3.972336002370596
 10
1.41107423123839
 20
3.942152275336475
 10
1.405824887406369
 20
3.91328088426036
 10
1.388764519952301
 20
3.88834650105826
 10
1.363830136750201
 20
3.871286133604192
 10
1.334958745674085
 20
3.866036789772171
  0
LINE
  5
2AA0
330
1E
100
AcDbEntity
  8
0
100
AcDbLine
 10
1.215536173495608
 20
3.866036789772171
 30
0.0
 11
1.334958745674085
 21
3.866036789772171
 31
0.0
  0
LWPOLYLINE
  5
2AA1
330
1E
100
AcDbEntity
  8
0
100
AcDbPolyline
 90
        9
 70
     0
 43
0.0
 10
1.215536173495608
 20
3.866036789772171
 10
1.185352446461487
 20
3.871286133604192
 10
1.160418063259387
 20
3.88834650105826
 10
1.144670031763324
 20
3.91328088426036
 10
1.138108351973298
 20
3.942152275336475
 10
1.144670031763324
 20
3.972336002370596
 10
1.160418063259387
 20
3.995958049614691
 10
1.185352446461487
 20
4.013018417068758
 10
1.215536173495608
 20
4.019580096858785
  0
LINE
  5
2AAC
330
1E
100
AcDbEntity
  8
0
100
AcDbLine
 10
1.334958745674085
 20
3.866036789772171
 30
0.0
 11
1.334958745674085
 21
3.866036789772171
 31
0.0
  0
LINE
  5
2AAD
330
1E
100
AcDbEntity
  8
0
100
AcDbLine
 10
1.215536173495608
 20
3.866036789772171
 30
0.0
 11
1.334958745674085
 21
3.866036789772171
 31
0.0
  0
LINE
  5
2AAE
330
1E
100
AcDbEntity
  8
0
100
AcDbLine
 10
1.215536173495608
 20
3.866036789772171
 30
0.0
 11
1.215536173495608
 21
3.866036789772171
 31
0.0
  0
LINE
  5
2AAF
330
1E
100
AcDbEntity
  8
0
100
AcDbLine
 10
1.215536173495608
 20
4.01826776090078
 30
0.0
 11
1.215536173495608
 21
4.019580096858785
 31
0.0
  0
LINE
  5
2AB0
330
1E
100
AcDbEntity
  8
0
100
AcDbLine
 10
1.215536173495608
 20
4.01826776090078
 30
0.0
 11
1.334958745674085
 21
4.01826776090078
 31
0.0
  0
LINE
  5
2AB1
330
1E
100
AcDbEntity
  8
0
100
AcDbLine
 10
1.334958745674085
 20
4.01826776090078
 30
0.0
 11
1.334958745674085
 21
4.019580096858785
 31
0.0
  0
LINE
  5
2AB2
330
1E
100
AcDbEntity
  8
0
100
AcDbLine
 10
1.38089050420427
 20
3.883097157226239
 30
0.0
 11
1.371704152498232
 21
3.875223141478208
 31
0.0
  0
LWPOLYLINE
  5
2AB3
330
1E
100
AcDbEntity
  8
0
100
AcDbPolyline
 90
        3
 70
     0
 43
0.0
 10
1.371704152498232
 20
3.875223141478209
 10
1.353331449086159
 20
3.868661461688181
 10
1.334958745674085
 20
3.866036789772171
  0
LWPOLYLINE
  5
2AB8
330
1E
100
AcDbEntity
  8
0
100
AcDbPolyline
 90
        3
 70
     0
 43
0.0
 10
1.334958745674085
 20
4.01826776090078
 10
1.353331449086159
 20
4.016955424942775
 10
1.371704152498232
 20
4.010393745152748
  0
LINE
  5
2ABD
330
1E
100
AcDbEntity
  8
0
100
AcDbLine
 10
1.371704152498232
 20
4.010393745152748
 30
0.0
 11
1.38089050420427
 21
4.002519729404717
 31
0.0
  0
LWPOLYLINE
  5
2ABE
330
1E
100
AcDbEntity
  8
0
100
AcDbPolyline
 90
        3
 70
     0
 43
0.0
 10
1.215536173495608
 20
3.866036789772171
 10
1.19585113412553
 20
3.868661461688181
 10
1.178790766671461
 20
3.875223141478209
  0
LINE
  5
2AC3
330
1E
100
AcDbEntity
  8
0
100
AcDbLine
 10
1.17879076667146
 20
3.875223141478208
 30
0.0
 11
1.168292079007418
 21
3.883097157226239
 31
0.0
  0
LINE
  5
2AC4
330
1E
100
AcDbEntity
  8
0
100
AcDbLine
 10
1.168292079007418
 20
4.002519729404717
 30
0.0
 11
1.17879076667146
 21
4.010393745152748
 31
0.0
  0
LWPOLYLINE
  5
2AC5
330
1E
100
AcDbEntity
  8
0
100
AcDbPolyline
 90
        3
 70
     0
 43
0.0
 10
1.178790766671461
 20
4.010393745152748
 10
1.19585113412553
 20
4.016955424942775
 10
1.215536173495608
 20
4.01826776090078
  0
LINE
  5
2ACA
330
1E
100
AcDbEntity
  8
0
100
AcDbLine
 10
1.17879076667146
 20
4.010393745152748
 30
0.0
 11
1.371704152498232
 21
4.010393745152748
 31
0.0
  0
LINE
  5
2ACB
330
1E
100
AcDbEntity
  8
0
100
AcDbLine
 10
1.38089050420427
 20
4.002519729404717
 30
0.0
 11
1.168292079007418
 21
4.002519729404717
 31
0.0
  0
LINE
  5
2ACC
330
1E
100
AcDbEntity
  8
0
100
AcDbLine
 10
1.17879076667146
 20
3.875223141478208
 30
0.0
 11
1.371704152498232
 21
3.875223141478208
 31
0.0
  0
LINE
  5
2ACD
330
1E
100
AcDbEntity
  8
0
100
AcDbLine
 10
1.38089050420427
 20
3.883097157226239
 30
0.0
 11
1.168292079007418
 21
3.883097157226239
 31
0.0
  0
LINE
  5
2ACE
330
1E
100
AcDbEntity
  8
0
100
AcDbLine
 10
-0.0653037215175143
 20
3.396220516806292
 30
0.0
 11
-0.0653037215175143
 21
7.770236264837786
 31
0.0
  0
LINE
  5
2ACF
330
1E
100
AcDbEntity
  8
0
100
AcDbLine
 10
-0.0653037215175143
 20
7.770236264837786
 30
0.0
 11
-0.0692407293915309
 21
7.772860936753797
 31
0.0
  0
LINE
  5
2AD0
330
1E
100
AcDbEntity
  8
0
100
AcDbLine
 10
-0.0692407293915309
 20
7.772860936753797
 30
0.0
 11
-0.0692407293915309
 21
3.392283508932276
 31
0.0
  0
LINE
  5
2AD1
330
1E
100
AcDbEntity
  8
0
100
AcDbLine
 10
-0.0692407293915309
 20
3.392283508932276
 30
0.0
 11
-0.0653037215175143
 21
3.396220516806292
 31
0.0
  0
LINE
  5
2AD2
330
1E
100
AcDbEntity
  8
0
100
AcDbLine
 10
-0.0049362674492723
 20
7.829291382948023
 30
0.0
 11
4.367767144624217
 21
7.829291382948023
 31
0.0
  0
LINE
  5
2AD3
330
1E
100
AcDbEntity
  8
0
100
AcDbLine
 10
4.371704152498232
 20
7.833228390822038
 30
0.0
 11
-0.008873275323289
 21
7.833228390822038
 31
0.0
  0
LINE
  5
2AD4
330
1E
100
AcDbEntity
  8
0
100
AcDbLine
 10
-0.008873275323289
 20
7.833228390822038
 30
0.0
 11
-0.0049362674492723
 21
7.829291382948023
 31
0.0
  0
LINE
  5
2AD5
330
1E
100
AcDbEntity
  8
0
100
AcDbLine
 10
-0.008873275323289
 20
3.33322839082204
 30
0.0
 11
4.371704152498232
 21
3.33322839082204
 31
0.0
  0
LINE
  5
2AD6
330
1E
100
AcDbEntity
  8
0
100
AcDbLine
 10
4.367767144624217
 20
3.335853062738051
 30
0.0
 11
-0.0049362674492723
 21
3.335853062738051
 31
0.0
  0
LINE
  5
2AD7
330
1E
100
AcDbEntity
  8
0
100
AcDbLine
 10
-0.0049362674492723
 20
3.335853062738051
 30
0.0
 11
-0.008873275323289
 21
3.33322839082204
 31
0.0
  0
LWPOLYLINE
  5
2AD8
330
1E
100
AcDbEntity
  8
0
100
AcDbPolyline
 90
        5
 70
     0
 43
0.0
 10
-0.0088732753232885
 20
3.33322839082204
 10
-0.031182986609378
 20
3.337165398696055
 10
-0.0508680259794567
 20
3.350288758276108
 10
-0.0639913855595094
 20
3.369973797646187
 10
-0.0692407293915305
 20
3.392283508932277
  0
LWPOLYLINE
  5
2ADF
330
1E
100
AcDbEntity
  8
0
100
AcDbPolyline
 90
        5
 70
     0
 43
0.0
 10
-0.0692407293915305
 20
7.772860936753799
 10
-0.0639913855595094
 20
7.796482983997892
 10
-0.0508680259794567
 20
7.814855687409966
 10
-0.031182986609378
 20
7.827979046990018
 10
-0.0088732753232885
 20
7.833228390822039
  0
LWPOLYLINE
  5
2AE6
330
1E
100
AcDbEntity
  8
0
100
AcDbPolyline
 90
        9
 70
     0
 43
0.0
 10
0.1591057273013829
 20
3.561574847514954
 10
0.127609664309257
 20
3.51826776090078
 10
0.0974259372751361
 20
3.477585346202617
 10
0.0698668821570259
 20
3.439527603420466
 10
0.0462448349129314
 20
3.406719204470334
 10
0.0252474595848478
 20
3.377847813394219
 10
0.0094994280887848
 20
3.356850438066134
 10
-0.000999259575257
 20
3.342414742528076
 10
-0.0049362674492728
 20
3.33585306273805
  0
LWPOLYLINE
  5
2AF1
330
1E
100
AcDbEntity
  8
0
100
AcDbPolyline
 90
        9
 70
     0
 43
0.0
 10
-0.0049362674492728
 20
7.829291382948024
 10
-0.000999259575257
 20
7.824042039116003
 10
0.0094994280887848
 20
7.809606343577945
 10
0.0252474595848478
 20
7.788608968249862
 10
0.0462448349129314
 20
7.759737577173746
 10
0.0698668821570259
 20
7.726929178223615
 10
0.0974259372751361
 20
7.688871435441463
 10
0.127609664309257
 20
7.6481890207433
 10
0.1591057273013829
 20
7.604881934129126
  0
LWPOLYLINE
  5
2AFC
330
1E
100
AcDbEntity
  8
0
100
AcDbPolyline
 90
        9
 70
     0
 43
0.0
 10
-0.0653037215175147
 20
3.396220516806292
 10
-0.0587420417274882
 20
3.400157524680308
 10
-0.0456186821474356
 20
3.41065621234435
 10
-0.0233089708613465
 20
3.426404243840412
 10
0.0042500842567637
 20
3.447401619168497
 10
0.0383708191648999
 20
3.472336002370596
 10
0.0764285619470524
 20
3.499895057488707
 10
0.1171109766452147
 20
3.530078784522828
 10
0.1591057273013829
 20
3.561574847514954
  0
LWPOLYLINE
  5
2B07
330
1E
100
AcDbEntity
  8
0
100
AcDbPolyline
 90
        9
 70
     0
 43
0.0
 10
0.1591057273013829
 20
7.604881934129126
 10
0.1171109766452147
 20
7.636377997121252
 10
0.0764285619470524
 20
7.666561724155373
 10
0.0383708191648999
 20
7.694120779273484
 10
0.0042500842567637
 20
7.719055162475584
 10
-0.0233089708613465
 20
7.738740201845661
 10
-0.0456186821474356
 20
7.754488233341724
 10
-0.0587420417274882
 20
7.764986921005766
 10
-0.0653037215175147
 20
7.770236264837787
  0
LWPOLYLINE
  5
2B12
330
1E
100
AcDbEntity
  8
0
100
AcDbPolyline
 90
        4
 70
     0
 43
0.0
 10
-0.0049362674492728
 20
7.829291382948024
 10
-0.0351199944833938
 20
7.821417367199991
 10
-0.0574297057694833
 20
7.800419991871908
 10
-0.0653037215175147
 20
7.770236264837787
  0
LWPOLYLINE
  5
2B18
330
1E
100
AcDbEntity
  8
0
100
AcDbPolyline
 90
        4
 70
     0
 43
0.0
 10
-0.0653037215175147
 20
3.396220516806292
 10
-0.0574297057694833
 20
3.366036789772171
 10
-0.0351199944833938
 20
3.343727078486082
 10
-0.0049362674492728
 20
3.33585306273805
  0
LINE
  5
2B1E
330
1E
100
AcDbEntity
  8
0
100
AcDbLine
 10
1.38089050420427
 20
7.28335962441784
 30
0.0
 11
1.168292079007418
 21
7.28335962441784
 31
0.0
  0
LINE
  5
2B1F
330
1E
100
AcDbEntity
  8
0
100
AcDbLine
 10
1.38089050420427
 20
7.28335962441784
 30
0.0
 11
1.371704152498232
 21
7.29123364016587
 31
0.0
  0
LINE
  5
2B20
330
1E
100
AcDbEntity
  8
0
100
AcDbLine
 10
1.17879076667146
 20
7.29123364016587
 30
0.0
 11
1.371704152498232
 21
7.29123364016587
 31
0.0
  0
LINE
  5
2B21
330
1E
100
AcDbEntity
  8
0
100
AcDbLine
 10
1.17879076667146
 20
7.29123364016587
 30
0.0
 11
1.168292079007418
 21
7.28335962441784
 31
0.0
  0
LWPOLYLINE
  5
2B22
330
1E
100
AcDbEntity
  8
0
100
AcDbPolyline
 90
        3
 70
     0
 43
0.0
 10
1.371704152498232
 20
7.291233640165872
 10
1.353331449086159
 20
7.297795319955898
 10
1.334958745674085
 20
7.300419991871908
  0
LINE
  5
2B27
330
1E
100
AcDbEntity
  8
0
100
AcDbLine
 10
1.215536173495608
 20
7.300419991871908
 30
0.0
 11
1.334958745674085
 21
7.300419991871908
 31
0.0
  0
LWPOLYLINE
  5
2B28
330
1E
100
AcDbEntity
  8
0
100
AcDbPolyline
 90
        3
 70
     0
 43
0.0
 10
1.215536173495608
 20
7.300419991871908
 10
1.19585113412553
 20
7.297795319955898
 10
1.178790766671461
 20
7.291233640165872
  0
LINE
  5
2B2D
330
1E
100
AcDbEntity
  8
0
100
AcDbLine
 10
1.38089050420427
 20
7.163937052239361
 30
0.0
 11
1.168292079007418
 21
7.163937052239361
 31
0.0
  0
LWPOLYLINE
  5
2B2E
330
1E
100
AcDbEntity
  8
0
100
AcDbPolyline
 90
        3
 70
     0
 43
0.0
 10
1.334958745674085
 20
7.146876684785295
 10
1.353331449086159
 20
7.149501356701305
 10
1.371704152498232
 20
7.15606303649133
  0
LINE
  5
2B33
330
1E
100
AcDbEntity
  8
0
100
AcDbLine
 10
1.17879076667146
 20
7.15606303649133
 30
0.0
 11
1.371704152498232
 21
7.15606303649133
 31
0.0
  0
LWPOLYLINE
  5
2B34
330
1E
100
AcDbEntity
  8
0
100
AcDbPolyline
 90
        3
 70
     0
 43
0.0
 10
1.178790766671461
 20
7.15606303649133
 10
1.19585113412553
 20
7.149501356701305
 10
1.215536173495608
 20
7.146876684785295
  0
LINE
  5
2B39
330
1E
100
AcDbEntity
  8
0
100
AcDbLine
 10
1.215536173495608
 20
7.146876684785294
 30
0.0
 11
1.334958745674085
 21
7.146876684785294
 31
0.0
  0
LINE
  5
2B3A
330
1E
100
AcDbEntity
  8
0
100
AcDbLine
 10
1.371704152498232
 20
7.15606303649133
 30
0.0
 11
1.38089050420427
 21
7.163937052239361
 31
0.0
  0
LINE
  5
2B3B
330
1E
100
AcDbEntity
  8
0
100
AcDbLine
 10
1.168292079007418
 20
7.163937052239361
 30
0.0
 11
1.17879076667146
 21
7.15606303649133
 31
0.0
  0
LINE
  5
2B3C
330
1E
100
AcDbEntity
  8
0
100
AcDbLine
 10
1.215536173495608
 20
7.300419991871908
 30
0.0
 11
1.215536173495608
 21
7.300419991871908
 31
0.0
  0
LWPOLYLINE
  5
2B3D
330
1E
100
AcDbEntity
  8
0
100
AcDbPolyline
 90
        9
 70
     0
 43
0.0
 10
1.215536173495608
 20
7.300419991871908
 10
1.185352446461487
 20
7.293858312081882
 10
1.160418063259387
 20
7.278110280585819
 10
1.144670031763324
 20
7.253175897383719
 10
1.138108351973298
 20
7.222992170349598
 10
1.144670031763324
 20
7.194120779273484
 10
1.160418063259387
 20
7.169186396071383
 10
1.185352446461487
 20
7.15343836457532
 10
1.215536173495608
 20
7.146876684785295
  0
LINE
  5
2B48
330
1E
100
AcDbEntity
  8
0
100
AcDbLine
 10
1.215536173495608
 20
7.146876684785294
 30
0.0
 11
1.215536173495608
 21
7.146876684785294
 31
0.0
  0
LWPOLYLINE
  5
2B49
330
1E
100
AcDbEntity
  8
0
100
AcDbPolyline
 90
        5
 70
     0
 43
0.0
 10
1.168292079007419
 20
7.163937052239363
 10
1.147294703679335
 20
7.190183771399468
 10
1.139420687931303
 20
7.222992170349598
 10
1.147294703679335
 20
7.257112905257736
 10
1.168292079007419
 20
7.28335962441784
  0
LWPOLYLINE
  5
2B50
330
1E
100
AcDbEntity
  8
0
100
AcDbPolyline
 90
        5
 70
     0
 43
0.0
 10
1.380890504204269
 20
7.28335962441784
 10
1.403200215490359
 20
7.257112905257736
 10
1.41107423123839
 20
7.222992170349598
 10
1.403200215490359
 20
7.190183771399468
 10
1.380890504204269
 20
7.163937052239363
  0
LINE
  5
2B57
330
1E
100
AcDbEntity
  8
0
100
AcDbLine
 10
1.334958745674085
 20
7.146876684785294
 30
0.0
 11
1.334958745674085
 21
7.146876684785294
 31
0.0
  0
LWPOLYLINE
  5
2B58
330
1E
100
AcDbEntity
  8
0
100
AcDbPolyline
 90
        9
 70
     0
 43
0.0
 10
1.334958745674085
 20
7.146876684785295
 10
1.363830136750201
 20
7.15343836457532
 10
1.388764519952301
 20
7.169186396071383
 10
1.405824887406369
 20
7.194120779273484
 10
1.41107423123839
 20
7.222992170349598
 10
1.405824887406369
 20
7.253175897383719
 10
1.388764519952301
 20
7.278110280585819
 10
1.363830136750201
 20
7.293858312081882
 10
1.334958745674085
 20
7.300419991871908
  0
LINE
  5
2B63
330
1E
100
AcDbEntity
  8
0
100
AcDbLine
 10
1.334958745674085
 20
7.300419991871908
 30
0.0
 11
1.334958745674085
 21
7.300419991871908
 31
0.0
  0
LINE
  5
2B64
330
1E
100
AcDbEntity
  8
0
100
AcDbLine
 10
1.215536173495608
 20
7.146876684785294
 30
0.0
 11
1.334958745674085
 21
7.146876684785294
 31
0.0
  0
LINE
  5
2B65
330
1E
100
AcDbEntity
  8
0
100
AcDbLine
 10
1.215536173495608
 20
7.300419991871908
 30
0.0
 11
1.334958745674085
 21
7.300419991871908
 31
0.0
  0
LINE
  5
2B66
330
1E
100
AcDbEntity
  8
0
100
AcDbLine
 10
1.334958745674085
 20
7.073385871137
 30
0.0
 11
1.215536173495608
 21
7.073385871137
 31
0.0
  0
LWPOLYLINE
  5
2B67
330
1E
100
AcDbEntity
  8
0
100
AcDbPolyline
 90
       12
 70
     0
 43
0.0
 10
1.334958745674085
 20
7.073385871137
 10
1.376953496330253
 20
7.079947550927027
 10
1.416323575070411
 20
7.097007918381095
 10
1.447819638062537
 20
7.125879309457211
 10
1.471441685306632
 20
7.161312380323352
 10
1.483252708928679
 20
7.201994795021514
 10
1.483252708928679
 20
7.245301881635688
 10
1.471441685306632
 20
7.28598429633385
 10
1.447819638062537
 20
7.321417367199993
 10
1.416323575070411
 20
7.350288758276109
 10
1.376953496330253
 20
7.367349125730177
 10
1.334958745674085
 20
7.373910805520202
  0
LINE
  5
2B75
330
1E
100
AcDbEntity
  8
0
100
AcDbLine
 10
1.215536173495608
 20
7.373910805520202
 30
0.0
 11
1.334958745674085
 21
7.373910805520202
 31
0.0
  0
LWPOLYLINE
  5
2B76
330
1E
100
AcDbEntity
  8
0
100
AcDbPolyline
 90
       12
 70
     0
 43
0.0
 10
1.215536173495608
 20
7.373910805520202
 10
1.172229086881435
 20
7.367349125730177
 10
1.134171344099283
 20
7.350288758276109
 10
1.101362945149152
 20
7.321417367199993
 10
1.079053233863062
 20
7.28598429633385
 10
1.06592987428301
 20
7.245301881635688
 10
1.06592987428301
 20
7.201994795021514
 10
1.079053233863062
 20
7.161312380323352
 10
1.101362945149152
 20
7.125879309457211
 10
1.134171344099283
 20
7.097007918381095
 10
1.172229086881435
 20
7.079947550927027
 10
1.215536173495608
 20
7.073385871137
  0
LINE
  5
2B84
330
1E
100
AcDbEntity
  8
0
100
AcDbLine
 10
1.215536173495608
 20
7.375223141478208
 30
0.0
 11
1.215536173495608
 21
7.373910805520202
 31
0.0
  0
LWPOLYLINE
  5
2B85
330
1E
100
AcDbEntity
  8
0
100
AcDbPolyline
 90
       12
 70
     0
 43
0.0
 10
1.215536173495608
 20
7.375223141478208
 10
1.172229086881435
 20
7.368661461688182
 10
1.132859008141278
 20
7.351601094234114
 10
1.100050609191146
 20
7.322729703157998
 10
1.076428561947051
 20
7.28598429633385
 10
1.064617538325005
 20
7.245301881635688
 10
1.064617538325005
 20
7.201994795021514
 10
1.076428561947051
 20
7.160000044365347
 10
1.100050609191146
 20
7.124566973499204
 10
1.132859008141278
 20
7.09569558242309
 10
1.172229086881435
 20
7.077322879011015
 10
1.215536173495608
 20
7.072073535178995
  0
LINE
  5
2B93
330
1E
100
AcDbEntity
  8
0
100
AcDbLine
 10
1.215536173495608
 20
7.073385871137
 30
0.0
 11
1.215536173495608
 21
7.072073535178994
 31
0.0
  0
LINE
  5
2B94
330
1E
100
AcDbEntity
  8
0
100
AcDbLine
 10
1.334958745674085
 20
7.072073535178994
 30
0.0
 11
1.334958745674085
 21
7.073385871137
 31
0.0
  0
LWPOLYLINE
  5
2B95
330
1E
100
AcDbEntity
  8
0
100
AcDbPolyline
 90
       12
 70
     0
 43
0.0
 10
1.334958745674085
 20
7.072073535178995
 10
1.378265832288259
 20
7.077322879011015
 10
1.417635911028416
 20
7.09569558242309
 10
1.449131974020542
 20
7.124566973499204
 10
1.472754021264637
 20
7.160000044365347
 10
1.485877380844689
 20
7.201994795021514
 10
1.485877380844689
 20
7.245301881635688
 10
1.472754021264637
 20
7.28598429633385
 10
1.449131974020542
 20
7.322729703157998
 10
1.417635911028416
 20
7.351601094234114
 10
1.378265832288259
 20
7.368661461688182
 10
1.334958745674085
 20
7.375223141478208
  0
LINE
  5
2BA3
330
1E
100
AcDbEntity
  8
0
100
AcDbLine
 10
1.334958745674085
 20
7.373910805520202
 30
0.0
 11
1.334958745674085
 21
7.375223141478208
 31
0.0
  0
LINE
  5
2BA4
330
1E
100
AcDbEntity
  8
0
100
AcDbLine
 10
1.334958745674085
 20
7.375223141478208
 30
0.0
 11
1.215536173495608
 21
7.375223141478208
 31
0.0
  0
LINE
  5
2BA5
330
1E
100
AcDbEntity
  8
0
100
AcDbLine
 10
1.215536173495608
 20
7.072073535178994
 30
0.0
 11
1.334958745674085
 21
7.072073535178994
 31
0.0
  0
LINE
  5
2BA6
330
1E
100
AcDbEntity
  8
0
100
AcDbLine
 10
0.2089744937055817
 20
7.048451487934901
 30
0.0
 11
0.2102868296635876
 21
7.049763823892906
 31
0.0
  0
LINE
  5
2BA7
330
1E
100
AcDbEntity
  8
0
100
AcDbLine
 10
0.2102868296635876
 20
7.397532852764296
 30
0.0
 11
0.2102868296635876
 21
7.049763823892906
 31
0.0
  0
LINE
  5
2BA8
330
1E
100
AcDbEntity
  8
0
100
AcDbLine
 10
0.2102868296635876
 20
7.397532852764296
 30
0.0
 11
0.2089744937055817
 21
7.398845188722301
 31
0.0
  0
LINE
  5
2BA9
330
1E
100
AcDbEntity
  8
0
100
AcDbLine
 10
0.2404705566977077
 20
7.429028915756422
 30
0.0
 11
0.2417828926557135
 21
7.429028915756422
 31
0.0
  0
LINE
  5
2BAA
330
1E
100
AcDbEntity
  8
0
100
AcDbLine
 10
0.2706542837318286
 20
7.429028915756422
 30
0.0
 11
0.2417828926557135
 21
7.429028915756422
 31
0.0
  0
LINE
  5
2BAB
330
1E
100
AcDbEntity
  8
0
100
AcDbLine
 10
0.2732789556478394
 20
7.429028915756422
 30
0.0
 11
0.2706542837318286
 21
7.429028915756422
 31
0.0
  0
LINE
  5
2BAC
330
1E
100
AcDbEntity
  8
0
100
AcDbLine
 10
0.2732789556478394
 20
7.429028915756422
 30
0.0
 11
2.018685779794821
 21
7.429028915756422
 31
0.0
  0
LINE
  5
2BAD
330
1E
100
AcDbEntity
  8
0
100
AcDbLine
 10
2.018685779794821
 20
7.429028915756422
 30
0.0
 11
2.021310451710831
 21
7.429028915756422
 31
0.0
  0
LINE
  5
2BAE
330
1E
100
AcDbEntity
  8
0
100
AcDbLine
 10
2.050181842786947
 20
7.429028915756422
 30
0.0
 11
2.021310451710831
 21
7.429028915756422
 31
0.0
  0
LINE
  5
2BAF
330
1E
100
AcDbEntity
  8
0
100
AcDbLine
 10
2.050181842786947
 20
7.429028915756422
 30
0.0
 11
2.052806514702957
 21
7.429028915756422
 31
0.0
  0
LINE
  5
2BB0
330
1E
100
AcDbEntity
  8
0
100
AcDbLine
 10
2.084302577695082
 20
7.398845188722301
 30
0.0
 11
2.081677905779073
 21
7.397532852764296
 31
0.0
  0
LINE
  5
2BB1
330
1E
100
AcDbEntity
  8
0
100
AcDbLine
 10
2.081677905779073
 20
7.049763823892906
 30
0.0
 11
2.081677905779073
 21
7.397532852764296
 31
0.0
  0
LINE
  5
2BB2
330
1E
100
AcDbEntity
  8
0
100
AcDbLine
 10
2.081677905779073
 20
7.049763823892906
 30
0.0
 11
2.084302577695082
 21
7.048451487934901
 31
0.0
  0
LINE
  5
2BB3
330
1E
100
AcDbEntity
  8
0
100
AcDbLine
 10
2.052806514702957
 20
7.016955424942775
 30
0.0
 11
2.050181842786947
 21
7.01826776090078
 31
0.0
  0
LINE
  5
2BB4
330
1E
100
AcDbEntity
  8
0
100
AcDbLine
 10
2.021310451710831
 20
7.01826776090078
 30
0.0
 11
2.050181842786947
 21
7.01826776090078
 31
0.0
  0
LINE
  5
2BB5
330
1E
100
AcDbEntity
  8
0
100
AcDbLine
 10
2.018685779794821
 20
7.01826776090078
 30
0.0
 11
2.021310451710831
 21
7.01826776090078
 31
0.0
  0
LINE
  5
2BB6
330
1E
100
AcDbEntity
  8
0
100
AcDbLine
 10
2.018685779794821
 20
7.01826776090078
 30
0.0
 11
0.2732789556478394
 21
7.01826776090078
 31
0.0
  0
LINE
  5
2BB7
330
1E
100
AcDbEntity
  8
0
100
AcDbLine
 10
0.2732789556478394
 20
7.01826776090078
 30
0.0
 11
0.2706542837318286
 21
7.01826776090078
 31
0.0
  0
LINE
  5
2BB8
330
1E
100
AcDbEntity
  8
0
100
AcDbLine
 10
0.2417828926557135
 20
7.01826776090078
 30
0.0
 11
0.2706542837318286
 21
7.01826776090078
 31
0.0
  0
LINE
  5
2BB9
330
1E
100
AcDbEntity
  8
0
100
AcDbLine
 10
0.2417828926557135
 20
7.01826776090078
 30
0.0
 11
0.2404705566977077
 21
7.016955424942775
 31
0.0
  0
LWPOLYLINE
  5
2BBA
330
1E
100
AcDbEntity
  8
0
100
AcDbPolyline
 90
        4
 70
     0
 43
0.0
 10
0.2102868296635876
 20
7.049763823892906
 10
0.2142238375376033
 20
7.034015792396843
 10
0.2260348611596505
 20
7.022204768774797
 10
0.2417828926557135
 20
7.01826776090078
  0
LWPOLYLINE
  5
2BC0
330
1E
100
AcDbEntity
  8
0
100
AcDbPolyline
 90
        4
 70
     0
 43
0.0
 10
0.2417828926557135
 20
7.429028915756424
 10
0.2260348611596505
 20
7.425091907882407
 10
0.2142238375376033
 20
7.413280884260361
 10
0.2102868296635876
 20
7.397532852764298
  0
LWPOLYLINE
  5
2BC6
330
1E
100
AcDbEntity
  8
0
100
AcDbPolyline
 90
        4
 70
     0
 43
0.0
 10
2.081677905779072
 20
7.397532852764298
 10
2.077740897905057
 20
7.413280884260361
 10
2.065929874283009
 20
7.425091907882407
 10
2.050181842786946
 20
7.429028915756424
  0
LWPOLYLINE
  5
2BCC
330
1E
100
AcDbEntity
  8
0
100
AcDbPolyline
 90
        4
 70
     0
 43
0.0
 10
2.050181842786946
 20
7.01826776090078
 10
2.065929874283009
 20
7.022204768774797
 10
2.077740897905057
 20
7.034015792396843
 10
2.081677905779072
 20
7.049763823892906
  0
LINE
  5
2BD2
330
1E
100
AcDbEntity
  8
0
100
AcDbLine
 10
2.018685779794821
 20
7.01826776090078
 30
0.0
 11
2.018685779794821
 21
7.429028915756422
 31
0.0
  0
LINE
  5
2BD3
330
1E
100
AcDbEntity
  8
0
100
AcDbLine
 10
0.2732789556478394
 20
7.01826776090078
 30
0.0
 11
0.2732789556478394
 21
7.429028915756422
 31
0.0
  0
LINE
  5
2BD4
330
1E
100
AcDbEntity
  8
0
100
AcDbLine
 10
3.686664782419492
 20
4.304356999745924
 30
0.0
 11
3.698475806041539
 21
4.329291382948024
 31
0.0
  0
LINE
  5
2BD5
330
1E
100
AcDbEntity
  8
0
100
AcDbLine
 10
3.698475806041539
 20
4.329291382948024
 30
0.0
 11
3.70897449370558
 21
4.304356999745924
 31
0.0
  0
LINE
  5
2BD6
330
1E
100
AcDbEntity
  8
0
100
AcDbLine
 10
3.70897449370558
 20
4.304356999745924
 30
0.0
 11
3.686664782419492
 21
4.304356999745924
 31
0.0
  0
LINE
  5
2BD7
330
1E
100
AcDbEntity
  8
0
100
AcDbLine
 10
3.632859008141277
 20
4.326666711032014
 30
0.0
 11
3.622360320477235
 21
4.326666711032014
 31
0.0
  0
LINE
  5
2BD8
330
1E
100
AcDbEntity
  8
0
100
AcDbLine
 10
3.622360320477235
 20
4.367349125730176
 30
0.0
 11
3.622360320477235
 21
4.326666711032014
 31
0.0
  0
LINE
  5
2BD9
330
1E
100
AcDbEntity
  8
0
100
AcDbLine
 10
3.632859008141277
 20
4.367349125730176
 30
0.0
 11
3.622360320477235
 21
4.367349125730176
 31
0.0
  0
LWPOLYLINE
  5
2BDA
330
1E
100
AcDbEntity
  8
0
100
AcDbPolyline
 90
        3
 70
     0
 43
0.0
 10
3.638108351973298
 20
4.362099781898155
 10
3.636796016015293
 20
4.366036789772172
 10
3.632859008141277
 20
4.367349125730177
  0
LINE
  5
2BDF
330
1E
100
AcDbEntity
  8
0
100
AcDbLine
 10
3.638108351973298
 20
4.362099781898155
 30
0.0
 11
3.638108351973298
 21
4.333228390822039
 31
0.0
  0
LWPOLYLINE
  5
2BE0
330
1E
100
AcDbEntity
  8
0
100
AcDbPolyline
 90
        3
 70
     0
 43
0.0
 10
3.632859008141277
 20
4.326666711032013
 10
3.636796016015293
 20
4.329291382948024
 10
3.638108351973298
 20
4.333228390822039
  0
LINE
  5
2BE5
330
1E
100
AcDbEntity
  8
0
100
AcDbLine
 10
3.710286829663587
 20
4.36078744594015
 30
0.0
 11
3.735221212865686
 21
4.304356999745924
 31
0.0
  0
LINE
  5
2BE6
330
1E
100
AcDbEntity
  8
0
100
AcDbLine
 10
3.710286829663587
 20
4.36078744594015
 30
0.0
 11
3.686664782419492
 21
4.36078744594015
 31
0.0
  0
LWPOLYLINE
  5
2BE7
330
1E
100
AcDbEntity
  8
0
100
AcDbPolyline
 90
        3
 70
     0
 43
0.0
 10
3.686664782419491
 20
4.36078744594015
 10
3.672229086881434
 20
4.379160149352223
 10
3.649919375595345
 20
4.387034165100255
  0
LINE
  5
2BEC
330
1E
100
AcDbEntity
  8
0
100
AcDbLine
 10
3.57117921811503
 20
4.387034165100256
 30
0.0
 11
3.649919375595345
 21
4.387034165100256
 31
0.0
  0
LINE
  5
2BED
330
1E
100
AcDbEntity
  8
0
100
AcDbLine
 10
3.57117921811503
 20
4.387034165100256
 30
0.0
 11
3.57117921811503
 21
4.274173272711803
 31
0.0
  0
LINE
  5
2BEE
330
1E
100
AcDbEntity
  8
0
100
AcDbLine
 10
3.622360320477235
 20
4.274173272711803
 30
0.0
 11
3.57117921811503
 21
4.274173272711803
 31
0.0
  0
LINE
  5
2BEF
330
1E
100
AcDbEntity
  8
0
100
AcDbLine
 10
3.622360320477235
 20
4.309606343577946
 30
0.0
 11
3.622360320477235
 21
4.274173272711803
 31
0.0
  0
LINE
  5
2BF0
330
1E
100
AcDbEntity
  8
0
100
AcDbLine
 10
3.622360320477235
 20
4.309606343577946
 30
0.0
 11
3.649919375595345
 21
4.309606343577946
 31
0.0
  0
LWPOLYLINE
  5
2BF1
330
1E
100
AcDbEntity
  8
0
100
AcDbPolyline
 90
        3
 70
     0
 43
0.0
 10
3.649919375595345
 20
4.309606343577945
 10
3.659105727301382
 20
4.309606343577945
 10
3.666979743049413
 20
4.313543351451961
  0
LINE
  5
2BF6
330
1E
100
AcDbEntity
  8
0
100
AcDbLine
 10
3.65123171155335
 20
4.274173272711803
 30
0.0
 11
3.666979743049413
 21
4.313543351451961
 31
0.0
  0
LINE
  5
2BF7
330
1E
100
AcDbEntity
  8
0
100
AcDbLine
 10
3.676166094755449
 20
4.274173272711803
 30
0.0
 11
3.65123171155335
 21
4.274173272711803
 31
0.0
  0
LINE
  5
2BF8
330
1E
100
AcDbEntity
  8
0
100
AcDbLine
 10
3.676166094755449
 20
4.274173272711803
 30
0.0
 11
3.681415438587471
 21
4.28598429633385
 31
0.0
  0
LINE
  5
2BF9
330
1E
100
AcDbEntity
  8
0
100
AcDbLine
 10
3.714223837537601
 20
4.28598429633385
 30
0.0
 11
3.681415438587471
 21
4.28598429633385
 31
0.0
  0
LINE
  5
2BFA
330
1E
100
AcDbEntity
  8
0
100
AcDbLine
 10
3.720785517327628
 20
4.274173272711803
 30
0.0
 11
3.714223837537601
 21
4.28598429633385
 31
0.0
  0
LINE
  5
2BFB
330
1E
100
AcDbEntity
  8
0
100
AcDbLine
 10
3.720785517327628
 20
4.274173272711803
 30
0.0
 11
3.760155596067785
 21
4.274173272711803
 31
0.0
  0
LINE
  5
2BFC
330
1E
100
AcDbEntity
  8
0
100
AcDbLine
 10
3.760155596067785
 20
4.310918679535951
 30
0.0
 11
3.760155596067785
 21
4.274173272711803
 31
0.0
  0
LINE
  5
2BFD
330
1E
100
AcDbEntity
  8
0
100
AcDbLine
 10
3.775903627563848
 20
4.274173272711803
 30
0.0
 11
3.760155596067785
 21
4.310918679535951
 31
0.0
  0
LINE
  5
2BFE
330
1E
100
AcDbEntity
  8
0
100
AcDbLine
 10
3.775903627563848
 20
4.274173272711803
 30
0.0
 11
3.802150346723953
 21
4.274173272711803
 31
0.0
  0
LINE
  5
2BFF
330
1E
100
AcDbEntity
  8
0
100
AcDbLine
 10
3.802150346723953
 20
4.274173272711803
 30
0.0
 11
3.802150346723953
 21
4.36078744594015
 31
0.0
  0
LINE
  5
2C00
330
1E
100
AcDbEntity
  8
0
100
AcDbLine
 10
3.802150346723953
 20
4.36078744594015
 30
0.0
 11
3.779840635437865
 21
4.36078744594015
 31
0.0
  0
LINE
  5
2C01
330
1E
100
AcDbEntity
  8
0
100
AcDbLine
 10
3.779840635437865
 20
4.36078744594015
 30
0.0
 11
3.779840635437865
 21
4.327979046990019
 31
0.0
  0
LINE
  5
2C02
330
1E
100
AcDbEntity
  8
0
100
AcDbLine
 10
3.779840635437865
 20
4.327979046990019
 30
0.0
 11
3.764092603941802
 21
4.36078744594015
 31
0.0
  0
LINE
  5
2C03
330
1E
100
AcDbEntity
  8
0
100
AcDbLine
 10
3.764092603941802
 20
4.36078744594015
 30
0.0
 11
3.735221212865686
 21
4.36078744594015
 31
0.0
  0
LINE
  5
2C04
330
1E
100
AcDbEntity
  8
0
100
AcDbLine
 10
3.735221212865686
 20
4.36078744594015
 30
0.0
 11
3.735221212865686
 21
4.304356999745924
 31
0.0
  0
LINE
  5
2C05
330
1E
100
AcDbEntity
  8
0
100
AcDbLine
 10
3.96881701339062
 20
4.36078744594015
 30
0.0
 11
3.96881701339062
 21
4.274173272711803
 31
0.0
  0
LINE
  5
2C06
330
1E
100
AcDbEntity
  8
0
100
AcDbLine
 10
3.96881701339062
 20
4.274173272711803
 30
0.0
 11
3.992439060634715
 21
4.274173272711803
 31
0.0
  0
LINE
  5
2C07
330
1E
100
AcDbEntity
  8
0
100
AcDbLine
 10
3.992439060634715
 20
4.36078744594015
 30
0.0
 11
3.992439060634715
 21
4.274173272711803
 31
0.0
  0
LINE
  5
2C08
330
1E
100
AcDbEntity
  8
0
100
AcDbLine
 10
3.992439060634715
 20
4.36078744594015
 30
0.0
 11
3.96881701339062
 21
4.36078744594015
 31
0.0
  0
LINE
  5
2C09
330
1E
100
AcDbEntity
  8
0
100
AcDbLine
 10
3.892701527826316
 20
4.36078744594015
 30
0.0
 11
3.892701527826316
 21
4.288608968249861
 31
0.0
  0
LWPOLYLINE
  5
2C0A
330
1E
100
AcDbEntity
  8
0
100
AcDbPolyline
 90
        3
 70
     0
 43
0.0
 10
3.892701527826316
 20
4.288608968249862
 10
3.896638535700331
 20
4.278110280585819
 10
3.908449559322379
 20
4.274173272711804
  0
LINE
  5
2C0F
330
1E
100
AcDbEntity
  8
0
100
AcDbLine
 10
3.9386332863565
 20
4.274173272711803
 30
0.0
 11
3.908449559322379
 21
4.274173272711803
 31
0.0
  0
LWPOLYLINE
  5
2C10
330
1E
100
AcDbEntity
  8
0
100
AcDbPolyline
 90
        3
 70
     0
 43
0.0
 10
3.9386332863565
 20
4.274173272711804
 10
3.950444309978547
 20
4.278110280585819
 10
3.954381317852563
 20
4.288608968249862
  0
LINE
  5
2C15
330
1E
100
AcDbEntity
  8
0
100
AcDbLine
 10
3.954381317852563
 20
4.288608968249861
 30
0.0
 11
3.954381317852563
 21
4.36078744594015
 31
0.0
  0
LINE
  5
2C16
330
1E
100
AcDbEntity
  8
0
100
AcDbLine
 10
3.954381317852563
 20
4.36078744594015
 30
0.0
 11
3.936008614440489
 21
4.36078744594015
 31
0.0
  0
LINE
  5
2C17
330
1E
100
AcDbEntity
  8
0
100
AcDbLine
 10
3.936008614440489
 20
4.36078744594015
 30
0.0
 11
3.936008614440489
 21
4.297795319955898
 31
0.0
  0
LWPOLYLINE
  5
2C18
330
1E
100
AcDbEntity
  8
0
100
AcDbPolyline
 90
        3
 70
     0
 43
0.0
 10
3.932071606566473
 20
4.293858312081882
 10
3.934696278482484
 20
4.295170648039887
 10
3.936008614440489
 20
4.297795319955898
  0
LINE
  5
2C1D
330
1E
100
AcDbEntity
  8
0
100
AcDbLine
 10
3.932071606566473
 20
4.293858312081883
 30
0.0
 11
3.925509926776447
 21
4.293858312081883
 31
0.0
  0
LWPOLYLINE
  5
2C1E
330
1E
100
AcDbEntity
  8
0
100
AcDbPolyline
 90
        3
 70
     0
 43
0.0
 10
3.921572918902431
 20
4.297795319955898
 10
3.922885254860437
 20
4.295170648039887
 10
3.925509926776447
 20
4.293858312081882
  0
LINE
  5
2C23
330
1E
100
AcDbEntity
  8
0
100
AcDbLine
 10
3.921572918902431
 20
4.297795319955898
 30
0.0
 11
3.921572918902431
 21
4.36078744594015
 31
0.0
  0
LINE
  5
2C24
330
1E
100
AcDbEntity
  8
0
100
AcDbLine
 10
3.921572918902431
 20
4.36078744594015
 30
0.0
 11
3.892701527826316
 21
4.36078744594015
 31
0.0
  0
LINE
  5
2C25
330
1E
100
AcDbEntity
  8
0
100
AcDbLine
 10
3.840208089506107
 20
4.342414742528077
 30
0.0
 11
3.840208089506107
 21
4.293858312081883
 31
0.0
  0
LINE
  5
2C26
330
1E
100
AcDbEntity
  8
0
100
AcDbLine
 10
3.849394441212142
 20
4.342414742528077
 30
0.0
 11
3.840208089506107
 21
4.342414742528077
 31
0.0
  0
LWPOLYLINE
  5
2C27
330
1E
100
AcDbEntity
  8
0
100
AcDbPolyline
 90
        3
 70
     0
 43
0.0
 10
3.854643785044163
 20
4.338477734654061
 10
3.853331449086158
 20
4.341102406570071
 10
3.849394441212142
 20
4.342414742528076
  0
LINE
  5
2C2C
330
1E
100
AcDbEntity
  8
0
100
AcDbLine
 10
3.854643785044163
 20
4.297795319955898
 30
0.0
 11
3.854643785044163
 21
4.33847773465406
 31
0.0
  0
LWPOLYLINE
  5
2C2D
330
1E
100
AcDbEntity
  8
0
100
AcDbPolyline
 90
        3
 70
     0
 43
0.0
 10
3.849394441212142
 20
4.293858312081882
 10
3.853331449086158
 20
4.295170648039887
 10
3.854643785044163
 20
4.297795319955898
  0
LINE
  5
2C32
330
1E
100
AcDbEntity
  8
0
100
AcDbLine
 10
3.849394441212142
 20
4.293858312081883
 30
0.0
 11
3.840208089506107
 21
4.293858312081883
 31
0.0
  0
LINE
  5
2C33
330
1E
100
AcDbEntity
  8
0
100
AcDbLine
 10
3.815273706304006
 20
4.36078744594015
 30
0.0
 11
3.815273706304006
 21
4.274173272711803
 31
0.0
  0
LINE
  5
2C34
330
1E
100
AcDbEntity
  8
0
100
AcDbLine
 10
3.815273706304006
 20
4.274173272711803
 30
0.0
 11
3.8638301367502
 21
4.274173272711803
 31
0.0
  0
LWPOLYLINE
  5
2C35
330
1E
100
AcDbEntity
  8
0
100
AcDbPolyline
 90
        3
 70
     0
 43
0.0
 10
3.8638301367502
 20
4.274173272711804
 10
3.874328824414242
 20
4.278110280585819
 10
3.879578168246263
 20
4.288608968249862
  0
LINE
  5
2C3A
330
1E
100
AcDbEntity
  8
0
100
AcDbLine
 10
3.879578168246263
 20
4.288608968249861
 30
0.0
 11
3.879578168246263
 21
4.345039414444087
 31
0.0
  0
LWPOLYLINE
  5
2C3B
330
1E
100
AcDbEntity
  8
0
100
AcDbPolyline
 90
        3
 70
     0
 43
0.0
 10
3.879578168246263
 20
4.345039414444087
 10
3.874328824414242
 20
4.355538102108129
 10
3.8638301367502
 20
4.36078744594015
  0
LINE
  5
2C40
330
1E
100
AcDbEntity
  8
0
100
AcDbLine
 10
3.8638301367502
 20
4.36078744594015
 30
0.0
 11
3.815273706304006
 21
4.36078744594015
 31
0.0
  0
LINE
  5
2C41
330
1E
100
AcDbEntity
  8
0
100
AcDbLine
 10
4.023935123626841
 20
4.342414742528077
 30
0.0
 11
4.023935123626841
 21
4.274173272711803
 31
0.0
  0
LINE
  5
2C42
330
1E
100
AcDbEntity
  8
0
100
AcDbLine
 10
4.023935123626841
 20
4.274173272711803
 30
0.0
 11
4.051494178744951
 21
4.274173272711803
 31
0.0
  0
LINE
  5
2C43
330
1E
100
AcDbEntity
  8
0
100
AcDbLine
 10
4.051494178744951
 20
4.342414742528077
 30
0.0
 11
4.051494178744951
 21
4.274173272711803
 31
0.0
  0
LINE
  5
2C44
330
1E
100
AcDbEntity
  8
0
100
AcDbLine
 10
4.051494178744951
 20
4.342414742528077
 30
0.0
 11
4.07117921811503
 21
4.342414742528077
 31
0.0
  0
LINE
  5
2C45
330
1E
100
AcDbEntity
  8
0
100
AcDbLine
 10
4.07117921811503
 20
4.342414742528077
 30
0.0
 11
4.07117921811503
 21
4.36078744594015
 31
0.0
  0
LINE
  5
2C46
330
1E
100
AcDbEntity
  8
0
100
AcDbLine
 10
4.07117921811503
 20
4.36078744594015
 30
0.0
 11
4.006874756172773
 21
4.36078744594015
 31
0.0
  0
LINE
  5
2C47
330
1E
100
AcDbEntity
  8
0
100
AcDbLine
 10
4.006874756172773
 20
4.342414742528077
 30
0.0
 11
4.006874756172773
 21
4.36078744594015
 31
0.0
  0
LINE
  5
2C48
330
1E
100
AcDbEntity
  8
0
100
AcDbLine
 10
4.023935123626841
 20
4.342414742528077
 30
0.0
 11
4.006874756172773
 21
4.342414742528077
 31
0.0
  0
LINE
  5
2C49
330
1E
100
AcDbEntity
  8
0
100
AcDbLine
 10
5.791651659059911
 20
7.604881934129126
 30
0.0
 11
5.791651659059911
 21
3.561574847514954
 31
0.0
  0
LINE
  5
2C4A
330
1E
100
AcDbEntity
  8
0
100
AcDbLine
 10
6.243095228613717
 20
4.581259886885032
 30
0.0
 11
6.067242210241014
 21
4.578635214969022
 31
0.0
  0
LINE
  5
2C4B
330
1E
100
AcDbEntity
  8
0
100
AcDbLine
 10
6.067242210241014
 20
6.698057787147498
 30
0.0
 11
6.243095228613717
 21
6.694120779273483
 31
0.0
  0
LINE
  5
2C4C
330
1E
100
AcDbEntity
  8
0
100
AcDbLine
 10
6.172229086881433
 20
5.729553850139625
 30
0.0
 11
6.243095228613717
 21
5.73086618609763
 31
0.0
  0
LINE
  5
2C4D
330
1E
100
AcDbEntity
  8
0
100
AcDbLine
 10
6.172229086881433
 20
5.545826816018889
 30
0.0
 11
6.243095228613717
 21
5.544514480060884
 31
0.0
  0
LINE
  5
2C4E
330
1E
100
AcDbEntity
  8
0
100
AcDbLine
 10
6.005562420214767
 20
3.396220516806292
 30
0.0
 11
6.005562420214767
 21
7.770236264837786
 31
0.0
  0
LINE
  5
2C4F
330
1E
100
AcDbEntity
  8
0
100
AcDbLine
 10
6.067242210241014
 20
3.392283508932276
 30
0.0
 11
6.005562420214767
 21
3.396220516806292
 31
0.0
  0
LINE
  5
2C50
330
1E
100
AcDbEntity
  8
0
100
AcDbLine
 10
6.067242210241014
 20
7.772860936753797
 30
0.0
 11
6.067242210241014
 21
3.392283508932276
 31
0.0
  0
LINE
  5
2C51
330
1E
100
AcDbEntity
  8
0
100
AcDbLine
 10
6.005562420214767
 20
7.770236264837786
 30
0.0
 11
6.067242210241014
 21
7.772860936753797
 31
0.0
  0
LWPOLYLINE
  5
2C52
330
1E
100
AcDbEntity
  8
0
100
AcDbPolyline
 90
        9
 70
     0
 43
0.0
 10
6.005562420214767
 20
3.396220516806292
 10
5.963567669558598
 20
3.400157524680308
 10
5.922885254860437
 20
3.41065621234435
 10
5.886139848036288
 20
3.426404243840412
 10
5.853331449086157
 20
3.447401619168497
 10
5.827084729926053
 20
3.472336002370596
 10
5.807399690555973
 20
3.499895057488707
 10
5.795588666933927
 20
3.530078784522828
 10
5.79165165905991
 20
3.561574847514954
  0
LWPOLYLINE
  5
2C5D
330
1E
100
AcDbEntity
  8
0
100
AcDbPolyline
 90
        9
 70
     0
 43
0.0
 10
5.79165165905991
 20
7.604881934129126
 10
5.795588666933927
 20
7.636377997121252
 10
5.807399690555973
 20
7.666561724155373
 10
5.827084729926053
 20
7.694120779273484
 10
5.853331449086157
 20
7.719055162475584
 10
5.886139848036288
 20
7.738740201845661
 10
5.922885254860437
 20
7.754488233341724
 10
5.963567669558598
 20
7.764986921005766
 10
6.005562420214767
 20
7.770236264837787
  0
LWPOLYLINE
  5
2C68
330
1E
100
AcDbEntity
  8
0
100
AcDbPolyline
 90
        5
 70
     0
 43
0.0
 10
6.067242210241014
 20
7.772860936753799
 10
6.067242210241014
 20
7.796482983997892
 10
6.067242210241014
 20
7.814855687409966
 10
6.067242210241014
 20
7.827979046990018
 10
6.067242210241014
 20
7.833228390822039
  0
LINE
  5
2C6F
330
1E
100
AcDbEntity
  8
0
100
AcDbLine
 10
6.067242210241014
 20
7.833228390822038
 30
0.0
 11
6.005562420214767
 21
7.829291382948023
 31
0.0
  0
LWPOLYLINE
  5
2C70
330
1E
100
AcDbEntity
  8
0
100
AcDbPolyline
 90
        4
 70
     0
 43
0.0
 10
6.005562420214767
 20
7.829291382948024
 10
6.004250084256762
 20
7.821417367199991
 10
6.004250084256762
 20
7.800419991871908
 10
6.005562420214767
 20
7.770236264837787
  0
LWPOLYLINE
  5
2C76
330
1E
100
AcDbEntity
  8
0
100
AcDbPolyline
 90
        9
 70
     0
 43
0.0
 10
6.005562420214767
 20
7.829291382948024
 10
5.963567669558598
 20
7.824042039116003
 10
5.922885254860437
 20
7.809606343577945
 10
5.886139848036288
 20
7.788608968249862
 10
5.853331449086157
 20
7.759737577173746
 10
5.827084729926053
 20
7.726929178223615
 10
5.807399690555973
 20
7.688871435441463
 10
5.795588666933927
 20
7.6481890207433
 10
5.79165165905991
 20
7.604881934129126
  0
LWPOLYLINE
  5
2C81
330
1E
100
AcDbEntity
  8
0
100
AcDbPolyline
 90
        5
 70
     0
 43
0.0
 10
6.067242210241014
 20
3.33322839082204
 10
6.067242210241014
 20
3.337165398696055
 10
6.067242210241014
 20
3.350288758276108
 10
6.067242210241014
 20
3.369973797646187
 10
6.067242210241014
 20
3.392283508932277
  0
LWPOLYLINE
  5
2C88
330
1E
100
AcDbEntity
  8
0
100
AcDbPolyline
 90
        4
 70
     0
 43
0.0
 10
6.005562420214767
 20
3.396220516806292
 10
6.004250084256762
 20
3.366036789772171
 10
6.004250084256762
 20
3.343727078486082
 10
6.005562420214767
 20
3.33585306273805
  0
LINE
  5
2C8E
330
1E
100
AcDbEntity
  8
0
100
AcDbLine
 10
6.005562420214767
 20
3.335853062738051
 30
0.0
 11
6.067242210241014
 21
3.33322839082204
 31
0.0
  0
LWPOLYLINE
  5
2C8F
330
1E
100
AcDbEntity
  8
0
100
AcDbPolyline
 90
        9
 70
     0
 43
0.0
 10
5.79165165905991
 20
3.561574847514954
 10
5.795588666933927
 20
3.51826776090078
 10
5.807399690555973
 20
3.477585346202617
 10
5.827084729926053
 20
3.439527603420466
 10
5.853331449086157
 20
3.406719204470334
 10
5.886139848036288
 20
3.377847813394219
 10
5.922885254860437
 20
3.356850438066134
 10
5.963567669558598
 20
3.342414742528076
 10
6.005562420214767
 20
3.33585306273805
  0
LINE
  5
2C9A
330
1E
100
AcDbEntity
  8
0
100
AcDbLine
 10
6.172229086881433
 20
6.606194270087131
 30
0.0
 11
6.236533548823691
 21
6.649501356701304
 31
0.0
  0
LINE
  5
2C9B
330
1E
100
AcDbEntity
  8
0
100
AcDbLine
 10
6.172229086881433
 20
5.456587970874533
 30
0.0
 11
6.236533548823691
 21
5.499895057488705
 31
0.0
  0
LINE
  5
2C9C
330
1E
100
AcDbEntity
  8
0
100
AcDbLine
 10
6.236533548823691
 20
6.649501356701304
 30
0.0
 11
6.243095228613717
 21
6.662624716281357
 31
0.0
  0
LINE
  5
2C9D
330
1E
100
AcDbEntity
  8
0
100
AcDbLine
 10
6.172229086881433
 20
5.829291382948024
 30
0.0
 11
6.172229086881433
 21
6.606194270087131
 31
0.0
  0
LINE
  5
2C9E
330
1E
100
AcDbEntity
  8
0
100
AcDbLine
 10
6.243095228613717
 20
6.662624716281357
 30
0.0
 11
6.243095228613717
 21
6.679685083735425
 31
0.0
  0
LINE
  5
2C9F
330
1E
100
AcDbEntity
  8
0
100
AcDbLine
 10
6.243095228613717
 20
6.679685083735425
 30
0.0
 11
6.067242210241014
 21
6.682309755651435
 31
0.0
  0
LINE
  5
2CA0
330
1E
100
AcDbEntity
  8
0
100
AcDbLine
 10
6.067242210241014
 20
4.593070910507079
 30
0.0
 11
6.243095228613717
 21
4.59569558242309
 31
0.0
  0
LINE
  5
2CA1
330
1E
100
AcDbEntity
  8
0
100
AcDbLine
 10
6.243095228613717
 20
4.59569558242309
 30
0.0
 11
6.243095228613717
 21
4.619317629667183
 31
0.0
  0
LWPOLYLINE
  5
2CA2
330
1E
100
AcDbEntity
  8
0
100
AcDbPolyline
 90
        5
 70
     0
 43
0.0
 10
6.184040110503481
 20
4.678372747777421
 10
6.20634982178957
 20
4.674435739903405
 10
6.226034861159648
 20
4.661312380323352
 10
6.237845884781696
 20
4.641627340953274
 10
6.243095228613716
 20
4.619317629667184
  0
LINE
  5
2CA9
330
1E
100
AcDbEntity
  8
0
100
AcDbLine
 10
6.172229086881433
 20
4.67837274777742
 30
0.0
 11
6.184040110503481
 21
4.67837274777742
 31
0.0
  0
LINE
  5
2CAA
330
1E
100
AcDbEntity
  8
0
100
AcDbLine
 10
6.172229086881433
 20
4.67837274777742
 30
0.0
 11
6.172229086881433
 21
5.456587970874533
 31
0.0
  0
LINE
  5
2CAB
330
1E
100
AcDbEntity
  8
0
100
AcDbLine
 10
6.236533548823691
 20
5.499895057488705
 30
0.0
 11
6.243095228613717
 21
5.511706081110753
 31
0.0
  0
LINE
  5
2CAC
330
1E
100
AcDbEntity
  8
0
100
AcDbLine
 10
6.243095228613717
 20
5.511706081110753
 30
0.0
 11
6.243095228613717
 21
5.544514480060884
 31
0.0
  0
LINE
  5
2CAD
330
1E
100
AcDbEntity
  8
0
100
AcDbLine
 10
6.172229086881433
 20
5.729553850139625
 30
0.0
 11
6.172229086881433
 21
5.545826816018889
 31
0.0
  0
LINE
  5
2CAE
330
1E
100
AcDbEntity
  8
0
100
AcDbLine
 10
6.243095228613717
 20
5.73086618609763
 30
0.0
 11
6.243095228613717
 21
5.768923928879782
 31
0.0
  0
LWPOLYLINE
  5
2CAF
330
1E
100
AcDbEntity
  8
0
100
AcDbPolyline
 90
        5
 70
     0
 43
0.0
 10
6.184040110503481
 20
5.829291382948024
 10
6.20634982178957
 20
5.824042039116003
 10
6.226034861159648
 20
5.81091867953595
 10
6.237845884781696
 20
5.791233640165872
 10
6.243095228613716
 20
5.768923928879782
  0
LINE
  5
2CB6
330
1E
100
AcDbEntity
  8
0
100
AcDbLine
 10
6.172229086881433
 20
5.829291382948024
 30
0.0
 11
6.184040110503481
 21
5.829291382948024
 31
0.0
  0
LWPOLYLINE
  5
2CB7
330
1E
100
AcDbEntity
  8
0
100
AcDbPolyline
 90
        3
 70
     0
 43
0.0
 10
6.243095228613716
 20
4.59569558242309
 10
6.243095228613716
 20
4.585196894759048
 10
6.243095228613716
 20
4.581259886885032
  0
LWPOLYLINE
  5
2CBC
330
1E
100
AcDbEntity
  8
0
100
AcDbPolyline
 90
        3
 70
     0
 43
0.0
 10
6.243095228613716
 20
6.694120779273484
 10
6.243095228613716
 20
6.690183771399468
 10
6.243095228613716
 20
6.679685083735426
  0
LWPOLYLINE
  5
2CC1
330
1E
100
AcDbEntity
  8
0
100
AcDbPolyline
 90
        3
 70
     0
 43
0.0
 10
5.782465307353875
 20
4.36078744594015
 10
5.782465307353875
 20
4.379160149352223
 10
5.782465307353875
 20
4.387034165100255
  0
LINE
  5
2CC6
330
1E
100
AcDbEntity
  8
0
100
AcDbLine
 10
5.782465307353875
 20
4.387034165100256
 30
0.0
 11
5.791651659059911
 21
4.387034165100256
 31
0.0
  0
LINE
  5
2CC7
330
1E
100
AcDbEntity
  8
0
100
AcDbLine
 10
5.782465307353875
 20
4.342414742528077
 30
0.0
 11
5.782465307353875
 21
4.274173272711803
 31
0.0
  0
LINE
  5
2CC8
330
1E
100
AcDbEntity
  8
0
100
AcDbLine
 10
5.782465307353875
 20
4.342414742528077
 30
0.0
 11
5.782465307353875
 21
4.36078744594015
 31
0.0
  0
LINE
  5
2CC9
330
1E
100
AcDbEntity
  8
0
100
AcDbLine
 10
5.782465307353875
 20
4.36078744594015
 30
0.0
 11
5.791651659059911
 21
4.36078744594015
 31
0.0
  0
LINE
  5
2CCA
330
1E
100
AcDbEntity
  8
0
100
AcDbLine
 10
5.782465307353875
 20
4.342414742528077
 30
0.0
 11
5.791651659059911
 21
4.342414742528077
 31
0.0
  0
LINE
  5
2CCB
330
1E
100
AcDbEntity
  8
0
100
AcDbLine
 10
5.782465307353875
 20
4.274173272711803
 30
0.0
 11
5.791651659059911
 21
4.274173272711803
 31
0.0
  0
ENDSEC
  0
SECTION
  2
OBJECTS
  0
DICTIONARY
  5
C
330
0
100
AcDbDictionary
  3
ACAD_GROUP
350
D
  3
ACAD_PLOTSTYLENAME
350
E
  3
ACAD_MLINESTYLE
350
16
  3
ACAD_PLOTSETTINGS
350
18
  3
ACAD_LAYOUT
350
19
  3
ACDBHEADERROUNDTRIPXREC
350
30E3
  0
DICTIONARY
  5
3106
330
1E
100
AcDbDictionary
280
     1
  3
ACAD_LAYOUTSELFREF
360
3107
  0
DICTIONARY
  5
3104
330
1A
100
AcDbDictionary
280
     1
  3
ACAD_LAYOUTSELFREF
360
3105
  0
DICTIONARY
  5
D
102
{ACAD_REACTORS
330
C
102
}
330
C
100
AcDbDictionary
  0
ACDBDICTIONARYWDFLT
  5
E
102
{ACAD_REACTORS
330
C
102
}
330
C
100
AcDbDictionary
281
     1
  3
Normal
350
F
100
AcDbDictionaryWithDefault
340
F
  0
DICTIONARY
  5
16
102
{ACAD_REACTORS
330
C
102
}
330
C
100
AcDbDictionary
  3
STANDARD
350
17
  0
DICTIONARY
  5
18
102
{ACAD_REACTORS
330
C
102
}
330
C
100
AcDbDictionary
  0
DICTIONARY
  5
19
102
{ACAD_REACTORS
330
C
102
}
330
C
100
AcDbDictionary
  0
DICTIONARY
  5
30E3
102
{ACAD_REACTORS
330
C
102
}
330
C
100
AcDbDictionary
  3
TSTACKALIGN
350
30E4
  3
TSTACKSIZE
350
30E5
  3
HYPERLINKBASE
350
30E6
  3
STYLESHEET
350
30E7
  3
LAYOUTDICT
350
30E8
  3
PLOTSETDICT
350
30E9
  3
PLOTSTYLNAMDICT
350
30EA
  3
LWETCUNION
350
30EB
  3
INSUNITS
350
30EC
  3
CEPSNTYPE
350
30ED
  3
FINGERPRINTGUID
350
30EE
  3
VERSIONGUID
350
30EF
  3
PSVPSCALE
350
30F0
  3
DIMSTYLEDATA
350
30F1
  3
PUCSORTHOREF
350
30F2
  3
PUCSORTHOVIEW
350
30F3
  3
PUCSBASE
350
30F4
  3
PUCSORGTOP
350
30F5
  3
PUCSORGBOTTOM
350
30F6
  3
PUCSORGLEFT
350
30F7
  3
PUCSORGRIGHT
350
30F8
  3
PUCSORGFRONT
350
30F9
  3
PUCSORGBACK
350
30FA
  3
UCSORTHOREF
350
30FB
  3
UCSORTHOVIEW
350
30FC
  3
UCSBASE
350
30FD
  3
UCSORGTOP
350
30FE
  3
UCSORGBOTTOM
350
30FF
  3
UCSORGLEFT
350
3100
  3
UCSORGRIGHT
350
3101
  3
UCSORGFRONT
350
3102
  3
UCSORGBACK
350
3103
  0
XRECORD
  5
3107
102
{ACAD_REACTORS
330
3106
102
}
330
3106
100
AcDbXrecord
340
1E
  0
XRECORD
  5
3105
102
{ACAD_REACTORS
330
3104
102
}
330
3104
100
AcDbXrecord
340
1A
  0
ACDBPLACEHOLDER
  5
F
102
{ACAD_REACTORS
330
E
102
}
330
E
100
AcDbPlaceHolder
280
     0
  0
MLINESTYLE
  5
17
102
{ACAD_REACTORS
330
16
102
}
330
16
100
AcDbMlineStyle
  2
STANDARD
 70
     0
  3

 62
   256
 51
90.0
 52
90.0
 71
     2
 49
0.5
 62
   256
  6
BYLAYER
 49
-0.5
 62
   256
  6
BYLAYER
  0
XRECORD
  5
30E4
102
{ACAD_REACTORS
330
30E3
102
}
330
30E3
100
AcDbXrecord
 90
        1
  0
XRECORD
  5
30E5
102
{ACAD_REACTORS
330
30E3
102
}
330
30E3
100
AcDbXrecord
 90
       70
  0
XRECORD
  5
30E6
102
{ACAD_REACTORS
330
30E3
102
}
330
30E3
100
AcDbXrecord
  1

  0
XRECORD
  5
30E7
102
{ACAD_REACTORS
330
30E3
102
}
330
30E3
100
AcDbXrecord
  1

  0
XRECORD
  5
30E8
102
{ACAD_REACTORS
330
30E3
102
}
330
30E3
100
AcDbXrecord
340
19
  0
XRECORD
  5
30E9
102
{ACAD_REACTORS
330
30E3
102
}
330
30E3
100
AcDbXrecord
340
18
  0
XRECORD
  5
30EA
102
{ACAD_REACTORS
330
30E3
102
}
330
30E3
100
AcDbXrecord
340
E
  0
XRECORD
  5
30EB
102
{ACAD_REACTORS
330
30E3
102
}
330
30E3
100
AcDbXrecord
 90
    14877
  0
XRECORD
  5
30EC
102
{ACAD_REACTORS
330
30E3
102
}
330
30E3
100
AcDbXrecord
 90
        0
  0
XRECORD
  5
30ED
102
{ACAD_REACTORS
330
30E3
102
}
330
30E3
100
AcDbXrecord
 90
        0
  0
XRECORD
  5
30EE
102
{ACAD_REACTORS
330
30E3
102
}
330
30E3
100
AcDbXrecord
  1
{A88C7F0C-B48B-4BA3-B342-CA78508D190B}
  0
XRECORD
  5
30EF
102
{ACAD_REACTORS
330
30E3
102
}
330
30E3
100
AcDbXrecord
  1
{1C03BBCD-0B22-4F99-B8E0-2656C77D5546}
  0
XRECORD
  5
30F0
102
{ACAD_REACTORS
330
30E3
102
}
330
30E3
100
AcDbXrecord
 40
0.0
  0
XRECORD
  5
30F1
102
{ACAD_REACTORS
330
30E3
102
}
330
30E3
100
AcDbXrecord
1000
DSTYLE
1002
{
1070
   279
 70
     2
1002
}
  0
XRECORD
  5
30F2
102
{ACAD_REACTORS
330
30E3
102
}
330
30E3
100
AcDbXrecord
340
0
  0
XRECORD
  5
30F3
102
{ACAD_REACTORS
330
30E3
102
}
330
30E3
100
AcDbXrecord
 70
     0
  0
XRECORD
  5
30F4
102
{ACAD_REACTORS
330
30E3
102
}
330
30E3
100
AcDbXrecord
340
0
  0
XRECORD
  5
30F5
102
{ACAD_REACTORS
330
30E3
102
}
330
30E3
100
AcDbXrecord
 10
0.0
 20
0.0
 30
0.0
  0
XRECORD
  5
30F6
102
{ACAD_REACTORS
330
30E3
102
}
330
30E3
100
AcDbXrecord
 10
0.0
 20
0.0
 30
0.0
  0
XRECORD
  5
30F7
102
{ACAD_REACTORS
330
30E3
102
}
330
30E3
100
AcDbXrecord
 10
0.0
 20
0.0
 30
0.0
  0
XRECORD
  5
30F8
102
{ACAD_REACTORS
330
30E3
102
}
330
30E3
100
AcDbXrecord
 10
0.0
 20
0.0
 30
0.0
  0
XRECORD
  5
30F9
102
{ACAD_REACTORS
330
30E3
102
}
330
30E3
100
AcDbXrecord
 10
0.0
 20
0.0
 30
0.0
  0
XRECORD
  5
30FA
102
{ACAD_REACTORS
330
30E3
102
}
330
30E3
100
AcDbXrecord
 10
0.0
 20
0.0
 30
0.0
  0
XRECORD
  5
30FB
102
{ACAD_REACTORS
330
30E3
102
}
330
30E3
100
AcDbXrecord
340
0
  0
XRECORD
  5
30FC
102
{ACAD_REACTORS
330
30E3
102
}
330
30E3
100
AcDbXrecord
 70
     0
  0
XRECORD
  5
30FD
102
{ACAD_REACTORS
330
30E3
102
}
330
30E3
100
AcDbXrecord
340
0
  0
XRECORD
  5
30FE
102
{ACAD_REACTORS
330
30E3
102
}
330
30E3
100
AcDbXrecord
 10
0.0
 20
0.0
 30
0.0
  0
XRECORD
  5
30FF
102
{ACAD_REACTORS
330
30E3
102
}
330
30E3
100
AcDbXrecord
 10
0.0
 20
0.0
 30
0.0
  0
XRECORD
  5
3100
102
{ACAD_REACTORS
330
30E3
102
}
330
30E3
100
AcDbXrecord
 10
0.0
 20
0.0
 30
0.0
  0
XRECORD
  5
3101
102
{ACAD_REACTORS
330
30E3
102
}
330
30E3
100
AcDbXrecord
 10
0.0
 20
0.0
 30
0.0
  0
XRECORD
  5
3102
102
{ACAD_REACTORS
330
30E3
102
}
330
30E3
100
AcDbXrecord
 10
0.0
 20
0.0
 30
0.0
  0
XRECORD
  5
3103
102
{ACAD_REACTORS
330
30E3
102
}
330
30E3
100
AcDbXrecord
 10
0.0
 20
0.0
 30
0.0
  0
ENDSEC
  0
EOF
