  0
SECTION
  2
HEADER
  9
$ACADVER
  1
AC1014
  9
$ACADMAINTVER
 70
     9
  9
$DWGCODEPAGE
  3
ANSI_1252
  9
$INSBASE
 10
0.0
 20
0.0
 30
0.0
  9
$EXTMIN
 10
2.145192181939486
 20
-67.75964029382318
 30
-0.0000000239796316
  9
$EXTMAX
 10
28.30990377737056
 20
7.573539100299448
 30
0.000000008033605
  9
$LIMMIN
 10
-0.5
 20
-0.5
  9
$LIMMAX
 10
5.0
 20
5.0
  9
$ORTHOMODE
 70
     0
  9
$REGENMODE
 70
     1
  9
$FILLMODE
 70
     1
  9
$QTEXTMODE
 70
     0
  9
$MIRRTEXT
 70
     1
  9
$DRAGMODE
 70
     2
  9
$LTSCALE
 40
1.0
  9
$OSMODE
 70
   261
  9
$ATTMODE
 70
     1
  9
$TEXTSIZE
 40
0.0
  9
$TRACEWID
 40
0.05
  9
$TEXTSTYLE
  7
STANDARD
  9
$CLAYER
  8
0
  9
$CELTYPE
  6
CONTINUOUS
  9
$CECOLOR
 62
   256
  9
$CELTSCALE
 40
1.0
  9
$DELOBJ
 70
     1
  9
$DISPSILH
 70
     0
  9
$DIMSCALE
 40
1.0
  9
$DIMASZ
 40
0.18
  9
$DIMEXO
 40
0.0625
  9
$DIMDLI
 40
0.38
  9
$DIMRND
 40
0.0
  9
$DIMDLE
 40
0.0
  9
$DIMEXE
 40
0.18
  9
$DIMTP
 40
0.0
  9
$DIMTM
 40
0.0
  9
$DIMTXT
 40
0.18
  9
$DIMCEN
 40
0.09
  9
$DIMTSZ
 40
0.0
  9
$DIMTOL
 70
     0
  9
$DIMLIM
 70
     0
  9
$DIMTIH
 70
     1
  9
$DIMTOH
 70
     1
  9
$DIMSE1
 70
     0
  9
$DIMSE2
 70
     0
  9
$DIMTAD
 70
     0
  9
$DIMZIN
 70
     0
  9
$DIMBLK
  1

  9
$DIMASO
 70
     1
  9
$DIMSHO
 70
     1
  9
$DIMPOST
  1

  9
$DIMAPOST
  1

  9
$DIMALT
 70
     0
  9
$DIMALTD
 70
     2
  9
$DIMALTF
 40
25.4
  9
$DIMLFAC
 40
1.0
  9
$DIMTOFL
 70
     0
  9
$DIMTVP
 40
0.0
  9
$DIMTIX
 70
     0
  9
$DIMSOXD
 70
     0
  9
$DIMSAH
 70
     0
  9
$DIMBLK1
  1

  9
$DIMBLK2
  1

  9
$DIMSTYLE
  2
STANDARD
  9
$DIMCLRD
 70
     0
  9
$DIMCLRE
 70
     0
  9
$DIMCLRT
 70
     0
  9
$DIMTFAC
 40
1.0
  9
$DIMGAP
 40
0.09
  9
$DIMJUST
 70
     0
  9
$DIMSD1
 70
     0
  9
$DIMSD2
 70
     0
  9
$DIMTOLJ
 70
     1
  9
$DIMTZIN
 70
     0
  9
$DIMALTZ
 70
     0
  9
$DIMALTTZ
 70
     0
  9
$DIMFIT
 70
     3
  9
$DIMUPT
 70
     0
  9
$DIMUNIT
 70
     2
  9
$DIMDEC
 70
     4
  9
$DIMTDEC
 70
     4
  9
$DIMALTU
 70
     2
  9
$DIMALTTD
 70
     2
  9
$DIMTXSTY
  7
STANDARD
  9
$DIMAUNIT
 70
     0
  9
$LUNITS
 70
     2
  9
$LUPREC
 70
     4
  9
$SKETCHINC
 40
0.1
  9
$FILLETRAD
 40
0.0
  9
$AUNITS
 70
     0
  9
$AUPREC
 70
     0
  9
$MENU
  1
acad
  9
$ELEVATION
 40
0.0
  9
$PELEVATION
 40
0.0
  9
$THICKNESS
 40
0.0
  9
$LIMCHECK
 70
     0
  9
$BLIPMODE
 70
     0
  9
$CHAMFERA
 40
0.0
  9
$CHAMFERB
 40
0.0
  9
$CHAMFERC
 40
0.0
  9
$CHAMFERD
 40
0.0
  9
$SKPOLY
 70
     0
  9
$TDCREATE
 40
2452717.577203321
  9
$TDUPDATE
 40
2452717.585386551
  9
$TDINDWG
 40
0.0081852199
  9
$TDUSRTIMER
 40
0.0081852199
  9
$USRTIMER
 70
     1
  9
$ANGBASE
 50
0.0
  9
$ANGDIR
 70
     0
  9
$PDMODE
 70
     0
  9
$PDSIZE
 40
0.0
  9
$PLINEWID
 40
0.0
  9
$COORDS
 70
     1
  9
$SPLFRAME
 70
     0
  9
$SPLINETYPE
 70
     6
  9
$SPLINESEGS
 70
     8
  9
$ATTDIA
 70
     0
  9
$ATTREQ
 70
     1
  9
$HANDLING
 70
  4097
  9
$HANDSEED
  5
634
  9
$SURFTAB1
 70
     6
  9
$SURFTAB2
 70
     6
  9
$SURFTYPE
 70
     6
  9
$SURFU
 70
     6
  9
$SURFV
 70
     6
  9
$UCSNAME
  2

  9
$UCSORG
 10
0.0
 20
0.0
 30
0.0
  9
$UCSXDIR
 10
1.0
 20
0.0
 30
0.0
  9
$UCSYDIR
 10
0.0
 20
1.0
 30
0.0
  9
$PUCSNAME
  2

  9
$PUCSORG
 10
0.0
 20
0.0
 30
0.0
  9
$PUCSXDIR
 10
1.0
 20
0.0
 30
0.0
  9
$PUCSYDIR
 10
0.0
 20
1.0
 30
0.0
  9
$USERI1
 70
     0
  9
$USERI2
 70
     0
  9
$USERI3
 70
     0
  9
$USERI4
 70
     0
  9
$USERI5
 70
     0
  9
$USERR1
 40
0.0
  9
$USERR2
 40
0.0
  9
$USERR3
 40
0.0
  9
$USERR4
 40
0.0
  9
$USERR5
 40
0.0
  9
$WORLDVIEW
 70
     1
  9
$SHADEDGE
 70
     3
  9
$SHADEDIF
 70
    70
  9
$TILEMODE
 70
     1
  9
$MAXACTVP
 70
    16
  9
$PINSBASE
 10
0.0
 20
0.0
 30
0.0
  9
$PLIMCHECK
 70
     0
  9
$PEXTMIN
 10
1.000000000000000E+20
 20
1.000000000000000E+20
 30
1.000000000000000E+20
  9
$PEXTMAX
 10
-1.000000000000000E+20
 20
-1.000000000000000E+20
 30
-1.000000000000000E+20
  9
$PLIMMIN
 10
-0.1979161059762549
 20
-0.2112499935420479
  9
$PLIMMAX
 10
10.80208365372785
 20
8.288749766162061
  9
$UNITMODE
 70
     0
  9
$VISRETAIN
 70
     0
  9
$PLINEGEN
 70
     1
  9
$PSLTSCALE
 70
     0
  9
$TREEDEPTH
 70
  3020
  9
$PICKSTYLE
 70
     1
  9
$CMLSTYLE
  2
STANDARD
  9
$CMLJUST
 70
     0
  9
$CMLSCALE
 40
1.0
  9
$PROXYGRAPHICS
 70
     0
  9
$MEASUREMENT
 70
     0
  0
ENDSEC
  0
SECTION
  2
CLASSES
  0
CLASS
  1
LWPOLYLINE
  2
AcDbPolyline
  3
AutoCAD 2000
 90
        0
280
     0
281
     1
  0
CLASS
  1
IMAGE
  2
AcDbRasterImage
  3
ISM
 90
      127
280
     0
281
     1
  0
CLASS
  1
OLE2FRAME
  2
AcDbOle2Frame
  3
AutoCAD 2000
 90
        0
280
     0
281
     1
  0
CLASS
  1
HATCH
  2
AcDbHatch
  3
AutoCAD 2000
 90
        0
280
     0
281
     1
  0
CLASS
  1
DICTIONARYVAR
  2
AcDbDictionaryVar
  3
AutoCAD 2000
 90
        0
280
     0
281
     0
  0
CLASS
  1
RASTERVARIABLES
  2
AcDbRasterVariables
  3
ISM
 90
        0
280
     0
281
     0
  0
CLASS
  1
IMAGEDEF
  2
AcDbRasterImageDef
  3
ISM
 90
        0
280
     0
281
     0
  0
CLASS
  1
IMAGEDEF_REACTOR
  2
AcDbRasterImageDefReactor
  3
ISM
 90
        1
280
     0
281
     0
  0
CLASS
  1
IDBUFFER
  2
AcDbIdBuffer
  3
AutoCAD 2000
 90
        0
280
     0
281
     0
  0
CLASS
  1
SPATIAL_FILTER
  2
AcDbSpatialFilter
  3
AutoCAD 2000
 90
        0
280
     0
281
     0
  0
CLASS
  1
XRECORD
  2
AcDbXrecord
  3
AutoCAD 2000
 90
        0
280
     0
281
     0
  0
CLASS
  1
SORTENTSTABLE
  2
AcDbSortentsTable
  3
AutoCAD 2000
 90
        0
280
     0
281
     0
  0
CLASS
  1
LAYER_INDEX
  2
AcDbLayerIndex
  3
AutoCAD 2000
 90
        0
280
     0
281
     0
  0
CLASS
  1
SPATIAL_INDEX
  2
AcDbSpatialIndex
  3
AutoCAD 2000
 90
        0
280
     0
281
     0
  0
CLASS
  1
OBJECT_PTR
  2
CAseDLPNTableRecord
  3
ASE-LPNTableRecord
 90
        1
280
     0
281
     0
  0
CLASS
  1
LAYOUT
  2
AcDbLayout
  3
AutoCAD 2000
 90
        0
280
     0
281
     0
  0
CLASS
  1
PLOTSETTINGS
  2
AcDbPlotSettings
  3
AutoCAD 2000
 90
        0
280
     0
281
     0
  0
CLASS
  1
ACDBDICTIONARYWDFLT
  2
AcDbDictionaryWithDefault
  3
AutoCAD 2000
 90
        0
280
     0
281
     0
  0
CLASS
  1
ACDBPLACEHOLDER
  2
AcDbPlaceHolder
  3
AutoCAD 2000
 90
        0
280
     0
281
     0
  0
CLASS
  1
VBA_PROJECT
  2
AcDbVbaProject
  3
acadvba
 90
        0
280
     0
281
     0
  0
CLASS
  1
RTEXT
  2
RText
  3
RText|AutoCAD Express Tool|expresstools@autodesk.com
 90
        0
280
     0
281
     1
  0
CLASS
  1
ARCALIGNEDTEXT
  2
AcDbArcAlignedText
  3
ATEXT|AutoCAD Express Tool|expresstools@autodesk.com
 90
        0
280
     0
281
     1
  0
CLASS
  1
LONG_TRANSACTION
  2
AcDbLongTransaction
  3
AutoCAD 2000
 90
        0
280
     0
281
     0
  0
CLASS
  1
LWPOLYLINE
  2
AcDbPolyline
  3
AutoCAD 2000
 90
        0
280
     0
281
     1
  0
CLASS
  1
HATCH
  2
AcDbHatch
  3
AutoCAD 2000
 90
        0
280
     0
281
     1
  0
CLASS
  1
XRECORD
  2
AcDbXrecord
  3
AutoCAD 2000
 90
        0
280
     0
281
     0
  0
ENDSEC
  0
SECTION
  2
TABLES
  0
TABLE
  2
VPORT
  5
7
330
0
100
AcDbSymbolTable
 70
    30
  0
VPORT
  5
56A
330
7
100
AcDbSymbolTableRecord
100
AcDbViewportTableRecord
  2
L1
 70
     0
 10
0.0
 20
0.0
 11
1.0
 21
1.0
 12
0.0
 22
0.0
 13
0.0
 23
0.0
 14
1.0
 24
1.0
 15
0.0
 25
0.0
 16
0.0
 26
0.0
 36
1.0
 17
0.0
 27
0.0
 37
0.0
 40
7.926304133858266
 41
0.688564
 42
50.0
 43
22.86983526390032
 44
-22.86983526390032
 50
0.0
 51
0.0
 71
    16
 72
   100
 73
     1
 74
     1
 75
     0
 76
     0
 77
     0
 78
     0
  0
VPORT
  5
56B
330
7
100
AcDbSymbolTableRecord
100
AcDbViewportTableRecord
  2
L2
 70
     0
 10
0.0
 20
0.0
 11
0.5
 21
1.0
 12
0.0
 22
0.0
 13
0.0
 23
0.0
 14
1.0
 24
1.0
 15
0.0
 25
0.0
 16
0.0
 26
-1.0
 36
0.0
 17
0.0
 27
0.0
 37
0.0
 40
45.73967052780065
 41
0.688564
 42
50.0
 43
23.44633426093276
 44
-23.44633426093276
 50
0.0
 51
0.0
 71
    16
 72
   100
 73
     1
 74
     1
 75
     0
 76
     0
 77
     0
 78
     0
  0
VPORT
  5
56C
330
7
100
AcDbSymbolTableRecord
100
AcDbViewportTableRecord
  2
L2
 70
     0
 10
0.5
 20
0.0
 11
1.0
 21
1.0
 12
0.0
 22
0.0
 13
0.0
 23
0.0
 14
1.0
 24
1.0
 15
0.0
 25
0.0
 16
1.0
 26
0.0
 36
0.0
 17
0.0
 27
0.0
 37
0.0
 40
45.73967052780065
 41
0.688564
 42
50.0
 43
23.21068588610736
 44
-23.21068588610736
 50
0.0
 51
0.0
 71
    16
 72
   100
 73
     1
 74
     1
 75
     0
 76
     0
 77
     0
 78
     0
  0
VPORT
  5
56D
330
7
100
AcDbSymbolTableRecord
100
AcDbViewportTableRecord
  2
L3
 70
     0
 10
0.0
 20
0.5
 11
1.0
 21
1.0
 12
0.0
 22
0.0
 13
0.0
 23
0.0
 14
1.0
 24
1.0
 15
0.0
 25
0.0
 16
0.0
 26
0.0
 36
1.0
 17
0.0
 27
0.0
 37
0.0
 40
7.926304133858266
 41
0.688564
 42
50.0
 43
22.86983526390032
 44
-22.86983526390032
 50
0.0
 51
0.0
 71
    16
 72
   100
 73
     1
 74
     1
 75
     0
 76
     0
 77
     0
 78
     0
  0
VPORT
  5
56E
330
7
100
AcDbSymbolTableRecord
100
AcDbViewportTableRecord
  2
L3
 70
     0
 10
0.0
 20
0.0
 11
1.0
 21
0.5
 12
0.0
 22
0.0
 13
0.0
 23
0.0
 14
1.0
 24
1.0
 15
0.0
 25
0.0
 16
0.0
 26
-1.0
 36
0.0
 17
0.0
 27
0.0
 37
0.0
 40
45.73967052780065
 41
0.688564
 42
50.0
 43
23.44633426093276
 44
-23.44633426093276
 50
0.0
 51
0.0
 71
    16
 72
   100
 73
     1
 74
     1
 75
     0
 76
     0
 77
     0
 78
     0
  0
VPORT
  5
56F
330
7
100
AcDbSymbolTableRecord
100
AcDbViewportTableRecord
  2
L4
 70
     0
 10
0.0
 20
0.5
 11
0.5
 21
1.0
 12
0.0
 22
0.0
 13
0.0
 23
0.0
 14
1.0
 24
1.0
 15
0.0
 25
0.0
 16
0.0
 26
0.0
 36
1.0
 17
0.0
 27
0.0
 37
0.0
 40
7.926304133858266
 41
0.688564
 42
50.0
 43
22.86983526390032
 44
-22.86983526390032
 50
0.0
 51
0.0
 71
    16
 72
   100
 73
     1
 74
     1
 75
     0
 76
     0
 77
     0
 78
     0
  0
VPORT
  5
570
330
7
100
AcDbSymbolTableRecord
100
AcDbViewportTableRecord
  2
L4
 70
     0
 10
0.0
 20
0.0
 11
0.5
 21
0.5
 12
0.0
 22
0.0
 13
0.0
 23
0.0
 14
1.0
 24
1.0
 15
0.0
 25
0.0
 16
0.0
 26
-1.0
 36
0.0
 17
0.0
 27
0.0
 37
0.0
 40
45.73967052780065
 41
0.688564
 42
50.0
 43
23.44633426093276
 44
-23.44633426093276
 50
0.0
 51
0.0
 71
    16
 72
   100
 73
     1
 74
     1
 75
     0
 76
     0
 77
     0
 78
     0
  0
VPORT
  5
571
330
7
100
AcDbSymbolTableRecord
100
AcDbViewportTableRecord
  2
L4
 70
     0
 10
0.5
 20
0.0
 11
1.0
 21
0.5
 12
0.0
 22
0.0
 13
0.0
 23
0.0
 14
1.0
 24
1.0
 15
0.0
 25
0.0
 16
1.0
 26
0.0
 36
0.0
 17
0.0
 27
0.0
 37
0.0
 40
45.73967052780065
 41
0.688564
 42
50.0
 43
23.21068588610736
 44
-23.21068588610736
 50
0.0
 51
0.0
 71
    16
 72
   100
 73
     1
 74
     1
 75
     0
 76
     0
 77
     0
 78
     0
  0
VPORT
  5
572
330
7
100
AcDbSymbolTableRecord
100
AcDbViewportTableRecord
  2
L4
 70
     0
 10
0.5
 20
0.5
 11
1.0
 21
1.0
 12
0.0
 22
0.0
 13
0.0
 23
0.0
 14
1.0
 24
1.0
 15
0.0
 25
0.0
 16
0.5773502691896259
 26
-0.5773502691896259
 36
0.5773502691896259
 17
0.0
 27
0.0
 37
0.0
 40
44.80128613809216
 41
0.688564
 42
50.0
 43
23.31247725727461
 44
-23.31247725727461
 50
0.0
 51
0.0
 71
    16
 72
   100
 73
     1
 74
     1
 75
     0
 76
     0
 77
     0
 78
     0
  0
VPORT
  5
573
330
7
100
AcDbSymbolTableRecord
100
AcDbViewportTableRecord
  2
L6
 70
     0
 10
0.0
 20
0.5
 11
0.3333333333333334
 21
1.0
 12
0.0
 22
0.0
 13
0.0
 23
0.0
 14
1.0
 24
1.0
 15
0.0
 25
0.0
 16
0.7188730927569434
 26
-0.5850486126764432
 36
0.3754192287502549
 17
0.0
 27
0.0
 37
0.0
 40
47.28156778779488
 41
0.688564
 42
50.0
 43
24.4750051625393
 44
-24.4750051625393
 50
0.0
 51
0.0
 71
    16
 72
   100
 73
     1
 74
     1
 75
     0
 76
     0
 77
     0
 78
     0
  0
VPORT
  5
574
330
7
100
AcDbSymbolTableRecord
100
AcDbViewportTableRecord
  2
L6
 70
     0
 10
0.0
 20
0.0
 11
0.3333333333333334
 21
0.5
 12
0.0
 22
0.0
 13
0.0
 23
0.0
 14
1.0
 24
1.0
 15
0.0
 25
0.0
 16
-1.0
 26
0.0
 36
0.0
 17
0.0
 27
0.0
 37
0.0
 40
45.73967052780065
 41
0.688564
 42
50.0
 43
23.21068588610736
 44
-23.21068588610736
 50
0.0
 51
0.0
 71
    16
 72
   100
 73
     1
 74
     1
 75
     0
 76
     0
 77
     0
 78
     0
  0
VPORT
  5
575
330
7
100
AcDbSymbolTableRecord
100
AcDbViewportTableRecord
  2
L6
 70
     0
 10
0.3333333333333334
 20
0.5
 11
0.6666666666666666
 21
1.0
 12
0.0
 22
0.0
 13
0.0
 23
0.0
 14
1.0
 24
1.0
 15
0.0
 25
0.0
 16
0.0
 26
0.0
 36
1.0
 17
0.0
 27
0.0
 37
0.0
 40
7.926304133858266
 41
0.688564
 42
50.0
 43
22.86983526390032
 44
-22.86983526390032
 50
0.0
 51
0.0
 71
    16
 72
   100
 73
     1
 74
     1
 75
     0
 76
     0
 77
     0
 78
     0
  0
VPORT
  5
576
330
7
100
AcDbSymbolTableRecord
100
AcDbViewportTableRecord
  2
L6
 70
     0
 10
0.3333333333333334
 20
0.0
 11
0.6666666666666666
 21
0.5
 12
0.0
 22
0.0
 13
0.0
 23
0.0
 14
1.0
 24
1.0
 15
0.0
 25
0.0
 16
0.0
 26
-1.0
 36
0.0
 17
0.0
 27
0.0
 37
0.0
 40
45.73967052780065
 41
0.688564
 42
50.0
 43
23.44633426093276
 44
-23.44633426093276
 50
0.0
 51
0.0
 71
    16
 72
   100
 73
     1
 74
     1
 75
     0
 76
     0
 77
     0
 78
     0
  0
VPORT
  5
577
330
7
100
AcDbSymbolTableRecord
100
AcDbViewportTableRecord
  2
L6
 70
     0
 10
0.6666666666666666
 20
0.5
 11
1.0
 21
1.0
 12
0.0
 22
0.0
 13
0.0
 23
0.0
 14
1.0
 24
1.0
 15
0.0
 25
0.0
 16
0.5773502691896259
 26
-0.5773502691896259
 36
0.5773502691896259
 17
0.0
 27
0.0
 37
0.0
 40
44.80128613809216
 41
0.688564
 42
50.0
 43
23.31247725727461
 44
-23.31247725727461
 50
0.0
 51
0.0
 71
    16
 72
   100
 73
     1
 74
     1
 75
     0
 76
     0
 77
     0
 78
     0
  0
VPORT
  5
578
330
7
100
AcDbSymbolTableRecord
100
AcDbViewportTableRecord
  2
L6
 70
     0
 10
0.6666666666666666
 20
0.0
 11
1.0
 21
0.5
 12
0.0
 22
0.0
 13
0.0
 23
0.0
 14
1.0
 24
1.0
 15
0.0
 25
0.0
 16
1.0
 26
0.0
 36
0.0
 17
0.0
 27
0.0
 37
0.0
 40
45.73967052780065
 41
0.688564
 42
50.0
 43
23.21068588610736
 44
-23.21068588610736
 50
0.0
 51
0.0
 71
    16
 72
   100
 73
     1
 74
     1
 75
     0
 76
     0
 77
     0
 78
     0
  0
VPORT
  5
60E
330
7
100
AcDbSymbolTableRecord
100
AcDbViewportTableRecord
  2
*ACTIVE
 70
     0
 10
0.0
 20
0.0
 11
1.0
 21
1.0
 12
15.22754797965502
 22
-30.09305059676186
 13
0.0
 23
0.0
 14
1.0
 24
1.0
 15
0.0
 25
0.0
 16
0.0
 26
0.0
 36
1.0
 17
0.0
 27
0.0
 37
0.0
 40
75.88574550214798
 41
1.507955936352509
 42
50.0
 43
22.86983526390032
 44
-22.86983526390032
 50
0.0
 51
0.0
 71
    16
 72
   100
 73
     1
 74
     1
 75
     0
 76
     0
 77
     0
 78
     0
  0
ENDTAB
  0
TABLE
  2
LTYPE
  5
4
330
0
100
AcDbSymbolTable
 70
     7
  0
LTYPE
  5
11
330
4
100
AcDbSymbolTableRecord
100
AcDbLinetypeTableRecord
  2
BYBLOCK
 70
     0
  3

 72
    65
 73
     0
 40
0.0
  0
LTYPE
  5
12
330
4
100
AcDbSymbolTableRecord
100
AcDbLinetypeTableRecord
  2
BYLAYER
 70
     0
  3

 72
    65
 73
     0
 40
0.0
  0
LTYPE
  5
13
330
4
100
AcDbSymbolTableRecord
100
AcDbLinetypeTableRecord
  2
CONTINUOUS
 70
     0
  3
Solid line
 72
    65
 73
     0
 40
0.0
  0
LTYPE
  5
22
330
4
100
AcDbSymbolTableRecord
100
AcDbLinetypeTableRecord
  2
DASHED
 70
     0
  3
__ __ __ __ __ __ __ __ __
 72
    65
 73
     2
 40
0.75
 49
0.5
 74
     0
 49
-0.25
 74
     0
  0
LTYPE
  5
23
330
4
100
AcDbSymbolTableRecord
100
AcDbLinetypeTableRecord
  2
HIDDEN
 70
     0
  3
_ _ _ _ _ _ _ _ _ _ _ _ _ _ _
 72
    65
 73
     2
 40
0.5
 49
0.25
 74
     0
 49
-0.25
 74
     0
  0
LTYPE
  5
24
330
4
100
AcDbSymbolTableRecord
100
AcDbLinetypeTableRecord
  2
PHANTOM
 70
     0
  3
____ _ _ ____ _ _ _____ _ _ ____
 72
    65
 73
     6
 40
2.5
 49
1.25
 74
     0
 49
-0.25
 74
     0
 49
0.25
 74
     0
 49
-0.25
 74
     0
 49
0.25
 74
     0
 49
-0.25
 74
     0
  0
LTYPE
  5
25
330
4
100
AcDbSymbolTableRecord
100
AcDbLinetypeTableRecord
  2
CENTER
 70
     0
  3
____ _ ____ _ ____ _ ____
 72
    65
 73
     4
 40
2.0
 49
1.25
 74
     0
 49
-0.25
 74
     0
 49
0.25
 74
     0
 49
-0.25
 74
     0
  0
LTYPE
  5
26
330
4
100
AcDbSymbolTableRecord
100
AcDbLinetypeTableRecord
  2
DOT
 70
     0
  3
.........................
 72
    65
 73
     2
 40
0.25
 49
0.0
 74
     0
 49
-0.25
 74
     0
  0
LTYPE
  5
27
330
4
100
AcDbSymbolTableRecord
100
AcDbLinetypeTableRecord
  2
DASHDOT
 70
     0
  3
_._._._._._._._._._._._._._._._.
 72
    65
 73
     4
 40
1.0
 49
0.5
 74
     0
 49
-0.25
 74
     0
 49
0.0
 74
     0
 49
-0.25
 74
     0
  0
ENDTAB
  0
TABLE
  2
LAYER
  5
2
330
0
100
AcDbSymbolTable
 70
     3
  0
LAYER
  5
14
330
2
100
AcDbSymbolTableRecord
100
AcDbLayerTableRecord
  2
0
 70
     0
 62
     7
  6
CONTINUOUS
  0
LAYER
  5
29
330
2
100
AcDbSymbolTableRecord
100
AcDbLayerTableRecord
  2
1
 70
     0
 62
     7
  6
CONTINUOUS
  0
LAYER
  5
2A
330
2
100
AcDbSymbolTableRecord
100
AcDbLayerTableRecord
  2
TOP
 70
     0
 62
     7
  6
CONTINUOUS
  0
ENDTAB
  0
TABLE
  2
STYLE
  5
3
330
0
100
AcDbSymbolTable
 70
     1
  0
STYLE
  5
17
330
3
100
AcDbSymbolTableRecord
100
AcDbTextStyleTableRecord
  2
STANDARD
 70
     0
 40
0.0
 41
1.0
 50
0.0
 71
     0
 42
0.0
  3
txt
  4

  0
ENDTAB
  0
TABLE
  2
VIEW
  5
5
330
0
100
AcDbSymbolTable
 70
     8
  0
VIEW
  5
561
330
5
100
AcDbSymbolTableRecord
100
AcDbViewTableRecord
  2
TOP
 70
     0
 40
7.926304133858266
 10
0.0
 20
0.0
 41
10.33464566929133
 11
0.0
 21
0.0
 31
1.0
 12
0.0
 22
0.0
 32
0.0
 42
50.0
 43
22.86983526390032
 44
-22.86983526390032
 50
0.0
 71
    16
  0
VIEW
  5
562
330
5
100
AcDbSymbolTableRecord
100
AcDbViewTableRecord
  2
FRONT
 70
     0
 40
45.73967052780065
 10
0.0
 20
0.0
 41
10.33464566929133
 11
0.0
 21
-1.0
 31
0.0
 12
0.0
 22
0.0
 32
0.0
 42
50.0
 43
23.44633426093276
 44
-23.44633426093276
 50
0.0
 71
    16
  0
VIEW
  5
563
330
5
100
AcDbSymbolTableRecord
100
AcDbViewTableRecord
  2
RIGHT
 70
     0
 40
45.73967052780065
 10
0.0
 20
0.0
 41
7.926304133858266
 11
1.0
 21
0.0
 31
0.0
 12
0.0
 22
0.0
 32
0.0
 42
50.0
 43
23.21068588610736
 44
-23.21068588610736
 50
0.0
 71
    16
  0
VIEW
  5
564
330
5
100
AcDbSymbolTableRecord
100
AcDbViewTableRecord
  2
BACK
 70
     0
 40
45.73967052780065
 10
0.0
 20
0.0
 41
10.33464566929133
 11
0.0
 21
1.0
 31
0.0
 12
0.0
 22
0.0
 32
0.0
 42
50.0
 43
23.44633426093276
 44
-23.44633426093276
 50
0.0
 71
    16
  0
VIEW
  5
565
330
5
100
AcDbSymbolTableRecord
100
AcDbViewTableRecord
  2
BOTTOM
 70
     0
 40
7.926304133858266
 10
0.0
 20
0.0
 41
10.33464566929133
 11
0.0
 21
0.0
 31
-1.0
 12
0.0
 22
0.0
 32
0.0
 42
50.0
 43
22.86983526390032
 44
-22.86983526390032
 50
180.0
 71
    16
  0
VIEW
  5
566
330
5
100
AcDbSymbolTableRecord
100
AcDbViewTableRecord
  2
LEFT
 70
     0
 40
45.73967052780065
 10
0.0
 20
0.0
 41
7.926304133858266
 11
-1.0
 21
0.0
 31
0.0
 12
0.0
 22
0.0
 32
0.0
 42
50.0
 43
23.21068588610736
 44
-23.21068588610736
 50
0.0
 71
    16
  0
VIEW
  5
567
330
5
100
AcDbSymbolTableRecord
100
AcDbViewTableRecord
  2
TFR-ISO
 70
     0
 40
44.80128613809216
 10
0.0
 20
0.0
 41
12.91244143671423
 11
0.5773502691896259
 21
-0.5773502691896259
 31
0.5773502691896259
 12
0.0
 22
0.0
 32
0.0
 42
50.0
 43
23.31247725727461
 44
-23.31247725727461
 50
0.0
 71
    16
  0
VIEW
  5
568
330
5
100
AcDbSymbolTableRecord
100
AcDbViewTableRecord
  2
TFR-TRI
 70
     0
 40
47.28156778779488
 10
0.0
 20
0.0
 41
12.67110328082996
 11
0.7188730927569434
 21
-0.5850486126764432
 31
0.3754192287502549
 12
0.0
 22
0.0
 32
0.0
 42
50.0
 43
24.4750051625393
 44
-24.4750051625393
 50
0.0
 71
    16
  0
ENDTAB
  0
TABLE
  2
UCS
  5
6
330
0
100
AcDbSymbolTable
 70
     0
  0
ENDTAB
  0
TABLE
  2
APPID
  5
8
330
0
100
AcDbSymbolTable
 70
     2
  0
APPID
  5
16
330
8
100
AcDbSymbolTableRecord
100
AcDbRegAppTableRecord
  2
ACAD
 70
     0
  0
APPID
  5
584
330
8
100
AcDbSymbolTableRecord
100
AcDbRegAppTableRecord
  2
DCO15
 70
     0
  0
ENDTAB
  0
TABLE
  2
DIMSTYLE
  5
9
330
0
100
AcDbSymbolTable
 70
     1
  0
DIMSTYLE
105
18
330
9
100
AcDbSymbolTableRecord
100
AcDbDimStyleTableRecord
  2
STANDARD
 70
     0
  3

  4

  5

  6

  7

 40
1.0
 41
0.18
 42
0.0625
 43
0.38
 44
0.18
 45
0.0
 46
0.0
 47
0.0
 48
0.0
140
0.18
141
0.09
142
0.0
143
25.4
144
1.0
145
0.0
146
1.0
147
0.09
 71
     0
 72
     0
 73
     1
 74
     1
 75
     0
 76
     0
 77
     0
 78
     0
170
     0
171
     2
172
     0
173
     0
174
     0
175
     0
176
     0
177
     0
178
     0
270
     2
271
     4
272
     4
273
     2
274
     2
340
17
275
     0
280
     0
281
     0
282
     0
283
     1
284
     0
285
     0
286
     0
287
     0
288
     0
  0
ENDTAB
  0
TABLE
  2
BLOCK_RECORD
  5
1
330
0
100
AcDbSymbolTable
 70
     0
  0
BLOCK_RECORD
  5
A
102
{ACAD_XDICTIONARY
360
630
102
}
330
1
100
AcDbSymbolTableRecord
100
AcDbBlockTableRecord
  2
*MODEL_SPACE
  0
BLOCK_RECORD
  5
B
102
{ACAD_XDICTIONARY
360
632
102
}
330
1
100
AcDbSymbolTableRecord
100
AcDbBlockTableRecord
  2
*PAPER_SPACE
  0
ENDTAB
  0
ENDSEC
  0
SECTION
  2
BLOCKS
  0
BLOCK
  5
D
330
A
100
AcDbEntity
  8
0
100
AcDbBlockBegin
  2
*MODEL_SPACE
 70
     0
 71
     1
 10
0.0
 20
0.0
 30
0.0
  3
*MODEL_SPACE
  1

  0
ENDBLK
  5
E
330
A
100
AcDbEntity
  8
0
100
AcDbBlockEnd
  0
BLOCK
  5
F
330
B
100
AcDbEntity
 67
     1
  8
0
100
AcDbBlockBegin
  2
*PAPER_SPACE
 70
     0
 71
     1
 10
0.0
 20
0.0
 30
0.0
  3
*PAPER_SPACE
  1

  0
ENDBLK
  5
10
330
B
100
AcDbEntity
 67
     1
  8
0
100
AcDbBlockEnd
  0
ENDSEC
  0
SECTION
  2
ENTITIES
  0
LINE
  5
28
330
A
100
AcDbEntity
  8
TOP
  6
CONTINUOUS
 62
     3
100
AcDbLine
 10
10.77594987551388
 20
-46.20797634124862
 30
0.0
 11
10.77594987551388
 21
-46.43071492513128
 31
0.0
  0
LINE
  5
2B
330
A
100
AcDbEntity
  8
TOP
  6
CONTINUOUS
 62
     3
100
AcDbLine
 10
2.272949934005737
 20
-47.93071746826282
 30
0.0
 11
3.765950918197661
 21
-47.93071746826282
 31
0.0
  0
LINE
  5
2C
330
A
100
AcDbEntity
  8
TOP
  6
CONTINUOUS
 62
     3
100
AcDbLine
 10
7.335951248804828
 20
-50.96391042073683
 30
0.0
 11
7.335951248804828
 21
-50.94331105550246
 31
0.0
  0
LINE
  5
2D
330
A
100
AcDbEntity
  8
TOP
  6
CONTINUOUS
 62
     3
100
AcDbLine
 10
7.335951248804828
 20
-25.74330965677963
 30
0.0
 11
7.335951248804828
 21
-25.60911178588933
 31
0.0
  0
LINE
  5
2E
330
A
100
AcDbEntity
  8
TOP
  6
CONTINUOUS
 62
     3
100
AcDbLine
 10
2.272949934005737
 20
-42.26071039835711
 30
0.0
 11
3.765950918197661
 21
-42.26071039835711
 31
0.0
  0
LINE
  5
2F
330
A
100
AcDbEntity
  8
TOP
  6
CONTINUOUS
 62
     3
100
AcDbLine
 10
7.335951248804828
 20
-67.51117308934678
 30
0.0
 11
7.335951248804828
 21
-67.50150521596421
 31
0.0
  0
LINE
  5
30
330
A
100
AcDbEntity
  8
TOP
  6
CONTINUOUS
 62
     3
100
AcDbLine
 10
2.145948330561317
 20
-29.3457110722867
 30
0.0
 11
2.145948330561317
 21
-29.12297248840404
 31
0.0
  0
LINE
  5
31
330
A
100
AcDbEntity
  8
TOP
  6
CONTINUOUS
 62
     3
100
AcDbLine
 10
10.77594987551388
 20
-8.945711453756024
 30
0.0
 11
10.77594987551388
 21
-10.13071537017857
 31
0.0
  0
LINE
  5
32
330
A
100
AcDbEntity
  8
TOP
  6
CONTINUOUS
 62
     3
100
AcDbLine
 10
10.71245106061316
 20
-29.3457110722867
 30
0.0
 11
10.71245106061316
 21
-29.56844965616935
 31
0.0
  0
LINE
  5
33
330
A
100
AcDbEntity
  8
TOP
  6
CONTINUOUS
 62
     3
100
AcDbLine
 10
2.209451119105019
 20
-16.52297178904263
 30
0.0
 11
2.209451119105019
 21
-16.43071174621629
 31
0.0
  0
LINE
  5
34
330
A
100
AcDbEntity
  8
TOP
  6
CONTINUOUS
 62
     3
100
AcDbLine
 10
10.71245106061316
 20
-27.21571127573718
 30
0.0
 11
10.71245106061316
 21
-27.30797926584949
 31
0.0
  0
LINE
  5
35
330
A
100
AcDbEntity
  8
TOP
  6
CONTINUOUS
 62
     3
100
AcDbLine
 10
25.73201313676539
 20
-21.54571215311744
 30
0.0
 11
25.00401790005069
 21
-21.54571215311744
 31
0.0
  0
LINE
  5
36
330
A
100
AcDbEntity
  8
TOP
  6
CONTINUOUS
 62
     3
100
AcDbLine
 10
10.71245106061316
 20
-27.53071784973214
 30
0.0
 11
10.71245106061316
 21
-27.75345643361479
 31
0.0
  0
LINE
  5
37
330
A
100
AcDbEntity
  8
TOP
  6
CONTINUOUS
 62
     3
100
AcDbLine
 10
25.00401790005069
 20
-34.14571285247886
 30
0.0
 11
25.00401790005069
 21
-35.33070882161544
 31
0.0
  0
LINE
  5
38
330
A
100
AcDbEntity
  8
TOP
  6
CONTINUOUS
 62
     3
100
AcDbLine
 10
2.145948330561317
 20
-27.30797926584949
 30
0.0
 11
2.145948330561317
 21
-27.21571127573718
 31
0.0
  0
LINE
  5
39
330
A
100
AcDbEntity
  8
TOP
  6
CONTINUOUS
 62
     3
100
AcDbLine
 10
10.64894827206946
 20
-17.06071694692024
 30
0.0
 11
10.64894827206946
 21
-20.91571489969946
 31
0.0
  0
LINE
  5
3A
330
A
100
AcDbEntity
  8
TOP
  6
CONTINUOUS
 62
     3
100
AcDbLine
 10
2.145948330561317
 20
-21.23071352640845
 30
0.0
 11
2.145948330561317
 21
-21.00797494252579
 31
0.0
  0
LINE
  5
3B
330
A
100
AcDbEntity
  8
TOP
  6
CONTINUOUS
 62
     3
100
AcDbLine
 10
7.585949023564761
 20
-12.18821207682331
 30
0.0
 11
7.585949023564761
 21
-12.21251487731972
 31
0.0
  0
LINE
  5
3C
330
A
100
AcDbEntity
  8
TOP
  6
CONTINUOUS
 62
     3
100
AcDbLine
 10
10.77594987551388
 20
-40.44571717580255
 30
0.0
 11
10.77594987551388
 21
-41.63071314493913
 31
0.0
  0
LINE
  5
3D
330
A
100
AcDbEntity
  8
TOP
  6
CONTINUOUS
 62
     3
100
AcDbLine
 10
10.71245106061316
 20
-33.51571559906087
 30
0.0
 11
10.71245106061316
 21
-33.60797564188721
 31
0.0
  0
LINE
  5
3E
330
A
100
AcDbEntity
  8
TOP
  6
CONTINUOUS
 62
     3
100
AcDbLine
 10
2.145948330561317
 20
-42.16845035553077
 30
0.0
 11
2.145948330561317
 21
-41.94571177164812
 31
0.0
  0
LINE
  5
3F
330
A
100
AcDbEntity
  8
TOP
  6
CONTINUOUS
 62
     3
100
AcDbLine
 10
2.145948330561317
 20
-42.26071039835711
 30
0.0
 11
2.145948330561317
 21
-42.16845035553077
 31
0.0
  0
LINE
  5
40
330
A
100
AcDbEntity
  8
TOP
  6
CONTINUOUS
 62
     3
100
AcDbLine
 10
24.9142135685891
 20
-15.24570782979374
 30
0.0
 11
25.00401790005069
 21
-15.24570782979374
 31
0.0
  0
LINE
  5
41
330
A
100
AcDbEntity
  8
TOP
  6
CONTINUOUS
 62
     3
100
AcDbLine
 10
7.335951248804828
 20
-24.78821277618472
 30
0.0
 11
7.335951248804828
 21
-24.81251557668114
 31
0.0
  0
LINE
  5
42
330
A
100
AcDbEntity
  8
TOP
  6
CONTINUOUS
 62
     3
100
AcDbLine
 10
5.335949182510437
 20
-32.08821614583412
 30
0.0
 11
5.585950930913355
 21
-32.08821614583412
 31
0.0
  0
LINE
  5
43
330
A
100
AcDbEntity
  8
TOP
  6
CONTINUOUS
 62
     3
100
AcDbLine
 10
10.64894827206946
 20
-35.96071402231938
 30
0.0
 11
10.73875260353105
 21
-35.96071402231938
 31
0.0
  0
LINE
  5
44
330
A
100
AcDbEntity
  8
TOP
  6
CONTINUOUS
 62
     3
100
AcDbLine
 10
10.64894827206946
 20
-29.66071764628166
 30
0.0
 11
10.64894827206946
 21
-33.51571559906087
 31
0.0
  0
LINE
  5
45
330
A
100
AcDbEntity
  8
TOP
  6
CONTINUOUS
 62
     3
100
AcDbLine
 10
10.71245106061316
 20
2.377025286356505
 30
0.0
 11
10.71245106061316
 21
2.154286702473851
 31
0.0
  0
LINE
  5
46
330
A
100
AcDbEntity
  8
TOP
  6
CONTINUOUS
 62
     3
100
AcDbLine
 10
25.00401790005069
 20
-2.015709877014348
 30
0.0
 11
24.9142135685891
 21
-2.015709877014348
 31
0.0
  0
LINE
  5
47
330
A
100
AcDbEntity
  8
TOP
  6
CONTINUOUS
 62
     3
100
AcDbLine
 10
10.71245106061316
 20
-21.4534521102911
 30
0.0
 11
10.71245106061316
 21
-21.54571215311744
 31
0.0
  0
LINE
  5
48
330
A
100
AcDbEntity
  8
TOP
  6
CONTINUOUS
 62
     3
100
AcDbLine
 10
10.77594987551388
 20
-22.82297611236632
 30
0.0
 11
10.77594987551388
 21
-23.04571469624898
 31
0.0
  0
LINE
  5
49
330
A
100
AcDbEntity
  8
TOP
  6
CONTINUOUS
 62
     3
100
AcDbLine
 10
7.585949023564761
 20
-13.00911108652791
 30
0.0
 11
7.585949023564761
 21
-12.96790440877319
 31
0.0
  0
LINE
  5
4A
330
A
100
AcDbEntity
  8
TOP
  6
CONTINUOUS
 62
     3
100
AcDbLine
 10
10.64894827206946
 20
-4.460716247558832
 30
0.0
 11
10.73875260353105
 21
-4.460716247558832
 31
0.0
  0
LINE
  5
4B
330
A
100
AcDbEntity
  8
TOP
  6
CONTINUOUS
 62
     3
100
AcDbLine
 10
2.145948330561317
 20
-10.66845258077022
 30
0.0
 11
2.145948330561317
 21
-10.44571399688756
 31
0.0
  0
LINE
  5
4C
330
A
100
AcDbEntity
  8
TOP
  6
CONTINUOUS
 62
     3
100
AcDbLine
 10
2.272949934005737
 20
-2.015717824300319
 30
0.0
 11
3.765950918197661
 21
-2.015717824300319
 31
0.0
  0
LINE
  5
4D
330
A
100
AcDbEntity
  8
TOP
  6
CONTINUOUS
 62
     3
100
AcDbLine
 10
7.585949023564761
 20
-38.11930815378915
 30
0.0
 11
7.585949023564761
 21
-37.65712579091479
 31
0.0
  0
LINE
  5
4E
330
A
100
AcDbEntity
  8
TOP
  6
CONTINUOUS
 62
     3
100
AcDbLine
 10
2.209451119105019
 20
3.654289245605391
 30
0.0
 11
2.209451119105019
 21
3.746549288431728
 31
0.0
  0
LINE
  5
4F
330
A
100
AcDbEntity
  8
TOP
  6
CONTINUOUS
 62
     3
100
AcDbLine
 10
28.30701326392201
 20
-51.80821418762325
 30
0.0
 11
28.26981996558217
 21
-51.80821418762325
 31
0.0
  0
LINE
  5
50
330
A
100
AcDbEntity
  8
TOP
  6
CONTINUOUS
 62
     3
100
AcDbLine
 10
10.73875260353105
 20
-22.73071606953999
 30
0.0
 11
10.64894827206946
 21
-22.73071606953999
 31
0.0
  0
LINE
  5
51
330
A
100
AcDbEntity
  8
TOP
  6
CONTINUOUS
 62
     3
100
AcDbLine
 10
7.585949023564761
 20
-0.5433162053427714
 30
0.0
 11
7.335951248804828
 21
-0.5433162053427714
 31
0.0
  0
LINE
  5
52
330
A
100
AcDbEntity
  8
TOP
  6
CONTINUOUS
 62
     3
100
AcDbLine
 10
10.77594987551388
 20
-2.330716451009311
 30
0.0
 11
10.77594987551388
 21
-2.553455034891964
 31
0.0
  0
LINE
  5
53
330
A
100
AcDbEntity
  8
TOP
  6
CONTINUOUS
 62
     3
100
AcDbLine
 10
7.585949023564761
 20
-25.00851949056054
 30
0.0
 11
7.585949023564761
 21
-25.05712509155338
 31
0.0
  0
LINE
  5
54
330
A
100
AcDbEntity
  8
TOP
  6
CONTINUOUS
 62
     3
100
AcDbLine
 10
10.77594987551388
 20
-41.94571177164812
 30
0.0
 11
10.77594987551388
 21
-42.16845035553077
 31
0.0
  0
LINE
  5
55
330
A
100
AcDbEntity
  8
TOP
  6
CONTINUOUS
 62
     3
100
AcDbLine
 10
2.145948330561317
 20
-47.93071746826282
 30
0.0
 11
2.145948330561317
 21
-46.74571355184027
 31
0.0
  0
LINE
  5
56
330
A
100
AcDbEntity
  8
TOP
  6
CONTINUOUS
 62
     3
100
AcDbLine
 10
2.272949934005737
 20
-35.3307167689014
 30
0.0
 11
2.183145602544147
 21
-35.3307167689014
 31
0.0
  0
LINE
  5
57
330
A
100
AcDbEntity
  8
TOP
  6
CONTINUOUS
 62
     3
100
AcDbLine
 10
10.77594987551388
 20
-35.96071402231938
 30
0.0
 11
10.77594987551388
 21
-39.8157119750986
 31
0.0
  0
LINE
  5
58
330
A
100
AcDbEntity
  8
TOP
  6
CONTINUOUS
 62
     3
100
AcDbLine
 10
2.145948330561317
 20
-33.60797564188721
 30
0.0
 11
2.145948330561317
 21
-33.51571559906087
 31
0.0
  0
LINE
  5
59
330
A
100
AcDbEntity
  8
TOP
  6
CONTINUOUS
 62
     3
100
AcDbLine
 10
2.209451119105019
 20
-42.26071039835711
 30
0.0
 11
2.209451119105019
 21
-42.16845035553077
 31
0.0
  0
LINE
  5
5A
330
A
100
AcDbEntity
  8
TOP
  6
CONTINUOUS
 62
     3
100
AcDbLine
 10
10.64894827206946
 20
-8.945711453756024
 30
0.0
 11
10.64894827206946
 21
-10.13071537017857
 31
0.0
  0
LINE
  5
5B
330
A
100
AcDbEntity
  8
TOP
  6
CONTINUOUS
 62
     3
100
AcDbLine
 10
8.965951522191499
 20
3.464285532633382
 30
0.0
 11
8.965951522191499
 21
2.65928904215485
 31
0.0
  0
LINE
  5
5C
330
A
100
AcDbEntity
  8
TOP
  6
CONTINUOUS
 62
     3
100
AcDbLine
 10
3.955950657526685
 20
-3.640715281168842
 30
0.0
 11
3.955950657526685
 21
-2.83571084340434
 31
0.0
  0
LINE
  5
5D
330
A
100
AcDbEntity
  8
TOP
  6
CONTINUOUS
 62
     3
100
AcDbLine
 10
2.209451119105019
 20
-17.06071694692024
 30
0.0
 11
2.209451119105019
 21
-16.96844895680794
 31
0.0
  0
LINE
  5
5E
330
A
100
AcDbEntity
  8
TOP
  6
CONTINUOUS
 62
     3
100
AcDbLine
 10
2.209451119105019
 20
-67.62800614039253
 30
0.0
 11
2.145948330561317
 21
-67.62800614039253
 31
0.0
  0
LINE
  5
5F
330
A
100
AcDbEntity
  8
TOP
  6
CONTINUOUS
 62
     3
100
AcDbLine
 10
24.87701232296329
 20
-34.14571285247886
 30
0.0
 11
24.87701232296329
 21
-35.33070882161544
 31
0.0
  0
LINE
  5
60
330
A
100
AcDbEntity
  8
TOP
  6
CONTINUOUS
 62
     3
100
AcDbLine
 10
25.00401790005069
 20
-3.830711046854879
 30
0.0
 11
24.9142135685891
 21
-3.830711046854879
 31
0.0
  0
LINE
  5
61
330
A
100
AcDbEntity
  8
TOP
  6
CONTINUOUS
 62
     3
100
AcDbLine
 10
10.71245106061316
 20
-35.42297681172774
 30
0.0
 11
10.71245106061316
 21
-35.64571539561039
 31
0.0
  0
LINE
  5
62
330
A
100
AcDbEntity
  8
TOP
  6
CONTINUOUS
 62
     3
100
AcDbLine
 10
7.335951248804828
 20
-50.16732215881463
 30
0.0
 11
7.585949023564761
 21
-50.16732215881463
 31
0.0
  0
LINE
  5
63
330
A
100
AcDbEntity
  8
TOP
  6
CONTINUOUS
 62
     3
100
AcDbLine
 10
2.145948330561317
 20
-46.65345350901393
 30
0.0
 11
2.145948330561317
 21
-46.43071492513128
 31
0.0
  0
LINE
  5
64
330
A
100
AcDbEntity
  8
TOP
  6
CONTINUOUS
 62
     3
100
AcDbLine
 10
7.585949023564761
 20
-25.60911178588933
 30
0.0
 11
7.335951248804828
 21
-25.60911178588933
 31
0.0
  0
LINE
  5
65
330
A
100
AcDbEntity
  8
TOP
  6
CONTINUOUS
 62
     3
100
AcDbLine
 10
10.77594987551388
 20
-64.45200443267966
 30
0.0
 11
10.71245106061316
 21
-64.45200443267966
 31
0.0
  0
LINE
  5
66
330
A
100
AcDbEntity
  8
TOP
  6
CONTINUOUS
 62
     3
100
AcDbLine
 10
2.209451119105019
 20
-67.62800614039253
 30
0.0
 11
2.209451119105019
 21
-64.45200443267966
 31
0.0
  0
LINE
  5
67
330
A
100
AcDbEntity
  8
TOP
  6
CONTINUOUS
 62
     3
100
AcDbLine
 10
2.272949934005737
 20
-23.36071332295797
 30
0.0
 11
3.765950918197661
 21
-23.36071332295797
 31
0.0
  0
LINE
  5
68
330
A
100
AcDbEntity
  8
TOP
  6
CONTINUOUS
 62
     3
100
AcDbLine
 10
10.71245106061316
 20
-2.107977867126656
 30
0.0
 11
10.71245106061316
 21
-2.330716451009311
 31
0.0
  0
LINE
  5
69
330
A
100
AcDbEntity
  8
TOP
  6
CONTINUOUS
 62
     3
100
AcDbLine
 10
10.71245106061316
 20
-20.91571489969946
 30
0.0
 11
10.71245106061316
 21
-21.00797494252579
 31
0.0
  0
LINE
  5
6A
330
A
100
AcDbEntity
  8
TOP
  6
CONTINUOUS
 62
     3
100
AcDbLine
 10
10.73875260353105
 20
-14.61571057637576
 30
0.0
 11
10.64894827206946
 21
-14.61571057637576
 31
0.0
  0
LINE
  5
6B
330
A
100
AcDbEntity
  8
TOP
  6
CONTINUOUS
 62
     3
100
AcDbLine
 10
10.77594987551388
 20
-21.23071352640845
 30
0.0
 11
10.77594987551388
 21
-21.4534521102911
 31
0.0
  0
LINE
  5
6C
330
A
100
AcDbEntity
  8
TOP
  6
CONTINUOUS
 62
     3
100
AcDbLine
 10
10.71245106061316
 20
-21.23071352640845
 30
0.0
 11
10.71245106061316
 21
-21.4534521102911
 31
0.0
  0
LINE
  5
6D
330
A
100
AcDbEntity
  8
TOP
  6
CONTINUOUS
 62
     3
100
AcDbLine
 10
2.272949934005737
 20
-2.015717824300319
 30
0.0
 11
2.183145602544147
 21
-2.015717824300319
 31
0.0
  0
LINE
  5
6E
330
A
100
AcDbEntity
  8
TOP
  6
CONTINUOUS
 62
     3
100
AcDbLine
 10
2.209451119105019
 20
-40.44571717580255
 30
0.0
 11
2.209451119105019
 21
-40.35344918569024
 31
0.0
  0
LINE
  5
6F
330
A
100
AcDbEntity
  8
TOP
  6
CONTINUOUS
 62
     3
100
AcDbLine
 10
7.585949023564761
 20
-38.16790580749602
 30
0.0
 11
7.585949023564761
 21
-38.11930815378915
 31
0.0
  0
LINE
  5
70
330
A
100
AcDbEntity
  8
TOP
  6
CONTINUOUS
 62
     3
100
AcDbLine
 10
2.145948330561317
 20
3.746549288431728
 30
0.0
 11
2.145948330561317
 21
3.969287872314382
 31
0.0
  0
LINE
  5
71
330
A
100
AcDbEntity
  8
TOP
  6
CONTINUOUS
 62
     3
100
AcDbLine
 10
2.209451119105019
 20
-21.4534521102911
 30
0.0
 11
2.209451119105019
 21
-21.23071352640845
 31
0.0
  0
LINE
  5
72
330
A
100
AcDbEntity
  8
TOP
  6
CONTINUOUS
 62
     3
100
AcDbLine
 10
28.30701326392201
 20
-51.80821418762325
 30
0.0
 11
28.30701326392201
 21
7.53178596496582
 31
0.0
  0
LINE
  5
73
330
A
100
AcDbEntity
  8
TOP
  6
CONTINUOUS
 62
     3
100
AcDbLine
 10
10.73875260353105
 20
-21.54571215311744
 30
0.0
 11
10.77594987551388
 21
-21.54571215311744
 31
0.0
  0
LINE
  5
74
330
A
100
AcDbEntity
  8
TOP
  6
CONTINUOUS
 62
     3
100
AcDbLine
 10
7.335951248804828
 20
-0.5639155705771467
 30
0.0
 11
7.335951248804828
 21
-0.5433162053427714
 31
0.0
  0
LINE
  5
75
330
A
100
AcDbEntity
  8
TOP
  6
CONTINUOUS
 62
     3
100
AcDbLine
 10
2.209451119105019
 20
-14.93071715037072
 30
0.0
 11
2.209451119105019
 21
-14.70797856648807
 31
0.0
  0
LINE
  5
76
330
A
100
AcDbEntity
  8
TOP
  6
CONTINUOUS
 62
     3
100
AcDbLine
 10
25.00401790005069
 20
-15.24570782979374
 30
0.0
 11
25.00401790005069
 21
-16.43071174621629
 31
0.0
  0
LINE
  5
77
330
A
100
AcDbEntity
  8
TOP
  6
CONTINUOUS
 62
     3
100
AcDbLine
 10
2.145948330561317
 20
-67.62800614039253
 30
0.0
 11
2.145948330561317
 21
-64.45200443267966
 31
0.0
  0
LINE
  5
78
330
A
100
AcDbEntity
  8
TOP
  6
CONTINUOUS
 62
     3
100
AcDbLine
 10
5.585950930913355
 20
-6.888214747111289
 30
0.0
 11
5.585950930913355
 21
-6.863911946614869
 31
0.0
  0
LINE
  5
79
330
A
100
AcDbEntity
  8
TOP
  6
CONTINUOUS
 62
     3
100
AcDbLine
 10
2.839448372523001
 20
-21.45420710245825
 30
0.0
 11
2.839448372523001
 21
-21.23071352640845
 31
0.0
  0
LINE
  5
7A
330
A
100
AcDbEntity
  8
TOP
  6
CONTINUOUS
 62
     3
100
AcDbLine
 10
10.73875260353105
 20
-40.44571717580255
 30
0.0
 11
10.77594987551388
 21
-40.44571717580255
 31
0.0
  0
LINE
  5
7B
330
A
100
AcDbEntity
  8
TOP
  6
CONTINUOUS
 62
     3
100
AcDbLine
 10
7.335951248804828
 20
-67.69150495529324
 30
0.0
 11
7.335951248804828
 21
-67.68666903178047
 31
0.0
  0
LINE
  5
7C
330
A
100
AcDbEntity
  8
TOP
  6
CONTINUOUS
 62
     3
100
AcDbLine
 10
2.272949934005737
 20
-29.03071244557771
 30
0.0
 11
3.765950918197661
 21
-29.03071244557771
 31
0.0
  0
LINE
  5
7D
330
A
100
AcDbEntity
  8
TOP
  6
CONTINUOUS
 62
     3
100
AcDbLine
 10
7.585949023564761
 20
-67.69150495529324
 30
0.0
 11
7.585949023564761
 21
-67.68666903178047
 31
0.0
  0
LINE
  5
7E
330
A
100
AcDbEntity
  8
TOP
  6
CONTINUOUS
 62
     3
100
AcDbLine
 10
2.145948330561317
 20
-34.14571285247886
 30
0.0
 11
2.145948330561317
 21
-34.05345280965252
 31
0.0
  0
LINE
  5
7F
330
A
100
AcDbEntity
  8
TOP
  6
CONTINUOUS
 62
     3
100
AcDbLine
 10
2.145948330561317
 20
-35.3307167689014
 30
0.0
 11
2.145948330561317
 21
-34.14571285247886
 31
0.0
  0
LINE
  5
80
330
A
100
AcDbEntity
  8
TOP
  6
CONTINUOUS
 62
     3
100
AcDbLine
 10
7.585949023564761
 20
-12.96790440877319
 30
0.0
 11
7.585949023564761
 21
-12.91930675506632
 31
0.0
  0
LINE
  5
81
330
A
100
AcDbEntity
  8
TOP
  6
CONTINUOUS
 62
     3
100
AcDbLine
 10
5.585950930913355
 20
5.932092666625944
 30
0.0
 11
5.585950930913355
 21
5.980690320332814
 31
0.0
  0
LINE
  5
82
330
A
100
AcDbEntity
  8
TOP
  6
CONTINUOUS
 62
     3
100
AcDbLine
 10
2.272949934005737
 20
-3.83071104685488
 30
0.0
 11
2.272949934005737
 21
-2.645715077718301
 31
0.0
  0
LINE
  5
83
330
A
100
AcDbEntity
  8
TOP
  6
CONTINUOUS
 62
     3
100
AcDbLine
 10
2.209451119105019
 20
-15.15345573425338
 30
0.0
 11
2.209451119105019
 21
-14.93071715037072
 31
0.0
  0
LINE
  5
84
330
A
100
AcDbEntity
  8
TOP
  6
CONTINUOUS
 62
     3
100
AcDbLine
 10
25.73201313676539
 20
-15.24570782979374
 30
0.0
 11
25.00401790005069
 21
-15.24570782979374
 31
0.0
  0
LINE
  5
85
330
A
100
AcDbEntity
  8
TOP
  6
CONTINUOUS
 62
     3
100
AcDbLine
 10
25.00401790005069
 20
-29.66070969899569
 30
0.0
 11
25.00401790005069
 21
-33.5157076517749
 31
0.0
  0
LINE
  5
86
330
A
100
AcDbEntity
  8
TOP
  6
CONTINUOUS
 62
     3
100
AcDbLine
 10
24.87701232296329
 20
-2.6457150777183
 30
0.0
 11
24.9142135685891
 21
-2.6457150777183
 31
0.0
  0
LINE
  5
87
330
A
100
AcDbEntity
  8
TOP
  6
CONTINUOUS
 62
     3
100
AcDbLine
 10
5.335949182510437
 20
-43.71251265208028
 30
0.0
 11
5.335949182510437
 21
-43.73311201731466
 31
0.0
  0
LINE
  5
88
330
A
100
AcDbEntity
  8
TOP
  6
CONTINUOUS
 62
     3
100
AcDbLine
 10
5.585950930913355
 20
-44.41930452982687
 30
0.0
 11
5.585950930913355
 21
-43.95712216695252
 31
0.0
  0
LINE
  5
89
330
A
100
AcDbEntity
  8
TOP
  6
CONTINUOUS
 62
     3
100
AcDbLine
 10
2.145948330561317
 20
-23.04571469624898
 30
0.0
 11
2.145948330561317
 21
-22.82297611236632
 31
0.0
  0
LINE
  5
8A
330
A
100
AcDbEntity
  8
TOP
  6
CONTINUOUS
 62
     3
100
AcDbLine
 10
10.71245106061316
 20
-40.13071060180759
 30
0.0
 11
10.71245106061316
 21
-40.35344918569024
 31
0.0
  0
LINE
  5
8B
330
A
100
AcDbEntity
  8
TOP
  6
CONTINUOUS
 62
     3
100
AcDbLine
 10
2.145948330561317
 20
-48.24571609497181
 30
0.0
 11
2.145948330561317
 21
-48.02297751108916
 31
0.0
  0
LINE
  5
8C
330
A
100
AcDbEntity
  8
TOP
  6
CONTINUOUS
 62
     3
100
AcDbLine
 10
7.585949023564761
 20
-50.20852088928338
 30
0.0
 11
7.585949023564761
 21
-50.25711854299024
 31
0.0
  0
LINE
  5
8D
330
A
100
AcDbEntity
  8
TOP
  6
CONTINUOUS
 62
     3
100
AcDbLine
 10
24.9142135685891
 20
-29.66070969899569
 30
0.0
 11
25.00401790005069
 21
-29.66070969899569
 31
0.0
  0
LINE
  5
8E
330
A
100
AcDbEntity
  8
TOP
  6
CONTINUOUS
 62
     3
100
AcDbLine
 10
7.585949023564761
 20
-67.67290433248034
 30
0.0
 11
7.585949023564761
 21
-67.53870248794704
 31
0.0
  0
LINE
  5
8F
330
A
100
AcDbEntity
  8
TOP
  6
CONTINUOUS
 62
     3
100
AcDbLine
 10
25.00401790005069
 20
-41.63071314493913
 30
0.0
 11
25.73201313676539
 21
-41.63071314493913
 31
0.0
  0
LINE
  5
90
330
A
100
AcDbEntity
  8
TOP
  6
CONTINUOUS
 62
     3
100
AcDbLine
 10
5.335949182510437
 20
-18.488216400147
 30
0.0
 11
5.585950930913355
 21
-18.488216400147
 31
0.0
  0
LINE
  5
91
330
A
100
AcDbEntity
  8
TOP
  6
CONTINUOUS
 62
     3
100
AcDbLine
 10
10.77594987551388
 20
-67.62800614039253
 30
0.0
 11
10.71245106061316
 21
-67.62800614039253
 31
0.0
  0
LINE
  5
92
330
A
100
AcDbEntity
  8
TOP
  6
CONTINUOUS
 62
     3
100
AcDbLine
 10
10.64894827206946
 20
-4.460716247558832
 30
0.0
 11
10.64894827206946
 21
-8.315714200338042
 31
0.0
  0
LINE
  5
93
330
A
100
AcDbEntity
  8
TOP
  6
CONTINUOUS
 62
     3
100
AcDbLine
 10
10.73875260353105
 20
-10.76071262359655
 30
0.0
 11
10.77594987551388
 21
-10.76071262359655
 31
0.0
  0
LINE
  5
94
330
A
100
AcDbEntity
  8
TOP
  6
CONTINUOUS
 62
     3
100
AcDbLine
 10
5.335949182510437
 20
-44.41930452982687
 30
0.0
 11
5.335949182510437
 21
-43.95712216695252
 31
0.0
  0
LINE
  5
95
330
A
100
AcDbEntity
  8
TOP
  6
CONTINUOUS
 62
     3
100
AcDbLine
 10
2.145948330561317
 20
1.83928807576486
 30
0.0
 11
2.183145602544147
 21
1.83928807576486
 31
0.0
  0
LINE
  5
96
330
A
100
AcDbEntity
  8
TOP
  6
CONTINUOUS
 62
     3
100
AcDbLine
 10
5.335949182510437
 20
-43.90852451324565
 30
0.0
 11
5.335949182510437
 21
-43.95712216695252
 31
0.0
  0
LINE
  5
97
330
A
100
AcDbEntity
  8
TOP
  6
CONTINUOUS
 62
     3
100
AcDbLine
 10
2.145948330561317
 20
2.154286702473851
 30
0.0
 11
2.145948330561317
 21
2.377025286356505
 31
0.0
  0
LINE
  5
98
330
A
100
AcDbEntity
  8
TOP
  6
CONTINUOUS
 62
     3
100
AcDbLine
 10
5.585950930913355
 20
-43.90852451324565
 30
0.0
 11
5.585950930913355
 21
-43.95712216695252
 31
0.0
  0
LINE
  5
99
330
A
100
AcDbEntity
  8
TOP
  6
CONTINUOUS
 62
     3
100
AcDbLine
 10
25.00401790005069
 20
-47.93070952097685
 30
0.0
 11
24.9142135685891
 21
-47.93070952097685
 31
0.0
  0
LINE
  5
9A
330
A
100
AcDbEntity
  8
TOP
  6
CONTINUOUS
 62
     3
100
AcDbLine
 10
2.145948330561317
 20
-21.00797494252579
 30
0.0
 11
2.145948330561317
 21
-20.91571489969946
 31
0.0
  0
LINE
  5
9B
330
A
100
AcDbEntity
  8
TOP
  6
CONTINUOUS
 62
     3
100
AcDbLine
 10
5.335949182510437
 20
-5.933117866516381
 30
0.0
 11
5.335949182510437
 21
-6.067315737406683
 31
0.0
  0
LINE
  5
9C
330
A
100
AcDbEntity
  8
TOP
  6
CONTINUOUS
 62
     3
100
AcDbLine
 10
2.272949934005737
 20
-3.83071104685488
 30
0.0
 11
2.183145602544147
 21
-3.83071104685488
 31
0.0
  0
LINE
  5
9D
330
A
100
AcDbEntity
  8
TOP
  6
CONTINUOUS
 62
     3
100
AcDbLine
 10
10.77594987551388
 20
1.931548118591197
 30
0.0
 11
10.77594987551388
 21
1.83928807576486
 31
0.0
  0
LINE
  5
9E
330
A
100
AcDbEntity
  8
TOP
  6
CONTINUOUS
 62
     3
100
AcDbLine
 10
5.335949182510437
 20
6.711784998575829
 30
0.0
 11
5.335949182510437
 21
6.687482198079409
 31
0.0
  0
LINE
  5
9F
330
A
100
AcDbEntity
  8
TOP
  6
CONTINUOUS
 62
     3
100
AcDbLine
 10
10.73875260353105
 20
-48.5607147216808
 30
0.0
 11
10.77594987551388
 21
-48.5607147216808
 31
0.0
  0
LINE
  5
A0
330
A
100
AcDbEntity
  8
TOP
  6
CONTINUOUS
 62
     3
100
AcDbLine
 10
10.08945139249181
 20
-21.45420710245825
 30
0.0
 11
10.08945139249181
 21
-21.23071352640845
 31
0.0
  0
LINE
  5
A1
330
A
100
AcDbEntity
  8
TOP
  6
CONTINUOUS
 62
     3
100
AcDbLine
 10
2.272949934005737
 20
-29.03071244557771
 30
0.0
 11
2.183145602544147
 21
-29.03071244557771
 31
0.0
  0
LINE
  5
A2
330
A
100
AcDbEntity
  8
TOP
  6
CONTINUOUS
 62
     3
100
AcDbLine
 10
2.145948330561317
 20
-35.86845397949305
 30
0.0
 11
2.145948330561317
 21
-35.64571539561039
 31
0.0
  0
LINE
  5
A3
330
A
100
AcDbEntity
  8
TOP
  6
CONTINUOUS
 62
     3
100
AcDbLine
 10
10.73875260353105
 20
-46.11571629842229
 30
0.0
 11
10.64894827206946
 21
-46.11571629842229
 31
0.0
  0
LINE
  5
A4
330
A
100
AcDbEntity
  8
TOP
  6
CONTINUOUS
 62
     3
100
AcDbLine
 10
2.145948330561317
 20
-2.107977867126656
 30
0.0
 11
2.145948330561317
 21
-2.015717824300319
 31
0.0
  0
LINE
  5
A5
330
A
100
AcDbEntity
  8
TOP
  6
CONTINUOUS
 62
     3
100
AcDbLine
 10
7.335951248804828
 20
-0.3193060557049088
 30
0.0
 11
7.335951248804828
 21
0.1428763071694493
 31
0.0
  0
LINE
  5
A6
330
A
100
AcDbEntity
  8
TOP
  6
CONTINUOUS
 62
     3
100
AcDbLine
 10
2.145948330561317
 20
-3.83071104685488
 30
0.0
 11
2.145948330561317
 21
-2.645715077718301
 31
0.0
  0
LINE
  5
A7
330
A
100
AcDbEntity
  8
TOP
  6
CONTINUOUS
 62
     3
100
AcDbLine
 10
5.585950930913355
 20
-5.912518501282005
 30
0.0
 11
5.585950930913355
 21
-5.933117866516381
 31
0.0
  0
LINE
  5
A8
330
A
100
AcDbEntity
  8
TOP
  6
CONTINUOUS
 62
     3
100
AcDbLine
 10
2.145948330561317
 20
-14.61571057637576
 30
0.0
 11
2.145948330561317
 21
-10.76071262359655
 31
0.0
  0
LINE
  5
A9
330
A
100
AcDbEntity
  8
TOP
  6
CONTINUOUS
 62
     3
100
AcDbLine
 10
24.87701232296329
 20
-29.66070969899569
 30
0.0
 11
24.87701232296329
 21
-33.5157076517749
 31
0.0
  0
LINE
  5
AA
330
A
100
AcDbEntity
  8
TOP
  6
CONTINUOUS
 62
     3
100
AcDbLine
 10
2.272949934005737
 20
-20.91571489969946
 30
0.0
 11
3.765950918197661
 21
-20.91571489969946
 31
0.0
  0
LINE
  5
AB
330
A
100
AcDbEntity
  8
TOP
  6
CONTINUOUS
 62
     3
100
AcDbLine
 10
5.585950930913355
 20
-67.67290433248034
 30
0.0
 11
5.585950930913355
 21
-67.53870248794704
 31
0.0
  0
LINE
  5
AC
330
A
100
AcDbEntity
  8
TOP
  6
CONTINUOUS
 62
     3
100
AcDbLine
 10
10.71245106061316
 20
-42.16845035553077
 30
0.0
 11
10.71245106061316
 21
-42.26071039835711
 31
0.0
  0
LINE
  5
AD
330
A
100
AcDbEntity
  8
TOP
  6
CONTINUOUS
 62
     3
100
AcDbLine
 10
2.145948330561317
 20
-51.80821418762325
 30
0.0
 11
2.145948330561317
 21
-48.5607147216808
 31
0.0
  0
LINE
  5
AE
330
A
100
AcDbEntity
  8
TOP
  6
CONTINUOUS
 62
     3
100
AcDbLine
 10
10.73875260353105
 20
-23.36071332295797
 30
0.0
 11
10.77594987551388
 21
-23.36071332295797
 31
0.0
  0
LINE
  5
AF
330
A
100
AcDbEntity
  8
TOP
  6
CONTINUOUS
 62
     3
100
AcDbLine
 10
7.335951248804828
 20
-50.16732215881463
 30
0.0
 11
7.335951248804828
 21
-50.20852088928338
 31
0.0
  0
LINE
  5
B0
330
A
100
AcDbEntity
  8
TOP
  6
CONTINUOUS
 62
     3
100
AcDbLine
 10
10.77594987551388
 20
-27.21571127573718
 30
0.0
 11
10.73875260353105
 21
-27.21571127573718
 31
0.0
  0
LINE
  5
B1
330
A
100
AcDbEntity
  8
TOP
  6
CONTINUOUS
 62
     3
100
AcDbLine
 10
10.71245106061316
 20
-67.62800614039253
 30
0.0
 11
10.71245106061316
 21
-64.45200443267966
 31
0.0
  0
LINE
  5
B2
330
A
100
AcDbEntity
  8
TOP
  6
CONTINUOUS
 62
     3
100
AcDbLine
 10
7.335951248804828
 20
-25.76391696929997
 30
0.0
 11
7.335951248804828
 21
-25.74330965677963
 31
0.0
  0
LINE
  5
B3
330
A
100
AcDbEntity
  8
TOP
  6
CONTINUOUS
 62
     3
100
AcDbLine
 10
7.335951248804828
 20
-13.18821112314901
 30
0.0
 11
7.585949023564761
 21
-13.18821112314901
 31
0.0
  0
LINE
  5
B4
330
A
100
AcDbEntity
  8
TOP
  6
CONTINUOUS
 62
     3
100
AcDbLine
 10
10.64894827206946
 20
-67.75500377019397
 30
0.0
 11
2.272949934005737
 21
-67.75500377019397
 31
0.0
  0
LINE
  5
B5
330
A
100
AcDbEntity
  8
TOP
  6
CONTINUOUS
 62
     3
100
AcDbLine
 10
2.209451119105019
 20
2.377025286356505
 30
0.0
 11
2.209451119105019
 21
2.469285329182842
 31
0.0
  0
LINE
  5
B6
330
A
100
AcDbEntity
  8
TOP
  6
CONTINUOUS
 62
     3
100
AcDbLine
 10
2.183145602544147
 20
-8.315714200338042
 30
0.0
 11
2.145948330561317
 21
-8.315714200338042
 31
0.0
  0
LINE
  5
B7
330
A
100
AcDbEntity
  8
TOP
  6
CONTINUOUS
 62
     3
100
AcDbLine
 10
2.209451119105019
 20
-33.83071422576986
 30
0.0
 11
2.209451119105019
 21
-33.60797564188721
 31
0.0
  0
LINE
  5
B8
330
A
100
AcDbEntity
  8
TOP
  6
CONTINUOUS
 62
     3
100
AcDbLine
 10
7.335951248804828
 20
-37.43311564127693
 30
0.0
 11
7.335951248804828
 21
-37.56732145945321
 31
0.0
  0
LINE
  5
B9
330
A
100
AcDbEntity
  8
TOP
  6
CONTINUOUS
 62
     3
100
AcDbLine
 10
24.87701232296329
 20
-46.74571355184027
 30
0.0
 11
24.9142135685891
 21
-46.74571355184027
 31
0.0
  0
LINE
  5
BA
330
A
100
AcDbEntity
  8
TOP
  6
CONTINUOUS
 62
     3
100
AcDbLine
 10
3.955950657526685
 20
-22.54071235656798
 30
0.0
 11
3.955950657526685
 21
-21.73571586608944
 31
0.0
  0
LINE
  5
BB
330
A
100
AcDbEntity
  8
TOP
  6
CONTINUOUS
 62
     3
100
AcDbLine
 10
5.335949182510437
 20
-5.912518501282005
 30
0.0
 11
5.335949182510437
 21
-5.933117866516381
 31
0.0
  0
LINE
  5
BC
330
A
100
AcDbEntity
  8
TOP
  6
CONTINUOUS
 62
     3
100
AcDbLine
 10
3.955950657526685
 20
-45.92571258545028
 30
0.0
 11
3.955950657526685
 21
-42.45071411132911
 31
0.0
  0
LINE
  5
BD
330
A
100
AcDbEntity
  8
TOP
  6
CONTINUOUS
 62
     3
100
AcDbLine
 10
25.00401790005069
 20
-35.33070882161544
 30
0.0
 11
24.9142135685891
 21
-35.33070882161544
 31
0.0
  0
LINE
  5
BE
330
A
100
AcDbEntity
  8
TOP
  6
CONTINUOUS
 62
     3
100
AcDbLine
 10
10.77594987551388
 20
2.469285329182842
 30
0.0
 11
10.77594987551388
 21
2.377025286356505
 31
0.0
  0
LINE
  5
BF
330
A
100
AcDbEntity
  8
TOP
  6
CONTINUOUS
 62
     3
100
AcDbLine
 10
10.77594987551388
 20
-2.553455034891964
 30
0.0
 11
10.77594987551388
 21
-2.645715077718301
 31
0.0
  0
LINE
  5
C0
330
A
100
AcDbEntity
  8
TOP
  6
CONTINUOUS
 62
     3
100
AcDbLine
 10
10.77594987551388
 20
-51.80821418762325
 30
0.0
 11
10.73875260353105
 21
-51.80821418762325
 31
0.0
  0
LINE
  5
C1
330
A
100
AcDbEntity
  8
TOP
  6
CONTINUOUS
 62
     3
100
AcDbLine
 10
3.955950657526685
 20
-41.44071737925308
 30
0.0
 11
3.955950657526685
 21
-40.63571294148859
 31
0.0
  0
LINE
  5
C2
330
A
100
AcDbEntity
  8
TOP
  6
CONTINUOUS
 62
     3
100
AcDbLine
 10
5.335949182510437
 20
6.532677014668762
 30
0.0
 11
5.585950930913355
 21
6.532677014668762
 31
0.0
  0
LINE
  5
C3
330
A
100
AcDbEntity
  8
TOP
  6
CONTINUOUS
 62
     3
100
AcDbLine
 10
2.145948330561317
 20
-27.84571647644113
 30
0.0
 11
2.183145602544147
 21
-27.84571647644113
 31
0.0
  0
LINE
  5
C4
330
A
100
AcDbEntity
  8
TOP
  6
CONTINUOUS
 62
     3
100
AcDbLine
 10
2.145948330561317
 20
-40.13071060180759
 30
0.0
 11
2.145948330561317
 21
-39.90797201792493
 31
0.0
  0
LINE
  5
C5
330
A
100
AcDbEntity
  8
TOP
  6
CONTINUOUS
 62
     3
100
AcDbLine
 10
2.145948330561317
 20
-27.53071784973214
 30
0.0
 11
2.145948330561317
 21
-27.30797926584949
 31
0.0
  0
LINE
  5
C6
330
A
100
AcDbEntity
  8
TOP
  6
CONTINUOUS
 62
     3
100
AcDbLine
 10
10.71245106061316
 20
-8.315714200338042
 30
0.0
 11
10.71245106061316
 21
-8.40797424316438
 31
0.0
  0
LINE
  5
C7
330
A
100
AcDbEntity
  8
TOP
  6
CONTINUOUS
 62
     3
100
AcDbLine
 10
10.71245106061316
 20
-4.145717620849842
 30
0.0
 11
10.71245106061316
 21
-4.368456204732495
 31
0.0
  0
LINE
  5
C8
330
A
100
AcDbEntity
  8
TOP
  6
CONTINUOUS
 62
     3
100
AcDbLine
 10
10.77594987551388
 20
-39.8157119750986
 30
0.0
 11
10.77594987551388
 21
-39.90797201792493
 31
0.0
  0
LINE
  5
C9
330
A
100
AcDbEntity
  8
TOP
  6
CONTINUOUS
 62
     3
100
AcDbLine
 10
7.335951248804828
 20
-0.3679037094117783
 30
0.0
 11
7.335951248804828
 21
-0.3193060557049088
 31
0.0
  0
LINE
  5
CA
330
A
100
AcDbEntity
  8
TOP
  6
CONTINUOUS
 62
     3
100
AcDbLine
 10
2.272949934005737
 20
-10.13071537017857
 30
0.0
 11
3.765950918197661
 21
-10.13071537017857
 31
0.0
  0
LINE
  5
CB
330
A
100
AcDbEntity
  8
TOP
  6
CONTINUOUS
 62
     3
100
AcDbLine
 10
9.155951261520522
 20
-21.54571215311744
 30
0.0
 11
10.64894827206946
 21
-21.54571215311744
 31
0.0
  0
LINE
  5
CC
330
A
100
AcDbEntity
  8
TOP
  6
CONTINUOUS
 62
     3
100
AcDbLine
 10
25.00401790005069
 20
-47.93070952097685
 30
0.0
 11
25.73201313676539
 21
-47.93070952097685
 31
0.0
  0
LINE
  5
CD
330
A
100
AcDbEntity
  8
TOP
  6
CONTINUOUS
 62
     3
100
AcDbLine
 10
2.145948330561317
 20
-23.36071332295797
 30
0.0
 11
2.145948330561317
 21
-23.26845328013163
 31
0.0
  0
LINE
  5
CE
330
A
100
AcDbEntity
  8
TOP
  6
CONTINUOUS
 62
     3
100
AcDbLine
 10
25.00401790005069
 20
-27.84570852915516
 30
0.0
 11
25.00401790005069
 21
-29.03071244557771
 31
0.0
  0
LINE
  5
CF
330
A
100
AcDbEntity
  8
TOP
  6
CONTINUOUS
 62
     3
100
AcDbLine
 10
24.87701232296329
 20
1.839288075764861
 30
0.0
 11
24.9142135685891
 21
1.839288075764861
 31
0.0
  0
LINE
  5
D0
330
A
100
AcDbEntity
  8
TOP
  6
CONTINUOUS
 62
     3
100
AcDbLine
 10
5.335949182510437
 20
-18.488216400147
 30
0.0
 11
5.335949182510437
 21
-18.51251125335745
 31
0.0
  0
LINE
  5
D1
330
A
100
AcDbEntity
  8
TOP
  6
CONTINUOUS
 62
     3
100
AcDbLine
 10
2.272949934005737
 20
-20.91571489969946
 30
0.0
 11
2.183145602544147
 21
-20.91571489969946
 31
0.0
  0
LINE
  5
D2
330
A
100
AcDbEntity
  8
TOP
  6
CONTINUOUS
 62
     3
100
AcDbLine
 10
5.335949182510437
 20
-67.53870248794704
 30
0.0
 11
5.335949182510437
 21
-67.51117308934678
 31
0.0
  0
LINE
  5
D3
330
A
100
AcDbEntity
  8
TOP
  6
CONTINUOUS
 62
     3
100
AcDbLine
 10
2.145948330561317
 20
3.969287872314382
 30
0.0
 11
2.145948330561317
 21
4.192026456197036
 31
0.0
  0
LINE
  5
D4
330
A
100
AcDbEntity
  8
TOP
  6
CONTINUOUS
 62
     3
100
AcDbLine
 10
5.585950930913355
 20
-67.68666903178047
 30
0.0
 11
5.585950930913355
 21
-67.67290433248034
 31
0.0
  0
LINE
  5
D5
330
A
100
AcDbEntity
  8
TOP
  6
CONTINUOUS
 62
     3
100
AcDbLine
 10
10.71245106061316
 20
-41.63071314493913
 30
0.0
 11
10.71245106061316
 21
-41.72297318776546
 31
0.0
  0
LINE
  5
D6
330
A
100
AcDbEntity
  8
TOP
  6
CONTINUOUS
 62
     3
100
AcDbLine
 10
2.145948330561317
 20
-21.4534521102911
 30
0.0
 11
2.145948330561317
 21
-21.23071352640845
 31
0.0
  0
LINE
  5
D7
330
A
100
AcDbEntity
  8
TOP
  6
CONTINUOUS
 62
     3
100
AcDbLine
 10
7.335951248804828
 20
-50.76790650685744
 30
0.0
 11
7.335951248804828
 21
-50.71930885315057
 31
0.0
  0
LINE
  5
D8
330
A
100
AcDbEntity
  8
TOP
  6
CONTINUOUS
 62
     3
100
AcDbLine
 10
10.73875260353105
 20
-35.96071402231938
 30
0.0
 11
10.77594987551388
 21
-35.96071402231938
 31
0.0
  0
LINE
  5
D9
330
A
100
AcDbEntity
  8
TOP
  6
CONTINUOUS
 62
     3
100
AcDbLine
 10
5.585950930913355
 20
-31.26731713612951
 30
0.0
 11
5.585950930913355
 21
-31.30852381388423
 31
0.0
  0
LINE
  5
DA
330
A
100
AcDbEntity
  8
TOP
  6
CONTINUOUS
 62
     3
100
AcDbLine
 10
2.272949934005737
 20
-16.43071174621629
 30
0.0
 11
2.272949934005737
 21
-15.24571577707971
 31
0.0
  0
LINE
  5
DB
330
A
100
AcDbEntity
  8
TOP
  6
CONTINUOUS
 62
     3
100
AcDbLine
 10
7.335951248804828
 20
0.4117886225381071
 30
0.0
 11
7.585949023564761
 21
0.4117886225381071
 31
0.0
  0
LINE
  5
DC
330
A
100
AcDbEntity
  8
TOP
  6
CONTINUOUS
 62
     3
100
AcDbLine
 10
2.145948330561317
 20
-33.51571559906087
 30
0.0
 11
2.145948330561317
 21
-29.66071764628166
 31
0.0
  0
LINE
  5
DD
330
A
100
AcDbEntity
  8
TOP
  6
CONTINUOUS
 62
     3
100
AcDbLine
 10
3.955950657526685
 20
-14.42571481068972
 30
0.0
 11
3.955950657526685
 21
-10.95071633656856
 31
0.0
  0
LINE
  5
DE
330
A
100
AcDbEntity
  8
TOP
  6
CONTINUOUS
 62
     3
100
AcDbLine
 10
2.209451119105019
 20
-46.65345350901393
 30
0.0
 11
2.209451119105019
 21
-46.43071492513128
 31
0.0
  0
LINE
  5
DF
330
A
100
AcDbEntity
  8
TOP
  6
CONTINUOUS
 62
     3
100
AcDbLine
 10
2.183145602544147
 20
-4.460716247558832
 30
0.0
 11
2.272949934005737
 21
-4.460716247558832
 31
0.0
  0
LINE
  5
E0
330
A
100
AcDbEntity
  8
TOP
  6
CONTINUOUS
 62
     3
100
AcDbLine
 10
10.77594987551388
 20
-4.460716247558832
 30
0.0
 11
10.77594987551388
 21
-8.315714200338042
 31
0.0
  0
LINE
  5
E1
330
A
100
AcDbEntity
  8
TOP
  6
CONTINUOUS
 62
     3
100
AcDbLine
 10
2.145948330561317
 20
-48.5607147216808
 30
0.0
 11
2.145948330561317
 21
-48.46845467885446
 31
0.0
  0
LINE
  5
E2
330
A
100
AcDbEntity
  8
TOP
  6
CONTINUOUS
 62
     3
100
AcDbLine
 10
2.209451119105019
 20
-29.12297248840404
 30
0.0
 11
2.209451119105019
 21
-29.03071244557771
 31
0.0
  0
LINE
  5
E3
330
A
100
AcDbEntity
  8
TOP
  6
CONTINUOUS
 62
     3
100
AcDbLine
 10
2.145948330561317
 20
-2.645715077718301
 30
0.0
 11
2.145948330561317
 21
-2.553455034891964
 31
0.0
  0
LINE
  5
E4
330
A
100
AcDbEntity
  8
TOP
  6
CONTINUOUS
 62
     3
100
AcDbLine
 10
25.00401790005069
 20
-46.11570835113631
 30
0.0
 11
24.9142135685891
 21
-46.11570835113631
 31
0.0
  0
LINE
  5
E5
330
A
100
AcDbEntity
  8
TOP
  6
CONTINUOUS
 62
     3
100
AcDbLine
 10
24.9142135685891
 20
-14.61571057637576
 30
0.0
 11
24.87701232296329
 21
-14.61571057637576
 31
0.0
  0
LINE
  5
E6
330
A
100
AcDbEntity
  8
TOP
  6
CONTINUOUS
 62
     3
100
AcDbLine
 10
2.272949934005737
 20
-22.73071606953999
 30
0.0
 11
2.272949934005737
 21
-21.54571215311744
 31
0.0
  0
LINE
  5
E7
330
A
100
AcDbEntity
  8
TOP
  6
CONTINUOUS
 62
     3
100
AcDbLine
 10
5.585950930913355
 20
-5.888215700785585
 30
0.0
 11
5.585950930913355
 21
-5.912518501282005
 31
0.0
  0
LINE
  5
E8
330
A
100
AcDbEntity
  8
TOP
  6
CONTINUOUS
 62
     3
100
AcDbLine
 10
2.183145602544147
 20
-46.11571629842229
 30
0.0
 11
2.145948330561317
 21
-46.11571629842229
 31
0.0
  0
LINE
  5
E9
330
A
100
AcDbEntity
  8
TOP
  6
CONTINUOUS
 62
     3
100
AcDbLine
 10
10.77594987551388
 20
-14.70797856648807
 30
0.0
 11
10.77594987551388
 21
-14.93071715037072
 31
0.0
  0
LINE
  5
EA
330
A
100
AcDbEntity
  8
TOP
  6
CONTINUOUS
 62
     3
100
AcDbLine
 10
3.765950918197661
 20
-64.32500282923523
 30
0.0
 11
3.900299787521394
 21
-64.32500282923523
 31
0.0
  0
LINE
  5
EB
330
A
100
AcDbEntity
  8
TOP
  6
CONTINUOUS
 62
     3
100
AcDbLine
 10
10.77594987551388
 20
4.192026456197036
 30
0.0
 11
10.77594987551388
 21
3.969287872314382
 31
0.0
  0
LINE
  5
EC
330
A
100
AcDbEntity
  8
TOP
  6
CONTINUOUS
 62
     3
100
AcDbLine
 10
5.335949182510437
 20
6.687482198079409
 30
0.0
 11
5.335949182510437
 21
6.666882832845034
 31
0.0
  0
LINE
  5
ED
330
A
100
AcDbEntity
  8
TOP
  6
CONTINUOUS
 62
     3
100
AcDbLine
 10
5.585950930913355
 20
-18.488216400147
 30
0.0
 11
5.585950930913355
 21
-18.51251125335745
 31
0.0
  0
LINE
  5
EE
330
A
100
AcDbEntity
  8
TOP
  6
CONTINUOUS
 62
     3
100
AcDbLine
 10
3.900299787521394
 20
-64.32500282923523
 30
0.0
 11
3.955950657526685
 21
-64.32500282923523
 31
0.0
  0
LINE
  5
EF
330
A
100
AcDbEntity
  8
TOP
  6
CONTINUOUS
 62
     3
100
AcDbLine
 10
2.183145602544147
 20
-41.63071314493913
 30
0.0
 11
2.145948330561317
 21
-41.63071314493913
 31
0.0
  0
LINE
  5
F0
330
A
100
AcDbEntity
  8
TOP
  6
CONTINUOUS
 62
     3
100
AcDbLine
 10
7.335951248804828
 20
-25.56790510813461
 30
0.0
 11
7.335951248804828
 21
-25.51930745442774
 31
0.0
  0
LINE
  5
F1
330
A
100
AcDbEntity
  8
TOP
  6
CONTINUOUS
 62
     3
100
AcDbLine
 10
5.585950930913355
 20
-19.21930313110404
 30
0.0
 11
5.585950930913355
 21
-18.75712076822969
 31
0.0
  0
LINE
  5
F2
330
A
100
AcDbEntity
  8
TOP
  6
CONTINUOUS
 62
     3
100
AcDbLine
 10
2.145948330561317
 20
-41.72297318776546
 30
0.0
 11
2.145948330561317
 21
-41.63071314493913
 31
0.0
  0
LINE
  5
F3
330
A
100
AcDbEntity
  8
TOP
  6
CONTINUOUS
 62
     3
100
AcDbLine
 10
10.71245106061316
 20
-8.853451410929688
 30
0.0
 11
10.71245106061316
 21
-8.945711453756024
 31
0.0
  0
LINE
  5
F4
330
A
100
AcDbEntity
  8
TOP
  6
CONTINUOUS
 62
     3
100
AcDbLine
 10
10.77594987551388
 20
-35.42297681172774
 30
0.0
 11
10.77594987551388
 21
-35.64571539561039
 31
0.0
  0
LINE
  5
F5
330
A
100
AcDbEntity
  8
TOP
  6
CONTINUOUS
 62
     3
100
AcDbLine
 10
2.272949934005737
 20
-10.13071537017857
 30
0.0
 11
2.183145602544147
 21
-10.13071537017857
 31
0.0
  0
LINE
  5
F6
330
A
100
AcDbEntity
  8
TOP
  6
CONTINUOUS
 62
     3
100
AcDbLine
 10
9.155951261520522
 20
1.83928807576486
 30
0.0
 11
10.64894827206946
 21
1.83928807576486
 31
0.0
  0
LINE
  5
F7
330
A
100
AcDbEntity
  8
TOP
  6
CONTINUOUS
 62
     3
100
AcDbLine
 10
10.73875260353105
 20
4.284286499023372
 30
0.0
 11
10.64894827206946
 21
4.284286499023372
 31
0.0
  0
LINE
  5
F8
330
A
100
AcDbEntity
  8
TOP
  6
CONTINUOUS
 62
     3
100
AcDbLine
 10
25.73201313676539
 20
-4.460708300272861
 30
0.0
 11
25.00401790005069
 21
-4.460708300272861
 31
0.0
  0
LINE
  5
F9
330
A
100
AcDbEntity
  8
TOP
  6
CONTINUOUS
 62
     3
100
AcDbLine
 10
24.87701232296329
 20
-27.84570852915516
 30
0.0
 11
24.87701232296329
 21
-29.03071244557771
 31
0.0
  0
LINE
  5
FA
330
A
100
AcDbEntity
  8
TOP
  6
CONTINUOUS
 62
     3
100
AcDbLine
 10
25.00401790005069
 20
2.469285329182842
 30
0.0
 11
24.9142135685891
 21
2.469285329182842
 31
0.0
  0
LINE
  5
FB
330
A
100
AcDbEntity
  8
TOP
  6
CONTINUOUS
 62
     3
100
AcDbLine
 10
25.00401790005069
 20
-27.21571127573718
 30
0.0
 11
25.73201313676539
 21
-27.21571127573718
 31
0.0
  0
LINE
  5
FC
330
A
100
AcDbEntity
  8
TOP
  6
CONTINUOUS
 62
     3
100
AcDbLine
 10
7.335951248804828
 20
-12.36732006073037
 30
0.0
 11
7.585949023564761
 21
-12.36732006073037
 31
0.0
  0
LINE
  5
FD
330
A
100
AcDbEntity
  8
TOP
  6
CONTINUOUS
 62
     3
100
AcDbLine
 10
10.71245106061316
 20
-46.20797634124862
 30
0.0
 11
10.71245106061316
 21
-46.43071492513128
 31
0.0
  0
LINE
  5
FE
330
A
100
AcDbEntity
  8
TOP
  6
CONTINUOUS
 62
     3
100
AcDbLine
 10
2.209451119105019
 20
1.83928807576486
 30
0.0
 11
2.209451119105019
 21
1.931548118591197
 31
0.0
  0
LINE
  5
FF
330
A
100
AcDbEntity
  8
TOP
  6
CONTINUOUS
 62
     3
100
AcDbLine
 10
7.585949023564761
 20
-50.80910523732619
 30
0.0
 11
7.585949023564761
 21
-50.76790650685744
 31
0.0
  0
LINE
  5
100
330
A
100
AcDbEntity
  8
TOP
  6
CONTINUOUS
 62
     3
100
AcDbLine
 10
5.335949182510437
 20
-31.81930383046546
 30
0.0
 11
5.335949182510437
 21
-31.3571214675911
 31
0.0
  0
LINE
  5
101
330
A
100
AcDbEntity
  8
TOP
  6
CONTINUOUS
 62
     3
100
AcDbLine
 10
5.335949182510437
 20
5.711785952250126
 30
0.0
 11
5.585950930913355
 21
5.711785952250126
 31
0.0
  0
LINE
  5
102
330
A
100
AcDbEntity
  8
TOP
  6
CONTINUOUS
 62
     3
100
AcDbLine
 10
2.272949934005737
 20
-14.61571057637576
 30
0.0
 11
2.272949934005737
 21
-10.76071262359655
 31
0.0
  0
LINE
  5
103
330
A
100
AcDbEntity
  8
TOP
  6
CONTINUOUS
 62
     3
100
AcDbLine
 10
2.209451119105019
 20
-2.330716451009311
 30
0.0
 11
2.209451119105019
 21
-2.107977867126656
 31
0.0
  0
LINE
  5
104
330
A
100
AcDbEntity
  8
TOP
  6
CONTINUOUS
 62
     3
100
AcDbLine
 10
10.73875260353105
 20
2.469285329182842
 30
0.0
 11
10.64894827206946
 21
2.469285329182842
 31
0.0
  0
LINE
  5
105
330
A
100
AcDbEntity
  8
TOP
  6
CONTINUOUS
 62
     3
100
AcDbLine
 10
2.209451119105019
 20
-29.66071764628166
 30
0.0
 11
2.209451119105019
 21
-29.56844965616935
 31
0.0
  0
LINE
  5
106
330
A
100
AcDbEntity
  8
TOP
  6
CONTINUOUS
 62
     3
100
AcDbLine
 10
7.585949023564761
 20
-12.91930675506632
 30
0.0
 11
7.335951248804828
 21
-12.91930675506632
 31
0.0
  0
LINE
  5
107
330
A
100
AcDbEntity
  8
TOP
  6
CONTINUOUS
 62
     3
100
AcDbLine
 10
2.145948330561317
 20
-4.368456204732495
 30
0.0
 11
2.145948330561317
 21
-4.145717620849842
 31
0.0
  0
LINE
  5
108
330
A
100
AcDbEntity
  8
TOP
  6
CONTINUOUS
 62
     3
100
AcDbLine
 10
2.209451119105019
 20
2.154286702473851
 30
0.0
 11
2.209451119105019
 21
2.377025286356505
 31
0.0
  0
LINE
  5
109
330
A
100
AcDbEntity
  8
TOP
  6
CONTINUOUS
 62
     3
100
AcDbLine
 10
24.87701232296329
 20
-42.2607103983571
 30
0.0
 11
24.9142135685891
 21
-42.2607103983571
 31
0.0
  0
LINE
  5
10A
330
A
100
AcDbEntity
  8
TOP
  6
CONTINUOUS
 62
     3
100
AcDbLine
 10
2.145948330561317
 20
-22.73071606953999
 30
0.0
 11
2.145948330561317
 21
-21.54571215311744
 31
0.0
  0
LINE
  5
10B
330
A
100
AcDbEntity
  8
TOP
  6
CONTINUOUS
 62
     3
100
AcDbLine
 10
2.183145602544147
 20
-42.26071039835711
 30
0.0
 11
2.272949934005737
 21
-42.26071039835711
 31
0.0
  0
LINE
  5
10C
330
A
100
AcDbEntity
  8
TOP
  6
CONTINUOUS
 62
     3
100
AcDbLine
 10
10.77594987551388
 20
-10.44571399688756
 30
0.0
 11
10.77594987551388
 21
-10.66845258077022
 31
0.0
  0
LINE
  5
10D
330
A
100
AcDbEntity
  8
TOP
  6
CONTINUOUS
 62
     3
100
AcDbLine
 10
7.585949023564761
 20
-25.74330965677963
 30
0.0
 11
7.335951248804828
 21
-25.74330965677963
 31
0.0
  0
LINE
  5
10E
330
A
100
AcDbEntity
  8
TOP
  6
CONTINUOUS
 62
     3
100
AcDbLine
 10
5.335949182510437
 20
-43.68821779886983
 30
0.0
 11
5.585950930913355
 21
-43.68821779886983
 31
0.0
  0
LINE
  5
10F
330
A
100
AcDbEntity
  8
TOP
  6
CONTINUOUS
 62
     3
100
AcDbLine
 10
7.335951248804828
 20
-49.98821417490756
 30
0.0
 11
7.585949023564761
 21
-49.98821417490756
 31
0.0
  0
LINE
  5
110
330
A
100
AcDbEntity
  8
TOP
  6
CONTINUOUS
 62
     3
100
AcDbLine
 10
5.585950930913355
 20
6.711784998575829
 30
0.0
 11
5.585950930913355
 21
6.687482198079409
 31
0.0
  0
LINE
  5
111
330
A
100
AcDbEntity
  8
TOP
  6
CONTINUOUS
 62
     3
100
AcDbLine
 10
3.955950657526685
 20
-51.61821444829422
 30
0.0
 11
3.955950657526685
 21
-48.75071048736685
 31
0.0
  0
LINE
  5
112
330
A
100
AcDbEntity
  8
TOP
  6
CONTINUOUS
 62
     3
100
AcDbLine
 10
7.335951248804828
 20
-25.00851949056054
 30
0.0
 11
7.335951248804828
 21
-25.05712509155338
 31
0.0
  0
LINE
  5
113
330
A
100
AcDbEntity
  8
TOP
  6
CONTINUOUS
 62
     3
100
AcDbLine
 10
5.335949182510437
 20
-19.44331328074191
 30
0.0
 11
5.335949182510437
 21
-19.30910746256564
 31
0.0
  0
LINE
  5
114
330
A
100
AcDbEntity
  8
TOP
  6
CONTINUOUS
 62
     3
100
AcDbLine
 10
5.335949182510437
 20
-31.08821709950841
 30
0.0
 11
5.335949182510437
 21
-31.11251195271886
 31
0.0
  0
LINE
  5
115
330
A
100
AcDbEntity
  8
TOP
  6
CONTINUOUS
 62
     3
100
AcDbLine
 10
9.021598418553804
 20
-64.32500282923523
 30
0.0
 11
9.155951261520522
 21
-64.32500282923523
 31
0.0
  0
LINE
  5
116
330
A
100
AcDbEntity
  8
TOP
  6
CONTINUOUS
 62
     3
100
AcDbLine
 10
10.77594987551388
 20
-33.83071422576986
 30
0.0
 11
10.77594987551388
 21
-34.05345280965252
 31
0.0
  0
LINE
  5
117
330
A
100
AcDbEntity
  8
TOP
  6
CONTINUOUS
 62
     3
100
AcDbLine
 10
2.145948330561317
 20
-8.945711453756024
 30
0.0
 11
2.183145602544147
 21
-8.945711453756024
 31
0.0
  0
LINE
  5
118
330
A
100
AcDbEntity
  8
TOP
  6
CONTINUOUS
 62
     3
100
AcDbLine
 10
2.145948330561317
 20
-46.74571355184027
 30
0.0
 11
2.183145602544147
 21
-46.74571355184027
 31
0.0
  0
LINE
  5
119
330
A
100
AcDbEntity
  8
TOP
  6
CONTINUOUS
 62
     3
100
AcDbLine
 10
8.965951522191499
 20
1.649284362792851
 30
0.0
 11
8.965951522191499
 21
-1.825714111328311
 31
0.0
  0
LINE
  5
11A
330
A
100
AcDbEntity
  8
TOP
  6
CONTINUOUS
 62
     3
100
AcDbLine
 10
2.209451119105019
 20
-4.368456204732495
 30
0.0
 11
2.209451119105019
 21
-4.145717620849842
 31
0.0
  0
LINE
  5
11B
330
A
100
AcDbEntity
  8
TOP
  6
CONTINUOUS
 62
     3
100
AcDbLine
 10
5.335949182510437
 20
-6.863911946614869
 30
0.0
 11
5.335949182510437
 21
-6.843312581380494
 31
0.0
  0
LINE
  5
11C
330
A
100
AcDbEntity
  8
TOP
  6
CONTINUOUS
 62
     3
100
AcDbLine
 10
25.73201313676539
 20
-2.6457150777183
 30
0.0
 11
25.00401790005069
 21
-2.6457150777183
 31
0.0
  0
LINE
  5
11D
330
A
100
AcDbEntity
  8
TOP
  6
CONTINUOUS
 62
     3
100
AcDbLine
 10
25.00401790005069
 20
-23.36071332295797
 30
0.0
 11
25.00401790005069
 21
-27.21571127573718
 31
0.0
  0
LINE
  5
11E
330
A
100
AcDbEntity
  8
TOP
  6
CONTINUOUS
 62
     3
100
AcDbLine
 10
2.209451119105019
 20
-2.553455034891964
 30
0.0
 11
2.209451119105019
 21
-2.330716451009311
 31
0.0
  0
LINE
  5
11F
330
A
100
AcDbEntity
  8
TOP
  6
CONTINUOUS
 62
     3
100
AcDbLine
 10
24.87701232296329
 20
3.654289245605392
 30
0.0
 11
24.9142135685891
 21
3.654289245605392
 31
0.0
  0
LINE
  5
120
330
A
100
AcDbEntity
  8
TOP
  6
CONTINUOUS
 62
     3
100
AcDbLine
 10
10.71245106061316
 20
-48.24571609497181
 30
0.0
 11
10.71245106061316
 21
-48.46845467885446
 31
0.0
  0
LINE
  5
121
330
A
100
AcDbEntity
  8
TOP
  6
CONTINUOUS
 62
     3
100
AcDbLine
 10
10.73875260353105
 20
-47.93071746826282
 30
0.0
 11
10.64894827206946
 21
-47.93071746826282
 31
0.0
  0
LINE
  5
122
330
A
100
AcDbEntity
  8
TOP
  6
CONTINUOUS
 62
     3
100
AcDbLine
 10
7.585949023564761
 20
-50.03311634063835
 30
0.0
 11
7.585949023564761
 21
-50.16732215881463
 31
0.0
  0
LINE
  5
123
330
A
100
AcDbEntity
  8
TOP
  6
CONTINUOUS
 62
     3
100
AcDbLine
 10
28.26981996558217
 20
-51.80821418762325
 30
0.0
 11
28.18001563412058
 21
-51.80821418762325
 31
0.0
  0
LINE
  5
124
330
A
100
AcDbEntity
  8
TOP
  6
CONTINUOUS
 62
     3
100
AcDbLine
 10
5.335949182510437
 20
-31.90910816192705
 30
0.0
 11
5.335949182510437
 21
-31.8679094314583
 31
0.0
  0
LINE
  5
125
330
A
100
AcDbEntity
  8
TOP
  6
CONTINUOUS
 62
     3
100
AcDbLine
 10
5.585950930913355
 20
6.491478284200011
 30
0.0
 11
5.585950930913355
 21
6.442880630493142
 31
0.0
  0
LINE
  5
126
330
A
100
AcDbEntity
  8
TOP
  6
CONTINUOUS
 62
     3
100
AcDbLine
 10
2.209451119105019
 20
-2.107977867126656
 30
0.0
 11
2.209451119105019
 21
-2.015717824300319
 31
0.0
  0
LINE
  5
127
330
A
100
AcDbEntity
  8
TOP
  6
CONTINUOUS
 62
     3
100
AcDbLine
 10
9.155951261520522
 20
-3.83071104685488
 30
0.0
 11
10.64894827206946
 21
-3.83071104685488
 31
0.0
  0
LINE
  5
128
330
A
100
AcDbEntity
  8
TOP
  6
CONTINUOUS
 62
     3
100
AcDbLine
 10
8.965951522191499
 20
-23.55071703592998
 30
0.0
 11
8.965951522191499
 21
-27.02571551005114
 31
0.0
  0
LINE
  5
129
330
A
100
AcDbEntity
  8
TOP
  6
CONTINUOUS
 62
     3
100
AcDbLine
 10
7.585949023564761
 20
0.3668864568073118
 30
0.0
 11
7.585949023564761
 21
0.2326806386310397
 31
0.0
  0
LINE
  5
12A
330
A
100
AcDbEntity
  8
TOP
  6
CONTINUOUS
 62
     3
100
AcDbLine
 10
7.585949023564761
 20
-24.81251557668114
 30
0.0
 11
7.585949023564761
 21
-24.83311494191552
 31
0.0
  0
LINE
  5
12B
330
A
100
AcDbEntity
  8
TOP
  6
CONTINUOUS
 62
     3
100
AcDbLine
 10
25.00401790005069
 20
-33.5157076517749
 30
0.0
 11
25.73201313676539
 21
-33.5157076517749
 31
0.0
  0
LINE
  5
12C
330
A
100
AcDbEntity
  8
TOP
  6
CONTINUOUS
 62
     3
100
AcDbLine
 10
25.00401790005069
 20
-41.63071314493913
 30
0.0
 11
24.9142135685891
 21
-41.63071314493913
 31
0.0
  0
LINE
  5
12D
330
A
100
AcDbEntity
  8
TOP
  6
CONTINUOUS
 62
     3
100
AcDbLine
 10
10.77594987551388
 20
-8.853451410929688
 30
0.0
 11
10.77594987551388
 21
-8.945711453756024
 31
0.0
  0
LINE
  5
12E
330
A
100
AcDbEntity
  8
TOP
  6
CONTINUOUS
 62
     3
100
AcDbLine
 10
10.77594987551388
 20
-16.74571037292528
 30
0.0
 11
10.77594987551388
 21
-16.96844895680794
 31
0.0
  0
LINE
  5
12F
330
A
100
AcDbEntity
  8
TOP
  6
CONTINUOUS
 62
     3
100
AcDbLine
 10
7.335951248804828
 20
0.3668864568073118
 30
0.0
 11
7.335951248804828
 21
0.2326806386310397
 31
0.0
  0
LINE
  5
130
330
A
100
AcDbEntity
  8
TOP
  6
CONTINUOUS
 62
     3
100
AcDbLine
 10
10.71245106061316
 20
-23.04571469624898
 30
0.0
 11
10.71245106061316
 21
-23.26845328013163
 31
0.0
  0
LINE
  5
131
330
A
100
AcDbEntity
  8
TOP
  6
CONTINUOUS
 62
     3
100
AcDbLine
 10
10.77594987551388
 20
-20.91571489969946
 30
0.0
 11
10.77594987551388
 21
-21.00797494252579
 31
0.0
  0
LINE
  5
132
330
A
100
AcDbEntity
  8
TOP
  6
CONTINUOUS
 62
     3
100
AcDbLine
 10
5.335949182510437
 20
5.756688117980921
 30
0.0
 11
5.335949182510437
 21
5.890893936157193
 31
0.0
  0
LINE
  5
133
330
A
100
AcDbEntity
  8
TOP
  6
CONTINUOUS
 62
     3
100
AcDbLine
 10
7.335951248804828
 20
-37.56732145945321
 30
0.0
 11
7.585949023564761
 21
-37.56732145945321
 31
0.0
  0
LINE
  5
134
330
A
100
AcDbEntity
  8
TOP
  6
CONTINUOUS
 62
     3
100
AcDbLine
 10
2.145948330561317
 20
-48.5607147216808
 30
0.0
 11
2.183145602544147
 21
-48.5607147216808
 31
0.0
  0
LINE
  5
135
330
A
100
AcDbEntity
  8
TOP
  6
CONTINUOUS
 62
     3
100
AcDbLine
 10
5.335949182510437
 20
5.980690320332814
 30
0.0
 11
5.335949182510437
 21
6.442880630493142
 31
0.0
  0
LINE
  5
136
330
A
100
AcDbEntity
  8
TOP
  6
CONTINUOUS
 62
     3
100
AcDbLine
 10
2.209451119105019
 20
-48.5607147216808
 30
0.0
 11
2.209451119105019
 21
-48.46845467885446
 31
0.0
  0
LINE
  5
137
330
A
100
AcDbEntity
  8
TOP
  6
CONTINUOUS
 62
     3
100
AcDbLine
 10
7.335951248804828
 20
-12.2331142425541
 30
0.0
 11
7.335951248804828
 21
-12.36732006073037
 31
0.0
  0
LINE
  5
138
330
A
100
AcDbEntity
  8
TOP
  6
CONTINUOUS
 62
     3
100
AcDbLine
 10
5.585950930913355
 20
-18.75712076822969
 30
0.0
 11
5.335949182510437
 21
-18.75712076822969
 31
0.0
  0
LINE
  5
139
330
A
100
AcDbEntity
  8
TOP
  6
CONTINUOUS
 62
     3
100
AcDbLine
 10
10.71245106061316
 20
-10.22297541300491
 30
0.0
 11
10.71245106061316
 21
-10.44571399688756
 31
0.0
  0
LINE
  5
13A
330
A
100
AcDbEntity
  8
TOP
  6
CONTINUOUS
 62
     3
100
AcDbLine
 10
10.77594987551388
 20
-29.56844965616935
 30
0.0
 11
10.77594987551388
 21
-29.66071764628166
 31
0.0
  0
LINE
  5
13B
330
A
100
AcDbEntity
  8
TOP
  6
CONTINUOUS
 62
     3
100
AcDbLine
 10
10.77594987551388
 20
-2.015717824300319
 30
0.0
 11
10.73875260353105
 21
-2.015717824300319
 31
0.0
  0
LINE
  5
13C
330
A
100
AcDbEntity
  8
TOP
  6
CONTINUOUS
 62
     3
100
AcDbLine
 10
7.585949023564761
 20
-13.14331690470418
 30
0.0
 11
7.335951248804828
 21
-13.14331690470418
 31
0.0
  0
LINE
  5
13D
330
A
100
AcDbEntity
  8
TOP
  6
CONTINUOUS
 62
     3
100
AcDbLine
 10
3.955950657526685
 20
4.474282264709412
 30
0.0
 11
3.955950657526685
 21
7.34178225199381
 31
0.0
  0
LINE
  5
13E
330
A
100
AcDbEntity
  8
TOP
  6
CONTINUOUS
 62
     3
100
AcDbLine
 10
5.335949182510437
 20
-32.04331398010332
 30
0.0
 11
5.335949182510437
 21
-31.90910816192705
 31
0.0
  0
LINE
  5
13F
330
A
100
AcDbEntity
  8
TOP
  6
CONTINUOUS
 62
     3
100
AcDbLine
 10
25.73201313676539
 20
1.839288075764861
 30
0.0
 11
25.00401790005069
 21
1.839288075764861
 31
0.0
  0
LINE
  5
140
330
A
100
AcDbEntity
  8
TOP
  6
CONTINUOUS
 62
     3
100
AcDbLine
 10
24.87701232296329
 20
-23.36071332295797
 30
0.0
 11
24.87701232296329
 21
-27.21571127573718
 31
0.0
  0
LINE
  5
141
330
A
100
AcDbEntity
  8
TOP
  6
CONTINUOUS
 62
     3
100
AcDbLine
 10
25.00401790005069
 20
7.53178596496582
 30
0.0
 11
24.9142135685891
 21
7.53178596496582
 31
0.0
  0
LINE
  5
142
330
A
100
AcDbEntity
  8
TOP
  6
CONTINUOUS
 62
     3
100
AcDbLine
 10
7.585949023564761
 20
-25.51930745442774
 30
0.0
 11
7.585949023564761
 21
-25.05712509155338
 31
0.0
  0
LINE
  5
143
330
A
100
AcDbEntity
  8
TOP
  6
CONTINUOUS
 62
     3
100
AcDbLine
 10
2.272949934005737
 20
-15.24571577707971
 30
0.0
 11
3.765950918197661
 21
-15.24571577707971
 31
0.0
  0
LINE
  5
144
330
A
100
AcDbEntity
  8
TOP
  6
CONTINUOUS
 62
     3
100
AcDbLine
 10
10.77594987551388
 20
-48.5607147216808
 30
0.0
 11
10.77594987551388
 21
-51.80821418762325
 31
0.0
  0
LINE
  5
145
330
A
100
AcDbEntity
  8
TOP
  6
CONTINUOUS
 62
     3
100
AcDbLine
 10
7.585949023564761
 20
-24.83311494191552
 30
0.0
 11
7.585949023564761
 21
-24.96732076009179
 31
0.0
  0
LINE
  5
146
330
A
100
AcDbEntity
  8
TOP
  6
CONTINUOUS
 62
     3
100
AcDbLine
 10
10.64894827206946
 20
-46.74571355184027
 30
0.0
 11
10.73875260353105
 21
-46.74571355184027
 31
0.0
  0
LINE
  5
147
330
A
100
AcDbEntity
  8
TOP
  6
CONTINUOUS
 62
     3
100
AcDbLine
 10
7.585949023564761
 20
-50.01251697540397
 30
0.0
 11
7.585949023564761
 21
-50.03311634063835
 31
0.0
  0
LINE
  5
148
330
A
100
AcDbEntity
  8
TOP
  6
CONTINUOUS
 62
     3
100
AcDbLine
 10
5.585950930913355
 20
-6.067315737406683
 30
0.0
 11
5.585950930913355
 21
-6.108522415161404
 31
0.0
  0
LINE
  5
149
330
A
100
AcDbEntity
  8
TOP
  6
CONTINUOUS
 62
     3
100
AcDbLine
 10
5.335949182510437
 20
-31.26731713612951
 30
0.0
 11
5.585950930913355
 21
-31.26731713612951
 31
0.0
  0
LINE
  5
14A
330
A
100
AcDbEntity
  8
TOP
  6
CONTINUOUS
 62
     3
100
AcDbLine
 10
2.145948330561317
 20
-4.460716247558832
 30
0.0
 11
2.145948330561317
 21
-4.368456204732495
 31
0.0
  0
LINE
  5
14B
330
A
100
AcDbEntity
  8
TOP
  6
CONTINUOUS
 62
     3
100
AcDbLine
 10
10.73875260353105
 20
-35.3307167689014
 30
0.0
 11
10.64894827206946
 21
-35.3307167689014
 31
0.0
  0
LINE
  5
14C
330
A
100
AcDbEntity
  8
TOP
  6
CONTINUOUS
 62
     3
100
AcDbLine
 10
10.77594987551388
 20
-2.645715077718301
 30
0.0
 11
10.77594987551388
 21
-3.83071104685488
 31
0.0
  0
LINE
  5
14D
330
A
100
AcDbEntity
  8
TOP
  6
CONTINUOUS
 62
     3
100
AcDbLine
 10
2.209451119105019
 20
-23.04571469624898
 30
0.0
 11
2.209451119105019
 21
-22.82297611236632
 31
0.0
  0
LINE
  5
14E
330
A
100
AcDbEntity
  8
TOP
  6
CONTINUOUS
 62
     3
100
AcDbLine
 10
2.145948330561317
 20
-10.22297541300491
 30
0.0
 11
2.145948330561317
 21
-10.13071537017857
 31
0.0
  0
LINE
  5
14F
330
A
100
AcDbEntity
  8
TOP
  6
CONTINUOUS
 62
     3
100
AcDbLine
 10
7.335951248804828
 20
-12.21251487731972
 30
0.0
 11
7.335951248804828
 21
-12.2331142425541
 31
0.0
  0
LINE
  5
150
330
A
100
AcDbEntity
  8
TOP
  6
CONTINUOUS
 62
     3
100
AcDbLine
 10
5.585950930913355
 20
-44.66391404469912
 30
0.0
 11
5.585950930913355
 21
-44.64331467946474
 31
0.0
  0
LINE
  5
151
330
A
100
AcDbEntity
  8
TOP
  6
CONTINUOUS
 62
     3
100
AcDbLine
 10
24.87701232296329
 20
-40.44570922851657
 30
0.0
 11
24.9142135685891
 21
-40.44570922851657
 31
0.0
  0
LINE
  5
152
330
A
100
AcDbEntity
  8
TOP
  6
CONTINUOUS
 62
     3
100
AcDbLine
 10
24.9142135685891
 20
-8.945711453756025
 30
0.0
 11
25.00401790005069
 21
-8.945711453756025
 31
0.0
  0
LINE
  5
153
330
A
100
AcDbEntity
  8
TOP
  6
CONTINUOUS
 62
     3
100
AcDbLine
 10
9.155951261520522
 20
-17.06071694692024
 30
0.0
 11
10.64894827206946
 21
-17.06071694692024
 31
0.0
  0
LINE
  5
154
330
A
100
AcDbEntity
  8
TOP
  6
CONTINUOUS
 62
     3
100
AcDbLine
 10
24.9142135685891
 20
-4.460708300272861
 30
0.0
 11
25.00401790005069
 21
-4.460708300272861
 31
0.0
  0
LINE
  5
155
330
A
100
AcDbEntity
  8
TOP
  6
CONTINUOUS
 62
     3
100
AcDbLine
 10
2.209451119105019
 20
-48.46845467885446
 30
0.0
 11
2.209451119105019
 21
-48.24571609497181
 31
0.0
  0
LINE
  5
156
330
A
100
AcDbEntity
  8
TOP
  6
CONTINUOUS
 62
     3
100
AcDbLine
 10
7.585949023564761
 20
-0.3193060557049088
 30
0.0
 11
7.335951248804828
 21
-0.3193060557049088
 31
0.0
  0
LINE
  5
157
330
A
100
AcDbEntity
  8
TOP
  6
CONTINUOUS
 62
     3
100
AcDbLine
 10
10.71245106061316
 20
3.746549288431728
 30
0.0
 11
10.71245106061316
 21
3.654289245605391
 31
0.0
  0
LINE
  5
158
330
A
100
AcDbEntity
  8
TOP
  6
CONTINUOUS
 62
     3
100
AcDbLine
 10
10.64894827206946
 20
-64.32500282923523
 30
0.0
 11
10.64894827206946
 21
-64.38850561777893
 31
0.0
  0
LINE
  5
159
330
A
100
AcDbEntity
  8
TOP
  6
CONTINUOUS
 62
     3
100
AcDbLine
 10
2.209451119105019
 20
-8.40797424316438
 30
0.0
 11
2.209451119105019
 21
-8.315714200338042
 31
0.0
  0
LINE
  5
15A
330
A
100
AcDbEntity
  8
TOP
  6
CONTINUOUS
 62
     3
100
AcDbLine
 10
9.155951261520522
 20
-39.8157119750986
 30
0.0
 11
10.64894827206946
 21
-39.8157119750986
 31
0.0
  0
LINE
  5
15B
330
A
100
AcDbEntity
  8
TOP
  6
CONTINUOUS
 62
     3
100
AcDbLine
 10
7.335951248804828
 20
-37.38821347554614
 30
0.0
 11
7.335951248804828
 21
-37.41251627604256
 31
0.0
  0
LINE
  5
15C
330
A
100
AcDbEntity
  8
TOP
  6
CONTINUOUS
 62
     3
100
AcDbLine
 10
10.71245106061316
 20
-14.93071715037072
 30
0.0
 11
10.71245106061316
 21
-15.15345573425338
 31
0.0
  0
LINE
  5
15D
330
A
100
AcDbEntity
  8
TOP
  6
CONTINUOUS
 62
     3
100
AcDbLine
 10
2.183145602544147
 20
-15.24571577707971
 30
0.0
 11
2.272949934005737
 21
-15.24571577707971
 31
0.0
  0
LINE
  5
15E
330
A
100
AcDbEntity
  8
TOP
  6
CONTINUOUS
 62
     3
100
AcDbLine
 10
10.77594987551388
 20
-29.03071244557771
 30
0.0
 11
10.77594987551388
 21
-29.12297248840404
 31
0.0
  0
LINE
  5
15F
330
A
100
AcDbEntity
  8
TOP
  6
CONTINUOUS
 62
     3
100
AcDbLine
 10
7.585949023564761
 20
-12.45712439219196
 30
0.0
 11
7.335951248804828
 21
-12.45712439219196
 31
0.0
  0
LINE
  5
160
330
A
100
AcDbEntity
  8
TOP
  6
CONTINUOUS
 62
     3
100
AcDbLine
 10
10.64894827206946
 20
1.83928807576486
 30
0.0
 11
10.73875260353105
 21
1.83928807576486
 31
0.0
  0
LINE
  5
161
330
A
100
AcDbEntity
  8
TOP
  6
CONTINUOUS
 62
     3
100
AcDbLine
 10
2.209451119105019
 20
-10.66845258077022
 30
0.0
 11
2.209451119105019
 21
-10.44571399688756
 31
0.0
  0
LINE
  5
162
330
A
100
AcDbEntity
  8
TOP
  6
CONTINUOUS
 62
     3
100
AcDbLine
 10
2.145948330561317
 20
4.284286499023372
 30
0.0
 11
2.145948330561317
 21
7.53178596496582
 31
0.0
  0
LINE
  5
163
330
A
100
AcDbEntity
  8
TOP
  6
CONTINUOUS
 62
     3
100
AcDbLine
 10
10.73875260353105
 20
7.53178596496582
 30
0.0
 11
10.64894827206946
 21
7.53178596496582
 31
0.0
  0
LINE
  5
164
330
A
100
AcDbEntity
  8
TOP
  6
CONTINUOUS
 62
     3
100
AcDbLine
 10
25.73201313676539
 20
3.654289245605392
 30
0.0
 11
25.00401790005069
 21
3.654289245605392
 31
0.0
  0
LINE
  5
165
330
A
100
AcDbEntity
  8
TOP
  6
CONTINUOUS
 62
     3
100
AcDbLine
 10
25.00401790005069
 20
-21.54571215311744
 30
0.0
 11
25.00401790005069
 21
-22.73070812225402
 31
0.0
  0
LINE
  5
166
330
A
100
AcDbEntity
  8
TOP
  6
CONTINUOUS
 62
     3
100
AcDbLine
 10
5.585950930913355
 20
-6.843312581380494
 30
0.0
 11
5.335949182510437
 21
-6.843312581380494
 31
0.0
  0
LINE
  5
167
330
A
100
AcDbEntity
  8
TOP
  6
CONTINUOUS
 62
     3
100
AcDbLine
 10
25.00401790005069
 20
4.284286499023373
 30
0.0
 11
24.9142135685891
 21
4.284286499023373
 31
0.0
  0
LINE
  5
168
330
A
100
AcDbEntity
  8
TOP
  6
CONTINUOUS
 62
     3
100
AcDbLine
 10
7.335951248804828
 20
0.3874858220416873
 30
0.0
 11
7.335951248804828
 21
0.3668864568073118
 31
0.0
  0
LINE
  5
169
330
A
100
AcDbEntity
  8
TOP
  6
CONTINUOUS
 62
     3
100
AcDbLine
 10
7.335951248804828
 20
-25.60911178588933
 30
0.0
 11
7.335951248804828
 21
-25.56790510813461
 31
0.0
  0
LINE
  5
16A
330
A
100
AcDbEntity
  8
TOP
  6
CONTINUOUS
 62
     3
100
AcDbLine
 10
25.00401790005069
 20
-2.6457150777183
 30
0.0
 11
25.00401790005069
 21
-3.830711046854879
 31
0.0
  0
LINE
  5
16B
330
A
100
AcDbEntity
  8
TOP
  6
CONTINUOUS
 62
     3
100
AcDbLine
 10
5.335949182510437
 20
-19.46391264597628
 30
0.0
 11
5.335949182510437
 21
-19.44331328074191
 31
0.0
  0
LINE
  5
16C
330
A
100
AcDbEntity
  8
TOP
  6
CONTINUOUS
 62
     3
100
AcDbLine
 10
10.77594987551388
 20
-48.02297751108916
 30
0.0
 11
10.77594987551388
 21
-48.24571609497181
 31
0.0
  0
LINE
  5
16D
330
A
100
AcDbEntity
  8
TOP
  6
CONTINUOUS
 62
     3
100
AcDbLine
 10
2.272949934005737
 20
-46.74571355184027
 30
0.0
 11
3.765950918197661
 21
-46.74571355184027
 31
0.0
  0
LINE
  5
16E
330
A
100
AcDbEntity
  8
TOP
  6
CONTINUOUS
 62
     3
100
AcDbLine
 10
7.335951248804828
 20
-12.40851879119912
 30
0.0
 11
7.335951248804828
 21
-12.45712439219196
 31
0.0
  0
LINE
  5
16F
330
A
100
AcDbEntity
  8
TOP
  6
CONTINUOUS
 62
     3
100
AcDbLine
 10
7.585949023564761
 20
-50.94331105550246
 30
0.0
 11
7.585949023564761
 21
-50.80910523732619
 31
0.0
  0
LINE
  5
170
330
A
100
AcDbEntity
  8
TOP
  6
CONTINUOUS
 62
     3
100
AcDbLine
 10
7.585949023564761
 20
-12.40851879119912
 30
0.0
 11
7.585949023564761
 21
-12.45712439219196
 31
0.0
  0
LINE
  5
171
330
A
100
AcDbEntity
  8
TOP
  6
CONTINUOUS
 62
     3
100
AcDbLine
 10
5.585950930913355
 20
-19.26790873209689
 30
0.0
 11
5.585950930913355
 21
-19.21930313110404
 31
0.0
  0
LINE
  5
172
330
A
100
AcDbEntity
  8
TOP
  6
CONTINUOUS
 62
     3
100
AcDbLine
 10
10.73875260353105
 20
-42.26071039835711
 30
0.0
 11
10.77594987551388
 21
-42.26071039835711
 31
0.0
  0
LINE
  5
173
330
A
100
AcDbEntity
  8
TOP
  6
CONTINUOUS
 62
     3
100
AcDbLine
 10
10.77594987551388
 20
-29.03071244557771
 30
0.0
 11
10.73875260353105
 21
-29.03071244557771
 31
0.0
  0
LINE
  5
174
330
A
100
AcDbEntity
  8
TOP
  6
CONTINUOUS
 62
     3
100
AcDbLine
 10
2.145948330561317
 20
-35.96071402231938
 30
0.0
 11
2.183145602544147
 21
-35.96071402231938
 31
0.0
  0
LINE
  5
175
330
A
100
AcDbEntity
  8
TOP
  6
CONTINUOUS
 62
     3
100
AcDbLine
 10
5.585950930913355
 20
-19.30910746256564
 30
0.0
 11
5.585950930913355
 21
-19.26790873209689
 31
0.0
  0
LINE
  5
176
330
A
100
AcDbEntity
  8
TOP
  6
CONTINUOUS
 62
     3
100
AcDbLine
 10
9.155951261520522
 20
-8.945711453756024
 30
0.0
 11
10.64894827206946
 21
-8.945711453756024
 31
0.0
  0
LINE
  5
177
330
A
100
AcDbEntity
  8
TOP
  6
CONTINUOUS
 62
     3
100
AcDbLine
 10
2.209451119105019
 20
-16.74571037292528
 30
0.0
 11
2.209451119105019
 21
-16.52297178904263
 31
0.0
  0
LINE
  5
178
330
A
100
AcDbEntity
  8
TOP
  6
CONTINUOUS
 62
     3
100
AcDbLine
 10
10.64894827206946
 20
-2.645715077718301
 30
0.0
 11
10.64894827206946
 21
-3.83071104685488
 31
0.0
  0
LINE
  5
179
330
A
100
AcDbEntity
  8
TOP
  6
CONTINUOUS
 62
     3
100
AcDbLine
 10
3.955950657526685
 20
2.65928904215485
 30
0.0
 11
3.955950657526685
 21
3.464285532633382
 31
0.0
  0
LINE
  5
17A
330
A
100
AcDbEntity
  8
TOP
  6
CONTINUOUS
 62
     3
100
AcDbLine
 10
5.585950930913355
 20
-6.709106763204221
 30
0.0
 11
5.585950930913355
 21
-6.66790803273547
 31
0.0
  0
LINE
  5
17B
330
A
100
AcDbEntity
  8
TOP
  6
CONTINUOUS
 62
     3
100
AcDbLine
 10
2.209451119105019
 20
-10.22297541300491
 30
0.0
 11
2.209451119105019
 21
-10.13071537017857
 31
0.0
  0
LINE
  5
17C
330
A
100
AcDbEntity
  8
TOP
  6
CONTINUOUS
 62
     3
100
AcDbLine
 10
2.145948330561317
 20
-10.76071262359655
 30
0.0
 11
2.145948330561317
 21
-10.66845258077022
 31
0.0
  0
LINE
  5
17D
330
A
100
AcDbEntity
  8
TOP
  6
CONTINUOUS
 62
     3
100
AcDbLine
 10
2.209451119105019
 20
1.931548118591197
 30
0.0
 11
2.209451119105019
 21
2.154286702473851
 31
0.0
  0
LINE
  5
17E
330
A
100
AcDbEntity
  8
TOP
  6
CONTINUOUS
 62
     3
100
AcDbLine
 10
25.00401790005069
 20
-39.81571197509859
 30
0.0
 11
24.9142135685891
 21
-39.81571197509859
 31
0.0
  0
LINE
  5
17F
330
A
100
AcDbEntity
  8
TOP
  6
CONTINUOUS
 62
     3
100
AcDbLine
 10
24.9142135685891
 20
-8.315714200338042
 30
0.0
 11
24.87701232296329
 21
-8.315714200338042
 31
0.0
  0
LINE
  5
180
330
A
100
AcDbEntity
  8
TOP
  6
CONTINUOUS
 62
     3
100
AcDbLine
 10
8.965951522191499
 20
-17.25071271260628
 30
0.0
 11
8.965951522191499
 21
-20.72571118672745
 31
0.0
  0
LINE
  5
181
330
A
100
AcDbEntity
  8
TOP
  6
CONTINUOUS
 62
     3
100
AcDbLine
 10
7.335951248804828
 20
-12.2331142425541
 30
0.0
 11
7.585949023564761
 21
-12.2331142425541
 31
0.0
  0
LINE
  5
182
330
A
100
AcDbEntity
  8
TOP
  6
CONTINUOUS
 62
     3
100
AcDbLine
 10
10.77594987551388
 20
-3.922979036967187
 30
0.0
 11
10.77594987551388
 21
-4.145717620849842
 31
0.0
  0
LINE
  5
183
330
A
100
AcDbEntity
  8
TOP
  6
CONTINUOUS
 62
     3
100
AcDbLine
 10
10.64894827206946
 20
7.53178596496582
 30
0.0
 11
9.155951261520522
 21
7.53178596496582
 31
0.0
  0
LINE
  5
184
330
A
100
AcDbEntity
  8
TOP
  6
CONTINUOUS
 62
     3
100
AcDbLine
 10
10.71245106061316
 20
4.284286499023372
 30
0.0
 11
10.71245106061316
 21
4.192026456197036
 31
0.0
  0
LINE
  5
185
330
A
100
AcDbEntity
  8
TOP
  6
CONTINUOUS
 62
     3
100
AcDbLine
 10
2.209451119105019
 20
-39.90797201792493
 30
0.0
 11
2.209451119105019
 21
-39.8157119750986
 31
0.0
  0
LINE
  5
186
330
A
100
AcDbEntity
  8
TOP
  6
CONTINUOUS
 62
     3
100
AcDbLine
 10
7.335951248804828
 20
-24.83311494191552
 30
0.0
 11
7.335951248804828
 21
-24.96732076009179
 31
0.0
  0
LINE
  5
187
330
A
100
AcDbEntity
  8
TOP
  6
CONTINUOUS
 62
     3
100
AcDbLine
 10
5.335949182510437
 20
-44.68821684519554
 30
0.0
 11
5.585950930913355
 21
-44.68821684519554
 31
0.0
  0
LINE
  5
188
330
A
100
AcDbEntity
  8
TOP
  6
CONTINUOUS
 62
     3
100
AcDbLine
 10
5.335949182510437
 20
-6.709106763204221
 30
0.0
 11
5.335949182510437
 21
-6.66790803273547
 31
0.0
  0
LINE
  5
189
330
A
100
AcDbEntity
  8
TOP
  6
CONTINUOUS
 62
     3
100
AcDbLine
 10
7.585949023564761
 20
-38.20911248525074
 30
0.0
 11
7.335951248804828
 21
-38.20911248525074
 31
0.0
  0
LINE
  5
18A
330
A
100
AcDbEntity
  8
TOP
  6
CONTINUOUS
 62
     3
100
AcDbLine
 10
10.71245106061316
 20
-16.96844895680794
 30
0.0
 11
10.71245106061316
 21
-17.06071694692024
 31
0.0
  0
LINE
  5
18B
330
A
100
AcDbEntity
  8
TOP
  6
CONTINUOUS
 62
     3
100
AcDbLine
 10
10.77594987551388
 20
-27.30797926584949
 30
0.0
 11
10.77594987551388
 21
-27.53071784973214
 31
0.0
  0
LINE
  5
18C
330
A
100
AcDbEntity
  8
TOP
  6
CONTINUOUS
 62
     3
100
AcDbLine
 10
10.73875260353105
 20
-8.315714200338042
 30
0.0
 11
10.64894827206946
 21
-8.315714200338042
 31
0.0
  0
LINE
  5
18D
330
A
100
AcDbEntity
  8
TOP
  6
CONTINUOUS
 62
     3
100
AcDbLine
 10
2.272949934005737
 20
1.83928807576486
 30
0.0
 11
3.765950918197661
 21
1.83928807576486
 31
0.0
  0
LINE
  5
18E
330
A
100
AcDbEntity
  8
TOP
  6
CONTINUOUS
 62
     3
100
AcDbLine
 10
2.272949934005737
 20
4.284286499023372
 30
0.0
 11
2.272949934005737
 21
7.53178596496582
 31
0.0
  0
LINE
  5
18F
330
A
100
AcDbEntity
  8
TOP
  6
CONTINUOUS
 62
     3
100
AcDbLine
 10
7.585949023564761
 20
-37.56732145945321
 30
0.0
 11
7.585949023564761
 21
-37.60852018992196
 31
0.0
  0
LINE
  5
190
330
A
100
AcDbEntity
  8
TOP
  6
CONTINUOUS
 62
     3
100
AcDbLine
 10
9.155951261520522
 20
-22.73071606953999
 30
0.0
 11
10.64894827206946
 21
-22.73071606953999
 31
0.0
  0
LINE
  5
191
330
A
100
AcDbEntity
  8
TOP
  6
CONTINUOUS
 62
     3
100
AcDbLine
 10
10.77594987551388
 20
-16.96844895680794
 30
0.0
 11
10.77594987551388
 21
-17.06071694692024
 31
0.0
  0
LINE
  5
192
330
A
100
AcDbEntity
  8
TOP
  6
CONTINUOUS
 62
     3
100
AcDbLine
 10
7.585949023564761
 20
0.4117886225381071
 30
0.0
 11
7.585949023564761
 21
0.3874858220416873
 31
0.0
  0
LINE
  5
193
330
A
100
AcDbEntity
  8
TOP
  6
CONTINUOUS
 62
     3
100
AcDbLine
 10
2.145948330561317
 20
-2.645715077718301
 30
0.0
 11
2.183145602544147
 21
-2.645715077718301
 31
0.0
  0
LINE
  5
194
330
A
100
AcDbEntity
  8
TOP
  6
CONTINUOUS
 62
     3
100
AcDbLine
 10
5.335949182510437
 20
-18.6673164367681
 30
0.0
 11
5.585950930913355
 21
-18.6673164367681
 31
0.0
  0
LINE
  5
195
330
A
100
AcDbEntity
  8
TOP
  6
CONTINUOUS
 62
     3
100
AcDbLine
 10
10.77594987551388
 20
-46.43071492513128
 30
0.0
 11
10.77594987551388
 21
-46.65345350901393
 31
0.0
  0
LINE
  5
196
330
A
100
AcDbEntity
  8
TOP
  6
CONTINUOUS
 62
     3
100
AcDbLine
 10
7.585949023564761
 20
-50.98821322123326
 30
0.0
 11
7.585949023564761
 21
-50.96391042073683
 31
0.0
  0
LINE
  5
197
330
A
100
AcDbEntity
  8
TOP
  6
CONTINUOUS
 62
     3
100
AcDbLine
 10
2.272949934005737
 20
-34.14571285247886
 30
0.0
 11
3.765950918197661
 21
-34.14571285247886
 31
0.0
  0
LINE
  5
198
330
A
100
AcDbEntity
  8
TOP
  6
CONTINUOUS
 62
     3
100
AcDbLine
 10
5.585950930913355
 20
-6.619310379028601
 30
0.0
 11
5.585950930913355
 21
-6.157120068868273
 31
0.0
  0
LINE
  5
199
330
A
100
AcDbEntity
  8
TOP
  6
CONTINUOUS
 62
     3
100
AcDbLine
 10
2.145948330561317
 20
-29.12297248840404
 30
0.0
 11
2.145948330561317
 21
-29.03071244557771
 31
0.0
  0
LINE
  5
19A
330
A
100
AcDbEntity
  8
TOP
  6
CONTINUOUS
 62
     3
100
AcDbLine
 10
9.839449644088896
 20
3.745794296264572
 30
0.0
 11
9.839449644088896
 21
3.969287872314382
 31
0.0
  0
LINE
  5
19B
330
A
100
AcDbEntity
  8
TOP
  6
CONTINUOUS
 62
     3
100
AcDbLine
 10
8.965951522191499
 20
-9.135715166728033
 30
0.0
 11
8.965951522191499
 21
-9.940711657206565
 31
0.0
  0
LINE
  5
19C
330
A
100
AcDbEntity
  8
TOP
  6
CONTINUOUS
 62
     3
100
AcDbLine
 10
24.87701232296329
 20
-17.06070899963427
 30
0.0
 11
24.9142135685891
 21
-17.06070899963427
 31
0.0
  0
LINE
  5
19D
330
A
100
AcDbEntity
  8
TOP
  6
CONTINUOUS
 62
     3
100
AcDbLine
 10
2.145948330561317
 20
-15.15345573425338
 30
0.0
 11
2.145948330561317
 21
-14.93071715037072
 31
0.0
  0
LINE
  5
19E
330
A
100
AcDbEntity
  8
TOP
  6
CONTINUOUS
 62
     3
100
AcDbLine
 10
24.87701232296329
 20
-35.96071402231938
 30
0.0
 11
24.9142135685891
 21
-35.96071402231938
 31
0.0
  0
LINE
  5
19F
330
A
100
AcDbEntity
  8
TOP
  6
CONTINUOUS
 62
     3
100
AcDbLine
 10
2.209451119105019
 20
-16.96844895680794
 30
0.0
 11
2.209451119105019
 21
-16.74571037292528
 31
0.0
  0
LINE
  5
1A0
330
A
100
AcDbEntity
  8
TOP
  6
CONTINUOUS
 62
     3
100
AcDbLine
 10
2.183145602544147
 20
3.654289245605391
 30
0.0
 11
2.272949934005737
 21
3.654289245605391
 31
0.0
  0
LINE
  5
1A1
330
A
100
AcDbEntity
  8
TOP
  6
CONTINUOUS
 62
     3
100
AcDbLine
 10
10.77594987551388
 20
-20.91571489969946
 30
0.0
 11
10.73875260353105
 21
-20.91571489969946
 31
0.0
  0
LINE
  5
1A2
330
A
100
AcDbEntity
  8
TOP
  6
CONTINUOUS
 62
     3
100
AcDbLine
 10
7.335951248804828
 20
-67.53870248794704
 30
0.0
 11
7.335951248804828
 21
-67.51117308934678
 31
0.0
  0
LINE
  5
1A3
330
A
100
AcDbEntity
  8
TOP
  6
CONTINUOUS
 62
     3
100
AcDbLine
 10
7.585949023564761
 20
-67.50150521596421
 30
0.0
 11
7.335951248804828
 21
-67.50150521596421
 31
0.0
  0
LINE
  5
1A4
330
A
100
AcDbEntity
  8
TOP
  6
CONTINUOUS
 62
     3
100
AcDbLine
 10
7.335951248804828
 20
-24.81251557668114
 30
0.0
 11
7.335951248804828
 21
-24.83311494191552
 31
0.0
  0
LINE
  5
1A5
330
A
100
AcDbEntity
  8
TOP
  6
CONTINUOUS
 62
     3
100
AcDbLine
 10
10.77594987551388
 20
-47.93071746826282
 30
0.0
 11
10.77594987551388
 21
-48.02297751108916
 31
0.0
  0
LINE
  5
1A6
330
A
100
AcDbEntity
  8
TOP
  6
CONTINUOUS
 62
     3
100
AcDbLine
 10
7.335951248804828
 20
-38.36391766866139
 30
0.0
 11
7.335951248804828
 21
-38.34331035614104
 31
0.0
  0
LINE
  5
1A7
330
A
100
AcDbEntity
  8
TOP
  6
CONTINUOUS
 62
     3
100
AcDbLine
 10
7.585949023564761
 20
-38.36391766866139
 30
0.0
 11
7.585949023564761
 21
-38.34331035614104
 31
0.0
  0
LINE
  5
1A8
330
A
100
AcDbEntity
  8
TOP
  6
CONTINUOUS
 62
     3
100
AcDbLine
 10
7.585949023564761
 20
-0.4091103871664992
 30
0.0
 11
7.585949023564761
 21
-0.3679037094117783
 31
0.0
  0
LINE
  5
1A9
330
A
100
AcDbEntity
  8
TOP
  6
CONTINUOUS
 62
     3
100
AcDbLine
 10
10.71245106061316
 20
-16.43071174621629
 30
0.0
 11
10.71245106061316
 21
-16.52297178904263
 31
0.0
  0
LINE
  5
1AA
330
A
100
AcDbEntity
  8
TOP
  6
CONTINUOUS
 62
     3
100
AcDbLine
 10
9.155951261520522
 20
-14.61571057637576
 30
0.0
 11
10.64894827206946
 21
-14.61571057637576
 31
0.0
  0
LINE
  5
1AB
330
A
100
AcDbEntity
  8
TOP
  6
CONTINUOUS
 62
     3
100
AcDbLine
 10
10.77594987551388
 20
-23.04571469624898
 30
0.0
 11
10.77594987551388
 21
-23.26845328013163
 31
0.0
  0
LINE
  5
1AC
330
A
100
AcDbEntity
  8
TOP
  6
CONTINUOUS
 62
     3
100
AcDbLine
 10
5.585950930913355
 20
-18.70852311452281
 30
0.0
 11
5.585950930913355
 21
-18.75712076822969
 31
0.0
  0
LINE
  5
1AD
330
A
100
AcDbEntity
  8
TOP
  6
CONTINUOUS
 62
     3
100
AcDbLine
 10
7.585949023564761
 20
-67.53870248794704
 30
0.0
 11
7.585949023564761
 21
-67.51117308934678
 31
0.0
  0
LINE
  5
1AE
330
A
100
AcDbEntity
  8
TOP
  6
CONTINUOUS
 62
     3
100
AcDbLine
 10
7.335951248804828
 20
-38.11930815378915
 30
0.0
 11
7.335951248804828
 21
-37.65712579091479
 31
0.0
  0
LINE
  5
1AF
330
A
100
AcDbEntity
  8
TOP
  6
CONTINUOUS
 62
     3
100
AcDbLine
 10
25.00401790005069
 20
-17.06070899963427
 30
0.0
 11
25.00401790005069
 21
-20.91571489969946
 31
0.0
  0
LINE
  5
1B0
330
A
100
AcDbEntity
  8
TOP
  6
CONTINUOUS
 62
     3
100
AcDbLine
 10
10.77594987551388
 20
-21.54571215311744
 30
0.0
 11
10.77594987551388
 21
-22.73071606953999
 31
0.0
  0
LINE
  5
1B1
330
A
100
AcDbEntity
  8
TOP
  6
CONTINUOUS
 62
     3
100
AcDbLine
 10
2.209451119105019
 20
-21.54571215311744
 30
0.0
 11
2.209451119105019
 21
-21.4534521102911
 31
0.0
  0
LINE
  5
1B2
330
A
100
AcDbEntity
  8
TOP
  6
CONTINUOUS
 62
     3
100
AcDbLine
 10
7.335951248804828
 20
-0.5433162053427714
 30
0.0
 11
7.335951248804828
 21
-0.4091103871664992
 31
0.0
  0
LINE
  5
1B3
330
A
100
AcDbEntity
  8
TOP
  6
CONTINUOUS
 62
     3
100
AcDbLine
 10
2.183145602544147
 20
2.469285329182842
 30
0.0
 11
2.145948330561317
 21
2.469285329182842
 31
0.0
  0
LINE
  5
1B4
330
A
100
AcDbEntity
  8
TOP
  6
CONTINUOUS
 62
     3
100
AcDbLine
 10
9.021598418553804
 20
-64.38850561777893
 30
0.0
 11
8.965951522191499
 21
-64.38850561777893
 31
0.0
  0
LINE
  5
1B5
330
A
100
AcDbEntity
  8
TOP
  6
CONTINUOUS
 62
     3
100
AcDbLine
 10
10.77594987551388
 20
-42.16845035553077
 30
0.0
 11
10.77594987551388
 21
-42.26071039835711
 31
0.0
  0
LINE
  5
1B6
330
A
100
AcDbEntity
  8
TOP
  6
CONTINUOUS
 62
     3
100
AcDbLine
 10
28.18001563412058
 20
-51.80821418762325
 30
0.0
 11
25.00401790005069
 21
-51.80821418762325
 31
0.0
  0
LINE
  5
1B7
330
A
100
AcDbEntity
  8
TOP
  6
CONTINUOUS
 62
     3
100
AcDbLine
 10
2.272949934005737
 20
-47.93071746826282
 30
0.0
 11
2.183145602544147
 21
-47.93071746826282
 31
0.0
  0
LINE
  5
1B8
330
A
100
AcDbEntity
  8
TOP
  6
CONTINUOUS
 62
     3
100
AcDbLine
 10
7.335951248804828
 20
-0.4091103871664992
 30
0.0
 11
7.335951248804828
 21
-0.3679037094117783
 31
0.0
  0
LINE
  5
1B9
330
A
100
AcDbEntity
  8
TOP
  6
CONTINUOUS
 62
     3
100
AcDbLine
 10
2.839448372523001
 20
3.745794296264572
 30
0.0
 11
2.839448372523001
 21
3.969287872314382
 31
0.0
  0
LINE
  5
1BA
330
A
100
AcDbEntity
  8
TOP
  6
CONTINUOUS
 62
     3
100
AcDbLine
 10
2.145948330561317
 20
-14.93071715037072
 30
0.0
 11
2.145948330561317
 21
-14.70797856648807
 31
0.0
  0
LINE
  5
1BB
330
A
100
AcDbEntity
  8
TOP
  6
CONTINUOUS
 62
     3
100
AcDbLine
 10
2.272949934005737
 20
-27.84571647644113
 30
0.0
 11
3.765950918197661
 21
-27.84571647644113
 31
0.0
  0
LINE
  5
1BC
330
A
100
AcDbEntity
  8
TOP
  6
CONTINUOUS
 62
     3
100
AcDbLine
 10
2.145948330561317
 20
-29.66071764628166
 30
0.0
 11
2.145948330561317
 21
-29.56844965616935
 31
0.0
  0
LINE
  5
1BD
330
A
100
AcDbEntity
  8
TOP
  6
CONTINUOUS
 62
     3
100
AcDbLine
 10
10.77594987551388
 20
-10.13071537017857
 30
0.0
 11
10.73875260353105
 21
-10.13071537017857
 31
0.0
  0
LINE
  5
1BE
330
A
100
AcDbEntity
  8
TOP
  6
CONTINUOUS
 62
     3
100
AcDbLine
 10
2.145948330561317
 20
2.469285329182842
 30
0.0
 11
2.145948330561317
 21
3.654289245605391
 31
0.0
  0
LINE
  5
1BF
330
A
100
AcDbEntity
  8
TOP
  6
CONTINUOUS
 62
     3
100
AcDbLine
 10
24.9142135685891
 20
-3.830711046854879
 30
0.0
 11
24.87701232296329
 21
-3.830711046854879
 31
0.0
  0
LINE
  5
1C0
330
A
100
AcDbEntity
  8
TOP
  6
CONTINUOUS
 62
     3
100
AcDbLine
 10
5.585950930913355
 20
-44.50910886128847
 30
0.0
 11
5.585950930913355
 21
-44.46791013081972
 31
0.0
  0
LINE
  5
1C1
330
A
100
AcDbEntity
  8
TOP
  6
CONTINUOUS
 62
     3
100
AcDbLine
 10
10.64894827206946
 20
-17.06071694692024
 30
0.0
 11
10.73875260353105
 21
-17.06071694692024
 31
0.0
  0
LINE
  5
1C2
330
A
100
AcDbEntity
  8
TOP
  6
CONTINUOUS
 62
     3
100
AcDbLine
 10
5.335949182510437
 20
5.711785952250126
 30
0.0
 11
5.335949182510437
 21
5.736088752746546
 31
0.0
  0
LINE
  5
1C3
330
A
100
AcDbEntity
  8
TOP
  6
CONTINUOUS
 62
     3
100
AcDbLine
 10
7.585949023564761
 20
-13.14331690470418
 30
0.0
 11
7.585949023564761
 21
-13.00911108652791
 31
0.0
  0
LINE
  5
1C4
330
A
100
AcDbEntity
  8
TOP
  6
CONTINUOUS
 62
     3
100
AcDbLine
 10
10.71245106061316
 20
-35.64571539561039
 30
0.0
 11
10.71245106061316
 21
-35.86845397949305
 31
0.0
  0
LINE
  5
1C5
330
A
100
AcDbEntity
  8
TOP
  6
CONTINUOUS
 62
     3
100
AcDbLine
 10
2.145948330561317
 20
-46.43071492513128
 30
0.0
 11
2.145948330561317
 21
-46.20797634124862
 31
0.0
  0
LINE
  5
1C6
330
A
100
AcDbEntity
  8
TOP
  6
CONTINUOUS
 62
     3
100
AcDbLine
 10
8.965951522191499
 20
-40.63571294148859
 30
0.0
 11
8.965951522191499
 21
-41.44071737925308
 31
0.0
  0
LINE
  5
1C7
330
A
100
AcDbEntity
  8
TOP
  6
CONTINUOUS
 62
     3
100
AcDbLine
 10
7.585949023564761
 20
-24.78821277618472
 30
0.0
 11
7.585949023564761
 21
-24.81251557668114
 31
0.0
  0
LINE
  5
1C8
330
A
100
AcDbEntity
  8
TOP
  6
CONTINUOUS
 62
     3
100
AcDbLine
 10
10.64894827206946
 20
-29.66071764628166
 30
0.0
 11
10.73875260353105
 21
-29.66071764628166
 31
0.0
  0
LINE
  5
1C9
330
A
100
AcDbEntity
  8
TOP
  6
CONTINUOUS
 62
     3
100
AcDbLine
 10
10.71245106061316
 20
-2.330716451009311
 30
0.0
 11
10.71245106061316
 21
-2.553455034891964
 31
0.0
  0
LINE
  5
1CA
330
A
100
AcDbEntity
  8
TOP
  6
CONTINUOUS
 62
     3
100
AcDbLine
 10
10.71245106061316
 20
-21.00797494252579
 30
0.0
 11
10.71245106061316
 21
-21.23071352640845
 31
0.0
  0
LINE
  5
1CB
330
A
100
AcDbEntity
  8
TOP
  6
CONTINUOUS
 62
     3
100
AcDbLine
 10
10.77594987551388
 20
-10.76071262359655
 30
0.0
 11
10.77594987551388
 21
-14.61571057637576
 31
0.0
  0
LINE
  5
1CC
330
A
100
AcDbEntity
  8
TOP
  6
CONTINUOUS
 62
     3
100
AcDbLine
 10
10.77594987551388
 20
-21.4534521102911
 30
0.0
 11
10.77594987551388
 21
-21.54571215311744
 31
0.0
  0
LINE
  5
1CD
330
A
100
AcDbEntity
  8
TOP
  6
CONTINUOUS
 62
     3
100
AcDbLine
 10
5.335949182510437
 20
-19.21930313110404
 30
0.0
 11
5.335949182510437
 21
-18.75712076822969
 31
0.0
  0
LINE
  5
1CE
330
A
100
AcDbEntity
  8
TOP
  6
CONTINUOUS
 62
     3
100
AcDbLine
 10
2.209451119105019
 20
-23.26845328013163
 30
0.0
 11
2.209451119105019
 21
-23.04571469624898
 31
0.0
  0
LINE
  5
1CF
330
A
100
AcDbEntity
  8
TOP
  6
CONTINUOUS
 62
     3
100
AcDbLine
 10
2.183145602544147
 20
-2.015717824300319
 30
0.0
 11
2.145948330561317
 21
-2.015717824300319
 31
0.0
  0
LINE
  5
1D0
330
A
100
AcDbEntity
  8
TOP
  6
CONTINUOUS
 62
     3
100
AcDbLine
 10
2.209451119105019
 20
-40.35344918569024
 30
0.0
 11
2.209451119105019
 21
-40.13071060180759
 31
0.0
  0
LINE
  5
1D1
330
A
100
AcDbEntity
  8
TOP
  6
CONTINUOUS
 62
     3
100
AcDbLine
 10
7.335951248804828
 20
-38.20911248525074
 30
0.0
 11
7.335951248804828
 21
-38.16790580749602
 31
0.0
  0
LINE
  5
1D2
330
A
100
AcDbEntity
  8
TOP
  6
CONTINUOUS
 62
     3
100
AcDbLine
 10
28.30701326392201
 20
7.53178596496582
 30
0.0
 11
28.26981996558217
 21
7.53178596496582
 31
0.0
  0
LINE
  5
1D3
330
A
100
AcDbEntity
  8
TOP
  6
CONTINUOUS
 62
     3
100
AcDbLine
 10
2.272949934005737
 20
2.469285329182842
 30
0.0
 11
2.272949934005737
 21
3.654289245605391
 31
0.0
  0
LINE
  5
1D4
330
A
100
AcDbEntity
  8
TOP
  6
CONTINUOUS
 62
     3
100
AcDbLine
 10
10.64894827206946
 20
-21.54571215311744
 30
0.0
 11
10.64894827206946
 21
-22.73071606953999
 31
0.0
  0
LINE
  5
1D5
330
A
100
AcDbEntity
  8
TOP
  6
CONTINUOUS
 62
     3
100
AcDbLine
 10
7.585949023564761
 20
-0.5882104237875965
 30
0.0
 11
7.585949023564761
 21
-0.5639155705771467
 31
0.0
  0
LINE
  5
1D6
330
A
100
AcDbEntity
  8
TOP
  6
CONTINUOUS
 62
     3
100
AcDbLine
 10
7.585949023564761
 20
0.1428763071694493
 30
0.0
 11
7.335951248804828
 21
0.1428763071694493
 31
0.0
  0
LINE
  5
1D7
330
A
100
AcDbEntity
  8
TOP
  6
CONTINUOUS
 62
     3
100
AcDbLine
 10
5.585950930913355
 20
-31.08821709950841
 30
0.0
 11
5.585950930913355
 21
-31.11251195271886
 31
0.0
  0
LINE
  5
1D8
330
A
100
AcDbEntity
  8
TOP
  6
CONTINUOUS
 62
     3
100
AcDbLine
 10
10.77594987551388
 20
-41.63071314493913
 30
0.0
 11
10.77594987551388
 21
-41.72297318776546
 31
0.0
  0
LINE
  5
1D9
330
A
100
AcDbEntity
  8
TOP
  6
CONTINUOUS
 62
     3
100
AcDbLine
 10
3.085949341456111
 20
-46.65222167968858
 30
0.0
 11
3.085949341456111
 21
-46.43071492513128
 31
0.0
  0
LINE
  5
1DA
330
A
100
AcDbEntity
  8
TOP
  6
CONTINUOUS
 62
     3
100
AcDbLine
 10
8.965951522191499
 20
-48.75071048736685
 30
0.0
 11
8.965951522191499
 21
-51.61821444829422
 31
0.0
  0
LINE
  5
1DB
330
A
100
AcDbEntity
  8
TOP
  6
CONTINUOUS
 62
     3
100
AcDbLine
 10
2.209451119105019
 20
-22.82297611236632
 30
0.0
 11
2.209451119105019
 21
-22.73071606953999
 31
0.0
  0
LINE
  5
1DC
330
A
100
AcDbEntity
  8
TOP
  6
CONTINUOUS
 62
     3
100
AcDbLine
 10
10.77594987551388
 20
-41.63071314493913
 30
0.0
 11
10.73875260353105
 21
-41.63071314493913
 31
0.0
  0
LINE
  5
1DD
330
A
100
AcDbEntity
  8
TOP
  6
CONTINUOUS
 62
     3
100
AcDbLine
 10
2.145948330561317
 20
-34.05345280965252
 30
0.0
 11
2.145948330561317
 21
-33.83071422576986
 31
0.0
  0
LINE
  5
1DE
330
A
100
AcDbEntity
  8
TOP
  6
CONTINUOUS
 62
     3
100
AcDbLine
 10
10.71245106061316
 20
-46.11571629842229
 30
0.0
 11
10.71245106061316
 21
-46.20797634124862
 31
0.0
  0
LINE
  5
1DF
330
A
100
AcDbEntity
  8
TOP
  6
CONTINUOUS
 62
     3
100
AcDbLine
 10
10.64894827206946
 20
-8.945711453756024
 30
0.0
 11
10.73875260353105
 21
-8.945711453756024
 31
0.0
  0
LINE
  5
1E0
330
A
100
AcDbEntity
  8
TOP
  6
CONTINUOUS
 62
     3
100
AcDbLine
 10
2.272949934005737
 20
-3.83071104685488
 30
0.0
 11
3.765950918197661
 21
-3.83071104685488
 31
0.0
  0
LINE
  5
1E1
330
A
100
AcDbEntity
  8
TOP
  6
CONTINUOUS
 62
     3
100
AcDbLine
 10
7.585949023564761
 20
-67.67290433248034
 30
0.0
 11
7.335951248804828
 21
-67.67290433248034
 31
0.0
  0
LINE
  5
1E2
330
A
100
AcDbEntity
  8
TOP
  6
CONTINUOUS
 62
     3
100
AcDbLine
 10
25.00401790005069
 20
-16.43071174621629
 30
0.0
 11
25.73201313676539
 21
-16.43071174621629
 31
0.0
  0
LINE
  5
1E3
330
A
100
AcDbEntity
  8
TOP
  6
CONTINUOUS
 62
     3
100
AcDbLine
 10
10.64894827206946
 20
3.654289245605391
 30
0.0
 11
10.73875260353105
 21
3.654289245605391
 31
0.0
  0
LINE
  5
1E4
330
A
100
AcDbEntity
  8
TOP
  6
CONTINUOUS
 62
     3
100
AcDbLine
 10
24.87701232296329
 20
-34.14571285247886
 30
0.0
 11
24.9142135685891
 21
-34.14571285247886
 31
0.0
  0
LINE
  5
1E5
330
A
100
AcDbEntity
  8
TOP
  6
CONTINUOUS
 62
     3
100
AcDbLine
 10
2.209451119105019
 20
-46.43071492513128
 30
0.0
 11
2.209451119105019
 21
-46.20797634124862
 31
0.0
  0
LINE
  5
1E6
330
A
100
AcDbEntity
  8
TOP
  6
CONTINUOUS
 62
     3
100
AcDbLine
 10
24.9142135685891
 20
-2.6457150777183
 30
0.0
 11
25.00401790005069
 21
-2.6457150777183
 31
0.0
  0
LINE
  5
1E7
330
A
100
AcDbEntity
  8
TOP
  6
CONTINUOUS
 62
     3
100
AcDbLine
 10
5.585950930913355
 20
-43.73311201731466
 30
0.0
 11
5.585950930913355
 21
-43.86731783549093
 31
0.0
  0
LINE
  5
1E8
330
A
100
AcDbEntity
  8
TOP
  6
CONTINUOUS
 62
     3
100
AcDbLine
 10
2.272949934005737
 20
-17.06071694692024
 30
0.0
 11
3.765950918197661
 21
-17.06071694692024
 31
0.0
  0
LINE
  5
1E9
330
A
100
AcDbEntity
  8
TOP
  6
CONTINUOUS
 62
     3
100
AcDbLine
 10
5.335949182510437
 20
6.491478284200011
 30
0.0
 11
5.335949182510437
 21
6.442880630493142
 31
0.0
  0
LINE
  5
1EA
330
A
100
AcDbEntity
  8
TOP
  6
CONTINUOUS
 62
     3
100
AcDbLine
 10
9.155951261520522
 20
-41.63071314493913
 30
0.0
 11
10.64894827206946
 21
-41.63071314493913
 31
0.0
  0
LINE
  5
1EB
330
A
100
AcDbEntity
  8
TOP
  6
CONTINUOUS
 62
     3
100
AcDbLine
 10
7.585949023564761
 20
-13.16391626993856
 30
0.0
 11
7.585949023564761
 21
-13.14331690470418
 31
0.0
  0
LINE
  5
1EC
330
A
100
AcDbEntity
  8
TOP
  6
CONTINUOUS
 62
     3
100
AcDbLine
 10
5.335949182510437
 20
5.890893936157193
 30
0.0
 11
5.335949182510437
 21
5.932092666625944
 31
0.0
  0
LINE
  5
1ED
330
A
100
AcDbEntity
  8
TOP
  6
CONTINUOUS
 62
     3
100
AcDbLine
 10
2.209451119105019
 20
-48.02297751108916
 30
0.0
 11
2.209451119105019
 21
-47.93071746826282
 31
0.0
  0
LINE
  5
1EE
330
A
100
AcDbEntity
  8
TOP
  6
CONTINUOUS
 62
     3
100
AcDbLine
 10
10.71245106061316
 20
-40.35344918569024
 30
0.0
 11
10.71245106061316
 21
-40.44571717580255
 31
0.0
  0
LINE
  5
1EF
330
A
100
AcDbEntity
  8
TOP
  6
CONTINUOUS
 62
     3
100
AcDbLine
 10
2.145948330561317
 20
-48.02297751108916
 30
0.0
 11
2.145948330561317
 21
-47.93071746826282
 31
0.0
  0
LINE
  5
1F0
330
A
100
AcDbEntity
  8
TOP
  6
CONTINUOUS
 62
     3
100
AcDbLine
 10
5.335949182510437
 20
-44.68821684519554
 30
0.0
 11
5.335949182510437
 21
-44.66391404469912
 31
0.0
  0
LINE
  5
1F1
330
A
100
AcDbEntity
  8
TOP
  6
CONTINUOUS
 62
     3
100
AcDbLine
 10
2.209451119105019
 20
-8.945711453756024
 30
0.0
 11
2.209451119105019
 21
-8.853451410929688
 31
0.0
  0
LINE
  5
1F2
330
A
100
AcDbEntity
  8
TOP
  6
CONTINUOUS
 62
     3
100
AcDbLine
 10
5.335949182510437
 20
5.736088752746546
 30
0.0
 11
5.335949182510437
 21
5.756688117980921
 31
0.0
  0
LINE
  5
1F3
330
A
100
AcDbEntity
  8
TOP
  6
CONTINUOUS
 62
     3
100
AcDbLine
 10
5.585950930913355
 20
5.736088752746546
 30
0.0
 11
5.585950930913355
 21
5.756688117980921
 31
0.0
  0
LINE
  5
1F4
330
A
100
AcDbEntity
  8
TOP
  6
CONTINUOUS
 62
     3
100
AcDbLine
 10
10.64894827206946
 20
-10.76071262359655
 30
0.0
 11
10.64894827206946
 21
-14.61571057637576
 31
0.0
  0
LINE
  5
1F5
330
A
100
AcDbEntity
  8
TOP
  6
CONTINUOUS
 62
     3
100
AcDbLine
 10
2.183145602544147
 20
1.83928807576486
 30
0.0
 11
2.272949934005737
 21
1.83928807576486
 31
0.0
  0
LINE
  5
1F6
330
A
100
AcDbEntity
  8
TOP
  6
CONTINUOUS
 62
     3
100
AcDbLine
 10
2.209451119105019
 20
-35.64571539561039
 30
0.0
 11
2.209451119105019
 21
-35.42297681172774
 31
0.0
  0
LINE
  5
1F7
330
A
100
AcDbEntity
  8
TOP
  6
CONTINUOUS
 62
     3
100
AcDbLine
 10
5.585950930913355
 20
5.980690320332814
 30
0.0
 11
5.335949182510437
 21
5.980690320332814
 31
0.0
  0
LINE
  5
1F8
330
A
100
AcDbEntity
  8
TOP
  6
CONTINUOUS
 62
     3
100
AcDbLine
 10
24.9142135685891
 20
-47.93070952097685
 30
0.0
 11
24.87701232296329
 21
-47.93070952097685
 31
0.0
  0
LINE
  5
1F9
330
A
100
AcDbEntity
  8
TOP
  6
CONTINUOUS
 62
     3
100
AcDbLine
 10
5.335949182510437
 20
-6.067315737406683
 30
0.0
 11
5.585950930913355
 21
-6.067315737406683
 31
0.0
  0
LINE
  5
1FA
330
A
100
AcDbEntity
  8
TOP
  6
CONTINUOUS
 62
     3
100
AcDbLine
 10
5.585950930913355
 20
5.980690320332814
 30
0.0
 11
5.585950930913355
 21
6.442880630493142
 31
0.0
  0
LINE
  5
1FB
330
A
100
AcDbEntity
  8
TOP
  6
CONTINUOUS
 62
     3
100
AcDbLine
 10
5.335949182510437
 20
-5.888215700785585
 30
0.0
 11
5.335949182510437
 21
-5.912518501282005
 31
0.0
  0
LINE
  5
1FC
330
A
100
AcDbEntity
  8
TOP
  6
CONTINUOUS
 62
     3
100
AcDbLine
 10
10.77594987551388
 20
2.469285329182842
 30
0.0
 11
10.73875260353105
 21
2.469285329182842
 31
0.0
  0
LINE
  5
1FD
330
A
100
AcDbEntity
  8
TOP
  6
CONTINUOUS
 62
     3
100
AcDbLine
 10
2.272949934005737
 20
-35.3307167689014
 30
0.0
 11
3.765950918197661
 21
-35.3307167689014
 31
0.0
  0
LINE
  5
1FE
330
A
100
AcDbEntity
  8
TOP
  6
CONTINUOUS
 62
     3
100
AcDbLine
 10
25.73201313676539
 20
-8.945711453756025
 30
0.0
 11
25.00401790005069
 21
-8.945711453756025
 31
0.0
  0
LINE
  5
1FF
330
A
100
AcDbEntity
  8
TOP
  6
CONTINUOUS
 62
     3
100
AcDbLine
 10
5.335949182510437
 20
-67.69150495529324
 30
0.0
 11
5.335949182510437
 21
-67.68666903178047
 31
0.0
  0
LINE
  5
200
330
A
100
AcDbEntity
  8
TOP
  6
CONTINUOUS
 62
     3
100
AcDbLine
 10
2.183145602544147
 20
-29.03071244557771
 30
0.0
 11
2.145948330561317
 21
-29.03071244557771
 31
0.0
  0
LINE
  5
201
330
A
100
AcDbEntity
  8
TOP
  6
CONTINUOUS
 62
     3
100
AcDbLine
 10
2.145948330561317
 20
-35.64571539561039
 30
0.0
 11
2.145948330561317
 21
-35.42297681172774
 31
0.0
  0
LINE
  5
202
330
A
100
AcDbEntity
  8
TOP
  6
CONTINUOUS
 62
     3
100
AcDbLine
 10
25.00401790005069
 20
-10.13071537017857
 30
0.0
 11
25.73201313676539
 21
-10.13071537017857
 31
0.0
  0
LINE
  5
203
330
A
100
AcDbEntity
  8
TOP
  6
CONTINUOUS
 62
     3
100
AcDbLine
 10
2.272949934005737
 20
-8.945711453756024
 30
0.0
 11
3.765950918197661
 21
-8.945711453756024
 31
0.0
  0
LINE
  5
204
330
A
100
AcDbEntity
  8
TOP
  6
CONTINUOUS
 62
     3
100
AcDbLine
 10
2.272949934005737
 20
-4.460716247558832
 30
0.0
 11
3.765950918197661
 21
-4.460716247558832
 31
0.0
  0
LINE
  5
205
330
A
100
AcDbEntity
  8
TOP
  6
CONTINUOUS
 62
     3
100
AcDbLine
 10
7.335951248804828
 20
-38.34331035614104
 30
0.0
 11
7.335951248804828
 21
-38.20911248525074
 31
0.0
  0
LINE
  5
206
330
A
100
AcDbEntity
  8
TOP
  6
CONTINUOUS
 62
     3
100
AcDbLine
 10
5.335949182510437
 20
-19.30910746256564
 30
0.0
 11
5.335949182510437
 21
-19.26790873209689
 31
0.0
  0
LINE
  5
207
330
A
100
AcDbEntity
  8
TOP
  6
CONTINUOUS
 62
     3
100
AcDbLine
 10
5.585950930913355
 20
-44.50910886128847
 30
0.0
 11
5.335949182510437
 21
-44.50910886128847
 31
0.0
  0
LINE
  5
208
330
A
100
AcDbEntity
  8
TOP
  6
CONTINUOUS
 62
     3
100
AcDbLine
 10
5.585950930913355
 20
-43.71251265208028
 30
0.0
 11
5.585950930913355
 21
-43.73311201731466
 31
0.0
  0
LINE
  5
209
330
A
100
AcDbEntity
  8
TOP
  6
CONTINUOUS
 62
     3
100
AcDbLine
 10
25.73201313676539
 20
-46.74571355184027
 30
0.0
 11
25.00401790005069
 21
-46.74571355184027
 31
0.0
  0
LINE
  5
20A
330
A
100
AcDbEntity
  8
TOP
  6
CONTINUOUS
 62
     3
100
AcDbLine
 10
10.71245106061316
 20
-22.73071606953999
 30
0.0
 11
10.71245106061316
 21
-22.82297611236632
 31
0.0
  0
LINE
  5
20B
330
A
100
AcDbEntity
  8
TOP
  6
CONTINUOUS
 62
     3
100
AcDbLine
 10
5.585950930913355
 20
-67.53870248794704
 30
0.0
 11
5.335949182510437
 21
-67.53870248794704
 31
0.0
  0
LINE
  5
20C
330
A
100
AcDbEntity
  8
TOP
  6
CONTINUOUS
 62
     3
100
AcDbLine
 10
10.71245106061316
 20
-39.8157119750986
 30
0.0
 11
10.71245106061316
 21
-39.90797201792493
 31
0.0
  0
LINE
  5
20D
330
A
100
AcDbEntity
  8
TOP
  6
CONTINUOUS
 62
     3
100
AcDbLine
 10
2.209451119105019
 20
-21.00797494252579
 30
0.0
 11
2.209451119105019
 21
-20.91571489969946
 31
0.0
  0
LINE
  5
20E
330
A
100
AcDbEntity
  8
TOP
  6
CONTINUOUS
 62
     3
100
AcDbLine
 10
7.335951248804828
 20
-50.20852088928338
 30
0.0
 11
7.335951248804828
 21
-50.25711854299024
 31
0.0
  0
LINE
  5
20F
330
A
100
AcDbEntity
  8
TOP
  6
CONTINUOUS
 62
     3
100
AcDbLine
 10
10.73875260353105
 20
-27.21571127573718
 30
0.0
 11
10.64894827206946
 21
-27.21571127573718
 31
0.0
  0
LINE
  5
210
330
A
100
AcDbEntity
  8
TOP
  6
CONTINUOUS
 62
     3
100
AcDbLine
 10
25.73201313676539
 20
-10.76071262359655
 30
0.0
 11
25.00401790005069
 21
-10.76071262359655
 31
0.0
  0
LINE
  5
211
330
A
100
AcDbEntity
  8
TOP
  6
CONTINUOUS
 62
     3
100
AcDbLine
 10
7.585949023564761
 20
-25.78821182251043
 30
0.0
 11
7.585949023564761
 21
-25.76391696929997
 31
0.0
  0
LINE
  5
212
330
A
100
AcDbEntity
  8
TOP
  6
CONTINUOUS
 62
     3
100
AcDbLine
 10
7.335951248804828
 20
-12.18821207682331
 30
0.0
 11
7.585949023564761
 21
-12.18821207682331
 31
0.0
  0
LINE
  5
213
330
A
100
AcDbEntity
  8
TOP
  6
CONTINUOUS
 62
     3
100
AcDbLine
 10
10.64894827206946
 20
-67.69150495529324
 30
0.0
 11
10.64894827206946
 21
-67.75500377019397
 31
0.0
  0
LINE
  5
214
330
A
100
AcDbEntity
  8
TOP
  6
CONTINUOUS
 62
     3
100
AcDbLine
 10
2.209451119105019
 20
-46.20797634124862
 30
0.0
 11
2.209451119105019
 21
-46.11571629842229
 31
0.0
  0
LINE
  5
215
330
A
100
AcDbEntity
  8
TOP
  6
CONTINUOUS
 62
     3
100
AcDbLine
 10
25.00401790005069
 20
-14.61571057637576
 30
0.0
 11
25.73201313676539
 21
-14.61571057637576
 31
0.0
  0
LINE
  5
216
330
A
100
AcDbEntity
  8
TOP
  6
CONTINUOUS
 62
     3
100
AcDbLine
 10
2.272949934005737
 20
-8.315714200338042
 30
0.0
 11
2.272949934005737
 21
-4.460716247558832
 31
0.0
  0
LINE
  5
217
330
A
100
AcDbEntity
  8
TOP
  6
CONTINUOUS
 62
     3
100
AcDbLine
 10
2.209451119105019
 20
-33.60797564188721
 30
0.0
 11
2.209451119105019
 21
-33.51571559906087
 31
0.0
  0
LINE
  5
218
330
A
100
AcDbEntity
  8
TOP
  6
CONTINUOUS
 62
     3
100
AcDbLine
 10
24.9142135685891
 20
-46.74571355184027
 30
0.0
 11
25.00401790005069
 21
-46.74571355184027
 31
0.0
  0
LINE
  5
219
330
A
100
AcDbEntity
  8
TOP
  6
CONTINUOUS
 62
     3
100
AcDbLine
 10
9.155951261520522
 20
2.469285329182842
 30
0.0
 11
10.64894827206946
 21
2.469285329182842
 31
0.0
  0
LINE
  5
21A
330
A
100
AcDbEntity
  8
TOP
  6
CONTINUOUS
 62
     3
100
AcDbLine
 10
5.335949182510437
 20
-5.933117866516381
 30
0.0
 11
5.585950930913355
 21
-5.933117866516381
 31
0.0
  0
LINE
  5
21B
330
A
100
AcDbEntity
  8
TOP
  6
CONTINUOUS
 62
     3
100
AcDbLine
 10
10.77594987551388
 20
2.377025286356505
 30
0.0
 11
10.77594987551388
 21
2.154286702473851
 31
0.0
  0
LINE
  5
21C
330
A
100
AcDbEntity
  8
TOP
  6
CONTINUOUS
 62
     3
100
AcDbLine
 10
10.73875260353105
 20
-51.80821418762325
 30
0.0
 11
10.64894827206946
 21
-51.80821418762325
 31
0.0
  0
LINE
  5
21D
330
A
100
AcDbEntity
  8
TOP
  6
CONTINUOUS
 62
     3
100
AcDbLine
 10
2.183145602544147
 20
-27.84571647644113
 30
0.0
 11
2.272949934005737
 21
-27.84571647644113
 31
0.0
  0
LINE
  5
21E
330
A
100
AcDbEntity
  8
TOP
  6
CONTINUOUS
 62
     3
100
AcDbLine
 10
2.145948330561317
 20
-39.90797201792493
 30
0.0
 11
2.145948330561317
 21
-39.8157119750986
 31
0.0
  0
LINE
  5
21F
330
A
100
AcDbEntity
  8
TOP
  6
CONTINUOUS
 62
     3
100
AcDbLine
 10
10.77594987551388
 20
-8.315714200338042
 30
0.0
 11
10.77594987551388
 21
-8.40797424316438
 31
0.0
  0
LINE
  5
220
330
A
100
AcDbEntity
  8
TOP
  6
CONTINUOUS
 62
     3
100
AcDbLine
 10
10.71245106061316
 20
-4.368456204732495
 30
0.0
 11
10.71245106061316
 21
-4.460716247558832
 31
0.0
  0
LINE
  5
221
330
A
100
AcDbEntity
  8
TOP
  6
CONTINUOUS
 62
     3
100
AcDbLine
 10
10.77594987551388
 20
-39.90797201792493
 30
0.0
 11
10.77594987551388
 21
-40.13071060180759
 31
0.0
  0
LINE
  5
222
330
A
100
AcDbEntity
  8
TOP
  6
CONTINUOUS
 62
     3
100
AcDbLine
 10
8.965951522191499
 20
7.34178225199381
 30
0.0
 11
8.965951522191499
 21
4.474282264709412
 31
0.0
  0
LINE
  5
223
330
A
100
AcDbEntity
  8
TOP
  6
CONTINUOUS
 62
     3
100
AcDbLine
 10
10.71245106061316
 20
-35.3307167689014
 30
0.0
 11
10.71245106061316
 21
-35.42297681172774
 31
0.0
  0
LINE
  5
224
330
A
100
AcDbEntity
  8
TOP
  6
CONTINUOUS
 62
     3
100
AcDbLine
 10
2.209451119105019
 20
-10.76071262359655
 30
0.0
 11
2.209451119105019
 21
-10.66845258077022
 31
0.0
  0
LINE
  5
225
330
A
100
AcDbEntity
  8
TOP
  6
CONTINUOUS
 62
     3
100
AcDbLine
 10
2.145948330561317
 20
-23.26845328013163
 30
0.0
 11
2.145948330561317
 21
-23.04571469624898
 31
0.0
  0
LINE
  5
226
330
A
100
AcDbEntity
  8
TOP
  6
CONTINUOUS
 62
     3
100
AcDbLine
 10
2.145948330561317
 20
-33.83071422576986
 30
0.0
 11
2.145948330561317
 21
-33.60797564188721
 31
0.0
  0
LINE
  5
227
330
A
100
AcDbEntity
  8
TOP
  6
CONTINUOUS
 62
     3
100
AcDbLine
 10
24.9142135685891
 20
1.839288075764861
 30
0.0
 11
25.00401790005069
 21
1.839288075764861
 31
0.0
  0
LINE
  5
228
330
A
100
AcDbEntity
  8
TOP
  6
CONTINUOUS
 62
     3
100
AcDbLine
 10
2.183145602544147
 20
-20.91571489969946
 30
0.0
 11
2.145948330561317
 21
-20.91571489969946
 31
0.0
  0
LINE
  5
229
330
A
100
AcDbEntity
  8
TOP
  6
CONTINUOUS
 62
     3
100
AcDbLine
 10
5.335949182510437
 20
-67.51117308934678
 30
0.0
 11
5.335949182510437
 21
-67.50150521596421
 31
0.0
  0
LINE
  5
22A
330
A
100
AcDbEntity
  8
TOP
  6
CONTINUOUS
 62
     3
100
AcDbLine
 10
5.585950930913355
 20
-67.67290433248034
 30
0.0
 11
5.335949182510437
 21
-67.67290433248034
 31
0.0
  0
LINE
  5
22B
330
A
100
AcDbEntity
  8
TOP
  6
CONTINUOUS
 62
     3
100
AcDbLine
 10
10.71245106061316
 20
-41.72297318776546
 30
0.0
 11
10.71245106061316
 21
-41.94571177164812
 31
0.0
  0
LINE
  5
22C
330
A
100
AcDbEntity
  8
TOP
  6
CONTINUOUS
 62
     3
100
AcDbLine
 10
2.209451119105019
 20
-10.44571399688756
 30
0.0
 11
2.209451119105019
 21
-10.22297541300491
 31
0.0
  0
LINE
  5
22D
330
A
100
AcDbEntity
  8
TOP
  6
CONTINUOUS
 62
     3
100
AcDbLine
 10
9.155951261520522
 20
-46.11571629842229
 30
0.0
 11
10.64894827206946
 21
-46.11571629842229
 31
0.0
  0
LINE
  5
22E
330
A
100
AcDbEntity
  8
TOP
  6
CONTINUOUS
 62
     3
100
AcDbLine
 10
7.585949023564761
 20
-50.71930885315057
 30
0.0
 11
7.585949023564761
 21
-50.25711854299024
 31
0.0
  0
LINE
  5
22F
330
A
100
AcDbEntity
  8
TOP
  6
CONTINUOUS
 62
     3
100
AcDbLine
 10
2.209451119105019
 20
-35.86845397949305
 30
0.0
 11
2.209451119105019
 21
-35.64571539561039
 31
0.0
  0
LINE
  5
230
330
A
100
AcDbEntity
  8
TOP
  6
CONTINUOUS
 62
     3
100
AcDbLine
 10
5.585950930913355
 20
-31.30852381388423
 30
0.0
 11
5.585950930913355
 21
-31.3571214675911
 31
0.0
  0
LINE
  5
231
330
A
100
AcDbEntity
  8
TOP
  6
CONTINUOUS
 62
     3
100
AcDbLine
 10
5.585950930913355
 20
5.756688117980921
 30
0.0
 11
5.585950930913355
 21
5.890893936157193
 31
0.0
  0
LINE
  5
232
330
A
100
AcDbEntity
  8
TOP
  6
CONTINUOUS
 62
     3
100
AcDbLine
 10
2.272949934005737
 20
-16.43071174621629
 30
0.0
 11
3.765950918197661
 21
-16.43071174621629
 31
0.0
  0
LINE
  5
233
330
A
100
AcDbEntity
  8
TOP
  6
CONTINUOUS
 62
     3
100
AcDbLine
 10
2.272949934005737
 20
-33.51571559906087
 30
0.0
 11
2.183145602544147
 21
-33.51571559906087
 31
0.0
  0
LINE
  5
234
330
A
100
AcDbEntity
  8
TOP
  6
CONTINUOUS
 62
     3
100
AcDbLine
 10
2.145948330561317
 20
-8.315714200338042
 30
0.0
 11
2.145948330561317
 21
-4.460716247558832
 31
0.0
  0
LINE
  5
235
330
A
100
AcDbEntity
  8
TOP
  6
CONTINUOUS
 62
     3
100
AcDbLine
 10
10.71245106061316
 20
2.469285329182842
 30
0.0
 11
10.71245106061316
 21
2.377025286356505
 31
0.0
  0
LINE
  5
236
330
A
100
AcDbEntity
  8
TOP
  6
CONTINUOUS
 62
     3
100
AcDbLine
 10
5.585950930913355
 20
-19.21930313110404
 30
0.0
 11
5.335949182510437
 21
-19.21930313110404
 31
0.0
  0
LINE
  5
237
330
A
100
AcDbEntity
  8
TOP
  6
CONTINUOUS
 62
     3
100
AcDbLine
 10
10.71245106061316
 20
2.154286702473851
 30
0.0
 11
10.71245106061316
 21
1.931548118591197
 31
0.0
  0
LINE
  5
238
330
A
100
AcDbEntity
  8
TOP
  6
CONTINUOUS
 62
     3
100
AcDbLine
 10
2.209451119105019
 20
-34.14571285247886
 30
0.0
 11
2.209451119105019
 21
-34.05345280965252
 31
0.0
  0
LINE
  5
239
330
A
100
AcDbEntity
  8
TOP
  6
CONTINUOUS
 62
     3
100
AcDbLine
 10
2.145948330561317
 20
-2.553455034891964
 30
0.0
 11
2.145948330561317
 21
-2.330716451009311
 31
0.0
  0
LINE
  5
23A
330
A
100
AcDbEntity
  8
TOP
  6
CONTINUOUS
 62
     3
100
AcDbLine
 10
7.335951248804828
 20
-37.41251627604256
 30
0.0
 11
7.335951248804828
 21
-37.43311564127693
 31
0.0
  0
LINE
  5
23B
330
A
100
AcDbEntity
  8
TOP
  6
CONTINUOUS
 62
     3
100
AcDbLine
 10
24.9142135685891
 20
-46.11570835113631
 30
0.0
 11
24.87701232296329
 21
-46.11570835113631
 31
0.0
  0
LINE
  5
23C
330
A
100
AcDbEntity
  8
TOP
  6
CONTINUOUS
 62
     3
100
AcDbLine
 10
2.272949934005737
 20
-22.73071606953999
 30
0.0
 11
3.765950918197661
 21
-22.73071606953999
 31
0.0
  0
LINE
  5
23D
330
A
100
AcDbEntity
  8
TOP
  6
CONTINUOUS
 62
     3
100
AcDbLine
 10
2.272949934005737
 20
-46.11571629842229
 30
0.0
 11
3.765950918197661
 21
-46.11571629842229
 31
0.0
  0
LINE
  5
23E
330
A
100
AcDbEntity
  8
TOP
  6
CONTINUOUS
 62
     3
100
AcDbLine
 10
10.77594987551388
 20
-14.93071715037072
 30
0.0
 11
10.77594987551388
 21
-15.15345573425338
 31
0.0
  0
LINE
  5
23F
330
A
100
AcDbEntity
  8
TOP
  6
CONTINUOUS
 62
     3
100
AcDbLine
 10
10.77594987551388
 20
-34.14571285247886
 30
0.0
 11
10.77594987551388
 21
-35.3307167689014
 31
0.0
  0
LINE
  5
240
330
A
100
AcDbEntity
  8
TOP
  6
CONTINUOUS
 62
     3
100
AcDbLine
 10
10.08945139249181
 20
3.745794296264572
 30
0.0
 11
10.08945139249181
 21
3.969287872314382
 31
0.0
  0
LINE
  5
241
330
A
100
AcDbEntity
  8
TOP
  6
CONTINUOUS
 62
     3
100
AcDbLine
 10
10.77594987551388
 20
3.969287872314382
 30
0.0
 11
10.77594987551388
 21
3.746549288431728
 31
0.0
  0
LINE
  5
242
330
A
100
AcDbEntity
  8
TOP
  6
CONTINUOUS
 62
     3
100
AcDbLine
 10
5.335949182510437
 20
6.666882832845034
 30
0.0
 11
5.585950930913355
 21
6.666882832845034
 31
0.0
  0
LINE
  5
243
330
A
100
AcDbEntity
  8
TOP
  6
CONTINUOUS
 62
     3
100
AcDbLine
 10
10.77594987551388
 20
-10.22297541300491
 30
0.0
 11
10.77594987551388
 21
-10.44571399688756
 31
0.0
  0
LINE
  5
244
330
A
100
AcDbEntity
  8
TOP
  6
CONTINUOUS
 62
     3
100
AcDbLine
 10
2.835951566696178
 20
-46.65626684824733
 30
0.0
 11
2.835951566696178
 21
-46.43071492513128
 31
0.0
  0
LINE
  5
245
330
A
100
AcDbEntity
  8
TOP
  6
CONTINUOUS
 62
     3
100
AcDbLine
 10
5.585950930913355
 20
-18.51251125335745
 30
0.0
 11
5.585950930913355
 21
-18.53311856587779
 31
0.0
  0
LINE
  5
246
330
A
100
AcDbEntity
  8
TOP
  6
CONTINUOUS
 62
     3
100
AcDbLine
 10
2.272949934005737
 20
-41.63071314493913
 30
0.0
 11
3.765950918197661
 21
-41.63071314493913
 31
0.0
  0
LINE
  5
247
330
A
100
AcDbEntity
  8
TOP
  6
CONTINUOUS
 62
     3
100
AcDbLine
 10
2.145948330561317
 20
-40.44571717580255
 30
0.0
 11
2.145948330561317
 21
-40.35344918569024
 31
0.0
  0
LINE
  5
248
330
A
100
AcDbEntity
  8
TOP
  6
CONTINUOUS
 62
     3
100
AcDbLine
 10
10.71245106061316
 20
-3.83071104685488
 30
0.0
 11
10.71245106061316
 21
-3.922979036967187
 31
0.0
  0
LINE
  5
249
330
A
100
AcDbEntity
  8
TOP
  6
CONTINUOUS
 62
     3
100
AcDbLine
 10
10.77594987551388
 20
-35.64571539561039
 30
0.0
 11
10.77594987551388
 21
-35.86845397949305
 31
0.0
  0
LINE
  5
24A
330
A
100
AcDbEntity
  8
TOP
  6
CONTINUOUS
 62
     3
100
AcDbLine
 10
7.585949023564761
 20
-0.3679037094117783
 30
0.0
 11
7.585949023564761
 21
-0.3193060557049088
 31
0.0
  0
LINE
  5
24B
330
A
100
AcDbEntity
  8
TOP
  6
CONTINUOUS
 62
     3
100
AcDbLine
 10
2.183145602544147
 20
-10.13071537017857
 30
0.0
 11
2.145948330561317
 21
-10.13071537017857
 31
0.0
  0
LINE
  5
24C
330
A
100
AcDbEntity
  8
TOP
  6
CONTINUOUS
 62
     3
100
AcDbLine
 10
10.77594987551388
 20
7.53178596496582
 30
0.0
 11
10.77594987551388
 21
4.284286499023372
 31
0.0
  0
LINE
  5
24D
330
A
100
AcDbEntity
  8
TOP
  6
CONTINUOUS
 62
     3
100
AcDbLine
 10
2.209451119105019
 20
-8.853451410929688
 30
0.0
 11
2.209451119105019
 21
-8.630712827047034
 31
0.0
  0
LINE
  5
24E
330
A
100
AcDbEntity
  8
TOP
  6
CONTINUOUS
 62
     3
100
AcDbLine
 10
25.00401790005069
 20
-22.73070812225402
 30
0.0
 11
25.73201313676539
 21
-22.73070812225402
 31
0.0
  0
LINE
  5
24F
330
A
100
AcDbEntity
  8
TOP
  6
CONTINUOUS
 62
     3
100
AcDbLine
 10
25.00401790005069
 20
-8.315714200338042
 30
0.0
 11
25.73201313676539
 21
-8.315714200338042
 31
0.0
  0
LINE
  5
250
330
A
100
AcDbEntity
  8
TOP
  6
CONTINUOUS
 62
     3
100
AcDbLine
 10
25.00401790005069
 20
-29.03071244557771
 30
0.0
 11
24.9142135685891
 21
-29.03071244557771
 31
0.0
  0
LINE
  5
251
330
A
100
AcDbEntity
  8
TOP
  6
CONTINUOUS
 62
     3
100
AcDbLine
 10
24.9142135685891
 20
2.469285329182842
 30
0.0
 11
24.87701232296329
 21
2.469285329182842
 31
0.0
  0
LINE
  5
252
330
A
100
AcDbEntity
  8
TOP
  6
CONTINUOUS
 62
     3
100
AcDbLine
 10
2.183145602544147
 20
-17.06071694692024
 30
0.0
 11
2.272949934005737
 21
-17.06071694692024
 31
0.0
  0
LINE
  5
253
330
A
100
AcDbEntity
  8
TOP
  6
CONTINUOUS
 62
     3
100
AcDbLine
 10
10.71245106061316
 20
-46.43071492513128
 30
0.0
 11
10.71245106061316
 21
-46.65345350901393
 31
0.0
  0
LINE
  5
254
330
A
100
AcDbEntity
  8
TOP
  6
CONTINUOUS
 62
     3
100
AcDbLine
 10
10.71245106061316
 20
-29.12297248840404
 30
0.0
 11
10.71245106061316
 21
-29.3457110722867
 31
0.0
  0
LINE
  5
255
330
A
100
AcDbEntity
  8
TOP
  6
CONTINUOUS
 62
     3
100
AcDbLine
 10
7.585949023564761
 20
-50.76790650685744
 30
0.0
 11
7.585949023564761
 21
-50.71930885315057
 31
0.0
  0
LINE
  5
256
330
A
100
AcDbEntity
  8
TOP
  6
CONTINUOUS
 62
     3
100
AcDbLine
 10
10.71245106061316
 20
-29.56844965616935
 30
0.0
 11
10.71245106061316
 21
-29.66071764628166
 31
0.0
  0
LINE
  5
257
330
A
100
AcDbEntity
  8
TOP
  6
CONTINUOUS
 62
     3
100
AcDbLine
 10
10.71245106061316
 20
-27.30797926584949
 30
0.0
 11
10.71245106061316
 21
-27.53071784973214
 31
0.0
  0
LINE
  5
258
330
A
100
AcDbEntity
  8
TOP
  6
CONTINUOUS
 62
     3
100
AcDbLine
 10
10.77594987551388
 20
-14.61571057637576
 30
0.0
 11
10.77594987551388
 21
-14.70797856648807
 31
0.0
  0
LINE
  5
259
330
A
100
AcDbEntity
  8
TOP
  6
CONTINUOUS
 62
     3
100
AcDbLine
 10
9.155951261520522
 20
-34.14571285247886
 30
0.0
 11
10.64894827206946
 21
-34.14571285247886
 31
0.0
  0
LINE
  5
25A
330
A
100
AcDbEntity
  8
TOP
  6
CONTINUOUS
 62
     3
100
AcDbLine
 10
5.335949182510437
 20
6.711784998575829
 30
0.0
 11
5.585950930913355
 21
6.711784998575829
 31
0.0
  0
LINE
  5
25B
330
A
100
AcDbEntity
  8
TOP
  6
CONTINUOUS
 62
     3
100
AcDbLine
 10
25.73201313676539
 20
-23.36071332295797
 30
0.0
 11
25.00401790005069
 21
-23.36071332295797
 31
0.0
  0
LINE
  5
25C
330
A
100
AcDbEntity
  8
TOP
  6
CONTINUOUS
 62
     3
100
AcDbLine
 10
24.87701232296329
 20
-17.06070899963427
 30
0.0
 11
24.87701232296329
 21
-20.91571489969946
 31
0.0
  0
LINE
  5
25D
330
A
100
AcDbEntity
  8
TOP
  6
CONTINUOUS
 62
     3
100
AcDbLine
 10
2.272949934005737
 20
-14.61571057637576
 30
0.0
 11
3.765950918197661
 21
-14.61571057637576
 31
0.0
  0
LINE
  5
25E
330
A
100
AcDbEntity
  8
TOP
  6
CONTINUOUS
 62
     3
100
AcDbLine
 10
2.209451119105019
 20
-41.72297318776546
 30
0.0
 11
2.209451119105019
 21
-41.63071314493913
 31
0.0
  0
LINE
  5
25F
330
A
100
AcDbEntity
  8
TOP
  6
CONTINUOUS
 62
     3
100
AcDbLine
 10
10.77594987551388
 20
3.654289245605391
 30
0.0
 11
10.77594987551388
 21
2.469285329182842
 31
0.0
  0
LINE
  5
260
330
A
100
AcDbEntity
  8
TOP
  6
CONTINUOUS
 62
     3
100
AcDbLine
 10
2.209451119105019
 20
-29.56844965616935
 30
0.0
 11
2.209451119105019
 21
-29.3457110722867
 31
0.0
  0
LINE
  5
261
330
A
100
AcDbEntity
  8
TOP
  6
CONTINUOUS
 62
     3
100
AcDbLine
 10
2.145948330561317
 20
-4.145717620849842
 30
0.0
 11
2.145948330561317
 21
-3.922979036967187
 31
0.0
  0
LINE
  5
262
330
A
100
AcDbEntity
  8
TOP
  6
CONTINUOUS
 62
     3
100
AcDbLine
 10
24.9142135685891
 20
-42.2607103983571
 30
0.0
 11
25.00401790005069
 21
-42.2607103983571
 31
0.0
  0
LINE
  5
263
330
A
100
AcDbEntity
  8
TOP
  6
CONTINUOUS
 62
     3
100
AcDbLine
 10
2.272949934005737
 20
-22.73071606953999
 30
0.0
 11
2.183145602544147
 21
-22.73071606953999
 31
0.0
  0
LINE
  5
264
330
A
100
AcDbEntity
  8
TOP
  6
CONTINUOUS
 62
     3
100
AcDbLine
 10
5.585950930913355
 20
-6.843312581380494
 30
0.0
 11
5.585950930913355
 21
-6.709106763204221
 31
0.0
  0
LINE
  5
265
330
A
100
AcDbEntity
  8
TOP
  6
CONTINUOUS
 62
     3
100
AcDbLine
 10
2.145948330561317
 20
-46.11571629842229
 30
0.0
 11
2.145948330561317
 21
-42.26071039835711
 31
0.0
  0
LINE
  5
266
330
A
100
AcDbEntity
  8
TOP
  6
CONTINUOUS
 62
     3
100
AcDbLine
 10
10.77594987551388
 20
-10.66845258077022
 30
0.0
 11
10.77594987551388
 21
-10.76071262359655
 31
0.0
  0
LINE
  5
267
330
A
100
AcDbEntity
  8
TOP
  6
CONTINUOUS
 62
     3
100
AcDbLine
 10
2.145948330561317
 20
-23.36071332295797
 30
0.0
 11
2.183145602544147
 21
-23.36071332295797
 31
0.0
  0
LINE
  5
268
330
A
100
AcDbEntity
  8
TOP
  6
CONTINUOUS
 62
     3
100
AcDbLine
 10
3.765970786412586
 20
-51.80821418762325
 30
0.0
 11
9.155927419662612
 21
-51.80821418762325
 31
0.0
  0
LINE
  5
269
330
A
100
AcDbEntity
  8
TOP
  6
CONTINUOUS
 62
     3
100
AcDbLine
 10
7.585949023564761
 20
-24.96732076009179
 30
0.0
 11
7.585949023564761
 21
-25.00851949056054
 31
0.0
  0
LINE
  5
26A
330
A
100
AcDbEntity
  8
TOP
  6
CONTINUOUS
 62
     3
100
AcDbLine
 10
5.585950930913355
 20
-19.44331328074191
 30
0.0
 11
5.585950930913355
 21
-19.30910746256564
 31
0.0
  0
LINE
  5
26B
330
A
100
AcDbEntity
  8
TOP
  6
CONTINUOUS
 62
     3
100
AcDbLine
 10
9.155951261520522
 20
-27.21571127573718
 30
0.0
 11
10.64894827206946
 21
-27.21571127573718
 31
0.0
  0
LINE
  5
26C
330
A
100
AcDbEntity
  8
TOP
  6
CONTINUOUS
 62
     3
100
AcDbLine
 10
5.335949182510437
 20
-31.11251195271886
 30
0.0
 11
5.335949182510437
 21
-31.13311926523921
 31
0.0
  0
LINE
  5
26D
330
A
100
AcDbEntity
  8
TOP
  6
CONTINUOUS
 62
     3
100
AcDbLine
 10
10.71245106061316
 20
-8.40797424316438
 30
0.0
 11
10.71245106061316
 21
-8.630712827047034
 31
0.0
  0
LINE
  5
26E
330
A
100
AcDbEntity
  8
TOP
  6
CONTINUOUS
 62
     3
100
AcDbLine
 10
10.77594987551388
 20
-34.05345280965252
 30
0.0
 11
10.77594987551388
 21
-34.14571285247886
 31
0.0
  0
LINE
  5
26F
330
A
100
AcDbEntity
  8
TOP
  6
CONTINUOUS
 62
     3
100
AcDbLine
 10
5.335949182510437
 20
-6.619310379028601
 30
0.0
 11
5.335949182510437
 21
-6.157120068868273
 31
0.0
  0
LINE
  5
270
330
A
100
AcDbEntity
  8
TOP
  6
CONTINUOUS
 62
     3
100
AcDbLine
 10
8.965951522191499
 20
-64.38850561777893
 30
0.0
 11
8.965951522191499
 21
-64.32500282923523
 31
0.0
  0
LINE
  5
271
330
A
100
AcDbEntity
  8
TOP
  6
CONTINUOUS
 62
     3
100
AcDbLine
 10
5.585950930913355
 20
6.687482198079409
 30
0.0
 11
5.585950930913355
 21
6.666882832845034
 31
0.0
  0
LINE
  5
272
330
A
100
AcDbEntity
  8
TOP
  6
CONTINUOUS
 62
     3
100
AcDbLine
 10
25.00401790005069
 20
-3.830711046854879
 30
0.0
 11
25.73201313676539
 21
-3.830711046854879
 31
0.0
  0
LINE
  5
273
330
A
100
AcDbEntity
  8
TOP
  6
CONTINUOUS
 62
     3
100
AcDbLine
 10
24.87701232296329
 20
-27.84570852915516
 30
0.0
 11
24.9142135685891
 21
-27.84570852915516
 31
0.0
  0
LINE
  5
274
330
A
100
AcDbEntity
  8
TOP
  6
CONTINUOUS
 62
     3
100
AcDbLine
 10
24.9142135685891
 20
3.654289245605392
 30
0.0
 11
25.00401790005069
 21
3.654289245605392
 31
0.0
  0
LINE
  5
275
330
A
100
AcDbEntity
  8
TOP
  6
CONTINUOUS
 62
     3
100
AcDbLine
 10
2.183145602544147
 20
-35.3307167689014
 30
0.0
 11
2.145948330561317
 21
-35.3307167689014
 31
0.0
  0
LINE
  5
276
330
A
100
AcDbEntity
  8
TOP
  6
CONTINUOUS
 62
     3
100
AcDbLine
 10
5.585950930913355
 20
6.666882832845034
 30
0.0
 11
5.585950930913355
 21
6.532677014668762
 31
0.0
  0
LINE
  5
277
330
A
100
AcDbEntity
  8
TOP
  6
CONTINUOUS
 62
     3
100
AcDbLine
 10
10.71245106061316
 20
-48.46845467885446
 30
0.0
 11
10.71245106061316
 21
-48.5607147216808
 31
0.0
  0
LINE
  5
278
330
A
100
AcDbEntity
  8
TOP
  6
CONTINUOUS
 62
     3
100
AcDbLine
 10
10.77594987551388
 20
-46.74571355184027
 30
0.0
 11
10.77594987551388
 21
-47.93071746826282
 31
0.0
  0
LINE
  5
279
330
A
100
AcDbEntity
  8
TOP
  6
CONTINUOUS
 62
     3
100
AcDbLine
 10
7.335951248804828
 20
-50.03311634063835
 30
0.0
 11
7.335951248804828
 21
-50.16732215881463
 31
0.0
  0
LINE
  5
27A
330
A
100
AcDbEntity
  8
TOP
  6
CONTINUOUS
 62
     3
100
AcDbLine
 10
7.585949023564761
 20
0.2326806386310397
 30
0.0
 11
7.585949023564761
 21
0.1914819081622888
 31
0.0
  0
LINE
  5
27B
330
A
100
AcDbEntity
  8
TOP
  6
CONTINUOUS
 62
     3
100
AcDbLine
 10
5.335949182510437
 20
-31.8679094314583
 30
0.0
 11
5.335949182510437
 21
-31.81930383046546
 31
0.0
  0
LINE
  5
27C
330
A
100
AcDbEntity
  8
TOP
  6
CONTINUOUS
 62
     3
100
AcDbLine
 10
9.155951261520522
 20
-35.3307167689014
 30
0.0
 11
10.64894827206946
 21
-35.3307167689014
 31
0.0
  0
LINE
  5
27D
330
A
100
AcDbEntity
  8
TOP
  6
CONTINUOUS
 62
     3
100
AcDbLine
 10
2.272949934005737
 20
-67.75500377019397
 30
0.0
 11
2.272949934005737
 21
-67.69150495529324
 31
0.0
  0
LINE
  5
27E
330
A
100
AcDbEntity
  8
TOP
  6
CONTINUOUS
 62
     3
100
AcDbLine
 10
2.272949934005737
 20
-14.61571057637576
 30
0.0
 11
2.183145602544147
 21
-14.61571057637576
 31
0.0
  0
LINE
  5
27F
330
A
100
AcDbEntity
  8
TOP
  6
CONTINUOUS
 62
     3
100
AcDbLine
 10
9.155951261520522
 20
-2.645715077718301
 30
0.0
 11
10.64894827206946
 21
-2.645715077718301
 31
0.0
  0
LINE
  5
280
330
A
100
AcDbEntity
  8
TOP
  6
CONTINUOUS
 62
     3
100
AcDbLine
 10
10.64894827206946
 20
3.654289245605391
 30
0.0
 11
10.64894827206946
 21
2.469285329182842
 31
0.0
  0
LINE
  5
281
330
A
100
AcDbEntity
  8
TOP
  6
CONTINUOUS
 62
     3
100
AcDbLine
 10
2.209451119105019
 20
-27.53071784973214
 30
0.0
 11
2.209451119105019
 21
-27.30797926584949
 31
0.0
  0
LINE
  5
282
330
A
100
AcDbEntity
  8
TOP
  6
CONTINUOUS
 62
     3
100
AcDbLine
 10
2.145948330561317
 20
-8.40797424316438
 30
0.0
 11
2.145948330561317
 21
-8.315714200338042
 31
0.0
  0
LINE
  5
283
330
A
100
AcDbEntity
  8
TOP
  6
CONTINUOUS
 62
     3
100
AcDbLine
 10
24.9142135685891
 20
-41.63071314493913
 30
0.0
 11
24.87701232296329
 21
-41.63071314493913
 31
0.0
  0
LINE
  5
284
330
A
100
AcDbEntity
  8
TOP
  6
CONTINUOUS
 62
     3
100
AcDbLine
 10
25.00401790005069
 20
-8.945711453756025
 30
0.0
 11
25.00401790005069
 21
-10.13071537017857
 31
0.0
  0
LINE
  5
285
330
A
100
AcDbEntity
  8
TOP
  6
CONTINUOUS
 62
     3
100
AcDbLine
 10
2.145948330561317
 20
-21.54571215311744
 30
0.0
 11
2.183145602544147
 21
-21.54571215311744
 31
0.0
  0
LINE
  5
286
330
A
100
AcDbEntity
  8
TOP
  6
CONTINUOUS
 62
     3
100
AcDbLine
 10
5.585950930913355
 20
-6.863911946614869
 30
0.0
 11
5.585950930913355
 21
-6.843312581380494
 31
0.0
  0
LINE
  5
287
330
A
100
AcDbEntity
  8
TOP
  6
CONTINUOUS
 62
     3
100
AcDbLine
 10
10.77594987551388
 20
-10.13071537017857
 30
0.0
 11
10.77594987551388
 21
-10.22297541300491
 31
0.0
  0
LINE
  5
288
330
A
100
AcDbEntity
  8
TOP
  6
CONTINUOUS
 62
     3
100
AcDbLine
 10
2.183145602544147
 20
-48.5607147216808
 30
0.0
 11
2.272949934005737
 21
-48.5607147216808
 31
0.0
  0
LINE
  5
289
330
A
100
AcDbEntity
  8
TOP
  6
CONTINUOUS
 62
     3
100
AcDbLine
 10
5.585950930913355
 20
6.442880630493142
 30
0.0
 11
5.335949182510437
 21
6.442880630493142
 31
0.0
  0
LINE
  5
28A
330
A
100
AcDbEntity
  8
TOP
  6
CONTINUOUS
 62
     3
100
AcDbLine
 10
2.145948330561317
 20
-34.14571285247886
 30
0.0
 11
2.183145602544147
 21
-34.14571285247886
 31
0.0
  0
LINE
  5
28B
330
A
100
AcDbEntity
  8
TOP
  6
CONTINUOUS
 62
     3
100
AcDbLine
 10
10.71245106061316
 20
-10.44571399688756
 30
0.0
 11
10.71245106061316
 21
-10.66845258077022
 31
0.0
  0
LINE
  5
28C
330
A
100
AcDbEntity
  8
TOP
  6
CONTINUOUS
 62
     3
100
AcDbLine
 10
10.77594987551388
 20
-33.51571559906087
 30
0.0
 11
10.77594987551388
 21
-33.60797564188721
 31
0.0
  0
LINE
  5
28D
330
A
100
AcDbEntity
  8
TOP
  6
CONTINUOUS
 62
     3
100
AcDbLine
 10
5.335949182510437
 20
-6.66790803273547
 30
0.0
 11
5.335949182510437
 21
-6.619310379028601
 31
0.0
  0
LINE
  5
28E
330
A
100
AcDbEntity
  8
TOP
  6
CONTINUOUS
 62
     3
100
AcDbLine
 10
10.73875260353105
 20
-2.015717824300319
 30
0.0
 11
10.64894827206946
 21
-2.015717824300319
 31
0.0
  0
LINE
  5
28F
330
A
100
AcDbEntity
  8
TOP
  6
CONTINUOUS
 62
     3
100
AcDbLine
 10
5.585950930913355
 20
-32.04331398010332
 30
0.0
 11
5.585950930913355
 21
-31.90910816192705
 31
0.0
  0
LINE
  5
290
330
A
100
AcDbEntity
  8
TOP
  6
CONTINUOUS
 62
     3
100
AcDbLine
 10
25.00401790005069
 20
-2.015709877014348
 30
0.0
 11
25.73201313676539
 21
-2.015709877014348
 31
0.0
  0
LINE
  5
291
330
A
100
AcDbEntity
  8
TOP
  6
CONTINUOUS
 62
     3
100
AcDbLine
 10
25.00401790005069
 20
-27.21571127573718
 30
0.0
 11
24.9142135685891
 21
-27.21571127573718
 31
0.0
  0
LINE
  5
292
330
A
100
AcDbEntity
  8
TOP
  6
CONTINUOUS
 62
     3
100
AcDbLine
 10
24.9142135685891
 20
7.53178596496582
 30
0.0
 11
24.87701232296329
 21
7.53178596496582
 31
0.0
  0
LINE
  5
293
330
A
100
AcDbEntity
  8
TOP
  6
CONTINUOUS
 62
     3
100
AcDbLine
 10
7.335951248804828
 20
0.2326806386310397
 30
0.0
 11
7.585949023564761
 21
0.2326806386310397
 31
0.0
  0
LINE
  5
294
330
A
100
AcDbEntity
  8
TOP
  6
CONTINUOUS
 62
     3
100
AcDbLine
 10
7.335951248804828
 20
-67.68666903178047
 30
0.0
 11
7.335951248804828
 21
-67.67290433248034
 31
0.0
  0
LINE
  5
295
330
A
100
AcDbEntity
  8
TOP
  6
CONTINUOUS
 62
     3
100
AcDbLine
 10
7.335951248804828
 20
-25.51930745442774
 30
0.0
 11
7.335951248804828
 21
-25.05712509155338
 31
0.0
  0
LINE
  5
296
330
A
100
AcDbEntity
  8
TOP
  6
CONTINUOUS
 62
     3
100
AcDbLine
 10
10.71245106061316
 20
-47.93071746826282
 30
0.0
 11
10.71245106061316
 21
-48.02297751108916
 31
0.0
  0
LINE
  5
297
330
A
100
AcDbEntity
  8
TOP
  6
CONTINUOUS
 62
     3
100
AcDbLine
 10
10.73875260353105
 20
-46.74571355184027
 30
0.0
 11
10.77594987551388
 21
-46.74571355184027
 31
0.0
  0
LINE
  5
298
330
A
100
AcDbEntity
  8
TOP
  6
CONTINUOUS
 62
     3
100
AcDbLine
 10
7.335951248804828
 20
-49.98821417490756
 30
0.0
 11
7.335951248804828
 21
-50.01251697540397
 31
0.0
  0
LINE
  5
299
330
A
100
AcDbEntity
  8
TOP
  6
CONTINUOUS
 62
     3
100
AcDbLine
 10
5.585950930913355
 20
-6.108522415161404
 30
0.0
 11
5.585950930913355
 21
-6.157120068868273
 31
0.0
  0
LINE
  5
29A
330
A
100
AcDbEntity
  8
TOP
  6
CONTINUOUS
 62
     3
100
AcDbLine
 10
5.585950930913355
 20
-31.90910816192705
 30
0.0
 11
5.585950930913355
 21
-31.8679094314583
 31
0.0
  0
LINE
  5
29B
330
A
100
AcDbEntity
  8
TOP
  6
CONTINUOUS
 62
     3
100
AcDbLine
 10
8.965951522191499
 20
-42.45071411132911
 30
0.0
 11
8.965951522191499
 21
-45.92571258545028
 31
0.0
  0
LINE
  5
29C
330
A
100
AcDbEntity
  8
TOP
  6
CONTINUOUS
 62
     3
100
AcDbLine
 10
5.335949182510437
 20
-44.46791013081972
 30
0.0
 11
5.335949182510437
 21
-44.41930452982687
 31
0.0
  0
LINE
  5
29D
330
A
100
AcDbEntity
  8
TOP
  6
CONTINUOUS
 62
     3
100
AcDbLine
 10
2.145948330561317
 20
-10.76071262359655
 30
0.0
 11
2.183145602544147
 21
-10.76071262359655
 31
0.0
  0
LINE
  5
29E
330
A
100
AcDbEntity
  8
TOP
  6
CONTINUOUS
 62
     3
100
AcDbLine
 10
8.965951522191499
 20
-2.83571084340434
 30
0.0
 11
8.965951522191499
 21
-3.640715281168842
 31
0.0
  0
LINE
  5
29F
330
A
100
AcDbEntity
  8
TOP
  6
CONTINUOUS
 62
     3
100
AcDbLine
 10
25.73201313676539
 20
-35.96071402231938
 30
0.0
 11
25.00401790005069
 21
-35.96071402231938
 31
0.0
  0
LINE
  5
2A0
330
A
100
AcDbEntity
  8
TOP
  6
CONTINUOUS
 62
     3
100
AcDbLine
 10
2.145948330561317
 20
-8.945711453756024
 30
0.0
 11
2.145948330561317
 21
-8.853451410929688
 31
0.0
  0
LINE
  5
2A1
330
A
100
AcDbEntity
  8
TOP
  6
CONTINUOUS
 62
     3
100
AcDbLine
 10
5.335949182510437
 20
-44.64331467946474
 30
0.0
 11
5.335949182510437
 21
-44.50910886128847
 31
0.0
  0
LINE
  5
2A2
330
A
100
AcDbEntity
  8
TOP
  6
CONTINUOUS
 62
     3
100
AcDbLine
 10
24.9142135685891
 20
-40.44570922851657
 30
0.0
 11
25.00401790005069
 21
-40.44570922851657
 31
0.0
  0
LINE
  5
2A3
330
A
100
AcDbEntity
  8
TOP
  6
CONTINUOUS
 62
     3
100
AcDbLine
 10
10.77594987551388
 20
-8.40797424316438
 30
0.0
 11
10.77594987551388
 21
-8.630712827047034
 31
0.0
  0
LINE
  5
2A4
330
A
100
AcDbEntity
  8
TOP
  6
CONTINUOUS
 62
     3
100
AcDbLine
 10
5.335949182510437
 20
-43.86731783549093
 30
0.0
 11
5.335949182510437
 21
-43.90852451324565
 31
0.0
  0
LINE
  5
2A5
330
A
100
AcDbEntity
  8
TOP
  6
CONTINUOUS
 62
     3
100
AcDbLine
 10
2.145948330561317
 20
-51.80821418762325
 30
0.0
 11
2.183145602544147
 21
-51.80821418762325
 31
0.0
  0
LINE
  5
2A6
330
A
100
AcDbEntity
  8
TOP
  6
CONTINUOUS
 62
     3
100
AcDbLine
 10
9.155951261520522
 20
-35.96071402231938
 30
0.0
 11
10.64894827206946
 21
-35.96071402231938
 31
0.0
  0
LINE
  5
2A7
330
A
100
AcDbEntity
  8
TOP
  6
CONTINUOUS
 62
     3
100
AcDbLine
 10
9.155951261520522
 20
-33.51571559906087
 30
0.0
 11
10.64894827206946
 21
-33.51571559906087
 31
0.0
  0
LINE
  5
2A8
330
A
100
AcDbEntity
  8
TOP
  6
CONTINUOUS
 62
     3
100
AcDbLine
 10
10.71245106061316
 20
-15.15345573425338
 30
0.0
 11
10.71245106061316
 21
-15.24571577707971
 31
0.0
  0
LINE
  5
2A9
330
A
100
AcDbEntity
  8
TOP
  6
CONTINUOUS
 62
     3
100
AcDbLine
 10
2.145948330561317
 20
-16.43071174621629
 30
0.0
 11
2.145948330561317
 21
-15.24571577707971
 31
0.0
  0
LINE
  5
2AA
330
A
100
AcDbEntity
  8
TOP
  6
CONTINUOUS
 62
     3
100
AcDbLine
 10
10.77594987551388
 20
-29.12297248840404
 30
0.0
 11
10.77594987551388
 21
-29.3457110722867
 31
0.0
  0
LINE
  5
2AB
330
A
100
AcDbEntity
  8
TOP
  6
CONTINUOUS
 62
     3
100
AcDbLine
 10
9.155951261520522
 20
-8.315714200338042
 30
0.0
 11
10.64894827206946
 21
-8.315714200338042
 31
0.0
  0
LINE
  5
2AC
330
A
100
AcDbEntity
  8
TOP
  6
CONTINUOUS
 62
     3
100
AcDbLine
 10
10.73875260353105
 20
1.83928807576486
 30
0.0
 11
10.77594987551388
 21
1.83928807576486
 31
0.0
  0
LINE
  5
2AD
330
A
100
AcDbEntity
  8
TOP
  6
CONTINUOUS
 62
     3
100
AcDbLine
 10
2.272949934005737
 20
4.284286499023372
 30
0.0
 11
3.765950918197661
 21
4.284286499023372
 31
0.0
  0
LINE
  5
2AE
330
A
100
AcDbEntity
  8
TOP
  6
CONTINUOUS
 62
     3
100
AcDbLine
 10
2.209451119105019
 20
-2.645715077718301
 30
0.0
 11
2.209451119105019
 21
-2.553455034891964
 31
0.0
  0
LINE
  5
2AF
330
A
100
AcDbEntity
  8
TOP
  6
CONTINUOUS
 62
     3
100
AcDbLine
 10
25.00401790005069
 20
2.469285329182842
 30
0.0
 11
25.73201313676539
 21
2.469285329182842
 31
0.0
  0
LINE
  5
2B0
330
A
100
AcDbEntity
  8
TOP
  6
CONTINUOUS
 62
     3
100
AcDbLine
 10
10.64894827206946
 20
-27.84571647644113
 30
0.0
 11
10.64894827206946
 21
-29.03071244557771
 31
0.0
  0
LINE
  5
2B1
330
A
100
AcDbEntity
  8
TOP
  6
CONTINUOUS
 62
     3
100
AcDbLine
 10
24.87701232296329
 20
-23.36071332295797
 30
0.0
 11
24.9142135685891
 21
-23.36071332295797
 31
0.0
  0
LINE
  5
2B2
330
A
100
AcDbEntity
  8
TOP
  6
CONTINUOUS
 62
     3
100
AcDbLine
 10
24.9142135685891
 20
4.284286499023373
 30
0.0
 11
24.87701232296329
 21
4.284286499023373
 31
0.0
  0
LINE
  5
2B3
330
A
100
AcDbEntity
  8
TOP
  6
CONTINUOUS
 62
     3
100
AcDbLine
 10
10.77594987551388
 20
-15.24571577707971
 30
0.0
 11
10.77594987551388
 21
-16.43071174621629
 31
0.0
  0
LINE
  5
2B4
330
A
100
AcDbEntity
  8
TOP
  6
CONTINUOUS
 62
     3
100
AcDbLine
 10
10.77594987551388
 20
-48.24571609497181
 30
0.0
 11
10.77594987551388
 21
-48.46845467885446
 31
0.0
  0
LINE
  5
2B5
330
A
100
AcDbEntity
  8
TOP
  6
CONTINUOUS
 62
     3
100
AcDbLine
 10
7.585949023564761
 20
-50.80910523732619
 30
0.0
 11
7.335951248804828
 21
-50.80910523732619
 31
0.0
  0
LINE
  5
2B6
330
A
100
AcDbEntity
  8
TOP
  6
CONTINUOUS
 62
     3
100
AcDbLine
 10
5.335949182510437
 20
-6.067315737406683
 30
0.0
 11
5.335949182510437
 21
-6.108522415161404
 31
0.0
  0
LINE
  5
2B7
330
A
100
AcDbEntity
  8
TOP
  6
CONTINUOUS
 62
     3
100
AcDbLine
 10
5.585950930913355
 20
-31.13311926523921
 30
0.0
 11
5.585950930913355
 21
-31.26731713612951
 31
0.0
  0
LINE
  5
2B8
330
A
100
AcDbEntity
  8
TOP
  6
CONTINUOUS
 62
     3
100
AcDbLine
 10
10.77594987551388
 20
-46.11571629842229
 30
0.0
 11
10.73875260353105
 21
-46.11571629842229
 31
0.0
  0
LINE
  5
2B9
330
A
100
AcDbEntity
  8
TOP
  6
CONTINUOUS
 62
     3
100
AcDbLine
 10
10.73875260353105
 20
-34.14571285247886
 30
0.0
 11
10.77594987551388
 21
-34.14571285247886
 31
0.0
  0
LINE
  5
2BA
330
A
100
AcDbEntity
  8
TOP
  6
CONTINUOUS
 62
     3
100
AcDbLine
 10
10.73875260353105
 20
-29.03071244557771
 30
0.0
 11
10.64894827206946
 21
-29.03071244557771
 31
0.0
  0
LINE
  5
2BB
330
A
100
AcDbEntity
  8
TOP
  6
CONTINUOUS
 62
     3
100
AcDbLine
 10
10.64894827206946
 20
-23.36071332295797
 30
0.0
 11
10.73875260353105
 21
-23.36071332295797
 31
0.0
  0
LINE
  5
2BC
330
A
100
AcDbEntity
  8
TOP
  6
CONTINUOUS
 62
     3
100
AcDbLine
 10
10.64894827206946
 20
-23.36071332295797
 30
0.0
 11
10.64894827206946
 21
-27.21571127573718
 31
0.0
  0
LINE
  5
2BD
330
A
100
AcDbEntity
  8
TOP
  6
CONTINUOUS
 62
     3
100
AcDbLine
 10
2.209451119105019
 20
-23.36071332295797
 30
0.0
 11
2.209451119105019
 21
-23.26845328013163
 31
0.0
  0
LINE
  5
2BE
330
A
100
AcDbEntity
  8
TOP
  6
CONTINUOUS
 62
     3
100
AcDbLine
 10
24.9142135685891
 20
-39.81571197509859
 30
0.0
 11
24.87701232296329
 21
-39.81571197509859
 31
0.0
  0
LINE
  5
2BF
330
A
100
AcDbEntity
  8
TOP
  6
CONTINUOUS
 62
     3
100
AcDbLine
 10
10.77594987551388
 20
-27.84571647644113
 30
0.0
 11
10.77594987551388
 21
-29.03071244557771
 31
0.0
  0
LINE
  5
2C0
330
A
100
AcDbEntity
  8
TOP
  6
CONTINUOUS
 62
     3
100
AcDbLine
 10
7.585949023564761
 20
-12.2331142425541
 30
0.0
 11
7.585949023564761
 21
-12.36732006073037
 31
0.0
  0
LINE
  5
2C1
330
A
100
AcDbEntity
  8
TOP
  6
CONTINUOUS
 62
     3
100
AcDbLine
 10
10.77594987551388
 20
-4.145717620849842
 30
0.0
 11
10.77594987551388
 21
-4.368456204732495
 31
0.0
  0
LINE
  5
2C2
330
A
100
AcDbEntity
  8
TOP
  6
CONTINUOUS
 62
     3
100
AcDbLine
 10
10.73875260353105
 20
-39.8157119750986
 30
0.0
 11
10.64894827206946
 21
-39.8157119750986
 31
0.0
  0
LINE
  5
2C3
330
A
100
AcDbEntity
  8
TOP
  6
CONTINUOUS
 62
     3
100
AcDbLine
 10
10.71245106061316
 20
4.192026456197036
 30
0.0
 11
10.71245106061316
 21
3.969287872314382
 31
0.0
  0
LINE
  5
2C4
330
A
100
AcDbEntity
  8
TOP
  6
CONTINUOUS
 62
     3
100
AcDbLine
 10
3.955950657526685
 20
-64.32500282923523
 30
0.0
 11
3.955950657526685
 21
-64.38850561777893
 31
0.0
  0
LINE
  5
2C5
330
A
100
AcDbEntity
  8
TOP
  6
CONTINUOUS
 62
     3
100
AcDbLine
 10
7.585949023564761
 20
-37.38821347554614
 30
0.0
 11
7.585949023564761
 21
-37.41251627604256
 31
0.0
  0
LINE
  5
2C6
330
A
100
AcDbEntity
  8
TOP
  6
CONTINUOUS
 62
     3
100
AcDbLine
 10
10.71245106061316
 20
-14.61571057637576
 30
0.0
 11
10.71245106061316
 21
-14.70797856648807
 31
0.0
  0
LINE
  5
2C7
330
A
100
AcDbEntity
  8
TOP
  6
CONTINUOUS
 62
     3
100
AcDbLine
 10
10.77594987551388
 20
-27.53071784973214
 30
0.0
 11
10.77594987551388
 21
-27.75345643361479
 31
0.0
  0
LINE
  5
2C8
330
A
100
AcDbEntity
  8
TOP
  6
CONTINUOUS
 62
     3
100
AcDbLine
 10
7.585949023564761
 20
-12.91930675506632
 30
0.0
 11
7.585949023564761
 21
-12.45712439219196
 31
0.0
  0
LINE
  5
2C9
330
A
100
AcDbEntity
  8
TOP
  6
CONTINUOUS
 62
     3
100
AcDbLine
 10
2.145948330561317
 20
7.53178596496582
 30
0.0
 11
2.183145602544147
 21
7.53178596496582
 31
0.0
  0
LINE
  5
2CA
330
A
100
AcDbEntity
  8
TOP
  6
CONTINUOUS
 62
     3
100
AcDbLine
 10
7.585949023564761
 20
-37.60852018992196
 30
0.0
 11
7.585949023564761
 21
-37.65712579091479
 31
0.0
  0
LINE
  5
2CB
330
A
100
AcDbEntity
  8
TOP
  6
CONTINUOUS
 62
     3
100
AcDbLine
 10
8.965951522191499
 20
-36.15071773529139
 30
0.0
 11
8.965951522191499
 21
-39.62571620941256
 31
0.0
  0
LINE
  5
2CC
330
A
100
AcDbEntity
  8
TOP
  6
CONTINUOUS
 62
     3
100
AcDbLine
 10
25.00401790005069
 20
4.284286499023373
 30
0.0
 11
25.73201313676539
 21
4.284286499023373
 31
0.0
  0
LINE
  5
2CD
330
A
100
AcDbEntity
  8
TOP
  6
CONTINUOUS
 62
     3
100
AcDbLine
 10
25.00401790005069
 20
-22.73070812225402
 30
0.0
 11
24.9142135685891
 21
-22.73070812225402
 31
0.0
  0
LINE
  5
2CE
330
A
100
AcDbEntity
  8
TOP
  6
CONTINUOUS
 62
     3
100
AcDbLine
 10
10.64894827206946
 20
-15.24571577707971
 30
0.0
 11
10.64894827206946
 21
-16.43071174621629
 31
0.0
  0
LINE
  5
2CF
330
A
100
AcDbEntity
  8
TOP
  6
CONTINUOUS
 62
     3
100
AcDbLine
 10
7.585949023564761
 20
-25.60911178588933
 30
0.0
 11
7.585949023564761
 21
-25.56790510813461
 31
0.0
  0
LINE
  5
2D0
330
A
100
AcDbEntity
  8
TOP
  6
CONTINUOUS
 62
     3
100
AcDbLine
 10
10.77594987551388
 20
-46.65345350901393
 30
0.0
 11
10.77594987551388
 21
-46.74571355184027
 31
0.0
  0
LINE
  5
2D1
330
A
100
AcDbEntity
  8
TOP
  6
CONTINUOUS
 62
     3
100
AcDbLine
 10
3.955950657526685
 20
-47.74071375529081
 30
0.0
 11
3.955950657526685
 21
-46.93571726481228
 31
0.0
  0
LINE
  5
2D2
330
A
100
AcDbEntity
  8
TOP
  6
CONTINUOUS
 62
     3
100
AcDbLine
 10
7.585949023564761
 20
-50.96391042073683
 30
0.0
 11
7.585949023564761
 21
-50.94331105550246
 31
0.0
  0
LINE
  5
2D3
330
A
100
AcDbEntity
  8
TOP
  6
CONTINUOUS
 62
     3
100
AcDbLine
 10
10.64894827206946
 20
-15.24571577707971
 30
0.0
 11
10.73875260353105
 21
-15.24571577707971
 31
0.0
  0
LINE
  5
2D4
330
A
100
AcDbEntity
  8
TOP
  6
CONTINUOUS
 62
     3
100
AcDbLine
 10
5.335949182510437
 20
-18.51251125335745
 30
0.0
 11
5.335949182510437
 21
-18.53311856587779
 31
0.0
  0
LINE
  5
2D5
330
A
100
AcDbEntity
  8
TOP
  6
CONTINUOUS
 62
     3
100
AcDbLine
 10
10.73875260353105
 20
-27.84571647644113
 30
0.0
 11
10.77594987551388
 21
-27.84571647644113
 31
0.0
  0
LINE
  5
2D6
330
A
100
AcDbEntity
  8
TOP
  6
CONTINUOUS
 62
     3
100
AcDbLine
 10
2.145948330561317
 20
-27.84571647644113
 30
0.0
 11
2.145948330561317
 21
-27.75345643361479
 31
0.0
  0
LINE
  5
2D7
330
A
100
AcDbEntity
  8
TOP
  6
CONTINUOUS
 62
     3
100
AcDbLine
 10
10.64894827206946
 20
-2.645715077718301
 30
0.0
 11
10.73875260353105
 21
-2.645715077718301
 31
0.0
  0
LINE
  5
2D8
330
A
100
AcDbEntity
  8
TOP
  6
CONTINUOUS
 62
     3
100
AcDbLine
 10
2.272949934005737
 20
2.469285329182842
 30
0.0
 11
3.765950918197661
 21
2.469285329182842
 31
0.0
  0
LINE
  5
2D9
330
A
100
AcDbEntity
  8
TOP
  6
CONTINUOUS
 62
     3
100
AcDbLine
 10
5.585950930913355
 20
-43.86731783549093
 30
0.0
 11
5.585950930913355
 21
-43.90852451324565
 31
0.0
  0
LINE
  5
2DA
330
A
100
AcDbEntity
  8
TOP
  6
CONTINUOUS
 62
     3
100
AcDbLine
 10
24.87701232296329
 20
-21.54571215311744
 30
0.0
 11
24.87701232296329
 21
-22.73070812225402
 31
0.0
  0
LINE
  5
2DB
330
A
100
AcDbEntity
  8
TOP
  6
CONTINUOUS
 62
     3
100
AcDbLine
 10
24.9142135685891
 20
-35.96071402231938
 30
0.0
 11
25.00401790005069
 21
-35.96071402231938
 31
0.0
  0
LINE
  5
2DC
330
A
100
AcDbEntity
  8
TOP
  6
CONTINUOUS
 62
     3
100
AcDbLine
 10
10.73875260353105
 20
-20.91571489969946
 30
0.0
 11
10.64894827206946
 21
-20.91571489969946
 31
0.0
  0
LINE
  5
2DD
330
A
100
AcDbEntity
  8
TOP
  6
CONTINUOUS
 62
     3
100
AcDbLine
 10
7.335951248804828
 20
-12.18821207682331
 30
0.0
 11
7.335951248804828
 21
-12.21251487731972
 31
0.0
  0
LINE
  5
2DE
330
A
100
AcDbEntity
  8
TOP
  6
CONTINUOUS
 62
     3
100
AcDbLine
 10
10.71245106061316
 20
-34.05345280965252
 30
0.0
 11
10.71245106061316
 21
-34.14571285247886
 31
0.0
  0
LINE
  5
2DF
330
A
100
AcDbEntity
  8
TOP
  6
CONTINUOUS
 62
     3
100
AcDbLine
 10
7.335951248804828
 20
-38.38821252187184
 30
0.0
 11
7.585949023564761
 21
-38.38821252187184
 31
0.0
  0
LINE
  5
2E0
330
A
100
AcDbEntity
  8
TOP
  6
CONTINUOUS
 62
     3
100
AcDbLine
 10
10.77594987551388
 20
-39.8157119750986
 30
0.0
 11
10.73875260353105
 21
-39.8157119750986
 31
0.0
  0
LINE
  5
2E1
330
A
100
AcDbEntity
  8
TOP
  6
CONTINUOUS
 62
     3
100
AcDbLine
 10
10.71245106061316
 20
-16.52297178904263
 30
0.0
 11
10.71245106061316
 21
-16.74571037292528
 31
0.0
  0
LINE
  5
2E2
330
A
100
AcDbEntity
  8
TOP
  6
CONTINUOUS
 62
     3
100
AcDbLine
 10
9.155951261520522
 20
-10.76071262359655
 30
0.0
 11
10.64894827206946
 21
-10.76071262359655
 31
0.0
  0
LINE
  5
2E3
330
A
100
AcDbEntity
  8
TOP
  6
CONTINUOUS
 62
     3
100
AcDbLine
 10
10.77594987551388
 20
-23.26845328013163
 30
0.0
 11
10.77594987551388
 21
-23.36071332295797
 31
0.0
  0
LINE
  5
2E4
330
A
100
AcDbEntity
  8
TOP
  6
CONTINUOUS
 62
     3
100
AcDbLine
 10
3.955950657526685
 20
-1.825714111328311
 30
0.0
 11
3.955950657526685
 21
1.649284362792851
 31
0.0
  0
LINE
  5
2E5
330
A
100
AcDbEntity
  8
TOP
  6
CONTINUOUS
 62
     3
100
AcDbLine
 10
7.335951248804828
 20
-12.36732006073037
 30
0.0
 11
7.335951248804828
 21
-12.40851879119912
 31
0.0
  0
LINE
  5
2E6
330
A
100
AcDbEntity
  8
TOP
  6
CONTINUOUS
 62
     3
100
AcDbLine
 10
2.272949934005737
 20
4.284286499023372
 30
0.0
 11
2.183145602544147
 21
4.284286499023372
 31
0.0
  0
LINE
  5
2E7
330
A
100
AcDbEntity
  8
TOP
  6
CONTINUOUS
 62
     3
100
AcDbLine
 10
7.335951248804828
 20
-37.56732145945321
 30
0.0
 11
7.335951248804828
 21
-37.60852018992196
 31
0.0
  0
LINE
  5
2E8
330
A
100
AcDbEntity
  8
TOP
  6
CONTINUOUS
 62
     3
100
AcDbLine
 10
2.209451119105019
 20
3.969287872314382
 30
0.0
 11
2.209451119105019
 21
4.192026456197036
 31
0.0
  0
LINE
  5
2E9
330
A
100
AcDbEntity
  8
TOP
  6
CONTINUOUS
 62
     3
100
AcDbLine
 10
28.18001563412058
 20
7.53178596496582
 30
0.0
 11
28.18001563412058
 21
-51.80821418762325
 31
0.0
  0
LINE
  5
2EA
330
A
100
AcDbEntity
  8
TOP
  6
CONTINUOUS
 62
     3
100
AcDbLine
 10
24.87701232296329
 20
-21.54571215311744
 30
0.0
 11
24.9142135685891
 21
-21.54571215311744
 31
0.0
  0
LINE
  5
2EB
330
A
100
AcDbEntity
  8
TOP
  6
CONTINUOUS
 62
     3
100
AcDbLine
 10
8.965951522191499
 20
-21.73571586608944
 30
0.0
 11
8.965951522191499
 21
-22.54071235656798
 31
0.0
  0
LINE
  5
2EC
330
A
100
AcDbEntity
  8
TOP
  6
CONTINUOUS
 62
     3
100
AcDbLine
 10
10.77594987551388
 20
-46.11571629842229
 30
0.0
 11
10.77594987551388
 21
-46.20797634124862
 31
0.0
  0
LINE
  5
2ED
330
A
100
AcDbEntity
  8
TOP
  6
CONTINUOUS
 62
     3
100
AcDbLine
 10
2.183145602544147
 20
-47.93071746826282
 30
0.0
 11
2.145948330561317
 21
-47.93071746826282
 31
0.0
  0
LINE
  5
2EE
330
A
100
AcDbEntity
  8
TOP
  6
CONTINUOUS
 62
     3
100
AcDbLine
 10
7.335951248804828
 20
-50.98821322123326
 30
0.0
 11
7.335951248804828
 21
-50.96391042073683
 31
0.0
  0
LINE
  5
2EF
330
A
100
AcDbEntity
  8
TOP
  6
CONTINUOUS
 62
     3
100
AcDbLine
 10
3.955950657526685
 20
-35.14071305592939
 30
0.0
 11
3.955950657526685
 21
-34.33571656545086
 31
0.0
  0
LINE
  5
2F0
330
A
100
AcDbEntity
  8
TOP
  6
CONTINUOUS
 62
     3
100
AcDbLine
 10
2.145948330561317
 20
-29.56844965616935
 30
0.0
 11
2.145948330561317
 21
-29.3457110722867
 31
0.0
  0
LINE
  5
2F1
330
A
100
AcDbEntity
  8
TOP
  6
CONTINUOUS
 62
     3
100
AcDbLine
 10
10.73875260353105
 20
-10.13071537017857
 30
0.0
 11
10.64894827206946
 21
-10.13071537017857
 31
0.0
  0
LINE
  5
2F2
330
A
100
AcDbEntity
  8
TOP
  6
CONTINUOUS
 62
     3
100
AcDbLine
 10
2.272949934005737
 20
-2.645715077718301
 30
0.0
 11
3.765950918197661
 21
-2.645715077718301
 31
0.0
  0
LINE
  5
2F3
330
A
100
AcDbEntity
  8
TOP
  6
CONTINUOUS
 62
     3
100
AcDbLine
 10
24.9142135685891
 20
-35.33070882161544
 30
0.0
 11
24.87701232296329
 21
-35.33070882161544
 31
0.0
  0
LINE
  5
2F4
330
A
100
AcDbEntity
  8
TOP
  6
CONTINUOUS
 62
     3
100
AcDbLine
 10
7.585949023564761
 20
-13.00911108652791
 30
0.0
 11
7.335951248804828
 21
-13.00911108652791
 31
0.0
  0
LINE
  5
2F5
330
A
100
AcDbEntity
  8
TOP
  6
CONTINUOUS
 62
     3
100
AcDbLine
 10
10.71245106061316
 20
-35.86845397949305
 30
0.0
 11
10.71245106061316
 21
-35.96071402231938
 31
0.0
  0
LINE
  5
2F6
330
A
100
AcDbEntity
  8
TOP
  6
CONTINUOUS
 62
     3
100
AcDbLine
 10
5.585950930913355
 20
-32.08821614583412
 30
0.0
 11
5.585950930913355
 21
-32.0639133453377
 31
0.0
  0
LINE
  5
2F7
330
A
100
AcDbEntity
  8
TOP
  6
CONTINUOUS
 62
     3
100
AcDbLine
 10
10.71245106061316
 20
-2.553455034891964
 30
0.0
 11
10.71245106061316
 21
-2.645715077718301
 31
0.0
  0
LINE
  5
2F8
330
A
100
AcDbEntity
  8
TOP
  6
CONTINUOUS
 62
     3
100
AcDbLine
 10
7.335951248804828
 20
-50.98821322123326
 30
0.0
 11
7.585949023564761
 21
-50.98821322123326
 31
0.0
  0
LINE
  5
2F9
330
A
100
AcDbEntity
  8
TOP
  6
CONTINUOUS
 62
     3
100
AcDbLine
 10
8.965951522191499
 20
-10.95071633656856
 30
0.0
 11
8.965951522191499
 21
-14.42571481068972
 31
0.0
  0
LINE
  5
2FA
330
A
100
AcDbEntity
  8
TOP
  6
CONTINUOUS
 62
     3
100
AcDbLine
 10
10.77594987551388
 20
-22.73071606953999
 30
0.0
 11
10.77594987551388
 21
-22.82297611236632
 31
0.0
  0
LINE
  5
2FB
330
A
100
AcDbEntity
  8
TOP
  6
CONTINUOUS
 62
     3
100
AcDbLine
 10
2.272949934005737
 20
-2.015717824300319
 30
0.0
 11
2.272949934005737
 21
1.83928807576486
 31
0.0
  0
LINE
  5
2FC
330
A
100
AcDbEntity
  8
TOP
  6
CONTINUOUS
 62
     3
100
AcDbLine
 10
2.209451119105019
 20
-40.13071060180759
 30
0.0
 11
2.209451119105019
 21
-39.90797201792493
 31
0.0
  0
LINE
  5
2FD
330
A
100
AcDbEntity
  8
TOP
  6
CONTINUOUS
 62
     3
100
AcDbLine
 10
7.335951248804828
 20
-38.16790580749602
 30
0.0
 11
7.335951248804828
 21
-38.11930815378915
 31
0.0
  0
LINE
  5
2FE
330
A
100
AcDbEntity
  8
TOP
  6
CONTINUOUS
 62
     3
100
AcDbLine
 10
25.73201313676539
 20
-48.5607147216808
 30
0.0
 11
25.00401790005069
 21
-48.5607147216808
 31
0.0
  0
LINE
  5
2FF
330
A
100
AcDbEntity
  8
TOP
  6
CONTINUOUS
 62
     3
100
AcDbLine
 10
28.26981996558217
 20
7.53178596496582
 30
0.0
 11
28.18001563412058
 21
7.53178596496582
 31
0.0
  0
LINE
  5
300
330
A
100
AcDbEntity
  8
TOP
  6
CONTINUOUS
 62
     3
100
AcDbLine
 10
10.77594987551388
 20
-22.73071606953999
 30
0.0
 11
10.73875260353105
 21
-22.73071606953999
 31
0.0
  0
LINE
  5
301
330
A
100
AcDbEntity
  8
TOP
  6
CONTINUOUS
 62
     3
100
AcDbLine
 10
7.585949023564761
 20
-0.5639155705771467
 30
0.0
 11
7.585949023564761
 21
-0.5433162053427714
 31
0.0
  0
LINE
  5
302
330
A
100
AcDbEntity
  8
TOP
  6
CONTINUOUS
 62
     3
100
AcDbLine
 10
10.77594987551388
 20
-41.72297318776546
 30
0.0
 11
10.77594987551388
 21
-41.94571177164812
 31
0.0
  0
LINE
  5
303
330
A
100
AcDbEntity
  8
TOP
  6
CONTINUOUS
 62
     3
100
AcDbLine
 10
2.183145602544147
 20
-46.74571355184027
 30
0.0
 11
2.272949934005737
 21
-46.74571355184027
 31
0.0
  0
LINE
  5
304
330
A
100
AcDbEntity
  8
TOP
  6
CONTINUOUS
 62
     3
100
AcDbLine
 10
2.272949934005737
 20
-27.21571127573718
 30
0.0
 11
3.765950918197661
 21
-27.21571127573718
 31
0.0
  0
LINE
  5
305
330
A
100
AcDbEntity
  8
TOP
  6
CONTINUOUS
 62
     3
100
AcDbLine
 10
3.955950657526685
 20
-28.84071667989167
 30
0.0
 11
3.955950657526685
 21
-28.03571224212717
 31
0.0
  0
LINE
  5
306
330
A
100
AcDbEntity
  8
TOP
  6
CONTINUOUS
 62
     3
100
AcDbLine
 10
5.335949182510437
 20
5.932092666625944
 30
0.0
 11
5.335949182510437
 21
5.980690320332814
 31
0.0
  0
LINE
  5
307
330
A
100
AcDbEntity
  8
TOP
  6
CONTINUOUS
 62
     3
100
AcDbLine
 10
10.73875260353105
 20
-8.945711453756024
 30
0.0
 11
10.77594987551388
 21
-8.945711453756024
 31
0.0
  0
LINE
  5
308
330
A
100
AcDbEntity
  8
TOP
  6
CONTINUOUS
 62
     3
100
AcDbLine
 10
7.335951248804828
 20
-67.67290433248034
 30
0.0
 11
7.335951248804828
 21
-67.53870248794704
 31
0.0
  0
LINE
  5
309
330
A
100
AcDbEntity
  8
TOP
  6
CONTINUOUS
 62
     3
100
AcDbLine
 10
24.9142135685891
 20
-34.14571285247886
 30
0.0
 11
25.00401790005069
 21
-34.14571285247886
 31
0.0
  0
LINE
  5
30A
330
A
100
AcDbEntity
  8
TOP
  6
CONTINUOUS
 62
     3
100
AcDbLine
 10
5.335949182510437
 20
-43.73311201731466
 30
0.0
 11
5.335949182510437
 21
-43.86731783549093
 31
0.0
  0
LINE
  5
30B
330
A
100
AcDbEntity
  8
TOP
  6
CONTINUOUS
 62
     3
100
AcDbLine
 10
9.155927419662612
 20
7.53178596496582
 30
0.0
 11
3.765970786412586
 21
7.53178596496582
 31
0.0
  0
LINE
  5
30C
330
A
100
AcDbEntity
  8
TOP
  6
CONTINUOUS
 62
     3
100
AcDbLine
 10
2.145948330561317
 20
-46.74571355184027
 30
0.0
 11
2.145948330561317
 21
-46.65345350901393
 31
0.0
  0
LINE
  5
30D
330
A
100
AcDbEntity
  8
TOP
  6
CONTINUOUS
 62
     3
100
AcDbLine
 10
5.335949182510437
 20
-44.66391404469912
 30
0.0
 11
5.335949182510437
 21
-44.64331467946474
 31
0.0
  0
LINE
  5
30E
330
A
100
AcDbEntity
  8
TOP
  6
CONTINUOUS
 62
     3
100
AcDbLine
 10
7.585949023564761
 20
-25.74330965677963
 30
0.0
 11
7.585949023564761
 21
-25.60911178588933
 31
0.0
  0
LINE
  5
30F
330
A
100
AcDbEntity
  8
TOP
  6
CONTINUOUS
 62
     3
100
AcDbLine
 10
7.335951248804828
 20
-24.78821277618472
 30
0.0
 11
7.585949023564761
 21
-24.78821277618472
 31
0.0
  0
LINE
  5
310
330
A
100
AcDbEntity
  8
TOP
  6
CONTINUOUS
 62
     3
100
AcDbLine
 10
10.77594987551388
 20
-16.52297178904263
 30
0.0
 11
10.77594987551388
 21
-16.74571037292528
 31
0.0
  0
LINE
  5
311
330
A
100
AcDbEntity
  8
TOP
  6
CONTINUOUS
 62
     3
100
AcDbLine
 10
10.71245106061316
 20
-23.26845328013163
 30
0.0
 11
10.71245106061316
 21
-23.36071332295797
 31
0.0
  0
LINE
  5
312
330
A
100
AcDbEntity
  8
TOP
  6
CONTINUOUS
 62
     3
100
AcDbLine
 10
10.77594987551388
 20
-14.61571057637576
 30
0.0
 11
10.73875260353105
 21
-14.61571057637576
 31
0.0
  0
LINE
  5
313
330
A
100
AcDbEntity
  8
TOP
  6
CONTINUOUS
 62
     3
100
AcDbLine
 10
10.77594987551388
 20
-21.00797494252579
 30
0.0
 11
10.77594987551388
 21
-21.23071352640845
 31
0.0
  0
LINE
  5
314
330
A
100
AcDbEntity
  8
TOP
  6
CONTINUOUS
 62
     3
100
AcDbLine
 10
2.145948330561317
 20
-2.015717824300319
 30
0.0
 11
2.145948330561317
 21
1.83928807576486
 31
0.0
  0
LINE
  5
315
330
A
100
AcDbEntity
  8
TOP
  6
CONTINUOUS
 62
     3
100
AcDbLine
 10
2.209451119105019
 20
-35.42297681172774
 30
0.0
 11
2.209451119105019
 21
-35.3307167689014
 31
0.0
  0
LINE
  5
316
330
A
100
AcDbEntity
  8
TOP
  6
CONTINUOUS
 62
     3
100
AcDbLine
 10
7.585949023564761
 20
-38.20911248525074
 30
0.0
 11
7.585949023564761
 21
-38.16790580749602
 31
0.0
  0
LINE
  5
317
330
A
100
AcDbEntity
  8
TOP
  6
CONTINUOUS
 62
     3
100
AcDbLine
 10
25.00401790005069
 20
-46.74571355184027
 30
0.0
 11
25.00401790005069
 21
-47.93070952097685
 31
0.0
  0
LINE
  5
318
330
A
100
AcDbEntity
  8
TOP
  6
CONTINUOUS
 62
     3
100
AcDbLine
 10
10.64894827206946
 20
-21.54571215311744
 30
0.0
 11
10.73875260353105
 21
-21.54571215311744
 31
0.0
  0
LINE
  5
319
330
A
100
AcDbEntity
  8
TOP
  6
CONTINUOUS
 62
     3
100
AcDbLine
 10
7.335951248804828
 20
-0.5882104237875965
 30
0.0
 11
7.335951248804828
 21
-0.5639155705771467
 31
0.0
  0
LINE
  5
31A
330
A
100
AcDbEntity
  8
TOP
  6
CONTINUOUS
 62
     3
100
AcDbLine
 10
10.77594987551388
 20
-2.107977867126656
 30
0.0
 11
10.77594987551388
 21
-2.330716451009311
 31
0.0
  0
LINE
  5
31B
330
A
100
AcDbEntity
  8
TOP
  6
CONTINUOUS
 62
     3
100
AcDbLine
 10
24.87701232296329
 20
-48.5607147216808
 30
0.0
 11
24.9142135685891
 21
-48.5607147216808
 31
0.0
  0
LINE
  5
31C
330
A
100
AcDbEntity
  8
TOP
  6
CONTINUOUS
 62
     3
100
AcDbLine
 10
9.155951261520522
 20
-48.5607147216808
 30
0.0
 11
10.64894827206946
 21
-48.5607147216808
 31
0.0
  0
LINE
  5
31D
330
A
100
AcDbEntity
  8
TOP
  6
CONTINUOUS
 62
     3
100
AcDbLine
 10
10.64894827206946
 20
-40.44571717580255
 30
0.0
 11
10.73875260353105
 21
-40.44571717580255
 31
0.0
  0
LINE
  5
31E
330
A
100
AcDbEntity
  8
TOP
  6
CONTINUOUS
 62
     3
100
AcDbLine
 10
2.272949934005737
 20
-29.03071244557771
 30
0.0
 11
2.272949934005737
 21
-27.84571647644113
 31
0.0
  0
LINE
  5
31F
330
A
100
AcDbEntity
  8
TOP
  6
CONTINUOUS
 62
     3
100
AcDbLine
 10
2.145948330561317
 20
-35.42297681172774
 30
0.0
 11
2.145948330561317
 21
-35.3307167689014
 31
0.0
  0
LINE
  5
320
330
A
100
AcDbEntity
  8
TOP
  6
CONTINUOUS
 62
     3
100
AcDbLine
 10
5.585950930913355
 20
5.890893936157193
 30
0.0
 11
5.585950930913355
 21
5.932092666625944
 31
0.0
  0
LINE
  5
321
330
A
100
AcDbEntity
  8
TOP
  6
CONTINUOUS
 62
     3
100
AcDbLine
 10
25.00401790005069
 20
1.839288075764861
 30
0.0
 11
25.00401790005069
 21
-2.015709877014348
 31
0.0
  0
LINE
  5
322
330
A
100
AcDbEntity
  8
TOP
  6
CONTINUOUS
 62
     3
100
AcDbLine
 10
2.183145602544147
 20
-3.83071104685488
 30
0.0
 11
2.145948330561317
 21
-3.83071104685488
 31
0.0
  0
LINE
  5
323
330
A
100
AcDbEntity
  8
TOP
  6
CONTINUOUS
 62
     3
100
AcDbLine
 10
2.209451119105019
 20
-15.24571577707971
 30
0.0
 11
2.209451119105019
 21
-15.15345573425338
 31
0.0
  0
LINE
  5
324
330
A
100
AcDbEntity
  8
TOP
  6
CONTINUOUS
 62
     3
100
AcDbLine
 10
24.9142135685891
 20
-33.5157076517749
 30
0.0
 11
24.87701232296329
 21
-33.5157076517749
 31
0.0
  0
LINE
  5
325
330
A
100
AcDbEntity
  8
TOP
  6
CONTINUOUS
 62
     3
100
AcDbLine
 10
5.335949182510437
 20
-43.68821779886983
 30
0.0
 11
5.335949182510437
 21
-43.71251265208028
 31
0.0
  0
LINE
  5
326
330
A
100
AcDbEntity
  8
TOP
  6
CONTINUOUS
 62
     3
100
AcDbLine
 10
3.955950657526685
 20
-20.72571118672745
 30
0.0
 11
3.955950657526685
 21
-17.25071271260628
 31
0.0
  0
LINE
  5
327
330
A
100
AcDbEntity
  8
TOP
  6
CONTINUOUS
 62
     3
100
AcDbLine
 10
5.585950930913355
 20
-67.53870248794704
 30
0.0
 11
5.585950930913355
 21
-67.51117308934678
 31
0.0
  0
LINE
  5
328
330
A
100
AcDbEntity
  8
TOP
  6
CONTINUOUS
 62
     3
100
AcDbLine
 10
10.71245106061316
 20
-39.90797201792493
 30
0.0
 11
10.71245106061316
 21
-40.13071060180759
 31
0.0
  0
LINE
  5
329
330
A
100
AcDbEntity
  8
TOP
  6
CONTINUOUS
 62
     3
100
AcDbLine
 10
2.145948330561317
 20
-48.46845467885446
 30
0.0
 11
2.145948330561317
 21
-48.24571609497181
 31
0.0
  0
LINE
  5
32A
330
A
100
AcDbEntity
  8
TOP
  6
CONTINUOUS
 62
     3
100
AcDbLine
 10
7.585949023564761
 20
-50.16732215881463
 30
0.0
 11
7.585949023564761
 21
-50.20852088928338
 31
0.0
  0
LINE
  5
32B
330
A
100
AcDbEntity
  8
TOP
  6
CONTINUOUS
 62
     3
100
AcDbLine
 10
5.585950930913355
 20
-44.68821684519554
 30
0.0
 11
5.585950930913355
 21
-44.66391404469912
 31
0.0
  0
LINE
  5
32C
330
A
100
AcDbEntity
  8
TOP
  6
CONTINUOUS
 62
     3
100
AcDbLine
 10
10.73875260353105
 20
-33.51571559906087
 30
0.0
 11
10.64894827206946
 21
-33.51571559906087
 31
0.0
  0
LINE
  5
32D
330
A
100
AcDbEntity
  8
TOP
  6
CONTINUOUS
 62
     3
100
AcDbLine
 10
7.585949023564761
 20
-25.76391696929997
 30
0.0
 11
7.585949023564761
 21
-25.74330965677963
 31
0.0
  0
LINE
  5
32E
330
A
100
AcDbEntity
  8
TOP
  6
CONTINUOUS
 62
     3
100
AcDbLine
 10
5.335949182510437
 20
-19.4882154464727
 30
0.0
 11
5.585950930913355
 21
-19.4882154464727
 31
0.0
  0
LINE
  5
32F
330
A
100
AcDbEntity
  8
TOP
  6
CONTINUOUS
 62
     3
100
AcDbLine
 10
2.272949934005737
 20
-39.8157119750986
 30
0.0
 11
3.765950918197661
 21
-39.8157119750986
 31
0.0
  0
LINE
  5
330
330
A
100
AcDbEntity
  8
TOP
  6
CONTINUOUS
 62
     3
100
AcDbLine
 10
2.272949934005737
 20
-29.66071764628166
 30
0.0
 11
3.765950918197661
 21
-29.66071764628166
 31
0.0
  0
LINE
  5
331
330
A
100
AcDbEntity
  8
TOP
  6
CONTINUOUS
 62
     3
100
AcDbLine
 10
10.64894827206946
 20
-10.76071262359655
 30
0.0
 11
10.73875260353105
 21
-10.76071262359655
 31
0.0
  0
LINE
  5
332
330
A
100
AcDbEntity
  8
TOP
  6
CONTINUOUS
 62
     3
100
AcDbLine
 10
2.272949934005737
 20
-8.315714200338042
 30
0.0
 11
3.765950918197661
 21
-8.315714200338042
 31
0.0
  0
LINE
  5
333
330
A
100
AcDbEntity
  8
TOP
  6
CONTINUOUS
 62
     3
100
AcDbLine
 10
2.209451119105019
 20
-35.96071402231938
 30
0.0
 11
2.209451119105019
 21
-35.86845397949305
 31
0.0
  0
LINE
  5
334
330
A
100
AcDbEntity
  8
TOP
  6
CONTINUOUS
 62
     3
100
AcDbLine
 10
25.73201313676539
 20
-42.2607103983571
 30
0.0
 11
25.00401790005069
 21
-42.2607103983571
 31
0.0
  0
LINE
  5
335
330
A
100
AcDbEntity
  8
TOP
  6
CONTINUOUS
 62
     3
100
AcDbLine
 10
24.87701232296329
 20
-46.74571355184027
 30
0.0
 11
24.87701232296329
 21
-47.93070952097685
 31
0.0
  0
LINE
  5
336
330
A
100
AcDbEntity
  8
TOP
  6
CONTINUOUS
 62
     3
100
AcDbLine
 10
2.272949934005737
 20
-21.54571215311744
 30
0.0
 11
3.765950918197661
 21
-21.54571215311744
 31
0.0
  0
LINE
  5
337
330
A
100
AcDbEntity
  8
TOP
  6
CONTINUOUS
 62
     3
100
AcDbLine
 10
5.585950930913355
 20
-5.933117866516381
 30
0.0
 11
5.585950930913355
 21
-6.067315737406683
 31
0.0
  0
LINE
  5
338
330
A
100
AcDbEntity
  8
TOP
  6
CONTINUOUS
 62
     3
100
AcDbLine
 10
10.64894827206946
 20
-64.38850561777893
 30
0.0
 11
9.155951261520522
 21
-64.38850561777893
 31
0.0
  0
LINE
  5
339
330
A
100
AcDbEntity
  8
TOP
  6
CONTINUOUS
 62
     3
100
AcDbLine
 10
10.77594987551388
 20
2.154286702473851
 30
0.0
 11
10.77594987551388
 21
1.931548118591197
 31
0.0
  0
LINE
  5
33A
330
A
100
AcDbEntity
  8
TOP
  6
CONTINUOUS
 62
     3
100
AcDbLine
 10
10.73875260353105
 20
-17.06071694692024
 30
0.0
 11
10.77594987551388
 21
-17.06071694692024
 31
0.0
  0
LINE
  5
33B
330
A
100
AcDbEntity
  8
TOP
  6
CONTINUOUS
 62
     3
100
AcDbLine
 10
2.272949934005737
 20
-40.44571717580255
 30
0.0
 11
3.765950918197661
 21
-40.44571717580255
 31
0.0
  0
LINE
  5
33C
330
A
100
AcDbEntity
  8
TOP
  6
CONTINUOUS
 62
     3
100
AcDbLine
 10
2.145948330561317
 20
-29.03071244557771
 30
0.0
 11
2.145948330561317
 21
-27.84571647644113
 31
0.0
  0
LINE
  5
33D
330
A
100
AcDbEntity
  8
TOP
  6
CONTINUOUS
 62
     3
100
AcDbLine
 10
2.145948330561317
 20
-35.96071402231938
 30
0.0
 11
2.145948330561317
 21
-35.86845397949305
 31
0.0
  0
LINE
  5
33E
330
A
100
AcDbEntity
  8
TOP
  6
CONTINUOUS
 62
     3
100
AcDbLine
 10
10.71245106061316
 20
-2.015717824300319
 30
0.0
 11
10.71245106061316
 21
-2.107977867126656
 31
0.0
  0
LINE
  5
33F
330
A
100
AcDbEntity
  8
TOP
  6
CONTINUOUS
 62
     3
100
AcDbLine
 10
25.00401790005069
 20
-10.13071537017857
 30
0.0
 11
24.9142135685891
 21
-10.13071537017857
 31
0.0
  0
LINE
  5
340
330
A
100
AcDbEntity
  8
TOP
  6
CONTINUOUS
 62
     3
100
AcDbLine
 10
10.77594987551388
 20
-40.13071060180759
 30
0.0
 11
10.77594987551388
 21
-40.35344918569024
 31
0.0
  0
LINE
  5
341
330
A
100
AcDbEntity
  8
TOP
  6
CONTINUOUS
 62
     3
100
AcDbLine
 10
7.585949023564761
 20
-0.3193060557049088
 30
0.0
 11
7.585949023564761
 21
0.1428763071694493
 31
0.0
  0
LINE
  5
342
330
A
100
AcDbEntity
  8
TOP
  6
CONTINUOUS
 62
     3
100
AcDbLine
 10
3.955950657526685
 20
-9.940711657206565
 30
0.0
 11
3.955950657526685
 21
-9.135715166728033
 31
0.0
  0
LINE
  5
343
330
A
100
AcDbEntity
  8
TOP
  6
CONTINUOUS
 62
     3
100
AcDbLine
 10
2.183145602544147
 20
-8.945711453756024
 30
0.0
 11
2.272949934005737
 21
-8.945711453756024
 31
0.0
  0
LINE
  5
344
330
A
100
AcDbEntity
  8
TOP
  6
CONTINUOUS
 62
     3
100
AcDbLine
 10
2.183145602544147
 20
-2.645715077718301
 30
0.0
 11
2.272949934005737
 21
-2.645715077718301
 31
0.0
  0
LINE
  5
345
330
A
100
AcDbEntity
  8
TOP
  6
CONTINUOUS
 62
     3
100
AcDbLine
 10
7.585949023564761
 20
-12.36732006073037
 30
0.0
 11
7.585949023564761
 21
-12.40851879119912
 31
0.0
  0
LINE
  5
346
330
A
100
AcDbEntity
  8
TOP
  6
CONTINUOUS
 62
     3
100
AcDbLine
 10
8.965951522191499
 20
-64.32500282923523
 30
0.0
 11
9.021598418553804
 21
-64.32500282923523
 31
0.0
  0
LINE
  5
347
330
A
100
AcDbEntity
  8
TOP
  6
CONTINUOUS
 62
     3
100
AcDbLine
 10
24.87701232296329
 20
1.839288075764861
 30
0.0
 11
24.87701232296329
 21
-2.015709877014348
 31
0.0
  0
LINE
  5
348
330
A
100
AcDbEntity
  8
TOP
  6
CONTINUOUS
 62
     3
100
AcDbLine
 10
2.272949934005737
 20
-20.91571489969946
 30
0.0
 11
2.272949934005737
 21
-17.06071694692024
 31
0.0
  0
LINE
  5
349
330
A
100
AcDbEntity
  8
TOP
  6
CONTINUOUS
 62
     3
100
AcDbLine
 10
5.585950930913355
 20
-67.50150521596421
 30
0.0
 11
5.335949182510437
 21
-67.50150521596421
 31
0.0
  0
LINE
  5
34A
330
A
100
AcDbEntity
  8
TOP
  6
CONTINUOUS
 62
     3
100
AcDbLine
 10
5.335949182510437
 20
-18.53311856587779
 30
0.0
 11
5.335949182510437
 21
-18.6673164367681
 31
0.0
  0
LINE
  5
34B
330
A
100
AcDbEntity
  8
TOP
  6
CONTINUOUS
 62
     3
100
AcDbLine
 10
5.335949182510437
 20
-67.67290433248034
 30
0.0
 11
5.335949182510437
 21
-67.53870248794704
 31
0.0
  0
LINE
  5
34C
330
A
100
AcDbEntity
  8
TOP
  6
CONTINUOUS
 62
     3
100
AcDbLine
 10
10.71245106061316
 20
-41.94571177164812
 30
0.0
 11
10.71245106061316
 21
-42.16845035553077
 31
0.0
  0
LINE
  5
34D
330
A
100
AcDbEntity
  8
TOP
  6
CONTINUOUS
 62
     3
100
AcDbLine
 10
9.155951261520522
 20
-42.26071039835711
 30
0.0
 11
10.64894827206946
 21
-42.26071039835711
 31
0.0
  0
LINE
  5
34E
330
A
100
AcDbEntity
  8
TOP
  6
CONTINUOUS
 62
     3
100
AcDbLine
 10
7.335951248804828
 20
-50.71930885315057
 30
0.0
 11
7.335951248804828
 21
-50.25711854299024
 31
0.0
  0
LINE
  5
34F
330
A
100
AcDbEntity
  8
TOP
  6
CONTINUOUS
 62
     3
100
AcDbLine
 10
7.335951248804828
 20
-25.78821182251043
 30
0.0
 11
7.335951248804828
 21
-25.76391696929997
 31
0.0
  0
LINE
  5
350
330
A
100
AcDbEntity
  8
TOP
  6
CONTINUOUS
 62
     3
100
AcDbLine
 10
5.335949182510437
 20
-5.888215700785585
 30
0.0
 11
5.585950930913355
 21
-5.888215700785585
 31
0.0
  0
LINE
  5
351
330
A
100
AcDbEntity
  8
TOP
  6
CONTINUOUS
 62
     3
100
AcDbLine
 10
2.145948330561317
 20
-39.8157119750986
 30
0.0
 11
2.145948330561317
 21
-35.96071402231938
 31
0.0
  0
LINE
  5
352
330
A
100
AcDbEntity
  8
TOP
  6
CONTINUOUS
 62
     3
100
AcDbLine
 10
2.183145602544147
 20
-33.51571559906087
 30
0.0
 11
2.145948330561317
 21
-33.51571559906087
 31
0.0
  0
LINE
  5
353
330
A
100
AcDbEntity
  8
TOP
  6
CONTINUOUS
 62
     3
100
AcDbLine
 10
2.272949934005737
 20
-27.21571127573718
 30
0.0
 11
2.183145602544147
 21
-27.21571127573718
 31
0.0
  0
LINE
  5
354
330
A
100
AcDbEntity
  8
TOP
  6
CONTINUOUS
 62
     3
100
AcDbLine
 10
2.272949934005737
 20
-10.76071262359655
 30
0.0
 11
3.765950918197661
 21
-10.76071262359655
 31
0.0
  0
LINE
  5
355
330
A
100
AcDbEntity
  8
TOP
  6
CONTINUOUS
 62
     3
100
AcDbLine
 10
2.272949934005737
 20
-8.315714200338042
 30
0.0
 11
2.183145602544147
 21
-8.315714200338042
 31
0.0
  0
LINE
  5
356
330
A
100
AcDbEntity
  8
TOP
  6
CONTINUOUS
 62
     3
100
AcDbLine
 10
9.155951261520522
 20
3.654289245605391
 30
0.0
 11
10.64894827206946
 21
3.654289245605391
 31
0.0
  0
LINE
  5
357
330
A
100
AcDbEntity
  8
TOP
  6
CONTINUOUS
 62
     3
100
AcDbLine
 10
2.209451119105019
 20
-34.05345280965252
 30
0.0
 11
2.209451119105019
 21
-33.83071422576986
 31
0.0
  0
LINE
  5
358
330
A
100
AcDbEntity
  8
TOP
  6
CONTINUOUS
 62
     3
100
AcDbLine
 10
25.73201313676539
 20
-40.44570922851657
 30
0.0
 11
25.00401790005069
 21
-40.44570922851657
 31
0.0
  0
LINE
  5
359
330
A
100
AcDbEntity
  8
TOP
  6
CONTINUOUS
 62
     3
100
AcDbLine
 10
24.87701232296329
 20
-4.460708300272861
 30
0.0
 11
24.87701232296329
 21
-8.315714200338042
 31
0.0
  0
LINE
  5
35A
330
A
100
AcDbEntity
  8
TOP
  6
CONTINUOUS
 62
     3
100
AcDbLine
 10
7.585949023564761
 20
-37.43311564127693
 30
0.0
 11
7.585949023564761
 21
-37.56732145945321
 31
0.0
  0
LINE
  5
35B
330
A
100
AcDbEntity
  8
TOP
  6
CONTINUOUS
 62
     3
100
AcDbLine
 10
25.00401790005069
 20
-42.2607103983571
 30
0.0
 11
25.00401790005069
 21
-46.11570835113631
 31
0.0
  0
LINE
  5
35C
330
A
100
AcDbEntity
  8
TOP
  6
CONTINUOUS
 62
     3
100
AcDbLine
 10
10.77594987551388
 20
-15.15345573425338
 30
0.0
 11
10.77594987551388
 21
-15.24571577707971
 31
0.0
  0
LINE
  5
35D
330
A
100
AcDbEntity
  8
TOP
  6
CONTINUOUS
 62
     3
100
AcDbLine
 10
10.77594987551388
 20
3.746549288431728
 30
0.0
 11
10.77594987551388
 21
3.654289245605391
 31
0.0
  0
LINE
  5
35E
330
A
100
AcDbEntity
  8
TOP
  6
CONTINUOUS
 62
     3
100
AcDbLine
 10
9.155951261520522
 20
-64.38850561777893
 30
0.0
 11
9.021598418553804
 21
-64.38850561777893
 31
0.0
  0
LINE
  5
35F
330
A
100
AcDbEntity
  8
TOP
  6
CONTINUOUS
 62
     3
100
AcDbLine
 10
24.87701232296329
 20
-2.6457150777183
 30
0.0
 11
24.87701232296329
 21
-3.830711046854879
 31
0.0
  0
LINE
  5
360
330
A
100
AcDbEntity
  8
TOP
  6
CONTINUOUS
 62
     3
100
AcDbLine
 10
2.145948330561317
 20
-40.35344918569024
 30
0.0
 11
2.145948330561317
 21
-40.13071060180759
 31
0.0
  0
LINE
  5
361
330
A
100
AcDbEntity
  8
TOP
  6
CONTINUOUS
 62
     3
100
AcDbLine
 10
10.71245106061316
 20
-3.922979036967187
 30
0.0
 11
10.71245106061316
 21
-4.145717620849842
 31
0.0
  0
LINE
  5
362
330
A
100
AcDbEntity
  8
TOP
  6
CONTINUOUS
 62
     3
100
AcDbLine
 10
10.77594987551388
 20
-35.86845397949305
 30
0.0
 11
10.77594987551388
 21
-35.96071402231938
 31
0.0
  0
LINE
  5
363
330
A
100
AcDbEntity
  8
TOP
  6
CONTINUOUS
 62
     3
100
AcDbLine
 10
2.272949934005737
 20
-10.13071537017857
 30
0.0
 11
2.272949934005737
 21
-8.945711453756024
 31
0.0
  0
LINE
  5
364
330
A
100
AcDbEntity
  8
TOP
  6
CONTINUOUS
 62
     3
100
AcDbLine
 10
10.77594987551388
 20
7.53178596496582
 30
0.0
 11
10.73875260353105
 21
7.53178596496582
 31
0.0
  0
LINE
  5
365
330
A
100
AcDbEntity
  8
TOP
  6
CONTINUOUS
 62
     3
100
AcDbLine
 10
24.9142135685891
 20
-29.03071244557771
 30
0.0
 11
24.87701232296329
 21
-29.03071244557771
 31
0.0
  0
LINE
  5
366
330
A
100
AcDbEntity
  8
TOP
  6
CONTINUOUS
 62
     3
100
AcDbLine
 10
25.00401790005069
 20
3.654289245605392
 30
0.0
 11
25.00401790005069
 21
2.469285329182842
 31
0.0
  0
LINE
  5
367
330
A
100
AcDbEntity
  8
TOP
  6
CONTINUOUS
 62
     3
100
AcDbLine
 10
2.145948330561317
 20
-20.91571489969946
 30
0.0
 11
2.145948330561317
 21
-17.06071694692024
 31
0.0
  0
LINE
  5
368
330
A
100
AcDbEntity
  8
TOP
  6
CONTINUOUS
 62
     3
100
AcDbLine
 10
5.585950930913355
 20
-67.51117308934678
 30
0.0
 11
5.585950930913355
 21
-67.50150521596421
 31
0.0
  0
LINE
  5
369
330
A
100
AcDbEntity
  8
TOP
  6
CONTINUOUS
 62
     3
100
AcDbLine
 10
5.585950930913355
 20
-67.69150495529324
 30
0.0
 11
5.585950930913355
 21
-67.68666903178047
 31
0.0
  0
LINE
  5
36A
330
A
100
AcDbEntity
  8
TOP
  6
CONTINUOUS
 62
     3
100
AcDbLine
 10
10.71245106061316
 20
-46.65345350901393
 30
0.0
 11
10.71245106061316
 21
-46.74571355184027
 31
0.0
  0
LINE
  5
36B
330
A
100
AcDbEntity
  8
TOP
  6
CONTINUOUS
 62
     3
100
AcDbLine
 10
9.155951261520522
 20
-46.74571355184027
 30
0.0
 11
10.64894827206946
 21
-46.74571355184027
 31
0.0
  0
LINE
  5
36C
330
A
100
AcDbEntity
  8
TOP
  6
CONTINUOUS
 62
     3
100
AcDbLine
 10
9.839449644088896
 20
-21.45420710245825
 30
0.0
 11
9.839449644088896
 21
-21.23071352640845
 31
0.0
  0
LINE
  5
36D
330
A
100
AcDbEntity
  8
TOP
  6
CONTINUOUS
 62
     3
100
AcDbLine
 10
7.335951248804828
 20
-50.80910523732619
 30
0.0
 11
7.335951248804828
 21
-50.76790650685744
 31
0.0
  0
LINE
  5
36E
330
A
100
AcDbEntity
  8
TOP
  6
CONTINUOUS
 62
     3
100
AcDbLine
 10
5.335949182510437
 20
-31.30852381388423
 30
0.0
 11
5.335949182510437
 21
-31.3571214675911
 31
0.0
  0
LINE
  5
36F
330
A
100
AcDbEntity
  8
TOP
  6
CONTINUOUS
 62
     3
100
AcDbLine
 10
2.183145602544147
 20
-16.43071174621629
 30
0.0
 11
2.145948330561317
 21
-16.43071174621629
 31
0.0
  0
LINE
  5
370
330
A
100
AcDbEntity
  8
TOP
  6
CONTINUOUS
 62
     3
100
AcDbLine
 10
7.335951248804828
 20
-0.5882104237875965
 30
0.0
 11
7.585949023564761
 21
-0.5882104237875965
 31
0.0
  0
LINE
  5
371
330
A
100
AcDbEntity
  8
TOP
  6
CONTINUOUS
 62
     3
100
AcDbLine
 10
7.585949023564761
 20
-12.21251487731972
 30
0.0
 11
7.585949023564761
 21
-12.2331142425541
 31
0.0
  0
LINE
  5
372
330
A
100
AcDbEntity
  8
TOP
  6
CONTINUOUS
 62
     3
100
AcDbLine
 10
2.272949934005737
 20
-46.11571629842229
 30
0.0
 11
2.183145602544147
 21
-46.11571629842229
 31
0.0
  0
LINE
  5
373
330
A
100
AcDbEntity
  8
TOP
  6
CONTINUOUS
 62
     3
100
AcDbLine
 10
2.209451119105019
 20
-41.94571177164812
 30
0.0
 11
2.209451119105019
 21
-41.72297318776546
 31
0.0
  0
LINE
  5
374
330
A
100
AcDbEntity
  8
TOP
  6
CONTINUOUS
 62
     3
100
AcDbLine
 10
2.209451119105019
 20
-46.74571355184027
 30
0.0
 11
2.209451119105019
 21
-46.65345350901393
 31
0.0
  0
LINE
  5
375
330
A
100
AcDbEntity
  8
TOP
  6
CONTINUOUS
 62
     3
100
AcDbLine
 10
2.145948330561317
 20
-4.460716247558832
 30
0.0
 11
2.183145602544147
 21
-4.460716247558832
 31
0.0
  0
LINE
  5
376
330
A
100
AcDbEntity
  8
TOP
  6
CONTINUOUS
 62
     3
100
AcDbLine
 10
10.71245106061316
 20
-33.83071422576986
 30
0.0
 11
10.71245106061316
 21
-34.05345280965252
 31
0.0
  0
LINE
  5
377
330
A
100
AcDbEntity
  8
TOP
  6
CONTINUOUS
 62
     3
100
AcDbLine
 10
3.900299787521394
 20
-64.38850561777893
 30
0.0
 11
3.765950918197661
 21
-64.38850561777893
 31
0.0
  0
LINE
  5
378
330
A
100
AcDbEntity
  8
TOP
  6
CONTINUOUS
 62
     3
100
AcDbLine
 10
2.209451119105019
 20
-29.3457110722867
 30
0.0
 11
2.209451119105019
 21
-29.12297248840404
 31
0.0
  0
LINE
  5
379
330
A
100
AcDbEntity
  8
TOP
  6
CONTINUOUS
 62
     3
100
AcDbLine
 10
2.145948330561317
 20
-3.922979036967187
 30
0.0
 11
2.145948330561317
 21
-3.83071104685488
 31
0.0
  0
LINE
  5
37A
330
A
100
AcDbEntity
  8
TOP
  6
CONTINUOUS
 62
     3
100
AcDbLine
 10
24.87701232296329
 20
-42.2607103983571
 30
0.0
 11
24.87701232296329
 21
-46.11570835113631
 31
0.0
  0
LINE
  5
37B
330
A
100
AcDbEntity
  8
TOP
  6
CONTINUOUS
 62
     3
100
AcDbLine
 10
25.00401790005069
 20
-14.61571057637576
 30
0.0
 11
24.9142135685891
 21
-14.61571057637576
 31
0.0
  0
LINE
  5
37C
330
A
100
AcDbEntity
  8
TOP
  6
CONTINUOUS
 62
     3
100
AcDbLine
 10
2.183145602544147
 20
-22.73071606953999
 30
0.0
 11
2.145948330561317
 21
-22.73071606953999
 31
0.0
  0
LINE
  5
37D
330
A
100
AcDbEntity
  8
TOP
  6
CONTINUOUS
 62
     3
100
AcDbLine
 10
5.335949182510437
 20
-31.08821709950841
 30
0.0
 11
5.585950930913355
 21
-31.08821709950841
 31
0.0
  0
LINE
  5
37E
330
A
100
AcDbEntity
  8
TOP
  6
CONTINUOUS
 62
     3
100
AcDbLine
 10
7.335951248804828
 20
-38.38821252187184
 30
0.0
 11
7.335951248804828
 21
-38.36391766866139
 31
0.0
  0
LINE
  5
37F
330
A
100
AcDbEntity
  8
TOP
  6
CONTINUOUS
 62
     3
100
AcDbLine
 10
7.585949023564761
 20
-38.38821252187184
 30
0.0
 11
7.585949023564761
 21
-38.36391766866139
 31
0.0
  0
LINE
  5
380
330
A
100
AcDbEntity
  8
TOP
  6
CONTINUOUS
 62
     3
100
AcDbLine
 10
2.272949934005737
 20
-33.51571559906087
 30
0.0
 11
3.765950918197661
 21
-33.51571559906087
 31
0.0
  0
LINE
  5
381
330
A
100
AcDbEntity
  8
TOP
  6
CONTINUOUS
 62
     3
100
AcDbLine
 10
10.77594987551388
 20
4.284286499023372
 30
0.0
 11
10.77594987551388
 21
4.192026456197036
 31
0.0
  0
LINE
  5
382
330
A
100
AcDbEntity
  8
TOP
  6
CONTINUOUS
 62
     3
100
AcDbLine
 10
5.335949182510437
 20
-18.6673164367681
 30
0.0
 11
5.335949182510437
 21
-18.70852311452281
 31
0.0
  0
LINE
  5
383
330
A
100
AcDbEntity
  8
TOP
  6
CONTINUOUS
 62
     3
100
AcDbLine
 10
10.73875260353105
 20
-4.460716247558832
 30
0.0
 11
10.77594987551388
 21
-4.460716247558832
 31
0.0
  0
LINE
  5
384
330
A
100
AcDbEntity
  8
TOP
  6
CONTINUOUS
 62
     3
100
AcDbLine
 10
5.585950930913355
 20
-18.6673164367681
 30
0.0
 11
5.585950930913355
 21
-18.70852311452281
 31
0.0
  0
LINE
  5
385
330
A
100
AcDbEntity
  8
TOP
  6
CONTINUOUS
 62
     3
100
AcDbLine
 10
2.272949934005737
 20
-48.5607147216808
 30
0.0
 11
3.765950918197661
 21
-48.5607147216808
 31
0.0
  0
LINE
  5
386
330
A
100
AcDbEntity
  8
TOP
  6
CONTINUOUS
 62
     3
100
AcDbLine
 10
2.209451119105019
 20
3.746549288431728
 30
0.0
 11
2.209451119105019
 21
3.969287872314382
 31
0.0
  0
LINE
  5
387
330
A
100
AcDbEntity
  8
TOP
  6
CONTINUOUS
 62
     3
100
AcDbLine
 10
5.585950930913355
 20
-19.30910746256564
 30
0.0
 11
5.335949182510437
 21
-19.30910746256564
 31
0.0
  0
LINE
  5
388
330
A
100
AcDbEntity
  8
TOP
  6
CONTINUOUS
 62
     3
100
AcDbLine
 10
9.155951261520522
 20
-23.36071332295797
 30
0.0
 11
10.64894827206946
 21
-23.36071332295797
 31
0.0
  0
LINE
  5
389
330
A
100
AcDbEntity
  8
TOP
  6
CONTINUOUS
 62
     3
100
AcDbLine
 10
5.585950930913355
 20
-6.709106763204221
 30
0.0
 11
5.335949182510437
 21
-6.709106763204221
 31
0.0
  0
LINE
  5
38A
330
A
100
AcDbEntity
  8
TOP
  6
CONTINUOUS
 62
     3
100
AcDbLine
 10
2.145948330561317
 20
-41.94571177164812
 30
0.0
 11
2.145948330561317
 21
-41.72297318776546
 31
0.0
  0
LINE
  5
38B
330
A
100
AcDbEntity
  8
TOP
  6
CONTINUOUS
 62
     3
100
AcDbLine
 10
10.71245106061316
 20
-8.630712827047034
 30
0.0
 11
10.71245106061316
 21
-8.853451410929688
 31
0.0
  0
LINE
  5
38C
330
A
100
AcDbEntity
  8
TOP
  6
CONTINUOUS
 62
     3
100
AcDbLine
 10
10.77594987551388
 20
-35.3307167689014
 30
0.0
 11
10.77594987551388
 21
-35.42297681172774
 31
0.0
  0
LINE
  5
38D
330
A
100
AcDbEntity
  8
TOP
  6
CONTINUOUS
 62
     3
100
AcDbLine
 10
5.585950930913355
 20
-6.157120068868273
 30
0.0
 11
5.335949182510437
 21
-6.157120068868273
 31
0.0
  0
LINE
  5
38E
330
A
100
AcDbEntity
  8
TOP
  6
CONTINUOUS
 62
     3
100
AcDbLine
 10
9.155951261520522
 20
-2.015717824300319
 30
0.0
 11
10.64894827206946
 21
-2.015717824300319
 31
0.0
  0
LINE
  5
38F
330
A
100
AcDbEntity
  8
TOP
  6
CONTINUOUS
 62
     3
100
AcDbLine
 10
10.77594987551388
 20
4.284286499023372
 30
0.0
 11
10.73875260353105
 21
4.284286499023372
 31
0.0
  0
LINE
  5
390
330
A
100
AcDbEntity
  8
TOP
  6
CONTINUOUS
 62
     3
100
AcDbLine
 10
2.209451119105019
 20
-3.922979036967187
 30
0.0
 11
2.209451119105019
 21
-3.83071104685488
 31
0.0
  0
LINE
  5
391
330
A
100
AcDbEntity
  8
TOP
  6
CONTINUOUS
 62
     3
100
AcDbLine
 10
24.9142135685891
 20
-27.84570852915516
 30
0.0
 11
25.00401790005069
 21
-27.84570852915516
 31
0.0
  0
LINE
  5
392
330
A
100
AcDbEntity
  8
TOP
  6
CONTINUOUS
 62
     3
100
AcDbLine
 10
24.87701232296329
 20
3.654289245605392
 30
0.0
 11
24.87701232296329
 21
2.469285329182842
 31
0.0
  0
LINE
  5
393
330
A
100
AcDbEntity
  8
TOP
  6
CONTINUOUS
 62
     3
100
AcDbLine
 10
5.335949182510437
 20
6.666882832845034
 30
0.0
 11
5.335949182510437
 21
6.532677014668762
 31
0.0
  0
LINE
  5
394
330
A
100
AcDbEntity
  8
TOP
  6
CONTINUOUS
 62
     3
100
AcDbLine
 10
8.965951522191499
 20
-46.93571726481228
 30
0.0
 11
8.965951522191499
 21
-47.74071375529081
 31
0.0
  0
LINE
  5
395
330
A
100
AcDbEntity
  8
TOP
  6
CONTINUOUS
 62
     3
100
AcDbLine
 10
7.585949023564761
 20
0.1914819081622888
 30
0.0
 11
7.585949023564761
 21
0.1428763071694493
 31
0.0
  0
LINE
  5
396
330
A
100
AcDbEntity
  8
TOP
  6
CONTINUOUS
 62
     3
100
AcDbLine
 10
25.00401790005069
 20
-20.91571489969946
 30
0.0
 11
25.73201313676539
 21
-20.91571489969946
 31
0.0
  0
LINE
  5
397
330
A
100
AcDbEntity
  8
TOP
  6
CONTINUOUS
 62
     3
100
AcDbLine
 10
5.585950930913355
 20
-31.81930383046546
 30
0.0
 11
5.585950930913355
 21
-31.3571214675911
 31
0.0
  0
LINE
  5
398
330
A
100
AcDbEntity
  8
TOP
  6
CONTINUOUS
 62
     3
100
AcDbLine
 10
2.183145602544147
 20
-14.61571057637576
 30
0.0
 11
2.145948330561317
 21
-14.61571057637576
 31
0.0
  0
LINE
  5
399
330
A
100
AcDbEntity
  8
TOP
  6
CONTINUOUS
 62
     3
100
AcDbLine
 10
2.209451119105019
 20
-27.30797926584949
 30
0.0
 11
2.209451119105019
 21
-27.21571127573718
 31
0.0
  0
LINE
  5
39A
330
A
100
AcDbEntity
  8
TOP
  6
CONTINUOUS
 62
     3
100
AcDbLine
 10
25.73201313676539
 20
-34.14571285247886
 30
0.0
 11
25.00401790005069
 21
-34.14571285247886
 31
0.0
  0
LINE
  5
39B
330
A
100
AcDbEntity
  8
TOP
  6
CONTINUOUS
 62
     3
100
AcDbLine
 10
25.00401790005069
 20
-40.44570922851657
 30
0.0
 11
25.00401790005069
 21
-41.63071314493913
 31
0.0
  0
LINE
  5
39C
330
A
100
AcDbEntity
  8
TOP
  6
CONTINUOUS
 62
     3
100
AcDbLine
 10
24.87701232296329
 20
-10.76071262359655
 30
0.0
 11
24.9142135685891
 21
-10.76071262359655
 31
0.0
  0
LINE
  5
39D
330
A
100
AcDbEntity
  8
TOP
  6
CONTINUOUS
 62
     3
100
AcDbLine
 10
2.183145602544147
 20
-21.54571215311744
 30
0.0
 11
2.272949934005737
 21
-21.54571215311744
 31
0.0
  0
LINE
  5
39E
330
A
100
AcDbEntity
  8
TOP
  6
CONTINUOUS
 62
     3
100
AcDbLine
 10
9.155951261520522
 20
-29.03071244557771
 30
0.0
 11
10.64894827206946
 21
-29.03071244557771
 31
0.0
  0
LINE
  5
39F
330
A
100
AcDbEntity
  8
TOP
  6
CONTINUOUS
 62
     3
100
AcDbLine
 10
2.145948330561317
 20
-42.26071039835711
 30
0.0
 11
2.183145602544147
 21
-42.26071039835711
 31
0.0
  0
LINE
  5
3A0
330
A
100
AcDbEntity
  8
TOP
  6
CONTINUOUS
 62
     3
100
AcDbLine
 10
5.585950930913355
 20
5.890893936157193
 30
0.0
 11
5.335949182510437
 21
5.890893936157193
 31
0.0
  0
LINE
  5
3A1
330
A
100
AcDbEntity
  8
TOP
  6
CONTINUOUS
 62
     3
100
AcDbLine
 10
2.272949934005737
 20
-51.80821418762325
 30
0.0
 11
3.765950918197661
 21
-51.80821418762325
 31
0.0
  0
LINE
  5
3A2
330
A
100
AcDbEntity
  8
TOP
  6
CONTINUOUS
 62
     3
100
AcDbLine
 10
5.585950930913355
 20
-19.4882154464727
 30
0.0
 11
5.585950930913355
 21
-19.46391264597628
 31
0.0
  0
LINE
  5
3A3
330
A
100
AcDbEntity
  8
TOP
  6
CONTINUOUS
 62
     3
100
AcDbLine
 10
7.335951248804828
 20
-24.96732076009179
 30
0.0
 11
7.335951248804828
 21
-25.00851949056054
 31
0.0
  0
LINE
  5
3A4
330
A
100
AcDbEntity
  8
TOP
  6
CONTINUOUS
 62
     3
100
AcDbLine
 10
5.585950930913355
 20
-19.46391264597628
 30
0.0
 11
5.585950930913355
 21
-19.44331328074191
 31
0.0
  0
LINE
  5
3A5
330
A
100
AcDbEntity
  8
TOP
  6
CONTINUOUS
 62
     3
100
AcDbLine
 10
5.585950930913355
 20
-19.44331328074191
 30
0.0
 11
5.335949182510437
 21
-19.44331328074191
 31
0.0
  0
LINE
  5
3A6
330
A
100
AcDbEntity
  8
TOP
  6
CONTINUOUS
 62
     3
100
AcDbLine
 10
2.145948330561317
 20
-40.44571717580255
 30
0.0
 11
2.183145602544147
 21
-40.44571717580255
 31
0.0
  0
LINE
  5
3A7
330
A
100
AcDbEntity
  8
TOP
  6
CONTINUOUS
 62
     3
100
AcDbLine
 10
2.183145602544147
 20
-34.14571285247886
 30
0.0
 11
2.272949934005737
 21
-34.14571285247886
 31
0.0
  0
LINE
  5
3A8
330
A
100
AcDbEntity
  8
TOP
  6
CONTINUOUS
 62
     3
100
AcDbLine
 10
5.585950930913355
 20
-31.11251195271886
 30
0.0
 11
5.585950930913355
 21
-31.13311926523921
 31
0.0
  0
LINE
  5
3A9
330
A
100
AcDbEntity
  8
TOP
  6
CONTINUOUS
 62
     3
100
AcDbLine
 10
10.77594987551388
 20
-40.35344918569024
 30
0.0
 11
10.77594987551388
 21
-40.44571717580255
 31
0.0
  0
LINE
  5
3AA
330
A
100
AcDbEntity
  8
TOP
  6
CONTINUOUS
 62
     3
100
AcDbLine
 10
10.71245106061316
 20
-10.66845258077022
 30
0.0
 11
10.71245106061316
 21
-10.76071262359655
 31
0.0
  0
LINE
  5
3AB
330
A
100
AcDbEntity
  8
TOP
  6
CONTINUOUS
 62
     3
100
AcDbLine
 10
10.77594987551388
 20
-33.60797564188721
 30
0.0
 11
10.77594987551388
 21
-33.83071422576986
 31
0.0
  0
LINE
  5
3AC
330
A
100
AcDbEntity
  8
TOP
  6
CONTINUOUS
 62
     3
100
AcDbLine
 10
5.585950930913355
 20
-6.619310379028601
 30
0.0
 11
5.335949182510437
 21
-6.619310379028601
 31
0.0
  0
LINE
  5
3AD
330
A
100
AcDbEntity
  8
TOP
  6
CONTINUOUS
 62
     3
100
AcDbLine
 10
10.77594987551388
 20
1.83928807576486
 30
0.0
 11
10.77594987551388
 21
-2.015717824300319
 31
0.0
  0
LINE
  5
3AE
330
A
100
AcDbEntity
  8
TOP
  6
CONTINUOUS
 62
     3
100
AcDbLine
 10
2.272949934005737
 20
7.53178596496582
 30
0.0
 11
3.765950918197661
 21
7.53178596496582
 31
0.0
  0
LINE
  5
3AF
330
A
100
AcDbEntity
  8
TOP
  6
CONTINUOUS
 62
     3
100
AcDbLine
 10
5.585950930913355
 20
-31.90910816192705
 30
0.0
 11
5.335949182510437
 21
-31.90910816192705
 31
0.0
  0
LINE
  5
3B0
330
A
100
AcDbEntity
  8
TOP
  6
CONTINUOUS
 62
     3
100
AcDbLine
 10
2.209451119105019
 20
-4.460716247558832
 30
0.0
 11
2.209451119105019
 21
-4.368456204732495
 31
0.0
  0
LINE
  5
3B1
330
A
100
AcDbEntity
  8
TOP
  6
CONTINUOUS
 62
     3
100
AcDbLine
 10
24.9142135685891
 20
-27.21571127573718
 30
0.0
 11
24.87701232296329
 21
-27.21571127573718
 31
0.0
  0
LINE
  5
3B2
330
A
100
AcDbEntity
  8
TOP
  6
CONTINUOUS
 62
     3
100
AcDbLine
 10
24.87701232296329
 20
7.53178596496582
 30
0.0
 11
24.87701232296329
 21
4.284286499023373
 31
0.0
  0
LINE
  5
3B3
330
A
100
AcDbEntity
  8
TOP
  6
CONTINUOUS
 62
     3
100
AcDbLine
 10
7.585949023564761
 20
-25.05712509155338
 30
0.0
 11
7.335951248804828
 21
-25.05712509155338
 31
0.0
  0
LINE
  5
3B4
330
A
100
AcDbEntity
  8
TOP
  6
CONTINUOUS
 62
     3
100
AcDbLine
 10
7.585949023564761
 20
-67.68666903178047
 30
0.0
 11
7.585949023564761
 21
-67.67290433248034
 31
0.0
  0
LINE
  5
3B5
330
A
100
AcDbEntity
  8
TOP
  6
CONTINUOUS
 62
     3
100
AcDbLine
 10
10.71245106061316
 20
-48.02297751108916
 30
0.0
 11
10.71245106061316
 21
-48.24571609497181
 31
0.0
  0
LINE
  5
3B6
330
A
100
AcDbEntity
  8
TOP
  6
CONTINUOUS
 62
     3
100
AcDbLine
 10
10.77594987551388
 20
-47.93071746826282
 30
0.0
 11
10.73875260353105
 21
-47.93071746826282
 31
0.0
  0
LINE
  5
3B7
330
A
100
AcDbEntity
  8
TOP
  6
CONTINUOUS
 62
     3
100
AcDbLine
 10
7.335951248804828
 20
-50.01251697540397
 30
0.0
 11
7.335951248804828
 21
-50.03311634063835
 31
0.0
  0
LINE
  5
3B8
330
A
100
AcDbEntity
  8
TOP
  6
CONTINUOUS
 62
     3
100
AcDbLine
 10
7.335951248804828
 20
0.2326806386310397
 30
0.0
 11
7.335951248804828
 21
0.1914819081622888
 31
0.0
  0
LINE
  5
3B9
330
A
100
AcDbEntity
  8
TOP
  6
CONTINUOUS
 62
     3
100
AcDbLine
 10
5.585950930913355
 20
-31.8679094314583
 30
0.0
 11
5.585950930913355
 21
-31.81930383046546
 31
0.0
  0
LINE
  5
3BA
330
A
100
AcDbEntity
  8
TOP
  6
CONTINUOUS
 62
     3
100
AcDbLine
 10
5.335949182510437
 20
6.532677014668762
 30
0.0
 11
5.335949182510437
 21
6.491478284200011
 31
0.0
  0
LINE
  5
3BB
330
A
100
AcDbEntity
  8
TOP
  6
CONTINUOUS
 62
     3
100
AcDbLine
 10
7.585949023564761
 20
-67.53870248794704
 30
0.0
 11
7.335951248804828
 21
-67.53870248794704
 31
0.0
  0
LINE
  5
3BC
330
A
100
AcDbEntity
  8
TOP
  6
CONTINUOUS
 62
     3
100
AcDbLine
 10
5.585950930913355
 20
6.532677014668762
 30
0.0
 11
5.585950930913355
 21
6.491478284200011
 31
0.0
  0
LINE
  5
3BD
330
A
100
AcDbEntity
  8
TOP
  6
CONTINUOUS
 62
     3
100
AcDbLine
 10
2.183145602544147
 20
-10.76071262359655
 30
0.0
 11
2.272949934005737
 21
-10.76071262359655
 31
0.0
  0
LINE
  5
3BE
330
A
100
AcDbEntity
  8
TOP
  6
CONTINUOUS
 62
     3
100
AcDbLine
 10
10.77594987551388
 20
-23.36071332295797
 30
0.0
 11
10.77594987551388
 21
-27.21571127573718
 31
0.0
  0
LINE
  5
3BF
330
A
100
AcDbEntity
  8
TOP
  6
CONTINUOUS
 62
     3
100
AcDbLine
 10
2.209451119105019
 20
-27.84571647644113
 30
0.0
 11
2.209451119105019
 21
-27.75345643361479
 31
0.0
  0
LINE
  5
3C0
330
A
100
AcDbEntity
  8
TOP
  6
CONTINUOUS
 62
     3
100
AcDbLine
 10
2.145948330561317
 20
-8.853451410929688
 30
0.0
 11
2.145948330561317
 21
-8.630712827047034
 31
0.0
  0
LINE
  5
3C1
330
A
100
AcDbEntity
  8
TOP
  6
CONTINUOUS
 62
     3
100
AcDbLine
 10
24.87701232296329
 20
-40.44570922851657
 30
0.0
 11
24.87701232296329
 21
-41.63071314493913
 31
0.0
  0
LINE
  5
3C2
330
A
100
AcDbEntity
  8
TOP
  6
CONTINUOUS
 62
     3
100
AcDbLine
 10
7.335951248804828
 20
-25.78821182251043
 30
0.0
 11
7.585949023564761
 21
-25.78821182251043
 31
0.0
  0
LINE
  5
3C3
330
A
100
AcDbEntity
  8
TOP
  6
CONTINUOUS
 62
     3
100
AcDbLine
 10
3.955950657526685
 20
-39.62571620941256
 30
0.0
 11
3.955950657526685
 21
-36.15071773529139
 31
0.0
  0
LINE
  5
3C4
330
A
100
AcDbEntity
  8
TOP
  6
CONTINUOUS
 62
     3
100
AcDbLine
 10
10.77594987551388
 20
-8.630712827047034
 30
0.0
 11
10.77594987551388
 21
-8.853451410929688
 31
0.0
  0
LINE
  5
3C5
330
A
100
AcDbEntity
  8
TOP
  6
CONTINUOUS
 62
     3
100
AcDbLine
 10
5.585950930913355
 20
5.711785952250126
 30
0.0
 11
5.585950930913355
 21
5.736088752746546
 31
0.0
  0
LINE
  5
3C6
330
A
100
AcDbEntity
  8
TOP
  6
CONTINUOUS
 62
     3
100
AcDbLine
 10
5.585950930913355
 20
5.756688117980921
 30
0.0
 11
5.335949182510437
 21
5.756688117980921
 31
0.0
  0
LINE
  5
3C7
330
A
100
AcDbEntity
  8
TOP
  6
CONTINUOUS
 62
     3
100
AcDbLine
 10
3.955950657526685
 20
-8.125710487366033
 30
0.0
 11
3.955950657526685
 21
-4.650712013244871
 31
0.0
  0
LINE
  5
3C8
330
A
100
AcDbEntity
  8
TOP
  6
CONTINUOUS
 62
     3
100
AcDbLine
 10
2.183145602544147
 20
-51.80821418762325
 30
0.0
 11
2.272949934005737
 21
-51.80821418762325
 31
0.0
  0
LINE
  5
3C9
330
A
100
AcDbEntity
  8
TOP
  6
CONTINUOUS
 62
     3
100
AcDbLine
 10
2.145948330561317
 20
2.377025286356505
 30
0.0
 11
2.145948330561317
 21
2.469285329182842
 31
0.0
  0
LINE
  5
3CA
330
A
100
AcDbEntity
  8
TOP
  6
CONTINUOUS
 62
     3
100
AcDbLine
 10
10.64894827206946
 20
-64.32500282923523
 30
0.0
 11
9.155951261520522
 21
-64.32500282923523
 31
0.0
  0
LINE
  5
3CB
330
A
100
AcDbEntity
  8
TOP
  6
CONTINUOUS
 62
     3
100
AcDbLine
 10
10.77594987551388
 20
-27.21571127573718
 30
0.0
 11
10.77594987551388
 21
-27.30797926584949
 31
0.0
  0
LINE
  5
3CC
330
A
100
AcDbEntity
  8
TOP
  6
CONTINUOUS
 62
     3
100
AcDbLine
 10
10.71245106061316
 20
-10.13071537017857
 30
0.0
 11
10.71245106061316
 21
-10.22297541300491
 31
0.0
  0
LINE
  5
3CD
330
A
100
AcDbEntity
  8
TOP
  6
CONTINUOUS
 62
     3
100
AcDbLine
 10
10.77594987551388
 20
-2.015717824300319
 30
0.0
 11
10.77594987551388
 21
-2.107977867126656
 31
0.0
  0
LINE
  5
3CE
330
A
100
AcDbEntity
  8
TOP
  6
CONTINUOUS
 62
     3
100
AcDbLine
 10
10.77594987551388
 20
-29.3457110722867
 30
0.0
 11
10.77594987551388
 21
-29.56844965616935
 31
0.0
  0
LINE
  5
3CF
330
A
100
AcDbEntity
  8
TOP
  6
CONTINUOUS
 62
     3
100
AcDbLine
 10
9.155951261520522
 20
-4.460716247558832
 30
0.0
 11
10.64894827206946
 21
-4.460716247558832
 31
0.0
  0
LINE
  5
3D0
330
A
100
AcDbEntity
  8
TOP
  6
CONTINUOUS
 62
     3
100
AcDbLine
 10
10.64894827206946
 20
1.83928807576486
 30
0.0
 11
10.64894827206946
 21
-2.015717824300319
 31
0.0
  0
LINE
  5
3D1
330
A
100
AcDbEntity
  8
TOP
  6
CONTINUOUS
 62
     3
100
AcDbLine
 10
10.64894827206946
 20
-51.80821418762325
 30
0.0
 11
9.155951261520522
 21
-51.80821418762325
 31
0.0
  0
LINE
  5
3D2
330
A
100
AcDbEntity
  8
TOP
  6
CONTINUOUS
 62
     3
100
AcDbLine
 10
24.9142135685891
 20
-23.36071332295797
 30
0.0
 11
25.00401790005069
 21
-23.36071332295797
 31
0.0
  0
LINE
  5
3D3
330
A
100
AcDbEntity
  8
TOP
  6
CONTINUOUS
 62
     3
100
AcDbLine
 10
25.00401790005069
 20
7.53178596496582
 30
0.0
 11
25.00401790005069
 21
4.284286499023373
 31
0.0
  0
LINE
  5
3D4
330
A
100
AcDbEntity
  8
TOP
  6
CONTINUOUS
 62
     3
100
AcDbLine
 10
8.965951522191499
 20
-15.43571154276575
 30
0.0
 11
8.965951522191499
 21
-16.24071598053025
 31
0.0
  0
LINE
  5
3D5
330
A
100
AcDbEntity
  8
TOP
  6
CONTINUOUS
 62
     3
100
AcDbLine
 10
7.585949023564761
 20
-25.51930745442774
 30
0.0
 11
7.335951248804828
 21
-25.51930745442774
 31
0.0
  0
LINE
  5
3D6
330
A
100
AcDbEntity
  8
TOP
  6
CONTINUOUS
 62
     3
100
AcDbLine
 10
10.77594987551388
 20
-48.46845467885446
 30
0.0
 11
10.77594987551388
 21
-48.5607147216808
 31
0.0
  0
LINE
  5
3D7
330
A
100
AcDbEntity
  8
TOP
  6
CONTINUOUS
 62
     3
100
AcDbLine
 10
3.955950657526685
 20
-64.38850561777893
 30
0.0
 11
3.900299787521394
 21
-64.38850561777893
 31
0.0
  0
LINE
  5
3D8
330
A
100
AcDbEntity
  8
TOP
  6
CONTINUOUS
 62
     3
100
AcDbLine
 10
7.585949023564761
 20
-49.98821417490756
 30
0.0
 11
7.585949023564761
 21
-50.01251697540397
 31
0.0
  0
LINE
  5
3D9
330
A
100
AcDbEntity
  8
TOP
  6
CONTINUOUS
 62
     3
100
AcDbLine
 10
2.145948330561317
 20
-21.54571215311744
 30
0.0
 11
2.145948330561317
 21
-21.4534521102911
 31
0.0
  0
LINE
  5
3DA
330
A
100
AcDbEntity
  8
TOP
  6
CONTINUOUS
 62
     3
100
AcDbLine
 10
25.00401790005069
 20
-33.5157076517749
 30
0.0
 11
24.9142135685891
 21
-33.5157076517749
 31
0.0
  0
LINE
  5
3DB
330
A
100
AcDbEntity
  8
TOP
  6
CONTINUOUS
 62
     3
100
AcDbLine
 10
5.335949182510437
 20
-31.13311926523921
 30
0.0
 11
5.335949182510437
 21
-31.26731713612951
 31
0.0
  0
LINE
  5
3DC
330
A
100
AcDbEntity
  8
TOP
  6
CONTINUOUS
 62
     3
100
AcDbLine
 10
5.585950930913355
 20
-43.68821779886983
 30
0.0
 11
5.585950930913355
 21
-43.71251265208028
 31
0.0
  0
LINE
  5
3DD
330
A
100
AcDbEntity
  8
TOP
  6
CONTINUOUS
 62
     3
100
AcDbLine
 10
24.9142135685891
 20
-2.015709877014348
 30
0.0
 11
24.87701232296329
 21
-2.015709877014348
 31
0.0
  0
LINE
  5
3DE
330
A
100
AcDbEntity
  8
TOP
  6
CONTINUOUS
 62
     3
100
AcDbLine
 10
24.9142135685891
 20
-48.5607147216808
 30
0.0
 11
25.00401790005069
 21
-48.5607147216808
 31
0.0
  0
LINE
  5
3DF
330
A
100
AcDbEntity
  8
TOP
  6
CONTINUOUS
 62
     3
100
AcDbLine
 10
10.77594987551388
 20
-35.3307167689014
 30
0.0
 11
10.73875260353105
 21
-35.3307167689014
 31
0.0
  0
LINE
  5
3E0
330
A
100
AcDbEntity
  8
TOP
  6
CONTINUOUS
 62
     3
100
AcDbLine
 10
7.335951248804828
 20
-13.18821112314901
 30
0.0
 11
7.335951248804828
 21
-13.16391626993856
 31
0.0
  0
LINE
  5
3E1
330
A
100
AcDbEntity
  8
TOP
  6
CONTINUOUS
 62
     3
100
AcDbLine
 10
10.73875260353105
 20
-3.83071104685488
 30
0.0
 11
10.64894827206946
 21
-3.83071104685488
 31
0.0
  0
LINE
  5
3E2
330
A
100
AcDbEntity
  8
TOP
  6
CONTINUOUS
 62
     3
100
AcDbLine
 10
2.272949934005737
 20
3.654289245605391
 30
0.0
 11
3.765950918197661
 21
3.654289245605391
 31
0.0
  0
LINE
  5
3E3
330
A
100
AcDbEntity
  8
TOP
  6
CONTINUOUS
 62
     3
100
AcDbLine
 10
2.145948330561317
 20
-10.44571399688756
 30
0.0
 11
2.145948330561317
 21
-10.22297541300491
 31
0.0
  0
LINE
  5
3E4
330
A
100
AcDbEntity
  8
TOP
  6
CONTINUOUS
 62
     3
100
AcDbLine
 10
25.00401790005069
 20
-35.96071402231938
 30
0.0
 11
25.00401790005069
 21
-39.81571197509859
 31
0.0
  0
LINE
  5
3E5
330
A
100
AcDbEntity
  8
TOP
  6
CONTINUOUS
 62
     3
100
AcDbLine
 10
24.87701232296329
 20
-8.945711453756025
 30
0.0
 11
24.9142135685891
 21
-8.945711453756025
 31
0.0
  0
LINE
  5
3E6
330
A
100
AcDbEntity
  8
TOP
  6
CONTINUOUS
 62
     3
100
AcDbLine
 10
9.155951261520522
 20
-20.91571489969946
 30
0.0
 11
10.64894827206946
 21
-20.91571489969946
 31
0.0
  0
LINE
  5
3E7
330
A
100
AcDbEntity
  8
TOP
  6
CONTINUOUS
 62
     3
100
AcDbLine
 10
2.183145602544147
 20
-39.8157119750986
 30
0.0
 11
2.145948330561317
 21
-39.8157119750986
 31
0.0
  0
LINE
  5
3E8
330
A
100
AcDbEntity
  8
TOP
  6
CONTINUOUS
 62
     3
100
AcDbLine
 10
10.77594987551388
 20
-4.368456204732495
 30
0.0
 11
10.77594987551388
 21
-4.460716247558832
 31
0.0
  0
LINE
  5
3E9
330
A
100
AcDbEntity
  8
TOP
  6
CONTINUOUS
 62
     3
100
AcDbLine
 10
10.71245106061316
 20
3.969287872314382
 30
0.0
 11
10.71245106061316
 21
3.746549288431728
 31
0.0
  0
LINE
  5
3EA
330
A
100
AcDbEntity
  8
TOP
  6
CONTINUOUS
 62
     3
100
AcDbLine
 10
2.145948330561317
 20
1.83928807576486
 30
0.0
 11
2.145948330561317
 21
1.931548118591197
 31
0.0
  0
LINE
  5
3EB
330
A
100
AcDbEntity
  8
TOP
  6
CONTINUOUS
 62
     3
100
AcDbLine
 10
5.335949182510437
 20
-19.4882154464727
 30
0.0
 11
5.335949182510437
 21
-19.46391264597628
 31
0.0
  0
LINE
  5
3EC
330
A
100
AcDbEntity
  8
TOP
  6
CONTINUOUS
 62
     3
100
AcDbLine
 10
24.87701232296329
 20
-15.24570782979374
 30
0.0
 11
24.87701232296329
 21
-16.43071174621629
 31
0.0
  0
LINE
  5
3ED
330
A
100
AcDbEntity
  8
TOP
  6
CONTINUOUS
 62
     3
100
AcDbLine
 10
8.965951522191499
 20
-29.8507134119677
 30
0.0
 11
8.965951522191499
 21
-33.32571188608886
 31
0.0
  0
LINE
  5
3EE
330
A
100
AcDbEntity
  8
TOP
  6
CONTINUOUS
 62
     3
100
AcDbLine
 10
7.335951248804828
 20
0.4117886225381071
 30
0.0
 11
7.335951248804828
 21
0.3874858220416873
 31
0.0
  0
LINE
  5
3EF
330
A
100
AcDbEntity
  8
TOP
  6
CONTINUOUS
 62
     3
100
AcDbLine
 10
10.71245106061316
 20
-14.70797856648807
 30
0.0
 11
10.71245106061316
 21
-14.93071715037072
 31
0.0
  0
LINE
  5
3F0
330
A
100
AcDbEntity
  8
TOP
  6
CONTINUOUS
 62
     3
100
AcDbLine
 10
2.145948330561317
 20
-15.24571577707971
 30
0.0
 11
2.183145602544147
 21
-15.24571577707971
 31
0.0
  0
LINE
  5
3F1
330
A
100
AcDbEntity
  8
TOP
  6
CONTINUOUS
 62
     3
100
AcDbLine
 10
10.77594987551388
 20
-27.75345643361479
 30
0.0
 11
10.77594987551388
 21
-27.84571647644113
 31
0.0
  0
LINE
  5
3F2
330
A
100
AcDbEntity
  8
TOP
  6
CONTINUOUS
 62
     3
100
AcDbLine
 10
7.335951248804828
 20
-12.91930675506632
 30
0.0
 11
7.335951248804828
 21
-12.45712439219196
 31
0.0
  0
LINE
  5
3F3
330
A
100
AcDbEntity
  8
TOP
  6
CONTINUOUS
 62
     3
100
AcDbLine
 10
8.965951522191499
 20
-4.650712013244871
 30
0.0
 11
8.965951522191499
 21
-8.125710487366033
 31
0.0
  0
LINE
  5
3F4
330
A
100
AcDbEntity
  8
TOP
  6
CONTINUOUS
 62
     3
100
AcDbLine
 10
2.183145602544147
 20
7.53178596496582
 30
0.0
 11
2.272949934005737
 21
7.53178596496582
 31
0.0
  0
LINE
  5
3F5
330
A
100
AcDbEntity
  8
TOP
  6
CONTINUOUS
 62
     3
100
AcDbLine
 10
5.335949182510437
 20
-32.08821614583412
 30
0.0
 11
5.335949182510437
 21
-32.0639133453377
 31
0.0
  0
LINE
  5
3F6
330
A
100
AcDbEntity
  8
TOP
  6
CONTINUOUS
 62
     3
100
AcDbLine
 10
24.9142135685891
 20
-22.73070812225402
 30
0.0
 11
24.87701232296329
 21
-22.73070812225402
 31
0.0
  0
LINE
  5
3F7
330
A
100
AcDbEntity
  8
TOP
  6
CONTINUOUS
 62
     3
100
AcDbLine
 10
10.77594987551388
 20
-16.43071174621629
 30
0.0
 11
10.73875260353105
 21
-16.43071174621629
 31
0.0
  0
LINE
  5
3F8
330
A
100
AcDbEntity
  8
TOP
  6
CONTINUOUS
 62
     3
100
AcDbLine
 10
7.585949023564761
 20
-25.56790510813461
 30
0.0
 11
7.585949023564761
 21
-25.51930745442774
 31
0.0
  0
LINE
  5
3F9
330
A
100
AcDbEntity
  8
TOP
  6
CONTINUOUS
 62
     3
100
AcDbLine
 10
2.272949934005737
 20
-64.38850561777893
 30
0.0
 11
2.272949934005737
 21
-64.32500282923523
 31
0.0
  0
LINE
  5
3FA
330
A
100
AcDbEntity
  8
TOP
  6
CONTINUOUS
 62
     3
100
AcDbLine
 10
2.272949934005737
 20
-64.38850561777893
 30
0.0
 11
3.765950918197661
 21
-64.38850561777893
 31
0.0
  0
LINE
  5
3FB
330
A
100
AcDbEntity
  8
TOP
  6
CONTINUOUS
 62
     3
100
AcDbLine
 10
3.765950918197661
 20
-64.38850561777893
 30
0.0
 11
3.765950918197661
 21
-64.32500282923523
 31
0.0
  0
LINE
  5
3FC
330
A
100
AcDbEntity
  8
TOP
  6
CONTINUOUS
 62
     3
100
AcDbLine
 10
7.335951248804828
 20
-50.94331105550246
 30
0.0
 11
7.335951248804828
 21
-50.80910523732619
 31
0.0
  0
LINE
  5
3FD
330
A
100
AcDbEntity
  8
TOP
  6
CONTINUOUS
 62
     3
100
AcDbLine
 10
24.87701232296329
 20
-29.66070969899569
 30
0.0
 11
24.9142135685891
 21
-29.66070969899569
 31
0.0
  0
LINE
  5
3FE
330
A
100
AcDbEntity
  8
TOP
  6
CONTINUOUS
 62
     3
100
AcDbLine
 10
5.335949182510437
 20
-44.50910886128847
 30
0.0
 11
5.335949182510437
 21
-44.46791013081972
 31
0.0
  0
LINE
  5
3FF
330
A
100
AcDbEntity
  8
TOP
  6
CONTINUOUS
 62
     3
100
AcDbLine
 10
10.64894827206946
 20
-42.26071039835711
 30
0.0
 11
10.73875260353105
 21
-42.26071039835711
 31
0.0
  0
LINE
  5
400
330
A
100
AcDbEntity
  8
TOP
  6
CONTINUOUS
 62
     3
100
AcDbLine
 10
5.585950930913355
 20
-18.53311856587779
 30
0.0
 11
5.585950930913355
 21
-18.6673164367681
 31
0.0
  0
LINE
  5
401
330
A
100
AcDbEntity
  8
TOP
  6
CONTINUOUS
 62
     3
100
AcDbLine
 10
3.089450120925919
 20
-21.45420710245825
 30
0.0
 11
3.089450120925919
 21
-21.23071352640845
 31
0.0
  0
LINE
  5
402
330
A
100
AcDbEntity
  8
TOP
  6
CONTINUOUS
 62
     3
100
AcDbLine
 10
2.272949934005737
 20
-64.32500282923523
 30
0.0
 11
3.765950918197661
 21
-64.32500282923523
 31
0.0
  0
LINE
  5
403
330
A
100
AcDbEntity
  8
TOP
  6
CONTINUOUS
 62
     3
100
AcDbLine
 10
2.145948330561317
 20
3.654289245605391
 30
0.0
 11
2.183145602544147
 21
3.654289245605391
 31
0.0
  0
LINE
  5
404
330
A
100
AcDbEntity
  8
TOP
  6
CONTINUOUS
 62
     3
100
AcDbLine
 10
2.209451119105019
 20
-14.70797856648807
 30
0.0
 11
2.209451119105019
 21
-14.61571057637576
 31
0.0
  0
LINE
  5
405
330
A
100
AcDbEntity
  8
TOP
  6
CONTINUOUS
 62
     3
100
AcDbLine
 10
7.335951248804828
 20
0.1914819081622888
 30
0.0
 11
7.335951248804828
 21
0.1428763071694493
 31
0.0
  0
LINE
  5
406
330
A
100
AcDbEntity
  8
TOP
  6
CONTINUOUS
 62
     3
100
AcDbLine
 10
7.335951248804828
 20
-37.38821347554614
 30
0.0
 11
7.585949023564761
 21
-37.38821347554614
 31
0.0
  0
LINE
  5
407
330
A
100
AcDbEntity
  8
TOP
  6
CONTINUOUS
 62
     3
100
AcDbLine
 10
2.145948330561317
 20
-17.06071694692024
 30
0.0
 11
2.145948330561317
 21
-16.96844895680794
 31
0.0
  0
LINE
  5
408
330
A
100
AcDbEntity
  8
TOP
  6
CONTINUOUS
 62
     3
100
AcDbLine
 10
2.209451119105019
 20
4.192026456197036
 30
0.0
 11
2.209451119105019
 21
4.284286499023372
 31
0.0
  0
LINE
  5
409
330
A
100
AcDbEntity
  8
TOP
  6
CONTINUOUS
 62
     3
100
AcDbLine
 10
9.155951261520522
 20
-10.13071537017857
 30
0.0
 11
10.64894827206946
 21
-10.13071537017857
 31
0.0
  0
LINE
  5
40A
330
A
100
AcDbEntity
  8
TOP
  6
CONTINUOUS
 62
     3
100
AcDbLine
 10
10.73875260353105
 20
-2.645715077718301
 30
0.0
 11
10.77594987551388
 21
-2.645715077718301
 31
0.0
  0
LINE
  5
40B
330
A
100
AcDbEntity
  8
TOP
  6
CONTINUOUS
 62
     3
100
AcDbLine
 10
9.155951261520522
 20
-27.84571647644113
 30
0.0
 11
10.64894827206946
 21
-27.84571647644113
 31
0.0
  0
LINE
  5
40C
330
A
100
AcDbEntity
  8
TOP
  6
CONTINUOUS
 62
     3
100
AcDbLine
 10
2.145948330561317
 20
-14.70797856648807
 30
0.0
 11
2.145948330561317
 21
-14.61571057637576
 31
0.0
  0
LINE
  5
40D
330
A
100
AcDbEntity
  8
TOP
  6
CONTINUOUS
 62
     3
100
AcDbLine
 10
24.87701232296329
 20
-35.96071402231938
 30
0.0
 11
24.87701232296329
 21
-39.81571197509859
 31
0.0
  0
LINE
  5
40E
330
A
100
AcDbEntity
  8
TOP
  6
CONTINUOUS
 62
     3
100
AcDbLine
 10
25.00401790005069
 20
-8.315714200338042
 30
0.0
 11
24.9142135685891
 21
-8.315714200338042
 31
0.0
  0
LINE
  5
40F
330
A
100
AcDbEntity
  8
TOP
  6
CONTINUOUS
 62
     3
100
AcDbLine
 10
10.77594987551388
 20
-17.06071694692024
 30
0.0
 11
10.77594987551388
 21
-20.91571489969946
 31
0.0
  0
LINE
  5
410
330
A
100
AcDbEntity
  8
TOP
  6
CONTINUOUS
 62
     3
100
AcDbLine
 10
2.209451119105019
 20
-42.16845035553077
 30
0.0
 11
2.209451119105019
 21
-41.94571177164812
 31
0.0
  0
LINE
  5
411
330
A
100
AcDbEntity
  8
TOP
  6
CONTINUOUS
 62
     3
100
AcDbLine
 10
10.73875260353105
 20
3.654289245605391
 30
0.0
 11
10.77594987551388
 21
3.654289245605391
 31
0.0
  0
LINE
  5
412
330
A
100
AcDbEntity
  8
TOP
  6
CONTINUOUS
 62
     3
100
AcDbLine
 10
2.209451119105019
 20
-27.75345643361479
 30
0.0
 11
2.209451119105019
 21
-27.53071784973214
 31
0.0
  0
LINE
  5
413
330
A
100
AcDbEntity
  8
TOP
  6
CONTINUOUS
 62
     3
100
AcDbLine
 10
2.145948330561317
 20
-8.630712827047034
 30
0.0
 11
2.145948330561317
 21
-8.40797424316438
 31
0.0
  0
LINE
  5
414
330
A
100
AcDbEntity
  8
TOP
  6
CONTINUOUS
 62
     3
100
AcDbLine
 10
2.183145602544147
 20
-35.96071402231938
 30
0.0
 11
2.272949934005737
 21
-35.96071402231938
 31
0.0
  0
LINE
  5
415
330
A
100
AcDbEntity
  8
TOP
  6
CONTINUOUS
 62
     3
100
AcDbLine
 10
10.71245106061316
 20
-16.74571037292528
 30
0.0
 11
10.71245106061316
 21
-16.96844895680794
 31
0.0
  0
LINE
  5
416
330
A
100
AcDbEntity
  8
TOP
  6
CONTINUOUS
 62
     3
100
AcDbLine
 10
24.9142135685891
 20
-10.13071537017857
 30
0.0
 11
24.87701232296329
 21
-10.13071537017857
 31
0.0
  0
LINE
  5
417
330
A
100
AcDbEntity
  8
TOP
  6
CONTINUOUS
 62
     3
100
AcDbLine
 10
10.71245106061316
 20
-29.03071244557771
 30
0.0
 11
10.71245106061316
 21
-29.12297248840404
 31
0.0
  0
LINE
  5
418
330
A
100
AcDbEntity
  8
TOP
  6
CONTINUOUS
 62
     3
100
AcDbLine
 10
10.71245106061316
 20
-27.75345643361479
 30
0.0
 11
10.71245106061316
 21
-27.84571647644113
 31
0.0
  0
LINE
  5
419
330
A
100
AcDbEntity
  8
TOP
  6
CONTINUOUS
 62
     3
100
AcDbLine
 10
10.71245106061316
 20
1.931548118591197
 30
0.0
 11
10.71245106061316
 21
1.83928807576486
 31
0.0
  0
LINE
  5
41A
330
A
100
AcDbEntity
  8
TOP
  6
CONTINUOUS
 62
     3
100
AcDbLine
 10
10.71245106061316
 20
-22.82297611236632
 30
0.0
 11
10.71245106061316
 21
-23.04571469624898
 31
0.0
  0
LINE
  5
41B
330
A
100
AcDbEntity
  8
TOP
  6
CONTINUOUS
 62
     3
100
AcDbLine
 10
5.335949182510437
 20
-67.68666903178047
 30
0.0
 11
5.335949182510437
 21
-67.67290433248034
 31
0.0
  0
LINE
  5
41C
330
A
100
AcDbEntity
  8
TOP
  6
CONTINUOUS
 62
     3
100
AcDbLine
 10
8.965951522191499
 20
-28.03571224212717
 30
0.0
 11
8.965951522191499
 21
-28.84071667989167
 31
0.0
  0
LINE
  5
41D
330
A
100
AcDbEntity
  8
TOP
  6
CONTINUOUS
 62
     3
100
AcDbLine
 10
10.77594987551388
 20
-67.62800614039253
 30
0.0
 11
10.77594987551388
 21
-64.45200443267966
 31
0.0
  0
LINE
  5
41E
330
A
100
AcDbEntity
  8
TOP
  6
CONTINUOUS
 62
     3
100
AcDbLine
 10
10.77594987551388
 20
-29.66071764628166
 30
0.0
 11
10.77594987551388
 21
-33.51571559906087
 31
0.0
  0
LINE
  5
41F
330
A
100
AcDbEntity
  8
TOP
  6
CONTINUOUS
 62
     3
100
AcDbLine
 10
7.585949023564761
 20
-38.34331035614104
 30
0.0
 11
7.585949023564761
 21
-38.20911248525074
 31
0.0
  0
LINE
  5
420
330
A
100
AcDbEntity
  8
TOP
  6
CONTINUOUS
 62
     3
100
AcDbLine
 10
2.145948330561317
 20
3.654289245605391
 30
0.0
 11
2.145948330561317
 21
3.746549288431728
 31
0.0
  0
LINE
  5
421
330
A
100
AcDbEntity
  8
TOP
  6
CONTINUOUS
 62
     3
100
AcDbLine
 10
9.155951261520522
 20
-64.32500282923523
 30
0.0
 11
9.155951261520522
 21
-64.38850561777893
 31
0.0
  0
LINE
  5
422
330
A
100
AcDbEntity
  8
TOP
  6
CONTINUOUS
 62
     3
100
AcDbLine
 10
7.335951248804828
 20
-12.96790440877319
 30
0.0
 11
7.335951248804828
 21
-12.91930675506632
 31
0.0
  0
LINE
  5
423
330
A
100
AcDbEntity
  8
TOP
  6
CONTINUOUS
 62
     3
100
AcDbLine
 10
10.77594987551388
 20
-8.315714200338042
 30
0.0
 11
10.73875260353105
 21
-8.315714200338042
 31
0.0
  0
LINE
  5
424
330
A
100
AcDbEntity
  8
TOP
  6
CONTINUOUS
 62
     3
100
AcDbLine
 10
2.183145602544147
 20
4.284286499023372
 30
0.0
 11
2.145948330561317
 21
4.284286499023372
 31
0.0
  0
LINE
  5
425
330
A
100
AcDbEntity
  8
TOP
  6
CONTINUOUS
 62
     3
100
AcDbLine
 10
7.335951248804828
 20
-37.60852018992196
 30
0.0
 11
7.335951248804828
 21
-37.65712579091479
 31
0.0
  0
LINE
  5
426
330
A
100
AcDbEntity
  8
TOP
  6
CONTINUOUS
 62
     3
100
AcDbLine
 10
25.00401790005069
 20
-51.80821418762325
 30
0.0
 11
24.9142135685891
 21
-51.80821418762325
 31
0.0
  0
LINE
  5
427
330
A
100
AcDbEntity
  8
TOP
  6
CONTINUOUS
 62
     3
100
AcDbLine
 10
28.18001563412058
 20
7.53178596496582
 30
0.0
 11
25.00401790005069
 21
7.53178596496582
 31
0.0
  0
LINE
  5
428
330
A
100
AcDbEntity
  8
TOP
  6
CONTINUOUS
 62
     3
100
AcDbLine
 10
24.9142135685891
 20
-21.54571215311744
 30
0.0
 11
25.00401790005069
 21
-21.54571215311744
 31
0.0
  0
LINE
  5
429
330
A
100
AcDbEntity
  8
TOP
  6
CONTINUOUS
 62
     3
100
AcDbLine
 10
7.585949023564761
 20
-0.4091103871664992
 30
0.0
 11
7.335951248804828
 21
-0.4091103871664992
 31
0.0
  0
LINE
  5
42A
330
A
100
AcDbEntity
  8
TOP
  6
CONTINUOUS
 62
     3
100
AcDbLine
 10
2.272949934005737
 20
-27.21571127573718
 30
0.0
 11
2.272949934005737
 21
-23.36071332295797
 31
0.0
  0
LINE
  5
42B
330
A
100
AcDbEntity
  8
TOP
  6
CONTINUOUS
 62
     3
100
AcDbLine
 10
3.955950657526685
 20
-16.24071598053025
 30
0.0
 11
3.955950657526685
 21
-15.43571154276575
 31
0.0
  0
LINE
  5
42C
330
A
100
AcDbEntity
  8
TOP
  6
CONTINUOUS
 62
     3
100
AcDbLine
 10
2.145948330561317
 20
4.192026456197036
 30
0.0
 11
2.145948330561317
 21
4.284286499023372
 31
0.0
  0
LINE
  5
42D
330
A
100
AcDbEntity
  8
TOP
  6
CONTINUOUS
 62
     3
100
AcDbLine
 10
9.155951261520522
 20
-47.93071746826282
 30
0.0
 11
10.64894827206946
 21
-47.93071746826282
 31
0.0
  0
LINE
  5
42E
330
A
100
AcDbEntity
  8
TOP
  6
CONTINUOUS
 62
     3
100
AcDbLine
 10
2.145948330561317
 20
-16.96844895680794
 30
0.0
 11
2.145948330561317
 21
-16.74571037292528
 31
0.0
  0
LINE
  5
42F
330
A
100
AcDbEntity
  8
TOP
  6
CONTINUOUS
 62
     3
100
AcDbLine
 10
2.145948330561317
 20
-15.24571577707971
 30
0.0
 11
2.145948330561317
 21
-15.15345573425338
 31
0.0
  0
LINE
  5
430
330
A
100
AcDbEntity
  8
TOP
  6
CONTINUOUS
 62
     3
100
AcDbLine
 10
5.335949182510437
 20
-31.26731713612951
 30
0.0
 11
5.335949182510437
 21
-31.30852381388423
 31
0.0
  0
LINE
  5
431
330
A
100
AcDbEntity
  8
TOP
  6
CONTINUOUS
 62
     3
100
AcDbLine
 10
24.87701232296329
 20
-4.460708300272861
 30
0.0
 11
24.9142135685891
 21
-4.460708300272861
 31
0.0
  0
LINE
  5
432
330
A
100
AcDbEntity
  8
TOP
  6
CONTINUOUS
 62
     3
100
AcDbLine
 10
2.145948330561317
 20
-29.66071764628166
 30
0.0
 11
2.183145602544147
 21
-29.66071764628166
 31
0.0
  0
LINE
  5
433
330
A
100
AcDbEntity
  8
TOP
  6
CONTINUOUS
 62
     3
100
AcDbLine
 10
10.73875260353105
 20
-41.63071314493913
 30
0.0
 11
10.64894827206946
 21
-41.63071314493913
 31
0.0
  0
LINE
  5
434
330
A
100
AcDbEntity
  8
TOP
  6
CONTINUOUS
 62
     3
100
AcDbLine
 10
25.00401790005069
 20
-29.03071244557771
 30
0.0
 11
25.73201313676539
 21
-29.03071244557771
 31
0.0
  0
LINE
  5
435
330
A
100
AcDbEntity
  8
TOP
  6
CONTINUOUS
 62
     3
100
AcDbLine
 10
10.64894827206946
 20
-27.84571647644113
 30
0.0
 11
10.73875260353105
 21
-27.84571647644113
 31
0.0
  0
LINE
  5
436
330
A
100
AcDbEntity
  8
TOP
  6
CONTINUOUS
 62
     3
100
AcDbLine
 10
24.87701232296329
 20
-10.76071262359655
 30
0.0
 11
24.87701232296329
 21
-14.61571057637576
 31
0.0
  0
LINE
  5
437
330
A
100
AcDbEntity
  8
TOP
  6
CONTINUOUS
 62
     3
100
AcDbLine
 10
10.77594987551388
 20
-16.43071174621629
 30
0.0
 11
10.77594987551388
 21
-16.52297178904263
 31
0.0
  0
LINE
  5
438
330
A
100
AcDbEntity
  8
TOP
  6
CONTINUOUS
 62
     3
100
AcDbLine
 10
2.145948330561317
 20
1.931548118591197
 30
0.0
 11
2.145948330561317
 21
2.154286702473851
 31
0.0
  0
LINE
  5
439
330
A
100
AcDbEntity
  8
TOP
  6
CONTINUOUS
 62
     3
100
AcDbLine
 10
25.00401790005069
 20
-16.43071174621629
 30
0.0
 11
24.9142135685891
 21
-16.43071174621629
 31
0.0
  0
LINE
  5
43A
330
A
100
AcDbEntity
  8
TOP
  6
CONTINUOUS
 62
     3
100
AcDbLine
 10
2.209451119105019
 20
-21.23071352640845
 30
0.0
 11
2.209451119105019
 21
-21.00797494252579
 31
0.0
  0
LINE
  5
43B
330
A
100
AcDbEntity
  8
TOP
  6
CONTINUOUS
 62
     3
100
AcDbLine
 10
25.00401790005069
 20
-48.5607147216808
 30
0.0
 11
25.00401790005069
 21
-51.80821418762325
 31
0.0
  0
LINE
  5
43C
330
A
100
AcDbEntity
  8
TOP
  6
CONTINUOUS
 62
     3
100
AcDbLine
 10
24.9142135685891
 20
-20.91571489969946
 30
0.0
 11
24.87701232296329
 21
-20.91571489969946
 31
0.0
  0
LINE
  5
43D
330
A
100
AcDbEntity
  8
TOP
  6
CONTINUOUS
 62
     3
100
AcDbLine
 10
2.145948330561317
 20
-41.63071314493913
 30
0.0
 11
2.145948330561317
 21
-40.44571717580255
 31
0.0
  0
LINE
  5
43E
330
A
100
AcDbEntity
  8
TOP
  6
CONTINUOUS
 62
     3
100
AcDbLine
 10
10.64894827206946
 20
-48.5607147216808
 30
0.0
 11
10.73875260353105
 21
-48.5607147216808
 31
0.0
  0
LINE
  5
43F
330
A
100
AcDbEntity
  8
TOP
  6
CONTINUOUS
 62
     3
100
AcDbLine
 10
24.87701232296329
 20
-48.5607147216808
 30
0.0
 11
24.87701232296329
 21
-51.80821418762325
 31
0.0
  0
LINE
  5
440
330
A
100
AcDbEntity
  8
TOP
  6
CONTINUOUS
 62
     3
100
AcDbLine
 10
10.73875260353105
 20
-16.43071174621629
 30
0.0
 11
10.64894827206946
 21
-16.43071174621629
 31
0.0
  0
LINE
  5
441
330
A
100
AcDbEntity
  8
TOP
  6
CONTINUOUS
 62
     3
100
AcDbLine
 10
2.209451119105019
 20
-4.145717620849842
 30
0.0
 11
2.209451119105019
 21
-3.922979036967187
 31
0.0
  0
LINE
  5
442
330
A
100
AcDbEntity
  8
TOP
  6
CONTINUOUS
 62
     3
100
AcDbLine
 10
10.64894827206946
 20
-34.14571285247886
 30
0.0
 11
10.73875260353105
 21
-34.14571285247886
 31
0.0
  0
LINE
  5
443
330
A
100
AcDbEntity
  8
TOP
  6
CONTINUOUS
 62
     3
100
AcDbLine
 10
25.73201313676539
 20
-17.06070899963427
 30
0.0
 11
25.00401790005069
 21
-17.06070899963427
 31
0.0
  0
LINE
  5
444
330
A
100
AcDbEntity
  8
TOP
  6
CONTINUOUS
 62
     3
100
AcDbLine
 10
5.335949182510437
 20
-43.86731783549093
 30
0.0
 11
5.585950930913355
 21
-43.86731783549093
 31
0.0
  0
LINE
  5
445
330
A
100
AcDbEntity
  8
TOP
  6
CONTINUOUS
 62
     3
100
AcDbLine
 10
7.585949023564761
 20
-67.51117308934678
 30
0.0
 11
7.585949023564761
 21
-67.50150521596421
 31
0.0
  0
LINE
  5
446
330
A
100
AcDbEntity
  8
TOP
  6
CONTINUOUS
 62
     3
100
AcDbLine
 10
24.9142135685891
 20
-51.80821418762325
 30
0.0
 11
24.87701232296329
 21
-51.80821418762325
 31
0.0
  0
LINE
  5
447
330
A
100
AcDbEntity
  8
TOP
  6
CONTINUOUS
 62
     3
100
AcDbLine
 10
3.089450120925919
 20
3.745794296264572
 30
0.0
 11
3.089450120925919
 21
3.969287872314382
 31
0.0
  0
LINE
  5
448
330
A
100
AcDbEntity
  8
TOP
  6
CONTINUOUS
 62
     3
100
AcDbLine
 10
2.272949934005737
 20
-67.69150495529324
 30
0.0
 11
10.64894827206946
 21
-67.69150495529324
 31
0.0
  0
LINE
  5
449
330
A
100
AcDbEntity
  8
TOP
  6
CONTINUOUS
 62
     3
100
AcDbLine
 10
10.77594987551388
 20
-3.83071104685488
 30
0.0
 11
10.77594987551388
 21
-3.922979036967187
 31
0.0
  0
LINE
  5
44A
330
A
100
AcDbEntity
  8
TOP
  6
CONTINUOUS
 62
     3
100
AcDbLine
 10
2.272949934005737
 20
-35.96071402231938
 30
0.0
 11
3.765950918197661
 21
-35.96071402231938
 31
0.0
  0
LINE
  5
44B
330
A
100
AcDbEntity
  8
TOP
  6
CONTINUOUS
 62
     3
100
AcDbLine
 10
2.145948330561317
 20
-2.330716451009311
 30
0.0
 11
2.145948330561317
 21
-2.107977867126656
 31
0.0
  0
LINE
  5
44C
330
A
100
AcDbEntity
  8
TOP
  6
CONTINUOUS
 62
     3
100
AcDbLine
 10
24.87701232296329
 20
-15.24570782979374
 30
0.0
 11
24.9142135685891
 21
-15.24570782979374
 31
0.0
  0
LINE
  5
44D
330
A
100
AcDbEntity
  8
TOP
  6
CONTINUOUS
 62
     3
100
AcDbLine
 10
5.335949182510437
 20
-6.108522415161404
 30
0.0
 11
5.335949182510437
 21
-6.157120068868273
 31
0.0
  0
LINE
  5
44E
330
A
100
AcDbEntity
  8
TOP
  6
CONTINUOUS
 62
     3
100
AcDbLine
 10
9.155951261520522
 20
-29.66071764628166
 30
0.0
 11
10.64894827206946
 21
-29.66071764628166
 31
0.0
  0
LINE
  5
44F
330
A
100
AcDbEntity
  8
TOP
  6
CONTINUOUS
 62
     3
100
AcDbLine
 10
2.272949934005737
 20
2.469285329182842
 30
0.0
 11
2.183145602544147
 21
2.469285329182842
 31
0.0
  0
LINE
  5
450
330
A
100
AcDbEntity
  8
TOP
  6
CONTINUOUS
 62
     3
100
AcDbLine
 10
24.9142135685891
 20
-17.06070899963427
 30
0.0
 11
25.00401790005069
 21
-17.06070899963427
 31
0.0
  0
LINE
  5
451
330
A
100
AcDbEntity
  8
TOP
  6
CONTINUOUS
 62
     3
100
AcDbLine
 10
2.145948330561317
 20
-16.52297178904263
 30
0.0
 11
2.145948330561317
 21
-16.43071174621629
 31
0.0
  0
LINE
  5
452
330
A
100
AcDbEntity
  8
TOP
  6
CONTINUOUS
 62
     3
100
AcDbLine
 10
25.73201313676539
 20
-27.84570852915516
 30
0.0
 11
25.00401790005069
 21
-27.84570852915516
 31
0.0
  0
LINE
  5
453
330
A
100
AcDbEntity
  8
TOP
  6
CONTINUOUS
 62
     3
100
AcDbLine
 10
10.73875260353105
 20
-15.24571577707971
 30
0.0
 11
10.77594987551388
 21
-15.24571577707971
 31
0.0
  0
LINE
  5
454
330
A
100
AcDbEntity
  8
TOP
  6
CONTINUOUS
 62
     3
100
AcDbLine
 10
9.155951261520522
 20
-16.43071174621629
 30
0.0
 11
10.64894827206946
 21
-16.43071174621629
 31
0.0
  0
LINE
  5
455
330
A
100
AcDbEntity
  8
TOP
  6
CONTINUOUS
 62
     3
100
AcDbLine
 10
24.9142135685891
 20
-10.76071262359655
 30
0.0
 11
25.00401790005069
 21
-10.76071262359655
 31
0.0
  0
LINE
  5
456
330
A
100
AcDbEntity
  8
TOP
  6
CONTINUOUS
 62
     3
100
AcDbLine
 10
2.209451119105019
 20
-8.630712827047034
 30
0.0
 11
2.209451119105019
 21
-8.40797424316438
 31
0.0
  0
LINE
  5
457
330
A
100
AcDbEntity
  8
TOP
  6
CONTINUOUS
 62
     3
100
AcDbLine
 10
10.085950613022
 20
-46.65222167968858
 30
0.0
 11
10.085950613022
 21
-46.43071492513128
 31
0.0
  0
LINE
  5
458
330
A
100
AcDbEntity
  8
TOP
  6
CONTINUOUS
 62
     3
100
AcDbLine
 10
10.73875260353105
 20
-29.66071764628166
 30
0.0
 11
10.77594987551388
 21
-29.66071764628166
 31
0.0
  0
LINE
  5
459
330
A
100
AcDbEntity
  8
TOP
  6
CONTINUOUS
 62
     3
100
AcDbLine
 10
7.585949023564761
 20
-13.18821112314901
 30
0.0
 11
7.585949023564761
 21
-13.16391626993856
 31
0.0
  0
LINE
  5
45A
330
A
100
AcDbEntity
  8
TOP
  6
CONTINUOUS
 62
     3
100
AcDbLine
 10
25.00401790005069
 20
-20.91571489969946
 30
0.0
 11
24.9142135685891
 21
-20.91571489969946
 31
0.0
  0
LINE
  5
45B
330
A
100
AcDbEntity
  8
TOP
  6
CONTINUOUS
 62
     3
100
AcDbLine
 10
25.00401790005069
 20
-35.33070882161544
 30
0.0
 11
25.73201313676539
 21
-35.33070882161544
 31
0.0
  0
LINE
  5
45C
330
A
100
AcDbEntity
  8
TOP
  6
CONTINUOUS
 62
     3
100
AcDbLine
 10
2.183145602544147
 20
-40.44571717580255
 30
0.0
 11
2.272949934005737
 21
-40.44571717580255
 31
0.0
  0
LINE
  5
45D
330
A
100
AcDbEntity
  8
TOP
  6
CONTINUOUS
 62
     3
100
AcDbLine
 10
2.183145602544147
 20
-29.66071764628166
 30
0.0
 11
2.272949934005737
 21
-29.66071764628166
 31
0.0
  0
LINE
  5
45E
330
A
100
AcDbEntity
  8
TOP
  6
CONTINUOUS
 62
     3
100
AcDbLine
 10
24.87701232296329
 20
-8.945711453756025
 30
0.0
 11
24.87701232296329
 21
-10.13071537017857
 31
0.0
  0
LINE
  5
45F
330
A
100
AcDbEntity
  8
TOP
  6
CONTINUOUS
 62
     3
100
AcDbLine
 10
10.71245106061316
 20
-33.60797564188721
 30
0.0
 11
10.71245106061316
 21
-33.83071422576986
 31
0.0
  0
LINE
  5
460
330
A
100
AcDbEntity
  8
TOP
  6
CONTINUOUS
 62
     3
100
AcDbLine
 10
5.335949182510437
 20
-6.888214747111289
 30
0.0
 11
5.335949182510437
 21
-6.863911946614869
 31
0.0
  0
LINE
  5
461
330
A
100
AcDbEntity
  8
TOP
  6
CONTINUOUS
 62
     3
100
AcDbLine
 10
2.209451119105019
 20
-48.24571609497181
 30
0.0
 11
2.209451119105019
 21
-48.02297751108916
 31
0.0
  0
LINE
  5
462
330
A
100
AcDbEntity
  8
TOP
  6
CONTINUOUS
 62
     3
100
AcDbLine
 10
10.77594987551388
 20
-33.51571559906087
 30
0.0
 11
10.73875260353105
 21
-33.51571559906087
 31
0.0
  0
LINE
  5
463
330
A
100
AcDbEntity
  8
TOP
  6
CONTINUOUS
 62
     3
100
AcDbLine
 10
25.00401790005069
 20
-46.11570835113631
 30
0.0
 11
25.73201313676539
 21
-46.11570835113631
 31
0.0
  0
LINE
  5
464
330
A
100
AcDbEntity
  8
TOP
  6
CONTINUOUS
 62
     3
100
AcDbLine
 10
7.585949023564761
 20
-37.41251627604256
 30
0.0
 11
7.585949023564761
 21
-37.43311564127693
 31
0.0
  0
LINE
  5
465
330
A
100
AcDbEntity
  8
TOP
  6
CONTINUOUS
 62
     3
100
AcDbLine
 10
24.9142135685891
 20
-16.43071174621629
 30
0.0
 11
24.87701232296329
 21
-16.43071174621629
 31
0.0
  0
LINE
  5
466
330
A
100
AcDbEntity
  8
TOP
  6
CONTINUOUS
 62
     3
100
AcDbLine
 10
5.335949182510437
 20
-18.70852311452281
 30
0.0
 11
5.335949182510437
 21
-18.75712076822969
 31
0.0
  0
LINE
  5
467
330
A
100
AcDbEntity
  8
TOP
  6
CONTINUOUS
 62
     3
100
AcDbLine
 10
5.335949182510437
 20
-6.888214747111289
 30
0.0
 11
5.585950930913355
 21
-6.888214747111289
 31
0.0
  0
LINE
  5
468
330
A
100
AcDbEntity
  8
TOP
  6
CONTINUOUS
 62
     3
100
AcDbLine
 10
2.272949934005737
 20
-41.63071314493913
 30
0.0
 11
2.183145602544147
 21
-41.63071314493913
 31
0.0
  0
LINE
  5
469
330
A
100
AcDbEntity
  8
TOP
  6
CONTINUOUS
 62
     3
100
AcDbLine
 10
2.145948330561317
 20
-27.21571127573718
 30
0.0
 11
2.145948330561317
 21
-23.36071332295797
 31
0.0
  0
LINE
  5
46A
330
A
100
AcDbEntity
  8
TOP
  6
CONTINUOUS
 62
     3
100
AcDbLine
 10
2.145948330561317
 20
-10.13071537017857
 30
0.0
 11
2.145948330561317
 21
-8.945711453756024
 31
0.0
  0
LINE
  5
46B
330
A
100
AcDbEntity
  8
TOP
  6
CONTINUOUS
 62
     3
100
AcDbLine
 10
7.335951248804828
 20
0.3668864568073118
 30
0.0
 11
7.585949023564761
 21
0.3668864568073118
 31
0.0
  0
LINE
  5
46C
330
A
100
AcDbEntity
  8
TOP
  6
CONTINUOUS
 62
     3
100
AcDbLine
 10
5.335949182510437
 20
-19.26790873209689
 30
0.0
 11
5.335949182510437
 21
-19.21930313110404
 31
0.0
  0
LINE
  5
46D
330
A
100
AcDbEntity
  8
TOP
  6
CONTINUOUS
 62
     3
100
AcDbLine
 10
9.155951261520522
 20
4.284286499023372
 30
0.0
 11
10.64894827206946
 21
4.284286499023372
 31
0.0
  0
LINE
  5
46E
330
A
100
AcDbEntity
  8
TOP
  6
CONTINUOUS
 62
     3
100
AcDbLine
 10
25.00401790005069
 20
-10.76071262359655
 30
0.0
 11
25.00401790005069
 21
-14.61571057637576
 31
0.0
  0
LINE
  5
46F
330
A
100
AcDbEntity
  8
TOP
  6
CONTINUOUS
 62
     3
100
AcDbLine
 10
2.145948330561317
 20
-22.82297611236632
 30
0.0
 11
2.145948330561317
 21
-22.73071606953999
 31
0.0
  0
LINE
  5
470
330
A
100
AcDbEntity
  8
TOP
  6
CONTINUOUS
 62
     3
100
AcDbLine
 10
5.335949182510437
 20
-6.843312581380494
 30
0.0
 11
5.335949182510437
 21
-6.709106763204221
 31
0.0
  0
LINE
  5
471
330
A
100
AcDbEntity
  8
TOP
  6
CONTINUOUS
 62
     3
100
AcDbLine
 10
7.585949023564761
 20
0.3874858220416873
 30
0.0
 11
7.585949023564761
 21
0.3668864568073118
 31
0.0
  0
LINE
  5
472
330
A
100
AcDbEntity
  8
TOP
  6
CONTINUOUS
 62
     3
100
AcDbLine
 10
2.183145602544147
 20
-27.21571127573718
 30
0.0
 11
2.145948330561317
 21
-27.21571127573718
 31
0.0
  0
LINE
  5
473
330
A
100
AcDbEntity
  8
TOP
  6
CONTINUOUS
 62
     3
100
AcDbLine
 10
2.272949934005737
 20
-16.43071174621629
 30
0.0
 11
2.183145602544147
 21
-16.43071174621629
 31
0.0
  0
LINE
  5
474
330
A
100
AcDbEntity
  8
TOP
  6
CONTINUOUS
 62
     3
100
AcDbLine
 10
5.585950930913355
 20
-44.46791013081972
 30
0.0
 11
5.585950930913355
 21
-44.41930452982687
 31
0.0
  0
LINE
  5
475
330
A
100
AcDbEntity
  8
TOP
  6
CONTINUOUS
 62
     3
100
AcDbLine
 10
9.155951261520522
 20
-15.24571577707971
 30
0.0
 11
10.64894827206946
 21
-15.24571577707971
 31
0.0
  0
LINE
  5
476
330
A
100
AcDbEntity
  8
TOP
  6
CONTINUOUS
 62
     3
100
AcDbLine
 10
5.335949182510437
 20
-18.53311856587779
 30
0.0
 11
5.585950930913355
 21
-18.53311856587779
 31
0.0
  0
LINE
  5
477
330
A
100
AcDbEntity
  8
TOP
  6
CONTINUOUS
 62
     3
100
AcDbLine
 10
8.965951522191499
 20
-34.33571656545086
 30
0.0
 11
8.965951522191499
 21
-35.14071305592939
 31
0.0
  0
LINE
  5
478
330
A
100
AcDbEntity
  8
TOP
  6
CONTINUOUS
 62
     3
100
AcDbLine
 10
5.335949182510437
 20
-32.0639133453377
 30
0.0
 11
5.335949182510437
 21
-32.04331398010332
 31
0.0
  0
LINE
  5
479
330
A
100
AcDbEntity
  8
TOP
  6
CONTINUOUS
 62
     3
100
AcDbLine
 10
7.335951248804828
 20
-13.14331690470418
 30
0.0
 11
7.335951248804828
 21
-13.00911108652791
 31
0.0
  0
LINE
  5
47A
330
A
100
AcDbEntity
  8
TOP
  6
CONTINUOUS
 62
     3
100
AcDbLine
 10
2.209451119105019
 20
-64.45200443267966
 30
0.0
 11
2.145948330561317
 21
-64.45200443267966
 31
0.0
  0
LINE
  5
47B
330
A
100
AcDbEntity
  8
TOP
  6
CONTINUOUS
 62
     3
100
AcDbLine
 10
2.183145602544147
 20
-23.36071332295797
 30
0.0
 11
2.272949934005737
 21
-23.36071332295797
 31
0.0
  0
LINE
  5
47C
330
A
100
AcDbEntity
  8
TOP
  6
CONTINUOUS
 62
     3
100
AcDbLine
 10
25.73201313676539
 20
-29.66070969899569
 30
0.0
 11
25.00401790005069
 21
-29.66070969899569
 31
0.0
  0
LINE
  5
47D
330
A
100
AcDbEntity
  8
TOP
  6
CONTINUOUS
 62
     3
100
AcDbLine
 10
5.585950930913355
 20
-44.64331467946474
 30
0.0
 11
5.585950930913355
 21
-44.50910886128847
 31
0.0
  0
LINE
  5
47E
330
A
100
AcDbEntity
  8
TOP
  6
CONTINUOUS
 62
     3
100
AcDbLine
 10
3.955950657526685
 20
-27.02571551005114
 30
0.0
 11
3.955950657526685
 21
-23.55071703592998
 31
0.0
  0
LINE
  5
47F
330
A
100
AcDbEntity
  8
TOP
  6
CONTINUOUS
 62
     3
100
AcDbLine
 10
25.00401790005069
 20
-39.81571197509859
 30
0.0
 11
25.73201313676539
 21
-39.81571197509859
 31
0.0
  0
LINE
  5
480
330
A
100
AcDbEntity
  8
TOP
  6
CONTINUOUS
 62
     3
100
AcDbLine
 10
7.335951248804828
 20
-24.83311494191552
 30
0.0
 11
7.585949023564761
 21
-24.83311494191552
 31
0.0
  0
LINE
  5
481
330
A
100
AcDbEntity
  8
TOP
  6
CONTINUOUS
 62
     3
100
AcDbLine
 10
7.335951248804828
 20
-13.00911108652791
 30
0.0
 11
7.335951248804828
 21
-12.96790440877319
 31
0.0
  0
LINE
  5
482
330
A
100
AcDbEntity
  8
TOP
  6
CONTINUOUS
 62
     3
100
AcDbLine
 10
5.585950930913355
 20
-6.66790803273547
 30
0.0
 11
5.585950930913355
 21
-6.619310379028601
 31
0.0
  0
LINE
  5
483
330
A
100
AcDbEntity
  8
TOP
  6
CONTINUOUS
 62
     3
100
AcDbLine
 10
7.585949023564761
 20
-0.5433162053427714
 30
0.0
 11
7.585949023564761
 21
-0.4091103871664992
 31
0.0
  0
LINE
  5
484
330
A
100
AcDbEntity
  8
TOP
  6
CONTINUOUS
 62
     3
100
AcDbLine
 10
5.585950930913355
 20
-32.0639133453377
 30
0.0
 11
5.585950930913355
 21
-32.04331398010332
 31
0.0
  0
LINE
  5
485
330
A
100
AcDbEntity
  8
TOP
  6
CONTINUOUS
 62
     3
100
AcDbLine
 10
2.145948330561317
 20
-16.74571037292528
 30
0.0
 11
2.145948330561317
 21
-16.52297178904263
 31
0.0
  0
LINE
  5
486
330
A
100
AcDbEntity
  8
TOP
  6
CONTINUOUS
 62
     3
100
AcDbLine
 10
9.835948864619087
 20
-46.65626684824733
 30
0.0
 11
9.835948864619087
 21
-46.43071492513128
 31
0.0
  0
LINE
  5
487
330
A
100
AcDbEntity
  8
TOP
  6
CONTINUOUS
 62
     3
100
AcDbLine
 10
2.145948330561317
 20
-27.75345643361479
 30
0.0
 11
2.145948330561317
 21
-27.53071784973214
 31
0.0
  0
LINE
  5
488
330
A
100
AcDbEntity
  8
TOP
  6
CONTINUOUS
 62
     3
100
AcDbLine
 10
10.77594987551388
 20
-3.83071104685488
 30
0.0
 11
10.73875260353105
 21
-3.83071104685488
 31
0.0
  0
LINE
  5
489
330
A
100
AcDbEntity
  8
TOP
  6
CONTINUOUS
 62
     3
100
AcDbLine
 10
2.145948330561317
 20
-17.06071694692024
 30
0.0
 11
2.183145602544147
 21
-17.06071694692024
 31
0.0
  0
LINE
  5
48A
330
A
100
AcDbEntity
  8
TOP
  6
CONTINUOUS
 62
     3
100
AcDbLine
 10
25.00401790005069
 20
-4.460708300272861
 30
0.0
 11
25.00401790005069
 21
-8.315714200338042
 31
0.0
  0
LINE
  5
48B
330
A
100
AcDbEntity
  8
TOP
  6
CONTINUOUS
 62
     3
100
AcDbLine
 10
2.272949934005737
 20
-39.8157119750986
 30
0.0
 11
2.183145602544147
 21
-39.8157119750986
 31
0.0
  0
LINE
  5
48C
330
A
100
AcDbEntity
  8
TOP
  6
CONTINUOUS
 62
     3
100
AcDbLine
 10
3.955950657526685
 20
-33.32571188608886
 30
0.0
 11
3.955950657526685
 21
-29.8507134119677
 31
0.0
  0
LINE
  5
48D
330
A
100
AcDbEntity
  8
TOP
  6
CONTINUOUS
 62
     3
100
AcDbLine
 10
9.155951261520522
 20
-40.44571717580255
 30
0.0
 11
10.64894827206946
 21
-40.44571717580255
 31
0.0
  0
LINE
  5
48E
330
A
100
AcDbEntity
  8
TOP
  6
CONTINUOUS
 62
     3
100
AcDbLine
 10
7.335951248804828
 20
-24.96732076009179
 30
0.0
 11
7.585949023564761
 21
-24.96732076009179
 31
0.0
  0
LINE
  5
48F
330
A
100
AcDbEntity
  8
TOP
  6
CONTINUOUS
 62
     3
100
AcDbLine
 10
7.335951248804828
 20
-13.16391626993856
 30
0.0
 11
7.335951248804828
 21
-13.14331690470418
 31
0.0
  0
LINE
  5
490
330
A
100
AcDbEntity
  8
TOP
  6
CONTINUOUS
 62
     3
100
AcDbLine
 10
2.145948330561317
 20
-46.20797634124862
 30
0.0
 11
2.145948330561317
 21
-46.11571629842229
 31
0.0
  0
LINE
  5
491
330
A
100
AcDbEntity
  8
TOP
  6
CONTINUOUS
 62
     3
100
AcDbLine
 10
10.77594987551388
 20
-42.26071039835711
 30
0.0
 11
10.77594987551388
 21
-46.11571629842229
 31
0.0
  0
ARC
  5
492
330
A
100
AcDbEntity
  8
TOP
  6
CONTINUOUS
 62
     3
100
AcDbCircle
 10
9.260950803756852
 20
-38.33821614583424
 30
0.0
 40
0.1000000008692364
100
AcDbArc
 50
270.0
 51
270.0
  0
ARC
  5
493
330
A
100
AcDbEntity
  8
TOP
  6
CONTINUOUS
 62
     3
100
AcDbCircle
 10
9.96095172564204
 20
-46.43071492513128
 30
0.0
 40
0.1249999972060348
100
AcDbArc
 50
0.0
 51
180.0
  0
ARC
  5
494
330
A
100
AcDbEntity
  8
TOP
  6
CONTINUOUS
 62
     3
100
AcDbCircle
 10
3.660951375961331
 20
-15.83821773529099
 30
0.0
 40
0.1000000008692364
100
AcDbArc
 50
270.0
 51
270.0
  0
ARC
  5
495
330
A
100
AcDbEntity
  8
TOP
  6
CONTINUOUS
 62
     3
100
AcDbCircle
 10
3.765950918197661
 20
-34.33571656545086
 30
0.0
 40
0.1900000032037534
100
AcDbArc
 50
0.0
 51
90.0
  0
ARC
  5
496
330
A
100
AcDbEntity
  8
TOP
  6
CONTINUOUS
 62
     3
100
AcDbCircle
 10
3.010950803756728
 20
-28.43821048736644
 30
0.0
 40
0.1000000008692364
100
AcDbArc
 50
270.0
 51
270.0
  0
ARC
  5
497
330
A
100
AcDbEntity
  8
TOP
  6
CONTINUOUS
 62
     3
100
AcDbCircle
 10
3.660951375961331
 20
-3.238217035929576
 30
0.0
 40
0.1000000008692364
100
AcDbArc
 50
270.0
 51
270.0
  0
ARC
  5
498
330
A
100
AcDbEntity
  8
TOP
  6
CONTINUOUS
 62
     3
100
AcDbCircle
 10
3.660951375961331
 20
-6.838210423787721
 30
0.0
 40
0.1000000008692364
100
AcDbArc
 50
270.0
 51
270.0
  0
ARC
  5
499
330
A
100
AcDbEntity
  8
TOP
  6
CONTINUOUS
 62
     3
100
AcDbCircle
 10
9.155951261520522
 20
-14.42571481068972
 30
0.0
 40
0.1900000032037534
100
AcDbArc
 50
180.0
 51
270.0
  0
ARC
  5
49A
330
A
100
AcDbEntity
  8
TOP
  6
CONTINUOUS
 62
     3
100
AcDbCircle
 10
9.260950803756852
 20
-50.03821055094515
 30
0.0
 40
0.1000000008692364
100
AcDbArc
 50
270.0
 51
270.0
  0
ARC
  5
49B
330
A
100
AcDbEntity
  8
TOP
  6
CONTINUOUS
 62
     3
100
AcDbCircle
 10
9.964448531468862
 20
-46.87071641286322
 30
0.0
 40
0.2499999944120695
100
AcDbArc
 50
29.99944228249997
 51
60.92198939470542
  0
ARC
  5
49C
330
A
100
AcDbEntity
  8
TOP
  6
CONTINUOUS
 62
     3
100
AcDbCircle
 10
3.765950918197661
 20
-28.03571224212717
 30
0.0
 40
0.1900000032037534
100
AcDbArc
 50
0.0
 51
90.0
  0
ARC
  5
49D
330
A
100
AcDbEntity
  8
TOP
  6
CONTINUOUS
 62
     3
100
AcDbCircle
 10
6.460951089859092
 20
-15.83821773529099
 30
0.0
 40
0.9999999776482781
100
AcDbArc
 50
270.0
 51
270.0
  0
ARC
  5
49E
330
A
100
AcDbEntity
  8
TOP
  6
CONTINUOUS
 62
     3
100
AcDbCircle
 10
3.660951375961331
 20
-44.63821252187197
 30
0.0
 40
0.1000000008692364
100
AcDbArc
 50
270.0
 51
270.0
  0
ARC
  5
49F
330
A
100
AcDbEntity
  8
TOP
  6
CONTINUOUS
 62
     3
100
AcDbCircle
 10
6.460951089859092
 20
-34.73821481069013
 30
0.0
 40
0.9999999776482781
100
AcDbArc
 50
270.0
 51
270.0
  0
ARC
  5
4A0
330
A
100
AcDbEntity
  8
TOP
  6
CONTINUOUS
 62
     3
100
AcDbCircle
 10
3.660951375961331
 20
-34.73821481069013
 30
0.0
 40
0.1000000008692364
100
AcDbArc
 50
270.0
 51
270.0
  0
ARC
  5
4A1
330
A
100
AcDbEntity
  8
TOP
  6
CONTINUOUS
 62
     3
100
AcDbCircle
 10
9.155951261520522
 20
-48.75071048736685
 30
0.0
 40
0.1900000032037534
100
AcDbArc
 50
90.0
 51
180.0
  0
ARC
  5
4A2
330
A
100
AcDbEntity
  8
TOP
  6
CONTINUOUS
 62
     3
100
AcDbCircle
 10
3.010950803756728
 20
-9.538213411967298
 30
0.0
 40
0.1000000008692364
100
AcDbArc
 50
270.0
 51
270.0
  0
ARC
  5
4A3
330
A
100
AcDbEntity
  8
TOP
  6
CONTINUOUS
 62
     3
100
AcDbCircle
 10
9.260950803756852
 20
6.661788622538231
 30
0.0
 40
0.1000000008692364
100
AcDbArc
 50
270.0
 51
270.0
  0
ARC
  5
4A4
330
A
100
AcDbEntity
  8
TOP
  6
CONTINUOUS
 62
     3
100
AcDbCircle
 10
3.765950918197661
 20
-17.25071271260628
 30
0.0
 40
0.1900000032037534
100
AcDbArc
 50
0.0
 51
90.0
  0
ARC
  5
4A5
330
A
100
AcDbEntity
  8
TOP
  6
CONTINUOUS
 62
     3
100
AcDbCircle
 10
3.765950918197661
 20
-39.62571620941256
 30
0.0
 40
0.1900000032037534
100
AcDbArc
 50
270.0
 51
0.0
  0
ARC
  5
4A6
330
A
100
AcDbEntity
  8
TOP
  6
CONTINUOUS
 62
     3
100
AcDbCircle
 10
9.260950803756852
 20
-37.43821779886971
 30
0.0
 40
0.1000000008692364
100
AcDbArc
 50
270.0
 51
270.0
  0
ARC
  5
4A7
330
A
100
AcDbEntity
  8
TOP
  6
CONTINUOUS
 62
     3
100
AcDbCircle
 10
3.765950918197661
 20
-8.125710487366033
 30
0.0
 40
0.1900000032037534
100
AcDbArc
 50
270.0
 51
0.0
  0
ARC
  5
4A8
330
A
100
AcDbEntity
  8
TOP
  6
CONTINUOUS
 62
     3
100
AcDbCircle
 10
3.660951375961331
 20
-22.13821411132871
 30
0.0
 40
0.1000000008692364
100
AcDbArc
 50
270.0
 51
270.0
  0
ARC
  5
4A9
330
A
100
AcDbEntity
  8
TOP
  6
CONTINUOUS
 62
     3
100
AcDbCircle
 10
3.660951375961331
 20
-41.03821118672786
 30
0.0
 40
0.1000000008692364
100
AcDbArc
 50
270.0
 51
270.0
  0
ARC
  5
4AA
330
A
100
AcDbEntity
  8
TOP
  6
CONTINUOUS
 62
     3
100
AcDbCircle
 10
3.765950918197661
 20
-9.135715166728033
 30
0.0
 40
0.1900000032037534
100
AcDbArc
 50
0.0
 51
90.0
  0
ARC
  5
4AB
330
A
100
AcDbEntity
  8
TOP
  6
CONTINUOUS
 62
     3
100
AcDbCircle
 10
3.660951375961331
 20
-25.73821544647282
 30
0.0
 40
0.1000000008692364
100
AcDbArc
 50
270.0
 51
270.0
  0
ARC
  5
4AC
330
A
100
AcDbEntity
  8
TOP
  6
CONTINUOUS
 62
     3
100
AcDbCircle
 10
3.660951375961331
 20
-12.23821640014687
 30
0.0
 40
0.1000000008692364
100
AcDbArc
 50
270.0
 51
270.0
  0
ARC
  5
4AD
330
A
100
AcDbEntity
  8
TOP
  6
CONTINUOUS
 62
     3
100
AcDbCircle
 10
9.155951261520522
 20
3.464285532633383
 30
0.0
 40
0.1900000032037534
100
AcDbArc
 50
90.0
 51
180.0
  0
ARC
  5
4AE
330
A
100
AcDbEntity
  8
TOP
  6
CONTINUOUS
 62
     3
100
AcDbCircle
 10
9.964448531468862
 20
-21.67071501414039
 30
0.0
 40
0.2499999944120695
100
AcDbArc
 50
120.0000002464888
 51
149.9999997535111
  0
ARC
  5
4AF
330
A
100
AcDbEntity
  8
TOP
  6
CONTINUOUS
 62
     3
100
AcDbCircle
 10
9.260950803756852
 20
-0.5382140477499977
 30
0.0
 40
0.1000000008692364
100
AcDbArc
 50
270.0
 51
270.0
  0
ARC
  5
4B0
330
A
100
AcDbEntity
  8
TOP
  6
CONTINUOUS
 62
     3
100
AcDbCircle
 10
9.155951261520522
 20
-46.93571726481228
 30
0.0
 40
0.1900000032037534
100
AcDbArc
 50
90.0
 51
180.0
  0
ARC
  5
4B1
330
A
100
AcDbEntity
  8
TOP
  6
CONTINUOUS
 62
     3
100
AcDbCircle
 10
2.960950454076145
 20
-46.43071492513128
 30
0.0
 40
0.1249999972060348
100
AcDbArc
 50
0.0
 51
180.0
  0
ARC
  5
4B2
330
A
100
AcDbEntity
  8
TOP
  6
CONTINUOUS
 62
     3
100
AcDbCircle
 10
2.964451233545952
 20
-46.87071641286322
 30
0.0
 40
0.2499999944120695
100
AcDbArc
 50
29.99944228249997
 51
60.92198939470542
  0
ARC
  5
4B3
330
A
100
AcDbEntity
  8
TOP
  6
CONTINUOUS
 62
     3
100
AcDbCircle
 10
3.765950918197661
 20
-51.61821444829422
 30
0.0
 40
0.1900000032037534
100
AcDbArc
 50
270.0
 51
0.0
  0
ARC
  5
4B4
330
A
100
AcDbEntity
  8
TOP
  6
CONTINUOUS
 62
     3
100
AcDbCircle
 10
9.155951261520522
 20
-47.74071375529081
 30
0.0
 40
0.1900000032037534
100
AcDbArc
 50
180.0
 51
270.0
  0
ARC
  5
4B5
330
A
100
AcDbEntity
  8
TOP
  6
CONTINUOUS
 62
     3
100
AcDbCircle
 10
9.155951261520522
 20
-34.33571656545086
 30
0.0
 40
0.1900000032037534
100
AcDbArc
 50
90.0
 51
180.0
  0
ARC
  5
4B6
330
A
100
AcDbEntity
  8
TOP
  6
CONTINUOUS
 62
     3
100
AcDbCircle
 10
9.910951375961456
 20
-28.43821048736644
 30
0.0
 40
0.1000000008692364
100
AcDbArc
 50
270.0
 51
270.0
  0
ARC
  5
4B7
330
A
100
AcDbEntity
  8
TOP
  6
CONTINUOUS
 62
     3
100
AcDbCircle
 10
9.260950803756852
 20
-3.238217035929576
 30
0.0
 40
0.1000000008692364
100
AcDbArc
 50
270.0
 51
270.0
  0
ARC
  5
4B8
330
A
100
AcDbEntity
  8
TOP
  6
CONTINUOUS
 62
     3
100
AcDbCircle
 10
9.155951261520522
 20
-27.02571551005114
 30
0.0
 40
0.1900000032037534
100
AcDbArc
 50
180.0
 51
270.0
  0
ARC
  5
4B9
330
A
100
AcDbEntity
  8
TOP
  6
CONTINUOUS
 62
     3
100
AcDbCircle
 10
3.660951375961331
 20
6.661788622538231
 30
0.0
 40
0.1000000008692364
100
AcDbArc
 50
270.0
 51
270.0
  0
ARC
  5
4BA
330
A
100
AcDbEntity
  8
TOP
  6
CONTINUOUS
 62
     3
100
AcDbCircle
 10
9.155951261520522
 20
-15.43571154276575
 30
0.0
 40
0.1900000032037534
100
AcDbArc
 50
90.0
 51
180.0
  0
ARC
  5
4BB
330
A
100
AcDbEntity
  8
TOP
  6
CONTINUOUS
 62
     3
100
AcDbCircle
 10
9.260950803756852
 20
-19.43821112314913
 30
0.0
 40
0.1000000008692364
100
AcDbArc
 50
270.0
 51
270.0
  0
ARC
  5
4BC
330
A
100
AcDbEntity
  8
TOP
  6
CONTINUOUS
 62
     3
100
AcDbCircle
 10
9.260950803756852
 20
-32.03821182251055
 30
0.0
 40
0.1000000008692364
100
AcDbArc
 50
270.0
 51
270.0
  0
ARC
  5
4BD
330
A
100
AcDbEntity
  8
TOP
  6
CONTINUOUS
 62
     3
100
AcDbCircle
 10
9.155951261520522
 20
-4.65071201324487
 30
0.0
 40
0.1900000032037534
100
AcDbArc
 50
90.0
 51
180.0
  0
ARC
  5
4BE
330
A
100
AcDbEntity
  8
TOP
  6
CONTINUOUS
 62
     3
100
AcDbCircle
 10
9.155951261520522
 20
-16.24071598053025
 30
0.0
 40
0.1900000032037534
100
AcDbArc
 50
180.0
 51
270.0
  0
ARC
  5
4BF
330
A
100
AcDbEntity
  8
TOP
  6
CONTINUOUS
 62
     3
100
AcDbCircle
 10
9.910951375961456
 20
-9.538213411967298
 30
0.0
 40
0.1000000008692364
100
AcDbArc
 50
270.0
 51
270.0
  0
ARC
  5
4C0
330
A
100
AcDbEntity
  8
TOP
  6
CONTINUOUS
 62
     3
100
AcDbCircle
 10
3.660951375961331
 20
3.061787287394117
 30
0.0
 40
0.1000000008692364
100
AcDbArc
 50
270.0
 51
270.0
  0
ARC
  5
4C1
330
A
100
AcDbEntity
  8
TOP
  6
CONTINUOUS
 62
     3
100
AcDbCircle
 10
9.155951261520522
 20
-33.32571188608886
 30
0.0
 40
0.1900000032037534
100
AcDbArc
 50
180.0
 51
270.0
  0
ARC
  5
4C2
330
A
100
AcDbEntity
  8
TOP
  6
CONTINUOUS
 62
     3
100
AcDbCircle
 10
9.155951261520522
 20
-8.125710487366033
 30
0.0
 40
0.1900000032037534
100
AcDbArc
 50
180.0
 51
270.0
  0
ARC
  5
4C3
330
A
100
AcDbEntity
  8
TOP
  6
CONTINUOUS
 62
     3
100
AcDbCircle
 10
9.910951375961456
 20
-22.13821411132871
 30
0.0
 40
0.1000000008692364
100
AcDbArc
 50
270.0
 51
270.0
  0
ARC
  5
4C4
330
A
100
AcDbEntity
  8
TOP
  6
CONTINUOUS
 62
     3
100
AcDbCircle
 10
9.260950803756852
 20
-12.23821640014687
 30
0.0
 40
0.1000000008692364
100
AcDbArc
 50
270.0
 51
270.0
  0
ARC
  5
4C5
330
A
100
AcDbEntity
  8
TOP
  6
CONTINUOUS
 62
     3
100
AcDbCircle
 10
9.260950803756852
 20
5.761782328287725
 30
0.0
 40
0.1000000008692364
100
AcDbArc
 50
270.0
 51
270.0
  0
ARC
  5
4C6
330
A
100
AcDbEntity
  8
TOP
  6
CONTINUOUS
 62
     3
100
AcDbCircle
 10
3.765950918197661
 20
-47.74071375529081
 30
0.0
 40
0.1900000032037534
100
AcDbArc
 50
270.0
 51
0.0
  0
ARC
  5
4C7
330
A
100
AcDbEntity
  8
TOP
  6
CONTINUOUS
 62
     3
100
AcDbCircle
 10
3.010950803756728
 20
-15.83821773529099
 30
0.0
 40
0.1000000008692364
100
AcDbArc
 50
270.0
 51
270.0
  0
ARC
  5
4C8
330
A
100
AcDbEntity
  8
TOP
  6
CONTINUOUS
 62
     3
100
AcDbCircle
 10
3.660951375961331
 20
-43.73821417490743
 30
0.0
 40
0.1000000008692364
100
AcDbArc
 50
270.0
 51
270.0
  0
ARC
  5
4C9
330
A
100
AcDbEntity
  8
TOP
  6
CONTINUOUS
 62
     3
100
AcDbCircle
 10
3.010950803756728
 20
-3.238217035929576
 30
0.0
 40
0.1000000008692364
100
AcDbArc
 50
270.0
 51
270.0
  0
ARC
  5
4CA
330
A
100
AcDbEntity
  8
TOP
  6
CONTINUOUS
 62
     3
100
AcDbCircle
 10
2.964451233545952
 20
-21.23071352640845
 30
0.0
 40
0.1249999972060348
100
AcDbArc
 50
0.0
 51
180.0
  0
ARC
  5
4CB
330
A
100
AcDbEntity
  8
TOP
  6
CONTINUOUS
 62
     3
100
AcDbCircle
 10
3.765950918197661
 20
-1.825714111328311
 30
0.0
 40
0.1900000032037534
100
AcDbArc
 50
270.0
 51
0.0
  0
ARC
  5
4CC
330
A
100
AcDbEntity
  8
TOP
  6
CONTINUOUS
 62
     3
100
AcDbCircle
 10
25.79701398871444
 20
6.03179136912025
 30
0.0
 40
0.1000000008692364
100
AcDbArc
 50
90.0
 51
90.0
  0
ARC
  5
4CD
330
A
100
AcDbEntity
  8
TOP
  6
CONTINUOUS
 62
     3
100
AcDbCircle
 10
3.765950918197661
 20
-2.83571084340434
 30
0.0
 40
0.1900000032037534
100
AcDbArc
 50
0.0
 51
90.0
  0
ARC
  5
4CE
330
A
100
AcDbEntity
  8
TOP
  6
CONTINUOUS
 62
     3
100
AcDbCircle
 10
9.964448531468862
 20
3.969287872314382
 30
0.0
 40
0.1249999972060348
100
AcDbArc
 50
0.0
 51
180.0
  0
ARC
  5
4CF
330
A
100
AcDbEntity
  8
TOP
  6
CONTINUOUS
 62
     3
100
AcDbCircle
 10
6.460951089859092
 20
3.061787287394117
 30
0.0
 40
0.9999999776482781
100
AcDbArc
 50
270.0
 51
270.0
  0
ARC
  5
4D0
330
A
100
AcDbEntity
  8
TOP
  6
CONTINUOUS
 62
     3
100
AcDbCircle
 10
9.155951261520522
 20
-40.63571294148859
 30
0.0
 40
0.1900000032037534
100
AcDbArc
 50
90.0
 51
180.0
  0
ARC
  5
4D1
330
A
100
AcDbEntity
  8
TOP
  6
CONTINUOUS
 62
     3
100
AcDbCircle
 10
6.460951089859092
 20
-41.03821118672786
 30
0.0
 40
0.9999999776482781
100
AcDbArc
 50
270.0
 51
270.0
  0
ARC
  5
4D2
330
A
100
AcDbEntity
  8
TOP
  6
CONTINUOUS
 62
     3
100
AcDbCircle
 10
3.660951375961331
 20
-37.43821779886971
 30
0.0
 40
0.1000000008692364
100
AcDbArc
 50
270.0
 51
270.0
  0
ARC
  5
4D3
330
A
100
AcDbEntity
  8
TOP
  6
CONTINUOUS
 62
     3
100
AcDbCircle
 10
9.910951375961456
 20
-41.03821118672786
 30
0.0
 40
0.1000000008692364
100
AcDbArc
 50
270.0
 51
270.0
  0
ARC
  5
4D4
330
A
100
AcDbEntity
  8
TOP
  6
CONTINUOUS
 62
     3
100
AcDbCircle
 10
3.660951375961331
 20
-5.938212076823184
 30
0.0
 40
0.1000000008692364
100
AcDbArc
 50
270.0
 51
270.0
  0
ARC
  5
4D5
330
A
100
AcDbEntity
  8
TOP
  6
CONTINUOUS
 62
     3
100
AcDbCircle
 10
3.765950918197661
 20
-28.84071667989168
 30
0.0
 40
0.1900000032037534
100
AcDbArc
 50
270.0
 51
0.0
  0
ARC
  5
4D6
330
A
100
AcDbEntity
  8
TOP
  6
CONTINUOUS
 62
     3
100
AcDbCircle
 10
3.660951375961331
 20
-38.33821614583424
 30
0.0
 40
0.1000000008692364
100
AcDbArc
 50
270.0
 51
270.0
  0
ARC
  5
4D7
330
A
100
AcDbEntity
  8
TOP
  6
CONTINUOUS
 62
     3
100
AcDbCircle
 10
10.64894827206946
 20
-67.62800614039253
 30
0.0
 40
0.0634999984564893
100
AcDbArc
 50
270.0
 51
0.0
  0
ARC
  5
4D8
330
A
100
AcDbEntity
  8
TOP
  6
CONTINUOUS
 62
     3
100
AcDbCircle
 10
3.660951375961331
 20
-32.03821182251055
 30
0.0
 40
0.1000000008692364
100
AcDbArc
 50
270.0
 51
270.0
  0
ARC
  5
4D9
330
A
100
AcDbEntity
  8
TOP
  6
CONTINUOUS
 62
     3
100
AcDbCircle
 10
6.460951089859092
 20
-9.538213411967298
 30
0.0
 40
0.9999999776482781
100
AcDbArc
 50
270.0
 51
270.0
  0
ARC
  5
4DA
330
A
100
AcDbEntity
  8
TOP
  6
CONTINUOUS
 62
     3
100
AcDbCircle
 10
3.010950803756728
 20
-41.03821118672786
 30
0.0
 40
0.1000000008692364
100
AcDbArc
 50
270.0
 51
270.0
  0
ARC
  5
4DB
330
A
100
AcDbEntity
  8
TOP
  6
CONTINUOUS
 62
     3
100
AcDbCircle
 10
3.765950918197661
 20
-35.14071305592939
 30
0.0
 40
0.1900000032037534
100
AcDbArc
 50
270.0
 51
0.0
  0
ARC
  5
4DC
330
A
100
AcDbEntity
  8
TOP
  6
CONTINUOUS
 62
     3
100
AcDbCircle
 10
3.765950918197661
 20
-20.72571118672745
 30
0.0
 40
0.1900000032037534
100
AcDbArc
 50
270.0
 51
0.0
  0
ARC
  5
4DD
330
A
100
AcDbEntity
  8
TOP
  6
CONTINUOUS
 62
     3
100
AcDbCircle
 10
2.964451233545952
 20
3.529286384582439
 30
0.0
 40
0.2499999944120695
100
AcDbArc
 50
120.0000002464888
 51
149.9999997535111
  0
ARC
  5
4DE
330
A
100
AcDbEntity
  8
TOP
  6
CONTINUOUS
 62
     3
100
AcDbCircle
 10
9.155951261520522
 20
2.659289042154851
 30
0.0
 40
0.1900000032037534
100
AcDbArc
 50
180.0
 51
270.0
  0
ARC
  5
4DF
330
A
100
AcDbEntity
  8
TOP
  6
CONTINUOUS
 62
     3
100
AcDbCircle
 10
3.660951375961331
 20
-13.13821474711141
 30
0.0
 40
0.1000000008692364
100
AcDbArc
 50
270.0
 51
270.0
  0
ARC
  5
4E0
330
A
100
AcDbEntity
  8
TOP
  6
CONTINUOUS
 62
     3
100
AcDbCircle
 10
9.260950803756852
 20
3.061787287394117
 30
0.0
 40
0.1000000008692364
100
AcDbArc
 50
270.0
 51
270.0
  0
ARC
  5
4E1
330
A
100
AcDbEntity
  8
TOP
  6
CONTINUOUS
 62
     3
100
AcDbCircle
 10
25.73201313676539
 20
-41.94571177164812
 30
0.0
 40
0.3149999926487668
100
AcDbArc
 50
270.0
 51
90.0
  0
ARC
  5
4E2
330
A
100
AcDbEntity
  8
TOP
  6
CONTINUOUS
 62
     3
100
AcDbCircle
 10
25.73201313676539
 20
-14.93070920308475
 30
0.0
 40
0.3149999926487668
100
AcDbArc
 50
270.0
 51
90.0
  0
ARC
  5
4E3
330
A
100
AcDbEntity
  8
TOP
  6
CONTINUOUS
 62
     3
100
AcDbCircle
 10
3.765950918197661
 20
-40.63571294148859
 30
0.0
 40
0.1900000032037534
100
AcDbArc
 50
0.0
 51
90.0
  0
ARC
  5
4E4
330
A
100
AcDbEntity
  8
TOP
  6
CONTINUOUS
 62
     3
100
AcDbCircle
 10
2.272949934005737
 20
-64.45200443267966
 30
0.0
 40
0.0634999984564893
100
AcDbArc
 50
90.0
 51
180.0
  0
ARC
  5
4E5
330
A
100
AcDbEntity
  8
TOP
  6
CONTINUOUS
 62
     3
100
AcDbCircle
 10
2.272949934005737
 20
-64.45200443267966
 30
0.0
 40
0.1269999969129786
100
AcDbArc
 50
90.0
 51
180.0
  0
ARC
  5
4E6
330
A
100
AcDbEntity
  8
TOP
  6
CONTINUOUS
 62
     3
100
AcDbCircle
 10
3.765950918197661
 20
-9.940711657206566
 30
0.0
 40
0.1900000032037534
100
AcDbArc
 50
270.0
 51
0.0
  0
ARC
  5
4E7
330
A
100
AcDbEntity
  8
TOP
  6
CONTINUOUS
 62
     3
100
AcDbCircle
 10
9.260950803756852
 20
-31.13821347554601
 30
0.0
 40
0.1000000008692364
100
AcDbArc
 50
270.0
 51
270.0
  0
ARC
  5
4E8
330
A
100
AcDbEntity
  8
TOP
  6
CONTINUOUS
 62
     3
100
AcDbCircle
 10
9.260950803756852
 20
-47.33821551005155
 30
0.0
 40
0.1000000008692364
100
AcDbArc
 50
270.0
 51
270.0
  0
ARC
  5
4E9
330
A
100
AcDbEntity
  8
TOP
  6
CONTINUOUS
 62
     3
100
AcDbCircle
 10
9.964448531468862
 20
3.529286384582439
 30
0.0
 40
0.2499999944120695
100
AcDbArc
 50
120.0000002464888
 51
149.9999997535111
  0
ARC
  5
4EA
330
A
100
AcDbEntity
  8
TOP
  6
CONTINUOUS
 62
     3
100
AcDbCircle
 10
3.765950918197661
 20
-10.95071633656856
 30
0.0
 40
0.1900000032037534
100
AcDbArc
 50
0.0
 51
90.0
  0
ARC
  5
4EB
330
A
100
AcDbEntity
  8
TOP
  6
CONTINUOUS
 62
     3
100
AcDbCircle
 10
3.660951375961331
 20
-50.03821055094515
 30
0.0
 40
0.1000000008692364
100
AcDbArc
 50
270.0
 51
270.0
  0
ARC
  5
4EC
330
A
100
AcDbEntity
  8
TOP
  6
CONTINUOUS
 62
     3
100
AcDbCircle
 10
9.260950803756852
 20
-24.83821709950829
 30
0.0
 40
0.1000000008692364
100
AcDbArc
 50
270.0
 51
270.0
  0
ARC
  5
4ED
330
A
100
AcDbEntity
  8
TOP
  6
CONTINUOUS
 62
     3
100
AcDbCircle
 10
9.155951261520522
 20
-23.55071703592998
 30
0.0
 40
0.1900000032037534
100
AcDbArc
 50
90.0
 51
180.0
  0
ARC
  5
4EE
330
A
100
AcDbEntity
  8
TOP
  6
CONTINUOUS
 62
     3
100
AcDbCircle
 10
9.155951261520522
 20
1.649284362792851
 30
0.0
 40
0.1900000032037534
100
AcDbArc
 50
90.0
 51
180.0
  0
ARC
  5
4EF
330
A
100
AcDbEntity
  8
TOP
  6
CONTINUOUS
 62
     3
100
AcDbCircle
 10
25.73201313676539
 20
-29.3457110722867
 30
0.0
 40
0.3149999926487668
100
AcDbArc
 50
270.0
 51
90.0
  0
ARC
  5
4F0
330
A
100
AcDbEntity
  8
TOP
  6
CONTINUOUS
 62
     3
100
AcDbCircle
 10
9.155951261520522
 20
-35.14071305592939
 30
0.0
 40
0.1900000032037534
100
AcDbArc
 50
180.0
 51
270.0
  0
ARC
  5
4F1
330
A
100
AcDbEntity
  8
TOP
  6
CONTINUOUS
 62
     3
100
AcDbCircle
 10
25.73201313676539
 20
-23.04571469624897
 30
0.0
 40
0.3149999926487668
100
AcDbArc
 50
270.0
 51
90.0
  0
ARC
  5
4F2
330
A
100
AcDbEntity
  8
TOP
  6
CONTINUOUS
 62
     3
100
AcDbCircle
 10
2.272949934005737
 20
-67.62800614039253
 30
0.0
 40
0.1269999969129786
100
AcDbArc
 50
180.0
 51
270.0
  0
ARC
  5
4F3
330
A
100
AcDbEntity
  8
TOP
  6
CONTINUOUS
 62
     3
100
AcDbCircle
 10
9.910951375961456
 20
-3.238217035929576
 30
0.0
 40
0.1000000008692364
100
AcDbArc
 50
270.0
 51
270.0
  0
ARC
  5
4F4
330
A
100
AcDbEntity
  8
TOP
  6
CONTINUOUS
 62
     3
100
AcDbCircle
 10
3.765950918197661
 20
-48.75071048736685
 30
0.0
 40
0.1900000032037534
100
AcDbArc
 50
0.0
 51
90.0
  0
ARC
  5
4F5
330
A
100
AcDbEntity
  8
TOP
  6
CONTINUOUS
 62
     3
100
AcDbCircle
 10
9.155951261520522
 20
-1.825714111328311
 30
0.0
 40
0.1900000032037534
100
AcDbArc
 50
180.0
 51
270.0
  0
ARC
  5
4F6
330
A
100
AcDbEntity
  8
TOP
  6
CONTINUOUS
 62
     3
100
AcDbCircle
 10
3.660951375961331
 20
5.761782328287725
 30
0.0
 40
0.1000000008692364
100
AcDbArc
 50
270.0
 51
270.0
  0
ARC
  5
4F7
330
A
100
AcDbEntity
  8
TOP
  6
CONTINUOUS
 62
     3
100
AcDbCircle
 10
6.460951089859092
 20
-22.13821411132871
 30
0.0
 40
0.9999999776482781
100
AcDbArc
 50
270.0
 51
270.0
  0
ARC
  5
4F8
330
A
100
AcDbEntity
  8
TOP
  6
CONTINUOUS
 62
     3
100
AcDbCircle
 10
25.73201313676539
 20
-33.83071422576986
 30
0.0
 40
0.3149999926487668
100
AcDbArc
 50
270.0
 51
90.0
  0
ARC
  5
4F9
330
A
100
AcDbEntity
  8
TOP
  6
CONTINUOUS
 62
     3
100
AcDbCircle
 10
9.260950803756852
 20
-5.938212076823184
 30
0.0
 40
0.1000000008692364
100
AcDbArc
 50
270.0
 51
270.0
  0
ARC
  5
4FA
330
A
100
AcDbEntity
  8
TOP
  6
CONTINUOUS
 62
     3
100
AcDbCircle
 10
3.765950918197661
 20
7.34178225199381
 30
0.0
 40
0.1900000032037534
100
AcDbArc
 50
0.0
 51
90.0
  0
ARC
  5
4FB
330
A
100
AcDbEntity
  8
TOP
  6
CONTINUOUS
 62
     3
100
AcDbCircle
 10
25.73201313676539
 20
-35.64571539561039
 30
0.0
 40
0.3149999926487668
100
AcDbArc
 50
270.0
 51
90.0
  0
ARC
  5
4FC
330
A
100
AcDbEntity
  8
TOP
  6
CONTINUOUS
 62
     3
100
AcDbCircle
 10
9.155951261520522
 20
-28.84071667989168
 30
0.0
 40
0.1900000032037534
100
AcDbArc
 50
180.0
 51
270.0
  0
ARC
  5
4FD
330
A
100
AcDbEntity
  8
TOP
  6
CONTINUOUS
 62
     3
100
AcDbCircle
 10
3.010950803756728
 20
3.061787287394117
 30
0.0
 40
0.1000000008692364
100
AcDbArc
 50
270.0
 51
270.0
  0
ARC
  5
4FE
330
A
100
AcDbEntity
  8
TOP
  6
CONTINUOUS
 62
     3
100
AcDbCircle
 10
10.64894827206946
 20
-64.45200443267966
 30
0.0
 40
0.1269999969129786
100
AcDbArc
 50
0.0
 51
90.0
  0
ARC
  5
4FF
330
A
100
AcDbEntity
  8
TOP
  6
CONTINUOUS
 62
     3
100
AcDbCircle
 10
9.155951261520522
 20
-17.25071271260628
 30
0.0
 40
0.1900000032037534
100
AcDbArc
 50
90.0
 51
180.0
  0
ARC
  5
500
330
A
100
AcDbEntity
  8
TOP
  6
CONTINUOUS
 62
     3
100
AcDbCircle
 10
10.64894827206946
 20
-64.45200443267966
 30
0.0
 40
0.0634999984564893
100
AcDbArc
 50
0.0
 51
90.0
  0
ARC
  5
501
330
A
100
AcDbEntity
  8
TOP
  6
CONTINUOUS
 62
     3
100
AcDbCircle
 10
3.660951375961331
 20
-47.33821551005155
 30
0.0
 40
0.1000000008692364
100
AcDbArc
 50
270.0
 51
270.0
  0
ARC
  5
502
330
A
100
AcDbEntity
  8
TOP
  6
CONTINUOUS
 62
     3
100
AcDbCircle
 10
9.155951261520522
 20
-9.135715166728033
 30
0.0
 40
0.1900000032037534
100
AcDbArc
 50
90.0
 51
180.0
  0
ARC
  5
503
330
A
100
AcDbEntity
  8
TOP
  6
CONTINUOUS
 62
     3
100
AcDbCircle
 10
3.765950918197661
 20
3.464285532633383
 30
0.0
 40
0.1900000032037534
100
AcDbArc
 50
0.0
 51
90.0
  0
ARC
  5
504
330
A
100
AcDbEntity
  8
TOP
  6
CONTINUOUS
 62
     3
100
AcDbCircle
 10
25.73201313676539
 20
-27.53070990244617
 30
0.0
 40
0.3149999926487668
100
AcDbArc
 50
270.0
 51
90.0
  0
ARC
  5
505
330
A
100
AcDbEntity
  8
TOP
  6
CONTINUOUS
 62
     3
100
AcDbCircle
 10
9.155951261520522
 20
-20.72571118672745
 30
0.0
 40
0.1900000032037534
100
AcDbArc
 50
180.0
 51
270.0
  0
ARC
  5
506
330
A
100
AcDbEntity
  8
TOP
  6
CONTINUOUS
 62
     3
100
AcDbCircle
 10
9.260950803756852
 20
-13.13821474711141
 30
0.0
 40
0.1000000008692364
100
AcDbArc
 50
270.0
 51
270.0
  0
ARC
  5
507
330
A
100
AcDbEntity
  8
TOP
  6
CONTINUOUS
 62
     3
100
AcDbCircle
 10
3.660951375961331
 20
0.3617842992145386
 30
0.0
 40
0.1000000008692364
100
AcDbArc
 50
270.0
 51
270.0
  0
ARC
  5
508
330
A
100
AcDbEntity
  8
TOP
  6
CONTINUOUS
 62
     3
100
AcDbCircle
 10
9.155951261520522
 20
-39.62571620941256
 30
0.0
 40
0.1900000032037534
100
AcDbArc
 50
180.0
 51
270.0
  0
ARC
  5
509
330
A
100
AcDbEntity
  8
TOP
  6
CONTINUOUS
 62
     3
100
AcDbCircle
 10
9.155951261520522
 20
-21.73571586608944
 30
0.0
 40
0.1900000032037534
100
AcDbArc
 50
90.0
 51
180.0
  0
ARC
  5
50A
330
A
100
AcDbEntity
  8
TOP
  6
CONTINUOUS
 62
     3
100
AcDbCircle
 10
9.155951261520522
 20
-9.940711657206566
 30
0.0
 40
0.1900000032037534
100
AcDbArc
 50
180.0
 51
270.0
  0
ARC
  5
50B
330
A
100
AcDbEntity
  8
TOP
  6
CONTINUOUS
 62
     3
100
AcDbCircle
 10
9.155951261520522
 20
-28.03571224212717
 30
0.0
 40
0.1900000032037534
100
AcDbArc
 50
90.0
 51
180.0
  0
ARC
  5
50C
330
A
100
AcDbEntity
  8
TOP
  6
CONTINUOUS
 62
     3
100
AcDbCircle
 10
25.79701398871444
 20
-50.30821164449171
 30
0.0
 40
0.1000000008692364
100
AcDbArc
 50
90.0
 51
90.0
  0
ARC
  5
50D
330
A
100
AcDbEntity
  8
TOP
  6
CONTINUOUS
 62
     3
100
AcDbCircle
 10
3.765950918197661
 20
-42.45071411132911
 30
0.0
 40
0.1900000032037534
100
AcDbArc
 50
0.0
 51
90.0
  0
ARC
  5
50E
330
A
100
AcDbEntity
  8
TOP
  6
CONTINUOUS
 62
     3
100
AcDbCircle
 10
3.660951375961331
 20
-28.43821048736644
 30
0.0
 40
0.1000000008692364
100
AcDbArc
 50
270.0
 51
270.0
  0
ARC
  5
50F
330
A
100
AcDbEntity
  8
TOP
  6
CONTINUOUS
 62
     3
100
AcDbCircle
 10
9.910951375961456
 20
-15.83821773529099
 30
0.0
 40
0.1000000008692364
100
AcDbArc
 50
270.0
 51
270.0
  0
ARC
  5
510
330
A
100
AcDbEntity
  8
TOP
  6
CONTINUOUS
 62
     3
100
AcDbCircle
 10
25.73201313676539
 20
-21.23071352640845
 30
0.0
 40
0.3149999926487668
100
AcDbArc
 50
270.0
 51
90.0
  0
ARC
  5
511
330
A
100
AcDbEntity
  8
TOP
  6
CONTINUOUS
 62
     3
100
AcDbCircle
 10
6.460951089859092
 20
-47.33821551005155
 30
0.0
 40
0.9999999776482781
100
AcDbArc
 50
270.0
 51
270.0
  0
ARC
  5
512
330
A
100
AcDbEntity
  8
TOP
  6
CONTINUOUS
 62
     3
100
AcDbCircle
 10
9.155951261520522
 20
-51.61821444829422
 30
0.0
 40
0.1900000032037534
100
AcDbArc
 50
180.0
 51
270.0
  0
ARC
  5
513
330
A
100
AcDbEntity
  8
TOP
  6
CONTINUOUS
 62
     3
100
AcDbCircle
 10
3.765950918197661
 20
-3.640715281168841
 30
0.0
 40
0.1900000032037534
100
AcDbArc
 50
270.0
 51
0.0
  0
ARC
  5
514
330
A
100
AcDbEntity
  8
TOP
  6
CONTINUOUS
 62
     3
100
AcDbCircle
 10
25.73201313676539
 20
-16.74571037292528
 30
0.0
 40
0.3149999926487668
100
AcDbArc
 50
270.0
 51
90.0
  0
ARC
  5
515
330
A
100
AcDbEntity
  8
TOP
  6
CONTINUOUS
 62
     3
100
AcDbCircle
 10
3.660951375961331
 20
-18.5382127761846
 30
0.0
 40
0.1000000008692364
100
AcDbArc
 50
270.0
 51
270.0
  0
ARC
  5
516
330
A
100
AcDbEntity
  8
TOP
  6
CONTINUOUS
 62
     3
100
AcDbCircle
 10
3.765950918197661
 20
-36.15071773529139
 30
0.0
 40
0.1900000032037534
100
AcDbArc
 50
0.0
 51
90.0
  0
ARC
  5
517
330
A
100
AcDbEntity
  8
TOP
  6
CONTINUOUS
 62
     3
100
AcDbCircle
 10
3.660951375961331
 20
-31.13821347554601
 30
0.0
 40
0.1000000008692364
100
AcDbArc
 50
270.0
 51
270.0
  0
ARC
  5
518
330
A
100
AcDbEntity
  8
TOP
  6
CONTINUOUS
 62
     3
100
AcDbCircle
 10
3.765950918197661
 20
-23.55071703592998
 30
0.0
 40
0.1900000032037534
100
AcDbArc
 50
0.0
 51
90.0
  0
ARC
  5
519
330
A
100
AcDbEntity
  8
TOP
  6
CONTINUOUS
 62
     3
100
AcDbCircle
 10
3.660951375961331
 20
-9.538213411967298
 30
0.0
 40
0.1000000008692364
100
AcDbArc
 50
270.0
 51
270.0
  0
ARC
  5
51A
330
A
100
AcDbEntity
  8
TOP
  6
CONTINUOUS
 62
     3
100
AcDbCircle
 10
9.155951261520522
 20
7.34178225199381
 30
0.0
 40
0.1900000032037534
100
AcDbArc
 50
90.0
 51
180.0
  0
ARC
  5
51B
330
A
100
AcDbEntity
  8
TOP
  6
CONTINUOUS
 62
     3
100
AcDbCircle
 10
9.910951375961456
 20
3.061787287394117
 30
0.0
 40
0.1000000008692364
100
AcDbArc
 50
270.0
 51
270.0
  0
ARC
  5
51C
330
A
100
AcDbEntity
  8
TOP
  6
CONTINUOUS
 62
     3
100
AcDbCircle
 10
9.155951261520522
 20
-29.8507134119677
 30
0.0
 40
0.1900000032037534
100
AcDbArc
 50
90.0
 51
180.0
  0
ARC
  5
51D
330
A
100
AcDbEntity
  8
TOP
  6
CONTINUOUS
 62
     3
100
AcDbCircle
 10
9.155951261520522
 20
-45.92571258545028
 30
0.0
 40
0.1900000032037534
100
AcDbArc
 50
180.0
 51
270.0
  0
ARC
  5
51E
330
A
100
AcDbEntity
  8
TOP
  6
CONTINUOUS
 62
     3
100
AcDbCircle
 10
25.73201313676539
 20
-10.44571399688756
 30
0.0
 40
0.3149999926487668
100
AcDbArc
 50
270.0
 51
90.0
  0
ARC
  5
51F
330
A
100
AcDbEntity
  8
TOP
  6
CONTINUOUS
 62
     3
100
AcDbCircle
 10
9.910951375961456
 20
-47.33821551005155
 30
0.0
 40
0.1000000008692364
100
AcDbArc
 50
270.0
 51
270.0
  0
ARC
  5
520
330
A
100
AcDbEntity
  8
TOP
  6
CONTINUOUS
 62
     3
100
AcDbCircle
 10
3.765950918197661
 20
-16.24071598053025
 30
0.0
 40
0.1900000032037534
100
AcDbArc
 50
270.0
 51
0.0
  0
ARC
  5
521
330
A
100
AcDbEntity
  8
TOP
  6
CONTINUOUS
 62
     3
100
AcDbCircle
 10
3.765950918197661
 20
-22.54071235656798
 30
0.0
 40
0.1900000032037534
100
AcDbArc
 50
270.0
 51
0.0
  0
ARC
  5
522
330
A
100
AcDbEntity
  8
TOP
  6
CONTINUOUS
 62
     3
100
AcDbCircle
 10
3.765950918197661
 20
-45.92571258545028
 30
0.0
 40
0.1900000032037534
100
AcDbArc
 50
270.0
 51
0.0
  0
ARC
  5
523
330
A
100
AcDbEntity
  8
TOP
  6
CONTINUOUS
 62
     3
100
AcDbCircle
 10
3.660951375961331
 20
-50.93821684519566
 30
0.0
 40
0.1000000008692364
100
AcDbArc
 50
270.0
 51
270.0
  0
ARC
  5
524
330
A
100
AcDbEntity
  8
TOP
  6
CONTINUOUS
 62
     3
100
AcDbCircle
 10
9.155951261520522
 20
-22.54071235656798
 30
0.0
 40
0.1900000032037534
100
AcDbArc
 50
180.0
 51
270.0
  0
ARC
  5
525
330
A
100
AcDbEntity
  8
TOP
  6
CONTINUOUS
 62
     3
100
AcDbCircle
 10
3.765950918197661
 20
-41.44071737925308
 30
0.0
 40
0.1900000032037534
100
AcDbArc
 50
270.0
 51
0.0
  0
ARC
  5
526
330
A
100
AcDbEntity
  8
TOP
  6
CONTINUOUS
 62
     3
100
AcDbCircle
 10
9.260950803756852
 20
-25.73821544647282
 30
0.0
 40
0.1000000008692364
100
AcDbArc
 50
270.0
 51
270.0
  0
ARC
  5
527
330
A
100
AcDbEntity
  8
TOP
  6
CONTINUOUS
 62
     3
100
AcDbCircle
 10
9.260950803756852
 20
-44.63821252187197
 30
0.0
 40
0.1000000008692364
100
AcDbArc
 50
270.0
 51
270.0
  0
ARC
  5
528
330
A
100
AcDbEntity
  8
TOP
  6
CONTINUOUS
 62
     3
100
AcDbCircle
 10
9.260950803756852
 20
0.3617842992145386
 30
0.0
 40
0.1000000008692364
100
AcDbArc
 50
270.0
 51
270.0
  0
ARC
  5
529
330
A
100
AcDbEntity
  8
TOP
  6
CONTINUOUS
 62
     3
100
AcDbCircle
 10
25.73201313676539
 20
-8.630712827047034
 30
0.0
 40
0.3149999926487668
100
AcDbArc
 50
270.0
 51
90.0
  0
ARC
  5
52A
330
A
100
AcDbEntity
  8
TOP
  6
CONTINUOUS
 62
     3
100
AcDbCircle
 10
9.964448531468862
 20
-21.67071501414039
 30
0.0
 40
0.2499999944120695
100
AcDbArc
 50
30.00000024648882
 51
59.99999975351119
  0
ARC
  5
52B
330
A
100
AcDbEntity
  8
TOP
  6
CONTINUOUS
 62
     3
100
AcDbCircle
 10
9.910951375961456
 20
-34.73821481069013
 30
0.0
 40
0.1000000008692364
100
AcDbArc
 50
270.0
 51
270.0
  0
ARC
  5
52C
330
A
100
AcDbEntity
  8
TOP
  6
CONTINUOUS
 62
     3
100
AcDbCircle
 10
3.765950918197661
 20
-14.42571481068972
 30
0.0
 40
0.1900000032037534
100
AcDbArc
 50
270.0
 51
0.0
  0
ARC
  5
52D
330
A
100
AcDbEntity
  8
TOP
  6
CONTINUOUS
 62
     3
100
AcDbCircle
 10
25.73201313676539
 20
-46.43071492513128
 30
0.0
 40
0.3149999926487668
100
AcDbArc
 50
270.0
 51
90.0
  0
ARC
  5
52E
330
A
100
AcDbEntity
  8
TOP
  6
CONTINUOUS
 62
     3
100
AcDbCircle
 10
3.765950918197661
 20
-27.02571551005114
 30
0.0
 40
0.1900000032037534
100
AcDbArc
 50
270.0
 51
0.0
  0
ARC
  5
52F
330
A
100
AcDbEntity
  8
TOP
  6
CONTINUOUS
 62
     3
100
AcDbCircle
 10
9.260950803756852
 20
-50.93821684519566
 30
0.0
 40
0.1000000008692364
100
AcDbArc
 50
270.0
 51
270.0
  0
ARC
  5
530
330
A
100
AcDbEntity
  8
TOP
  6
CONTINUOUS
 62
     3
100
AcDbCircle
 10
9.964448531468862
 20
-46.87071641286322
 30
0.0
 40
0.2499999944120695
100
AcDbArc
 50
120.9306370215319
 51
150.0016749475759
  0
ARC
  5
531
330
A
100
AcDbEntity
  8
TOP
  6
CONTINUOUS
 62
     3
100
AcDbCircle
 10
25.73201313676539
 20
-4.145709673563871
 30
0.0
 40
0.3149999926487668
100
AcDbArc
 50
270.0
 51
90.0
  0
ARC
  5
532
330
A
100
AcDbEntity
  8
TOP
  6
CONTINUOUS
 62
     3
100
AcDbCircle
 10
9.260950803756852
 20
-15.83821773529099
 30
0.0
 40
0.1000000008692364
100
AcDbArc
 50
270.0
 51
270.0
  0
ARC
  5
533
330
A
100
AcDbEntity
  8
TOP
  6
CONTINUOUS
 62
     3
100
AcDbCircle
 10
9.155951261520522
 20
-41.44071737925308
 30
0.0
 40
0.1900000032037534
100
AcDbArc
 50
180.0
 51
270.0
  0
ARC
  5
534
330
A
100
AcDbEntity
  8
TOP
  6
CONTINUOUS
 62
     3
100
AcDbCircle
 10
6.460951089859092
 20
-28.43821048736644
 30
0.0
 40
0.9999999776482781
100
AcDbArc
 50
270.0
 51
270.0
  0
ARC
  5
535
330
A
100
AcDbEntity
  8
TOP
  6
CONTINUOUS
 62
     3
100
AcDbCircle
 10
2.272949934005737
 20
-67.62800614039253
 30
0.0
 40
0.0634999984564893
100
AcDbArc
 50
180.0
 51
270.0
  0
ARC
  5
536
330
A
100
AcDbEntity
  8
TOP
  6
CONTINUOUS
 62
     3
100
AcDbCircle
 10
6.460951089859092
 20
-3.238217035929576
 30
0.0
 40
0.9999999776482781
100
AcDbArc
 50
270.0
 51
270.0
  0
ARC
  5
537
330
A
100
AcDbEntity
  8
TOP
  6
CONTINUOUS
 62
     3
100
AcDbCircle
 10
9.155951261520522
 20
-2.83571084340434
 30
0.0
 40
0.1900000032037534
100
AcDbArc
 50
90.0
 51
180.0
  0
ARC
  5
538
330
A
100
AcDbEntity
  8
TOP
  6
CONTINUOUS
 62
     3
100
AcDbCircle
 10
9.260950803756852
 20
-41.03821118672786
 30
0.0
 40
0.1000000008692364
100
AcDbArc
 50
270.0
 51
270.0
  0
ARC
  5
539
330
A
100
AcDbEntity
  8
TOP
  6
CONTINUOUS
 62
     3
100
AcDbCircle
 10
25.73201313676539
 20
-48.24570814768584
 30
0.0
 40
0.3149999926487668
100
AcDbArc
 50
270.0
 51
90.0
  0
ARC
  5
53A
330
A
100
AcDbEntity
  8
TOP
  6
CONTINUOUS
 62
     3
100
AcDbCircle
 10
9.260950803756852
 20
-6.838210423787721
 30
0.0
 40
0.1000000008692364
100
AcDbArc
 50
270.0
 51
270.0
  0
ARC
  5
53B
330
A
100
AcDbEntity
  8
TOP
  6
CONTINUOUS
 62
     3
100
AcDbCircle
 10
9.964448531468862
 20
-21.23071352640845
 30
0.0
 40
0.1249999972060348
100
AcDbArc
 50
0.0
 51
180.0
  0
ARC
  5
53C
330
A
100
AcDbEntity
  8
TOP
  6
CONTINUOUS
 62
     3
100
AcDbCircle
 10
25.73201313676539
 20
-2.330708503723339
 30
0.0
 40
0.3149999926487668
100
AcDbArc
 50
270.0
 51
90.0
  0
ARC
  5
53D
330
A
100
AcDbEntity
  8
TOP
  6
CONTINUOUS
 62
     3
100
AcDbCircle
 10
9.155951261520522
 20
-3.640715281168841
 30
0.0
 40
0.1900000032037534
100
AcDbArc
 50
180.0
 51
270.0
  0
ARC
  5
53E
330
A
100
AcDbEntity
  8
TOP
  6
CONTINUOUS
 62
     3
100
AcDbCircle
 10
9.260950803756852
 20
-18.5382127761846
 30
0.0
 40
0.1000000008692364
100
AcDbArc
 50
270.0
 51
270.0
  0
ARC
  5
53F
330
A
100
AcDbEntity
  8
TOP
  6
CONTINUOUS
 62
     3
100
AcDbCircle
 10
2.964451233545952
 20
3.969287872314382
 30
0.0
 40
0.1249999972060348
100
AcDbArc
 50
0.0
 51
180.0
  0
ARC
  5
540
330
A
100
AcDbEntity
  8
TOP
  6
CONTINUOUS
 62
     3
100
AcDbCircle
 10
3.010950803756728
 20
-22.13821411132871
 30
0.0
 40
0.1000000008692364
100
AcDbArc
 50
270.0
 51
270.0
  0
ARC
  5
541
330
A
100
AcDbEntity
  8
TOP
  6
CONTINUOUS
 62
     3
100
AcDbCircle
 10
9.155951261520522
 20
-36.15071773529139
 30
0.0
 40
0.1900000032037534
100
AcDbArc
 50
90.0
 51
180.0
  0
ARC
  5
542
330
A
100
AcDbEntity
  8
TOP
  6
CONTINUOUS
 62
     3
100
AcDbCircle
 10
3.765950918197661
 20
4.474282264709412
 30
0.0
 40
0.1900000032037534
100
AcDbArc
 50
270.0
 51
0.0
  0
ARC
  5
543
330
A
100
AcDbEntity
  8
TOP
  6
CONTINUOUS
 62
     3
100
AcDbCircle
 10
2.964451233545952
 20
-21.67071501414039
 30
0.0
 40
0.2499999944120695
100
AcDbArc
 50
29.99531290464513
 51
59.99999975351119
  0
ARC
  5
544
330
A
100
AcDbEntity
  8
TOP
  6
CONTINUOUS
 62
     3
100
AcDbCircle
 10
25.73201313676539
 20
2.154286702473852
 30
0.0
 40
0.3149999926487668
100
AcDbArc
 50
270.0
 51
90.0
  0
ARC
  5
545
330
A
100
AcDbEntity
  8
TOP
  6
CONTINUOUS
 62
     3
100
AcDbCircle
 10
3.010950803756728
 20
-47.33821551005155
 30
0.0
 40
0.1000000008692364
100
AcDbArc
 50
270.0
 51
270.0
  0
ARC
  5
546
330
A
100
AcDbEntity
  8
TOP
  6
CONTINUOUS
 62
     3
100
AcDbCircle
 10
9.260950803756852
 20
-9.538213411967298
 30
0.0
 40
0.1000000008692364
100
AcDbArc
 50
270.0
 51
270.0
  0
ARC
  5
547
330
A
100
AcDbEntity
  8
TOP
  6
CONTINUOUS
 62
     3
100
AcDbCircle
 10
9.260950803756852
 20
-43.73821417490743
 30
0.0
 40
0.1000000008692364
100
AcDbArc
 50
270.0
 51
270.0
  0
ARC
  5
548
330
A
100
AcDbEntity
  8
TOP
  6
CONTINUOUS
 62
     3
100
AcDbCircle
 10
9.260950803756852
 20
-28.43821048736644
 30
0.0
 40
0.1000000008692364
100
AcDbArc
 50
270.0
 51
270.0
  0
ARC
  5
549
330
A
100
AcDbEntity
  8
TOP
  6
CONTINUOUS
 62
     3
100
AcDbCircle
 10
3.765950918197661
 20
-21.73571586608944
 30
0.0
 40
0.1900000032037534
100
AcDbArc
 50
0.0
 51
90.0
  0
ARC
  5
54A
330
A
100
AcDbEntity
  8
TOP
  6
CONTINUOUS
 62
     3
100
AcDbCircle
 10
3.660951375961331
 20
-0.5382140477499977
 30
0.0
 40
0.1000000008692364
100
AcDbArc
 50
270.0
 51
270.0
  0
ARC
  5
54B
330
A
100
AcDbEntity
  8
TOP
  6
CONTINUOUS
 62
     3
100
AcDbCircle
 10
25.73201313676539
 20
3.969287872314382
 30
0.0
 40
0.3149999926487668
100
AcDbArc
 50
270.0
 51
90.0
  0
ARC
  5
54C
330
A
100
AcDbEntity
  8
TOP
  6
CONTINUOUS
 62
     3
100
AcDbCircle
 10
3.765950918197661
 20
-29.8507134119677
 30
0.0
 40
0.1900000032037534
100
AcDbArc
 50
0.0
 51
90.0
  0
ARC
  5
54D
330
A
100
AcDbEntity
  8
TOP
  6
CONTINUOUS
 62
     3
100
AcDbCircle
 10
9.260950803756852
 20
-22.13821411132871
 30
0.0
 40
0.1000000008692364
100
AcDbArc
 50
270.0
 51
270.0
  0
ARC
  5
54E
330
A
100
AcDbEntity
  8
TOP
  6
CONTINUOUS
 62
     3
100
AcDbCircle
 10
3.765950918197661
 20
-46.93571726481228
 30
0.0
 40
0.1900000032037534
100
AcDbArc
 50
0.0
 51
90.0
  0
ARC
  5
54F
330
A
100
AcDbEntity
  8
TOP
  6
CONTINUOUS
 62
     3
100
AcDbCircle
 10
2.964451233545952
 20
-46.87071641286322
 30
0.0
 40
0.2499999944120695
100
AcDbArc
 50
120.9306370215319
 51
150.0016749475759
  0
ARC
  5
550
330
A
100
AcDbEntity
  8
TOP
  6
CONTINUOUS
 62
     3
100
AcDbCircle
 10
3.010950803756728
 20
-34.73821481069013
 30
0.0
 40
0.1000000008692364
100
AcDbArc
 50
270.0
 51
270.0
  0
ARC
  5
551
330
A
100
AcDbEntity
  8
TOP
  6
CONTINUOUS
 62
     3
100
AcDbCircle
 10
9.964448531468862
 20
3.529286384582439
 30
0.0
 40
0.2499999944120695
100
AcDbArc
 50
30.00000024648882
 51
59.99999975351119
  0
ARC
  5
552
330
A
100
AcDbEntity
  8
TOP
  6
CONTINUOUS
 62
     3
100
AcDbCircle
 10
3.765950918197661
 20
-4.65071201324487
 30
0.0
 40
0.1900000032037534
100
AcDbArc
 50
0.0
 51
90.0
  0
ARC
  5
553
330
A
100
AcDbEntity
  8
TOP
  6
CONTINUOUS
 62
     3
100
AcDbCircle
 10
9.155951261520522
 20
-10.95071633656856
 30
0.0
 40
0.1900000032037534
100
AcDbArc
 50
90.0
 51
180.0
  0
ARC
  5
554
330
A
100
AcDbEntity
  8
TOP
  6
CONTINUOUS
 62
     3
100
AcDbCircle
 10
3.765950918197661
 20
1.649284362792851
 30
0.0
 40
0.1900000032037534
100
AcDbArc
 50
0.0
 51
90.0
  0
ARC
  5
555
330
A
100
AcDbEntity
  8
TOP
  6
CONTINUOUS
 62
     3
100
AcDbCircle
 10
2.964451233545952
 20
-21.67071501414039
 30
0.0
 40
0.2499999944120695
100
AcDbArc
 50
120.0000002464888
 51
150.0046870953548
  0
ARC
  5
556
330
A
100
AcDbEntity
  8
TOP
  6
CONTINUOUS
 62
     3
100
AcDbCircle
 10
3.765950918197661
 20
-15.43571154276575
 30
0.0
 40
0.1900000032037534
100
AcDbArc
 50
0.0
 51
90.0
  0
ARC
  5
557
330
A
100
AcDbEntity
  8
TOP
  6
CONTINUOUS
 62
     3
100
AcDbCircle
 10
9.260950803756852
 20
-34.73821481069013
 30
0.0
 40
0.1000000008692364
100
AcDbArc
 50
270.0
 51
270.0
  0
ARC
  5
558
330
A
100
AcDbEntity
  8
TOP
  6
CONTINUOUS
 62
     3
100
AcDbCircle
 10
9.155951261520522
 20
4.474282264709412
 30
0.0
 40
0.1900000032037534
100
AcDbArc
 50
180.0
 51
270.0
  0
ARC
  5
559
330
A
100
AcDbEntity
  8
TOP
  6
CONTINUOUS
 62
     3
100
AcDbCircle
 10
3.660951375961331
 20
-19.43821112314913
 30
0.0
 40
0.1000000008692364
100
AcDbArc
 50
270.0
 51
270.0
  0
ARC
  5
55A
330
A
100
AcDbEntity
  8
TOP
  6
CONTINUOUS
 62
     3
100
AcDbCircle
 10
2.964451233545952
 20
3.529286384582439
 30
0.0
 40
0.2499999944120695
100
AcDbArc
 50
30.00000024648882
 51
59.99999975351119
  0
ARC
  5
55B
330
A
100
AcDbEntity
  8
TOP
  6
CONTINUOUS
 62
     3
100
AcDbCircle
 10
3.765950918197661
 20
2.659289042154851
 30
0.0
 40
0.1900000032037534
100
AcDbArc
 50
270.0
 51
0.0
  0
ARC
  5
55C
330
A
100
AcDbEntity
  8
TOP
  6
CONTINUOUS
 62
     3
100
AcDbCircle
 10
10.64894827206946
 20
-67.62800614039253
 30
0.0
 40
0.1269999969129786
100
AcDbArc
 50
270.0
 51
0.0
  0
ARC
  5
55D
330
A
100
AcDbEntity
  8
TOP
  6
CONTINUOUS
 62
     3
100
AcDbCircle
 10
3.765950918197661
 20
-33.32571188608886
 30
0.0
 40
0.1900000032037534
100
AcDbArc
 50
270.0
 51
0.0
  0
ARC
  5
55E
330
A
100
AcDbEntity
  8
TOP
  6
CONTINUOUS
 62
     3
100
AcDbCircle
 10
25.73201313676539
 20
-40.13071060180759
 30
0.0
 40
0.3149999926487668
100
AcDbArc
 50
270.0
 51
90.0
  0
ARC
  5
55F
330
A
100
AcDbEntity
  8
TOP
  6
CONTINUOUS
 62
     3
100
AcDbCircle
 10
9.155951261520522
 20
-42.45071411132911
 30
0.0
 40
0.1900000032037534
100
AcDbArc
 50
90.0
 51
180.0
  0
ARC
  5
560
330
A
100
AcDbEntity
  8
TOP
  6
CONTINUOUS
 62
     3
100
AcDbCircle
 10
3.660951375961331
 20
-24.83821709950829
 30
0.0
 40
0.1000000008692364
100
AcDbArc
 50
270.0
 51
270.0
  0
CIRCLE
  5
580
330
A
100
AcDbEntity
  8
0
  6
CONTINUOUS
100
AcDbCircle
 10
25.79701398871444
 20
6.03179136912025
 30
0.0
 40
0.1000000008692364
  0
CIRCLE
  5
581
330
A
100
AcDbEntity
  8
0
  6
CONTINUOUS
100
AcDbCircle
 10
25.79701398871444
 20
-50.30821164449171
 30
0.0
 40
0.1000000008692364
  0
CIRCLE
  5
588
330
A
100
AcDbEntity
  8
0
  6
CONTINUOUS
100
AcDbCircle
 10
3.660951375961331
 20
6.661788622538231
 30
0.0
 40
0.1000000008692364
  0
CIRCLE
  5
589
330
A
100
AcDbEntity
  8
0
  6
CONTINUOUS
100
AcDbCircle
 10
3.660951375961331
 20
5.761782328287725
 30
0.0
 40
0.1000000008692364
  0
CIRCLE
  5
58A
330
A
100
AcDbEntity
  8
0
  6
CONTINUOUS
100
AcDbCircle
 10
9.260950803756852
 20
6.661788622538231
 30
0.0
 40
0.1000000008692364
  0
CIRCLE
  5
58B
330
A
100
AcDbEntity
  8
0
  6
CONTINUOUS
100
AcDbCircle
 10
9.260950803756852
 20
5.761782328287725
 30
0.0
 40
0.1000000008692364
  0
CIRCLE
  5
58C
330
A
100
AcDbEntity
  8
0
  6
CONTINUOUS
100
AcDbCircle
 10
3.010950803756728
 20
3.061787287394117
 30
0.0
 40
0.1000000008692364
  0
CIRCLE
  5
58D
330
A
100
AcDbEntity
  8
0
  6
CONTINUOUS
100
AcDbCircle
 10
3.660951375961331
 20
3.061787287394117
 30
0.0
 40
0.1000000008692364
  0
CIRCLE
  5
58E
330
A
100
AcDbEntity
  8
0
  6
CONTINUOUS
100
AcDbCircle
 10
6.460951089859092
 20
3.061787287394117
 30
0.0
 40
0.9999999776482781
  0
CIRCLE
  5
58F
330
A
100
AcDbEntity
  8
0
  6
CONTINUOUS
100
AcDbCircle
 10
9.260950803756852
 20
3.061787287394117
 30
0.0
 40
0.1000000008692364
  0
CIRCLE
  5
590
330
A
100
AcDbEntity
  8
0
  6
CONTINUOUS
100
AcDbCircle
 10
9.910951375961456
 20
3.061787287394117
 30
0.0
 40
0.1000000008692364
  0
CIRCLE
  5
591
330
A
100
AcDbEntity
  8
0
  6
CONTINUOUS
100
AcDbCircle
 10
3.660951375961331
 20
0.3617842992145386
 30
0.0
 40
0.1000000008692364
  0
CIRCLE
  5
592
330
A
100
AcDbEntity
  8
0
  6
CONTINUOUS
100
AcDbCircle
 10
9.260950803756852
 20
0.3617842992145386
 30
0.0
 40
0.1000000008692364
  0
CIRCLE
  5
593
330
A
100
AcDbEntity
  8
0
  6
CONTINUOUS
100
AcDbCircle
 10
3.660951375961331
 20
-0.5382140477499977
 30
0.0
 40
0.1000000008692364
  0
CIRCLE
  5
594
330
A
100
AcDbEntity
  8
0
  6
CONTINUOUS
100
AcDbCircle
 10
9.260950803756852
 20
-0.5382140477499977
 30
0.0
 40
0.1000000008692364
  0
CIRCLE
  5
595
330
A
100
AcDbEntity
  8
0
  6
CONTINUOUS
100
AcDbCircle
 10
3.010950803756728
 20
-3.238217035929576
 30
0.0
 40
0.1000000008692364
  0
CIRCLE
  5
596
330
A
100
AcDbEntity
  8
0
  6
CONTINUOUS
100
AcDbCircle
 10
3.660951375961331
 20
-3.238217035929576
 30
0.0
 40
0.1000000008692364
  0
CIRCLE
  5
597
330
A
100
AcDbEntity
  8
0
  6
CONTINUOUS
100
AcDbCircle
 10
6.460951089859092
 20
-3.238217035929576
 30
0.0
 40
0.9999999776482781
  0
CIRCLE
  5
598
330
A
100
AcDbEntity
  8
0
  6
CONTINUOUS
100
AcDbCircle
 10
9.260950803756852
 20
-3.238217035929576
 30
0.0
 40
0.1000000008692364
  0
CIRCLE
  5
599
330
A
100
AcDbEntity
  8
0
  6
CONTINUOUS
100
AcDbCircle
 10
9.910951375961456
 20
-3.238217035929576
 30
0.0
 40
0.1000000008692364
  0
CIRCLE
  5
59A
330
A
100
AcDbEntity
  8
0
  6
CONTINUOUS
100
AcDbCircle
 10
3.660951375961331
 20
-5.938212076823184
 30
0.0
 40
0.1000000008692364
  0
CIRCLE
  5
59B
330
A
100
AcDbEntity
  8
0
  6
CONTINUOUS
100
AcDbCircle
 10
3.660951375961331
 20
-6.838210423787721
 30
0.0
 40
0.1000000008692364
  0
CIRCLE
  5
59C
330
A
100
AcDbEntity
  8
0
  6
CONTINUOUS
100
AcDbCircle
 10
9.260950803756852
 20
-5.938212076823184
 30
0.0
 40
0.1000000008692364
  0
CIRCLE
  5
59D
330
A
100
AcDbEntity
  8
0
  6
CONTINUOUS
100
AcDbCircle
 10
9.260950803756852
 20
-6.838210423787721
 30
0.0
 40
0.1000000008692364
  0
CIRCLE
  5
59E
330
A
100
AcDbEntity
  8
0
  6
CONTINUOUS
100
AcDbCircle
 10
3.010950803756728
 20
-9.538213411967298
 30
0.0
 40
0.1000000008692364
  0
CIRCLE
  5
59F
330
A
100
AcDbEntity
  8
0
  6
CONTINUOUS
100
AcDbCircle
 10
3.660951375961331
 20
-9.538213411967298
 30
0.0
 40
0.1000000008692364
  0
CIRCLE
  5
5A0
330
A
100
AcDbEntity
  8
0
  6
CONTINUOUS
100
AcDbCircle
 10
6.460951089859092
 20
-9.538213411967298
 30
0.0
 40
0.9999999776482781
  0
CIRCLE
  5
5A1
330
A
100
AcDbEntity
  8
0
  6
CONTINUOUS
100
AcDbCircle
 10
9.260950803756852
 20
-9.538213411967298
 30
0.0
 40
0.1000000008692364
  0
CIRCLE
  5
5A2
330
A
100
AcDbEntity
  8
0
  6
CONTINUOUS
100
AcDbCircle
 10
9.910951375961456
 20
-9.538213411967298
 30
0.0
 40
0.1000000008692364
  0
CIRCLE
  5
5A3
330
A
100
AcDbEntity
  8
0
  6
CONTINUOUS
100
AcDbCircle
 10
3.660951375961331
 20
-12.23821640014687
 30
0.0
 40
0.1000000008692364
  0
CIRCLE
  5
5A4
330
A
100
AcDbEntity
  8
0
  6
CONTINUOUS
100
AcDbCircle
 10
3.660951375961331
 20
-13.13821474711141
 30
0.0
 40
0.1000000008692364
  0
CIRCLE
  5
5A5
330
A
100
AcDbEntity
  8
0
  6
CONTINUOUS
100
AcDbCircle
 10
9.260950803756852
 20
-12.23821640014687
 30
0.0
 40
0.1000000008692364
  0
CIRCLE
  5
5A6
330
A
100
AcDbEntity
  8
0
  6
CONTINUOUS
100
AcDbCircle
 10
9.260950803756852
 20
-13.13821474711141
 30
0.0
 40
0.1000000008692364
  0
CIRCLE
  5
5A7
330
A
100
AcDbEntity
  8
0
  6
CONTINUOUS
100
AcDbCircle
 10
3.010950803756728
 20
-15.83821773529099
 30
0.0
 40
0.1000000008692364
  0
CIRCLE
  5
5A8
330
A
100
AcDbEntity
  8
0
  6
CONTINUOUS
100
AcDbCircle
 10
3.660951375961331
 20
-15.83821773529099
 30
0.0
 40
0.1000000008692364
  0
CIRCLE
  5
5A9
330
A
100
AcDbEntity
  8
0
  6
CONTINUOUS
100
AcDbCircle
 10
6.460951089859092
 20
-15.83821773529099
 30
0.0
 40
0.9999999776482781
  0
CIRCLE
  5
5AA
330
A
100
AcDbEntity
  8
0
  6
CONTINUOUS
100
AcDbCircle
 10
9.260950803756852
 20
-15.83821773529099
 30
0.0
 40
0.1000000008692364
  0
CIRCLE
  5
5AB
330
A
100
AcDbEntity
  8
0
  6
CONTINUOUS
100
AcDbCircle
 10
9.910951375961456
 20
-15.83821773529099
 30
0.0
 40
0.1000000008692364
  0
CIRCLE
  5
5AC
330
A
100
AcDbEntity
  8
0
  6
CONTINUOUS
100
AcDbCircle
 10
3.660951375961331
 20
-18.5382127761846
 30
0.0
 40
0.1000000008692364
  0
CIRCLE
  5
5AD
330
A
100
AcDbEntity
  8
0
  6
CONTINUOUS
100
AcDbCircle
 10
3.660951375961331
 20
-19.43821112314913
 30
0.0
 40
0.1000000008692364
  0
CIRCLE
  5
5AE
330
A
100
AcDbEntity
  8
0
  6
CONTINUOUS
100
AcDbCircle
 10
9.260950803756852
 20
-18.5382127761846
 30
0.0
 40
0.1000000008692364
  0
CIRCLE
  5
5AF
330
A
100
AcDbEntity
  8
0
  6
CONTINUOUS
100
AcDbCircle
 10
9.260950803756852
 20
-19.43821112314913
 30
0.0
 40
0.1000000008692364
  0
CIRCLE
  5
5B0
330
A
100
AcDbEntity
  8
0
  6
CONTINUOUS
100
AcDbCircle
 10
3.010950803756728
 20
-22.13821411132871
 30
0.0
 40
0.1000000008692364
  0
CIRCLE
  5
5B1
330
A
100
AcDbEntity
  8
0
  6
CONTINUOUS
100
AcDbCircle
 10
3.660951375961331
 20
-22.13821411132871
 30
0.0
 40
0.1000000008692364
  0
CIRCLE
  5
5B2
330
A
100
AcDbEntity
  8
0
  6
CONTINUOUS
100
AcDbCircle
 10
6.460951089859092
 20
-22.13821411132871
 30
0.0
 40
0.9999999776482781
  0
CIRCLE
  5
5B3
330
A
100
AcDbEntity
  8
0
  6
CONTINUOUS
100
AcDbCircle
 10
9.260950803756852
 20
-22.13821411132871
 30
0.0
 40
0.1000000008692364
  0
CIRCLE
  5
5B4
330
A
100
AcDbEntity
  8
0
  6
CONTINUOUS
100
AcDbCircle
 10
9.910951375961456
 20
-22.13821411132871
 30
0.0
 40
0.1000000008692364
  0
CIRCLE
  5
5B5
330
A
100
AcDbEntity
  8
0
  6
CONTINUOUS
100
AcDbCircle
 10
3.660951375961331
 20
-24.83821709950829
 30
0.0
 40
0.1000000008692364
  0
CIRCLE
  5
5B6
330
A
100
AcDbEntity
  8
0
  6
CONTINUOUS
100
AcDbCircle
 10
3.660951375961331
 20
-25.73821544647282
 30
0.0
 40
0.1000000008692364
  0
CIRCLE
  5
5B7
330
A
100
AcDbEntity
  8
0
  6
CONTINUOUS
100
AcDbCircle
 10
9.260950803756852
 20
-24.83821709950829
 30
0.0
 40
0.1000000008692364
  0
CIRCLE
  5
5B8
330
A
100
AcDbEntity
  8
0
  6
CONTINUOUS
100
AcDbCircle
 10
9.260950803756852
 20
-25.73821544647282
 30
0.0
 40
0.1000000008692364
  0
CIRCLE
  5
5B9
330
A
100
AcDbEntity
  8
0
  6
CONTINUOUS
100
AcDbCircle
 10
3.010950803756728
 20
-28.43821048736644
 30
0.0
 40
0.1000000008692364
  0
CIRCLE
  5
5BA
330
A
100
AcDbEntity
  8
0
  6
CONTINUOUS
100
AcDbCircle
 10
3.660951375961331
 20
-28.43821048736644
 30
0.0
 40
0.1000000008692364
  0
CIRCLE
  5
5BB
330
A
100
AcDbEntity
  8
0
  6
CONTINUOUS
100
AcDbCircle
 10
6.460951089859092
 20
-28.43821048736644
 30
0.0
 40
0.9999999776482781
  0
CIRCLE
  5
5BC
330
A
100
AcDbEntity
  8
0
  6
CONTINUOUS
100
AcDbCircle
 10
9.260950803756852
 20
-28.43821048736644
 30
0.0
 40
0.1000000008692364
  0
CIRCLE
  5
5BD
330
A
100
AcDbEntity
  8
0
  6
CONTINUOUS
100
AcDbCircle
 10
9.910951375961456
 20
-28.43821048736644
 30
0.0
 40
0.1000000008692364
  0
CIRCLE
  5
5BE
330
A
100
AcDbEntity
  8
0
  6
CONTINUOUS
100
AcDbCircle
 10
3.660951375961331
 20
-31.13821347554601
 30
0.0
 40
0.1000000008692364
  0
CIRCLE
  5
5BF
330
A
100
AcDbEntity
  8
0
  6
CONTINUOUS
100
AcDbCircle
 10
3.660951375961331
 20
-32.03821182251055
 30
0.0
 40
0.1000000008692364
  0
CIRCLE
  5
5C0
330
A
100
AcDbEntity
  8
0
  6
CONTINUOUS
100
AcDbCircle
 10
9.260950803756852
 20
-31.13821347554601
 30
0.0
 40
0.1000000008692364
  0
CIRCLE
  5
5C1
330
A
100
AcDbEntity
  8
0
  6
CONTINUOUS
100
AcDbCircle
 10
9.260950803756852
 20
-32.03821182251055
 30
0.0
 40
0.1000000008692364
  0
CIRCLE
  5
5C2
330
A
100
AcDbEntity
  8
0
  6
CONTINUOUS
100
AcDbCircle
 10
3.010950803756728
 20
-34.73821481069013
 30
0.0
 40
0.1000000008692364
  0
CIRCLE
  5
5C3
330
A
100
AcDbEntity
  8
0
  6
CONTINUOUS
100
AcDbCircle
 10
3.660951375961331
 20
-34.73821481069013
 30
0.0
 40
0.1000000008692364
  0
CIRCLE
  5
5C4
330
A
100
AcDbEntity
  8
0
  6
CONTINUOUS
100
AcDbCircle
 10
6.460951089859092
 20
-34.73821481069013
 30
0.0
 40
0.9999999776482781
  0
CIRCLE
  5
5C5
330
A
100
AcDbEntity
  8
0
  6
CONTINUOUS
100
AcDbCircle
 10
9.260950803756852
 20
-34.73821481069013
 30
0.0
 40
0.1000000008692364
  0
CIRCLE
  5
5C6
330
A
100
AcDbEntity
  8
0
  6
CONTINUOUS
100
AcDbCircle
 10
9.910951375961456
 20
-34.73821481069013
 30
0.0
 40
0.1000000008692364
  0
CIRCLE
  5
5C7
330
A
100
AcDbEntity
  8
0
  6
CONTINUOUS
100
AcDbCircle
 10
3.660951375961331
 20
-37.43821779886971
 30
0.0
 40
0.1000000008692364
  0
CIRCLE
  5
5C8
330
A
100
AcDbEntity
  8
0
  6
CONTINUOUS
100
AcDbCircle
 10
3.660951375961331
 20
-38.33821614583424
 30
0.0
 40
0.1000000008692364
  0
CIRCLE
  5
5C9
330
A
100
AcDbEntity
  8
0
  6
CONTINUOUS
100
AcDbCircle
 10
9.260950803756852
 20
-37.43821779886971
 30
0.0
 40
0.1000000008692364
  0
CIRCLE
  5
5CA
330
A
100
AcDbEntity
  8
0
  6
CONTINUOUS
100
AcDbCircle
 10
9.260950803756852
 20
-38.33821614583424
 30
0.0
 40
0.1000000008692364
  0
CIRCLE
  5
5CB
330
A
100
AcDbEntity
  8
0
  6
CONTINUOUS
100
AcDbCircle
 10
3.010950803756728
 20
-41.03821118672786
 30
0.0
 40
0.1000000008692364
  0
CIRCLE
  5
5CC
330
A
100
AcDbEntity
  8
0
  6
CONTINUOUS
100
AcDbCircle
 10
3.660951375961331
 20
-41.03821118672786
 30
0.0
 40
0.1000000008692364
  0
CIRCLE
  5
5CD
330
A
100
AcDbEntity
  8
0
  6
CONTINUOUS
100
AcDbCircle
 10
6.460951089859092
 20
-41.03821118672786
 30
0.0
 40
0.9999999776482781
  0
CIRCLE
  5
5CE
330
A
100
AcDbEntity
  8
0
  6
CONTINUOUS
100
AcDbCircle
 10
9.260950803756852
 20
-41.03821118672786
 30
0.0
 40
0.1000000008692364
  0
CIRCLE
  5
5CF
330
A
100
AcDbEntity
  8
0
  6
CONTINUOUS
100
AcDbCircle
 10
9.910951375961456
 20
-41.03821118672786
 30
0.0
 40
0.1000000008692364
  0
CIRCLE
  5
5D0
330
A
100
AcDbEntity
  8
0
  6
CONTINUOUS
100
AcDbCircle
 10
3.660951375961331
 20
-43.73821417490743
 30
0.0
 40
0.1000000008692364
  0
CIRCLE
  5
5D1
330
A
100
AcDbEntity
  8
0
  6
CONTINUOUS
100
AcDbCircle
 10
3.660951375961331
 20
-44.63821252187197
 30
0.0
 40
0.1000000008692364
  0
CIRCLE
  5
5D2
330
A
100
AcDbEntity
  8
0
  6
CONTINUOUS
100
AcDbCircle
 10
9.260950803756852
 20
-43.73821417490743
 30
0.0
 40
0.1000000008692364
  0
CIRCLE
  5
5D3
330
A
100
AcDbEntity
  8
0
  6
CONTINUOUS
100
AcDbCircle
 10
9.260950803756852
 20
-44.63821252187197
 30
0.0
 40
0.1000000008692364
  0
CIRCLE
  5
5D4
330
A
100
AcDbEntity
  8
0
  6
CONTINUOUS
100
AcDbCircle
 10
3.010950803756728
 20
-47.33821551005155
 30
0.0
 40
0.1000000008692364
  0
CIRCLE
  5
5D5
330
A
100
AcDbEntity
  8
0
  6
CONTINUOUS
100
AcDbCircle
 10
3.660951375961331
 20
-47.33821551005155
 30
0.0
 40
0.1000000008692364
  0
CIRCLE
  5
5D6
330
A
100
AcDbEntity
  8
0
  6
CONTINUOUS
100
AcDbCircle
 10
6.460951089859092
 20
-47.33821551005155
 30
0.0
 40
0.9999999776482781
  0
CIRCLE
  5
5D7
330
A
100
AcDbEntity
  8
0
  6
CONTINUOUS
100
AcDbCircle
 10
9.260950803756852
 20
-47.33821551005155
 30
0.0
 40
0.1000000008692364
  0
CIRCLE
  5
5D8
330
A
100
AcDbEntity
  8
0
  6
CONTINUOUS
100
AcDbCircle
 10
9.910951375961456
 20
-47.33821551005155
 30
0.0
 40
0.1000000008692364
  0
CIRCLE
  5
5D9
330
A
100
AcDbEntity
  8
0
  6
CONTINUOUS
100
AcDbCircle
 10
3.660951375961331
 20
-50.03821055094515
 30
0.0
 40
0.1000000008692364
  0
CIRCLE
  5
5DA
330
A
100
AcDbEntity
  8
0
  6
CONTINUOUS
100
AcDbCircle
 10
3.660951375961331
 20
-50.93821684519566
 30
0.0
 40
0.1000000008692364
  0
CIRCLE
  5
5DB
330
A
100
AcDbEntity
  8
0
  6
CONTINUOUS
100
AcDbCircle
 10
9.260950803756852
 20
-50.03821055094515
 30
0.0
 40
0.1000000008692364
  0
CIRCLE
  5
5DC
330
A
100
AcDbEntity
  8
0
  6
CONTINUOUS
100
AcDbCircle
 10
9.260950803756852
 20
-50.93821684519566
 30
0.0
 40
0.1000000008692364
  0
VIEWPORT
  5
57F
330
B
100
AcDbEntity
 67
     1
  8
0
  6
CONTINUOUS
100
AcDbViewport
 10
3.6468788249694
 20
2.25
 30
0.0
 40
8.2937576499388
 41
5.5
 68
     1
 69
     1
1001
ACAD
1000
MVIEW
1002
{
1070
    16
1010
0.0
1020
0.0
1030
0.0
1010
0.0
1020
0.0
1030
1.0
1040
0.0
1040
5.5
1040
3.6468788249694
1040
2.25
1040
50.0
1040
0.0
1040
0.0
1070
     0
1070
   100
1070
     1
1070
     1
1070
     0
1070
     0
1070
     0
1070
     0
1040
0.0
1040
0.0
1040
0.0
1040
1.0
1040
1.0
1040
0.0
1040
0.0
1070
     0
1002
{
1002
}
1002
}
  0
ENDSEC
  0
SECTION
  2
OBJECTS
  0
DICTIONARY
  5
19
330
0
100
AcDbDictionary
  3
ACAD_GROUP
350
1A
  3
ACAD_MLINESTYLE
350
1B
  3
ACAD_LAYOUT
350
1E
  3
ACAD_PLOTSETTINGS
350
21
  3
ACAD_PLOTSTYLENAME
350
1F
  3
ACDBHEADERROUNDTRIPXREC
350
60F
  0
DICTIONARY
  5
630
330
A
100
AcDbDictionary
280
     1
  3
ACAD_LAYOUTSELFREF
360
631
  0
DICTIONARY
  5
632
330
B
100
AcDbDictionary
280
     1
  3
ACAD_LAYOUTSELFREF
360
633
  0
DICTIONARY
  5
1A
102
{ACAD_REACTORS
330
19
102
}
330
19
100
AcDbDictionary
  0
DICTIONARY
  5
1B
102
{ACAD_REACTORS
330
19
102
}
330
19
100
AcDbDictionary
  3
STANDARD
350
1C
  0
DICTIONARY
  5
1E
102
{ACAD_REACTORS
330
19
102
}
330
19
100
AcDbDictionary
  0
DICTIONARY
  5
21
102
{ACAD_REACTORS
330
19
102
}
330
19
100
AcDbDictionary
  0
ACDBDICTIONARYWDFLT
  5
1F
102
{ACAD_REACTORS
330
19
102
}
330
19
100
AcDbDictionary
281
     1
  3
Normal
350
1D
100
AcDbDictionaryWithDefault
340
1D
  0
DICTIONARY
  5
60F
102
{ACAD_REACTORS
330
19
102
}
330
19
100
AcDbDictionary
  3
TSTACKALIGN
350
610
  3
TSTACKSIZE
350
611
  3
HYPERLINKBASE
350
612
  3
STYLESHEET
350
613
  3
LAYOUTDICT
350
614
  3
PLOTSETDICT
350
615
  3
PLOTSTYLNAMDICT
350
616
  3
LWETCUNION
350
617
  3
INSUNITS
350
618
  3
CEPSNTYPE
350
619
  3
FINGERPRINTGUID
350
61A
  3
VERSIONGUID
350
61B
  3
PSVPSCALE
350
61C
  3
DIMSTYLEDATA
350
61D
  3
PUCSORTHOREF
350
61E
  3
PUCSORTHOVIEW
350
61F
  3
PUCSBASE
350
620
  3
PUCSORGTOP
350
621
  3
PUCSORGBOTTOM
350
622
  3
PUCSORGLEFT
350
623
  3
PUCSORGRIGHT
350
624
  3
PUCSORGFRONT
350
625
  3
PUCSORGBACK
350
626
  3
UCSORTHOREF
350
627
  3
UCSORTHOVIEW
350
628
  3
UCSBASE
350
629
  3
UCSORGTOP
350
62A
  3
UCSORGBOTTOM
350
62B
  3
UCSORGLEFT
350
62C
  3
UCSORGRIGHT
350
62D
  3
UCSORGFRONT
350
62E
  3
UCSORGBACK
350
62F
  0
XRECORD
  5
631
102
{ACAD_REACTORS
330
630
102
}
330
630
100
AcDbXrecord
340
A
  0
XRECORD
  5
633
102
{ACAD_REACTORS
330
632
102
}
330
632
100
AcDbXrecord
340
B
  0
MLINESTYLE
  5
1C
102
{ACAD_REACTORS
330
1B
102
}
330
1B
100
AcDbMlineStyle
  2
STANDARD
 70
     0
  3

 62
     0
 51
90.00000000000019
 52
90.00000000000019
 71
     2
 49
0.5
 62
   256
  6
BYLAYER
 49
-0.5
 62
   256
  6
BYLAYER
  0
ACDBPLACEHOLDER
  5
1D
102
{ACAD_REACTORS
330
1F
102
}
330
1F
100
AcDbPlaceHolder
280
     0
  0
XRECORD
  5
610
102
{ACAD_REACTORS
330
60F
102
}
330
60F
100
AcDbXrecord
 90
        0
  0
XRECORD
  5
611
102
{ACAD_REACTORS
330
60F
102
}
330
60F
100
AcDbXrecord
 90
        0
  0
XRECORD
  5
612
102
{ACAD_REACTORS
330
60F
102
}
330
60F
100
AcDbXrecord
  1

  0
XRECORD
  5
613
102
{ACAD_REACTORS
330
60F
102
}
330
60F
100
AcDbXrecord
  1

  0
XRECORD
  5
614
102
{ACAD_REACTORS
330
60F
102
}
330
60F
100
AcDbXrecord
340
1E
  0
XRECORD
  5
615
102
{ACAD_REACTORS
330
60F
102
}
330
60F
100
AcDbXrecord
340
21
  0
XRECORD
  5
616
102
{ACAD_REACTORS
330
60F
102
}
330
60F
100
AcDbXrecord
340
1F
  0
XRECORD
  5
617
102
{ACAD_REACTORS
330
60F
102
}
330
60F
100
AcDbXrecord
 90
    10752
  0
XRECORD
  5
618
102
{ACAD_REACTORS
330
60F
102
}
330
60F
100
AcDbXrecord
 90
        0
  0
XRECORD
  5
619
102
{ACAD_REACTORS
330
60F
102
}
330
60F
100
AcDbXrecord
 90
        0
  0
XRECORD
  5
61A
102
{ACAD_REACTORS
330
60F
102
}
330
60F
100
AcDbXrecord
  1

  0
XRECORD
  5
61B
102
{ACAD_REACTORS
330
60F
102
}
330
60F
100
AcDbXrecord
  1
{657133B6-594F-11D7-9DF2-00B0D0207C84}
  0
XRECORD
  5
61C
102
{ACAD_REACTORS
330
60F
102
}
330
60F
100
AcDbXrecord
 40
0.0
  0
XRECORD
  5
61D
102
{ACAD_REACTORS
330
60F
102
}
330
60F
100
AcDbXrecord
1000
DSTYLE
1002
{
1070
   278
 70
     0
1070
   371
 70
     0
1070
   372
 70
     0
1002
}
  0
XRECORD
  5
61E
102
{ACAD_REACTORS
330
60F
102
}
330
60F
100
AcDbXrecord
340
0
  0
XRECORD
  5
61F
102
{ACAD_REACTORS
330
60F
102
}
330
60F
100
AcDbXrecord
 70
     0
  0
XRECORD
  5
620
102
{ACAD_REACTORS
330
60F
102
}
330
60F
100
AcDbXrecord
340
0
  0
XRECORD
  5
621
102
{ACAD_REACTORS
330
60F
102
}
330
60F
100
AcDbXrecord
 10
0.0
 20
0.0
 30
0.0
  0
XRECORD
  5
622
102
{ACAD_REACTORS
330
60F
102
}
330
60F
100
AcDbXrecord
 10
0.0
 20
0.0
 30
0.0
  0
XRECORD
  5
623
102
{ACAD_REACTORS
330
60F
102
}
330
60F
100
AcDbXrecord
 10
0.0
 20
0.0
 30
0.0
  0
XRECORD
  5
624
102
{ACAD_REACTORS
330
60F
102
}
330
60F
100
AcDbXrecord
 10
0.0
 20
0.0
 30
0.0
  0
XRECORD
  5
625
102
{ACAD_REACTORS
330
60F
102
}
330
60F
100
AcDbXrecord
 10
0.0
 20
0.0
 30
0.0
  0
XRECORD
  5
626
102
{ACAD_REACTORS
330
60F
102
}
330
60F
100
AcDbXrecord
 10
0.0
 20
0.0
 30
0.0
  0
XRECORD
  5
627
102
{ACAD_REACTORS
330
60F
102
}
330
60F
100
AcDbXrecord
340
0
  0
XRECORD
  5
628
102
{ACAD_REACTORS
330
60F
102
}
330
60F
100
AcDbXrecord
 70
     0
  0
XRECORD
  5
629
102
{ACAD_REACTORS
330
60F
102
}
330
60F
100
AcDbXrecord
340
0
  0
XRECORD
  5
62A
102
{ACAD_REACTORS
330
60F
102
}
330
60F
100
AcDbXrecord
 10
0.0
 20
0.0
 30
0.0
  0
XRECORD
  5
62B
102
{ACAD_REACTORS
330
60F
102
}
330
60F
100
AcDbXrecord
 10
0.0
 20
0.0
 30
0.0
  0
XRECORD
  5
62C
102
{ACAD_REACTORS
330
60F
102
}
330
60F
100
AcDbXrecord
 10
0.0
 20
0.0
 30
0.0
  0
XRECORD
  5
62D
102
{ACAD_REACTORS
330
60F
102
}
330
60F
100
AcDbXrecord
 10
0.0
 20
0.0
 30
0.0
  0
XRECORD
  5
62E
102
{ACAD_REACTORS
330
60F
102
}
330
60F
100
AcDbXrecord
 10
0.0
 20
0.0
 30
0.0
  0
XRECORD
  5
62F
102
{ACAD_REACTORS
330
60F
102
}
330
60F
100
AcDbXrecord
 10
0.0
 20
0.0
 30
0.0
  0
ENDSEC
  0
EOF
