  0
SECTION
  2
HEADER
  9
$ACADVER
  1
AC1021
  9
$ACADMAINTVER
 70
     1
  9
$DWGCODEPAGE
  3
ANSI_1252
  9
$LASTSAVEDBY
  1
JSP
  9
$INSBASE
 10
0.0
 20
0.0
 30
0.0
  9
$EXTMIN
 10
1.590820342291635
 20
4.620849635709134
 30
-0.0015258207003583
  9
$EXTMAX
 10
4.684387226454433
 20
6.486465472130181
 30
0.0000000349246037
  9
$LIMMIN
 10
0.0
 20
0.0
  9
$LIMMAX
 10
12.0
 20
9.0
  9
$ORTHOMODE
 70
     0
  9
$REGENMODE
 70
     1
  9
$FILLMODE
 70
     1
  9
$QTEXTMODE
 70
     0
  9
$MIRRTEXT
 70
     1
  9
$LTSCALE
 40
1.0
  9
$ATTMODE
 70
     1
  9
$TEXTSIZE
 40
0.2
  9
$TRACEWID
 40
0.05
  9
$TEXTSTYLE
  7
Standard
  9
$CLAYER
  8
0
  9
$CELTYPE
  6
ByLayer
  9
$CECOLOR
 62
   256
  9
$CELTSCALE
 40
1.0
  9
$DISPSILH
 70
     0
  9
$DIMSCALE
 40
1.0
  9
$DIMASZ
 40
0.18
  9
$DIMEXO
 40
0.0625
  9
$DIMDLI
 40
0.38
  9
$DIMRND
 40
0.0
  9
$DIMDLE
 40
0.0
  9
$DIMEXE
 40
0.18
  9
$DIMTP
 40
0.0
  9
$DIMTM
 40
0.0
  9
$DIMTXT
 40
0.18
  9
$DIMCEN
 40
0.09
  9
$DIMTSZ
 40
0.0
  9
$DIMTOL
 70
     0
  9
$DIMLIM
 70
     0
  9
$DIMTIH
 70
     1
  9
$DIMTOH
 70
     1
  9
$DIMSE1
 70
     0
  9
$DIMSE2
 70
     0
  9
$DIMTAD
 70
     0
  9
$DIMZIN
 70
     0
  9
$DIMBLK
  1

  9
$DIMASO
 70
     1
  9
$DIMSHO
 70
     1
  9
$DIMPOST
  1

  9
$DIMAPOST
  1

  9
$DIMALT
 70
     0
  9
$DIMALTD
 70
     2
  9
$DIMALTF
 40
25.4
  9
$DIMLFAC
 40
1.0
  9
$DIMTOFL
 70
     0
  9
$DIMTVP
 40
0.0
  9
$DIMTIX
 70
     0
  9
$DIMSOXD
 70
     0
  9
$DIMSAH
 70
     0
  9
$DIMBLK1
  1

  9
$DIMBLK2
  1

  9
$DIMSTYLE
  2
Standard
  9
$DIMCLRD
 70
     0
  9
$DIMCLRE
 70
     0
  9
$DIMCLRT
 70
     0
  9
$DIMTFAC
 40
1.0
  9
$DIMGAP
 40
0.09
  9
$DIMJUST
 70
     0
  9
$DIMSD1
 70
     0
  9
$DIMSD2
 70
     0
  9
$DIMTOLJ
 70
     1
  9
$DIMTZIN
 70
     0
  9
$DIMALTZ
 70
     0
  9
$DIMALTTZ
 70
     0
  9
$DIMUPT
 70
     0
  9
$DIMDEC
 70
     4
  9
$DIMTDEC
 70
     4
  9
$DIMALTU
 70
     2
  9
$DIMALTTD
 70
     2
  9
$DIMTXSTY
  7
Standard
  9
$DIMAUNIT
 70
     0
  9
$DIMADEC
 70
     0
  9
$DIMALTRND
 40
0.0
  9
$DIMAZIN
 70
     0
  9
$DIMDSEP
 70
    46
  9
$DIMATFIT
 70
     3
  9
$DIMFRAC
 70
     0
  9
$DIMLDRBLK
  1

  9
$DIMLUNIT
 70
     2
  9
$DIMLWD
 70
    -2
  9
$DIMLWE
 70
    -2
  9
$DIMTMOVE
 70
     0
  9
$DIMFXL
 40
1.0
  9
$DIMFXLON
 70
     0
  9
$DIMJOGANG
 40
0.7853981633974483
  9
$DIMTFILL
 70
     0
  9
$DIMTFILLCLR
 70
     0
  9
$DIMARCSYM
 70
     0
  9
$DIMLTYPE
  6

  9
$DIMLTEX1
  6

  9
$DIMLTEX2
  6

  9
$LUNITS
 70
     2
  9
$LUPREC
 70
     4
  9
$SKETCHINC
 40
0.1
  9
$FILLETRAD
 40
0.5
  9
$AUNITS
 70
     0
  9
$AUPREC
 70
     0
  9
$MENU
  1
.
  9
$ELEVATION
 40
0.0
  9
$PELEVATION
 40
0.0
  9
$THICKNESS
 40
0.0
  9
$LIMCHECK
 70
     0
  9
$CHAMFERA
 40
0.5
  9
$CHAMFERB
 40
0.5
  9
$CHAMFERC
 40
1.0
  9
$CHAMFERD
 40
0.0
  9
$SKPOLY
 70
     0
  9
$TDCREATE
 40
2455679.434129086
  9
$TDUCREATE
 40
2455679.642462419
  9
$TDUPDATE
 40
2455679.436076088
  9
$TDUUPDATE
 40
2455679.644409421
  9
$TDINDWG
 40
0.0009235532
  9
$TDUSRTIMER
 40
0.0009235532
  9
$USRTIMER
 70
     1
  9
$ANGBASE
 50
0.0
  9
$ANGDIR
 70
     0
  9
$PDMODE
 70
     0
  9
$PDSIZE
 40
0.0
  9
$PLINEWID
 40
0.0
  9
$SPLFRAME
 70
     0
  9
$SPLINETYPE
 70
     6
  9
$SPLINESEGS
 70
     8
  9
$HANDSEED
  5
2AFB
  9
$SURFTAB1
 70
     6
  9
$SURFTAB2
 70
     6
  9
$SURFTYPE
 70
     6
  9
$SURFU
 70
     6
  9
$SURFV
 70
     6
  9
$UCSBASE
  2

  9
$UCSNAME
  2

  9
$UCSORG
 10
0.0
 20
0.0
 30
0.0
  9
$UCSXDIR
 10
1.0
 20
0.0
 30
0.0
  9
$UCSYDIR
 10
0.0
 20
1.0
 30
0.0
  9
$UCSORTHOREF
  2

  9
$UCSORTHOVIEW
 70
     0
  9
$UCSORGTOP
 10
0.0
 20
0.0
 30
0.0
  9
$UCSORGBOTTOM
 10
0.0
 20
0.0
 30
0.0
  9
$UCSORGLEFT
 10
0.0
 20
0.0
 30
0.0
  9
$UCSORGRIGHT
 10
0.0
 20
0.0
 30
0.0
  9
$UCSORGFRONT
 10
0.0
 20
0.0
 30
0.0
  9
$UCSORGBACK
 10
0.0
 20
0.0
 30
0.0
  9
$PUCSBASE
  2

  9
$PUCSNAME
  2

  9
$PUCSORG
 10
0.0
 20
0.0
 30
0.0
  9
$PUCSXDIR
 10
1.0
 20
0.0
 30
0.0
  9
$PUCSYDIR
 10
0.0
 20
1.0
 30
0.0
  9
$PUCSORTHOREF
  2

  9
$PUCSORTHOVIEW
 70
     0
  9
$PUCSORGTOP
 10
0.0
 20
0.0
 30
0.0
  9
$PUCSORGBOTTOM
 10
0.0
 20
0.0
 30
0.0
  9
$PUCSORGLEFT
 10
0.0
 20
0.0
 30
0.0
  9
$PUCSORGRIGHT
 10
0.0
 20
0.0
 30
0.0
  9
$PUCSORGFRONT
 10
0.0
 20
0.0
 30
0.0
  9
$PUCSORGBACK
 10
0.0
 20
0.0
 30
0.0
  9
$USERI1
 70
     0
  9
$USERI2
 70
     0
  9
$USERI3
 70
     0
  9
$USERI4
 70
     0
  9
$USERI5
 70
     0
  9
$USERR1
 40
0.0
  9
$USERR2
 40
0.0
  9
$USERR3
 40
0.0
  9
$USERR4
 40
0.0
  9
$USERR5
 40
0.0
  9
$WORLDVIEW
 70
     1
  9
$SHADEDGE
 70
     3
  9
$SHADEDIF
 70
    70
  9
$TILEMODE
 70
     1
  9
$MAXACTVP
 70
    64
  9
$PINSBASE
 10
0.0
 20
0.0
 30
0.0
  9
$PLIMCHECK
 70
     0
  9
$PEXTMIN
 10
1.000000000000000E+20
 20
1.000000000000000E+20
 30
1.000000000000000E+20
  9
$PEXTMAX
 10
-1.000000000000000E+20
 20
-1.000000000000000E+20
 30
-1.000000000000000E+20
  9
$PLIMMIN
 10
0.0
 20
0.0
  9
$PLIMMAX
 10
12.0
 20
9.0
  9
$UNITMODE
 70
     0
  9
$VISRETAIN
 70
     1
  9
$PLINEGEN
 70
     0
  9
$PSLTSCALE
 70
     1
  9
$TREEDEPTH
 70
  3020
  9
$CMLSTYLE
  2
Standard
  9
$CMLJUST
 70
     0
  9
$CMLSCALE
 40
1.0
  9
$PROXYGRAPHICS
 70
     1
  9
$MEASUREMENT
 70
     0
  9
$CELWEIGHT
370
    -1
  9
$ENDCAPS
280
     0
  9
$JOINSTYLE
280
     0
  9
$LWDISPLAY
290
     0
  9
$INSUNITS
 70
     1
  9
$HYPERLINKBASE
  1

  9
$STYLESHEET
  1

  9
$XEDIT
290
     1
  9
$CEPSNTYPE
380
     0
  9
$PSTYLEMODE
290
     1
  9
$FINGERPRINTGUID
  2
{E643BC71-54F9-4083-819F-03C78685562A}
  9
$VERSIONGUID
  2
{D9A399D5-FF9D-4691-9EE9-1EBDAC444E23}
  9
$EXTNAMES
290
     1
  9
$PSVPSCALE
 40
0.0
  9
$OLESTARTUP
290
     0
  9
$SORTENTS
280
   127
  9
$INDEXCTL
280
     0
  9
$HIDETEXT
280
     0
  9
$XCLIPFRAME
290
     0
  9
$HALOGAP
280
     0
  9
$OBSCOLOR
 70
   257
  9
$OBSLTYPE
280
     0
  9
$INTERSECTIONDISPLAY
280
     0
  9
$INTERSECTIONCOLOR
 70
   257
  9
$DIMASSOC
280
     1
  9
$PROJECTNAME
  1

  9
$CAMERADISPLAY
290
     0
  9
$LENSLENGTH
 40
50.0
  9
$CAMERAHEIGHT
 40
0.0
  9
$STEPSPERSEC
 40
2.0
  9
$STEPSIZE
 40
6.0
  9
$3DDWFPREC
 40
2.0
  9
$PSOLWIDTH
 40
0.25
  9
$PSOLHEIGHT
 40
4.0
  9
$LOFTANG1
 40
1.570796326794896
  9
$LOFTANG2
 40
1.570796326794896
  9
$LOFTMAG1
 40
0.0
  9
$LOFTMAG2
 40
0.0
  9
$LOFTPARAM
 70
     7
  9
$LOFTNORMALS
280
     1
  9
$LATITUDE
 40
37.795
  9
$LONGITUDE
 40
-122.394
  9
$NORTHDIRECTION
 40
0.0
  9
$TIMEZONE
 70
 -8000
  9
$LIGHTGLYPHDISPLAY
280
     1
  9
$TILEMODELIGHTSYNCH
280
     1
  9
$CMATERIAL
347
2AF2
  9
$SOLIDHIST
280
     1
  9
$SHOWHIST
280
     1
  9
$DWFFRAME
280
     2
  9
$DGNFRAME
280
     0
  9
$REALWORLDSCALE
290
     1
  9
$INTERFERECOLOR
 62
     1
  9
$INTERFEREOBJVS
345
33
  9
$INTERFEREVPVS
346
30
  9
$CSHADOW
280
     0
  9
$SHADOWPLANELOCATION
 40
0.0
  0
ENDSEC
  0
SECTION
  2
CLASSES
  0
CLASS
  1
ACDBDICTIONARYWDFLT
  2
AcDbDictionaryWithDefault
  3
ObjectDBX Classes
 90
        0
 91
        1
280
     0
281
     0
  0
CLASS
  1
VISUALSTYLE
  2
AcDbVisualStyle
  3
ObjectDBX Classes
 90
     4095
 91
       16
280
     0
281
     0
  0
CLASS
  1
MATERIAL
  2
AcDbMaterial
  3
ObjectDBX Classes
 90
     1024
 91
        3
280
     0
281
     0
  0
CLASS
  1
TABLESTYLE
  2
AcDbTableStyle
  3
ObjectDBX Classes
 90
     4095
 91
        1
280
     0
281
     0
  0
CLASS
  1
DICTIONARYVAR
  2
AcDbDictionaryVar
  3
ObjectDBX Classes
 90
        0
 91
        1
280
     0
281
     0
  0
ENDSEC
  0
SECTION
  2
TABLES
  0
TABLE
  2
VPORT
  5
8
330
0
100
AcDbSymbolTable
 70
     1
  0
VPORT
  5
29
330
8
100
AcDbSymbolTableRecord
100
AcDbViewportTableRecord
  2
*Active
 70
     0
 10
0.0
 20
0.0
 11
1.0
 21
1.0
 12
-2.362396215626965
 22
1.303657553919657
 13
0.0
 23
0.0
 14
0.5
 24
0.5
 15
0.5
 25
0.5
 16
0.0
 26
0.0
 36
1.0
 17
5.5
 27
4.25
 37
0.0
 40
1.878957546812615
 41
1.984486873508353
 42
50.0
 43
0.0
 44
0.0
 50
0.0
 51
0.0
 71
     0
 72
   100
 73
     1
 74
     3
 75
     0
 76
     0
 77
     0
 78
     0
281
     0
 65
     1
110
0.0
120
0.0
130
0.0
111
1.0
121
0.0
131
0.0
112
0.0
122
1.0
132
0.0
 79
     0
146
0.0
348
2F
 60
     3
 61
     5
292
     1
282
     1
141
0.0
142
0.0
 63
   250
421
  3355443
  0
ENDTAB
  0
TABLE
  2
LTYPE
  5
5
330
0
100
AcDbSymbolTable
 70
    25
  0
LTYPE
  5
14
330
5
100
AcDbSymbolTableRecord
100
AcDbLinetypeTableRecord
  2
ByBlock
 70
     0
  3

 72
    65
 73
     0
 40
0.0
  0
LTYPE
  5
15
330
5
100
AcDbSymbolTableRecord
100
AcDbLinetypeTableRecord
  2
ByLayer
 70
     0
  3

 72
    65
 73
     0
 40
0.0
  0
LTYPE
  5
16
330
5
100
AcDbSymbolTableRecord
100
AcDbLinetypeTableRecord
  2
Continuous
 70
     0
  3
Solid line
 72
    65
 73
     0
 40
0.0
  0
LTYPE
  5
42
330
5
100
AcDbSymbolTableRecord
100
AcDbLinetypeTableRecord
  2
Dashed
 70
     0
  3
__ __ __ __ __ __ __ 
 72
    65
 73
     2
 40
0.75
 49
0.5
 74
     0
 49
-0.25
 74
     0
  0
LTYPE
  5
43
330
5
100
AcDbSymbolTableRecord
100
AcDbLinetypeTableRecord
  2
Dashed2
 70
     0
  3
_ _ _ _ _ _ _ _ _ _ 
 72
    65
 73
     2
 40
0.375
 49
0.25
 74
     0
 49
-0.125
 74
     0
  0
LTYPE
  5
44
330
5
100
AcDbSymbolTableRecord
100
AcDbLinetypeTableRecord
  2
DashedX2
 70
     0
  3
____  ____  ____  
 72
    65
 73
     2
 40
1.5
 49
1.0
 74
     0
 49
-0.5
 74
     0
  0
LTYPE
  5
45
330
5
100
AcDbSymbolTableRecord
100
AcDbLinetypeTableRecord
  2
Border
 70
     0
  3
__ __ . __ __ . __ __ . __ __ . __ __ . __ __ .
 72
    65
 73
     6
 40
1.75
 49
0.5
 74
     0
 49
-0.25
 74
     0
 49
0.5
 74
     0
 49
-0.25
 74
     0
 49
0.5
 74
     0
 49
-0.25
 74
     0
  0
LTYPE
  5
46
330
5
100
AcDbSymbolTableRecord
100
AcDbLinetypeTableRecord
  2
Border2
 70
     0
  3
__.__.__.__.__.__.__.__.
 72
    65
 73
     6
 40
0.875
 49
0.25
 74
     0
 49
-0.125
 74
     0
 49
0.25
 74
     0
 49
-0.125
 74
     0
 49
0.25
 74
     0
 49
-0.125
 74
     0
  0
LTYPE
  5
47
330
5
100
AcDbSymbolTableRecord
100
AcDbLinetypeTableRecord
  2
BORDERX2
 70
     0
  3
____  ____  .  
 72
    65
 73
     6
 40
3.5
 49
1.0
 74
     0
 49
-0.5
 74
     0
 49
1.0
 74
     0
 49
-0.5
 74
     0
 49
1.0
 74
     0
 49
-0.5
 74
     0
  0
LTYPE
  5
48
330
5
100
AcDbSymbolTableRecord
100
AcDbLinetypeTableRecord
  2
Center
 70
     0
  3
____ _ ____ _ ____ _ 
 72
    65
 73
     4
 40
2.0
 49
1.25
 74
     0
 49
-0.25
 74
     0
 49
0.25
 74
     0
 49
-0.25
 74
     0
  0
LTYPE
  5
49
330
5
100
AcDbSymbolTableRecord
100
AcDbLinetypeTableRecord
  2
Center2
 70
     0
  3
____ _ ____ _ ____ _ 
 72
    65
 73
     4
 40
1.125
 49
0.75
 74
     0
 49
-0.125
 74
     0
 49
0.125
 74
     0
 49
-0.125
 74
     0
  0
LTYPE
  5
4A
330
5
100
AcDbSymbolTableRecord
100
AcDbLinetypeTableRecord
  2
CenterX2
 70
     0
  3
________  __  
 72
    65
 73
     4
 40
4.0
 49
2.5
 74
     0
 49
-0.5
 74
     0
 49
0.5
 74
     0
 49
-0.5
 74
     0
  0
LTYPE
  5
4B
330
5
100
AcDbSymbolTableRecord
100
AcDbLinetypeTableRecord
  2
DashDot
 70
     0
  3
__ . __ . __ . __ . 
 72
    65
 73
     4
 40
1.0
 49
0.5
 74
     0
 49
-0.25
 74
     0
 49
0.0
 74
     0
 49
-0.25
 74
     0
  0
LTYPE
  5
4C
330
5
100
AcDbSymbolTableRecord
100
AcDbLinetypeTableRecord
  2
DashDot2
 70
     0
  3
_._._._._._._._._.
 72
    65
 73
     4
 40
0.5
 49
0.25
 74
     0
 49
-0.125
 74
     0
 49
0.0
 74
     0
 49
-0.125
 74
     0
  0
LTYPE
  5
4D
330
5
100
AcDbSymbolTableRecord
100
AcDbLinetypeTableRecord
  2
DashDotX2
 70
     0
  3
____  .  ____  .  
 72
    65
 73
     4
 40
2.0
 49
1.0
 74
     0
 49
-0.5
 74
     0
 49
0.0
 74
     0
 49
-0.5
 74
     0
  0
LTYPE
  5
4E
330
5
100
AcDbSymbolTableRecord
100
AcDbLinetypeTableRecord
  2
Divide
 70
     0
  3
____ . . ____ . . 
 72
    65
 73
     6
 40
1.25
 49
0.5
 74
     0
 49
-0.25
 74
     0
 49
0.0
 74
     0
 49
-0.25
 74
     0
 49
0.0
 74
     0
 49
-0.25
 74
     0
  0
LTYPE
  5
4F
330
5
100
AcDbSymbolTableRecord
100
AcDbLinetypeTableRecord
  2
Divide2
 70
     0
  3
__..__..__..__..__..
 72
    65
 73
     6
 40
0.625
 49
0.25
 74
     0
 49
-0.125
 74
     0
 49
0.0
 74
     0
 49
-0.125
 74
     0
 49
0.0
 74
     0
 49
-0.125
 74
     0
  0
LTYPE
  5
50
330
5
100
AcDbSymbolTableRecord
100
AcDbLinetypeTableRecord
  2
DivideX2
 70
     0
  3
________  .  .  
 72
    65
 73
     6
 40
2.5
 49
1.0
 74
     0
 49
-0.5
 74
     0
 49
0.0
 74
     0
 49
-0.5
 74
     0
 49
0.0
 74
     0
 49
-0.5
 74
     0
  0
LTYPE
  5
51
330
5
100
AcDbSymbolTableRecord
100
AcDbLinetypeTableRecord
  2
Dot
 70
     0
  3
. . . . . . . . . 
 72
    65
 73
     2
 40
0.25
 49
0.0
 74
     0
 49
-0.25
 74
     0
  0
LTYPE
  5
52
330
5
100
AcDbSymbolTableRecord
100
AcDbLinetypeTableRecord
  2
Dot2
 70
     0
  3
..................
 72
    65
 73
     2
 40
0.125
 49
0.0
 74
     0
 49
-0.125
 74
     0
  0
LTYPE
  5
53
330
5
100
AcDbSymbolTableRecord
100
AcDbLinetypeTableRecord
  2
DotX2
 70
     0
  3
.  .  .  .  .  .  
 72
    65
 73
     2
 40
0.5
 49
0.0
 74
     0
 49
-0.5
 74
     0
  0
LTYPE
  5
54
330
5
100
AcDbSymbolTableRecord
100
AcDbLinetypeTableRecord
  2
Hidden
 70
     0
  3
__ __ __ __ __ __ 
 72
    65
 73
     2
 40
0.375
 49
0.25
 74
     0
 49
-0.125
 74
     0
  0
LTYPE
  5
55
330
5
100
AcDbSymbolTableRecord
100
AcDbLinetypeTableRecord
  2
Hidden2
 70
     0
  3
_ _ _ _ _ _ _ _ _ 
 72
    65
 73
     2
 40
0.1875
 49
0.125
 74
     0
 49
-0.0625
 74
     0
  0
LTYPE
  5
56
330
5
100
AcDbSymbolTableRecord
100
AcDbLinetypeTableRecord
  2
HiddenX2
 70
     0
  3
____ ____ ____ ____ 
 72
    65
 73
     2
 40
0.75
 49
0.5
 74
     0
 49
-0.25
 74
     0
  0
LTYPE
  5
57
330
5
100
AcDbSymbolTableRecord
100
AcDbLinetypeTableRecord
  2
Phantom
 70
     0
  3
______  __  __  
 72
    65
 73
     6
 40
2.5
 49
1.25
 74
     0
 49
-0.25
 74
     0
 49
0.25
 74
     0
 49
-0.25
 74
     0
 49
0.25
 74
     0
 49
-0.25
 74
     0
  0
LTYPE
  5
58
330
5
100
AcDbSymbolTableRecord
100
AcDbLinetypeTableRecord
  2
Phantom2
 70
     0
  3
___ _ _ ___ _ _ 
 72
    65
 73
     6
 40
1.25
 49
0.625
 74
     0
 49
-0.125
 74
     0
 49
0.125
 74
     0
 49
-0.125
 74
     0
 49
0.125
 74
     0
 49
-0.125
 74
     0
  0
LTYPE
  5
59
330
5
100
AcDbSymbolTableRecord
100
AcDbLinetypeTableRecord
  2
PhantomX2
 70
     0
  3
___ _ _ ___ _ _ 
 72
    65
 73
     6
 40
5.0
 49
2.5
 74
     0
 49
-0.5
 74
     0
 49
0.5
 74
     0
 49
-0.5
 74
     0
 49
0.5
 74
     0
 49
-0.5
 74
     0
  0
ENDTAB
  0
TABLE
  2
LAYER
  5
2
330
0
100
AcDbSymbolTable
 70
     8
  0
LAYER
  5
10
330
2
100
AcDbSymbolTableRecord
100
AcDbLayerTableRecord
  2
0
 70
     0
 62
     7
  6
Continuous
370
    -3
390
F
347
2AF4
  0
LAYER
  5
3B
330
2
100
AcDbSymbolTableRecord
100
AcDbLayerTableRecord
  2
1
 70
     0
 62
     7
  6
Continuous
370
    -3
390
F
347
2AF4
  0
LAYER
  5
3C
330
2
100
AcDbSymbolTableRecord
100
AcDbLayerTableRecord
  2
2
 70
     0
 62
     7
  6
Continuous
370
    -3
390
F
347
2AF4
  0
LAYER
  5
3D
330
2
100
AcDbSymbolTableRecord
100
AcDbLayerTableRecord
  2
3
 70
     0
 62
     7
  6
Continuous
370
    -3
390
F
347
2AF4
  0
LAYER
  5
3E
330
2
100
AcDbSymbolTableRecord
100
AcDbLayerTableRecord
  2
4
 70
     0
 62
     7
  6
Continuous
370
    -3
390
F
347
2AF4
  0
LAYER
  5
3F
330
2
100
AcDbSymbolTableRecord
100
AcDbLayerTableRecord
  2
5
 70
     0
 62
     7
  6
Continuous
370
    -3
390
F
347
2AF4
  0
LAYER
  5
40
330
2
100
AcDbSymbolTableRecord
100
AcDbLayerTableRecord
  2
6
 70
     0
 62
     7
  6
Continuous
370
    -3
390
F
347
2AF4
  0
LAYER
  5
41
330
2
100
AcDbSymbolTableRecord
100
AcDbLayerTableRecord
  2
7
 70
     0
 62
     7
  6
Continuous
370
    -3
390
F
347
2AF4
  0
ENDTAB
  0
TABLE
  2
STYLE
  5
3
330
0
100
AcDbSymbolTable
 70
     1
  0
STYLE
  5
11
330
3
100
AcDbSymbolTableRecord
100
AcDbTextStyleTableRecord
  2
Standard
 70
     0
 40
0.0
 41
1.0
 50
0.0
 71
     0
 42
0.2
  3
txt
  4

  0
ENDTAB
  0
TABLE
  2
VIEW
  5
6
330
0
100
AcDbSymbolTable
 70
     0
  0
ENDTAB
  0
TABLE
  2
UCS
  5
7
330
0
100
AcDbSymbolTable
 70
     0
  0
ENDTAB
  0
TABLE
  2
APPID
  5
9
330
0
100
AcDbSymbolTable
 70
     1
  0
APPID
  5
12
330
9
100
AcDbSymbolTableRecord
100
AcDbRegAppTableRecord
  2
ACAD
 70
     0
  0
ENDTAB
  0
TABLE
  2
DIMSTYLE
  5
A
330
0
100
AcDbSymbolTable
 70
     1
100
AcDbDimStyleTable
 71
     0
  0
DIMSTYLE
105
27
330
A
100
AcDbSymbolTableRecord
100
AcDbDimStyleTableRecord
  2
Standard
 70
     0
340
11
  0
ENDTAB
  0
TABLE
  2
BLOCK_RECORD
  5
1
330
0
100
AcDbSymbolTable
 70
     1
  0
BLOCK_RECORD
  5
1F
330
1
100
AcDbSymbolTableRecord
100
AcDbBlockTableRecord
  2
*Model_Space
340
22
 70
     0
280
     1
281
     0
  0
BLOCK_RECORD
  5
1B
330
1
100
AcDbSymbolTableRecord
100
AcDbBlockTableRecord
  2
*Paper_Space
340
1E
 70
     0
280
     1
281
     0
  0
BLOCK_RECORD
  5
23
330
1
100
AcDbSymbolTableRecord
100
AcDbBlockTableRecord
  2
*Paper_Space0
340
26
 70
     0
280
     1
281
     0
  0
ENDTAB
  0
ENDSEC
  0
SECTION
  2
BLOCKS
  0
BLOCK
  5
20
330
1F
100
AcDbEntity
  8
0
100
AcDbBlockBegin
  2
*Model_Space
 70
     0
 10
0.0
 20
0.0
 30
0.0
  3
*Model_Space
  1

  0
ENDBLK
  5
21
330
1F
100
AcDbEntity
  8
0
100
AcDbBlockEnd
  0
BLOCK
  5
1C
330
1B
100
AcDbEntity
 67
     1
  8
0
100
AcDbBlockBegin
  2
*Paper_Space
 70
     0
 10
0.0
 20
0.0
 30
0.0
  3
*Paper_Space
  1

  0
ENDBLK
  5
1D
330
1B
100
AcDbEntity
 67
     1
  8
0
100
AcDbBlockEnd
  0
BLOCK
  5
24
330
23
100
AcDbEntity
 67
     1
  8
0
100
AcDbBlockBegin
  2
*Paper_Space0
 70
     0
 10
0.0
 20
0.0
 30
0.0
  3
*Paper_Space0
  1

  0
ENDBLK
  5
25
330
23
100
AcDbEntity
 67
     1
  8
0
100
AcDbBlockEnd
  0
ENDSEC
  0
SECTION
  2
ENTITIES
  0
LINE
  5
24C2
330
1F
100
AcDbEntity
  8
1
100
AcDbLine
 10
1.784448818897637
 20
4.691929133858267
 30
0.0
 11
1.599409448818897
 21
4.691929133858267
 31
0.0
  0
LINE
  5
24C3
330
1F
100
AcDbEntity
  8
1
100
AcDbLine
 10
1.943897637795275
 20
4.691929133858267
 30
0.0
 11
1.910433070866141
 21
4.691929133858267
 31
0.0
  0
LINE
  5
24C4
330
1F
100
AcDbEntity
  8
1
100
AcDbLine
 10
2.100393700787401
 20
4.691929133858267
 30
0.0
 11
2.133858267716535
 21
4.691929133858267
 31
0.0
  0
LINE
  5
24C5
330
1F
100
AcDbEntity
  8
1
100
AcDbLine
 10
2.438976377952756
 20
4.697834645669291
 30
0.0
 11
1.605314960629921
 21
4.697834645669291
 31
0.0
  0
LINE
  5
24C6
330
1F
100
AcDbEntity
  8
1
100
AcDbLine
 10
1.605314960629921
 20
4.697834645669291
 30
0.0
 11
1.599409448818897
 21
4.691929133858267
 31
0.0
  0
LINE
  5
24C7
330
1F
100
AcDbEntity
  8
1
100
AcDbLine
 10
1.784448818897637
 20
4.691929133858267
 30
0.0
 11
1.910433070866141
 21
4.691929133858267
 31
0.0
  0
LINE
  5
24C8
330
1F
100
AcDbEntity
  8
1
100
AcDbLine
 10
1.947834645669291
 20
4.687007874015748
 30
0.0
 11
1.943897637795275
 21
4.691929133858267
 31
0.0
  0
LINE
  5
24C9
330
1F
100
AcDbEntity
  8
1
100
AcDbLine
 10
2.095472440944881
 20
4.687007874015748
 30
0.0
 11
1.947834645669291
 21
4.687007874015748
 31
0.0
  0
LINE
  5
24CA
330
1F
100
AcDbEntity
  8
1
100
AcDbLine
 10
2.095472440944881
 20
4.687007874015748
 30
0.0
 11
2.100393700787401
 21
4.691929133858267
 31
0.0
  0
LINE
  5
24CB
330
1F
100
AcDbEntity
  8
1
100
AcDbLine
 10
2.259842519685039
 20
4.691929133858267
 30
0.0
 11
2.133858267716535
 21
4.691929133858267
 31
0.0
  0
LINE
  5
24CC
330
1F
100
AcDbEntity
  8
1
100
AcDbLine
 10
2.259842519685039
 20
4.691929133858267
 30
0.0
 11
2.444881889763779
 21
4.691929133858267
 31
0.0
  0
LINE
  5
24CD
330
1F
100
AcDbEntity
  8
1
100
AcDbLine
 10
2.444881889763779
 20
4.691929133858267
 30
0.0
 11
2.438976377952756
 21
4.697834645669291
 31
0.0
  0
LINE
  5
24CE
330
1F
100
AcDbEntity
  8
1
100
AcDbLine
 10
1.784448818897637
 20
6.415354330708661
 30
0.0
 11
1.599409448818897
 21
6.415354330708661
 31
0.0
  0
LINE
  5
24CF
330
1F
100
AcDbEntity
  8
1
100
AcDbLine
 10
1.599409448818897
 20
6.415354330708661
 30
0.0
 11
1.605314960629921
 21
6.409448818897637
 31
0.0
  0
LINE
  5
24D0
330
1F
100
AcDbEntity
  8
1
100
AcDbLine
 10
1.605314960629921
 20
6.409448818897637
 30
0.0
 11
2.438976377952756
 21
6.409448818897637
 31
0.0
  0
LINE
  5
24D1
330
1F
100
AcDbEntity
  8
1
100
AcDbLine
 10
2.438976377952756
 20
6.409448818897637
 30
0.0
 11
2.444881889763779
 21
6.415354330708661
 31
0.0
  0
LINE
  5
24D2
330
1F
100
AcDbEntity
  8
1
100
AcDbLine
 10
2.259842519685039
 20
6.415354330708661
 30
0.0
 11
2.444881889763779
 21
6.415354330708661
 31
0.0
  0
LINE
  5
24D3
330
1F
100
AcDbEntity
  8
1
100
AcDbLine
 10
2.259842519685039
 20
6.415354330708661
 30
0.0
 11
2.133858267716535
 21
6.415354330708661
 31
0.0
  0
LINE
  5
24D4
330
1F
100
AcDbEntity
  8
1
100
AcDbLine
 10
2.100393700787401
 20
6.415354330708661
 30
0.0
 11
2.133858267716535
 21
6.415354330708661
 31
0.0
  0
LINE
  5
24D5
330
1F
100
AcDbEntity
  8
1
100
AcDbLine
 10
2.095472440944881
 20
6.42027559055118
 30
0.0
 11
2.100393700787401
 21
6.415354330708661
 31
0.0
  0
LINE
  5
24D6
330
1F
100
AcDbEntity
  8
1
100
AcDbLine
 10
2.095472440944881
 20
6.42027559055118
 30
0.0
 11
1.947834645669291
 21
6.42027559055118
 31
0.0
  0
LINE
  5
24D7
330
1F
100
AcDbEntity
  8
1
100
AcDbLine
 10
1.947834645669291
 20
6.42027559055118
 30
0.0
 11
1.943897637795275
 21
6.415354330708661
 31
0.0
  0
LINE
  5
24D8
330
1F
100
AcDbEntity
  8
1
100
AcDbLine
 10
1.943897637795275
 20
6.415354330708661
 30
0.0
 11
1.910433070866141
 21
6.415354330708661
 31
0.0
  0
LINE
  5
24D9
330
1F
100
AcDbEntity
  8
1
100
AcDbLine
 10
1.784448818897637
 20
6.415354330708661
 30
0.0
 11
1.910433070866141
 21
6.415354330708661
 31
0.0
  0
LINE
  5
24DA
330
1F
100
AcDbEntity
  8
1
100
AcDbLine
 10
2.452755905511811
 20
5.810039370078739
 30
0.0
 11
2.452755905511811
 21
6.407480314960629
 31
0.0
  0
LINE
  5
24DB
330
1F
100
AcDbEntity
  8
1
100
AcDbLine
 10
2.452755905511811
 20
6.407480314960629
 30
0.0
 11
2.446850393700787
 21
6.401574803149606
 31
0.0
  0
LINE
  5
24DC
330
1F
100
AcDbEntity
  8
1
100
AcDbLine
 10
2.446850393700787
 20
6.401574803149606
 30
0.0
 11
2.446850393700787
 21
6.340551181102362
 31
0.0
  0
POLYLINE
  5
24DD
330
1F
100
AcDbEntity
  8
1
100
AcDb2dPolyline
 66
     1
 10
0.0
 20
0.0
 30
0.0
  0
VERTEX
  5
24DE
330
24DD
100
AcDbEntity
  8
1
100
AcDbVertex
100
AcDb2dVertex
 10
2.446850393700787
 20
6.340551181102362
 30
0.0
  0
VERTEX
  5
24DF
330
24DD
100
AcDbEntity
  8
1
100
AcDbVertex
100
AcDb2dVertex
 10
2.446850393700787
 20
6.298228346456692
 30
0.0
  0
VERTEX
  5
24E0
330
24DD
100
AcDbEntity
  8
1
100
AcDbVertex
100
AcDb2dVertex
 10
2.446850393700787
 20
6.254921259842519
 30
0.0
  0
SEQEND
  5
24E1
330
24DD
100
AcDbEntity
  8
1
  0
LINE
  5
24E2
330
1F
100
AcDbEntity
  8
1
100
AcDbLine
 10
2.446850393700787
 20
6.254921259842519
 30
0.0
 11
2.446850393700787
 21
4.852362204724409
 31
0.0
  0
POLYLINE
  5
24E3
330
1F
100
AcDbEntity
  8
1
100
AcDb2dPolyline
 66
     1
 10
0.0
 20
0.0
 30
0.0
  0
VERTEX
  5
24E4
330
24E3
100
AcDbEntity
  8
1
100
AcDbVertex
100
AcDb2dVertex
 10
2.446850393700787
 20
4.852362204724409
 30
0.0
  0
VERTEX
  5
24E5
330
24E3
100
AcDbEntity
  8
1
100
AcDbVertex
100
AcDb2dVertex
 10
2.446850393700787
 20
4.809055118110236
 30
0.0
  0
VERTEX
  5
24E6
330
24E3
100
AcDbEntity
  8
1
100
AcDbVertex
100
AcDb2dVertex
 10
2.446850393700787
 20
4.765748031496062
 30
0.0
  0
SEQEND
  5
24E7
330
24E3
100
AcDbEntity
  8
1
  0
LINE
  5
24E8
330
1F
100
AcDbEntity
  8
1
100
AcDbLine
 10
2.446850393700787
 20
4.765748031496062
 30
0.0
 11
2.446850393700787
 21
4.705708661417323
 31
0.0
  0
LINE
  5
24E9
330
1F
100
AcDbEntity
  8
1
100
AcDbLine
 10
2.446850393700787
 20
4.705708661417323
 30
0.0
 11
2.452755905511811
 21
4.699803149606299
 31
0.0
  0
LINE
  5
24EA
330
1F
100
AcDbEntity
  8
1
100
AcDbLine
 10
2.452755905511811
 20
4.699803149606299
 30
0.0
 11
2.452755905511811
 21
4.943897637795275
 31
0.0
  0
LINE
  5
24EB
330
1F
100
AcDbEntity
  8
1
100
AcDbLine
 10
2.448818897637795
 20
4.947834645669291
 30
0.0
 11
2.452755905511811
 21
4.943897637795275
 31
0.0
  0
POLYLINE
  5
24EC
330
1F
100
AcDbEntity
  8
1
100
AcDb2dPolyline
 66
     1
 10
0.0
 20
0.0
 30
0.0
  0
VERTEX
  5
24ED
330
24EC
100
AcDbEntity
  8
1
100
AcDbVertex
100
AcDb2dVertex
 10
2.448818897637795
 20
4.947834645669291
 30
0.0
  0
VERTEX
  5
24EE
330
24EC
100
AcDbEntity
  8
1
100
AcDbVertex
100
AcDb2dVertex
 10
2.448818897637795
 20
4.949803149606299
 30
0.0
  0
VERTEX
  5
24EF
330
24EC
100
AcDbEntity
  8
1
100
AcDbVertex
100
AcDb2dVertex
 10
2.448818897637795
 20
4.955708661417323
 30
0.0
  0
SEQEND
  5
24F0
330
24EC
100
AcDbEntity
  8
1
  0
LINE
  5
24F1
330
1F
100
AcDbEntity
  8
1
100
AcDbLine
 10
2.448818897637795
 20
5.798228346456692
 30
0.0
 11
2.448818897637795
 21
4.955708661417323
 31
0.0
  0
POLYLINE
  5
24F2
330
1F
100
AcDbEntity
  8
1
100
AcDb2dPolyline
 66
     1
 10
0.0
 20
0.0
 30
0.0
  0
VERTEX
  5
24F3
330
24F2
100
AcDbEntity
  8
1
100
AcDbVertex
100
AcDb2dVertex
 10
2.448818897637795
 20
5.798228346456692
 30
0.0
  0
VERTEX
  5
24F4
330
24F2
100
AcDbEntity
  8
1
100
AcDbVertex
100
AcDb2dVertex
 10
2.448818897637795
 20
5.804133858267716
 30
0.0
  0
VERTEX
  5
24F5
330
24F2
100
AcDbEntity
  8
1
100
AcDbVertex
100
AcDb2dVertex
 10
2.448818897637795
 20
5.806102362204724
 30
0.0
  0
SEQEND
  5
24F6
330
24F2
100
AcDbEntity
  8
1
  0
LINE
  5
24F7
330
1F
100
AcDbEntity
  8
1
100
AcDbLine
 10
2.452755905511811
 20
5.810039370078739
 30
0.0
 11
2.448818897637795
 21
5.806102362204724
 31
0.0
  0
LINE
  5
24F8
330
1F
100
AcDbEntity
  8
1
100
AcDbLine
 10
1.597440944881889
 20
6.340551181102362
 30
0.0
 11
1.597440944881889
 21
6.401574803149606
 31
0.0
  0
LINE
  5
24F9
330
1F
100
AcDbEntity
  8
1
100
AcDbLine
 10
1.597440944881889
 20
6.401574803149606
 30
0.0
 11
1.591535433070866
 21
6.407480314960629
 31
0.0
  0
LINE
  5
24FA
330
1F
100
AcDbEntity
  8
1
100
AcDbLine
 10
1.591535433070866
 20
6.407480314960629
 30
0.0
 11
1.591535433070866
 21
5.810039370078739
 31
0.0
  0
LINE
  5
24FB
330
1F
100
AcDbEntity
  8
1
100
AcDbLine
 10
1.594488188976377
 20
5.806102362204724
 30
0.0
 11
1.591535433070866
 21
5.810039370078739
 31
0.0
  0
POLYLINE
  5
24FC
330
1F
100
AcDbEntity
  8
1
100
AcDb2dPolyline
 66
     1
 10
0.0
 20
0.0
 30
0.0
  0
VERTEX
  5
24FD
330
24FC
100
AcDbEntity
  8
1
100
AcDbVertex
100
AcDb2dVertex
 10
1.594488188976377
 20
5.806102362204724
 30
0.0
  0
VERTEX
  5
24FE
330
24FC
100
AcDbEntity
  8
1
100
AcDbVertex
100
AcDb2dVertex
 10
1.594488188976377
 20
5.804133858267716
 30
0.0
  0
VERTEX
  5
24FF
330
24FC
100
AcDbEntity
  8
1
100
AcDbVertex
100
AcDb2dVertex
 10
1.594488188976377
 20
5.798228346456692
 30
0.0
  0
SEQEND
  5
2500
330
24FC
100
AcDbEntity
  8
1
  0
LINE
  5
2501
330
1F
100
AcDbEntity
  8
1
100
AcDbLine
 10
1.594488188976377
 20
5.798228346456692
 30
0.0
 11
1.594488188976377
 21
4.955708661417323
 31
0.0
  0
POLYLINE
  5
2502
330
1F
100
AcDbEntity
  8
1
100
AcDb2dPolyline
 66
     1
 10
0.0
 20
0.0
 30
0.0
  0
VERTEX
  5
2503
330
2502
100
AcDbEntity
  8
1
100
AcDbVertex
100
AcDb2dVertex
 10
1.594488188976377
 20
4.955708661417323
 30
0.0
  0
VERTEX
  5
2504
330
2502
100
AcDbEntity
  8
1
100
AcDbVertex
100
AcDb2dVertex
 10
1.594488188976377
 20
4.949803149606299
 30
0.0
  0
VERTEX
  5
2505
330
2502
100
AcDbEntity
  8
1
100
AcDbVertex
100
AcDb2dVertex
 10
1.594488188976377
 20
4.947834645669291
 30
0.0
  0
SEQEND
  5
2506
330
2502
100
AcDbEntity
  8
1
  0
LINE
  5
2507
330
1F
100
AcDbEntity
  8
1
100
AcDbLine
 10
1.591535433070866
 20
4.943897637795275
 30
0.0
 11
1.594488188976377
 21
4.947834645669291
 31
0.0
  0
LINE
  5
2508
330
1F
100
AcDbEntity
  8
1
100
AcDbLine
 10
1.591535433070866
 20
4.943897637795275
 30
0.0
 11
1.591535433070866
 21
4.699803149606299
 31
0.0
  0
LINE
  5
2509
330
1F
100
AcDbEntity
  8
1
100
AcDbLine
 10
1.591535433070866
 20
4.699803149606299
 30
0.0
 11
1.597440944881889
 21
4.705708661417323
 31
0.0
  0
LINE
  5
250A
330
1F
100
AcDbEntity
  8
1
100
AcDbLine
 10
1.597440944881889
 20
4.705708661417323
 30
0.0
 11
1.597440944881889
 21
4.765748031496062
 31
0.0
  0
POLYLINE
  5
250B
330
1F
100
AcDbEntity
  8
1
100
AcDb2dPolyline
 66
     1
 10
0.0
 20
0.0
 30
0.0
  0
VERTEX
  5
250C
330
250B
100
AcDbEntity
  8
1
100
AcDbVertex
100
AcDb2dVertex
 10
1.597440944881889
 20
4.765748031496062
 30
0.0
  0
VERTEX
  5
250D
330
250B
100
AcDbEntity
  8
1
100
AcDbVertex
100
AcDb2dVertex
 10
1.597440944881889
 20
4.809055118110236
 30
0.0
  0
VERTEX
  5
250E
330
250B
100
AcDbEntity
  8
1
100
AcDbVertex
100
AcDb2dVertex
 10
1.597440944881889
 20
4.852362204724409
 30
0.0
  0
SEQEND
  5
250F
330
250B
100
AcDbEntity
  8
1
  0
LINE
  5
2510
330
1F
100
AcDbEntity
  8
1
100
AcDbLine
 10
1.597440944881889
 20
4.852362204724409
 30
0.0
 11
1.597440944881889
 21
6.254921259842519
 31
0.0
  0
POLYLINE
  5
2511
330
1F
100
AcDbEntity
  8
1
100
AcDb2dPolyline
 66
     1
 10
0.0
 20
0.0
 30
0.0
  0
VERTEX
  5
2512
330
2511
100
AcDbEntity
  8
1
100
AcDbVertex
100
AcDb2dVertex
 10
1.597440944881889
 20
6.254921259842519
 30
0.0
  0
VERTEX
  5
2513
330
2511
100
AcDbEntity
  8
1
100
AcDbVertex
100
AcDb2dVertex
 10
1.597440944881889
 20
6.298228346456692
 30
0.0
  0
VERTEX
  5
2514
330
2511
100
AcDbEntity
  8
1
100
AcDbVertex
100
AcDb2dVertex
 10
1.597440944881889
 20
6.340551181102362
 30
0.0
  0
SEQEND
  5
2515
330
2511
100
AcDbEntity
  8
1
  0
LINE
  5
2516
330
1F
100
AcDbEntity
  8
1
100
AcDbLine
 10
1.728346456692913
 20
4.992125984251968
 30
0.0
 11
1.728346456692913
 21
5.63779527559055
 31
0.0
  0
LINE
  5
2517
330
1F
100
AcDbEntity
  8
1
100
AcDbLine
 10
2.323818897637795
 20
5.63779527559055
 30
0.0
 11
1.728346456692913
 21
5.63779527559055
 31
0.0
  0
LINE
  5
2518
330
1F
100
AcDbEntity
  8
1
100
AcDbLine
 10
2.323818897637795
 20
5.63779527559055
 30
0.0
 11
2.323818897637795
 21
4.992125984251968
 31
0.0
  0
LINE
  5
2519
330
1F
100
AcDbEntity
  8
1
100
AcDbLine
 10
2.323818897637795
 20
4.992125984251968
 30
0.0
 11
1.728346456692913
 21
4.992125984251968
 31
0.0
  0
LINE
  5
251A
330
1F
100
AcDbEntity
  8
1
100
AcDbLine
 10
1.605314960629921
 20
4.852362204724409
 30
0.0
 11
2.438976377952756
 21
4.852362204724409
 31
0.0
  0
LINE
  5
251B
330
1F
100
AcDbEntity
  8
1
100
AcDbLine
 10
2.438976377952756
 20
4.852362204724409
 30
0.0
 11
2.438976377952756
 21
6.254921259842519
 31
0.0
  0
LINE
  5
251C
330
1F
100
AcDbEntity
  8
1
100
AcDbLine
 10
2.438976377952756
 20
6.254921259842519
 30
0.0
 11
1.605314960629921
 21
6.254921259842519
 31
0.0
  0
LINE
  5
251D
330
1F
100
AcDbEntity
  8
1
100
AcDbLine
 10
1.605314960629921
 20
6.254921259842519
 30
0.0
 11
1.605314960629921
 21
4.852362204724409
 31
0.0
  0
LINE
  5
251E
330
1F
100
AcDbEntity
  8
1
100
AcDbLine
 10
1.730314960629921
 20
5.858267716535433
 30
0.0
 11
2.312992125984251
 21
5.858267716535433
 31
0.0
  0
LINE
  5
251F
330
1F
100
AcDbEntity
  8
1
100
AcDbLine
 10
1.730314960629921
 20
6.253937007874015
 30
0.0
 11
1.730314960629921
 21
5.858267716535433
 31
0.0
  0
LINE
  5
2520
330
1F
100
AcDbEntity
  8
1
100
AcDbLine
 10
2.312992125984251
 20
6.253937007874015
 30
0.0
 11
1.730314960629921
 21
6.253937007874015
 31
0.0
  0
LINE
  5
2521
330
1F
100
AcDbEntity
  8
1
100
AcDbLine
 10
2.312992125984251
 20
5.858267716535433
 30
0.0
 11
2.312992125984251
 21
6.253937007874015
 31
0.0
  0
LINE
  5
2522
330
1F
100
AcDbEntity
  8
1
100
AcDbLine
 10
2.312992125984251
 20
5.859251968503937
 30
0.0
 11
2.312007874015748
 21
5.859251968503937
 31
0.0
  0
LINE
  5
2523
330
1F
100
AcDbEntity
  8
1
100
AcDbLine
 10
1.731299212598425
 20
5.859251968503937
 30
0.0
 11
1.732283464566929
 21
5.859251968503937
 31
0.0
  0
LINE
  5
2524
330
1F
100
AcDbEntity
  8
1
100
AcDbLine
 10
2.312992125984251
 20
6.252952755905512
 30
0.0
 11
2.312007874015748
 21
6.252952755905512
 31
0.0
  0
LINE
  5
2525
330
1F
100
AcDbEntity
  8
1
100
AcDbLine
 10
2.312992125984251
 20
6.252952755905512
 30
0.0
 11
2.312992125984251
 21
6.253937007874015
 31
0.0
  0
LINE
  5
2526
330
1F
100
AcDbEntity
  8
1
100
AcDbLine
 10
1.731299212598425
 20
6.252952755905512
 30
0.0
 11
1.730314960629921
 21
6.253937007874015
 31
0.0
  0
LINE
  5
2527
330
1F
100
AcDbEntity
  8
1
100
AcDbLine
 10
1.731299212598425
 20
6.252952755905512
 30
0.0
 11
1.732283464566929
 21
6.252952755905512
 31
0.0
  0
LINE
  5
2528
330
1F
100
AcDbEntity
  8
1
100
AcDbLine
 10
2.312007874015748
 20
6.252952755905512
 30
0.0
 11
1.732283464566929
 21
6.252952755905512
 31
0.0
  0
LINE
  5
2529
330
1F
100
AcDbEntity
  8
1
100
AcDbLine
 10
1.731299212598425
 20
5.859251968503937
 30
0.0
 11
1.730314960629921
 21
5.858267716535433
 31
0.0
  0
LINE
  5
252A
330
1F
100
AcDbEntity
  8
1
100
AcDbLine
 10
2.312992125984251
 20
5.859251968503937
 30
0.0
 11
2.312992125984251
 21
5.858267716535433
 31
0.0
  0
LINE
  5
252B
330
1F
100
AcDbEntity
  8
1
100
AcDbLine
 10
1.732283464566929
 20
5.859251968503937
 30
0.0
 11
2.312007874015748
 21
5.859251968503937
 31
0.0
  0
LINE
  5
252C
330
1F
100
AcDbEntity
  8
1
100
AcDbLine
 10
1.732283464566929
 20
5.859251968503937
 30
0.0
 11
1.732283464566929
 21
6.252952755905512
 31
0.0
  0
LINE
  5
252D
330
1F
100
AcDbEntity
  8
1
100
AcDbLine
 10
2.312007874015748
 20
5.859251968503937
 30
0.0
 11
2.312007874015748
 21
6.252952755905512
 31
0.0
  0
LINE
  5
252E
330
1F
100
AcDbEntity
  8
1
100
AcDbLine
 10
1.731299212598425
 20
6.252952755905512
 30
0.0
 11
1.731299212598425
 21
5.859251968503937
 31
0.0
  0
LINE
  5
252F
330
1F
100
AcDbEntity
  8
1
100
AcDbLine
 10
2.312992125984251
 20
5.859251968503937
 30
0.0
 11
2.312992125984251
 21
6.252952755905512
 31
0.0
  0
LINE
  5
2530
330
1F
100
AcDbEntity
  8
1
100
AcDbLine
 10
2.251968503937007
 20
4.628937007874015
 30
0.0
 11
2.251968503937007
 21
4.684055118110236
 31
0.0
  0
LINE
  5
2531
330
1F
100
AcDbEntity
  8
1
100
AcDbLine
 10
2.149606299212598
 20
4.621062992125984
 30
0.0
 11
2.244094488188976
 21
4.621062992125984
 31
0.0
  0
LINE
  5
2532
330
1F
100
AcDbEntity
  8
1
100
AcDbLine
 10
1.792322834645669
 20
4.628937007874015
 30
0.0
 11
1.792322834645669
 21
4.684055118110236
 31
0.0
  0
LINE
  5
2533
330
1F
100
AcDbEntity
  8
1
100
AcDbLine
 10
1.894685039370078
 20
4.621062992125984
 30
0.0
 11
1.8001968503937
 21
4.621062992125984
 31
0.0
  0
LINE
  5
2534
330
1F
100
AcDbEntity
  8
1
100
AcDbLine
 10
2.08759842519685
 20
4.625
 30
0.0
 11
1.955708661417322
 21
4.625
 31
0.0
  0
POLYLINE
  5
2535
330
1F
100
AcDbEntity
  8
1
100
AcDb2dPolyline
 66
     1
 10
0.0
 20
0.0
 30
0.0
  0
VERTEX
  5
2536
330
2535
100
AcDbEntity
  8
1
100
AcDbVertex
100
AcDb2dVertex
 10
2.08759842519685
 20
4.625
 30
0.0
  0
VERTEX
  5
2537
330
2535
100
AcDbEntity
  8
1
100
AcDbVertex
100
AcDb2dVertex
 10
2.093503937007874
 20
4.626968503937007
 30
0.0
  0
VERTEX
  5
2538
330
2535
100
AcDbEntity
  8
1
100
AcDbVertex
100
AcDb2dVertex
 10
2.095472440944881
 20
4.632874015748031
 30
0.0
  0
SEQEND
  5
2539
330
2535
100
AcDbEntity
  8
1
  0
LINE
  5
253A
330
1F
100
AcDbEntity
  8
1
100
AcDbLine
 10
2.095472440944881
 20
4.632874015748031
 30
0.0
 11
2.095472440944881
 21
4.687007874015748
 31
0.0
  0
LINE
  5
253B
330
1F
100
AcDbEntity
  8
1
100
AcDbLine
 10
1.947834645669291
 20
4.632874015748031
 30
0.0
 11
1.947834645669291
 21
4.687007874015748
 31
0.0
  0
POLYLINE
  5
253C
330
1F
100
AcDbEntity
  8
1
100
AcDb2dPolyline
 66
     1
 10
0.0
 20
0.0
 30
0.0
  0
VERTEX
  5
253D
330
253C
100
AcDbEntity
  8
1
100
AcDbVertex
100
AcDb2dVertex
 10
1.947834645669291
 20
4.632874015748031
 30
0.0
  0
VERTEX
  5
253E
330
253C
100
AcDbEntity
  8
1
100
AcDbVertex
100
AcDb2dVertex
 10
1.950787401574802
 20
4.626968503937007
 30
0.0
  0
VERTEX
  5
253F
330
253C
100
AcDbEntity
  8
1
100
AcDbVertex
100
AcDb2dVertex
 10
1.955708661417322
 20
4.625
 30
0.0
  0
SEQEND
  5
2540
330
253C
100
AcDbEntity
  8
1
  0
LINE
  5
2541
330
1F
100
AcDbEntity
  8
1
100
AcDbLine
 10
2.251968503937007
 20
6.478346456692912
 30
0.0
 11
2.251968503937007
 21
6.423228346456692
 31
0.0
  0
LINE
  5
2542
330
1F
100
AcDbEntity
  8
1
100
AcDbLine
 10
2.149606299212598
 20
6.486220472440944
 30
0.0
 11
2.244094488188976
 21
6.486220472440944
 31
0.0
  0
LINE
  5
2543
330
1F
100
AcDbEntity
  8
1
100
AcDbLine
 10
1.792322834645669
 20
6.478346456692912
 30
0.0
 11
1.792322834645669
 21
6.423228346456692
 31
0.0
  0
LINE
  5
2544
330
1F
100
AcDbEntity
  8
1
100
AcDbLine
 10
1.894685039370078
 20
6.486220472440944
 30
0.0
 11
1.8001968503937
 21
6.486220472440944
 31
0.0
  0
LINE
  5
2545
330
1F
100
AcDbEntity
  8
1
100
AcDbLine
 10
2.095472440944881
 20
6.473425196850393
 30
0.0
 11
2.095472440944881
 21
6.42027559055118
 31
0.0
  0
POLYLINE
  5
2546
330
1F
100
AcDbEntity
  8
1
100
AcDb2dPolyline
 66
     1
 10
0.0
 20
0.0
 30
0.0
  0
VERTEX
  5
2547
330
2546
100
AcDbEntity
  8
1
100
AcDbVertex
100
AcDb2dVertex
 10
2.095472440944881
 20
6.473425196850393
 30
0.0
  0
VERTEX
  5
2548
330
2546
100
AcDbEntity
  8
1
100
AcDbVertex
100
AcDb2dVertex
 10
2.093503937007874
 20
6.479330708661417
 30
0.0
  0
VERTEX
  5
2549
330
2546
100
AcDbEntity
  8
1
100
AcDbVertex
100
AcDb2dVertex
 10
2.08759842519685
 20
6.481299212598425
 30
0.0
  0
SEQEND
  5
254A
330
2546
100
AcDbEntity
  8
1
  0
LINE
  5
254B
330
1F
100
AcDbEntity
  8
1
100
AcDbLine
 10
2.08759842519685
 20
6.481299212598425
 30
0.0
 11
1.955708661417322
 21
6.481299212598425
 31
0.0
  0
POLYLINE
  5
254C
330
1F
100
AcDbEntity
  8
1
100
AcDb2dPolyline
 66
     1
 10
0.0
 20
0.0
 30
0.0
  0
VERTEX
  5
254D
330
254C
100
AcDbEntity
  8
1
100
AcDbVertex
100
AcDb2dVertex
 10
1.955708661417322
 20
6.481299212598425
 30
0.0
  0
VERTEX
  5
254E
330
254C
100
AcDbEntity
  8
1
100
AcDbVertex
100
AcDb2dVertex
 10
1.950787401574802
 20
6.479330708661417
 30
0.0
  0
VERTEX
  5
254F
330
254C
100
AcDbEntity
  8
1
100
AcDbVertex
100
AcDb2dVertex
 10
1.947834645669291
 20
6.473425196850393
 30
0.0
  0
SEQEND
  5
2550
330
254C
100
AcDbEntity
  8
1
  0
LINE
  5
2551
330
1F
100
AcDbEntity
  8
1
100
AcDbLine
 10
1.947834645669291
 20
6.473425196850393
 30
0.0
 11
1.947834645669291
 21
6.42027559055118
 31
0.0
  0
LINE
  5
2552
330
1F
100
AcDbEntity
  8
1
100
AcDbLine
 10
1.605314960629921
 20
6.34251968503937
 30
0.0
 11
2.438976377952756
 21
6.34251968503937
 31
0.0
  0
LINE
  5
2553
330
1F
100
AcDbEntity
  8
1
100
AcDbLine
 10
2.438976377952756
 20
6.34251968503937
 30
0.0
 11
2.438976377952756
 21
6.404527559055117
 31
0.0
  0
LINE
  5
2554
330
1F
100
AcDbEntity
  8
1
100
AcDbLine
 10
2.438976377952756
 20
6.404527559055117
 30
0.0
 11
1.605314960629921
 21
6.404527559055117
 31
0.0
  0
LINE
  5
2555
330
1F
100
AcDbEntity
  8
1
100
AcDbLine
 10
1.605314960629921
 20
6.404527559055117
 30
0.0
 11
1.605314960629921
 21
6.34251968503937
 31
0.0
  0
POLYLINE
  5
2556
330
1F
100
AcDbEntity
  8
1
100
AcDb2dPolyline
 66
     1
 10
0.0
 20
0.0
 30
0.0
  0
VERTEX
  5
2557
330
2556
100
AcDbEntity
  8
1
100
AcDbVertex
100
AcDb2dVertex
 10
2.438976377952756
 20
6.254921259842519
 30
0.0
  0
VERTEX
  5
2558
330
2556
100
AcDbEntity
  8
1
100
AcDbVertex
100
AcDb2dVertex
 10
2.438976377952756
 20
6.299212598425196
 30
0.0
  0
VERTEX
  5
2559
330
2556
100
AcDbEntity
  8
1
100
AcDbVertex
100
AcDb2dVertex
 10
2.438976377952756
 20
6.34251968503937
 30
0.0
  0
SEQEND
  5
255A
330
2556
100
AcDbEntity
  8
1
  0
POLYLINE
  5
255B
330
1F
100
AcDbEntity
  8
1
100
AcDb2dPolyline
 66
     1
 10
0.0
 20
0.0
 30
0.0
  0
VERTEX
  5
255C
330
255B
100
AcDbEntity
  8
1
100
AcDbVertex
100
AcDb2dVertex
 10
1.605314960629921
 20
6.34251968503937
 30
0.0
  0
VERTEX
  5
255D
330
255B
100
AcDbEntity
  8
1
100
AcDbVertex
100
AcDb2dVertex
 10
1.605314960629921
 20
6.299212598425196
 30
0.0
  0
VERTEX
  5
255E
330
255B
100
AcDbEntity
  8
1
100
AcDbVertex
100
AcDb2dVertex
 10
1.605314960629921
 20
6.254921259842519
 30
0.0
  0
SEQEND
  5
255F
330
255B
100
AcDbEntity
  8
1
  0
LINE
  5
2560
330
1F
100
AcDbEntity
  8
1
100
AcDbLine
 10
1.605314960629921
 20
4.702755905511811
 30
0.0
 11
2.438976377952756
 21
4.702755905511811
 31
0.0
  0
LINE
  5
2561
330
1F
100
AcDbEntity
  8
1
100
AcDbLine
 10
2.438976377952756
 20
4.702755905511811
 30
0.0
 11
2.438976377952756
 21
4.763779527559054
 31
0.0
  0
LINE
  5
2562
330
1F
100
AcDbEntity
  8
1
100
AcDbLine
 10
2.438976377952756
 20
4.763779527559054
 30
0.0
 11
1.605314960629921
 21
4.763779527559054
 31
0.0
  0
LINE
  5
2563
330
1F
100
AcDbEntity
  8
1
100
AcDbLine
 10
1.605314960629921
 20
4.763779527559054
 30
0.0
 11
1.605314960629921
 21
4.702755905511811
 31
0.0
  0
POLYLINE
  5
2564
330
1F
100
AcDbEntity
  8
1
100
AcDb2dPolyline
 66
     1
 10
0.0
 20
0.0
 30
0.0
  0
VERTEX
  5
2565
330
2564
100
AcDbEntity
  8
1
100
AcDbVertex
100
AcDb2dVertex
 10
2.438976377952756
 20
4.763779527559054
 30
0.0
  0
VERTEX
  5
2566
330
2564
100
AcDbEntity
  8
1
100
AcDbVertex
100
AcDb2dVertex
 10
2.438976377952756
 20
4.808070866141732
 30
0.0
  0
VERTEX
  5
2567
330
2564
100
AcDbEntity
  8
1
100
AcDbVertex
100
AcDb2dVertex
 10
2.438976377952756
 20
4.852362204724409
 30
0.0
  0
SEQEND
  5
2568
330
2564
100
AcDbEntity
  8
1
  0
POLYLINE
  5
2569
330
1F
100
AcDbEntity
  8
1
100
AcDb2dPolyline
 66
     1
 10
0.0
 20
0.0
 30
0.0
  0
VERTEX
  5
256A
330
2569
100
AcDbEntity
  8
1
100
AcDbVertex
100
AcDb2dVertex
 10
1.605314960629921
 20
4.852362204724409
 30
0.0
  0
VERTEX
  5
256B
330
2569
100
AcDbEntity
  8
1
100
AcDbVertex
100
AcDb2dVertex
 10
1.605314960629921
 20
4.808070866141732
 30
0.0
  0
VERTEX
  5
256C
330
2569
100
AcDbEntity
  8
1
100
AcDbVertex
100
AcDb2dVertex
 10
1.605314960629921
 20
4.763779527559054
 30
0.0
  0
SEQEND
  5
256D
330
2569
100
AcDbEntity
  8
1
  0
LINE
  5
256E
330
1F
100
AcDbEntity
  8
1
100
AcDbLine
 10
1.90255905511811
 20
4.684055118110236
 30
0.0
 11
1.90255905511811
 21
4.628937007874015
 31
0.0
  0
POLYLINE
  5
256F
330
1F
100
AcDbEntity
  8
1
100
AcDb2dPolyline
 66
     1
 10
0.0
 20
0.0
 30
0.0
  0
VERTEX
  5
2570
330
256F
100
AcDbEntity
  8
1
100
AcDbVertex
100
AcDb2dVertex
 10
1.90255905511811
 20
4.684055118110236
 30
0.0
  0
VERTEX
  5
2571
330
256F
100
AcDbEntity
  8
1
100
AcDbVertex
100
AcDb2dVertex
 10
1.904527559055118
 20
4.688976377952755
 30
0.0
  0
VERTEX
  5
2572
330
256F
100
AcDbEntity
  8
1
100
AcDbVertex
100
AcDb2dVertex
 10
1.910433070866141
 20
4.691929133858267
 30
0.0
  0
SEQEND
  5
2573
330
256F
100
AcDbEntity
  8
1
  0
POLYLINE
  5
2574
330
1F
100
AcDbEntity
  8
1
100
AcDb2dPolyline
 66
     1
 10
0.0
 20
0.0
 30
0.0
  0
VERTEX
  5
2575
330
2574
100
AcDbEntity
  8
1
100
AcDbVertex
100
AcDb2dVertex
 10
1.784448818897637
 20
4.691929133858267
 30
0.0
  0
VERTEX
  5
2576
330
2574
100
AcDbEntity
  8
1
100
AcDbVertex
100
AcDb2dVertex
 10
1.789370078740157
 20
4.688976377952755
 30
0.0
  0
VERTEX
  5
2577
330
2574
100
AcDbEntity
  8
1
100
AcDbVertex
100
AcDb2dVertex
 10
1.792322834645669
 20
4.684055118110236
 30
0.0
  0
SEQEND
  5
2578
330
2574
100
AcDbEntity
  8
1
  0
POLYLINE
  5
2579
330
1F
100
AcDbEntity
  8
1
100
AcDb2dPolyline
 66
     1
 10
0.0
 20
0.0
 30
0.0
  0
VERTEX
  5
257A
330
2579
100
AcDbEntity
  8
1
100
AcDbVertex
100
AcDb2dVertex
 10
1.792322834645669
 20
4.628937007874015
 30
0.0
  0
VERTEX
  5
257B
330
2579
100
AcDbEntity
  8
1
100
AcDbVertex
100
AcDb2dVertex
 10
1.794291338582677
 20
4.623031496062991
 30
0.0
  0
VERTEX
  5
257C
330
2579
100
AcDbEntity
  8
1
100
AcDbVertex
100
AcDb2dVertex
 10
1.8001968503937
 20
4.621062992125984
 30
0.0
  0
SEQEND
  5
257D
330
2579
100
AcDbEntity
  8
1
  0
POLYLINE
  5
257E
330
1F
100
AcDbEntity
  8
1
100
AcDb2dPolyline
 66
     1
 10
0.0
 20
0.0
 30
0.0
  0
VERTEX
  5
257F
330
257E
100
AcDbEntity
  8
1
100
AcDbVertex
100
AcDb2dVertex
 10
1.894685039370078
 20
4.621062992125984
 30
0.0
  0
VERTEX
  5
2580
330
257E
100
AcDbEntity
  8
1
100
AcDbVertex
100
AcDb2dVertex
 10
1.900590551181102
 20
4.623031496062991
 30
0.0
  0
VERTEX
  5
2581
330
257E
100
AcDbEntity
  8
1
100
AcDbVertex
100
AcDb2dVertex
 10
1.90255905511811
 20
4.628937007874015
 30
0.0
  0
SEQEND
  5
2582
330
257E
100
AcDbEntity
  8
1
  0
LINE
  5
2583
330
1F
100
AcDbEntity
  8
1
100
AcDbLine
 10
1.90255905511811
 20
6.423228346456692
 30
0.0
 11
1.90255905511811
 21
6.478346456692912
 31
0.0
  0
POLYLINE
  5
2584
330
1F
100
AcDbEntity
  8
1
100
AcDb2dPolyline
 66
     1
 10
0.0
 20
0.0
 30
0.0
  0
VERTEX
  5
2585
330
2584
100
AcDbEntity
  8
1
100
AcDbVertex
100
AcDb2dVertex
 10
1.792322834645669
 20
6.423228346456692
 30
0.0
  0
VERTEX
  5
2586
330
2584
100
AcDbEntity
  8
1
100
AcDbVertex
100
AcDb2dVertex
 10
1.789370078740157
 20
6.417322834645669
 30
0.0
  0
VERTEX
  5
2587
330
2584
100
AcDbEntity
  8
1
100
AcDbVertex
100
AcDb2dVertex
 10
1.784448818897637
 20
6.415354330708661
 30
0.0
  0
SEQEND
  5
2588
330
2584
100
AcDbEntity
  8
1
  0
POLYLINE
  5
2589
330
1F
100
AcDbEntity
  8
1
100
AcDb2dPolyline
 66
     1
 10
0.0
 20
0.0
 30
0.0
  0
VERTEX
  5
258A
330
2589
100
AcDbEntity
  8
1
100
AcDbVertex
100
AcDb2dVertex
 10
1.910433070866141
 20
6.415354330708661
 30
0.0
  0
VERTEX
  5
258B
330
2589
100
AcDbEntity
  8
1
100
AcDbVertex
100
AcDb2dVertex
 10
1.904527559055118
 20
6.417322834645669
 30
0.0
  0
VERTEX
  5
258C
330
2589
100
AcDbEntity
  8
1
100
AcDbVertex
100
AcDb2dVertex
 10
1.90255905511811
 20
6.423228346456692
 30
0.0
  0
SEQEND
  5
258D
330
2589
100
AcDbEntity
  8
1
  0
POLYLINE
  5
258E
330
1F
100
AcDbEntity
  8
1
100
AcDb2dPolyline
 66
     1
 10
0.0
 20
0.0
 30
0.0
  0
VERTEX
  5
258F
330
258E
100
AcDbEntity
  8
1
100
AcDbVertex
100
AcDb2dVertex
 10
1.90255905511811
 20
6.478346456692912
 30
0.0
  0
VERTEX
  5
2590
330
258E
100
AcDbEntity
  8
1
100
AcDbVertex
100
AcDb2dVertex
 10
1.900590551181102
 20
6.484251968503937
 30
0.0
  0
VERTEX
  5
2591
330
258E
100
AcDbEntity
  8
1
100
AcDbVertex
100
AcDb2dVertex
 10
1.894685039370078
 20
6.486220472440944
 30
0.0
  0
SEQEND
  5
2592
330
258E
100
AcDbEntity
  8
1
  0
POLYLINE
  5
2593
330
1F
100
AcDbEntity
  8
1
100
AcDb2dPolyline
 66
     1
 10
0.0
 20
0.0
 30
0.0
  0
VERTEX
  5
2594
330
2593
100
AcDbEntity
  8
1
100
AcDbVertex
100
AcDb2dVertex
 10
1.8001968503937
 20
6.486220472440944
 30
0.0
  0
VERTEX
  5
2595
330
2593
100
AcDbEntity
  8
1
100
AcDbVertex
100
AcDb2dVertex
 10
1.794291338582677
 20
6.484251968503937
 30
0.0
  0
VERTEX
  5
2596
330
2593
100
AcDbEntity
  8
1
100
AcDbVertex
100
AcDb2dVertex
 10
1.792322834645669
 20
6.478346456692912
 30
0.0
  0
SEQEND
  5
2597
330
2593
100
AcDbEntity
  8
1
  0
LINE
  5
2598
330
1F
100
AcDbEntity
  8
1
100
AcDbLine
 10
2.141732283464566
 20
4.684055118110236
 30
0.0
 11
2.141732283464566
 21
4.628937007874015
 31
0.0
  0
POLYLINE
  5
2599
330
1F
100
AcDbEntity
  8
1
100
AcDb2dPolyline
 66
     1
 10
0.0
 20
0.0
 30
0.0
  0
VERTEX
  5
259A
330
2599
100
AcDbEntity
  8
1
100
AcDbVertex
100
AcDb2dVertex
 10
2.251968503937007
 20
4.684055118110236
 30
0.0
  0
VERTEX
  5
259B
330
2599
100
AcDbEntity
  8
1
100
AcDbVertex
100
AcDb2dVertex
 10
2.253937007874015
 20
4.688976377952755
 30
0.0
  0
VERTEX
  5
259C
330
2599
100
AcDbEntity
  8
1
100
AcDbVertex
100
AcDb2dVertex
 10
2.259842519685039
 20
4.691929133858267
 30
0.0
  0
SEQEND
  5
259D
330
2599
100
AcDbEntity
  8
1
  0
POLYLINE
  5
259E
330
1F
100
AcDbEntity
  8
1
100
AcDb2dPolyline
 66
     1
 10
0.0
 20
0.0
 30
0.0
  0
VERTEX
  5
259F
330
259E
100
AcDbEntity
  8
1
100
AcDbVertex
100
AcDb2dVertex
 10
2.133858267716535
 20
4.691929133858267
 30
0.0
  0
VERTEX
  5
25A0
330
259E
100
AcDbEntity
  8
1
100
AcDbVertex
100
AcDb2dVertex
 10
2.138779527559055
 20
4.688976377952755
 30
0.0
  0
VERTEX
  5
25A1
330
259E
100
AcDbEntity
  8
1
100
AcDbVertex
100
AcDb2dVertex
 10
2.141732283464566
 20
4.684055118110236
 30
0.0
  0
SEQEND
  5
25A2
330
259E
100
AcDbEntity
  8
1
  0
POLYLINE
  5
25A3
330
1F
100
AcDbEntity
  8
1
100
AcDb2dPolyline
 66
     1
 10
0.0
 20
0.0
 30
0.0
  0
VERTEX
  5
25A4
330
25A3
100
AcDbEntity
  8
1
100
AcDbVertex
100
AcDb2dVertex
 10
2.141732283464566
 20
4.628937007874015
 30
0.0
  0
VERTEX
  5
25A5
330
25A3
100
AcDbEntity
  8
1
100
AcDbVertex
100
AcDb2dVertex
 10
2.143700787401574
 20
4.623031496062991
 30
0.0
  0
VERTEX
  5
25A6
330
25A3
100
AcDbEntity
  8
1
100
AcDbVertex
100
AcDb2dVertex
 10
2.149606299212598
 20
4.621062992125984
 30
0.0
  0
SEQEND
  5
25A7
330
25A3
100
AcDbEntity
  8
1
  0
POLYLINE
  5
25A8
330
1F
100
AcDbEntity
  8
1
100
AcDb2dPolyline
 66
     1
 10
0.0
 20
0.0
 30
0.0
  0
VERTEX
  5
25A9
330
25A8
100
AcDbEntity
  8
1
100
AcDbVertex
100
AcDb2dVertex
 10
2.244094488188976
 20
4.621062992125984
 30
0.0
  0
VERTEX
  5
25AA
330
25A8
100
AcDbEntity
  8
1
100
AcDbVertex
100
AcDb2dVertex
 10
2.25
 20
4.623031496062991
 30
0.0
  0
VERTEX
  5
25AB
330
25A8
100
AcDbEntity
  8
1
100
AcDbVertex
100
AcDb2dVertex
 10
2.251968503937007
 20
4.628937007874015
 30
0.0
  0
SEQEND
  5
25AC
330
25A8
100
AcDbEntity
  8
1
  0
LINE
  5
25AD
330
1F
100
AcDbEntity
  8
1
100
AcDbLine
 10
2.141732283464566
 20
6.423228346456692
 30
0.0
 11
2.141732283464566
 21
6.478346456692912
 31
0.0
  0
POLYLINE
  5
25AE
330
1F
100
AcDbEntity
  8
1
100
AcDb2dPolyline
 66
     1
 10
0.0
 20
0.0
 30
0.0
  0
VERTEX
  5
25AF
330
25AE
100
AcDbEntity
  8
1
100
AcDbVertex
100
AcDb2dVertex
 10
2.141732283464566
 20
6.423228346456692
 30
0.0
  0
VERTEX
  5
25B0
330
25AE
100
AcDbEntity
  8
1
100
AcDbVertex
100
AcDb2dVertex
 10
2.138779527559055
 20
6.417322834645669
 30
0.0
  0
VERTEX
  5
25B1
330
25AE
100
AcDbEntity
  8
1
100
AcDbVertex
100
AcDb2dVertex
 10
2.133858267716535
 20
6.415354330708661
 30
0.0
  0
SEQEND
  5
25B2
330
25AE
100
AcDbEntity
  8
1
  0
POLYLINE
  5
25B3
330
1F
100
AcDbEntity
  8
1
100
AcDb2dPolyline
 66
     1
 10
0.0
 20
0.0
 30
0.0
  0
VERTEX
  5
25B4
330
25B3
100
AcDbEntity
  8
1
100
AcDbVertex
100
AcDb2dVertex
 10
2.259842519685039
 20
6.415354330708661
 30
0.0
  0
VERTEX
  5
25B5
330
25B3
100
AcDbEntity
  8
1
100
AcDbVertex
100
AcDb2dVertex
 10
2.253937007874015
 20
6.417322834645669
 30
0.0
  0
VERTEX
  5
25B6
330
25B3
100
AcDbEntity
  8
1
100
AcDbVertex
100
AcDb2dVertex
 10
2.251968503937007
 20
6.423228346456692
 30
0.0
  0
SEQEND
  5
25B7
330
25B3
100
AcDbEntity
  8
1
  0
POLYLINE
  5
25B8
330
1F
100
AcDbEntity
  8
1
100
AcDb2dPolyline
 66
     1
 10
0.0
 20
0.0
 30
0.0
  0
VERTEX
  5
25B9
330
25B8
100
AcDbEntity
  8
1
100
AcDbVertex
100
AcDb2dVertex
 10
2.251968503937007
 20
6.478346456692912
 30
0.0
  0
VERTEX
  5
25BA
330
25B8
100
AcDbEntity
  8
1
100
AcDbVertex
100
AcDb2dVertex
 10
2.25
 20
6.484251968503937
 30
0.0
  0
VERTEX
  5
25BB
330
25B8
100
AcDbEntity
  8
1
100
AcDbVertex
100
AcDb2dVertex
 10
2.244094488188976
 20
6.486220472440944
 30
0.0
  0
SEQEND
  5
25BC
330
25B8
100
AcDbEntity
  8
1
  0
POLYLINE
  5
25BD
330
1F
100
AcDbEntity
  8
1
100
AcDb2dPolyline
 66
     1
 10
0.0
 20
0.0
 30
0.0
  0
VERTEX
  5
25BE
330
25BD
100
AcDbEntity
  8
1
100
AcDbVertex
100
AcDb2dVertex
 10
2.149606299212598
 20
6.486220472440944
 30
0.0
  0
VERTEX
  5
25BF
330
25BD
100
AcDbEntity
  8
1
100
AcDbVertex
100
AcDb2dVertex
 10
2.143700787401574
 20
6.484251968503937
 30
0.0
  0
VERTEX
  5
25C0
330
25BD
100
AcDbEntity
  8
1
100
AcDbVertex
100
AcDb2dVertex
 10
2.141732283464566
 20
6.478346456692912
 30
0.0
  0
SEQEND
  5
25C1
330
25BD
100
AcDbEntity
  8
1
  0
LINE
  5
25C2
330
1F
100
AcDbEntity
  8
1
100
AcDbLine
 10
1.736220472440944
 20
5.63779527559055
 30
0.0
 11
1.736220472440944
 21
4.992125984251968
 31
0.0
  0
LINE
  5
25C3
330
1F
100
AcDbEntity
  8
1
100
AcDbLine
 10
2.315944881889763
 20
4.992125984251968
 30
0.0
 11
2.315944881889763
 21
5.63779527559055
 31
0.0
  0
POLYLINE
  5
25C4
330
1F
100
AcDbEntity
  8
1
100
AcDb2dPolyline
 66
     1
 10
0.0
 20
0.0
 30
0.0
  0
VERTEX
  5
25C5
330
25C4
100
AcDbEntity
  8
1
100
AcDbVertex
100
AcDb2dVertex
 10
2.444881889763779
 20
4.691929133858267
 30
0.0
  0
VERTEX
  5
25C6
330
25C4
100
AcDbEntity
  8
1
100
AcDbVertex
100
AcDb2dVertex
 10
2.450787401574803
 20
4.693897637795275
 30
0.0
  0
VERTEX
  5
25C7
330
25C4
100
AcDbEntity
  8
1
100
AcDbVertex
100
AcDb2dVertex
 10
2.452755905511811
 20
4.699803149606299
 30
0.0
  0
SEQEND
  5
25C8
330
25C4
100
AcDbEntity
  8
1
  0
POLYLINE
  5
25C9
330
1F
100
AcDbEntity
  8
1
100
AcDb2dPolyline
 66
     1
 10
0.0
 20
0.0
 30
0.0
  0
VERTEX
  5
25CA
330
25C9
100
AcDbEntity
  8
1
100
AcDbVertex
100
AcDb2dVertex
 10
2.438976377952756
 20
4.697834645669291
 30
0.0
  0
VERTEX
  5
25CB
330
25C9
100
AcDbEntity
  8
1
100
AcDbVertex
100
AcDb2dVertex
 10
2.444881889763779
 20
4.699803149606299
 30
0.0
  0
VERTEX
  5
25CC
330
25C9
100
AcDbEntity
  8
1
100
AcDbVertex
100
AcDb2dVertex
 10
2.446850393700787
 20
4.705708661417323
 30
0.0
  0
SEQEND
  5
25CD
330
25C9
100
AcDbEntity
  8
1
  0
POLYLINE
  5
25CE
330
1F
100
AcDbEntity
  8
1
100
AcDb2dPolyline
 66
     1
 10
0.0
 20
0.0
 30
0.0
  0
VERTEX
  5
25CF
330
25CE
100
AcDbEntity
  8
1
100
AcDbVertex
100
AcDb2dVertex
 10
2.438976377952756
 20
4.697834645669291
 30
0.0
  0
VERTEX
  5
25D0
330
25CE
100
AcDbEntity
  8
1
100
AcDbVertex
100
AcDb2dVertex
 10
2.438976377952756
 20
4.698818897637795
 30
0.0
  0
VERTEX
  5
25D1
330
25CE
100
AcDbEntity
  8
1
100
AcDbVertex
100
AcDb2dVertex
 10
2.438976377952756
 20
4.702755905511811
 30
0.0
  0
SEQEND
  5
25D2
330
25CE
100
AcDbEntity
  8
1
  0
POLYLINE
  5
25D3
330
1F
100
AcDbEntity
  8
1
100
AcDb2dPolyline
 66
     1
 10
0.0
 20
0.0
 30
0.0
  0
VERTEX
  5
25D4
330
25D3
100
AcDbEntity
  8
1
100
AcDbVertex
100
AcDb2dVertex
 10
2.438976377952756
 20
4.702755905511811
 30
0.0
  0
VERTEX
  5
25D5
330
25D3
100
AcDbEntity
  8
1
100
AcDbVertex
100
AcDb2dVertex
 10
2.444881889763779
 20
4.703740157480314
 30
0.0
  0
VERTEX
  5
25D6
330
25D3
100
AcDbEntity
  8
1
100
AcDbVertex
100
AcDb2dVertex
 10
2.446850393700787
 20
4.705708661417323
 30
0.0
  0
SEQEND
  5
25D7
330
25D3
100
AcDbEntity
  8
1
  0
POLYLINE
  5
25D8
330
1F
100
AcDbEntity
  8
1
100
AcDb2dPolyline
 66
     1
 10
0.0
 20
0.0
 30
0.0
  0
VERTEX
  5
25D9
330
25D8
100
AcDbEntity
  8
1
100
AcDbVertex
100
AcDb2dVertex
 10
1.591535433070866
 20
4.699803149606299
 30
0.0
  0
VERTEX
  5
25DA
330
25D8
100
AcDbEntity
  8
1
100
AcDbVertex
100
AcDb2dVertex
 10
1.593503937007874
 20
4.693897637795275
 30
0.0
  0
VERTEX
  5
25DB
330
25D8
100
AcDbEntity
  8
1
100
AcDbVertex
100
AcDb2dVertex
 10
1.599409448818897
 20
4.691929133858267
 30
0.0
  0
SEQEND
  5
25DC
330
25D8
100
AcDbEntity
  8
1
  0
POLYLINE
  5
25DD
330
1F
100
AcDbEntity
  8
1
100
AcDb2dPolyline
 66
     1
 10
0.0
 20
0.0
 30
0.0
  0
VERTEX
  5
25DE
330
25DD
100
AcDbEntity
  8
1
100
AcDbVertex
100
AcDb2dVertex
 10
2.438976377952756
 20
4.763779527559054
 30
0.0
  0
VERTEX
  5
25DF
330
25DD
100
AcDbEntity
  8
1
100
AcDbVertex
100
AcDb2dVertex
 10
2.443897637795275
 20
4.764763779527559
 30
0.0
  0
VERTEX
  5
25E0
330
25DD
100
AcDbEntity
  8
1
100
AcDbVertex
100
AcDb2dVertex
 10
2.446850393700787
 20
4.765748031496062
 30
0.0
  0
SEQEND
  5
25E1
330
25DD
100
AcDbEntity
  8
1
  0
POLYLINE
  5
25E2
330
1F
100
AcDbEntity
  8
1
100
AcDb2dPolyline
 66
     1
 10
0.0
 20
0.0
 30
0.0
  0
VERTEX
  5
25E3
330
25E2
100
AcDbEntity
  8
1
100
AcDbVertex
100
AcDb2dVertex
 10
1.605314960629921
 20
4.697834645669291
 30
0.0
  0
VERTEX
  5
25E4
330
25E2
100
AcDbEntity
  8
1
100
AcDbVertex
100
AcDb2dVertex
 10
1.605314960629921
 20
4.698818897637795
 30
0.0
  0
VERTEX
  5
25E5
330
25E2
100
AcDbEntity
  8
1
100
AcDbVertex
100
AcDb2dVertex
 10
1.605314960629921
 20
4.702755905511811
 30
0.0
  0
SEQEND
  5
25E6
330
25E2
100
AcDbEntity
  8
1
  0
POLYLINE
  5
25E7
330
1F
100
AcDbEntity
  8
1
100
AcDb2dPolyline
 66
     1
 10
0.0
 20
0.0
 30
0.0
  0
VERTEX
  5
25E8
330
25E7
100
AcDbEntity
  8
1
100
AcDbVertex
100
AcDb2dVertex
 10
1.597440944881889
 20
4.705708661417323
 30
0.0
  0
VERTEX
  5
25E9
330
25E7
100
AcDbEntity
  8
1
100
AcDbVertex
100
AcDb2dVertex
 10
1.599409448818897
 20
4.699803149606299
 30
0.0
  0
VERTEX
  5
25EA
330
25E7
100
AcDbEntity
  8
1
100
AcDbVertex
100
AcDb2dVertex
 10
1.605314960629921
 20
4.697834645669291
 30
0.0
  0
SEQEND
  5
25EB
330
25E7
100
AcDbEntity
  8
1
  0
POLYLINE
  5
25EC
330
1F
100
AcDbEntity
  8
1
100
AcDb2dPolyline
 66
     1
 10
0.0
 20
0.0
 30
0.0
  0
VERTEX
  5
25ED
330
25EC
100
AcDbEntity
  8
1
100
AcDbVertex
100
AcDb2dVertex
 10
2.438976377952756
 20
4.852362204724409
 30
0.0
  0
VERTEX
  5
25EE
330
25EC
100
AcDbEntity
  8
1
100
AcDbVertex
100
AcDb2dVertex
 10
2.443897637795275
 20
4.852362204724409
 30
0.0
  0
VERTEX
  5
25EF
330
25EC
100
AcDbEntity
  8
1
100
AcDbVertex
100
AcDb2dVertex
 10
2.446850393700787
 20
4.852362204724409
 30
0.0
  0
SEQEND
  5
25F0
330
25EC
100
AcDbEntity
  8
1
  0
POLYLINE
  5
25F1
330
1F
100
AcDbEntity
  8
1
100
AcDb2dPolyline
 66
     1
 10
0.0
 20
0.0
 30
0.0
  0
VERTEX
  5
25F2
330
25F1
100
AcDbEntity
  8
1
100
AcDbVertex
100
AcDb2dVertex
 10
1.597440944881889
 20
4.705708661417323
 30
0.0
  0
VERTEX
  5
25F3
330
25F1
100
AcDbEntity
  8
1
100
AcDbVertex
100
AcDb2dVertex
 10
1.599409448818897
 20
4.703740157480314
 30
0.0
  0
VERTEX
  5
25F4
330
25F1
100
AcDbEntity
  8
1
100
AcDbVertex
100
AcDb2dVertex
 10
1.605314960629921
 20
4.702755905511811
 30
0.0
  0
SEQEND
  5
25F5
330
25F1
100
AcDbEntity
  8
1
  0
POLYLINE
  5
25F6
330
1F
100
AcDbEntity
  8
1
100
AcDb2dPolyline
 66
     1
 10
0.0
 20
0.0
 30
0.0
  0
VERTEX
  5
25F7
330
25F6
100
AcDbEntity
  8
1
100
AcDbVertex
100
AcDb2dVertex
 10
2.438976377952756
 20
6.254921259842519
 30
0.0
  0
VERTEX
  5
25F8
330
25F6
100
AcDbEntity
  8
1
100
AcDbVertex
100
AcDb2dVertex
 10
2.443897637795275
 20
6.254921259842519
 30
0.0
  0
VERTEX
  5
25F9
330
25F6
100
AcDbEntity
  8
1
100
AcDbVertex
100
AcDb2dVertex
 10
2.446850393700787
 20
6.254921259842519
 30
0.0
  0
SEQEND
  5
25FA
330
25F6
100
AcDbEntity
  8
1
  0
POLYLINE
  5
25FB
330
1F
100
AcDbEntity
  8
1
100
AcDb2dPolyline
 66
     1
 10
0.0
 20
0.0
 30
0.0
  0
VERTEX
  5
25FC
330
25FB
100
AcDbEntity
  8
1
100
AcDbVertex
100
AcDb2dVertex
 10
1.597440944881889
 20
4.765748031496062
 30
0.0
  0
VERTEX
  5
25FD
330
25FB
100
AcDbEntity
  8
1
100
AcDbVertex
100
AcDb2dVertex
 10
1.599409448818897
 20
4.764763779527559
 30
0.0
  0
VERTEX
  5
25FE
330
25FB
100
AcDbEntity
  8
1
100
AcDbVertex
100
AcDb2dVertex
 10
1.605314960629921
 20
4.763779527559054
 30
0.0
  0
SEQEND
  5
25FF
330
25FB
100
AcDbEntity
  8
1
  0
POLYLINE
  5
2600
330
1F
100
AcDbEntity
  8
1
100
AcDb2dPolyline
 66
     1
 10
0.0
 20
0.0
 30
0.0
  0
VERTEX
  5
2601
330
2600
100
AcDbEntity
  8
1
100
AcDbVertex
100
AcDb2dVertex
 10
2.452755905511811
 20
6.407480314960629
 30
0.0
  0
VERTEX
  5
2602
330
2600
100
AcDbEntity
  8
1
100
AcDbVertex
100
AcDb2dVertex
 10
2.450787401574803
 20
6.413385826771653
 30
0.0
  0
VERTEX
  5
2603
330
2600
100
AcDbEntity
  8
1
100
AcDbVertex
100
AcDb2dVertex
 10
2.444881889763779
 20
6.415354330708661
 30
0.0
  0
SEQEND
  5
2604
330
2600
100
AcDbEntity
  8
1
  0
POLYLINE
  5
2605
330
1F
100
AcDbEntity
  8
1
100
AcDb2dPolyline
 66
     1
 10
0.0
 20
0.0
 30
0.0
  0
VERTEX
  5
2606
330
2605
100
AcDbEntity
  8
1
100
AcDbVertex
100
AcDb2dVertex
 10
2.438976377952756
 20
6.34251968503937
 30
0.0
  0
VERTEX
  5
2607
330
2605
100
AcDbEntity
  8
1
100
AcDbVertex
100
AcDb2dVertex
 10
2.443897637795275
 20
6.34251968503937
 30
0.0
  0
VERTEX
  5
2608
330
2605
100
AcDbEntity
  8
1
100
AcDbVertex
100
AcDb2dVertex
 10
2.446850393700787
 20
6.340551181102362
 30
0.0
  0
SEQEND
  5
2609
330
2605
100
AcDbEntity
  8
1
  0
POLYLINE
  5
260A
330
1F
100
AcDbEntity
  8
1
100
AcDb2dPolyline
 66
     1
 10
0.0
 20
0.0
 30
0.0
  0
VERTEX
  5
260B
330
260A
100
AcDbEntity
  8
1
100
AcDbVertex
100
AcDb2dVertex
 10
1.597440944881889
 20
4.852362204724409
 30
0.0
  0
VERTEX
  5
260C
330
260A
100
AcDbEntity
  8
1
100
AcDbVertex
100
AcDb2dVertex
 10
1.599409448818897
 20
4.852362204724409
 30
0.0
  0
VERTEX
  5
260D
330
260A
100
AcDbEntity
  8
1
100
AcDbVertex
100
AcDb2dVertex
 10
1.605314960629921
 20
4.852362204724409
 30
0.0
  0
SEQEND
  5
260E
330
260A
100
AcDbEntity
  8
1
  0
POLYLINE
  5
260F
330
1F
100
AcDbEntity
  8
1
100
AcDb2dPolyline
 66
     1
 10
0.0
 20
0.0
 30
0.0
  0
VERTEX
  5
2610
330
260F
100
AcDbEntity
  8
1
100
AcDbVertex
100
AcDb2dVertex
 10
2.446850393700787
 20
6.401574803149606
 30
0.0
  0
VERTEX
  5
2611
330
260F
100
AcDbEntity
  8
1
100
AcDbVertex
100
AcDb2dVertex
 10
2.444881889763779
 20
6.407480314960629
 30
0.0
  0
VERTEX
  5
2612
330
260F
100
AcDbEntity
  8
1
100
AcDbVertex
100
AcDb2dVertex
 10
2.438976377952756
 20
6.409448818897637
 30
0.0
  0
SEQEND
  5
2613
330
260F
100
AcDbEntity
  8
1
  0
POLYLINE
  5
2614
330
1F
100
AcDbEntity
  8
1
100
AcDb2dPolyline
 66
     1
 10
0.0
 20
0.0
 30
0.0
  0
VERTEX
  5
2615
330
2614
100
AcDbEntity
  8
1
100
AcDbVertex
100
AcDb2dVertex
 10
2.438976377952756
 20
6.404527559055117
 30
0.0
  0
VERTEX
  5
2616
330
2614
100
AcDbEntity
  8
1
100
AcDbVertex
100
AcDb2dVertex
 10
2.444881889763779
 20
6.403543307086613
 30
0.0
  0
VERTEX
  5
2617
330
2614
100
AcDbEntity
  8
1
100
AcDbVertex
100
AcDb2dVertex
 10
2.446850393700787
 20
6.401574803149606
 30
0.0
  0
SEQEND
  5
2618
330
2614
100
AcDbEntity
  8
1
  0
POLYLINE
  5
2619
330
1F
100
AcDbEntity
  8
1
100
AcDb2dPolyline
 66
     1
 10
0.0
 20
0.0
 30
0.0
  0
VERTEX
  5
261A
330
2619
100
AcDbEntity
  8
1
100
AcDbVertex
100
AcDb2dVertex
 10
1.597440944881889
 20
6.254921259842519
 30
0.0
  0
VERTEX
  5
261B
330
2619
100
AcDbEntity
  8
1
100
AcDbVertex
100
AcDb2dVertex
 10
1.599409448818897
 20
6.254921259842519
 30
0.0
  0
VERTEX
  5
261C
330
2619
100
AcDbEntity
  8
1
100
AcDbVertex
100
AcDb2dVertex
 10
1.605314960629921
 20
6.254921259842519
 30
0.0
  0
SEQEND
  5
261D
330
2619
100
AcDbEntity
  8
1
  0
POLYLINE
  5
261E
330
1F
100
AcDbEntity
  8
1
100
AcDb2dPolyline
 66
     1
 10
0.0
 20
0.0
 30
0.0
  0
VERTEX
  5
261F
330
261E
100
AcDbEntity
  8
1
100
AcDbVertex
100
AcDb2dVertex
 10
2.438976377952756
 20
6.404527559055117
 30
0.0
  0
VERTEX
  5
2620
330
261E
100
AcDbEntity
  8
1
100
AcDbVertex
100
AcDb2dVertex
 10
2.438976377952756
 20
6.407480314960629
 30
0.0
  0
VERTEX
  5
2621
330
261E
100
AcDbEntity
  8
1
100
AcDbVertex
100
AcDb2dVertex
 10
2.438976377952756
 20
6.409448818897637
 30
0.0
  0
SEQEND
  5
2622
330
261E
100
AcDbEntity
  8
1
  0
POLYLINE
  5
2623
330
1F
100
AcDbEntity
  8
1
100
AcDb2dPolyline
 66
     1
 10
0.0
 20
0.0
 30
0.0
  0
VERTEX
  5
2624
330
2623
100
AcDbEntity
  8
1
100
AcDbVertex
100
AcDb2dVertex
 10
1.597440944881889
 20
6.340551181102362
 30
0.0
  0
VERTEX
  5
2625
330
2623
100
AcDbEntity
  8
1
100
AcDbVertex
100
AcDb2dVertex
 10
1.599409448818897
 20
6.34251968503937
 30
0.0
  0
VERTEX
  5
2626
330
2623
100
AcDbEntity
  8
1
100
AcDbVertex
100
AcDb2dVertex
 10
1.605314960629921
 20
6.34251968503937
 30
0.0
  0
SEQEND
  5
2627
330
2623
100
AcDbEntity
  8
1
  0
POLYLINE
  5
2628
330
1F
100
AcDbEntity
  8
1
100
AcDb2dPolyline
 66
     1
 10
0.0
 20
0.0
 30
0.0
  0
VERTEX
  5
2629
330
2628
100
AcDbEntity
  8
1
100
AcDbVertex
100
AcDb2dVertex
 10
1.605314960629921
 20
6.404527559055117
 30
0.0
  0
VERTEX
  5
262A
330
2628
100
AcDbEntity
  8
1
100
AcDbVertex
100
AcDb2dVertex
 10
1.605314960629921
 20
6.407480314960629
 30
0.0
  0
VERTEX
  5
262B
330
2628
100
AcDbEntity
  8
1
100
AcDbVertex
100
AcDb2dVertex
 10
1.605314960629921
 20
6.409448818897637
 30
0.0
  0
SEQEND
  5
262C
330
2628
100
AcDbEntity
  8
1
  0
POLYLINE
  5
262D
330
1F
100
AcDbEntity
  8
1
100
AcDb2dPolyline
 66
     1
 10
0.0
 20
0.0
 30
0.0
  0
VERTEX
  5
262E
330
262D
100
AcDbEntity
  8
1
100
AcDbVertex
100
AcDb2dVertex
 10
1.597440944881889
 20
6.401574803149606
 30
0.0
  0
VERTEX
  5
262F
330
262D
100
AcDbEntity
  8
1
100
AcDbVertex
100
AcDb2dVertex
 10
1.599409448818897
 20
6.403543307086613
 30
0.0
  0
VERTEX
  5
2630
330
262D
100
AcDbEntity
  8
1
100
AcDbVertex
100
AcDb2dVertex
 10
1.605314960629921
 20
6.404527559055117
 30
0.0
  0
SEQEND
  5
2631
330
262D
100
AcDbEntity
  8
1
  0
POLYLINE
  5
2632
330
1F
100
AcDbEntity
  8
1
100
AcDb2dPolyline
 66
     1
 10
0.0
 20
0.0
 30
0.0
  0
VERTEX
  5
2633
330
2632
100
AcDbEntity
  8
1
100
AcDbVertex
100
AcDb2dVertex
 10
1.597440944881889
 20
6.401574803149606
 30
0.0
  0
VERTEX
  5
2634
330
2632
100
AcDbEntity
  8
1
100
AcDbVertex
100
AcDb2dVertex
 10
1.599409448818897
 20
6.407480314960629
 30
0.0
  0
VERTEX
  5
2635
330
2632
100
AcDbEntity
  8
1
100
AcDbVertex
100
AcDb2dVertex
 10
1.605314960629921
 20
6.409448818897637
 30
0.0
  0
SEQEND
  5
2636
330
2632
100
AcDbEntity
  8
1
  0
POLYLINE
  5
2637
330
1F
100
AcDbEntity
  8
1
100
AcDb2dPolyline
 66
     1
 10
0.0
 20
0.0
 30
0.0
  0
VERTEX
  5
2638
330
2637
100
AcDbEntity
  8
1
100
AcDbVertex
100
AcDb2dVertex
 10
1.591535433070866
 20
6.407480314960629
 30
0.0
  0
VERTEX
  5
2639
330
2637
100
AcDbEntity
  8
1
100
AcDbVertex
100
AcDb2dVertex
 10
1.593503937007874
 20
6.413385826771653
 30
0.0
  0
VERTEX
  5
263A
330
2637
100
AcDbEntity
  8
1
100
AcDbVertex
100
AcDb2dVertex
 10
1.599409448818897
 20
6.415354330708661
 30
0.0
  0
SEQEND
  5
263B
330
2637
100
AcDbEntity
  8
1
  0
LINE
  5
263C
330
1F
100
AcDbEntity
  8
1
100
AcDbLine
 10
4.304133858267716
 20
4.691929133858267
 30
0.0
 11
3.96751968503937
 21
4.697834645669291
 31
0.0
  0
LINE
  5
263D
330
1F
100
AcDbEntity
  8
1
100
AcDbLine
 10
3.96751968503937
 20
6.409448818897637
 30
0.0
 11
4.304133858267716
 21
6.415354330708661
 31
0.0
  0
LINE
  5
263E
330
1F
100
AcDbEntity
  8
1
100
AcDbLine
 10
4.304133858267716
 20
6.415354330708661
 30
0.0
 11
4.676181102362204
 21
6.408464566929133
 31
0.0
  0
LINE
  5
263F
330
1F
100
AcDbEntity
  8
1
100
AcDbLine
 10
4.304133858267716
 20
5.810039370078739
 30
0.0
 11
4.304133858267716
 21
6.407480314960629
 31
0.0
  0
LINE
  5
2640
330
1F
100
AcDbEntity
  8
1
100
AcDbLine
 10
4.304133858267716
 20
6.407480314960629
 30
0.0
 11
3.96751968503937
 21
6.401574803149606
 31
0.0
  0
LINE
  5
2641
330
1F
100
AcDbEntity
  8
1
100
AcDbLine
 10
3.96751968503937
 20
6.401574803149606
 30
0.0
 11
3.949803149606299
 21
6.340551181102362
 31
0.0
  0
POLYLINE
  5
2642
330
1F
100
AcDbEntity
  8
1
100
AcDb2dPolyline
 66
     1
 10
0.0
 20
0.0
 30
0.0
  0
VERTEX
  5
2643
330
2642
100
AcDbEntity
  8
1
100
AcDbVertex
100
AcDb2dVertex
 10
3.949803149606299
 20
6.340551181102362
 30
0.0
  0
VERTEX
  5
2644
330
2642
100
AcDbEntity
  8
1
100
AcDbVertex
100
AcDb2dVertex
 10
3.941929133858267
 20
6.298228346456692
 30
0.0
  0
VERTEX
  5
2645
330
2642
100
AcDbEntity
  8
1
100
AcDbVertex
100
AcDb2dVertex
 10
3.939960629921259
 20
6.254921259842519
 30
0.0
  0
SEQEND
  5
2646
330
2642
100
AcDbEntity
  8
1
  0
LINE
  5
2647
330
1F
100
AcDbEntity
  8
1
100
AcDbLine
 10
3.939960629921259
 20
6.254921259842519
 30
0.0
 11
3.939960629921259
 21
4.852362204724409
 31
0.0
  0
POLYLINE
  5
2648
330
1F
100
AcDbEntity
  8
1
100
AcDb2dPolyline
 66
     1
 10
0.0
 20
0.0
 30
0.0
  0
VERTEX
  5
2649
330
2648
100
AcDbEntity
  8
1
100
AcDbVertex
100
AcDb2dVertex
 10
3.939960629921259
 20
4.852362204724409
 30
0.0
  0
VERTEX
  5
264A
330
2648
100
AcDbEntity
  8
1
100
AcDbVertex
100
AcDb2dVertex
 10
3.941929133858267
 20
4.809055118110236
 30
0.0
  0
VERTEX
  5
264B
330
2648
100
AcDbEntity
  8
1
100
AcDbVertex
100
AcDb2dVertex
 10
3.949803149606299
 20
4.765748031496062
 30
0.0
  0
SEQEND
  5
264C
330
2648
100
AcDbEntity
  8
1
  0
LINE
  5
264D
330
1F
100
AcDbEntity
  8
1
100
AcDbLine
 10
3.949803149606299
 20
4.765748031496062
 30
0.0
 11
3.96751968503937
 21
4.705708661417323
 31
0.0
  0
LINE
  5
264E
330
1F
100
AcDbEntity
  8
1
100
AcDbLine
 10
3.96751968503937
 20
4.705708661417323
 30
0.0
 11
4.304133858267716
 21
4.699803149606299
 31
0.0
  0
LINE
  5
264F
330
1F
100
AcDbEntity
  8
1
100
AcDbLine
 10
4.304133858267716
 20
4.699803149606299
 30
0.0
 11
4.304133858267716
 21
4.943897637795275
 31
0.0
  0
LINE
  5
2650
330
1F
100
AcDbEntity
  8
1
100
AcDbLine
 10
4.098425196850393
 20
4.947834645669291
 30
0.0
 11
4.304133858267716
 21
4.943897637795275
 31
0.0
  0
POLYLINE
  5
2651
330
1F
100
AcDbEntity
  8
1
100
AcDb2dPolyline
 66
     1
 10
0.0
 20
0.0
 30
0.0
  0
VERTEX
  5
2652
330
2651
100
AcDbEntity
  8
1
100
AcDbVertex
100
AcDb2dVertex
 10
4.098425196850393
 20
4.947834645669291
 30
0.0
  0
VERTEX
  5
2653
330
2651
100
AcDbEntity
  8
1
100
AcDbVertex
100
AcDb2dVertex
 10
4.09251968503937
 20
4.949803149606299
 30
0.0
  0
VERTEX
  5
2654
330
2651
100
AcDbEntity
  8
1
100
AcDbVertex
100
AcDb2dVertex
 10
4.090551181102362
 20
4.955708661417323
 30
0.0
  0
SEQEND
  5
2655
330
2651
100
AcDbEntity
  8
1
  0
LINE
  5
2656
330
1F
100
AcDbEntity
  8
1
100
AcDbLine
 10
4.090551181102362
 20
5.798228346456692
 30
0.0
 11
4.090551181102362
 21
4.955708661417323
 31
0.0
  0
POLYLINE
  5
2657
330
1F
100
AcDbEntity
  8
1
100
AcDb2dPolyline
 66
     1
 10
0.0
 20
0.0
 30
0.0
  0
VERTEX
  5
2658
330
2657
100
AcDbEntity
  8
1
100
AcDbVertex
100
AcDb2dVertex
 10
4.090551181102362
 20
5.798228346456692
 30
0.0
  0
VERTEX
  5
2659
330
2657
100
AcDbEntity
  8
1
100
AcDbVertex
100
AcDb2dVertex
 10
4.09251968503937
 20
5.804133858267716
 30
0.0
  0
VERTEX
  5
265A
330
2657
100
AcDbEntity
  8
1
100
AcDbVertex
100
AcDb2dVertex
 10
4.098425196850393
 20
5.806102362204724
 30
0.0
  0
SEQEND
  5
265B
330
2657
100
AcDbEntity
  8
1
  0
LINE
  5
265C
330
1F
100
AcDbEntity
  8
1
100
AcDbLine
 10
4.304133858267716
 20
5.810039370078739
 30
0.0
 11
4.098425196850393
 21
5.806102362204724
 31
0.0
  0
LINE
  5
265D
330
1F
100
AcDbEntity
  8
1
100
AcDbLine
 10
4.676181102362204
 20
4.705708661417323
 30
0.0
 11
4.676181102362204
 21
4.875
 31
0.0
  0
POLYLINE
  5
265E
330
1F
100
AcDbEntity
  8
1
100
AcDb2dPolyline
 66
     1
 10
0.0
 20
0.0
 30
0.0
  0
VERTEX
  5
265F
330
265E
100
AcDbEntity
  8
1
100
AcDbVertex
100
AcDb2dVertex
 10
4.676181102362204
 20
4.875
 30
0.0
  0
VERTEX
  5
2660
330
265E
100
AcDbEntity
  8
1
100
AcDbVertex
100
AcDb2dVertex
 10
4.671259842519685
 20
4.900590551181101
 30
0.0
  0
VERTEX
  5
2661
330
265E
100
AcDbEntity
  8
1
100
AcDbVertex
100
AcDb2dVertex
 10
4.658464566929133
 20
4.922244094488188
 30
0.0
  0
VERTEX
  5
2662
330
265E
100
AcDbEntity
  8
1
100
AcDbVertex
100
AcDb2dVertex
 10
4.638779527559054
 20
4.937992125984251
 30
0.0
  0
SEQEND
  5
2663
330
265E
100
AcDbEntity
  8
1
  0
LINE
  5
2664
330
1F
100
AcDbEntity
  8
1
100
AcDbLine
 10
4.304133858267716
 20
4.943897637795275
 30
0.0
 11
4.638779527559054
 21
4.937992125984251
 31
0.0
  0
LINE
  5
2665
330
1F
100
AcDbEntity
  8
1
100
AcDbLine
 10
4.304133858267716
 20
4.699803149606299
 30
0.0
 11
4.676181102362204
 21
4.705708661417323
 31
0.0
  0
LINE
  5
2666
330
1F
100
AcDbEntity
  8
1
100
AcDbLine
 10
4.312007874015748
 20
5.965551181102362
 30
0.0
 11
4.312007874015748
 21
5.810039370078739
 31
0.0
  0
POLYLINE
  5
2667
330
1F
100
AcDbEntity
  8
1
100
AcDb2dPolyline
 66
     1
 10
0.0
 20
0.0
 30
0.0
  0
VERTEX
  5
2668
330
2667
100
AcDbEntity
  8
1
100
AcDbVertex
100
AcDb2dVertex
 10
4.312007874015748
 20
5.810039370078739
 30
0.0
  0
VERTEX
  5
2669
330
2667
100
AcDbEntity
  8
1
100
AcDbVertex
100
AcDb2dVertex
 10
4.312007874015748
 20
5.808070866141732
 30
0.0
  0
VERTEX
  5
266A
330
2667
100
AcDbEntity
  8
1
100
AcDbVertex
100
AcDb2dVertex
 10
4.312007874015748
 20
5.802165354330708
 30
0.0
  0
SEQEND
  5
266B
330
2667
100
AcDbEntity
  8
1
  0
LINE
  5
266C
330
1F
100
AcDbEntity
  8
1
100
AcDbLine
 10
4.312007874015748
 20
5.802165354330708
 30
0.0
 11
4.312007874015748
 21
5.141732283464566
 31
0.0
  0
LINE
  5
266D
330
1F
100
AcDbEntity
  8
1
100
AcDbLine
 10
3.932086614173228
 20
4.852362204724409
 30
0.0
 11
3.932086614173228
 21
6.254921259842519
 31
0.0
  0
LINE
  5
266E
330
1F
100
AcDbEntity
  8
1
100
AcDbLine
 10
4.312007874015748
 20
5.853346456692912
 30
0.0
 11
4.382874015748031
 21
5.851377952755905
 31
0.0
  0
LINE
  5
266F
330
1F
100
AcDbEntity
  8
1
100
AcDbLine
 10
4.359251968503937
 20
5.068897637795275
 30
0.0
 11
4.636811023622047
 21
4.947834645669291
 31
0.0
  0
POLYLINE
  5
2670
330
1F
100
AcDbEntity
  8
1
100
AcDb2dPolyline
 66
     1
 10
0.0
 20
0.0
 30
0.0
  0
VERTEX
  5
2671
330
2670
100
AcDbEntity
  8
1
100
AcDbVertex
100
AcDb2dVertex
 10
4.653543307086613
 20
4.937992125984251
 30
0.0
  0
VERTEX
  5
2672
330
2670
100
AcDbEntity
  8
1
100
AcDbVertex
100
AcDb2dVertex
 10
4.669291338582676
 20
4.920275590551181
 30
0.0
  0
VERTEX
  5
2673
330
2670
100
AcDbEntity
  8
1
100
AcDbVertex
100
AcDb2dVertex
 10
4.68011811023622
 20
4.898622047244094
 30
0.0
  0
VERTEX
  5
2674
330
2670
100
AcDbEntity
  8
1
100
AcDbVertex
100
AcDb2dVertex
 10
4.684055118110236
 20
4.875
 30
0.0
  0
SEQEND
  5
2675
330
2670
100
AcDbEntity
  8
1
  0
LINE
  5
2676
330
1F
100
AcDbEntity
  8
1
100
AcDbLine
 10
4.640748031496062
 20
4.945866141732283
 30
0.0
 11
4.636811023622047
 21
4.947834645669291
 31
0.0
  0
POLYLINE
  5
2677
330
1F
100
AcDbEntity
  8
1
100
AcDb2dPolyline
 66
     1
 10
0.0
 20
0.0
 30
0.0
  0
VERTEX
  5
2678
330
2677
100
AcDbEntity
  8
1
100
AcDbVertex
100
AcDb2dVertex
 10
4.640748031496062
 20
4.945866141732283
 30
0.0
  0
VERTEX
  5
2679
330
2677
100
AcDbEntity
  8
1
100
AcDbVertex
100
AcDb2dVertex
 10
4.64763779527559
 20
4.941929133858267
 30
0.0
  0
VERTEX
  5
267A
330
2677
100
AcDbEntity
  8
1
100
AcDbVertex
100
AcDb2dVertex
 10
4.649606299212598
 20
4.93996062992126
 30
0.0
  0
VERTEX
  5
267B
330
2677
100
AcDbEntity
  8
1
100
AcDbVertex
100
AcDb2dVertex
 10
4.651574803149606
 20
4.938976377952755
 30
0.0
  0
VERTEX
  5
267C
330
2677
100
AcDbEntity
  8
1
100
AcDbVertex
100
AcDb2dVertex
 10
4.65255905511811
 20
4.937992125984251
 30
0.0
  0
VERTEX
  5
267D
330
2677
100
AcDbEntity
  8
1
100
AcDbVertex
100
AcDb2dVertex
 10
4.653543307086613
 20
4.937992125984251
 30
0.0
  0
SEQEND
  5
267E
330
2677
100
AcDbEntity
  8
1
  0
POLYLINE
  5
267F
330
1F
100
AcDbEntity
  8
1
100
AcDb2dPolyline
 66
     1
 10
0.0
 20
0.0
 30
0.0
  0
VERTEX
  5
2680
330
267F
100
AcDbEntity
  8
1
100
AcDbVertex
100
AcDb2dVertex
 10
4.684055118110236
 20
4.705708661417323
 30
0.0
  0
VERTEX
  5
2681
330
267F
100
AcDbEntity
  8
1
100
AcDbVertex
100
AcDb2dVertex
 10
4.684055118110236
 20
4.700787401574802
 30
0.0
  0
VERTEX
  5
2682
330
267F
100
AcDbEntity
  8
1
100
AcDbVertex
100
AcDb2dVertex
 10
4.684055118110236
 20
4.68996062992126
 30
0.0
  0
SEQEND
  5
2683
330
267F
100
AcDbEntity
  8
1
  0
LINE
  5
2684
330
1F
100
AcDbEntity
  8
1
100
AcDbLine
 10
4.684055118110236
 20
4.68996062992126
 30
0.0
 11
4.684055118110236
 21
4.634842519685038
 31
0.0
  0
LINE
  5
2685
330
1F
100
AcDbEntity
  8
1
100
AcDbLine
 10
4.684055118110236
 20
4.875
 30
0.0
 11
4.684055118110236
 21
4.705708661417323
 31
0.0
  0
LINE
  5
2686
330
1F
100
AcDbEntity
  8
1
100
AcDbLine
 10
4.684055118110236
 20
6.471456692913386
 30
0.0
 11
4.684055118110236
 21
6.416338582677164
 31
0.0
  0
POLYLINE
  5
2687
330
1F
100
AcDbEntity
  8
1
100
AcDb2dPolyline
 66
     1
 10
0.0
 20
0.0
 30
0.0
  0
VERTEX
  5
2688
330
2687
100
AcDbEntity
  8
1
100
AcDbVertex
100
AcDb2dVertex
 10
4.684055118110236
 20
6.416338582677164
 30
0.0
  0
VERTEX
  5
2689
330
2687
100
AcDbEntity
  8
1
100
AcDbVertex
100
AcDb2dVertex
 10
4.684055118110236
 20
6.405511811023622
 30
0.0
  0
VERTEX
  5
268A
330
2687
100
AcDbEntity
  8
1
100
AcDbVertex
100
AcDb2dVertex
 10
4.684055118110236
 20
6.400590551181101
 30
0.0
  0
SEQEND
  5
268B
330
2687
100
AcDbEntity
  8
1
  0
LINE
  5
268C
330
1F
100
AcDbEntity
  8
1
100
AcDbLine
 10
4.684055118110236
 20
6.400590551181101
 30
0.0
 11
4.684055118110236
 21
6.231299212598425
 31
0.0
  0
LINE
  5
268D
330
1F
100
AcDbEntity
  8
1
100
AcDbLine
 10
4.676181102362204
 20
4.697834645669291
 30
0.0
 11
4.304133858267716
 21
4.691929133858267
 31
0.0
  0
LINE
  5
268E
330
1F
100
AcDbEntity
  8
1
100
AcDbLine
 10
4.304133858267716
 20
5.810039370078739
 30
0.0
 11
4.304133858267716
 21
5.965551181102362
 31
0.0
  0
POLYLINE
  5
268F
330
1F
100
AcDbEntity
  8
1
100
AcDb2dPolyline
 66
     1
 10
0.0
 20
0.0
 30
0.0
  0
VERTEX
  5
2690
330
268F
100
AcDbEntity
  8
1
100
AcDbVertex
100
AcDb2dVertex
 10
4.304133858267716
 20
5.965551181102362
 30
0.0
  0
VERTEX
  5
2691
330
268F
100
AcDbEntity
  8
1
100
AcDbVertex
100
AcDb2dVertex
 10
4.308070866141732
 20
5.99015748031496
 30
0.0
  0
VERTEX
  5
2692
330
268F
100
AcDbEntity
  8
1
100
AcDbVertex
100
AcDb2dVertex
 10
4.317913385826771
 20
6.01279527559055
 30
0.0
  0
VERTEX
  5
2693
330
268F
100
AcDbEntity
  8
1
100
AcDbVertex
100
AcDb2dVertex
 10
4.334645669291338
 20
6.031496062992125
 30
0.0
  0
VERTEX
  5
2694
330
268F
100
AcDbEntity
  8
1
100
AcDbVertex
100
AcDb2dVertex
 10
4.356299212598425
 20
6.04527559055118
 30
0.0
  0
SEQEND
  5
2695
330
268F
100
AcDbEntity
  8
1
  0
LINE
  5
2696
330
1F
100
AcDbEntity
  8
1
100
AcDbLine
 10
4.356299212598425
 20
6.04527559055118
 30
0.0
 11
4.633858267716535
 21
6.166338582677164
 31
0.0
  0
POLYLINE
  5
2697
330
1F
100
AcDbEntity
  8
1
100
AcDb2dPolyline
 66
     1
 10
0.0
 20
0.0
 30
0.0
  0
VERTEX
  5
2698
330
2697
100
AcDbEntity
  8
1
100
AcDbVertex
100
AcDb2dVertex
 10
4.633858267716535
 20
6.166338582677164
 30
0.0
  0
VERTEX
  5
2699
330
2697
100
AcDbEntity
  8
1
100
AcDbVertex
100
AcDb2dVertex
 10
4.656496062992125
 20
6.182086614173228
 30
0.0
  0
VERTEX
  5
269A
330
2697
100
AcDbEntity
  8
1
100
AcDbVertex
100
AcDb2dVertex
 10
4.671259842519685
 20
6.204724409448818
 30
0.0
  0
VERTEX
  5
269B
330
2697
100
AcDbEntity
  8
1
100
AcDbVertex
100
AcDb2dVertex
 10
4.676181102362204
 20
6.231299212598425
 30
0.0
  0
SEQEND
  5
269C
330
2697
100
AcDbEntity
  8
1
  0
LINE
  5
269D
330
1F
100
AcDbEntity
  8
1
100
AcDbLine
 10
4.676181102362204
 20
6.231299212598425
 30
0.0
 11
4.676181102362204
 21
6.400590551181101
 31
0.0
  0
LINE
  5
269E
330
1F
100
AcDbEntity
  8
1
100
AcDbLine
 10
4.676181102362204
 20
6.400590551181101
 30
0.0
 11
4.304133858267716
 21
6.407480314960629
 31
0.0
  0
LINE
  5
269F
330
1F
100
AcDbEntity
  8
1
100
AcDbLine
 10
4.676181102362204
 20
4.634842519685038
 30
0.0
 11
4.676181102362204
 21
4.68996062992126
 31
0.0
  0
LINE
  5
26A0
330
1F
100
AcDbEntity
  8
1
100
AcDbLine
 10
4.676181102362204
 20
4.68996062992126
 30
0.0
 11
4.304133858267716
 21
4.684055118110236
 31
0.0
  0
LINE
  5
26A1
330
1F
100
AcDbEntity
  8
1
100
AcDbLine
 10
4.304133858267716
 20
4.628937007874015
 30
0.0
 11
4.304133858267716
 21
4.684055118110236
 31
0.0
  0
LINE
  5
26A2
330
1F
100
AcDbEntity
  8
1
100
AcDbLine
 10
4.304133858267716
 20
4.628937007874015
 30
0.0
 11
4.676181102362204
 21
4.634842519685038
 31
0.0
  0
LINE
  5
26A3
330
1F
100
AcDbEntity
  8
1
100
AcDbLine
 10
4.676181102362204
 20
4.626968503937007
 30
0.0
 11
4.304133858267716
 21
4.621062992125984
 31
0.0
  0
LINE
  5
26A4
330
1F
100
AcDbEntity
  8
1
100
AcDbLine
 10
4.304133858267716
 20
6.478346456692912
 30
0.0
 11
4.304133858267716
 21
6.423228346456692
 31
0.0
  0
LINE
  5
26A5
330
1F
100
AcDbEntity
  8
1
100
AcDbLine
 10
4.304133858267716
 20
6.423228346456692
 30
0.0
 11
4.676181102362204
 21
6.416338582677164
 31
0.0
  0
LINE
  5
26A6
330
1F
100
AcDbEntity
  8
1
100
AcDbLine
 10
4.676181102362204
 20
6.416338582677164
 30
0.0
 11
4.676181102362204
 21
6.471456692913386
 31
0.0
  0
LINE
  5
26A7
330
1F
100
AcDbEntity
  8
1
100
AcDbLine
 10
4.676181102362204
 20
6.471456692913386
 30
0.0
 11
4.304133858267716
 21
6.478346456692912
 31
0.0
  0
LINE
  5
26A8
330
1F
100
AcDbEntity
  8
1
100
AcDbLine
 10
4.304133858267716
 20
6.486220472440944
 30
0.0
 11
4.676181102362204
 21
6.479330708661417
 31
0.0
  0
LINE
  5
26A9
330
1F
100
AcDbEntity
  8
1
100
AcDbLine
 10
4.636811023622047
 20
6.159448818897637
 30
0.0
 11
4.359251968503937
 21
6.037401574803149
 31
0.0
  0
LINE
  5
26AA
330
1F
100
AcDbEntity
  8
1
100
AcDbLine
 10
3.941929133858267
 20
6.34251968503937
 30
0.0
 11
3.960629921259842
 21
6.404527559055117
 31
0.0
  0
POLYLINE
  5
26AB
330
1F
100
AcDbEntity
  8
1
100
AcDb2dPolyline
 66
     1
 10
0.0
 20
0.0
 30
0.0
  0
VERTEX
  5
26AC
330
26AB
100
AcDbEntity
  8
1
100
AcDbVertex
100
AcDb2dVertex
 10
3.932086614173228
 20
6.254921259842519
 30
0.0
  0
VERTEX
  5
26AD
330
26AB
100
AcDbEntity
  8
1
100
AcDbVertex
100
AcDb2dVertex
 10
3.934055118110236
 20
6.299212598425196
 30
0.0
  0
VERTEX
  5
26AE
330
26AB
100
AcDbEntity
  8
1
100
AcDbVertex
100
AcDb2dVertex
 10
3.941929133858267
 20
6.34251968503937
 30
0.0
  0
SEQEND
  5
26AF
330
26AB
100
AcDbEntity
  8
1
  0
LINE
  5
26B0
330
1F
100
AcDbEntity
  8
1
100
AcDbLine
 10
3.960629921259842
 20
4.702755905511811
 30
0.0
 11
3.941929133858267
 21
4.763779527559054
 31
0.0
  0
POLYLINE
  5
26B1
330
1F
100
AcDbEntity
  8
1
100
AcDb2dPolyline
 66
     1
 10
0.0
 20
0.0
 30
0.0
  0
VERTEX
  5
26B2
330
26B1
100
AcDbEntity
  8
1
100
AcDbVertex
100
AcDb2dVertex
 10
3.941929133858267
 20
4.763779527559054
 30
0.0
  0
VERTEX
  5
26B3
330
26B1
100
AcDbEntity
  8
1
100
AcDbVertex
100
AcDb2dVertex
 10
3.934055118110236
 20
4.808070866141732
 30
0.0
  0
VERTEX
  5
26B4
330
26B1
100
AcDbEntity
  8
1
100
AcDbVertex
100
AcDb2dVertex
 10
3.932086614173228
 20
4.852362204724409
 30
0.0
  0
SEQEND
  5
26B5
330
26B1
100
AcDbEntity
  8
1
  0
POLYLINE
  5
26B6
330
1F
100
AcDbEntity
  8
1
100
AcDb2dPolyline
 66
     1
 10
0.0
 20
0.0
 30
0.0
  0
VERTEX
  5
26B7
330
26B6
100
AcDbEntity
  8
1
100
AcDbVertex
100
AcDb2dVertex
 10
4.304133858267716
 20
4.684055118110236
 30
0.0
  0
VERTEX
  5
26B8
330
26B6
100
AcDbEntity
  8
1
100
AcDbVertex
100
AcDb2dVertex
 10
4.304133858267716
 20
4.688976377952755
 30
0.0
  0
VERTEX
  5
26B9
330
26B6
100
AcDbEntity
  8
1
100
AcDbVertex
100
AcDb2dVertex
 10
4.304133858267716
 20
4.691929133858267
 30
0.0
  0
SEQEND
  5
26BA
330
26B6
100
AcDbEntity
  8
1
  0
POLYLINE
  5
26BB
330
1F
100
AcDbEntity
  8
1
100
AcDb2dPolyline
 66
     1
 10
0.0
 20
0.0
 30
0.0
  0
VERTEX
  5
26BC
330
26BB
100
AcDbEntity
  8
1
100
AcDbVertex
100
AcDb2dVertex
 10
4.304133858267716
 20
4.621062992125984
 30
0.0
  0
VERTEX
  5
26BD
330
26BB
100
AcDbEntity
  8
1
100
AcDbVertex
100
AcDb2dVertex
 10
4.304133858267716
 20
4.623031496062991
 30
0.0
  0
VERTEX
  5
26BE
330
26BB
100
AcDbEntity
  8
1
100
AcDbVertex
100
AcDb2dVertex
 10
4.304133858267716
 20
4.628937007874015
 30
0.0
  0
SEQEND
  5
26BF
330
26BB
100
AcDbEntity
  8
1
  0
POLYLINE
  5
26C0
330
1F
100
AcDbEntity
  8
1
100
AcDb2dPolyline
 66
     1
 10
0.0
 20
0.0
 30
0.0
  0
VERTEX
  5
26C1
330
26C0
100
AcDbEntity
  8
1
100
AcDbVertex
100
AcDb2dVertex
 10
4.304133858267716
 20
6.415354330708661
 30
0.0
  0
VERTEX
  5
26C2
330
26C0
100
AcDbEntity
  8
1
100
AcDbVertex
100
AcDb2dVertex
 10
4.304133858267716
 20
6.417322834645669
 30
0.0
  0
VERTEX
  5
26C3
330
26C0
100
AcDbEntity
  8
1
100
AcDbVertex
100
AcDb2dVertex
 10
4.304133858267716
 20
6.423228346456692
 30
0.0
  0
SEQEND
  5
26C4
330
26C0
100
AcDbEntity
  8
1
  0
POLYLINE
  5
26C5
330
1F
100
AcDbEntity
  8
1
100
AcDb2dPolyline
 66
     1
 10
0.0
 20
0.0
 30
0.0
  0
VERTEX
  5
26C6
330
26C5
100
AcDbEntity
  8
1
100
AcDbVertex
100
AcDb2dVertex
 10
4.304133858267716
 20
6.478346456692912
 30
0.0
  0
VERTEX
  5
26C7
330
26C5
100
AcDbEntity
  8
1
100
AcDbVertex
100
AcDb2dVertex
 10
4.304133858267716
 20
6.484251968503937
 30
0.0
  0
VERTEX
  5
26C8
330
26C5
100
AcDbEntity
  8
1
100
AcDbVertex
100
AcDb2dVertex
 10
4.304133858267716
 20
6.486220472440944
 30
0.0
  0
SEQEND
  5
26C9
330
26C5
100
AcDbEntity
  8
1
  0
POLYLINE
  5
26CA
330
1F
100
AcDbEntity
  8
1
100
AcDb2dPolyline
 66
     1
 10
0.0
 20
0.0
 30
0.0
  0
VERTEX
  5
26CB
330
26CA
100
AcDbEntity
  8
1
100
AcDbVertex
100
AcDb2dVertex
 10
4.684055118110236
 20
6.231299212598425
 30
0.0
  0
VERTEX
  5
26CC
330
26CA
100
AcDbEntity
  8
1
100
AcDbVertex
100
AcDb2dVertex
 10
4.681102362204724
 20
6.208661417322834
 30
0.0
  0
VERTEX
  5
26CD
330
26CA
100
AcDbEntity
  8
1
100
AcDbVertex
100
AcDb2dVertex
 10
4.671259842519685
 20
6.187992125984251
 30
0.0
  0
VERTEX
  5
26CE
330
26CA
100
AcDbEntity
  8
1
100
AcDbVertex
100
AcDb2dVertex
 10
4.656496062992125
 20
6.171259842519685
 30
0.0
  0
VERTEX
  5
26CF
330
26CA
100
AcDbEntity
  8
1
100
AcDbVertex
100
AcDb2dVertex
 10
4.636811023622047
 20
6.159448818897637
 30
0.0
  0
SEQEND
  5
26D0
330
26CA
100
AcDbEntity
  8
1
  0
POLYLINE
  5
26D1
330
1F
100
AcDbEntity
  8
1
100
AcDb2dPolyline
 66
     1
 10
0.0
 20
0.0
 30
0.0
  0
VERTEX
  5
26D2
330
26D1
100
AcDbEntity
  8
1
100
AcDbVertex
100
AcDb2dVertex
 10
4.676181102362204
 20
6.479330708661417
 30
0.0
  0
VERTEX
  5
26D3
330
26D1
100
AcDbEntity
  8
1
100
AcDbVertex
100
AcDb2dVertex
 10
4.682086614173228
 20
6.477362204724409
 30
0.0
  0
VERTEX
  5
26D4
330
26D1
100
AcDbEntity
  8
1
100
AcDbVertex
100
AcDb2dVertex
 10
4.684055118110236
 20
6.471456692913386
 30
0.0
  0
SEQEND
  5
26D5
330
26D1
100
AcDbEntity
  8
1
  0
POLYLINE
  5
26D6
330
1F
100
AcDbEntity
  8
1
100
AcDb2dPolyline
 66
     1
 10
0.0
 20
0.0
 30
0.0
  0
VERTEX
  5
26D7
330
26D6
100
AcDbEntity
  8
1
100
AcDbVertex
100
AcDb2dVertex
 10
4.676181102362204
 20
6.416338582677164
 30
0.0
  0
VERTEX
  5
26D8
330
26D6
100
AcDbEntity
  8
1
100
AcDbVertex
100
AcDb2dVertex
 10
4.682086614173228
 20
6.416338582677164
 30
0.0
  0
VERTEX
  5
26D9
330
26D6
100
AcDbEntity
  8
1
100
AcDbVertex
100
AcDb2dVertex
 10
4.684055118110236
 20
6.416338582677164
 30
0.0
  0
SEQEND
  5
26DA
330
26D6
100
AcDbEntity
  8
1
  0
POLYLINE
  5
26DB
330
1F
100
AcDbEntity
  8
1
100
AcDb2dPolyline
 66
     1
 10
0.0
 20
0.0
 30
0.0
  0
VERTEX
  5
26DC
330
26DB
100
AcDbEntity
  8
1
100
AcDbVertex
100
AcDb2dVertex
 10
4.684055118110236
 20
6.471456692913386
 30
0.0
  0
VERTEX
  5
26DD
330
26DB
100
AcDbEntity
  8
1
100
AcDbVertex
100
AcDb2dVertex
 10
4.682086614173228
 20
6.471456692913386
 30
0.0
  0
VERTEX
  5
26DE
330
26DB
100
AcDbEntity
  8
1
100
AcDbVertex
100
AcDb2dVertex
 10
4.676181102362204
 20
6.471456692913386
 30
0.0
  0
SEQEND
  5
26DF
330
26DB
100
AcDbEntity
  8
1
  0
POLYLINE
  5
26E0
330
1F
100
AcDbEntity
  8
1
100
AcDb2dPolyline
 66
     1
 10
0.0
 20
0.0
 30
0.0
  0
VERTEX
  5
26E1
330
26E0
100
AcDbEntity
  8
1
100
AcDbVertex
100
AcDb2dVertex
 10
4.684055118110236
 20
4.68996062992126
 30
0.0
  0
VERTEX
  5
26E2
330
26E0
100
AcDbEntity
  8
1
100
AcDbVertex
100
AcDb2dVertex
 10
4.682086614173228
 20
4.68996062992126
 30
0.0
  0
VERTEX
  5
26E3
330
26E0
100
AcDbEntity
  8
1
100
AcDbVertex
100
AcDb2dVertex
 10
4.676181102362204
 20
4.68996062992126
 30
0.0
  0
SEQEND
  5
26E4
330
26E0
100
AcDbEntity
  8
1
  0
POLYLINE
  5
26E5
330
1F
100
AcDbEntity
  8
1
100
AcDb2dPolyline
 66
     1
 10
0.0
 20
0.0
 30
0.0
  0
VERTEX
  5
26E6
330
26E5
100
AcDbEntity
  8
1
100
AcDbVertex
100
AcDb2dVertex
 10
4.676181102362204
 20
4.634842519685038
 30
0.0
  0
VERTEX
  5
26E7
330
26E5
100
AcDbEntity
  8
1
100
AcDbVertex
100
AcDb2dVertex
 10
4.682086614173228
 20
4.634842519685038
 30
0.0
  0
VERTEX
  5
26E8
330
26E5
100
AcDbEntity
  8
1
100
AcDbVertex
100
AcDb2dVertex
 10
4.684055118110236
 20
4.634842519685038
 30
0.0
  0
SEQEND
  5
26E9
330
26E5
100
AcDbEntity
  8
1
  0
POLYLINE
  5
26EA
330
1F
100
AcDbEntity
  8
1
100
AcDb2dPolyline
 66
     1
 10
0.0
 20
0.0
 30
0.0
  0
VERTEX
  5
26EB
330
26EA
100
AcDbEntity
  8
1
100
AcDbVertex
100
AcDb2dVertex
 10
4.684055118110236
 20
4.634842519685038
 30
0.0
  0
VERTEX
  5
26EC
330
26EA
100
AcDbEntity
  8
1
100
AcDbVertex
100
AcDb2dVertex
 10
4.682086614173228
 20
4.629921259842519
 30
0.0
  0
VERTEX
  5
26ED
330
26EA
100
AcDbEntity
  8
1
100
AcDbVertex
100
AcDb2dVertex
 10
4.676181102362204
 20
4.626968503937007
 30
0.0
  0
SEQEND
  5
26EE
330
26EA
100
AcDbEntity
  8
1
  0
POLYLINE
  5
26EF
330
1F
100
AcDbEntity
  8
1
100
AcDb2dPolyline
 66
     1
 10
0.0
 20
0.0
 30
0.0
  0
VERTEX
  5
26F0
330
26EF
100
AcDbEntity
  8
1
100
AcDbVertex
100
AcDb2dVertex
 10
4.676181102362204
 20
4.68996062992126
 30
0.0
  0
VERTEX
  5
26F1
330
26EF
100
AcDbEntity
  8
1
100
AcDbVertex
100
AcDb2dVertex
 10
4.676181102362204
 20
4.695866141732283
 30
0.0
  0
VERTEX
  5
26F2
330
26EF
100
AcDbEntity
  8
1
100
AcDbVertex
100
AcDb2dVertex
 10
4.676181102362204
 20
4.697834645669291
 30
0.0
  0
SEQEND
  5
26F3
330
26EF
100
AcDbEntity
  8
1
  0
POLYLINE
  5
26F4
330
1F
100
AcDbEntity
  8
1
100
AcDb2dPolyline
 66
     1
 10
0.0
 20
0.0
 30
0.0
  0
VERTEX
  5
26F5
330
26F4
100
AcDbEntity
  8
1
100
AcDbVertex
100
AcDb2dVertex
 10
4.676181102362204
 20
4.634842519685038
 30
0.0
  0
VERTEX
  5
26F6
330
26F4
100
AcDbEntity
  8
1
100
AcDbVertex
100
AcDb2dVertex
 10
4.676181102362204
 20
4.629921259842519
 30
0.0
  0
VERTEX
  5
26F7
330
26F4
100
AcDbEntity
  8
1
100
AcDbVertex
100
AcDb2dVertex
 10
4.676181102362204
 20
4.626968503937007
 30
0.0
  0
SEQEND
  5
26F8
330
26F4
100
AcDbEntity
  8
1
  0
POLYLINE
  5
26F9
330
1F
100
AcDbEntity
  8
1
100
AcDb2dPolyline
 66
     1
 10
0.0
 20
0.0
 30
0.0
  0
VERTEX
  5
26FA
330
26F9
100
AcDbEntity
  8
1
100
AcDbVertex
100
AcDb2dVertex
 10
4.676181102362204
 20
6.408464566929133
 30
0.0
  0
VERTEX
  5
26FB
330
26F9
100
AcDbEntity
  8
1
100
AcDbVertex
100
AcDb2dVertex
 10
4.676181102362204
 20
6.411417322834645
 30
0.0
  0
VERTEX
  5
26FC
330
26F9
100
AcDbEntity
  8
1
100
AcDbVertex
100
AcDb2dVertex
 10
4.676181102362204
 20
6.416338582677164
 30
0.0
  0
SEQEND
  5
26FD
330
26F9
100
AcDbEntity
  8
1
  0
POLYLINE
  5
26FE
330
1F
100
AcDbEntity
  8
1
100
AcDb2dPolyline
 66
     1
 10
0.0
 20
0.0
 30
0.0
  0
VERTEX
  5
26FF
330
26FE
100
AcDbEntity
  8
1
100
AcDbVertex
100
AcDb2dVertex
 10
4.676181102362204
 20
6.479330708661417
 30
0.0
  0
VERTEX
  5
2700
330
26FE
100
AcDbEntity
  8
1
100
AcDbVertex
100
AcDb2dVertex
 10
4.676181102362204
 20
6.477362204724409
 30
0.0
  0
VERTEX
  5
2701
330
26FE
100
AcDbEntity
  8
1
100
AcDbVertex
100
AcDb2dVertex
 10
4.676181102362204
 20
6.471456692913386
 30
0.0
  0
SEQEND
  5
2702
330
26FE
100
AcDbEntity
  8
1
  0
LINE
  5
2703
330
1F
100
AcDbEntity
  8
1
100
AcDbLine
 10
4.312007874015748
 20
5.763779527559054
 30
0.0
 11
4.375984251968503
 21
5.807086614173228
 31
0.0
  0
LINE
  5
2704
330
1F
100
AcDbEntity
  8
1
100
AcDbLine
 10
4.375984251968503
 20
5.807086614173228
 30
0.0
 11
4.382874015748031
 21
5.818897637795275
 31
0.0
  0
LINE
  5
2705
330
1F
100
AcDbEntity
  8
1
100
AcDbLine
 10
4.382874015748031
 20
5.818897637795275
 30
0.0
 11
4.382874015748031
 21
5.851377952755905
 31
0.0
  0
LINE
  5
2706
330
1F
100
AcDbEntity
  8
1
100
AcDbLine
 10
4.312007874015748
 20
5.802165354330708
 30
0.0
 11
4.098425196850393
 21
5.798228346456692
 31
0.0
  0
LINE
  5
2707
330
1F
100
AcDbEntity
  8
1
100
AcDbLine
 10
4.098425196850393
 20
5.798228346456692
 30
0.0
 11
4.098425196850393
 21
4.955708661417323
 31
0.0
  0
LINE
  5
2708
330
1F
100
AcDbEntity
  8
1
100
AcDbLine
 10
4.098425196850393
 20
4.955708661417323
 30
0.0
 11
4.640748031496062
 21
4.945866141732283
 31
0.0
  0
POLYLINE
  5
2709
330
1F
100
AcDbEntity
  8
1
100
AcDb2dPolyline
 66
     1
 10
0.0
 20
0.0
 30
0.0
  0
VERTEX
  5
270A
330
2709
100
AcDbEntity
  8
1
100
AcDbVertex
100
AcDb2dVertex
 10
4.359251968503937
 20
5.068897637795275
 30
0.0
  0
VERTEX
  5
270B
330
2709
100
AcDbEntity
  8
1
100
AcDbVertex
100
AcDb2dVertex
 10
4.339566929133858
 20
5.080708661417323
 30
0.0
  0
VERTEX
  5
270C
330
2709
100
AcDbEntity
  8
1
100
AcDbVertex
100
AcDb2dVertex
 10
4.324803149606299
 20
5.098425196850393
 30
0.0
  0
VERTEX
  5
270D
330
2709
100
AcDbEntity
  8
1
100
AcDbVertex
100
AcDb2dVertex
 10
4.31496062992126
 20
5.119094488188975
 30
0.0
  0
VERTEX
  5
270E
330
2709
100
AcDbEntity
  8
1
100
AcDbVertex
100
AcDb2dVertex
 10
4.312007874015748
 20
5.141732283464566
 30
0.0
  0
SEQEND
  5
270F
330
2709
100
AcDbEntity
  8
1
  0
POLYLINE
  5
2710
330
1F
100
AcDbEntity
  8
1
100
AcDb2dPolyline
 66
     1
 10
0.0
 20
0.0
 30
0.0
  0
VERTEX
  5
2711
330
2710
100
AcDbEntity
  8
1
100
AcDbVertex
100
AcDb2dVertex
 10
4.312007874015748
 20
5.810039370078739
 30
0.0
  0
VERTEX
  5
2712
330
2710
100
AcDbEntity
  8
1
100
AcDbVertex
100
AcDb2dVertex
 10
4.310039370078739
 20
5.810039370078739
 30
0.0
  0
VERTEX
  5
2713
330
2710
100
AcDbEntity
  8
1
100
AcDbVertex
100
AcDb2dVertex
 10
4.304133858267716
 20
5.810039370078739
 30
0.0
  0
SEQEND
  5
2714
330
2710
100
AcDbEntity
  8
1
  0
POLYLINE
  5
2715
330
1F
100
AcDbEntity
  8
1
100
AcDb2dPolyline
 66
     1
 10
0.0
 20
0.0
 30
0.0
  0
VERTEX
  5
2716
330
2715
100
AcDbEntity
  8
1
100
AcDbVertex
100
AcDb2dVertex
 10
4.638779527559054
 20
4.937992125984251
 30
0.0
  0
VERTEX
  5
2717
330
2715
100
AcDbEntity
  8
1
100
AcDbVertex
100
AcDb2dVertex
 10
4.646653543307086
 20
4.937992125984251
 30
0.0
  0
VERTEX
  5
2718
330
2715
100
AcDbEntity
  8
1
100
AcDbVertex
100
AcDb2dVertex
 10
4.649606299212598
 20
4.937992125984251
 30
0.0
  0
VERTEX
  5
2719
330
2715
100
AcDbEntity
  8
1
100
AcDbVertex
100
AcDb2dVertex
 10
4.651574803149606
 20
4.937992125984251
 30
0.0
  0
VERTEX
  5
271A
330
2715
100
AcDbEntity
  8
1
100
AcDbVertex
100
AcDb2dVertex
 10
4.65255905511811
 20
4.937992125984251
 30
0.0
  0
VERTEX
  5
271B
330
2715
100
AcDbEntity
  8
1
100
AcDbVertex
100
AcDb2dVertex
 10
4.653543307086613
 20
4.937992125984251
 30
0.0
  0
SEQEND
  5
271C
330
2715
100
AcDbEntity
  8
1
  0
POLYLINE
  5
271D
330
1F
100
AcDbEntity
  8
1
100
AcDb2dPolyline
 66
     1
 10
0.0
 20
0.0
 30
0.0
  0
VERTEX
  5
271E
330
271D
100
AcDbEntity
  8
1
100
AcDbVertex
100
AcDb2dVertex
 10
4.359251968503937
 20
6.037401574803149
 30
0.0
  0
VERTEX
  5
271F
330
271D
100
AcDbEntity
  8
1
100
AcDbVertex
100
AcDb2dVertex
 10
4.339566929133858
 20
6.025590551181101
 30
0.0
  0
VERTEX
  5
2720
330
271D
100
AcDbEntity
  8
1
100
AcDbVertex
100
AcDb2dVertex
 10
4.324803149606299
 20
6.008858267716535
 30
0.0
  0
VERTEX
  5
2721
330
271D
100
AcDbEntity
  8
1
100
AcDbVertex
100
AcDb2dVertex
 10
4.31496062992126
 20
5.988188976377952
 30
0.0
  0
VERTEX
  5
2722
330
271D
100
AcDbEntity
  8
1
100
AcDbVertex
100
AcDb2dVertex
 10
4.312007874015748
 20
5.965551181102362
 30
0.0
  0
SEQEND
  5
2723
330
271D
100
AcDbEntity
  8
1
  0
POLYLINE
  5
2724
330
1F
100
AcDbEntity
  8
1
100
AcDb2dPolyline
 66
     1
 10
0.0
 20
0.0
 30
0.0
  0
VERTEX
  5
2725
330
2724
100
AcDbEntity
  8
1
100
AcDbVertex
100
AcDb2dVertex
 10
4.676181102362204
 20
4.697834645669291
 30
0.0
  0
VERTEX
  5
2726
330
2724
100
AcDbEntity
  8
1
100
AcDbVertex
100
AcDb2dVertex
 10
4.676181102362204
 20
4.700787401574802
 30
0.0
  0
VERTEX
  5
2727
330
2724
100
AcDbEntity
  8
1
100
AcDbVertex
100
AcDb2dVertex
 10
4.676181102362204
 20
4.705708661417323
 30
0.0
  0
SEQEND
  5
2728
330
2724
100
AcDbEntity
  8
1
  0
POLYLINE
  5
2729
330
1F
100
AcDbEntity
  8
1
100
AcDb2dPolyline
 66
     1
 10
0.0
 20
0.0
 30
0.0
  0
VERTEX
  5
272A
330
2729
100
AcDbEntity
  8
1
100
AcDbVertex
100
AcDb2dVertex
 10
4.304133858267716
 20
4.691929133858267
 30
0.0
  0
VERTEX
  5
272B
330
2729
100
AcDbEntity
  8
1
100
AcDbVertex
100
AcDb2dVertex
 10
4.304133858267716
 20
4.693897637795275
 30
0.0
  0
VERTEX
  5
272C
330
2729
100
AcDbEntity
  8
1
100
AcDbVertex
100
AcDb2dVertex
 10
4.304133858267716
 20
4.699803149606299
 30
0.0
  0
SEQEND
  5
272D
330
2729
100
AcDbEntity
  8
1
  0
POLYLINE
  5
272E
330
1F
100
AcDbEntity
  8
1
100
AcDb2dPolyline
 66
     1
 10
0.0
 20
0.0
 30
0.0
  0
VERTEX
  5
272F
330
272E
100
AcDbEntity
  8
1
100
AcDbVertex
100
AcDb2dVertex
 10
3.96751968503937
 20
4.697834645669291
 30
0.0
  0
VERTEX
  5
2730
330
272E
100
AcDbEntity
  8
1
100
AcDbVertex
100
AcDb2dVertex
 10
3.96751968503937
 20
4.699803149606299
 30
0.0
  0
VERTEX
  5
2731
330
272E
100
AcDbEntity
  8
1
100
AcDbVertex
100
AcDb2dVertex
 10
3.96751968503937
 20
4.705708661417323
 30
0.0
  0
SEQEND
  5
2732
330
272E
100
AcDbEntity
  8
1
  0
POLYLINE
  5
2733
330
1F
100
AcDbEntity
  8
1
100
AcDb2dPolyline
 66
     1
 10
0.0
 20
0.0
 30
0.0
  0
VERTEX
  5
2734
330
2733
100
AcDbEntity
  8
1
100
AcDbVertex
100
AcDb2dVertex
 10
3.96751968503937
 20
4.697834645669291
 30
0.0
  0
VERTEX
  5
2735
330
2733
100
AcDbEntity
  8
1
100
AcDbVertex
100
AcDb2dVertex
 10
3.963582677165354
 20
4.698818897637795
 30
0.0
  0
VERTEX
  5
2736
330
2733
100
AcDbEntity
  8
1
100
AcDbVertex
100
AcDb2dVertex
 10
3.960629921259842
 20
4.702755905511811
 30
0.0
  0
SEQEND
  5
2737
330
2733
100
AcDbEntity
  8
1
  0
POLYLINE
  5
2738
330
1F
100
AcDbEntity
  8
1
100
AcDb2dPolyline
 66
     1
 10
0.0
 20
0.0
 30
0.0
  0
VERTEX
  5
2739
330
2738
100
AcDbEntity
  8
1
100
AcDbVertex
100
AcDb2dVertex
 10
3.960629921259842
 20
4.702755905511811
 30
0.0
  0
VERTEX
  5
273A
330
2738
100
AcDbEntity
  8
1
100
AcDbVertex
100
AcDb2dVertex
 10
3.96259842519685
 20
4.703740157480314
 30
0.0
  0
VERTEX
  5
273B
330
2738
100
AcDbEntity
  8
1
100
AcDbVertex
100
AcDb2dVertex
 10
3.96751968503937
 20
4.705708661417323
 30
0.0
  0
SEQEND
  5
273C
330
2738
100
AcDbEntity
  8
1
  0
POLYLINE
  5
273D
330
1F
100
AcDbEntity
  8
1
100
AcDb2dPolyline
 66
     1
 10
0.0
 20
0.0
 30
0.0
  0
VERTEX
  5
273E
330
273D
100
AcDbEntity
  8
1
100
AcDbVertex
100
AcDb2dVertex
 10
3.941929133858267
 20
4.763779527559054
 30
0.0
  0
VERTEX
  5
273F
330
273D
100
AcDbEntity
  8
1
100
AcDbVertex
100
AcDb2dVertex
 10
3.944881889763779
 20
4.764763779527559
 30
0.0
  0
VERTEX
  5
2740
330
273D
100
AcDbEntity
  8
1
100
AcDbVertex
100
AcDb2dVertex
 10
3.949803149606299
 20
4.765748031496062
 30
0.0
  0
SEQEND
  5
2741
330
273D
100
AcDbEntity
  8
1
  0
POLYLINE
  5
2742
330
1F
100
AcDbEntity
  8
1
100
AcDb2dPolyline
 66
     1
 10
0.0
 20
0.0
 30
0.0
  0
VERTEX
  5
2743
330
2742
100
AcDbEntity
  8
1
100
AcDbVertex
100
AcDb2dVertex
 10
3.932086614173228
 20
4.852362204724409
 30
0.0
  0
VERTEX
  5
2744
330
2742
100
AcDbEntity
  8
1
100
AcDbVertex
100
AcDb2dVertex
 10
3.934055118110236
 20
4.852362204724409
 30
0.0
  0
VERTEX
  5
2745
330
2742
100
AcDbEntity
  8
1
100
AcDbVertex
100
AcDb2dVertex
 10
3.939960629921259
 20
4.852362204724409
 30
0.0
  0
SEQEND
  5
2746
330
2742
100
AcDbEntity
  8
1
  0
POLYLINE
  5
2747
330
1F
100
AcDbEntity
  8
1
100
AcDb2dPolyline
 66
     1
 10
0.0
 20
0.0
 30
0.0
  0
VERTEX
  5
2748
330
2747
100
AcDbEntity
  8
1
100
AcDbVertex
100
AcDb2dVertex
 10
3.932086614173228
 20
6.254921259842519
 30
0.0
  0
VERTEX
  5
2749
330
2747
100
AcDbEntity
  8
1
100
AcDbVertex
100
AcDb2dVertex
 10
3.934055118110236
 20
6.254921259842519
 30
0.0
  0
VERTEX
  5
274A
330
2747
100
AcDbEntity
  8
1
100
AcDbVertex
100
AcDb2dVertex
 10
3.939960629921259
 20
6.254921259842519
 30
0.0
  0
SEQEND
  5
274B
330
2747
100
AcDbEntity
  8
1
  0
POLYLINE
  5
274C
330
1F
100
AcDbEntity
  8
1
100
AcDb2dPolyline
 66
     1
 10
0.0
 20
0.0
 30
0.0
  0
VERTEX
  5
274D
330
274C
100
AcDbEntity
  8
1
100
AcDbVertex
100
AcDb2dVertex
 10
4.676181102362204
 20
6.400590551181101
 30
0.0
  0
VERTEX
  5
274E
330
274C
100
AcDbEntity
  8
1
100
AcDbVertex
100
AcDb2dVertex
 10
4.676181102362204
 20
6.406496062992125
 30
0.0
  0
VERTEX
  5
274F
330
274C
100
AcDbEntity
  8
1
100
AcDbVertex
100
AcDb2dVertex
 10
4.676181102362204
 20
6.408464566929133
 30
0.0
  0
SEQEND
  5
2750
330
274C
100
AcDbEntity
  8
1
  0
POLYLINE
  5
2751
330
1F
100
AcDbEntity
  8
1
100
AcDb2dPolyline
 66
     1
 10
0.0
 20
0.0
 30
0.0
  0
VERTEX
  5
2752
330
2751
100
AcDbEntity
  8
1
100
AcDbVertex
100
AcDb2dVertex
 10
4.304133858267716
 20
6.407480314960629
 30
0.0
  0
VERTEX
  5
2753
330
2751
100
AcDbEntity
  8
1
100
AcDbVertex
100
AcDb2dVertex
 10
4.304133858267716
 20
6.413385826771653
 30
0.0
  0
VERTEX
  5
2754
330
2751
100
AcDbEntity
  8
1
100
AcDbVertex
100
AcDb2dVertex
 10
4.304133858267716
 20
6.415354330708661
 30
0.0
  0
SEQEND
  5
2755
330
2751
100
AcDbEntity
  8
1
  0
POLYLINE
  5
2756
330
1F
100
AcDbEntity
  8
1
100
AcDb2dPolyline
 66
     1
 10
0.0
 20
0.0
 30
0.0
  0
VERTEX
  5
2757
330
2756
100
AcDbEntity
  8
1
100
AcDbVertex
100
AcDb2dVertex
 10
3.941929133858267
 20
6.34251968503937
 30
0.0
  0
VERTEX
  5
2758
330
2756
100
AcDbEntity
  8
1
100
AcDbVertex
100
AcDb2dVertex
 10
3.944881889763779
 20
6.34251968503937
 30
0.0
  0
VERTEX
  5
2759
330
2756
100
AcDbEntity
  8
1
100
AcDbVertex
100
AcDb2dVertex
 10
3.949803149606299
 20
6.340551181102362
 30
0.0
  0
SEQEND
  5
275A
330
2756
100
AcDbEntity
  8
1
  0
POLYLINE
  5
275B
330
1F
100
AcDbEntity
  8
1
100
AcDb2dPolyline
 66
     1
 10
0.0
 20
0.0
 30
0.0
  0
VERTEX
  5
275C
330
275B
100
AcDbEntity
  8
1
100
AcDbVertex
100
AcDb2dVertex
 10
3.96751968503937
 20
6.401574803149606
 30
0.0
  0
VERTEX
  5
275D
330
275B
100
AcDbEntity
  8
1
100
AcDbVertex
100
AcDb2dVertex
 10
3.96751968503937
 20
6.407480314960629
 30
0.0
  0
VERTEX
  5
275E
330
275B
100
AcDbEntity
  8
1
100
AcDbVertex
100
AcDb2dVertex
 10
3.96751968503937
 20
6.409448818897637
 30
0.0
  0
SEQEND
  5
275F
330
275B
100
AcDbEntity
  8
1
  0
POLYLINE
  5
2760
330
1F
100
AcDbEntity
  8
1
100
AcDb2dPolyline
 66
     1
 10
0.0
 20
0.0
 30
0.0
  0
VERTEX
  5
2761
330
2760
100
AcDbEntity
  8
1
100
AcDbVertex
100
AcDb2dVertex
 10
3.960629921259842
 20
6.404527559055117
 30
0.0
  0
VERTEX
  5
2762
330
2760
100
AcDbEntity
  8
1
100
AcDbVertex
100
AcDb2dVertex
 10
3.96259842519685
 20
6.403543307086613
 30
0.0
  0
VERTEX
  5
2763
330
2760
100
AcDbEntity
  8
1
100
AcDbVertex
100
AcDb2dVertex
 10
3.96751968503937
 20
6.401574803149606
 30
0.0
  0
SEQEND
  5
2764
330
2760
100
AcDbEntity
  8
1
  0
POLYLINE
  5
2765
330
1F
100
AcDbEntity
  8
1
100
AcDb2dPolyline
 66
     1
 10
0.0
 20
0.0
 30
0.0
  0
VERTEX
  5
2766
330
2765
100
AcDbEntity
  8
1
100
AcDbVertex
100
AcDb2dVertex
 10
3.960629921259842
 20
6.404527559055117
 30
0.0
  0
VERTEX
  5
2767
330
2765
100
AcDbEntity
  8
1
100
AcDbVertex
100
AcDb2dVertex
 10
3.963582677165354
 20
6.407480314960629
 30
0.0
  0
VERTEX
  5
2768
330
2765
100
AcDbEntity
  8
1
100
AcDbVertex
100
AcDb2dVertex
 10
3.96751968503937
 20
6.409448818897637
 30
0.0
  0
SEQEND
  5
2769
330
2765
100
AcDbEntity
  8
1
  0
POLYLINE
  5
276A
330
1F
100
AcDbEntity
  8
1
100
AcDb2dPolyline
 66
     1
 10
0.0
 20
0.0
 30
0.0
  0
VERTEX
  5
276B
330
276A
100
AcDbEntity
  8
1
100
AcDbVertex
100
AcDb2dVertex
 10
4.304133858267716
 20
5.965551181102362
 30
0.0
  0
VERTEX
  5
276C
330
276A
100
AcDbEntity
  8
1
100
AcDbVertex
100
AcDb2dVertex
 10
4.310039370078739
 20
5.965551181102362
 30
0.0
  0
VERTEX
  5
276D
330
276A
100
AcDbEntity
  8
1
100
AcDbVertex
100
AcDb2dVertex
 10
4.312007874015748
 20
5.965551181102362
 30
0.0
  0
SEQEND
  5
276E
330
276A
100
AcDbEntity
  8
1
  0
POLYLINE
  5
276F
330
1F
100
AcDbEntity
  8
1
100
AcDb2dPolyline
 66
     1
 10
0.0
 20
0.0
 30
0.0
  0
VERTEX
  5
2770
330
276F
100
AcDbEntity
  8
1
100
AcDbVertex
100
AcDb2dVertex
 10
4.356299212598425
 20
6.04527559055118
 30
0.0
  0
VERTEX
  5
2771
330
276F
100
AcDbEntity
  8
1
100
AcDbVertex
100
AcDb2dVertex
 10
4.358267716535433
 20
6.039370078740157
 30
0.0
  0
VERTEX
  5
2772
330
276F
100
AcDbEntity
  8
1
100
AcDbVertex
100
AcDb2dVertex
 10
4.359251968503937
 20
6.037401574803149
 30
0.0
  0
SEQEND
  5
2773
330
276F
100
AcDbEntity
  8
1
  0
POLYLINE
  5
2774
330
1F
100
AcDbEntity
  8
1
100
AcDb2dPolyline
 66
     1
 10
0.0
 20
0.0
 30
0.0
  0
VERTEX
  5
2775
330
2774
100
AcDbEntity
  8
1
100
AcDbVertex
100
AcDb2dVertex
 10
4.633858267716535
 20
6.166338582677164
 30
0.0
  0
VERTEX
  5
2776
330
2774
100
AcDbEntity
  8
1
100
AcDbVertex
100
AcDb2dVertex
 10
4.635826771653543
 20
6.161417322834645
 30
0.0
  0
VERTEX
  5
2777
330
2774
100
AcDbEntity
  8
1
100
AcDbVertex
100
AcDb2dVertex
 10
4.636811023622047
 20
6.159448818897637
 30
0.0
  0
SEQEND
  5
2778
330
2774
100
AcDbEntity
  8
1
  0
POLYLINE
  5
2779
330
1F
100
AcDbEntity
  8
1
100
AcDb2dPolyline
 66
     1
 10
0.0
 20
0.0
 30
0.0
  0
VERTEX
  5
277A
330
2779
100
AcDbEntity
  8
1
100
AcDbVertex
100
AcDb2dVertex
 10
4.676181102362204
 20
6.231299212598425
 30
0.0
  0
VERTEX
  5
277B
330
2779
100
AcDbEntity
  8
1
100
AcDbVertex
100
AcDb2dVertex
 10
4.682086614173228
 20
6.231299212598425
 30
0.0
  0
VERTEX
  5
277C
330
2779
100
AcDbEntity
  8
1
100
AcDbVertex
100
AcDb2dVertex
 10
4.684055118110236
 20
6.231299212598425
 30
0.0
  0
SEQEND
  5
277D
330
2779
100
AcDbEntity
  8
1
  0
POLYLINE
  5
277E
330
1F
100
AcDbEntity
  8
1
100
AcDb2dPolyline
 66
     1
 10
0.0
 20
0.0
 30
0.0
  0
VERTEX
  5
277F
330
277E
100
AcDbEntity
  8
1
100
AcDbVertex
100
AcDb2dVertex
 10
4.676181102362204
 20
6.400590551181101
 30
0.0
  0
VERTEX
  5
2780
330
277E
100
AcDbEntity
  8
1
100
AcDbVertex
100
AcDb2dVertex
 10
4.682086614173228
 20
6.400590551181101
 30
0.0
  0
VERTEX
  5
2781
330
277E
100
AcDbEntity
  8
1
100
AcDbVertex
100
AcDb2dVertex
 10
4.684055118110236
 20
6.400590551181101
 30
0.0
  0
SEQEND
  5
2782
330
277E
100
AcDbEntity
  8
1
  0
POLYLINE
  5
2783
330
1F
100
AcDbEntity
  8
1
100
AcDb2dPolyline
 66
     1
 10
0.0
 20
0.0
 30
0.0
  0
VERTEX
  5
2784
330
2783
100
AcDbEntity
  8
1
100
AcDbVertex
100
AcDb2dVertex
 10
4.676181102362204
 20
6.408464566929133
 30
0.0
  0
VERTEX
  5
2785
330
2783
100
AcDbEntity
  8
1
100
AcDbVertex
100
AcDb2dVertex
 10
4.682086614173228
 20
6.406496062992125
 30
0.0
  0
VERTEX
  5
2786
330
2783
100
AcDbEntity
  8
1
100
AcDbVertex
100
AcDb2dVertex
 10
4.684055118110236
 20
6.400590551181101
 30
0.0
  0
SEQEND
  5
2787
330
2783
100
AcDbEntity
  8
1
  0
POLYLINE
  5
2788
330
1F
100
AcDbEntity
  8
1
100
AcDb2dPolyline
 66
     1
 10
0.0
 20
0.0
 30
0.0
  0
VERTEX
  5
2789
330
2788
100
AcDbEntity
  8
1
100
AcDbVertex
100
AcDb2dVertex
 10
4.684055118110236
 20
4.875
 30
0.0
  0
VERTEX
  5
278A
330
2788
100
AcDbEntity
  8
1
100
AcDbVertex
100
AcDb2dVertex
 10
4.682086614173228
 20
4.875
 30
0.0
  0
VERTEX
  5
278B
330
2788
100
AcDbEntity
  8
1
100
AcDbVertex
100
AcDb2dVertex
 10
4.676181102362204
 20
4.875
 30
0.0
  0
SEQEND
  5
278C
330
2788
100
AcDbEntity
  8
1
  0
POLYLINE
  5
278D
330
1F
100
AcDbEntity
  8
1
100
AcDb2dPolyline
 66
     1
 10
0.0
 20
0.0
 30
0.0
  0
VERTEX
  5
278E
330
278D
100
AcDbEntity
  8
1
100
AcDbVertex
100
AcDb2dVertex
 10
4.684055118110236
 20
4.705708661417323
 30
0.0
  0
VERTEX
  5
278F
330
278D
100
AcDbEntity
  8
1
100
AcDbVertex
100
AcDb2dVertex
 10
4.682086614173228
 20
4.705708661417323
 30
0.0
  0
VERTEX
  5
2790
330
278D
100
AcDbEntity
  8
1
100
AcDbVertex
100
AcDb2dVertex
 10
4.676181102362204
 20
4.705708661417323
 30
0.0
  0
SEQEND
  5
2791
330
278D
100
AcDbEntity
  8
1
  0
POLYLINE
  5
2792
330
1F
100
AcDbEntity
  8
1
100
AcDb2dPolyline
 66
     1
 10
0.0
 20
0.0
 30
0.0
  0
VERTEX
  5
2793
330
2792
100
AcDbEntity
  8
1
100
AcDbVertex
100
AcDb2dVertex
 10
4.684055118110236
 20
4.705708661417323
 30
0.0
  0
VERTEX
  5
2794
330
2792
100
AcDbEntity
  8
1
100
AcDbVertex
100
AcDb2dVertex
 10
4.682086614173228
 20
4.700787401574802
 30
0.0
  0
VERTEX
  5
2795
330
2792
100
AcDbEntity
  8
1
100
AcDbVertex
100
AcDb2dVertex
 10
4.676181102362204
 20
4.697834645669291
 30
0.0
  0
SEQEND
  5
2796
330
2792
100
AcDbEntity
  8
1
  0
POLYLINE
  5
2797
330
1F
100
AcDbEntity
  8
1
100
AcDb2dPolyline
 66
     1
 10
0.0
 20
0.0
 30
0.0
  0
VERTEX
  5
2798
330
2797
100
AcDbEntity
  8
1
100
AcDbVertex
100
AcDb2dVertex
 10
4.098425196850393
 20
4.947834645669291
 30
0.0
  0
VERTEX
  5
2799
330
2797
100
AcDbEntity
  8
1
100
AcDbVertex
100
AcDb2dVertex
 10
4.098425196850393
 20
4.949803149606299
 30
0.0
  0
VERTEX
  5
279A
330
2797
100
AcDbEntity
  8
1
100
AcDbVertex
100
AcDb2dVertex
 10
4.098425196850393
 20
4.955708661417323
 30
0.0
  0
SEQEND
  5
279B
330
2797
100
AcDbEntity
  8
1
  0
POLYLINE
  5
279C
330
1F
100
AcDbEntity
  8
1
100
AcDb2dPolyline
 66
     1
 10
0.0
 20
0.0
 30
0.0
  0
VERTEX
  5
279D
330
279C
100
AcDbEntity
  8
1
100
AcDbVertex
100
AcDb2dVertex
 10
4.090551181102362
 20
4.955708661417323
 30
0.0
  0
VERTEX
  5
279E
330
279C
100
AcDbEntity
  8
1
100
AcDbVertex
100
AcDb2dVertex
 10
4.09251968503937
 20
4.955708661417323
 30
0.0
  0
VERTEX
  5
279F
330
279C
100
AcDbEntity
  8
1
100
AcDbVertex
100
AcDb2dVertex
 10
4.098425196850393
 20
4.955708661417323
 30
0.0
  0
SEQEND
  5
27A0
330
279C
100
AcDbEntity
  8
1
  0
POLYLINE
  5
27A1
330
1F
100
AcDbEntity
  8
1
100
AcDb2dPolyline
 66
     1
 10
0.0
 20
0.0
 30
0.0
  0
VERTEX
  5
27A2
330
27A1
100
AcDbEntity
  8
1
100
AcDbVertex
100
AcDb2dVertex
 10
4.098425196850393
 20
5.798228346456692
 30
0.0
  0
VERTEX
  5
27A3
330
27A1
100
AcDbEntity
  8
1
100
AcDbVertex
100
AcDb2dVertex
 10
4.098425196850393
 20
5.804133858267716
 30
0.0
  0
VERTEX
  5
27A4
330
27A1
100
AcDbEntity
  8
1
100
AcDbVertex
100
AcDb2dVertex
 10
4.098425196850393
 20
5.806102362204724
 30
0.0
  0
SEQEND
  5
27A5
330
27A1
100
AcDbEntity
  8
1
  0
POLYLINE
  5
27A6
330
1F
100
AcDbEntity
  8
1
100
AcDb2dPolyline
 66
     1
 10
0.0
 20
0.0
 30
0.0
  0
VERTEX
  5
27A7
330
27A6
100
AcDbEntity
  8
1
100
AcDbVertex
100
AcDb2dVertex
 10
4.090551181102362
 20
5.798228346456692
 30
0.0
  0
VERTEX
  5
27A8
330
27A6
100
AcDbEntity
  8
1
100
AcDbVertex
100
AcDb2dVertex
 10
4.09251968503937
 20
5.798228346456692
 30
0.0
  0
VERTEX
  5
27A9
330
27A6
100
AcDbEntity
  8
1
100
AcDbVertex
100
AcDb2dVertex
 10
4.098425196850393
 20
5.798228346456692
 30
0.0
  0
SEQEND
  5
27AA
330
27A6
100
AcDbEntity
  8
1
  0
ENDSEC
  0
SECTION
  2
OBJECTS
  0
DICTIONARY
  5
C
330
0
100
AcDbDictionary
281
     1
  3
ACAD_COLOR
350
2AF5
  3
ACAD_GROUP
350
D
  3
ACAD_IMAGE_DICT
350
5A
  3
ACAD_LAYOUT
350
1A
  3
ACAD_MATERIAL
350
2AF1
  3
ACAD_MLEADERSTYLE
350
2AEF
  3
ACAD_MLINESTYLE
350
17
  3
ACAD_PLOTSETTINGS
350
19
  3
ACAD_PLOTSTYLENAME
350
E
  3
ACAD_TABLESTYLE
350
2AEE
  3
ACAD_VISUALSTYLE
350
2A
  3
AcDbVariableDictionary
350
2AF9
  0
DICTIONARY
  5
2AF5
102
{ACAD_REACTORS
330
C
102
}
330
C
100
AcDbDictionary
281
     1
  0
DICTIONARY
  5
D
102
{ACAD_REACTORS
330
C
102
}
330
C
100
AcDbDictionary
281
     1
  0
DICTIONARY
  5
5A
102
{ACAD_REACTORS
330
C
102
}
330
C
100
AcDbDictionary
281
     1
  0
DICTIONARY
  5
1A
102
{ACAD_REACTORS
330
C
102
}
330
C
100
AcDbDictionary
281
     1
  3
Layout1
350
1E
  3
Layout2
350
26
  3
Model
350
22
  0
DICTIONARY
  5
2AF1
102
{ACAD_REACTORS
330
C
102
}
330
C
100
AcDbDictionary
281
     1
  3
ByBlock
350
2AF3
  3
ByLayer
350
2AF2
  3
Global
350
2AF4
  0
DICTIONARY
  5
2AEF
102
{ACAD_REACTORS
330
C
102
}
330
C
100
AcDbDictionary
281
     1
  0
DICTIONARY
  5
17
102
{ACAD_REACTORS
330
C
102
}
330
C
100
AcDbDictionary
281
     1
  3
Standard
350
18
  0
DICTIONARY
  5
19
102
{ACAD_REACTORS
330
C
102
}
330
C
100
AcDbDictionary
281
     1
  0
ACDBDICTIONARYWDFLT
  5
E
102
{ACAD_REACTORS
330
C
102
}
330
C
100
AcDbDictionary
281
     1
  3
Normal
350
F
100
AcDbDictionaryWithDefault
340
F
  0
DICTIONARY
  5
2AEE
102
{ACAD_REACTORS
330
C
102
}
330
C
100
AcDbDictionary
281
     1
  3
Standard
350
2AF6
  0
DICTIONARY
  5
2A
102
{ACAD_REACTORS
330
C
102
}
330
C
100
AcDbDictionary
281
     1
  3
2dWireframe
350
2F
  3
3D Hidden
350
31
  3
3dWireframe
350
30
  3
Basic
350
32
  3
Brighten
350
36
  3
ColorChange
350
3A
  3
Conceptual
350
34
  3
Dim
350
35
  3
Facepattern
350
39
  3
Flat
350
2B
  3
FlatWithEdges
350
2C
  3
Gouraud
350
2D
  3
GouraudWithEdges
350
2E
  3
Linepattern
350
38
  3
Realistic
350
33
  3
Thicken
350
37
  0
DICTIONARY
  5
2AF9
102
{ACAD_REACTORS
330
C
102
}
330
C
100
AcDbDictionary
281
     1
  3
CTABLESTYLE
350
2AFA
  0
LAYOUT
  5
1E
102
{ACAD_REACTORS
330
1A
102
}
330
1A
100
AcDbPlotSettings
  1

  2
none_device
  4

  6

 40
0.0
 41
0.0
 42
0.0
 43
0.0
 44
0.0
 45
0.0
 46
0.0
 47
0.0
 48
0.0
 49
0.0
140
0.0
141
0.0
142
1.0
143
1.0
 70
   688
 72
     0
 73
     0
 74
     5
  7

 75
    16
147
1.0
 76
     0
 77
     2
 78
   300
148
0.0
149
0.0
100
AcDbLayout
  1
Layout1
 70
     1
 71
     1
 10
0.0
 20
0.0
 11
12.0
 21
9.0
 12
0.0
 22
0.0
 32
0.0
 14
1.000000000000000E+20
 24
1.000000000000000E+20
 34
1.000000000000000E+20
 15
-1.000000000000000E+20
 25
-1.000000000000000E+20
 35
-1.000000000000000E+20
146
0.0
 13
0.0
 23
0.0
 33
0.0
 16
1.0
 26
0.0
 36
0.0
 17
0.0
 27
1.0
 37
0.0
 76
     0
330
1B
  0
LAYOUT
  5
26
102
{ACAD_REACTORS
330
1A
102
}
330
1A
100
AcDbPlotSettings
  1

  2
none_device
  4

  6

 40
0.0
 41
0.0
 42
0.0
 43
0.0
 44
0.0
 45
0.0
 46
0.0
 47
0.0
 48
0.0
 49
0.0
140
0.0
141
0.0
142
1.0
143
1.0
 70
   688
 72
     0
 73
     0
 74
     5
  7

 75
    16
147
1.0
 76
     0
 77
     2
 78
   300
148
0.0
149
0.0
100
AcDbLayout
  1
Layout2
 70
     1
 71
     2
 10
0.0
 20
0.0
 11
0.0
 21
0.0
 12
0.0
 22
0.0
 32
0.0
 14
0.0
 24
0.0
 34
0.0
 15
0.0
 25
0.0
 35
0.0
146
0.0
 13
0.0
 23
0.0
 33
0.0
 16
1.0
 26
0.0
 36
0.0
 17
0.0
 27
1.0
 37
0.0
 76
     0
330
23
  0
LAYOUT
  5
22
102
{ACAD_REACTORS
330
1A
102
}
330
1A
100
AcDbPlotSettings
  1

  2
none_device
  4

  6

 40
0.0
 41
0.0
 42
0.0
 43
0.0
 44
0.0
 45
0.0
 46
0.0
 47
0.0
 48
0.0
 49
0.0
140
0.0
141
0.0
142
1.0
143
1.0
 70
  1712
 72
     0
 73
     0
 74
     0
  7

 75
     0
147
1.0
 76
     0
 77
     2
 78
   300
148
0.0
149
0.0
100
AcDbLayout
  1
Model
 70
     1
 71
     0
 10
0.0
 20
0.0
 11
12.0
 21
9.0
 12
0.0
 22
0.0
 32
0.0
 14
1.000000000000000E+20
 24
1.000000000000000E+20
 34
1.000000000000000E+20
 15
-1.000000000000000E+20
 25
-1.000000000000000E+20
 35
-1.000000000000000E+20
146
0.0
 13
0.0
 23
0.0
 33
0.0
 16
1.0
 26
0.0
 36
0.0
 17
0.0
 27
1.0
 37
0.0
 76
     0
330
1F
331
29
  0
MATERIAL
  5
2AF3
102
{ACAD_REACTORS
330
2AF1
102
}
330
2AF1
100
AcDbMaterial
  1
ByBlock
  0
MATERIAL
  5
2AF2
102
{ACAD_REACTORS
330
2AF1
102
}
330
2AF1
100
AcDbMaterial
  1
ByLayer
  0
MATERIAL
  5
2AF4
102
{ACAD_REACTORS
330
2AF1
102
}
330
2AF1
100
AcDbMaterial
  1
Global
  0
MLINESTYLE
  5
18
102
{ACAD_REACTORS
330
17
102
}
330
17
100
AcDbMlineStyle
  2
STANDARD
 70
     0
  3

 62
   256
 51
90.0
 52
90.0
 71
     2
 49
0.5
 62
   256
  6
BYLAYER
 49
-0.5
 62
   256
  6
BYLAYER
  0
ACDBPLACEHOLDER
  5
F
102
{ACAD_REACTORS
330
E
102
}
330
E
  0
TABLESTYLE
  5
2AF6
102
{ACAD_REACTORS
330
2AEE
102
}
330
2AEE
100
AcDbTableStyle
  3
Standard
 70
     0
 71
     0
 40
0.06
 41
0.06
280
     0
281
     0
  7
Standard
140
0.18
170
     2
 62
     0
 63
     7
283
     0
 90
      512
 91
        0
  1

274
    -2
284
     1
 64
     0
275
    -2
285
     1
 65
     0
276
    -2
286
     1
 66
     0
277
    -2
287
     1
 67
     0
278
    -2
288
     1
 68
     0
279
    -2
289
     1
 69
     0
  7
Standard
140
0.25
170
     5
 62
     0
 63
     7
283
     0
 90
      512
 91
        0
  1

274
    -2
284
     1
 64
     0
275
    -2
285
     1
 65
     0
276
    -2
286
     1
 66
     0
277
    -2
287
     1
 67
     0
278
    -2
288
     1
 68
     0
279
    -2
289
     1
 69
     0
  7
Standard
140
0.18
170
     5
 62
     0
 63
     7
283
     0
 90
      512
 91
        0
  1

274
    -2
284
     1
 64
     0
275
    -2
285
     1
 65
     0
276
    -2
286
     1
 66
     0
277
    -2
287
     1
 67
     0
278
    -2
288
     1
 68
     0
279
    -2
289
     1
 69
     0
  0
VISUALSTYLE
  5
2F
102
{ACAD_REACTORS
330
2A
102
}
330
2A
100
AcDbVisualStyle
  2
2dWireframe
 70
     4
 71
     0
 72
     2
 73
     0
 90
        0
 40
-0.6
 41
-30.0
 62
     5
 63
     7
 74
     1
 91
        4
 64
     7
 65
   257
 75
     1
175
     1
 42
1.0
 92
        0
 66
   257
 43
1.0
 76
     1
 77
     6
 78
     2
 67
     7
 79
     5
170
     0
171
     0
290
     0
174
     0
 93
        1
 44
0.0
173
     0
291
     0
 45
0.0
  0
VISUALSTYLE
  5
31
102
{ACAD_REACTORS
330
2A
102
}
330
2A
100
AcDbVisualStyle
  2
3D Hidden
 70
     6
 71
     1
 72
     2
 73
     2
 90
        0
 40
-0.6
 41
-30.0
 62
     5
 63
     7
 74
     2
 91
        2
 64
     7
 65
   257
 75
     2
175
     1
 42
40.0
 92
        0
 66
   257
 43
1.0
 76
     1
 77
     6
 78
     2
 67
     7
 79
     3
170
     0
171
     0
290
     0
174
     0
 93
        1
 44
0.0
173
     0
291
     0
 45
0.0
  0
VISUALSTYLE
  5
30
102
{ACAD_REACTORS
330
2A
102
}
330
2A
100
AcDbVisualStyle
  2
3dWireframe
 70
     5
 71
     0
 72
     2
 73
     0
 90
        0
 40
-0.6
 41
-30.0
 62
     5
 63
     7
 74
     1
 91
        4
 64
     7
 65
   257
 75
     1
175
     1
 42
1.0
 92
        0
 66
   257
 43
1.0
 76
     1
 77
     6
 78
     2
 67
     7
 79
     5
170
     0
171
     0
290
     0
174
     0
 93
        1
 44
0.0
173
     0
291
     0
 45
0.0
  0
VISUALSTYLE
  5
32
102
{ACAD_REACTORS
330
2A
102
}
330
2A
100
AcDbVisualStyle
  2
Basic
 70
     7
 71
     1
 72
     0
 73
     1
 90
        0
 40
-0.6
 41
-30.0
 62
     5
 63
     7
 74
     0
 91
        4
 64
     7
 65
   257
 75
     1
175
     1
 42
1.0
 92
        8
 66
     7
 43
1.0
 76
     1
 77
     6
 78
     2
 67
     7
 79
     5
170
     0
171
     0
290
     0
174
     0
 93
        1
 44
0.0
173
     0
291
     1
 45
0.0
  0
VISUALSTYLE
  5
36
102
{ACAD_REACTORS
330
2A
102
}
330
2A
100
AcDbVisualStyle
  2
Brighten
 70
    12
 71
     2
 72
     2
 73
     0
 90
        0
 40
-0.6
 41
-30.0
 62
     5
 63
     7
 74
     1
 91
        4
 64
     7
 65
   257
 75
     1
175
     1
 42
1.0
 92
        8
 66
     7
 43
1.0
 76
     1
 77
     6
 78
     2
 67
     7
 79
     5
170
     0
171
     0
290
     0
174
     0
 93
        1
 44
50.0
173
     0
291
     1
 45
0.0
  0
VISUALSTYLE
  5
3A
102
{ACAD_REACTORS
330
2A
102
}
330
2A
100
AcDbVisualStyle
  2
ColorChange
 70
    16
 71
     2
 72
     2
 73
     3
 90
        0
 40
-0.6
 41
-30.0
 62
     5
 63
     8
 74
     1
 91
        4
 64
     7
 65
   257
 75
     1
175
     1
 42
1.0
 92
        8
 66
     8
 43
1.0
 76
     1
 77
     6
 78
     2
 67
     7
 79
     5
170
     0
171
     0
290
     0
174
     0
 93
        1
 44
0.0
173
     0
291
     1
 45
0.0
  0
VISUALSTYLE
  5
34
102
{ACAD_REACTORS
330
2A
102
}
330
2A
100
AcDbVisualStyle
  2
Conceptual
 70
     9
 71
     3
 72
     2
 73
     0
 90
        0
 40
-0.6
 41
-30.0
 62
     5
 63
     7
 74
     2
 91
        2
 64
     7
 65
   257
 75
     1
175
     1
 42
40.0
 92
        8
 66
     7
 43
1.0
 76
     1
 77
     6
 78
     2
 67
     7
 79
     3
170
     0
171
     0
290
     0
174
     0
 93
        1
 44
0.0
173
     0
291
     0
 45
0.0
  0
VISUALSTYLE
  5
35
102
{ACAD_REACTORS
330
2A
102
}
330
2A
100
AcDbVisualStyle
  2
Dim
 70
    11
 71
     2
 72
     2
 73
     0
 90
        0
 40
-0.6
 41
-30.0
 62
     5
 63
     7
 74
     1
 91
        4
 64
     7
 65
   257
 75
     1
175
     1
 42
1.0
 92
        8
 66
     7
 43
1.0
 76
     1
 77
     6
 78
     2
 67
     7
 79
     5
170
     0
171
     0
290
     0
174
     0
 93
        1
 44
-50.0
173
     0
291
     1
 45
0.0
  0
VISUALSTYLE
  5
39
102
{ACAD_REACTORS
330
2A
102
}
330
2A
100
AcDbVisualStyle
  2
Facepattern
 70
    15
 71
     2
 72
     2
 73
     0
 90
        0
 40
-0.6
 41
-30.0
 62
     5
 63
     7
 74
     1
 91
        4
 64
     7
 65
   257
 75
     1
175
     1
 42
1.0
 92
        8
 66
     7
 43
1.0
 76
     1
 77
     6
 78
     2
 67
     7
 79
     5
170
     0
171
     0
290
     0
174
     0
 93
        1
 44
0.0
173
     0
291
     1
 45
0.0
  0
VISUALSTYLE
  5
2B
102
{ACAD_REACTORS
330
2A
102
}
330
2A
100
AcDbVisualStyle
  2
Flat
 70
     0
 71
     2
 72
     1
 73
     1
 90
        2
 40
-0.6
 41
30.0
 62
     5
 63
     7
 74
     0
 91
        4
 64
     7
 65
   257
 75
     1
175
     1
 42
1.0
 92
        8
 66
     7
 43
1.0
 76
     1
 77
     6
 78
     2
 67
     7
 79
     5
170
     0
171
     0
290
     0
174
     0
 93
       13
 44
0.0
173
     0
291
     1
 45
0.0
  0
VISUALSTYLE
  5
2C
102
{ACAD_REACTORS
330
2A
102
}
330
2A
100
AcDbVisualStyle
  2
FlatWithEdges
 70
     1
 71
     2
 72
     1
 73
     1
 90
        2
 40
-0.6
 41
30.0
 62
     5
 63
     7
 74
     1
 91
        4
 64
     7
 65
   257
 75
     1
175
     1
 42
1.0
 92
        0
 66
   257
 43
1.0
 76
     1
 77
     6
 78
     2
 67
     7
 79
     5
170
     0
171
     0
290
     0
174
     0
 93
       13
 44
0.0
173
     0
291
     1
 45
0.0
  0
VISUALSTYLE
  5
2D
102
{ACAD_REACTORS
330
2A
102
}
330
2A
100
AcDbVisualStyle
  2
Gouraud
 70
     2
 71
     2
 72
     2
 73
     1
 90
        2
 40
-0.6
 41
30.0
 62
     5
 63
     7
 74
     0
 91
        4
 64
     7
 65
   257
 75
     1
175
     1
 42
1.0
 92
        0
 66
     7
 43
1.0
 76
     1
 77
     6
 78
     2
 67
     7
 79
     5
170
     0
171
     0
290
     0
174
     0
 93
       13
 44
0.0
173
     0
291
     1
 45
0.0
  0
VISUALSTYLE
  5
2E
102
{ACAD_REACTORS
330
2A
102
}
330
2A
100
AcDbVisualStyle
  2
GouraudWithEdges
 70
     3
 71
     2
 72
     2
 73
     1
 90
        2
 40
-0.6
 41
30.0
 62
     5
 63
     7
 74
     1
 91
        4
 64
     7
 65
   257
 75
     1
175
     1
 42
1.0
 92
        0
 66
   257
 43
1.0
 76
     1
 77
     6
 78
     2
 67
     7
 79
     5
170
     0
171
     0
290
     0
174
     0
 93
       13
 44
0.0
173
     0
291
     1
 45
0.0
  0
VISUALSTYLE
  5
38
102
{ACAD_REACTORS
330
2A
102
}
330
2A
100
AcDbVisualStyle
  2
Linepattern
 70
    14
 71
     2
 72
     2
 73
     0
 90
        0
 40
-0.6
 41
-30.0
 62
     5
 63
     7
 74
     1
 91
        4
 64
     7
 65
   257
 75
     7
175
     7
 42
1.0
 92
        8
 66
     7
 43
1.0
 76
     1
 77
     6
 78
     2
 67
     7
 79
     5
170
     0
171
     0
290
     0
174
     0
 93
        1
 44
0.0
173
     0
291
     1
 45
0.0
  0
VISUALSTYLE
  5
33
102
{ACAD_REACTORS
330
2A
102
}
330
2A
100
AcDbVisualStyle
  2
Realistic
 70
     8
 71
     2
 72
     2
 73
     0
 90
        0
 40
-0.6
 41
-30.0
 62
     5
 63
     7
 74
     1
 91
        0
 64
     7
 65
   257
 75
     1
175
     1
 42
1.0
 92
        8
 66
     8
 43
1.0
 76
     1
 77
     6
 78
     2
 67
     7
 79
     5
170
     0
171
     0
290
     0
174
     0
 93
       13
 44
0.0
173
     0
291
     0
 45
0.0
  0
VISUALSTYLE
  5
37
102
{ACAD_REACTORS
330
2A
102
}
330
2A
100
AcDbVisualStyle
  2
Thicken
 70
    13
 71
     2
 72
     2
 73
     0
 90
        0
 40
-0.6
 41
-30.0
 62
     5
 63
     7
 74
     1
 91
        4
 64
     7
 65
   257
 75
     1
175
     1
 42
1.0
 92
       12
 66
     7
 43
1.0
 76
     1
 77
     6
 78
     2
 67
     7
 79
     5
170
     0
171
     0
290
     0
174
     0
 93
        1
 44
0.0
173
     0
291
     1
 45
0.0
  0
DICTIONARYVAR
  5
2AFA
102
{ACAD_REACTORS
330
2AF9
102
}
330
2AF9
100
DictionaryVariables
280
     0
  1
STANDARD
  0
ENDSEC
  0
EOF
