  0
SECTION
  2
HEADER
  9
$ACADVER
  1
AC1012
  9
$DWGCODEPAGE
  3
ANSI_1252
  9
$INSBASE
 10
0.0
 20
0.0
 30
0.0
  9
$EXTMIN
 10
3.927310206943754
 20
5.887629595238603
 30
-0.0000000349181948
  9
$EXTMAX
 10
5.700101876024696
 20
9.47564148951977
 30
0.0000000814935746
  9
$LIMMIN
 10
0.0
 20
0.0
  9
$LIMMAX
 10
12.0
 20
9.0
  9
$ORTHOMODE
 70
     1
  9
$REGENMODE
 70
     1
  9
$FILLMODE
 70
     1
  9
$QTEXTMODE
 70
     0
  9
$MIRRTEXT
 70
     1
  9
$DRAGMODE
 70
     2
  9
$LTSCALE
 40
1.0
  9
$OSMODE
 70
    33
  9
$ATTMODE
 70
     1
  9
$TEXTSIZE
 40
0.2
  9
$TRACEWID
 40
0.05
  9
$TEXTSTYLE
  7
STANDARD
  9
$CLAYER
  8
0
  9
$CELTYPE
  6
BYLAYER
  9
$CECOLOR
 62
   256
  9
$CELTSCALE
 40
1.0
  9
$DELOBJ
 70
     1
  9
$DISPSILH
 70
     0
  9
$DIMSCALE
 40
1.0
  9
$DIMASZ
 40
0.18
  9
$DIMEXO
 40
0.0625
  9
$DIMDLI
 40
0.38
  9
$DIMRND
 40
0.0
  9
$DIMDLE
 40
0.0
  9
$DIMEXE
 40
0.18
  9
$DIMTP
 40
0.0
  9
$DIMTM
 40
0.0
  9
$DIMTXT
 40
0.18
  9
$DIMCEN
 40
0.09
  9
$DIMTSZ
 40
0.0
  9
$DIMTOL
 70
     0
  9
$DIMLIM
 70
     0
  9
$DIMTIH
 70
     1
  9
$DIMTOH
 70
     1
  9
$DIMSE1
 70
     0
  9
$DIMSE2
 70
     0
  9
$DIMTAD
 70
     0
  9
$DIMZIN
 70
     0
  9
$DIMBLK
  1

  9
$DIMASO
 70
     1
  9
$DIMSHO
 70
     1
  9
$DIMPOST
  1

  9
$DIMAPOST
  1

  9
$DIMALT
 70
     0
  9
$DIMALTD
 70
     2
  9
$DIMALTF
 40
25.4
  9
$DIMLFAC
 40
1.0
  9
$DIMTOFL
 70
     0
  9
$DIMTVP
 40
0.0
  9
$DIMTIX
 70
     0
  9
$DIMSOXD
 70
     0
  9
$DIMSAH
 70
     0
  9
$DIMBLK1
  1

  9
$DIMBLK2
  1

  9
$DIMSTYLE
  2
STANDARD
  9
$DIMCLRD
 70
     0
  9
$DIMCLRE
 70
     0
  9
$DIMCLRT
 70
     0
  9
$DIMTFAC
 40
1.0
  9
$DIMGAP
 40
0.09
  9
$DIMJUST
 70
     0
  9
$DIMSD1
 70
     0
  9
$DIMSD2
 70
     0
  9
$DIMTOLJ
 70
     1
  9
$DIMTZIN
 70
     0
  9
$DIMALTZ
 70
     0
  9
$DIMALTTZ
 70
     0
  9
$DIMFIT
 70
     5
  9
$DIMUPT
 70
     0
  9
$DIMUNIT
 70
     2
  9
$DIMDEC
 70
     4
  9
$DIMTDEC
 70
     4
  9
$DIMALTU
 70
     2
  9
$DIMALTTD
 70
     2
  9
$DIMTXSTY
  7
STANDARD
  9
$DIMAUNIT
 70
     0
  9
$LUNITS
 70
     2
  9
$LUPREC
 70
     4
  9
$SKETCHINC
 40
0.1
  9
$FILLETRAD
 40
0.0
  9
$AUNITS
 70
     0
  9
$AUPREC
 70
     0
  9
$MENU
  1
acad
  9
$ELEVATION
 40
0.0
  9
$PELEVATION
 40
0.0
  9
$THICKNESS
 40
0.0
  9
$LIMCHECK
 70
     0
  9
$BLIPMODE
 70
     0
  9
$CHAMFERA
 40
0.0
  9
$CHAMFERB
 40
0.0
  9
$CHAMFERC
 40
0.0
  9
$CHAMFERD
 40
0.0
  9
$SKPOLY
 70
     0
  9
$TDCREATE
 40
2451901.484166667
  9
$TDUPDATE
 40
2452340.327922349
  9
$TDINDWG
 40
0.0017156713
  9
$TDUSRTIMER
 40
0.0017156713
  9
$USRTIMER
 70
     1
  9
$ANGBASE
 50
0.0
  9
$ANGDIR
 70
     0
  9
$PDMODE
 70
     0
  9
$PDSIZE
 40
0.0
  9
$PLINEWID
 40
0.0
  9
$COORDS
 70
     2
  9
$SPLFRAME
 70
     0
  9
$SPLINETYPE
 70
     6
  9
$SPLINESEGS
 70
     8
  9
$ATTDIA
 70
     0
  9
$ATTREQ
 70
     1
  9
$HANDLING
 70
  4097
  9
$HANDSEED
  5
43E1
  9
$SURFTAB1
 70
     6
  9
$SURFTAB2
 70
     6
  9
$SURFTYPE
 70
     6
  9
$SURFU
 70
     6
  9
$SURFV
 70
     6
  9
$UCSNAME
  2

  9
$UCSORG
 10
0.0
 20
0.0
 30
0.0
  9
$UCSXDIR
 10
1.0
 20
0.0
 30
0.0
  9
$UCSYDIR
 10
0.0
 20
1.0
 30
0.0
  9
$PUCSNAME
  2

  9
$PUCSORG
 10
0.0
 20
0.0
 30
0.0
  9
$PUCSXDIR
 10
1.0
 20
0.0
 30
0.0
  9
$PUCSYDIR
 10
0.0
 20
1.0
 30
0.0
  9
$USERI1
 70
     0
  9
$USERI2
 70
     0
  9
$USERI3
 70
     0
  9
$USERI4
 70
     0
  9
$USERI5
 70
     0
  9
$USERR1
 40
0.0
  9
$USERR2
 40
0.0
  9
$USERR3
 40
0.0
  9
$USERR4
 40
0.0
  9
$USERR5
 40
0.0
  9
$WORLDVIEW
 70
     1
  9
$SHADEDGE
 70
     3
  9
$SHADEDIF
 70
    70
  9
$TILEMODE
 70
     1
  9
$MAXACTVP
 70
    16
  9
$PINSBASE
 10
0.0
 20
0.0
 30
0.0
  9
$PLIMCHECK
 70
     0
  9
$PEXTMIN
 10
1.000000000000000E+20
 20
1.000000000000000E+20
 30
1.000000000000000E+20
  9
$PEXTMAX
 10
-1.000000000000000E+20
 20
-1.000000000000000E+20
 30
-1.000000000000000E+20
  9
$PLIMMIN
 10
0.0
 20
0.0
  9
$PLIMMAX
 10
12.0
 20
9.0
  9
$UNITMODE
 70
     0
  9
$VISRETAIN
 70
     0
  9
$PLINEGEN
 70
     0
  9
$PSLTSCALE
 70
     1
  9
$TREEDEPTH
 70
  3020
  9
$PICKSTYLE
 70
     1
  9
$CMLSTYLE
  2
STANDARD
  9
$CMLJUST
 70
     0
  9
$CMLSCALE
 40
1.0
  9
$SAVEIMAGES
 70
     1
  0
ENDSEC
  0
SECTION
  2
CLASSES
  0
CLASS
  1
ACDBDICTIONARYWDFLT
  2
AcDbDictionaryWithDefault
  3
AutoCAD 2000
 90
    32768
280
     0
281
     0
  0
CLASS
  1
ACDBPLACEHOLDER
  2
AcDbPlaceHolder
  3
AutoCAD 2000
 90
    32768
280
     0
281
     0
  0
CLASS
  1
LAYOUT
  2
AcDbLayout
  3
AutoCAD 2000
 90
    32768
280
     0
281
     0
  0
CLASS
  1
LONG_TRANSACTION
  2
AcDbLongTransaction
  3
AutoCAD 2000
 90
    32768
280
     0
281
     0
  0
CLASS
  1
LWPOLYLINE
  2
AcDbPolyline
  3
AutoCAD 2000
 90
    32768
280
     0
281
     1
  0
CLASS
  1
HATCH
  2
AcDbHatch
  3
AutoCAD 2000
 90
    32768
280
     0
281
     1
  0
CLASS
  1
XRECORD
  2
AcDbXrecord
  3
AutoCAD 2000
 90
    32768
280
     0
281
     0
  0
CLASS
  1
LONG_TRANSACTION
  2
AcDbLongTransaction
  3
AutoCAD 2000
 90
    32768
280
     0
281
     0
  0
CLASS
  1
LWPOLYLINE
  2
AcDbPolyline
  3
AutoCAD 2000
 90
    32768
280
     0
281
     1
  0
CLASS
  1
HATCH
  2
AcDbHatch
  3
AutoCAD 2000
 90
    32768
280
     0
281
     1
  0
CLASS
  1
XRECORD
  2
AcDbXrecord
  3
AutoCAD 2000
 90
    32768
280
     0
281
     0
  0
ENDSEC
  0
SECTION
  2
TABLES
  0
TABLE
  2
VPORT
  5
8
330
0
100
AcDbSymbolTable
 70
     3
  0
VPORT
  5
43DE
330
8
100
AcDbSymbolTableRecord
100
AcDbViewportTableRecord
  2
*ACTIVE
 70
     0
 10
0.0
 20
0.0
 11
1.0
 21
1.0
 12
4.813706041484225
 22
7.681635542379186
 13
0.0
 23
0.0
 14
1.0
 24
1.0
 15
0.0
 25
0.0
 16
0.0
 26
0.0
 36
1.0
 17
0.0
 27
0.0
 37
0.0
 40
3.61626395644086
 41
1.601839684625492
 42
50.0
 43
0.0
 44
0.0
 50
0.0
 51
0.0
 71
     0
 72
   100
 73
     1
 74
     1
 75
     0
 76
     0
 77
     0
 78
     1
  0
ENDTAB
  0
TABLE
  2
LTYPE
  5
5
330
0
100
AcDbSymbolTable
 70
    25
  0
LTYPE
  5
13
330
5
100
AcDbSymbolTableRecord
100
AcDbLinetypeTableRecord
  2
BYBLOCK
 70
     0
  3

 72
    65
 73
     0
 40
0.0
  0
LTYPE
  5
14
330
5
100
AcDbSymbolTableRecord
100
AcDbLinetypeTableRecord
  2
BYLAYER
 70
     0
  3

 72
    65
 73
     0
 40
0.0
  0
LTYPE
  5
15
330
5
100
AcDbSymbolTableRecord
100
AcDbLinetypeTableRecord
  2
CONTINUOUS
 70
     0
  3
Solid line
 72
    65
 73
     0
 40
0.0
  0
LTYPE
  5
22
330
5
100
AcDbSymbolTableRecord
100
AcDbLinetypeTableRecord
  2
BORDER
 70
     0
  3
__ __ . __ __ . __ __ . __ __ . __ __ . __ __ .
 72
    65
 73
     6
 40
1.75
 49
0.5
 74
     0
 49
-0.25
 74
     0
 49
0.5
 74
     0
 49
-0.25
 74
     0
 49
0.5
 74
     0
 49
-0.25
 74
     0
  0
LTYPE
  5
23
330
5
100
AcDbSymbolTableRecord
100
AcDbLinetypeTableRecord
  2
BORDER2
 70
     0
  3
__.__.__.__.__.__.__.__.__.__.__.__.__.__.__.__
 72
    65
 73
     6
 40
0.875
 49
0.25
 74
     0
 49
-0.125
 74
     0
 49
0.25
 74
     0
 49
-0.125
 74
     0
 49
0.25
 74
     0
 49
-0.125
 74
     0
  0
LTYPE
  5
24
330
5
100
AcDbSymbolTableRecord
100
AcDbLinetypeTableRecord
  2
BORDERX2
 70
     0
  3
____  ____  .  ____  ____  .  
 72
    65
 73
     6
 40
3.5
 49
1.0
 74
     0
 49
-0.5
 74
     0
 49
1.0
 74
     0
 49
-0.5
 74
     0
 49
1.0
 74
     0
 49
-0.5
 74
     0
  0
LTYPE
  5
25
330
5
100
AcDbSymbolTableRecord
100
AcDbLinetypeTableRecord
  2
CENTER
 70
     0
  3
____ _ ____ _ ____ _ ____ _ ____ _ ____ _ ____
 72
    65
 73
     4
 40
2.0
 49
1.25
 74
     0
 49
-0.25
 74
     0
 49
0.25
 74
     0
 49
-0.25
 74
     0
  0
LTYPE
  5
26
330
5
100
AcDbSymbolTableRecord
100
AcDbLinetypeTableRecord
  2
CENTER2
 70
     0
  3
____ _ ____ _ ____ _ ____ _ ____ _ ____ _ ____
 72
    65
 73
     4
 40
1.125
 49
0.75
 74
     0
 49
-0.125
 74
     0
 49
0.125
 74
     0
 49
-0.125
 74
     0
  0
LTYPE
  5
27
330
5
100
AcDbSymbolTableRecord
100
AcDbLinetypeTableRecord
  2
CENTERX2
 70
     0
  3
________  __  ________  __  ________  __  
 72
    65
 73
     4
 40
4.0
 49
2.5
 74
     0
 49
-0.5
 74
     0
 49
0.5
 74
     0
 49
-0.5
 74
     0
  0
LTYPE
  5
28
330
5
100
AcDbSymbolTableRecord
100
AcDbLinetypeTableRecord
  2
DASHDOT
 70
     0
  3
__ . __ . __ . __ . __ . __ . __ . 
 72
    65
 73
     4
 40
1.0
 49
0.5
 74
     0
 49
-0.25
 74
     0
 49
0.0
 74
     0
 49
-0.25
 74
     0
  0
LTYPE
  5
29
330
5
100
AcDbSymbolTableRecord
100
AcDbLinetypeTableRecord
  2
DASHDOT2
 70
     0
  3
_._._._._._._._._._._._._._._._.
 72
    65
 73
     4
 40
0.5
 49
0.25
 74
     0
 49
-0.125
 74
     0
 49
0.0
 74
     0
 49
-0.125
 74
     0
  0
LTYPE
  5
2A
330
5
100
AcDbSymbolTableRecord
100
AcDbLinetypeTableRecord
  2
DASHDOTX2
 70
     0
  3
____  .  ____  .  ____  .  ____  .  
 72
    65
 73
     4
 40
2.0
 49
1.0
 74
     0
 49
-0.5
 74
     0
 49
0.0
 74
     0
 49
-0.5
 74
     0
  0
LTYPE
  5
2B
330
5
100
AcDbSymbolTableRecord
100
AcDbLinetypeTableRecord
  2
DASHED
 70
     0
  3
__ __ __ __ __ __ __ __ __ __ __ __ 
 72
    65
 73
     2
 40
0.75
 49
0.5
 74
     0
 49
-0.25
 74
     0
  0
LTYPE
  5
2C
330
5
100
AcDbSymbolTableRecord
100
AcDbLinetypeTableRecord
  2
DASHED2
 70
     0
  3
_ _ _ _ _ _ _ _ _ _ _ _ _ _ _ _ _ _ 
 72
    65
 73
     2
 40
0.375
 49
0.25
 74
     0
 49
-0.125
 74
     0
  0
LTYPE
  5
2D
330
5
100
AcDbSymbolTableRecord
100
AcDbLinetypeTableRecord
  2
DASHEDX2
 70
     0
  3
____  ____  ____  ____  ____  ____  
 72
    65
 73
     2
 40
1.5
 49
1.0
 74
     0
 49
-0.5
 74
     0
  0
LTYPE
  5
2E
330
5
100
AcDbSymbolTableRecord
100
AcDbLinetypeTableRecord
  2
DIVIDE
 70
     0
  3
____ . . ____ . . ____ . . ____ . . 
 72
    65
 73
     6
 40
1.25
 49
0.5
 74
     0
 49
-0.25
 74
     0
 49
0.0
 74
     0
 49
-0.25
 74
     0
 49
0.0
 74
     0
 49
-0.25
 74
     0
  0
LTYPE
  5
2F
330
5
100
AcDbSymbolTableRecord
100
AcDbLinetypeTableRecord
  2
DIVIDE2
 70
     0
  3
__..__..__..__..__..__..__..__..__..
 72
    65
 73
     6
 40
0.625
 49
0.25
 74
     0
 49
-0.125
 74
     0
 49
0.0
 74
     0
 49
-0.125
 74
     0
 49
0.0
 74
     0
 49
-0.125
 74
     0
  0
LTYPE
  5
30
330
5
100
AcDbSymbolTableRecord
100
AcDbLinetypeTableRecord
  2
DIVIDEX2
 70
     0
  3
________  .  .  ________  .  .  ________  .  . 
 72
    65
 73
     6
 40
2.5
 49
1.0
 74
     0
 49
-0.5
 74
     0
 49
0.0
 74
     0
 49
-0.5
 74
     0
 49
0.0
 74
     0
 49
-0.5
 74
     0
  0
LTYPE
  5
31
330
5
100
AcDbSymbolTableRecord
100
AcDbLinetypeTableRecord
  2
DOT
 70
     0
  3
. . . . . . . . . . . . . . . . . . 
 72
    65
 73
     2
 40
0.25
 49
0.0
 74
     0
 49
-0.25
 74
     0
  0
LTYPE
  5
32
330
5
100
AcDbSymbolTableRecord
100
AcDbLinetypeTableRecord
  2
DOT2
 70
     0
  3
....................................
 72
    65
 73
     2
 40
0.125
 49
0.0
 74
     0
 49
-0.125
 74
     0
  0
LTYPE
  5
33
330
5
100
AcDbSymbolTableRecord
100
AcDbLinetypeTableRecord
  2
DOTX2
 70
     0
  3
.  .  .  .  .  .  .  .  .  .  .  .  .  
 72
    65
 73
     2
 40
0.5
 49
0.0
 74
     0
 49
-0.5
 74
     0
  0
LTYPE
  5
34
330
5
100
AcDbSymbolTableRecord
100
AcDbLinetypeTableRecord
  2
HIDDEN
 70
     0
  3
__ __ __ __ __ __ __ __ __ __ __ __ 
 72
    65
 73
     2
 40
0.375
 49
0.25
 74
     0
 49
-0.125
 74
     0
  0
LTYPE
  5
35
330
5
100
AcDbSymbolTableRecord
100
AcDbLinetypeTableRecord
  2
HIDDEN2
 70
     0
  3
_ _ _ _ _ _ _ _ _ _ _ _ _ _ _ _ _ _ 
 72
    65
 73
     2
 40
0.1875
 49
0.125
 74
     0
 49
-0.0625
 74
     0
  0
LTYPE
  5
36
330
5
100
AcDbSymbolTableRecord
100
AcDbLinetypeTableRecord
  2
HIDDENX2
 70
     0
  3
____ ____ ____ ____ ____ ____ ____ 
 72
    65
 73
     2
 40
0.75
 49
0.5
 74
     0
 49
-0.25
 74
     0
  0
LTYPE
  5
37
330
5
100
AcDbSymbolTableRecord
100
AcDbLinetypeTableRecord
  2
PHANTOM
 70
     0
  3
______  __  __  ______  __  __  
 72
    65
 73
     6
 40
2.5
 49
1.25
 74
     0
 49
-0.25
 74
     0
 49
0.25
 74
     0
 49
-0.25
 74
     0
 49
0.25
 74
     0
 49
-0.25
 74
     0
  0
LTYPE
  5
38
330
5
100
AcDbSymbolTableRecord
100
AcDbLinetypeTableRecord
  2
PHANTOM2
 70
     0
  3
___ _ _ ___ _ _ ___ _ _ ___ _ _ 
 72
    65
 73
     6
 40
1.25
 49
0.625
 74
     0
 49
-0.125
 74
     0
 49
0.125
 74
     0
 49
-0.125
 74
     0
 49
0.125
 74
     0
 49
-0.125
 74
     0
  0
LTYPE
  5
39
330
5
100
AcDbSymbolTableRecord
100
AcDbLinetypeTableRecord
  2
PHANTOMX2
 70
     0
  3
___ _ _ ___ _ _ ___ _ _ ___ _ _ 
 72
    65
 73
     6
 40
5.0
 49
2.5
 74
     0
 49
-0.5
 74
     0
 49
0.5
 74
     0
 49
-0.5
 74
     0
 49
0.5
 74
     0
 49
-0.5
 74
     0
  0
ENDTAB
  0
TABLE
  2
LAYER
  5
2
330
0
100
AcDbSymbolTable
 70
   256
  0
LAYER
  5
10
330
2
100
AcDbSymbolTableRecord
100
AcDbLayerTableRecord
  2
0
 70
     0
 62
     7
  6
CONTINUOUS
  0
LAYER
  5
3A
330
2
100
AcDbSymbolTableRecord
100
AcDbLayerTableRecord
  2
1
 70
     0
 62
     1
  6
CONTINUOUS
  0
LAYER
  5
3B
330
2
100
AcDbSymbolTableRecord
100
AcDbLayerTableRecord
  2
2
 70
     0
 62
     2
  6
CONTINUOUS
  0
LAYER
  5
3C
330
2
100
AcDbSymbolTableRecord
100
AcDbLayerTableRecord
  2
3
 70
     0
 62
     3
  6
CONTINUOUS
  0
LAYER
  5
3D
330
2
100
AcDbSymbolTableRecord
100
AcDbLayerTableRecord
  2
4
 70
     0
 62
     4
  6
CONTINUOUS
  0
LAYER
  5
3E
330
2
100
AcDbSymbolTableRecord
100
AcDbLayerTableRecord
  2
5
 70
     0
 62
     5
  6
CONTINUOUS
  0
LAYER
  5
3F
330
2
100
AcDbSymbolTableRecord
100
AcDbLayerTableRecord
  2
6
 70
     0
 62
     6
  6
CONTINUOUS
  0
LAYER
  5
40
330
2
100
AcDbSymbolTableRecord
100
AcDbLayerTableRecord
  2
7
 70
     0
 62
     7
  6
CONTINUOUS
  0
LAYER
  5
41
330
2
100
AcDbSymbolTableRecord
100
AcDbLayerTableRecord
  2
8
 70
     0
 62
     8
  6
CONTINUOUS
  0
LAYER
  5
42
330
2
100
AcDbSymbolTableRecord
100
AcDbLayerTableRecord
  2
9
 70
     0
 62
     9
  6
CONTINUOUS
  0
LAYER
  5
43
330
2
100
AcDbSymbolTableRecord
100
AcDbLayerTableRecord
  2
10
 70
     0
 62
    10
  6
CONTINUOUS
  0
LAYER
  5
44
330
2
100
AcDbSymbolTableRecord
100
AcDbLayerTableRecord
  2
11
 70
     0
 62
    11
  6
CONTINUOUS
  0
LAYER
  5
45
330
2
100
AcDbSymbolTableRecord
100
AcDbLayerTableRecord
  2
12
 70
     0
 62
    12
  6
CONTINUOUS
  0
LAYER
  5
46
330
2
100
AcDbSymbolTableRecord
100
AcDbLayerTableRecord
  2
13
 70
     0
 62
    13
  6
CONTINUOUS
  0
LAYER
  5
47
330
2
100
AcDbSymbolTableRecord
100
AcDbLayerTableRecord
  2
14
 70
     0
 62
    14
  6
CONTINUOUS
  0
LAYER
  5
48
330
2
100
AcDbSymbolTableRecord
100
AcDbLayerTableRecord
  2
15
 70
     0
 62
    15
  6
CONTINUOUS
  0
LAYER
  5
49
330
2
100
AcDbSymbolTableRecord
100
AcDbLayerTableRecord
  2
16
 70
     0
 62
    16
  6
CONTINUOUS
  0
LAYER
  5
4A
330
2
100
AcDbSymbolTableRecord
100
AcDbLayerTableRecord
  2
17
 70
     0
 62
    17
  6
CONTINUOUS
  0
LAYER
  5
4B
330
2
100
AcDbSymbolTableRecord
100
AcDbLayerTableRecord
  2
18
 70
     0
 62
    18
  6
CONTINUOUS
  0
LAYER
  5
4C
330
2
100
AcDbSymbolTableRecord
100
AcDbLayerTableRecord
  2
19
 70
     0
 62
    19
  6
CONTINUOUS
  0
LAYER
  5
4D
330
2
100
AcDbSymbolTableRecord
100
AcDbLayerTableRecord
  2
20
 70
     0
 62
    20
  6
CONTINUOUS
  0
LAYER
  5
4E
330
2
100
AcDbSymbolTableRecord
100
AcDbLayerTableRecord
  2
21
 70
     0
 62
    21
  6
CONTINUOUS
  0
LAYER
  5
4F
330
2
100
AcDbSymbolTableRecord
100
AcDbLayerTableRecord
  2
22
 70
     0
 62
    22
  6
CONTINUOUS
  0
LAYER
  5
50
330
2
100
AcDbSymbolTableRecord
100
AcDbLayerTableRecord
  2
23
 70
     0
 62
    23
  6
CONTINUOUS
  0
LAYER
  5
51
330
2
100
AcDbSymbolTableRecord
100
AcDbLayerTableRecord
  2
24
 70
     0
 62
    24
  6
CONTINUOUS
  0
LAYER
  5
52
330
2
100
AcDbSymbolTableRecord
100
AcDbLayerTableRecord
  2
25
 70
     0
 62
    25
  6
CONTINUOUS
  0
LAYER
  5
53
330
2
100
AcDbSymbolTableRecord
100
AcDbLayerTableRecord
  2
26
 70
     0
 62
    26
  6
CONTINUOUS
  0
LAYER
  5
54
330
2
100
AcDbSymbolTableRecord
100
AcDbLayerTableRecord
  2
27
 70
     0
 62
    27
  6
CONTINUOUS
  0
LAYER
  5
55
330
2
100
AcDbSymbolTableRecord
100
AcDbLayerTableRecord
  2
28
 70
     0
 62
    28
  6
CONTINUOUS
  0
LAYER
  5
56
330
2
100
AcDbSymbolTableRecord
100
AcDbLayerTableRecord
  2
29
 70
     0
 62
    29
  6
CONTINUOUS
  0
LAYER
  5
57
330
2
100
AcDbSymbolTableRecord
100
AcDbLayerTableRecord
  2
30
 70
     0
 62
    30
  6
CONTINUOUS
  0
LAYER
  5
58
330
2
100
AcDbSymbolTableRecord
100
AcDbLayerTableRecord
  2
31
 70
     0
 62
    31
  6
CONTINUOUS
  0
LAYER
  5
59
330
2
100
AcDbSymbolTableRecord
100
AcDbLayerTableRecord
  2
32
 70
     0
 62
    32
  6
CONTINUOUS
  0
LAYER
  5
5A
330
2
100
AcDbSymbolTableRecord
100
AcDbLayerTableRecord
  2
33
 70
     0
 62
    33
  6
CONTINUOUS
  0
LAYER
  5
5B
330
2
100
AcDbSymbolTableRecord
100
AcDbLayerTableRecord
  2
34
 70
     0
 62
    34
  6
CONTINUOUS
  0
LAYER
  5
5C
330
2
100
AcDbSymbolTableRecord
100
AcDbLayerTableRecord
  2
35
 70
     0
 62
    35
  6
CONTINUOUS
  0
LAYER
  5
5D
330
2
100
AcDbSymbolTableRecord
100
AcDbLayerTableRecord
  2
36
 70
     0
 62
    36
  6
CONTINUOUS
  0
LAYER
  5
5E
330
2
100
AcDbSymbolTableRecord
100
AcDbLayerTableRecord
  2
37
 70
     0
 62
    37
  6
CONTINUOUS
  0
LAYER
  5
5F
330
2
100
AcDbSymbolTableRecord
100
AcDbLayerTableRecord
  2
38
 70
     0
 62
    38
  6
CONTINUOUS
  0
LAYER
  5
60
330
2
100
AcDbSymbolTableRecord
100
AcDbLayerTableRecord
  2
39
 70
     0
 62
    39
  6
CONTINUOUS
  0
LAYER
  5
61
330
2
100
AcDbSymbolTableRecord
100
AcDbLayerTableRecord
  2
40
 70
     0
 62
    40
  6
CONTINUOUS
  0
LAYER
  5
62
330
2
100
AcDbSymbolTableRecord
100
AcDbLayerTableRecord
  2
41
 70
     0
 62
    41
  6
CONTINUOUS
  0
LAYER
  5
63
330
2
100
AcDbSymbolTableRecord
100
AcDbLayerTableRecord
  2
42
 70
     0
 62
    42
  6
CONTINUOUS
  0
LAYER
  5
64
330
2
100
AcDbSymbolTableRecord
100
AcDbLayerTableRecord
  2
43
 70
     0
 62
    43
  6
CONTINUOUS
  0
LAYER
  5
65
330
2
100
AcDbSymbolTableRecord
100
AcDbLayerTableRecord
  2
44
 70
     0
 62
    44
  6
CONTINUOUS
  0
LAYER
  5
66
330
2
100
AcDbSymbolTableRecord
100
AcDbLayerTableRecord
  2
45
 70
     0
 62
    45
  6
CONTINUOUS
  0
LAYER
  5
67
330
2
100
AcDbSymbolTableRecord
100
AcDbLayerTableRecord
  2
46
 70
     0
 62
    46
  6
CONTINUOUS
  0
LAYER
  5
68
330
2
100
AcDbSymbolTableRecord
100
AcDbLayerTableRecord
  2
47
 70
     0
 62
    47
  6
CONTINUOUS
  0
LAYER
  5
69
330
2
100
AcDbSymbolTableRecord
100
AcDbLayerTableRecord
  2
48
 70
     0
 62
    48
  6
CONTINUOUS
  0
LAYER
  5
6A
330
2
100
AcDbSymbolTableRecord
100
AcDbLayerTableRecord
  2
49
 70
     0
 62
    49
  6
CONTINUOUS
  0
LAYER
  5
6B
330
2
100
AcDbSymbolTableRecord
100
AcDbLayerTableRecord
  2
50
 70
     0
 62
    50
  6
CONTINUOUS
  0
LAYER
  5
6C
330
2
100
AcDbSymbolTableRecord
100
AcDbLayerTableRecord
  2
51
 70
     0
 62
    51
  6
CONTINUOUS
  0
LAYER
  5
6D
330
2
100
AcDbSymbolTableRecord
100
AcDbLayerTableRecord
  2
52
 70
     0
 62
    52
  6
CONTINUOUS
  0
LAYER
  5
6E
330
2
100
AcDbSymbolTableRecord
100
AcDbLayerTableRecord
  2
53
 70
     0
 62
    53
  6
CONTINUOUS
  0
LAYER
  5
6F
330
2
100
AcDbSymbolTableRecord
100
AcDbLayerTableRecord
  2
54
 70
     0
 62
    54
  6
CONTINUOUS
  0
LAYER
  5
70
330
2
100
AcDbSymbolTableRecord
100
AcDbLayerTableRecord
  2
55
 70
     0
 62
    55
  6
CONTINUOUS
  0
LAYER
  5
71
330
2
100
AcDbSymbolTableRecord
100
AcDbLayerTableRecord
  2
56
 70
     0
 62
    56
  6
CONTINUOUS
  0
LAYER
  5
72
330
2
100
AcDbSymbolTableRecord
100
AcDbLayerTableRecord
  2
57
 70
     0
 62
    57
  6
CONTINUOUS
  0
LAYER
  5
73
330
2
100
AcDbSymbolTableRecord
100
AcDbLayerTableRecord
  2
58
 70
     0
 62
    58
  6
CONTINUOUS
  0
LAYER
  5
74
330
2
100
AcDbSymbolTableRecord
100
AcDbLayerTableRecord
  2
59
 70
     0
 62
    59
  6
CONTINUOUS
  0
LAYER
  5
75
330
2
100
AcDbSymbolTableRecord
100
AcDbLayerTableRecord
  2
60
 70
     0
 62
    60
  6
CONTINUOUS
  0
LAYER
  5
76
330
2
100
AcDbSymbolTableRecord
100
AcDbLayerTableRecord
  2
61
 70
     0
 62
    61
  6
CONTINUOUS
  0
LAYER
  5
77
330
2
100
AcDbSymbolTableRecord
100
AcDbLayerTableRecord
  2
62
 70
     0
 62
    62
  6
CONTINUOUS
  0
LAYER
  5
78
330
2
100
AcDbSymbolTableRecord
100
AcDbLayerTableRecord
  2
63
 70
     0
 62
    63
  6
CONTINUOUS
  0
LAYER
  5
79
330
2
100
AcDbSymbolTableRecord
100
AcDbLayerTableRecord
  2
64
 70
     0
 62
    64
  6
CONTINUOUS
  0
LAYER
  5
7A
330
2
100
AcDbSymbolTableRecord
100
AcDbLayerTableRecord
  2
65
 70
     0
 62
    65
  6
CONTINUOUS
  0
LAYER
  5
7B
330
2
100
AcDbSymbolTableRecord
100
AcDbLayerTableRecord
  2
66
 70
     0
 62
    66
  6
CONTINUOUS
  0
LAYER
  5
7C
330
2
100
AcDbSymbolTableRecord
100
AcDbLayerTableRecord
  2
67
 70
     0
 62
    67
  6
CONTINUOUS
  0
LAYER
  5
7D
330
2
100
AcDbSymbolTableRecord
100
AcDbLayerTableRecord
  2
68
 70
     0
 62
    68
  6
CONTINUOUS
  0
LAYER
  5
7E
330
2
100
AcDbSymbolTableRecord
100
AcDbLayerTableRecord
  2
69
 70
     0
 62
    69
  6
CONTINUOUS
  0
LAYER
  5
7F
330
2
100
AcDbSymbolTableRecord
100
AcDbLayerTableRecord
  2
70
 70
     0
 62
    70
  6
CONTINUOUS
  0
LAYER
  5
80
330
2
100
AcDbSymbolTableRecord
100
AcDbLayerTableRecord
  2
71
 70
     0
 62
    71
  6
CONTINUOUS
  0
LAYER
  5
81
330
2
100
AcDbSymbolTableRecord
100
AcDbLayerTableRecord
  2
72
 70
     0
 62
    72
  6
CONTINUOUS
  0
LAYER
  5
82
330
2
100
AcDbSymbolTableRecord
100
AcDbLayerTableRecord
  2
73
 70
     0
 62
    73
  6
CONTINUOUS
  0
LAYER
  5
83
330
2
100
AcDbSymbolTableRecord
100
AcDbLayerTableRecord
  2
74
 70
     0
 62
    74
  6
CONTINUOUS
  0
LAYER
  5
84
330
2
100
AcDbSymbolTableRecord
100
AcDbLayerTableRecord
  2
75
 70
     0
 62
    75
  6
CONTINUOUS
  0
LAYER
  5
85
330
2
100
AcDbSymbolTableRecord
100
AcDbLayerTableRecord
  2
76
 70
     0
 62
    76
  6
CONTINUOUS
  0
LAYER
  5
86
330
2
100
AcDbSymbolTableRecord
100
AcDbLayerTableRecord
  2
77
 70
     0
 62
    77
  6
CONTINUOUS
  0
LAYER
  5
87
330
2
100
AcDbSymbolTableRecord
100
AcDbLayerTableRecord
  2
78
 70
     0
 62
    78
  6
CONTINUOUS
  0
LAYER
  5
88
330
2
100
AcDbSymbolTableRecord
100
AcDbLayerTableRecord
  2
79
 70
     0
 62
    79
  6
CONTINUOUS
  0
LAYER
  5
89
330
2
100
AcDbSymbolTableRecord
100
AcDbLayerTableRecord
  2
80
 70
     0
 62
    80
  6
CONTINUOUS
  0
LAYER
  5
8A
330
2
100
AcDbSymbolTableRecord
100
AcDbLayerTableRecord
  2
81
 70
     0
 62
    81
  6
CONTINUOUS
  0
LAYER
  5
8B
330
2
100
AcDbSymbolTableRecord
100
AcDbLayerTableRecord
  2
82
 70
     0
 62
    82
  6
CONTINUOUS
  0
LAYER
  5
8C
330
2
100
AcDbSymbolTableRecord
100
AcDbLayerTableRecord
  2
83
 70
     0
 62
    83
  6
CONTINUOUS
  0
LAYER
  5
8D
330
2
100
AcDbSymbolTableRecord
100
AcDbLayerTableRecord
  2
84
 70
     0
 62
    84
  6
CONTINUOUS
  0
LAYER
  5
8E
330
2
100
AcDbSymbolTableRecord
100
AcDbLayerTableRecord
  2
85
 70
     0
 62
    85
  6
CONTINUOUS
  0
LAYER
  5
8F
330
2
100
AcDbSymbolTableRecord
100
AcDbLayerTableRecord
  2
86
 70
     0
 62
    86
  6
CONTINUOUS
  0
LAYER
  5
90
330
2
100
AcDbSymbolTableRecord
100
AcDbLayerTableRecord
  2
87
 70
     0
 62
    87
  6
CONTINUOUS
  0
LAYER
  5
91
330
2
100
AcDbSymbolTableRecord
100
AcDbLayerTableRecord
  2
88
 70
     0
 62
    88
  6
CONTINUOUS
  0
LAYER
  5
92
330
2
100
AcDbSymbolTableRecord
100
AcDbLayerTableRecord
  2
89
 70
     0
 62
    89
  6
CONTINUOUS
  0
LAYER
  5
93
330
2
100
AcDbSymbolTableRecord
100
AcDbLayerTableRecord
  2
90
 70
     0
 62
    90
  6
CONTINUOUS
  0
LAYER
  5
94
330
2
100
AcDbSymbolTableRecord
100
AcDbLayerTableRecord
  2
91
 70
     0
 62
    91
  6
CONTINUOUS
  0
LAYER
  5
95
330
2
100
AcDbSymbolTableRecord
100
AcDbLayerTableRecord
  2
92
 70
     0
 62
    92
  6
CONTINUOUS
  0
LAYER
  5
96
330
2
100
AcDbSymbolTableRecord
100
AcDbLayerTableRecord
  2
93
 70
     0
 62
    93
  6
CONTINUOUS
  0
LAYER
  5
97
330
2
100
AcDbSymbolTableRecord
100
AcDbLayerTableRecord
  2
94
 70
     0
 62
    94
  6
CONTINUOUS
  0
LAYER
  5
98
330
2
100
AcDbSymbolTableRecord
100
AcDbLayerTableRecord
  2
95
 70
     0
 62
    95
  6
CONTINUOUS
  0
LAYER
  5
99
330
2
100
AcDbSymbolTableRecord
100
AcDbLayerTableRecord
  2
96
 70
     0
 62
    96
  6
CONTINUOUS
  0
LAYER
  5
9A
330
2
100
AcDbSymbolTableRecord
100
AcDbLayerTableRecord
  2
97
 70
     0
 62
    97
  6
CONTINUOUS
  0
LAYER
  5
9B
330
2
100
AcDbSymbolTableRecord
100
AcDbLayerTableRecord
  2
98
 70
     0
 62
    98
  6
CONTINUOUS
  0
LAYER
  5
9C
330
2
100
AcDbSymbolTableRecord
100
AcDbLayerTableRecord
  2
99
 70
     0
 62
    99
  6
CONTINUOUS
  0
LAYER
  5
9D
330
2
100
AcDbSymbolTableRecord
100
AcDbLayerTableRecord
  2
100
 70
     0
 62
   100
  6
CONTINUOUS
  0
LAYER
  5
9E
330
2
100
AcDbSymbolTableRecord
100
AcDbLayerTableRecord
  2
101
 70
     0
 62
   101
  6
CONTINUOUS
  0
LAYER
  5
9F
330
2
100
AcDbSymbolTableRecord
100
AcDbLayerTableRecord
  2
102
 70
     0
 62
   102
  6
CONTINUOUS
  0
LAYER
  5
A0
330
2
100
AcDbSymbolTableRecord
100
AcDbLayerTableRecord
  2
103
 70
     0
 62
   103
  6
CONTINUOUS
  0
LAYER
  5
A1
330
2
100
AcDbSymbolTableRecord
100
AcDbLayerTableRecord
  2
104
 70
     0
 62
   104
  6
CONTINUOUS
  0
LAYER
  5
A2
330
2
100
AcDbSymbolTableRecord
100
AcDbLayerTableRecord
  2
105
 70
     0
 62
   105
  6
CONTINUOUS
  0
LAYER
  5
A3
330
2
100
AcDbSymbolTableRecord
100
AcDbLayerTableRecord
  2
106
 70
     0
 62
   106
  6
CONTINUOUS
  0
LAYER
  5
A4
330
2
100
AcDbSymbolTableRecord
100
AcDbLayerTableRecord
  2
107
 70
     0
 62
   107
  6
CONTINUOUS
  0
LAYER
  5
A5
330
2
100
AcDbSymbolTableRecord
100
AcDbLayerTableRecord
  2
108
 70
     0
 62
   108
  6
CONTINUOUS
  0
LAYER
  5
A6
330
2
100
AcDbSymbolTableRecord
100
AcDbLayerTableRecord
  2
109
 70
     0
 62
   109
  6
CONTINUOUS
  0
LAYER
  5
A7
330
2
100
AcDbSymbolTableRecord
100
AcDbLayerTableRecord
  2
110
 70
     0
 62
   110
  6
CONTINUOUS
  0
LAYER
  5
A8
330
2
100
AcDbSymbolTableRecord
100
AcDbLayerTableRecord
  2
111
 70
     0
 62
   111
  6
CONTINUOUS
  0
LAYER
  5
A9
330
2
100
AcDbSymbolTableRecord
100
AcDbLayerTableRecord
  2
112
 70
     0
 62
   112
  6
CONTINUOUS
  0
LAYER
  5
AA
330
2
100
AcDbSymbolTableRecord
100
AcDbLayerTableRecord
  2
113
 70
     0
 62
   113
  6
CONTINUOUS
  0
LAYER
  5
AB
330
2
100
AcDbSymbolTableRecord
100
AcDbLayerTableRecord
  2
114
 70
     0
 62
   114
  6
CONTINUOUS
  0
LAYER
  5
AC
330
2
100
AcDbSymbolTableRecord
100
AcDbLayerTableRecord
  2
115
 70
     0
 62
   115
  6
CONTINUOUS
  0
LAYER
  5
AD
330
2
100
AcDbSymbolTableRecord
100
AcDbLayerTableRecord
  2
116
 70
     0
 62
   116
  6
CONTINUOUS
  0
LAYER
  5
AE
330
2
100
AcDbSymbolTableRecord
100
AcDbLayerTableRecord
  2
117
 70
     0
 62
   117
  6
CONTINUOUS
  0
LAYER
  5
AF
330
2
100
AcDbSymbolTableRecord
100
AcDbLayerTableRecord
  2
118
 70
     0
 62
   118
  6
CONTINUOUS
  0
LAYER
  5
B0
330
2
100
AcDbSymbolTableRecord
100
AcDbLayerTableRecord
  2
119
 70
     0
 62
   119
  6
CONTINUOUS
  0
LAYER
  5
B1
330
2
100
AcDbSymbolTableRecord
100
AcDbLayerTableRecord
  2
120
 70
     0
 62
   120
  6
CONTINUOUS
  0
LAYER
  5
B2
330
2
100
AcDbSymbolTableRecord
100
AcDbLayerTableRecord
  2
121
 70
     0
 62
   121
  6
CONTINUOUS
  0
LAYER
  5
B3
330
2
100
AcDbSymbolTableRecord
100
AcDbLayerTableRecord
  2
122
 70
     0
 62
   122
  6
CONTINUOUS
  0
LAYER
  5
B4
330
2
100
AcDbSymbolTableRecord
100
AcDbLayerTableRecord
  2
123
 70
     0
 62
   123
  6
CONTINUOUS
  0
LAYER
  5
B5
330
2
100
AcDbSymbolTableRecord
100
AcDbLayerTableRecord
  2
124
 70
     0
 62
   124
  6
CONTINUOUS
  0
LAYER
  5
B6
330
2
100
AcDbSymbolTableRecord
100
AcDbLayerTableRecord
  2
125
 70
     0
 62
   125
  6
CONTINUOUS
  0
LAYER
  5
B7
330
2
100
AcDbSymbolTableRecord
100
AcDbLayerTableRecord
  2
126
 70
     0
 62
   126
  6
CONTINUOUS
  0
LAYER
  5
B8
330
2
100
AcDbSymbolTableRecord
100
AcDbLayerTableRecord
  2
127
 70
     0
 62
   127
  6
CONTINUOUS
  0
LAYER
  5
B9
330
2
100
AcDbSymbolTableRecord
100
AcDbLayerTableRecord
  2
128
 70
     0
 62
   128
  6
CONTINUOUS
  0
LAYER
  5
BA
330
2
100
AcDbSymbolTableRecord
100
AcDbLayerTableRecord
  2
129
 70
     0
 62
   129
  6
CONTINUOUS
  0
LAYER
  5
BB
330
2
100
AcDbSymbolTableRecord
100
AcDbLayerTableRecord
  2
130
 70
     0
 62
   130
  6
CONTINUOUS
  0
LAYER
  5
BC
330
2
100
AcDbSymbolTableRecord
100
AcDbLayerTableRecord
  2
131
 70
     0
 62
   131
  6
CONTINUOUS
  0
LAYER
  5
BD
330
2
100
AcDbSymbolTableRecord
100
AcDbLayerTableRecord
  2
132
 70
     0
 62
   132
  6
CONTINUOUS
  0
LAYER
  5
BE
330
2
100
AcDbSymbolTableRecord
100
AcDbLayerTableRecord
  2
133
 70
     0
 62
   133
  6
CONTINUOUS
  0
LAYER
  5
BF
330
2
100
AcDbSymbolTableRecord
100
AcDbLayerTableRecord
  2
134
 70
     0
 62
   134
  6
CONTINUOUS
  0
LAYER
  5
C0
330
2
100
AcDbSymbolTableRecord
100
AcDbLayerTableRecord
  2
135
 70
     0
 62
   135
  6
CONTINUOUS
  0
LAYER
  5
C1
330
2
100
AcDbSymbolTableRecord
100
AcDbLayerTableRecord
  2
136
 70
     0
 62
   136
  6
CONTINUOUS
  0
LAYER
  5
C2
330
2
100
AcDbSymbolTableRecord
100
AcDbLayerTableRecord
  2
137
 70
     0
 62
   137
  6
CONTINUOUS
  0
LAYER
  5
C3
330
2
100
AcDbSymbolTableRecord
100
AcDbLayerTableRecord
  2
138
 70
     0
 62
   138
  6
CONTINUOUS
  0
LAYER
  5
C4
330
2
100
AcDbSymbolTableRecord
100
AcDbLayerTableRecord
  2
139
 70
     0
 62
   139
  6
CONTINUOUS
  0
LAYER
  5
C5
330
2
100
AcDbSymbolTableRecord
100
AcDbLayerTableRecord
  2
140
 70
     0
 62
   140
  6
CONTINUOUS
  0
LAYER
  5
C6
330
2
100
AcDbSymbolTableRecord
100
AcDbLayerTableRecord
  2
141
 70
     0
 62
   141
  6
CONTINUOUS
  0
LAYER
  5
C7
330
2
100
AcDbSymbolTableRecord
100
AcDbLayerTableRecord
  2
142
 70
     0
 62
   142
  6
CONTINUOUS
  0
LAYER
  5
C8
330
2
100
AcDbSymbolTableRecord
100
AcDbLayerTableRecord
  2
143
 70
     0
 62
   143
  6
CONTINUOUS
  0
LAYER
  5
C9
330
2
100
AcDbSymbolTableRecord
100
AcDbLayerTableRecord
  2
144
 70
     0
 62
   144
  6
CONTINUOUS
  0
LAYER
  5
CA
330
2
100
AcDbSymbolTableRecord
100
AcDbLayerTableRecord
  2
145
 70
     0
 62
   145
  6
CONTINUOUS
  0
LAYER
  5
CB
330
2
100
AcDbSymbolTableRecord
100
AcDbLayerTableRecord
  2
146
 70
     0
 62
   146
  6
CONTINUOUS
  0
LAYER
  5
CC
330
2
100
AcDbSymbolTableRecord
100
AcDbLayerTableRecord
  2
147
 70
     0
 62
   147
  6
CONTINUOUS
  0
LAYER
  5
CD
330
2
100
AcDbSymbolTableRecord
100
AcDbLayerTableRecord
  2
148
 70
     0
 62
   148
  6
CONTINUOUS
  0
LAYER
  5
CE
330
2
100
AcDbSymbolTableRecord
100
AcDbLayerTableRecord
  2
149
 70
     0
 62
   149
  6
CONTINUOUS
  0
LAYER
  5
CF
330
2
100
AcDbSymbolTableRecord
100
AcDbLayerTableRecord
  2
150
 70
     0
 62
   150
  6
CONTINUOUS
  0
LAYER
  5
D0
330
2
100
AcDbSymbolTableRecord
100
AcDbLayerTableRecord
  2
151
 70
     0
 62
   151
  6
CONTINUOUS
  0
LAYER
  5
D1
330
2
100
AcDbSymbolTableRecord
100
AcDbLayerTableRecord
  2
152
 70
     0
 62
   152
  6
CONTINUOUS
  0
LAYER
  5
D2
330
2
100
AcDbSymbolTableRecord
100
AcDbLayerTableRecord
  2
153
 70
     0
 62
   153
  6
CONTINUOUS
  0
LAYER
  5
D3
330
2
100
AcDbSymbolTableRecord
100
AcDbLayerTableRecord
  2
154
 70
     0
 62
   154
  6
CONTINUOUS
  0
LAYER
  5
D4
330
2
100
AcDbSymbolTableRecord
100
AcDbLayerTableRecord
  2
155
 70
     0
 62
   155
  6
CONTINUOUS
  0
LAYER
  5
D5
330
2
100
AcDbSymbolTableRecord
100
AcDbLayerTableRecord
  2
156
 70
     0
 62
   156
  6
CONTINUOUS
  0
LAYER
  5
D6
330
2
100
AcDbSymbolTableRecord
100
AcDbLayerTableRecord
  2
157
 70
     0
 62
   157
  6
CONTINUOUS
  0
LAYER
  5
D7
330
2
100
AcDbSymbolTableRecord
100
AcDbLayerTableRecord
  2
158
 70
     0
 62
   158
  6
CONTINUOUS
  0
LAYER
  5
D8
330
2
100
AcDbSymbolTableRecord
100
AcDbLayerTableRecord
  2
159
 70
     0
 62
   159
  6
CONTINUOUS
  0
LAYER
  5
D9
330
2
100
AcDbSymbolTableRecord
100
AcDbLayerTableRecord
  2
160
 70
     0
 62
   160
  6
CONTINUOUS
  0
LAYER
  5
DA
330
2
100
AcDbSymbolTableRecord
100
AcDbLayerTableRecord
  2
161
 70
     0
 62
   161
  6
CONTINUOUS
  0
LAYER
  5
DB
330
2
100
AcDbSymbolTableRecord
100
AcDbLayerTableRecord
  2
162
 70
     0
 62
   162
  6
CONTINUOUS
  0
LAYER
  5
DC
330
2
100
AcDbSymbolTableRecord
100
AcDbLayerTableRecord
  2
163
 70
     0
 62
   163
  6
CONTINUOUS
  0
LAYER
  5
DD
330
2
100
AcDbSymbolTableRecord
100
AcDbLayerTableRecord
  2
164
 70
     0
 62
   164
  6
CONTINUOUS
  0
LAYER
  5
DE
330
2
100
AcDbSymbolTableRecord
100
AcDbLayerTableRecord
  2
165
 70
     0
 62
   165
  6
CONTINUOUS
  0
LAYER
  5
DF
330
2
100
AcDbSymbolTableRecord
100
AcDbLayerTableRecord
  2
166
 70
     0
 62
   166
  6
CONTINUOUS
  0
LAYER
  5
E0
330
2
100
AcDbSymbolTableRecord
100
AcDbLayerTableRecord
  2
167
 70
     0
 62
   167
  6
CONTINUOUS
  0
LAYER
  5
E1
330
2
100
AcDbSymbolTableRecord
100
AcDbLayerTableRecord
  2
168
 70
     0
 62
   168
  6
CONTINUOUS
  0
LAYER
  5
E2
330
2
100
AcDbSymbolTableRecord
100
AcDbLayerTableRecord
  2
169
 70
     0
 62
   169
  6
CONTINUOUS
  0
LAYER
  5
E3
330
2
100
AcDbSymbolTableRecord
100
AcDbLayerTableRecord
  2
170
 70
     0
 62
   170
  6
CONTINUOUS
  0
LAYER
  5
E4
330
2
100
AcDbSymbolTableRecord
100
AcDbLayerTableRecord
  2
171
 70
     0
 62
   171
  6
CONTINUOUS
  0
LAYER
  5
E5
330
2
100
AcDbSymbolTableRecord
100
AcDbLayerTableRecord
  2
172
 70
     0
 62
   172
  6
CONTINUOUS
  0
LAYER
  5
E6
330
2
100
AcDbSymbolTableRecord
100
AcDbLayerTableRecord
  2
173
 70
     0
 62
   173
  6
CONTINUOUS
  0
LAYER
  5
E7
330
2
100
AcDbSymbolTableRecord
100
AcDbLayerTableRecord
  2
174
 70
     0
 62
   174
  6
CONTINUOUS
  0
LAYER
  5
E8
330
2
100
AcDbSymbolTableRecord
100
AcDbLayerTableRecord
  2
175
 70
     0
 62
   175
  6
CONTINUOUS
  0
LAYER
  5
E9
330
2
100
AcDbSymbolTableRecord
100
AcDbLayerTableRecord
  2
176
 70
     0
 62
   176
  6
CONTINUOUS
  0
LAYER
  5
EA
330
2
100
AcDbSymbolTableRecord
100
AcDbLayerTableRecord
  2
177
 70
     0
 62
   177
  6
CONTINUOUS
  0
LAYER
  5
EB
330
2
100
AcDbSymbolTableRecord
100
AcDbLayerTableRecord
  2
178
 70
     0
 62
   178
  6
CONTINUOUS
  0
LAYER
  5
EC
330
2
100
AcDbSymbolTableRecord
100
AcDbLayerTableRecord
  2
179
 70
     0
 62
   179
  6
CONTINUOUS
  0
LAYER
  5
ED
330
2
100
AcDbSymbolTableRecord
100
AcDbLayerTableRecord
  2
180
 70
     0
 62
   180
  6
CONTINUOUS
  0
LAYER
  5
EE
330
2
100
AcDbSymbolTableRecord
100
AcDbLayerTableRecord
  2
181
 70
     0
 62
   181
  6
CONTINUOUS
  0
LAYER
  5
EF
330
2
100
AcDbSymbolTableRecord
100
AcDbLayerTableRecord
  2
182
 70
     0
 62
   182
  6
CONTINUOUS
  0
LAYER
  5
F0
330
2
100
AcDbSymbolTableRecord
100
AcDbLayerTableRecord
  2
183
 70
     0
 62
   183
  6
CONTINUOUS
  0
LAYER
  5
F1
330
2
100
AcDbSymbolTableRecord
100
AcDbLayerTableRecord
  2
184
 70
     0
 62
   184
  6
CONTINUOUS
  0
LAYER
  5
F2
330
2
100
AcDbSymbolTableRecord
100
AcDbLayerTableRecord
  2
185
 70
     0
 62
   185
  6
CONTINUOUS
  0
LAYER
  5
F3
330
2
100
AcDbSymbolTableRecord
100
AcDbLayerTableRecord
  2
186
 70
     0
 62
   186
  6
CONTINUOUS
  0
LAYER
  5
F4
330
2
100
AcDbSymbolTableRecord
100
AcDbLayerTableRecord
  2
187
 70
     0
 62
   187
  6
CONTINUOUS
  0
LAYER
  5
F5
330
2
100
AcDbSymbolTableRecord
100
AcDbLayerTableRecord
  2
188
 70
     0
 62
   188
  6
CONTINUOUS
  0
LAYER
  5
F6
330
2
100
AcDbSymbolTableRecord
100
AcDbLayerTableRecord
  2
189
 70
     0
 62
   189
  6
CONTINUOUS
  0
LAYER
  5
F7
330
2
100
AcDbSymbolTableRecord
100
AcDbLayerTableRecord
  2
190
 70
     0
 62
   190
  6
CONTINUOUS
  0
LAYER
  5
F8
330
2
100
AcDbSymbolTableRecord
100
AcDbLayerTableRecord
  2
191
 70
     0
 62
   191
  6
CONTINUOUS
  0
LAYER
  5
F9
330
2
100
AcDbSymbolTableRecord
100
AcDbLayerTableRecord
  2
192
 70
     0
 62
   192
  6
CONTINUOUS
  0
LAYER
  5
FA
330
2
100
AcDbSymbolTableRecord
100
AcDbLayerTableRecord
  2
193
 70
     0
 62
   193
  6
CONTINUOUS
  0
LAYER
  5
FB
330
2
100
AcDbSymbolTableRecord
100
AcDbLayerTableRecord
  2
194
 70
     0
 62
   194
  6
CONTINUOUS
  0
LAYER
  5
FC
330
2
100
AcDbSymbolTableRecord
100
AcDbLayerTableRecord
  2
195
 70
     0
 62
   195
  6
CONTINUOUS
  0
LAYER
  5
FD
330
2
100
AcDbSymbolTableRecord
100
AcDbLayerTableRecord
  2
196
 70
     0
 62
   196
  6
CONTINUOUS
  0
LAYER
  5
FE
330
2
100
AcDbSymbolTableRecord
100
AcDbLayerTableRecord
  2
197
 70
     0
 62
   197
  6
CONTINUOUS
  0
LAYER
  5
FF
330
2
100
AcDbSymbolTableRecord
100
AcDbLayerTableRecord
  2
198
 70
     0
 62
   198
  6
CONTINUOUS
  0
LAYER
  5
100
330
2
100
AcDbSymbolTableRecord
100
AcDbLayerTableRecord
  2
199
 70
     0
 62
   199
  6
CONTINUOUS
  0
LAYER
  5
101
330
2
100
AcDbSymbolTableRecord
100
AcDbLayerTableRecord
  2
200
 70
     0
 62
   200
  6
CONTINUOUS
  0
LAYER
  5
102
330
2
100
AcDbSymbolTableRecord
100
AcDbLayerTableRecord
  2
201
 70
     0
 62
   201
  6
CONTINUOUS
  0
LAYER
  5
103
330
2
100
AcDbSymbolTableRecord
100
AcDbLayerTableRecord
  2
202
 70
     0
 62
   202
  6
CONTINUOUS
  0
LAYER
  5
104
330
2
100
AcDbSymbolTableRecord
100
AcDbLayerTableRecord
  2
203
 70
     0
 62
   203
  6
CONTINUOUS
  0
LAYER
  5
105
330
2
100
AcDbSymbolTableRecord
100
AcDbLayerTableRecord
  2
204
 70
     0
 62
   204
  6
CONTINUOUS
  0
LAYER
  5
106
330
2
100
AcDbSymbolTableRecord
100
AcDbLayerTableRecord
  2
205
 70
     0
 62
   205
  6
CONTINUOUS
  0
LAYER
  5
107
330
2
100
AcDbSymbolTableRecord
100
AcDbLayerTableRecord
  2
206
 70
     0
 62
   206
  6
CONTINUOUS
  0
LAYER
  5
108
330
2
100
AcDbSymbolTableRecord
100
AcDbLayerTableRecord
  2
207
 70
     0
 62
   207
  6
CONTINUOUS
  0
LAYER
  5
109
330
2
100
AcDbSymbolTableRecord
100
AcDbLayerTableRecord
  2
208
 70
     0
 62
   208
  6
CONTINUOUS
  0
LAYER
  5
10A
330
2
100
AcDbSymbolTableRecord
100
AcDbLayerTableRecord
  2
209
 70
     0
 62
   209
  6
CONTINUOUS
  0
LAYER
  5
10B
330
2
100
AcDbSymbolTableRecord
100
AcDbLayerTableRecord
  2
210
 70
     0
 62
   210
  6
CONTINUOUS
  0
LAYER
  5
10C
330
2
100
AcDbSymbolTableRecord
100
AcDbLayerTableRecord
  2
211
 70
     0
 62
   211
  6
CONTINUOUS
  0
LAYER
  5
10D
330
2
100
AcDbSymbolTableRecord
100
AcDbLayerTableRecord
  2
212
 70
     0
 62
   212
  6
CONTINUOUS
  0
LAYER
  5
10E
330
2
100
AcDbSymbolTableRecord
100
AcDbLayerTableRecord
  2
213
 70
     0
 62
   213
  6
CONTINUOUS
  0
LAYER
  5
10F
330
2
100
AcDbSymbolTableRecord
100
AcDbLayerTableRecord
  2
214
 70
     0
 62
   214
  6
CONTINUOUS
  0
LAYER
  5
110
330
2
100
AcDbSymbolTableRecord
100
AcDbLayerTableRecord
  2
215
 70
     0
 62
   215
  6
CONTINUOUS
  0
LAYER
  5
111
330
2
100
AcDbSymbolTableRecord
100
AcDbLayerTableRecord
  2
216
 70
     0
 62
   216
  6
CONTINUOUS
  0
LAYER
  5
112
330
2
100
AcDbSymbolTableRecord
100
AcDbLayerTableRecord
  2
217
 70
     0
 62
   217
  6
CONTINUOUS
  0
LAYER
  5
113
330
2
100
AcDbSymbolTableRecord
100
AcDbLayerTableRecord
  2
218
 70
     0
 62
   218
  6
CONTINUOUS
  0
LAYER
  5
114
330
2
100
AcDbSymbolTableRecord
100
AcDbLayerTableRecord
  2
219
 70
     0
 62
   219
  6
CONTINUOUS
  0
LAYER
  5
115
330
2
100
AcDbSymbolTableRecord
100
AcDbLayerTableRecord
  2
220
 70
     0
 62
   220
  6
CONTINUOUS
  0
LAYER
  5
116
330
2
100
AcDbSymbolTableRecord
100
AcDbLayerTableRecord
  2
221
 70
     0
 62
   221
  6
CONTINUOUS
  0
LAYER
  5
117
330
2
100
AcDbSymbolTableRecord
100
AcDbLayerTableRecord
  2
222
 70
     0
 62
   222
  6
CONTINUOUS
  0
LAYER
  5
118
330
2
100
AcDbSymbolTableRecord
100
AcDbLayerTableRecord
  2
223
 70
     0
 62
   223
  6
CONTINUOUS
  0
LAYER
  5
119
330
2
100
AcDbSymbolTableRecord
100
AcDbLayerTableRecord
  2
224
 70
     0
 62
   224
  6
CONTINUOUS
  0
LAYER
  5
11A
330
2
100
AcDbSymbolTableRecord
100
AcDbLayerTableRecord
  2
225
 70
     0
 62
   225
  6
CONTINUOUS
  0
LAYER
  5
11B
330
2
100
AcDbSymbolTableRecord
100
AcDbLayerTableRecord
  2
226
 70
     0
 62
   226
  6
CONTINUOUS
  0
LAYER
  5
11C
330
2
100
AcDbSymbolTableRecord
100
AcDbLayerTableRecord
  2
227
 70
     0
 62
   227
  6
CONTINUOUS
  0
LAYER
  5
11D
330
2
100
AcDbSymbolTableRecord
100
AcDbLayerTableRecord
  2
228
 70
     0
 62
   228
  6
CONTINUOUS
  0
LAYER
  5
11E
330
2
100
AcDbSymbolTableRecord
100
AcDbLayerTableRecord
  2
229
 70
     0
 62
   229
  6
CONTINUOUS
  0
LAYER
  5
11F
330
2
100
AcDbSymbolTableRecord
100
AcDbLayerTableRecord
  2
230
 70
     0
 62
   230
  6
CONTINUOUS
  0
LAYER
  5
120
330
2
100
AcDbSymbolTableRecord
100
AcDbLayerTableRecord
  2
231
 70
     0
 62
   231
  6
CONTINUOUS
  0
LAYER
  5
121
330
2
100
AcDbSymbolTableRecord
100
AcDbLayerTableRecord
  2
232
 70
     0
 62
   232
  6
CONTINUOUS
  0
LAYER
  5
122
330
2
100
AcDbSymbolTableRecord
100
AcDbLayerTableRecord
  2
233
 70
     0
 62
   233
  6
CONTINUOUS
  0
LAYER
  5
123
330
2
100
AcDbSymbolTableRecord
100
AcDbLayerTableRecord
  2
234
 70
     0
 62
   234
  6
CONTINUOUS
  0
LAYER
  5
124
330
2
100
AcDbSymbolTableRecord
100
AcDbLayerTableRecord
  2
235
 70
     0
 62
   235
  6
CONTINUOUS
  0
LAYER
  5
125
330
2
100
AcDbSymbolTableRecord
100
AcDbLayerTableRecord
  2
236
 70
     0
 62
   236
  6
CONTINUOUS
  0
LAYER
  5
126
330
2
100
AcDbSymbolTableRecord
100
AcDbLayerTableRecord
  2
237
 70
     0
 62
   237
  6
CONTINUOUS
  0
LAYER
  5
127
330
2
100
AcDbSymbolTableRecord
100
AcDbLayerTableRecord
  2
238
 70
     0
 62
   238
  6
CONTINUOUS
  0
LAYER
  5
128
330
2
100
AcDbSymbolTableRecord
100
AcDbLayerTableRecord
  2
239
 70
     0
 62
   239
  6
CONTINUOUS
  0
LAYER
  5
129
330
2
100
AcDbSymbolTableRecord
100
AcDbLayerTableRecord
  2
240
 70
     0
 62
   240
  6
CONTINUOUS
  0
LAYER
  5
12A
330
2
100
AcDbSymbolTableRecord
100
AcDbLayerTableRecord
  2
241
 70
     0
 62
   241
  6
CONTINUOUS
  0
LAYER
  5
12B
330
2
100
AcDbSymbolTableRecord
100
AcDbLayerTableRecord
  2
242
 70
     0
 62
   242
  6
CONTINUOUS
  0
LAYER
  5
12C
330
2
100
AcDbSymbolTableRecord
100
AcDbLayerTableRecord
  2
243
 70
     0
 62
   243
  6
CONTINUOUS
  0
LAYER
  5
12D
330
2
100
AcDbSymbolTableRecord
100
AcDbLayerTableRecord
  2
244
 70
     0
 62
   244
  6
CONTINUOUS
  0
LAYER
  5
12E
330
2
100
AcDbSymbolTableRecord
100
AcDbLayerTableRecord
  2
245
 70
     0
 62
   245
  6
CONTINUOUS
  0
LAYER
  5
12F
330
2
100
AcDbSymbolTableRecord
100
AcDbLayerTableRecord
  2
246
 70
     0
 62
   246
  6
CONTINUOUS
  0
LAYER
  5
130
330
2
100
AcDbSymbolTableRecord
100
AcDbLayerTableRecord
  2
247
 70
     0
 62
   247
  6
CONTINUOUS
  0
LAYER
  5
131
330
2
100
AcDbSymbolTableRecord
100
AcDbLayerTableRecord
  2
248
 70
     0
 62
   248
  6
CONTINUOUS
  0
LAYER
  5
132
330
2
100
AcDbSymbolTableRecord
100
AcDbLayerTableRecord
  2
249
 70
     0
 62
   249
  6
CONTINUOUS
  0
LAYER
  5
133
330
2
100
AcDbSymbolTableRecord
100
AcDbLayerTableRecord
  2
250
 70
     0
 62
   250
  6
CONTINUOUS
  0
LAYER
  5
134
330
2
100
AcDbSymbolTableRecord
100
AcDbLayerTableRecord
  2
251
 70
     0
 62
   251
  6
CONTINUOUS
  0
LAYER
  5
135
330
2
100
AcDbSymbolTableRecord
100
AcDbLayerTableRecord
  2
252
 70
     0
 62
   252
  6
CONTINUOUS
  0
LAYER
  5
136
330
2
100
AcDbSymbolTableRecord
100
AcDbLayerTableRecord
  2
253
 70
     0
 62
   253
  6
CONTINUOUS
  0
LAYER
  5
137
330
2
100
AcDbSymbolTableRecord
100
AcDbLayerTableRecord
  2
254
 70
     0
 62
   254
  6
CONTINUOUS
  0
LAYER
  5
138
330
2
100
AcDbSymbolTableRecord
100
AcDbLayerTableRecord
  2
255
 70
     0
 62
   255
  6
CONTINUOUS
  0
ENDTAB
  0
TABLE
  2
STYLE
  5
3
330
0
100
AcDbSymbolTable
 70
     1
  0
STYLE
  5
11
330
3
100
AcDbSymbolTableRecord
100
AcDbTextStyleTableRecord
  2
STANDARD
 70
     0
 40
0.0
 41
1.0
 50
0.0
 71
     0
 42
0.2
  3
monotxt
  4

  0
ENDTAB
  0
TABLE
  2
VIEW
  5
6
330
0
100
AcDbSymbolTable
 70
     0
  0
ENDTAB
  0
TABLE
  2
UCS
  5
7
330
0
100
AcDbSymbolTable
 70
     0
  0
ENDTAB
  0
TABLE
  2
APPID
  5
9
330
0
100
AcDbSymbolTable
 70
     1
  0
APPID
  5
12
330
9
100
AcDbSymbolTableRecord
100
AcDbRegAppTableRecord
  2
ACAD
 70
     0
  0
ENDTAB
  0
TABLE
  2
DIMSTYLE
  5
A
330
0
100
AcDbSymbolTable
 70
     1
  0
DIMSTYLE
105
309D
330
A
100
AcDbSymbolTableRecord
100
AcDbDimStyleTableRecord
  2
STANDARD
 70
     0
  3

  4

  5

  6

  7

 40
1.0
 41
0.18
 42
0.0625
 43
0.38
 44
0.18
 45
0.0
 46
0.0
 47
0.0
 48
0.0
140
0.18
141
0.09
142
0.0
143
25.4
144
1.0
145
0.0
146
1.0
147
0.09
 71
     0
 72
     0
 73
     1
 74
     1
 75
     0
 76
     0
 77
     0
 78
     0
170
     0
171
     2
172
     0
173
     0
174
     0
175
     0
176
     0
177
     0
178
     0
270
     2
271
     4
272
     4
273
     2
274
     2
340
11
275
     0
280
     0
281
     0
282
     0
283
     1
284
     0
285
     0
286
     0
287
     3
288
     0
  0
ENDTAB
  0
TABLE
  2
BLOCK_RECORD
  5
1
330
0
100
AcDbSymbolTable
 70
     0
  0
BLOCK_RECORD
  5
1E
102
{ACAD_XDICTIONARY
360
4376
102
}
330
1
100
AcDbSymbolTableRecord
100
AcDbBlockTableRecord
  2
*MODEL_SPACE
  0
BLOCK_RECORD
  5
1A
102
{ACAD_XDICTIONARY
360
4378
102
}
330
1
100
AcDbSymbolTableRecord
100
AcDbBlockTableRecord
  2
*PAPER_SPACE
  0
ENDTAB
  0
ENDSEC
  0
SECTION
  2
BLOCKS
  0
BLOCK
  5
13B
330
1E
100
AcDbEntity
  8
0
100
AcDbBlockBegin
  2
*MODEL_SPACE
 70
     0
 10
0.0
 20
0.0
 30
0.0
  3
*MODEL_SPACE
  1

  0
ENDBLK
  5
13C
330
1E
100
AcDbEntity
  8
0
100
AcDbBlockEnd
  0
BLOCK
  5
139
330
1A
100
AcDbEntity
 67
     1
  8
0
100
AcDbBlockBegin
  2
*PAPER_SPACE
 70
     0
 10
0.0
 20
0.0
 30
0.0
  3
*PAPER_SPACE
  1

  0
ENDBLK
  5
13A
330
1A
100
AcDbEntity
 67
     1
  8
0
100
AcDbBlockEnd
  0
ENDSEC
  0
SECTION
  2
ENTITIES
  0
LINE
  5
5D0
330
1E
100
AcDbEntity
  8
7
100
AcDbLine
 10
4.328740157480313
 20
8.596456692913385
 30
0.0
 11
4.328740157480313
 21
8.591535433070866
 31
0.0
  0
LINE
  5
5D1
330
1E
100
AcDbEntity
  8
7
100
AcDbLine
 10
4.410433070866141
 20
8.664370078740157
 30
0.0
 11
4.403543307086613
 21
8.664370078740157
 31
0.0
  0
LINE
  5
5D2
330
1E
100
AcDbEntity
  8
7
100
AcDbLine
 10
4.403543307086613
 20
8.523622047244092
 30
0.0
 11
4.455708661417322
 21
8.523622047244092
 31
0.0
  0
LINE
  5
5D3
330
1E
100
AcDbEntity
  8
7
100
AcDbLine
 10
5.010826771653541
 20
8.133858267716535
 30
0.0
 11
5.061023622047243
 21
8.133858267716535
 31
0.0
  0
LINE
  5
5D4
330
1E
100
AcDbEntity
  8
7
100
AcDbLine
 10
4.504921259842518
 20
8.133858267716535
 30
0.0
 11
4.535433070866141
 21
8.133858267716535
 31
0.0
  0
LINE
  5
5D5
330
1E
100
AcDbEntity
  8
7
100
AcDbLine
 10
4.48523622047244
 20
8.221456692913385
 30
0.0
 11
4.473425196850393
 21
8.221456692913385
 31
0.0
  0
LINE
  5
5D6
330
1E
100
AcDbEntity
  8
7
100
AcDbLine
 10
4.47047244094488
 20
8.135826771653542
 30
0.0
 11
4.496062992125983
 21
8.135826771653542
 31
0.0
  0
LINE
  5
5D7
330
1E
100
AcDbEntity
  8
7
100
AcDbLine
 10
4.535433070866141
 20
8.135826771653542
 30
0.0
 11
5.010826771653541
 21
8.135826771653542
 31
0.0
  0
LINE
  5
5D8
330
1E
100
AcDbEntity
  8
7
100
AcDbLine
 10
4.454724409448818
 20
8.658464566929133
 30
0.0
 11
5.156496062992125
 21
8.658464566929133
 31
0.0
  0
LINE
  5
60D
330
1E
100
AcDbEntity
  8
7
100
AcDbLine
 10
4.371062992125984
 20
8.686023622047244
 30
0.0
 11
4.385826771653541
 21
8.674212598425196
 31
0.0
  0
LINE
  5
61A
330
1E
100
AcDbEntity
  8
7
100
AcDbLine
 10
4.027559055118109
 20
8.48818897637795
 30
0.0
 11
4.027559055118109
 21
7.981299212598424
 31
0.0
  0
LINE
  5
61B
330
1E
100
AcDbEntity
  8
7
100
AcDbLine
 10
3.995078740157478
 20
8.48818897637795
 30
0.0
 11
4.027559055118109
 21
8.48818897637795
 31
0.0
  0
LINE
  5
61C
330
1E
100
AcDbEntity
  8
7
100
AcDbLine
 10
3.995078740157478
 20
8.737204724409446
 30
0.0
 11
3.995078740157478
 21
8.48818897637795
 31
0.0
  0
LINE
  5
61D
330
1E
100
AcDbEntity
  8
7
100
AcDbLine
 10
4.027559055118109
 20
8.737204724409446
 30
0.0
 11
3.995078740157478
 21
8.737204724409446
 31
0.0
  0
LINE
  5
61E
330
1E
100
AcDbEntity
  8
7
100
AcDbLine
 10
4.027559055118109
 20
8.804133858267716
 30
0.0
 11
4.027559055118109
 21
8.737204724409446
 31
0.0
  0
LINE
  5
62B
330
1E
100
AcDbEntity
  8
7
100
AcDbLine
 10
4.027559055118109
 20
8.491141732283463
 30
0.0
 11
4.027559055118109
 21
8.48818897637795
 31
0.0
  0
LINE
  5
62C
330
1E
100
AcDbEntity
  8
7
100
AcDbLine
 10
5.6003937007874
 20
8.298228346456692
 30
0.0
 11
5.595472440944881
 21
8.298228346456692
 31
0.0
  0
LINE
  5
62D
330
1E
100
AcDbEntity
  8
7
100
AcDbLine
 10
5.595472440944881
 20
8.055118110236218
 30
0.0
 11
5.6003937007874
 21
8.055118110236218
 31
0.0
  0
LINE
  5
62E
330
1E
100
AcDbEntity
  8
7
100
AcDbLine
 10
4.033464566929133
 20
8.298228346456692
 30
0.0
 11
4.027559055118109
 21
8.298228346456692
 31
0.0
  0
LINE
  5
62F
330
1E
100
AcDbEntity
  8
7
100
AcDbLine
 10
4.027559055118109
 20
8.055118110236218
 30
0.0
 11
4.033464566929133
 21
8.055118110236218
 31
0.0
  0
LINE
  5
630
330
1E
100
AcDbEntity
  8
7
100
AcDbLine
 10
4.033464566929133
 20
9.213582677165351
 30
0.0
 11
4.027559055118109
 21
9.213582677165351
 31
0.0
  0
LINE
  5
631
330
1E
100
AcDbEntity
  8
7
100
AcDbLine
 10
4.027559055118109
 20
8.936023622047244
 30
0.0
 11
4.033464566929133
 21
8.936023622047244
 31
0.0
  0
LINE
  5
638
330
1E
100
AcDbEntity
  8
7
100
AcDbLine
 10
4.027559055118109
 20
9.378937007874013
 30
0.0
 11
4.027559055118109
 21
8.829724409448818
 31
0.0
  0
LINE
  5
639
330
1E
100
AcDbEntity
  8
7
100
AcDbLine
 10
4.027559055118109
 20
9.378937007874013
 30
0.0
 11
5.6003937007874
 21
9.378937007874013
 31
0.0
  0
LINE
  5
63A
330
1E
100
AcDbEntity
  8
7
100
AcDbLine
 10
5.6003937007874
 20
8.829724409448818
 30
0.0
 11
5.6003937007874
 21
9.378937007874013
 31
0.0
  0
LINE
  5
646
330
1E
100
AcDbEntity
  8
7
100
AcDbLine
 10
4.857283464566927
 20
7.703740157480313
 30
0.0
 11
4.771653543307086
 21
7.703740157480313
 31
0.0
  0
LINE
  5
652
330
1E
100
AcDbEntity
  8
7
100
AcDbLine
 10
3.928149606299212
 20
8.128937007874013
 30
0.0
 11
3.928149606299212
 21
8.215551181102361
 31
0.0
  0
LINE
  5
66F
330
1E
100
AcDbEntity
  8
7
100
AcDbLine
 10
5.188976377952754
 20
9.4753937007874
 30
0.0
 11
5.274606299212597
 21
9.4753937007874
 31
0.0
  0
LINE
  5
670
330
1E
100
AcDbEntity
  8
7
100
AcDbLine
 10
5.188976377952754
 20
9.4753937007874
 30
0.0
 11
4.438976377952754
 21
9.4753937007874
 31
0.0
  0
LINE
  5
671
330
1E
100
AcDbEntity
  8
7
100
AcDbLine
 10
4.353346456692912
 20
9.4753937007874
 30
0.0
 11
4.438976377952754
 21
9.4753937007874
 31
0.0
  0
LINE
  5
67A
330
1E
100
AcDbEntity
  8
7
100
AcDbLine
 10
5.699803149606299
 20
8.215551181102361
 30
0.0
 11
5.699803149606299
 21
8.128937007874013
 31
0.0
  0
LINE
  5
691
330
1E
100
AcDbEntity
  8
7
100
AcDbLine
 10
5.6003937007874
 20
8.737204724409446
 30
0.0
 11
5.6003937007874
 21
8.804133858267716
 31
0.0
  0
LINE
  5
692
330
1E
100
AcDbEntity
  8
7
100
AcDbLine
 10
5.633858267716535
 20
8.737204724409446
 30
0.0
 11
5.6003937007874
 21
8.737204724409446
 31
0.0
  0
LINE
  5
693
330
1E
100
AcDbEntity
  8
7
100
AcDbLine
 10
5.633858267716535
 20
8.48818897637795
 30
0.0
 11
5.633858267716535
 21
8.737204724409446
 31
0.0
  0
LINE
  5
694
330
1E
100
AcDbEntity
  8
7
100
AcDbLine
 10
5.6003937007874
 20
8.48818897637795
 30
0.0
 11
5.633858267716535
 21
8.48818897637795
 31
0.0
  0
LINE
  5
695
330
1E
100
AcDbEntity
  8
7
100
AcDbLine
 10
5.6003937007874
 20
9.213582677165351
 30
0.0
 11
5.595472440944881
 21
9.213582677165351
 31
0.0
  0
LINE
  5
696
330
1E
100
AcDbEntity
  8
7
100
AcDbLine
 10
4.027559055118109
 20
9.243110236220472
 30
0.0
 11
4.033464566929133
 21
9.243110236220472
 31
0.0
  0
LINE
  5
697
330
1E
100
AcDbEntity
  8
7
100
AcDbLine
 10
5.595472440944881
 20
9.243110236220472
 30
0.0
 11
5.6003937007874
 21
9.243110236220472
 31
0.0
  0
LINE
  5
698
330
1E
100
AcDbEntity
  8
7
100
AcDbLine
 10
5.6003937007874
 20
9.26279527559055
 30
0.0
 11
4.027559055118109
 21
9.26279527559055
 31
0.0
  0
LINE
  5
69E
330
1E
100
AcDbEntity
  8
7
100
AcDbLine
 10
4.027559055118109
 20
8.737204724409446
 30
0.0
 11
4.027559055118109
 21
8.636811023622046
 31
0.0
  0
LINE
  5
69F
330
1E
100
AcDbEntity
  8
7
100
AcDbLine
 10
5.6003937007874
 20
8.636811023622046
 30
0.0
 11
5.6003937007874
 21
8.737204724409446
 31
0.0
  0
LINE
  5
6A5
330
1E
100
AcDbEntity
  8
7
100
AcDbLine
 10
4.027559055118109
 20
7.962598425196849
 30
0.0
 11
5.6003937007874
 21
7.962598425196849
 31
0.0
  0
LINE
  5
6A6
330
1E
100
AcDbEntity
  8
7
100
AcDbLine
 10
5.595472440944881
 20
8.936023622047244
 30
0.0
 11
5.6003937007874
 21
8.936023622047244
 31
0.0
  0
LINE
  5
6A7
330
1E
100
AcDbEntity
  8
7
100
AcDbLine
 10
4.033464566929133
 20
8.299212598425196
 30
0.0
 11
4.027559055118109
 21
8.298228346456692
 31
0.0
  0
LINE
  5
6A8
330
1E
100
AcDbEntity
  8
7
100
AcDbLine
 10
4.033464566929133
 20
8.91043307086614
 30
0.0
 11
4.027559055118109
 21
8.936023622047244
 31
0.0
  0
LINE
  5
6A9
330
1E
100
AcDbEntity
  8
7
100
AcDbLine
 10
4.027559055118109
 20
8.491141732283463
 30
0.0
 11
4.027559055118109
 21
8.636811023622046
 31
0.0
  0
LINE
  5
6AA
330
1E
100
AcDbEntity
  8
7
100
AcDbLine
 10
5.595472440944881
 20
8.299212598425196
 30
0.0
 11
5.6003937007874
 21
8.298228346456692
 31
0.0
  0
LINE
  5
6AB
330
1E
100
AcDbEntity
  8
7
100
AcDbLine
 10
5.595472440944881
 20
8.91043307086614
 30
0.0
 11
5.6003937007874
 21
8.936023622047244
 31
0.0
  0
LINE
  5
6AC
330
1E
100
AcDbEntity
  8
7
100
AcDbLine
 10
5.6003937007874
 20
8.636811023622046
 30
0.0
 11
5.6003937007874
 21
8.491141732283463
 31
0.0
  0
LINE
  5
6B3
330
1E
100
AcDbEntity
  8
7
100
AcDbLine
 10
3.998031496062991
 20
8.491141732283463
 30
0.0
 11
3.995078740157478
 21
8.48818897637795
 31
0.0
  0
LINE
  5
6B4
330
1E
100
AcDbEntity
  8
7
100
AcDbLine
 10
3.998031496062991
 20
8.636811023622046
 30
0.0
 11
3.995078740157478
 21
8.737204724409446
 31
0.0
  0
LINE
  5
6BB
330
1E
100
AcDbEntity
  8
7
100
AcDbLine
 10
5.630905511811023
 20
8.491141732283463
 30
0.0
 11
5.633858267716535
 21
8.48818897637795
 31
0.0
  0
LINE
  5
6BC
330
1E
100
AcDbEntity
  8
7
100
AcDbLine
 10
5.630905511811023
 20
8.636811023622046
 30
0.0
 11
5.633858267716535
 21
8.737204724409446
 31
0.0
  0
LINE
  5
6DD
330
1E
100
AcDbEntity
  8
7
100
AcDbLine
 10
5.649606299212597
 20
8.804133858267716
 30
0.0
 11
5.649606299212597
 21
8.829724409448818
 31
0.0
  0
LINE
  5
6DE
330
1E
100
AcDbEntity
  8
7
100
AcDbLine
 10
3.979330708661416
 20
8.829724409448818
 30
0.0
 11
3.979330708661416
 21
8.804133858267716
 31
0.0
  0
LINE
  5
6FF
330
1E
100
AcDbEntity
  8
7
100
AcDbLine
 10
5.669291338582675
 20
7.707677165354329
 30
0.0
 11
5.649606299212597
 21
7.703740157480313
 31
0.0
  0
LINE
  5
712
330
1E
100
AcDbEntity
  8
7
100
AcDbLine
 10
5.691929133858266
 20
7.765748031496062
 30
0.0
 11
5.698818897637795
 21
7.778543307086612
 31
0.0
  0
LINE
  5
784
330
1E
100
AcDbEntity
  8
7
100
AcDbLine
 10
4.48523622047244
 20
8.401574803149605
 30
0.0
 11
4.48523622047244
 21
8.406496062992124
 31
0.0
  0
LINE
  5
785
330
1E
100
AcDbEntity
  8
7
100
AcDbLine
 10
4.495078740157478
 20
8.401574803149605
 30
0.0
 11
4.495078740157478
 21
8.475393700787401
 31
0.0
  0
LINE
  5
78B
330
1E
100
AcDbEntity
  8
7
100
AcDbLine
 10
4.48523622047244
 20
8.492125984251968
 30
0.0
 11
4.48523622047244
 21
8.500984251968503
 31
0.0
  0
LINE
  5
7D1
330
1E
100
AcDbEntity
  8
7
100
AcDbLine
 10
4.535433070866141
 20
8.206692913385825
 30
0.0
 11
4.504921259842518
 21
8.206692913385825
 31
0.0
  0
LINE
  5
7D2
330
1E
100
AcDbEntity
  8
7
100
AcDbLine
 10
4.535433070866141
 20
8.190944881889762
 30
0.0
 11
4.504921259842518
 21
8.190944881889762
 31
0.0
  0
LINE
  5
7D3
330
1E
100
AcDbEntity
  8
7
100
AcDbLine
 10
4.48523622047244
 20
8.216535433070866
 30
0.0
 11
4.48523622047244
 21
8.401574803149605
 31
0.0
  0
LINE
  5
7D4
330
1E
100
AcDbEntity
  8
7
100
AcDbLine
 10
4.471456692913385
 20
8.180118110236218
 30
0.0
 11
4.487204724409448
 21
8.180118110236218
 31
0.0
  0
LINE
  5
7D5
330
1E
100
AcDbEntity
  8
7
100
AcDbLine
 10
4.47047244094488
 20
8.149606299212598
 30
0.0
 11
4.487204724409448
 21
8.149606299212598
 31
0.0
  0
LINE
  5
7DC
330
1E
100
AcDbEntity
  8
7
100
AcDbLine
 10
4.47047244094488
 20
8.158464566929133
 30
0.0
 11
4.471456692913385
 21
8.158464566929133
 31
0.0
  0
LINE
  5
7DD
330
1E
100
AcDbEntity
  8
7
100
AcDbLine
 10
4.471456692913385
 20
8.171259842519685
 30
0.0
 11
4.471456692913385
 21
8.158464566929133
 31
0.0
  0
LINE
  5
7E5
330
1E
100
AcDbEntity
  8
7
100
AcDbLine
 10
5.010826771653541
 20
8.190944881889762
 30
0.0
 11
5.061023622047243
 21
8.190944881889762
 31
0.0
  0
LINE
  5
7F1
330
1E
100
AcDbEntity
  8
7
100
AcDbLine
 10
5.12303149606299
 20
8.213582677165351
 30
0.0
 11
5.068897637795275
 21
8.213582677165351
 31
0.0
  0
LINE
  5
807
330
1E
100
AcDbEntity
  8
7
100
AcDbLine
 10
4.535433070866141
 20
8.148622047244092
 30
0.0
 11
5.010826771653541
 21
8.148622047244092
 31
0.0
  0
LINE
  5
828
330
1E
100
AcDbEntity
  8
7
100
AcDbLine
 10
4.403543307086613
 20
8.656496062992124
 30
0.0
 11
5.12303149606299
 21
8.656496062992124
 31
0.0
  0
LINE
  5
835
330
1E
100
AcDbEntity
  8
7
100
AcDbLine
 10
5.143700787401574
 20
8.639763779527557
 30
0.0
 11
5.143700787401574
 21
8.223425196850392
 31
0.0
  0
LINE
  5
848
330
1E
100
AcDbEntity
  8
7
100
AcDbLine
 10
5.143700787401574
 20
8.644685039370076
 30
0.0
 11
5.143700787401574
 21
8.639763779527557
 31
0.0
  0
LINE
  5
849
330
1E
100
AcDbEntity
  8
7
100
AcDbLine
 10
5.12303149606299
 20
8.656496062992124
 30
0.0
 11
5.12303149606299
 21
8.658464566929133
 31
0.0
  0
LINE
  5
84A
330
1E
100
AcDbEntity
  8
7
100
AcDbLine
 10
4.403543307086613
 20
8.661417322834642
 30
0.0
 11
4.403543307086613
 21
8.656496062992124
 31
0.0
  0
LINE
  5
856
330
1E
100
AcDbEntity
  8
7
100
AcDbLine
 10
4.473425196850393
 20
8.101377952755905
 30
0.0
 11
4.471456692913385
 21
8.11318897637795
 31
0.0
  0
LINE
  5
857
330
1E
100
AcDbEntity
  8
7
100
AcDbLine
 10
5.15255905511811
 20
8.231299212598424
 30
0.0
 11
5.15255905511811
 21
8.658464566929133
 31
0.0
  0
LINE
  5
862
330
1E
100
AcDbEntity
  8
7
100
AcDbLine
 10
5.154527559055117
 20
8.118110236220472
 30
0.0
 11
5.155511811023621
 21
8.127952755905511
 31
0.0
  0
LINE
  5
863
330
1E
100
AcDbEntity
  8
7
100
AcDbLine
 10
5.155511811023621
 20
8.127952755905511
 30
0.0
 11
5.155511811023621
 21
8.132874015748031
 31
0.0
  0
LINE
  5
864
330
1E
100
AcDbEntity
  8
7
100
AcDbLine
 10
5.154527559055117
 20
8.089566929133857
 30
0.0
 11
5.154527559055117
 21
8.118110236220472
 31
0.0
  0
LINE
  5
871
330
1E
100
AcDbEntity
  8
7
100
AcDbLine
 10
5.158464566929133
 20
8.134842519685037
 30
0.0
 11
5.158464566929133
 21
7.962598425196849
 31
0.0
  0
LINE
  5
878
330
1E
100
AcDbEntity
  8
7
100
AcDbLine
 10
5.155511811023621
 20
8.261811023622046
 30
0.0
 11
5.157480314960628
 21
8.200787401574801
 31
0.0
  0
LINE
  5
879
330
1E
100
AcDbEntity
  8
7
100
AcDbLine
 10
5.155511811023621
 20
8.658464566929133
 30
0.0
 11
5.155511811023621
 21
8.261811023622046
 31
0.0
  0
LINE
  5
87A
330
1E
100
AcDbEntity
  8
7
100
AcDbLine
 10
5.061023622047243
 20
8.118110236220472
 30
0.0
 11
5.061023622047243
 21
8.114173228346455
 31
0.0
  0
LINE
  5
87B
330
1E
100
AcDbEntity
  8
7
100
AcDbLine
 10
4.500984251968502
 20
8.114173228346455
 30
0.0
 11
5.061023622047243
 21
8.114173228346455
 31
0.0
  0
LINE
  5
87C
330
1E
100
AcDbEntity
  8
7
100
AcDbLine
 10
4.500984251968502
 20
8.124015748031496
 30
0.0
 11
4.500984251968502
 21
8.114173228346455
 31
0.0
  0
LINE
  5
87D
330
1E
100
AcDbEntity
  8
7
100
AcDbLine
 10
4.473425196850393
 20
8.124015748031496
 30
0.0
 11
4.500984251968502
 21
8.124015748031496
 31
0.0
  0
LINE
  5
87E
330
1E
100
AcDbEntity
  8
7
100
AcDbLine
 10
4.473425196850393
 20
8.101377952755905
 30
0.0
 11
4.473425196850393
 21
8.124015748031496
 31
0.0
  0
LINE
  5
87F
330
1E
100
AcDbEntity
  8
7
100
AcDbLine
 10
4.473425196850393
 20
8.089566929133857
 30
0.0
 11
4.473425196850393
 21
8.101377952755905
 31
0.0
  0
LINE
  5
880
330
1E
100
AcDbEntity
  8
7
100
AcDbLine
 10
4.473425196850393
 20
8.089566929133857
 30
0.0
 11
5.154527559055117
 21
8.089566929133857
 31
0.0
  0
LINE
  5
881
330
1E
100
AcDbEntity
  8
7
100
AcDbLine
 10
5.154527559055117
 20
8.118110236220472
 30
0.0
 11
5.061023622047243
 21
8.118110236220472
 31
0.0
  0
LINE
  5
882
330
1E
100
AcDbEntity
  8
7
100
AcDbLine
 10
4.9251968503937
 20
8.010826771653542
 30
0.0
 11
5.157480314960628
 21
8.010826771653542
 31
0.0
  0
LINE
  5
890
330
1E
100
AcDbEntity
  8
7
100
AcDbLine
 10
4.702755905511811
 20
8.010826771653542
 30
0.0
 11
4.471456692913385
 21
8.010826771653542
 31
0.0
  0
LINE
  5
8A1
330
1E
100
AcDbEntity
  8
7
100
AcDbLine
 10
4.9251968503937
 20
8.010826771653542
 30
0.0
 11
4.923228346456691
 21
8.046259842519685
 31
0.0
  0
LINE
  5
8A7
330
1E
100
AcDbEntity
  8
7
100
AcDbLine
 10
5.154527559055117
 20
8.21751968503937
 30
0.0
 11
5.138779527559053
 21
8.21751968503937
 31
0.0
  0
LINE
  5
8A8
330
1E
100
AcDbEntity
  8
7
100
AcDbLine
 10
5.143700787401574
 20
8.231299212598424
 30
0.0
 11
5.15255905511811
 21
8.231299212598424
 31
0.0
  0
LINE
  5
8AE
330
1E
100
AcDbEntity
  8
7
100
AcDbLine
 10
5.156496062992125
 20
8.155511811023622
 30
0.0
 11
5.061023622047243
 21
8.155511811023622
 31
0.0
  0
LINE
  5
8B4
330
1E
100
AcDbEntity
  8
7
100
AcDbLine
 10
5.155511811023621
 20
8.132874015748031
 30
0.0
 11
5.061023622047243
 21
8.132874015748031
 31
0.0
  0
LINE
  5
8C1
330
1E
100
AcDbEntity
  8
7
100
AcDbLine
 10
4.369094488188975
 20
8.531496062992124
 30
0.0
 11
4.369094488188975
 21
8.521653543307087
 31
0.0
  0
LINE
  5
8C8
330
1E
100
AcDbEntity
  8
7
100
AcDbLine
 10
4.4753937007874
 20
8.246062992125981
 30
0.0
 11
4.4753937007874
 21
8.51771653543307
 31
0.0
  0
LINE
  5
8CE
330
1E
100
AcDbEntity
  8
7
100
AcDbLine
 10
4.033464566929133
 20
9.251968503937009
 30
0.0
 11
4.427165354330707
 21
9.251968503937009
 31
0.0
  0
LINE
  5
8CF
330
1E
100
AcDbEntity
  8
7
100
AcDbLine
 10
5.201771653543306
 20
9.251968503937009
 30
0.0
 11
4.427165354330707
 21
9.251968503937009
 31
0.0
  0
LINE
  5
8D0
330
1E
100
AcDbEntity
  8
7
100
AcDbLine
 10
5.595472440944881
 20
9.251968503937009
 30
0.0
 11
5.201771653543306
 21
9.251968503937009
 31
0.0
  0
LINE
  5
8D6
330
1E
100
AcDbEntity
  8
7
100
AcDbLine
 10
4.454724409448818
 20
8.721456692913385
 30
0.0
 11
5.174212598425196
 21
8.721456692913385
 31
0.0
  0
LINE
  5
8DC
330
1E
100
AcDbEntity
  8
7
100
AcDbLine
 10
5.165354330708661
 20
8.259842519685037
 30
0.0
 11
5.165354330708661
 21
8.663385826771651
 31
0.0
  0
LINE
  5
8EB
330
1E
100
AcDbEntity
  8
7
100
AcDbLine
 10
5.174212598425196
 20
8.848425196850392
 30
0.0
 11
5.201771653543306
 21
9.251968503937009
 31
0.0
  0
LINE
  5
8EC
330
1E
100
AcDbEntity
  8
7
100
AcDbLine
 10
4.427165354330707
 20
9.251968503937009
 30
0.0
 11
4.454724409448818
 21
8.848425196850392
 31
0.0
  0
LINE
  5
8F2
330
1E
100
AcDbEntity
  8
7
100
AcDbLine
 10
5.252952755905512
 20
7.962598425196849
 30
0.0
 11
5.595472440944881
 21
7.962598425196849
 31
0.0
  0
LINE
  5
8F8
330
1E
100
AcDbEntity
  8
7
100
AcDbLine
 10
5.163385826771651
 20
7.962598425196849
 30
0.0
 11
5.168307086614173
 21
7.962598425196849
 31
0.0
  0
LINE
  5
8F9
330
1E
100
AcDbEntity
  8
7
100
AcDbLine
 10
4.464566929133858
 20
7.962598425196849
 30
0.0
 11
4.459645669291337
 21
7.962598425196849
 31
0.0
  0
LINE
  5
8FA
330
1E
100
AcDbEntity
  8
7
100
AcDbLine
 10
4.381889763779525
 20
7.962598425196849
 30
0.0
 11
4.459645669291337
 21
7.962598425196849
 31
0.0
  0
LINE
  5
8FB
330
1E
100
AcDbEntity
  8
7
100
AcDbLine
 10
4.914370078740157
 20
8.046259842519685
 30
0.0
 11
4.914370078740157
 21
8.044291338582674
 31
0.0
  0
LINE
  5
922
330
1E
100
AcDbEntity
  8
7
100
AcDbLine
 10
4.473425196850393
 20
8.261811023622046
 30
0.0
 11
4.471456692913385
 21
8.200787401574801
 31
0.0
  0
LINE
  5
928
330
1E
100
AcDbEntity
  8
7
100
AcDbLine
 10
4.473425196850393
 20
8.49803149606299
 30
0.0
 11
4.473425196850393
 21
8.261811023622046
 31
0.0
  0
LINE
  5
939
330
1E
100
AcDbEntity
  8
7
100
AcDbLine
 10
4.714566929133858
 20
8.046259842519685
 30
0.0
 11
4.714566929133858
 21
8.044291338582674
 31
0.0
  0
LINE
  5
93A
330
1E
100
AcDbEntity
  8
7
100
AcDbLine
 10
4.381889763779525
 20
8.129921259842516
 30
0.0
 11
4.381889763779525
 21
7.962598425196849
 31
0.0
  0
LINE
  5
93B
330
1E
100
AcDbEntity
  8
7
100
AcDbLine
 10
4.459645669291337
 20
7.962598425196849
 30
0.0
 11
4.459645669291337
 21
8.129921259842516
 31
0.0
  0
LINE
  5
93C
330
1E
100
AcDbEntity
  8
7
100
AcDbLine
 10
4.469488188976376
 20
8.134842519685037
 30
0.0
 11
4.469488188976376
 21
7.962598425196849
 31
0.0
  0
LINE
  5
942
330
1E
100
AcDbEntity
  8
7
100
AcDbLine
 10
4.4753937007874
 20
8.245078740157479
 30
0.0
 11
4.476377952755905
 21
8.241141732283463
 31
0.0
  0
LINE
  5
94B
330
1E
100
AcDbEntity
  8
7
100
AcDbLine
 10
4.33759842519685
 20
9.12303149606299
 30
0.0
 11
4.349409448818897
 21
8.643700787401574
 31
0.0
  0
LINE
  5
95E
330
1E
100
AcDbEntity
  8
7
100
AcDbLine
 10
4.473425196850393
 20
8.135826771653542
 30
0.0
 11
4.473425196850393
 21
8.124015748031496
 31
0.0
  0
LINE
  5
95F
330
1E
100
AcDbEntity
  8
7
100
AcDbLine
 10
4.500984251968502
 20
8.133858267716535
 30
0.0
 11
4.500984251968502
 21
8.124015748031496
 31
0.0
  0
LINE
  5
965
330
1E
100
AcDbEntity
  8
7
100
AcDbLine
 10
4.4753937007874
 20
8.51771653543307
 30
0.0
 11
4.473425196850393
 21
8.49803149606299
 31
0.0
  0
LINE
  5
966
330
1E
100
AcDbEntity
  8
7
100
AcDbLine
 10
4.715551181102362
 20
8.046259842519685
 30
0.0
 11
4.701771653543306
 21
7.963582677165351
 31
0.0
  0
LINE
  5
967
330
1E
100
AcDbEntity
  8
7
100
AcDbLine
 10
4.714566929133858
 20
8.044291338582674
 30
0.0
 11
4.713582677165353
 21
8.046259842519685
 31
0.0
  0
LINE
  5
968
330
1E
100
AcDbEntity
  8
7
100
AcDbLine
 10
4.912401574803148
 20
8.046259842519685
 30
0.0
 11
4.926181102362204
 21
7.963582677165351
 31
0.0
  0
LINE
  5
969
330
1E
100
AcDbEntity
  8
7
100
AcDbLine
 10
4.914370078740157
 20
8.044291338582674
 30
0.0
 11
4.914370078740157
 21
8.046259842519685
 31
0.0
  0
LINE
  5
97A
330
1E
100
AcDbEntity
  8
7
100
AcDbLine
 10
5.168307086614173
 20
7.962598425196849
 30
0.0
 11
5.168307086614173
 21
8.129921259842516
 31
0.0
  0
LINE
  5
990
330
1E
100
AcDbEntity
  8
7
100
AcDbLine
 10
5.167322834645667
 20
8.203740157480313
 30
0.0
 11
5.165354330708661
 21
8.259842519685037
 31
0.0
  0
LINE
  5
991
330
1E
100
AcDbEntity
  8
7
100
AcDbLine
 10
5.165354330708661
 20
8.663385826771651
 30
0.0
 11
5.156496062992125
 21
8.658464566929133
 31
0.0
  0
LINE
  5
9A4
330
1E
100
AcDbEntity
  8
7
100
AcDbLine
 10
5.595472440944881
 20
7.962598425196849
 30
0.0
 11
5.595472440944881
 21
9.251968503937009
 31
0.0
  0
LINE
  5
9C4
330
1E
100
AcDbEntity
  8
7
100
AcDbLine
 10
4.033464566929133
 20
7.962598425196849
 30
0.0
 11
4.033464566929133
 21
9.251968503937009
 31
0.0
  0
LINE
  5
2D56
330
1E
100
AcDbEntity
  8
7
100
AcDbLine
 10
5.061023622047243
 20
6.823818897637795
 30
0.0
 11
5.010826771653541
 21
6.823818897637795
 31
0.0
  0
LINE
  5
2D57
330
1E
100
AcDbEntity
  8
7
100
AcDbLine
 10
4.535433070866141
 20
6.823818897637795
 30
0.0
 11
4.504921259842518
 21
6.823818897637795
 31
0.0
  0
LINE
  5
2D58
330
1E
100
AcDbEntity
  8
7
100
AcDbLine
 10
4.489173228346456
 20
6.814960629921258
 30
0.0
 11
4.471456692913385
 21
6.814960629921258
 31
0.0
  0
LINE
  5
2D59
330
1E
100
AcDbEntity
  8
7
100
AcDbLine
 10
4.328740157480313
 20
7.022637795275588
 30
0.0
 11
4.328740157480313
 21
7.013779527559053
 31
0.0
  0
LINE
  5
2D5A
330
1E
100
AcDbEntity
  8
7
100
AcDbLine
 10
5.12303149606299
 20
7.070866141732282
 30
0.0
 11
4.403543307086613
 21
7.070866141732282
 31
0.0
  0
LINE
  5
2D5B
330
1E
100
AcDbEntity
  8
7
100
AcDbLine
 10
5.645669291338582
 20
6.764763779527558
 30
0.0
 11
3.983267716535431
 21
6.764763779527558
 31
0.0
  0
LINE
  5
2D5C
330
1E
100
AcDbEntity
  8
7
100
AcDbLine
 10
4.500984251968502
 20
6.765748031496062
 30
0.0
 11
4.473425196850393
 21
6.765748031496062
 31
0.0
  0
LINE
  5
2D5D
330
1E
100
AcDbEntity
  8
7
100
AcDbLine
 10
5.247047244094487
 20
6.875984251968502
 30
0.0
 11
5.168307086614173
 21
6.875984251968502
 31
0.0
  0
LINE
  5
2D5E
330
1E
100
AcDbEntity
  8
7
100
AcDbLine
 10
4.460629921259841
 20
6.875984251968502
 30
0.0
 11
4.381889763779525
 21
6.875984251968502
 31
0.0
  0
LINE
  5
2D5F
330
1E
100
AcDbEntity
  8
7
100
AcDbLine
 10
5.156496062992125
 20
6.823818897637795
 30
0.0
 11
5.061023622047243
 21
6.823818897637795
 31
0.0
  0
LINE
  5
2D60
330
1E
100
AcDbEntity
  8
7
100
AcDbLine
 10
5.266732283464566
 20
6.815944881889762
 30
0.0
 11
5.26279527559055
 21
6.859251968503937
 31
0.0
  0
LINE
  5
2D61
330
1E
100
AcDbEntity
  8
7
100
AcDbLine
 10
4.366141732283463
 20
6.859251968503937
 30
0.0
 11
4.361220472440943
 21
6.815944881889762
 31
0.0
  0
LINE
  5
2D62
330
1E
100
AcDbEntity
  8
7
100
AcDbLine
 10
5.157480314960628
 20
6.864173228346456
 30
0.0
 11
5.155511811023621
 21
6.848425196850392
 31
0.0
  0
LINE
  5
2D63
330
1E
100
AcDbEntity
  8
7
100
AcDbLine
 10
4.473425196850393
 20
6.848425196850392
 30
0.0
 11
4.47047244094488
 21
6.864173228346456
 31
0.0
  0
LINE
  5
2D64
330
1E
100
AcDbEntity
  8
7
100
AcDbLine
 10
4.4753937007874
 20
6.944881889763778
 30
0.0
 11
4.473425196850393
 21
6.984251968503937
 31
0.0
  0
LINE
  5
2D65
330
1E
100
AcDbEntity
  8
7
100
AcDbLine
 10
4.463582677165353
 20
6.993110236220473
 30
0.0
 11
4.454724409448818
 21
6.993110236220473
 31
0.0
  0
LINE
  5
2D66
330
1E
100
AcDbEntity
  8
7
100
AcDbLine
 10
4.358267716535431
 20
6.9753937007874
 30
0.0
 11
4.3503937007874
 21
6.764763779527558
 31
0.0
  0
LINE
  5
2D67
330
1E
100
AcDbEntity
  8
7
100
AcDbLine
 10
5.278543307086613
 20
6.764763779527558
 30
0.0
 11
5.266732283464566
 21
7.047244094488188
 31
0.0
  0
LINE
  5
2D68
330
1E
100
AcDbEntity
  8
7
100
AcDbLine
 10
5.174212598425196
 20
7.136811023622048
 30
0.0
 11
4.454724409448818
 21
7.136811023622048
 31
0.0
  0
LINE
  5
2D69
330
1E
100
AcDbEntity
  8
7
100
AcDbLine
 10
4.504921259842518
 20
6.822834645669289
 30
0.0
 11
4.494094488188975
 21
6.819881889763778
 31
0.0
  0
LINE
  5
2D6A
330
1E
100
AcDbEntity
  8
7
100
AcDbLine
 10
4.494094488188975
 20
6.819881889763778
 30
0.0
 11
4.487204724409448
 21
6.811023622047241
 31
0.0
  0
LINE
  5
2DA8
330
1E
100
AcDbEntity
  8
7
100
AcDbLine
 10
3.983267716535431
 20
6.764763779527558
 30
0.0
 11
3.963582677165353
 21
6.760826771653542
 31
0.0
  0
LINE
  5
2DBD
330
1E
100
AcDbEntity
  8
7
100
AcDbLine
 10
5.251968503937006
 20
6.875
 30
0.0
 11
5.247047244094487
 21
6.875984251968502
 31
0.0
  0
LINE
  5
2DF0
330
1E
100
AcDbEntity
  8
7
100
AcDbLine
 10
4.878937007874013
 20
6.202755905511811
 30
0.0
 11
5.645669291338582
 21
6.202755905511811
 31
0.0
  0
LINE
  5
2DF1
330
1E
100
AcDbEntity
  8
7
100
AcDbLine
 10
4.878937007874013
 20
6.202755905511811
 30
0.0
 11
4.877952755905512
 21
6.202755905511811
 31
0.0
  0
LINE
  5
2DF9
330
1E
100
AcDbEntity
  8
7
100
AcDbLine
 10
3.983267716535431
 20
6.202755905511811
 30
0.0
 11
4.749015748031495
 21
6.202755905511811
 31
0.0
  0
LINE
  5
2E01
330
1E
100
AcDbEntity
  8
7
100
AcDbLine
 10
4.750984251968502
 20
6.202755905511811
 30
0.0
 11
4.749015748031495
 21
6.202755905511811
 31
0.0
  0
LINE
  5
2E08
330
1E
100
AcDbEntity
  8
7
100
AcDbLine
 10
4.857283464566927
 20
6.455708661417322
 30
0.0
 11
4.771653543307086
 21
6.455708661417322
 31
0.0
  0
LINE
  5
2E23
330
1E
100
AcDbEntity
  8
7
100
AcDbLine
 10
5.699803149606299
 20
6.477362204724409
 30
0.0
 11
5.699803149606299
 21
6.455708661417322
 31
0.0
  0
LINE
  5
2E2E
330
1E
100
AcDbEntity
  8
7
100
AcDbLine
 10
4.911417322834644
 20
6.004921259842518
 30
0.0
 11
4.911417322834644
 21
6.01771653543307
 31
0.0
  0
LINE
  5
2E2F
330
1E
100
AcDbEntity
  8
7
100
AcDbLine
 10
4.911417322834644
 20
6.004921259842518
 30
0.0
 11
4.911417322834644
 21
5.993110236220473
 31
0.0
  0
LINE
  5
2E42
330
1E
100
AcDbEntity
  8
7
100
AcDbLine
 10
4.773622047244094
 20
6.452755905511811
 30
0.0
 11
4.854330708661415
 21
6.452755905511811
 31
0.0
  0
LINE
  5
2E43
330
1E
100
AcDbEntity
  8
7
100
AcDbLine
 10
4.749015748031495
 20
6.163385826771652
 30
0.0
 11
4.773622047244094
 21
6.452755905511811
 31
0.0
  0
LINE
  5
2E44
330
1E
100
AcDbEntity
  8
7
100
AcDbLine
 10
4.749015748031495
 20
6.163385826771652
 30
0.0
 11
4.714566929133858
 21
6.163385826771652
 31
0.0
  0
LINE
  5
2E45
330
1E
100
AcDbEntity
  8
7
100
AcDbLine
 10
4.716535433070864
 20
6.01771653543307
 30
0.0
 11
4.714566929133858
 21
6.163385826771652
 31
0.0
  0
LINE
  5
2E46
330
1E
100
AcDbEntity
  8
7
100
AcDbLine
 10
4.909448818897636
 20
5.88779527559055
 30
0.0
 11
4.719488188976376
 21
5.88779527559055
 31
0.0
  0
LINE
  5
2E4C
330
1E
100
AcDbEntity
  8
7
100
AcDbLine
 10
4.717519685039368
 20
6.004921259842518
 30
0.0
 11
4.716535433070864
 21
6.01771653543307
 31
0.0
  0
LINE
  5
2E54
330
1E
100
AcDbEntity
  8
7
100
AcDbLine
 10
4.719488188976376
 20
5.88779527559055
 30
0.0
 11
4.719488188976376
 21
5.895669291338582
 31
0.0
  0
LINE
  5
2E55
330
1E
100
AcDbEntity
  8
7
100
AcDbLine
 10
4.911417322834644
 20
6.01771653543307
 30
0.0
 11
4.716535433070864
 21
6.01771653543307
 31
0.0
  0
LINE
  5
2E56
330
1E
100
AcDbEntity
  8
7
100
AcDbLine
 10
4.717519685039368
 20
6.004921259842518
 30
0.0
 11
4.911417322834644
 21
6.004921259842518
 31
0.0
  0
LINE
  5
2E57
330
1E
100
AcDbEntity
  8
7
100
AcDbLine
 10
4.911417322834644
 20
5.993110236220473
 30
0.0
 11
4.717519685039368
 21
5.993110236220473
 31
0.0
  0
LINE
  5
2E58
330
1E
100
AcDbEntity
  8
7
100
AcDbLine
 10
4.719488188976376
 20
5.895669291338582
 30
0.0
 11
4.909448818897636
 21
5.895669291338582
 31
0.0
  0
LINE
  5
2E59
330
1E
100
AcDbEntity
  8
7
100
AcDbLine
 10
4.301181102362203
 20
5.907480314960628
 30
0.0
 11
4.296259842519683
 21
6.202755905511811
 31
0.0
  0
LINE
  5
2E6A
330
1E
100
AcDbEntity
  8
7
100
AcDbLine
 10
4.015748031496062
 20
6.01771653543307
 30
0.0
 11
4.015748031496062
 21
6.163385826771652
 31
0.0
  0
LINE
  5
2E6B
330
1E
100
AcDbEntity
  8
7
100
AcDbLine
 10
4.081692913385825
 20
5.907480314960628
 30
0.0
 11
4.086614173228346
 21
6.202755905511811
 31
0.0
  0
LINE
  5
2E73
330
1E
100
AcDbEntity
  8
7
100
AcDbLine
 10
4.015748031496062
 20
6.01771653543307
 30
0.0
 11
3.963582677165353
 21
6.01771653543307
 31
0.0
  0
LINE
  5
2E74
330
1E
100
AcDbEntity
  8
7
100
AcDbLine
 10
3.963582677165353
 20
6.004921259842518
 30
0.0
 11
3.963582677165353
 21
6.01771653543307
 31
0.0
  0
LINE
  5
2E7D
330
1E
100
AcDbEntity
  8
7
100
AcDbLine
 10
5.612204724409448
 20
6.01771653543307
 30
0.0
 11
5.612204724409448
 21
6.163385826771652
 31
0.0
  0
LINE
  5
2E7E
330
1E
100
AcDbEntity
  8
7
100
AcDbLine
 10
5.547244094488188
 20
5.907480314960628
 30
0.0
 11
5.542322834645668
 21
6.202755905511811
 31
0.0
  0
LINE
  5
2E8A
330
1E
100
AcDbEntity
  8
7
100
AcDbLine
 10
5.136811023622046
 20
5.907480314960628
 30
0.0
 11
5.131889763779525
 21
6.202755905511811
 31
0.0
  0
LINE
  5
2E95
330
1E
100
AcDbEntity
  8
7
100
AcDbLine
 10
5.326771653543306
 20
5.88779527559055
 30
0.0
 11
5.136811023622046
 21
5.88779527559055
 31
0.0
  0
LINE
  5
2EAE
330
1E
100
AcDbEntity
  8
7
100
AcDbLine
 10
3.982283464566928
 20
6.724409448818897
 30
0.0
 11
3.982283464566928
 21
6.696850393700787
 31
0.0
  0
LINE
  5
2EB6
330
1E
100
AcDbEntity
  8
7
100
AcDbLine
 10
4.771653543307086
 20
6.455708661417322
 30
0.0
 11
4.773622047244094
 21
6.452755905511811
 31
0.0
  0
LINE
  5
2EB7
330
1E
100
AcDbEntity
  8
7
100
AcDbLine
 10
4.854330708661415
 20
6.452755905511811
 30
0.0
 11
4.857283464566927
 21
6.455708661417322
 31
0.0
  0
LINE
  5
2EB8
330
1E
100
AcDbEntity
  8
7
100
AcDbLine
 10
4.771653543307086
 20
6.455708661417322
 30
0.0
 11
4.749015748031495
 21
6.202755905511811
 31
0.0
  0
LINE
  5
2EC0
330
1E
100
AcDbEntity
  8
7
100
AcDbLine
 10
4.878937007874013
 20
6.202755905511811
 30
0.0
 11
4.857283464566927
 21
6.455708661417322
 31
0.0
  0
LINE
  5
2EC8
330
1E
100
AcDbEntity
  8
7
100
AcDbLine
 10
3.933070866141731
 20
6.202755905511811
 30
0.0
 11
3.928149606299212
 21
6.455708661417322
 31
0.0
  0
LINE
  5
2EC9
330
1E
100
AcDbEntity
  8
7
100
AcDbLine
 10
3.978346456692912
 20
6.455708661417322
 30
0.0
 11
3.983267716535431
 21
6.202755905511811
 31
0.0
  0
LINE
  5
2ECA
330
1E
100
AcDbEntity
  8
7
100
AcDbLine
 10
5.645669291338582
 20
6.202755905511811
 30
0.0
 11
5.649606299212597
 21
6.455708661417322
 31
0.0
  0
LINE
  5
2ECB
330
1E
100
AcDbEntity
  8
7
100
AcDbLine
 10
5.699803149606299
 20
6.455708661417322
 30
0.0
 11
5.695866141732282
 21
6.202755905511811
 31
0.0
  0
LINE
  5
2EE7
330
1E
100
AcDbEntity
  8
7
100
AcDbLine
 10
5.648622047244093
 20
6.561023622047241
 30
0.0
 11
5.674212598425196
 21
6.555118110236219
 31
0.0
  0
LINE
  5
2EFA
330
1E
100
AcDbEntity
  8
7
100
AcDbLine
 10
3.929133858267714
 20
6.477362204724409
 30
0.0
 11
3.935039370078738
 21
6.477362204724409
 31
0.0
  0
LINE
  5
2F11
330
1E
100
AcDbEntity
  8
7
100
AcDbLine
 10
4.495078740157478
 20
6.933070866141731
 30
0.0
 11
4.495078740157478
 21
6.9753937007874
 31
0.0
  0
LINE
  5
2F12
330
1E
100
AcDbEntity
  8
7
100
AcDbLine
 10
4.48523622047244
 20
6.965551181102362
 30
0.0
 11
4.48523622047244
 21
6.956692913385825
 31
0.0
  0
LINE
  5
2F1D
330
1E
100
AcDbEntity
  8
7
100
AcDbLine
 10
4.48523622047244
 20
6.965551181102362
 30
0.0
 11
4.48523622047244
 21
6.970472440944881
 31
0.0
  0
LINE
  5
2F1E
330
1E
100
AcDbEntity
  8
7
100
AcDbLine
 10
4.535433070866141
 20
6.823818897637795
 30
0.0
 11
4.535433070866141
 21
6.818897637795275
 31
0.0
  0
LINE
  5
2F40
330
1E
100
AcDbEntity
  8
7
100
AcDbLine
 10
4.535433070866141
 20
6.823818897637795
 30
0.0
 11
4.504921259842518
 21
6.823818897637795
 31
0.0
  0
LINE
  5
2F41
330
1E
100
AcDbEntity
  8
7
100
AcDbLine
 10
4.48523622047244
 20
6.814960629921258
 30
0.0
 11
4.48523622047244
 21
6.913385826771652
 31
0.0
  0
LINE
  5
2F42
330
1E
100
AcDbEntity
  8
7
100
AcDbLine
 10
4.471456692913385
 20
6.811023622047241
 30
0.0
 11
4.487204724409448
 21
6.811023622047241
 31
0.0
  0
LINE
  5
2F43
330
1E
100
AcDbEntity
  8
7
100
AcDbLine
 10
4.471456692913385
 20
6.793307086614172
 30
0.0
 11
4.487204724409448
 21
6.793307086614172
 31
0.0
  0
LINE
  5
2F50
330
1E
100
AcDbEntity
  8
7
100
AcDbLine
 10
5.010826771653541
 20
6.823818897637795
 30
0.0
 11
5.061023622047243
 21
6.823818897637795
 31
0.0
  0
LINE
  5
2F56
330
1E
100
AcDbEntity
  8
7
100
AcDbLine
 10
5.12303149606299
 20
6.827755905511811
 30
0.0
 11
5.068897637795275
 21
6.827755905511811
 31
0.0
  0
LINE
  5
2F6C
330
1E
100
AcDbEntity
  8
7
100
AcDbLine
 10
4.535433070866141
 20
6.790354330708661
 30
0.0
 11
5.010826771653541
 21
6.790354330708661
 31
0.0
  0
LINE
  5
2F77
330
1E
100
AcDbEntity
  8
7
100
AcDbLine
 10
4.48523622047244
 20
6.970472440944881
 30
0.0
 11
4.482283464566927
 21
6.977362204724409
 31
0.0
  0
LINE
  5
2F78
330
1E
100
AcDbEntity
  8
7
100
AcDbLine
 10
4.482283464566927
 20
6.977362204724409
 30
0.0
 11
4.473425196850393
 21
6.982283464566927
 31
0.0
  0
LINE
  5
2F7E
330
1E
100
AcDbEntity
  8
7
100
AcDbLine
 10
4.416338582677163
 20
6.98523622047244
 30
0.0
 11
4.403543307086613
 21
6.98523622047244
 31
0.0
  0
LINE
  5
2F9A
330
1E
100
AcDbEntity
  8
7
100
AcDbLine
 10
5.143700787401574
 20
7.0501968503937
 30
0.0
 11
5.143700787401574
 21
6.823818897637795
 31
0.0
  0
LINE
  5
2FA7
330
1E
100
AcDbEntity
  8
7
100
AcDbLine
 10
5.068897637795275
 20
6.823818897637795
 30
0.0
 11
5.068897637795275
 21
6.827755905511811
 31
0.0
  0
LINE
  5
2FA8
330
1E
100
AcDbEntity
  8
7
100
AcDbLine
 10
4.403543307086613
 20
6.980314960629921
 30
0.0
 11
4.403543307086613
 21
6.98523622047244
 31
0.0
  0
LINE
  5
2FA9
330
1E
100
AcDbEntity
  8
7
100
AcDbLine
 10
4.473425196850393
 20
6.764763779527558
 30
0.0
 11
4.471456692913385
 21
6.796259842519683
 31
0.0
  0
LINE
  5
2FAA
330
1E
100
AcDbEntity
  8
7
100
AcDbLine
 10
5.15255905511811
 20
6.823818897637795
 30
0.0
 11
5.15255905511811
 21
7.037401574803148
 31
0.0
  0
LINE
  5
2FB1
330
1E
100
AcDbEntity
  8
7
100
AcDbLine
 10
5.155511811023621
 20
6.764763779527558
 30
0.0
 11
5.155511811023621
 21
6.783464566929133
 31
0.0
  0
LINE
  5
2FB2
330
1E
100
AcDbEntity
  8
7
100
AcDbLine
 10
5.158464566929133
 20
6.855314960629921
 30
0.0
 11
5.158464566929133
 21
6.764763779527558
 31
0.0
  0
LINE
  5
2FB9
330
1E
100
AcDbEntity
  8
7
100
AcDbLine
 10
5.155511811023621
 20
6.847440944881888
 30
0.0
 11
5.157480314960628
 21
6.864173228346456
 31
0.0
  0
LINE
  5
2FBA
330
1E
100
AcDbEntity
  8
7
100
AcDbLine
 10
5.155511811023621
 20
7.076771653543306
 30
0.0
 11
5.155511811023621
 21
6.847440944881888
 31
0.0
  0
LINE
  5
2FBB
330
1E
100
AcDbEntity
  8
7
100
AcDbLine
 10
5.15255905511811
 20
7.037401574803148
 30
0.0
 11
5.155511811023621
 21
7.076771653543306
 31
0.0
  0
LINE
  5
2FC7
330
1E
100
AcDbEntity
  8
7
100
AcDbLine
 10
5.155511811023621
 20
6.783464566929133
 30
0.0
 11
5.061023622047243
 21
6.783464566929133
 31
0.0
  0
LINE
  5
2FCD
330
1E
100
AcDbEntity
  8
7
100
AcDbLine
 10
5.143700787401574
 20
7.037401574803148
 30
0.0
 11
5.15255905511811
 21
7.037401574803148
 31
0.0
  0
LINE
  5
2FD3
330
1E
100
AcDbEntity
  8
7
100
AcDbLine
 10
4.4753937007874
 20
6.814960629921258
 30
0.0
 11
4.4753937007874
 21
6.944881889763778
 31
0.0
  0
LINE
  5
2FD9
330
1E
100
AcDbEntity
  8
7
100
AcDbLine
 10
5.174212598425196
 20
6.875984251968502
 30
0.0
 11
5.174212598425196
 21
7.124015748031494
 31
0.0
  0
LINE
  5
2FDA
330
1E
100
AcDbEntity
  8
7
100
AcDbLine
 10
4.454724409448818
 20
7.124015748031494
 30
0.0
 11
5.174212598425196
 21
7.124015748031494
 31
0.0
  0
LINE
  5
2FDB
330
1E
100
AcDbEntity
  8
7
100
AcDbLine
 10
4.454724409448818
 20
7.124015748031494
 30
0.0
 11
4.454724409448818
 21
7.090551181102362
 31
0.0
  0
LINE
  5
2FDC
330
1E
100
AcDbEntity
  8
7
100
AcDbLine
 10
4.454724409448818
 20
7.090551181102362
 30
0.0
 11
5.165354330708661
 21
7.090551181102362
 31
0.0
  0
LINE
  5
2FDD
330
1E
100
AcDbEntity
  8
7
100
AcDbLine
 10
5.165354330708661
 20
6.875984251968502
 30
0.0
 11
5.165354330708661
 21
7.090551181102362
 31
0.0
  0
LINE
  5
2FE8
330
1E
100
AcDbEntity
  8
7
100
AcDbLine
 10
4.381889763779525
 20
6.766732283464566
 30
0.0
 11
4.375984251968502
 21
6.764763779527558
 31
0.0
  0
LINE
  5
2FEE
330
1E
100
AcDbEntity
  8
7
100
AcDbLine
 10
5.164370078740157
 20
6.764763779527558
 30
0.0
 11
5.168307086614173
 21
6.766732283464566
 31
0.0
  0
LINE
  5
2FEF
330
1E
100
AcDbEntity
  8
7
100
AcDbLine
 10
4.464566929133858
 20
6.764763779527558
 30
0.0
 11
4.459645669291337
 21
6.766732283464566
 31
0.0
  0
LINE
  5
2FF0
330
1E
100
AcDbEntity
  8
7
100
AcDbLine
 10
4.381889763779525
 20
6.766732283464566
 30
0.0
 11
4.459645669291337
 21
6.766732283464566
 31
0.0
  0
LINE
  5
300F
330
1E
100
AcDbEntity
  8
7
100
AcDbLine
 10
4.473425196850393
 20
6.847440944881888
 30
0.0
 11
4.471456692913385
 21
6.864173228346456
 31
0.0
  0
LINE
  5
3010
330
1E
100
AcDbEntity
  8
7
100
AcDbLine
 10
4.473425196850393
 20
6.984251968503937
 30
0.0
 11
4.473425196850393
 21
6.847440944881888
 31
0.0
  0
LINE
  5
3020
330
1E
100
AcDbEntity
  8
7
100
AcDbLine
 10
4.381889763779525
 20
6.863188976377951
 30
0.0
 11
4.381889763779525
 21
6.766732283464566
 31
0.0
  0
LINE
  5
3021
330
1E
100
AcDbEntity
  8
7
100
AcDbLine
 10
4.459645669291337
 20
6.766732283464566
 30
0.0
 11
4.459645669291337
 21
6.863188976377951
 31
0.0
  0
LINE
  5
3022
330
1E
100
AcDbEntity
  8
7
100
AcDbLine
 10
4.469488188976376
 20
6.855314960629921
 30
0.0
 11
4.469488188976376
 21
6.764763779527558
 31
0.0
  0
LINE
  5
302C
330
1E
100
AcDbEntity
  8
7
100
AcDbLine
 10
4.358267716535431
 20
6.9753937007874
 30
0.0
 11
4.3503937007874
 21
6.764763779527558
 31
0.0
  0
LINE
  5
302D
330
1E
100
AcDbEntity
  8
7
100
AcDbLine
 10
4.473425196850393
 20
6.765748031496062
 30
0.0
 11
4.473425196850393
 21
6.764763779527558
 31
0.0
  0
LINE
  5
302E
330
1E
100
AcDbEntity
  8
7
100
AcDbLine
 10
4.4753937007874
 20
6.944881889763778
 30
0.0
 11
4.473425196850393
 21
6.984251968503937
 31
0.0
  0
LINE
  5
3038
330
1E
100
AcDbEntity
  8
7
100
AcDbLine
 10
5.278543307086613
 20
6.764763779527558
 30
0.0
 11
5.266732283464566
 21
7.046259842519683
 31
0.0
  0
LINE
  5
303E
330
1E
100
AcDbEntity
  8
7
100
AcDbLine
 10
5.168307086614173
 20
6.766732283464566
 30
0.0
 11
5.168307086614173
 21
6.863188976377951
 31
0.0
  0
LINE
  5
3058
330
1E
100
AcDbEntity
  8
7
100
AcDbLine
 10
5.521653543307086
 20
6.129921259842518
 30
0.0
 11
5.543307086614172
 21
6.129921259842518
 31
0.0
  0
LINE
  5
3059
330
1E
100
AcDbEntity
  8
7
100
AcDbLine
 10
5.521653543307086
 20
6.129921259842518
 30
0.0
 11
5.521653543307086
 21
6.053149606299212
 31
0.0
  0
LINE
  5
305A
330
1E
100
AcDbEntity
  8
7
100
AcDbLine
 10
5.521653543307086
 20
6.053149606299212
 30
0.0
 11
5.544291338582675
 21
6.053149606299212
 31
0.0
  0
LINE
  5
305B
330
1E
100
AcDbEntity
  8
7
100
AcDbLine
 10
5.634842519685037
 20
6.177165354330706
 30
0.0
 11
5.634842519685037
 21
6.198818897637795
 31
0.0
  0
LINE
  5
305C
330
1E
100
AcDbEntity
  8
7
100
AcDbLine
 10
5.612204724409448
 20
6.140748031496062
 30
0.0
 11
5.634842519685037
 21
6.177165354330706
 31
0.0
  0
LINE
  5
305D
330
1E
100
AcDbEntity
  8
7
100
AcDbLine
 10
5.521653543307086
 20
6.202755905511811
 30
0.0
 11
5.521653543307086
 21
6.129921259842518
 31
0.0
  0
LINE
  5
305E
330
1E
100
AcDbEntity
  8
7
100
AcDbLine
 10
4.106299212598424
 20
6.129921259842518
 30
0.0
 11
4.084645669291337
 21
6.129921259842518
 31
0.0
  0
LINE
  5
305F
330
1E
100
AcDbEntity
  8
7
100
AcDbLine
 10
4.106299212598424
 20
6.202755905511811
 30
0.0
 11
4.106299212598424
 21
6.129921259842518
 31
0.0
  0
LINE
  5
3060
330
1E
100
AcDbEntity
  8
7
100
AcDbLine
 10
4.106299212598424
 20
6.053149606299212
 30
0.0
 11
4.083661417322834
 21
6.053149606299212
 31
0.0
  0
LINE
  5
3066
330
1E
100
AcDbEntity
  8
7
100
AcDbLine
 10
4.106299212598424
 20
6.129921259842518
 30
0.0
 11
4.106299212598424
 21
6.053149606299212
 31
0.0
  0
LINE
  5
307A
330
1E
100
AcDbEntity
  8
7
100
AcDbLine
 10
4.361220472440943
 20
6.813976377952754
 30
0.0
 11
4.361220472440943
 21
6.815944881889762
 31
0.0
  0
LINE
  5
308A
330
1E
100
AcDbEntity
  8
7
100
AcDbLine
 10
4.463582677165353
 20
6.992125984251967
 30
0.0
 11
4.463582677165353
 21
6.993110236220473
 31
0.0
  0
LINE
  5
308B
330
1E
100
AcDbEntity
  8
7
100
AcDbLine
 10
4.454724409448818
 20
6.992125984251967
 30
0.0
 11
4.454724409448818
 21
6.993110236220473
 31
0.0
  0
LINE
  5
308C
330
1E
100
AcDbEntity
  8
7
100
AcDbLine
 10
5.246062992125983
 20
6.863188976377951
 30
0.0
 11
5.256889763779525
 21
6.859251968503937
 31
0.0
  0
LINE
  5
308D
330
1E
100
AcDbEntity
  8
7
100
AcDbLine
 10
5.256889763779525
 20
6.859251968503937
 30
0.0
 11
5.261811023622046
 21
6.8503937007874
 31
0.0
  0
LINE
  5
3093
330
1E
100
AcDbEntity
  8
7
100
AcDbLine
 10
5.266732283464566
 20
6.813976377952754
 30
0.0
 11
5.266732283464566
 21
6.815944881889762
 31
0.0
  0
LINE
  5
3094
330
1E
100
AcDbEntity
  8
7
100
AcDbLine
 10
5.266732283464566
 20
7.046259842519683
 30
0.0
 11
5.266732283464566
 21
7.047244094488188
 31
0.0
  0
LINE
  5
3C38
330
1E
100
AcDbEntity
  8
7
100
AcDbLine
 10
5.266732283464566
 20
7.046259842519683
 30
0.0
 11
5.261811023622046
 21
7.070866141732282
 31
0.0
  0
LINE
  5
3C39
330
1E
100
AcDbEntity
  8
7
100
AcDbLine
 10
5.261811023622046
 20
7.070866141732282
 30
0.0
 11
5.24803149606299
 21
7.092519685039368
 31
0.0
  0
LINE
  5
3C3A
330
1E
100
AcDbEntity
  8
7
100
AcDbLine
 10
5.24803149606299
 20
7.092519685039368
 30
0.0
 11
5.227362204724409
 21
7.109251968503937
 31
0.0
  0
LINE
  5
3C3B
330
1E
100
AcDbEntity
  8
7
100
AcDbLine
 10
5.227362204724409
 20
7.109251968503937
 30
0.0
 11
5.201771653543306
 21
7.120078740157478
 31
0.0
  0
LINE
  5
3C3C
330
1E
100
AcDbEntity
  8
7
100
AcDbLine
 10
5.201771653543306
 20
7.120078740157478
 30
0.0
 11
5.174212598425196
 21
7.124015748031494
 31
0.0
  0
LINE
  5
3C3D
330
1E
100
AcDbEntity
  8
7
100
AcDbLine
 10
5.26279527559055
 20
6.861220472440943
 30
0.0
 11
5.26279527559055
 21
6.86023622047244
 31
0.0
  0
LINE
  5
3C3E
330
1E
100
AcDbEntity
  8
7
100
AcDbLine
 10
5.26279527559055
 20
6.86023622047244
 30
0.0
 11
5.26279527559055
 21
6.858267716535432
 31
0.0
  0
LINE
  5
3C3F
330
1E
100
AcDbEntity
  8
7
100
AcDbLine
 10
4.454724409448818
 20
7.076771653543306
 30
0.0
 11
4.454724409448818
 21
7.084645669291337
 31
0.0
  0
LINE
  5
3C40
330
1E
100
AcDbEntity
  8
7
100
AcDbLine
 10
4.454724409448818
 20
7.084645669291337
 30
0.0
 11
4.454724409448818
 21
7.090551181102362
 31
0.0
  0
LINE
  5
3C41
330
1E
100
AcDbEntity
  8
7
100
AcDbLine
 10
4.381889763779525
 20
6.863188976377951
 30
0.0
 11
4.371062992125984
 21
6.859251968503937
 31
0.0
  0
LINE
  5
3C42
330
1E
100
AcDbEntity
  8
7
100
AcDbLine
 10
4.371062992125984
 20
6.859251968503937
 30
0.0
 11
4.366141732283463
 21
6.8503937007874
 31
0.0
  0
LINE
  5
3C43
330
1E
100
AcDbEntity
  8
7
100
AcDbLine
 10
4.366141732283463
 20
6.861220472440943
 30
0.0
 11
4.366141732283463
 21
6.86023622047244
 31
0.0
  0
LINE
  5
3C44
330
1E
100
AcDbEntity
  8
7
100
AcDbLine
 10
4.366141732283463
 20
6.86023622047244
 30
0.0
 11
4.36515748031496
 21
6.858267716535432
 31
0.0
  0
LINE
  5
3C45
330
1E
100
AcDbEntity
  8
7
100
AcDbLine
 10
4.454724409448818
 20
7.124015748031494
 30
0.0
 11
4.424212598425196
 21
7.120078740157478
 31
0.0
  0
LINE
  5
3C46
330
1E
100
AcDbEntity
  8
7
100
AcDbLine
 10
4.424212598425196
 20
7.120078740157478
 30
0.0
 11
4.397637795275588
 21
7.107283464566927
 31
0.0
  0
LINE
  5
3C47
330
1E
100
AcDbEntity
  8
7
100
AcDbLine
 10
4.397637795275588
 20
7.107283464566927
 30
0.0
 11
4.376968503937006
 21
7.088582677165351
 31
0.0
  0
LINE
  5
3C48
330
1E
100
AcDbEntity
  8
7
100
AcDbLine
 10
4.376968503937006
 20
7.088582677165351
 30
0.0
 11
4.364173228346456
 21
7.063976377952754
 31
0.0
  0
LINE
  5
3C49
330
1E
100
AcDbEntity
  8
7
100
AcDbLine
 10
4.393700787401573
 20
7.070866141732282
 30
0.0
 11
4.422244094488188
 21
7.085629921259843
 31
0.0
  0
LINE
  5
3C4A
330
1E
100
AcDbEntity
  8
7
100
AcDbLine
 10
4.422244094488188
 20
7.085629921259843
 30
0.0
 11
4.454724409448818
 21
7.090551181102362
 31
0.0
  0
LINE
  5
3C4B
330
1E
100
AcDbEntity
  8
7
100
AcDbLine
 10
4.454724409448818
 20
6.992125984251967
 30
0.0
 11
4.428149606299212
 21
6.989173228346456
 31
0.0
  0
LINE
  5
3C4C
330
1E
100
AcDbEntity
  8
7
100
AcDbLine
 10
4.428149606299212
 20
6.989173228346456
 30
0.0
 11
4.403543307086613
 21
6.979330708661415
 31
0.0
  0
LINE
  5
3C4D
330
1E
100
AcDbEntity
  8
7
100
AcDbLine
 10
4.403543307086613
 20
6.979330708661415
 30
0.0
 11
4.383858267716535
 21
6.964566929133857
 31
0.0
  0
LINE
  5
3C4E
330
1E
100
AcDbEntity
  8
7
100
AcDbLine
 10
4.383858267716535
 20
6.964566929133857
 30
0.0
 11
4.369094488188975
 21
6.944881889763778
 31
0.0
  0
LINE
  5
3C4F
330
1E
100
AcDbEntity
  8
7
100
AcDbLine
 10
4.015748031496062
 20
6.140748031496062
 30
0.0
 11
3.993110236220471
 21
6.177165354330706
 31
0.0
  0
LINE
  5
3C50
330
1E
100
AcDbEntity
  8
7
100
AcDbLine
 10
3.993110236220471
 20
6.177165354330706
 30
0.0
 11
3.993110236220471
 21
6.198818897637795
 31
0.0
  0
LINE
  5
3C51
330
1E
100
AcDbEntity
  8
7
100
AcDbLine
 10
5.246062992125983
 20
6.863188976377951
 30
0.0
 11
5.246062992125983
 21
6.873031496062991
 31
0.0
  0
LINE
  5
3C52
330
1E
100
AcDbEntity
  8
7
100
AcDbLine
 10
5.246062992125983
 20
6.873031496062991
 30
0.0
 11
5.247047244094487
 21
6.875984251968502
 31
0.0
  0
LINE
  5
3C53
330
1E
100
AcDbEntity
  8
7
100
AcDbLine
 10
5.165354330708661
 20
7.090551181102362
 30
0.0
 11
5.158464566929133
 21
7.084645669291337
 31
0.0
  0
LINE
  5
3C54
330
1E
100
AcDbEntity
  8
7
100
AcDbLine
 10
5.158464566929133
 20
7.084645669291337
 30
0.0
 11
5.155511811023621
 21
7.076771653543306
 31
0.0
  0
LINE
  5
3C55
330
1E
100
AcDbEntity
  8
7
100
AcDbLine
 10
5.168307086614173
 20
6.863188976377951
 30
0.0
 11
5.168307086614173
 21
6.873031496062991
 31
0.0
  0
LINE
  5
3C56
330
1E
100
AcDbEntity
  8
7
100
AcDbLine
 10
5.168307086614173
 20
6.873031496062991
 30
0.0
 11
5.168307086614173
 21
6.875984251968502
 31
0.0
  0
LINE
  5
3C57
330
1E
100
AcDbEntity
  8
7
100
AcDbLine
 10
5.157480314960628
 20
6.864173228346456
 30
0.0
 11
5.157480314960628
 21
6.86515748031496
 31
0.0
  0
LINE
  5
3C58
330
1E
100
AcDbEntity
  8
7
100
AcDbLine
 10
5.157480314960628
 20
6.86515748031496
 30
0.0
 11
5.157480314960628
 21
6.866141732283463
 31
0.0
  0
LINE
  5
3C59
330
1E
100
AcDbEntity
  8
7
100
AcDbLine
 10
5.158464566929133
 20
6.855314960629921
 30
0.0
 11
5.162401574803148
 21
6.861220472440943
 31
0.0
  0
LINE
  5
3C5A
330
1E
100
AcDbEntity
  8
7
100
AcDbLine
 10
5.162401574803148
 20
6.861220472440943
 30
0.0
 11
5.168307086614173
 21
6.863188976377951
 31
0.0
  0
LINE
  5
3C5B
330
1E
100
AcDbEntity
  8
7
100
AcDbLine
 10
5.246062992125983
 20
6.766732283464566
 30
0.0
 11
5.246062992125983
 21
6.863188976377951
 31
0.0
  0
LINE
  5
3C5C
330
1E
100
AcDbEntity
  8
7
100
AcDbLine
 10
5.246062992125983
 20
6.863188976377951
 30
0.0
 11
5.168307086614173
 21
6.863188976377951
 31
0.0
  0
LINE
  5
3C5D
330
1E
100
AcDbEntity
  8
7
100
AcDbLine
 10
5.266732283464566
 20
7.046259842519683
 30
0.0
 11
5.266732283464566
 21
6.813976377952754
 31
0.0
  0
LINE
  5
3C5E
330
1E
100
AcDbEntity
  8
7
100
AcDbLine
 10
5.266732283464566
 20
6.813976377952754
 30
0.0
 11
5.26279527559055
 21
6.858267716535432
 31
0.0
  0
LINE
  5
3C5F
330
1E
100
AcDbEntity
  8
7
100
AcDbLine
 10
5.26279527559055
 20
6.858267716535432
 30
0.0
 11
5.26279527559055
 21
6.861220472440943
 31
0.0
  0
LINE
  5
3C60
330
1E
100
AcDbEntity
  8
7
100
AcDbLine
 10
5.26279527559055
 20
6.861220472440943
 30
0.0
 11
5.261811023622046
 21
6.858267716535432
 31
0.0
  0
LINE
  5
3C61
330
1E
100
AcDbEntity
  8
7
100
AcDbLine
 10
5.261811023622046
 20
6.858267716535432
 30
0.0
 11
5.261811023622046
 21
6.8503937007874
 31
0.0
  0
LINE
  5
3C62
330
1E
100
AcDbEntity
  8
7
100
AcDbLine
 10
5.261811023622046
 20
6.8503937007874
 30
0.0
 11
5.261811023622046
 21
6.764763779527558
 31
0.0
  0
LINE
  5
3C63
330
1E
100
AcDbEntity
  8
7
100
AcDbLine
 10
4.366141732283463
 20
6.764763779527558
 30
0.0
 11
4.366141732283463
 21
6.8503937007874
 31
0.0
  0
LINE
  5
3C64
330
1E
100
AcDbEntity
  8
7
100
AcDbLine
 10
4.366141732283463
 20
6.8503937007874
 30
0.0
 11
4.366141732283463
 21
6.858267716535432
 31
0.0
  0
LINE
  5
3C65
330
1E
100
AcDbEntity
  8
7
100
AcDbLine
 10
4.366141732283463
 20
6.858267716535432
 30
0.0
 11
4.366141732283463
 21
6.861220472440943
 31
0.0
  0
LINE
  5
3C66
330
1E
100
AcDbEntity
  8
7
100
AcDbLine
 10
4.366141732283463
 20
6.861220472440943
 30
0.0
 11
4.36515748031496
 21
6.858267716535432
 31
0.0
  0
LINE
  5
3C67
330
1E
100
AcDbEntity
  8
7
100
AcDbLine
 10
4.36515748031496
 20
6.858267716535432
 30
0.0
 11
4.361220472440943
 21
6.813976377952754
 31
0.0
  0
LINE
  5
3C68
330
1E
100
AcDbEntity
  8
7
100
AcDbLine
 10
4.361220472440943
 20
6.813976377952754
 30
0.0
 11
4.361220472440943
 21
6.974409448818897
 31
0.0
  0
LINE
  5
3C69
330
1E
100
AcDbEntity
  8
7
100
AcDbLine
 10
4.471456692913385
 20
6.796259842519683
 30
0.0
 11
4.471456692913385
 21
6.815944881889762
 31
0.0
  0
LINE
  5
3C6A
330
1E
100
AcDbEntity
  8
7
100
AcDbLine
 10
4.471456692913385
 20
6.815944881889762
 30
0.0
 11
4.47047244094488
 21
6.83267716535433
 31
0.0
  0
LINE
  5
3C6B
330
1E
100
AcDbEntity
  8
7
100
AcDbLine
 10
4.47047244094488
 20
6.83267716535433
 30
0.0
 11
4.47047244094488
 21
6.842519685039368
 31
0.0
  0
LINE
  5
3C6C
330
1E
100
AcDbEntity
  8
7
100
AcDbLine
 10
4.47047244094488
 20
6.842519685039368
 30
0.0
 11
4.471456692913385
 21
6.846456692913384
 31
0.0
  0
LINE
  5
3C6D
330
1E
100
AcDbEntity
  8
7
100
AcDbLine
 10
4.471456692913385
 20
6.846456692913384
 30
0.0
 11
4.472440944881888
 21
6.842519685039368
 31
0.0
  0
LINE
  5
3C6E
330
1E
100
AcDbEntity
  8
7
100
AcDbLine
 10
4.472440944881888
 20
6.842519685039368
 30
0.0
 11
4.473425196850393
 21
6.831692913385825
 31
0.0
  0
LINE
  5
3C6F
330
1E
100
AcDbEntity
  8
7
100
AcDbLine
 10
4.473425196850393
 20
6.831692913385825
 30
0.0
 11
4.474409448818896
 21
6.814960629921258
 31
0.0
  0
LINE
  5
3C70
330
1E
100
AcDbEntity
  8
7
100
AcDbLine
 10
4.473425196850393
 20
6.984251968503937
 30
0.0
 11
4.47047244094488
 21
6.99015748031496
 31
0.0
  0
LINE
  5
3C71
330
1E
100
AcDbEntity
  8
7
100
AcDbLine
 10
4.47047244094488
 20
6.99015748031496
 30
0.0
 11
4.463582677165353
 21
6.992125984251967
 31
0.0
  0
LINE
  5
3C72
330
1E
100
AcDbEntity
  8
7
100
AcDbLine
 10
4.471456692913385
 20
6.864173228346456
 30
0.0
 11
4.47047244094488
 21
6.867125984251967
 31
0.0
  0
LINE
  5
3C73
330
1E
100
AcDbEntity
  8
7
100
AcDbLine
 10
4.47047244094488
 20
6.867125984251967
 30
0.0
 11
4.469488188976376
 21
6.864173228346456
 31
0.0
  0
LINE
  5
3C74
330
1E
100
AcDbEntity
  8
7
100
AcDbLine
 10
4.469488188976376
 20
6.864173228346456
 30
0.0
 11
4.469488188976376
 21
6.855314960629921
 31
0.0
  0
LINE
  5
3C75
330
1E
100
AcDbEntity
  8
7
100
AcDbLine
 10
4.469488188976376
 20
6.855314960629921
 30
0.0
 11
4.466535433070864
 21
6.861220472440943
 31
0.0
  0
LINE
  5
3C76
330
1E
100
AcDbEntity
  8
7
100
AcDbLine
 10
4.466535433070864
 20
6.861220472440943
 30
0.0
 11
4.459645669291337
 21
6.863188976377951
 31
0.0
  0
LINE
  5
3C77
330
1E
100
AcDbEntity
  8
7
100
AcDbLine
 10
4.471456692913385
 20
6.864173228346456
 30
0.0
 11
4.47047244094488
 21
6.86515748031496
 31
0.0
  0
LINE
  5
3C78
330
1E
100
AcDbEntity
  8
7
100
AcDbLine
 10
4.47047244094488
 20
6.86515748031496
 30
0.0
 11
4.47047244094488
 21
6.866141732283463
 31
0.0
  0
LINE
  5
3C79
330
1E
100
AcDbEntity
  8
7
100
AcDbLine
 10
4.463582677165353
 20
6.875984251968502
 30
0.0
 11
4.463582677165353
 21
6.992125984251967
 31
0.0
  0
LINE
  5
3C7A
330
1E
100
AcDbEntity
  8
7
100
AcDbLine
 10
4.463582677165353
 20
6.992125984251967
 30
0.0
 11
4.454724409448818
 21
6.992125984251967
 31
0.0
  0
LINE
  5
3C7B
330
1E
100
AcDbEntity
  8
7
100
AcDbLine
 10
4.454724409448818
 20
6.992125984251967
 30
0.0
 11
4.454724409448818
 21
6.875984251968502
 31
0.0
  0
LINE
  5
3C7C
330
1E
100
AcDbEntity
  8
7
100
AcDbLine
 10
4.381889763779525
 20
6.875984251968502
 30
0.0
 11
4.381889763779525
 21
6.873031496062991
 31
0.0
  0
LINE
  5
3C7D
330
1E
100
AcDbEntity
  8
7
100
AcDbLine
 10
4.381889763779525
 20
6.873031496062991
 30
0.0
 11
4.381889763779525
 21
6.863188976377951
 31
0.0
  0
LINE
  5
3C7E
330
1E
100
AcDbEntity
  8
7
100
AcDbLine
 10
4.381889763779525
 20
6.863188976377951
 30
0.0
 11
4.459645669291337
 21
6.863188976377951
 31
0.0
  0
LINE
  5
3C7F
330
1E
100
AcDbEntity
  8
7
100
AcDbLine
 10
4.459645669291337
 20
6.863188976377951
 30
0.0
 11
4.459645669291337
 21
6.873031496062991
 31
0.0
  0
LINE
  5
3C80
330
1E
100
AcDbEntity
  8
7
100
AcDbLine
 10
4.459645669291337
 20
6.873031496062991
 30
0.0
 11
4.460629921259841
 21
6.875984251968502
 31
0.0
  0
LINE
  5
3C81
330
1E
100
AcDbEntity
  8
7
100
AcDbLine
 10
5.252952755905512
 20
6.764763779527558
 30
0.0
 11
5.246062992125983
 21
6.766732283464566
 31
0.0
  0
LINE
  5
3C82
330
1E
100
AcDbEntity
  8
7
100
AcDbLine
 10
5.246062992125983
 20
6.766732283464566
 30
0.0
 11
5.168307086614173
 21
6.766732283464566
 31
0.0
  0
LINE
  5
3C83
330
1E
100
AcDbEntity
  8
7
100
AcDbLine
 10
4.454724409448818
 20
7.136811023622048
 30
0.0
 11
4.454724409448818
 21
7.133858267716535
 31
0.0
  0
LINE
  5
3C84
330
1E
100
AcDbEntity
  8
7
100
AcDbLine
 10
4.454724409448818
 20
7.133858267716535
 30
0.0
 11
4.454724409448818
 21
7.124015748031494
 31
0.0
  0
LINE
  5
3C85
330
1E
100
AcDbEntity
  8
7
100
AcDbLine
 10
5.174212598425196
 20
7.124015748031494
 30
0.0
 11
5.174212598425196
 21
7.133858267716535
 31
0.0
  0
LINE
  5
3C86
330
1E
100
AcDbEntity
  8
7
100
AcDbLine
 10
5.174212598425196
 20
7.133858267716535
 30
0.0
 11
5.174212598425196
 21
7.136811023622048
 31
0.0
  0
LINE
  5
3C87
330
1E
100
AcDbEntity
  8
7
100
AcDbLine
 10
5.155511811023621
 20
7.076771653543306
 30
0.0
 11
4.454724409448818
 21
7.076771653543306
 31
0.0
  0
LINE
  5
3C88
330
1E
100
AcDbEntity
  8
7
100
AcDbLine
 10
4.454724409448818
 20
7.076771653543306
 30
0.0
 11
4.420275590551179
 21
7.070866141732282
 31
0.0
  0
LINE
  5
3C89
330
1E
100
AcDbEntity
  8
7
100
AcDbLine
 10
4.369094488188975
 20
6.971456692913384
 30
0.0
 11
4.369094488188975
 21
6.944881889763778
 31
0.0
  0
LINE
  5
3C8A
330
1E
100
AcDbEntity
  8
7
100
AcDbLine
 10
4.369094488188975
 20
6.944881889763778
 30
0.0
 11
4.370078740157478
 21
6.946850393700787
 31
0.0
  0
LINE
  5
3C8B
330
1E
100
AcDbEntity
  8
7
100
AcDbLine
 10
5.061023622047243
 20
6.764763779527558
 30
0.0
 11
5.061023622047243
 21
6.773622047244093
 31
0.0
  0
LINE
  5
3C8C
330
1E
100
AcDbEntity
  8
7
100
AcDbLine
 10
5.061023622047243
 20
6.773622047244093
 30
0.0
 11
5.061023622047243
 21
6.783464566929133
 31
0.0
  0
LINE
  5
3C8D
330
1E
100
AcDbEntity
  8
7
100
AcDbLine
 10
5.156496062992125
 20
6.817913385826771
 30
0.0
 11
5.061023622047243
 21
6.817913385826771
 31
0.0
  0
LINE
  5
3C8E
330
1E
100
AcDbEntity
  8
7
100
AcDbLine
 10
5.061023622047243
 20
6.817913385826771
 30
0.0
 11
5.061023622047243
 21
6.803149606299212
 31
0.0
  0
LINE
  5
3C8F
330
1E
100
AcDbEntity
  8
7
100
AcDbLine
 10
5.061023622047243
 20
6.803149606299212
 30
0.0
 11
5.061023622047243
 21
6.783464566929133
 31
0.0
  0
LINE
  5
3C90
330
1E
100
AcDbEntity
  8
7
100
AcDbLine
 10
5.061023622047243
 20
6.823818897637795
 30
0.0
 11
5.061023622047243
 21
6.821850393700787
 31
0.0
  0
LINE
  5
3C91
330
1E
100
AcDbEntity
  8
7
100
AcDbLine
 10
5.061023622047243
 20
6.821850393700787
 30
0.0
 11
5.061023622047243
 21
6.817913385826771
 31
0.0
  0
LINE
  5
3C92
330
1E
100
AcDbEntity
  8
7
100
AcDbLine
 10
5.157480314960628
 20
6.864173228346456
 30
0.0
 11
5.158464566929133
 21
6.867125984251967
 31
0.0
  0
LINE
  5
3C93
330
1E
100
AcDbEntity
  8
7
100
AcDbLine
 10
5.158464566929133
 20
6.867125984251967
 30
0.0
 11
5.158464566929133
 21
6.864173228346456
 31
0.0
  0
LINE
  5
3C94
330
1E
100
AcDbEntity
  8
7
100
AcDbLine
 10
5.158464566929133
 20
6.864173228346456
 30
0.0
 11
5.158464566929133
 21
6.855314960629921
 31
0.0
  0
LINE
  5
3C95
330
1E
100
AcDbEntity
  8
7
100
AcDbLine
 10
5.156496062992125
 20
6.823818897637795
 30
0.0
 11
5.156496062992125
 21
6.817913385826771
 31
0.0
  0
LINE
  5
3C96
330
1E
100
AcDbEntity
  8
7
100
AcDbLine
 10
5.156496062992125
 20
6.817913385826771
 30
0.0
 11
5.156496062992125
 21
6.803149606299212
 31
0.0
  0
LINE
  5
3C97
330
1E
100
AcDbEntity
  8
7
100
AcDbLine
 10
5.156496062992125
 20
6.803149606299212
 30
0.0
 11
5.155511811023621
 21
6.783464566929133
 31
0.0
  0
LINE
  5
3C98
330
1E
100
AcDbEntity
  8
7
100
AcDbLine
 10
4.474409448818896
 20
6.973425196850392
 30
0.0
 11
4.482283464566927
 21
6.968503937007874
 31
0.0
  0
LINE
  5
3C99
330
1E
100
AcDbEntity
  8
7
100
AcDbLine
 10
4.482283464566927
 20
6.968503937007874
 30
0.0
 11
4.48523622047244
 21
6.961614173228346
 31
0.0
  0
LINE
  5
3C9A
330
1E
100
AcDbEntity
  8
7
100
AcDbLine
 10
4.328740157480313
 20
7.013779527559053
 30
0.0
 11
4.333661417322834
 21
7.0
 31
0.0
  0
LINE
  5
3C9B
330
1E
100
AcDbEntity
  8
7
100
AcDbLine
 10
4.333661417322834
 20
7.0
 30
0.0
 11
4.349409448818897
 21
6.988188976377951
 31
0.0
  0
LINE
  5
3C9C
330
1E
100
AcDbEntity
  8
7
100
AcDbLine
 10
4.349409448818897
 20
6.988188976377951
 30
0.0
 11
4.372047244094487
 21
6.980314960629921
 31
0.0
  0
LINE
  5
3C9D
330
1E
100
AcDbEntity
  8
7
100
AcDbLine
 10
4.372047244094487
 20
6.980314960629921
 30
0.0
 11
4.398622047244094
 21
6.976377952755905
 31
0.0
  0
LINE
  5
3C9E
330
1E
100
AcDbEntity
  8
7
100
AcDbLine
 10
5.135826771653541
 20
6.823818897637795
 30
0.0
 11
5.129921259842518
 21
6.826771653543306
 31
0.0
  0
LINE
  5
3C9F
330
1E
100
AcDbEntity
  8
7
100
AcDbLine
 10
5.129921259842518
 20
6.826771653543306
 30
0.0
 11
5.12303149606299
 21
6.827755905511811
 31
0.0
  0
LINE
  5
3CA0
330
1E
100
AcDbEntity
  8
7
100
AcDbLine
 10
5.143700787401574
 20
7.0501968503937
 30
0.0
 11
5.13779527559055
 21
7.062992125984251
 31
0.0
  0
LINE
  5
3CA1
330
1E
100
AcDbEntity
  8
7
100
AcDbLine
 10
5.13779527559055
 20
7.062992125984251
 30
0.0
 11
5.12303149606299
 21
7.067913385826771
 31
0.0
  0
LINE
  5
3CA2
330
1E
100
AcDbEntity
  8
7
100
AcDbLine
 10
5.12303149606299
 20
7.070866141732282
 30
0.0
 11
5.12303149606299
 21
7.069881889763778
 31
0.0
  0
LINE
  5
3CA3
330
1E
100
AcDbEntity
  8
7
100
AcDbLine
 10
5.12303149606299
 20
7.069881889763778
 30
0.0
 11
5.12303149606299
 21
7.067913385826771
 31
0.0
  0
LINE
  5
3CA4
330
1E
100
AcDbEntity
  8
7
100
AcDbLine
 10
4.403543307086613
 20
6.98523622047244
 30
0.0
 11
4.375
 21
6.988188976377951
 31
0.0
  0
LINE
  5
3CA5
330
1E
100
AcDbEntity
  8
7
100
AcDbLine
 10
4.375
 20
6.988188976377951
 30
0.0
 11
4.3503937007874
 21
6.996062992125983
 31
0.0
  0
LINE
  5
3CA6
330
1E
100
AcDbEntity
  8
7
100
AcDbLine
 10
4.3503937007874
 20
6.996062992125983
 30
0.0
 11
4.334645669291337
 21
7.008858267716535
 31
0.0
  0
LINE
  5
3CA7
330
1E
100
AcDbEntity
  8
7
100
AcDbLine
 10
4.334645669291337
 20
7.008858267716535
 30
0.0
 11
4.328740157480313
 21
7.022637795275588
 31
0.0
  0
LINE
  5
3CA8
330
1E
100
AcDbEntity
  8
7
100
AcDbLine
 10
4.403543307086613
 20
7.070866141732282
 30
0.0
 11
4.403543307086613
 21
7.069881889763778
 31
0.0
  0
LINE
  5
3CA9
330
1E
100
AcDbEntity
  8
7
100
AcDbLine
 10
4.403543307086613
 20
7.069881889763778
 30
0.0
 11
4.403543307086613
 21
7.067913385826771
 31
0.0
  0
LINE
  5
3CAA
330
1E
100
AcDbEntity
  8
7
100
AcDbLine
 10
4.403543307086613
 20
6.98523622047244
 30
0.0
 11
4.403543307086613
 21
7.000984251968502
 31
0.0
  0
LINE
  5
3CAB
330
1E
100
AcDbEntity
  8
7
100
AcDbLine
 10
4.403543307086613
 20
7.000984251968502
 30
0.0
 11
4.403543307086613
 21
7.01279527559055
 31
0.0
  0
LINE
  5
3CAC
330
1E
100
AcDbEntity
  8
7
100
AcDbLine
 10
4.455708661417322
 20
6.993110236220473
 30
0.0
 11
4.455708661417322
 21
7.004921259842518
 31
0.0
  0
LINE
  5
3CAD
330
1E
100
AcDbEntity
  8
7
100
AcDbLine
 10
4.455708661417322
 20
7.004921259842518
 30
0.0
 11
4.455708661417322
 21
7.01279527559055
 31
0.0
  0
LINE
  5
3CAE
330
1E
100
AcDbEntity
  8
7
100
AcDbLine
 10
4.48523622047244
 20
6.970472440944881
 30
0.0
 11
4.491141732283463
 21
6.982283464566927
 31
0.0
  0
LINE
  5
3CAF
330
1E
100
AcDbEntity
  8
7
100
AcDbLine
 10
4.491141732283463
 20
6.982283464566927
 30
0.0
 11
4.504921259842518
 21
6.988188976377951
 31
0.0
  0
LINE
  5
3CB0
330
1E
100
AcDbEntity
  8
7
100
AcDbLine
 10
4.480314960629921
 20
7.009842519685037
 30
0.0
 11
4.499015748031495
 21
7.0
 31
0.0
  0
LINE
  5
3CB1
330
1E
100
AcDbEntity
  8
7
100
AcDbLine
 10
4.499015748031495
 20
7.0
 30
0.0
 11
4.504921259842518
 21
6.988188976377951
 31
0.0
  0
LINE
  5
3CB2
330
1E
100
AcDbEntity
  8
7
100
AcDbLine
 10
4.504921259842518
 20
6.988188976377951
 30
0.0
 11
4.504921259842518
 21
6.823818897637795
 31
0.0
  0
LINE
  5
3CB3
330
1E
100
AcDbEntity
  8
7
100
AcDbLine
 10
5.12303149606299
 20
6.827755905511811
 30
0.0
 11
5.12303149606299
 21
7.067913385826771
 31
0.0
  0
LINE
  5
3CB4
330
1E
100
AcDbEntity
  8
7
100
AcDbLine
 10
5.12303149606299
 20
7.067913385826771
 30
0.0
 11
4.403543307086613
 21
7.067913385826771
 31
0.0
  0
LINE
  5
3CB5
330
1E
100
AcDbEntity
  8
7
100
AcDbLine
 10
4.403543307086613
 20
7.067913385826771
 30
0.0
 11
4.382874015748031
 21
7.065944881889762
 31
0.0
  0
LINE
  5
3CB6
330
1E
100
AcDbEntity
  8
7
100
AcDbLine
 10
4.382874015748031
 20
7.065944881889762
 30
0.0
 11
4.36515748031496
 21
7.060039370078738
 31
0.0
  0
LINE
  5
3CB7
330
1E
100
AcDbEntity
  8
7
100
AcDbLine
 10
4.36515748031496
 20
7.060039370078738
 30
0.0
 11
4.353346456692912
 21
7.051181102362203
 31
0.0
  0
LINE
  5
3CB8
330
1E
100
AcDbEntity
  8
7
100
AcDbLine
 10
4.353346456692912
 20
7.051181102362203
 30
0.0
 11
4.348425196850392
 21
7.040354330708661
 31
0.0
  0
LINE
  5
3CB9
330
1E
100
AcDbEntity
  8
7
100
AcDbLine
 10
4.348425196850392
 20
7.040354330708661
 30
0.0
 11
4.353346456692912
 21
7.029527559055117
 31
0.0
  0
LINE
  5
3CBA
330
1E
100
AcDbEntity
  8
7
100
AcDbLine
 10
4.353346456692912
 20
7.029527559055117
 30
0.0
 11
4.36515748031496
 21
7.020669291338582
 31
0.0
  0
LINE
  5
3CBB
330
1E
100
AcDbEntity
  8
7
100
AcDbLine
 10
4.36515748031496
 20
7.020669291338582
 30
0.0
 11
4.382874015748031
 21
7.014763779527558
 31
0.0
  0
LINE
  5
3CBC
330
1E
100
AcDbEntity
  8
7
100
AcDbLine
 10
4.382874015748031
 20
7.014763779527558
 30
0.0
 11
4.403543307086613
 21
7.01279527559055
 31
0.0
  0
LINE
  5
3CBD
330
1E
100
AcDbEntity
  8
7
100
AcDbLine
 10
4.403543307086613
 20
7.01279527559055
 30
0.0
 11
4.455708661417322
 21
7.01279527559055
 31
0.0
  0
LINE
  5
3CBE
330
1E
100
AcDbEntity
  8
7
100
AcDbLine
 10
4.455708661417322
 20
7.01279527559055
 30
0.0
 11
4.480314960629921
 21
7.009842519685037
 31
0.0
  0
LINE
  5
3CBF
330
1E
100
AcDbEntity
  8
7
100
AcDbLine
 10
5.068897637795275
 20
6.827755905511811
 30
0.0
 11
5.06299212598425
 21
6.826771653543306
 31
0.0
  0
LINE
  5
3CC0
330
1E
100
AcDbEntity
  8
7
100
AcDbLine
 10
5.06299212598425
 20
6.826771653543306
 30
0.0
 11
5.061023622047243
 21
6.823818897637795
 31
0.0
  0
LINE
  5
3CC1
330
1E
100
AcDbEntity
  8
7
100
AcDbLine
 10
5.010826771653541
 20
6.823818897637795
 30
0.0
 11
5.010826771653541
 21
6.818897637795275
 31
0.0
  0
LINE
  5
3CC2
330
1E
100
AcDbEntity
  8
7
100
AcDbLine
 10
5.010826771653541
 20
6.818897637795275
 30
0.0
 11
5.010826771653541
 21
6.805118110236219
 31
0.0
  0
LINE
  5
3CC3
330
1E
100
AcDbEntity
  8
7
100
AcDbLine
 10
5.010826771653541
 20
6.805118110236219
 30
0.0
 11
5.010826771653541
 21
6.786417322834644
 31
0.0
  0
LINE
  5
3CC4
330
1E
100
AcDbEntity
  8
7
100
AcDbLine
 10
5.010826771653541
 20
6.786417322834644
 30
0.0
 11
5.010826771653541
 21
6.764763779527558
 31
0.0
  0
LINE
  5
3CC5
330
1E
100
AcDbEntity
  8
7
100
AcDbLine
 10
4.471456692913385
 20
6.798228346456692
 30
0.0
 11
4.478346456692912
 21
6.802165354330706
 31
0.0
  0
LINE
  5
3CC6
330
1E
100
AcDbEntity
  8
7
100
AcDbLine
 10
4.478346456692912
 20
6.802165354330706
 30
0.0
 11
4.471456692913385
 21
6.806102362204723
 31
0.0
  0
LINE
  5
3CC7
330
1E
100
AcDbEntity
  8
7
100
AcDbLine
 10
4.504921259842518
 20
6.823818897637795
 30
0.0
 11
4.495078740157478
 21
6.820866141732282
 31
0.0
  0
LINE
  5
3CC8
330
1E
100
AcDbEntity
  8
7
100
AcDbLine
 10
4.495078740157478
 20
6.820866141732282
 30
0.0
 11
4.488188976377951
 21
6.814960629921258
 31
0.0
  0
LINE
  5
3CC9
330
1E
100
AcDbEntity
  8
7
100
AcDbLine
 10
4.504921259842518
 20
6.805118110236219
 30
0.0
 11
4.504921259842518
 21
6.786417322834644
 31
0.0
  0
LINE
  5
3CCA
330
1E
100
AcDbEntity
  8
7
100
AcDbLine
 10
4.504921259842518
 20
6.786417322834644
 30
0.0
 11
4.504921259842518
 21
6.764763779527558
 31
0.0
  0
LINE
  5
3CCB
330
1E
100
AcDbEntity
  8
7
100
AcDbLine
 10
4.504921259842518
 20
6.823818897637795
 30
0.0
 11
4.504921259842518
 21
6.818897637795275
 31
0.0
  0
LINE
  5
3CCC
330
1E
100
AcDbEntity
  8
7
100
AcDbLine
 10
4.504921259842518
 20
6.818897637795275
 30
0.0
 11
4.504921259842518
 21
6.805118110236219
 31
0.0
  0
LINE
  5
3CCD
330
1E
100
AcDbEntity
  8
7
100
AcDbLine
 10
4.5
 20
6.765748031496062
 30
0.0
 11
4.495078740157478
 21
6.775590551181101
 31
0.0
  0
LINE
  5
3CCE
330
1E
100
AcDbEntity
  8
7
100
AcDbLine
 10
4.495078740157478
 20
6.775590551181101
 30
0.0
 11
4.49015748031496
 21
6.785433070866141
 31
0.0
  0
LINE
  5
3CCF
330
1E
100
AcDbEntity
  8
7
100
AcDbLine
 10
4.49015748031496
 20
6.785433070866141
 30
0.0
 11
4.487204724409448
 21
6.792322834645668
 31
0.0
  0
LINE
  5
3CD0
330
1E
100
AcDbEntity
  8
7
100
AcDbLine
 10
4.487204724409448
 20
6.792322834645668
 30
0.0
 11
4.487204724409448
 21
6.793307086614172
 31
0.0
  0
LINE
  5
3CD1
330
1E
100
AcDbEntity
  8
7
100
AcDbLine
 10
4.487204724409448
 20
6.793307086614172
 30
0.0
 11
4.48523622047244
 21
6.8001968503937
 31
0.0
  0
LINE
  5
3CD2
330
1E
100
AcDbEntity
  8
7
100
AcDbLine
 10
4.48523622047244
 20
6.8001968503937
 30
0.0
 11
4.486220472440942
 21
6.810039370078738
 31
0.0
  0
LINE
  5
3CD3
330
1E
100
AcDbEntity
  8
7
100
AcDbLine
 10
4.535433070866141
 20
6.818897637795275
 30
0.0
 11
4.535433070866141
 21
6.805118110236219
 31
0.0
  0
LINE
  5
3CD4
330
1E
100
AcDbEntity
  8
7
100
AcDbLine
 10
4.535433070866141
 20
6.805118110236219
 30
0.0
 11
4.535433070866141
 21
6.786417322834644
 31
0.0
  0
LINE
  5
3CD5
330
1E
100
AcDbEntity
  8
7
100
AcDbLine
 10
4.535433070866141
 20
6.786417322834644
 30
0.0
 11
4.535433070866141
 21
6.764763779527558
 31
0.0
  0
LINE
  5
3CD6
330
1E
100
AcDbEntity
  8
7
100
AcDbLine
 10
4.48523622047244
 20
6.965551181102362
 30
0.0
 11
4.488188976377951
 21
6.972440944881888
 31
0.0
  0
LINE
  5
3CD7
330
1E
100
AcDbEntity
  8
7
100
AcDbLine
 10
4.488188976377951
 20
6.972440944881888
 30
0.0
 11
4.495078740157478
 21
6.9753937007874
 31
0.0
  0
LINE
  5
3CD8
330
1E
100
AcDbEntity
  8
7
100
AcDbLine
 10
4.495078740157478
 20
6.937007874015747
 30
0.0
 11
4.488188976377951
 21
6.946850393700787
 31
0.0
  0
LINE
  5
3CD9
330
1E
100
AcDbEntity
  8
7
100
AcDbLine
 10
4.488188976377951
 20
6.946850393700787
 30
0.0
 11
4.48523622047244
 21
6.956692913385825
 31
0.0
  0
LINE
  5
3CDA
330
1E
100
AcDbEntity
  8
7
100
AcDbLine
 10
4.48523622047244
 20
6.913385826771652
 30
0.0
 11
4.488188976377951
 21
6.923228346456692
 31
0.0
  0
LINE
  5
3CDB
330
1E
100
AcDbEntity
  8
7
100
AcDbLine
 10
4.488188976377951
 20
6.923228346456692
 30
0.0
 11
4.495078740157478
 21
6.933070866141731
 31
0.0
  0
LINE
  5
3CDC
330
1E
100
AcDbEntity
  8
7
100
AcDbLine
 10
3.932086614173226
 20
6.682086614173227
 30
0.0
 11
3.938976377952755
 21
6.688976377952754
 31
0.0
  0
LINE
  5
3CDD
330
1E
100
AcDbEntity
  8
7
100
AcDbLine
 10
3.938976377952755
 20
6.688976377952754
 30
0.0
 11
3.95767716535433
 21
6.694881889763778
 31
0.0
  0
LINE
  5
3CDE
330
1E
100
AcDbEntity
  8
7
100
AcDbLine
 10
3.95767716535433
 20
6.694881889763778
 30
0.0
 11
3.982283464566928
 21
6.696850393700787
 31
0.0
  0
LINE
  5
3CDF
330
1E
100
AcDbEntity
  8
7
100
AcDbLine
 10
3.929133858267714
 20
6.518700787401573
 30
0.0
 11
3.936023622047243
 21
6.540354330708661
 31
0.0
  0
LINE
  5
3CE0
330
1E
100
AcDbEntity
  8
7
100
AcDbLine
 10
3.936023622047243
 20
6.540354330708661
 30
0.0
 11
3.954724409448818
 21
6.555118110236219
 31
0.0
  0
LINE
  5
3CE1
330
1E
100
AcDbEntity
  8
7
100
AcDbLine
 10
3.954724409448818
 20
6.555118110236219
 30
0.0
 11
3.979330708661416
 21
6.561023622047241
 31
0.0
  0
LINE
  5
3CE2
330
1E
100
AcDbEntity
  8
7
100
AcDbLine
 10
3.935039370078738
 20
6.477362204724409
 30
0.0
 11
3.953740157480313
 21
6.477362204724409
 31
0.0
  0
LINE
  5
3CE3
330
1E
100
AcDbEntity
  8
7
100
AcDbLine
 10
3.953740157480313
 20
6.477362204724409
 30
0.0
 11
3.978346456692912
 21
6.477362204724409
 31
0.0
  0
LINE
  5
3CE4
330
1E
100
AcDbEntity
  8
7
100
AcDbLine
 10
3.978346456692912
 20
6.455708661417322
 30
0.0
 11
3.959645669291337
 21
6.455708661417322
 31
0.0
  0
LINE
  5
3CE5
330
1E
100
AcDbEntity
  8
7
100
AcDbLine
 10
3.959645669291337
 20
6.455708661417322
 30
0.0
 11
3.942913385826771
 21
6.455708661417322
 31
0.0
  0
LINE
  5
3CE6
330
1E
100
AcDbEntity
  8
7
100
AcDbLine
 10
3.942913385826771
 20
6.455708661417322
 30
0.0
 11
3.932086614173226
 21
6.455708661417322
 31
0.0
  0
LINE
  5
3CE7
330
1E
100
AcDbEntity
  8
7
100
AcDbLine
 10
3.932086614173226
 20
6.455708661417322
 30
0.0
 11
3.928149606299212
 21
6.455708661417322
 31
0.0
  0
LINE
  5
3CE8
330
1E
100
AcDbEntity
  8
7
100
AcDbLine
 10
5.645669291338582
 20
6.696850393700787
 30
0.0
 11
5.671259842519683
 21
6.694881889763778
 31
0.0
  0
LINE
  5
3CE9
330
1E
100
AcDbEntity
  8
7
100
AcDbLine
 10
5.671259842519683
 20
6.694881889763778
 30
0.0
 11
5.688976377952754
 21
6.688976377952754
 31
0.0
  0
LINE
  5
3CEA
330
1E
100
AcDbEntity
  8
7
100
AcDbLine
 10
5.688976377952754
 20
6.688976377952754
 30
0.0
 11
5.695866141732282
 21
6.682086614173227
 31
0.0
  0
LINE
  5
3CEB
330
1E
100
AcDbEntity
  8
7
100
AcDbLine
 10
5.674212598425196
 20
6.555118110236219
 30
0.0
 11
5.691929133858266
 21
6.540354330708661
 31
0.0
  0
LINE
  5
3CEC
330
1E
100
AcDbEntity
  8
7
100
AcDbLine
 10
5.691929133858266
 20
6.540354330708661
 30
0.0
 11
5.698818897637795
 21
6.518700787401573
 31
0.0
  0
LINE
  5
3CED
330
1E
100
AcDbEntity
  8
7
100
AcDbLine
 10
5.649606299212597
 20
6.477362204724409
 30
0.0
 11
5.674212598425196
 21
6.477362204724409
 31
0.0
  0
LINE
  5
3CEE
330
1E
100
AcDbEntity
  8
7
100
AcDbLine
 10
5.674212598425196
 20
6.477362204724409
 30
0.0
 11
5.692913385826771
 21
6.477362204724409
 31
0.0
  0
LINE
  5
3CEF
330
1E
100
AcDbEntity
  8
7
100
AcDbLine
 10
5.692913385826771
 20
6.477362204724409
 30
0.0
 11
5.699803149606299
 21
6.477362204724409
 31
0.0
  0
LINE
  5
3CF0
330
1E
100
AcDbEntity
  8
7
100
AcDbLine
 10
5.699803149606299
 20
6.455708661417322
 30
0.0
 11
5.695866141732282
 21
6.455708661417322
 31
0.0
  0
LINE
  5
3CF1
330
1E
100
AcDbEntity
  8
7
100
AcDbLine
 10
5.695866141732282
 20
6.455708661417322
 30
0.0
 11
5.685039370078738
 21
6.455708661417322
 31
0.0
  0
LINE
  5
3CF2
330
1E
100
AcDbEntity
  8
7
100
AcDbLine
 10
5.685039370078738
 20
6.455708661417322
 30
0.0
 11
5.669291338582675
 21
6.455708661417322
 31
0.0
  0
LINE
  5
3CF3
330
1E
100
AcDbEntity
  8
7
100
AcDbLine
 10
5.669291338582675
 20
6.455708661417322
 30
0.0
 11
5.649606299212597
 21
6.455708661417322
 31
0.0
  0
LINE
  5
3CF4
330
1E
100
AcDbEntity
  8
7
100
AcDbLine
 10
5.649606299212597
 20
6.477362204724409
 30
0.0
 11
5.649606299212597
 21
6.501968503937008
 31
0.0
  0
LINE
  5
3CF5
330
1E
100
AcDbEntity
  8
7
100
AcDbLine
 10
5.649606299212597
 20
6.501968503937008
 30
0.0
 11
5.649606299212597
 21
6.524606299212597
 31
0.0
  0
LINE
  5
3CF6
330
1E
100
AcDbEntity
  8
7
100
AcDbLine
 10
5.649606299212597
 20
6.524606299212597
 30
0.0
 11
5.649606299212597
 21
6.545275590551179
 31
0.0
  0
LINE
  5
3CF7
330
1E
100
AcDbEntity
  8
7
100
AcDbLine
 10
5.649606299212597
 20
6.545275590551179
 30
0.0
 11
5.648622047244093
 21
6.561023622047241
 31
0.0
  0
LINE
  5
3CF8
330
1E
100
AcDbEntity
  8
7
100
AcDbLine
 10
3.979330708661416
 20
6.561023622047241
 30
0.0
 11
3.979330708661416
 21
6.545275590551179
 31
0.0
  0
LINE
  5
3CF9
330
1E
100
AcDbEntity
  8
7
100
AcDbLine
 10
3.979330708661416
 20
6.545275590551179
 30
0.0
 11
3.979330708661416
 21
6.524606299212597
 31
0.0
  0
LINE
  5
3CFA
330
1E
100
AcDbEntity
  8
7
100
AcDbLine
 10
3.979330708661416
 20
6.524606299212597
 30
0.0
 11
3.979330708661416
 21
6.501968503937008
 31
0.0
  0
LINE
  5
3CFB
330
1E
100
AcDbEntity
  8
7
100
AcDbLine
 10
3.979330708661416
 20
6.501968503937008
 30
0.0
 11
3.978346456692912
 21
6.477362204724409
 31
0.0
  0
LINE
  5
3CFC
330
1E
100
AcDbEntity
  8
7
100
AcDbLine
 10
4.879921259842518
 20
6.163385826771652
 30
0.0
 11
4.878937007874013
 21
6.178149606299212
 31
0.0
  0
LINE
  5
3CFD
330
1E
100
AcDbEntity
  8
7
100
AcDbLine
 10
4.878937007874013
 20
6.178149606299212
 30
0.0
 11
4.877952755905512
 21
6.190944881889762
 31
0.0
  0
LINE
  5
3CFE
330
1E
100
AcDbEntity
  8
7
100
AcDbLine
 10
4.877952755905512
 20
6.190944881889762
 30
0.0
 11
4.877952755905512
 21
6.199803149606299
 31
0.0
  0
LINE
  5
3CFF
330
1E
100
AcDbEntity
  8
7
100
AcDbLine
 10
4.877952755905512
 20
6.199803149606299
 30
0.0
 11
4.877952755905512
 21
6.202755905511811
 31
0.0
  0
LINE
  5
3D00
330
1E
100
AcDbEntity
  8
7
100
AcDbLine
 10
4.750984251968502
 20
6.202755905511811
 30
0.0
 11
4.750984251968502
 21
6.199803149606299
 31
0.0
  0
LINE
  5
3D01
330
1E
100
AcDbEntity
  8
7
100
AcDbLine
 10
4.750984251968502
 20
6.199803149606299
 30
0.0
 11
4.750984251968502
 21
6.190944881889762
 31
0.0
  0
LINE
  5
3D02
330
1E
100
AcDbEntity
  8
7
100
AcDbLine
 10
4.750984251968502
 20
6.190944881889762
 30
0.0
 11
4.75
 21
6.178149606299212
 31
0.0
  0
LINE
  5
3D03
330
1E
100
AcDbEntity
  8
7
100
AcDbLine
 10
4.75
 20
6.178149606299212
 30
0.0
 11
4.749015748031495
 21
6.163385826771652
 31
0.0
  0
LINE
  5
3D04
330
1E
100
AcDbEntity
  8
7
100
AcDbLine
 10
5.645669291338582
 20
6.696850393700787
 30
0.0
 11
5.645669291338582
 21
6.724409448818897
 31
0.0
  0
LINE
  5
3D05
330
1E
100
AcDbEntity
  8
7
100
AcDbLine
 10
5.645669291338582
 20
6.724409448818897
 30
0.0
 11
5.645669291338582
 21
6.746062992125983
 31
0.0
  0
LINE
  5
3D06
330
1E
100
AcDbEntity
  8
7
100
AcDbLine
 10
5.645669291338582
 20
6.746062992125983
 30
0.0
 11
5.645669291338582
 21
6.760826771653542
 31
0.0
  0
LINE
  5
3D07
330
1E
100
AcDbEntity
  8
7
100
AcDbLine
 10
5.645669291338582
 20
6.760826771653542
 30
0.0
 11
5.645669291338582
 21
6.764763779527558
 31
0.0
  0
LINE
  5
3D08
330
1E
100
AcDbEntity
  8
7
100
AcDbLine
 10
3.983267716535431
 20
6.764763779527558
 30
0.0
 11
3.983267716535431
 21
6.760826771653542
 31
0.0
  0
LINE
  5
3D09
330
1E
100
AcDbEntity
  8
7
100
AcDbLine
 10
3.983267716535431
 20
6.760826771653542
 30
0.0
 11
3.983267716535431
 21
6.747047244094487
 31
0.0
  0
LINE
  5
3D0A
330
1E
100
AcDbEntity
  8
7
100
AcDbLine
 10
3.983267716535431
 20
6.747047244094487
 30
0.0
 11
3.982283464566928
 21
6.724409448818897
 31
0.0
  0
LINE
  5
3D0B
330
1E
100
AcDbEntity
  8
7
100
AcDbLine
 10
5.645669291338582
 20
6.696850393700787
 30
0.0
 11
3.982283464566928
 21
6.696850393700787
 31
0.0
  0
LINE
  5
3D0C
330
1E
100
AcDbEntity
  8
7
100
AcDbLine
 10
3.982283464566928
 20
6.696850393700787
 30
0.0
 11
3.981299212598424
 21
6.655511811023621
 31
0.0
  0
LINE
  5
3D0D
330
1E
100
AcDbEntity
  8
7
100
AcDbLine
 10
3.981299212598424
 20
6.655511811023621
 30
0.0
 11
3.980314960629921
 21
6.619094488188975
 31
0.0
  0
LINE
  5
3D0E
330
1E
100
AcDbEntity
  8
7
100
AcDbLine
 10
3.980314960629921
 20
6.619094488188975
 30
0.0
 11
3.980314960629921
 21
6.586614173228346
 31
0.0
  0
LINE
  5
3D0F
330
1E
100
AcDbEntity
  8
7
100
AcDbLine
 10
3.980314960629921
 20
6.586614173228346
 30
0.0
 11
3.979330708661416
 21
6.561023622047241
 31
0.0
  0
LINE
  5
3D10
330
1E
100
AcDbEntity
  8
7
100
AcDbLine
 10
3.979330708661416
 20
6.561023622047241
 30
0.0
 11
5.648622047244093
 21
6.561023622047241
 31
0.0
  0
LINE
  5
3D11
330
1E
100
AcDbEntity
  8
7
100
AcDbLine
 10
5.648622047244093
 20
6.561023622047241
 30
0.0
 11
5.648622047244093
 21
6.586614173228346
 31
0.0
  0
LINE
  5
3D12
330
1E
100
AcDbEntity
  8
7
100
AcDbLine
 10
5.648622047244093
 20
6.586614173228346
 30
0.0
 11
5.647637795275588
 21
6.619094488188975
 31
0.0
  0
LINE
  5
3D13
330
1E
100
AcDbEntity
  8
7
100
AcDbLine
 10
5.647637795275588
 20
6.619094488188975
 30
0.0
 11
5.646653543307086
 21
6.655511811023621
 31
0.0
  0
LINE
  5
3D14
330
1E
100
AcDbEntity
  8
7
100
AcDbLine
 10
5.646653543307086
 20
6.655511811023621
 30
0.0
 11
5.645669291338582
 21
6.696850393700787
 31
0.0
  0
LINE
  5
3D15
330
1E
100
AcDbEntity
  8
7
100
AcDbLine
 10
5.327755905511811
 20
5.907480314960628
 30
0.0
 11
5.326771653543306
 21
5.893700787401573
 31
0.0
  0
LINE
  5
3D16
330
1E
100
AcDbEntity
  8
7
100
AcDbLine
 10
5.326771653543306
 20
5.893700787401573
 30
0.0
 11
5.326771653543306
 21
5.88779527559055
 31
0.0
  0
LINE
  5
3D17
330
1E
100
AcDbEntity
  8
7
100
AcDbLine
 10
5.136811023622046
 20
5.88779527559055
 30
0.0
 11
5.136811023622046
 21
5.893700787401573
 31
0.0
  0
LINE
  5
3D18
330
1E
100
AcDbEntity
  8
7
100
AcDbLine
 10
5.136811023622046
 20
5.893700787401573
 30
0.0
 11
5.136811023622046
 21
5.907480314960628
 31
0.0
  0
LINE
  5
3D19
330
1E
100
AcDbEntity
  8
7
100
AcDbLine
 10
5.136811023622046
 20
5.907480314960628
 30
0.0
 11
5.327755905511811
 21
5.907480314960628
 31
0.0
  0
LINE
  5
3D1A
330
1E
100
AcDbEntity
  8
7
100
AcDbLine
 10
5.327755905511811
 20
5.907480314960628
 30
0.0
 11
5.332677165354329
 21
6.202755905511811
 31
0.0
  0
LINE
  5
3D1B
330
1E
100
AcDbEntity
  8
7
100
AcDbLine
 10
5.547244094488188
 20
5.907480314960628
 30
0.0
 11
5.553149606299212
 21
5.893700787401573
 31
0.0
  0
LINE
  5
3D1C
330
1E
100
AcDbEntity
  8
7
100
AcDbLine
 10
5.553149606299212
 20
5.893700787401573
 30
0.0
 11
5.566929133858266
 21
5.88779527559055
 31
0.0
  0
LINE
  5
3D1D
330
1E
100
AcDbEntity
  8
7
100
AcDbLine
 10
5.566929133858266
 20
5.88779527559055
 30
0.0
 11
5.567913385826771
 21
5.88779527559055
 31
0.0
  0
LINE
  5
3D1E
330
1E
100
AcDbEntity
  8
7
100
AcDbLine
 10
5.567913385826771
 20
5.88779527559055
 30
0.0
 11
5.583661417322833
 21
5.895669291338582
 31
0.0
  0
LINE
  5
3D1F
330
1E
100
AcDbEntity
  8
7
100
AcDbLine
 10
5.583661417322833
 20
5.895669291338582
 30
0.0
 11
5.660433070866141
 21
5.993110236220473
 31
0.0
  0
LINE
  5
3D20
330
1E
100
AcDbEntity
  8
7
100
AcDbLine
 10
5.660433070866141
 20
5.993110236220473
 30
0.0
 11
5.664370078740156
 21
6.004921259842518
 31
0.0
  0
LINE
  5
3D21
330
1E
100
AcDbEntity
  8
7
100
AcDbLine
 10
5.664370078740156
 20
6.004921259842518
 30
0.0
 11
5.665354330708661
 21
6.01771653543307
 31
0.0
  0
LINE
  5
3D22
330
1E
100
AcDbEntity
  8
7
100
AcDbLine
 10
5.665354330708661
 20
6.01771653543307
 30
0.0
 11
5.612204724409448
 21
6.01771653543307
 31
0.0
  0
LINE
  5
3D23
330
1E
100
AcDbEntity
  8
7
100
AcDbLine
 10
3.963582677165353
 20
6.004921259842518
 30
0.0
 11
3.968503937007873
 21
5.993110236220473
 31
0.0
  0
LINE
  5
3D24
330
1E
100
AcDbEntity
  8
7
100
AcDbLine
 10
3.968503937007873
 20
5.993110236220473
 30
0.0
 11
4.04527559055118
 21
5.895669291338582
 31
0.0
  0
LINE
  5
3D25
330
1E
100
AcDbEntity
  8
7
100
AcDbLine
 10
4.04527559055118
 20
5.895669291338582
 30
0.0
 11
4.061023622047243
 21
5.88779527559055
 31
0.0
  0
LINE
  5
3D26
330
1E
100
AcDbEntity
  8
7
100
AcDbLine
 10
4.061023622047243
 20
5.88779527559055
 30
0.0
 11
4.074803149606299
 21
5.893700787401573
 31
0.0
  0
LINE
  5
3D27
330
1E
100
AcDbEntity
  8
7
100
AcDbLine
 10
4.074803149606299
 20
5.893700787401573
 30
0.0
 11
4.081692913385825
 21
5.907480314960628
 31
0.0
  0
LINE
  5
3D28
330
1E
100
AcDbEntity
  8
7
100
AcDbLine
 10
4.015748031496062
 20
6.163385826771652
 30
0.0
 11
4.01279527559055
 21
6.178149606299212
 31
0.0
  0
LINE
  5
3D29
330
1E
100
AcDbEntity
  8
7
100
AcDbLine
 10
4.01279527559055
 20
6.178149606299212
 30
0.0
 11
4.003937007874014
 21
6.190944881889762
 31
0.0
  0
LINE
  5
3D2A
330
1E
100
AcDbEntity
  8
7
100
AcDbLine
 10
4.003937007874014
 20
6.190944881889762
 30
0.0
 11
3.991141732283463
 21
6.199803149606299
 31
0.0
  0
LINE
  5
3D2B
330
1E
100
AcDbEntity
  8
7
100
AcDbLine
 10
3.991141732283463
 20
6.199803149606299
 30
0.0
 11
3.9753937007874
 21
6.202755905511811
 31
0.0
  0
LINE
  5
3D2C
330
1E
100
AcDbEntity
  8
7
100
AcDbLine
 10
4.301181102362203
 20
5.88779527559055
 30
0.0
 11
4.301181102362203
 21
5.893700787401573
 31
0.0
  0
LINE
  5
3D2D
330
1E
100
AcDbEntity
  8
7
100
AcDbLine
 10
4.301181102362203
 20
5.893700787401573
 30
0.0
 11
4.301181102362203
 21
5.907480314960628
 31
0.0
  0
LINE
  5
3D2E
330
1E
100
AcDbEntity
  8
7
100
AcDbLine
 10
4.492125984251967
 20
5.907480314960628
 30
0.0
 11
4.491141732283463
 21
5.893700787401573
 31
0.0
  0
LINE
  5
3D2F
330
1E
100
AcDbEntity
  8
7
100
AcDbLine
 10
4.491141732283463
 20
5.893700787401573
 30
0.0
 11
4.491141732283463
 21
5.88779527559055
 31
0.0
  0
LINE
  5
3D30
330
1E
100
AcDbEntity
  8
7
100
AcDbLine
 10
4.491141732283463
 20
5.88779527559055
 30
0.0
 11
4.301181102362203
 21
5.88779527559055
 31
0.0
  0
LINE
  5
3D31
330
1E
100
AcDbEntity
  8
7
100
AcDbLine
 10
4.301181102362203
 20
5.907480314960628
 30
0.0
 11
4.492125984251967
 21
5.907480314960628
 31
0.0
  0
LINE
  5
3D32
330
1E
100
AcDbEntity
  8
7
100
AcDbLine
 10
4.492125984251967
 20
5.907480314960628
 30
0.0
 11
4.497047244094487
 21
6.202755905511811
 31
0.0
  0
LINE
  5
3D33
330
1E
100
AcDbEntity
  8
7
100
AcDbLine
 10
4.714566929133858
 20
6.163385826771652
 30
0.0
 11
4.714566929133858
 21
6.178149606299212
 31
0.0
  0
LINE
  5
3D34
330
1E
100
AcDbEntity
  8
7
100
AcDbLine
 10
4.714566929133858
 20
6.178149606299212
 30
0.0
 11
4.713582677165353
 21
6.190944881889762
 31
0.0
  0
LINE
  5
3D35
330
1E
100
AcDbEntity
  8
7
100
AcDbLine
 10
4.713582677165353
 20
6.190944881889762
 30
0.0
 11
4.713582677165353
 21
6.199803149606299
 31
0.0
  0
LINE
  5
3D36
330
1E
100
AcDbEntity
  8
7
100
AcDbLine
 10
4.713582677165353
 20
6.199803149606299
 30
0.0
 11
4.713582677165353
 21
6.202755905511811
 31
0.0
  0
LINE
  5
3D37
330
1E
100
AcDbEntity
  8
7
100
AcDbLine
 10
4.719488188976376
 20
5.895669291338582
 30
0.0
 11
4.717519685039368
 21
5.993110236220473
 31
0.0
  0
LINE
  5
3D38
330
1E
100
AcDbEntity
  8
7
100
AcDbLine
 10
4.717519685039368
 20
5.993110236220473
 30
0.0
 11
4.717519685039368
 21
6.004921259842518
 31
0.0
  0
LINE
  5
3D39
330
1E
100
AcDbEntity
  8
7
100
AcDbLine
 10
4.911417322834644
 20
6.01771653543307
 30
0.0
 11
4.914370078740157
 21
6.163385826771652
 31
0.0
  0
LINE
  5
3D3A
330
1E
100
AcDbEntity
  8
7
100
AcDbLine
 10
4.914370078740157
 20
6.163385826771652
 30
0.0
 11
4.879921259842518
 21
6.163385826771652
 31
0.0
  0
LINE
  5
3D3B
330
1E
100
AcDbEntity
  8
7
100
AcDbLine
 10
4.879921259842518
 20
6.163385826771652
 30
0.0
 11
4.854330708661415
 21
6.452755905511811
 31
0.0
  0
LINE
  5
3D3C
330
1E
100
AcDbEntity
  8
7
100
AcDbLine
 10
4.914370078740157
 20
6.202755905511811
 30
0.0
 11
4.914370078740157
 21
6.199803149606299
 31
0.0
  0
LINE
  5
3D3D
330
1E
100
AcDbEntity
  8
7
100
AcDbLine
 10
4.914370078740157
 20
6.199803149606299
 30
0.0
 11
4.914370078740157
 21
6.190944881889762
 31
0.0
  0
LINE
  5
3D3E
330
1E
100
AcDbEntity
  8
7
100
AcDbLine
 10
4.914370078740157
 20
6.190944881889762
 30
0.0
 11
4.914370078740157
 21
6.178149606299212
 31
0.0
  0
LINE
  5
3D3F
330
1E
100
AcDbEntity
  8
7
100
AcDbLine
 10
4.914370078740157
 20
6.178149606299212
 30
0.0
 11
4.914370078740157
 21
6.163385826771652
 31
0.0
  0
LINE
  5
3D40
330
1E
100
AcDbEntity
  8
7
100
AcDbLine
 10
4.911417322834644
 20
5.993110236220473
 30
0.0
 11
4.909448818897636
 21
5.895669291338582
 31
0.0
  0
LINE
  5
3D41
330
1E
100
AcDbEntity
  8
7
100
AcDbLine
 10
4.909448818897636
 20
5.895669291338582
 30
0.0
 11
4.909448818897636
 21
5.88779527559055
 31
0.0
  0
LINE
  5
3D42
330
1E
100
AcDbEntity
  8
7
100
AcDbLine
 10
5.695866141732282
 20
6.716535433070864
 30
0.0
 11
5.695866141732282
 21
6.711614173228346
 31
0.0
  0
LINE
  5
3D43
330
1E
100
AcDbEntity
  8
7
100
AcDbLine
 10
5.695866141732282
 20
6.711614173228346
 30
0.0
 11
5.695866141732282
 21
6.699803149606299
 31
0.0
  0
LINE
  5
3D44
330
1E
100
AcDbEntity
  8
7
100
AcDbLine
 10
5.695866141732282
 20
6.699803149606299
 30
0.0
 11
5.695866141732282
 21
6.682086614173227
 31
0.0
  0
LINE
  5
3D45
330
1E
100
AcDbEntity
  8
7
100
AcDbLine
 10
5.695866141732282
 20
6.682086614173227
 30
0.0
 11
5.696850393700787
 21
6.632874015748031
 31
0.0
  0
LINE
  5
3D46
330
1E
100
AcDbEntity
  8
7
100
AcDbLine
 10
5.696850393700787
 20
6.632874015748031
 30
0.0
 11
5.697834645669289
 21
6.588582677165351
 31
0.0
  0
LINE
  5
3D47
330
1E
100
AcDbEntity
  8
7
100
AcDbLine
 10
5.697834645669289
 20
6.588582677165351
 30
0.0
 11
5.698818897637795
 21
6.5501968503937
 31
0.0
  0
LINE
  5
3D48
330
1E
100
AcDbEntity
  8
7
100
AcDbLine
 10
5.698818897637795
 20
6.5501968503937
 30
0.0
 11
5.698818897637795
 21
6.518700787401573
 31
0.0
  0
LINE
  5
3D49
330
1E
100
AcDbEntity
  8
7
100
AcDbLine
 10
5.698818897637795
 20
6.518700787401573
 30
0.0
 11
5.698818897637795
 21
6.507874015748031
 31
0.0
  0
LINE
  5
3D4A
330
1E
100
AcDbEntity
  8
7
100
AcDbLine
 10
5.698818897637795
 20
6.507874015748031
 30
0.0
 11
5.699803149606299
 21
6.493110236220473
 31
0.0
  0
LINE
  5
3D4B
330
1E
100
AcDbEntity
  8
7
100
AcDbLine
 10
5.699803149606299
 20
6.493110236220473
 30
0.0
 11
5.699803149606299
 21
6.477362204724409
 31
0.0
  0
LINE
  5
3D4C
330
1E
100
AcDbEntity
  8
7
100
AcDbLine
 10
3.928149606299212
 20
6.455708661417322
 30
0.0
 11
3.929133858267714
 21
6.477362204724409
 31
0.0
  0
LINE
  5
3D4D
330
1E
100
AcDbEntity
  8
7
100
AcDbLine
 10
3.929133858267714
 20
6.477362204724409
 30
0.0
 11
3.929133858267714
 21
6.493110236220473
 31
0.0
  0
LINE
  5
3D4E
330
1E
100
AcDbEntity
  8
7
100
AcDbLine
 10
3.929133858267714
 20
6.493110236220473
 30
0.0
 11
3.929133858267714
 21
6.507874015748031
 31
0.0
  0
LINE
  5
3D4F
330
1E
100
AcDbEntity
  8
7
100
AcDbLine
 10
3.929133858267714
 20
6.507874015748031
 30
0.0
 11
3.929133858267714
 21
6.518700787401573
 31
0.0
  0
LINE
  5
3D50
330
1E
100
AcDbEntity
  8
7
100
AcDbLine
 10
3.929133858267714
 20
6.518700787401573
 30
0.0
 11
3.93011811023622
 21
6.5501968503937
 31
0.0
  0
LINE
  5
3D51
330
1E
100
AcDbEntity
  8
7
100
AcDbLine
 10
3.93011811023622
 20
6.5501968503937
 30
0.0
 11
3.931102362204723
 21
6.588582677165351
 31
0.0
  0
LINE
  5
3D52
330
1E
100
AcDbEntity
  8
7
100
AcDbLine
 10
3.931102362204723
 20
6.588582677165351
 30
0.0
 11
3.931102362204723
 21
6.632874015748031
 31
0.0
  0
LINE
  5
3D53
330
1E
100
AcDbEntity
  8
7
100
AcDbLine
 10
3.931102362204723
 20
6.632874015748031
 30
0.0
 11
3.932086614173226
 21
6.682086614173227
 31
0.0
  0
LINE
  5
3D54
330
1E
100
AcDbEntity
  8
7
100
AcDbLine
 10
3.932086614173226
 20
6.682086614173227
 30
0.0
 11
3.933070866141731
 21
6.697834645669289
 31
0.0
  0
LINE
  5
3D55
330
1E
100
AcDbEntity
  8
7
100
AcDbLine
 10
3.933070866141731
 20
6.697834645669289
 30
0.0
 11
3.933070866141731
 21
6.709645669291337
 31
0.0
  0
LINE
  5
3D56
330
1E
100
AcDbEntity
  8
7
100
AcDbLine
 10
3.933070866141731
 20
6.709645669291337
 30
0.0
 11
3.933070866141731
 21
6.715551181102362
 31
0.0
  0
LINE
  5
3D57
330
1E
100
AcDbEntity
  8
7
100
AcDbLine
 10
3.933070866141731
 20
6.715551181102362
 30
0.0
 11
3.933070866141731
 21
6.714566929133857
 31
0.0
  0
LINE
  5
3D58
330
1E
100
AcDbEntity
  8
7
100
AcDbLine
 10
4.857283464566927
 20
6.455708661417322
 30
0.0
 11
5.649606299212597
 21
6.455708661417322
 31
0.0
  0
LINE
  5
3D59
330
1E
100
AcDbEntity
  8
7
100
AcDbLine
 10
5.649606299212597
 20
6.455708661417322
 30
0.0
 11
5.649606299212597
 21
6.477362204724409
 31
0.0
  0
LINE
  5
3D5A
330
1E
100
AcDbEntity
  8
7
100
AcDbLine
 10
5.649606299212597
 20
6.477362204724409
 30
0.0
 11
3.978346456692912
 21
6.477362204724409
 31
0.0
  0
LINE
  5
3D5B
330
1E
100
AcDbEntity
  8
7
100
AcDbLine
 10
3.978346456692912
 20
6.477362204724409
 30
0.0
 11
3.978346456692912
 21
6.455708661417322
 31
0.0
  0
LINE
  5
3D5C
330
1E
100
AcDbEntity
  8
7
100
AcDbLine
 10
3.978346456692912
 20
6.455708661417322
 30
0.0
 11
4.771653543307086
 21
6.455708661417322
 31
0.0
  0
LINE
  5
3D5D
330
1E
100
AcDbEntity
  8
7
100
AcDbLine
 10
3.983267716535431
 20
6.202755905511811
 30
0.0
 11
3.963582677165353
 21
6.202755905511811
 31
0.0
  0
LINE
  5
3D5E
330
1E
100
AcDbEntity
  8
7
100
AcDbLine
 10
3.963582677165353
 20
6.202755905511811
 30
0.0
 11
3.947834645669289
 21
6.202755905511811
 31
0.0
  0
LINE
  5
3D5F
330
1E
100
AcDbEntity
  8
7
100
AcDbLine
 10
3.947834645669289
 20
6.202755905511811
 30
0.0
 11
3.937007874015747
 21
6.202755905511811
 31
0.0
  0
LINE
  5
3D60
330
1E
100
AcDbEntity
  8
7
100
AcDbLine
 10
3.937007874015747
 20
6.202755905511811
 30
0.0
 11
3.933070866141731
 21
6.202755905511811
 31
0.0
  0
LINE
  5
3D61
330
1E
100
AcDbEntity
  8
7
100
AcDbLine
 10
5.65255905511811
 20
6.202755905511811
 30
0.0
 11
5.63779527559055
 21
6.199803149606299
 31
0.0
  0
LINE
  5
3D62
330
1E
100
AcDbEntity
  8
7
100
AcDbLine
 10
5.63779527559055
 20
6.199803149606299
 30
0.0
 11
5.624015748031494
 21
6.190944881889762
 31
0.0
  0
LINE
  5
3D63
330
1E
100
AcDbEntity
  8
7
100
AcDbLine
 10
5.624015748031494
 20
6.190944881889762
 30
0.0
 11
5.616141732283463
 21
6.178149606299212
 31
0.0
  0
LINE
  5
3D64
330
1E
100
AcDbEntity
  8
7
100
AcDbLine
 10
5.616141732283463
 20
6.178149606299212
 30
0.0
 11
5.612204724409448
 21
6.163385826771652
 31
0.0
  0
LINE
  5
3D65
330
1E
100
AcDbEntity
  8
7
100
AcDbLine
 10
5.695866141732282
 20
6.202755905511811
 30
0.0
 11
5.691929133858266
 21
6.202755905511811
 31
0.0
  0
LINE
  5
3D66
330
1E
100
AcDbEntity
  8
7
100
AcDbLine
 10
5.691929133858266
 20
6.202755905511811
 30
0.0
 11
5.681102362204723
 21
6.202755905511811
 31
0.0
  0
LINE
  5
3D67
330
1E
100
AcDbEntity
  8
7
100
AcDbLine
 10
5.681102362204723
 20
6.202755905511811
 30
0.0
 11
5.664370078740156
 21
6.202755905511811
 31
0.0
  0
LINE
  5
3D68
330
1E
100
AcDbEntity
  8
7
100
AcDbLine
 10
5.664370078740156
 20
6.202755905511811
 30
0.0
 11
5.645669291338582
 21
6.202755905511811
 31
0.0
  0
LINE
  5
3D69
330
1E
100
AcDbEntity
  8
7
100
AcDbLine
 10
4.403543307086613
 20
6.980314960629921
 30
0.0
 11
4.383858267716535
 21
6.965551181102362
 31
0.0
  0
LINE
  5
3D6A
330
1E
100
AcDbEntity
  8
7
100
AcDbLine
 10
4.383858267716535
 20
6.965551181102362
 30
0.0
 11
4.370078740157478
 21
6.945866141732282
 31
0.0
  0
LINE
  5
3D6B
330
1E
100
AcDbEntity
  8
7
100
AcDbLine
 10
4.454724409448818
 20
6.993110236220473
 30
0.0
 11
4.428149606299212
 21
6.99015748031496
 31
0.0
  0
LINE
  5
3D6C
330
1E
100
AcDbEntity
  8
7
100
AcDbLine
 10
4.428149606299212
 20
6.99015748031496
 30
0.0
 11
4.403543307086613
 21
6.980314960629921
 31
0.0
  0
LINE
  5
3D6D
330
1E
100
AcDbEntity
  8
7
100
AcDbLine
 10
4.47047244094488
 20
6.866141732283463
 30
0.0
 11
4.469488188976376
 21
6.869094488188975
 31
0.0
  0
LINE
  5
3D6E
330
1E
100
AcDbEntity
  8
7
100
AcDbLine
 10
4.469488188976376
 20
6.869094488188975
 30
0.0
 11
4.468503937007874
 21
6.871062992125983
 31
0.0
  0
LINE
  5
3D6F
330
1E
100
AcDbEntity
  8
7
100
AcDbLine
 10
4.468503937007874
 20
6.871062992125983
 30
0.0
 11
4.468503937007874
 21
6.872047244094487
 31
0.0
  0
LINE
  5
3D70
330
1E
100
AcDbEntity
  8
7
100
AcDbLine
 10
4.468503937007874
 20
6.872047244094487
 30
0.0
 11
4.467519685039368
 21
6.873031496062991
 31
0.0
  0
LINE
  5
3D71
330
1E
100
AcDbEntity
  8
7
100
AcDbLine
 10
4.467519685039368
 20
6.873031496062991
 30
0.0
 11
4.464566929133858
 21
6.875
 31
0.0
  0
LINE
  5
3D72
330
1E
100
AcDbEntity
  8
7
100
AcDbLine
 10
4.464566929133858
 20
6.875
 30
0.0
 11
4.46259842519685
 21
6.875984251968502
 31
0.0
  0
LINE
  5
3D73
330
1E
100
AcDbEntity
  8
7
100
AcDbLine
 10
4.46259842519685
 20
6.875984251968502
 30
0.0
 11
4.460629921259841
 21
6.875984251968502
 31
0.0
  0
LINE
  5
3D74
330
1E
100
AcDbEntity
  8
7
100
AcDbLine
 10
5.160433070866141
 20
6.872047244094487
 30
0.0
 11
5.159448818897636
 21
6.871062992125983
 31
0.0
  0
LINE
  5
3D75
330
1E
100
AcDbEntity
  8
7
100
AcDbLine
 10
5.159448818897636
 20
6.871062992125983
 30
0.0
 11
5.158464566929133
 21
6.869094488188975
 31
0.0
  0
LINE
  5
3D76
330
1E
100
AcDbEntity
  8
7
100
AcDbLine
 10
5.158464566929133
 20
6.869094488188975
 30
0.0
 11
5.157480314960628
 21
6.866141732283463
 31
0.0
  0
LINE
  5
3D77
330
1E
100
AcDbEntity
  8
7
100
AcDbLine
 10
5.168307086614173
 20
6.875984251968502
 30
0.0
 11
5.165354330708661
 21
6.875984251968502
 31
0.0
  0
LINE
  5
3D78
330
1E
100
AcDbEntity
  8
7
100
AcDbLine
 10
5.165354330708661
 20
6.875984251968502
 30
0.0
 11
5.163385826771651
 21
6.875
 31
0.0
  0
LINE
  5
3D79
330
1E
100
AcDbEntity
  8
7
100
AcDbLine
 10
5.163385826771651
 20
6.875
 30
0.0
 11
5.161417322834644
 21
6.873031496062991
 31
0.0
  0
LINE
  5
3D7A
330
1E
100
AcDbEntity
  8
7
100
AcDbLine
 10
5.161417322834644
 20
6.873031496062991
 30
0.0
 11
5.160433070866141
 21
6.872047244094487
 31
0.0
  0
LINE
  5
3D7B
330
1E
100
AcDbEntity
  8
7
100
AcDbLine
 10
4.381889763779525
 20
6.875984251968502
 30
0.0
 11
4.375984251968502
 21
6.875
 31
0.0
  0
LINE
  5
3D7C
330
1E
100
AcDbEntity
  8
7
100
AcDbLine
 10
4.375984251968502
 20
6.875
 30
0.0
 11
4.372047244094487
 21
6.873031496062991
 31
0.0
  0
LINE
  5
3D7D
330
1E
100
AcDbEntity
  8
7
100
AcDbLine
 10
4.372047244094487
 20
6.873031496062991
 30
0.0
 11
4.370078740157478
 21
6.871062992125983
 31
0.0
  0
LINE
  5
3D7E
330
1E
100
AcDbEntity
  8
7
100
AcDbLine
 10
4.370078740157478
 20
6.871062992125983
 30
0.0
 11
4.369094488188975
 21
6.870078740157478
 31
0.0
  0
LINE
  5
3D7F
330
1E
100
AcDbEntity
  8
7
100
AcDbLine
 10
4.369094488188975
 20
6.870078740157478
 30
0.0
 11
4.368110236220472
 21
6.868110236220473
 31
0.0
  0
LINE
  5
3D80
330
1E
100
AcDbEntity
  8
7
100
AcDbLine
 10
4.368110236220472
 20
6.868110236220473
 30
0.0
 11
4.367125984251968
 21
6.866141732283463
 31
0.0
  0
LINE
  5
3D81
330
1E
100
AcDbEntity
  8
7
100
AcDbLine
 10
4.367125984251968
 20
6.866141732283463
 30
0.0
 11
4.366141732283463
 21
6.861220472440943
 31
0.0
  0
LINE
  5
3D82
330
1E
100
AcDbEntity
  8
7
100
AcDbLine
 10
5.26279527559055
 20
6.861220472440943
 30
0.0
 11
5.259842519685038
 21
6.867125984251967
 31
0.0
  0
LINE
  5
3D83
330
1E
100
AcDbEntity
  8
7
100
AcDbLine
 10
5.259842519685038
 20
6.867125984251967
 30
0.0
 11
5.256889763779525
 21
6.872047244094487
 31
0.0
  0
LINE
  5
3D84
330
1E
100
AcDbEntity
  8
7
100
AcDbLine
 10
5.256889763779525
 20
6.872047244094487
 30
0.0
 11
5.251968503937006
 21
6.875
 31
0.0
  0
LINE
  5
3D85
330
1E
100
AcDbEntity
  8
7
100
AcDbLine
 10
5.695866141732282
 20
6.716535433070864
 30
0.0
 11
5.691929133858266
 21
6.73523622047244
 31
0.0
  0
LINE
  5
3D86
330
1E
100
AcDbEntity
  8
7
100
AcDbLine
 10
5.691929133858266
 20
6.73523622047244
 30
0.0
 11
5.680118110236219
 21
6.750984251968502
 31
0.0
  0
LINE
  5
3D87
330
1E
100
AcDbEntity
  8
7
100
AcDbLine
 10
5.680118110236219
 20
6.750984251968502
 30
0.0
 11
5.664370078740156
 21
6.761811023622048
 31
0.0
  0
LINE
  5
3D88
330
1E
100
AcDbEntity
  8
7
100
AcDbLine
 10
5.664370078740156
 20
6.761811023622048
 30
0.0
 11
5.645669291338582
 21
6.764763779527558
 31
0.0
  0
LINE
  5
3D89
330
1E
100
AcDbEntity
  8
7
100
AcDbLine
 10
3.963582677165353
 20
6.760826771653542
 30
0.0
 11
3.947834645669289
 21
6.75
 31
0.0
  0
LINE
  5
3D8A
330
1E
100
AcDbEntity
  8
7
100
AcDbLine
 10
3.947834645669289
 20
6.75
 30
0.0
 11
3.937007874015747
 21
6.733267716535432
 31
0.0
  0
LINE
  5
3D8B
330
1E
100
AcDbEntity
  8
7
100
AcDbLine
 10
3.937007874015747
 20
6.733267716535432
 30
0.0
 11
3.934055118110236
 21
6.724409448818897
 31
0.0
  0
LINE
  5
3D8C
330
1E
100
AcDbEntity
  8
7
100
AcDbLine
 10
3.934055118110236
 20
6.724409448818897
 30
0.0
 11
3.933070866141731
 21
6.714566929133857
 31
0.0
  0
LINE
  5
3D8D
330
1E
100
AcDbEntity
  8
7
100
AcDbLine
 10
4.328740157480313
 20
7.013779527559053
 30
0.0
 11
4.329724409448818
 21
7.007874015748031
 31
0.0
  0
LINE
  5
3D8E
330
1E
100
AcDbEntity
  8
7
100
AcDbLine
 10
4.329724409448818
 20
7.007874015748031
 30
0.0
 11
4.331692913385825
 21
7.0
 31
0.0
  0
LINE
  5
3D8F
330
1E
100
AcDbEntity
  8
7
100
AcDbLine
 10
4.331692913385825
 20
7.0
 30
0.0
 11
4.335629921259841
 21
6.993110236220473
 31
0.0
  0
LINE
  5
3D90
330
1E
100
AcDbEntity
  8
7
100
AcDbLine
 10
4.335629921259841
 20
6.993110236220473
 30
0.0
 11
4.341535433070864
 21
6.987204724409446
 31
0.0
  0
LINE
  5
3D91
330
1E
100
AcDbEntity
  8
7
100
AcDbLine
 10
4.341535433070864
 20
6.987204724409446
 30
0.0
 11
4.348425196850392
 21
6.981299212598425
 31
0.0
  0
LINE
  5
3D92
330
1E
100
AcDbEntity
  8
7
100
AcDbLine
 10
4.348425196850392
 20
6.981299212598425
 30
0.0
 11
4.357283464566927
 21
6.976377952755905
 31
0.0
  0
LINE
  5
3D93
330
1E
100
AcDbEntity
  8
7
100
AcDbLine
 10
4.357283464566927
 20
6.976377952755905
 30
0.0
 11
4.367125984251968
 21
6.972440944881888
 31
0.0
  0
LINE
  5
3D94
330
1E
100
AcDbEntity
  8
7
100
AcDbLine
 10
4.367125984251968
 20
6.972440944881888
 30
0.0
 11
4.377952755905511
 21
6.969488188976378
 31
0.0
  0
LINE
  5
3D95
330
1E
100
AcDbEntity
  8
7
100
AcDbLine
 10
4.377952755905511
 20
6.969488188976378
 30
0.0
 11
4.386811023622046
 21
6.967519685039368
 31
0.0
  0
LINE
  5
3D96
330
1E
100
AcDbEntity
  8
7
100
AcDbLine
 10
4.332677165354329
 20
7.039370078740156
 30
0.0
 11
4.329724409448818
 21
7.032480314960628
 31
0.0
  0
LINE
  5
3D97
330
1E
100
AcDbEntity
  8
7
100
AcDbLine
 10
4.329724409448818
 20
7.032480314960628
 30
0.0
 11
4.328740157480313
 21
7.024606299212597
 31
0.0
  0
LINE
  5
3D98
330
1E
100
AcDbEntity
  8
7
100
AcDbLine
 10
4.328740157480313
 20
7.024606299212597
 30
0.0
 11
4.328740157480313
 21
7.022637795275588
 31
0.0
  0
LINE
  5
3D99
330
1E
100
AcDbEntity
  8
7
100
AcDbLine
 10
4.403543307086613
 20
7.070866141732282
 30
0.0
 11
4.397637795275588
 21
7.069881889763778
 31
0.0
  0
LINE
  5
3D9A
330
1E
100
AcDbEntity
  8
7
100
AcDbLine
 10
4.397637795275588
 20
7.069881889763778
 30
0.0
 11
4.385826771653541
 21
7.068897637795275
 31
0.0
  0
LINE
  5
3D9B
330
1E
100
AcDbEntity
  8
7
100
AcDbLine
 10
4.385826771653541
 20
7.068897637795275
 30
0.0
 11
4.374015748031495
 21
7.066929133858266
 31
0.0
  0
LINE
  5
3D9C
330
1E
100
AcDbEntity
  8
7
100
AcDbLine
 10
4.374015748031495
 20
7.066929133858266
 30
0.0
 11
4.363188976377951
 21
7.062992125984251
 31
0.0
  0
LINE
  5
3D9D
330
1E
100
AcDbEntity
  8
7
100
AcDbLine
 10
4.363188976377951
 20
7.062992125984251
 30
0.0
 11
4.353346456692912
 21
7.059055118110236
 31
0.0
  0
LINE
  5
3D9E
330
1E
100
AcDbEntity
  8
7
100
AcDbLine
 10
4.353346456692912
 20
7.059055118110236
 30
0.0
 11
4.344488188976376
 21
7.052165354330706
 31
0.0
  0
LINE
  5
3D9F
330
1E
100
AcDbEntity
  8
7
100
AcDbLine
 10
4.344488188976376
 20
7.052165354330706
 30
0.0
 11
4.33759842519685
 21
7.046259842519683
 31
0.0
  0
LINE
  5
3DA0
330
1E
100
AcDbEntity
  8
7
100
AcDbLine
 10
4.33759842519685
 20
7.046259842519683
 30
0.0
 11
4.332677165354329
 21
7.039370078740156
 31
0.0
  0
LINE
  5
3DA1
330
1E
100
AcDbEntity
  8
7
100
AcDbLine
 10
4.474409448818896
 20
6.964566929133857
 30
0.0
 11
4.480314960629921
 21
6.962598425196849
 31
0.0
  0
LINE
  5
3DA2
330
1E
100
AcDbEntity
  8
7
100
AcDbLine
 10
4.480314960629921
 20
6.962598425196849
 30
0.0
 11
4.484251968503936
 21
6.960629921259843
 31
0.0
  0
LINE
  5
3DA3
330
1E
100
AcDbEntity
  8
7
100
AcDbLine
 10
4.484251968503936
 20
6.960629921259843
 30
0.0
 11
4.48523622047244
 21
6.958661417322833
 31
0.0
  0
LINE
  5
3DA4
330
1E
100
AcDbEntity
  8
7
100
AcDbLine
 10
4.48523622047244
 20
6.958661417322833
 30
0.0
 11
4.486220472440942
 21
6.958661417322833
 31
0.0
  0
LINE
  5
3DA5
330
1E
100
AcDbEntity
  8
7
100
AcDbLine
 10
5.266732283464566
 20
7.047244094488188
 30
0.0
 11
5.260826771653541
 21
7.074803149606299
 31
0.0
  0
LINE
  5
3DA6
330
1E
100
AcDbEntity
  8
7
100
AcDbLine
 10
5.260826771653541
 20
7.074803149606299
 30
0.0
 11
5.24803149606299
 21
7.099409448818897
 31
0.0
  0
LINE
  5
3DA7
330
1E
100
AcDbEntity
  8
7
100
AcDbLine
 10
5.24803149606299
 20
7.099409448818897
 30
0.0
 11
5.227362204724409
 21
7.119094488188975
 31
0.0
  0
LINE
  5
3DA8
330
1E
100
AcDbEntity
  8
7
100
AcDbLine
 10
5.227362204724409
 20
7.119094488188975
 30
0.0
 11
5.201771653543306
 21
7.131889763779526
 31
0.0
  0
LINE
  5
3DA9
330
1E
100
AcDbEntity
  8
7
100
AcDbLine
 10
5.201771653543306
 20
7.131889763779526
 30
0.0
 11
5.174212598425196
 21
7.135826771653542
 31
0.0
  0
LINE
  5
3DAA
330
1E
100
AcDbEntity
  8
7
100
AcDbLine
 10
4.454724409448818
 20
7.135826771653542
 30
0.0
 11
4.424212598425196
 21
7.130905511811023
 31
0.0
  0
LINE
  5
3DAB
330
1E
100
AcDbEntity
  8
7
100
AcDbLine
 10
4.424212598425196
 20
7.130905511811023
 30
0.0
 11
4.396653543307086
 21
7.11515748031496
 31
0.0
  0
LINE
  5
3DAC
330
1E
100
AcDbEntity
  8
7
100
AcDbLine
 10
4.396653543307086
 20
7.11515748031496
 30
0.0
 11
4.375984251968502
 21
7.092519685039368
 31
0.0
  0
LINE
  5
3DAD
330
1E
100
AcDbEntity
  8
7
100
AcDbLine
 10
4.375984251968502
 20
7.092519685039368
 30
0.0
 11
4.364173228346456
 21
7.063976377952754
 31
0.0
  0
LINE
  5
3DAE
330
1E
100
AcDbEntity
  8
7
100
AcDbLine
 10
4.473425196850393
 20
6.984251968503937
 30
0.0
 11
4.47047244094488
 21
6.99015748031496
 31
0.0
  0
LINE
  5
3DAF
330
1E
100
AcDbEntity
  8
7
100
AcDbLine
 10
4.47047244094488
 20
6.99015748031496
 30
0.0
 11
4.463582677165353
 21
6.993110236220473
 31
0.0
  0
LINE
  5
3DB0
330
1E
100
AcDbEntity
  8
7
100
AcDbLine
 10
5.14271653543307
 20
7.0501968503937
 30
0.0
 11
5.136811023622046
 21
7.063976377952754
 31
0.0
  0
LINE
  5
3DB1
330
1E
100
AcDbEntity
  8
7
100
AcDbLine
 10
5.136811023622046
 20
7.063976377952754
 30
0.0
 11
5.12303149606299
 21
7.069881889763778
 31
0.0
  0
LINE
  5
3FF3
330
1E
100
AcDbEntity
  8
7
100
AcDbLine
 10
5.266732283464566
 20
8.766732283464566
 30
0.0
 11
5.261811023622046
 21
8.752952755905511
 31
0.0
  0
LINE
  5
3FF4
330
1E
100
AcDbEntity
  8
7
100
AcDbLine
 10
5.261811023622046
 20
8.752952755905511
 30
0.0
 11
5.24803149606299
 21
8.740157480314961
 31
0.0
  0
LINE
  5
3FF5
330
1E
100
AcDbEntity
  8
7
100
AcDbLine
 10
5.24803149606299
 20
8.740157480314961
 30
0.0
 11
5.227362204724409
 21
8.73031496062992
 31
0.0
  0
LINE
  5
3FF6
330
1E
100
AcDbEntity
  8
7
100
AcDbLine
 10
5.227362204724409
 20
8.73031496062992
 30
0.0
 11
5.201771653543306
 21
8.724409448818896
 31
0.0
  0
LINE
  5
3FF7
330
1E
100
AcDbEntity
  8
7
100
AcDbLine
 10
5.201771653543306
 20
8.724409448818896
 30
0.0
 11
5.174212598425196
 21
8.721456692913385
 31
0.0
  0
LINE
  5
3FF8
330
1E
100
AcDbEntity
  8
7
100
AcDbLine
 10
5.266732283464566
 20
8.766732283464566
 30
0.0
 11
5.26279527559055
 21
8.791338582677164
 31
0.0
  0
LINE
  5
3FF9
330
1E
100
AcDbEntity
  8
7
100
AcDbLine
 10
5.26279527559055
 20
8.791338582677164
 30
0.0
 11
5.249015748031495
 21
8.813976377952755
 31
0.0
  0
LINE
  5
3FFA
330
1E
100
AcDbEntity
  8
7
100
AcDbLine
 10
5.249015748031495
 20
8.813976377952755
 30
0.0
 11
5.228346456692912
 21
8.831692913385824
 31
0.0
  0
LINE
  5
3FFB
330
1E
100
AcDbEntity
  8
7
100
AcDbLine
 10
5.228346456692912
 20
8.831692913385824
 30
0.0
 11
5.202755905511811
 21
8.843503937007872
 31
0.0
  0
LINE
  5
3FFC
330
1E
100
AcDbEntity
  8
7
100
AcDbLine
 10
5.202755905511811
 20
8.843503937007872
 30
0.0
 11
5.174212598425196
 21
8.848425196850392
 31
0.0
  0
LINE
  5
3FFD
330
1E
100
AcDbEntity
  8
7
100
AcDbLine
 10
5.266732283464566
 20
8.364173228346455
 30
0.0
 11
5.265748031496062
 21
8.352362204724409
 31
0.0
  0
LINE
  5
3FFE
330
1E
100
AcDbEntity
  8
7
100
AcDbLine
 10
5.265748031496062
 20
8.352362204724409
 30
0.0
 11
5.261811023622046
 21
8.339566929133857
 31
0.0
  0
LINE
  5
3FFF
330
1E
100
AcDbEntity
  8
7
100
AcDbLine
 10
5.261811023622046
 20
8.339566929133857
 30
0.0
 11
5.256889763779525
 21
8.326771653543307
 31
0.0
  0
LINE
  5
4000
330
1E
100
AcDbEntity
  8
7
100
AcDbLine
 10
5.256889763779525
 20
8.326771653543307
 30
0.0
 11
5.25
 21
8.313976377952753
 31
0.0
  0
LINE
  5
4001
330
1E
100
AcDbEntity
  8
7
100
AcDbLine
 10
5.247047244094487
 20
8.203740157480313
 30
0.0
 11
5.257874015748031
 21
8.202755905511811
 31
0.0
  0
LINE
  5
4002
330
1E
100
AcDbEntity
  8
7
100
AcDbLine
 10
5.257874015748031
 20
8.202755905511811
 30
0.0
 11
5.26279527559055
 21
8.199803149606298
 31
0.0
  0
LINE
  5
4003
330
1E
100
AcDbEntity
  8
7
100
AcDbLine
 10
5.246062992125983
 20
8.129921259842516
 30
0.0
 11
5.256889763779525
 21
8.131889763779527
 31
0.0
  0
LINE
  5
4004
330
1E
100
AcDbEntity
  8
7
100
AcDbLine
 10
5.256889763779525
 20
8.131889763779527
 30
0.0
 11
5.261811023622046
 21
8.136811023622046
 31
0.0
  0
LINE
  5
4005
330
1E
100
AcDbEntity
  8
7
100
AcDbLine
 10
4.454724409448818
 20
8.493110236220472
 30
0.0
 11
4.454724409448818
 21
8.500984251968503
 31
0.0
  0
LINE
  5
4006
330
1E
100
AcDbEntity
  8
7
100
AcDbLine
 10
4.454724409448818
 20
8.500984251968503
 30
0.0
 11
4.454724409448818
 21
8.506889763779527
 31
0.0
  0
LINE
  5
4007
330
1E
100
AcDbEntity
  8
7
100
AcDbLine
 10
4.463582677165353
 20
8.493110236220472
 30
0.0
 11
4.463582677165353
 21
8.500984251968503
 31
0.0
  0
LINE
  5
4008
330
1E
100
AcDbEntity
  8
7
100
AcDbLine
 10
4.463582677165353
 20
8.500984251968503
 30
0.0
 11
4.463582677165353
 21
8.506889763779527
 31
0.0
  0
LINE
  5
4009
330
1E
100
AcDbEntity
  8
7
100
AcDbLine
 10
4.473425196850393
 20
8.49803149606299
 30
0.0
 11
4.47047244094488
 21
8.503937007874013
 31
0.0
  0
LINE
  5
400A
330
1E
100
AcDbEntity
  8
7
100
AcDbLine
 10
4.47047244094488
 20
8.503937007874013
 30
0.0
 11
4.463582677165353
 21
8.506889763779527
 31
0.0
  0
LINE
  5
400B
330
1E
100
AcDbEntity
  8
7
100
AcDbLine
 10
4.454724409448818
 20
8.658464566929133
 30
0.0
 11
4.454724409448818
 21
8.659448818897637
 31
0.0
  0
LINE
  5
400C
330
1E
100
AcDbEntity
  8
7
100
AcDbLine
 10
4.454724409448818
 20
8.659448818897637
 30
0.0
 11
4.454724409448818
 21
8.663385826771651
 31
0.0
  0
LINE
  5
400D
330
1E
100
AcDbEntity
  8
7
100
AcDbLine
 10
4.381889763779525
 20
8.129921259842516
 30
0.0
 11
4.371062992125984
 21
8.131889763779527
 31
0.0
  0
LINE
  5
400E
330
1E
100
AcDbEntity
  8
7
100
AcDbLine
 10
4.371062992125984
 20
8.131889763779527
 30
0.0
 11
4.366141732283463
 21
8.136811023622046
 31
0.0
  0
LINE
  5
400F
330
1E
100
AcDbEntity
  8
7
100
AcDbLine
 10
4.380905511811023
 20
8.203740157480313
 30
0.0
 11
4.370078740157478
 21
8.202755905511811
 31
0.0
  0
LINE
  5
4010
330
1E
100
AcDbEntity
  8
7
100
AcDbLine
 10
4.370078740157478
 20
8.202755905511811
 30
0.0
 11
4.36515748031496
 21
8.199803149606298
 31
0.0
  0
LINE
  5
4011
330
1E
100
AcDbEntity
  8
7
100
AcDbLine
 10
4.454724409448818
 20
8.721456692913385
 30
0.0
 11
4.426181102362204
 21
8.724409448818896
 31
0.0
  0
LINE
  5
4012
330
1E
100
AcDbEntity
  8
7
100
AcDbLine
 10
4.426181102362204
 20
8.724409448818896
 30
0.0
 11
4.400590551181101
 21
8.73031496062992
 31
0.0
  0
LINE
  5
4013
330
1E
100
AcDbEntity
  8
7
100
AcDbLine
 10
4.400590551181101
 20
8.73031496062992
 30
0.0
 11
4.379921259842518
 21
8.740157480314961
 31
0.0
  0
LINE
  5
4014
330
1E
100
AcDbEntity
  8
7
100
AcDbLine
 10
4.379921259842518
 20
8.740157480314961
 30
0.0
 11
4.367125984251968
 21
8.752952755905511
 31
0.0
  0
LINE
  5
4015
330
1E
100
AcDbEntity
  8
7
100
AcDbLine
 10
4.367125984251968
 20
8.752952755905511
 30
0.0
 11
4.361220472440943
 21
8.766732283464566
 31
0.0
  0
LINE
  5
4016
330
1E
100
AcDbEntity
  8
7
100
AcDbLine
 10
4.361220472440943
 20
8.766732283464566
 30
0.0
 11
4.366141732283463
 21
8.791338582677164
 31
0.0
  0
LINE
  5
4017
330
1E
100
AcDbEntity
  8
7
100
AcDbLine
 10
4.366141732283463
 20
8.791338582677164
 30
0.0
 11
4.378937007874014
 21
8.813976377952755
 31
0.0
  0
LINE
  5
4018
330
1E
100
AcDbEntity
  8
7
100
AcDbLine
 10
4.378937007874014
 20
8.813976377952755
 30
0.0
 11
4.399606299212597
 21
8.831692913385824
 31
0.0
  0
LINE
  5
4019
330
1E
100
AcDbEntity
  8
7
100
AcDbLine
 10
4.399606299212597
 20
8.831692913385824
 30
0.0
 11
4.4251968503937
 21
8.843503937007872
 31
0.0
  0
LINE
  5
401A
330
1E
100
AcDbEntity
  8
7
100
AcDbLine
 10
4.4251968503937
 20
8.843503937007872
 30
0.0
 11
4.454724409448818
 21
8.848425196850392
 31
0.0
  0
LINE
  5
401B
330
1E
100
AcDbEntity
  8
7
100
AcDbLine
 10
4.369094488188975
 20
8.689960629921259
 30
0.0
 11
4.383858267716535
 21
8.679133858267716
 31
0.0
  0
LINE
  5
401C
330
1E
100
AcDbEntity
  8
7
100
AcDbLine
 10
4.383858267716535
 20
8.679133858267716
 30
0.0
 11
4.403543307086613
 21
8.670275590551181
 31
0.0
  0
LINE
  5
401D
330
1E
100
AcDbEntity
  8
7
100
AcDbLine
 10
4.403543307086613
 20
8.670275590551181
 30
0.0
 11
4.428149606299212
 21
8.665354330708661
 31
0.0
  0
LINE
  5
401E
330
1E
100
AcDbEntity
  8
7
100
AcDbLine
 10
4.428149606299212
 20
8.665354330708661
 30
0.0
 11
4.454724409448818
 21
8.663385826771651
 31
0.0
  0
LINE
  5
401F
330
1E
100
AcDbEntity
  8
7
100
AcDbLine
 10
4.454724409448818
 20
8.493110236220472
 30
0.0
 11
4.428149606299212
 21
8.495078740157479
 31
0.0
  0
LINE
  5
4020
330
1E
100
AcDbEntity
  8
7
100
AcDbLine
 10
4.428149606299212
 20
8.495078740157479
 30
0.0
 11
4.403543307086613
 21
8.500984251968503
 31
0.0
  0
LINE
  5
4021
330
1E
100
AcDbEntity
  8
7
100
AcDbLine
 10
4.403543307086613
 20
8.500984251968503
 30
0.0
 11
4.383858267716535
 21
8.509842519685037
 31
0.0
  0
LINE
  5
4022
330
1E
100
AcDbEntity
  8
7
100
AcDbLine
 10
4.383858267716535
 20
8.509842519685037
 30
0.0
 11
4.369094488188975
 21
8.521653543307087
 31
0.0
  0
LINE
  5
4023
330
1E
100
AcDbEntity
  8
7
100
AcDbLine
 10
4.33759842519685
 20
9.12303149606299
 30
0.0
 11
4.339566929133858
 21
9.156496062992124
 31
0.0
  0
LINE
  5
4024
330
1E
100
AcDbEntity
  8
7
100
AcDbLine
 10
4.339566929133858
 20
9.156496062992124
 30
0.0
 11
4.348425196850392
 21
9.187007874015748
 31
0.0
  0
LINE
  5
4025
330
1E
100
AcDbEntity
  8
7
100
AcDbLine
 10
4.348425196850392
 20
9.187007874015748
 30
0.0
 11
4.362204724409448
 21
9.214566929133855
 31
0.0
  0
LINE
  5
4026
330
1E
100
AcDbEntity
  8
7
100
AcDbLine
 10
4.362204724409448
 20
9.214566929133855
 30
0.0
 11
4.380905511811023
 21
9.234251968503935
 31
0.0
  0
LINE
  5
4027
330
1E
100
AcDbEntity
  8
7
100
AcDbLine
 10
4.380905511811023
 20
9.234251968503935
 30
0.0
 11
4.40255905511811
 21
9.24803149606299
 31
0.0
  0
LINE
  5
4028
330
1E
100
AcDbEntity
  8
7
100
AcDbLine
 10
4.40255905511811
 20
9.24803149606299
 30
0.0
 11
4.427165354330707
 21
9.251968503937009
 31
0.0
  0
LINE
  5
4029
330
1E
100
AcDbEntity
  8
7
100
AcDbLine
 10
4.375984251968502
 20
7.962598425196849
 30
0.0
 11
4.369094488188975
 21
7.970472440944881
 31
0.0
  0
LINE
  5
402A
330
1E
100
AcDbEntity
  8
7
100
AcDbLine
 10
4.369094488188975
 20
7.970472440944881
 30
0.0
 11
4.366141732283463
 21
7.981299212598424
 31
0.0
  0
LINE
  5
402B
330
1E
100
AcDbEntity
  8
7
100
AcDbLine
 10
5.266732283464566
 20
9.214566929133855
 30
0.0
 11
5.280511811023621
 21
9.187007874015748
 31
0.0
  0
LINE
  5
402C
330
1E
100
AcDbEntity
  8
7
100
AcDbLine
 10
5.280511811023621
 20
9.187007874015748
 30
0.0
 11
5.289370078740157
 21
9.156496062992124
 31
0.0
  0
LINE
  5
402D
330
1E
100
AcDbEntity
  8
7
100
AcDbLine
 10
5.289370078740157
 20
9.156496062992124
 30
0.0
 11
5.291338582677163
 21
9.12303149606299
 31
0.0
  0
LINE
  5
402E
330
1E
100
AcDbEntity
  8
7
100
AcDbLine
 10
5.201771653543306
 20
9.251968503937009
 30
0.0
 11
5.2253937007874
 21
9.24803149606299
 31
0.0
  0
LINE
  5
402F
330
1E
100
AcDbEntity
  8
7
100
AcDbLine
 10
5.2253937007874
 20
9.24803149606299
 30
0.0
 11
5.24803149606299
 21
9.234251968503935
 31
0.0
  0
LINE
  5
4030
330
1E
100
AcDbEntity
  8
7
100
AcDbLine
 10
5.24803149606299
 20
9.234251968503935
 30
0.0
 11
5.266732283464566
 21
9.214566929133855
 31
0.0
  0
LINE
  5
4031
330
1E
100
AcDbEntity
  8
7
100
AcDbLine
 10
5.261811023622046
 20
7.981299212598424
 30
0.0
 11
5.259842519685038
 21
7.970472440944881
 31
0.0
  0
LINE
  5
4032
330
1E
100
AcDbEntity
  8
7
100
AcDbLine
 10
5.259842519685038
 20
7.970472440944881
 30
0.0
 11
5.252952755905512
 21
7.962598425196849
 31
0.0
  0
LINE
  5
4033
330
1E
100
AcDbEntity
  8
7
100
AcDbLine
 10
5.216535433070864
 20
8.274606299212598
 30
0.0
 11
5.195866141732283
 21
8.263779527559055
 31
0.0
  0
LINE
  5
4034
330
1E
100
AcDbEntity
  8
7
100
AcDbLine
 10
5.195866141732283
 20
8.263779527559055
 30
0.0
 11
5.174212598425196
 21
8.259842519685037
 31
0.0
  0
LINE
  5
4035
330
1E
100
AcDbEntity
  8
7
100
AcDbLine
 10
5.247047244094487
 20
8.203740157480313
 30
0.0
 11
5.25
 21
8.313976377952753
 31
0.0
  0
LINE
  5
4036
330
1E
100
AcDbEntity
  8
7
100
AcDbLine
 10
5.25
 20
8.313976377952753
 30
0.0
 11
5.23523622047244
 21
8.291338582677164
 31
0.0
  0
LINE
  5
4037
330
1E
100
AcDbEntity
  8
7
100
AcDbLine
 10
5.23523622047244
 20
8.291338582677164
 30
0.0
 11
5.216535433070864
 21
8.274606299212598
 31
0.0
  0
LINE
  5
4038
330
1E
100
AcDbEntity
  8
7
100
AcDbLine
 10
5.246062992125983
 20
8.129921259842516
 30
0.0
 11
5.246062992125983
 21
8.153543307086611
 31
0.0
  0
LINE
  5
4039
330
1E
100
AcDbEntity
  8
7
100
AcDbLine
 10
5.246062992125983
 20
8.153543307086611
 30
0.0
 11
5.247047244094487
 21
8.178149606299212
 31
0.0
  0
LINE
  5
403A
330
1E
100
AcDbEntity
  8
7
100
AcDbLine
 10
5.247047244094487
 20
8.178149606299212
 30
0.0
 11
5.247047244094487
 21
8.203740157480313
 31
0.0
  0
LINE
  5
403B
330
1E
100
AcDbEntity
  8
7
100
AcDbLine
 10
5.247047244094487
 20
8.203740157480313
 30
0.0
 11
5.167322834645667
 21
8.203740157480313
 31
0.0
  0
LINE
  5
403C
330
1E
100
AcDbEntity
  8
7
100
AcDbLine
 10
5.155511811023621
 20
8.261811023622046
 30
0.0
 11
5.158464566929133
 21
8.260826771653542
 31
0.0
  0
LINE
  5
403D
330
1E
100
AcDbEntity
  8
7
100
AcDbLine
 10
5.158464566929133
 20
8.260826771653542
 30
0.0
 11
5.165354330708661
 21
8.259842519685037
 31
0.0
  0
LINE
  5
403E
330
1E
100
AcDbEntity
  8
7
100
AcDbLine
 10
5.168307086614173
 20
8.129921259842516
 30
0.0
 11
5.168307086614173
 21
8.153543307086611
 31
0.0
  0
LINE
  5
403F
330
1E
100
AcDbEntity
  8
7
100
AcDbLine
 10
5.168307086614173
 20
8.153543307086611
 30
0.0
 11
5.168307086614173
 21
8.178149606299212
 31
0.0
  0
LINE
  5
4040
330
1E
100
AcDbEntity
  8
7
100
AcDbLine
 10
5.168307086614173
 20
8.178149606299212
 30
0.0
 11
5.167322834645667
 21
8.203740157480313
 31
0.0
  0
LINE
  5
4041
330
1E
100
AcDbEntity
  8
7
100
AcDbLine
 10
5.157480314960628
 20
8.200787401574801
 30
0.0
 11
5.160433070866141
 21
8.202755905511811
 31
0.0
  0
LINE
  5
4042
330
1E
100
AcDbEntity
  8
7
100
AcDbLine
 10
5.160433070866141
 20
8.202755905511811
 30
0.0
 11
5.167322834645667
 21
8.203740157480313
 31
0.0
  0
LINE
  5
4043
330
1E
100
AcDbEntity
  8
7
100
AcDbLine
 10
5.158464566929133
 20
8.134842519685037
 30
0.0
 11
5.162401574803148
 21
8.130905511811024
 31
0.0
  0
LINE
  5
4044
330
1E
100
AcDbEntity
  8
7
100
AcDbLine
 10
5.162401574803148
 20
8.130905511811024
 30
0.0
 11
5.168307086614173
 21
8.129921259842516
 31
0.0
  0
LINE
  5
4045
330
1E
100
AcDbEntity
  8
7
100
AcDbLine
 10
5.246062992125983
 20
7.962598425196849
 30
0.0
 11
5.246062992125983
 21
8.129921259842516
 31
0.0
  0
LINE
  5
4046
330
1E
100
AcDbEntity
  8
7
100
AcDbLine
 10
5.246062992125983
 20
8.129921259842516
 30
0.0
 11
5.168307086614173
 21
8.129921259842516
 31
0.0
  0
LINE
  5
4047
330
1E
100
AcDbEntity
  8
7
100
AcDbLine
 10
5.266732283464566
 20
8.766732283464566
 30
0.0
 11
5.266732283464566
 21
8.364173228346455
 31
0.0
  0
LINE
  5
4048
330
1E
100
AcDbEntity
  8
7
100
AcDbLine
 10
5.266732283464566
 20
8.364173228346455
 30
0.0
 11
5.26279527559055
 21
8.199803149606298
 31
0.0
  0
LINE
  5
4049
330
1E
100
AcDbEntity
  8
7
100
AcDbLine
 10
5.26279527559055
 20
8.199803149606298
 30
0.0
 11
5.26279527559055
 21
8.178149606299212
 31
0.0
  0
LINE
  5
404A
330
1E
100
AcDbEntity
  8
7
100
AcDbLine
 10
5.26279527559055
 20
8.178149606299212
 30
0.0
 11
5.261811023622046
 21
8.157480314960627
 31
0.0
  0
LINE
  5
404B
330
1E
100
AcDbEntity
  8
7
100
AcDbLine
 10
5.261811023622046
 20
8.157480314960627
 30
0.0
 11
5.261811023622046
 21
8.136811023622046
 31
0.0
  0
LINE
  5
404C
330
1E
100
AcDbEntity
  8
7
100
AcDbLine
 10
5.261811023622046
 20
8.136811023622046
 30
0.0
 11
5.261811023622046
 21
7.981299212598424
 31
0.0
  0
LINE
  5
404D
330
1E
100
AcDbEntity
  8
7
100
AcDbLine
 10
5.261811023622046
 20
7.981299212598424
 30
0.0
 11
5.291338582677163
 21
9.12303149606299
 31
0.0
  0
LINE
  5
404E
330
1E
100
AcDbEntity
  8
7
100
AcDbLine
 10
5.291338582677163
 20
9.12303149606299
 30
0.0
 11
5.266732283464566
 21
8.766732283464566
 31
0.0
  0
LINE
  5
404F
330
1E
100
AcDbEntity
  8
7
100
AcDbLine
 10
4.500984251968502
 20
8.127952755905511
 30
0.0
 11
4.500984251968502
 21
8.122047244094487
 31
0.0
  0
LINE
  5
4050
330
1E
100
AcDbEntity
  8
7
100
AcDbLine
 10
4.500984251968502
 20
8.122047244094487
 30
0.0
 11
4.500984251968502
 21
8.114173228346455
 31
0.0
  0
LINE
  5
4051
330
1E
100
AcDbEntity
  8
7
100
AcDbLine
 10
4.361220472440943
 20
8.652559055118109
 30
0.0
 11
4.361220472440943
 21
8.766732283464566
 31
0.0
  0
LINE
  5
4052
330
1E
100
AcDbEntity
  8
7
100
AcDbLine
 10
4.361220472440943
 20
8.766732283464566
 30
0.0
 11
4.33759842519685
 21
9.12303149606299
 31
0.0
  0
LINE
  5
4053
330
1E
100
AcDbEntity
  8
7
100
AcDbLine
 10
4.36515748031496
 20
8.199803149606298
 30
0.0
 11
4.361220472440943
 21
8.364173228346455
 31
0.0
  0
LINE
  5
4054
330
1E
100
AcDbEntity
  8
7
100
AcDbLine
 10
4.361220472440943
 20
8.364173228346455
 30
0.0
 11
4.361220472440943
 21
8.53543307086614
 31
0.0
  0
LINE
  5
4055
330
1E
100
AcDbEntity
  8
7
100
AcDbLine
 10
4.352362204724409
 20
8.542322834645668
 30
0.0
 11
4.366141732283463
 21
7.981299212598424
 31
0.0
  0
LINE
  5
4056
330
1E
100
AcDbEntity
  8
7
100
AcDbLine
 10
4.366141732283463
 20
7.981299212598424
 30
0.0
 11
4.366141732283463
 21
8.136811023622046
 31
0.0
  0
LINE
  5
4057
330
1E
100
AcDbEntity
  8
7
100
AcDbLine
 10
4.366141732283463
 20
8.136811023622046
 30
0.0
 11
4.366141732283463
 21
8.157480314960627
 31
0.0
  0
LINE
  5
4058
330
1E
100
AcDbEntity
  8
7
100
AcDbLine
 10
4.366141732283463
 20
8.157480314960627
 30
0.0
 11
4.366141732283463
 21
8.178149606299212
 31
0.0
  0
LINE
  5
4059
330
1E
100
AcDbEntity
  8
7
100
AcDbLine
 10
4.366141732283463
 20
8.178149606299212
 30
0.0
 11
4.36515748031496
 21
8.199803149606298
 31
0.0
  0
LINE
  5
405A
330
1E
100
AcDbEntity
  8
7
100
AcDbLine
 10
4.384842519685038
 20
8.525590551181101
 30
0.0
 11
4.403543307086613
 21
8.515748031496062
 31
0.0
  0
LINE
  5
405B
330
1E
100
AcDbEntity
  8
7
100
AcDbLine
 10
4.403543307086613
 20
8.515748031496062
 30
0.0
 11
4.427165354330707
 21
8.508858267716535
 31
0.0
  0
LINE
  5
405C
330
1E
100
AcDbEntity
  8
7
100
AcDbLine
 10
4.427165354330707
 20
8.508858267716535
 30
0.0
 11
4.454724409448818
 21
8.506889763779527
 31
0.0
  0
LINE
  5
405D
330
1E
100
AcDbEntity
  8
7
100
AcDbLine
 10
4.454724409448818
 20
8.506889763779527
 30
0.0
 11
4.463582677165353
 21
8.506889763779527
 31
0.0
  0
LINE
  5
405E
330
1E
100
AcDbEntity
  8
7
100
AcDbLine
 10
4.463582677165353
 20
8.506889763779527
 30
0.0
 11
4.464566929133858
 21
8.52263779527559
 31
0.0
  0
LINE
  5
405F
330
1E
100
AcDbEntity
  8
7
100
AcDbLine
 10
4.500984251968502
 20
8.133858267716535
 30
0.0
 11
4.500984251968502
 21
8.127952755905511
 31
0.0
  0
LINE
  5
4060
330
1E
100
AcDbEntity
  8
7
100
AcDbLine
 10
4.500984251968502
 20
8.127952755905511
 30
0.0
 11
5.061023622047243
 21
8.127952755905511
 31
0.0
  0
LINE
  5
4061
330
1E
100
AcDbEntity
  8
7
100
AcDbLine
 10
4.471456692913385
 20
8.11318897637795
 30
0.0
 11
4.471456692913385
 21
8.12303149606299
 31
0.0
  0
LINE
  5
4062
330
1E
100
AcDbEntity
  8
7
100
AcDbLine
 10
4.471456692913385
 20
8.12303149606299
 30
0.0
 11
4.47047244094488
 21
8.139763779527557
 31
0.0
  0
LINE
  5
4063
330
1E
100
AcDbEntity
  8
7
100
AcDbLine
 10
4.47047244094488
 20
8.139763779527557
 30
0.0
 11
4.47047244094488
 21
8.16043307086614
 31
0.0
  0
LINE
  5
4064
330
1E
100
AcDbEntity
  8
7
100
AcDbLine
 10
4.47047244094488
 20
8.16043307086614
 30
0.0
 11
4.471456692913385
 21
8.184055118110235
 31
0.0
  0
LINE
  5
4065
330
1E
100
AcDbEntity
  8
7
100
AcDbLine
 10
4.471456692913385
 20
8.184055118110235
 30
0.0
 11
4.472440944881888
 21
8.206692913385825
 31
0.0
  0
LINE
  5
4066
330
1E
100
AcDbEntity
  8
7
100
AcDbLine
 10
4.472440944881888
 20
8.206692913385825
 30
0.0
 11
4.473425196850393
 21
8.225393700787401
 31
0.0
  0
LINE
  5
4067
330
1E
100
AcDbEntity
  8
7
100
AcDbLine
 10
4.473425196850393
 20
8.225393700787401
 30
0.0
 11
4.474409448818896
 21
8.239173228346455
 31
0.0
  0
LINE
  5
4068
330
1E
100
AcDbEntity
  8
7
100
AcDbLine
 10
4.474409448818896
 20
8.239173228346455
 30
0.0
 11
4.4753937007874
 21
8.246062992125981
 31
0.0
  0
LINE
  5
4069
330
1E
100
AcDbEntity
  8
7
100
AcDbLine
 10
4.473425196850393
 20
8.49803149606299
 30
0.0
 11
4.47047244094488
 21
8.494094488188974
 31
0.0
  0
LINE
  5
406A
330
1E
100
AcDbEntity
  8
7
100
AcDbLine
 10
4.47047244094488
 20
8.494094488188974
 30
0.0
 11
4.463582677165353
 21
8.493110236220472
 31
0.0
  0
LINE
  5
406B
330
1E
100
AcDbEntity
  8
7
100
AcDbLine
 10
4.473425196850393
 20
8.261811023622046
 30
0.0
 11
4.47047244094488
 21
8.260826771653542
 31
0.0
  0
LINE
  5
406C
330
1E
100
AcDbEntity
  8
7
100
AcDbLine
 10
4.47047244094488
 20
8.260826771653542
 30
0.0
 11
4.463582677165353
 21
8.259842519685037
 31
0.0
  0
LINE
  5
406D
330
1E
100
AcDbEntity
  8
7
100
AcDbLine
 10
4.471456692913385
 20
8.200787401574801
 30
0.0
 11
4.47047244094488
 21
8.178149606299212
 31
0.0
  0
LINE
  5
406E
330
1E
100
AcDbEntity
  8
7
100
AcDbLine
 10
4.47047244094488
 20
8.178149606299212
 30
0.0
 11
4.469488188976376
 21
8.155511811023622
 31
0.0
  0
LINE
  5
406F
330
1E
100
AcDbEntity
  8
7
100
AcDbLine
 10
4.469488188976376
 20
8.155511811023622
 30
0.0
 11
4.469488188976376
 21
8.134842519685037
 31
0.0
  0
LINE
  5
4070
330
1E
100
AcDbEntity
  8
7
100
AcDbLine
 10
4.469488188976376
 20
8.134842519685037
 30
0.0
 11
4.466535433070864
 21
8.130905511811024
 31
0.0
  0
LINE
  5
4071
330
1E
100
AcDbEntity
  8
7
100
AcDbLine
 10
4.466535433070864
 20
8.130905511811024
 30
0.0
 11
4.459645669291337
 21
8.129921259842516
 31
0.0
  0
LINE
  5
4072
330
1E
100
AcDbEntity
  8
7
100
AcDbLine
 10
4.471456692913385
 20
8.200787401574801
 30
0.0
 11
4.467519685039368
 21
8.202755905511811
 31
0.0
  0
LINE
  5
4073
330
1E
100
AcDbEntity
  8
7
100
AcDbLine
 10
4.467519685039368
 20
8.202755905511811
 30
0.0
 11
4.460629921259841
 21
8.203740157480313
 31
0.0
  0
LINE
  5
4074
330
1E
100
AcDbEntity
  8
7
100
AcDbLine
 10
4.477362204724409
 20
8.221456692913385
 30
0.0
 11
4.476377952755905
 21
8.234251968503937
 31
0.0
  0
LINE
  5
4075
330
1E
100
AcDbEntity
  8
7
100
AcDbLine
 10
4.476377952755905
 20
8.234251968503937
 30
0.0
 11
4.476377952755905
 21
8.241141732283463
 31
0.0
  0
LINE
  5
4076
330
1E
100
AcDbEntity
  8
7
100
AcDbLine
 10
4.476377952755905
 20
8.241141732283463
 30
0.0
 11
4.48523622047244
 21
8.241141732283463
 31
0.0
  0
LINE
  5
4077
330
1E
100
AcDbEntity
  8
7
100
AcDbLine
 10
4.463582677165353
 20
8.259842519685037
 30
0.0
 11
4.463582677165353
 21
8.493110236220472
 31
0.0
  0
LINE
  5
4078
330
1E
100
AcDbEntity
  8
7
100
AcDbLine
 10
4.463582677165353
 20
8.493110236220472
 30
0.0
 11
4.454724409448818
 21
8.493110236220472
 31
0.0
  0
LINE
  5
4079
330
1E
100
AcDbEntity
  8
7
100
AcDbLine
 10
4.454724409448818
 20
8.493110236220472
 30
0.0
 11
4.454724409448818
 21
8.259842519685037
 31
0.0
  0
LINE
  5
407A
330
1E
100
AcDbEntity
  8
7
100
AcDbLine
 10
4.380905511811023
 20
8.203740157480313
 30
0.0
 11
4.381889763779525
 21
8.178149606299212
 31
0.0
  0
LINE
  5
407B
330
1E
100
AcDbEntity
  8
7
100
AcDbLine
 10
4.381889763779525
 20
8.178149606299212
 30
0.0
 11
4.381889763779525
 21
8.153543307086611
 31
0.0
  0
LINE
  5
407C
330
1E
100
AcDbEntity
  8
7
100
AcDbLine
 10
4.381889763779525
 20
8.153543307086611
 30
0.0
 11
4.381889763779525
 21
8.129921259842516
 31
0.0
  0
LINE
  5
407D
330
1E
100
AcDbEntity
  8
7
100
AcDbLine
 10
4.381889763779525
 20
8.129921259842516
 30
0.0
 11
4.459645669291337
 21
8.129921259842516
 31
0.0
  0
LINE
  5
407E
330
1E
100
AcDbEntity
  8
7
100
AcDbLine
 10
4.459645669291337
 20
8.129921259842516
 30
0.0
 11
4.459645669291337
 21
8.153543307086611
 31
0.0
  0
LINE
  5
407F
330
1E
100
AcDbEntity
  8
7
100
AcDbLine
 10
4.459645669291337
 20
8.153543307086611
 30
0.0
 11
4.460629921259841
 21
8.178149606299212
 31
0.0
  0
LINE
  5
4080
330
1E
100
AcDbEntity
  8
7
100
AcDbLine
 10
4.460629921259841
 20
8.178149606299212
 30
0.0
 11
4.460629921259841
 21
8.203740157480313
 31
0.0
  0
LINE
  5
4081
330
1E
100
AcDbEntity
  8
7
100
AcDbLine
 10
5.252952755905512
 20
7.962598425196849
 30
0.0
 11
5.246062992125983
 21
7.962598425196849
 31
0.0
  0
LINE
  5
4082
330
1E
100
AcDbEntity
  8
7
100
AcDbLine
 10
5.246062992125983
 20
7.962598425196849
 30
0.0
 11
5.168307086614173
 21
7.962598425196849
 31
0.0
  0
LINE
  5
4083
330
1E
100
AcDbEntity
  8
7
100
AcDbLine
 10
4.381889763779525
 20
7.962598425196849
 30
0.0
 11
4.375984251968502
 21
7.962598425196849
 31
0.0
  0
LINE
  5
4084
330
1E
100
AcDbEntity
  8
7
100
AcDbLine
 10
4.375984251968502
 20
7.962598425196849
 30
0.0
 11
4.033464566929133
 21
7.962598425196849
 31
0.0
  0
LINE
  5
4085
330
1E
100
AcDbEntity
  8
7
100
AcDbLine
 10
5.174212598425196
 20
8.721456692913385
 30
0.0
 11
5.174212598425196
 21
8.749015748031496
 31
0.0
  0
LINE
  5
4086
330
1E
100
AcDbEntity
  8
7
100
AcDbLine
 10
5.174212598425196
 20
8.749015748031496
 30
0.0
 11
5.174212598425196
 21
8.777559055118109
 31
0.0
  0
LINE
  5
4087
330
1E
100
AcDbEntity
  8
7
100
AcDbLine
 10
5.174212598425196
 20
8.777559055118109
 30
0.0
 11
5.174212598425196
 21
8.80511811023622
 31
0.0
  0
LINE
  5
4088
330
1E
100
AcDbEntity
  8
7
100
AcDbLine
 10
5.174212598425196
 20
8.80511811023622
 30
0.0
 11
5.174212598425196
 21
8.829724409448818
 31
0.0
  0
LINE
  5
4089
330
1E
100
AcDbEntity
  8
7
100
AcDbLine
 10
5.174212598425196
 20
8.829724409448818
 30
0.0
 11
5.174212598425196
 21
8.848425196850392
 31
0.0
  0
LINE
  5
408A
330
1E
100
AcDbEntity
  8
7
100
AcDbLine
 10
5.174212598425196
 20
8.848425196850392
 30
0.0
 11
4.454724409448818
 21
8.848425196850392
 31
0.0
  0
LINE
  5
408B
330
1E
100
AcDbEntity
  8
7
100
AcDbLine
 10
4.454724409448818
 20
8.848425196850392
 30
0.0
 11
4.454724409448818
 21
8.829724409448818
 31
0.0
  0
LINE
  5
408C
330
1E
100
AcDbEntity
  8
7
100
AcDbLine
 10
4.454724409448818
 20
8.829724409448818
 30
0.0
 11
4.454724409448818
 21
8.80511811023622
 31
0.0
  0
LINE
  5
408D
330
1E
100
AcDbEntity
  8
7
100
AcDbLine
 10
4.454724409448818
 20
8.80511811023622
 30
0.0
 11
4.454724409448818
 21
8.777559055118109
 31
0.0
  0
LINE
  5
408E
330
1E
100
AcDbEntity
  8
7
100
AcDbLine
 10
4.454724409448818
 20
8.777559055118109
 30
0.0
 11
4.454724409448818
 21
8.749015748031496
 31
0.0
  0
LINE
  5
408F
330
1E
100
AcDbEntity
  8
7
100
AcDbLine
 10
4.454724409448818
 20
8.749015748031496
 30
0.0
 11
4.454724409448818
 21
8.721456692913385
 31
0.0
  0
LINE
  5
4090
330
1E
100
AcDbEntity
  8
7
100
AcDbLine
 10
4.454724409448818
 20
8.721456692913385
 30
0.0
 11
4.454724409448818
 21
8.663385826771651
 31
0.0
  0
LINE
  5
4091
330
1E
100
AcDbEntity
  8
7
100
AcDbLine
 10
4.454724409448818
 20
8.663385826771651
 30
0.0
 11
5.165354330708661
 21
8.663385826771651
 31
0.0
  0
LINE
  5
4092
330
1E
100
AcDbEntity
  8
7
100
AcDbLine
 10
5.165354330708661
 20
8.259842519685037
 30
0.0
 11
5.174212598425196
 21
8.259842519685037
 31
0.0
  0
LINE
  5
4093
330
1E
100
AcDbEntity
  8
7
100
AcDbLine
 10
5.174212598425196
 20
8.259842519685037
 30
0.0
 11
5.174212598425196
 21
8.721456692913385
 31
0.0
  0
LINE
  5
4094
330
1E
100
AcDbEntity
  8
7
100
AcDbLine
 10
4.4753937007874
 20
8.246062992125981
 30
0.0
 11
4.4753937007874
 21
8.245078740157479
 31
0.0
  0
LINE
  5
4095
330
1E
100
AcDbEntity
  8
7
100
AcDbLine
 10
4.4753937007874
 20
8.245078740157479
 30
0.0
 11
4.48523622047244
 21
8.245078740157479
 31
0.0
  0
LINE
  5
4096
330
1E
100
AcDbEntity
  8
7
100
AcDbLine
 10
4.369094488188975
 20
8.521653543307087
 30
0.0
 11
4.370078740157478
 21
8.523622047244092
 31
0.0
  0
LINE
  5
4097
330
1E
100
AcDbEntity
  8
7
100
AcDbLine
 10
4.370078740157478
 20
8.523622047244092
 30
0.0
 11
4.371062992125984
 21
8.526574803149605
 31
0.0
  0
LINE
  5
4098
330
1E
100
AcDbEntity
  8
7
100
AcDbLine
 10
4.371062992125984
 20
8.526574803149605
 30
0.0
 11
4.375984251968502
 21
8.529527559055116
 31
0.0
  0
LINE
  5
4099
330
1E
100
AcDbEntity
  8
7
100
AcDbLine
 10
4.372047244094487
 20
8.685039370078737
 30
0.0
 11
4.370078740157478
 21
8.686023622047244
 31
0.0
  0
LINE
  5
409A
330
1E
100
AcDbEntity
  8
7
100
AcDbLine
 10
4.370078740157478
 20
8.686023622047244
 30
0.0
 11
4.369094488188975
 21
8.688976377952753
 31
0.0
  0
LINE
  5
409B
330
1E
100
AcDbEntity
  8
7
100
AcDbLine
 10
4.369094488188975
 20
8.688976377952753
 30
0.0
 11
4.369094488188975
 21
8.689960629921259
 31
0.0
  0
LINE
  5
409C
330
1E
100
AcDbEntity
  8
7
100
AcDbLine
 10
4.369094488188975
 20
8.689960629921259
 30
0.0
 11
4.369094488188975
 21
8.656496062992124
 31
0.0
  0
LINE
  5
409D
330
1E
100
AcDbEntity
  8
7
100
AcDbLine
 10
5.061023622047243
 20
8.118110236220472
 30
0.0
 11
5.061023622047243
 21
8.127952755905511
 31
0.0
  0
LINE
  5
409E
330
1E
100
AcDbEntity
  8
7
100
AcDbLine
 10
5.061023622047243
 20
8.127952755905511
 30
0.0
 11
5.061023622047243
 21
8.132874015748031
 31
0.0
  0
LINE
  5
409F
330
1E
100
AcDbEntity
  8
7
100
AcDbLine
 10
5.061023622047243
 20
8.155511811023622
 30
0.0
 11
5.061023622047243
 21
8.140748031496062
 31
0.0
  0
LINE
  5
40A0
330
1E
100
AcDbEntity
  8
7
100
AcDbLine
 10
5.061023622047243
 20
8.140748031496062
 30
0.0
 11
5.061023622047243
 21
8.132874015748031
 31
0.0
  0
LINE
  5
40A1
330
1E
100
AcDbEntity
  8
7
100
AcDbLine
 10
5.061023622047243
 20
8.19291338582677
 30
0.0
 11
5.061023622047243
 21
8.174212598425196
 31
0.0
  0
LINE
  5
40A2
330
1E
100
AcDbEntity
  8
7
100
AcDbLine
 10
5.061023622047243
 20
8.174212598425196
 30
0.0
 11
5.061023622047243
 21
8.155511811023622
 31
0.0
  0
LINE
  5
40A3
330
1E
100
AcDbEntity
  8
7
100
AcDbLine
 10
4.473425196850393
 20
8.089566929133857
 30
0.0
 11
4.473425196850393
 21
8.072834645669288
 31
0.0
  0
LINE
  5
40A4
330
1E
100
AcDbEntity
  8
7
100
AcDbLine
 10
4.473425196850393
 20
8.072834645669288
 30
0.0
 11
4.472440944881888
 21
8.055118110236218
 31
0.0
  0
LINE
  5
40A5
330
1E
100
AcDbEntity
  8
7
100
AcDbLine
 10
4.702755905511811
 20
8.010826771653542
 30
0.0
 11
4.705708661417322
 21
8.046259842519685
 31
0.0
  0
LINE
  5
40A6
330
1E
100
AcDbEntity
  8
7
100
AcDbLine
 10
4.705708661417322
 20
8.046259842519685
 30
0.0
 11
4.923228346456691
 21
8.046259842519685
 31
0.0
  0
LINE
  5
40A7
330
1E
100
AcDbEntity
  8
7
100
AcDbLine
 10
5.155511811023621
 20
8.055118110236218
 30
0.0
 11
4.472440944881888
 21
8.055118110236218
 31
0.0
  0
LINE
  5
40A8
330
1E
100
AcDbEntity
  8
7
100
AcDbLine
 10
4.472440944881888
 20
8.055118110236218
 30
0.0
 11
4.471456692913385
 21
8.010826771653542
 31
0.0
  0
LINE
  5
40A9
330
1E
100
AcDbEntity
  8
7
100
AcDbLine
 10
4.47047244094488
 20
7.962598425196849
 30
0.0
 11
4.47047244094488
 21
7.976377952755905
 31
0.0
  0
LINE
  5
40AA
330
1E
100
AcDbEntity
  8
7
100
AcDbLine
 10
4.47047244094488
 20
7.976377952755905
 30
0.0
 11
4.47047244094488
 21
7.993110236220473
 31
0.0
  0
LINE
  5
40AB
330
1E
100
AcDbEntity
  8
7
100
AcDbLine
 10
4.47047244094488
 20
7.993110236220473
 30
0.0
 11
4.471456692913385
 21
8.010826771653542
 31
0.0
  0
LINE
  5
40AC
330
1E
100
AcDbEntity
  8
7
100
AcDbLine
 10
4.702755905511811
 20
8.010826771653542
 30
0.0
 11
4.702755905511811
 21
7.994094488188975
 31
0.0
  0
LINE
  5
40AD
330
1E
100
AcDbEntity
  8
7
100
AcDbLine
 10
4.702755905511811
 20
7.994094488188975
 30
0.0
 11
4.701771653543306
 21
7.978346456692912
 31
0.0
  0
LINE
  5
40AE
330
1E
100
AcDbEntity
  8
7
100
AcDbLine
 10
4.701771653543306
 20
7.978346456692912
 30
0.0
 11
4.701771653543306
 21
7.963582677165351
 31
0.0
  0
LINE
  5
40AF
330
1E
100
AcDbEntity
  8
7
100
AcDbLine
 10
4.9251968503937
 20
8.010826771653542
 30
0.0
 11
4.926181102362204
 21
7.994094488188975
 31
0.0
  0
LINE
  5
40B0
330
1E
100
AcDbEntity
  8
7
100
AcDbLine
 10
4.926181102362204
 20
7.994094488188975
 30
0.0
 11
4.926181102362204
 21
7.978346456692912
 31
0.0
  0
LINE
  5
40B1
330
1E
100
AcDbEntity
  8
7
100
AcDbLine
 10
4.926181102362204
 20
7.978346456692912
 30
0.0
 11
4.926181102362204
 21
7.963582677165351
 31
0.0
  0
LINE
  5
40B2
330
1E
100
AcDbEntity
  8
7
100
AcDbLine
 10
4.926181102362204
 20
7.963582677165351
 30
0.0
 11
4.701771653543306
 21
7.963582677165351
 31
0.0
  0
LINE
  5
40B3
330
1E
100
AcDbEntity
  8
7
100
AcDbLine
 10
5.157480314960628
 20
8.200787401574801
 30
0.0
 11
5.158464566929133
 21
8.178149606299212
 31
0.0
  0
LINE
  5
40B4
330
1E
100
AcDbEntity
  8
7
100
AcDbLine
 10
5.158464566929133
 20
8.178149606299212
 30
0.0
 11
5.158464566929133
 21
8.155511811023622
 31
0.0
  0
LINE
  5
40B5
330
1E
100
AcDbEntity
  8
7
100
AcDbLine
 10
5.158464566929133
 20
8.155511811023622
 30
0.0
 11
5.158464566929133
 21
8.134842519685037
 31
0.0
  0
LINE
  5
40B6
330
1E
100
AcDbEntity
  8
7
100
AcDbLine
 10
5.158464566929133
 20
7.962598425196849
 30
0.0
 11
5.158464566929133
 21
7.976377952755905
 31
0.0
  0
LINE
  5
40B7
330
1E
100
AcDbEntity
  8
7
100
AcDbLine
 10
5.158464566929133
 20
7.976377952755905
 30
0.0
 11
5.157480314960628
 21
7.993110236220473
 31
0.0
  0
LINE
  5
40B8
330
1E
100
AcDbEntity
  8
7
100
AcDbLine
 10
5.157480314960628
 20
7.993110236220473
 30
0.0
 11
5.157480314960628
 21
8.010826771653542
 31
0.0
  0
LINE
  5
40B9
330
1E
100
AcDbEntity
  8
7
100
AcDbLine
 10
5.154527559055117
 20
8.089566929133857
 30
0.0
 11
5.155511811023621
 21
8.072834645669288
 31
0.0
  0
LINE
  5
40BA
330
1E
100
AcDbEntity
  8
7
100
AcDbLine
 10
5.155511811023621
 20
8.072834645669288
 30
0.0
 11
5.155511811023621
 21
8.055118110236218
 31
0.0
  0
LINE
  5
40BB
330
1E
100
AcDbEntity
  8
7
100
AcDbLine
 10
5.155511811023621
 20
8.055118110236218
 30
0.0
 11
5.157480314960628
 21
8.010826771653542
 31
0.0
  0
LINE
  5
40BC
330
1E
100
AcDbEntity
  8
7
100
AcDbLine
 10
5.15255905511811
 20
8.231299212598424
 30
0.0
 11
5.154527559055117
 21
8.21751968503937
 31
0.0
  0
LINE
  5
40BD
330
1E
100
AcDbEntity
  8
7
100
AcDbLine
 10
5.154527559055117
 20
8.21751968503937
 30
0.0
 11
5.155511811023621
 21
8.205708661417322
 31
0.0
  0
LINE
  5
40BE
330
1E
100
AcDbEntity
  8
7
100
AcDbLine
 10
5.155511811023621
 20
8.205708661417322
 30
0.0
 11
5.155511811023621
 21
8.189960629921259
 31
0.0
  0
LINE
  5
40BF
330
1E
100
AcDbEntity
  8
7
100
AcDbLine
 10
5.155511811023621
 20
8.189960629921259
 30
0.0
 11
5.156496062992125
 21
8.172244094488188
 31
0.0
  0
LINE
  5
40C0
330
1E
100
AcDbEntity
  8
7
100
AcDbLine
 10
5.156496062992125
 20
8.172244094488188
 30
0.0
 11
5.156496062992125
 21
8.155511811023622
 31
0.0
  0
LINE
  5
40C1
330
1E
100
AcDbEntity
  8
7
100
AcDbLine
 10
5.156496062992125
 20
8.155511811023622
 30
0.0
 11
5.156496062992125
 21
8.140748031496062
 31
0.0
  0
LINE
  5
40C2
330
1E
100
AcDbEntity
  8
7
100
AcDbLine
 10
5.156496062992125
 20
8.140748031496062
 30
0.0
 11
5.155511811023621
 21
8.132874015748031
 31
0.0
  0
LINE
  5
40C3
330
1E
100
AcDbEntity
  8
7
100
AcDbLine
 10
4.454724409448818
 20
8.259842519685037
 30
0.0
 11
4.432086614173226
 21
8.263779527559055
 31
0.0
  0
LINE
  5
40C4
330
1E
100
AcDbEntity
  8
7
100
AcDbLine
 10
4.432086614173226
 20
8.263779527559055
 30
0.0
 11
4.411417322834644
 21
8.274606299212598
 31
0.0
  0
LINE
  5
40C5
330
1E
100
AcDbEntity
  8
7
100
AcDbLine
 10
4.411417322834644
 20
8.274606299212598
 30
0.0
 11
4.393700787401573
 21
8.291338582677164
 31
0.0
  0
LINE
  5
40C6
330
1E
100
AcDbEntity
  8
7
100
AcDbLine
 10
4.393700787401573
 20
8.291338582677164
 30
0.0
 11
4.377952755905511
 21
8.313976377952753
 31
0.0
  0
LINE
  5
40C7
330
1E
100
AcDbEntity
  8
7
100
AcDbLine
 10
4.377952755905511
 20
8.313976377952753
 30
0.0
 11
4.380905511811023
 21
8.203740157480313
 31
0.0
  0
LINE
  5
40C8
330
1E
100
AcDbEntity
  8
7
100
AcDbLine
 10
4.380905511811023
 20
8.203740157480313
 30
0.0
 11
4.460629921259841
 21
8.203740157480313
 31
0.0
  0
LINE
  5
40C9
330
1E
100
AcDbEntity
  8
7
100
AcDbLine
 10
4.460629921259841
 20
8.203740157480313
 30
0.0
 11
4.463582677165353
 21
8.259842519685037
 31
0.0
  0
LINE
  5
40CA
330
1E
100
AcDbEntity
  8
7
100
AcDbLine
 10
4.463582677165353
 20
8.259842519685037
 30
0.0
 11
4.454724409448818
 21
8.259842519685037
 31
0.0
  0
LINE
  5
40CB
330
1E
100
AcDbEntity
  8
7
100
AcDbLine
 10
4.422244094488188
 20
8.661417322834642
 30
0.0
 11
4.403543307086613
 21
8.661417322834642
 31
0.0
  0
LINE
  5
40CC
330
1E
100
AcDbEntity
  8
7
100
AcDbLine
 10
4.403543307086613
 20
8.661417322834642
 30
0.0
 11
4.375
 21
8.656496062992124
 31
0.0
  0
LINE
  5
40CD
330
1E
100
AcDbEntity
  8
7
100
AcDbLine
 10
4.375
 20
8.656496062992124
 30
0.0
 11
4.3503937007874
 21
8.64271653543307
 31
0.0
  0
LINE
  5
40CE
330
1E
100
AcDbEntity
  8
7
100
AcDbLine
 10
4.3503937007874
 20
8.64271653543307
 30
0.0
 11
4.334645669291337
 21
8.622047244094487
 31
0.0
  0
LINE
  5
40CF
330
1E
100
AcDbEntity
  8
7
100
AcDbLine
 10
4.334645669291337
 20
8.622047244094487
 30
0.0
 11
4.328740157480313
 21
8.596456692913385
 31
0.0
  0
LINE
  5
40D0
330
1E
100
AcDbEntity
  8
7
100
AcDbLine
 10
4.403543307086613
 20
8.661417322834642
 30
0.0
 11
4.403543307086613
 21
8.663385826771651
 31
0.0
  0
LINE
  5
40D1
330
1E
100
AcDbEntity
  8
7
100
AcDbLine
 10
4.403543307086613
 20
8.663385826771651
 30
0.0
 11
4.403543307086613
 21
8.664370078740157
 31
0.0
  0
LINE
  5
40D2
330
1E
100
AcDbEntity
  8
7
100
AcDbLine
 10
5.143700787401574
 20
8.644685039370076
 30
0.0
 11
5.140748031496062
 21
8.652559055118109
 31
0.0
  0
LINE
  5
40D3
330
1E
100
AcDbEntity
  8
7
100
AcDbLine
 10
5.140748031496062
 20
8.652559055118109
 30
0.0
 11
5.134842519685038
 21
8.658464566929133
 31
0.0
  0
LINE
  5
40D4
330
1E
100
AcDbEntity
  8
7
100
AcDbLine
 10
5.143700787401574
 20
8.223425196850392
 30
0.0
 11
5.13779527559055
 21
8.216535433070866
 31
0.0
  0
LINE
  5
40D5
330
1E
100
AcDbEntity
  8
7
100
AcDbLine
 10
5.13779527559055
 20
8.216535433070866
 30
0.0
 11
5.12303149606299
 21
8.213582677165351
 31
0.0
  0
LINE
  5
40D6
330
1E
100
AcDbEntity
  8
7
100
AcDbLine
 10
5.12303149606299
 20
8.656496062992124
 30
0.0
 11
5.13779527559055
 21
8.651574803149605
 31
0.0
  0
LINE
  5
40D7
330
1E
100
AcDbEntity
  8
7
100
AcDbLine
 10
5.13779527559055
 20
8.651574803149605
 30
0.0
 11
5.143700787401574
 21
8.639763779527557
 31
0.0
  0
LINE
  5
40D8
330
1E
100
AcDbEntity
  8
7
100
AcDbLine
 10
5.143700787401574
 20
8.639763779527557
 30
0.0
 11
5.13779527559055
 21
8.631889763779527
 31
0.0
  0
LINE
  5
40D9
330
1E
100
AcDbEntity
  8
7
100
AcDbLine
 10
5.13779527559055
 20
8.631889763779527
 30
0.0
 11
5.12303149606299
 21
8.628937007874013
 31
0.0
  0
LINE
  5
40DA
330
1E
100
AcDbEntity
  8
7
100
AcDbLine
 10
5.12303149606299
 20
8.656496062992124
 30
0.0
 11
5.12303149606299
 21
8.644685039370076
 31
0.0
  0
LINE
  5
40DB
330
1E
100
AcDbEntity
  8
7
100
AcDbLine
 10
5.12303149606299
 20
8.644685039370076
 30
0.0
 11
5.12303149606299
 21
8.628937007874013
 31
0.0
  0
LINE
  5
40DC
330
1E
100
AcDbEntity
  8
7
100
AcDbLine
 10
4.328740157480313
 20
8.589566929133857
 30
0.0
 11
4.333661417322834
 21
8.615157480314961
 31
0.0
  0
LINE
  5
40DD
330
1E
100
AcDbEntity
  8
7
100
AcDbLine
 10
4.333661417322834
 20
8.615157480314961
 30
0.0
 11
4.349409448818897
 21
8.636811023622046
 31
0.0
  0
LINE
  5
40DE
330
1E
100
AcDbEntity
  8
7
100
AcDbLine
 10
4.349409448818897
 20
8.636811023622046
 30
0.0
 11
4.374015748031495
 21
8.651574803149605
 31
0.0
  0
LINE
  5
40DF
330
1E
100
AcDbEntity
  8
7
100
AcDbLine
 10
4.374015748031495
 20
8.651574803149605
 30
0.0
 11
4.403543307086613
 21
8.656496062992124
 31
0.0
  0
LINE
  5
40E0
330
1E
100
AcDbEntity
  8
7
100
AcDbLine
 10
4.403543307086613
 20
8.656496062992124
 30
0.0
 11
4.403543307086613
 21
8.644685039370076
 31
0.0
  0
LINE
  5
40E1
330
1E
100
AcDbEntity
  8
7
100
AcDbLine
 10
4.403543307086613
 20
8.644685039370076
 30
0.0
 11
4.403543307086613
 21
8.628937007874013
 31
0.0
  0
LINE
  5
40E2
330
1E
100
AcDbEntity
  8
7
100
AcDbLine
 10
4.403543307086613
 20
8.523622047244092
 30
0.0
 11
4.403543307086613
 21
8.526574803149605
 31
0.0
  0
LINE
  5
40E3
330
1E
100
AcDbEntity
  8
7
100
AcDbLine
 10
4.403543307086613
 20
8.526574803149605
 30
0.0
 11
4.403543307086613
 21
8.534448818897637
 31
0.0
  0
LINE
  5
40E4
330
1E
100
AcDbEntity
  8
7
100
AcDbLine
 10
4.455708661417322
 20
8.523622047244092
 30
0.0
 11
4.455708661417322
 21
8.526574803149605
 31
0.0
  0
LINE
  5
40E5
330
1E
100
AcDbEntity
  8
7
100
AcDbLine
 10
4.455708661417322
 20
8.526574803149605
 30
0.0
 11
4.455708661417322
 21
8.534448818897637
 31
0.0
  0
LINE
  5
40E6
330
1E
100
AcDbEntity
  8
7
100
AcDbLine
 10
4.48523622047244
 20
8.500984251968503
 30
0.0
 11
4.491141732283463
 21
8.494094488188974
 31
0.0
  0
LINE
  5
40E7
330
1E
100
AcDbEntity
  8
7
100
AcDbLine
 10
4.491141732283463
 20
8.494094488188974
 30
0.0
 11
4.504921259842518
 21
8.491141732283463
 31
0.0
  0
LINE
  5
40E8
330
1E
100
AcDbEntity
  8
7
100
AcDbLine
 10
4.499015748031495
 20
8.51279527559055
 30
0.0
 11
4.504921259842518
 21
8.491141732283463
 31
0.0
  0
LINE
  5
40E9
330
1E
100
AcDbEntity
  8
7
100
AcDbLine
 10
4.504921259842518
 20
8.491141732283463
 30
0.0
 11
4.504921259842518
 21
8.206692913385825
 31
0.0
  0
LINE
  5
40EA
330
1E
100
AcDbEntity
  8
7
100
AcDbLine
 10
5.12303149606299
 20
8.213582677165351
 30
0.0
 11
5.12303149606299
 21
8.628937007874013
 31
0.0
  0
LINE
  5
40EB
330
1E
100
AcDbEntity
  8
7
100
AcDbLine
 10
5.12303149606299
 20
8.628937007874013
 30
0.0
 11
4.403543307086613
 21
8.628937007874013
 31
0.0
  0
LINE
  5
40EC
330
1E
100
AcDbEntity
  8
7
100
AcDbLine
 10
4.403543307086613
 20
8.628937007874013
 30
0.0
 11
4.382874015748031
 21
8.625984251968503
 31
0.0
  0
LINE
  5
40ED
330
1E
100
AcDbEntity
  8
7
100
AcDbLine
 10
4.382874015748031
 20
8.625984251968503
 30
0.0
 11
4.36515748031496
 21
8.615157480314961
 31
0.0
  0
LINE
  5
40EE
330
1E
100
AcDbEntity
  8
7
100
AcDbLine
 10
4.36515748031496
 20
8.615157480314961
 30
0.0
 11
4.353346456692912
 21
8.600393700787401
 31
0.0
  0
LINE
  5
40EF
330
1E
100
AcDbEntity
  8
7
100
AcDbLine
 10
4.353346456692912
 20
8.600393700787401
 30
0.0
 11
4.348425196850392
 21
8.581692913385825
 31
0.0
  0
LINE
  5
40F0
330
1E
100
AcDbEntity
  8
7
100
AcDbLine
 10
4.348425196850392
 20
8.581692913385825
 30
0.0
 11
4.353346456692912
 21
8.563976377952753
 31
0.0
  0
LINE
  5
40F1
330
1E
100
AcDbEntity
  8
7
100
AcDbLine
 10
4.353346456692912
 20
8.563976377952753
 30
0.0
 11
4.36515748031496
 21
8.548228346456692
 31
0.0
  0
LINE
  5
40F2
330
1E
100
AcDbEntity
  8
7
100
AcDbLine
 10
4.36515748031496
 20
8.548228346456692
 30
0.0
 11
4.382874015748031
 21
8.537401574803148
 31
0.0
  0
LINE
  5
40F3
330
1E
100
AcDbEntity
  8
7
100
AcDbLine
 10
4.382874015748031
 20
8.537401574803148
 30
0.0
 11
4.403543307086613
 21
8.534448818897637
 31
0.0
  0
LINE
  5
40F4
330
1E
100
AcDbEntity
  8
7
100
AcDbLine
 10
4.403543307086613
 20
8.534448818897637
 30
0.0
 11
4.455708661417322
 21
8.534448818897637
 31
0.0
  0
LINE
  5
40F5
330
1E
100
AcDbEntity
  8
7
100
AcDbLine
 10
4.455708661417322
 20
8.534448818897637
 30
0.0
 11
4.480314960629921
 21
8.528543307086611
 31
0.0
  0
LINE
  5
40F6
330
1E
100
AcDbEntity
  8
7
100
AcDbLine
 10
4.480314960629921
 20
8.528543307086611
 30
0.0
 11
4.499015748031495
 21
8.51279527559055
 31
0.0
  0
LINE
  5
40F7
330
1E
100
AcDbEntity
  8
7
100
AcDbLine
 10
5.068897637795275
 20
8.213582677165351
 30
0.0
 11
5.06299212598425
 21
8.211614173228346
 31
0.0
  0
LINE
  5
40F8
330
1E
100
AcDbEntity
  8
7
100
AcDbLine
 10
5.06299212598425
 20
8.211614173228346
 30
0.0
 11
5.061023622047243
 21
8.206692913385825
 31
0.0
  0
LINE
  5
40F9
330
1E
100
AcDbEntity
  8
7
100
AcDbLine
 10
5.010826771653541
 20
8.190944881889762
 30
0.0
 11
5.010826771653541
 21
8.198818897637794
 31
0.0
  0
LINE
  5
40FA
330
1E
100
AcDbEntity
  8
7
100
AcDbLine
 10
5.010826771653541
 20
8.198818897637794
 30
0.0
 11
5.010826771653541
 21
8.206692913385825
 31
0.0
  0
LINE
  5
40FB
330
1E
100
AcDbEntity
  8
7
100
AcDbLine
 10
5.010826771653541
 20
8.206692913385825
 30
0.0
 11
5.061023622047243
 21
8.206692913385825
 31
0.0
  0
LINE
  5
40FC
330
1E
100
AcDbEntity
  8
7
100
AcDbLine
 10
5.010826771653541
 20
8.190944881889762
 30
0.0
 11
5.010826771653541
 21
8.170275590551181
 31
0.0
  0
LINE
  5
40FD
330
1E
100
AcDbEntity
  8
7
100
AcDbLine
 10
5.010826771653541
 20
8.170275590551181
 30
0.0
 11
5.010826771653541
 21
8.151574803149605
 31
0.0
  0
LINE
  5
40FE
330
1E
100
AcDbEntity
  8
7
100
AcDbLine
 10
5.010826771653541
 20
8.151574803149605
 30
0.0
 11
5.010826771653541
 21
8.13779527559055
 31
0.0
  0
LINE
  5
40FF
330
1E
100
AcDbEntity
  8
7
100
AcDbLine
 10
5.010826771653541
 20
8.13779527559055
 30
0.0
 11
5.010826771653541
 21
8.133858267716535
 31
0.0
  0
LINE
  5
4100
330
1E
100
AcDbEntity
  8
7
100
AcDbLine
 10
4.471456692913385
 20
8.158464566929133
 30
0.0
 11
4.477362204724409
 21
8.161417322834642
 31
0.0
  0
LINE
  5
4101
330
1E
100
AcDbEntity
  8
7
100
AcDbLine
 10
4.477362204724409
 20
8.161417322834642
 30
0.0
 11
4.477362204724409
 21
8.168307086614172
 31
0.0
  0
LINE
  5
4102
330
1E
100
AcDbEntity
  8
7
100
AcDbLine
 10
4.477362204724409
 20
8.168307086614172
 30
0.0
 11
4.471456692913385
 21
8.171259842519685
 31
0.0
  0
LINE
  5
4103
330
1E
100
AcDbEntity
  8
7
100
AcDbLine
 10
4.48523622047244
 20
8.214566929133857
 30
0.0
 11
4.48523622047244
 21
8.215551181102361
 31
0.0
  0
LINE
  5
4104
330
1E
100
AcDbEntity
  8
7
100
AcDbLine
 10
4.48523622047244
 20
8.215551181102361
 30
0.0
 11
4.48523622047244
 21
8.216535433070866
 31
0.0
  0
LINE
  5
4105
330
1E
100
AcDbEntity
  8
7
100
AcDbLine
 10
4.504921259842518
 20
8.206692913385825
 30
0.0
 11
4.491141732283463
 21
8.209645669291337
 31
0.0
  0
LINE
  5
4106
330
1E
100
AcDbEntity
  8
7
100
AcDbLine
 10
4.491141732283463
 20
8.209645669291337
 30
0.0
 11
4.48523622047244
 21
8.216535433070866
 31
0.0
  0
LINE
  5
4107
330
1E
100
AcDbEntity
  8
7
100
AcDbLine
 10
4.504921259842518
 20
8.206692913385825
 30
0.0
 11
4.504921259842518
 21
8.198818897637794
 31
0.0
  0
LINE
  5
4108
330
1E
100
AcDbEntity
  8
7
100
AcDbLine
 10
4.504921259842518
 20
8.198818897637794
 30
0.0
 11
4.504921259842518
 21
8.190944881889762
 31
0.0
  0
LINE
  5
4109
330
1E
100
AcDbEntity
  8
7
100
AcDbLine
 10
4.489173228346456
 20
8.188976377952753
 30
0.0
 11
4.49015748031496
 21
8.188976377952753
 31
0.0
  0
LINE
  5
410A
330
1E
100
AcDbEntity
  8
7
100
AcDbLine
 10
4.49015748031496
 20
8.188976377952753
 30
0.0
 11
4.491141732283463
 21
8.194881889763777
 31
0.0
  0
LINE
  5
410B
330
1E
100
AcDbEntity
  8
7
100
AcDbLine
 10
4.491141732283463
 20
8.194881889763777
 30
0.0
 11
4.49015748031496
 21
8.199803149606298
 31
0.0
  0
LINE
  5
410C
330
1E
100
AcDbEntity
  8
7
100
AcDbLine
 10
4.49015748031496
 20
8.199803149606298
 30
0.0
 11
4.487204724409448
 21
8.206692913385825
 31
0.0
  0
LINE
  5
410D
330
1E
100
AcDbEntity
  8
7
100
AcDbLine
 10
4.487204724409448
 20
8.206692913385825
 30
0.0
 11
4.48523622047244
 21
8.212598425196848
 31
0.0
  0
LINE
  5
410E
330
1E
100
AcDbEntity
  8
7
100
AcDbLine
 10
4.48523622047244
 20
8.212598425196848
 30
0.0
 11
4.48523622047244
 21
8.214566929133857
 31
0.0
  0
LINE
  5
410F
330
1E
100
AcDbEntity
  8
7
100
AcDbLine
 10
4.489173228346456
 20
8.188976377952753
 30
0.0
 11
4.496062992125983
 21
8.190944881889762
 31
0.0
  0
LINE
  5
4110
330
1E
100
AcDbEntity
  8
7
100
AcDbLine
 10
4.496062992125983
 20
8.190944881889762
 30
0.0
 11
4.504921259842518
 21
8.190944881889762
 31
0.0
  0
LINE
  5
4111
330
1E
100
AcDbEntity
  8
7
100
AcDbLine
 10
4.504921259842518
 20
8.151574803149605
 30
0.0
 11
4.504921259842518
 21
8.13779527559055
 31
0.0
  0
LINE
  5
4112
330
1E
100
AcDbEntity
  8
7
100
AcDbLine
 10
4.504921259842518
 20
8.13779527559055
 30
0.0
 11
4.504921259842518
 21
8.133858267716535
 31
0.0
  0
LINE
  5
4113
330
1E
100
AcDbEntity
  8
7
100
AcDbLine
 10
4.504921259842518
 20
8.190944881889762
 30
0.0
 11
4.504921259842518
 21
8.170275590551181
 31
0.0
  0
LINE
  5
4114
330
1E
100
AcDbEntity
  8
7
100
AcDbLine
 10
4.504921259842518
 20
8.170275590551181
 30
0.0
 11
4.504921259842518
 21
8.151574803149605
 31
0.0
  0
LINE
  5
4115
330
1E
100
AcDbEntity
  8
7
100
AcDbLine
 10
4.493110236220472
 20
8.13779527559055
 30
0.0
 11
4.49015748031496
 21
8.140748031496062
 31
0.0
  0
LINE
  5
4116
330
1E
100
AcDbEntity
  8
7
100
AcDbLine
 10
4.49015748031496
 20
8.140748031496062
 30
0.0
 11
4.487204724409448
 21
8.14763779527559
 31
0.0
  0
LINE
  5
4117
330
1E
100
AcDbEntity
  8
7
100
AcDbLine
 10
4.487204724409448
 20
8.14763779527559
 30
0.0
 11
4.487204724409448
 21
8.149606299212598
 31
0.0
  0
LINE
  5
4118
330
1E
100
AcDbEntity
  8
7
100
AcDbLine
 10
4.487204724409448
 20
8.149606299212598
 30
0.0
 11
4.48523622047244
 21
8.161417322834642
 31
0.0
  0
LINE
  5
4119
330
1E
100
AcDbEntity
  8
7
100
AcDbLine
 10
4.48523622047244
 20
8.161417322834642
 30
0.0
 11
4.48523622047244
 21
8.164370078740157
 31
0.0
  0
LINE
  5
411A
330
1E
100
AcDbEntity
  8
7
100
AcDbLine
 10
4.48523622047244
 20
8.164370078740157
 30
0.0
 11
4.486220472440942
 21
8.179133858267716
 31
0.0
  0
LINE
  5
411B
330
1E
100
AcDbEntity
  8
7
100
AcDbLine
 10
4.486220472440942
 20
8.179133858267716
 30
0.0
 11
4.487204724409448
 21
8.180118110236218
 31
0.0
  0
LINE
  5
411C
330
1E
100
AcDbEntity
  8
7
100
AcDbLine
 10
4.487204724409448
 20
8.180118110236218
 30
0.0
 11
4.489173228346456
 21
8.187992125984251
 31
0.0
  0
LINE
  5
411D
330
1E
100
AcDbEntity
  8
7
100
AcDbLine
 10
4.489173228346456
 20
8.187992125984251
 30
0.0
 11
4.489173228346456
 21
8.188976377952753
 31
0.0
  0
LINE
  5
411E
330
1E
100
AcDbEntity
  8
7
100
AcDbLine
 10
4.535433070866141
 20
8.190944881889762
 30
0.0
 11
4.535433070866141
 21
8.170275590551181
 31
0.0
  0
LINE
  5
411F
330
1E
100
AcDbEntity
  8
7
100
AcDbLine
 10
4.535433070866141
 20
8.170275590551181
 30
0.0
 11
4.535433070866141
 21
8.151574803149605
 31
0.0
  0
LINE
  5
4120
330
1E
100
AcDbEntity
  8
7
100
AcDbLine
 10
4.535433070866141
 20
8.151574803149605
 30
0.0
 11
4.535433070866141
 21
8.13779527559055
 31
0.0
  0
LINE
  5
4121
330
1E
100
AcDbEntity
  8
7
100
AcDbLine
 10
4.535433070866141
 20
8.13779527559055
 30
0.0
 11
4.535433070866141
 21
8.133858267716535
 31
0.0
  0
LINE
  5
4122
330
1E
100
AcDbEntity
  8
7
100
AcDbLine
 10
4.535433070866141
 20
8.190944881889762
 30
0.0
 11
4.535433070866141
 21
8.198818897637794
 31
0.0
  0
LINE
  5
4123
330
1E
100
AcDbEntity
  8
7
100
AcDbLine
 10
4.535433070866141
 20
8.198818897637794
 30
0.0
 11
4.535433070866141
 21
8.206692913385825
 31
0.0
  0
LINE
  5
4124
330
1E
100
AcDbEntity
  8
7
100
AcDbLine
 10
4.48523622047244
 20
8.492125984251968
 30
0.0
 11
4.488188976377951
 21
8.48523622047244
 31
0.0
  0
LINE
  5
4125
330
1E
100
AcDbEntity
  8
7
100
AcDbLine
 10
4.488188976377951
 20
8.48523622047244
 30
0.0
 11
4.495078740157478
 21
8.475393700787401
 31
0.0
  0
LINE
  5
4126
330
1E
100
AcDbEntity
  8
7
100
AcDbLine
 10
4.495078740157478
 20
8.423228346456692
 30
0.0
 11
4.488188976377951
 21
8.413385826771651
 31
0.0
  0
LINE
  5
4127
330
1E
100
AcDbEntity
  8
7
100
AcDbLine
 10
4.488188976377951
 20
8.413385826771651
 30
0.0
 11
4.48523622047244
 21
8.406496062992124
 31
0.0
  0
LINE
  5
4128
330
1E
100
AcDbEntity
  8
7
100
AcDbLine
 10
4.48523622047244
 20
8.401574803149605
 30
0.0
 11
4.488188976377951
 21
8.398622047244092
 31
0.0
  0
LINE
  5
4129
330
1E
100
AcDbEntity
  8
7
100
AcDbLine
 10
4.488188976377951
 20
8.398622047244092
 30
0.0
 11
4.495078740157478
 21
8.401574803149605
 31
0.0
  0
LINE
  5
412A
330
1E
100
AcDbEntity
  8
7
100
AcDbLine
 10
5.061023622047243
 20
8.19291338582677
 30
0.0
 11
5.061023622047243
 21
8.199803149606298
 31
0.0
  0
LINE
  5
412B
330
1E
100
AcDbEntity
  8
7
100
AcDbLine
 10
5.061023622047243
 20
8.199803149606298
 30
0.0
 11
5.061023622047243
 21
8.206692913385825
 31
0.0
  0
LINE
  5
412C
330
1E
100
AcDbEntity
  8
7
100
AcDbLine
 10
3.979330708661416
 20
9.4753937007874
 30
0.0
 11
3.953740157480313
 21
9.468503937007872
 31
0.0
  0
LINE
  5
412D
330
1E
100
AcDbEntity
  8
7
100
AcDbLine
 10
3.953740157480313
 20
9.468503937007872
 30
0.0
 11
3.936023622047243
 21
9.449803149606296
 31
0.0
  0
LINE
  5
412E
330
1E
100
AcDbEntity
  8
7
100
AcDbLine
 10
3.936023622047243
 20
9.449803149606296
 30
0.0
 11
3.929133858267714
 21
9.4251968503937
 31
0.0
  0
LINE
  5
412F
330
1E
100
AcDbEntity
  8
7
100
AcDbLine
 10
3.929133858267714
 20
9.4251968503937
 30
0.0
 11
3.936023622047243
 21
9.4251968503937
 31
0.0
  0
LINE
  5
4130
330
1E
100
AcDbEntity
  8
7
100
AcDbLine
 10
3.936023622047243
 20
9.4251968503937
 30
0.0
 11
3.954724409448818
 21
9.4251968503937
 31
0.0
  0
LINE
  5
4131
330
1E
100
AcDbEntity
  8
7
100
AcDbLine
 10
3.954724409448818
 20
9.4251968503937
 30
0.0
 11
3.979330708661416
 21
9.4251968503937
 31
0.0
  0
LINE
  5
4132
330
1E
100
AcDbEntity
  8
7
100
AcDbLine
 10
3.929133858267714
 20
8.829724409448818
 30
0.0
 11
3.936023622047243
 21
8.829724409448818
 31
0.0
  0
LINE
  5
4133
330
1E
100
AcDbEntity
  8
7
100
AcDbLine
 10
3.936023622047243
 20
8.829724409448818
 30
0.0
 11
3.954724409448818
 21
8.829724409448818
 31
0.0
  0
LINE
  5
4134
330
1E
100
AcDbEntity
  8
7
100
AcDbLine
 10
3.954724409448818
 20
8.829724409448818
 30
0.0
 11
3.979330708661416
 21
8.829724409448818
 31
0.0
  0
LINE
  5
4135
330
1E
100
AcDbEntity
  8
7
100
AcDbLine
 10
3.929133858267714
 20
8.791338582677164
 30
0.0
 11
3.936023622047243
 21
8.797244094488188
 31
0.0
  0
LINE
  5
4136
330
1E
100
AcDbEntity
  8
7
100
AcDbLine
 10
3.936023622047243
 20
8.797244094488188
 30
0.0
 11
3.954724409448818
 21
8.802165354330707
 31
0.0
  0
LINE
  5
4137
330
1E
100
AcDbEntity
  8
7
100
AcDbLine
 10
3.954724409448818
 20
8.802165354330707
 30
0.0
 11
3.979330708661416
 21
8.804133858267716
 31
0.0
  0
LINE
  5
4138
330
1E
100
AcDbEntity
  8
7
100
AcDbLine
 10
3.933070866141731
 20
7.968503937007874
 30
0.0
 11
3.939960629921258
 21
7.9753937007874
 31
0.0
  0
LINE
  5
4139
330
1E
100
AcDbEntity
  8
7
100
AcDbLine
 10
3.939960629921258
 20
7.9753937007874
 30
0.0
 11
3.95767716535433
 21
7.980314960629919
 31
0.0
  0
LINE
  5
413A
330
1E
100
AcDbEntity
  8
7
100
AcDbLine
 10
3.95767716535433
 20
7.980314960629919
 30
0.0
 11
3.983267716535431
 21
7.981299212598424
 31
0.0
  0
LINE
  5
413B
330
1E
100
AcDbEntity
  8
7
100
AcDbLine
 10
3.932086614173226
 20
7.908464566929133
 30
0.0
 11
3.938976377952755
 21
7.884842519685037
 31
0.0
  0
LINE
  5
413C
330
1E
100
AcDbEntity
  8
7
100
AcDbLine
 10
3.938976377952755
 20
7.884842519685037
 30
0.0
 11
3.95767716535433
 21
7.867125984251967
 31
0.0
  0
LINE
  5
413D
330
1E
100
AcDbEntity
  8
7
100
AcDbLine
 10
3.95767716535433
 20
7.867125984251967
 30
0.0
 11
3.982283464566928
 21
7.861220472440943
 31
0.0
  0
LINE
  5
413E
330
1E
100
AcDbEntity
  8
7
100
AcDbLine
 10
3.929133858267714
 20
7.778543307086612
 30
0.0
 11
3.936023622047243
 21
7.765748031496062
 31
0.0
  0
LINE
  5
413F
330
1E
100
AcDbEntity
  8
7
100
AcDbLine
 10
3.936023622047243
 20
7.765748031496062
 30
0.0
 11
3.954724409448818
 21
7.755905511811024
 31
0.0
  0
LINE
  5
4140
330
1E
100
AcDbEntity
  8
7
100
AcDbLine
 10
3.954724409448818
 20
7.755905511811024
 30
0.0
 11
3.979330708661416
 21
7.752952755905511
 31
0.0
  0
LINE
  5
4141
330
1E
100
AcDbEntity
  8
7
100
AcDbLine
 10
3.929133858267714
 20
7.754921259842517
 30
0.0
 11
3.935039370078738
 21
7.729330708661415
 31
0.0
  0
LINE
  5
4142
330
1E
100
AcDbEntity
  8
7
100
AcDbLine
 10
3.935039370078738
 20
7.729330708661415
 30
0.0
 11
3.953740157480313
 21
7.711614173228346
 31
0.0
  0
LINE
  5
4143
330
1E
100
AcDbEntity
  8
7
100
AcDbLine
 10
3.953740157480313
 20
7.711614173228346
 30
0.0
 11
3.978346456692912
 21
7.704724409448817
 31
0.0
  0
LINE
  5
4144
330
1E
100
AcDbEntity
  8
7
100
AcDbLine
 10
3.928149606299212
 20
9.426181102362203
 30
0.0
 11
3.932086614173226
 21
9.444881889763779
 31
0.0
  0
LINE
  5
4145
330
1E
100
AcDbEntity
  8
7
100
AcDbLine
 10
3.932086614173226
 20
9.444881889763779
 30
0.0
 11
3.942913385826771
 21
9.461614173228346
 31
0.0
  0
LINE
  5
4146
330
1E
100
AcDbEntity
  8
7
100
AcDbLine
 10
3.942913385826771
 20
9.461614173228346
 30
0.0
 11
3.959645669291337
 21
9.472440944881885
 31
0.0
  0
LINE
  5
4147
330
1E
100
AcDbEntity
  8
7
100
AcDbLine
 10
3.959645669291337
 20
9.472440944881885
 30
0.0
 11
3.978346456692912
 21
9.4753937007874
 31
0.0
  0
LINE
  5
4148
330
1E
100
AcDbEntity
  8
7
100
AcDbLine
 10
3.978346456692912
 20
7.703740157480313
 30
0.0
 11
3.959645669291337
 21
7.707677165354329
 31
0.0
  0
LINE
  5
4149
330
1E
100
AcDbEntity
  8
7
100
AcDbLine
 10
3.959645669291337
 20
7.707677165354329
 30
0.0
 11
3.942913385826771
 21
7.718503937007874
 31
0.0
  0
LINE
  5
414A
330
1E
100
AcDbEntity
  8
7
100
AcDbLine
 10
3.942913385826771
 20
7.718503937007874
 30
0.0
 11
3.932086614173226
 21
7.73523622047244
 31
0.0
  0
LINE
  5
414B
330
1E
100
AcDbEntity
  8
7
100
AcDbLine
 10
3.932086614173226
 20
7.73523622047244
 30
0.0
 11
3.928149606299212
 21
7.753937007874013
 31
0.0
  0
LINE
  5
414C
330
1E
100
AcDbEntity
  8
7
100
AcDbLine
 10
5.649606299212597
 20
9.4753937007874
 30
0.0
 11
5.674212598425196
 21
9.468503937007872
 31
0.0
  0
LINE
  5
414D
330
1E
100
AcDbEntity
  8
7
100
AcDbLine
 10
5.674212598425196
 20
9.468503937007872
 30
0.0
 11
5.692913385826771
 21
9.449803149606296
 31
0.0
  0
LINE
  5
414E
330
1E
100
AcDbEntity
  8
7
100
AcDbLine
 10
5.692913385826771
 20
9.449803149606296
 30
0.0
 11
5.699803149606299
 21
9.4251968503937
 31
0.0
  0
LINE
  5
414F
330
1E
100
AcDbEntity
  8
7
100
AcDbLine
 10
5.649606299212597
 20
9.4251968503937
 30
0.0
 11
5.674212598425196
 21
9.4251968503937
 31
0.0
  0
LINE
  5
4150
330
1E
100
AcDbEntity
  8
7
100
AcDbLine
 10
5.674212598425196
 20
9.4251968503937
 30
0.0
 11
5.692913385826771
 21
9.4251968503937
 31
0.0
  0
LINE
  5
4151
330
1E
100
AcDbEntity
  8
7
100
AcDbLine
 10
5.692913385826771
 20
9.4251968503937
 30
0.0
 11
5.699803149606299
 21
9.4251968503937
 31
0.0
  0
LINE
  5
4152
330
1E
100
AcDbEntity
  8
7
100
AcDbLine
 10
5.649606299212597
 20
8.829724409448818
 30
0.0
 11
5.674212598425196
 21
8.829724409448818
 31
0.0
  0
LINE
  5
4153
330
1E
100
AcDbEntity
  8
7
100
AcDbLine
 10
5.674212598425196
 20
8.829724409448818
 30
0.0
 11
5.692913385826771
 21
8.829724409448818
 31
0.0
  0
LINE
  5
4154
330
1E
100
AcDbEntity
  8
7
100
AcDbLine
 10
5.692913385826771
 20
8.829724409448818
 30
0.0
 11
5.699803149606299
 21
8.829724409448818
 31
0.0
  0
LINE
  5
4155
330
1E
100
AcDbEntity
  8
7
100
AcDbLine
 10
5.649606299212597
 20
8.804133858267716
 30
0.0
 11
5.674212598425196
 21
8.802165354330707
 31
0.0
  0
LINE
  5
4156
330
1E
100
AcDbEntity
  8
7
100
AcDbLine
 10
5.674212598425196
 20
8.802165354330707
 30
0.0
 11
5.692913385826771
 21
8.797244094488188
 31
0.0
  0
LINE
  5
4157
330
1E
100
AcDbEntity
  8
7
100
AcDbLine
 10
5.692913385826771
 20
8.797244094488188
 30
0.0
 11
5.699803149606299
 21
8.791338582677164
 31
0.0
  0
LINE
  5
4158
330
1E
100
AcDbEntity
  8
7
100
AcDbLine
 10
5.645669291338582
 20
7.981299212598424
 30
0.0
 11
5.670275590551179
 21
7.980314960629919
 31
0.0
  0
LINE
  5
4159
330
1E
100
AcDbEntity
  8
7
100
AcDbLine
 10
5.670275590551179
 20
7.980314960629919
 30
0.0
 11
5.688976377952754
 21
7.9753937007874
 31
0.0
  0
LINE
  5
415A
330
1E
100
AcDbEntity
  8
7
100
AcDbLine
 10
5.688976377952754
 20
7.9753937007874
 30
0.0
 11
5.695866141732282
 21
7.968503937007874
 31
0.0
  0
LINE
  5
415B
330
1E
100
AcDbEntity
  8
7
100
AcDbLine
 10
5.645669291338582
 20
7.861220472440943
 30
0.0
 11
5.671259842519683
 21
7.867125984251967
 31
0.0
  0
LINE
  5
415C
330
1E
100
AcDbEntity
  8
7
100
AcDbLine
 10
5.671259842519683
 20
7.867125984251967
 30
0.0
 11
5.688976377952754
 21
7.884842519685037
 31
0.0
  0
LINE
  5
415D
330
1E
100
AcDbEntity
  8
7
100
AcDbLine
 10
5.688976377952754
 20
7.884842519685037
 30
0.0
 11
5.695866141732282
 21
7.908464566929133
 31
0.0
  0
LINE
  5
415E
330
1E
100
AcDbEntity
  8
7
100
AcDbLine
 10
5.648622047244093
 20
7.752952755905511
 30
0.0
 11
5.674212598425196
 21
7.755905511811024
 31
0.0
  0
LINE
  5
415F
330
1E
100
AcDbEntity
  8
7
100
AcDbLine
 10
5.674212598425196
 20
7.755905511811024
 30
0.0
 11
5.691929133858266
 21
7.765748031496062
 31
0.0
  0
LINE
  5
4160
330
1E
100
AcDbEntity
  8
7
100
AcDbLine
 10
5.649606299212597
 20
7.704724409448817
 30
0.0
 11
5.674212598425196
 21
7.711614173228346
 31
0.0
  0
LINE
  5
4161
330
1E
100
AcDbEntity
  8
7
100
AcDbLine
 10
5.674212598425196
 20
7.711614173228346
 30
0.0
 11
5.692913385826771
 21
7.729330708661415
 31
0.0
  0
LINE
  5
4162
330
1E
100
AcDbEntity
  8
7
100
AcDbLine
 10
5.692913385826771
 20
7.729330708661415
 30
0.0
 11
5.699803149606299
 21
7.754921259842517
 31
0.0
  0
LINE
  5
4163
330
1E
100
AcDbEntity
  8
7
100
AcDbLine
 10
5.649606299212597
 20
9.4753937007874
 30
0.0
 11
5.669291338582675
 21
9.472440944881885
 31
0.0
  0
LINE
  5
4164
330
1E
100
AcDbEntity
  8
7
100
AcDbLine
 10
5.669291338582675
 20
9.472440944881885
 30
0.0
 11
5.685039370078738
 21
9.461614173228346
 31
0.0
  0
LINE
  5
4165
330
1E
100
AcDbEntity
  8
7
100
AcDbLine
 10
5.685039370078738
 20
9.461614173228346
 30
0.0
 11
5.695866141732282
 21
9.444881889763779
 31
0.0
  0
LINE
  5
4166
330
1E
100
AcDbEntity
  8
7
100
AcDbLine
 10
5.695866141732282
 20
9.444881889763779
 30
0.0
 11
5.699803149606299
 21
9.426181102362203
 31
0.0
  0
LINE
  5
4167
330
1E
100
AcDbEntity
  8
7
100
AcDbLine
 10
5.699803149606299
 20
7.753937007874013
 30
0.0
 11
5.695866141732282
 21
7.73523622047244
 31
0.0
  0
LINE
  5
4168
330
1E
100
AcDbEntity
  8
7
100
AcDbLine
 10
5.695866141732282
 20
7.73523622047244
 30
0.0
 11
5.685039370078738
 21
7.718503937007874
 31
0.0
  0
LINE
  5
4169
330
1E
100
AcDbEntity
  8
7
100
AcDbLine
 10
5.685039370078738
 20
7.718503937007874
 30
0.0
 11
5.669291338582675
 21
7.707677165354329
 31
0.0
  0
LINE
  5
416A
330
1E
100
AcDbEntity
  8
7
100
AcDbLine
 10
5.649606299212597
 20
9.4251968503937
 30
0.0
 11
5.649606299212597
 21
9.449803149606296
 31
0.0
  0
LINE
  5
416B
330
1E
100
AcDbEntity
  8
7
100
AcDbLine
 10
5.649606299212597
 20
9.449803149606296
 30
0.0
 11
5.649606299212597
 21
9.468503937007872
 31
0.0
  0
LINE
  5
416C
330
1E
100
AcDbEntity
  8
7
100
AcDbLine
 10
5.649606299212597
 20
9.468503937007872
 30
0.0
 11
5.649606299212597
 21
9.4753937007874
 31
0.0
  0
LINE
  5
416D
330
1E
100
AcDbEntity
  8
7
100
AcDbLine
 10
3.979330708661416
 20
9.4753937007874
 30
0.0
 11
3.979330708661416
 21
9.468503937007872
 31
0.0
  0
LINE
  5
416E
330
1E
100
AcDbEntity
  8
7
100
AcDbLine
 10
3.979330708661416
 20
9.468503937007872
 30
0.0
 11
3.979330708661416
 21
9.449803149606296
 31
0.0
  0
LINE
  5
416F
330
1E
100
AcDbEntity
  8
7
100
AcDbLine
 10
3.979330708661416
 20
9.449803149606296
 30
0.0
 11
3.979330708661416
 21
9.4251968503937
 31
0.0
  0
LINE
  5
4170
330
1E
100
AcDbEntity
  8
7
100
AcDbLine
 10
5.649606299212597
 20
7.704724409448817
 30
0.0
 11
5.649606299212597
 21
7.707677165354329
 31
0.0
  0
LINE
  5
4171
330
1E
100
AcDbEntity
  8
7
100
AcDbLine
 10
5.649606299212597
 20
7.707677165354329
 30
0.0
 11
5.649606299212597
 21
7.71751968503937
 31
0.0
  0
LINE
  5
4172
330
1E
100
AcDbEntity
  8
7
100
AcDbLine
 10
5.649606299212597
 20
7.71751968503937
 30
0.0
 11
5.649606299212597
 21
7.733267716535432
 31
0.0
  0
LINE
  5
4173
330
1E
100
AcDbEntity
  8
7
100
AcDbLine
 10
5.649606299212597
 20
7.733267716535432
 30
0.0
 11
5.648622047244093
 21
7.752952755905511
 31
0.0
  0
LINE
  5
4174
330
1E
100
AcDbEntity
  8
7
100
AcDbLine
 10
3.979330708661416
 20
7.752952755905511
 30
0.0
 11
3.979330708661416
 21
7.733267716535432
 31
0.0
  0
LINE
  5
4175
330
1E
100
AcDbEntity
  8
7
100
AcDbLine
 10
3.979330708661416
 20
7.733267716535432
 30
0.0
 11
3.979330708661416
 21
7.71751968503937
 31
0.0
  0
LINE
  5
4176
330
1E
100
AcDbEntity
  8
7
100
AcDbLine
 10
3.979330708661416
 20
7.71751968503937
 30
0.0
 11
3.979330708661416
 21
7.707677165354329
 31
0.0
  0
LINE
  5
4177
330
1E
100
AcDbEntity
  8
7
100
AcDbLine
 10
3.979330708661416
 20
7.707677165354329
 30
0.0
 11
3.978346456692912
 21
7.704724409448817
 31
0.0
  0
LINE
  5
4178
330
1E
100
AcDbEntity
  8
7
100
AcDbLine
 10
5.645669291338582
 20
7.861220472440943
 30
0.0
 11
5.645669291338582
 21
7.875
 31
0.0
  0
LINE
  5
4179
330
1E
100
AcDbEntity
  8
7
100
AcDbLine
 10
5.645669291338582
 20
7.875
 30
0.0
 11
5.645669291338582
 21
7.89566929133858
 31
0.0
  0
LINE
  5
417A
330
1E
100
AcDbEntity
  8
7
100
AcDbLine
 10
5.645669291338582
 20
7.89566929133858
 30
0.0
 11
5.645669291338582
 21
7.922244094488188
 31
0.0
  0
LINE
  5
417B
330
1E
100
AcDbEntity
  8
7
100
AcDbLine
 10
5.645669291338582
 20
7.922244094488188
 30
0.0
 11
5.645669291338582
 21
7.951771653543307
 31
0.0
  0
LINE
  5
417C
330
1E
100
AcDbEntity
  8
7
100
AcDbLine
 10
5.645669291338582
 20
7.951771653543307
 30
0.0
 11
5.645669291338582
 21
7.981299212598424
 31
0.0
  0
LINE
  5
417D
330
1E
100
AcDbEntity
  8
7
100
AcDbLine
 10
3.983267716535431
 20
7.981299212598424
 30
0.0
 11
3.983267716535431
 21
7.951771653543307
 31
0.0
  0
LINE
  5
417E
330
1E
100
AcDbEntity
  8
7
100
AcDbLine
 10
3.983267716535431
 20
7.951771653543307
 30
0.0
 11
3.983267716535431
 21
7.922244094488188
 31
0.0
  0
LINE
  5
417F
330
1E
100
AcDbEntity
  8
7
100
AcDbLine
 10
3.983267716535431
 20
7.922244094488188
 30
0.0
 11
3.982283464566928
 21
7.89566929133858
 31
0.0
  0
LINE
  5
4180
330
1E
100
AcDbEntity
  8
7
100
AcDbLine
 10
3.982283464566928
 20
7.89566929133858
 30
0.0
 11
3.982283464566928
 21
7.875
 31
0.0
  0
LINE
  5
4181
330
1E
100
AcDbEntity
  8
7
100
AcDbLine
 10
3.982283464566928
 20
7.875
 30
0.0
 11
3.982283464566928
 21
7.861220472440943
 31
0.0
  0
LINE
  5
4182
330
1E
100
AcDbEntity
  8
7
100
AcDbLine
 10
5.647637795275588
 20
7.818897637795275
 30
0.0
 11
5.646653543307086
 21
7.843503937007874
 31
0.0
  0
LINE
  5
4183
330
1E
100
AcDbEntity
  8
7
100
AcDbLine
 10
5.646653543307086
 20
7.843503937007874
 30
0.0
 11
5.645669291338582
 21
7.861220472440943
 31
0.0
  0
LINE
  5
4184
330
1E
100
AcDbEntity
  8
7
100
AcDbLine
 10
5.645669291338582
 20
7.861220472440943
 30
0.0
 11
3.982283464566928
 21
7.861220472440943
 31
0.0
  0
LINE
  5
4185
330
1E
100
AcDbEntity
  8
7
100
AcDbLine
 10
3.982283464566928
 20
7.861220472440943
 30
0.0
 11
3.981299212598424
 21
7.843503937007874
 31
0.0
  0
LINE
  5
4186
330
1E
100
AcDbEntity
  8
7
100
AcDbLine
 10
3.981299212598424
 20
7.843503937007874
 30
0.0
 11
3.980314960629921
 21
7.818897637795275
 31
0.0
  0
LINE
  5
4187
330
1E
100
AcDbEntity
  8
7
100
AcDbLine
 10
3.980314960629921
 20
7.818897637795275
 30
0.0
 11
3.980314960629921
 21
7.788385826771652
 31
0.0
  0
LINE
  5
4188
330
1E
100
AcDbEntity
  8
7
100
AcDbLine
 10
3.980314960629921
 20
7.788385826771652
 30
0.0
 11
3.979330708661416
 21
7.752952755905511
 31
0.0
  0
LINE
  5
4189
330
1E
100
AcDbEntity
  8
7
100
AcDbLine
 10
3.979330708661416
 20
7.752952755905511
 30
0.0
 11
5.648622047244093
 21
7.752952755905511
 31
0.0
  0
LINE
  5
418A
330
1E
100
AcDbEntity
  8
7
100
AcDbLine
 10
5.648622047244093
 20
7.752952755905511
 30
0.0
 11
5.648622047244093
 21
7.788385826771652
 31
0.0
  0
LINE
  5
418B
330
1E
100
AcDbEntity
  8
7
100
AcDbLine
 10
5.648622047244093
 20
7.788385826771652
 30
0.0
 11
5.647637795275588
 21
7.818897637795275
 31
0.0
  0
LINE
  5
418C
330
1E
100
AcDbEntity
  8
7
100
AcDbLine
 10
5.6003937007874
 20
8.491141732283463
 30
0.0
 11
5.630905511811023
 21
8.491141732283463
 31
0.0
  0
LINE
  5
418D
330
1E
100
AcDbEntity
  8
7
100
AcDbLine
 10
5.630905511811023
 20
8.491141732283463
 30
0.0
 11
5.630905511811023
 21
8.636811023622046
 31
0.0
  0
LINE
  5
418E
330
1E
100
AcDbEntity
  8
7
100
AcDbLine
 10
5.630905511811023
 20
8.636811023622046
 30
0.0
 11
5.6003937007874
 21
8.636811023622046
 31
0.0
  0
LINE
  5
418F
330
1E
100
AcDbEntity
  8
7
100
AcDbLine
 10
4.027559055118109
 20
8.636811023622046
 30
0.0
 11
3.998031496062991
 21
8.636811023622046
 31
0.0
  0
LINE
  5
4190
330
1E
100
AcDbEntity
  8
7
100
AcDbLine
 10
3.998031496062991
 20
8.636811023622046
 30
0.0
 11
3.998031496062991
 21
8.491141732283463
 31
0.0
  0
LINE
  5
4191
330
1E
100
AcDbEntity
  8
7
100
AcDbLine
 10
3.998031496062991
 20
8.491141732283463
 30
0.0
 11
4.027559055118109
 21
8.491141732283463
 31
0.0
  0
LINE
  5
4192
330
1E
100
AcDbEntity
  8
7
100
AcDbLine
 10
5.6003937007874
 20
8.804133858267716
 30
0.0
 11
5.6003937007874
 21
8.816929133858266
 31
0.0
  0
LINE
  5
4193
330
1E
100
AcDbEntity
  8
7
100
AcDbLine
 10
5.6003937007874
 20
8.816929133858266
 30
0.0
 11
5.6003937007874
 21
8.829724409448818
 31
0.0
  0
LINE
  5
4194
330
1E
100
AcDbEntity
  8
7
100
AcDbLine
 10
4.027559055118109
 20
8.829724409448818
 30
0.0
 11
4.027559055118109
 21
8.816929133858266
 31
0.0
  0
LINE
  5
4195
330
1E
100
AcDbEntity
  8
7
100
AcDbLine
 10
4.027559055118109
 20
8.816929133858266
 30
0.0
 11
4.027559055118109
 21
8.804133858267716
 31
0.0
  0
LINE
  5
4196
330
1E
100
AcDbEntity
  8
7
100
AcDbLine
 10
5.6003937007874
 20
7.981299212598424
 30
0.0
 11
5.645669291338582
 21
7.981299212598424
 31
0.0
  0
LINE
  5
4197
330
1E
100
AcDbEntity
  8
7
100
AcDbLine
 10
5.645669291338582
 20
7.981299212598424
 30
0.0
 11
5.649606299212597
 21
8.804133858267716
 31
0.0
  0
LINE
  5
4198
330
1E
100
AcDbEntity
  8
7
100
AcDbLine
 10
5.649606299212597
 20
8.804133858267716
 30
0.0
 11
5.6003937007874
 21
8.804133858267716
 31
0.0
  0
LINE
  5
4199
330
1E
100
AcDbEntity
  8
7
100
AcDbLine
 10
5.699803149606299
 20
8.215551181102361
 30
0.0
 11
5.699803149606299
 21
9.426181102362203
 31
0.0
  0
LINE
  5
419A
330
1E
100
AcDbEntity
  8
7
100
AcDbLine
 10
5.699803149606299
 20
9.426181102362203
 30
0.0
 11
5.699803149606299
 21
9.4251968503937
 31
0.0
  0
LINE
  5
419B
330
1E
100
AcDbEntity
  8
7
100
AcDbLine
 10
5.699803149606299
 20
9.4251968503937
 30
0.0
 11
5.699803149606299
 21
8.829724409448818
 31
0.0
  0
LINE
  5
419C
330
1E
100
AcDbEntity
  8
7
100
AcDbLine
 10
5.699803149606299
 20
8.829724409448818
 30
0.0
 11
5.699803149606299
 21
8.791338582677164
 31
0.0
  0
LINE
  5
419D
330
1E
100
AcDbEntity
  8
7
100
AcDbLine
 10
5.699803149606299
 20
8.791338582677164
 30
0.0
 11
5.695866141732282
 21
7.968503937007874
 31
0.0
  0
LINE
  5
419E
330
1E
100
AcDbEntity
  8
7
100
AcDbLine
 10
5.695866141732282
 20
7.968503937007874
 30
0.0
 11
5.695866141732282
 21
7.949803149606298
 31
0.0
  0
LINE
  5
419F
330
1E
100
AcDbEntity
  8
7
100
AcDbLine
 10
5.695866141732282
 20
7.949803149606298
 30
0.0
 11
5.695866141732282
 21
7.932086614173227
 31
0.0
  0
LINE
  5
41A0
330
1E
100
AcDbEntity
  8
7
100
AcDbLine
 10
5.695866141732282
 20
7.932086614173227
 30
0.0
 11
5.695866141732282
 21
7.917322834645668
 31
0.0
  0
LINE
  5
41A1
330
1E
100
AcDbEntity
  8
7
100
AcDbLine
 10
5.695866141732282
 20
7.917322834645668
 30
0.0
 11
5.695866141732282
 21
7.908464566929133
 31
0.0
  0
LINE
  5
41A2
330
1E
100
AcDbEntity
  8
7
100
AcDbLine
 10
5.695866141732282
 20
7.908464566929133
 30
0.0
 11
5.696850393700787
 21
7.88779527559055
 31
0.0
  0
LINE
  5
41A3
330
1E
100
AcDbEntity
  8
7
100
AcDbLine
 10
5.696850393700787
 20
7.88779527559055
 30
0.0
 11
5.697834645669289
 21
7.858267716535432
 31
0.0
  0
LINE
  5
41A4
330
1E
100
AcDbEntity
  8
7
100
AcDbLine
 10
5.697834645669289
 20
7.858267716535432
 30
0.0
 11
5.698818897637795
 21
7.821850393700787
 31
0.0
  0
LINE
  5
41A5
330
1E
100
AcDbEntity
  8
7
100
AcDbLine
 10
5.698818897637795
 20
7.821850393700787
 30
0.0
 11
5.698818897637795
 21
7.778543307086612
 31
0.0
  0
LINE
  5
41A6
330
1E
100
AcDbEntity
  8
7
100
AcDbLine
 10
5.698818897637795
 20
7.778543307086612
 30
0.0
 11
5.698818897637795
 21
7.765748031496062
 31
0.0
  0
LINE
  5
41A7
330
1E
100
AcDbEntity
  8
7
100
AcDbLine
 10
5.698818897637795
 20
7.765748031496062
 30
0.0
 11
5.699803149606299
 21
7.757874015748031
 31
0.0
  0
LINE
  5
41A8
330
1E
100
AcDbEntity
  8
7
100
AcDbLine
 10
5.699803149606299
 20
7.757874015748031
 30
0.0
 11
5.699803149606299
 21
7.754921259842517
 31
0.0
  0
LINE
  5
41A9
330
1E
100
AcDbEntity
  8
7
100
AcDbLine
 10
5.699803149606299
 20
7.754921259842517
 30
0.0
 11
5.699803149606299
 21
7.753937007874013
 31
0.0
  0
LINE
  5
41AA
330
1E
100
AcDbEntity
  8
7
100
AcDbLine
 10
5.699803149606299
 20
7.753937007874013
 30
0.0
 11
5.699803149606299
 21
8.128937007874013
 31
0.0
  0
LINE
  5
41AB
330
1E
100
AcDbEntity
  8
7
100
AcDbLine
 10
4.353346456692912
 20
9.4753937007874
 30
0.0
 11
3.978346456692912
 21
9.4753937007874
 31
0.0
  0
LINE
  5
41AC
330
1E
100
AcDbEntity
  8
7
100
AcDbLine
 10
3.978346456692912
 20
9.4753937007874
 30
0.0
 11
3.979330708661416
 21
9.4753937007874
 31
0.0
  0
LINE
  5
41AD
330
1E
100
AcDbEntity
  8
7
100
AcDbLine
 10
3.979330708661416
 20
9.4753937007874
 30
0.0
 11
5.649606299212597
 21
9.4753937007874
 31
0.0
  0
LINE
  5
41AE
330
1E
100
AcDbEntity
  8
7
100
AcDbLine
 10
5.649606299212597
 20
9.4753937007874
 30
0.0
 11
5.274606299212597
 21
9.4753937007874
 31
0.0
  0
LINE
  5
41AF
330
1E
100
AcDbEntity
  8
7
100
AcDbLine
 10
3.929133858267714
 20
7.778543307086612
 30
0.0
 11
3.93011811023622
 21
7.821850393700787
 31
0.0
  0
LINE
  5
41B0
330
1E
100
AcDbEntity
  8
7
100
AcDbLine
 10
3.93011811023622
 20
7.821850393700787
 30
0.0
 11
3.931102362204723
 21
7.858267716535432
 31
0.0
  0
LINE
  5
41B1
330
1E
100
AcDbEntity
  8
7
100
AcDbLine
 10
3.931102362204723
 20
7.858267716535432
 30
0.0
 11
3.931102362204723
 21
7.88779527559055
 31
0.0
  0
LINE
  5
41B2
330
1E
100
AcDbEntity
  8
7
100
AcDbLine
 10
3.931102362204723
 20
7.88779527559055
 30
0.0
 11
3.932086614173226
 21
7.908464566929133
 31
0.0
  0
LINE
  5
41B3
330
1E
100
AcDbEntity
  8
7
100
AcDbLine
 10
3.932086614173226
 20
7.908464566929133
 30
0.0
 11
3.933070866141731
 21
7.917322834645668
 31
0.0
  0
LINE
  5
41B4
330
1E
100
AcDbEntity
  8
7
100
AcDbLine
 10
3.933070866141731
 20
7.917322834645668
 30
0.0
 11
3.933070866141731
 21
7.932086614173227
 31
0.0
  0
LINE
  5
41B5
330
1E
100
AcDbEntity
  8
7
100
AcDbLine
 10
3.933070866141731
 20
7.932086614173227
 30
0.0
 11
3.933070866141731
 21
7.949803149606298
 31
0.0
  0
LINE
  5
41B6
330
1E
100
AcDbEntity
  8
7
100
AcDbLine
 10
3.933070866141731
 20
7.949803149606298
 30
0.0
 11
3.933070866141731
 21
7.968503937007874
 31
0.0
  0
LINE
  5
41B7
330
1E
100
AcDbEntity
  8
7
100
AcDbLine
 10
3.933070866141731
 20
7.968503937007874
 30
0.0
 11
3.929133858267714
 21
8.791338582677164
 31
0.0
  0
LINE
  5
41B8
330
1E
100
AcDbEntity
  8
7
100
AcDbLine
 10
3.929133858267714
 20
8.791338582677164
 30
0.0
 11
3.929133858267714
 21
8.829724409448818
 31
0.0
  0
LINE
  5
41B9
330
1E
100
AcDbEntity
  8
7
100
AcDbLine
 10
3.928149606299212
 20
8.128937007874013
 30
0.0
 11
3.928149606299212
 21
7.753937007874013
 31
0.0
  0
LINE
  5
41BA
330
1E
100
AcDbEntity
  8
7
100
AcDbLine
 10
3.928149606299212
 20
7.753937007874013
 30
0.0
 11
3.929133858267714
 21
7.754921259842517
 31
0.0
  0
LINE
  5
41BB
330
1E
100
AcDbEntity
  8
7
100
AcDbLine
 10
3.929133858267714
 20
7.754921259842517
 30
0.0
 11
3.929133858267714
 21
7.757874015748031
 31
0.0
  0
LINE
  5
41BC
330
1E
100
AcDbEntity
  8
7
100
AcDbLine
 10
3.929133858267714
 20
7.757874015748031
 30
0.0
 11
3.929133858267714
 21
7.765748031496062
 31
0.0
  0
LINE
  5
41BD
330
1E
100
AcDbEntity
  8
7
100
AcDbLine
 10
3.929133858267714
 20
7.765748031496062
 30
0.0
 11
3.929133858267714
 21
7.778543307086612
 31
0.0
  0
LINE
  5
41BE
330
1E
100
AcDbEntity
  8
7
100
AcDbLine
 10
3.929133858267714
 20
8.829724409448818
 30
0.0
 11
3.929133858267714
 21
9.4251968503937
 31
0.0
  0
LINE
  5
41BF
330
1E
100
AcDbEntity
  8
7
100
AcDbLine
 10
3.929133858267714
 20
9.4251968503937
 30
0.0
 11
3.928149606299212
 21
9.426181102362203
 31
0.0
  0
LINE
  5
41C0
330
1E
100
AcDbEntity
  8
7
100
AcDbLine
 10
3.928149606299212
 20
9.426181102362203
 30
0.0
 11
3.928149606299212
 21
8.215551181102361
 31
0.0
  0
LINE
  5
41C1
330
1E
100
AcDbEntity
  8
7
100
AcDbLine
 10
4.857283464566927
 20
7.703740157480313
 30
0.0
 11
5.649606299212597
 21
7.703740157480313
 31
0.0
  0
LINE
  5
41C2
330
1E
100
AcDbEntity
  8
7
100
AcDbLine
 10
5.649606299212597
 20
7.703740157480313
 30
0.0
 11
5.649606299212597
 21
7.704724409448817
 31
0.0
  0
LINE
  5
41C3
330
1E
100
AcDbEntity
  8
7
100
AcDbLine
 10
5.649606299212597
 20
7.704724409448817
 30
0.0
 11
3.978346456692912
 21
7.704724409448817
 31
0.0
  0
LINE
  5
41C4
330
1E
100
AcDbEntity
  8
7
100
AcDbLine
 10
3.978346456692912
 20
7.704724409448817
 30
0.0
 11
3.978346456692912
 21
7.703740157480313
 31
0.0
  0
LINE
  5
41C5
330
1E
100
AcDbEntity
  8
7
100
AcDbLine
 10
3.978346456692912
 20
7.703740157480313
 30
0.0
 11
4.771653543307086
 21
7.703740157480313
 31
0.0
  0
LINE
  5
41C6
330
1E
100
AcDbEntity
  8
7
100
AcDbLine
 10
5.6003937007874
 20
8.829724409448818
 30
0.0
 11
5.649606299212597
 21
8.829724409448818
 31
0.0
  0
LINE
  5
41C7
330
1E
100
AcDbEntity
  8
7
100
AcDbLine
 10
5.649606299212597
 20
8.829724409448818
 30
0.0
 11
5.649606299212597
 21
9.4251968503937
 31
0.0
  0
LINE
  5
41C8
330
1E
100
AcDbEntity
  8
7
100
AcDbLine
 10
5.649606299212597
 20
9.4251968503937
 30
0.0
 11
3.979330708661416
 21
9.4251968503937
 31
0.0
  0
LINE
  5
41C9
330
1E
100
AcDbEntity
  8
7
100
AcDbLine
 10
3.979330708661416
 20
9.4251968503937
 30
0.0
 11
3.979330708661416
 21
8.829724409448818
 31
0.0
  0
LINE
  5
41CA
330
1E
100
AcDbEntity
  8
7
100
AcDbLine
 10
3.979330708661416
 20
8.829724409448818
 30
0.0
 11
4.027559055118109
 21
8.829724409448818
 31
0.0
  0
LINE
  5
41CB
330
1E
100
AcDbEntity
  8
7
100
AcDbLine
 10
4.027559055118109
 20
7.981299212598424
 30
0.0
 11
4.027559055118109
 21
7.972440944881887
 31
0.0
  0
LINE
  5
41CC
330
1E
100
AcDbEntity
  8
7
100
AcDbLine
 10
4.027559055118109
 20
7.972440944881887
 30
0.0
 11
4.027559055118109
 21
7.962598425196849
 31
0.0
  0
LINE
  5
41CD
330
1E
100
AcDbEntity
  8
7
100
AcDbLine
 10
5.6003937007874
 20
7.962598425196849
 30
0.0
 11
5.6003937007874
 21
7.972440944881887
 31
0.0
  0
LINE
  5
41CE
330
1E
100
AcDbEntity
  8
7
100
AcDbLine
 10
5.6003937007874
 20
7.972440944881887
 30
0.0
 11
5.6003937007874
 21
7.981299212598424
 31
0.0
  0
LINE
  5
41CF
330
1E
100
AcDbEntity
  8
7
100
AcDbLine
 10
5.6003937007874
 20
7.981299212598424
 30
0.0
 11
5.6003937007874
 21
8.48818897637795
 31
0.0
  0
LINE
  5
41D0
330
1E
100
AcDbEntity
  8
7
100
AcDbLine
 10
5.6003937007874
 20
8.48818897637795
 30
0.0
 11
5.6003937007874
 21
8.491141732283463
 31
0.0
  0
LINE
  5
41D1
330
1E
100
AcDbEntity
  8
7
100
AcDbLine
 10
4.027559055118109
 20
8.804133858267716
 30
0.0
 11
3.979330708661416
 21
8.804133858267716
 31
0.0
  0
LINE
  5
41D2
330
1E
100
AcDbEntity
  8
7
100
AcDbLine
 10
3.979330708661416
 20
8.804133858267716
 30
0.0
 11
3.983267716535431
 21
7.981299212598424
 31
0.0
  0
LINE
  5
41D3
330
1E
100
AcDbEntity
  8
7
100
AcDbLine
 10
3.983267716535431
 20
7.981299212598424
 30
0.0
 11
4.027559055118109
 21
7.981299212598424
 31
0.0
  0
LINE
  5
41D4
330
1E
100
AcDbEntity
  8
7
100
AcDbLine
 10
4.385826771653541
 20
8.674212598425196
 30
0.0
 11
4.405511811023621
 21
8.665354330708661
 31
0.0
  0
LINE
  5
41D5
330
1E
100
AcDbEntity
  8
7
100
AcDbLine
 10
4.405511811023621
 20
8.665354330708661
 30
0.0
 11
4.429133858267714
 21
8.66043307086614
 31
0.0
  0
LINE
  5
41D6
330
1E
100
AcDbEntity
  8
7
100
AcDbLine
 10
4.429133858267714
 20
8.66043307086614
 30
0.0
 11
4.454724409448818
 21
8.658464566929133
 31
0.0
  0
LINE
  5
41D7
330
1E
100
AcDbEntity
  8
7
100
AcDbLine
 10
4.455708661417322
 20
8.523622047244092
 30
0.0
 11
4.458661417322834
 21
8.523622047244092
 31
0.0
  0
LINE
  5
41D8
330
1E
100
AcDbEntity
  8
7
100
AcDbLine
 10
4.458661417322834
 20
8.523622047244092
 30
0.0
 11
4.465551181102362
 21
8.52263779527559
 31
0.0
  0
LINE
  5
41D9
330
1E
100
AcDbEntity
  8
7
100
AcDbLine
 10
4.465551181102362
 20
8.52263779527559
 30
0.0
 11
4.472440944881888
 21
8.519685039370076
 31
0.0
  0
LINE
  5
41DA
330
1E
100
AcDbEntity
  8
7
100
AcDbLine
 10
4.472440944881888
 20
8.519685039370076
 30
0.0
 11
4.477362204724409
 21
8.515748031496062
 31
0.0
  0
LINE
  5
41DB
330
1E
100
AcDbEntity
  8
7
100
AcDbLine
 10
4.477362204724409
 20
8.515748031496062
 30
0.0
 11
4.481299212598424
 21
8.511811023622046
 31
0.0
  0
LINE
  5
41DC
330
1E
100
AcDbEntity
  8
7
100
AcDbLine
 10
4.481299212598424
 20
8.511811023622046
 30
0.0
 11
4.484251968503936
 21
8.506889763779527
 31
0.0
  0
LINE
  5
41DD
330
1E
100
AcDbEntity
  8
7
100
AcDbLine
 10
4.484251968503936
 20
8.506889763779527
 30
0.0
 11
4.48523622047244
 21
8.500984251968503
 31
0.0
  0
LINE
  5
41DE
330
1E
100
AcDbEntity
  8
7
100
AcDbLine
 10
4.344488188976376
 20
8.63779527559055
 30
0.0
 11
4.33759842519685
 21
8.627952755905511
 31
0.0
  0
LINE
  5
41DF
330
1E
100
AcDbEntity
  8
7
100
AcDbLine
 10
4.33759842519685
 20
8.627952755905511
 30
0.0
 11
4.332677165354329
 21
8.618110236220472
 31
0.0
  0
LINE
  5
41E0
330
1E
100
AcDbEntity
  8
7
100
AcDbLine
 10
4.332677165354329
 20
8.618110236220472
 30
0.0
 11
4.329724409448818
 21
8.607283464566927
 31
0.0
  0
LINE
  5
41E1
330
1E
100
AcDbEntity
  8
7
100
AcDbLine
 10
4.329724409448818
 20
8.607283464566927
 30
0.0
 11
4.328740157480313
 21
8.598425196850392
 31
0.0
  0
LINE
  5
41E2
330
1E
100
AcDbEntity
  8
7
100
AcDbLine
 10
4.403543307086613
 20
8.664370078740157
 30
0.0
 11
4.396653543307086
 21
8.664370078740157
 31
0.0
  0
LINE
  5
41E3
330
1E
100
AcDbEntity
  8
7
100
AcDbLine
 10
4.396653543307086
 20
8.664370078740157
 30
0.0
 11
4.384842519685038
 21
8.662401574803148
 31
0.0
  0
LINE
  5
41E4
330
1E
100
AcDbEntity
  8
7
100
AcDbLine
 10
4.384842519685038
 20
8.662401574803148
 30
0.0
 11
4.37303149606299
 21
8.658464566929133
 31
0.0
  0
LINE
  5
41E5
330
1E
100
AcDbEntity
  8
7
100
AcDbLine
 10
4.37303149606299
 20
8.658464566929133
 30
0.0
 11
4.362204724409448
 21
8.652559055118109
 31
0.0
  0
LINE
  5
41E6
330
1E
100
AcDbEntity
  8
7
100
AcDbLine
 10
4.362204724409448
 20
8.652559055118109
 30
0.0
 11
4.352362204724409
 21
8.645669291338581
 31
0.0
  0
LINE
  5
41E7
330
1E
100
AcDbEntity
  8
7
100
AcDbLine
 10
4.352362204724409
 20
8.645669291338581
 30
0.0
 11
4.344488188976376
 21
8.63779527559055
 31
0.0
  0
LINE
  5
41E8
330
1E
100
AcDbEntity
  8
7
100
AcDbLine
 10
4.332677165354329
 20
8.569881889763777
 30
0.0
 11
4.33759842519685
 21
8.560039370078737
 31
0.0
  0
LINE
  5
41E9
330
1E
100
AcDbEntity
  8
7
100
AcDbLine
 10
4.33759842519685
 20
8.560039370078737
 30
0.0
 11
4.344488188976376
 21
8.551181102362201
 31
0.0
  0
LINE
  5
41EA
330
1E
100
AcDbEntity
  8
7
100
AcDbLine
 10
4.344488188976376
 20
8.551181102362201
 30
0.0
 11
4.352362204724409
 21
8.542322834645668
 31
0.0
  0
LINE
  5
41EB
330
1E
100
AcDbEntity
  8
7
100
AcDbLine
 10
4.352362204724409
 20
8.542322834645668
 30
0.0
 11
4.361220472440943
 21
8.53543307086614
 31
0.0
  0
LINE
  5
41EC
330
1E
100
AcDbEntity
  8
7
100
AcDbLine
 10
4.361220472440943
 20
8.53543307086614
 30
0.0
 11
4.372047244094487
 21
8.530511811023622
 31
0.0
  0
LINE
  5
41ED
330
1E
100
AcDbEntity
  8
7
100
AcDbLine
 10
4.372047244094487
 20
8.530511811023622
 30
0.0
 11
4.383858267716535
 21
8.526574803149605
 31
0.0
  0
LINE
  5
41EE
330
1E
100
AcDbEntity
  8
7
100
AcDbLine
 10
4.383858267716535
 20
8.526574803149605
 30
0.0
 11
4.395669291338582
 21
8.524606299212598
 31
0.0
  0
LINE
  5
41EF
330
1E
100
AcDbEntity
  8
7
100
AcDbLine
 10
4.395669291338582
 20
8.524606299212598
 30
0.0
 11
4.403543307086613
 21
8.523622047244092
 31
0.0
  0
LINE
  5
41F0
330
1E
100
AcDbEntity
  8
7
100
AcDbLine
 10
4.328740157480313
 20
8.589566929133857
 30
0.0
 11
4.329724409448818
 21
8.580708661417322
 31
0.0
  0
LINE
  5
41F1
330
1E
100
AcDbEntity
  8
7
100
AcDbLine
 10
4.329724409448818
 20
8.580708661417322
 30
0.0
 11
4.332677165354329
 21
8.569881889763777
 31
0.0
  0
LINE
  5
41F2
330
1E
100
AcDbEntity
  8
7
100
AcDbLine
 10
4.493110236220472
 20
8.13779527559055
 30
0.0
 11
4.499015748031495
 21
8.134842519685037
 31
0.0
  0
LINE
  5
41F3
330
1E
100
AcDbEntity
  8
7
100
AcDbLine
 10
4.499015748031495
 20
8.134842519685037
 30
0.0
 11
4.504921259842518
 21
8.133858267716535
 31
0.0
  0
LINE
  5
41F4
330
1E
100
AcDbEntity
  8
7
100
AcDbLine
 10
5.14271653543307
 20
8.644685039370076
 30
0.0
 11
5.141732283464566
 21
8.652559055118109
 31
0.0
  0
LINE
  5
41F5
330
1E
100
AcDbEntity
  8
7
100
AcDbLine
 10
5.141732283464566
 20
8.652559055118109
 30
0.0
 11
5.136811023622046
 21
8.658464566929133
 31
0.0
  0
ENDSEC
  0
SECTION
  2
OBJECTS
  0
DICTIONARY
  5
C
330
0
100
AcDbDictionary
  3
ACAD_GROUP
350
D
  3
ACAD_LAYOUT
350
19
  3
ACAD_MLINESTYLE
350
16
  3
ACAD_PLOTSETTINGS
350
18
1001
ACAD
1000
TREAT_AS_HARD
1070
     0
  0
DICTIONARY
  5
4376
330
1E
100
AcDbDictionary
  3
ACAD_LAYOUTSELFREF
350
43E0
1001
ACAD
1000
TREAT_AS_HARD
1070
     1
  0
DICTIONARY
  5
4378
330
1A
100
AcDbDictionary
  3
ACAD_LAYOUTSELFREF
350
43DF
1001
ACAD
1000
TREAT_AS_HARD
1070
     1
  0
DICTIONARY
  5
D
102
{ACAD_REACTORS
330
C
102
}
330
C
100
AcDbDictionary
1001
ACAD
1000
TREAT_AS_HARD
1070
     0
  0
DICTIONARY
  5
19
102
{ACAD_REACTORS
330
C
102
}
330
C
100
AcDbDictionary
1001
ACAD
1000
TREAT_AS_HARD
1070
     0
  0
DICTIONARY
  5
16
102
{ACAD_REACTORS
330
C
102
}
330
C
100
AcDbDictionary
  3
STANDARD
350
17
1001
ACAD
1000
TREAT_AS_HARD
1070
     0
  0
DICTIONARY
  5
18
102
{ACAD_REACTORS
330
C
102
}
330
C
100
AcDbDictionary
1001
ACAD
1000
TREAT_AS_HARD
1070
     0
  0
XRECORD
  5
43E0
102
{ACAD_REACTORS
330
4376
102
}
330
4376
100
AcDbXrecord
340
1E
  0
XRECORD
  5
43DF
102
{ACAD_REACTORS
330
4378
102
}
330
4378
100
AcDbXrecord
340
1A
  0
MLINESTYLE
  5
17
102
{ACAD_REACTORS
330
16
102
}
330
16
100
AcDbMlineStyle
  2
STANDARD
 70
     0
  3

 62
   256
 51
90.0
 52
90.0
 71
     2
 49
0.5
 62
   256
  6
BYLAYER
 49
-0.5
 62
   256
  6
BYLAYER
  0
ENDSEC
  0
EOF
